  0
SECTION
  2
HEADER
  9
$ACADVER
  1
AC1014
  9
$INSBASE
 10
0.000000
 20
0.000000
 30
0.0
  9
$VIEWCTR
 10
7.531722
 20
4.5
  9
$VIEWSIZE
 40
9.0
  9
$SNAPMODE
 70
     0
  9
$SNAPUNIT
 10
1.0
 20
1.0
  9
$SNAPBASE
 10
0.0
 20
0.0
  9
$SNAPANG
 50
0.0
  9
$SNAPSTYLE
 70
     0
  9
$SNAPISOPAIR
 70
     0
  9
$GRIDMODE
 70
     0
  9
$GRIDUNIT
 10
0.0
 20
0.0
  9
$ORTHOMODE
 70
     0
  9
$REGENMODE
 70
     1
  9
$FILLMODE
 70
     1
  9
$QTEXTMODE
 70
     0
  9
$DRAGMODE
 70
     2
  9
$LTSCALE
  40
     1.000000
  9
$OSMODE
 70
     0
  9
$ATTMODE
 70
     1
  9
$TEXTSIZE
 40
0.2
  9
$TRACEWID
 40
0.05
  9
$TEXTSTYLE
  7
STANDARD
  9
$CELTYPE
  6
BYLAYER
  9
$CECOLOR
 62
   256
  9
$DIMSCALE
 40
1.0
  9
$DIMASZ
 40
0.18
  9
$DIMEXO
 40
0.0625
  9
$DIMDLI
 40
0.38
  9
$DIMRND
 40
0.0
  9
$DIMDLE
 40
0.0
  9
$DIMEXE
 40
0.18
  9
$DIMTP
 40
0.0
  9
$DIMTM
 40
0.0
  9
$DIMTXT
 40
0.18
  9
$DIMCEN
 40
0.09
  9
$DIMTSZ
 40
0.0
  9
$DIMTOL
 70
     0
  9
$DIMLIM
 70
     0
  9
$DIMTIH
 70
     1
  9
$DIMTOH
 70
     1
  9
$DIMSE1
 70
     0
  9
$DIMSE2
 70
     0
  9
$DIMTAD
 70
     0
  9
$DIMZIN
 70
     0
  9
$DIMBLK
  1

  9
$LUNITS
 70
     2
  9
$LUPREC
 70
     4
  9
$AXISMODE
 70
     0
  9
$AXISUNIT
 10
0.0
 20
0.0
  9
$SKETCHINC
 40
0.1
  9
$FILLETRAD
 40
0.0
  9
$AUNITS
 70
     0
  9
$AUPREC
 70
     0
  9
$MENU
  1
ACAD
  9
$ELEVATION
 40
0.0
  9
$THICKNESS
 40
0.0
  9
$VIEWDIR
 10
0.0
 20
0.0
 30
1.0
  9
$LIMCHECK
 70
     0
  9
$BLIPMODE
 70
     1
  9
$CHAMFERA
 40
0.0
  9
$CHAMFERB
 40
0.0
  9
$FASTZOOM
 70
     1
  9
$SKPOLY
 70
     0
  9
$TDCREATE
 40
0000000.0000000000
  9
$TDUPDATE
 40
0000000.0000000000
  9
$TDINDWG
 40
0.0000000000
  9
$TDUSRTIMER
 40
0.0000000000
  9
$USRTIMER
 70
     1
  9
$ANGBASE
 50
0.0
  9
$ANGDIR
 70
     0
  9
$PDMODE
 70
     0
  9
$PDSIZE
 40
0.0
  9
$PLINEWID
 40
0.0
  9
$COORDS
 70
     0
  9
$USERI1
 70
     0
  9
$USERI2
 70
     0
  9
$USERI3
 70
     0
  9
$USERI4
 70
     0
  9
$USERI5
 70
     0
  9
$USERR1
 40
0.0
  9
$USERR2
 40
0.0
  9
$USERR3
 40
0.0
  9
$USERR4
 40
0.0
  9
$USERR5
 40
0.0
  9
$CLAYER
  8
M0
  9
$EXTMIN
 10
33.333332
 20
33.333332
  9
$EXTMAX
 10
666.66664
 20
949.999962
  9
$LIMMIN
 10
0.0
 20
0.0
  9
$LIMMAX
 10
210.0
 20
297.0
  9
$HANDSEED
  5
5A5
  0
ENDSEC
  0
SECTION
  2
CLASSES
  0
ENDSEC
  0
SECTION
  2
TABLES
  0
TABLE
  2
VPORT
  5
8
100
AcDbSymbolTable
 70
     2
  0
VPORT
  5
14
100
AcDbSymbolTableRecord
100
AcDbViewportTableRecord
  2
*ACTIVE
 70
     0
 10
0.0
 20
0.0
 11
1.0
 21
1.0
 12
484.0
 22
297.0
 13
0.0
 23
0.0
 14
1.0
 24
1.0
 15
0.0
 25
0.0
 16
0.0
 26
0.0
 36
1.0
 17
0.0
 27
0.0
 37
0.0
 40
594.0
 41
2.0
 42
50.0
 43
0.0
 44
0.0
 50
0.0
 51
0.0
 71
     0
 72
   100
 73
     1
 74
     1
 75
     0
 76
     0
 77
     0
 78
     0
  0
ENDTAB
  0
TABLE
  2
LTYPE
  5
5
100
AcDbSymbolTable
 70
     5
  0
LTYPE
  5
15
100
AcDbSymbolTableRecord
100
AcDbLinetypeTableRecord
  2
BYBLOCK
 70
     0
  3

 72
    65
 73
     0
 40
0.0
  0
LTYPE
  5
16
100
AcDbSymbolTableRecord
100
AcDbLinetypeTableRecord
  2
BYLAYER
 70
     0
  3

 72
    65
 73
     0
 40
0.0
  0
LTYPE
  5
17
100
AcDbSymbolTableRecord
100
AcDbLinetypeTableRecord
  2
CONTINUOUS
 70
    64
  3
Solid line
 72
    65
 73
     0
 40
0.0
  0
LTYPE
  5
18
100
AcDbSymbolTableRecord
100
AcDbLinetypeTableRecord
  2
DASHED
 70
    64
  3
__ __ __ __ __ __ __ __ __ __ __ __ __ __ __ __
 72
    65
 73
     2
 40
0.75
 49
0.5
 74
     0
 49
-0.25
 74
     0
  0
LTYPE
  5
19
100
AcDbSymbolTableRecord
100
AcDbLinetypeTableRecord
  2
DASHDOT
 70
    64
  3
__ . __ . __ . __ . __ . __ . __ . __ . __ . __
 72
    65
 73
     4
 40
1.0
 49
0.5
 74
     0
 49
-0.25
 74
     0
 49
0.0
 74
     0
 49
-0.25
 74
     0
  0
LTYPE
  5
1A
100
AcDbSymbolTableRecord
100
AcDbLinetypeTableRecord
  2
DIVIDE
 70
    64
  3
____ . . ____ . . ____ . . ____ . . ____ . . __
 72
    65
 73
     6
 40
1.25
 49
0.5
 74
     0
 49
-0.25
 74
     0
 49
0.0
 74
     0
 49
-0.25
 74
     0
 49
0.0
 74
     0
 49
-0.25
 74
     0
  0
LTYPE
  5
1B
100
AcDbSymbolTableRecord
100
AcDbLinetypeTableRecord
  2
DOT
 70
    64
  3
. . . . . . . . . . . . . . . . . . . . . . . .
 72
    65
 73
     2
 40
0.25
 49
0.0
 74
     0
 49
-0.25
 74
     0
  0
ENDTAB
  0
TABLE
  2
LAYER
  5
2
100
AcDbSymbolTable
 70
   102
  0
LAYER
  5
F
100
AcDbSymbolTableRecord
100
AcDbLayerTableRecord
  2
0
 70
     0
 62
     7
  6
CONTINUOUS
  0
LAYER
  5
1C
100
AcDbSymbolTableRecord
100
AcDbLayerTableRecord
  2
DEFPOINTS
 70
     0
 62
     7
  6
CONTINUOUS
  0
LAYER
  5
1D
100
AcDbSymbolTableRecord
100
AcDbLayerTableRecord
  2
M0
 70
     0
 62
     3
  6
CONTINUOUS
  0
LAYER
  5
1E
100
AcDbSymbolTableRecord
100
AcDbLayerTableRecord
  2
M1
 70
     0
 62
     3
  6
CONTINUOUS
  0
LAYER
  5
1F
100
AcDbSymbolTableRecord
100
AcDbLayerTableRecord
  2
DD0
 70
     0
 62
     4
  6
CONTINUOUS
  0
LAYER
  5
20
100
AcDbSymbolTableRecord
100
AcDbLayerTableRecord
  2
DN0
 70
     0
 62
     2
  6
CONTINUOUS
  0
ENDTAB
  0
TABLE
  2
STYLE
  5
3
100
AcDbSymbolTable
 70
     2
  0
STYLE
  5
10
100
AcDbSymbolTableRecord
100
AcDbTextStyleTableRecord
  2
STANDARD
 70
     0
 40
0.0
 41
1.0
 50
0.0
 71
     0
 42
0.2
  3
txt
  4
BIGFONT
  0
ENDTAB
  0
TABLE
  2
VIEW
  5
6
100
AcDbSymbolTable
 70
     0
  0
ENDTAB
  0
TABLE
  2
UCS
  5
7
100
AcDbSymbolTable
 70
     0
  0
ENDTAB
  0
TABLE
  2
APPID
  5
9
100
AcDbSymbolTable
 70
     1
  0
APPID
  5
11
100
AcDbSymbolTableRecord
100
AcDbRegAppTableRecord
  2
ACAD
 70
     0
  0
ENDTAB
  0
TABLE
  2
DIMSTYLE
  5
A
100
AcDbSymbolTable
 70
     2
  0
DIMSTYLE
105
27
100
AcDbSymbolTableRecord
100
AcDbDimStyleTableRecord
  2
STANDARD
 70
     0
  3

  4

  5

  6
_OPEN
  7
_OPEN
 40
1.0
 41
10.0
 42
1.0
 43
8.0
 44
1.0
 45
0.0
 46
0.0
 47
0.0
 48
0.0
140
10.5
141
0.09
142
0.0
143
0.03937
144
1.0
145
0.0
146
1.0
147
0.6
 71
     0
 72
     0
 73
     1
 74
     1
 75
     0
 76
     0
 77
     3
 78
     8
170
     0
171
     2
172
     0
173
     1
174
     0
175
     0
176
     0
177
     0
178
     0
270
     2
271
     2
272
     4
273
     2
274
     2
340
10
275
     0
280
     0
281
     0
282
     0
283
     1
284
     0
285
     0
286
     0
287
     3
288
     0
  0
DIMSTYLE
105
28
100
AcDbSymbolTableRecord
100
AcDbDimStyleTableRecord
  2
LEADSTYL
 70
     0
  3

  4

  5

  6
_OPEN
  7
_OPEN
 40
1.0
 41
10.0
 42
0.0625
 43
0.38
 44
0.18
 45
0.0
 46
0.0
 47
0.0
 48
0.0
140
10.5
141
0.09
142
0.0
143
25.4
144
1.0
145
0.0
146
1.0
147
0.6
 71
     0
 72
     0
 73
     1
 74
     1
 75
     0
 76
     0
 77
     0
 78
     0
170
     0
171
     2
172
     0
173
     1
174
     0
175
     0
176
     0
177
     0
178
     0
270
     2
271
     4
272
     4
273
     2
274
     2
340
10
275
     0
280
     0
281
     0
282
     0
283
     1
284
     0
285
     0
286
     0
287
     3
288
     0
  0
ENDTAB
  0
TABLE
  2
BLOCK_RECORD
  5
1
100
AcDbSymbolTable
 70
    15
  0
BLOCK_RECORD
  5
21
100
AcDbSymbolTableRecord
100
AcDbBlockTableRecord
  2
*MODEL_SPACE
  0
BLOCK_RECORD
  5
24
100
AcDbSymbolTableRecord
100
AcDbBlockTableRecord
  2
*PAPER_SPACE
  0
BLOCK_RECORD
  5
29
100
AcDbSymbolTableRecord
100
AcDbBlockTableRecord
  2
_NONE
  0
BLOCK_RECORD
  5
2D
100
AcDbSymbolTableRecord
100
AcDbBlockTableRecord
  2
_OPEN
  0
BLOCK_RECORD
  5
33
100
AcDbSymbolTableRecord
100
AcDbBlockTableRecord
  2
_CLOSED
  0
BLOCK_RECORD
  5
3A
100
AcDbSymbolTableRecord
100
AcDbBlockTableRecord
  2
_ORIGIN
  0
BLOCK_RECORD
  5
3F
100
AcDbSymbolTableRecord
100
AcDbBlockTableRecord
  2
_DOT
  0
BLOCK_RECORD
  5
47
100
AcDbSymbolTableRecord
100
AcDbBlockTableRecord
  2
_OBLIQUE
  0
BLOCK_RECORD
  5
4B
100
AcDbSymbolTableRecord
100
AcDbBlockTableRecord
  2
DIMS0
  0
BLOCK_RECORD
  5
57
100
AcDbSymbolTableRecord
100
AcDbBlockTableRecord
  2
DIMS1
  0
BLOCK_RECORD
  5
63
100
AcDbSymbolTableRecord
100
AcDbBlockTableRecord
  2
DIMS2
  0
BLOCK_RECORD
  5
6F
100
AcDbSymbolTableRecord
100
AcDbBlockTableRecord
  2
DIMS3
  0
BLOCK_RECORD
  5
78
100
AcDbSymbolTableRecord
100
AcDbBlockTableRecord
  2
DIMS4
  0
BLOCK_RECORD
  5
84
100
AcDbSymbolTableRecord
100
AcDbBlockTableRecord
  2
DIMS5
  0
BLOCK_RECORD
  5
8E
100
AcDbSymbolTableRecord
100
AcDbBlockTableRecord
  2
DIMS6
  0
BLOCK_RECORD
  5
9A
100
AcDbSymbolTableRecord
100
AcDbBlockTableRecord
  2
DIMS7
  0
BLOCK_RECORD
  5
A6
100
AcDbSymbolTableRecord
100
AcDbBlockTableRecord
  2
DIMS8
  0
ENDTAB
  0
ENDSEC
  0
SECTION
  2
BLOCKS
  0
BLOCK
  5
22
100
AcDbEntity
  8
0
100
AcDbBlockBegin
  2
*MODEL_SPACE
 70
     0
 10
0.0
 20
0.0
 30
0.0
  3
*MODEL_SPACE
  1

  0
ENDBLK
  5
23
100
AcDbEntity
  8
0
100
AcDbBlockEnd
  0
BLOCK
  5
25
100
AcDbEntity
 67
     1
  8
0
100
AcDbBlockBegin
  2
*PAPER_SPACE
 70
     0
 10
0.0
 20
0.0
 30
0.0
  3
*PAPER_SPACE
  1

  0
ENDBLK
  5
26
100
AcDbEntity
 67
     1
  8
0
100
AcDbBlockEnd
  0
BLOCK
  5
2A
100
AcDbEntity
  8
0
100
AcDbBlockBegin
  2
_NONE
 70
     0
 10
0.0
 20
0.0
  0
CIRCLE
  5
2B
100
AcDbEntity
  8
0
 62
     0
100
AcDbCircle
 10
0.0
 20
0.0
 40
0.25
  0
ENDBLK
  5
2C
100
AcDbEntity
  8
0
100
AcDbBlockEnd
  0
BLOCK
  5
2E
100
AcDbEntity
  8
0
100
AcDbBlockBegin
  2
_OPEN
 70
     0
 10
0.0
 20
0.0
  0
LINE
  5
2F
100
AcDbEntity
  8
0
 62
     0
100
AcDbLine
 10
-0.965926
 20
0.258819
 11
0.0
 21
0.0
  0
LINE
  5
30
100
AcDbEntity
  8
0
 62
     0
100
AcDbLine
 10
0.0
 20
0.0
 11
-0.965926
 21
-0.258819
  0
LINE
  5
31
100
AcDbEntity
  8
0
 62
     0
100
AcDbLine
 10
0.0
 20
0.0
 11
-1.0
 21
0.0
  0
ENDBLK
  5
32
100
AcDbEntity
  8
0
100
AcDbBlockEnd
  0
BLOCK
  5
34
100
AcDbEntity
  8
0
100
AcDbBlockBegin
  2
_CLOSED
 70
     0
 10
0.0
 20
0.0
  0
LINE
  5
35
100
AcDbEntity
  8
0
 62
     0
100
AcDbLine
 10
-0.965926
 20
0.258819
 11
0.0
 21
0.0
  0
LINE
  5
36
100
AcDbEntity
  8
0
 62
     0
100
AcDbLine
 10
0.0
 20
0.0
 11
-0.965926
 21
-0.258819
  0
LINE
  5
37
100
AcDbEntity
  8
0
 62
     0
100
AcDbLine
 10
-0.965926
 20
0.258819
 11
-0.965926
 21
-0.258819
  0
LINE
  5
38
100
AcDbEntity
  8
0
 62
     0
100
AcDbLine
 10
0.0
 20
0.0
 11
-1.0
 21
0.0
  0
ENDBLK
  5
39
100
AcDbEntity
  8
0
100
AcDbBlockEnd
  0
BLOCK
  5
3B
100
AcDbEntity
  8
0
100
AcDbBlockBegin
  2
_ORIGIN
 70
     0
 10
0.0
 20
0.0
  0
CIRCLE
  5
3C
100
AcDbEntity
  8
0
 62
     0
100
AcDbCircle
 10
0.0
 20
0.0
 40
0.5
  0
LINE
  5
3D
100
AcDbEntity
  8
0
 62
     0
100
AcDbLine
 10
0.0
 20
0.0
 11
-1.0
 21
0.0
  0
ENDBLK
  5
3E
100
AcDbEntity
  8
0
100
AcDbBlockEnd
  0
BLOCK
  5
40
100
AcDbEntity
  8
0
100
AcDbBlockBegin
  2
_DOT
 70
     0
 10
0.0
 20
0.0
  0
POLYLINE
  5
41
100
AcDbEntity
  8
0
 62
     0
100
AcDb2dPolyline
 66
     1
 70
     1
 40
0.5
 41
0.5
  0
VERTEX
  5
42
100
AcDbEntity
  8
0
 62
     0
100
AcDbVertex
100
AcDb2dVertex
 10
-0.25
 20
0.0
 42
1.0
  0
VERTEX
  5
43
100
AcDbEntity
  8
0
 62
     0
100
AcDbVertex
100
AcDb2dVertex
 10
0.25
 20
0.0
 42
1.0
  0
SEQEND
  5
44
100
AcDbEntity
  8
0
 62
     0
  0
LINE
  5
45
100
AcDbEntity
  8
0
 62
     0
100
AcDbLine
 10
-0.5
 20
0.0
 11
-1.0
 21
0.0
  0
ENDBLK
  5
46
100
AcDbEntity
  8
0
100
AcDbBlockEnd
  0
BLOCK
  5
48
100
AcDbEntity
  8
0
100
AcDbBlockBegin
  2
_OBLIQUE
 70
     0
 10
0.0
 20
0.0
  0
LINE
  5
49
100
AcDbEntity
  8
0
 62
     0
100
AcDbLine
 10
-0.353553
 20
-0.353553
 11
0.353553
 21
0.353553
  0
ENDBLK
  5
4A
100
AcDbEntity
  8
0
100
AcDbBlockEnd
  0
BLOCK
  5
4C
100
AcDbEntity
  8
DD0
100
AcDbBlockBegin
  2
DIMS0
 70
     0
 10
0.0
 20
0.0
  0
LINE
  5
4D
100
AcDbEntity
  8
DD0
100
AcDbLine
 10
360.681901
 20
598.022132
 11
402.764877
 21
598.022132
  0
LINE
  5
4E
100
AcDbEntity
  8
DD0
100
AcDbLine
 10
360.681901
 20
768.021871
 11
402.764877
 21
768.021871
  0
LINE
  5
4F
100
AcDbEntity
  8
DD0
100
AcDbLine
 10
396.843353
 20
607.68139
 11
399.431543
 21
598.022132
  0
LINE
  5
50
100
AcDbEntity
  8
DD0
100
AcDbLine
 10
399.431543
 20
598.022132
 11
402.019734
 21
607.68139
  0
LINE
  5
51
100
AcDbEntity
  8
DD0
100
AcDbLine
 10
402.019734
 20
758.362613
 11
399.431543
 21
768.021871
  0
LINE
  5
52
100
AcDbEntity
  8
DD0
100
AcDbLine
 10
399.431543
 20
768.021871
 11
396.843353
 21
758.362613
  0
LINE
  5
53
100
AcDbEntity
  8
DD0
100
AcDbLine
 10
399.431543
 20
598.022132
 11
399.431543
 21
768.021871
  0
TEXT
  5
54
100
AcDbEntity
  8
DD0
100
AcDbText
 10
397.09822
 20
671.122007
 40
10.5
  1
１７０
 50
90.000003
 41
0.666667
  7
STANDARD
100
AcDbText
  0
ENDBLK
  5
55
100
AcDbEntity
  8
DD0
100
AcDbBlockEnd
  0
BLOCK
  5
58
100
AcDbEntity
  8
DD0
100
AcDbBlockBegin
  2
DIMS1
 70
     0
 10
0.0
 20
0.0
  0
LINE
  5
59
100
AcDbEntity
  8
DD0
100
AcDbLine
 10
122.348564
 20
766.355204
 11
122.348564
 21
797.916177
  0
LINE
  5
5A
100
AcDbEntity
  8
DD0
100
AcDbLine
 10
362.348339
 20
766.355204
 11
362.348339
 21
797.916177
  0
LINE
  5
5B
100
AcDbEntity
  8
DD0
100
AcDbLine
 10
132.007822
 20
797.171034
 11
122.348564
 21
794.582844
  0
LINE
  5
5C
100
AcDbEntity
  8
DD0
100
AcDbLine
 10
122.348564
 20
794.582844
 11
132.007822
 21
791.994654
  0
LINE
  5
5D
100
AcDbEntity
  8
DD0
100
AcDbLine
 10
352.689081
 20
791.994654
 11
362.348339
 21
794.582844
  0
LINE
  5
5E
100
AcDbEntity
  8
DD0
100
AcDbLine
 10
362.348339
 20
794.582844
 11
352.689081
 21
797.171034
  0
LINE
  5
5F
100
AcDbEntity
  8
DD0
100
AcDbLine
 10
122.348564
 20
794.582844
 11
362.348339
 21
794.582844
  0
TEXT
  5
60
100
AcDbEntity
  8
DD0
100
AcDbText
 10
230.448451
 20
796.916167
 40
10.5
  1
２４０
 41
0.666667
  7
STANDARD
100
AcDbText
  0
ENDBLK
  5
61
100
AcDbEntity
  8
DD0
100
AcDbBlockEnd
  0
BLOCK
  5
64
100
AcDbEntity
  8
DD0
100
AcDbBlockBegin
  2
DIMS2
 70
     0
 10
0.0
 20
0.0
  0
LINE
  5
65
100
AcDbEntity
  8
DD0
100
AcDbLine
 10
367.848344
 20
716.355105
 11
367.848344
 21
825.947335
  0
LINE
  5
66
100
AcDbEntity
  8
DD0
100
AcDbLine
 10
116.848776
 20
716.35485
 11
116.848776
 21
825.947335
  0
LINE
  5
67
100
AcDbEntity
  8
DD0
100
AcDbLine
 10
358.189086
 20
820.025811
 11
367.848344
 21
822.614001
  0
LINE
  5
68
100
AcDbEntity
  8
DD0
100
AcDbLine
 10
367.848344
 20
822.614001
 11
358.189086
 21
825.202192
  0
LINE
  5
69
100
AcDbEntity
  8
DD0
100
AcDbLine
 10
126.508034
 20
825.202192
 11
116.848776
 21
822.614001
  0
LINE
  5
6A
100
AcDbEntity
  8
DD0
100
AcDbLine
 10
116.848776
 20
822.614001
 11
126.508034
 21
820.025811
  0
LINE
  5
6B
100
AcDbEntity
  8
DD0
100
AcDbLine
 10
367.848344
 20
822.614001
 11
116.848776
 21
822.614001
  0
TEXT
  5
6C
100
AcDbEntity
  8
DD0
100
AcDbText
 10
163.248569
 20
824.947324
 40
10.5
  1
２４３（追加補助接点ユニット付の場合）
 41
0.666667
  7
STANDARD
100
AcDbText
  0
ENDBLK
  5
6D
100
AcDbEntity
  8
DD0
100
AcDbBlockEnd
  0
BLOCK
  5
70
100
AcDbEntity
  8
DD0
100
AcDbBlockBegin
  2
DIMS3
 70
     0
 10
0.0
 20
0.0
  0
TEXT
  5
71
100
AcDbEntity
  8
DD0
100
AcDbText
 10
272.859618
 20
296.248564
 40
10.5
  1
３－Ｍ６ねじ穴
 41
0.666667
  7
STANDARD
100
AcDbText
  0
LINE
  5
72
100
AcDbEntity
  8
DD0
100
AcDbLine
 10
253.827766
 20
322.180387
 11
246.444158
 21
328.924446
  0
LINE
  5
73
100
AcDbEntity
  8
DD0
100
AcDbLine
 10
246.444158
 20
328.924446
 11
249.466521
 21
319.392116
  0
LINE
  5
74
100
AcDbEntity
  8
DD0
100
AcDbLine
 10
246.444158
 20
328.924446
 11
268.826436
 21
293.915444
  0
LINE
  5
75
100
AcDbEntity
  8
DD0
100
AcDbLine
 10
268.826487
 20
293.915495
 11
334.293149
 21
293.915394
  0
ENDBLK
  5
76
100
AcDbEntity
  8
DD0
100
AcDbBlockEnd
  0
BLOCK
  5
79
100
AcDbEntity
  8
DD0
100
AcDbBlockBegin
  2
DIMS4
 70
     0
 10
0.0
 20
0.0
  0
LINE
  5
7A
100
AcDbEntity
  8
DD0
100
AcDbLine
 10
365.681901
 20
493.309205
 11
402.764877
 21
493.309205
  0
LINE
  5
7B
100
AcDbEntity
  8
DD0
100
AcDbLine
 10
380.904068
 20
483.308951
 11
402.764877
 21
483.308951
  0
LINE
  5
7C
100
AcDbEntity
  8
DD0
100
AcDbLine
 10
396.843353
 20
502.968463
 11
399.431543
 21
493.309205
  0
LINE
  5
7D
100
AcDbEntity
  8
DD0
100
AcDbLine
 10
399.431543
 20
493.309205
 11
402.019734
 21
502.968463
  0
LINE
  5
7E
100
AcDbEntity
  8
DD0
100
AcDbLine
 10
402.019734
 20
473.649693
 11
399.431543
 21
483.308951
  0
LINE
  5
7F
100
AcDbEntity
  8
DD0
100
AcDbLine
 10
399.431543
 20
483.308951
 11
396.843353
 21
473.649693
  0
LINE
  5
80
100
AcDbEntity
  8
DD0
100
AcDbLine
 10
399.431543
 20
524.442537
 11
399.431543
 21
472.308952
  0
TEXT
  5
81
100
AcDbEntity
  8
DD0
100
AcDbText
 10
397.09822
 20
505.00919
 40
10.5
  1
１０
 50
90.000003
 41
0.666667
  7
STANDARD
100
AcDbText
  0
ENDBLK
  5
82
100
AcDbEntity
  8
DD0
100
AcDbBlockEnd
  0
BLOCK
  5
85
100
AcDbEntity
  8
DD0
100
AcDbBlockBegin
  2
DIMS5
 70
     0
 10
0.0
 20
0.0
  0
LINE
  5
86
100
AcDbEntity
  8
DD0
 60
     1
100
AcDbLine
 10
380.904068
 20
483.308951
 11
402.764877
 21
483.308951
  0
LINE
  5
87
100
AcDbEntity
  8
DD0
100
AcDbLine
 10
270.904072
 20
333.309211
 11
402.764877
 21
333.309211
  0
LINE
  5
88
100
AcDbEntity
  8
DD0
100
AcDbLine
 10
396.843353
 20
342.968469
 11
399.431543
 21
333.309211
  0
LINE
  5
89
100
AcDbEntity
  8
DD0
100
AcDbLine
 10
399.431543
 20
333.309211
 11
402.019734
 21
342.968469
  0
LINE
  5
8A
100
AcDbEntity
  8
DD0
100
AcDbLine
 10
399.431543
 20
483.308951
 11
399.431543
 21
333.309211
  0
TEXT
  5
8B
100
AcDbEntity
  8
DD0
100
AcDbText
 10
397.09822
 20
396.409087
 40
10.5
  1
１５０
 50
90.000003
 41
0.666667
  7
STANDARD
100
AcDbText
  0
ENDBLK
  5
8C
100
AcDbEntity
  8
DD0
100
AcDbBlockEnd
  0
BLOCK
  5
8F
100
AcDbEntity
  8
DD0
100
AcDbBlockBegin
  2
DIMS6
 70
     0
 10
0.0
 20
0.0
  0
LINE
  5
90
100
AcDbEntity
  8
DD0
100
AcDbLine
 10
132.348577
 20
511.864502
 11
132.348577
 21
542.031279
  0
LINE
  5
91
100
AcDbEntity
  8
DD0
100
AcDbLine
 10
352.348568
 20
511.864502
 11
352.348568
 21
542.031279
  0
LINE
  5
92
100
AcDbEntity
  8
DD0
100
AcDbLine
 10
142.007835
 20
541.286137
 11
132.348577
 21
538.697946
  0
LINE
  5
93
100
AcDbEntity
  8
DD0
100
AcDbLine
 10
132.348577
 20
538.697946
 11
142.007835
 21
536.109756
  0
LINE
  5
94
100
AcDbEntity
  8
DD0
100
AcDbLine
 10
342.68931
 20
536.109756
 11
352.348568
 21
538.697946
  0
LINE
  5
95
100
AcDbEntity
  8
DD0
100
AcDbLine
 10
352.348568
 20
538.697946
 11
342.68931
 21
541.286137
  0
LINE
  5
96
100
AcDbEntity
  8
DD0
100
AcDbLine
 10
132.348577
 20
538.697946
 11
352.348568
 21
538.697946
  0
TEXT
  5
97
100
AcDbEntity
  8
DD0
100
AcDbText
 10
230.448578
 20
541.031269
 40
10.5
  1
２２０
 41
0.666667
  7
STANDARD
100
AcDbText
  0
ENDBLK
  5
98
100
AcDbEntity
  8
DD0
100
AcDbBlockEnd
  0
BLOCK
  5
9B
100
AcDbEntity
  8
DD0
100
AcDbBlockBegin
  2
DIMS7
 70
     0
 10
0.0
 20
0.0
  0
LINE
  5
9C
100
AcDbEntity
  8
DD0
100
AcDbLine
 10
592.47012
 20
771.355255
 11
592.47012
 21
826.428546
  0
LINE
  5
9D
100
AcDbEntity
  8
DD0
100
AcDbLine
 10
432.870161
 20
733.354768
 11
432.870161
 21
826.428546
  0
LINE
  5
9E
100
AcDbEntity
  8
DD0
100
AcDbLine
 10
582.810862
 20
820.507022
 11
592.47012
 21
823.095213
  0
LINE
  5
9F
100
AcDbEntity
  8
DD0
100
AcDbLine
 10
592.47012
 20
823.095213
 11
582.810862
 21
825.683403
  0
LINE
  5
A0
100
AcDbEntity
  8
DD0
100
AcDbLine
 10
442.529419
 20
825.683403
 11
432.870161
 21
823.095213
  0
LINE
  5
A1
100
AcDbEntity
  8
DD0
100
AcDbLine
 10
432.870161
 20
823.095213
 11
442.529419
 21
820.507022
  0
LINE
  5
A2
100
AcDbEntity
  8
DD0
100
AcDbLine
 10
592.47012
 20
823.095213
 11
432.870161
 21
823.095213
  0
TEXT
  5
A3
100
AcDbEntity
  8
DD0
100
AcDbText
 10
497.778484
 20
825.095233
 40
10.5
  1
１６０
 41
0.833333
  7
STANDARD
100
AcDbText
  0
ENDBLK
  5
A4
100
AcDbEntity
  8
DD0
100
AcDbBlockEnd
  0
BLOCK
  5
A7
100
AcDbEntity
  8
DD0
100
AcDbBlockBegin
  2
DIMS8
 70
     0
 10
0.0
 20
0.0
  0
LINE
  5
A8
100
AcDbEntity
  8
DD0
100
AcDbLine
 10
590.870287
 20
771.355255
 11
590.870287
 21
798.397389
  0
LINE
  5
A9
100
AcDbEntity
  8
DD0
100
AcDbLine
 10
592.47012
 20
771.355255
 11
592.47012
 21
798.397389
  0
LINE
  5
AA
100
AcDbEntity
  8
DD0
100
AcDbLine
 10
581.211029
 20
792.475865
 11
590.870287
 21
795.064055
  0
LINE
  5
AB
100
AcDbEntity
  8
DD0
100
AcDbLine
 10
590.870287
 20
795.064055
 11
581.211029
 21
797.652246
  0
LINE
  5
AC
100
AcDbEntity
  8
DD0
100
AcDbLine
 10
602.129378
 20
797.652246
 11
592.47012
 21
795.064055
  0
LINE
  5
AD
100
AcDbEntity
  8
DD0
100
AcDbLine
 10
592.47012
 20
795.064055
 11
602.129378
 21
792.475865
  0
LINE
  5
AE
100
AcDbEntity
  8
DD0
100
AcDbLine
 10
579.870288
 20
795.064055
 11
638.303455
 21
795.064055
  0
TEXT
  5
AF
100
AcDbEntity
  8
DD0
100
AcDbText
 10
604.328467
 20
797.064076
 40
10.5
  1
１．６
 41
0.833333
  7
STANDARD
100
AcDbText
  0
ENDBLK
  5
B0
100
AcDbEntity
  8
DD0
100
AcDbBlockEnd
  0
ENDSEC
  0
SECTION
  2
ENTITIES
  0
INSERT
  5
56
100
AcDbEntity
  8
DD0
100
AcDbBlockReference
  2
DIMS0
 10
0.0
 20
0.0
  0
INSERT
  5
62
100
AcDbEntity
  8
DD0
100
AcDbBlockReference
  2
DIMS1
 10
0.0
 20
0.0
  0
INSERT
  5
6E
100
AcDbEntity
  8
DD0
100
AcDbBlockReference
  2
DIMS2
 10
0.0
 20
0.0
  0
INSERT
  5
77
100
AcDbEntity
  8
DD0
100
AcDbBlockReference
  2
DIMS3
 10
0.0
 20
0.0
  0
INSERT
  5
83
100
AcDbEntity
  8
DD0
100
AcDbBlockReference
  2
DIMS4
 10
0.0
 20
0.0
  0
INSERT
  5
8D
100
AcDbEntity
  8
DD0
100
AcDbBlockReference
  2
DIMS5
 10
0.0
 20
0.0
  0
INSERT
  5
99
100
AcDbEntity
  8
DD0
100
AcDbBlockReference
  2
DIMS6
 10
0.0
 20
0.0
  0
INSERT
  5
A5
100
AcDbEntity
  8
DD0
100
AcDbBlockReference
  2
DIMS7
 10
0.0
 20
0.0
  0
INSERT
  5
B1
100
AcDbEntity
  8
DD0
100
AcDbBlockReference
  2
DIMS8
 10
0.0
 20
0.0
  0
LINE
  5
B2
100
AcDbEntity
  8
M0
 62
   194
100
AcDbLine
 10
233.098548
 20
655.771414
 11
233.098548
 21
669.771414
  0
LINE
  5
B3
100
AcDbEntity
  8
M0
 62
   194
100
AcDbLine
 10
251.598502
 20
655.771414
 11
251.598502
 21
692.771414
  0
LINE
  5
B4
100
AcDbEntity
  8
M0
 62
   194
100
AcDbLine
 10
233.098548
 20
703.271658
 11
233.098548
 21
710.271414
  0
LINE
  5
B5
100
AcDbEntity
  8
M0
 62
   194
100
AcDbLine
 10
233.098822
 20
710.271414
 11
251.598502
 21
710.271414
  0
LINE
  5
B6
100
AcDbEntity
  8
M0
 62
   194
100
AcDbLine
 10
233.098304
 20
655.771414
 11
251.598502
 21
655.771414
  0
LINE
  5
B7
100
AcDbEntity
  8
M0
 62
   194
100
AcDbLine
 10
244.098548
 20
696.271414
 11
251.598502
 21
696.271414
  0
LINE
  5
B8
100
AcDbEntity
  8
M0
 62
   194
100
AcDbLine
 10
233.098304
 20
669.771414
 11
240.598502
 21
669.771414
  0
LINE
  5
B9
100
AcDbEntity
  8
M0
 62
   194
100
AcDbLine
 10
233.098822
 20
684.271414
 11
244.098548
 21
684.271414
  0
LINE
  5
BA
100
AcDbEntity
  8
M0
 62
   194
100
AcDbLine
 10
240.598502
 20
681.771414
 11
251.598502
 21
681.771414
  0
LINE
  5
BB
100
AcDbEntity
  8
M0
 62
   194
100
AcDbLine
 10
244.098548
 20
684.271414
 11
244.098548
 21
703.271414
  0
LINE
  5
BC
100
AcDbEntity
  8
M0
 62
   194
100
AcDbLine
 10
240.598502
 20
662.771414
 11
240.598502
 21
681.771414
  0
LINE
  5
BD
100
AcDbEntity
  8
M0
 62
   194
100
AcDbLine
 10
238.098548
 20
673.271414
 11
238.098548
 21
684.271414
  0
LINE
  5
BE
100
AcDbEntity
  8
M0
 62
   194
100
AcDbLine
 10
246.598502
 20
681.771414
 11
246.598502
 21
692.771414
  0
LINE
  5
BF
100
AcDbEntity
  8
M0
 62
   194
100
AcDbLine
 10
233.098822
 20
673.271414
 11
238.098548
 21
673.271414
  0
LINE
  5
C0
100
AcDbEntity
  8
M0
 62
   194
100
AcDbLine
 10
246.598502
 20
692.771414
 11
251.598502
 21
692.771414
  0
LINE
  5
C1
100
AcDbEntity
  8
M0
 62
   194
100
AcDbLine
 10
233.098548
 20
673.271414
 11
233.098548
 21
710.271414
  0
LINE
  5
C2
100
AcDbEntity
  8
M0
 62
   194
100
AcDbLine
 10
251.598502
 20
696.271414
 11
251.598502
 21
710.271414
  0
LINE
  5
C3
100
AcDbEntity
  8
M0
 62
   234
100
AcDbLine
 10
127.348578
 20
598.022116
 11
357.348578
 21
598.022116
  0
LINE
  5
C4
100
AcDbEntity
  8
M0
 62
   234
100
AcDbLine
 10
362.348578
 20
603.021872
 11
362.348334
 21
763.021872
  0
LINE
  5
C5
100
AcDbEntity
  8
M0
 62
   234
100
AcDbLine
 10
357.348578
 20
768.021872
 11
127.348563
 21
768.021628
  0
LINE
  5
C6
100
AcDbEntity
  8
M0
 62
   234
100
AcDbLine
 10
122.348563
 20
763.021872
 11
122.348578
 21
603.021872
  0
LINE
  5
C7
100
AcDbEntity
  8
M0
  6
DASHDOT
 62
   234
100
AcDbLine
 10
242.348578
 20
588.63179
 11
242.348578
 21
779.399302
  0
LINE
  5
C8
100
AcDbEntity
  8
M0
 62
   234
100
AcDbLine
 10
232.348578
 20
598.022116
 11
232.348578
 21
608.022116
  0
LINE
  5
C9
100
AcDbEntity
  8
M0
 62
   234
100
AcDbLine
 10
252.348578
 20
598.022116
 11
252.348578
 21
608.021872
  0
LINE
  5
CA
100
AcDbEntity
  8
M0
 62
   234
100
AcDbLine
 10
127.348578
 20
598.022116
 11
122.348578
 21
603.021872
  0
LINE
  5
CB
100
AcDbEntity
  8
M0
 62
   234
100
AcDbLine
 10
122.348563
 20
763.021872
 11
127.348563
 21
768.021628
  0
LINE
  5
CC
100
AcDbEntity
  8
M0
 62
   234
100
AcDbLine
 10
357.348578
 20
768.021872
 11
362.348334
 21
763.021872
  0
LINE
  5
CD
100
AcDbEntity
  8
M0
 62
   234
100
AcDbLine
 10
362.348578
 20
603.021872
 11
357.348578
 21
598.022116
  0
LINE
  5
CE
100
AcDbEntity
  8
M0
 62
   234
100
AcDbLine
 10
362.348578
 20
748.021628
 11
344.848822
 21
748.021383
  0
CIRCLE
  5
CF
100
AcDbEntity
  8
M0
 62
   234
100
AcDbCircle
 10
352.348578
 20
758.022116
 40
3.499998
  0
CIRCLE
  5
D0
100
AcDbEntity
  8
M0
 62
   234
100
AcDbCircle
 10
352.348578
 20
608.022116
 40
3.499998
  0
LINE
  5
D1
100
AcDbEntity
  8
M0
 62
   234
100
AcDbLine
 10
342.348578
 20
598.022116
 11
342.348578
 21
608.022116
  0
LINE
  5
D2
100
AcDbEntity
  8
M0
 62
   234
100
AcDbLine
 10
352.348578
 20
618.022116
 11
362.348578
 21
618.022116
  0
ARC
  5
D3
100
AcDbEntity
  8
M0
 62
   234
100
AcDbCircle
 10
352.348578
 20
608.022116
 40
9.99999
100
AcDbArc
 50
90.0
 51
180.0
  0
CIRCLE
  5
D4
100
AcDbEntity
  8
M0
 62
   234
100
AcDbCircle
 10
132.348578
 20
608.022116
 40
3.499998
  0
LINE
  5
D5
100
AcDbEntity
  8
M0
 62
   234
100
AcDbLine
 10
142.348578
 20
598.022116
 11
142.348578
 21
608.021872
  0
LINE
  5
D6
100
AcDbEntity
  8
M0
 62
   234
100
AcDbLine
 10
122.348578
 20
618.022116
 11
132.348578
 21
618.022116
  0
ARC
  5
D7
100
AcDbEntity
  8
M0
 62
   234
100
AcDbCircle
 10
132.348578
 20
608.022116
 40
9.99999
100
AcDbArc
 50
0.0
 51
90.0
  0
CIRCLE
  5
D8
100
AcDbEntity
  8
M0
 62
   234
100
AcDbCircle
 10
132.348578
 20
758.022116
 40
3.499998
  0
CIRCLE
  5
D9
100
AcDbEntity
  8
M0
 62
   234
100
AcDbCircle
 10
242.348578
 20
608.022116
 40
3.499998
  0
ARC
  5
DA
100
AcDbEntity
  8
M0
 62
   234
100
AcDbCircle
 10
242.348578
 20
608.022116
 40
9.99999
100
AcDbArc
 50
0.0
 51
180.0
  0
LINE
  5
DB
100
AcDbEntity
  8
M0
 62
   234
100
AcDbLine
 10
139.847846
 20
748.021383
 11
122.348563
 21
748.021628
  0
LINE
  5
DC
100
AcDbEntity
  8
M0
 62
   234
100
AcDbLine
 10
172.848334
 20
748.021383
 11
159.847846
 21
748.021383
  0
LINE
  5
DD
100
AcDbEntity
  8
M0
 62
   234
100
AcDbLine
 10
205.847846
 20
748.021383
 11
192.848334
 21
748.021383
  0
LINE
  5
DE
100
AcDbEntity
  8
M0
 62
   234
100
AcDbLine
 10
258.848578
 20
748.021383
 11
225.847846
 21
748.021383
  0
LINE
  5
DF
100
AcDbEntity
  8
M0
 62
   234
100
AcDbLine
 10
291.848822
 20
748.021383
 11
278.848578
 21
748.021383
  0
LINE
  5
E0
100
AcDbEntity
  8
M0
 62
   234
100
AcDbLine
 10
324.848822
 20
748.021383
 11
311.848822
 21
748.021383
  0
LINE
  5
E1
100
AcDbEntity
  8
M0
  6
DASHDOT
 62
   234
100
AcDbLine
 10
120.848578
 20
758.022116
 11
143.848563
 21
758.022116
  0
LINE
  5
E2
100
AcDbEntity
  8
M0
  6
DASHDOT
 62
   234
100
AcDbLine
 10
132.348578
 20
746.522116
 11
132.348578
 21
769.522101
  0
LINE
  5
E3
100
AcDbEntity
  8
M0
  6
DASHDOT
 62
   234
100
AcDbLine
 10
120.848578
 20
608.022116
 11
143.848563
 21
608.022116
  0
LINE
  5
E4
100
AcDbEntity
  8
M0
  6
DASHDOT
 62
   234
100
AcDbLine
 10
132.348578
 20
596.522116
 11
132.348578
 21
619.522101
  0
LINE
  5
E5
100
AcDbEntity
  8
M0
  6
DASHDOT
 62
   234
100
AcDbLine
 10
230.848578
 20
608.022116
 11
253.848563
 21
608.022116
  0
LINE
  5
E6
100
AcDbEntity
  8
M0
  6
DASHDOT
 62
   234
100
AcDbLine
 10
340.848578
 20
608.022116
 11
363.848334
 21
608.022116
  0
LINE
  5
E7
100
AcDbEntity
  8
M0
  6
DASHDOT
 62
   234
100
AcDbLine
 10
352.348578
 20
596.522116
 11
352.348578
 21
619.522101
  0
LINE
  5
E8
100
AcDbEntity
  8
M0
  6
DASHDOT
 62
   234
100
AcDbLine
 10
340.848578
 20
758.022116
 11
363.848334
 21
758.022116
  0
LINE
  5
E9
100
AcDbEntity
  8
M0
  6
DASHDOT
 62
   234
100
AcDbLine
 10
352.348578
 20
746.522116
 11
352.348578
 21
769.522101
  0
LINE
  5
EA
100
AcDbEntity
  8
M0
 62
   234
100
AcDbLine
 10
590.870325
 20
598.021902
 11
592.470325
 21
598.021902
  0
LINE
  5
EB
100
AcDbEntity
  8
M0
 62
   234
100
AcDbLine
 10
592.47013
 20
598.021902
 11
592.47013
 21
617.021658
  0
LINE
  5
EC
100
AcDbEntity
  8
M0
 62
   234
100
AcDbLine
 10
592.470325
 20
768.021902
 11
590.870325
 21
768.021902
  0
LINE
  5
ED
100
AcDbEntity
  8
M0
 62
   234
100
AcDbLine
 10
590.870276
 20
768.021902
 11
590.870276
 21
749.021902
  0
LINE
  5
EE
100
AcDbEntity
  8
M0
  6
DASHDOT
 62
   234
100
AcDbLine
 10
586.370032
 20
683.021902
 11
614.692542
 21
683.021902
  0
LINE
  5
EF
100
AcDbEntity
  8
M0
 62
   234
100
AcDbLine
 10
587.97013
 20
620.621756
 11
587.97013
 21
745.421805
  0
LINE
  5
F0
100
AcDbEntity
  8
M0
 62
   234
100
AcDbLine
 10
586.370032
 20
620.621756
 11
586.370032
 21
745.421805
  0
LINE
  5
F1
100
AcDbEntity
  8
M0
 62
   234
100
AcDbLine
 10
588.969886
 20
748.021902
 11
589.870276
 21
748.021902
  0
LINE
  5
F2
100
AcDbEntity
  8
M0
 62
   234
100
AcDbLine
 10
588.969886
 20
618.021902
 11
589.870276
 21
618.021902
  0
LINE
  5
F3
100
AcDbEntity
  8
M0
 62
   234
100
AcDbLine
 10
588.97013
 20
746.421805
 11
589.870032
 21
746.421805
  0
LINE
  5
F4
100
AcDbEntity
  8
M0
 62
   234
100
AcDbLine
 10
588.97013
 20
619.621756
 11
589.870032
 21
619.621756
  0
LINE
  5
F5
100
AcDbEntity
  8
M0
 62
   234
100
AcDbLine
 10
590.870276
 20
617.021902
 11
590.870276
 21
598.021902
  0
LINE
  5
F6
100
AcDbEntity
  8
M0
 62
   234
100
AcDbLine
 10
592.47013
 20
749.021414
 11
592.47013
 21
768.021902
  0
ARC
  5
F7
100
AcDbEntity
  8
M0
 62
   234
100
AcDbCircle
 10
588.97013
 20
745.421805
 40
1.0
100
AcDbArc
 50
90.0
 51
180.0
  0
ARC
  5
F8
100
AcDbEntity
  8
M0
 62
   234
100
AcDbCircle
 10
589.870276
 20
749.021902
 40
1.0
100
AcDbArc
 50
270.0
 51
360.0
  0
ARC
  5
F9
100
AcDbEntity
  8
M0
 62
   234
100
AcDbCircle
 10
588.97013
 20
620.621756
 40
1.0
100
AcDbArc
 50
179.999126
 51
270.0
  0
ARC
  5
FA
100
AcDbEntity
  8
M0
 62
   234
100
AcDbCircle
 10
589.870276
 20
617.021902
 40
1.0
100
AcDbArc
 50
0.0
 51
90.0
  0
ARC
  5
FB
100
AcDbEntity
  8
M0
 62
   234
100
AcDbCircle
 10
589.870032
 20
617.021658
 40
2.599999
100
AcDbArc
 50
0.0
 51
90.0
  0
ARC
  5
FC
100
AcDbEntity
  8
M0
 62
   234
100
AcDbCircle
 10
588.969886
 20
620.621756
 40
2.599999
100
AcDbArc
 50
179.999664
 51
270.0
  0
ARC
  5
FD
100
AcDbEntity
  8
M0
 62
   234
100
AcDbCircle
 10
588.969886
 20
745.421805
 40
2.599999
100
AcDbArc
 50
90.0
 51
180.0
  0
ARC
  5
FE
100
AcDbEntity
  8
M0
 62
   234
100
AcDbCircle
 10
589.870032
 20
749.021658
 40
2.599999
100
AcDbArc
 50
270.0
 51
360.0
  0
ARC
  5
FF
100
AcDbEntity
  8
M0
 62
     4
100
AcDbCircle
 10
171.349029
 20
727.022024
 40
4.5
100
AcDbArc
 50
180.0
 51
360.0
  0
ARC
  5
100
100
AcDbEntity
  8
M0
 62
     4
100
AcDbCircle
 10
194.349028
 20
639.022039
 40
4.5
100
AcDbArc
 50
0.0
 51
179.999806
  0
LINE
  5
101
100
AcDbEntity
  8
M0
 62
     4
100
AcDbLine
 10
219.348777
 20
641.522009
 11
219.348777
 21
724.521795
  0
LINE
  5
102
100
AcDbEntity
  8
M0
 62
     4
100
AcDbLine
 10
205.848365
 20
732.021551
 11
198.348784
 21
732.021551
  0
LINE
  5
103
100
AcDbEntity
  8
M0
 62
     4
100
AcDbLine
 10
146.348792
 20
724.521795
 11
146.348792
 21
641.522024
  0
LINE
  5
104
100
AcDbEntity
  8
M0
 62
     4
100
AcDbLine
 10
148.348792
 20
726.521795
 11
163.848792
 21
726.521795
  0
LINE
  5
105
100
AcDbEntity
  8
M0
 62
     4
100
AcDbLine
 10
148.348792
 20
639.522024
 11
163.348853
 21
639.522024
  0
CIRCLE
  5
106
100
AcDbEntity
  8
M0
 62
     4
100
AcDbCircle
 10
214.848777
 20
712.521795
 40
1.5
  0
CIRCLE
  5
107
100
AcDbEntity
  8
M0
 62
     4
100
AcDbCircle
 10
214.848777
 20
712.521795
 40
1.0
  0
CIRCLE
  5
108
100
AcDbEntity
  8
M0
 62
     4
100
AcDbCircle
 10
214.848777
 20
653.522024
 40
1.5
  0
CIRCLE
  5
109
100
AcDbEntity
  8
M0
 62
     4
100
AcDbCircle
 10
214.848777
 20
653.522024
 40
1.0
  0
CIRCLE
  5
10A
100
AcDbEntity
  8
M0
 62
     4
100
AcDbCircle
 10
150.848822
 20
712.521795
 40
1.5
  0
CIRCLE
  5
10B
100
AcDbEntity
  8
M0
 62
     4
100
AcDbCircle
 10
150.848822
 20
712.521795
 40
1.0
  0
CIRCLE
  5
10C
100
AcDbEntity
  8
M0
 62
     4
100
AcDbCircle
 10
150.848822
 20
653.522024
 40
1.5
  0
CIRCLE
  5
10D
100
AcDbEntity
  8
M0
 62
     4
100
AcDbCircle
 10
150.848822
 20
653.522024
 40
1.0
  0
LINE
  5
10E
100
AcDbEntity
  8
M0
 62
     4
100
AcDbLine
 10
209.848777
 20
726.021795
 11
209.848777
 21
723.521795
  0
LINE
  5
10F
100
AcDbEntity
  8
M0
 62
     4
100
AcDbLine
 10
201.848777
 20
731.521307
 11
201.848777
 21
723.521795
  0
LINE
  5
110
100
AcDbEntity
  8
M0
 62
     4
100
AcDbLine
 10
197.848784
 20
731.521307
 11
197.848784
 21
726.521795
  0
LINE
  5
111
100
AcDbEntity
  8
M0
 62
     4
100
AcDbLine
 10
205.848777
 20
732.021551
 11
214.848777
 21
726.521795
  0
LINE
  5
112
100
AcDbEntity
  8
M0
 62
     4
100
AcDbLine
 10
178.848785
 20
731.521307
 11
178.848785
 21
723.521795
  0
LINE
  5
113
100
AcDbEntity
  8
M0
 62
     4
100
AcDbLine
 10
178.348785
 20
732.021551
 11
159.849189
 21
732.021307
  0
LINE
  5
114
100
AcDbEntity
  8
M0
 62
     4
100
AcDbLine
 10
159.848792
 20
732.021307
 11
150.848792
 21
726.521795
  0
ARC
  5
115
100
AcDbEntity
  8
M0
 62
     4
100
AcDbCircle
 10
148.348792
 20
724.521795
 40
2.0
100
AcDbArc
 50
89.999563
 51
180.0
  0
ARC
  5
116
100
AcDbEntity
  8
M0
 62
     4
100
AcDbCircle
 10
217.348777
 20
724.521795
 40
2.0
100
AcDbArc
 50
0.0
 51
90.0
  0
LINE
  5
117
100
AcDbEntity
  8
M0
 62
     4
100
AcDbLine
 10
178.848785
 20
726.521795
 11
197.848784
 21
726.521795
  0
LINE
  5
118
100
AcDbEntity
  8
M0
 62
     4
100
AcDbLine
 10
167.848846
 20
634.522253
 11
167.848846
 21
639.022024
  0
LINE
  5
119
100
AcDbEntity
  8
M0
 62
     4
100
AcDbLine
 10
163.848853
 20
634.522268
 11
163.848853
 21
642.522024
  0
LINE
  5
11A
100
AcDbEntity
  8
M0
 62
     4
100
AcDbLine
 10
159.848853
 20
634.022268
 11
150.848838
 21
639.522039
  0
LINE
  5
11B
100
AcDbEntity
  8
M0
 62
     4
100
AcDbLine
 10
159.849265
 20
634.022268
 11
167.348846
 21
634.022268
  0
LINE
  5
11C
100
AcDbEntity
  8
M0
 62
     4
100
AcDbLine
 10
187.348784
 20
634.022268
 11
205.848761
 21
634.022268
  0
LINE
  5
11D
100
AcDbEntity
  8
M0
 62
     4
100
AcDbLine
 10
205.848777
 20
634.022268
 11
214.848777
 21
639.522024
  0
ARC
  5
11E
100
AcDbEntity
  8
M0
 62
     4
100
AcDbCircle
 10
217.348777
 20
641.522024
 40
2.0
100
AcDbArc
 50
269.999563
 51
360.0
  0
LINE
  5
11F
100
AcDbEntity
  8
M0
 62
     4
100
AcDbLine
 10
201.848777
 20
642.522024
 11
201.848777
 21
634.522268
  0
LINE
  5
120
100
AcDbEntity
  8
M0
 62
     4
100
AcDbLine
 10
186.848784
 20
642.522024
 11
186.848784
 21
634.522268
  0
LINE
  5
121
100
AcDbEntity
  8
M0
 62
     4
100
AcDbLine
 10
202.348777
 20
639.522024
 11
217.348777
 21
639.522024
  0
ARC
  5
122
100
AcDbEntity
  8
M0
 62
     4
100
AcDbCircle
 10
148.348792
 20
641.522024
 40
2.0
100
AcDbArc
 50
179.999563
 51
270.0
  0
LINE
  5
123
100
AcDbEntity
  8
M0
 62
     4
100
AcDbLine
 10
175.848785
 20
731.521307
 11
175.848785
 21
727.021795
  0
LINE
  5
124
100
AcDbEntity
  8
M0
 62
     4
100
AcDbLine
 10
166.848785
 20
731.521307
 11
166.848785
 21
727.021795
  0
LINE
  5
125
100
AcDbEntity
  8
M0
 62
     4
100
AcDbLine
 10
198.848777
 20
639.022024
 11
198.848777
 21
634.522268
  0
LINE
  5
126
100
AcDbEntity
  8
M0
 62
     4
100
AcDbLine
 10
189.848784
 20
639.022009
 11
189.848784
 21
634.522253
  0
CIRCLE
  5
127
100
AcDbEntity
  8
M0
 62
     4
100
AcDbCircle
 10
194.348784
 20
639.022024
 40
2.75
  0
CIRCLE
  5
128
100
AcDbEntity
  8
M0
 62
     4
100
AcDbCircle
 10
171.348785
 20
727.021795
 40
2.75
  0
CIRCLE
  5
129
100
AcDbEntity
  8
M0
 62
     4
100
AcDbCircle
 10
171.348785
 20
727.021795
 40
2.0
  0
CIRCLE
  5
12A
100
AcDbEntity
  8
M0
 62
     4
100
AcDbCircle
 10
194.348784
 20
639.022024
 40
2.0
  0
LINE
  5
12B
100
AcDbEntity
  8
M0
 62
     4
100
AcDbLine
 10
178.848785
 20
723.521795
 11
186.848784
 21
723.521795
  0
LINE
  5
12C
100
AcDbEntity
  8
M0
 62
     4
100
AcDbLine
 10
155.848792
 20
723.521795
 11
163.848792
 21
723.521795
  0
LINE
  5
12D
100
AcDbEntity
  8
M0
 62
     4
100
AcDbLine
 10
186.848784
 20
726.021795
 11
186.848784
 21
723.521795
  0
LINE
  5
12E
100
AcDbEntity
  8
M0
 62
     4
100
AcDbLine
 10
201.848777
 20
723.521795
 11
209.848777
 21
723.521795
  0
LINE
  5
12F
100
AcDbEntity
  8
M0
 62
     4
100
AcDbLine
 10
155.848792
 20
726.021795
 11
155.848792
 21
723.521795
  0
LINE
  5
130
100
AcDbEntity
  8
M0
 62
     4
100
AcDbLine
 10
155.848746
 20
640.022009
 11
155.848746
 21
642.522024
  0
LINE
  5
131
100
AcDbEntity
  8
M0
 62
     4
100
AcDbLine
 10
155.848746
 20
642.522024
 11
163.848746
 21
642.522024
  0
LINE
  5
132
100
AcDbEntity
  8
M0
 62
     4
100
AcDbLine
 10
178.848739
 20
642.522024
 11
186.848738
 21
642.522024
  0
LINE
  5
133
100
AcDbEntity
  8
M0
 62
     4
100
AcDbLine
 10
178.848724
 20
640.022009
 11
178.848739
 21
642.522024
  0
LINE
  5
134
100
AcDbEntity
  8
M0
 62
     4
100
AcDbLine
 10
209.848731
 20
640.022024
 11
209.848731
 21
642.522024
  0
LINE
  5
135
100
AcDbEntity
  8
M0
 62
     4
100
AcDbLine
 10
201.848731
 20
642.522024
 11
209.848731
 21
642.522024
  0
LINE
  5
136
100
AcDbEntity
  8
M0
 62
     4
100
AcDbLine
 10
163.848792
 20
731.521307
 11
163.848792
 21
723.521795
  0
ARC
  5
137
100
AcDbEntity
  8
M0
 62
     4
100
AcDbCircle
 10
198.348784
 20
731.521307
 40
0.5
100
AcDbArc
 50
90.0
 51
180.0
  0
ARC
  5
138
100
AcDbEntity
  8
M0
 62
     4
100
AcDbCircle
 10
178.348785
 20
731.521307
 40
0.5
100
AcDbArc
 50
0.0
 51
90.0
  0
ARC
  5
139
100
AcDbEntity
  8
M0
 62
     4
100
AcDbCircle
 10
201.348777
 20
731.521307
 40
0.5
100
AcDbArc
 50
0.0
 51
90.0
  0
ARC
  5
13A
100
AcDbEntity
  8
M0
 62
     4
100
AcDbCircle
 10
166.348792
 20
731.521307
 40
0.5
100
AcDbArc
 50
0.0
 51
89.998251
  0
ARC
  5
13B
100
AcDbEntity
  8
M0
 62
     4
100
AcDbCircle
 10
176.348785
 20
731.521307
 40
0.5
100
AcDbArc
 50
90.0
 51
180.0
  0
ARC
  5
13C
100
AcDbEntity
  8
M0
 62
     4
100
AcDbCircle
 10
164.348792
 20
731.521307
 40
0.5
100
AcDbArc
 50
89.998251
 51
180.0
  0
ARC
  5
13D
100
AcDbEntity
  8
M0
 62
     4
100
AcDbCircle
 10
210.348731
 20
640.022024
 40
0.5
100
AcDbArc
 50
179.998251
 51
269.998251
  0
ARC
  5
13E
100
AcDbEntity
  8
M0
 62
     4
100
AcDbCircle
 10
202.348777
 20
639.022024
 40
0.5
100
AcDbArc
 50
90.0
 51
179.998251
  0
ARC
  5
13F
100
AcDbEntity
  8
M0
 62
     4
100
AcDbCircle
 10
201.348777
 20
634.522268
 40
0.5
100
AcDbArc
 50
269.998251
 51
360.0
  0
ARC
  5
140
100
AcDbEntity
  8
M0
 62
     4
100
AcDbCircle
 10
199.348777
 20
634.522268
 40
0.5
100
AcDbArc
 50
179.998251
 51
269.998251
  0
ARC
  5
141
100
AcDbEntity
  8
M0
 62
     4
100
AcDbCircle
 10
189.348784
 20
634.522253
 40
0.5
100
AcDbArc
 50
270.0
 51
360.0
  0
ARC
  5
142
100
AcDbEntity
  8
M0
 62
     4
100
AcDbCircle
 10
187.348784
 20
634.522268
 40
0.5
100
AcDbArc
 50
179.998251
 51
270.0
  0
ARC
  5
143
100
AcDbEntity
  8
M0
 62
     4
100
AcDbCircle
 10
167.348846
 20
634.522268
 40
0.5
100
AcDbArc
 50
270.0
 51
360.0
  0
ARC
  5
144
100
AcDbEntity
  8
M0
 62
     4
100
AcDbCircle
 10
164.348853
 20
634.522268
 40
0.5
100
AcDbArc
 50
179.998251
 51
270.0
  0
LINE
  5
145
100
AcDbEntity
  8
M0
 62
     4
100
AcDbLine
 10
201.848777
 20
726.521795
 11
217.348777
 21
726.521795
  0
ARC
  5
146
100
AcDbEntity
  8
M0
 62
     4
100
AcDbCircle
 10
155.348792
 20
726.021795
 40
0.5
100
AcDbArc
 50
0.0
 51
89.998251
  0
ARC
  5
147
100
AcDbEntity
  8
M0
 62
     4
100
AcDbCircle
 10
186.348784
 20
639.022024
 40
0.5
100
AcDbArc
 50
0.0
 51
90.0
  0
ARC
  5
148
100
AcDbEntity
  8
M0
 62
     4
100
AcDbCircle
 10
178.348724
 20
640.022024
 40
0.5
100
AcDbArc
 50
270.0
 51
360.0
  0
LINE
  5
149
100
AcDbEntity
  8
M0
 62
     4
100
AcDbLine
 10
168.348846
 20
639.522024
 11
186.348784
 21
639.522024
  0
ARC
  5
14A
100
AcDbEntity
  8
M0
 62
     4
100
AcDbCircle
 10
168.348846
 20
639.022024
 40
0.5
100
AcDbArc
 50
90.0
 51
179.998251
  0
ARC
  5
14B
100
AcDbEntity
  8
M0
 62
     4
100
AcDbCircle
 10
163.348853
 20
639.022024
 40
0.5
100
AcDbArc
 50
0.0
 51
89.998251
  0
ARC
  5
14C
100
AcDbEntity
  8
M0
 62
     4
100
AcDbCircle
 10
155.348746
 20
640.022024
 40
0.5
100
AcDbArc
 50
270.0
 51
360.0
  0
ARC
  5
14D
100
AcDbEntity
  8
M0
 62
     4
100
AcDbCircle
 10
187.348784
 20
726.021795
 40
0.5
100
AcDbArc
 50
90.0
 51
180.0
  0
ARC
  5
14E
100
AcDbEntity
  8
M0
 62
     4
100
AcDbCircle
 10
210.348777
 20
726.021795
 40
0.5
100
AcDbArc
 50
90.0
 51
180.0
  0
LINE
  5
14F
100
AcDbEntity
  8
M0
 62
     4
100
AcDbLine
 10
148.348822
 20
633.521658
 11
188.348708
 21
633.521658
  0
LINE
  5
150
100
AcDbEntity
  8
M0
 62
     4
100
AcDbLine
 10
232.848761
 20
646.021643
 11
232.848761
 21
720.021658
  0
LINE
  5
151
100
AcDbEntity
  8
M0
 62
     4
100
AcDbLine
 10
217.348761
 20
732.521414
 11
188.348601
 21
732.521231
  0
LINE
  5
152
100
AcDbEntity
  8
M0
 62
     4
100
AcDbLine
 10
132.848777
 20
720.020926
 11
132.848777
 21
646.021643
  0
LINE
  5
153
100
AcDbEntity
  8
M0
  6
DASHDOT
 62
     4
100
AcDbLine
 10
126.017569
 20
683.021658
 11
182.84877
 21
683.021658
  0
LINE
  5
154
100
AcDbEntity
  8
M0
 62
     4
100
AcDbLine
 10
218.348761
 20
726.253882
 11
218.348761
 21
731.52117
  0
ARC
  5
155
100
AcDbEntity
  8
M0
 62
     4
100
AcDbCircle
 10
217.348761
 20
731.52117
 40
1.0
100
AcDbArc
 50
0.0
 51
90.0
  0
LINE
  5
156
100
AcDbEntity
  8
M0
 62
     4
100
AcDbLine
 10
219.348761
 20
720.521658
 11
232.348761
 21
720.521658
  0
LINE
  5
157
100
AcDbEntity
  8
M0
 62
     4
100
AcDbLine
 10
175.84877
 20
735.02117
 11
166.84877
 21
735.02117
  0
LINE
  5
158
100
AcDbEntity
  8
M0
 62
     4
100
AcDbLine
 10
165.348777
 20
732.52117
 11
148.348838
 21
732.52117
  0
ARC
  5
159
100
AcDbEntity
  8
M0
 62
     4
100
AcDbCircle
 10
175.84877
 20
734.020926
 40
1.0
100
AcDbArc
 50
0.0
 51
90.0
  0
ARC
  5
15A
100
AcDbEntity
  8
M0
 62
     4
100
AcDbCircle
 10
166.84877
 20
734.020926
 40
1.0
100
AcDbArc
 50
90.0
 51
180.013988
  0
LINE
  5
15B
100
AcDbEntity
  8
M0
 62
     4
100
AcDbLine
 10
219.348716
 20
645.521658
 11
232.348761
 21
645.521658
  0
LINE
  5
15C
100
AcDbEntity
  8
M0
 62
     4
100
AcDbLine
 10
218.348716
 20
639.789953
 11
218.348716
 21
634.522146
  0
ARC
  5
15D
100
AcDbEntity
  8
M0
 62
     4
100
AcDbCircle
 10
217.348716
 20
634.522146
 40
1.0
100
AcDbArc
 50
-90.000874
 51
0.0
  0
ARC
  5
15E
100
AcDbEntity
  8
M0
 62
     4
100
AcDbCircle
 10
148.348838
 20
731.52117
 40
1.0
100
AcDbArc
 50
89.999126
 51
180.0
  0
ARC
  5
15F
100
AcDbEntity
  8
M0
 62
     4
100
AcDbCircle
 10
148.348822
 20
634.522162
 40
1.0
100
AcDbArc
 50
179.999126
 51
270.0
  0
LINE
  5
160
100
AcDbEntity
  8
M0
 62
     4
100
AcDbLine
 10
147.348822
 20
726.253882
 11
147.348838
 21
731.52117
  0
LINE
  5
161
100
AcDbEntity
  8
M0
 62
     4
100
AcDbLine
 10
189.348769
 20
727.021658
 11
194.598952
 21
727.021658
  0
ARC
  5
162
100
AcDbEntity
  8
M0
 62
     4
100
AcDbCircle
 10
194.598952
 20
725.521658
 40
1.5
100
AcDbArc
 50
41.818195
 51
90.0
  0
LINE
  5
163
100
AcDbEntity
  8
M0
 62
     4
100
AcDbLine
 10
171.098572
 20
639.021658
 11
176.348709
 21
639.021658
  0
ARC
  5
164
100
AcDbEntity
  8
M0
 62
     4
100
AcDbCircle
 10
171.098572
 20
640.521658
 40
1.5
100
AcDbArc
 50
221.790001
 51
270.0
  0
LINE
  5
165
100
AcDbEntity
  8
M0
 62
     4
100
AcDbLine
 10
190.598601
 20
631.021658
 11
198.8487
 21
631.021658
  0
LINE
  5
166
100
AcDbEntity
  8
M0
 62
     4
100
AcDbLine
 10
200.3487
 20
633.521658
 11
217.348716
 21
633.521658
  0
ARC
  5
167
100
AcDbEntity
  8
M0
 62
     4
100
AcDbCircle
 10
198.8487
 20
632.021658
 40
1.0
100
AcDbArc
 50
269.999126
 51
360.0
  0
LINE
  5
168
100
AcDbEntity
  8
M0
 62
     4
100
AcDbLine
 10
147.348807
 20
639.522055
 11
147.348822
 21
634.522162
  0
LINE
  5
169
100
AcDbEntity
  8
M0
 62
     4
100
AcDbLine
 10
146.348807
 20
720.52117
 11
133.348777
 21
720.52117
  0
LINE
  5
16A
100
AcDbEntity
  8
M0
 62
     4
100
AcDbLine
 10
146.348807
 20
645.521658
 11
133.348777
 21
645.521643
  0
LINE
  5
16B
100
AcDbEntity
  8
M0
 62
     4
100
AcDbLine
 10
229.348761
 20
710.521658
 11
232.848761
 21
710.521658
  0
LINE
  5
16C
100
AcDbEntity
  8
M0
 62
     4
100
AcDbLine
 10
230.348761
 20
720.521658
 11
230.348761
 21
710.521658
  0
LINE
  5
16D
100
AcDbEntity
  8
M0
 62
     4
100
AcDbLine
 10
230.348761
 20
718.021658
 11
232.848761
 21
718.021658
  0
ARC
  5
16E
100
AcDbEntity
  8
M0
 62
     4
100
AcDbCircle
 10
232.348761
 20
720.021658
 40
0.5
100
AcDbArc
 50
0.0
 51
90.0
  0
ARC
  5
16F
100
AcDbEntity
  8
M0
 62
     4
100
AcDbCircle
 10
133.348777
 20
720.020926
 40
0.5
100
AcDbArc
 50
89.998251
 51
180.0
  0
ARC
  5
170
100
AcDbEntity
  8
M0
 62
     4
100
AcDbCircle
 10
133.348777
 20
646.021643
 40
0.5
100
AcDbArc
 50
179.998251
 51
270.0
  0
ARC
  5
171
100
AcDbEntity
  8
M0
 62
     4
100
AcDbCircle
 10
232.348761
 20
646.021658
 40
0.5
100
AcDbArc
 50
269.998251
 51
360.0
  0
LINE
  5
172
100
AcDbEntity
  8
M0
 62
     4
100
AcDbLine
 10
133.348777
 20
665.521658
 11
136.348777
 21
665.521658
  0
LINE
  5
173
100
AcDbEntity
  8
M0
 62
     4
100
AcDbLine
 10
136.848777
 20
668.521658
 11
137.906043
 21
668.521658
  0
LINE
  5
174
100
AcDbEntity
  8
M0
 62
     4
100
AcDbLine
 10
136.848777
 20
657.521658
 11
146.348807
 21
657.521658
  0
LINE
  5
175
100
AcDbEntity
  8
M0
 62
     4
100
AcDbLine
 10
133.348777
 20
655.521658
 11
136.348777
 21
655.521658
  0
LINE
  5
176
100
AcDbEntity
  8
M0
 62
     4
100
AcDbLine
 10
135.348777
 20
655.521658
 11
135.348777
 21
645.521658
  0
LINE
  5
177
100
AcDbEntity
  8
M0
 62
     4
100
AcDbLine
 10
132.848777
 20
648.021658
 11
135.348777
 21
648.021658
  0
LINE
  5
178
100
AcDbEntity
  8
M0
 62
     4
100
AcDbLine
 10
145.348777
 20
666.521658
 11
146.348807
 21
666.521658
  0
ARC
  5
179
100
AcDbEntity
  8
M0
 62
     4
100
AcDbCircle
 10
136.348777
 20
656.021658
 40
0.5
100
AcDbArc
 50
270.0
 51
360.0
  0
ARC
  5
17A
100
AcDbEntity
  8
M0
 62
     4
100
AcDbCircle
 10
133.348777
 20
656.021658
 40
0.5
100
AcDbArc
 50
179.998251
 51
270.0
  0
ARC
  5
17B
100
AcDbEntity
  8
M0
 62
     4
100
AcDbCircle
 10
133.348777
 20
666.021658
 40
0.5
100
AcDbArc
 50
179.998251
 51
270.0
  0
ARC
  5
17C
100
AcDbEntity
  8
M0
 62
     4
100
AcDbCircle
 10
136.348777
 20
666.021658
 40
0.5
100
AcDbArc
 50
270.0
 51
360.0
  0
LINE
  5
17D
100
AcDbEntity
  8
M0
 62
     4
100
AcDbLine
 10
133.348777
 20
700.521414
 11
136.348777
 21
700.521414
  0
ARC
  5
17E
100
AcDbEntity
  8
M0
 62
     4
100
AcDbCircle
 10
136.348777
 20
700.021414
 40
0.5
100
AcDbArc
 50
0.0
 51
89.998251
  0
LINE
  5
17F
100
AcDbEntity
  8
M0
 62
     4
100
AcDbLine
 10
145.348777
 20
699.521414
 11
146.348807
 21
699.521414
  0
LINE
  5
180
100
AcDbEntity
  8
M0
 62
     4
100
AcDbLine
 10
135.348777
 20
710.521414
 11
135.348777
 21
720.521414
  0
LINE
  5
181
100
AcDbEntity
  8
M0
 62
     4
100
AcDbLine
 10
132.848777
 20
718.021414
 11
135.348777
 21
718.021414
  0
LINE
  5
182
100
AcDbEntity
  8
M0
 62
     4
100
AcDbLine
 10
133.348777
 20
710.521414
 11
136.348777
 21
710.521414
  0
ARC
  5
183
100
AcDbEntity
  8
M0
 62
     4
100
AcDbCircle
 10
136.348777
 20
710.021414
 40
0.5
100
AcDbArc
 50
0.0
 51
89.998251
  0
LINE
  5
184
100
AcDbEntity
  8
M0
 62
     4
100
AcDbLine
 10
136.848777
 20
708.521414
 11
146.348807
 21
708.521414
  0
ARC
  5
185
100
AcDbEntity
  8
M0
 62
     4
100
AcDbCircle
 10
133.348777
 20
700.021414
 40
0.5
100
AcDbArc
 50
89.998251
 51
180.0
  0
ARC
  5
186
100
AcDbEntity
  8
M0
 62
     4
100
AcDbCircle
 10
133.348777
 20
710.021414
 40
0.5
100
AcDbArc
 50
89.998251
 51
180.0
  0
LINE
  5
187
100
AcDbEntity
  8
M0
 62
     4
100
AcDbLine
 10
232.348761
 20
665.521414
 11
229.348761
 21
665.521414
  0
LINE
  5
188
100
AcDbEntity
  8
M0
 62
     4
100
AcDbLine
 10
220.348761
 20
666.521414
 11
219.348792
 21
666.521414
  0
ARC
  5
189
100
AcDbEntity
  8
M0
 62
     4
100
AcDbCircle
 10
229.348761
 20
666.021414
 40
0.5
100
AcDbArc
 50
179.998251
 51
269.998251
  0
ARC
  5
18A
100
AcDbEntity
  8
M0
 62
     4
100
AcDbCircle
 10
232.348761
 20
666.021414
 40
0.5
100
AcDbArc
 50
-90.001749
 51
0.0
  0
LINE
  5
18B
100
AcDbEntity
  8
M0
 62
     4
100
AcDbLine
 10
228.848761
 20
657.521414
 11
219.348792
 21
657.521414
  0
ARC
  5
18C
100
AcDbEntity
  8
M0
 62
     4
100
AcDbCircle
 10
229.348761
 20
656.021414
 40
0.5
100
AcDbArc
 50
179.998251
 51
269.998251
  0
LINE
  5
18D
100
AcDbEntity
  8
M0
 62
     4
100
AcDbLine
 10
232.348761
 20
655.521414
 11
229.348761
 21
655.521414
  0
LINE
  5
18E
100
AcDbEntity
  8
M0
 62
     4
100
AcDbLine
 10
230.348761
 20
655.521414
 11
230.348761
 21
645.521643
  0
LINE
  5
18F
100
AcDbEntity
  8
M0
 62
     4
100
AcDbLine
 10
232.848761
 20
648.021628
 11
230.348761
 21
648.021643
  0
LINE
  5
190
100
AcDbEntity
  8
M0
 62
     4
100
AcDbLine
 10
228.848761
 20
697.521658
 11
220.848761
 21
697.521658
  0
LINE
  5
191
100
AcDbEntity
  8
M0
 62
     4
100
AcDbLine
 10
220.348761
 20
699.521658
 11
219.348792
 21
699.521658
  0
ARC
  5
192
100
AcDbEntity
  8
M0
 62
     4
100
AcDbCircle
 10
229.348761
 20
700.021658
 40
0.5
100
AcDbArc
 50
90.0
 51
180.0
  0
LINE
  5
193
100
AcDbEntity
  8
M0
 62
     4
100
AcDbLine
 10
232.348761
 20
700.521658
 11
229.348761
 21
700.521658
  0
ARC
  5
194
100
AcDbEntity
  8
M0
 62
     4
100
AcDbCircle
 10
232.348761
 20
700.021658
 40
0.5
100
AcDbArc
 50
0.0
 51
90.0
  0
LINE
  5
195
100
AcDbEntity
  8
M0
 62
     4
100
AcDbLine
 10
228.848761
 20
708.521658
 11
219.348792
 21
708.521658
  0
ARC
  5
196
100
AcDbEntity
  8
M0
 62
     4
100
AcDbCircle
 10
229.348761
 20
710.021658
 40
0.5
100
AcDbArc
 50
90.0
 51
180.0
  0
ARC
  5
197
100
AcDbEntity
  8
M0
 62
     4
100
AcDbCircle
 10
232.348761
 20
656.021414
 40
0.5
100
AcDbArc
 50
-90.001749
 51
0.0
  0
LINE
  5
198
100
AcDbEntity
  8
M0
 62
     4
100
AcDbLine
 10
132.848777
 20
686.771658
 11
139.848777
 21
686.771658
  0
LINE
  5
199
100
AcDbEntity
  8
M0
 62
     4
100
AcDbLine
 10
132.848777
 20
679.271658
 11
139.848777
 21
679.271658
  0
LINE
  5
19A
100
AcDbEntity
  8
M0
 62
     4
100
AcDbLine
 10
140.848777
 20
685.771658
 11
140.848777
 21
680.271658
  0
ARC
  5
19B
100
AcDbEntity
  8
M0
 62
     4
100
AcDbCircle
 10
139.848777
 20
680.271658
 40
1.0
100
AcDbArc
 50
270.0
 51
360.0
  0
ARC
  5
19C
100
AcDbEntity
  8
M0
 62
     4
100
AcDbCircle
 10
139.848777
 20
685.771658
 40
1.0
100
AcDbArc
 50
0.0
 51
89.999126
  0
LINE
  5
19D
100
AcDbEntity
  8
M0
 62
     4
100
AcDbLine
 10
136.848777
 20
686.771658
 11
136.848777
 21
685.771658
  0
LINE
  5
19E
100
AcDbEntity
  8
M0
 62
     4
100
AcDbLine
 10
132.848777
 20
685.771658
 11
136.848777
 21
685.771658
  0
LINE
  5
19F
100
AcDbEntity
  8
M0
 62
     4
100
AcDbLine
 10
132.848777
 20
680.271658
 11
136.848777
 21
680.271658
  0
LINE
  5
1A0
100
AcDbEntity
  8
M0
 62
     4
100
AcDbLine
 10
136.848777
 20
680.271658
 11
136.848777
 21
679.271658
  0
LINE
  5
1A1
100
AcDbEntity
  8
M0
 62
     4
100
AcDbLine
 10
232.848792
 20
686.771414
 11
225.848792
 21
686.771414
  0
LINE
  5
1A2
100
AcDbEntity
  8
M0
 62
     4
100
AcDbLine
 10
232.848792
 20
685.771414
 11
228.848792
 21
685.771414
  0
LINE
  5
1A3
100
AcDbEntity
  8
M0
 62
     4
100
AcDbLine
 10
228.848792
 20
686.771414
 11
228.848792
 21
685.771414
  0
ARC
  5
1A4
100
AcDbEntity
  8
M0
 62
     4
100
AcDbCircle
 10
225.848792
 20
685.771414
 40
1.0
100
AcDbArc
 50
90.0
 51
180.0
  0
LINE
  5
1A5
100
AcDbEntity
  8
M0
 62
     4
100
AcDbLine
 10
224.848792
 20
685.771414
 11
224.848792
 21
680.271414
  0
ARC
  5
1A6
100
AcDbEntity
  8
M0
 62
     4
100
AcDbCircle
 10
225.848792
 20
680.271414
 40
1.0
100
AcDbArc
 50
179.999945
 51
269.999126
  0
LINE
  5
1A7
100
AcDbEntity
  8
M0
 62
     4
100
AcDbLine
 10
232.848792
 20
679.271414
 11
225.848792
 21
679.271414
  0
LINE
  5
1A8
100
AcDbEntity
  8
M0
 62
     4
100
AcDbLine
 10
232.848792
 20
680.271414
 11
228.848792
 21
680.271414
  0
LINE
  5
1A9
100
AcDbEntity
  8
M0
 62
     4
100
AcDbLine
 10
228.848792
 20
680.271414
 11
228.848792
 21
679.271414
  0
LINE
  5
1AA
100
AcDbEntity
  8
M0
 62
     4
100
AcDbLine
 10
173.548706
 20
636.021658
 11
176.348709
 21
636.021658
  0
LINE
  5
1AB
100
AcDbEntity
  8
M0
 62
     4
100
AcDbLine
 10
173.048706
 20
635.521658
 11
173.048706
 21
633.521658
  0
LINE
  5
1AC
100
AcDbEntity
  8
M0
  6
DASHDOT
 62
     4
100
AcDbLine
 10
182.84877
 20
683.021658
 11
242.348578
 21
683.021658
  0
ARC
  5
1AD
100
AcDbEntity
  8
M0
 62
     4
100
AcDbCircle
 10
177.34877
 20
732.02117
 40
0.5
100
AcDbArc
 50
90.0
 51
180.0
  0
ARC
  5
1AE
100
AcDbEntity
  8
M0
 62
     4
100
AcDbCircle
 10
165.348777
 20
732.020926
 40
0.5
100
AcDbArc
 50
0.0
 51
89.998251
  0
LINE
  5
1AF
100
AcDbEntity
  8
M0
 62
     4
100
AcDbLine
 10
192.648757
 20
732.52117
 11
192.648757
 21
730.521414
  0
LINE
  5
1B0
100
AcDbEntity
  8
M0
 62
     4
100
AcDbLine
 10
189.348769
 20
730.021414
 11
192.148757
 21
730.021414
  0
ARC
  5
1B1
100
AcDbEntity
  8
M0
 62
     4
100
AcDbCircle
 10
192.148757
 20
730.521414
 40
0.5
100
AcDbArc
 50
270.0
 51
360.0
  0
ARC
  5
1B2
100
AcDbEntity
  8
M0
 62
     4
100
AcDbCircle
 10
189.348769
 20
729.521414
 40
0.5
100
AcDbArc
 50
90.0
 51
180.0
  0
ARC
  5
1B3
100
AcDbEntity
  8
M0
 62
     4
100
AcDbCircle
 10
189.348769
 20
727.521658
 40
0.5
100
AcDbArc
 50
180.0
 51
270.0
  0
ARC
  5
1B4
100
AcDbEntity
  8
M0
 62
     4
100
AcDbCircle
 10
173.548706
 20
635.521658
 40
0.5
100
AcDbArc
 50
90.0
 51
179.998251
  0
ARC
  5
1B5
100
AcDbEntity
  8
M0
 62
     4
100
AcDbCircle
 10
176.348709
 20
636.521658
 40
0.5
100
AcDbArc
 50
270.0
 51
360.0
  0
ARC
  5
1B6
100
AcDbEntity
  8
M0
 62
     4
100
AcDbCircle
 10
176.348709
 20
638.521658
 40
0.5
100
AcDbArc
 50
0.0
 51
90.0
  0
LINE
  5
1B7
100
AcDbEntity
  8
M0
 62
     4
100
AcDbLine
 10
136.348777
 20
686.771658
 11
136.348777
 21
685.771658
  0
LINE
  5
1B8
100
AcDbEntity
  8
M0
 62
     4
100
AcDbLine
 10
136.348777
 20
680.271658
 11
136.348777
 21
679.271658
  0
LINE
  5
1B9
100
AcDbEntity
  8
M0
 62
     4
100
AcDbLine
 10
229.348792
 20
686.771414
 11
229.348792
 21
685.771414
  0
LINE
  5
1BA
100
AcDbEntity
  8
M0
 62
     4
100
AcDbLine
 10
229.348792
 20
680.271414
 11
229.348792
 21
679.271414
  0
LINE
  5
1BB
100
AcDbEntity
  8
M0
 62
     4
100
AcDbLine
 10
176.848663
 20
734.03533
 11
176.848663
 21
732.521414
  0
LINE
  5
1BC
100
AcDbEntity
  8
M0
 62
     4
100
AcDbLine
 10
165.84867
 20
734.020926
 11
165.84867
 21
732.521414
  0
LINE
  5
1BD
100
AcDbEntity
  8
M0
 62
     4
100
AcDbLine
 10
144.848777
 20
676.521658
 11
144.848777
 21
657.521658
  0
LINE
  5
1BE
100
AcDbEntity
  8
M0
 62
     4
100
AcDbLine
 10
136.848777
 20
676.521658
 11
136.848777
 21
656.021658
  0
ARC
  5
1BF
100
AcDbEntity
  8
M0
 62
     4
100
AcDbCircle
 10
143.848777
 20
676.521658
 40
1.0
100
AcDbArc
 50
0.0
 51
89.999126
  0
ARC
  5
1C0
100
AcDbEntity
  8
M0
 62
     4
100
AcDbCircle
 10
145.348777
 20
667.021658
 40
0.5
100
AcDbArc
 50
179.999891
 51
270.0
  0
ARC
  5
1C1
100
AcDbEntity
  8
M0
 62
     4
100
AcDbCircle
 10
143.848777
 20
689.521414
 40
1.0
100
AcDbArc
 50
-90.0
 51
0.0
  0
LINE
  5
1C2
100
AcDbEntity
  8
M0
 62
     4
100
AcDbLine
 10
136.848777
 20
689.521414
 11
136.848777
 21
710.021414
  0
LINE
  5
1C3
100
AcDbEntity
  8
M0
 62
     4
100
AcDbLine
 10
144.848777
 20
689.521414
 11
144.848777
 21
708.521414
  0
ARC
  5
1C4
100
AcDbEntity
  8
M0
 62
     4
100
AcDbCircle
 10
145.348777
 20
699.021414
 40
0.5
100
AcDbArc
 50
89.998251
 51
180.0
  0
ARC
  5
1C5
100
AcDbEntity
  8
M0
 62
     4
100
AcDbCircle
 10
221.848761
 20
676.521414
 40
1.0
100
AcDbArc
 50
90.0
 51
179.999945
  0
LINE
  5
1C6
100
AcDbEntity
  8
M0
 62
     4
100
AcDbLine
 10
228.848761
 20
676.521414
 11
228.848761
 21
656.021414
  0
LINE
  5
1C7
100
AcDbEntity
  8
M0
 62
     4
100
AcDbLine
 10
220.848761
 20
676.521414
 11
220.848761
 21
657.521414
  0
ARC
  5
1C8
100
AcDbEntity
  8
M0
 62
     4
100
AcDbCircle
 10
220.348761
 20
667.021414
 40
0.5
100
AcDbArc
 50
-90.001749
 51
0.0
  0
ARC
  5
1C9
100
AcDbEntity
  8
M0
 62
     4
100
AcDbCircle
 10
221.848761
 20
689.521658
 40
1.0
100
AcDbArc
 50
180.0
 51
269.999126
  0
LINE
  5
1CA
100
AcDbEntity
  8
M0
 62
     4
100
AcDbLine
 10
220.848761
 20
689.521658
 11
220.848761
 21
708.521658
  0
LINE
  5
1CB
100
AcDbEntity
  8
M0
 62
     4
100
AcDbLine
 10
228.848761
 20
689.521658
 11
228.848761
 21
710.021658
  0
LINE
  5
1CC
100
AcDbEntity
  8
M0
 62
     4
100
AcDbLine
 10
220.848761
 20
689.521658
 11
220.848761
 21
708.521658
  0
LINE
  5
1CD
100
AcDbEntity
  8
M0
 62
     4
100
AcDbLine
 10
220.848731
 20
658.922293
 11
221.936881
 21
658.922293
  0
LINE
  5
1CE
100
AcDbEntity
  8
M0
 62
     4
100
AcDbLine
 10
220.848761
 20
689.521658
 11
220.848761
 21
708.521658
  0
ARC
  5
1CF
100
AcDbEntity
  8
M0
 62
     4
100
AcDbCircle
 10
220.348761
 20
699.021658
 40
0.5
100
AcDbArc
 50
0.0
 51
90.0
  0
LINE
  5
1D0
100
AcDbEntity
  8
M0
 62
     4
100
AcDbLine
 10
144.848807
 20
658.922293
 11
136.848777
 21
658.922293
  0
LINE
  5
1D1
100
AcDbEntity
  8
M0
 62
     4
100
AcDbLine
 10
137.848777
 20
677.521658
 11
143.848777
 21
677.521658
  0
ARC
  5
1D2
100
AcDbEntity
  8
M0
 62
     4
100
AcDbCircle
 10
137.848777
 20
676.521658
 40
1.0
100
AcDbArc
 50
89.999126
 51
179.999945
  0
LINE
  5
1D3
100
AcDbEntity
  8
M0
 62
     4
100
AcDbLine
 10
137.848777
 20
688.521414
 11
143.848777
 21
688.521414
  0
ARC
  5
1D4
100
AcDbEntity
  8
M0
 62
     4
100
AcDbCircle
 10
137.848777
 20
689.521414
 40
1.0
100
AcDbArc
 50
180.0
 51
270.0
  0
ARC
  5
1D5
100
AcDbEntity
  8
M0
 62
     4
100
AcDbCircle
 10
227.848761
 20
676.521414
 40
1.0
100
AcDbArc
 50
0.0
 51
90.0
  0
LINE
  5
1D6
100
AcDbEntity
  8
M0
 62
     4
100
AcDbLine
 10
227.848792
 20
677.521414
 11
221.848792
 21
677.521414
  0
LINE
  5
1D7
100
AcDbEntity
  8
M0
 62
     4
100
AcDbLine
 10
227.848792
 20
688.521658
 11
221.848792
 21
688.521658
  0
ARC
  5
1D8
100
AcDbEntity
  8
M0
 62
     4
100
AcDbCircle
 10
227.848761
 20
689.521658
 40
1.0
100
AcDbArc
 50
269.999126
 51
360.0
  0
ARC
  5
1D9
100
AcDbEntity
  8
M0
 62
     4
100
AcDbCircle
 10
200.3487
 20
634.021658
 40
0.5
100
AcDbArc
 50
179.998251
 51
269.998251
  0
ARC
  5
1DA
100
AcDbEntity
  8
M0
 62
     4
100
AcDbCircle
 10
188.348708
 20
634.021658
 40
0.5
100
AcDbArc
 50
270.0
 51
360.0
  0
LINE
  5
1DB
100
AcDbEntity
  8
M0
 62
     4
100
AcDbLine
 10
188.848769
 20
729.521414
 11
188.848769
 21
727.521658
  0
LINE
  5
1DC
100
AcDbEntity
  8
M0
 62
     4
100
AcDbLine
 10
176.848709
 20
638.521643
 11
176.848709
 21
636.521643
  0
LINE
  5
1DD
100
AcDbEntity
  8
M0
 62
     4
100
AcDbLine
 10
144.848777
 20
707.121023
 11
136.848807
 21
707.121023
  0
LINE
  5
1DE
100
AcDbEntity
  8
M0
 62
     4
100
AcDbLine
 10
136.848777
 20
697.521658
 11
144.848807
 21
697.521658
  0
LINE
  5
1DF
100
AcDbEntity
  8
M0
 62
     4
100
AcDbLine
 10
143.791007
 20
668.521658
 11
144.848777
 21
668.521658
  0
LINE
  5
1E0
100
AcDbEntity
  8
M0
 62
     4
100
AcDbLine
 10
220.848761
 20
707.121023
 11
228.848761
 21
707.121023
  0
LINE
  5
1E1
100
AcDbEntity
  8
M0
 62
     4
100
AcDbLine
 10
227.76026
 20
658.922293
 11
228.848731
 21
658.922293
  0
ARC
  5
1E2
100
AcDbEntity
  8
M0
 62
     4
100
AcDbCircle
 10
159.848761
 20
641.021658
 40
2.799999
100
AcDbArc
 50
212.382826
 51
327.617605
  0
ARC
  5
1E3
100
AcDbEntity
  8
M0
 62
     4
100
AcDbCircle
 10
159.848761
 20
641.021658
 40
1.799999
100
AcDbArc
 50
236.420125
 51
303.580548
  0
ARC
  5
1E4
100
AcDbEntity
  8
M0
 62
     4
100
AcDbCircle
 10
182.848541
 20
641.021902
 40
1.799999
100
AcDbArc
 50
236.433481
 51
303.565872
  0
ARC
  5
1E5
100
AcDbEntity
  8
M0
 62
     4
100
AcDbCircle
 10
182.848541
 20
641.021902
 40
2.799999
100
AcDbArc
 50
212.388045
 51
327.611285
  0
ARC
  5
1E6
100
AcDbEntity
  8
M0
 62
     4
100
AcDbCircle
 10
205.848716
 20
641.021658
 40
2.799999
100
AcDbArc
 50
212.381964
 51
327.617007
  0
ARC
  5
1E7
100
AcDbEntity
  8
M0
 62
     4
100
AcDbCircle
 10
205.848716
 20
641.021658
 40
1.799999
100
AcDbArc
 50
236.419047
 51
303.57947
  0
ARC
  5
1E8
100
AcDbEntity
  8
M0
 62
     4
100
AcDbCircle
 10
159.848807
 20
725.021658
 40
2.799999
100
AcDbArc
 50
32.395566
 51
147.603835
  0
ARC
  5
1E9
100
AcDbEntity
  8
M0
 62
     4
100
AcDbCircle
 10
159.848807
 20
725.021658
 40
1.799999
100
AcDbArc
 50
56.451647
 51
123.548353
  0
ARC
  5
1EA
100
AcDbEntity
  8
M0
 62
     4
100
AcDbCircle
 10
182.848587
 20
725.021414
 40
2.799999
100
AcDbArc
 50
32.402002
 51
147.597995
  0
ARC
  5
1EB
100
AcDbEntity
  8
M0
 62
     4
100
AcDbCircle
 10
182.848587
 20
725.021414
 40
1.799999
100
AcDbArc
 50
56.466191
 51
123.53422
  0
ARC
  5
1EC
100
AcDbEntity
  8
M0
 62
     4
100
AcDbCircle
 10
205.848761
 20
725.021658
 40
2.799999
100
AcDbArc
 50
32.396165
 51
147.604434
  0
ARC
  5
1ED
100
AcDbEntity
  8
M0
 62
     4
100
AcDbCircle
 10
205.848761
 20
725.021658
 40
1.799999
100
AcDbArc
 50
56.452725
 51
123.549431
  0
LINE
  5
1EE
100
AcDbEntity
  8
M0
 62
     4
100
AcDbLine
 10
191.148558
 20
672.821554
 11
190.848571
 21
672.821554
  0
LINE
  5
1EF
100
AcDbEntity
  8
M0
 62
     4
100
AcDbLine
 10
194.148558
 20
666.821661
 11
194.148558
 21
669.821661
  0
LINE
  5
1F0
100
AcDbEntity
  8
M0
 62
     4
100
AcDbLine
 10
171.548553
 20
669.821661
 11
171.548553
 21
666.821661
  0
LINE
  5
1F1
100
AcDbEntity
  8
M0
 62
     4
100
AcDbLine
 10
171.548553
 20
666.821661
 11
194.148558
 21
666.821661
  0
ARC
  5
1F2
100
AcDbEntity
  8
M0
 62
     4
100
AcDbCircle
 10
191.148558
 20
669.821661
 40
3.0
100
AcDbArc
 50
0.0
 51
90.0
  0
ARC
  5
1F3
100
AcDbEntity
  8
M0
 62
     4
100
AcDbCircle
 10
174.548553
 20
669.821661
 40
3.0
100
AcDbArc
 50
84.260589
 51
179.999964
  0
LINE
  5
1F4
100
AcDbEntity
  8
M0
 62
     4
100
AcDbLine
 10
179.848587
 20
680.771505
 11
185.848586
 21
680.771505
  0
LINE
  5
1F5
100
AcDbEntity
  8
M0
 62
     4
100
AcDbLine
 10
185.848586
 20
680.771505
 11
185.848586
 21
685.271505
  0
LINE
  5
1F6
100
AcDbEntity
  8
M0
 62
     4
100
AcDbLine
 10
185.848586
 20
685.271505
 11
179.848587
 21
685.271505
  0
LINE
  5
1F7
100
AcDbEntity
  8
M0
 62
     4
100
AcDbLine
 10
179.848587
 20
685.271505
 11
179.848587
 21
680.771505
  0
LINE
  5
1F8
100
AcDbEntity
  8
M0
 62
     4
100
AcDbLine
 10
190.848555
 20
672.821661
 11
190.848555
 21
676.821661
  0
LINE
  5
1F9
100
AcDbEntity
  8
M0
 62
     4
100
AcDbLine
 10
191.148558
 20
676.821661
 11
190.848555
 21
676.821661
  0
LINE
  5
1FA
100
AcDbEntity
  8
M0
 62
     4
100
AcDbLine
 10
174.848556
 20
676.821661
 11
174.848556
 21
672.821661
  0
LINE
  5
1FB
100
AcDbEntity
  8
M0
 62
     4
100
AcDbLine
 10
174.548553
 20
693.121664
 11
178.848556
 21
693.121664
  0
LINE
  5
1FC
100
AcDbEntity
  8
M0
 62
     4
100
AcDbLine
 10
181.348572
 20
698.821661
 11
184.348571
 21
698.821661
  0
LINE
  5
1FD
100
AcDbEntity
  8
M0
 62
     4
100
AcDbLine
 10
194.148558
 20
690.121664
 11
194.148558
 21
679.821661
  0
LINE
  5
1FE
100
AcDbEntity
  8
M0
 62
     4
100
AcDbLine
 10
171.548553
 20
690.121664
 11
171.548553
 21
679.821661
  0
LINE
  5
1FF
100
AcDbEntity
  8
M0
 62
     4
100
AcDbLine
 10
185.348571
 20
697.821661
 11
185.348555
 21
694.821661
  0
LINE
  5
200
100
AcDbEntity
  8
M0
 62
     4
100
AcDbLine
 10
180.348572
 20
697.821661
 11
180.348556
 21
694.821661
  0
LINE
  5
201
100
AcDbEntity
  8
M0
 62
     4
100
AcDbLine
 10
186.848555
 20
695.521658
 11
186.848555
 21
693.121664
  0
LINE
  5
202
100
AcDbEntity
  8
M0
 62
     4
100
AcDbLine
 10
178.848556
 20
695.521658
 11
178.848556
 21
693.121664
  0
ARC
  5
203
100
AcDbEntity
  8
M0
 62
     4
100
AcDbCircle
 10
184.348571
 20
697.821661
 40
1.0
100
AcDbArc
 50
0.0
 51
90.0
  0
ARC
  5
204
100
AcDbEntity
  8
M0
 62
     4
100
AcDbCircle
 10
181.348572
 20
697.821661
 40
1.0
100
AcDbArc
 50
90.0
 51
180.0
  0
LINE
  5
205
100
AcDbEntity
  8
M0
 62
     4
100
AcDbLine
 10
186.848555
 20
694.821661
 11
185.348555
 21
694.821661
  0
LINE
  5
206
100
AcDbEntity
  8
M0
 62
     4
100
AcDbLine
 10
186.848555
 20
695.521658
 11
185.348555
 21
695.521658
  0
LINE
  5
207
100
AcDbEntity
  8
M0
 62
     4
100
AcDbLine
 10
180.348556
 20
694.821661
 11
178.848556
 21
694.821661
  0
LINE
  5
208
100
AcDbEntity
  8
M0
 62
     4
100
AcDbLine
 10
180.348556
 20
695.521658
 11
178.848556
 21
695.521658
  0
ARC
  5
209
100
AcDbEntity
  8
M0
 62
     4
100
AcDbCircle
 10
191.148558
 20
690.121664
 40
3.0
100
AcDbArc
 50
0.0
 51
90.0
  0
ARC
  5
20A
100
AcDbEntity
  8
M0
 62
     4
100
AcDbCircle
 10
174.548553
 20
690.121664
 40
3.0
100
AcDbArc
 50
90.0
 51
179.999982
  0
ARC
  5
20B
100
AcDbEntity
  8
M0
 62
     4
100
AcDbCircle
 10
174.548553
 20
679.821661
 40
3.0
100
AcDbArc
 50
179.999964
 51
270.0
  0
ARC
  5
20C
100
AcDbEntity
  8
M0
 62
     4
100
AcDbCircle
 10
191.148558
 20
679.821661
 40
3.0
100
AcDbArc
 50
270.0
 51
360.0
  0
LINE
  5
20D
100
AcDbEntity
  8
M0
 62
     4
100
AcDbLine
 10
186.848555
 20
693.121664
 11
191.148558
 21
693.121664
  0
LINE
  5
20E
100
AcDbEntity
  8
M0
 62
     4
100
AcDbLine
 10
174.848556
 20
676.821661
 11
174.548553
 21
676.821661
  0
ARC
  5
20F
100
AcDbEntity
  8
M0
 62
     4
100
AcDbCircle
 10
225.598578
 20
738.021551
 40
7.0
100
AcDbArc
 50
0.0
 51
90.0
  0
ARC
  5
210
100
AcDbEntity
  8
M0
 62
     4
100
AcDbCircle
 10
140.098594
 20
738.021551
 40
7.0
100
AcDbArc
 50
89.999875
 51
180.0
  0
LINE
  5
211
100
AcDbEntity
  8
M0
 62
     4
100
AcDbLine
 10
133.098594
 20
738.021551
 11
133.098594
 21
720.521063
  0
ARC
  5
212
100
AcDbEntity
  8
M0
 62
     4
100
AcDbCircle
 10
140.098594
 20
628.021551
 40
7.0
100
AcDbArc
 50
179.999875
 51
270.0
  0
LINE
  5
213
100
AcDbEntity
  8
M0
 62
     4
100
AcDbLine
 10
232.598578
 20
628.021551
 11
232.598578
 21
645.588446
  0
ARC
  5
214
100
AcDbEntity
  8
M0
 62
     4
100
AcDbCircle
 10
225.598578
 20
628.021551
 40
7.0
100
AcDbArc
 50
269.999875
 51
360.0
  0
LINE
  5
215
100
AcDbEntity
  8
M0
 62
     4
100
AcDbLine
 10
209.848578
 20
732.521551
 11
188.348586
 21
732.521551
  0
LINE
  5
216
100
AcDbEntity
  8
M0
 62
     4
100
AcDbLine
 10
209.848578
 20
633.521551
 11
155.848594
 21
633.521551
  0
ARC
  5
217
100
AcDbEntity
  8
M0
 62
     4
100
AcDbCircle
 10
226.098578
 20
738.021551
 40
2.75
100
AcDbArc
 50
269.999682
 51
450.0
  0
LINE
  5
218
100
AcDbEntity
  8
M0
 62
     4
100
AcDbLine
 10
226.098578
 20
740.771551
 11
225.848578
 21
740.771551
  0
LINE
  5
219
100
AcDbEntity
  8
M0
 62
     4
100
AcDbLine
 10
223.896659
 20
735.271551
 11
226.098578
 21
735.271551
  0
LINE
  5
21A
100
AcDbEntity
  8
M0
 62
     4
100
AcDbLine
 10
141.800513
 20
630.771551
 11
139.598594
 21
630.771551
  0
ARC
  5
21B
100
AcDbEntity
  8
M0
 62
     4
100
AcDbCircle
 10
139.598594
 20
628.021551
 40
2.75
100
AcDbArc
 50
89.999682
 51
270.0
  0
LINE
  5
21C
100
AcDbEntity
  8
M0
 62
     4
100
AcDbLine
 10
139.598594
 20
625.271551
 11
139.848548
 21
625.271551
  0
LINE
  5
21D
100
AcDbEntity
  8
M0
 62
     4
100
AcDbLine
 10
232.598578
 20
720.454672
 11
232.598578
 21
738.021551
  0
LINE
  5
21E
100
AcDbEntity
  8
M0
 62
     4
100
AcDbLine
 10
133.098594
 20
645.521536
 11
133.098594
 21
628.021551
  0
LINE
  5
21F
100
AcDbEntity
  8
M0
 62
     4
100
AcDbLine
 10
177.348587
 20
732.521551
 11
155.848594
 21
732.521551
  0
LINE
  5
220
100
AcDbEntity
  8
M0
 62
     4
100
AcDbLine
 10
192.84863
 20
751.021521
 11
172.848631
 21
751.021521
  0
LINE
  5
221
100
AcDbEntity
  8
M0
  6
DASHDOT
 62
     4
100
AcDbLine
 10
182.848583
 20
600.103689
 11
182.848633
 21
761.021521
  0
LINE
  5
222
100
AcDbEntity
  8
M0
 62
     4
100
AcDbLine
 10
177.012993
 20
733.319861
 11
172.848626
 21
737.021521
  0
ARC
  5
223
100
AcDbEntity
  8
M0
 62
     4
100
AcDbCircle
 10
176.348625
 20
732.572455
 40
1.0
100
AcDbArc
 50
0.0
 51
48.364936
  0
ARC
  5
224
100
AcDbEntity
  8
M0
 62
     4
100
AcDbCircle
 10
189.348624
 20
732.572455
 40
1.0
100
AcDbArc
 50
131.634982
 51
180.0
  0
LINE
  5
225
100
AcDbEntity
  8
M0
 62
     4
100
AcDbLine
 10
172.848631
 20
751.021521
 11
172.848626
 21
737.021521
  0
LINE
  5
226
100
AcDbEntity
  8
M0
 62
     4
100
AcDbLine
 10
188.684256
 20
733.319861
 11
192.848625
 21
737.021521
  0
LINE
  5
227
100
AcDbEntity
  8
M0
 62
     4
100
AcDbLine
 10
192.848625
 20
737.021521
 11
192.84863
 21
751.021521
  0
LINE
  5
228
100
AcDbEntity
  8
M0
 62
     4
100
AcDbLine
 10
177.348625
 20
732.021429
 11
177.348625
 21
732.572455
  0
LINE
  5
229
100
AcDbEntity
  8
M0
 62
     4
100
AcDbLine
 10
188.348622
 20
726.521689
 11
188.348624
 21
732.572455
  0
ARC
  5
22A
100
AcDbEntity
  8
M0
 62
     4
100
AcDbCircle
 10
182.848622
 20
725.021521
 40
2.0
100
AcDbArc
 50
48.597111
 51
131.402943
  0
LINE
  5
22B
100
AcDbEntity
  8
M0
 62
     4
100
AcDbLine
 10
192.848471
 20
615.02175
 11
172.848472
 21
615.021719
  0
LINE
  5
22C
100
AcDbEntity
  8
M0
 62
     4
100
AcDbLine
 10
177.012823
 20
632.723394
 11
172.848459
 21
629.021719
  0
ARC
  5
22D
100
AcDbEntity
  8
M0
 62
     4
100
AcDbCircle
 10
176.348454
 20
633.4708
 40
1.0
100
AcDbArc
 50
-48.366374
 51
0.0
  0
ARC
  5
22E
100
AcDbEntity
  8
M0
 62
     4
100
AcDbCircle
 10
189.348453
 20
633.4708
 40
1.0
100
AcDbArc
 50
179.999126
 51
228.364895
  0
LINE
  5
22F
100
AcDbEntity
  8
M0
 62
     4
100
AcDbLine
 10
172.848472
 20
615.021719
 11
172.848459
 21
629.021719
  0
LINE
  5
230
100
AcDbEntity
  8
M0
 62
     4
100
AcDbLine
 10
188.684087
 20
632.723394
 11
192.848458
 21
629.02175
  0
LINE
  5
231
100
AcDbEntity
  8
M0
 62
     4
100
AcDbLine
 10
192.848458
 20
629.02175
 11
192.848471
 21
615.02175
  0
LINE
  5
232
100
AcDbEntity
  8
M0
 62
     4
100
AcDbLine
 10
177.348454
 20
633.521734
 11
177.348454
 21
633.4708
  0
ARC
  5
233
100
AcDbEntity
  8
M0
 62
     4
100
AcDbCircle
 10
182.848447
 20
641.021734
 40
2.0
100
AcDbArc
 50
228.573215
 51
311.426667
  0
LINE
  5
234
100
AcDbEntity
  8
M0
 62
     4
100
AcDbLine
 10
199.848685
 20
632.021658
 11
199.848685
 21
633.521658
  0
LINE
  5
235
100
AcDbEntity
  8
M0
 62
     4
100
AcDbLine
 10
225.848639
 20
751.021521
 11
205.848639
 21
751.021521
  0
LINE
  5
236
100
AcDbEntity
  8
M0
 62
     4
100
AcDbLine
 10
202.754645
 20
732.521185
 11
205.848624
 21
737.021521
  0
LINE
  5
237
100
AcDbEntity
  8
M0
 62
     4
100
AcDbLine
 10
225.848624
 20
737.021521
 11
225.848639
 21
751.021521
  0
LINE
  5
238
100
AcDbEntity
  8
M0
 62
     4
100
AcDbLine
 10
205.848639
 20
751.021521
 11
205.848624
 21
737.021521
  0
LINE
  5
239
100
AcDbEntity
  8
M0
 62
     4
100
AcDbLine
 10
218.348792
 20
730.297537
 11
225.848624
 21
737.021521
  0
ARC
  5
23A
100
AcDbEntity
  8
M0
 62
     4
100
AcDbCircle
 10
205.848624
 20
725.021521
 40
2.0
100
AcDbArc
 50
48.597524
 51
131.403748
  0
LINE
  5
23B
100
AcDbEntity
  8
M0
 62
     4
100
AcDbLine
 10
139.848502
 20
751.021566
 11
159.848502
 21
751.021566
  0
LINE
  5
23C
100
AcDbEntity
  8
M0
 62
     4
100
AcDbLine
 10
162.942618
 20
732.521048
 11
159.848517
 21
737.021566
  0
LINE
  5
23D
100
AcDbEntity
  8
M0
 62
     4
100
AcDbLine
 10
139.848517
 20
737.021566
 11
139.848502
 21
751.021566
  0
LINE
  5
23E
100
AcDbEntity
  8
M0
 62
     4
100
AcDbLine
 10
159.848502
 20
751.021566
 11
159.848517
 21
737.021566
  0
LINE
  5
23F
100
AcDbEntity
  8
M0
 62
     4
100
AcDbLine
 10
147.348349
 20
730.297583
 11
139.848517
 21
737.021566
  0
ARC
  5
240
100
AcDbEntity
  8
M0
 62
     4
100
AcDbCircle
 10
159.848517
 20
725.021566
 40
2.0
100
AcDbArc
 50
48.595346
 51
131.404037
  0
LINE
  5
241
100
AcDbEntity
  8
M0
 62
     4
100
AcDbLine
 10
139.848532
 20
615.021658
 11
159.848532
 21
615.021658
  0
LINE
  5
242
100
AcDbEntity
  8
M0
 62
     4
100
AcDbLine
 10
162.942298
 20
633.521689
 11
159.848532
 21
629.021658
  0
LINE
  5
243
100
AcDbEntity
  8
M0
 62
     4
100
AcDbLine
 10
139.848532
 20
629.021658
 11
139.848532
 21
615.021658
  0
LINE
  5
244
100
AcDbEntity
  8
M0
 62
     4
100
AcDbLine
 10
159.848532
 20
615.021658
 11
159.848532
 21
629.021658
  0
LINE
  5
245
100
AcDbEntity
  8
M0
 62
     4
100
AcDbLine
 10
147.348365
 20
635.745642
 11
139.848532
 21
629.021658
  0
ARC
  5
246
100
AcDbEntity
  8
M0
 62
     4
100
AcDbCircle
 10
159.848532
 20
641.021658
 40
2.0
100
AcDbArc
 50
228.572112
 51
311.428505
  0
LINE
  5
247
100
AcDbEntity
  8
M0
 62
     4
100
AcDbLine
 10
225.848502
 20
615.02175
 11
205.848502
 21
615.021734
  0
LINE
  5
248
100
AcDbEntity
  8
M0
 62
     4
100
AcDbLine
 10
201.848685
 20
634.839636
 11
205.848487
 21
629.021734
  0
LINE
  5
249
100
AcDbEntity
  8
M0
 62
     4
100
AcDbLine
 10
225.848487
 20
629.02175
 11
225.848502
 21
615.02175
  0
LINE
  5
24A
100
AcDbEntity
  8
M0
 62
     4
100
AcDbLine
 10
205.848502
 20
615.021734
 11
205.848487
 21
629.021734
  0
LINE
  5
24B
100
AcDbEntity
  8
M0
 62
     4
100
AcDbLine
 10
218.348655
 20
635.745733
 11
225.848487
 21
629.02175
  0
ARC
  5
24C
100
AcDbEntity
  8
M0
 62
     4
100
AcDbCircle
 10
205.848471
 20
641.021734
 40
2.0
100
AcDbArc
 50
228.572401
 51
311.426326
  0
CIRCLE
  5
24D
100
AcDbEntity
  8
M0
 62
     4
100
AcDbCircle
 10
140.848777
 20
703.021246
 40
3.0
  0
CIRCLE
  5
24E
100
AcDbEntity
  8
M0
 62
     4
100
AcDbCircle
 10
140.848777
 20
693.521246
 40
3.0
  0
LINE
  5
24F
100
AcDbEntity
  8
M0
 62
     4
100
AcDbLine
 10
138.36782
 20
668.221441
 11
143.32949
 21
668.221441
  0
ARC
  5
250
100
AcDbEntity
  8
M0
 62
     4
100
AcDbCircle
 10
138.36782
 20
668.721441
 40
0.5
100
AcDbArc
 50
197.118075
 51
270.0
  0
ARC
  5
251
100
AcDbEntity
  8
M0
 62
     4
100
AcDbCircle
 10
143.32949
 20
668.721441
 40
0.5
100
AcDbArc
 50
270.0
 51
342.875867
  0
CIRCLE
  5
252
100
AcDbEntity
  8
M0
 62
     4
100
AcDbCircle
 10
140.848777
 20
672.52149
 40
3.0
  0
CIRCLE
  5
253
100
AcDbEntity
  8
M0
 62
     4
100
AcDbCircle
 10
140.848777
 20
663.02149
 40
3.0
  0
CIRCLE
  5
254
100
AcDbEntity
  8
M0
 62
     4
100
AcDbCircle
 10
224.848731
 20
703.021002
 40
3.0
  0
CIRCLE
  5
255
100
AcDbEntity
  8
M0
 62
     4
100
AcDbCircle
 10
224.848761
 20
693.52149
 40
3.0
  0
CIRCLE
  5
256
100
AcDbEntity
  8
M0
 62
     4
100
AcDbCircle
 10
224.848807
 20
672.521246
 40
3.0
  0
LINE
  5
257
100
AcDbEntity
  8
M0
 62
     4
100
AcDbLine
 10
227.17034
 20
674.421148
 11
228.848761
 21
674.421148
  0
LINE
  5
258
100
AcDbEntity
  8
M0
 62
     4
100
AcDbLine
 10
222.367865
 20
658.72193
 11
227.329535
 21
658.72193
  0
ARC
  5
259
100
AcDbEntity
  8
M0
 62
     4
100
AcDbCircle
 10
222.367865
 20
659.22193
 40
0.5
100
AcDbArc
 50
197.112242
 51
269.998251
  0
ARC
  5
25A
100
AcDbEntity
  8
M0
 62
     4
100
AcDbCircle
 10
227.329535
 20
659.22193
 40
0.5
100
AcDbArc
 50
269.998251
 51
342.874517
  0
CIRCLE
  5
25B
100
AcDbEntity
  8
M0
 62
     4
100
AcDbCircle
 10
224.848822
 20
663.021978
 40
3.0
  0
CIRCLE
  5
25C
100
AcDbEntity
  8
M0
 62
     4
100
AcDbCircle
 10
223.348777
 20
713.021002
 40
3.0
  0
CIRCLE
  5
25D
100
AcDbEntity
  8
M0
 62
     4
100
AcDbCircle
 10
142.348777
 20
653.02149
 40
3.0
  0
CIRCLE
  5
25E
100
AcDbEntity
  8
M0
 62
     4
100
AcDbCircle
 10
140.848594
 20
725.021505
 40
2.0
  0
LINE
  5
25F
100
AcDbEntity
  8
M0
 62
     4
100
AcDbLine
 10
144.848594
 20
732.521017
 11
144.848594
 21
720.521017
  0
LINE
  5
260
100
AcDbEntity
  8
M0
 62
     4
100
AcDbLine
 10
136.848594
 20
732.521017
 11
136.848594
 21
720.521017
  0
LINE
  5
261
100
AcDbEntity
  8
M0
 62
     4
100
AcDbLine
 10
138.598594
 20
722.021505
 11
143.098594
 21
722.021505
  0
LINE
  5
262
100
AcDbEntity
  8
M0
 62
     4
100
AcDbLine
 10
143.598594
 20
729.021536
 11
143.598594
 21
722.521505
  0
LINE
  5
263
100
AcDbEntity
  8
M0
 62
     4
100
AcDbLine
 10
138.098594
 20
729.021536
 11
138.098594
 21
722.521505
  0
ARC
  5
264
100
AcDbEntity
  8
M0
 62
     4
100
AcDbCircle
 10
138.598594
 20
722.521505
 40
0.5
100
AcDbArc
 50
180.0
 51
270.0
  0
ARC
  5
265
100
AcDbEntity
  8
M0
 62
     4
100
AcDbCircle
 10
143.098594
 20
722.521505
 40
0.5
100
AcDbArc
 50
270.0
 51
360.0
  0
LINE
  5
266
100
AcDbEntity
  8
M0
 62
     4
100
AcDbLine
 10
136.848594
 20
729.021536
 11
144.848594
 21
729.021536
  0
LINE
  5
267
100
AcDbEntity
  8
M0
 62
     4
100
AcDbLine
 10
133.098594
 20
732.521017
 11
144.868354
 21
732.521017
  0
LINE
  5
268
100
AcDbEntity
  8
M0
 62
     4
100
AcDbLine
 10
133.098594
 20
732.521017
 11
144.868354
 21
732.521017
  0
LINE
  5
269
100
AcDbEntity
  8
M0
 62
     4
100
AcDbLine
 10
220.848578
 20
732.521017
 11
220.848578
 21
720.521017
  0
LINE
  5
26A
100
AcDbEntity
  8
M0
 62
     4
100
AcDbLine
 10
228.848578
 20
732.521017
 11
228.848578
 21
720.521017
  0
LINE
  5
26B
100
AcDbEntity
  8
M0
 62
     4
100
AcDbLine
 10
228.848578
 20
729.021536
 11
220.848578
 21
729.021536
  0
LINE
  5
26C
100
AcDbEntity
  8
M0
 62
     4
100
AcDbLine
 10
232.598578
 20
732.521017
 11
220.828803
 21
732.521017
  0
LINE
  5
26D
100
AcDbEntity
  8
M0
 62
     4
100
AcDbLine
 10
144.848594
 20
633.521994
 11
144.848594
 21
645.521994
  0
LINE
  5
26E
100
AcDbEntity
  8
M0
 62
     4
100
AcDbLine
 10
136.848594
 20
633.521994
 11
136.848594
 21
645.521994
  0
LINE
  5
26F
100
AcDbEntity
  8
M0
 62
     4
100
AcDbLine
 10
136.848594
 20
637.021475
 11
137.905875
 21
637.021475
  0
LINE
  5
270
100
AcDbEntity
  8
M0
 62
     4
100
AcDbLine
 10
133.098594
 20
633.521994
 11
144.868354
 21
633.521994
  0
LINE
  5
271
100
AcDbEntity
  8
M0
 62
     4
100
AcDbLine
 10
220.848578
 20
633.521994
 11
220.848578
 21
645.521994
  0
LINE
  5
272
100
AcDbEntity
  8
M0
 62
     4
100
AcDbLine
 10
228.848578
 20
633.521994
 11
228.848578
 21
645.521994
  0
LINE
  5
273
100
AcDbEntity
  8
M0
 62
     4
100
AcDbLine
 10
228.848578
 20
637.021475
 11
220.848578
 21
637.021475
  0
LINE
  5
274
100
AcDbEntity
  8
M0
 62
     4
100
AcDbLine
 10
222.098578
 20
637.021475
 11
222.098578
 21
643.521505
  0
ARC
  5
275
100
AcDbEntity
  8
M0
 62
     4
100
AcDbCircle
 10
222.598578
 20
643.521505
 40
0.5
100
AcDbArc
 50
90.0
 51
179.998251
  0
LINE
  5
276
100
AcDbEntity
  8
M0
 62
     4
100
AcDbLine
 10
227.098578
 20
644.021505
 11
222.598578
 21
644.021505
  0
ARC
  5
277
100
AcDbEntity
  8
M0
 62
     4
100
AcDbCircle
 10
227.098578
 20
643.521505
 40
0.5
100
AcDbArc
 50
0.0
 51
90.0
  0
LINE
  5
278
100
AcDbEntity
  8
M0
 62
     4
100
AcDbLine
 10
227.598578
 20
637.021475
 11
227.598578
 21
643.521505
  0
LINE
  5
279
100
AcDbEntity
  8
M0
 62
     4
100
AcDbLine
 10
232.598578
 20
633.521994
 11
220.828803
 21
633.521994
  0
LINE
  5
27A
100
AcDbEntity
  8
M0
 62
     4
100
AcDbLine
 10
143.790808
 20
637.021475
 11
144.848594
 21
637.021475
  0
LINE
  5
27B
100
AcDbEntity
  8
M0
  6
DIVIDE
 62
     4
100
AcDbLine
 10
116.848777
 20
713.021505
 11
116.848777
 21
653.021505
  0
LINE
  5
27C
100
AcDbEntity
  8
M0
  6
DIVIDE
 62
     4
100
AcDbLine
 10
116.848777
 20
713.021505
 11
132.848761
 21
713.021505
  0
LINE
  5
27D
100
AcDbEntity
  8
M0
  6
DIVIDE
 62
     4
100
AcDbLine
 10
116.848777
 20
653.021505
 11
132.848761
 21
653.021505
  0
CIRCLE
  5
27E
100
AcDbEntity
  8
M0
 62
     4
100
AcDbCircle
 10
224.848548
 20
641.021536
 40
2.0
  0
LINE
  5
27F
100
AcDbEntity
  8
M0
 62
     4
100
AcDbLine
 10
142.248511
 20
637.921393
 11
144.068579
 21
637.921393
  0
LINE
  5
280
100
AcDbEntity
  8
M0
 62
     4
100
AcDbLine
 10
139.448462
 20
637.921393
 11
137.628394
 21
637.921393
  0
LINE
  5
281
100
AcDbEntity
  8
M0
 62
     4
100
AcDbLine
 10
138.367652
 20
636.721441
 11
143.329322
 21
636.721441
  0
LINE
  5
282
100
AcDbEntity
  8
M0
 62
     4
100
AcDbLine
 10
142.248511
 20
637.921393
 11
142.248511
 21
638.36817
  0
LINE
  5
283
100
AcDbEntity
  8
M0
 62
     4
100
AcDbLine
 10
139.448462
 20
637.921393
 11
139.448462
 21
638.36817
  0
ARC
  5
284
100
AcDbEntity
  8
M0
 62
     4
100
AcDbCircle
 10
138.367652
 20
637.221441
 40
0.5
100
AcDbArc
 50
197.116613
 51
270.0
  0
ARC
  5
285
100
AcDbEntity
  8
M0
 62
     4
100
AcDbCircle
 10
143.329322
 20
637.221441
 40
0.5
100
AcDbArc
 50
270.0
 51
342.878374
  0
CIRCLE
  5
286
100
AcDbEntity
  8
M0
 62
     4
100
AcDbCircle
 10
140.848609
 20
641.02149
 40
3.0
  0
LINE
  5
287
100
AcDbEntity
  8
M0
 62
     4
100
AcDbLine
 10
137.889624
 20
644.968756
 11
137.073462
 21
642.321539
  0
LINE
  5
288
100
AcDbEntity
  8
M0
 62
     4
100
AcDbLine
 10
137.889624
 20
637.074225
 11
137.073462
 21
639.721441
  0
LINE
  5
289
100
AcDbEntity
  8
M0
 62
     4
100
AcDbLine
 10
143.807105
 20
644.968756
 11
144.623511
 21
642.321539
  0
LINE
  5
28A
100
AcDbEntity
  8
M0
 62
     4
100
AcDbLine
 10
143.807105
 20
637.074225
 11
144.623511
 21
639.721441
  0
LINE
  5
28B
100
AcDbEntity
  8
M0
 62
     4
100
AcDbLine
 10
142.248511
 20
644.121344
 11
144.068579
 21
644.121344
  0
LINE
  5
28C
100
AcDbEntity
  8
M0
 62
     4
100
AcDbLine
 10
143.170142
 20
642.921393
 11
144.438453
 21
642.921393
  0
LINE
  5
28D
100
AcDbEntity
  8
M0
 62
     4
100
AcDbLine
 10
143.170142
 20
639.121344
 11
144.438453
 21
639.121344
  0
LINE
  5
28E
100
AcDbEntity
  8
M0
 62
     4
100
AcDbLine
 10
139.448462
 20
644.121344
 11
137.628394
 21
644.121344
  0
LINE
  5
28F
100
AcDbEntity
  8
M0
 62
     4
100
AcDbLine
 10
138.526831
 20
642.921393
 11
137.258521
 21
642.921393
  0
LINE
  5
290
100
AcDbEntity
  8
M0
 62
     4
100
AcDbLine
 10
138.526831
 20
639.121344
 11
137.258521
 21
639.121344
  0
LINE
  5
291
100
AcDbEntity
  8
M0
 62
     4
100
AcDbLine
 10
144.623511
 20
639.721441
 11
144.623511
 21
642.321539
  0
LINE
  5
292
100
AcDbEntity
  8
M0
 62
     4
100
AcDbLine
 10
143.329322
 20
645.321539
 11
138.367652
 21
645.321295
  0
LINE
  5
293
100
AcDbEntity
  8
M0
 62
     4
100
AcDbLine
 10
137.073462
 20
642.321539
 11
137.073462
 21
639.721441
  0
LINE
  5
294
100
AcDbEntity
  8
M0
 62
     4
100
AcDbLine
 10
142.248511
 20
643.67481
 11
142.248511
 21
644.121344
  0
LINE
  5
295
100
AcDbEntity
  8
M0
 62
     4
100
AcDbLine
 10
139.448462
 20
643.67481
 11
139.448462
 21
644.121344
  0
ARC
  5
296
100
AcDbEntity
  8
M0
 62
     4
100
AcDbCircle
 10
138.367652
 20
644.821295
 40
0.5
100
AcDbArc
 50
89.998251
 51
162.854076
  0
ARC
  5
297
100
AcDbEntity
  8
M0
 62
     4
100
AcDbCircle
 10
143.329322
 20
644.821295
 40
0.5
100
AcDbArc
 50
17.152607
 51
89.998251
  0
CIRCLE
  5
298
100
AcDbEntity
  8
M0
 62
     4
100
AcDbCircle
 10
224.848594
 20
725.02149
 40
3.0
  0
CIRCLE
  5
299
100
AcDbEntity
  8
M0
 62
     4
100
AcDbCircle
 10
149.848563
 20
743.021505
 40
5.25
  0
LINE
  5
29A
100
AcDbEntity
  8
M0
 62
     4
100
AcDbLine
 10
150.448554
 20
742.421408
 11
155.064139
 21
742.421408
  0
LINE
  5
29B
100
AcDbEntity
  8
M0
 62
     4
100
AcDbLine
 10
144.632972
 20
742.421408
 11
149.248557
 21
742.421408
  0
LINE
  5
29C
100
AcDbEntity
  8
M0
 62
     4
100
AcDbLine
 10
149.248557
 20
743.621344
 11
144.632941
 21
743.621344
  0
LINE
  5
29D
100
AcDbEntity
  8
M0
 62
     4
100
AcDbLine
 10
155.06417
 20
743.621359
 11
150.448554
 21
743.621344
  0
LINE
  5
29E
100
AcDbEntity
  8
M0
 62
     4
100
AcDbLine
 10
150.448554
 20
743.621359
 11
150.448554
 21
746.121359
  0
LINE
  5
29F
100
AcDbEntity
  8
M0
 62
     4
100
AcDbLine
 10
150.448554
 20
739.921408
 11
150.448554
 21
742.421408
  0
LINE
  5
2A0
100
AcDbEntity
  8
M0
 62
     4
100
AcDbLine
 10
149.248557
 20
742.421408
 11
149.248557
 21
739.921408
  0
LINE
  5
2A1
100
AcDbEntity
  8
M0
 62
     4
100
AcDbLine
 10
149.248557
 20
746.121359
 11
149.248557
 21
743.621359
  0
LINE
  5
2A2
100
AcDbEntity
  8
M0
 62
     4
100
AcDbLine
 10
149.248557
 20
739.921408
 11
150.448554
 21
739.921408
  0
LINE
  5
2A3
100
AcDbEntity
  8
M0
 62
     4
100
AcDbLine
 10
150.448554
 20
746.121359
 11
149.248557
 21
746.121359
  0
CIRCLE
  5
2A4
100
AcDbEntity
  8
M0
 62
     4
100
AcDbCircle
 10
182.848587
 20
743.021505
 40
5.25
  0
LINE
  5
2A5
100
AcDbEntity
  8
M0
 62
     4
100
AcDbLine
 10
183.448578
 20
742.421408
 11
188.064162
 21
742.421408
  0
LINE
  5
2A6
100
AcDbEntity
  8
M0
 62
     4
100
AcDbLine
 10
177.632995
 20
742.421408
 11
182.248581
 21
742.421408
  0
LINE
  5
2A7
100
AcDbEntity
  8
M0
 62
     4
100
AcDbLine
 10
182.248581
 20
743.621344
 11
177.632965
 21
743.621344
  0
LINE
  5
2A8
100
AcDbEntity
  8
M0
 62
     4
100
AcDbLine
 10
188.064193
 20
743.621359
 11
183.448578
 21
743.621344
  0
LINE
  5
2A9
100
AcDbEntity
  8
M0
 62
     4
100
AcDbLine
 10
183.448578
 20
743.621359
 11
183.448578
 21
746.121359
  0
LINE
  5
2AA
100
AcDbEntity
  8
M0
 62
     4
100
AcDbLine
 10
183.448578
 20
739.921408
 11
183.448578
 21
742.421408
  0
LINE
  5
2AB
100
AcDbEntity
  8
M0
 62
     4
100
AcDbLine
 10
182.248581
 20
742.421408
 11
182.248581
 21
739.921408
  0
LINE
  5
2AC
100
AcDbEntity
  8
M0
 62
     4
100
AcDbLine
 10
182.248581
 20
746.121359
 11
182.248581
 21
743.621359
  0
LINE
  5
2AD
100
AcDbEntity
  8
M0
 62
     4
100
AcDbLine
 10
182.248581
 20
739.921408
 11
183.448578
 21
739.921408
  0
LINE
  5
2AE
100
AcDbEntity
  8
M0
 62
     4
100
AcDbLine
 10
183.448578
 20
746.121359
 11
182.248581
 21
746.121359
  0
CIRCLE
  5
2AF
100
AcDbEntity
  8
M0
 62
     4
100
AcDbCircle
 10
215.848578
 20
743.021505
 40
5.25
  0
LINE
  5
2B0
100
AcDbEntity
  8
M0
 62
     4
100
AcDbLine
 10
216.448569
 20
742.421408
 11
221.064154
 21
742.421408
  0
LINE
  5
2B1
100
AcDbEntity
  8
M0
 62
     4
100
AcDbLine
 10
210.632987
 20
742.421408
 11
215.248572
 21
742.421408
  0
LINE
  5
2B2
100
AcDbEntity
  8
M0
 62
     4
100
AcDbLine
 10
215.248572
 20
743.621344
 11
210.632956
 21
743.621344
  0
LINE
  5
2B3
100
AcDbEntity
  8
M0
 62
     4
100
AcDbLine
 10
221.064185
 20
743.621359
 11
216.448569
 21
743.621344
  0
LINE
  5
2B4
100
AcDbEntity
  8
M0
 62
     4
100
AcDbLine
 10
216.448569
 20
743.621359
 11
216.448569
 21
746.121359
  0
LINE
  5
2B5
100
AcDbEntity
  8
M0
 62
     4
100
AcDbLine
 10
216.448569
 20
739.921408
 11
216.448569
 21
742.421408
  0
LINE
  5
2B6
100
AcDbEntity
  8
M0
 62
     4
100
AcDbLine
 10
215.248572
 20
742.421408
 11
215.248572
 21
739.921408
  0
LINE
  5
2B7
100
AcDbEntity
  8
M0
 62
     4
100
AcDbLine
 10
215.248572
 20
746.121359
 11
215.248572
 21
743.621359
  0
LINE
  5
2B8
100
AcDbEntity
  8
M0
 62
     4
100
AcDbLine
 10
215.248572
 20
739.921408
 11
216.448569
 21
739.921408
  0
LINE
  5
2B9
100
AcDbEntity
  8
M0
 62
     4
100
AcDbLine
 10
216.448569
 20
746.121359
 11
215.248572
 21
746.121359
  0
CIRCLE
  5
2BA
100
AcDbEntity
  8
M0
 62
     4
100
AcDbCircle
 10
215.848578
 20
623.021505
 40
5.25
  0
LINE
  5
2BB
100
AcDbEntity
  8
M0
 62
     4
100
AcDbLine
 10
216.448569
 20
622.421408
 11
221.064154
 21
622.421408
  0
LINE
  5
2BC
100
AcDbEntity
  8
M0
 62
     4
100
AcDbLine
 10
210.632987
 20
622.421408
 11
215.248572
 21
622.421408
  0
LINE
  5
2BD
100
AcDbEntity
  8
M0
 62
     4
100
AcDbLine
 10
215.248572
 20
623.621344
 11
210.632956
 21
623.621344
  0
LINE
  5
2BE
100
AcDbEntity
  8
M0
 62
     4
100
AcDbLine
 10
221.064185
 20
623.621359
 11
216.448569
 21
623.621344
  0
LINE
  5
2BF
100
AcDbEntity
  8
M0
 62
     4
100
AcDbLine
 10
216.448569
 20
623.621359
 11
216.448569
 21
626.121359
  0
LINE
  5
2C0
100
AcDbEntity
  8
M0
 62
     4
100
AcDbLine
 10
216.448569
 20
619.921408
 11
216.448569
 21
622.421408
  0
LINE
  5
2C1
100
AcDbEntity
  8
M0
 62
     4
100
AcDbLine
 10
215.248572
 20
622.421408
 11
215.248572
 21
619.921408
  0
LINE
  5
2C2
100
AcDbEntity
  8
M0
 62
     4
100
AcDbLine
 10
215.248572
 20
626.121359
 11
215.248572
 21
623.621359
  0
LINE
  5
2C3
100
AcDbEntity
  8
M0
 62
     4
100
AcDbLine
 10
215.248572
 20
619.921408
 11
216.448569
 21
619.921408
  0
LINE
  5
2C4
100
AcDbEntity
  8
M0
 62
     4
100
AcDbLine
 10
216.448569
 20
626.121359
 11
215.248572
 21
626.121359
  0
CIRCLE
  5
2C5
100
AcDbEntity
  8
M0
 62
     4
100
AcDbCircle
 10
182.848587
 20
623.021505
 40
5.25
  0
LINE
  5
2C6
100
AcDbEntity
  8
M0
 62
     4
100
AcDbLine
 10
183.448578
 20
622.421408
 11
188.064162
 21
622.421408
  0
LINE
  5
2C7
100
AcDbEntity
  8
M0
 62
     4
100
AcDbLine
 10
177.632995
 20
622.421408
 11
182.248581
 21
622.421408
  0
LINE
  5
2C8
100
AcDbEntity
  8
M0
 62
     4
100
AcDbLine
 10
182.248581
 20
623.621344
 11
177.632965
 21
623.621344
  0
LINE
  5
2C9
100
AcDbEntity
  8
M0
 62
     4
100
AcDbLine
 10
188.064193
 20
623.621359
 11
183.448578
 21
623.621344
  0
LINE
  5
2CA
100
AcDbEntity
  8
M0
 62
     4
100
AcDbLine
 10
183.448578
 20
623.621359
 11
183.448578
 21
626.121359
  0
LINE
  5
2CB
100
AcDbEntity
  8
M0
 62
     4
100
AcDbLine
 10
183.448578
 20
619.921408
 11
183.448578
 21
622.421408
  0
LINE
  5
2CC
100
AcDbEntity
  8
M0
 62
     4
100
AcDbLine
 10
182.248581
 20
622.421408
 11
182.248581
 21
619.921408
  0
LINE
  5
2CD
100
AcDbEntity
  8
M0
 62
     4
100
AcDbLine
 10
182.248581
 20
626.121359
 11
182.248581
 21
623.621359
  0
LINE
  5
2CE
100
AcDbEntity
  8
M0
 62
     4
100
AcDbLine
 10
182.248581
 20
619.921408
 11
183.448578
 21
619.921408
  0
LINE
  5
2CF
100
AcDbEntity
  8
M0
 62
     4
100
AcDbLine
 10
183.448578
 20
626.121359
 11
182.248581
 21
626.121359
  0
CIRCLE
  5
2D0
100
AcDbEntity
  8
M0
 62
     4
100
AcDbCircle
 10
149.848563
 20
623.021505
 40
5.25
  0
LINE
  5
2D1
100
AcDbEntity
  8
M0
 62
     4
100
AcDbLine
 10
150.448554
 20
622.421408
 11
155.064139
 21
622.421408
  0
LINE
  5
2D2
100
AcDbEntity
  8
M0
 62
     4
100
AcDbLine
 10
144.632972
 20
622.421408
 11
149.248557
 21
622.421408
  0
LINE
  5
2D3
100
AcDbEntity
  8
M0
 62
     4
100
AcDbLine
 10
149.248557
 20
623.621344
 11
144.632941
 21
623.621344
  0
LINE
  5
2D4
100
AcDbEntity
  8
M0
 62
     4
100
AcDbLine
 10
155.06417
 20
623.621359
 11
150.448554
 21
623.621344
  0
LINE
  5
2D5
100
AcDbEntity
  8
M0
 62
     4
100
AcDbLine
 10
150.448554
 20
623.621359
 11
150.448554
 21
626.121359
  0
LINE
  5
2D6
100
AcDbEntity
  8
M0
 62
     4
100
AcDbLine
 10
150.448554
 20
619.921408
 11
150.448554
 21
622.421408
  0
LINE
  5
2D7
100
AcDbEntity
  8
M0
 62
     4
100
AcDbLine
 10
149.248557
 20
622.421408
 11
149.248557
 21
619.921408
  0
LINE
  5
2D8
100
AcDbEntity
  8
M0
 62
     4
100
AcDbLine
 10
149.248557
 20
626.121359
 11
149.248557
 21
623.621359
  0
LINE
  5
2D9
100
AcDbEntity
  8
M0
 62
     4
100
AcDbLine
 10
149.248557
 20
619.921408
 11
150.448554
 21
619.921408
  0
LINE
  5
2DA
100
AcDbEntity
  8
M0
 62
     4
100
AcDbLine
 10
150.448554
 20
626.121359
 11
149.248557
 21
626.121359
  0
LINE
  5
2DB
100
AcDbEntity
  8
M0
  6
DASHDOT
 62
     4
100
AcDbLine
 10
136.598563
 20
743.021505
 11
163.098563
 21
743.021505
  0
LINE
  5
2DC
100
AcDbEntity
  8
M0
  6
DASHDOT
 62
     4
100
AcDbLine
 10
149.848563
 20
729.771505
 11
149.848563
 21
756.271505
  0
LINE
  5
2DD
100
AcDbEntity
  8
M0
  6
DASHDOT
 62
     4
100
AcDbLine
 10
169.598587
 20
743.021505
 11
196.098586
 21
743.021505
  0
LINE
  5
2DE
100
AcDbEntity
  8
M0
  6
DASHDOT
 62
     4
100
AcDbLine
 10
202.598578
 20
743.021505
 11
229.098578
 21
743.021505
  0
LINE
  5
2DF
100
AcDbEntity
  8
M0
  6
DASHDOT
 62
     4
100
AcDbLine
 10
215.848578
 20
729.771505
 11
215.848578
 21
756.271505
  0
LINE
  5
2E0
100
AcDbEntity
  8
M0
  6
DASHDOT
 62
     4
100
AcDbLine
 10
136.598563
 20
623.021505
 11
163.098563
 21
623.021505
  0
LINE
  5
2E1
100
AcDbEntity
  8
M0
  6
DASHDOT
 62
     4
100
AcDbLine
 10
149.848563
 20
609.771505
 11
149.848563
 21
636.271505
  0
LINE
  5
2E2
100
AcDbEntity
  8
M0
  6
DASHDOT
 62
     4
100
AcDbLine
 10
169.598587
 20
623.021505
 11
196.098586
 21
623.021505
  0
LINE
  5
2E3
100
AcDbEntity
  8
M0
  6
DASHDOT
 62
     4
100
AcDbLine
 10
202.598578
 20
623.021505
 11
229.098578
 21
623.021505
  0
LINE
  5
2E4
100
AcDbEntity
  8
M0
  6
DASHDOT
 62
     4
100
AcDbLine
 10
215.848578
 20
609.771505
 11
215.848578
 21
636.271505
  0
LINE
  5
2E5
100
AcDbEntity
  8
M0
 62
     4
100
AcDbLine
 10
228.848761
 20
668.521629
 11
220.848426
 21
668.521634
  0
CIRCLE
  5
2E6
100
AcDbEntity
  8
M0
 62
     4
100
AcDbCircle
 10
259.848349
 20
672.521246
 40
3.0
  0
CIRCLE
  5
2E7
100
AcDbEntity
  8
M0
 62
     4
100
AcDbCircle
 10
259.848334
 20
663.021978
 40
3.0
  0
ARC
  5
2E8
100
AcDbEntity
  8
M0
 62
     4
100
AcDbCircle
 10
290.348968
 20
727.022268
 40
4.5
100
AcDbArc
 50
180.0
 51
360.0
  0
ARC
  5
2E9
100
AcDbEntity
  8
M0
 62
     4
100
AcDbCircle
 10
313.348967
 20
639.022284
 40
4.5
100
AcDbArc
 50
0.0
 51
179.999806
  0
LINE
  5
2EA
100
AcDbEntity
  8
M0
 62
     4
100
AcDbLine
 10
338.348716
 20
641.522253
 11
338.348716
 21
724.522039
  0
LINE
  5
2EB
100
AcDbEntity
  8
M0
 62
     4
100
AcDbLine
 10
324.848304
 20
732.021795
 11
317.348723
 21
732.021795
  0
LINE
  5
2EC
100
AcDbEntity
  8
M0
 62
     4
100
AcDbLine
 10
265.348731
 20
724.522039
 11
265.348731
 21
641.522268
  0
LINE
  5
2ED
100
AcDbEntity
  8
M0
 62
     4
100
AcDbLine
 10
267.348731
 20
726.522039
 11
282.848731
 21
726.522039
  0
LINE
  5
2EE
100
AcDbEntity
  8
M0
 62
     4
100
AcDbLine
 10
267.348731
 20
639.522268
 11
282.348792
 21
639.522268
  0
CIRCLE
  5
2EF
100
AcDbEntity
  8
M0
 62
     4
100
AcDbCircle
 10
333.848716
 20
712.522039
 40
1.5
  0
CIRCLE
  5
2F0
100
AcDbEntity
  8
M0
 62
     4
100
AcDbCircle
 10
333.848716
 20
712.522039
 40
1.0
  0
CIRCLE
  5
2F1
100
AcDbEntity
  8
M0
 62
     4
100
AcDbCircle
 10
333.848716
 20
653.522268
 40
1.5
  0
CIRCLE
  5
2F2
100
AcDbEntity
  8
M0
 62
     4
100
AcDbCircle
 10
333.848716
 20
653.522268
 40
1.0
  0
CIRCLE
  5
2F3
100
AcDbEntity
  8
M0
 62
     4
100
AcDbCircle
 10
269.848761
 20
712.522039
 40
1.5
  0
CIRCLE
  5
2F4
100
AcDbEntity
  8
M0
 62
     4
100
AcDbCircle
 10
269.848761
 20
712.522039
 40
1.0
  0
CIRCLE
  5
2F5
100
AcDbEntity
  8
M0
 62
     4
100
AcDbCircle
 10
269.848761
 20
653.522268
 40
1.5
  0
CIRCLE
  5
2F6
100
AcDbEntity
  8
M0
 62
     4
100
AcDbCircle
 10
269.848761
 20
653.522268
 40
1.0
  0
LINE
  5
2F7
100
AcDbEntity
  8
M0
 62
     4
100
AcDbLine
 10
328.848716
 20
726.022039
 11
328.848716
 21
723.522039
  0
LINE
  5
2F8
100
AcDbEntity
  8
M0
 62
     4
100
AcDbLine
 10
320.848716
 20
731.521551
 11
320.848716
 21
723.522039
  0
LINE
  5
2F9
100
AcDbEntity
  8
M0
 62
     4
100
AcDbLine
 10
316.848723
 20
731.521551
 11
316.848723
 21
726.522039
  0
LINE
  5
2FA
100
AcDbEntity
  8
M0
 62
     4
100
AcDbLine
 10
324.848716
 20
732.021795
 11
333.848716
 21
726.522039
  0
LINE
  5
2FB
100
AcDbEntity
  8
M0
 62
     4
100
AcDbLine
 10
297.848724
 20
731.521551
 11
297.848724
 21
723.522039
  0
LINE
  5
2FC
100
AcDbEntity
  8
M0
 62
     4
100
AcDbLine
 10
297.348724
 20
732.021795
 11
278.849128
 21
732.021551
  0
LINE
  5
2FD
100
AcDbEntity
  8
M0
 62
     4
100
AcDbLine
 10
278.848731
 20
732.021551
 11
269.848731
 21
726.522039
  0
ARC
  5
2FE
100
AcDbEntity
  8
M0
 62
     4
100
AcDbCircle
 10
267.348731
 20
724.522039
 40
2.0
100
AcDbArc
 50
89.999563
 51
180.0
  0
ARC
  5
2FF
100
AcDbEntity
  8
M0
 62
     4
100
AcDbCircle
 10
336.348716
 20
724.522039
 40
2.0
100
AcDbArc
 50
0.0
 51
90.0
  0
LINE
  5
300
100
AcDbEntity
  8
M0
 62
     4
100
AcDbLine
 10
297.848724
 20
726.522039
 11
316.848723
 21
726.522039
  0
LINE
  5
301
100
AcDbEntity
  8
M0
 62
     4
100
AcDbLine
 10
286.848785
 20
634.522497
 11
286.848785
 21
639.022268
  0
LINE
  5
302
100
AcDbEntity
  8
M0
 62
     4
100
AcDbLine
 10
282.848792
 20
634.522513
 11
282.848792
 21
642.522268
  0
LINE
  5
303
100
AcDbEntity
  8
M0
 62
     4
100
AcDbLine
 10
278.848792
 20
634.022513
 11
269.848777
 21
639.522284
  0
LINE
  5
304
100
AcDbEntity
  8
M0
 62
     4
100
AcDbLine
 10
278.849204
 20
634.022513
 11
286.348785
 21
634.022513
  0
LINE
  5
305
100
AcDbEntity
  8
M0
 62
     4
100
AcDbLine
 10
306.348723
 20
634.022513
 11
324.8487
 21
634.022513
  0
LINE
  5
306
100
AcDbEntity
  8
M0
 62
     4
100
AcDbLine
 10
324.848716
 20
634.022513
 11
333.848716
 21
639.522268
  0
ARC
  5
307
100
AcDbEntity
  8
M0
 62
     4
100
AcDbCircle
 10
336.348716
 20
641.522268
 40
2.0
100
AcDbArc
 50
269.999563
 51
360.0
  0
LINE
  5
308
100
AcDbEntity
  8
M0
 62
     4
100
AcDbLine
 10
320.848716
 20
642.522268
 11
320.848716
 21
634.522513
  0
LINE
  5
309
100
AcDbEntity
  8
M0
 62
     4
100
AcDbLine
 10
305.848723
 20
642.522268
 11
305.848723
 21
634.522513
  0
LINE
  5
30A
100
AcDbEntity
  8
M0
 62
     4
100
AcDbLine
 10
321.348716
 20
639.522268
 11
336.348716
 21
639.522268
  0
ARC
  5
30B
100
AcDbEntity
  8
M0
 62
     4
100
AcDbCircle
 10
267.348731
 20
641.522268
 40
2.0
100
AcDbArc
 50
179.999563
 51
270.0
  0
LINE
  5
30C
100
AcDbEntity
  8
M0
 62
     4
100
AcDbLine
 10
294.848724
 20
731.521551
 11
294.848724
 21
727.022039
  0
LINE
  5
30D
100
AcDbEntity
  8
M0
 62
     4
100
AcDbLine
 10
285.848724
 20
731.521551
 11
285.848724
 21
727.022039
  0
LINE
  5
30E
100
AcDbEntity
  8
M0
 62
     4
100
AcDbLine
 10
317.848716
 20
639.022268
 11
317.848716
 21
634.522513
  0
LINE
  5
30F
100
AcDbEntity
  8
M0
 62
     4
100
AcDbLine
 10
308.848723
 20
639.022253
 11
308.848723
 21
634.522497
  0
CIRCLE
  5
310
100
AcDbEntity
  8
M0
 62
     4
100
AcDbCircle
 10
313.348723
 20
639.022268
 40
2.75
  0
CIRCLE
  5
311
100
AcDbEntity
  8
M0
 62
     4
100
AcDbCircle
 10
290.348724
 20
727.022039
 40
2.75
  0
CIRCLE
  5
312
100
AcDbEntity
  8
M0
 62
     4
100
AcDbCircle
 10
290.348724
 20
727.022039
 40
2.0
  0
CIRCLE
  5
313
100
AcDbEntity
  8
M0
 62
     4
100
AcDbCircle
 10
313.348723
 20
639.022268
 40
2.0
  0
LINE
  5
314
100
AcDbEntity
  8
M0
 62
     4
100
AcDbLine
 10
297.848724
 20
723.522039
 11
305.848723
 21
723.522039
  0
LINE
  5
315
100
AcDbEntity
  8
M0
 62
     4
100
AcDbLine
 10
274.848731
 20
723.522039
 11
282.848731
 21
723.522039
  0
LINE
  5
316
100
AcDbEntity
  8
M0
 62
     4
100
AcDbLine
 10
305.848723
 20
726.022039
 11
305.848723
 21
723.522039
  0
LINE
  5
317
100
AcDbEntity
  8
M0
 62
     4
100
AcDbLine
 10
320.848716
 20
723.522039
 11
328.848716
 21
723.522039
  0
LINE
  5
318
100
AcDbEntity
  8
M0
 62
     4
100
AcDbLine
 10
274.848731
 20
726.022039
 11
274.848731
 21
723.522039
  0
LINE
  5
319
100
AcDbEntity
  8
M0
 62
     4
100
AcDbLine
 10
274.848685
 20
640.022253
 11
274.848685
 21
642.522268
  0
LINE
  5
31A
100
AcDbEntity
  8
M0
 62
     4
100
AcDbLine
 10
274.848685
 20
642.522268
 11
282.848685
 21
642.522268
  0
LINE
  5
31B
100
AcDbEntity
  8
M0
 62
     4
100
AcDbLine
 10
297.848678
 20
642.522268
 11
305.848677
 21
642.522268
  0
LINE
  5
31C
100
AcDbEntity
  8
M0
 62
     4
100
AcDbLine
 10
297.848663
 20
640.022253
 11
297.848678
 21
642.522268
  0
LINE
  5
31D
100
AcDbEntity
  8
M0
 62
     4
100
AcDbLine
 10
328.84867
 20
640.022268
 11
328.84867
 21
642.522268
  0
LINE
  5
31E
100
AcDbEntity
  8
M0
 62
     4
100
AcDbLine
 10
320.84867
 20
642.522268
 11
328.84867
 21
642.522268
  0
LINE
  5
31F
100
AcDbEntity
  8
M0
 62
     4
100
AcDbLine
 10
282.848731
 20
731.521551
 11
282.848731
 21
723.522039
  0
ARC
  5
320
100
AcDbEntity
  8
M0
 62
     4
100
AcDbCircle
 10
317.348723
 20
731.521551
 40
0.5
100
AcDbArc
 50
90.0
 51
180.0
  0
ARC
  5
321
100
AcDbEntity
  8
M0
 62
     4
100
AcDbCircle
 10
297.348724
 20
731.521551
 40
0.5
100
AcDbArc
 50
0.0
 51
90.0
  0
ARC
  5
322
100
AcDbEntity
  8
M0
 62
     4
100
AcDbCircle
 10
320.348716
 20
731.521551
 40
0.5
100
AcDbArc
 50
0.0
 51
90.0
  0
ARC
  5
323
100
AcDbEntity
  8
M0
 62
     4
100
AcDbCircle
 10
285.348731
 20
731.521551
 40
0.5
100
AcDbArc
 50
0.0
 51
89.998251
  0
ARC
  5
324
100
AcDbEntity
  8
M0
 62
     4
100
AcDbCircle
 10
295.348724
 20
731.521551
 40
0.5
100
AcDbArc
 50
90.0
 51
180.0
  0
ARC
  5
325
100
AcDbEntity
  8
M0
 62
     4
100
AcDbCircle
 10
283.348731
 20
731.521551
 40
0.5
100
AcDbArc
 50
89.998251
 51
180.0
  0
ARC
  5
326
100
AcDbEntity
  8
M0
 62
     4
100
AcDbCircle
 10
329.34867
 20
640.022268
 40
0.5
100
AcDbArc
 50
179.998251
 51
269.998251
  0
ARC
  5
327
100
AcDbEntity
  8
M0
 62
     4
100
AcDbCircle
 10
321.348716
 20
639.022268
 40
0.5
100
AcDbArc
 50
90.0
 51
179.998251
  0
ARC
  5
328
100
AcDbEntity
  8
M0
 62
     4
100
AcDbCircle
 10
320.348716
 20
634.522513
 40
0.5
100
AcDbArc
 50
269.998251
 51
360.0
  0
ARC
  5
329
100
AcDbEntity
  8
M0
 62
     4
100
AcDbCircle
 10
318.348716
 20
634.522513
 40
0.5
100
AcDbArc
 50
179.998251
 51
269.998251
  0
ARC
  5
32A
100
AcDbEntity
  8
M0
 62
     4
100
AcDbCircle
 10
308.348723
 20
634.522497
 40
0.5
100
AcDbArc
 50
270.0
 51
360.0
  0
ARC
  5
32B
100
AcDbEntity
  8
M0
 62
     4
100
AcDbCircle
 10
306.348723
 20
634.522513
 40
0.5
100
AcDbArc
 50
179.998251
 51
270.0
  0
ARC
  5
32C
100
AcDbEntity
  8
M0
 62
     4
100
AcDbCircle
 10
286.348785
 20
634.522513
 40
0.5
100
AcDbArc
 50
270.0
 51
360.0
  0
ARC
  5
32D
100
AcDbEntity
  8
M0
 62
     4
100
AcDbCircle
 10
283.348792
 20
634.522513
 40
0.5
100
AcDbArc
 50
179.998251
 51
270.0
  0
LINE
  5
32E
100
AcDbEntity
  8
M0
 62
     4
100
AcDbLine
 10
320.848716
 20
726.522039
 11
336.348716
 21
726.522039
  0
ARC
  5
32F
100
AcDbEntity
  8
M0
 62
     4
100
AcDbCircle
 10
274.348731
 20
726.022039
 40
0.5
100
AcDbArc
 50
0.0
 51
89.998251
  0
ARC
  5
330
100
AcDbEntity
  8
M0
 62
     4
100
AcDbCircle
 10
305.348723
 20
639.022268
 40
0.5
100
AcDbArc
 50
0.0
 51
90.0
  0
ARC
  5
331
100
AcDbEntity
  8
M0
 62
     4
100
AcDbCircle
 10
297.348663
 20
640.022268
 40
0.5
100
AcDbArc
 50
270.0
 51
360.0
  0
LINE
  5
332
100
AcDbEntity
  8
M0
 62
     4
100
AcDbLine
 10
287.348785
 20
639.522268
 11
305.348723
 21
639.522268
  0
ARC
  5
333
100
AcDbEntity
  8
M0
 62
     4
100
AcDbCircle
 10
287.348785
 20
639.022268
 40
0.5
100
AcDbArc
 50
90.0
 51
179.998251
  0
ARC
  5
334
100
AcDbEntity
  8
M0
 62
     4
100
AcDbCircle
 10
282.348792
 20
639.022268
 40
0.5
100
AcDbArc
 50
0.0
 51
89.998251
  0
ARC
  5
335
100
AcDbEntity
  8
M0
 62
     4
100
AcDbCircle
 10
274.348685
 20
640.022268
 40
0.5
100
AcDbArc
 50
270.0
 51
360.0
  0
ARC
  5
336
100
AcDbEntity
  8
M0
 62
     4
100
AcDbCircle
 10
306.348723
 20
726.022039
 40
0.5
100
AcDbArc
 50
90.0
 51
180.0
  0
ARC
  5
337
100
AcDbEntity
  8
M0
 62
     4
100
AcDbCircle
 10
329.348716
 20
726.022039
 40
0.5
100
AcDbArc
 50
90.0
 51
180.0
  0
LINE
  5
338
100
AcDbEntity
  8
M0
 62
     4
100
AcDbLine
 10
267.348761
 20
633.521902
 11
307.348647
 21
633.521902
  0
LINE
  5
339
100
AcDbEntity
  8
M0
 62
     4
100
AcDbLine
 10
351.8487
 20
646.021887
 11
351.8487
 21
720.021902
  0
LINE
  5
33A
100
AcDbEntity
  8
M0
 62
     4
100
AcDbLine
 10
336.3487
 20
732.521658
 11
307.34854
 21
732.521475
  0
LINE
  5
33B
100
AcDbEntity
  8
M0
 62
     4
100
AcDbLine
 10
251.848716
 20
720.02117
 11
251.848716
 21
646.021887
  0
LINE
  5
33C
100
AcDbEntity
  8
M0
  6
DASHDOT
 62
     4
100
AcDbLine
 10
242.348532
 20
683.021902
 11
301.848709
 21
683.021902
  0
LINE
  5
33D
100
AcDbEntity
  8
M0
 62
     4
100
AcDbLine
 10
337.3487
 20
726.254126
 11
337.3487
 21
731.521414
  0
ARC
  5
33E
100
AcDbEntity
  8
M0
 62
     4
100
AcDbCircle
 10
336.3487
 20
731.521414
 40
1.0
100
AcDbArc
 50
0.0
 51
90.0
  0
LINE
  5
33F
100
AcDbEntity
  8
M0
 62
     4
100
AcDbLine
 10
338.3487
 20
720.521902
 11
351.3487
 21
720.521902
  0
LINE
  5
340
100
AcDbEntity
  8
M0
 62
     4
100
AcDbLine
 10
294.848709
 20
735.021414
 11
285.848709
 21
735.021414
  0
LINE
  5
341
100
AcDbEntity
  8
M0
 62
     4
100
AcDbLine
 10
284.348716
 20
732.521414
 11
267.348777
 21
732.521414
  0
ARC
  5
342
100
AcDbEntity
  8
M0
 62
     4
100
AcDbCircle
 10
294.848709
 20
734.02117
 40
1.0
100
AcDbArc
 50
0.0
 51
90.0
  0
ARC
  5
343
100
AcDbEntity
  8
M0
 62
     4
100
AcDbCircle
 10
285.848709
 20
734.02117
 40
1.0
100
AcDbArc
 50
90.0
 51
180.013988
  0
LINE
  5
344
100
AcDbEntity
  8
M0
 62
     4
100
AcDbLine
 10
338.348655
 20
645.521902
 11
351.3487
 21
645.521902
  0
LINE
  5
345
100
AcDbEntity
  8
M0
 62
     4
100
AcDbLine
 10
337.348655
 20
639.790197
 11
337.348655
 21
634.52239
  0
ARC
  5
346
100
AcDbEntity
  8
M0
 62
     4
100
AcDbCircle
 10
336.348655
 20
634.52239
 40
1.0
100
AcDbArc
 50
-90.000874
 51
0.0
  0
ARC
  5
347
100
AcDbEntity
  8
M0
 62
     4
100
AcDbCircle
 10
267.348777
 20
731.521414
 40
1.0
100
AcDbArc
 50
89.999126
 51
180.0
  0
ARC
  5
348
100
AcDbEntity
  8
M0
 62
     4
100
AcDbCircle
 10
267.348761
 20
634.522406
 40
1.0
100
AcDbArc
 50
179.999126
 51
270.0
  0
LINE
  5
349
100
AcDbEntity
  8
M0
 62
     4
100
AcDbLine
 10
266.348761
 20
726.254126
 11
266.348777
 21
731.521414
  0
LINE
  5
34A
100
AcDbEntity
  8
M0
 62
     4
100
AcDbLine
 10
308.348708
 20
727.021902
 11
313.598891
 21
727.021902
  0
ARC
  5
34B
100
AcDbEntity
  8
M0
 62
     4
100
AcDbCircle
 10
313.598891
 20
725.521902
 40
1.5
100
AcDbArc
 50
41.818195
 51
90.0
  0
LINE
  5
34C
100
AcDbEntity
  8
M0
 62
     4
100
AcDbLine
 10
290.098511
 20
639.021902
 11
295.348648
 21
639.021902
  0
ARC
  5
34D
100
AcDbEntity
  8
M0
 62
     4
100
AcDbCircle
 10
290.098511
 20
640.521902
 40
1.5
100
AcDbArc
 50
221.790001
 51
270.0
  0
LINE
  5
34E
100
AcDbEntity
  8
M0
 62
     4
100
AcDbLine
 10
309.59854
 20
631.021902
 11
317.848639
 21
631.021902
  0
LINE
  5
34F
100
AcDbEntity
  8
M0
 62
     4
100
AcDbLine
 10
319.348639
 20
633.521902
 11
336.348655
 21
633.521902
  0
ARC
  5
350
100
AcDbEntity
  8
M0
 62
     4
100
AcDbCircle
 10
317.848639
 20
632.021902
 40
1.0
100
AcDbArc
 50
269.999126
 51
360.0
  0
LINE
  5
351
100
AcDbEntity
  8
M0
 62
     4
100
AcDbLine
 10
266.348746
 20
639.522299
 11
266.348761
 21
634.522406
  0
LINE
  5
352
100
AcDbEntity
  8
M0
 62
     4
100
AcDbLine
 10
265.348746
 20
720.521414
 11
252.348716
 21
720.521414
  0
LINE
  5
353
100
AcDbEntity
  8
M0
 62
     4
100
AcDbLine
 10
265.348746
 20
645.521902
 11
252.348716
 21
645.521887
  0
LINE
  5
354
100
AcDbEntity
  8
M0
 62
     4
100
AcDbLine
 10
348.3487
 20
710.521902
 11
351.8487
 21
710.521902
  0
LINE
  5
355
100
AcDbEntity
  8
M0
 62
     4
100
AcDbLine
 10
349.3487
 20
720.521902
 11
349.3487
 21
710.521902
  0
LINE
  5
356
100
AcDbEntity
  8
M0
 62
     4
100
AcDbLine
 10
349.3487
 20
718.021902
 11
351.8487
 21
718.021902
  0
ARC
  5
357
100
AcDbEntity
  8
M0
 62
     4
100
AcDbCircle
 10
351.3487
 20
720.021902
 40
0.5
100
AcDbArc
 50
0.0
 51
90.0
  0
ARC
  5
358
100
AcDbEntity
  8
M0
 62
     4
100
AcDbCircle
 10
252.348716
 20
720.02117
 40
0.5
100
AcDbArc
 50
89.998251
 51
180.0
  0
ARC
  5
359
100
AcDbEntity
  8
M0
 62
     4
100
AcDbCircle
 10
252.348716
 20
646.021887
 40
0.5
100
AcDbArc
 50
179.998251
 51
270.0
  0
ARC
  5
35A
100
AcDbEntity
  8
M0
 62
     4
100
AcDbCircle
 10
351.3487
 20
646.021902
 40
0.5
100
AcDbArc
 50
269.998251
 51
360.0
  0
LINE
  5
35B
100
AcDbEntity
  8
M0
 62
     4
100
AcDbLine
 10
252.348716
 20
665.521902
 11
255.348716
 21
665.521902
  0
LINE
  5
35C
100
AcDbEntity
  8
M0
 62
     4
100
AcDbLine
 10
255.848716
 20
668.521902
 11
256.905982
 21
668.521902
  0
LINE
  5
35D
100
AcDbEntity
  8
M0
 62
     4
100
AcDbLine
 10
255.848716
 20
657.521902
 11
265.348746
 21
657.521902
  0
LINE
  5
35E
100
AcDbEntity
  8
M0
 62
     4
100
AcDbLine
 10
252.348716
 20
655.521902
 11
255.348716
 21
655.521902
  0
LINE
  5
35F
100
AcDbEntity
  8
M0
 62
     4
100
AcDbLine
 10
254.348716
 20
655.521902
 11
254.348716
 21
645.521902
  0
LINE
  5
360
100
AcDbEntity
  8
M0
 62
     4
100
AcDbLine
 10
251.848716
 20
648.021902
 11
254.348716
 21
648.021902
  0
LINE
  5
361
100
AcDbEntity
  8
M0
 62
     4
100
AcDbLine
 10
264.348716
 20
666.521902
 11
265.348746
 21
666.521902
  0
ARC
  5
362
100
AcDbEntity
  8
M0
 62
     4
100
AcDbCircle
 10
255.348716
 20
656.021902
 40
0.5
100
AcDbArc
 50
270.0
 51
360.0
  0
ARC
  5
363
100
AcDbEntity
  8
M0
 62
     4
100
AcDbCircle
 10
252.348716
 20
656.021902
 40
0.5
100
AcDbArc
 50
179.998251
 51
270.0
  0
ARC
  5
364
100
AcDbEntity
  8
M0
 62
     4
100
AcDbCircle
 10
252.348716
 20
666.021902
 40
0.5
100
AcDbArc
 50
179.998251
 51
270.0
  0
ARC
  5
365
100
AcDbEntity
  8
M0
 62
     4
100
AcDbCircle
 10
255.348716
 20
666.021902
 40
0.5
100
AcDbArc
 50
270.0
 51
360.0
  0
LINE
  5
366
100
AcDbEntity
  8
M0
 62
     4
100
AcDbLine
 10
252.348716
 20
700.521658
 11
255.348716
 21
700.521658
  0
ARC
  5
367
100
AcDbEntity
  8
M0
 62
     4
100
AcDbCircle
 10
255.348716
 20
700.021658
 40
0.5
100
AcDbArc
 50
0.0
 51
89.998251
  0
LINE
  5
368
100
AcDbEntity
  8
M0
 62
     4
100
AcDbLine
 10
264.348716
 20
699.521658
 11
265.348746
 21
699.521658
  0
LINE
  5
369
100
AcDbEntity
  8
M0
 62
     4
100
AcDbLine
 10
254.348716
 20
710.521658
 11
254.348716
 21
720.521658
  0
LINE
  5
36A
100
AcDbEntity
  8
M0
 62
     4
100
AcDbLine
 10
251.848716
 20
718.021658
 11
254.348716
 21
718.021658
  0
LINE
  5
36B
100
AcDbEntity
  8
M0
 62
     4
100
AcDbLine
 10
252.348716
 20
710.521658
 11
255.348716
 21
710.521658
  0
ARC
  5
36C
100
AcDbEntity
  8
M0
 62
     4
100
AcDbCircle
 10
255.348716
 20
710.021658
 40
0.5
100
AcDbArc
 50
0.0
 51
89.998251
  0
LINE
  5
36D
100
AcDbEntity
  8
M0
 62
     4
100
AcDbLine
 10
255.848716
 20
708.521658
 11
265.348746
 21
708.521658
  0
ARC
  5
36E
100
AcDbEntity
  8
M0
 62
     4
100
AcDbCircle
 10
252.348716
 20
700.021658
 40
0.5
100
AcDbArc
 50
89.998251
 51
180.0
  0
ARC
  5
36F
100
AcDbEntity
  8
M0
 62
     4
100
AcDbCircle
 10
252.348716
 20
710.021658
 40
0.5
100
AcDbArc
 50
89.998251
 51
180.0
  0
LINE
  5
370
100
AcDbEntity
  8
M0
 62
     4
100
AcDbLine
 10
351.3487
 20
665.521658
 11
348.3487
 21
665.521658
  0
LINE
  5
371
100
AcDbEntity
  8
M0
 62
     4
100
AcDbLine
 10
339.3487
 20
666.521658
 11
338.348731
 21
666.521658
  0
ARC
  5
372
100
AcDbEntity
  8
M0
 62
     4
100
AcDbCircle
 10
348.3487
 20
666.021658
 40
0.5
100
AcDbArc
 50
179.998251
 51
269.998251
  0
ARC
  5
373
100
AcDbEntity
  8
M0
 62
     4
100
AcDbCircle
 10
351.3487
 20
666.021658
 40
0.5
100
AcDbArc
 50
-90.001749
 51
0.0
  0
LINE
  5
374
100
AcDbEntity
  8
M0
 62
     4
100
AcDbLine
 10
347.8487
 20
657.521658
 11
338.348731
 21
657.521658
  0
ARC
  5
375
100
AcDbEntity
  8
M0
 62
     4
100
AcDbCircle
 10
348.3487
 20
656.021658
 40
0.5
100
AcDbArc
 50
179.998251
 51
269.998251
  0
LINE
  5
376
100
AcDbEntity
  8
M0
 62
     4
100
AcDbLine
 10
351.3487
 20
655.521658
 11
348.3487
 21
655.521658
  0
LINE
  5
377
100
AcDbEntity
  8
M0
 62
     4
100
AcDbLine
 10
349.3487
 20
655.521658
 11
349.3487
 21
645.521887
  0
LINE
  5
378
100
AcDbEntity
  8
M0
 62
     4
100
AcDbLine
 10
351.8487
 20
648.021872
 11
349.3487
 21
648.021887
  0
LINE
  5
379
100
AcDbEntity
  8
M0
 62
     4
100
AcDbLine
 10
347.8487
 20
697.521902
 11
346.790931
 21
697.521902
  0
LINE
  5
37A
100
AcDbEntity
  8
M0
 62
     4
100
AcDbLine
 10
339.3487
 20
699.521902
 11
338.348731
 21
699.521902
  0
ARC
  5
37B
100
AcDbEntity
  8
M0
 62
     4
100
AcDbCircle
 10
348.3487
 20
700.021902
 40
0.5
100
AcDbArc
 50
90.0
 51
180.0
  0
LINE
  5
37C
100
AcDbEntity
  8
M0
 62
     4
100
AcDbLine
 10
351.3487
 20
700.521902
 11
348.3487
 21
700.521902
  0
ARC
  5
37D
100
AcDbEntity
  8
M0
 62
     4
100
AcDbCircle
 10
351.3487
 20
700.021902
 40
0.5
100
AcDbArc
 50
0.0
 51
90.0
  0
LINE
  5
37E
100
AcDbEntity
  8
M0
 62
     4
100
AcDbLine
 10
347.8487
 20
708.521902
 11
338.348731
 21
708.521902
  0
ARC
  5
37F
100
AcDbEntity
  8
M0
 62
     4
100
AcDbCircle
 10
348.3487
 20
710.021902
 40
0.5
100
AcDbArc
 50
90.0
 51
180.0
  0
ARC
  5
380
100
AcDbEntity
  8
M0
 62
     4
100
AcDbCircle
 10
351.3487
 20
656.021658
 40
0.5
100
AcDbArc
 50
-90.001749
 51
0.0
  0
LINE
  5
381
100
AcDbEntity
  8
M0
 62
     4
100
AcDbLine
 10
251.848716
 20
686.771902
 11
258.848716
 21
686.771902
  0
LINE
  5
382
100
AcDbEntity
  8
M0
 62
     4
100
AcDbLine
 10
251.848716
 20
679.271902
 11
258.848716
 21
679.271902
  0
LINE
  5
383
100
AcDbEntity
  8
M0
 62
     4
100
AcDbLine
 10
259.848716
 20
685.771902
 11
259.848716
 21
680.271902
  0
ARC
  5
384
100
AcDbEntity
  8
M0
 62
     4
100
AcDbCircle
 10
258.848716
 20
680.271902
 40
1.0
100
AcDbArc
 50
270.0
 51
360.0
  0
ARC
  5
385
100
AcDbEntity
  8
M0
 62
     4
100
AcDbCircle
 10
258.848716
 20
685.771902
 40
1.0
100
AcDbArc
 50
0.0
 51
89.999126
  0
LINE
  5
386
100
AcDbEntity
  8
M0
 62
     4
100
AcDbLine
 10
255.848716
 20
686.771902
 11
255.848716
 21
685.771902
  0
LINE
  5
387
100
AcDbEntity
  8
M0
 62
     4
100
AcDbLine
 10
251.848716
 20
685.771902
 11
255.848716
 21
685.771902
  0
LINE
  5
388
100
AcDbEntity
  8
M0
 62
     4
100
AcDbLine
 10
251.848716
 20
680.271902
 11
255.848716
 21
680.271902
  0
LINE
  5
389
100
AcDbEntity
  8
M0
 62
     4
100
AcDbLine
 10
255.848716
 20
680.271902
 11
255.848716
 21
679.271902
  0
LINE
  5
38A
100
AcDbEntity
  8
M0
 62
     4
100
AcDbLine
 10
351.848731
 20
686.771658
 11
344.848731
 21
686.771658
  0
LINE
  5
38B
100
AcDbEntity
  8
M0
 62
     4
100
AcDbLine
 10
351.848731
 20
685.771658
 11
347.848731
 21
685.771658
  0
LINE
  5
38C
100
AcDbEntity
  8
M0
 62
     4
100
AcDbLine
 10
347.848731
 20
686.771658
 11
347.848731
 21
685.771658
  0
ARC
  5
38D
100
AcDbEntity
  8
M0
 62
     4
100
AcDbCircle
 10
344.848731
 20
685.771658
 40
1.0
100
AcDbArc
 50
90.0
 51
180.0
  0
LINE
  5
38E
100
AcDbEntity
  8
M0
 62
     4
100
AcDbLine
 10
343.848731
 20
685.771658
 11
343.848731
 21
680.271658
  0
ARC
  5
38F
100
AcDbEntity
  8
M0
 62
     4
100
AcDbCircle
 10
344.848731
 20
680.271658
 40
1.0
100
AcDbArc
 50
179.999945
 51
269.999126
  0
LINE
  5
390
100
AcDbEntity
  8
M0
 62
     4
100
AcDbLine
 10
351.848731
 20
679.271658
 11
344.848731
 21
679.271658
  0
LINE
  5
391
100
AcDbEntity
  8
M0
 62
     4
100
AcDbLine
 10
351.848731
 20
680.271658
 11
347.848731
 21
680.271658
  0
LINE
  5
392
100
AcDbEntity
  8
M0
 62
     4
100
AcDbLine
 10
347.848731
 20
680.271658
 11
347.848731
 21
679.271658
  0
LINE
  5
393
100
AcDbEntity
  8
M0
 62
     4
100
AcDbLine
 10
292.548645
 20
636.021902
 11
295.348648
 21
636.021902
  0
LINE
  5
394
100
AcDbEntity
  8
M0
 62
     4
100
AcDbLine
 10
292.048645
 20
635.521902
 11
292.048645
 21
633.521902
  0
LINE
  5
395
100
AcDbEntity
  8
M0
  6
DASHDOT
 62
     4
100
AcDbLine
 10
301.848709
 20
683.021902
 11
365.417136
 21
683.021902
  0
ARC
  5
396
100
AcDbEntity
  8
M0
 62
     4
100
AcDbCircle
 10
296.348709
 20
732.021414
 40
0.5
100
AcDbArc
 50
90.0
 51
180.0
  0
ARC
  5
397
100
AcDbEntity
  8
M0
 62
     4
100
AcDbCircle
 10
284.348716
 20
732.02117
 40
0.5
100
AcDbArc
 50
0.0
 51
89.998251
  0
LINE
  5
398
100
AcDbEntity
  8
M0
 62
     4
100
AcDbLine
 10
311.648696
 20
732.521414
 11
311.648696
 21
730.521658
  0
LINE
  5
399
100
AcDbEntity
  8
M0
 62
     4
100
AcDbLine
 10
308.348708
 20
730.021658
 11
311.148696
 21
730.021658
  0
ARC
  5
39A
100
AcDbEntity
  8
M0
 62
     4
100
AcDbCircle
 10
311.148696
 20
730.521658
 40
0.5
100
AcDbArc
 50
270.0
 51
360.0
  0
ARC
  5
39B
100
AcDbEntity
  8
M0
 62
     4
100
AcDbCircle
 10
308.348708
 20
729.521658
 40
0.5
100
AcDbArc
 50
90.0
 51
180.0
  0
ARC
  5
39C
100
AcDbEntity
  8
M0
 62
     4
100
AcDbCircle
 10
308.348708
 20
727.521902
 40
0.5
100
AcDbArc
 50
180.0
 51
270.0
  0
ARC
  5
39D
100
AcDbEntity
  8
M0
 62
     4
100
AcDbCircle
 10
292.548645
 20
635.521902
 40
0.5
100
AcDbArc
 50
90.0
 51
179.998251
  0
ARC
  5
39E
100
AcDbEntity
  8
M0
 62
     4
100
AcDbCircle
 10
295.348648
 20
636.521902
 40
0.5
100
AcDbArc
 50
270.0
 51
360.0
  0
ARC
  5
39F
100
AcDbEntity
  8
M0
 62
     4
100
AcDbCircle
 10
295.348648
 20
638.521902
 40
0.5
100
AcDbArc
 50
0.0
 51
90.0
  0
LINE
  5
3A0
100
AcDbEntity
  8
M0
 62
     4
100
AcDbLine
 10
255.348716
 20
686.771902
 11
255.348716
 21
685.771902
  0
LINE
  5
3A1
100
AcDbEntity
  8
M0
 62
     4
100
AcDbLine
 10
255.348716
 20
680.271902
 11
255.348716
 21
679.271902
  0
LINE
  5
3A2
100
AcDbEntity
  8
M0
 62
     4
100
AcDbLine
 10
348.348731
 20
686.771658
 11
348.348731
 21
685.771658
  0
LINE
  5
3A3
100
AcDbEntity
  8
M0
 62
     4
100
AcDbLine
 10
348.348731
 20
680.271658
 11
348.348731
 21
679.271658
  0
LINE
  5
3A4
100
AcDbEntity
  8
M0
 62
     4
100
AcDbLine
 10
295.848602
 20
734.035574
 11
295.848602
 21
732.521658
  0
LINE
  5
3A5
100
AcDbEntity
  8
M0
 62
     4
100
AcDbLine
 10
284.848609
 20
734.02117
 11
284.848609
 21
732.521658
  0
LINE
  5
3A6
100
AcDbEntity
  8
M0
 62
     4
100
AcDbLine
 10
263.848716
 20
676.521902
 11
263.848716
 21
657.521902
  0
LINE
  5
3A7
100
AcDbEntity
  8
M0
 62
     4
100
AcDbLine
 10
255.848716
 20
676.521902
 11
255.848716
 21
656.021902
  0
ARC
  5
3A8
100
AcDbEntity
  8
M0
 62
     4
100
AcDbCircle
 10
262.848716
 20
676.521902
 40
1.0
100
AcDbArc
 50
0.0
 51
89.999126
  0
ARC
  5
3A9
100
AcDbEntity
  8
M0
 62
     4
100
AcDbCircle
 10
264.348716
 20
667.021902
 40
0.5
100
AcDbArc
 50
179.999891
 51
270.0
  0
ARC
  5
3AA
100
AcDbEntity
  8
M0
 62
     4
100
AcDbCircle
 10
262.848716
 20
689.521658
 40
1.0
100
AcDbArc
 50
-90.0
 51
0.0
  0
LINE
  5
3AB
100
AcDbEntity
  8
M0
 62
     4
100
AcDbLine
 10
255.848716
 20
689.521658
 11
255.848716
 21
710.021658
  0
LINE
  5
3AC
100
AcDbEntity
  8
M0
 62
     4
100
AcDbLine
 10
263.848716
 20
689.521658
 11
263.848716
 21
708.521658
  0
ARC
  5
3AD
100
AcDbEntity
  8
M0
 62
     4
100
AcDbCircle
 10
264.348716
 20
699.021658
 40
0.5
100
AcDbArc
 50
89.998251
 51
180.0
  0
ARC
  5
3AE
100
AcDbEntity
  8
M0
 62
     4
100
AcDbCircle
 10
340.8487
 20
676.521658
 40
1.0
100
AcDbArc
 50
90.0
 51
179.999945
  0
LINE
  5
3AF
100
AcDbEntity
  8
M0
 62
     4
100
AcDbLine
 10
347.8487
 20
676.521658
 11
347.8487
 21
656.021658
  0
LINE
  5
3B0
100
AcDbEntity
  8
M0
 62
     4
100
AcDbLine
 10
339.8487
 20
676.521658
 11
339.8487
 21
657.521658
  0
ARC
  5
3B1
100
AcDbEntity
  8
M0
 62
     4
100
AcDbCircle
 10
339.3487
 20
667.021658
 40
0.5
100
AcDbArc
 50
-90.001749
 51
0.0
  0
ARC
  5
3B2
100
AcDbEntity
  8
M0
 62
     4
100
AcDbCircle
 10
340.8487
 20
689.521902
 40
1.0
100
AcDbArc
 50
180.0
 51
269.999126
  0
LINE
  5
3B3
100
AcDbEntity
  8
M0
 62
     4
100
AcDbLine
 10
339.8487
 20
689.521902
 11
339.8487
 21
708.521902
  0
LINE
  5
3B4
100
AcDbEntity
  8
M0
 62
     4
100
AcDbLine
 10
347.8487
 20
689.521902
 11
347.8487
 21
710.021902
  0
LINE
  5
3B5
100
AcDbEntity
  8
M0
 62
     4
100
AcDbLine
 10
339.8487
 20
689.521902
 11
339.8487
 21
708.521902
  0
LINE
  5
3B6
100
AcDbEntity
  8
M0
 62
     4
100
AcDbLine
 10
339.8487
 20
689.521902
 11
339.8487
 21
708.521902
  0
ARC
  5
3B7
100
AcDbEntity
  8
M0
 62
     4
100
AcDbCircle
 10
339.3487
 20
699.021902
 40
0.5
100
AcDbArc
 50
0.0
 51
90.0
  0
LINE
  5
3B8
100
AcDbEntity
  8
M0
 62
     4
100
AcDbLine
 10
263.848746
 20
707.121267
 11
255.848716
 21
707.121267
  0
LINE
  5
3B9
100
AcDbEntity
  8
M0
 62
     4
100
AcDbLine
 10
263.848746
 20
658.922537
 11
262.760306
 21
658.922537
  0
LINE
  5
3BA
100
AcDbEntity
  8
M0
 62
     4
100
AcDbLine
 10
256.848716
 20
677.521902
 11
262.848716
 21
677.521902
  0
ARC
  5
3BB
100
AcDbEntity
  8
M0
 62
     4
100
AcDbCircle
 10
256.848716
 20
676.521902
 40
1.0
100
AcDbArc
 50
89.999126
 51
179.999945
  0
LINE
  5
3BC
100
AcDbEntity
  8
M0
 62
     4
100
AcDbLine
 10
256.848716
 20
688.521658
 11
262.848716
 21
688.521658
  0
ARC
  5
3BD
100
AcDbEntity
  8
M0
 62
     4
100
AcDbCircle
 10
256.848716
 20
689.521658
 40
1.0
100
AcDbArc
 50
180.0
 51
270.0
  0
ARC
  5
3BE
100
AcDbEntity
  8
M0
 62
     4
100
AcDbCircle
 10
346.8487
 20
676.521658
 40
1.0
100
AcDbArc
 50
0.0
 51
90.0
  0
LINE
  5
3BF
100
AcDbEntity
  8
M0
 62
     4
100
AcDbLine
 10
346.848731
 20
677.521658
 11
340.848731
 21
677.521658
  0
LINE
  5
3C0
100
AcDbEntity
  8
M0
 62
     4
100
AcDbLine
 10
346.848731
 20
688.521902
 11
340.848731
 21
688.521902
  0
ARC
  5
3C1
100
AcDbEntity
  8
M0
 62
     4
100
AcDbCircle
 10
346.8487
 20
689.521902
 40
1.0
100
AcDbArc
 50
269.999126
 51
360.0
  0
ARC
  5
3C2
100
AcDbEntity
  8
M0
 62
     4
100
AcDbCircle
 10
319.348639
 20
634.021902
 40
0.5
100
AcDbArc
 50
179.998251
 51
269.998251
  0
ARC
  5
3C3
100
AcDbEntity
  8
M0
 62
     4
100
AcDbCircle
 10
307.348647
 20
634.021902
 40
0.5
100
AcDbArc
 50
270.0
 51
360.0
  0
LINE
  5
3C4
100
AcDbEntity
  8
M0
 62
     4
100
AcDbLine
 10
307.848708
 20
729.521658
 11
307.848708
 21
727.521902
  0
LINE
  5
3C5
100
AcDbEntity
  8
M0
 62
     4
100
AcDbLine
 10
295.848648
 20
638.521887
 11
295.848648
 21
636.521887
  0
LINE
  5
3C6
100
AcDbEntity
  8
M0
 62
     4
100
AcDbLine
 10
255.848716
 20
697.521902
 11
263.848746
 21
697.521902
  0
LINE
  5
3C7
100
AcDbEntity
  8
M0
 62
     4
100
AcDbLine
 10
262.790946
 20
668.521902
 11
263.848716
 21
668.521902
  0
LINE
  5
3C8
100
AcDbEntity
  8
M0
 62
     4
100
AcDbLine
 10
256.936621
 20
658.922537
 11
255.848746
 21
658.922537
  0
LINE
  5
3C9
100
AcDbEntity
  8
M0
 62
     4
100
AcDbLine
 10
339.8487
 20
707.121267
 11
347.8487
 21
707.121267
  0
LINE
  5
3CA
100
AcDbEntity
  8
M0
 62
     4
100
AcDbLine
 10
340.905967
 20
697.521902
 11
339.8487
 21
697.521902
  0
LINE
  5
3CB
100
AcDbEntity
  8
M0
 62
     4
100
AcDbLine
 10
347.8487
 20
668.521658
 11
339.8487
 21
668.521658
  0
LINE
  5
3CC
100
AcDbEntity
  8
M0
 62
     4
100
AcDbLine
 10
339.8487
 20
658.922537
 11
347.84867
 21
658.922537
  0
ARC
  5
3CD
100
AcDbEntity
  8
M0
 62
     4
100
AcDbCircle
 10
278.8487
 20
641.021902
 40
2.799999
100
AcDbArc
 50
212.382826
 51
327.617605
  0
ARC
  5
3CE
100
AcDbEntity
  8
M0
 62
     4
100
AcDbCircle
 10
278.8487
 20
641.021902
 40
1.799999
100
AcDbArc
 50
236.420125
 51
303.580548
  0
ARC
  5
3CF
100
AcDbEntity
  8
M0
 62
     4
100
AcDbCircle
 10
301.84848
 20
641.022146
 40
1.799999
100
AcDbArc
 50
236.433481
 51
303.565872
  0
ARC
  5
3D0
100
AcDbEntity
  8
M0
 62
     4
100
AcDbCircle
 10
301.84848
 20
641.022146
 40
2.799999
100
AcDbArc
 50
212.388045
 51
327.611285
  0
ARC
  5
3D1
100
AcDbEntity
  8
M0
 62
     4
100
AcDbCircle
 10
324.848655
 20
641.021902
 40
2.799999
100
AcDbArc
 50
212.381964
 51
327.617007
  0
ARC
  5
3D2
100
AcDbEntity
  8
M0
 62
     4
100
AcDbCircle
 10
324.848655
 20
641.021902
 40
1.799999
100
AcDbArc
 50
236.419047
 51
303.57947
  0
ARC
  5
3D3
100
AcDbEntity
  8
M0
 62
     4
100
AcDbCircle
 10
278.848746
 20
725.021902
 40
2.799999
100
AcDbArc
 50
32.395566
 51
147.603835
  0
ARC
  5
3D4
100
AcDbEntity
  8
M0
 62
     4
100
AcDbCircle
 10
278.848746
 20
725.021902
 40
1.799999
100
AcDbArc
 50
56.451647
 51
123.548353
  0
ARC
  5
3D5
100
AcDbEntity
  8
M0
 62
     4
100
AcDbCircle
 10
301.848526
 20
725.021658
 40
2.799999
100
AcDbArc
 50
32.402002
 51
147.597995
  0
ARC
  5
3D6
100
AcDbEntity
  8
M0
 62
     4
100
AcDbCircle
 10
301.848526
 20
725.021658
 40
1.799999
100
AcDbArc
 50
56.466191
 51
123.53422
  0
ARC
  5
3D7
100
AcDbEntity
  8
M0
 62
     4
100
AcDbCircle
 10
324.8487
 20
725.021902
 40
2.799999
100
AcDbArc
 50
32.396165
 51
147.604434
  0
ARC
  5
3D8
100
AcDbEntity
  8
M0
 62
     4
100
AcDbCircle
 10
324.8487
 20
725.021902
 40
1.799999
100
AcDbArc
 50
56.452725
 51
123.549431
  0
LINE
  5
3D9
100
AcDbEntity
  8
M0
 62
     4
100
AcDbLine
 10
310.148497
 20
672.821798
 11
309.84851
 21
672.821798
  0
LINE
  5
3DA
100
AcDbEntity
  8
M0
 62
     4
100
AcDbLine
 10
313.148497
 20
666.821905
 11
313.148497
 21
669.821905
  0
LINE
  5
3DB
100
AcDbEntity
  8
M0
 62
     4
100
AcDbLine
 10
290.548492
 20
669.821905
 11
290.548492
 21
666.821905
  0
LINE
  5
3DC
100
AcDbEntity
  8
M0
 62
     4
100
AcDbLine
 10
290.548492
 20
666.821905
 11
313.148497
 21
666.821905
  0
ARC
  5
3DD
100
AcDbEntity
  8
M0
 62
     4
100
AcDbCircle
 10
310.148497
 20
669.821905
 40
3.0
100
AcDbArc
 50
0.0
 51
90.0
  0
ARC
  5
3DE
100
AcDbEntity
  8
M0
 62
     4
100
AcDbCircle
 10
293.548492
 20
669.821905
 40
3.0
100
AcDbArc
 50
84.260589
 51
179.999964
  0
LINE
  5
3DF
100
AcDbEntity
  8
M0
 62
     4
100
AcDbLine
 10
298.848526
 20
680.77175
 11
304.848525
 21
680.77175
  0
LINE
  5
3E0
100
AcDbEntity
  8
M0
 62
     4
100
AcDbLine
 10
304.848525
 20
680.77175
 11
304.848525
 21
685.27175
  0
LINE
  5
3E1
100
AcDbEntity
  8
M0
 62
     4
100
AcDbLine
 10
304.848525
 20
685.27175
 11
298.848526
 21
685.27175
  0
LINE
  5
3E2
100
AcDbEntity
  8
M0
 62
     4
100
AcDbLine
 10
298.848526
 20
685.27175
 11
298.848526
 21
680.77175
  0
LINE
  5
3E3
100
AcDbEntity
  8
M0
 62
     4
100
AcDbLine
 10
309.848494
 20
672.821905
 11
309.848494
 21
676.821905
  0
LINE
  5
3E4
100
AcDbEntity
  8
M0
 62
     4
100
AcDbLine
 10
310.148497
 20
676.821905
 11
309.848494
 21
676.821905
  0
LINE
  5
3E5
100
AcDbEntity
  8
M0
 62
     4
100
AcDbLine
 10
293.848495
 20
676.821905
 11
293.848495
 21
672.821905
  0
LINE
  5
3E6
100
AcDbEntity
  8
M0
 62
     4
100
AcDbLine
 10
293.548492
 20
693.121908
 11
297.848495
 21
693.121908
  0
LINE
  5
3E7
100
AcDbEntity
  8
M0
 62
     4
100
AcDbLine
 10
300.348511
 20
698.821905
 11
303.34851
 21
698.821905
  0
LINE
  5
3E8
100
AcDbEntity
  8
M0
 62
     4
100
AcDbLine
 10
313.148497
 20
690.121908
 11
313.148497
 21
679.821905
  0
LINE
  5
3E9
100
AcDbEntity
  8
M0
 62
     4
100
AcDbLine
 10
290.548492
 20
690.121908
 11
290.548492
 21
679.821905
  0
LINE
  5
3EA
100
AcDbEntity
  8
M0
 62
     4
100
AcDbLine
 10
304.34851
 20
697.821905
 11
304.348494
 21
694.821905
  0
LINE
  5
3EB
100
AcDbEntity
  8
M0
 62
     4
100
AcDbLine
 10
299.348511
 20
697.821905
 11
299.348495
 21
694.821905
  0
LINE
  5
3EC
100
AcDbEntity
  8
M0
 62
     4
100
AcDbLine
 10
305.848494
 20
695.521902
 11
305.848494
 21
693.121908
  0
LINE
  5
3ED
100
AcDbEntity
  8
M0
 62
     4
100
AcDbLine
 10
297.848495
 20
695.521902
 11
297.848495
 21
693.121908
  0
ARC
  5
3EE
100
AcDbEntity
  8
M0
 62
     4
100
AcDbCircle
 10
303.34851
 20
697.821905
 40
1.0
100
AcDbArc
 50
0.0
 51
90.0
  0
ARC
  5
3EF
100
AcDbEntity
  8
M0
 62
     4
100
AcDbCircle
 10
300.348511
 20
697.821905
 40
1.0
100
AcDbArc
 50
90.0
 51
180.0
  0
LINE
  5
3F0
100
AcDbEntity
  8
M0
 62
     4
100
AcDbLine
 10
305.848494
 20
694.821905
 11
304.348494
 21
694.821905
  0
LINE
  5
3F1
100
AcDbEntity
  8
M0
 62
     4
100
AcDbLine
 10
305.848494
 20
695.521902
 11
304.348494
 21
695.521902
  0
LINE
  5
3F2
100
AcDbEntity
  8
M0
 62
     4
100
AcDbLine
 10
299.348495
 20
694.821905
 11
297.848495
 21
694.821905
  0
LINE
  5
3F3
100
AcDbEntity
  8
M0
 62
     4
100
AcDbLine
 10
299.348495
 20
695.521902
 11
297.848495
 21
695.521902
  0
ARC
  5
3F4
100
AcDbEntity
  8
M0
 62
     4
100
AcDbCircle
 10
310.148497
 20
690.121908
 40
3.0
100
AcDbArc
 50
0.0
 51
90.0
  0
ARC
  5
3F5
100
AcDbEntity
  8
M0
 62
     4
100
AcDbCircle
 10
293.548492
 20
690.121908
 40
3.0
100
AcDbArc
 50
90.0
 51
179.999982
  0
ARC
  5
3F6
100
AcDbEntity
  8
M0
 62
     4
100
AcDbCircle
 10
293.548492
 20
679.821905
 40
3.0
100
AcDbArc
 50
179.999964
 51
270.0
  0
ARC
  5
3F7
100
AcDbEntity
  8
M0
 62
     4
100
AcDbCircle
 10
310.148497
 20
679.821905
 40
3.0
100
AcDbArc
 50
270.0
 51
360.0
  0
LINE
  5
3F8
100
AcDbEntity
  8
M0
 62
     4
100
AcDbLine
 10
305.848494
 20
693.121908
 11
310.148497
 21
693.121908
  0
LINE
  5
3F9
100
AcDbEntity
  8
M0
 62
     4
100
AcDbLine
 10
293.848495
 20
676.821905
 11
293.548492
 21
676.821905
  0
ARC
  5
3FA
100
AcDbEntity
  8
M0
 62
     4
100
AcDbCircle
 10
344.598517
 20
738.021795
 40
7.0
100
AcDbArc
 50
0.0
 51
90.0
  0
ARC
  5
3FB
100
AcDbEntity
  8
M0
 62
     4
100
AcDbCircle
 10
259.098532
 20
738.021795
 40
7.0
100
AcDbArc
 50
89.999875
 51
180.0
  0
LINE
  5
3FC
100
AcDbEntity
  8
M0
 62
     4
100
AcDbLine
 10
252.098532
 20
738.021795
 11
252.098532
 21
720.521307
  0
ARC
  5
3FD
100
AcDbEntity
  8
M0
 62
     4
100
AcDbCircle
 10
259.098532
 20
628.021795
 40
7.0
100
AcDbArc
 50
179.999875
 51
270.0
  0
LINE
  5
3FE
100
AcDbEntity
  8
M0
 62
     4
100
AcDbLine
 10
351.598517
 20
628.021795
 11
351.598517
 21
645.58869
  0
ARC
  5
3FF
100
AcDbEntity
  8
M0
 62
     4
100
AcDbCircle
 10
344.598517
 20
628.021795
 40
7.0
100
AcDbArc
 50
269.999875
 51
360.0
  0
LINE
  5
400
100
AcDbEntity
  8
M0
 62
     4
100
AcDbLine
 10
328.848517
 20
732.521795
 11
307.348525
 21
732.521795
  0
LINE
  5
401
100
AcDbEntity
  8
M0
 62
     4
100
AcDbLine
 10
328.848517
 20
633.521795
 11
274.848532
 21
633.521795
  0
ARC
  5
402
100
AcDbEntity
  8
M0
 62
     4
100
AcDbCircle
 10
345.098517
 20
738.021795
 40
2.75
100
AcDbArc
 50
269.999682
 51
450.0
  0
LINE
  5
403
100
AcDbEntity
  8
M0
 62
     4
100
AcDbLine
 10
345.098517
 20
740.771795
 11
344.848517
 21
740.771795
  0
LINE
  5
404
100
AcDbEntity
  8
M0
 62
     4
100
AcDbLine
 10
342.896598
 20
735.271795
 11
345.098517
 21
735.271795
  0
LINE
  5
405
100
AcDbEntity
  8
M0
 62
     4
100
AcDbLine
 10
260.800452
 20
630.771795
 11
258.598532
 21
630.771795
  0
ARC
  5
406
100
AcDbEntity
  8
M0
 62
     4
100
AcDbCircle
 10
258.598532
 20
628.021795
 40
2.75
100
AcDbArc
 50
89.999682
 51
270.0
  0
LINE
  5
407
100
AcDbEntity
  8
M0
 62
     4
100
AcDbLine
 10
258.598532
 20
625.271795
 11
258.848487
 21
625.271795
  0
LINE
  5
408
100
AcDbEntity
  8
M0
 62
     4
100
AcDbLine
 10
351.598517
 20
720.454916
 11
351.598517
 21
738.021795
  0
LINE
  5
409
100
AcDbEntity
  8
M0
 62
     4
100
AcDbLine
 10
252.098532
 20
645.52178
 11
252.098532
 21
628.021795
  0
LINE
  5
40A
100
AcDbEntity
  8
M0
 62
     4
100
AcDbLine
 10
296.348526
 20
732.521795
 11
274.848532
 21
732.521795
  0
LINE
  5
40B
100
AcDbEntity
  8
M0
 62
     4
100
AcDbLine
 10
311.848569
 20
751.021765
 11
291.84857
 21
751.021765
  0
LINE
  5
40C
100
AcDbEntity
  8
M0
  6
DASHDOT
 62
     4
100
AcDbLine
 10
301.848522
 20
600.103933
 11
301.848572
 21
761.021765
  0
LINE
  5
40D
100
AcDbEntity
  8
M0
 62
     4
100
AcDbLine
 10
296.012932
 20
733.320105
 11
291.848565
 21
737.021765
  0
ARC
  5
40E
100
AcDbEntity
  8
M0
 62
     4
100
AcDbCircle
 10
295.348564
 20
732.572699
 40
1.0
100
AcDbArc
 50
0.0
 51
48.364936
  0
ARC
  5
40F
100
AcDbEntity
  8
M0
 62
     4
100
AcDbCircle
 10
308.348563
 20
732.572699
 40
1.0
100
AcDbArc
 50
131.634982
 51
180.0
  0
LINE
  5
410
100
AcDbEntity
  8
M0
 62
     4
100
AcDbLine
 10
291.84857
 20
751.021765
 11
291.848565
 21
737.021765
  0
LINE
  5
411
100
AcDbEntity
  8
M0
 62
     4
100
AcDbLine
 10
307.684195
 20
733.320105
 11
311.848564
 21
737.021765
  0
LINE
  5
412
100
AcDbEntity
  8
M0
 62
     4
100
AcDbLine
 10
311.848564
 20
737.021765
 11
311.848569
 21
751.021765
  0
LINE
  5
413
100
AcDbEntity
  8
M0
 62
     4
100
AcDbLine
 10
296.348564
 20
732.021673
 11
296.348564
 21
732.572699
  0
LINE
  5
414
100
AcDbEntity
  8
M0
 62
     4
100
AcDbLine
 10
307.348561
 20
726.521933
 11
307.348563
 21
732.572699
  0
ARC
  5
415
100
AcDbEntity
  8
M0
 62
     4
100
AcDbCircle
 10
301.848561
 20
725.021765
 40
2.0
100
AcDbArc
 50
48.597111
 51
131.402943
  0
LINE
  5
416
100
AcDbEntity
  8
M0
 62
     4
100
AcDbLine
 10
311.84841
 20
615.021994
 11
291.848411
 21
615.021963
  0
LINE
  5
417
100
AcDbEntity
  8
M0
 62
     4
100
AcDbLine
 10
296.012762
 20
632.723639
 11
291.848398
 21
629.021963
  0
ARC
  5
418
100
AcDbEntity
  8
M0
 62
     4
100
AcDbCircle
 10
295.348393
 20
633.471045
 40
1.0
100
AcDbArc
 50
-48.366374
 51
0.0
  0
ARC
  5
419
100
AcDbEntity
  8
M0
 62
     4
100
AcDbCircle
 10
308.348392
 20
633.471045
 40
1.0
100
AcDbArc
 50
179.999126
 51
228.364895
  0
LINE
  5
41A
100
AcDbEntity
  8
M0
 62
     4
100
AcDbLine
 10
291.848411
 20
615.021963
 11
291.848398
 21
629.021963
  0
LINE
  5
41B
100
AcDbEntity
  8
M0
 62
     4
100
AcDbLine
 10
307.684026
 20
632.723639
 11
311.848397
 21
629.021994
  0
LINE
  5
41C
100
AcDbEntity
  8
M0
 62
     4
100
AcDbLine
 10
311.848397
 20
629.021994
 11
311.84841
 21
615.021994
  0
LINE
  5
41D
100
AcDbEntity
  8
M0
 62
     4
100
AcDbLine
 10
296.348393
 20
633.521978
 11
296.348393
 21
633.471045
  0
ARC
  5
41E
100
AcDbEntity
  8
M0
 62
     4
100
AcDbCircle
 10
301.848386
 20
641.021978
 40
2.0
100
AcDbArc
 50
228.573215
 51
311.426667
  0
LINE
  5
41F
100
AcDbEntity
  8
M0
 62
     4
100
AcDbLine
 10
318.848624
 20
632.021902
 11
318.848624
 21
633.521902
  0
LINE
  5
420
100
AcDbEntity
  8
M0
 62
     4
100
AcDbLine
 10
344.848578
 20
751.021765
 11
324.848578
 21
751.021765
  0
LINE
  5
421
100
AcDbEntity
  8
M0
 62
     4
100
AcDbLine
 10
321.754584
 20
732.521429
 11
324.848563
 21
737.021765
  0
LINE
  5
422
100
AcDbEntity
  8
M0
 62
     4
100
AcDbLine
 10
344.848563
 20
737.021765
 11
344.848578
 21
751.021765
  0
LINE
  5
423
100
AcDbEntity
  8
M0
 62
     4
100
AcDbLine
 10
324.848578
 20
751.021765
 11
324.848563
 21
737.021765
  0
LINE
  5
424
100
AcDbEntity
  8
M0
 62
     4
100
AcDbLine
 10
337.348731
 20
730.297781
 11
344.848563
 21
737.021765
  0
ARC
  5
425
100
AcDbEntity
  8
M0
 62
     4
100
AcDbCircle
 10
324.848563
 20
725.021765
 40
2.0
100
AcDbArc
 50
48.597524
 51
131.403748
  0
LINE
  5
426
100
AcDbEntity
  8
M0
 62
     4
100
AcDbLine
 10
258.848441
 20
751.021811
 11
278.848441
 21
751.021811
  0
LINE
  5
427
100
AcDbEntity
  8
M0
 62
     4
100
AcDbLine
 10
281.942557
 20
732.521292
 11
278.848456
 21
737.021811
  0
LINE
  5
428
100
AcDbEntity
  8
M0
 62
     4
100
AcDbLine
 10
258.848456
 20
737.021811
 11
258.848441
 21
751.021811
  0
LINE
  5
429
100
AcDbEntity
  8
M0
 62
     4
100
AcDbLine
 10
278.848441
 20
751.021811
 11
278.848456
 21
737.021811
  0
LINE
  5
42A
100
AcDbEntity
  8
M0
 62
     4
100
AcDbLine
 10
266.348288
 20
730.297827
 11
258.848456
 21
737.021811
  0
ARC
  5
42B
100
AcDbEntity
  8
M0
 62
     4
100
AcDbCircle
 10
278.848456
 20
725.021811
 40
2.0
100
AcDbArc
 50
48.595346
 51
131.404037
  0
LINE
  5
42C
100
AcDbEntity
  8
M0
 62
     4
100
AcDbLine
 10
258.848471
 20
615.021902
 11
278.848471
 21
615.021902
  0
LINE
  5
42D
100
AcDbEntity
  8
M0
 62
     4
100
AcDbLine
 10
281.942237
 20
633.521933
 11
278.848471
 21
629.021902
  0
LINE
  5
42E
100
AcDbEntity
  8
M0
 62
     4
100
AcDbLine
 10
258.848471
 20
629.021902
 11
258.848471
 21
615.021902
  0
LINE
  5
42F
100
AcDbEntity
  8
M0
 62
     4
100
AcDbLine
 10
278.848471
 20
615.021902
 11
278.848471
 21
629.021902
  0
LINE
  5
430
100
AcDbEntity
  8
M0
 62
     4
100
AcDbLine
 10
266.348304
 20
635.745886
 11
258.848471
 21
629.021902
  0
ARC
  5
431
100
AcDbEntity
  8
M0
 62
     4
100
AcDbCircle
 10
278.848471
 20
641.021902
 40
2.0
100
AcDbArc
 50
228.572112
 51
311.428505
  0
LINE
  5
432
100
AcDbEntity
  8
M0
 62
     4
100
AcDbLine
 10
344.848441
 20
615.021994
 11
324.848441
 21
615.021978
  0
LINE
  5
433
100
AcDbEntity
  8
M0
 62
     4
100
AcDbLine
 10
320.848624
 20
634.83988
 11
324.848426
 21
629.021978
  0
LINE
  5
434
100
AcDbEntity
  8
M0
 62
     4
100
AcDbLine
 10
344.848426
 20
629.021994
 11
344.848441
 21
615.021994
  0
LINE
  5
435
100
AcDbEntity
  8
M0
 62
     4
100
AcDbLine
 10
324.848441
 20
615.021978
 11
324.848426
 21
629.021978
  0
LINE
  5
436
100
AcDbEntity
  8
M0
 62
     4
100
AcDbLine
 10
337.348594
 20
635.745977
 11
344.848426
 21
629.021994
  0
ARC
  5
437
100
AcDbEntity
  8
M0
 62
     4
100
AcDbCircle
 10
324.84841
 20
641.021978
 40
2.0
100
AcDbArc
 50
228.572401
 51
311.426326
  0
CIRCLE
  5
438
100
AcDbEntity
  8
M0
 62
     4
100
AcDbCircle
 10
259.848716
 20
703.02149
 40
3.0
  0
CIRCLE
  5
439
100
AcDbEntity
  8
M0
 62
     4
100
AcDbCircle
 10
259.848716
 20
693.52149
 40
3.0
  0
LINE
  5
43A
100
AcDbEntity
  8
M0
 62
     4
100
AcDbLine
 10
257.367759
 20
668.221685
 11
262.329428
 21
668.221685
  0
ARC
  5
43B
100
AcDbEntity
  8
M0
 62
     4
100
AcDbCircle
 10
257.367759
 20
668.721685
 40
0.5
100
AcDbArc
 50
197.118075
 51
270.0
  0
ARC
  5
43C
100
AcDbEntity
  8
M0
 62
     4
100
AcDbCircle
 10
262.329428
 20
668.721685
 40
0.5
100
AcDbArc
 50
270.0
 51
342.875867
  0
LINE
  5
43D
100
AcDbEntity
  8
M0
 62
     4
100
AcDbLine
 10
257.367759
 20
658.721685
 11
262.329428
 21
658.721685
  0
ARC
  5
43E
100
AcDbEntity
  8
M0
 62
     4
100
AcDbCircle
 10
257.367759
 20
659.221685
 40
0.5
100
AcDbArc
 50
197.116613
 51
270.0
  0
ARC
  5
43F
100
AcDbEntity
  8
M0
 62
     4
100
AcDbCircle
 10
262.329428
 20
659.221685
 40
0.5
100
AcDbArc
 50
270.0
 51
342.878374
  0
CIRCLE
  5
440
100
AcDbEntity
  8
M0
 62
     4
100
AcDbCircle
 10
343.84867
 20
703.021246
 40
3.0
  0
CIRCLE
  5
441
100
AcDbEntity
  8
M0
 62
     4
100
AcDbCircle
 10
343.8487
 20
693.521734
 40
3.0
  0
LINE
  5
442
100
AcDbEntity
  8
M0
 62
     4
100
AcDbLine
 10
346.329413
 20
697.821783
 11
341.367743
 21
697.821539
  0
ARC
  5
443
100
AcDbEntity
  8
M0
 62
     4
100
AcDbCircle
 10
341.367743
 20
697.321539
 40
0.5
100
AcDbArc
 50
90.0
 51
162.858031
  0
ARC
  5
444
100
AcDbEntity
  8
M0
 62
     4
100
AcDbCircle
 10
346.329413
 20
697.321539
 40
0.5
100
AcDbArc
 50
17.152392
 51
90.0
  0
CIRCLE
  5
445
100
AcDbEntity
  8
M0
 62
     4
100
AcDbCircle
 10
343.848746
 20
672.52149
 40
3.0
  0
CIRCLE
  5
446
100
AcDbEntity
  8
M0
 62
     4
100
AcDbCircle
 10
343.848761
 20
663.022223
 40
3.0
  0
CIRCLE
  5
447
100
AcDbEntity
  8
M0
 62
     4
100
AcDbCircle
 10
342.348716
 20
713.021246
 40
3.0
  0
CIRCLE
  5
448
100
AcDbEntity
  8
M0
 62
     4
100
AcDbCircle
 10
261.348716
 20
653.021734
 40
3.0
  0
CIRCLE
  5
449
100
AcDbEntity
  8
M0
 62
     4
100
AcDbCircle
 10
259.848532
 20
725.02175
 40
2.0
  0
LINE
  5
44A
100
AcDbEntity
  8
M0
 62
     4
100
AcDbLine
 10
263.848532
 20
732.521261
 11
263.848532
 21
720.521261
  0
LINE
  5
44B
100
AcDbEntity
  8
M0
 62
     4
100
AcDbLine
 10
255.848532
 20
732.521261
 11
255.848532
 21
720.521261
  0
LINE
  5
44C
100
AcDbEntity
  8
M0
 62
     4
100
AcDbLine
 10
257.598532
 20
722.02175
 11
262.098532
 21
722.02175
  0
LINE
  5
44D
100
AcDbEntity
  8
M0
 62
     4
100
AcDbLine
 10
262.598532
 20
729.02178
 11
262.598532
 21
722.52175
  0
LINE
  5
44E
100
AcDbEntity
  8
M0
 62
     4
100
AcDbLine
 10
257.098532
 20
729.02178
 11
257.098532
 21
722.52175
  0
ARC
  5
44F
100
AcDbEntity
  8
M0
 62
     4
100
AcDbCircle
 10
257.598532
 20
722.52175
 40
0.5
100
AcDbArc
 50
180.0
 51
270.0
  0
ARC
  5
450
100
AcDbEntity
  8
M0
 62
     4
100
AcDbCircle
 10
262.098532
 20
722.52175
 40
0.5
100
AcDbArc
 50
270.0
 51
360.0
  0
LINE
  5
451
100
AcDbEntity
  8
M0
 62
     4
100
AcDbLine
 10
255.848532
 20
729.02178
 11
263.848532
 21
729.02178
  0
LINE
  5
452
100
AcDbEntity
  8
M0
 62
     4
100
AcDbLine
 10
252.098532
 20
732.521261
 11
263.868293
 21
732.521261
  0
LINE
  5
453
100
AcDbEntity
  8
M0
 62
     4
100
AcDbLine
 10
252.098532
 20
732.521261
 11
263.868293
 21
732.521261
  0
LINE
  5
454
100
AcDbEntity
  8
M0
 62
     4
100
AcDbLine
 10
339.848517
 20
732.521261
 11
339.848517
 21
720.521261
  0
LINE
  5
455
100
AcDbEntity
  8
M0
 62
     4
100
AcDbLine
 10
347.848517
 20
732.521261
 11
347.848517
 21
720.521261
  0
LINE
  5
456
100
AcDbEntity
  8
M0
 62
     4
100
AcDbLine
 10
347.848517
 20
729.02178
 11
339.848517
 21
729.02178
  0
LINE
  5
457
100
AcDbEntity
  8
M0
 62
     4
100
AcDbLine
 10
351.598517
 20
732.521261
 11
339.828742
 21
732.521261
  0
LINE
  5
458
100
AcDbEntity
  8
M0
 62
     4
100
AcDbLine
 10
263.848532
 20
633.522238
 11
263.848532
 21
645.522238
  0
LINE
  5
459
100
AcDbEntity
  8
M0
 62
     4
100
AcDbLine
 10
255.848532
 20
633.522238
 11
255.848532
 21
645.522238
  0
LINE
  5
45A
100
AcDbEntity
  8
M0
 62
     4
100
AcDbLine
 10
255.848532
 20
637.021719
 11
256.905814
 21
637.021719
  0
LINE
  5
45B
100
AcDbEntity
  8
M0
 62
     4
100
AcDbLine
 10
252.098532
 20
633.522238
 11
263.868293
 21
633.522238
  0
LINE
  5
45C
100
AcDbEntity
  8
M0
 62
     4
100
AcDbLine
 10
339.848517
 20
633.522238
 11
339.848517
 21
645.522238
  0
LINE
  5
45D
100
AcDbEntity
  8
M0
 62
     4
100
AcDbLine
 10
347.848517
 20
633.522238
 11
347.848517
 21
645.522238
  0
LINE
  5
45E
100
AcDbEntity
  8
M0
 62
     4
100
AcDbLine
 10
347.848517
 20
637.021719
 11
339.848517
 21
637.021719
  0
LINE
  5
45F
100
AcDbEntity
  8
M0
 62
     4
100
AcDbLine
 10
341.098517
 20
637.021719
 11
341.098517
 21
643.52175
  0
ARC
  5
460
100
AcDbEntity
  8
M0
 62
     4
100
AcDbCircle
 10
341.598517
 20
643.52175
 40
0.5
100
AcDbArc
 50
90.0
 51
179.998251
  0
LINE
  5
461
100
AcDbEntity
  8
M0
 62
     4
100
AcDbLine
 10
346.098517
 20
644.02175
 11
341.598517
 21
644.02175
  0
ARC
  5
462
100
AcDbEntity
  8
M0
 62
     4
100
AcDbCircle
 10
346.098517
 20
643.52175
 40
0.5
100
AcDbArc
 50
0.0
 51
90.0
  0
LINE
  5
463
100
AcDbEntity
  8
M0
 62
     4
100
AcDbLine
 10
346.598517
 20
637.021719
 11
346.598517
 21
643.52175
  0
LINE
  5
464
100
AcDbEntity
  8
M0
 62
     4
100
AcDbLine
 10
351.598517
 20
633.522238
 11
339.828742
 21
633.522238
  0
LINE
  5
465
100
AcDbEntity
  8
M0
 62
     4
100
AcDbLine
 10
262.790747
 20
637.021719
 11
263.848532
 21
637.021719
  0
LINE
  5
466
100
AcDbEntity
  8
M0
  6
DIVIDE
 62
     4
100
AcDbLine
 10
367.848334
 20
713.02175
 11
351.848334
 21
713.02175
  0
LINE
  5
467
100
AcDbEntity
  8
M0
  6
DIVIDE
 62
     4
100
AcDbLine
 10
367.848334
 20
713.02175
 11
367.848334
 21
653.02175
  0
LINE
  5
468
100
AcDbEntity
  8
M0
  6
DIVIDE
 62
     4
100
AcDbLine
 10
367.848334
 20
653.02175
 11
351.848334
 21
653.02175
  0
CIRCLE
  5
469
100
AcDbEntity
  8
M0
 62
     4
100
AcDbCircle
 10
343.848487
 20
641.02178
 40
2.0
  0
LINE
  5
46A
100
AcDbEntity
  8
M0
 62
     4
100
AcDbLine
 10
257.367591
 20
636.721685
 11
262.329261
 21
636.721685
  0
ARC
  5
46B
100
AcDbEntity
  8
M0
 62
     4
100
AcDbCircle
 10
257.367591
 20
637.221685
 40
0.5
100
AcDbArc
 50
197.116613
 51
270.0
  0
CIRCLE
  5
46C
100
AcDbEntity
  8
M0
 62
     4
100
AcDbCircle
 10
259.848548
 20
641.021734
 40
3.0
  0
CIRCLE
  5
46D
100
AcDbEntity
  8
M0
 62
     4
100
AcDbCircle
 10
343.848532
 20
725.021734
 40
3.0
  0
CIRCLE
  5
46E
100
AcDbEntity
  8
M0
 62
     4
100
AcDbCircle
 10
268.848502
 20
743.02175
 40
5.25
  0
LINE
  5
46F
100
AcDbEntity
  8
M0
 62
     4
100
AcDbLine
 10
269.448493
 20
742.421652
 11
274.064078
 21
742.421652
  0
LINE
  5
470
100
AcDbEntity
  8
M0
 62
     4
100
AcDbLine
 10
263.632911
 20
742.421652
 11
268.248496
 21
742.421652
  0
LINE
  5
471
100
AcDbEntity
  8
M0
 62
     4
100
AcDbLine
 10
268.248496
 20
743.621588
 11
263.63288
 21
743.621588
  0
LINE
  5
472
100
AcDbEntity
  8
M0
 62
     4
100
AcDbLine
 10
274.064109
 20
743.621603
 11
269.448493
 21
743.621588
  0
LINE
  5
473
100
AcDbEntity
  8
M0
 62
     4
100
AcDbLine
 10
269.448493
 20
743.621603
 11
269.448493
 21
746.121603
  0
LINE
  5
474
100
AcDbEntity
  8
M0
 62
     4
100
AcDbLine
 10
269.448493
 20
739.921652
 11
269.448493
 21
742.421652
  0
LINE
  5
475
100
AcDbEntity
  8
M0
 62
     4
100
AcDbLine
 10
268.248496
 20
742.421652
 11
268.248496
 21
739.921652
  0
LINE
  5
476
100
AcDbEntity
  8
M0
 62
     4
100
AcDbLine
 10
268.248496
 20
746.121603
 11
268.248496
 21
743.621603
  0
LINE
  5
477
100
AcDbEntity
  8
M0
 62
     4
100
AcDbLine
 10
268.248496
 20
739.921652
 11
269.448493
 21
739.921652
  0
LINE
  5
478
100
AcDbEntity
  8
M0
 62
     4
100
AcDbLine
 10
269.448493
 20
746.121603
 11
268.248496
 21
746.121603
  0
CIRCLE
  5
479
100
AcDbEntity
  8
M0
 62
     4
100
AcDbCircle
 10
301.848526
 20
743.02175
 40
5.25
  0
LINE
  5
47A
100
AcDbEntity
  8
M0
 62
     4
100
AcDbLine
 10
302.448516
 20
742.421652
 11
307.064101
 21
742.421652
  0
LINE
  5
47B
100
AcDbEntity
  8
M0
 62
     4
100
AcDbLine
 10
296.632934
 20
742.421652
 11
301.24852
 21
742.421652
  0
LINE
  5
47C
100
AcDbEntity
  8
M0
 62
     4
100
AcDbLine
 10
301.24852
 20
743.621588
 11
296.632904
 21
743.621588
  0
LINE
  5
47D
100
AcDbEntity
  8
M0
 62
     4
100
AcDbLine
 10
307.064132
 20
743.621603
 11
302.448516
 21
743.621588
  0
LINE
  5
47E
100
AcDbEntity
  8
M0
 62
     4
100
AcDbLine
 10
302.448516
 20
743.621603
 11
302.448516
 21
746.121603
  0
LINE
  5
47F
100
AcDbEntity
  8
M0
 62
     4
100
AcDbLine
 10
302.448516
 20
739.921652
 11
302.448516
 21
742.421652
  0
LINE
  5
480
100
AcDbEntity
  8
M0
 62
     4
100
AcDbLine
 10
301.24852
 20
742.421652
 11
301.24852
 21
739.921652
  0
LINE
  5
481
100
AcDbEntity
  8
M0
 62
     4
100
AcDbLine
 10
301.24852
 20
746.121603
 11
301.24852
 21
743.621603
  0
LINE
  5
482
100
AcDbEntity
  8
M0
 62
     4
100
AcDbLine
 10
301.24852
 20
739.921652
 11
302.448516
 21
739.921652
  0
LINE
  5
483
100
AcDbEntity
  8
M0
 62
     4
100
AcDbLine
 10
302.448516
 20
746.121603
 11
301.24852
 21
746.121603
  0
CIRCLE
  5
484
100
AcDbEntity
  8
M0
 62
     4
100
AcDbCircle
 10
334.848517
 20
743.02175
 40
5.25
  0
LINE
  5
485
100
AcDbEntity
  8
M0
 62
     4
100
AcDbLine
 10
335.448508
 20
742.421652
 11
340.064093
 21
742.421652
  0
LINE
  5
486
100
AcDbEntity
  8
M0
 62
     4
100
AcDbLine
 10
329.632926
 20
742.421652
 11
334.248511
 21
742.421652
  0
LINE
  5
487
100
AcDbEntity
  8
M0
 62
     4
100
AcDbLine
 10
334.248511
 20
743.621588
 11
329.632895
 21
743.621588
  0
LINE
  5
488
100
AcDbEntity
  8
M0
 62
     4
100
AcDbLine
 10
340.064124
 20
743.621603
 11
335.448508
 21
743.621588
  0
LINE
  5
489
100
AcDbEntity
  8
M0
 62
     4
100
AcDbLine
 10
335.448508
 20
743.621603
 11
335.448508
 21
746.121603
  0
LINE
  5
48A
100
AcDbEntity
  8
M0
 62
     4
100
AcDbLine
 10
335.448508
 20
739.921652
 11
335.448508
 21
742.421652
  0
LINE
  5
48B
100
AcDbEntity
  8
M0
 62
     4
100
AcDbLine
 10
334.248511
 20
742.421652
 11
334.248511
 21
739.921652
  0
LINE
  5
48C
100
AcDbEntity
  8
M0
 62
     4
100
AcDbLine
 10
334.248511
 20
746.121603
 11
334.248511
 21
743.621603
  0
LINE
  5
48D
100
AcDbEntity
  8
M0
 62
     4
100
AcDbLine
 10
334.248511
 20
739.921652
 11
335.448508
 21
739.921652
  0
LINE
  5
48E
100
AcDbEntity
  8
M0
 62
     4
100
AcDbLine
 10
335.448508
 20
746.121603
 11
334.248511
 21
746.121603
  0
CIRCLE
  5
48F
100
AcDbEntity
  8
M0
 62
     4
100
AcDbCircle
 10
334.848517
 20
623.02175
 40
5.25
  0
LINE
  5
490
100
AcDbEntity
  8
M0
 62
     4
100
AcDbLine
 10
335.448508
 20
622.421652
 11
340.064093
 21
622.421652
  0
LINE
  5
491
100
AcDbEntity
  8
M0
 62
     4
100
AcDbLine
 10
329.632926
 20
622.421652
 11
334.248511
 21
622.421652
  0
LINE
  5
492
100
AcDbEntity
  8
M0
 62
     4
100
AcDbLine
 10
334.248511
 20
623.621588
 11
329.632895
 21
623.621588
  0
LINE
  5
493
100
AcDbEntity
  8
M0
 62
     4
100
AcDbLine
 10
340.064124
 20
623.621603
 11
335.448508
 21
623.621588
  0
LINE
  5
494
100
AcDbEntity
  8
M0
 62
     4
100
AcDbLine
 10
335.448508
 20
623.621603
 11
335.448508
 21
626.121603
  0
LINE
  5
495
100
AcDbEntity
  8
M0
 62
     4
100
AcDbLine
 10
335.448508
 20
619.921652
 11
335.448508
 21
622.421652
  0
LINE
  5
496
100
AcDbEntity
  8
M0
 62
     4
100
AcDbLine
 10
334.248511
 20
622.421652
 11
334.248511
 21
619.921652
  0
LINE
  5
497
100
AcDbEntity
  8
M0
 62
     4
100
AcDbLine
 10
334.248511
 20
626.121603
 11
334.248511
 21
623.621603
  0
LINE
  5
498
100
AcDbEntity
  8
M0
 62
     4
100
AcDbLine
 10
334.248511
 20
619.921652
 11
335.448508
 21
619.921652
  0
LINE
  5
499
100
AcDbEntity
  8
M0
 62
     4
100
AcDbLine
 10
335.448508
 20
626.121603
 11
334.248511
 21
626.121603
  0
CIRCLE
  5
49A
100
AcDbEntity
  8
M0
 62
     4
100
AcDbCircle
 10
301.848526
 20
623.02175
 40
5.25
  0
LINE
  5
49B
100
AcDbEntity
  8
M0
 62
     4
100
AcDbLine
 10
302.448516
 20
622.421652
 11
307.064101
 21
622.421652
  0
LINE
  5
49C
100
AcDbEntity
  8
M0
 62
     4
100
AcDbLine
 10
296.632934
 20
622.421652
 11
301.24852
 21
622.421652
  0
LINE
  5
49D
100
AcDbEntity
  8
M0
 62
     4
100
AcDbLine
 10
301.24852
 20
623.621588
 11
296.632904
 21
623.621588
  0
LINE
  5
49E
100
AcDbEntity
  8
M0
 62
     4
100
AcDbLine
 10
307.064132
 20
623.621603
 11
302.448516
 21
623.621588
  0
LINE
  5
49F
100
AcDbEntity
  8
M0
 62
     4
100
AcDbLine
 10
302.448516
 20
623.621603
 11
302.448516
 21
626.121603
  0
LINE
  5
4A0
100
AcDbEntity
  8
M0
 62
     4
100
AcDbLine
 10
302.448516
 20
619.921652
 11
302.448516
 21
622.421652
  0
LINE
  5
4A1
100
AcDbEntity
  8
M0
 62
     4
100
AcDbLine
 10
301.24852
 20
622.421652
 11
301.24852
 21
619.921652
  0
LINE
  5
4A2
100
AcDbEntity
  8
M0
 62
     4
100
AcDbLine
 10
301.24852
 20
626.121603
 11
301.24852
 21
623.621603
  0
LINE
  5
4A3
100
AcDbEntity
  8
M0
 62
     4
100
AcDbLine
 10
301.24852
 20
619.921652
 11
302.448516
 21
619.921652
  0
LINE
  5
4A4
100
AcDbEntity
  8
M0
 62
     4
100
AcDbLine
 10
302.448516
 20
626.121603
 11
301.24852
 21
626.121603
  0
CIRCLE
  5
4A5
100
AcDbEntity
  8
M0
 62
     4
100
AcDbCircle
 10
268.848502
 20
623.02175
 40
5.25
  0
LINE
  5
4A6
100
AcDbEntity
  8
M0
 62
     4
100
AcDbLine
 10
269.448493
 20
622.421652
 11
274.064078
 21
622.421652
  0
LINE
  5
4A7
100
AcDbEntity
  8
M0
 62
     4
100
AcDbLine
 10
263.632911
 20
622.421652
 11
268.248496
 21
622.421652
  0
LINE
  5
4A8
100
AcDbEntity
  8
M0
 62
     4
100
AcDbLine
 10
268.248496
 20
623.621588
 11
263.63288
 21
623.621588
  0
LINE
  5
4A9
100
AcDbEntity
  8
M0
 62
     4
100
AcDbLine
 10
274.064109
 20
623.621603
 11
269.448493
 21
623.621588
  0
LINE
  5
4AA
100
AcDbEntity
  8
M0
 62
     4
100
AcDbLine
 10
269.448493
 20
623.621603
 11
269.448493
 21
626.121603
  0
LINE
  5
4AB
100
AcDbEntity
  8
M0
 62
     4
100
AcDbLine
 10
269.448493
 20
619.921652
 11
269.448493
 21
622.421652
  0
LINE
  5
4AC
100
AcDbEntity
  8
M0
 62
     4
100
AcDbLine
 10
268.248496
 20
622.421652
 11
268.248496
 21
619.921652
  0
LINE
  5
4AD
100
AcDbEntity
  8
M0
 62
     4
100
AcDbLine
 10
268.248496
 20
626.121603
 11
268.248496
 21
623.621603
  0
LINE
  5
4AE
100
AcDbEntity
  8
M0
 62
     4
100
AcDbLine
 10
268.248496
 20
619.921652
 11
269.448493
 21
619.921652
  0
LINE
  5
4AF
100
AcDbEntity
  8
M0
 62
     4
100
AcDbLine
 10
269.448493
 20
626.121603
 11
268.248496
 21
626.121603
  0
LINE
  5
4B0
100
AcDbEntity
  8
M0
  6
DASHDOT
 62
     4
100
AcDbLine
 10
255.598502
 20
743.02175
 11
282.098502
 21
743.02175
  0
LINE
  5
4B1
100
AcDbEntity
  8
M0
  6
DASHDOT
 62
     4
100
AcDbLine
 10
268.848502
 20
729.77175
 11
268.848502
 21
756.27175
  0
LINE
  5
4B2
100
AcDbEntity
  8
M0
  6
DASHDOT
 62
     4
100
AcDbLine
 10
288.598526
 20
743.02175
 11
315.098525
 21
743.02175
  0
LINE
  5
4B3
100
AcDbEntity
  8
M0
  6
DASHDOT
 62
     4
100
AcDbLine
 10
321.598517
 20
743.02175
 11
348.098517
 21
743.02175
  0
LINE
  5
4B4
100
AcDbEntity
  8
M0
  6
DASHDOT
 62
     4
100
AcDbLine
 10
334.848517
 20
729.77175
 11
334.848517
 21
756.27175
  0
LINE
  5
4B5
100
AcDbEntity
  8
M0
  6
DASHDOT
 62
     4
100
AcDbLine
 10
255.598502
 20
623.02175
 11
282.098502
 21
623.02175
  0
LINE
  5
4B6
100
AcDbEntity
  8
M0
  6
DASHDOT
 62
     4
100
AcDbLine
 10
268.848502
 20
609.77175
 11
268.848502
 21
636.27175
  0
LINE
  5
4B7
100
AcDbEntity
  8
M0
  6
DASHDOT
 62
     4
100
AcDbLine
 10
288.598526
 20
623.02175
 11
315.098525
 21
623.02175
  0
LINE
  5
4B8
100
AcDbEntity
  8
M0
  6
DASHDOT
 62
     4
100
AcDbLine
 10
321.598517
 20
623.02175
 11
348.098517
 21
623.02175
  0
LINE
  5
4B9
100
AcDbEntity
  8
M0
  6
DASHDOT
 62
     4
100
AcDbLine
 10
334.848517
 20
609.77175
 11
334.848517
 21
636.27175
  0
LINE
  5
4BA
100
AcDbEntity
  8
M0
 62
     4
100
AcDbLine
 10
434.870185
 20
634.022101
 11
501.169989
 21
634.022101
  0
LINE
  5
4BB
100
AcDbEntity
  8
M0
 62
     4
100
AcDbLine
 10
501.169989
 20
732.021628
 11
434.870185
 21
732.021414
  0
LINE
  5
4BC
100
AcDbEntity
  8
M0
 62
     4
100
AcDbLine
 10
501.169989
 20
634.022101
 11
501.169989
 21
655.521902
  0
LINE
  5
4BD
100
AcDbEntity
  8
M0
 62
     4
100
AcDbLine
 10
434.870185
 20
639.522101
 11
501.169989
 21
639.522101
  0
LINE
  5
4BE
100
AcDbEntity
  8
M0
 62
     4
100
AcDbLine
 10
434.870185
 20
726.521414
 11
501.169989
 21
726.521414
  0
LINE
  5
4BF
100
AcDbEntity
  8
M0
 62
     4
100
AcDbLine
 10
467.070136
 20
668.390509
 11
467.070136
 21
697.652731
  0
LINE
  5
4C0
100
AcDbEntity
  8
M0
 62
     4
100
AcDbLine
 10
492.570136
 20
658.022101
 11
492.570136
 21
661.099646
  0
LINE
  5
4C1
100
AcDbEntity
  8
M0
 62
     4
100
AcDbLine
 10
493.570136
 20
657.022101
 11
495.070136
 21
657.022101
  0
LINE
  5
4C2
100
AcDbEntity
  8
M0
 62
     4
100
AcDbLine
 10
493.570136
 20
709.021872
 11
495.070136
 21
709.021872
  0
ARC
  5
4C3
100
AcDbEntity
  8
M0
 62
     4
100
AcDbCircle
 10
493.570136
 20
708.021872
 40
1.0
100
AcDbArc
 50
89.999126
 51
180.0
  0
ARC
  5
4C4
100
AcDbEntity
  8
M0
 62
     4
100
AcDbCircle
 10
493.570136
 20
658.022101
 40
1.0
100
AcDbArc
 50
179.999126
 51
270.0
  0
LINE
  5
4C5
100
AcDbEntity
  8
M0
 62
     4
100
AcDbLine
 10
492.570136
 20
704.943258
 11
492.570136
 21
708.021872
  0
LINE
  5
4C6
100
AcDbEntity
  8
M0
 62
     4
100
AcDbLine
 10
492.570136
 20
639.522101
 11
492.570136
 21
634.022101
  0
LINE
  5
4C7
100
AcDbEntity
  8
M0
 62
     4
100
AcDbLine
 10
492.570136
 20
732.021628
 11
492.570136
 21
726.521628
  0
LINE
  5
4C8
100
AcDbEntity
  8
M0
 62
     4
100
AcDbLine
 10
501.169989
 20
710.521902
 11
501.169989
 21
732.521689
  0
ARC
  5
4C9
100
AcDbEntity
  8
M0
 62
     4
100
AcDbCircle
 10
487.570136
 20
661.099661
 40
5.0
100
AcDbArc
 50
0.0
 51
89.101395
  0
ARC
  5
4CA
100
AcDbEntity
  8
M0
 62
     4
100
AcDbCircle
 10
487.570136
 20
704.943503
 40
5.0
100
AcDbArc
 50
270.89808
 51
360.0
  0
LINE
  5
4CB
100
AcDbEntity
  8
M0
  6
DASHDOT
 62
     4
100
AcDbLine
 10
426.591986
 20
683.021902
 11
586.370032
 21
683.021902
  0
LINE
  5
4CC
100
AcDbEntity
  8
M0
 62
     4
100
AcDbLine
 10
432.870185
 20
730.021414
 11
432.870185
 21
636.022101
  0
ARC
  5
4CD
100
AcDbEntity
  8
M0
 62
     4
100
AcDbCircle
 10
434.870185
 20
730.021414
 40
2.0
100
AcDbArc
 50
89.999563
 51
180.0
  0
ARC
  5
4CE
100
AcDbEntity
  8
M0
 62
     4
100
AcDbCircle
 10
434.870185
 20
636.022101
 40
2.0
100
AcDbArc
 50
179.999563
 51
270.0
  0
ARC
  5
4CF
100
AcDbEntity
  8
M0
 62
     4
100
AcDbCircle
 10
434.870185
 20
641.522101
 40
2.0
100
AcDbArc
 50
179.999563
 51
270.0
  0
ARC
  5
4D0
100
AcDbEntity
  8
M0
 62
     4
100
AcDbCircle
 10
434.870185
 20
724.521414
 40
2.0
100
AcDbArc
 50
89.999563
 51
180.0
  0
LINE
  5
4D1
100
AcDbEntity
  8
M0
 62
     4
100
AcDbLine
 10
530.570136
 20
692.521795
 11
533.070136
 21
697.022039
  0
LINE
  5
4D2
100
AcDbEntity
  8
M0
 62
     4
100
AcDbLine
 10
497.070136
 20
633.522039
 11
533.070136
 21
633.522039
  0
LINE
  5
4D3
100
AcDbEntity
  8
M0
 62
     4
100
AcDbLine
 10
533.070136
 20
633.522039
 11
533.070136
 21
664.522665
  0
LINE
  5
4D4
100
AcDbEntity
  8
M0
 62
     4
100
AcDbLine
 10
533.070136
 20
732.522039
 11
497.070136
 21
732.521795
  0
LINE
  5
4D5
100
AcDbEntity
  8
M0
 62
     4
100
AcDbLine
 10
467.070136
 20
698.522039
 11
467.070136
 21
667.522039
  0
LINE
  5
4D6
100
AcDbEntity
  8
M0
 62
     4
100
AcDbLine
 10
495.070136
 20
708.522039
 11
495.070136
 21
704.522039
  0
LINE
  5
4D7
100
AcDbEntity
  8
M0
 62
     4
100
AcDbLine
 10
469.070136
 20
665.522039
 11
487.070136
 21
665.522039
  0
LINE
  5
4D8
100
AcDbEntity
  8
M0
 62
     4
100
AcDbLine
 10
469.070136
 20
700.522039
 11
487.070136
 21
700.522039
  0
LINE
  5
4D9
100
AcDbEntity
  8
M0
 62
     4
100
AcDbLine
 10
495.070136
 20
661.522039
 11
495.070136
 21
657.522039
  0
ARC
  5
4DA
100
AcDbEntity
  8
M0
 62
     4
100
AcDbCircle
 10
491.070136
 20
661.522039
 40
4.0
100
AcDbArc
 50
0.0
 51
89.999781
  0
ARC
  5
4DB
100
AcDbEntity
  8
M0
 62
     4
100
AcDbCircle
 10
491.070136
 20
704.522039
 40
4.0
100
AcDbArc
 50
270.0
 51
360.0
  0
LINE
  5
4DC
100
AcDbEntity
  8
M0
 62
     4
100
AcDbLine
 10
520.069892
 20
720.522039
 11
533.070136
 21
720.522039
  0
LINE
  5
4DD
100
AcDbEntity
  8
M0
 62
     4
100
AcDbLine
 10
520.069648
 20
645.522039
 11
533.070136
 21
645.522039
  0
LINE
  5
4DE
100
AcDbEntity
  8
M0
 62
     4
100
AcDbLine
 10
497.070136
 20
710.522039
 11
508.070136
 21
710.522039
  0
LINE
  5
4DF
100
AcDbEntity
  8
M0
 62
     4
100
AcDbLine
 10
497.070136
 20
655.522039
 11
508.069892
 21
655.522039
  0
LINE
  5
4E0
100
AcDbEntity
  8
M0
 62
     4
100
AcDbLine
 10
517.070136
 20
718.022039
 11
517.070136
 21
709.522039
  0
LINE
  5
4E1
100
AcDbEntity
  8
M0
 62
     4
100
AcDbLine
 10
509.070136
 20
709.522039
 11
517.070136
 21
709.522039
  0
LINE
  5
4E2
100
AcDbEntity
  8
M0
 62
     4
100
AcDbLine
 10
509.069892
 20
656.522039
 11
517.069892
 21
656.522039
  0
LINE
  5
4E3
100
AcDbEntity
  8
M0
 62
     4
100
AcDbLine
 10
517.070136
 20
718.022039
 11
520.070136
 21
720.522039
  0
ARC
  5
4E4
100
AcDbEntity
  8
M0
 62
     4
100
AcDbCircle
 10
497.070136
 20
708.522039
 40
2.0
100
AcDbArc
 50
89.999563
 51
180.0
  0
LINE
  5
4E5
100
AcDbEntity
  8
M0
 62
     4
100
AcDbLine
 10
517.069892
 20
648.022039
 11
520.069892
 21
645.522039
  0
LINE
  5
4E6
100
AcDbEntity
  8
M0
 62
     4
100
AcDbLine
 10
517.069892
 20
648.022039
 11
517.069892
 21
656.522039
  0
ARC
  5
4E7
100
AcDbEntity
  8
M0
 62
     4
100
AcDbCircle
 10
497.070136
 20
657.522039
 40
2.0
100
AcDbArc
 50
179.999563
 51
270.0
  0
ARC
  5
4E8
100
AcDbEntity
  8
M0
 62
     4
100
AcDbCircle
 10
469.070136
 20
698.522039
 40
2.0
100
AcDbArc
 50
89.999563
 51
179.999973
  0
ARC
  5
4E9
100
AcDbEntity
  8
M0
 62
     4
100
AcDbCircle
 10
469.070136
 20
667.522039
 40
2.0
100
AcDbArc
 50
179.999945
 51
270.0
  0
ARC
  5
4EA
100
AcDbEntity
  8
M0
 62
     4
100
AcDbCircle
 10
497.070136
 20
730.521795
 40
2.0
100
AcDbArc
 50
89.999563
 51
131.412097
  0
ARC
  5
4EB
100
AcDbEntity
  8
M0
 62
     4
100
AcDbCircle
 10
497.070136
 20
635.522039
 40
2.0
100
AcDbArc
 50
228.581733
 51
270.0
  0
LINE
  5
4EC
100
AcDbEntity
  8
M0
 62
     4
100
AcDbLine
 10
473.569892
 20
686.772039
 11
473.569892
 21
679.272039
  0
LINE
  5
4ED
100
AcDbEntity
  8
M0
 62
     4
100
AcDbLine
 10
467.070136
 20
686.772039
 11
473.569892
 21
686.772039
  0
LINE
  5
4EE
100
AcDbEntity
  8
M0
 62
     4
100
AcDbLine
 10
467.070136
 20
679.272039
 11
473.569892
 21
679.272039
  0
LINE
  5
4EF
100
AcDbEntity
  8
M0
 62
     4
100
AcDbLine
 10
491.070136
 20
700.522039
 11
491.070136
 21
698.022039
  0
LINE
  5
4F0
100
AcDbEntity
  8
M0
 62
     4
100
AcDbLine
 10
487.070136
 20
700.522039
 11
487.070136
 21
698.022039
  0
LINE
  5
4F1
100
AcDbEntity
  8
M0
 62
     4
100
AcDbLine
 10
487.070136
 20
698.022039
 11
491.070136
 21
698.022039
  0
LINE
  5
4F2
100
AcDbEntity
  8
M0
 62
     4
100
AcDbLine
 10
487.070136
 20
668.022039
 11
491.070136
 21
668.022039
  0
LINE
  5
4F3
100
AcDbEntity
  8
M0
 62
     4
100
AcDbLine
 10
487.070136
 20
668.022039
 11
487.070136
 21
665.522039
  0
LINE
  5
4F4
100
AcDbEntity
  8
M0
 62
     4
100
AcDbLine
 10
491.070136
 20
668.022039
 11
491.070136
 21
665.522039
  0
LINE
  5
4F5
100
AcDbEntity
  8
M0
 62
     4
100
AcDbLine
 10
472.069892
 20
686.772039
 11
472.069892
 21
685.772039
  0
LINE
  5
4F6
100
AcDbEntity
  8
M0
 62
     4
100
AcDbLine
 10
472.069892
 20
685.772039
 11
473.569892
 21
685.772039
  0
LINE
  5
4F7
100
AcDbEntity
  8
M0
 62
     4
100
AcDbLine
 10
472.069892
 20
680.272039
 11
473.569892
 21
680.272039
  0
LINE
  5
4F8
100
AcDbEntity
  8
M0
 62
     4
100
AcDbLine
 10
472.069892
 20
680.272039
 11
472.069892
 21
679.272039
  0
LINE
  5
4F9
100
AcDbEntity
  8
M0
 62
     4
100
AcDbLine
 10
487.070136
 20
699.503973
 11
491.070136
 21
699.503973
  0
LINE
  5
4FA
100
AcDbEntity
  8
M0
 62
     4
100
AcDbLine
 10
487.069892
 20
666.540106
 11
491.069892
 21
666.540106
  0
LINE
  5
4FB
100
AcDbEntity
  8
M0
  6
DASHDOT
 62
     4
100
AcDbLine
 10
525.35871
 20
703.272039
 11
534.766913
 21
703.272039
  0
LINE
  5
4FC
100
AcDbEntity
  8
M0
  6
DASHDOT
 62
     4
100
AcDbLine
 10
526.990058
 20
662.772039
 11
534.803046
 21
662.772039
  0
LINE
  5
4FD
100
AcDbEntity
  8
M0
 62
     4
100
AcDbLine
 10
530.570136
 20
705.772039
 11
533.070136
 21
705.772039
  0
LINE
  5
4FE
100
AcDbEntity
  8
M0
 62
     4
100
AcDbLine
 10
530.570136
 20
700.772039
 11
533.070136
 21
700.772039
  0
LINE
  5
4FF
100
AcDbEntity
  8
M0
 62
     4
100
AcDbLine
 10
530.570136
 20
665.272039
 11
533.070136
 21
665.272039
  0
LINE
  5
500
100
AcDbEntity
  8
M0
 62
     4
100
AcDbLine
 10
530.570136
 20
660.272039
 11
533.070136
 21
660.272039
  0
ARC
  5
501
100
AcDbEntity
  8
M0
 62
     4
100
AcDbCircle
 10
530.570136
 20
703.272039
 40
2.5
100
AcDbArc
 50
89.99965
 51
270.0
  0
ARC
  5
502
100
AcDbEntity
  8
M0
 62
     4
100
AcDbCircle
 10
530.570136
 20
662.772039
 40
2.5
100
AcDbArc
 50
89.99965
 51
270.0
  0
LINE
  5
503
100
AcDbEntity
  8
M0
 62
     4
100
AcDbLine
 10
517.570136
 20
679.022039
 11
517.570136
 21
681.022039
  0
LINE
  5
504
100
AcDbEntity
  8
M0
 62
     4
100
AcDbLine
 10
519.570136
 20
677.022039
 11
533.070136
 21
677.022039
  0
LINE
  5
505
100
AcDbEntity
  8
M0
 62
     4
100
AcDbLine
 10
519.570136
 20
689.022039
 11
530.570136
 21
689.022039
  0
LINE
  5
506
100
AcDbEntity
  8
M0
 62
     4
100
AcDbLine
 10
517.837958
 20
678.022039
 11
530.070136
 21
678.022039
  0
LINE
  5
507
100
AcDbEntity
  8
M0
 62
     4
100
AcDbLine
 10
517.837958
 20
688.022039
 11
527.592109
 21
688.022039
  0
LINE
  5
508
100
AcDbEntity
  8
M0
 62
     4
100
AcDbLine
 10
530.570136
 20
692.521795
 11
530.570136
 21
689.021795
  0
ARC
  5
509
100
AcDbEntity
  8
M0
 62
     4
100
AcDbCircle
 10
530.070136
 20
677.022039
 40
1.0
100
AcDbArc
 50
0.0
 51
89.999126
  0
ARC
  5
50A
100
AcDbEntity
  8
M0
 62
     4
100
AcDbCircle
 10
527.570136
 20
689.021795
 40
1.0
100
AcDbArc
 50
270.0
 51
360.0
  0
LINE
  5
50B
100
AcDbEntity
  8
M0
 62
     4
100
AcDbLine
 10
518.570136
 20
684.022039
 11
518.570136
 21
682.022039
  0
LINE
  5
50C
100
AcDbEntity
  8
M0
 62
     4
100
AcDbLine
 10
517.570136
 20
685.022039
 11
518.570136
 21
684.022039
  0
LINE
  5
50D
100
AcDbEntity
  8
M0
 62
     4
100
AcDbLine
 10
517.570136
 20
681.022039
 11
518.570136
 21
682.022039
  0
LINE
  5
50E
100
AcDbEntity
  8
M0
 62
     4
100
AcDbLine
 10
517.570136
 20
685.022039
 11
517.570136
 21
687.022039
  0
LINE
  5
50F
100
AcDbEntity
  8
M0
 62
     4
100
AcDbLine
 10
533.070136
 20
697.022039
 11
533.070136
 21
700.772039
  0
LINE
  5
510
100
AcDbEntity
  8
M0
 62
     4
100
AcDbLine
 10
504.070136
 20
732.521795
 11
504.070136
 21
724.022039
  0
LINE
  5
511
100
AcDbEntity
  8
M0
 62
     4
100
AcDbLine
 10
501.169989
 20
724.022039
 11
504.070136
 21
724.022039
  0
LINE
  5
512
100
AcDbEntity
  8
M0
 62
     4
100
AcDbLine
 10
503.569892
 20
633.522284
 11
503.569892
 21
642.022039
  0
LINE
  5
513
100
AcDbEntity
  8
M0
 62
     4
100
AcDbLine
 10
501.169989
 20
642.022039
 11
503.569892
 21
642.022039
  0
ARC
  5
514
100
AcDbEntity
  8
M0
 62
     4
100
AcDbCircle
 10
509.070136
 20
710.522039
 40
1.0
100
AcDbArc
 50
180.0
 51
270.0
  0
ARC
  5
515
100
AcDbEntity
  8
M0
 62
     4
100
AcDbCircle
 10
509.069892
 20
655.522039
 40
1.0
100
AcDbArc
 50
89.999126
 51
179.999126
  0
ARC
  5
516
100
AcDbEntity
  8
M0
 62
     4
100
AcDbCircle
 10
519.570136
 20
679.022039
 40
2.0
100
AcDbArc
 50
179.999945
 51
270.0
  0
ARC
  5
517
100
AcDbEntity
  8
M0
 62
     4
100
AcDbCircle
 10
519.570136
 20
687.022039
 40
2.0
100
AcDbArc
 50
89.999563
 51
179.999973
  0
LINE
  5
518
100
AcDbEntity
  8
M0
 62
     4
100
AcDbLine
 10
533.070136
 20
650.023489
 11
533.770087
 21
650.023489
  0
LINE
  5
519
100
AcDbEntity
  8
M0
 62
     4
100
AcDbLine
 10
533.070136
 20
656.023489
 11
533.770087
 21
656.023489
  0
LINE
  5
51A
100
AcDbEntity
  8
M0
 62
     4
100
AcDbLine
 10
533.770087
 20
656.023489
 11
533.770087
 21
650.023489
  0
LINE
  5
51B
100
AcDbEntity
  8
M0
 62
     4
100
AcDbLine
 10
533.770087
 20
710.020575
 11
533.770087
 21
716.020575
  0
LINE
  5
51C
100
AcDbEntity
  8
M0
 62
     4
100
AcDbLine
 10
533.070136
 20
716.020575
 11
533.770087
 21
716.020575
  0
LINE
  5
51D
100
AcDbEntity
  8
M0
 62
     4
100
AcDbLine
 10
533.070136
 20
710.020575
 11
533.770087
 21
710.020575
  0
LINE
  5
51E
100
AcDbEntity
  8
M0
 62
     4
100
AcDbLine
 10
533.070136
 20
665.272039
 11
533.070136
 21
677.022039
  0
LINE
  5
51F
100
AcDbEntity
  8
M0
 62
     4
100
AcDbLine
 10
533.070136
 20
702.223944
 11
533.070136
 21
732.522039
  0
LINE
  5
520
100
AcDbEntity
  8
M0
 62
     4
100
AcDbLine
 10
528.30036
 20
702.223944
 11
533.070136
 21
702.223944
  0
LINE
  5
521
100
AcDbEntity
  8
M0
 62
     4
100
AcDbLine
 10
528.785224
 20
664.522665
 11
533.070136
 21
664.522665
  0
LINE
  5
522
100
AcDbEntity
  8
M0
 62
     4
100
AcDbLine
 10
585.870032
 20
745.021902
 11
569.870032
 21
745.021902
  0
LINE
  5
523
100
AcDbEntity
  8
M0
 62
     4
100
AcDbLine
 10
586.370032
 20
744.021902
 11
586.370032
 21
732.021902
  0
LINE
  5
524
100
AcDbEntity
  8
M0
 62
     4
100
AcDbLine
 10
568.870032
 20
743.98023
 11
568.870032
 21
732.021902
  0
LINE
  5
525
100
AcDbEntity
  8
M0
 62
     4
100
AcDbLine
 10
569.870032
 20
745.021902
 11
569.870032
 21
733.021902
  0
ARC
  5
526
100
AcDbEntity
  8
M0
 62
     4
100
AcDbCircle
 10
545.570029
 20
688.021902
 40
2.0
100
AcDbArc
 50
0.0
 51
89.999563
  0
LINE
  5
527
100
AcDbEntity
  8
M0
 62
     4
100
AcDbLine
 10
567.870032
 20
731.021902
 11
533.070029
 21
731.021902
  0
LINE
  5
528
100
AcDbEntity
  8
M0
 62
     4
100
AcDbLine
 10
557.870032
 20
732.521902
 11
533.070029
 21
732.521902
  0
LINE
  5
529
100
AcDbEntity
  8
M0
 62
     4
100
AcDbLine
 10
557.870032
 20
732.521902
 11
569.870032
 21
745.021902
  0
ARC
  5
52A
100
AcDbEntity
  8
M0
 62
     4
100
AcDbCircle
 10
567.870032
 20
732.021902
 40
1.0
100
AcDbArc
 50
270.0
 51
360.0
  0
ARC
  5
52B
100
AcDbEntity
  8
M0
 62
     4
100
AcDbCircle
 10
567.870032
 20
733.021902
 40
2.0
100
AcDbArc
 50
270.0
 51
360.0
  0
LINE
  5
52C
100
AcDbEntity
  8
M0
 62
     4
100
AcDbLine
 10
585.870032
 20
716.021902
 11
586.370032
 21
716.021902
  0
LINE
  5
52D
100
AcDbEntity
  8
M0
 62
     4
100
AcDbLine
 10
585.870032
 20
726.021902
 11
586.370032
 21
726.021902
  0
LINE
  5
52E
100
AcDbEntity
  8
M0
 62
     4
100
AcDbLine
 10
585.870032
 20
732.021902
 11
586.370032
 21
732.021902
  0
LINE
  5
52F
100
AcDbEntity
  8
M0
 62
     4
100
AcDbLine
 10
585.870032
 20
744.021902
 11
586.370032
 21
744.021902
  0
LINE
  5
530
100
AcDbEntity
  8
M0
 62
     4
100
AcDbLine
 10
586.370032
 20
726.021902
 11
586.370032
 21
716.021902
  0
LINE
  5
531
100
AcDbEntity
  8
M0
 62
     4
100
AcDbLine
 10
585.870032
 20
683.021902
 11
585.870032
 21
745.021902
  0
LINE
  5
532
100
AcDbEntity
  8
M0
 62
     4
100
AcDbLine
 10
547.570029
 20
683.021902
 11
547.570029
 21
688.021902
  0
LINE
  5
533
100
AcDbEntity
  8
M0
 62
     4
100
AcDbLine
 10
531.070029
 20
690.021902
 11
545.570029
 21
690.021902
  0
LINE
  5
534
100
AcDbEntity
  8
M0
 62
     4
100
AcDbLine
 10
531.070029
 20
692.021902
 11
533.070029
 21
696.521902
  0
LINE
  5
535
100
AcDbEntity
  8
M0
 62
     4
100
AcDbLine
 10
533.070029
 20
732.521902
 11
533.070029
 21
696.521902
  0
LINE
  5
536
100
AcDbEntity
  8
M0
 62
     4
100
AcDbLine
 10
531.070029
 20
690.021902
 11
531.070029
 21
692.021902
  0
LINE
  5
537
100
AcDbEntity
  8
M0
 62
     4
100
AcDbLine
 10
585.870032
 20
621.021902
 11
569.870032
 21
621.021902
  0
LINE
  5
538
100
AcDbEntity
  8
M0
 62
     4
100
AcDbLine
 10
586.370032
 20
622.021902
 11
586.370032
 21
634.021902
  0
LINE
  5
539
100
AcDbEntity
  8
M0
 62
     4
100
AcDbLine
 10
568.870032
 20
622.063574
 11
568.870032
 21
634.021902
  0
LINE
  5
53A
100
AcDbEntity
  8
M0
 62
     4
100
AcDbLine
 10
569.870032
 20
621.021902
 11
569.870032
 21
633.021902
  0
ARC
  5
53B
100
AcDbEntity
  8
M0
 62
     4
100
AcDbCircle
 10
545.570029
 20
678.021902
 40
2.0
100
AcDbArc
 50
-90.0
 51
0.0
  0
LINE
  5
53C
100
AcDbEntity
  8
M0
 62
     4
100
AcDbLine
 10
567.870032
 20
635.021902
 11
533.070029
 21
635.021902
  0
LINE
  5
53D
100
AcDbEntity
  8
M0
 62
     4
100
AcDbLine
 10
557.870032
 20
633.521902
 11
533.070029
 21
633.521902
  0
LINE
  5
53E
100
AcDbEntity
  8
M0
 62
     4
100
AcDbLine
 10
557.870032
 20
633.521902
 11
569.870032
 21
621.021902
  0
ARC
  5
53F
100
AcDbEntity
  8
M0
 62
     4
100
AcDbCircle
 10
567.870032
 20
634.021902
 40
1.0
100
AcDbArc
 50
0.0
 51
89.999126
  0
ARC
  5
540
100
AcDbEntity
  8
M0
 62
     4
100
AcDbCircle
 10
567.870032
 20
633.021902
 40
2.0
100
AcDbArc
 50
0.0
 51
89.999563
  0
LINE
  5
541
100
AcDbEntity
  8
M0
 62
     4
100
AcDbLine
 10
585.870032
 20
650.021902
 11
586.370032
 21
650.021902
  0
LINE
  5
542
100
AcDbEntity
  8
M0
 62
     4
100
AcDbLine
 10
585.870032
 20
640.021902
 11
586.370032
 21
640.021902
  0
LINE
  5
543
100
AcDbEntity
  8
M0
 62
     4
100
AcDbLine
 10
585.870032
 20
634.021902
 11
586.370032
 21
634.021902
  0
LINE
  5
544
100
AcDbEntity
  8
M0
 62
     4
100
AcDbLine
 10
585.870032
 20
622.021902
 11
586.370032
 21
622.021902
  0
LINE
  5
545
100
AcDbEntity
  8
M0
 62
     4
100
AcDbLine
 10
586.370032
 20
640.021902
 11
586.370032
 21
650.021902
  0
LINE
  5
546
100
AcDbEntity
  8
M0
 62
     4
100
AcDbLine
 10
585.870032
 20
683.021902
 11
585.870032
 21
621.021902
  0
LINE
  5
547
100
AcDbEntity
  8
M0
 62
     4
100
AcDbLine
 10
547.570029
 20
683.021902
 11
547.570029
 21
678.021902
  0
LINE
  5
548
100
AcDbEntity
  8
M0
 62
     4
100
AcDbLine
 10
533.070029
 20
676.021902
 11
545.570029
 21
676.021902
  0
LINE
  5
549
100
AcDbEntity
  8
M0
 62
     4
100
AcDbLine
 10
533.070029
 20
633.521902
 11
533.070029
 21
676.021902
  0
LINE
  5
54A
100
AcDbEntity
  8
M0
 62
     4
100
AcDbLine
 10
500.870002
 20
751.503683
 11
504.069953
 21
751.503683
  0
LINE
  5
54B
100
AcDbEntity
  8
M0
 62
     4
100
AcDbLine
 10
500.870002
 20
751.503683
 11
500.870002
 21
732.52175
  0
LINE
  5
54C
100
AcDbEntity
  8
M0
 62
     4
100
AcDbLine
 10
504.069953
 20
751.503683
 11
504.069953
 21
732.52175
  0
LINE
  5
54D
100
AcDbEntity
  8
M0
 62
     4
100
AcDbLine
 10
503.569953
 20
614.540381
 11
503.569953
 21
633.522238
  0
LINE
  5
54E
100
AcDbEntity
  8
M0
 62
     4
100
AcDbLine
 10
500.370002
 20
614.540381
 11
503.569953
 21
614.540381
  0
LINE
  5
54F
100
AcDbEntity
  8
M0
 62
     4
100
AcDbLine
 10
500.370002
 20
614.540381
 11
500.370002
 21
633.522253
  0
ARC
  5
550
100
AcDbEntity
  8
M0
 62
     4
100
AcDbCircle
 10
507.970115
 20
623.503546
 40
14.0
100
AcDbArc
 50
182.4555
 51
196.072502
  0
ARC
  5
551
100
AcDbEntity
  8
M0
 62
     4
100
AcDbCircle
 10
507.970115
 20
623.503546
 40
14.0
100
AcDbArc
 50
163.926211
 51
177.543125
  0
LINE
  5
552
100
AcDbEntity
  8
M0
 62
     4
100
AcDbLine
 10
496.082984
 20
622.903692
 11
493.982978
 21
622.903692
  0
LINE
  5
553
100
AcDbEntity
  8
M0
 62
     4
100
AcDbLine
 10
496.082984
 20
624.103643
 11
496.082984
 21
622.903692
  0
LINE
  5
554
100
AcDbEntity
  8
M0
 62
     4
100
AcDbLine
 10
493.982978
 20
624.103643
 11
496.082984
 21
624.103643
  0
ARC
  5
555
100
AcDbEntity
  8
M0
 62
     4
100
AcDbCircle
 10
496.3431
 20
620.153692
 40
1.9
100
AcDbArc
 50
196.075283
 51
270.0
  0
LINE
  5
556
100
AcDbEntity
  8
M0
 62
     4
100
AcDbLine
 10
496.3431
 20
618.253546
 11
497.870124
 21
618.253546
  0
ARC
  5
557
100
AcDbEntity
  8
M0
 62
     4
100
AcDbCircle
 10
496.3431
 20
626.853643
 40
1.9
100
AcDbArc
 50
89.99954
 51
163.923833
  0
LINE
  5
558
100
AcDbEntity
  8
M0
 62
     4
100
AcDbLine
 10
497.870124
 20
628.753546
 11
496.3431
 21
628.753546
  0
LINE
  5
559
100
AcDbEntity
  8
M0
 62
     4
100
AcDbLine
 10
497.870124
 20
618.253546
 11
497.870124
 21
628.753546
  0
LINE
  5
55A
100
AcDbEntity
  8
M0
  6
DASHDOT
 62
     4
100
AcDbLine
 10
491.615073
 20
623.503546
 11
513.532996
 21
623.503546
  0
LINE
  5
55B
100
AcDbEntity
  8
M0
 62
     4
100
AcDbLine
 10
511.870124
 20
620.503546
 11
511.870124
 21
626.503546
  0
LINE
  5
55C
100
AcDbEntity
  8
M0
 62
     4
100
AcDbLine
 10
511.870124
 20
626.503546
 11
503.570121
 21
626.503546
  0
LINE
  5
55D
100
AcDbEntity
  8
M0
 62
     4
100
AcDbLine
 10
503.570121
 20
626.003546
 11
511.870124
 21
626.003546
  0
LINE
  5
55E
100
AcDbEntity
  8
M0
 62
     4
100
AcDbLine
 10
503.570121
 20
621.003546
 11
511.870124
 21
621.003546
  0
LINE
  5
55F
100
AcDbEntity
  8
M0
 62
     4
100
AcDbLine
 10
503.570121
 20
620.503546
 11
511.870124
 21
620.503546
  0
LINE
  5
560
100
AcDbEntity
  8
M0
 62
     4
100
AcDbLine
 10
499.370124
 20
617.003546
 11
500.370124
 21
617.003546
  0
LINE
  5
561
100
AcDbEntity
  8
M0
 62
     4
100
AcDbLine
 10
500.370124
 20
617.003546
 11
500.370124
 21
630.003546
  0
LINE
  5
562
100
AcDbEntity
  8
M0
 62
     4
100
AcDbLine
 10
500.370124
 20
630.003546
 11
499.370124
 21
630.003546
  0
LINE
  5
563
100
AcDbEntity
  8
M0
 62
     4
100
AcDbLine
 10
499.370124
 20
630.003546
 11
499.370124
 21
617.003546
  0
LINE
  5
564
100
AcDbEntity
  8
M0
 62
     4
100
AcDbLine
 10
497.870124
 20
617.40354
 11
499.370124
 21
617.40354
  0
LINE
  5
565
100
AcDbEntity
  8
M0
 62
     4
100
AcDbLine
 10
499.370124
 20
617.40354
 11
499.370124
 21
629.603537
  0
LINE
  5
566
100
AcDbEntity
  8
M0
 62
     4
100
AcDbLine
 10
499.370124
 20
629.603537
 11
497.870124
 21
629.603537
  0
LINE
  5
567
100
AcDbEntity
  8
M0
 62
     4
100
AcDbLine
 10
497.870124
 20
629.603537
 11
497.870124
 21
617.40354
  0
LINE
  5
568
100
AcDbEntity
  8
M0
 62
     4
100
AcDbLine
 10
497.870124
 20
623.503515
 11
499.370124
 21
622.637503
  0
LINE
  5
569
100
AcDbEntity
  8
M0
 62
     4
100
AcDbLine
 10
497.870124
 20
624.369543
 11
499.370124
 21
623.503531
  0
ARC
  5
56A
100
AcDbEntity
  8
M0
 62
     4
100
AcDbCircle
 10
508.470099
 20
742.540197
 40
14.0
100
AcDbArc
 50
163.927361
 51
177.544313
  0
ARC
  5
56B
100
AcDbEntity
  8
M0
 62
     4
100
AcDbCircle
 10
508.470099
 20
742.540197
 40
14.0
100
AcDbArc
 50
182.456688
 51
196.073669
  0
LINE
  5
56C
100
AcDbEntity
  8
M0
 62
     4
100
AcDbLine
 10
496.582969
 20
743.140051
 11
494.482962
 21
743.140051
  0
LINE
  5
56D
100
AcDbEntity
  8
M0
 62
     4
100
AcDbLine
 10
496.582969
 20
741.9401
 11
496.582969
 21
743.140051
  0
LINE
  5
56E
100
AcDbEntity
  8
M0
 62
     4
100
AcDbLine
 10
494.482962
 20
741.9401
 11
496.582969
 21
741.9401
  0
ARC
  5
56F
100
AcDbEntity
  8
M0
 62
     4
100
AcDbCircle
 10
496.843085
 20
745.890051
 40
1.9
100
AcDbArc
 50
89.99954
 51
163.925159
  0
LINE
  5
570
100
AcDbEntity
  8
M0
 62
     4
100
AcDbLine
 10
496.843085
 20
747.790197
 11
498.370108
 21
747.790197
  0
ARC
  5
571
100
AcDbEntity
  8
M0
 62
     4
100
AcDbCircle
 10
496.843085
 20
739.1901
 40
1.9
100
AcDbArc
 50
196.076167
 51
270.0
  0
LINE
  5
572
100
AcDbEntity
  8
M0
 62
     4
100
AcDbLine
 10
498.370108
 20
737.290197
 11
496.843085
 21
737.290197
  0
LINE
  5
573
100
AcDbEntity
  8
M0
 62
     4
100
AcDbLine
 10
498.370108
 20
747.790197
 11
498.370108
 21
737.290197
  0
LINE
  5
574
100
AcDbEntity
  8
M0
  6
DASHDOT
 62
     4
100
AcDbLine
 10
492.115058
 20
742.540197
 11
514.032981
 21
742.540213
  0
LINE
  5
575
100
AcDbEntity
  8
M0
 62
     4
100
AcDbLine
 10
512.370108
 20
745.540197
 11
512.370108
 21
739.540197
  0
LINE
  5
576
100
AcDbEntity
  8
M0
 62
     4
100
AcDbLine
 10
512.370108
 20
739.540197
 11
504.070105
 21
739.540197
  0
LINE
  5
577
100
AcDbEntity
  8
M0
 62
     4
100
AcDbLine
 10
504.070105
 20
740.040197
 11
512.370108
 21
740.040197
  0
LINE
  5
578
100
AcDbEntity
  8
M0
 62
     4
100
AcDbLine
 10
504.070105
 20
745.040197
 11
512.370108
 21
745.040197
  0
LINE
  5
579
100
AcDbEntity
  8
M0
 62
     4
100
AcDbLine
 10
504.070105
 20
745.540197
 11
512.370108
 21
745.540197
  0
LINE
  5
57A
100
AcDbEntity
  8
M0
 62
     4
100
AcDbLine
 10
499.870108
 20
749.040197
 11
500.870108
 21
749.040197
  0
LINE
  5
57B
100
AcDbEntity
  8
M0
 62
     4
100
AcDbLine
 10
500.870108
 20
749.040197
 11
500.870108
 21
736.040197
  0
LINE
  5
57C
100
AcDbEntity
  8
M0
 62
     4
100
AcDbLine
 10
500.870108
 20
736.040197
 11
499.870108
 21
736.040197
  0
LINE
  5
57D
100
AcDbEntity
  8
M0
 62
     4
100
AcDbLine
 10
499.870108
 20
736.040197
 11
499.870108
 21
749.040197
  0
LINE
  5
57E
100
AcDbEntity
  8
M0
 62
     4
100
AcDbLine
 10
498.370108
 20
748.640204
 11
499.870108
 21
748.640204
  0
LINE
  5
57F
100
AcDbEntity
  8
M0
 62
     4
100
AcDbLine
 10
499.870108
 20
748.640204
 11
499.870108
 21
736.440207
  0
LINE
  5
580
100
AcDbEntity
  8
M0
 62
     4
100
AcDbLine
 10
499.870108
 20
736.440207
 11
498.370108
 21
736.440207
  0
LINE
  5
581
100
AcDbEntity
  8
M0
 62
     4
100
AcDbLine
 10
498.370108
 20
736.440207
 11
498.370108
 21
748.640204
  0
LINE
  5
582
100
AcDbEntity
  8
M0
 62
     4
100
AcDbLine
 10
498.370108
 20
742.540228
 11
499.870108
 21
743.406241
  0
LINE
  5
583
100
AcDbEntity
  8
M0
 62
     4
100
AcDbLine
 10
498.370108
 20
741.6742
 11
499.870108
 21
742.540213
  0
CIRCLE
  5
584
100
AcDbEntity
  8
M0
 62
     2
100
AcDbCircle
 10
242.348578
 20
333.30922
 40
6.0
  0
CIRCLE
  5
585
100
AcDbEntity
  8
M0
 62
     2
100
AcDbCircle
 10
352.348578
 20
483.308975
 40
6.0
  0
CIRCLE
  5
586
100
AcDbEntity
  8
M0
 62
     2
100
AcDbCircle
 10
132.348578
 20
483.308975
 40
6.0
  0
LINE
  5
587
100
AcDbEntity
  8
M0
  6
DIVIDE
 62
     2
100
AcDbLine
 10
122.348578
 20
323.30922
 11
362.348578
 21
323.30922
  0
LINE
  5
588
100
AcDbEntity
  8
M0
  6
DIVIDE
 62
     2
100
AcDbLine
 10
362.348578
 20
323.30922
 11
362.348578
 21
493.30922
  0
LINE
  5
589
100
AcDbEntity
  8
M0
  6
DIVIDE
 62
     2
100
AcDbLine
 10
362.348578
 20
493.30922
 11
122.348578
 21
493.30922
  0
LINE
  5
58A
100
AcDbEntity
  8
M0
  6
DIVIDE
 62
     2
100
AcDbLine
 10
122.348578
 20
493.30922
 11
122.348578
 21
323.30922
  0
LINE
  5
58B
100
AcDbEntity
  8
M0
  6
DIVIDE
 62
     2
100
AcDbLine
 10
109.010007
 20
408.30922
 11
372.58063
 21
408.30922
  0
LINE
  5
58C
100
AcDbEntity
  8
M0
  6
DIVIDE
 62
     2
100
AcDbLine
 10
242.348578
 20
309.098987
 11
242.348578
 21
504.538356
  0
CIRCLE
  5
58D
100
AcDbEntity
  8
M0
 62
     2
100
AcDbCircle
 10
132.348578
 20
483.308975
 40
3.0
  0
LINE
  5
58E
100
AcDbEntity
  8
M0
  6
DASHDOT
 62
     2
100
AcDbLine
 10
107.126349
 20
483.308975
 11
157.570807
 21
483.308975
  0
LINE
  5
58F
100
AcDbEntity
  8
M0
  6
DASHDOT
 62
     2
100
AcDbLine
 10
132.348578
 20
458.086563
 11
132.348578
 21
508.531143
  0
CIRCLE
  5
590
100
AcDbEntity
  8
M0
 62
     2
100
AcDbCircle
 10
352.348578
 20
483.308975
 40
3.0
  0
LINE
  5
591
100
AcDbEntity
  8
M0
  6
DASHDOT
 62
     2
100
AcDbLine
 10
327.126166
 20
483.308975
 11
377.570746
 21
483.308975
  0
LINE
  5
592
100
AcDbEntity
  8
M0
  6
DASHDOT
 62
     2
100
AcDbLine
 10
352.348578
 20
458.086563
 11
352.348578
 21
508.531143
  0
CIRCLE
  5
593
100
AcDbEntity
  8
M0
 62
     2
100
AcDbCircle
 10
242.348578
 20
333.30922
 40
3.0
  0
LINE
  5
594
100
AcDbEntity
  8
M0
  6
DASHDOT
 62
     2
100
AcDbLine
 10
217.126166
 20
333.30922
 11
267.570746
 21
333.30922
  0
LINE
  5
595
100
AcDbEntity
  8
M1
 62
     2
100
AcDbLine
 10
33.333332
 20
33.333332
 11
33.333332
 21
949.999962
  0
LINE
  5
596
100
AcDbEntity
  8
M1
 62
     2
100
AcDbLine
 10
33.333332
 20
949.999962
 11
666.66664
 21
949.999962
  0
LINE
  5
597
100
AcDbEntity
  8
M1
 62
     2
100
AcDbLine
 10
666.66664
 20
949.999962
 11
666.66664
 21
33.333332
  0
LINE
  5
598
100
AcDbEntity
  8
M1
 62
     2
100
AcDbLine
 10
666.66664
 20
33.333332
 11
33.333332
 21
33.333332
  0
LINE
  5
599
100
AcDbEntity
  8
M1
 62
     2
100
AcDbLine
 10
666.66664
 20
66.666664
 11
333.33332
 21
66.666664
  0
LINE
  5
59A
100
AcDbEntity
  8
M1
 62
     2
100
AcDbLine
 10
666.66664
 20
99.999996
 11
333.33332
 21
99.999996
  0
LINE
  5
59B
100
AcDbEntity
  8
M1
 62
     2
100
AcDbLine
 10
666.66664
 20
133.333328
 11
333.33332
 21
133.333328
  0
LINE
  5
59C
100
AcDbEntity
  8
M1
 62
     2
100
AcDbLine
 10
333.33332
 20
33.333332
 11
333.33332
 21
133.333328
  0
TEXT
  5
59D
100
AcDbEntity
  8
M1
 62
     2
100
AcDbText
 10
341.666653
 20
41.666665
 40
16.666666
  1
適　用；
 41
1.0
  7
STANDARD
100
AcDbText
  0
TEXT
  5
59E
100
AcDbEntity
  8
M1
 62
     2
100
AcDbText
 10
341.666653
 20
108.333329
 40
16.666666
  1
登録名：
 41
1.0
  7
STANDARD
100
AcDbText
  0
TEXT
  5
59F
100
AcDbEntity
  8
M1
 62
     2
100
AcDbText
 10
421.66665
 20
108.333329
 40
16.666666
  1
ＤＭＨ８０ＣＲＲ００
 41
0.5
  7
STANDARD
100
AcDbText
  0
TEXT
  5
5A0
100
AcDbEntity
  8
M1
 62
     2
100
AcDbText
 10
341.666653
 20
74.999997
 40
16.666666
  1
形　式；
 41
1.0
  7
STANDARD
100
AcDbText
  0
TEXT
  5
5A1
100
AcDbEntity
  8
M1
 62
     2
100
AcDbText
 10
421.66665
 20
74.999997
 40
16.666666
  1
Ｈ８０Ｃ－Ｒ，Ｈ８０Ｃ－ＲＧ
 41
0.5
  7
STANDARD
100
AcDbText
  0
LINE
  5
5A2
100
AcDbEntity
  8
DN0
100
AcDbLine
 10
215.5155
 20
258.528803
 11
276.382166
 21
258.528803
  0
TEXT
  5
5A3
100
AcDbEntity
  8
DN0
100
AcDbText
 10
217.198833
 20
260.028803
 40
14.999999
  1
せん孔図
 41
0.833333
  7
STANDARD
100
AcDbText
  0
ENDSEC
  0
SECTION
  2
OBJECTS
  0
DICTIONARY
  5
C
100
AcDbDictionary
  3
ACAD_GROUP
350
D
  3
ACAD_MLINESTYLE
350
E
  0
DICTIONARY
  5
D
102
{ACAD_REACTORS
330
C
102
}
100
AcDbDictionary
  0
DICTIONARY
  5
E
102
{ACAD_REACTORS
330
C
102
}
100
AcDbDictionary
  3
STANDARD
350
13
  0
MLINESTYLE
  5
13
102
{ACAD_REACTORS
330
E
102
}
100
AcDbMlineStyle
  2
STANDARD
 70
     0
  3

 62
     0
 51
90.0
 52
90.0
 71
     2
 49
0.5
 62
   256
  6
BYLAYER
 49
-0.5
 62
   256
  6
BYLAYER
  0
ENDSEC
  0
EOF
