  0
SECTION
  2
HEADER
  9
$ACADVER
  1
AC1014
  9
$INSBASE
 10
0.000000
 20
0.000000
 30
0.0
  9
$VIEWCTR
 10
7.531722
 20
4.5
  9
$VIEWSIZE
 40
9.0
  9
$SNAPMODE
 70
     0
  9
$SNAPUNIT
 10
1.0
 20
1.0
  9
$SNAPBASE
 10
0.0
 20
0.0
  9
$SNAPANG
 50
0.0
  9
$SNAPSTYLE
 70
     0
  9
$SNAPISOPAIR
 70
     0
  9
$GRIDMODE
 70
     0
  9
$GRIDUNIT
 10
0.0
 20
0.0
  9
$ORTHOMODE
 70
     0
  9
$REGENMODE
 70
     1
  9
$FILLMODE
 70
     1
  9
$QTEXTMODE
 70
     0
  9
$DRAGMODE
 70
     2
  9
$LTSCALE
  40
     1.000000
  9
$OSMODE
 70
     0
  9
$ATTMODE
 70
     1
  9
$TEXTSIZE
 40
0.2
  9
$TRACEWID
 40
0.05
  9
$TEXTSTYLE
  7
STANDARD
  9
$CELTYPE
  6
BYLAYER
  9
$CECOLOR
 62
   256
  9
$DIMSCALE
 40
1.0
  9
$DIMASZ
 40
0.18
  9
$DIMEXO
 40
0.0625
  9
$DIMDLI
 40
0.38
  9
$DIMRND
 40
0.0
  9
$DIMDLE
 40
0.0
  9
$DIMEXE
 40
0.18
  9
$DIMTP
 40
0.0
  9
$DIMTM
 40
0.0
  9
$DIMTXT
 40
0.18
  9
$DIMCEN
 40
0.09
  9
$DIMTSZ
 40
0.0
  9
$DIMTOL
 70
     0
  9
$DIMLIM
 70
     0
  9
$DIMTIH
 70
     1
  9
$DIMTOH
 70
     1
  9
$DIMSE1
 70
     0
  9
$DIMSE2
 70
     0
  9
$DIMTAD
 70
     0
  9
$DIMZIN
 70
     0
  9
$DIMBLK
  1

  9
$LUNITS
 70
     2
  9
$LUPREC
 70
     4
  9
$AXISMODE
 70
     0
  9
$AXISUNIT
 10
0.0
 20
0.0
  9
$SKETCHINC
 40
0.1
  9
$FILLETRAD
 40
0.0
  9
$AUNITS
 70
     0
  9
$AUPREC
 70
     0
  9
$MENU
  1
ACAD
  9
$ELEVATION
 40
0.0
  9
$THICKNESS
 40
0.0
  9
$VIEWDIR
 10
0.0
 20
0.0
 30
1.0
  9
$LIMCHECK
 70
     0
  9
$BLIPMODE
 70
     1
  9
$CHAMFERA
 40
0.0
  9
$CHAMFERB
 40
0.0
  9
$FASTZOOM
 70
     1
  9
$SKPOLY
 70
     0
  9
$TDCREATE
 40
0000000.0000000000
  9
$TDUPDATE
 40
0000000.0000000000
  9
$TDINDWG
 40
0.0000000000
  9
$TDUSRTIMER
 40
0.0000000000
  9
$USRTIMER
 70
     1
  9
$ANGBASE
 50
0.0
  9
$ANGDIR
 70
     0
  9
$PDMODE
 70
     0
  9
$PDSIZE
 40
0.0
  9
$PLINEWID
 40
0.0
  9
$COORDS
 70
     0
  9
$USERI1
 70
     0
  9
$USERI2
 70
     0
  9
$USERI3
 70
     0
  9
$USERI4
 70
     0
  9
$USERI5
 70
     0
  9
$USERR1
 40
0.0
  9
$USERR2
 40
0.0
  9
$USERR3
 40
0.0
  9
$USERR4
 40
0.0
  9
$USERR5
 40
0.0
  9
$CLAYER
  8
M0
  9
$EXTMIN
 10
30.303029
 20
30.303029
  9
$EXTMAX
 10
606.060582
 20
863.636329
  9
$LIMMIN
 10
0.0
 20
0.0
  9
$LIMMAX
 10
210.0
 20
297.0
  9
$HANDSEED
  5
768
  0
ENDSEC
  0
SECTION
  2
CLASSES
  0
ENDSEC
  0
SECTION
  2
TABLES
  0
TABLE
  2
VPORT
  5
8
100
AcDbSymbolTable
 70
     2
  0
VPORT
  5
14
100
AcDbSymbolTableRecord
100
AcDbViewportTableRecord
  2
*ACTIVE
 70
     0
 10
0.0
 20
0.0
 11
1.0
 21
1.0
 12
484.0
 22
297.0
 13
0.0
 23
0.0
 14
1.0
 24
1.0
 15
0.0
 25
0.0
 16
0.0
 26
0.0
 36
1.0
 17
0.0
 27
0.0
 37
0.0
 40
594.0
 41
2.0
 42
50.0
 43
0.0
 44
0.0
 50
0.0
 51
0.0
 71
     0
 72
   100
 73
     1
 74
     1
 75
     0
 76
     0
 77
     0
 78
     0
  0
ENDTAB
  0
TABLE
  2
LTYPE
  5
5
100
AcDbSymbolTable
 70
     5
  0
LTYPE
  5
15
100
AcDbSymbolTableRecord
100
AcDbLinetypeTableRecord
  2
BYBLOCK
 70
     0
  3

 72
    65
 73
     0
 40
0.0
  0
LTYPE
  5
16
100
AcDbSymbolTableRecord
100
AcDbLinetypeTableRecord
  2
BYLAYER
 70
     0
  3

 72
    65
 73
     0
 40
0.0
  0
LTYPE
  5
17
100
AcDbSymbolTableRecord
100
AcDbLinetypeTableRecord
  2
CONTINUOUS
 70
    64
  3
Solid line
 72
    65
 73
     0
 40
0.0
  0
LTYPE
  5
18
100
AcDbSymbolTableRecord
100
AcDbLinetypeTableRecord
  2
DASHED
 70
    64
  3
__ __ __ __ __ __ __ __ __ __ __ __ __ __ __ __
 72
    65
 73
     2
 40
0.75
 49
0.5
 74
     0
 49
-0.25
 74
     0
  0
LTYPE
  5
19
100
AcDbSymbolTableRecord
100
AcDbLinetypeTableRecord
  2
DASHDOT
 70
    64
  3
__ . __ . __ . __ . __ . __ . __ . __ . __ . __
 72
    65
 73
     4
 40
1.0
 49
0.5
 74
     0
 49
-0.25
 74
     0
 49
0.0
 74
     0
 49
-0.25
 74
     0
  0
LTYPE
  5
1A
100
AcDbSymbolTableRecord
100
AcDbLinetypeTableRecord
  2
DIVIDE
 70
    64
  3
____ . . ____ . . ____ . . ____ . . ____ . . __
 72
    65
 73
     6
 40
1.25
 49
0.5
 74
     0
 49
-0.25
 74
     0
 49
0.0
 74
     0
 49
-0.25
 74
     0
 49
0.0
 74
     0
 49
-0.25
 74
     0
  0
LTYPE
  5
1B
100
AcDbSymbolTableRecord
100
AcDbLinetypeTableRecord
  2
DOT
 70
    64
  3
. . . . . . . . . . . . . . . . . . . . . . . .
 72
    65
 73
     2
 40
0.25
 49
0.0
 74
     0
 49
-0.25
 74
     0
  0
ENDTAB
  0
TABLE
  2
LAYER
  5
2
100
AcDbSymbolTable
 70
   102
  0
LAYER
  5
F
100
AcDbSymbolTableRecord
100
AcDbLayerTableRecord
  2
0
 70
     0
 62
     7
  6
CONTINUOUS
  0
LAYER
  5
1C
100
AcDbSymbolTableRecord
100
AcDbLayerTableRecord
  2
DEFPOINTS
 70
     0
 62
     7
  6
CONTINUOUS
  0
LAYER
  5
1D
100
AcDbSymbolTableRecord
100
AcDbLayerTableRecord
  2
M0
 70
     0
 62
     3
  6
CONTINUOUS
  0
LAYER
  5
1E
100
AcDbSymbolTableRecord
100
AcDbLayerTableRecord
  2
M1
 70
     0
 62
     3
  6
CONTINUOUS
  0
LAYER
  5
1F
100
AcDbSymbolTableRecord
100
AcDbLayerTableRecord
  2
DD0
 70
     0
 62
     4
  6
CONTINUOUS
  0
LAYER
  5
20
100
AcDbSymbolTableRecord
100
AcDbLayerTableRecord
  2
DN0
 70
     0
 62
     2
  6
CONTINUOUS
  0
ENDTAB
  0
TABLE
  2
STYLE
  5
3
100
AcDbSymbolTable
 70
     2
  0
STYLE
  5
10
100
AcDbSymbolTableRecord
100
AcDbTextStyleTableRecord
  2
STANDARD
 70
     0
 40
0.0
 41
1.0
 50
0.0
 71
     0
 42
0.2
  3
txt
  4
BIGFONT
  0
ENDTAB
  0
TABLE
  2
VIEW
  5
6
100
AcDbSymbolTable
 70
     0
  0
ENDTAB
  0
TABLE
  2
UCS
  5
7
100
AcDbSymbolTable
 70
     0
  0
ENDTAB
  0
TABLE
  2
APPID
  5
9
100
AcDbSymbolTable
 70
     1
  0
APPID
  5
11
100
AcDbSymbolTableRecord
100
AcDbRegAppTableRecord
  2
ACAD
 70
     0
  0
ENDTAB
  0
TABLE
  2
DIMSTYLE
  5
A
100
AcDbSymbolTable
 70
     2
  0
DIMSTYLE
105
27
100
AcDbSymbolTableRecord
100
AcDbDimStyleTableRecord
  2
STANDARD
 70
     0
  3

  4

  5

  6
_OPEN
  7
_OPEN
 40
1.0
 41
9.090909
 42
1.0
 43
8.0
 44
1.0
 45
0.0
 46
0.0
 47
0.0
 48
0.0
140
9.545454
141
0.09
142
0.0
143
0.03937
144
1.0
145
0.0
146
1.0
147
0.6
 71
     0
 72
     0
 73
     1
 74
     1
 75
     0
 76
     0
 77
     3
 78
     8
170
     0
171
     2
172
     0
173
     1
174
     0
175
     0
176
     0
177
     0
178
     0
270
     2
271
     2
272
     4
273
     2
274
     2
340
10
275
     0
280
     0
281
     0
282
     0
283
     1
284
     0
285
     0
286
     0
287
     3
288
     0
  0
DIMSTYLE
105
28
100
AcDbSymbolTableRecord
100
AcDbDimStyleTableRecord
  2
LEADSTYL
 70
     0
  3

  4

  5

  6
_OPEN
  7
_OPEN
 40
1.0
 41
9.090909
 42
0.0625
 43
0.38
 44
0.18
 45
0.0
 46
0.0
 47
0.0
 48
0.0
140
9.545454
141
0.09
142
0.0
143
25.4
144
1.0
145
0.0
146
1.0
147
0.6
 71
     0
 72
     0
 73
     1
 74
     1
 75
     0
 76
     0
 77
     0
 78
     0
170
     0
171
     2
172
     0
173
     1
174
     0
175
     0
176
     0
177
     0
178
     0
270
     2
271
     4
272
     4
273
     2
274
     2
340
10
275
     0
280
     0
281
     0
282
     0
283
     1
284
     0
285
     0
286
     0
287
     3
288
     0
  0
ENDTAB
  0
TABLE
  2
BLOCK_RECORD
  5
1
100
AcDbSymbolTable
 70
    15
  0
BLOCK_RECORD
  5
21
100
AcDbSymbolTableRecord
100
AcDbBlockTableRecord
  2
*MODEL_SPACE
  0
BLOCK_RECORD
  5
24
100
AcDbSymbolTableRecord
100
AcDbBlockTableRecord
  2
*PAPER_SPACE
  0
BLOCK_RECORD
  5
29
100
AcDbSymbolTableRecord
100
AcDbBlockTableRecord
  2
_NONE
  0
BLOCK_RECORD
  5
2D
100
AcDbSymbolTableRecord
100
AcDbBlockTableRecord
  2
_OPEN
  0
BLOCK_RECORD
  5
33
100
AcDbSymbolTableRecord
100
AcDbBlockTableRecord
  2
_CLOSED
  0
BLOCK_RECORD
  5
3A
100
AcDbSymbolTableRecord
100
AcDbBlockTableRecord
  2
_ORIGIN
  0
BLOCK_RECORD
  5
3F
100
AcDbSymbolTableRecord
100
AcDbBlockTableRecord
  2
_DOT
  0
BLOCK_RECORD
  5
47
100
AcDbSymbolTableRecord
100
AcDbBlockTableRecord
  2
_OBLIQUE
  0
BLOCK_RECORD
  5
4B
100
AcDbSymbolTableRecord
100
AcDbBlockTableRecord
  2
DIMS0
  0
BLOCK_RECORD
  5
57
100
AcDbSymbolTableRecord
100
AcDbBlockTableRecord
  2
DIMS1
  0
BLOCK_RECORD
  5
63
100
AcDbSymbolTableRecord
100
AcDbBlockTableRecord
  2
DIMS2
  0
BLOCK_RECORD
  5
6F
100
AcDbSymbolTableRecord
100
AcDbBlockTableRecord
  2
DIMS3
  0
BLOCK_RECORD
  5
7B
100
AcDbSymbolTableRecord
100
AcDbBlockTableRecord
  2
DIMS4
  0
BLOCK_RECORD
  5
87
100
AcDbSymbolTableRecord
100
AcDbBlockTableRecord
  2
DIMS5
  0
BLOCK_RECORD
  5
90
100
AcDbSymbolTableRecord
100
AcDbBlockTableRecord
  2
DIMS6
  0
BLOCK_RECORD
  5
9C
100
AcDbSymbolTableRecord
100
AcDbBlockTableRecord
  2
DIMS7
  0
BLOCK_RECORD
  5
A8
100
AcDbSymbolTableRecord
100
AcDbBlockTableRecord
  2
DIMS8
  0
ENDTAB
  0
ENDSEC
  0
SECTION
  2
BLOCKS
  0
BLOCK
  5
22
100
AcDbEntity
  8
0
100
AcDbBlockBegin
  2
*MODEL_SPACE
 70
     0
 10
0.0
 20
0.0
 30
0.0
  3
*MODEL_SPACE
  1

  0
ENDBLK
  5
23
100
AcDbEntity
  8
0
100
AcDbBlockEnd
  0
BLOCK
  5
25
100
AcDbEntity
 67
     1
  8
0
100
AcDbBlockBegin
  2
*PAPER_SPACE
 70
     0
 10
0.0
 20
0.0
 30
0.0
  3
*PAPER_SPACE
  1

  0
ENDBLK
  5
26
100
AcDbEntity
 67
     1
  8
0
100
AcDbBlockEnd
  0
BLOCK
  5
2A
100
AcDbEntity
  8
0
100
AcDbBlockBegin
  2
_NONE
 70
     0
 10
0.0
 20
0.0
  0
CIRCLE
  5
2B
100
AcDbEntity
  8
0
 62
     0
100
AcDbCircle
 10
0.0
 20
0.0
 40
0.25
  0
ENDBLK
  5
2C
100
AcDbEntity
  8
0
100
AcDbBlockEnd
  0
BLOCK
  5
2E
100
AcDbEntity
  8
0
100
AcDbBlockBegin
  2
_OPEN
 70
     0
 10
0.0
 20
0.0
  0
LINE
  5
2F
100
AcDbEntity
  8
0
 62
     0
100
AcDbLine
 10
-0.965926
 20
0.258819
 11
0.0
 21
0.0
  0
LINE
  5
30
100
AcDbEntity
  8
0
 62
     0
100
AcDbLine
 10
0.0
 20
0.0
 11
-0.965926
 21
-0.258819
  0
LINE
  5
31
100
AcDbEntity
  8
0
 62
     0
100
AcDbLine
 10
0.0
 20
0.0
 11
-1.0
 21
0.0
  0
ENDBLK
  5
32
100
AcDbEntity
  8
0
100
AcDbBlockEnd
  0
BLOCK
  5
34
100
AcDbEntity
  8
0
100
AcDbBlockBegin
  2
_CLOSED
 70
     0
 10
0.0
 20
0.0
  0
LINE
  5
35
100
AcDbEntity
  8
0
 62
     0
100
AcDbLine
 10
-0.965926
 20
0.258819
 11
0.0
 21
0.0
  0
LINE
  5
36
100
AcDbEntity
  8
0
 62
     0
100
AcDbLine
 10
0.0
 20
0.0
 11
-0.965926
 21
-0.258819
  0
LINE
  5
37
100
AcDbEntity
  8
0
 62
     0
100
AcDbLine
 10
-0.965926
 20
0.258819
 11
-0.965926
 21
-0.258819
  0
LINE
  5
38
100
AcDbEntity
  8
0
 62
     0
100
AcDbLine
 10
0.0
 20
0.0
 11
-1.0
 21
0.0
  0
ENDBLK
  5
39
100
AcDbEntity
  8
0
100
AcDbBlockEnd
  0
BLOCK
  5
3B
100
AcDbEntity
  8
0
100
AcDbBlockBegin
  2
_ORIGIN
 70
     0
 10
0.0
 20
0.0
  0
CIRCLE
  5
3C
100
AcDbEntity
  8
0
 62
     0
100
AcDbCircle
 10
0.0
 20
0.0
 40
0.5
  0
LINE
  5
3D
100
AcDbEntity
  8
0
 62
     0
100
AcDbLine
 10
0.0
 20
0.0
 11
-1.0
 21
0.0
  0
ENDBLK
  5
3E
100
AcDbEntity
  8
0
100
AcDbBlockEnd
  0
BLOCK
  5
40
100
AcDbEntity
  8
0
100
AcDbBlockBegin
  2
_DOT
 70
     0
 10
0.0
 20
0.0
  0
POLYLINE
  5
41
100
AcDbEntity
  8
0
 62
     0
100
AcDb2dPolyline
 66
     1
 70
     1
 40
0.5
 41
0.5
  0
VERTEX
  5
42
100
AcDbEntity
  8
0
 62
     0
100
AcDbVertex
100
AcDb2dVertex
 10
-0.25
 20
0.0
 42
1.0
  0
VERTEX
  5
43
100
AcDbEntity
  8
0
 62
     0
100
AcDbVertex
100
AcDb2dVertex
 10
0.25
 20
0.0
 42
1.0
  0
SEQEND
  5
44
100
AcDbEntity
  8
0
 62
     0
  0
LINE
  5
45
100
AcDbEntity
  8
0
 62
     0
100
AcDbLine
 10
-0.5
 20
0.0
 11
-1.0
 21
0.0
  0
ENDBLK
  5
46
100
AcDbEntity
  8
0
100
AcDbBlockEnd
  0
BLOCK
  5
48
100
AcDbEntity
  8
0
100
AcDbBlockBegin
  2
_OBLIQUE
 70
     0
 10
0.0
 20
0.0
  0
LINE
  5
49
100
AcDbEntity
  8
0
 62
     0
100
AcDbLine
 10
-0.353553
 20
-0.353553
 11
0.353553
 21
0.353553
  0
ENDBLK
  5
4A
100
AcDbEntity
  8
0
100
AcDbBlockEnd
  0
BLOCK
  5
4C
100
AcDbEntity
  8
DD0
100
AcDbBlockBegin
  2
DIMS0
 70
     0
 10
0.0
 20
0.0
  0
LINE
  5
4D
100
AcDbEntity
  8
DD0
100
AcDbLine
 10
153.669444
 20
670.03948
 11
153.669444
 21
769.117336
  0
LINE
  5
4E
100
AcDbEntity
  8
DD0
100
AcDbLine
 10
253.669428
 20
670.04022
 11
253.669428
 21
769.117336
  0
LINE
  5
4F
100
AcDbEntity
  8
DD0
100
AcDbLine
 10
162.450587
 20
768.439934
 11
153.669444
 21
766.087033
  0
LINE
  5
50
100
AcDbEntity
  8
DD0
100
AcDbLine
 10
153.669444
 20
766.087033
 11
162.450587
 21
763.734133
  0
LINE
  5
51
100
AcDbEntity
  8
DD0
100
AcDbLine
 10
244.888285
 20
763.734133
 11
253.669428
 21
766.087033
  0
LINE
  5
52
100
AcDbEntity
  8
DD0
100
AcDbLine
 10
253.669428
 20
766.087033
 11
244.888285
 21
768.439934
  0
LINE
  5
53
100
AcDbEntity
  8
DD0
100
AcDbLine
 10
153.669444
 20
766.087033
 11
253.669428
 21
766.087033
  0
TEXT
  5
54
100
AcDbEntity
  8
DD0
100
AcDbText
 10
185.358831
 20
767.905234
 40
9.545454
  1
※１００
 41
0.833333
  7
STANDARD
100
AcDbText
  0
ENDBLK
  5
55
100
AcDbEntity
  8
DD0
100
AcDbBlockEnd
  0
BLOCK
  5
58
100
AcDbEntity
  8
DD0
100
AcDbBlockBegin
  2
DIMS1
 70
     0
 10
0.0
 20
0.0
  0
LINE
  5
59
100
AcDbEntity
  8
DD0
100
AcDbLine
 10
258.419489
 20
549.139244
 11
258.419489
 21
769.117244
  0
LINE
  5
5A
100
AcDbEntity
  8
DD0
100
AcDbLine
 10
253.419253
 20
578.040221
 11
253.419253
 21
769.117244
  0
LINE
  5
5B
100
AcDbEntity
  8
DD0
100
AcDbLine
 10
267.200632
 20
768.439841
 11
258.419489
 21
766.086941
  0
LINE
  5
5C
100
AcDbEntity
  8
DD0
100
AcDbLine
 10
258.419489
 20
766.086941
 11
267.200632
 21
763.734041
  0
LINE
  5
5D
100
AcDbEntity
  8
DD0
100
AcDbLine
 10
244.63811
 20
763.734041
 11
253.419253
 21
766.086941
  0
LINE
  5
5E
100
AcDbEntity
  8
DD0
100
AcDbLine
 10
253.419253
 20
766.086941
 11
244.63811
 21
768.439841
  0
LINE
  5
5F
100
AcDbEntity
  8
DD0
100
AcDbLine
 10
280.995245
 20
766.086941
 11
243.419254
 21
766.086941
  0
TEXT
  5
60
100
AcDbEntity
  8
DD0
100
AcDbText
 10
269.199804
 20
767.905141
 40
9.545454
  1
５
 41
0.833333
  7
STANDARD
100
AcDbText
  0
ENDBLK
  5
61
100
AcDbEntity
  8
DD0
100
AcDbBlockEnd
  0
BLOCK
  5
64
100
AcDbEntity
  8
DD0
100
AcDbBlockBegin
  2
DIMS2
 70
     0
 10
0.0
 20
0.0
  0
LINE
  5
65
100
AcDbEntity
  8
DD0
100
AcDbLine
 10
516.069796
 20
725.640332
 11
516.069796
 21
740.952433
  0
LINE
  5
66
100
AcDbEntity
  8
DD0
100
AcDbLine
 10
513.769788
 20
725.640332
 11
513.769788
 21
740.952433
  0
LINE
  5
67
100
AcDbEntity
  8
DD0
100
AcDbLine
 10
524.85094
 20
740.275031
 11
516.069796
 21
737.922131
  0
LINE
  5
68
100
AcDbEntity
  8
DD0
100
AcDbLine
 10
516.069796
 20
737.922131
 11
524.85094
 21
735.56923
  0
LINE
  5
69
100
AcDbEntity
  8
DD0
100
AcDbLine
 10
504.988645
 20
735.56923
 11
513.769788
 21
737.922131
  0
LINE
  5
6A
100
AcDbEntity
  8
DD0
100
AcDbLine
 10
513.769788
 20
737.922131
 11
504.988645
 21
740.275031
  0
LINE
  5
6B
100
AcDbEntity
  8
DD0
100
AcDbLine
 10
557.736464
 20
737.922131
 11
503.769789
 21
737.922131
  0
TEXT
  5
6C
100
AcDbEntity
  8
DD0
100
AcDbText
 10
526.850112
 20
739.740331
 40
9.545454
  1
２．３
 41
0.833333
  7
STANDARD
100
AcDbText
  0
ENDBLK
  5
6D
100
AcDbEntity
  8
DD0
100
AcDbBlockEnd
  0
BLOCK
  5
70
100
AcDbEntity
  8
DD0
100
AcDbBlockBegin
  2
DIMS3
 70
     0
 10
0.0
 20
0.0
  0
LINE
  5
71
100
AcDbEntity
  8
DD0
100
AcDbLine
 10
254.69972
 20
400.187806
 11
304.199553
 21
400.187806
  0
LINE
  5
72
100
AcDbEntity
  8
DD0
100
AcDbLine
 10
242.533056
 20
392.687741
 11
304.199553
 21
392.687741
  0
LINE
  5
73
100
AcDbEntity
  8
DD0
100
AcDbLine
 10
298.81635
 20
408.968949
 11
301.169251
 21
400.187806
  0
LINE
  5
74
100
AcDbEntity
  8
DD0
100
AcDbLine
 10
301.169251
 20
400.187806
 11
303.522151
 21
408.968949
  0
LINE
  5
75
100
AcDbEntity
  8
DD0
100
AcDbLine
 10
303.522151
 20
383.906598
 11
301.169251
 21
392.687741
  0
LINE
  5
76
100
AcDbEntity
  8
DD0
100
AcDbLine
 10
301.169251
 20
392.687741
 11
298.81635
 21
383.906598
  0
LINE
  5
77
100
AcDbEntity
  8
DD0
100
AcDbLine
 10
301.169251
 20
410.187805
 11
301.169251
 21
382.687742
  0
TEXT
  5
78
100
AcDbEntity
  8
DD0
100
AcDbText
 10
313.138961
 20
382.899881
 40
9.545454
  1
７．５
 50
90.000003
 41
0.833333
  7
STANDARD
100
AcDbText
  0
ENDBLK
  5
79
100
AcDbEntity
  8
DD0
100
AcDbBlockEnd
  0
BLOCK
  5
7C
100
AcDbEntity
  8
DD0
100
AcDbBlockBegin
  2
DIMS4
 70
     0
 10
0.0
 20
0.0
  0
LINE
  5
7D
100
AcDbEntity
  8
DD0
100
AcDbLine
 10
163.669418
 20
103.824103
 11
163.669418
 21
95.903445
  0
LINE
  5
7E
100
AcDbEntity
  8
DD0
100
AcDbLine
 10
243.669419
 20
103.824103
 11
243.669419
 21
95.903445
  0
LINE
  5
7F
100
AcDbEntity
  8
DD0
100
AcDbLine
 10
172.450561
 20
101.286654
 11
163.669418
 21
98.933754
  0
LINE
  5
80
100
AcDbEntity
  8
DD0
100
AcDbLine
 10
163.669418
 20
98.933754
 11
172.450561
 21
96.580853
  0
LINE
  5
81
100
AcDbEntity
  8
DD0
100
AcDbLine
 10
234.888276
 20
96.580853
 11
243.669419
 21
98.933754
  0
LINE
  5
82
100
AcDbEntity
  8
DD0
100
AcDbLine
 10
243.669419
 20
98.933754
 11
234.888276
 21
101.286654
  0
LINE
  5
83
100
AcDbEntity
  8
DD0
100
AcDbLine
 10
163.669418
 20
98.933754
 11
243.669419
 21
98.933754
  0
TEXT
  5
84
100
AcDbEntity
  8
DD0
100
AcDbText
 10
194.904255
 20
100.751931
 40
9.545454
  1
８０
 41
0.833333
  7
STANDARD
100
AcDbText
  0
ENDBLK
  5
85
100
AcDbEntity
  8
DD0
100
AcDbBlockEnd
  0
BLOCK
  5
88
100
AcDbEntity
  8
DD0
100
AcDbBlockBegin
  2
DIMS5
 70
     0
 10
0.0
 20
0.0
  0
TEXT
  5
89
100
AcDbEntity
  8
DD0
100
AcDbText
 10
91.881065
 20
423.977089
 40
9.545454
  1
３－Ｍ５ねじ穴
 41
0.833333
  7
STANDARD
100
AcDbText
  0
LINE
  5
8A
100
AcDbEntity
  8
DD0
100
AcDbLine
 10
193.253257
 20
397.573911
 11
201.711843
 21
394.242705
  0
LINE
  5
8B
100
AcDbEntity
  8
DD0
100
AcDbLine
 10
201.711843
 20
394.242705
 11
196.052095
 21
401.356907
  0
LINE
  5
8C
100
AcDbEntity
  8
DD0
100
AcDbLine
 10
201.711843
 20
394.242705
 11
163.979472
 21
422.158889
  0
LINE
  5
8D
100
AcDbEntity
  8
DD0
100
AcDbLine
 10
160.949169
 20
422.158889
 11
88.070461
 21
422.158889
  0
ENDBLK
  5
8E
100
AcDbEntity
  8
DD0
100
AcDbBlockEnd
  0
BLOCK
  5
91
100
AcDbEntity
  8
DD0
100
AcDbBlockBegin
  2
DIMS6
 70
     0
 10
0.0
 20
0.0
  0
LINE
  5
92
100
AcDbEntity
  8
DD0
100
AcDbLine
 10
249.699577
 20
457.609956
 11
304.445544
 21
457.609956
  0
LINE
  5
93
100
AcDbEntity
  8
DD0
100
AcDbLine
 10
249.699577
 20
722.609936
 11
304.445544
 21
722.609936
  0
LINE
  5
94
100
AcDbEntity
  8
DD0
100
AcDbLine
 10
299.06234
 20
466.3911
 11
301.415241
 21
457.609956
  0
LINE
  5
95
100
AcDbEntity
  8
DD0
100
AcDbLine
 10
301.415241
 20
457.609956
 11
303.768141
 21
466.3911
  0
LINE
  5
96
100
AcDbEntity
  8
DD0
100
AcDbLine
 10
303.768141
 20
713.828793
 11
301.415241
 21
722.609936
  0
LINE
  5
97
100
AcDbEntity
  8
DD0
100
AcDbLine
 10
301.415241
 20
722.609936
 11
299.06234
 21
713.828793
  0
LINE
  5
98
100
AcDbEntity
  8
DD0
100
AcDbLine
 10
301.415241
 20
457.609956
 11
301.415241
 21
722.609936
  0
TEXT
  5
99
100
AcDbEntity
  8
DD0
100
AcDbText
 10
299.597064
 20
576.572076
 40
9.545454
  1
２６５
 50
90.000003
 41
0.833333
  7
STANDARD
100
AcDbText
  0
ENDBLK
  5
9A
100
AcDbEntity
  8
DD0
100
AcDbBlockEnd
  0
BLOCK
  5
9D
100
AcDbEntity
  8
DD0
100
AcDbBlockBegin
  2
DIMS7
 70
     0
 10
0.0
 20
0.0
  0
LINE
  5
9E
100
AcDbEntity
  8
DD0
100
AcDbLine
 10
356.469944
 20
680.03972
 11
356.469944
 21
769.117336
  0
LINE
  5
9F
100
AcDbEntity
  8
DD0
100
AcDbLine
 10
516.069796
 20
725.640332
 11
516.069796
 21
769.117336
  0
LINE
  5
A0
100
AcDbEntity
  8
DD0
100
AcDbLine
 10
365.251087
 20
768.439934
 11
356.469944
 21
766.087033
  0
LINE
  5
A1
100
AcDbEntity
  8
DD0
100
AcDbLine
 10
356.469944
 20
766.087033
 11
365.251087
 21
763.734133
  0
LINE
  5
A2
100
AcDbEntity
  8
DD0
100
AcDbLine
 10
507.288653
 20
763.734133
 11
516.069796
 21
766.087033
  0
LINE
  5
A3
100
AcDbEntity
  8
DD0
100
AcDbLine
 10
516.069796
 20
766.087033
 11
507.288653
 21
768.439934
  0
LINE
  5
A4
100
AcDbEntity
  8
DD0
100
AcDbLine
 10
356.469944
 20
766.087033
 11
516.069796
 21
766.087033
  0
TEXT
  5
A5
100
AcDbEntity
  8
DD0
100
AcDbText
 10
422.731954
 20
767.905234
 40
9.545454
  1
１６０
 41
0.833333
  7
STANDARD
100
AcDbText
  0
ENDBLK
  5
A6
100
AcDbEntity
  8
DD0
100
AcDbBlockEnd
  0
BLOCK
  5
A9
100
AcDbEntity
  8
DD0
100
AcDbBlockBegin
  2
DIMS8
 70
     0
 10
0.0
 20
0.0
  0
LINE
  5
AA
100
AcDbEntity
  8
DD0
100
AcDbLine
 10
242.533056
 20
392.687741
 11
304.199553
 21
392.687741
  0
LINE
  5
AB
100
AcDbEntity
  8
DD0
100
AcDbLine
 10
266.618614
 20
142.687728
 11
304.199553
 21
142.687728
  0
LINE
  5
AC
100
AcDbEntity
  8
DD0
100
AcDbLine
 10
303.522151
 20
383.906598
 11
301.169251
 21
392.687741
  0
LINE
  5
AD
100
AcDbEntity
  8
DD0
100
AcDbLine
 10
301.169251
 20
392.687741
 11
298.81635
 21
383.906598
  0
LINE
  5
AE
100
AcDbEntity
  8
DD0
100
AcDbLine
 10
298.81635
 20
151.468872
 11
301.169251
 21
142.687728
  0
LINE
  5
AF
100
AcDbEntity
  8
DD0
100
AcDbLine
 10
301.169251
 20
142.687728
 11
303.522151
 21
151.468872
  0
LINE
  5
B0
100
AcDbEntity
  8
DD0
100
AcDbLine
 10
301.169251
 20
392.687741
 11
301.169251
 21
142.687728
  0
TEXT
  5
B1
100
AcDbEntity
  8
DD0
100
AcDbText
 10
299.351073
 20
254.149876
 40
9.545454
  1
２５０
 50
90.000003
 41
0.833333
  7
STANDARD
100
AcDbText
  0
ENDBLK
  5
B2
100
AcDbEntity
  8
DD0
100
AcDbBlockEnd
  0
ENDSEC
  0
SECTION
  2
ENTITIES
  0
INSERT
  5
56
100
AcDbEntity
  8
DD0
100
AcDbBlockReference
  2
DIMS0
 10
0.0
 20
0.0
  0
INSERT
  5
62
100
AcDbEntity
  8
DD0
100
AcDbBlockReference
  2
DIMS1
 10
0.0
 20
0.0
  0
INSERT
  5
6E
100
AcDbEntity
  8
DD0
100
AcDbBlockReference
  2
DIMS2
 10
0.0
 20
0.0
  0
INSERT
  5
7A
100
AcDbEntity
  8
DD0
100
AcDbBlockReference
  2
DIMS3
 10
0.0
 20
0.0
  0
INSERT
  5
86
100
AcDbEntity
  8
DD0
100
AcDbBlockReference
  2
DIMS4
 10
0.0
 20
0.0
  0
INSERT
  5
8F
100
AcDbEntity
  8
DD0
100
AcDbBlockReference
  2
DIMS5
 10
0.0
 20
0.0
  0
INSERT
  5
9B
100
AcDbEntity
  8
DD0
100
AcDbBlockReference
  2
DIMS6
 10
0.0
 20
0.0
  0
INSERT
  5
A7
100
AcDbEntity
  8
DD0
100
AcDbBlockReference
  2
DIMS7
 10
0.0
 20
0.0
  0
INSERT
  5
B3
100
AcDbEntity
  8
DD0
100
AcDbBlockReference
  2
DIMS8
 10
0.0
 20
0.0
  0
LINE
  5
B4
100
AcDbEntity
  8
M0
 62
     4
100
AcDbLine
 10
358.469938
 20
581.010163
 11
424.76959
 21
581.010163
  0
LINE
  5
B5
100
AcDbEntity
  8
M0
 62
     4
100
AcDbLine
 10
424.76959
 20
679.009675
 11
358.469938
 21
679.009431
  0
LINE
  5
B6
100
AcDbEntity
  8
M0
 62
     4
100
AcDbLine
 10
424.76959
 20
581.010163
 11
424.76959
 21
602.509919
  0
LINE
  5
B7
100
AcDbEntity
  8
M0
 62
     4
100
AcDbLine
 10
358.469938
 20
586.510163
 11
424.76959
 21
586.510163
  0
LINE
  5
B8
100
AcDbEntity
  8
M0
 62
     4
100
AcDbLine
 10
358.469938
 20
673.509431
 11
424.76959
 21
673.509431
  0
LINE
  5
B9
100
AcDbEntity
  8
M0
 62
     4
100
AcDbLine
 10
390.669889
 20
615.378571
 11
390.669889
 21
644.640778
  0
LINE
  5
BA
100
AcDbEntity
  8
M0
 62
     4
100
AcDbLine
 10
416.169736
 20
605.010163
 11
416.169736
 21
608.087556
  0
LINE
  5
BB
100
AcDbEntity
  8
M0
 62
     4
100
AcDbLine
 10
417.169736
 20
604.010163
 11
418.669736
 21
604.010163
  0
LINE
  5
BC
100
AcDbEntity
  8
M0
 62
     4
100
AcDbLine
 10
417.169736
 20
656.009919
 11
418.669736
 21
656.009919
  0
ARC
  5
BD
100
AcDbEntity
  8
M0
 62
     4
100
AcDbCircle
 10
417.169736
 20
655.009919
 40
1.0
100
AcDbArc
 50
90.0
 51
180.0
  0
ARC
  5
BE
100
AcDbEntity
  8
M0
 62
     4
100
AcDbCircle
 10
417.169736
 20
605.010163
 40
1.0
100
AcDbArc
 50
180.0
 51
269.986012
  0
LINE
  5
BF
100
AcDbEntity
  8
M0
 62
     4
100
AcDbLine
 10
416.169736
 20
651.931306
 11
416.169736
 21
655.009919
  0
LINE
  5
C0
100
AcDbEntity
  8
M0
 62
     4
100
AcDbLine
 10
416.169736
 20
586.510163
 11
416.169736
 21
581.010163
  0
LINE
  5
C1
100
AcDbEntity
  8
M0
 62
     4
100
AcDbLine
 10
416.169736
 20
679.009675
 11
416.169736
 21
673.509675
  0
LINE
  5
C2
100
AcDbEntity
  8
M0
 62
     4
100
AcDbLine
 10
424.76959
 20
657.509919
 11
424.76959
 21
679.509675
  0
ARC
  5
C3
100
AcDbEntity
  8
M0
 62
     4
100
AcDbCircle
 10
411.169736
 20
608.087556
 40
5.0
100
AcDbArc
 50
0.0
 51
89.101898
  0
ARC
  5
C4
100
AcDbEntity
  8
M0
 62
     4
100
AcDbCircle
 10
411.169736
 20
651.93155
 40
5.0
100
AcDbArc
 50
270.898058
 51
360.0
  0
LINE
  5
C5
100
AcDbEntity
  8
M0
  6
DASHDOT
 62
     4
100
AcDbLine
 10
350.19174
 20
630.009919
 11
439.669736
 21
630.009919
  0
LINE
  5
C6
100
AcDbEntity
  8
M0
 62
     4
100
AcDbLine
 10
356.469938
 20
677.009431
 11
356.469938
 21
583.010163
  0
ARC
  5
C7
100
AcDbEntity
  8
M0
 62
     4
100
AcDbCircle
 10
358.469938
 20
677.009431
 40
2.0
100
AcDbArc
 50
90.0
 51
180.0
  0
ARC
  5
C8
100
AcDbEntity
  8
M0
 62
     4
100
AcDbCircle
 10
358.469938
 20
583.010163
 40
2.0
100
AcDbArc
 50
180.0
 51
269.999563
  0
ARC
  5
C9
100
AcDbEntity
  8
M0
 62
     4
100
AcDbCircle
 10
358.469938
 20
588.510163
 40
2.0
100
AcDbArc
 50
180.0
 51
269.999563
  0
ARC
  5
CA
100
AcDbEntity
  8
M0
 62
     4
100
AcDbCircle
 10
358.469938
 20
671.509431
 40
2.0
100
AcDbArc
 50
90.0
 51
180.0
  0
LINE
  5
CB
100
AcDbEntity
  8
M0
100
AcDbLine
 10
454.169736
 20
639.028123
 11
456.669736
 21
643.528367
  0
LINE
  5
CC
100
AcDbEntity
  8
M0
100
AcDbLine
 10
420.669736
 20
580.028367
 11
456.669736
 21
580.028367
  0
LINE
  5
CD
100
AcDbEntity
  8
M0
100
AcDbLine
 10
456.669736
 20
580.028367
 11
456.669736
 21
611.028855
  0
LINE
  5
CE
100
AcDbEntity
  8
M0
100
AcDbLine
 10
456.669736
 20
679.028367
 11
420.669736
 21
679.028123
  0
LINE
  5
CF
100
AcDbEntity
  8
M0
100
AcDbLine
 10
390.669889
 20
645.028367
 11
390.669889
 21
614.028367
  0
LINE
  5
D0
100
AcDbEntity
  8
M0
100
AcDbLine
 10
418.669736
 20
655.028367
 11
418.669736
 21
651.028367
  0
LINE
  5
D1
100
AcDbEntity
  8
M0
100
AcDbLine
 10
392.669889
 20
612.028367
 11
410.669736
 21
612.028367
  0
LINE
  5
D2
100
AcDbEntity
  8
M0
100
AcDbLine
 10
392.669889
 20
647.028367
 11
410.669736
 21
647.028367
  0
LINE
  5
D3
100
AcDbEntity
  8
M0
100
AcDbLine
 10
418.669736
 20
608.028367
 11
418.669736
 21
604.028367
  0
ARC
  5
D4
100
AcDbEntity
  8
M0
100
AcDbCircle
 10
414.669736
 20
608.028367
 40
4.0
100
AcDbArc
 50
0.0
 51
90.0
  0
ARC
  5
D5
100
AcDbEntity
  8
M0
100
AcDbCircle
 10
414.669736
 20
651.028367
 40
4.0
100
AcDbArc
 50
269.996503
 51
360.0
  0
LINE
  5
D6
100
AcDbEntity
  8
M0
100
AcDbLine
 10
443.669492
 20
667.028367
 11
456.669736
 21
667.028367
  0
LINE
  5
D7
100
AcDbEntity
  8
M0
100
AcDbLine
 10
443.669248
 20
592.028367
 11
456.669736
 21
592.028367
  0
LINE
  5
D8
100
AcDbEntity
  8
M0
100
AcDbLine
 10
420.669736
 20
657.028367
 11
431.669736
 21
657.028367
  0
LINE
  5
D9
100
AcDbEntity
  8
M0
100
AcDbLine
 10
420.669736
 20
602.028367
 11
431.669492
 21
602.028367
  0
LINE
  5
DA
100
AcDbEntity
  8
M0
100
AcDbLine
 10
440.669736
 20
664.528367
 11
440.669736
 21
656.028367
  0
LINE
  5
DB
100
AcDbEntity
  8
M0
100
AcDbLine
 10
432.669736
 20
656.028367
 11
440.669736
 21
656.028367
  0
LINE
  5
DC
100
AcDbEntity
  8
M0
100
AcDbLine
 10
432.669492
 20
603.028367
 11
440.669492
 21
603.028367
  0
LINE
  5
DD
100
AcDbEntity
  8
M0
100
AcDbLine
 10
440.669736
 20
664.528367
 11
443.669736
 21
667.028367
  0
ARC
  5
DE
100
AcDbEntity
  8
M0
100
AcDbCircle
 10
420.669736
 20
655.028367
 40
2.0
100
AcDbArc
 50
90.0
 51
180.0
  0
LINE
  5
DF
100
AcDbEntity
  8
M0
100
AcDbLine
 10
440.669492
 20
594.528367
 11
443.669492
 21
592.028367
  0
LINE
  5
E0
100
AcDbEntity
  8
M0
100
AcDbLine
 10
440.669492
 20
594.528367
 11
440.669492
 21
603.028367
  0
ARC
  5
E1
100
AcDbEntity
  8
M0
100
AcDbCircle
 10
420.669736
 20
604.028367
 40
2.0
100
AcDbArc
 50
180.0
 51
269.993006
  0
ARC
  5
E2
100
AcDbEntity
  8
M0
100
AcDbCircle
 10
392.669889
 20
645.028367
 40
2.0
100
AcDbArc
 50
90.0
 51
180.0
  0
ARC
  5
E3
100
AcDbEntity
  8
M0
100
AcDbCircle
 10
392.669889
 20
614.028367
 40
2.0
100
AcDbArc
 50
180.0
 51
269.999563
  0
ARC
  5
E4
100
AcDbEntity
  8
M0
100
AcDbCircle
 10
420.669736
 20
677.028123
 40
2.0
100
AcDbArc
 50
90.0
 51
131.416878
  0
ARC
  5
E5
100
AcDbEntity
  8
M0
100
AcDbCircle
 10
420.669736
 20
582.028367
 40
2.0
100
AcDbArc
 50
228.582504
 51
269.993006
  0
LINE
  5
E6
100
AcDbEntity
  8
M0
100
AcDbLine
 10
397.169492
 20
633.278367
 11
397.169492
 21
625.778367
  0
LINE
  5
E7
100
AcDbEntity
  8
M0
100
AcDbLine
 10
390.669889
 20
633.278367
 11
397.169492
 21
633.278367
  0
LINE
  5
E8
100
AcDbEntity
  8
M0
100
AcDbLine
 10
390.669889
 20
625.778367
 11
397.169492
 21
625.778367
  0
LINE
  5
E9
100
AcDbEntity
  8
M0
100
AcDbLine
 10
414.669736
 20
647.028367
 11
414.669736
 21
644.528367
  0
LINE
  5
EA
100
AcDbEntity
  8
M0
100
AcDbLine
 10
410.669736
 20
647.028367
 11
410.669736
 21
644.528367
  0
LINE
  5
EB
100
AcDbEntity
  8
M0
100
AcDbLine
 10
410.669736
 20
644.528367
 11
414.669736
 21
644.528367
  0
LINE
  5
EC
100
AcDbEntity
  8
M0
100
AcDbLine
 10
410.669736
 20
614.528367
 11
414.669736
 21
614.528367
  0
LINE
  5
ED
100
AcDbEntity
  8
M0
100
AcDbLine
 10
410.669736
 20
614.528367
 11
410.669736
 21
612.028367
  0
LINE
  5
EE
100
AcDbEntity
  8
M0
100
AcDbLine
 10
414.669736
 20
614.528367
 11
414.669736
 21
612.028367
  0
LINE
  5
EF
100
AcDbEntity
  8
M0
100
AcDbLine
 10
395.669645
 20
633.278367
 11
395.669645
 21
632.278367
  0
LINE
  5
F0
100
AcDbEntity
  8
M0
100
AcDbLine
 10
395.669645
 20
632.278367
 11
397.169492
 21
632.278367
  0
LINE
  5
F1
100
AcDbEntity
  8
M0
100
AcDbLine
 10
395.669645
 20
626.778367
 11
397.169492
 21
626.778367
  0
LINE
  5
F2
100
AcDbEntity
  8
M0
100
AcDbLine
 10
395.669645
 20
626.778367
 11
395.669645
 21
625.778367
  0
LINE
  5
F3
100
AcDbEntity
  8
M0
100
AcDbLine
 10
410.669736
 20
646.0103
 11
414.669736
 21
646.0103
  0
LINE
  5
F4
100
AcDbEntity
  8
M0
100
AcDbLine
 10
410.669492
 20
613.046433
 11
414.669492
 21
613.046433
  0
LINE
  5
F5
100
AcDbEntity
  8
M0
  6
DASHDOT
100
AcDbLine
 10
448.958311
 20
649.778367
 11
458.366514
 21
649.778367
  0
LINE
  5
F6
100
AcDbEntity
  8
M0
  6
DASHDOT
100
AcDbLine
 10
450.589658
 20
609.278367
 11
458.402647
 21
609.278367
  0
LINE
  5
F7
100
AcDbEntity
  8
M0
100
AcDbLine
 10
454.169736
 20
652.278367
 11
456.669736
 21
652.278367
  0
LINE
  5
F8
100
AcDbEntity
  8
M0
100
AcDbLine
 10
454.169736
 20
647.278367
 11
456.669736
 21
647.278367
  0
LINE
  5
F9
100
AcDbEntity
  8
M0
100
AcDbLine
 10
454.169736
 20
611.778367
 11
456.669736
 21
611.778367
  0
LINE
  5
FA
100
AcDbEntity
  8
M0
100
AcDbLine
 10
454.169736
 20
606.778367
 11
456.669736
 21
606.778367
  0
ARC
  5
FB
100
AcDbEntity
  8
M0
100
AcDbCircle
 10
454.169736
 20
649.778367
 40
2.5
100
AcDbArc
 50
90.0
 51
269.994405
  0
ARC
  5
FC
100
AcDbEntity
  8
M0
100
AcDbCircle
 10
454.169736
 20
609.278367
 40
2.5
100
AcDbArc
 50
90.0
 51
269.994405
  0
LINE
  5
FD
100
AcDbEntity
  8
M0
100
AcDbLine
 10
441.169736
 20
625.528367
 11
441.169736
 21
627.528367
  0
LINE
  5
FE
100
AcDbEntity
  8
M0
100
AcDbLine
 10
443.169736
 20
623.528367
 11
456.669736
 21
623.528367
  0
LINE
  5
FF
100
AcDbEntity
  8
M0
100
AcDbLine
 10
443.169736
 20
635.528367
 11
454.169736
 21
635.528367
  0
LINE
  5
100
100
AcDbEntity
  8
M0
100
AcDbLine
 10
441.437559
 20
624.528367
 11
453.669736
 21
624.528367
  0
LINE
  5
101
100
AcDbEntity
  8
M0
100
AcDbLine
 10
441.437559
 20
634.528367
 11
451.191709
 21
634.528367
  0
LINE
  5
102
100
AcDbEntity
  8
M0
100
AcDbLine
 10
454.169736
 20
639.028123
 11
454.169736
 21
635.528123
  0
ARC
  5
103
100
AcDbEntity
  8
M0
100
AcDbCircle
 10
453.669736
 20
623.528367
 40
1.0
100
AcDbArc
 50
0.0
 51
90.0
  0
ARC
  5
104
100
AcDbEntity
  8
M0
100
AcDbCircle
 10
451.169736
 20
635.528123
 40
1.0
100
AcDbArc
 50
269.986012
 51
360.0
  0
LINE
  5
105
100
AcDbEntity
  8
M0
100
AcDbLine
 10
442.169736
 20
630.528367
 11
442.169736
 21
628.528367
  0
LINE
  5
106
100
AcDbEntity
  8
M0
100
AcDbLine
 10
441.169736
 20
631.528367
 11
442.169736
 21
630.528367
  0
LINE
  5
107
100
AcDbEntity
  8
M0
100
AcDbLine
 10
441.169736
 20
627.528367
 11
442.169736
 21
628.528367
  0
LINE
  5
108
100
AcDbEntity
  8
M0
100
AcDbLine
 10
441.169736
 20
631.528367
 11
441.169736
 21
633.528367
  0
LINE
  5
109
100
AcDbEntity
  8
M0
100
AcDbLine
 10
456.669736
 20
643.528367
 11
456.669736
 21
647.278367
  0
LINE
  5
10A
100
AcDbEntity
  8
M0
100
AcDbLine
 10
427.669736
 20
679.028123
 11
427.669736
 21
670.528367
  0
LINE
  5
10B
100
AcDbEntity
  8
M0
100
AcDbLine
 10
424.76959
 20
670.528367
 11
427.669736
 21
670.528367
  0
LINE
  5
10C
100
AcDbEntity
  8
M0
100
AcDbLine
 10
427.169492
 20
580.028611
 11
427.169492
 21
588.528367
  0
LINE
  5
10D
100
AcDbEntity
  8
M0
100
AcDbLine
 10
424.76959
 20
588.528367
 11
427.169492
 21
588.528367
  0
ARC
  5
10E
100
AcDbEntity
  8
M0
100
AcDbCircle
 10
432.669736
 20
657.028367
 40
1.0
100
AcDbArc
 50
180.0
 51
269.986012
  0
ARC
  5
10F
100
AcDbEntity
  8
M0
100
AcDbCircle
 10
432.669492
 20
602.028367
 40
1.0
100
AcDbArc
 50
90.0
 51
180.0
  0
ARC
  5
110
100
AcDbEntity
  8
M0
100
AcDbCircle
 10
443.169736
 20
625.528367
 40
2.0
100
AcDbArc
 50
180.0
 51
269.993006
  0
ARC
  5
111
100
AcDbEntity
  8
M0
100
AcDbCircle
 10
443.169736
 20
633.528367
 40
2.0
100
AcDbArc
 50
90.0
 51
180.0
  0
LINE
  5
112
100
AcDbEntity
  8
M0
100
AcDbLine
 10
456.669736
 20
596.529832
 11
457.369688
 21
596.529832
  0
LINE
  5
113
100
AcDbEntity
  8
M0
100
AcDbLine
 10
456.669736
 20
602.529832
 11
457.369688
 21
602.529832
  0
LINE
  5
114
100
AcDbEntity
  8
M0
100
AcDbLine
 10
457.369688
 20
602.529832
 11
457.369688
 21
596.529832
  0
LINE
  5
115
100
AcDbEntity
  8
M0
100
AcDbLine
 10
457.369688
 20
656.526902
 11
457.369688
 21
662.526902
  0
LINE
  5
116
100
AcDbEntity
  8
M0
100
AcDbLine
 10
456.669736
 20
662.526902
 11
457.369688
 21
662.526902
  0
LINE
  5
117
100
AcDbEntity
  8
M0
100
AcDbLine
 10
456.669736
 20
656.526902
 11
457.369688
 21
656.526902
  0
LINE
  5
118
100
AcDbEntity
  8
M0
100
AcDbLine
 10
456.669736
 20
611.778367
 11
456.669736
 21
623.528367
  0
LINE
  5
119
100
AcDbEntity
  8
M0
100
AcDbLine
 10
456.669736
 20
648.730271
 11
456.669736
 21
679.028367
  0
LINE
  5
11A
100
AcDbEntity
  8
M0
100
AcDbLine
 10
451.899961
 20
648.730271
 11
456.669736
 21
648.730271
  0
LINE
  5
11B
100
AcDbEntity
  8
M0
100
AcDbLine
 10
452.384824
 20
611.028855
 11
456.669736
 21
611.028855
  0
LINE
  5
11C
100
AcDbEntity
  8
M0
100
AcDbLine
 10
509.469785
 20
692.009919
 11
493.469785
 21
692.009919
  0
LINE
  5
11D
100
AcDbEntity
  8
M0
  6
DASHDOT
100
AcDbLine
 10
446.569791
 20
630.009919
 11
519.469633
 21
630.009919
  0
LINE
  5
11E
100
AcDbEntity
  8
M0
100
AcDbLine
 10
509.969785
 20
691.009919
 11
509.969785
 21
679.009919
  0
LINE
  5
11F
100
AcDbEntity
  8
M0
100
AcDbLine
 10
492.469785
 20
690.968171
 11
492.469785
 21
679.009919
  0
LINE
  5
120
100
AcDbEntity
  8
M0
100
AcDbLine
 10
493.469785
 20
692.009919
 11
493.469785
 21
680.009919
  0
ARC
  5
121
100
AcDbEntity
  8
M0
100
AcDbCircle
 10
469.169782
 20
635.009919
 40
2.0
100
AcDbArc
 50
0.0
 51
90.0
  0
LINE
  5
122
100
AcDbEntity
  8
M0
100
AcDbLine
 10
491.469785
 20
678.009919
 11
456.669782
 21
678.009919
  0
LINE
  5
123
100
AcDbEntity
  8
M0
100
AcDbLine
 10
481.469785
 20
679.509919
 11
456.669782
 21
679.509919
  0
LINE
  5
124
100
AcDbEntity
  8
M0
100
AcDbLine
 10
481.469785
 20
679.509919
 11
493.469785
 21
692.009919
  0
ARC
  5
125
100
AcDbEntity
  8
M0
100
AcDbCircle
 10
491.469785
 20
679.009919
 40
1.0
100
AcDbArc
 50
269.999126
 51
360.0
  0
ARC
  5
126
100
AcDbEntity
  8
M0
100
AcDbCircle
 10
491.469785
 20
680.009919
 40
2.0
100
AcDbArc
 50
269.999563
 51
360.0
  0
LINE
  5
127
100
AcDbEntity
  8
M0
  6
DASHDOT
100
AcDbLine
 10
514.971937
 20
668.009919
 11
505.579603
 21
668.009919
  0
LINE
  5
128
100
AcDbEntity
  8
M0
100
AcDbLine
 10
509.469785
 20
663.009919
 11
509.969785
 21
663.009919
  0
LINE
  5
129
100
AcDbEntity
  8
M0
100
AcDbLine
 10
509.469785
 20
673.009919
 11
509.969785
 21
673.009919
  0
LINE
  5
12A
100
AcDbEntity
  8
M0
  6
DASHDOT
100
AcDbLine
 10
514.971937
 20
685.009919
 11
505.579603
 21
685.009919
  0
LINE
  5
12B
100
AcDbEntity
  8
M0
100
AcDbLine
 10
509.469785
 20
679.009919
 11
509.969785
 21
679.009919
  0
LINE
  5
12C
100
AcDbEntity
  8
M0
100
AcDbLine
 10
509.469785
 20
691.009919
 11
509.969785
 21
691.009919
  0
LINE
  5
12D
100
AcDbEntity
  8
M0
100
AcDbLine
 10
509.969785
 20
673.009919
 11
509.969785
 21
663.009919
  0
LINE
  5
12E
100
AcDbEntity
  8
M0
100
AcDbLine
 10
509.469785
 20
630.009919
 11
509.469785
 21
692.009919
  0
LINE
  5
12F
100
AcDbEntity
  8
M0
100
AcDbLine
 10
471.169782
 20
630.009919
 11
471.169782
 21
635.009919
  0
LINE
  5
130
100
AcDbEntity
  8
M0
100
AcDbLine
 10
454.669782
 20
637.009919
 11
469.169782
 21
637.009919
  0
LINE
  5
131
100
AcDbEntity
  8
M0
100
AcDbLine
 10
454.669782
 20
639.009919
 11
456.669782
 21
643.509919
  0
LINE
  5
132
100
AcDbEntity
  8
M0
100
AcDbLine
 10
456.669782
 20
679.509919
 11
456.669782
 21
643.509919
  0
LINE
  5
133
100
AcDbEntity
  8
M0
100
AcDbLine
 10
454.669782
 20
637.009919
 11
454.669782
 21
639.009919
  0
LINE
  5
134
100
AcDbEntity
  8
M0
100
AcDbLine
 10
509.469785
 20
568.009919
 11
493.469785
 21
568.009919
  0
LINE
  5
135
100
AcDbEntity
  8
M0
  6
DASHDOT
100
AcDbLine
 10
446.569791
 20
630.009919
 11
519.469633
 21
630.009919
  0
LINE
  5
136
100
AcDbEntity
  8
M0
100
AcDbLine
 10
509.969785
 20
569.009919
 11
509.969785
 21
581.009919
  0
LINE
  5
137
100
AcDbEntity
  8
M0
100
AcDbLine
 10
492.469785
 20
569.051423
 11
492.469785
 21
581.009919
  0
LINE
  5
138
100
AcDbEntity
  8
M0
100
AcDbLine
 10
493.469785
 20
568.009919
 11
493.469785
 21
580.009919
  0
ARC
  5
139
100
AcDbEntity
  8
M0
100
AcDbCircle
 10
469.169782
 20
625.009919
 40
2.0
100
AcDbArc
 50
-90.000437
 51
0.0
  0
LINE
  5
13A
100
AcDbEntity
  8
M0
100
AcDbLine
 10
491.469785
 20
582.009919
 11
456.669782
 21
582.009919
  0
LINE
  5
13B
100
AcDbEntity
  8
M0
100
AcDbLine
 10
481.469785
 20
580.509919
 11
456.669782
 21
580.509919
  0
LINE
  5
13C
100
AcDbEntity
  8
M0
100
AcDbLine
 10
481.469785
 20
580.509919
 11
493.469785
 21
568.009919
  0
ARC
  5
13D
100
AcDbEntity
  8
M0
100
AcDbCircle
 10
491.469785
 20
581.009919
 40
1.0
100
AcDbArc
 50
0.0
 51
90.0
  0
ARC
  5
13E
100
AcDbEntity
  8
M0
100
AcDbCircle
 10
491.469785
 20
580.009919
 40
2.0
100
AcDbArc
 50
0.0
 51
90.0
  0
LINE
  5
13F
100
AcDbEntity
  8
M0
  6
DASHDOT
100
AcDbLine
 10
514.971937
 20
592.009919
 11
505.579603
 21
592.009919
  0
LINE
  5
140
100
AcDbEntity
  8
M0
100
AcDbLine
 10
509.469785
 20
597.009919
 11
509.969785
 21
597.009919
  0
LINE
  5
141
100
AcDbEntity
  8
M0
100
AcDbLine
 10
509.469785
 20
587.009919
 11
509.969785
 21
587.009919
  0
LINE
  5
142
100
AcDbEntity
  8
M0
  6
DASHDOT
100
AcDbLine
 10
514.971937
 20
575.009919
 11
505.579603
 21
575.009919
  0
LINE
  5
143
100
AcDbEntity
  8
M0
100
AcDbLine
 10
509.469785
 20
581.009919
 11
509.969785
 21
581.009919
  0
LINE
  5
144
100
AcDbEntity
  8
M0
100
AcDbLine
 10
509.469785
 20
569.009919
 11
509.969785
 21
569.009919
  0
LINE
  5
145
100
AcDbEntity
  8
M0
100
AcDbLine
 10
509.969785
 20
587.009919
 11
509.969785
 21
597.009919
  0
LINE
  5
146
100
AcDbEntity
  8
M0
100
AcDbLine
 10
509.469785
 20
630.009919
 11
509.469785
 21
568.009919
  0
LINE
  5
147
100
AcDbEntity
  8
M0
100
AcDbLine
 10
471.169782
 20
630.009919
 11
471.169782
 21
625.009919
  0
LINE
  5
148
100
AcDbEntity
  8
M0
100
AcDbLine
 10
456.669782
 20
623.009919
 11
469.169782
 21
623.009919
  0
LINE
  5
149
100
AcDbEntity
  8
M0
100
AcDbLine
 10
456.669782
 20
580.509919
 11
456.669782
 21
623.009919
  0
LINE
  5
14A
100
AcDbEntity
  8
M0
100
AcDbLine
 10
424.469831
 20
698.010056
 11
427.669782
 21
698.010056
  0
LINE
  5
14B
100
AcDbEntity
  8
M0
100
AcDbLine
 10
424.469831
 20
698.010056
 11
424.469831
 21
679.028123
  0
LINE
  5
14C
100
AcDbEntity
  8
M0
100
AcDbLine
 10
427.669782
 20
698.010056
 11
427.669782
 21
679.028123
  0
LINE
  5
14D
100
AcDbEntity
  8
M0
100
AcDbLine
 10
427.169782
 20
561.046677
 11
427.169782
 21
580.028611
  0
LINE
  5
14E
100
AcDbEntity
  8
M0
100
AcDbLine
 10
423.969831
 20
561.046677
 11
427.169782
 21
561.046677
  0
LINE
  5
14F
100
AcDbEntity
  8
M0
100
AcDbLine
 10
423.969831
 20
561.046677
 11
423.969831
 21
580.028611
  0
LINE
  5
150
100
AcDbEntity
  8
M0
100
AcDbLine
 10
509.969862
 20
691.009675
 11
509.969862
 21
554.489579
  0
ARC
  5
151
100
AcDbEntity
  8
M0
100
AcDbCircle
 10
431.569868
 20
570.009919
 40
14.0
100
AcDbArc
 50
182.455684
 51
196.072605
  0
ARC
  5
152
100
AcDbEntity
  8
M0
100
AcDbCircle
 10
431.569868
 20
570.009919
 40
14.0
100
AcDbArc
 50
163.926409
 51
177.543315
  0
LINE
  5
153
100
AcDbEntity
  8
M0
100
AcDbLine
 10
419.682737
 20
569.410065
 11
417.582731
 21
569.410065
  0
LINE
  5
154
100
AcDbEntity
  8
M0
100
AcDbLine
 10
419.682737
 20
570.610016
 11
419.682737
 21
569.410065
  0
LINE
  5
155
100
AcDbEntity
  8
M0
100
AcDbLine
 10
417.582731
 20
570.610016
 11
419.682737
 21
570.610016
  0
ARC
  5
156
100
AcDbEntity
  8
M0
100
AcDbCircle
 10
419.942854
 20
566.660065
 40
1.9
100
AcDbArc
 50
196.075598
 51
269.99954
  0
LINE
  5
157
100
AcDbEntity
  8
M0
100
AcDbLine
 10
419.942854
 20
564.759919
 11
421.469877
 21
564.759919
  0
ARC
  5
158
100
AcDbEntity
  8
M0
100
AcDbCircle
 10
419.942854
 20
573.360016
 40
1.9
100
AcDbArc
 50
90.0
 51
163.924845
  0
LINE
  5
159
100
AcDbEntity
  8
M0
100
AcDbLine
 10
421.469877
 20
575.259919
 11
419.942854
 21
575.259919
  0
LINE
  5
15A
100
AcDbEntity
  8
M0
100
AcDbLine
 10
421.469877
 20
564.759919
 11
421.469877
 21
575.259919
  0
LINE
  5
15B
100
AcDbEntity
  8
M0
  6
DASHDOT
100
AcDbLine
 10
415.214826
 20
570.009919
 11
437.132749
 21
570.009919
  0
LINE
  5
15C
100
AcDbEntity
  8
M0
100
AcDbLine
 10
435.469877
 20
567.009919
 11
435.469877
 21
573.009919
  0
LINE
  5
15D
100
AcDbEntity
  8
M0
100
AcDbLine
 10
435.469877
 20
573.009919
 11
429.469755
 21
573.009919
  0
LINE
  5
15E
100
AcDbEntity
  8
M0
100
AcDbLine
 10
429.469755
 20
572.509919
 11
435.469877
 21
572.509919
  0
LINE
  5
15F
100
AcDbEntity
  8
M0
100
AcDbLine
 10
429.469755
 20
567.509919
 11
435.469877
 21
567.509919
  0
LINE
  5
160
100
AcDbEntity
  8
M0
100
AcDbLine
 10
429.469755
 20
567.009919
 11
435.469877
 21
567.009919
  0
LINE
  5
161
100
AcDbEntity
  8
M0
100
AcDbLine
 10
422.969877
 20
563.509919
 11
423.969877
 21
563.509919
  0
LINE
  5
162
100
AcDbEntity
  8
M0
100
AcDbLine
 10
423.969877
 20
563.509919
 11
423.969877
 21
576.509919
  0
LINE
  5
163
100
AcDbEntity
  8
M0
100
AcDbLine
 10
423.969877
 20
576.509919
 11
422.969877
 21
576.509919
  0
LINE
  5
164
100
AcDbEntity
  8
M0
100
AcDbLine
 10
422.969877
 20
576.509919
 11
422.969877
 21
563.509919
  0
LINE
  5
165
100
AcDbEntity
  8
M0
  6
DASHDOT
100
AcDbLine
 10
419.969862
 20
570.009904
 11
426.969877
 21
570.009919
  0
LINE
  5
166
100
AcDbEntity
  8
M0
100
AcDbLine
 10
421.469877
 20
563.909913
 11
422.969877
 21
563.909913
  0
LINE
  5
167
100
AcDbEntity
  8
M0
100
AcDbLine
 10
422.969877
 20
563.909913
 11
422.969877
 21
576.10991
  0
LINE
  5
168
100
AcDbEntity
  8
M0
100
AcDbLine
 10
422.969877
 20
576.10991
 11
421.469877
 21
576.10991
  0
LINE
  5
169
100
AcDbEntity
  8
M0
100
AcDbLine
 10
421.469877
 20
576.10991
 11
421.469877
 21
563.909913
  0
LINE
  5
16A
100
AcDbEntity
  8
M0
  6
DASHDOT
100
AcDbLine
 10
416.469877
 20
570.009919
 11
427.969877
 21
570.009919
  0
LINE
  5
16B
100
AcDbEntity
  8
M0
100
AcDbLine
 10
421.469877
 20
570.009888
 11
422.969877
 21
569.143876
  0
LINE
  5
16C
100
AcDbEntity
  8
M0
100
AcDbLine
 10
421.469877
 20
570.875916
 11
422.969877
 21
570.009904
  0
ARC
  5
16D
100
AcDbEntity
  8
M0
100
AcDbCircle
 10
432.069717
 20
689.046666
 40
14.0
100
AcDbArc
 50
163.927431
 51
177.544352
  0
ARC
  5
16E
100
AcDbEntity
  8
M0
100
AcDbCircle
 10
432.069717
 20
689.046666
 40
14.0
100
AcDbArc
 50
182.456721
 51
196.073687
  0
LINE
  5
16F
100
AcDbEntity
  8
M0
100
AcDbLine
 10
420.182586
 20
689.646512
 11
418.08258
 21
689.646511
  0
LINE
  5
170
100
AcDbEntity
  8
M0
100
AcDbLine
 10
420.182587
 20
688.446561
 11
420.182586
 21
689.646512
  0
LINE
  5
171
100
AcDbEntity
  8
M0
100
AcDbLine
 10
418.082581
 20
688.44656
 11
420.182587
 21
688.446561
  0
ARC
  5
172
100
AcDbEntity
  8
M0
100
AcDbCircle
 10
420.442701
 20
692.396512
 40
1.9
100
AcDbArc
 50
90.0
 51
163.924881
  0
LINE
  5
173
100
AcDbEntity
  8
M0
100
AcDbLine
 10
420.4427
 20
694.296659
 11
421.969723
 21
694.29666
  0
ARC
  5
174
100
AcDbEntity
  8
M0
100
AcDbCircle
 10
420.442705
 20
685.696561
 40
1.9
100
AcDbArc
 50
196.075634
 51
269.999576
  0
LINE
  5
175
100
AcDbEntity
  8
M0
100
AcDbLine
 10
421.969729
 20
683.79666
 11
420.442706
 21
683.796659
  0
LINE
  5
176
100
AcDbEntity
  8
M0
100
AcDbLine
 10
421.969723
 20
694.29666
 11
421.969729
 21
683.79666
  0
LINE
  5
177
100
AcDbEntity
  8
M0
  6
DASHDOT
100
AcDbLine
 10
415.714675
 20
689.046656
 11
437.632598
 21
689.046669
  0
LINE
  5
178
100
AcDbEntity
  8
M0
100
AcDbLine
 10
435.969724
 20
692.046668
 11
435.969728
 21
686.046668
  0
LINE
  5
179
100
AcDbEntity
  8
M0
100
AcDbLine
 10
435.969728
 20
686.046668
 11
427.669725
 21
686.046663
  0
LINE
  5
17A
100
AcDbEntity
  8
M0
100
AcDbLine
 10
427.669725
 20
686.546663
 11
435.969728
 21
686.546668
  0
LINE
  5
17B
100
AcDbEntity
  8
M0
100
AcDbLine
 10
427.669722
 20
691.546663
 11
435.969725
 21
691.546668
  0
LINE
  5
17C
100
AcDbEntity
  8
M0
100
AcDbLine
 10
427.669721
 20
692.046663
 11
435.969724
 21
692.046668
  0
LINE
  5
17D
100
AcDbEntity
  8
M0
100
AcDbLine
 10
423.469722
 20
695.546661
 11
424.469722
 21
695.546661
  0
LINE
  5
17E
100
AcDbEntity
  8
M0
100
AcDbLine
 10
424.469722
 20
695.546661
 11
424.46973
 21
682.546661
  0
LINE
  5
17F
100
AcDbEntity
  8
M0
100
AcDbLine
 10
424.46973
 20
682.546661
 11
423.46973
 21
682.546661
  0
LINE
  5
180
100
AcDbEntity
  8
M0
100
AcDbLine
 10
423.46973
 20
682.546661
 11
423.469722
 21
695.546661
  0
LINE
  5
181
100
AcDbEntity
  8
M0
  6
DASHDOT
100
AcDbLine
 10
420.469711
 20
689.046674
 11
427.469726
 21
689.046663
  0
LINE
  5
182
100
AcDbEntity
  8
M0
100
AcDbLine
 10
421.969722
 20
695.146666
 11
423.469722
 21
695.146667
  0
LINE
  5
183
100
AcDbEntity
  8
M0
100
AcDbLine
 10
423.469722
 20
695.146667
 11
423.46973
 21
682.94667
  0
LINE
  5
184
100
AcDbEntity
  8
M0
100
AcDbLine
 10
423.46973
 20
682.94667
 11
421.96973
 21
682.946669
  0
LINE
  5
185
100
AcDbEntity
  8
M0
100
AcDbLine
 10
421.96973
 20
682.946669
 11
421.969722
 21
695.146666
  0
LINE
  5
186
100
AcDbEntity
  8
M0
  6
DASHDOT
100
AcDbLine
 10
416.969726
 20
689.046657
 11
428.469726
 21
689.046664
  0
LINE
  5
187
100
AcDbEntity
  8
M0
100
AcDbLine
 10
421.969726
 20
689.04669
 11
423.469726
 21
689.912704
  0
LINE
  5
188
100
AcDbEntity
  8
M0
100
AcDbLine
 10
421.969727
 20
688.180662
 11
423.469726
 21
689.046676
  0
LINE
  5
189
100
AcDbEntity
  8
M0
100
AcDbLine
 10
425.851469
 20
580.010056
 11
431.941221
 21
580.010056
  0
LINE
  5
18A
100
AcDbEntity
  8
M0
100
AcDbLine
 10
425.851469
 20
580.010056
 11
431.941221
 21
580.010056
  0
LINE
  5
18B
100
AcDbEntity
  8
M0
 62
     2
100
AcDbLine
 10
513.769788
 20
722.610016
 11
516.069791
 21
722.610016
  0
LINE
  5
18C
100
AcDbEntity
  8
M0
 62
     2
100
AcDbLine
 10
513.769788
 20
457.610016
 11
516.069791
 21
457.610016
  0
LINE
  5
18D
100
AcDbEntity
  8
M0
 62
     2
100
AcDbLine
 10
513.769788
 20
500.110016
 11
513.769788
 21
457.610016
  0
ARC
  5
18E
100
AcDbEntity
  8
M0
 62
     2
100
AcDbCircle
 10
512.769788
 20
500.110016
 40
1.0
100
AcDbArc
 50
0.0
 51
90.0
  0
ARC
  5
18F
100
AcDbEntity
  8
M0
 62
     2
100
AcDbCircle
 10
513.269788
 20
504.41002
 40
1.0
100
AcDbArc
 50
179.999126
 51
269.999126
  0
LINE
  5
190
100
AcDbEntity
  8
M0
 62
     2
100
AcDbLine
 10
513.769788
 20
722.610016
 11
513.769788
 21
695.110016
  0
ARC
  5
191
100
AcDbEntity
  8
M0
 62
     2
100
AcDbCircle
 10
512.769788
 20
695.110016
 40
1.0
100
AcDbArc
 50
269.999126
 51
360.0
  0
LINE
  5
192
100
AcDbEntity
  8
M0
 62
     2
100
AcDbLine
 10
512.269788
 20
690.810013
 11
512.269788
 21
504.41002
  0
ARC
  5
193
100
AcDbEntity
  8
M0
 62
     2
100
AcDbCircle
 10
513.269788
 20
690.810013
 40
1.0
100
AcDbArc
 50
90.0
 51
180.0
  0
LINE
  5
194
100
AcDbEntity
  8
M0
 62
     2
100
AcDbLine
 10
513.269788
 20
694.110016
 11
512.769788
 21
694.110016
  0
ARC
  5
195
100
AcDbEntity
  8
M0
 62
     2
100
AcDbCircle
 10
513.269788
 20
690.810013
 40
3.299999
100
AcDbArc
 50
90.0
 51
180.0
  0
LINE
  5
196
100
AcDbEntity
  8
M0
 62
     2
100
AcDbLine
 10
512.769788
 20
691.810013
 11
513.269788
 21
691.810013
  0
LINE
  5
197
100
AcDbEntity
  8
M0
 62
     2
100
AcDbLine
 10
516.069791
 20
722.610016
 11
516.069791
 21
695.110016
  0
ARC
  5
198
100
AcDbEntity
  8
M0
 62
     2
100
AcDbCircle
 10
512.769788
 20
695.110016
 40
3.299999
100
AcDbArc
 50
269.999735
 51
360.0
  0
LINE
  5
199
100
AcDbEntity
  8
M0
 62
     2
100
AcDbLine
 10
509.969801
 20
690.810013
 11
509.969801
 21
504.41002
  0
LINE
  5
19A
100
AcDbEntity
  8
M0
 62
     2
100
AcDbLine
 10
513.269788
 20
501.110016
 11
512.769788
 21
501.110016
  0
ARC
  5
19B
100
AcDbEntity
  8
M0
 62
     2
100
AcDbCircle
 10
513.269788
 20
504.41002
 40
3.299999
100
AcDbArc
 50
179.999735
 51
269.999735
  0
LINE
  5
19C
100
AcDbEntity
  8
M0
 62
     2
100
AcDbLine
 10
516.069791
 20
500.110016
 11
516.069791
 21
457.610016
  0
LINE
  5
19D
100
AcDbEntity
  8
M0
 62
     2
100
AcDbLine
 10
513.269788
 20
503.41002
 11
512.769788
 21
503.41002
  0
ARC
  5
19E
100
AcDbEntity
  8
M0
 62
     2
100
AcDbCircle
 10
512.769788
 20
500.110016
 40
3.299999
100
AcDbArc
 50
0.0
 51
90.0
  0
LINE
  5
19F
100
AcDbEntity
  8
M0
 62
     1
100
AcDbLine
 10
511.569654
 20
556.110169
 11
509.969801
 21
556.110169
  0
LINE
  5
1A0
100
AcDbEntity
  8
M0
 62
     7
100
AcDbLine
 10
426.97151
 20
542.610627
 11
426.97151
 21
522.610627
  0
ARC
  5
1A1
100
AcDbEntity
  8
M0
 62
     7
100
AcDbCircle
 10
430.97151
 20
542.610871
 40
3.999991
100
AcDbArc
 50
90.0
 51
180.0
  0
LINE
  5
1A2
100
AcDbEntity
  8
M0
 62
     7
100
AcDbLine
 10
426.971265
 20
522.610627
 11
432.970289
 21
522.610627
  0
LINE
  5
1A3
100
AcDbEntity
  8
M0
 62
     7
100
AcDbLine
 10
436.364088
 20
499.010529
 11
461.609937
 21
499.010529
  0
LINE
  5
1A4
100
AcDbEntity
  8
M0
 62
     7
100
AcDbLine
 10
426.97151
 20
522.610627
 11
432.500318
 21
501.975129
  0
ARC
  5
1A5
100
AcDbEntity
  8
M0
 62
     7
100
AcDbCircle
 10
436.364088
 20
503.010529
 40
3.999993
100
AcDbArc
 50
195.00139
 51
269.999781
  0
LINE
  5
1A6
100
AcDbEntity
  8
M0
 62
     7
100
AcDbLine
 10
440.862379
 20
504.610627
 11
461.970045
 21
504.610627
  0
ARC
  5
1A7
100
AcDbEntity
  8
M0
 62
     7
100
AcDbCircle
 10
461.609937
 20
503.010529
 40
3.999993
100
AcDbArc
 50
269.999781
 51
344.998553
  0
LINE
  5
1A8
100
AcDbEntity
  8
M0
 62
     7
100
AcDbLine
 10
464.970045
 20
502.610627
 11
470.970045
 21
502.610627
  0
LINE
  5
1A9
100
AcDbEntity
  8
M0
 62
     7
100
AcDbLine
 10
471.970045
 20
504.610627
 11
478.310621
 21
504.610627
  0
ARC
  5
1AA
100
AcDbEntity
  8
M0
 62
     7
100
AcDbCircle
 10
470.970045
 20
503.610627
 40
1.0
100
AcDbArc
 50
269.999126
 51
360.0
  0
LINE
  5
1AB
100
AcDbEntity
  8
M0
 62
     7
100
AcDbLine
 10
508.970289
 20
505.510041
 11
508.970289
 21
508.609894
  0
LINE
  5
1AC
100
AcDbEntity
  8
M0
 62
     7
100
AcDbLine
 10
453.389967
 20
509.111603
 11
477.006666
 21
509.110871
  0
LINE
  5
1AD
100
AcDbEntity
  8
M0
 62
     7
100
AcDbLine
 10
460.271802
 20
546.611115
 11
429.971754
 21
546.611359
  0
LINE
  5
1AE
100
AcDbEntity
  8
M0
 62
     7
100
AcDbLine
 10
446.471021
 20
522.611603
 11
446.471754
 21
543.611603
  0
LINE
  5
1AF
100
AcDbEntity
  8
M0
  6
DASHED
 62
     7
100
AcDbLine
 10
439.971265
 20
526.861848
 11
439.97151
 21
533.361848
  0
LINE
  5
1B0
100
AcDbEntity
  8
M0
 62
     7
100
AcDbLine
 10
447.471265
 20
522.611603
 11
450.492261
 21
511.335236
  0
ARC
  5
1B1
100
AcDbEntity
  8
M0
 62
     7
100
AcDbCircle
 10
453.390211
 20
512.111603
 40
2.999993
100
AcDbArc
 50
194.997432
 51
269.999709
  0
LINE
  5
1B2
100
AcDbEntity
  8
M0
  6
DASHED
 62
     7
100
AcDbLine
 10
445.971021
 20
522.611603
 11
445.971021
 21
529.609406
  0
LINE
  5
1B3
100
AcDbEntity
  8
M0
  6
DASHED
 62
     7
100
AcDbLine
 10
445.97151
 20
537.611603
 11
446.47151
 21
537.611603
  0
LINE
  5
1B4
100
AcDbEntity
  8
M0
 62
     7
100
AcDbLine
 10
439.471265
 20
526.861848
 11
439.971265
 21
526.861848
  0
LINE
  5
1B5
100
AcDbEntity
  8
M0
 62
     7
100
AcDbLine
 10
456.670972
 20
513.111603
 11
461.971021
 21
513.111359
  0
LINE
  5
1B6
100
AcDbEntity
  8
M0
 62
     7
100
AcDbLine
 10
464.970777
 20
511.111115
 11
476.470777
 21
511.110871
  0
LINE
  5
1B7
100
AcDbEntity
  8
M0
 62
     7
100
AcDbLine
 10
479.345045
 20
506.110871
 11
483.170728
 21
506.110871
  0
LINE
  5
1B8
100
AcDbEntity
  8
M0
 62
     7
100
AcDbLine
 10
480.2469
 20
502.110871
 11
496.564527
 21
502.110383
  0
ARC
  5
1B9
100
AcDbEntity
  8
M0
 62
     7
100
AcDbCircle
 10
460.271802
 20
544.611115
 40
1.999994
100
AcDbArc
 50
14.405834
 51
90.0
  0
LINE
  5
1BA
100
AcDbEntity
  8
M0
 62
     7
100
AcDbLine
 10
498.296461
 20
503.110383
 11
501.472242
 21
508.610383
  0
ARC
  5
1BB
100
AcDbEntity
  8
M0
 62
     7
100
AcDbCircle
 10
496.564527
 20
504.110383
 40
1.999994
100
AcDbArc
 50
269.999563
 51
329.998278
  0
ARC
  5
1BC
100
AcDbEntity
  8
M0
 62
     7
100
AcDbCircle
 10
479.345289
 20
508.110871
 40
1.999994
100
AcDbArc
 50
194.998024
 51
269.992569
  0
LINE
  5
1BD
100
AcDbEntity
  8
M0
 62
     7
100
AcDbLine
 10
486.170728
 20
504.110627
 11
497.719312
 21
504.110383
  0
ARC
  5
1BE
100
AcDbEntity
  8
M0
 62
     7
100
AcDbCircle
 10
497.719312
 20
506.110383
 40
1.999994
100
AcDbArc
 50
269.999563
 51
329.998278
  0
LINE
  5
1BF
100
AcDbEntity
  8
M0
 62
     7
100
AcDbLine
 10
476.970777
 20
508.610871
 11
464.970777
 21
508.611359
  0
LINE
  5
1C0
100
AcDbEntity
  8
M0
 62
     7
100
AcDbLine
 10
464.220777
 20
509.111359
 11
464.970777
 21
508.611359
  0
LINE
  5
1C1
100
AcDbEntity
  8
M0
 62
     7
100
AcDbLine
 10
461.971021
 20
513.111359
 11
464.970777
 21
511.111115
  0
LINE
  5
1C2
100
AcDbEntity
  8
M0
 62
     7
100
AcDbLine
 10
501.472242
 20
508.610383
 11
508.970777
 21
508.610139
  0
LINE
  5
1C3
100
AcDbEntity
  8
M0
 62
     7
100
AcDbLine
 10
498.296461
 20
503.110383
 11
503.970533
 21
503.110139
  0
LINE
  5
1C4
100
AcDbEntity
  8
M0
 62
     7
100
AcDbLine
 10
505.970777
 20
505.110139
 11
505.970777
 21
508.610139
  0
ARC
  5
1C5
100
AcDbEntity
  8
M0
 62
     7
100
AcDbCircle
 10
503.970777
 20
505.110139
 40
1.999994
100
AcDbArc
 50
269.992569
 51
360.0
  0
LINE
  5
1C6
100
AcDbEntity
  8
M0
 62
     7
100
AcDbLine
 10
483.170728
 20
506.110871
 11
486.170728
 21
504.110627
  0
LINE
  5
1C7
100
AcDbEntity
  8
M0
 62
     7
100
AcDbLine
 10
476.970777
 20
508.611115
 11
478.31526
 21
503.593293
  0
LINE
  5
1C8
100
AcDbEntity
  8
M0
 62
     7
100
AcDbLine
 10
476.470777
 20
511.110871
 11
477.413404
 21
507.593293
  0
ARC
  5
1C9
100
AcDbEntity
  8
M0
 62
     7
100
AcDbCircle
 10
480.2469
 20
504.110871
 40
1.999994
100
AcDbArc
 50
194.999588
 51
269.999563
  0
LINE
  5
1CA
100
AcDbEntity
  8
M0
  6
DASHED
 62
     7
100
AcDbLine
 10
451.470289
 20
509.805939
 11
451.470289
 21
519.090851
  0
LINE
  5
1CB
100
AcDbEntity
  8
M0
  6
DASHED
 62
     7
100
AcDbLine
 10
452.470289
 20
509.111359
 11
452.470533
 21
519.090851
  0
LINE
  5
1CC
100
AcDbEntity
  8
M0
 62
     7
100
AcDbLine
 10
465.693433
 20
502.795197
 11
465.473707
 21
501.975373
  0
LINE
  5
1CD
100
AcDbEntity
  8
M0
 62
     7
100
AcDbLine
 10
432.970289
 20
522.611115
 11
436.998853
 21
507.575959
  0
ARC
  5
1CE
100
AcDbEntity
  8
M0
 62
     7
100
AcDbCircle
 10
440.862379
 20
508.611359
 40
3.999993
100
AcDbArc
 50
195.002304
 51
269.999781
  0
LINE
  5
1CF
100
AcDbEntity
  8
M0
 62
     7
100
AcDbLine
 10
461.970289
 20
509.110871
 11
461.970045
 21
504.610871
  0
LINE
  5
1D0
100
AcDbEntity
  8
M0
 62
     7
100
AcDbLine
 10
461.970045
 20
504.610871
 11
464.970045
 21
502.610871
  0
LINE
  5
1D1
100
AcDbEntity
  8
M0
 62
     7
100
AcDbLine
 10
471.970289
 20
504.610871
 11
471.970289
 21
503.610871
  0
LINE
  5
1D2
100
AcDbEntity
  8
M0
 62
     7
100
AcDbLine
 10
509.969556
 20
505.509797
 11
509.969801
 21
554.010041
  0
LINE
  5
1D3
100
AcDbEntity
  8
M0
 62
     7
100
AcDbLine
 10
508.969801
 20
505.510041
 11
509.969312
 21
505.509797
  0
LINE
  5
1D4
100
AcDbEntity
  8
M0
 62
     7
100
AcDbLine
 10
438.47151
 20
543.609391
 11
433.971021
 21
543.609391
  0
LINE
  5
1D5
100
AcDbEntity
  8
M0
 62
     7
100
AcDbLine
 10
477.711256
 20
546.10843
 11
477.711256
 21
545.108674
  0
LINE
  5
1D6
100
AcDbEntity
  8
M0
  6
DASHED
 62
     7
100
AcDbLine
 10
439.974683
 20
521.810578
 11
443.974683
 21
521.810578
  0
LINE
  5
1D7
100
AcDbEntity
  8
M0
  6
DASHED
 62
     7
100
AcDbLine
 10
443.974683
 20
521.810578
 11
443.974683
 21
538.410432
  0
LINE
  5
1D8
100
AcDbEntity
  8
M0
  6
DASHED
 62
     7
100
AcDbLine
 10
443.974683
 20
538.410432
 11
439.974683
 21
538.410432
  0
LINE
  5
1D9
100
AcDbEntity
  8
M0
  6
DASHED
 62
     7
100
AcDbLine
 10
439.974683
 20
538.410432
 11
439.974683
 21
521.810578
  0
LINE
  5
1DA
100
AcDbEntity
  8
M0
  6
DASHED
 62
     7
100
AcDbLine
 10
443.974683
 20
523.110383
 11
445.974683
 21
523.110383
  0
LINE
  5
1DB
100
AcDbEntity
  8
M0
  6
DASHED
 62
     7
100
AcDbLine
 10
445.974683
 20
537.110383
 11
443.974683
 21
537.110383
  0
LINE
  5
1DC
100
AcDbEntity
  8
M0
 62
     7
100
AcDbLine
 10
436.974439
 20
526.860383
 11
438.47151
 21
526.860383
  0
LINE
  5
1DD
100
AcDbEntity
  8
M0
  6
DASHED
 62
     7
100
AcDbLine
 10
439.974683
 20
533.360383
 11
438.47151
 21
533.360367
  0
ARC
  5
1DE
100
AcDbEntity
  8
M0
 62
     7
100
AcDbCircle
 10
436.974439
 20
532.859894
 40
0.5
100
AcDbArc
 50
90.0
 51
180.0
  0
ARC
  5
1DF
100
AcDbEntity
  8
M0
 62
     7
100
AcDbCircle
 10
436.974439
 20
527.360383
 40
0.5
100
AcDbArc
 50
180.0
 51
269.998251
  0
LINE
  5
1E0
100
AcDbEntity
  8
M0
  6
DASHDOT
 62
     7
100
AcDbLine
 10
431.532789
 20
530.110139
 11
449.352369
 21
530.110139
  0
LINE
  5
1E1
100
AcDbEntity
  8
M0
 62
     7
100
AcDbLine
 10
436.474683
 20
532.859894
 11
436.474683
 21
527.360383
  0
LINE
  5
1E2
100
AcDbEntity
  8
M0
 62
     7
100
AcDbLine
 10
508.969801
 20
554.010041
 11
509.969312
 21
554.010041
  0
LINE
  5
1E3
100
AcDbEntity
  8
M0
 62
     7
100
AcDbLine
 10
507.970045
 20
506.610139
 11
508.970045
 21
506.610139
  0
LINE
  5
1E4
100
AcDbEntity
  8
M0
 62
     4
100
AcDbLine
 10
430.055372
 20
549.524247
 11
430.810255
 21
548.769196
  0
LINE
  5
1E5
100
AcDbEntity
  8
M0
 62
     4
100
AcDbLine
 10
428.428663
 20
547.897996
 11
429.184034
 21
547.142716
  0
ARC
  5
1E6
100
AcDbEntity
  8
M0
 62
     4
100
AcDbCircle
 10
427.769971
 20
545.72847
 40
1.999994
100
AcDbArc
 50
26.187944
 51
45.003709
  0
ARC
  5
1E7
100
AcDbEntity
  8
M0
 62
     4
100
AcDbCircle
 10
431.469678
 20
550.93837
 40
1.999994
100
AcDbArc
 50
180.0
 51
224.996291
  0
ARC
  5
1E8
100
AcDbEntity
  8
M0
 62
     4
100
AcDbCircle
 10
427.769971
 20
545.728486
 40
4.299992
100
AcDbArc
 50
11.845128
 51
45.004025
  0
ARC
  5
1E9
100
AcDbEntity
  8
M0
 62
     4
100
AcDbCircle
 10
431.469678
 20
550.938248
 40
4.299992
100
AcDbArc
 50
180.0
 51
224.992812
  0
LINE
  5
1EA
100
AcDbEntity
  8
M0
 62
     7
100
AcDbLine
 10
434.971021
 20
525.109467
 11
434.971021
 21
541.109406
  0
LINE
  5
1EB
100
AcDbEntity
  8
M0
 62
     7
100
AcDbLine
 10
433.971021
 20
522.611603
 11
433.971021
 21
524.109467
  0
LINE
  5
1EC
100
AcDbEntity
  8
M0
 62
     7
100
AcDbLine
 10
433.971021
 20
542.109406
 11
433.971021
 21
543.611603
  0
ARC
  5
1ED
100
AcDbEntity
  8
M0
 62
     7
100
AcDbCircle
 10
434.971021
 20
542.109406
 40
1.0
100
AcDbArc
 50
180.0
 51
269.999126
  0
LINE
  5
1EE
100
AcDbEntity
  8
M0
  6
DASHED
 62
     7
100
AcDbLine
 10
438.47151
 20
526.860383
 11
439.974683
 21
526.860383
  0
LINE
  5
1EF
100
AcDbEntity
  8
M0
 62
     7
100
AcDbLine
 10
438.47151
 20
533.360367
 11
436.974439
 21
533.360383
  0
LINE
  5
1F0
100
AcDbEntity
  8
M0
 62
     7
100
AcDbLine
 10
445.971021
 20
529.609406
 11
445.971021
 21
536.609391
  0
LINE
  5
1F1
100
AcDbEntity
  8
M0
  6
DASHED
 62
     7
100
AcDbLine
 10
445.971021
 20
536.609391
 11
445.97151
 21
537.611603
  0
LINE
  5
1F2
100
AcDbEntity
  8
M0
 62
     7
100
AcDbLine
 10
453.670972
 20
516.111603
 11
453.670972
 21
522.609452
  0
ARC
  5
1F3
100
AcDbEntity
  8
M0
 62
     7
100
AcDbCircle
 10
456.670972
 20
516.111603
 40
2.999993
100
AcDbArc
 50
179.999964
 51
269.999709
  0
LINE
  5
1F4
100
AcDbEntity
  8
M0
100
AcDbLine
 10
450.171461
 20
521.40944
 11
450.171461
 21
522.609391
  0
LINE
  5
1F5
100
AcDbEntity
  8
M0
100
AcDbLine
 10
450.171461
 20
544.809571
 11
434.671705
 21
544.809617
  0
LINE
  5
1F6
100
AcDbEntity
  8
M0
100
AcDbLine
 10
434.671705
 20
544.809617
 11
434.671705
 21
543.609421
  0
LINE
  5
1F7
100
AcDbEntity
  8
M0
100
AcDbLine
 10
434.671461
 20
521.409485
 11
450.171461
 21
521.40944
  0
LINE
  5
1F8
100
AcDbEntity
  8
M0
100
AcDbLine
 10
433.970777
 20
522.609452
 11
438.471265
 21
522.609437
  0
LINE
  5
1F9
100
AcDbEntity
  8
M0
100
AcDbLine
 10
507.470777
 20
543.609376
 11
446.471265
 21
543.609391
  0
LINE
  5
1FA
100
AcDbEntity
  8
M0
100
AcDbLine
 10
446.47151
 20
522.609406
 11
446.47151
 21
529.609406
  0
LINE
  5
1FB
100
AcDbEntity
  8
M0
100
AcDbLine
 10
444.97151
 20
529.609406
 11
444.97151
 21
536.609391
  0
LINE
  5
1FC
100
AcDbEntity
  8
M0
100
AcDbLine
 10
444.97151
 20
536.609391
 11
446.47151
 21
536.609391
  0
LINE
  5
1FD
100
AcDbEntity
  8
M0
100
AcDbLine
 10
444.97151
 20
529.609406
 11
446.47151
 21
529.609406
  0
LINE
  5
1FE
100
AcDbEntity
  8
M0
100
AcDbLine
 10
450.171217
 20
543.609376
 11
450.171217
 21
545.108414
  0
LINE
  5
1FF
100
AcDbEntity
  8
M0
100
AcDbLine
 10
446.47151
 20
536.609391
 11
446.47151
 21
543.609391
  0
LINE
  5
200
100
AcDbEntity
  8
M0
100
AcDbLine
 10
434.671461
 20
522.609437
 11
434.671461
 21
521.409485
  0
LINE
  5
201
100
AcDbEntity
  8
M0
  6
DASHED
100
AcDbLine
 10
445.970533
 20
522.609437
 11
446.470777
 21
522.609437
  0
LINE
  5
202
100
AcDbEntity
  8
M0
100
AcDbLine
 10
438.47151
 20
543.609406
 11
434.671705
 21
543.609421
  0
LINE
  5
203
100
AcDbEntity
  8
M0
100
AcDbLine
 10
447.171461
 20
520.109406
 11
447.171461
 21
521.409455
  0
LINE
  5
204
100
AcDbEntity
  8
M0
100
AcDbLine
 10
438.47151
 20
520.109421
 11
438.47151
 21
544.809601
  0
LINE
  5
205
100
AcDbEntity
  8
M0
100
AcDbLine
 10
438.47151
 20
520.109421
 11
447.171461
 21
520.109406
  0
LINE
  5
206
100
AcDbEntity
  8
M0
100
AcDbLine
 10
434.971021
 20
525.109482
 11
438.471265
 21
525.109467
  0
LINE
  5
207
100
AcDbEntity
  8
M0
100
AcDbLine
 10
434.971021
 20
541.109406
 11
438.47151
 21
541.109406
  0
ARC
  5
208
100
AcDbEntity
  8
M0
100
AcDbCircle
 10
434.971021
 20
524.109482
 40
1.0
100
AcDbArc
 50
90.0
 51
180.0
  0
LINE
  5
209
100
AcDbEntity
  8
M0
100
AcDbLine
 10
446.470533
 20
522.609452
 11
453.670728
 21
522.609452
  0
LINE
  5
20A
100
AcDbEntity
  8
M0
 62
     7
100
AcDbLine
 10
508.970289
 20
508.609894
 11
508.971265
 21
546.60965
  0
LINE
  5
20B
100
AcDbEntity
  8
M0
 62
     7
100
AcDbLine
 10
508.971265
 20
546.609406
 11
508.971265
 21
554.010041
  0
LINE
  5
20C
100
AcDbEntity
  8
M0
 62
     7
100
AcDbLine
 10
508.970045
 20
545.10843
 11
450.171461
 21
545.108414
  0
LINE
  5
20D
100
AcDbEntity
  8
M0
 62
     7
100
AcDbLine
 10
507.471021
 20
545.109162
 11
507.471021
 21
543.609162
  0
LINE
  5
20E
100
AcDbEntity
  8
M0
 62
     7
100
AcDbLine
 10
506.022291
 20
546.107926
 11
477.711256
 21
546.107941
  0
LINE
  5
20F
100
AcDbEntity
  8
M0
 62
     7
100
AcDbLine
 10
507.971265
 20
545.610139
 11
508.971265
 21
545.610139
  0
LINE
  5
210
100
AcDbEntity
  8
M0
100
AcDbLine
 10
507.971265
 20
545.610139
 11
507.971265
 21
552.610139
  0
LINE
  5
211
100
AcDbEntity
  8
M0
  6
DASHDOT
100
AcDbLine
 10
502.032545
 20
549.110139
 11
517.971265
 21
549.110139
  0
LINE
  5
212
100
AcDbEntity
  8
M0
100
AcDbLine
 10
507.971265
 20
552.609894
 11
506.851636
 21
552.51175
  0
LINE
  5
213
100
AcDbEntity
  8
M0
100
AcDbLine
 10
507.971265
 20
545.609894
 11
506.851636
 21
545.707795
  0
LINE
  5
214
100
AcDbEntity
  8
M0
100
AcDbLine
 10
505.371412
 20
549.610139
 11
506.77107
 21
549.610139
  0
LINE
  5
215
100
AcDbEntity
  8
M0
100
AcDbLine
 10
505.371412
 20
548.610139
 11
506.77107
 21
548.610139
  0
ARC
  5
216
100
AcDbEntity
  8
M0
100
AcDbCircle
 10
514.371412
 20
549.110139
 40
8.999993
100
AcDbArc
 50
164.123189
 51
176.815358
  0
ARC
  5
217
100
AcDbEntity
  8
M0
100
AcDbCircle
 10
506.965162
 20
551.216828
 40
1.299994
100
AcDbArc
 50
95.01061
 51
164.131739
  0
ARC
  5
218
100
AcDbEntity
  8
M0
100
AcDbCircle
 10
506.965162
 20
547.002961
 40
1.299994
100
AcDbArc
 50
195.889139
 51
264.990118
  0
ARC
  5
219
100
AcDbEntity
  8
M0
100
AcDbCircle
 10
514.371412
 20
549.110139
 40
8.999993
100
AcDbArc
 50
183.184642
 51
195.882843
  0
LINE
  5
21A
100
AcDbEntity
  8
M0
100
AcDbLine
 10
508.971265
 20
545.610139
 11
508.971265
 21
552.610139
  0
LINE
  5
21B
100
AcDbEntity
  8
M0
100
AcDbLine
 10
507.971265
 20
552.610139
 11
508.971265
 21
552.610139
  0
LINE
  5
21C
100
AcDbEntity
  8
M0
100
AcDbLine
 10
507.971265
 20
545.610139
 11
507.97273
 21
545.610139
  0
LINE
  5
21D
100
AcDbEntity
  8
M0
100
AcDbLine
 10
508.971265
 20
549.360139
 11
507.971265
 21
549.937287
  0
LINE
  5
21E
100
AcDbEntity
  8
M0
100
AcDbLine
 10
507.971265
 20
548.860139
 11
508.971265
 21
548.282746
  0
LINE
  5
21F
100
AcDbEntity
  8
M0
100
AcDbLine
 10
511.569898
 20
551.110139
 11
513.971265
 21
551.110139
  0
LINE
  5
220
100
AcDbEntity
  8
M0
100
AcDbLine
 10
511.569654
 20
547.110139
 11
513.971265
 21
547.110139
  0
LINE
  5
221
100
AcDbEntity
  8
M0
100
AcDbLine
 10
511.569898
 20
550.610139
 11
513.971265
 21
550.610139
  0
LINE
  5
222
100
AcDbEntity
  8
M0
100
AcDbLine
 10
511.569654
 20
547.610139
 11
513.971265
 21
547.610139
  0
LINE
  5
223
100
AcDbEntity
  8
M0
100
AcDbLine
 10
506.77107
 20
549.610139
 11
506.77107
 21
548.610139
  0
LINE
  5
224
100
AcDbEntity
  8
M0
100
AcDbLine
 10
513.971265
 20
551.110139
 11
513.971265
 21
547.110139
  0
LINE
  5
225
100
AcDbEntity
  8
M0
 62
     7
100
AcDbLine
 10
507.970289
 20
506.610154
 11
508.970289
 21
506.610154
  0
LINE
  5
226
100
AcDbEntity
  8
M0
100
AcDbLine
 10
507.970289
 20
506.610154
 11
507.970289
 21
508.610383
  0
LINE
  5
227
100
AcDbEntity
  8
M0
  6
DASHDOT
100
AcDbLine
 10
503.446607
 20
510.110154
 11
517.970289
 21
510.110154
  0
LINE
  5
228
100
AcDbEntity
  8
M0
100
AcDbLine
 10
507.970289
 20
506.60991
 11
506.85066
 21
506.70781
  0
ARC
  5
229
100
AcDbEntity
  8
M0
100
AcDbCircle
 10
506.964185
 20
508.002976
 40
1.299994
100
AcDbArc
 50
220.167725
 51
264.990115
  0
LINE
  5
22A
100
AcDbEntity
  8
M0
100
AcDbLine
 10
507.970289
 20
506.610154
 11
507.971754
 21
506.610154
  0
LINE
  5
22B
100
AcDbEntity
  8
M0
100
AcDbLine
 10
511.568922
 20
512.110154
 11
513.970289
 21
512.110154
  0
LINE
  5
22C
100
AcDbEntity
  8
M0
100
AcDbLine
 10
511.568922
 20
511.610154
 11
513.970289
 21
511.610154
  0
LINE
  5
22D
100
AcDbEntity
  8
M0
100
AcDbLine
 10
511.568677
 20
508.610154
 11
513.970289
 21
508.610154
  0
LINE
  5
22E
100
AcDbEntity
  8
M0
100
AcDbLine
 10
513.970289
 20
512.110154
 11
513.970289
 21
508.110154
  0
LINE
  5
22F
100
AcDbEntity
  8
M0
 62
     4
100
AcDbLine
 10
427.169874
 20
563.111664
 11
427.169874
 21
550.938248
  0
LINE
  5
230
100
AcDbEntity
  8
M0
 62
     4
100
AcDbLine
 10
429.469678
 20
580.028229
 11
429.469678
 21
550.93837
  0
LINE
  5
231
100
AcDbEntity
  8
M0
100
AcDbLine
 10
511.568922
 20
508.110154
 11
513.970289
 21
508.110154
  0
LINE
  5
232
100
AcDbEntity
  8
M0
 62
     4
100
AcDbLine
 10
222.669401
 20
589.510316
 11
230.669401
 21
589.510316
  0
LINE
  5
233
100
AcDbEntity
  8
M0
 62
     4
100
AcDbLine
 10
230.669401
 20
587.010316
 11
230.669401
 21
589.510316
  0
LINE
  5
234
100
AcDbEntity
  8
M0
 62
     4
100
AcDbLine
 10
199.669401
 20
587.0103
 11
199.669416
 21
589.510316
  0
LINE
  5
235
100
AcDbEntity
  8
M0
 62
     4
100
AcDbLine
 10
199.669416
 20
589.510316
 11
207.669415
 21
589.510316
  0
LINE
  5
236
100
AcDbEntity
  8
M0
 62
     4
100
AcDbLine
 10
176.669416
 20
589.510316
 11
184.669416
 21
589.510316
  0
LINE
  5
237
100
AcDbEntity
  8
M0
 62
     4
100
AcDbLine
 10
176.669416
 20
587.0103
 11
176.669416
 21
589.510316
  0
LINE
  5
238
100
AcDbEntity
  8
M0
 62
     4
100
AcDbLine
 10
176.669462
 20
673.010071
 11
176.669462
 21
670.510071
  0
LINE
  5
239
100
AcDbEntity
  8
M0
 62
     4
100
AcDbLine
 10
222.669447
 20
670.510071
 11
230.669447
 21
670.510071
  0
LINE
  5
23A
100
AcDbEntity
  8
M0
 62
     4
100
AcDbLine
 10
207.669461
 20
673.010071
 11
207.669461
 21
670.510071
  0
LINE
  5
23B
100
AcDbEntity
  8
M0
 62
     4
100
AcDbLine
 10
176.669462
 20
670.510071
 11
184.669462
 21
670.510071
  0
LINE
  5
23C
100
AcDbEntity
  8
M0
 62
     4
100
AcDbLine
 10
199.669462
 20
670.510071
 11
207.669461
 21
670.510071
  0
LINE
  5
23D
100
AcDbEntity
  8
M0
  6
DASHDOT
 62
     4
100
AcDbLine
 10
215.169461
 20
579.010316
 11
215.169461
 21
593.010316
  0
LINE
  5
23E
100
AcDbEntity
  8
M0
  6
DASHDOT
 62
     4
100
AcDbLine
 10
208.169461
 20
586.010316
 11
222.169447
 21
586.010316
  0
CIRCLE
  5
23F
100
AcDbEntity
  8
M0
 62
     4
100
AcDbCircle
 10
215.169461
 20
586.010316
 40
2.0
  0
LINE
  5
240
100
AcDbEntity
  8
M0
  6
DASHDOT
 62
     4
100
AcDbLine
 10
185.169462
 20
674.010071
 11
199.169462
 21
674.010071
  0
CIRCLE
  5
241
100
AcDbEntity
  8
M0
 62
     4
100
AcDbCircle
 10
192.169462
 20
674.010071
 40
2.0
  0
CIRCLE
  5
242
100
AcDbEntity
  8
M0
 62
     4
100
AcDbCircle
 10
192.169462
 20
674.010071
 40
2.75
  0
LINE
  5
243
100
AcDbEntity
  8
M0
  6
DASHDOT
 62
     4
100
AcDbLine
 10
207.419461
 20
586.010316
 11
222.919447
 21
586.010316
  0
CIRCLE
  5
244
100
AcDbEntity
  8
M0
 62
     4
100
AcDbCircle
 10
215.169461
 20
586.010316
 40
2.75
  0
LINE
  5
245
100
AcDbEntity
  8
M0
 62
     4
100
AcDbLine
 10
210.669461
 20
586.0103
 11
210.669461
 21
581.510544
  0
LINE
  5
246
100
AcDbEntity
  8
M0
 62
     4
100
AcDbLine
 10
219.669447
 20
586.010316
 11
219.669447
 21
581.51056
  0
LINE
  5
247
100
AcDbEntity
  8
M0
 62
     4
100
AcDbLine
 10
187.669462
 20
678.509583
 11
187.669462
 21
674.010071
  0
LINE
  5
248
100
AcDbEntity
  8
M0
 62
     4
100
AcDbLine
 10
196.669462
 20
678.509583
 11
196.669462
 21
674.010071
  0
LINE
  5
249
100
AcDbEntity
  8
M0
  6
DASHDOT
 62
     4
100
AcDbLine
 10
226.669447
 20
577.602418
 11
226.669447
 21
594.044449
  0
ARC
  5
24A
100
AcDbEntity
  8
M0
 62
     4
100
AcDbCircle
 10
169.169462
 20
588.510316
 40
2.0
100
AcDbArc
 50
179.999563
 51
270.0
  0
LINE
  5
24B
100
AcDbEntity
  8
M0
 62
     4
100
AcDbLine
 10
223.169447
 20
586.510316
 11
238.169447
 21
586.510316
  0
LINE
  5
24C
100
AcDbEntity
  8
M0
 62
     4
100
AcDbLine
 10
207.669461
 20
589.510316
 11
207.669461
 21
581.51056
  0
LINE
  5
24D
100
AcDbEntity
  8
M0
 62
     4
100
AcDbLine
 10
222.669447
 20
589.510316
 11
222.669447
 21
581.51056
  0
ARC
  5
24E
100
AcDbEntity
  8
M0
 62
     4
100
AcDbCircle
 10
238.169447
 20
588.510316
 40
2.0
100
AcDbArc
 50
269.999563
 51
360.0
  0
LINE
  5
24F
100
AcDbEntity
  8
M0
 62
     4
100
AcDbLine
 10
226.669447
 20
581.01056
 11
235.669447
 21
586.510316
  0
LINE
  5
250
100
AcDbEntity
  8
M0
 62
     4
100
AcDbLine
 10
208.169461
 20
581.01056
 11
226.669431
 21
581.01056
  0
LINE
  5
251
100
AcDbEntity
  8
M0
 62
     4
100
AcDbLine
 10
180.669935
 20
581.01056
 11
188.169523
 21
581.01056
  0
LINE
  5
252
100
AcDbEntity
  8
M0
 62
     4
100
AcDbLine
 10
180.669523
 20
581.01056
 11
171.669508
 21
586.510331
  0
LINE
  5
253
100
AcDbEntity
  8
M0
 62
     4
100
AcDbLine
 10
184.669523
 20
581.51056
 11
184.669523
 21
589.510316
  0
LINE
  5
254
100
AcDbEntity
  8
M0
 62
     4
100
AcDbLine
 10
188.669523
 20
581.510544
 11
188.669523
 21
586.010316
  0
LINE
  5
255
100
AcDbEntity
  8
M0
 62
     4
100
AcDbLine
 10
199.669462
 20
673.510071
 11
218.669461
 21
673.510071
  0
LINE
  5
256
100
AcDbEntity
  8
M0
  6
DASHDOT
 62
     4
100
AcDbLine
 10
180.669462
 20
681.565491
 11
180.669462
 21
667.371644
  0
ARC
  5
257
100
AcDbEntity
  8
M0
 62
     4
100
AcDbCircle
 10
238.169447
 20
671.510071
 40
2.0
100
AcDbArc
 50
0.0
 51
90.0
  0
ARC
  5
258
100
AcDbEntity
  8
M0
 62
     4
100
AcDbCircle
 10
169.169462
 20
671.510071
 40
2.0
100
AcDbArc
 50
89.999563
 51
180.0
  0
LINE
  5
259
100
AcDbEntity
  8
M0
 62
     4
100
AcDbLine
 10
180.669462
 20
679.009583
 11
171.669462
 21
673.510071
  0
LINE
  5
25A
100
AcDbEntity
  8
M0
 62
     4
100
AcDbLine
 10
184.669462
 20
678.509583
 11
184.669462
 21
670.510071
  0
LINE
  5
25B
100
AcDbEntity
  8
M0
 62
     4
100
AcDbLine
 10
199.169462
 20
679.009827
 11
180.669859
 21
679.009583
  0
LINE
  5
25C
100
AcDbEntity
  8
M0
 62
     4
100
AcDbLine
 10
199.669462
 20
678.509583
 11
199.669462
 21
670.510071
  0
LINE
  5
25D
100
AcDbEntity
  8
M0
 62
     4
100
AcDbLine
 10
226.669447
 20
679.009827
 11
235.669447
 21
673.510071
  0
LINE
  5
25E
100
AcDbEntity
  8
M0
 62
     4
100
AcDbLine
 10
218.669461
 20
678.509583
 11
218.669461
 21
673.510071
  0
LINE
  5
25F
100
AcDbEntity
  8
M0
 62
     4
100
AcDbLine
 10
222.669447
 20
678.509583
 11
222.669447
 21
670.510071
  0
LINE
  5
260
100
AcDbEntity
  8
M0
 62
     4
100
AcDbLine
 10
230.669447
 20
673.010071
 11
230.669447
 21
670.510071
  0
LINE
  5
261
100
AcDbEntity
  8
M0
  6
DASHDOT
 62
     4
100
AcDbLine
 10
226.669447
 20
667.86139
 11
226.669447
 21
684.010071
  0
CIRCLE
  5
262
100
AcDbEntity
  8
M0
 62
     4
100
AcDbCircle
 10
171.669492
 20
600.510316
 40
1.0
  0
LINE
  5
263
100
AcDbEntity
  8
M0
  6
DASHDOT
 62
     4
100
AcDbLine
 10
171.669477
 20
607.0103
 11
171.669492
 21
594.010316
  0
LINE
  5
264
100
AcDbEntity
  8
M0
  6
DASHDOT
 62
     4
100
AcDbLine
 10
178.169477
 20
600.510316
 11
165.169492
 21
600.5103
  0
CIRCLE
  5
265
100
AcDbEntity
  8
M0
 62
     4
100
AcDbCircle
 10
171.669492
 20
600.510316
 40
1.5
  0
CIRCLE
  5
266
100
AcDbEntity
  8
M0
 62
     4
100
AcDbCircle
 10
171.669492
 20
659.510071
 40
1.0
  0
LINE
  5
267
100
AcDbEntity
  8
M0
  6
DASHDOT
 62
     4
100
AcDbLine
 10
171.669477
 20
653.010071
 11
171.669492
 21
666.009827
  0
LINE
  5
268
100
AcDbEntity
  8
M0
  6
DASHDOT
 62
     4
100
AcDbLine
 10
178.169477
 20
659.510071
 11
165.169492
 21
659.510071
  0
CIRCLE
  5
269
100
AcDbEntity
  8
M0
 62
     4
100
AcDbCircle
 10
171.669492
 20
659.510071
 40
1.5
  0
CIRCLE
  5
26A
100
AcDbEntity
  8
M0
 62
     4
100
AcDbCircle
 10
235.669447
 20
600.510316
 40
1.0
  0
LINE
  5
26B
100
AcDbEntity
  8
M0
  6
DASHDOT
 62
     4
100
AcDbLine
 10
235.669447
 20
607.010316
 11
235.669447
 21
594.010316
  0
LINE
  5
26C
100
AcDbEntity
  8
M0
  6
DASHDOT
 62
     4
100
AcDbLine
 10
229.169447
 20
600.510316
 11
242.169447
 21
600.510316
  0
CIRCLE
  5
26D
100
AcDbEntity
  8
M0
 62
     4
100
AcDbCircle
 10
235.669447
 20
600.510316
 40
1.5
  0
CIRCLE
  5
26E
100
AcDbEntity
  8
M0
 62
     4
100
AcDbCircle
 10
235.669447
 20
659.510071
 40
1.0
  0
LINE
  5
26F
100
AcDbEntity
  8
M0
  6
DASHDOT
 62
     4
100
AcDbLine
 10
235.669447
 20
653.010071
 11
235.669447
 21
666.010071
  0
CIRCLE
  5
270
100
AcDbEntity
  8
M0
 62
     4
100
AcDbCircle
 10
235.669447
 20
659.510071
 40
1.5
  0
LINE
  5
271
100
AcDbEntity
  8
M0
 62
     4
100
AcDbLine
 10
169.169462
 20
586.510316
 11
184.169523
 21
586.510316
  0
LINE
  5
272
100
AcDbEntity
  8
M0
 62
     4
100
AcDbLine
 10
169.169462
 20
673.510071
 11
184.669462
 21
673.510071
  0
LINE
  5
273
100
AcDbEntity
  8
M0
 62
     4
100
AcDbLine
 10
167.169462
 20
671.510071
 11
167.169462
 21
588.510316
  0
LINE
  5
274
100
AcDbEntity
  8
M0
 62
     4
100
AcDbLine
 10
226.669035
 20
679.009827
 11
219.169461
 21
679.009827
  0
LINE
  5
275
100
AcDbEntity
  8
M0
 62
     4
100
AcDbLine
 10
240.169447
 20
588.5103
 11
240.169447
 21
671.510071
  0
ARC
  5
276
100
AcDbEntity
  8
M0
 62
     4
100
AcDbCircle
 10
215.169705
 20
586.010331
 40
4.5
100
AcDbArc
 50
0.0
 51
179.999806
  0
ARC
  5
277
100
AcDbEntity
  8
M0
 62
     4
100
AcDbCircle
 10
192.169706
 20
674.0103
 40
4.5
100
AcDbArc
 50
180.0
 51
360.0
  0
LINE
  5
278
100
AcDbEntity
  8
M0
  6
DASHDOT
 62
     4
100
AcDbLine
 10
229.169004
 20
659.510041
 11
242.168989
 21
659.510026
  0
ARC
  5
279
100
AcDbEntity
  8
M0
 62
     4
100
AcDbCircle
 10
231.169447
 20
673.010071
 40
0.5
100
AcDbArc
 50
90.0
 51
180.0
  0
ARC
  5
27A
100
AcDbEntity
  8
M0
 62
     4
100
AcDbCircle
 10
208.169461
 20
673.010071
 40
0.5
100
AcDbArc
 50
90.0
 51
180.0
  0
ARC
  5
27B
100
AcDbEntity
  8
M0
 62
     4
100
AcDbCircle
 10
176.169416
 20
587.010316
 40
0.5
100
AcDbArc
 50
270.0
 51
360.0
  0
ARC
  5
27C
100
AcDbEntity
  8
M0
 62
     4
100
AcDbCircle
 10
184.169523
 20
586.010316
 40
0.5
100
AcDbArc
 50
0.0
 51
89.998251
  0
ARC
  5
27D
100
AcDbEntity
  8
M0
 62
     4
100
AcDbCircle
 10
189.169523
 20
586.010316
 40
0.5
100
AcDbArc
 50
90.0
 51
179.998251
  0
LINE
  5
27E
100
AcDbEntity
  8
M0
 62
     4
100
AcDbLine
 10
189.169523
 20
586.510316
 11
207.169461
 21
586.510316
  0
ARC
  5
27F
100
AcDbEntity
  8
M0
 62
     4
100
AcDbCircle
 10
199.169401
 20
587.010316
 40
0.5
100
AcDbArc
 50
270.0
 51
360.0
  0
ARC
  5
280
100
AcDbEntity
  8
M0
 62
     4
100
AcDbCircle
 10
207.169461
 20
586.010316
 40
0.5
100
AcDbArc
 50
0.0
 51
90.0
  0
ARC
  5
281
100
AcDbEntity
  8
M0
 62
     4
100
AcDbCircle
 10
176.169462
 20
673.010071
 40
0.5
100
AcDbArc
 50
0.0
 51
89.998251
  0
LINE
  5
282
100
AcDbEntity
  8
M0
 62
     4
100
AcDbLine
 10
222.669447
 20
673.510071
 11
238.169447
 21
673.510071
  0
LINE
  5
283
100
AcDbEntity
  8
M0
  6
DASHDOT
 62
     4
100
AcDbLine
 10
180.669523
 20
577.58426
 11
180.669523
 21
591.887208
  0
ARC
  5
284
100
AcDbEntity
  8
M0
 62
     4
100
AcDbCircle
 10
185.169523
 20
581.51056
 40
0.5
100
AcDbArc
 50
179.998251
 51
270.0
  0
ARC
  5
285
100
AcDbEntity
  8
M0
 62
     4
100
AcDbCircle
 10
188.169523
 20
581.51056
 40
0.5
100
AcDbArc
 50
270.0
 51
360.0
  0
ARC
  5
286
100
AcDbEntity
  8
M0
 62
     4
100
AcDbCircle
 10
208.169461
 20
581.51056
 40
0.5
100
AcDbArc
 50
179.998251
 51
270.0
  0
ARC
  5
287
100
AcDbEntity
  8
M0
 62
     4
100
AcDbCircle
 10
210.169461
 20
581.510544
 40
0.5
100
AcDbArc
 50
270.0
 51
360.0
  0
ARC
  5
288
100
AcDbEntity
  8
M0
 62
     4
100
AcDbCircle
 10
220.169447
 20
581.51056
 40
0.5
100
AcDbArc
 50
179.998251
 51
269.998251
  0
ARC
  5
289
100
AcDbEntity
  8
M0
 62
     4
100
AcDbCircle
 10
222.169447
 20
581.51056
 40
0.5
100
AcDbArc
 50
269.998251
 51
360.0
  0
ARC
  5
28A
100
AcDbEntity
  8
M0
 62
     4
100
AcDbCircle
 10
223.169447
 20
586.010316
 40
0.5
100
AcDbArc
 50
90.0
 51
179.998251
  0
ARC
  5
28B
100
AcDbEntity
  8
M0
 62
     4
100
AcDbCircle
 10
231.169401
 20
587.010316
 40
0.5
100
AcDbArc
 50
179.998251
 51
269.998251
  0
ARC
  5
28C
100
AcDbEntity
  8
M0
 62
     4
100
AcDbCircle
 10
185.169462
 20
678.509583
 40
0.5
100
AcDbArc
 50
89.998251
 51
180.0
  0
ARC
  5
28D
100
AcDbEntity
  8
M0
 62
     4
100
AcDbCircle
 10
197.169462
 20
678.509583
 40
0.5
100
AcDbArc
 50
90.0
 51
180.0
  0
ARC
  5
28E
100
AcDbEntity
  8
M0
 62
     4
100
AcDbCircle
 10
187.169462
 20
678.509583
 40
0.5
100
AcDbArc
 50
0.0
 51
89.998251
  0
ARC
  5
28F
100
AcDbEntity
  8
M0
 62
     4
100
AcDbCircle
 10
222.169447
 20
678.509583
 40
0.5
100
AcDbArc
 50
0.0
 51
90.0
  0
ARC
  5
290
100
AcDbEntity
  8
M0
 62
     4
100
AcDbCircle
 10
199.169462
 20
678.509583
 40
0.5
100
AcDbArc
 50
0.0
 51
90.0
  0
ARC
  5
291
100
AcDbEntity
  8
M0
 62
     4
100
AcDbCircle
 10
219.169461
 20
678.509583
 40
0.5
100
AcDbArc
 50
90.0
 51
180.0
  0
LINE
  5
292
100
AcDbEntity
  8
M0
100
AcDbLine
 10
249.669431
 20
604.50969
 11
240.169447
 21
604.50969
  0
ARC
  5
293
100
AcDbEntity
  8
M0
100
AcDbCircle
 10
253.169431
 20
613.00969
 40
0.5
100
AcDbArc
 50
-90.001749
 51
0.0
  0
ARC
  5
294
100
AcDbEntity
  8
M0
100
AcDbCircle
 10
250.169431
 20
613.00969
 40
0.5
100
AcDbArc
 50
179.998251
 51
269.998251
  0
LINE
  5
295
100
AcDbEntity
  8
M0
100
AcDbLine
 10
241.169431
 20
613.50969
 11
240.169447
 21
613.50969
  0
LINE
  5
296
100
AcDbEntity
  8
M0
100
AcDbLine
 10
253.169431
 20
612.50969
 11
250.169431
 21
612.50969
  0
LINE
  5
297
100
AcDbEntity
  8
M0
100
AcDbLine
 10
249.669431
 20
615.509676
 11
248.611707
 21
615.509676
  0
ARC
  5
298
100
AcDbEntity
  8
M0
100
AcDbCircle
 10
154.169447
 20
657.009675
 40
0.5
100
AcDbArc
 50
89.998251
 51
180.0
  0
ARC
  5
299
100
AcDbEntity
  8
M0
100
AcDbCircle
 10
154.169447
 20
647.009675
 40
0.5
100
AcDbArc
 50
89.998251
 51
180.0
  0
LINE
  5
29A
100
AcDbEntity
  8
M0
100
AcDbLine
 10
157.669447
 20
655.509675
 11
167.169462
 21
655.509675
  0
ARC
  5
29B
100
AcDbEntity
  8
M0
100
AcDbCircle
 10
157.169447
 20
657.009675
 40
0.5
100
AcDbArc
 50
0.0
 51
89.998251
  0
LINE
  5
29C
100
AcDbEntity
  8
M0
100
AcDbLine
 10
154.169447
 20
657.509675
 11
157.169447
 21
657.509675
  0
LINE
  5
29D
100
AcDbEntity
  8
M0
100
AcDbLine
 10
153.669447
 20
665.009675
 11
156.169447
 21
665.009675
  0
LINE
  5
29E
100
AcDbEntity
  8
M0
100
AcDbLine
 10
156.169447
 20
657.509675
 11
156.169447
 21
667.509675
  0
LINE
  5
29F
100
AcDbEntity
  8
M0
100
AcDbLine
 10
166.169447
 20
646.509675
 11
167.169462
 21
646.509675
  0
ARC
  5
2A0
100
AcDbEntity
  8
M0
100
AcDbCircle
 10
157.169447
 20
647.009675
 40
0.5
100
AcDbArc
 50
0.0
 51
89.998251
  0
LINE
  5
2A1
100
AcDbEntity
  8
M0
100
AcDbLine
 10
154.169447
 20
647.509675
 11
157.169447
 21
647.509675
  0
ARC
  5
2A2
100
AcDbEntity
  8
M0
100
AcDbCircle
 10
157.169447
 20
613.009934
 40
0.5
100
AcDbArc
 50
270.0
 51
360.0
  0
ARC
  5
2A3
100
AcDbEntity
  8
M0
100
AcDbCircle
 10
154.169447
 20
613.009934
 40
0.5
100
AcDbArc
 50
179.998251
 51
270.0
  0
ARC
  5
2A4
100
AcDbEntity
  8
M0
100
AcDbCircle
 10
154.169447
 20
603.009934
 40
0.5
100
AcDbArc
 50
179.998251
 51
270.0
  0
ARC
  5
2A5
100
AcDbEntity
  8
M0
100
AcDbCircle
 10
157.169447
 20
603.009934
 40
0.5
100
AcDbArc
 50
270.0
 51
360.0
  0
LINE
  5
2A6
100
AcDbEntity
  8
M0
100
AcDbLine
 10
166.169447
 20
613.509934
 11
167.169462
 21
613.509934
  0
LINE
  5
2A7
100
AcDbEntity
  8
M0
100
AcDbLine
 10
153.669447
 20
595.009934
 11
156.169447
 21
595.009934
  0
LINE
  5
2A8
100
AcDbEntity
  8
M0
100
AcDbLine
 10
156.169447
 20
602.509934
 11
156.169447
 21
592.509934
  0
LINE
  5
2A9
100
AcDbEntity
  8
M0
100
AcDbLine
 10
154.169447
 20
602.509934
 11
157.169447
 21
602.509934
  0
LINE
  5
2AA
100
AcDbEntity
  8
M0
100
AcDbLine
 10
157.669447
 20
604.509934
 11
167.169462
 21
604.509934
  0
LINE
  5
2AB
100
AcDbEntity
  8
M0
100
AcDbLine
 10
157.669447
 20
615.50992
 11
158.726713
 21
615.50992
  0
LINE
  5
2AC
100
AcDbEntity
  8
M0
100
AcDbLine
 10
154.169447
 20
612.509934
 11
157.169447
 21
612.509934
  0
ARC
  5
2AD
100
AcDbEntity
  8
M0
100
AcDbCircle
 10
253.169431
 20
593.009934
 40
0.5
100
AcDbArc
 50
269.998251
 51
360.0
  0
ARC
  5
2AE
100
AcDbEntity
  8
M0
100
AcDbCircle
 10
154.169447
 20
593.009919
 40
0.5
100
AcDbArc
 50
179.998251
 51
270.0
  0
ARC
  5
2AF
100
AcDbEntity
  8
M0
100
AcDbCircle
 10
154.169447
 20
667.009186
 40
0.5
100
AcDbArc
 50
89.998251
 51
180.0
  0
ARC
  5
2B0
100
AcDbEntity
  8
M0
100
AcDbCircle
 10
253.169431
 20
667.009919
 40
0.5
100
AcDbArc
 50
0.0
 51
90.0
  0
LINE
  5
2B1
100
AcDbEntity
  8
M0
100
AcDbLine
 10
251.169431
 20
665.009919
 11
253.669431
 21
665.009919
  0
LINE
  5
2B2
100
AcDbEntity
  8
M0
100
AcDbLine
 10
251.169431
 20
667.509919
 11
251.169431
 21
657.509919
  0
LINE
  5
2B3
100
AcDbEntity
  8
M0
100
AcDbLine
 10
250.169431
 20
657.509919
 11
253.669431
 21
657.509919
  0
LINE
  5
2B4
100
AcDbEntity
  8
M0
100
AcDbLine
 10
167.169462
 20
592.509919
 11
154.169447
 21
592.509919
  0
LINE
  5
2B5
100
AcDbEntity
  8
M0
100
AcDbLine
 10
167.169462
 20
667.509431
 11
154.169447
 21
667.509431
  0
LINE
  5
2B6
100
AcDbEntity
  8
M0
100
AcDbLine
 10
168.169477
 20
586.510316
 11
168.169492
 21
581.510438
  0
ARC
  5
2B7
100
AcDbEntity
  8
M0
100
AcDbCircle
 10
219.66937
 20
579.009934
 40
1.0
100
AcDbArc
 50
269.999126
 51
360.0
  0
ARC
  5
2B8
100
AcDbEntity
  8
M0
100
AcDbCircle
 10
191.919239
 20
587.509934
 40
1.5
100
AcDbArc
 50
221.790243
 51
270.0
  0
LINE
  5
2B9
100
AcDbEntity
  8
M0
100
AcDbLine
 10
191.919239
 20
586.009934
 11
197.169376
 21
586.009934
  0
ARC
  5
2BA
100
AcDbEntity
  8
M0
100
AcDbCircle
 10
215.419619
 20
672.509919
 40
1.5
100
AcDbArc
 50
41.81822
 51
90.0
  0
LINE
  5
2BB
100
AcDbEntity
  8
M0
100
AcDbLine
 10
210.169436
 20
674.009919
 11
215.419619
 21
674.009919
  0
LINE
  5
2BC
100
AcDbEntity
  8
M0
100
AcDbLine
 10
168.169492
 20
673.242127
 11
168.169508
 21
678.509431
  0
ARC
  5
2BD
100
AcDbEntity
  8
M0
100
AcDbCircle
 10
169.169492
 20
581.510438
 40
1.0
100
AcDbArc
 50
179.999126
 51
270.0
  0
ARC
  5
2BE
100
AcDbEntity
  8
M0
100
AcDbCircle
 10
169.169508
 20
678.509431
 40
1.0
100
AcDbArc
 50
89.999126
 51
180.0
  0
ARC
  5
2BF
100
AcDbEntity
  8
M0
100
AcDbCircle
 10
238.169385
 20
581.510422
 40
1.0
100
AcDbArc
 50
-90.000874
 51
0.0
  0
LINE
  5
2C0
100
AcDbEntity
  8
M0
100
AcDbLine
 10
239.169385
 20
586.778229
 11
239.169385
 21
581.510422
  0
LINE
  5
2C1
100
AcDbEntity
  8
M0
100
AcDbLine
 10
240.169385
 20
592.509934
 11
253.169431
 21
592.509934
  0
ARC
  5
2C2
100
AcDbEntity
  8
M0
100
AcDbCircle
 10
187.669437
 20
681.009186
 40
1.0
100
AcDbArc
 50
90.0
 51
180.013988
  0
ARC
  5
2C3
100
AcDbEntity
  8
M0
100
AcDbCircle
 10
196.669437
 20
681.009186
 40
1.0
100
AcDbArc
 50
0.0
 51
90.0
  0
LINE
  5
2C4
100
AcDbEntity
  8
M0
100
AcDbLine
 10
186.169447
 20
679.509431
 11
169.169508
 21
679.509431
  0
LINE
  5
2C5
100
AcDbEntity
  8
M0
100
AcDbLine
 10
196.669437
 20
682.009431
 11
187.669437
 21
682.009431
  0
LINE
  5
2C6
100
AcDbEntity
  8
M0
100
AcDbLine
 10
240.169431
 20
667.509919
 11
253.169431
 21
667.509919
  0
ARC
  5
2C7
100
AcDbEntity
  8
M0
100
AcDbCircle
 10
238.169431
 20
678.509431
 40
1.0
100
AcDbArc
 50
0.0
 51
90.0
  0
LINE
  5
2C8
100
AcDbEntity
  8
M0
100
AcDbLine
 10
239.169431
 20
673.242142
 11
239.169431
 21
678.509431
  0
LINE
  5
2C9
100
AcDbEntity
  8
M0
  6
DASHDOT
100
AcDbLine
 10
146.838239
 20
630.009919
 11
203.669437
 21
630.009919
  0
LINE
  5
2CA
100
AcDbEntity
  8
M0
100
AcDbLine
 10
153.669447
 20
667.009186
 11
153.669447
 21
593.009919
  0
LINE
  5
2CB
100
AcDbEntity
  8
M0
100
AcDbLine
 10
238.169431
 20
679.509675
 11
209.169262
 21
679.509492
  0
LINE
  5
2CC
100
AcDbEntity
  8
M0
100
AcDbLine
 10
253.669431
 20
593.009919
 11
253.669431
 21
667.009919
  0
LINE
  5
2CD
100
AcDbEntity
  8
M0
100
AcDbLine
 10
165.669447
 20
636.509675
 11
165.669447
 21
655.509675
  0
LINE
  5
2CE
100
AcDbEntity
  8
M0
100
AcDbLine
 10
157.669447
 20
636.509675
 11
157.669447
 21
657.009675
  0
ARC
  5
2CF
100
AcDbEntity
  8
M0
100
AcDbCircle
 10
164.669447
 20
636.509675
 40
1.0
100
AcDbArc
 50
-90.0
 51
0.0
  0
ARC
  5
2D0
100
AcDbEntity
  8
M0
100
AcDbCircle
 10
166.169447
 20
614.00992
 40
0.5
100
AcDbArc
 50
179.999891
 51
270.0
  0
ARC
  5
2D1
100
AcDbEntity
  8
M0
100
AcDbCircle
 10
164.669447
 20
623.50992
 40
1.0
100
AcDbArc
 50
0.0
 51
89.999126
  0
LINE
  5
2D2
100
AcDbEntity
  8
M0
100
AcDbLine
 10
157.669447
 20
623.50992
 11
157.669447
 21
603.009934
  0
LINE
  5
2D3
100
AcDbEntity
  8
M0
100
AcDbLine
 10
165.669447
 20
623.50992
 11
165.669447
 21
604.509934
  0
LINE
  5
2D4
100
AcDbEntity
  8
M0
  6
DASHDOT
100
AcDbLine
 10
161.669447
 20
603.009934
 11
161.669447
 21
617.00992
  0
LINE
  5
2D5
100
AcDbEntity
  8
M0
  6
DASHDOT
100
AcDbLine
 10
154.669447
 20
610.009934
 11
168.669447
 21
610.009934
  0
LINE
  5
2D6
100
AcDbEntity
  8
M0
100
AcDbLine
 10
186.66934
 20
681.009186
 11
186.66934
 21
679.509675
  0
LINE
  5
2D7
100
AcDbEntity
  8
M0
100
AcDbLine
 10
197.66933
 20
681.023591
 11
197.66933
 21
679.509675
  0
LINE
  5
2D8
100
AcDbEntity
  8
M0
  6
DASHDOT
100
AcDbLine
 10
196.869205
 20
588.010178
 11
210.469195
 21
588.010178
  0
LINE
  5
2D9
100
AcDbEntity
  8
M0
  6
DASHDOT
100
AcDbLine
 10
196.869251
 20
672.009675
 11
210.469241
 21
672.009675
  0
LINE
  5
2DA
100
AcDbEntity
  8
M0
  6
DASHDOT
100
AcDbLine
 10
187.469434
 20
588.009934
 11
173.869443
 21
588.009934
  0
LINE
  5
2DB
100
AcDbEntity
  8
M0
  6
DASHDOT
100
AcDbLine
 10
187.46948
 20
672.009919
 11
173.869489
 21
672.009919
  0
LINE
  5
2DC
100
AcDbEntity
  8
M0
  6
DASHDOT
100
AcDbLine
 10
219.869382
 20
588.009934
 11
233.469373
 21
588.009934
  0
LINE
  5
2DD
100
AcDbEntity
  8
M0
  6
DASHDOT
100
AcDbLine
 10
219.869428
 20
672.009919
 11
233.469419
 21
672.009919
  0
LINE
  5
2DE
100
AcDbEntity
  8
M0
100
AcDbLine
 10
250.169462
 20
627.259676
 11
250.169462
 21
626.259676
  0
LINE
  5
2DF
100
AcDbEntity
  8
M0
100
AcDbLine
 10
250.169462
 20
633.759675
 11
250.169462
 21
632.759675
  0
LINE
  5
2E0
100
AcDbEntity
  8
M0
100
AcDbLine
 10
157.169447
 20
627.25992
 11
157.169447
 21
626.25992
  0
LINE
  5
2E1
100
AcDbEntity
  8
M0
100
AcDbLine
 10
157.169447
 20
633.759919
 11
157.169447
 21
632.759919
  0
ARC
  5
2E2
100
AcDbEntity
  8
M0
100
AcDbCircle
 10
197.169376
 20
585.509934
 40
0.5
100
AcDbArc
 50
0.0
 51
90.0
  0
ARC
  5
2E3
100
AcDbEntity
  8
M0
100
AcDbCircle
 10
197.169376
 20
583.509934
 40
0.5
100
AcDbArc
 50
270.0
 51
360.0
  0
ARC
  5
2E4
100
AcDbEntity
  8
M0
100
AcDbCircle
 10
194.369373
 20
582.509934
 40
0.5
100
AcDbArc
 50
90.0
 51
179.998251
  0
ARC
  5
2E5
100
AcDbEntity
  8
M0
100
AcDbCircle
 10
210.169436
 20
674.509919
 40
0.5
100
AcDbArc
 50
180.0
 51
270.0
  0
ARC
  5
2E6
100
AcDbEntity
  8
M0
100
AcDbCircle
 10
210.169436
 20
676.509675
 40
0.5
100
AcDbArc
 50
90.0
 51
180.0
  0
ARC
  5
2E7
100
AcDbEntity
  8
M0
100
AcDbCircle
 10
212.969424
 20
677.509675
 40
0.5
100
AcDbArc
 50
270.0
 51
360.0
  0
LINE
  5
2E8
100
AcDbEntity
  8
M0
100
AcDbLine
 10
210.169436
 20
677.009675
 11
212.969424
 21
677.009675
  0
LINE
  5
2E9
100
AcDbEntity
  8
M0
100
AcDbLine
 10
213.469424
 20
679.509431
 11
213.469424
 21
677.509675
  0
ARC
  5
2EA
100
AcDbEntity
  8
M0
100
AcDbCircle
 10
186.169447
 20
679.009186
 40
0.5
100
AcDbArc
 50
0.0
 51
89.998251
  0
ARC
  5
2EB
100
AcDbEntity
  8
M0
100
AcDbCircle
 10
198.169437
 20
679.009431
 40
0.5
100
AcDbArc
 50
90.0
 51
180.0
  0
LINE
  5
2EC
100
AcDbEntity
  8
M0
  6
DASHDOT
100
AcDbLine
 10
203.669437
 20
630.009919
 11
264.237867
 21
630.009919
  0
LINE
  5
2ED
100
AcDbEntity
  8
M0
100
AcDbLine
 10
193.869373
 20
582.509934
 11
193.869373
 21
580.509934
  0
LINE
  5
2EE
100
AcDbEntity
  8
M0
100
AcDbLine
 10
194.369373
 20
583.009934
 11
197.169376
 21
583.009934
  0
LINE
  5
2EF
100
AcDbEntity
  8
M0
100
AcDbLine
 10
169.169492
 20
580.509934
 11
172.462751
 21
580.509934
  0
LINE
  5
2F0
100
AcDbEntity
  8
M0
100
AcDbLine
 10
211.99769
 20
578.009934
 11
219.66937
 21
578.009934
  0
LINE
  5
2F1
100
AcDbEntity
  8
M0
100
AcDbLine
 10
221.16937
 20
580.509934
 11
231.066343
 21
580.509934
  0
LINE
  5
2F2
100
AcDbEntity
  8
M0
100
AcDbLine
 10
249.669462
 20
627.259676
 11
249.669462
 21
626.259676
  0
LINE
  5
2F3
100
AcDbEntity
  8
M0
100
AcDbLine
 10
253.669462
 20
627.259676
 11
249.669462
 21
627.259676
  0
LINE
  5
2F4
100
AcDbEntity
  8
M0
100
AcDbLine
 10
253.669462
 20
626.259676
 11
246.669462
 21
626.259676
  0
ARC
  5
2F5
100
AcDbEntity
  8
M0
100
AcDbCircle
 10
246.669462
 20
627.259676
 40
1.0
100
AcDbArc
 50
179.999945
 51
269.999126
  0
LINE
  5
2F6
100
AcDbEntity
  8
M0
100
AcDbLine
 10
245.669462
 20
632.759675
 11
245.669462
 21
627.259676
  0
ARC
  5
2F7
100
AcDbEntity
  8
M0
100
AcDbCircle
 10
246.669462
 20
632.759675
 40
1.0
100
AcDbArc
 50
90.0
 51
180.0
  0
LINE
  5
2F8
100
AcDbEntity
  8
M0
100
AcDbLine
 10
249.669462
 20
633.759675
 11
249.669462
 21
632.759675
  0
LINE
  5
2F9
100
AcDbEntity
  8
M0
100
AcDbLine
 10
253.669462
 20
632.759675
 11
249.669462
 21
632.759675
  0
LINE
  5
2FA
100
AcDbEntity
  8
M0
100
AcDbLine
 10
253.669462
 20
633.759675
 11
246.669462
 21
633.759675
  0
LINE
  5
2FB
100
AcDbEntity
  8
M0
100
AcDbLine
 10
157.669447
 20
627.25992
 11
157.669447
 21
626.25992
  0
LINE
  5
2FC
100
AcDbEntity
  8
M0
100
AcDbLine
 10
153.669447
 20
627.25992
 11
157.669447
 21
627.25992
  0
LINE
  5
2FD
100
AcDbEntity
  8
M0
100
AcDbLine
 10
153.669447
 20
632.759919
 11
157.669447
 21
632.759919
  0
LINE
  5
2FE
100
AcDbEntity
  8
M0
100
AcDbLine
 10
157.669447
 20
633.759919
 11
157.669447
 21
632.759919
  0
ARC
  5
2FF
100
AcDbEntity
  8
M0
100
AcDbCircle
 10
160.669447
 20
632.759919
 40
1.0
100
AcDbArc
 50
0.0
 51
89.999126
  0
ARC
  5
300
100
AcDbEntity
  8
M0
100
AcDbCircle
 10
160.669447
 20
627.25992
 40
1.0
100
AcDbArc
 50
270.0
 51
360.0
  0
LINE
  5
301
100
AcDbEntity
  8
M0
100
AcDbLine
 10
161.669447
 20
632.759919
 11
161.669447
 21
627.25992
  0
LINE
  5
302
100
AcDbEntity
  8
M0
100
AcDbLine
 10
153.669447
 20
626.25992
 11
160.669447
 21
626.25992
  0
LINE
  5
303
100
AcDbEntity
  8
M0
100
AcDbLine
 10
153.669447
 20
633.759919
 11
160.669447
 21
633.759919
  0
ARC
  5
304
100
AcDbEntity
  8
M0
100
AcDbCircle
 10
253.169431
 20
603.00969
 40
0.5
100
AcDbArc
 50
-90.001749
 51
0.0
  0
ARC
  5
305
100
AcDbEntity
  8
M0
100
AcDbCircle
 10
250.169431
 20
657.009919
 40
0.5
100
AcDbArc
 50
90.0
 51
180.0
  0
LINE
  5
306
100
AcDbEntity
  8
M0
100
AcDbLine
 10
249.669431
 20
655.509919
 11
240.169447
 21
655.509919
  0
ARC
  5
307
100
AcDbEntity
  8
M0
100
AcDbCircle
 10
253.169431
 20
647.009919
 40
0.5
100
AcDbArc
 50
0.0
 51
90.0
  0
LINE
  5
308
100
AcDbEntity
  8
M0
100
AcDbLine
 10
253.169431
 20
647.509919
 11
250.169431
 21
647.509919
  0
ARC
  5
309
100
AcDbEntity
  8
M0
100
AcDbCircle
 10
250.169431
 20
647.009919
 40
0.5
100
AcDbArc
 50
90.0
 51
180.0
  0
LINE
  5
30A
100
AcDbEntity
  8
M0
100
AcDbLine
 10
241.169431
 20
646.509919
 11
240.169447
 21
646.509919
  0
LINE
  5
30B
100
AcDbEntity
  8
M0
100
AcDbLine
 10
249.669431
 20
644.509919
 11
248.611661
 21
644.509919
  0
LINE
  5
30C
100
AcDbEntity
  8
M0
100
AcDbLine
 10
253.669431
 20
595.009904
 11
251.169431
 21
595.009919
  0
LINE
  5
30D
100
AcDbEntity
  8
M0
100
AcDbLine
 10
251.169431
 20
602.50969
 11
251.169431
 21
592.509919
  0
LINE
  5
30E
100
AcDbEntity
  8
M0
100
AcDbLine
 10
253.169431
 20
602.50969
 11
250.169431
 21
602.50969
  0
ARC
  5
30F
100
AcDbEntity
  8
M0
100
AcDbCircle
 10
250.169431
 20
603.00969
 40
0.5
100
AcDbArc
 50
179.998251
 51
269.998251
  0
ARC
  5
310
100
AcDbEntity
  8
M0
100
AcDbCircle
 10
203.669254
 20
672.009675
 40
1.799999
100
AcDbArc
 50
56.465811
 51
123.534184
  0
ARC
  5
311
100
AcDbEntity
  8
M0
100
AcDbCircle
 10
203.669254
 20
672.009675
 40
2.799999
100
AcDbArc
 50
32.402011
 51
147.597983
  0
ARC
  5
312
100
AcDbEntity
  8
M0
100
AcDbCircle
 10
180.669477
 20
672.009919
 40
1.799999
100
AcDbArc
 50
56.451647
 51
123.548353
  0
ARC
  5
313
100
AcDbEntity
  8
M0
100
AcDbCircle
 10
180.669477
 20
672.009919
 40
2.799999
100
AcDbArc
 50
32.395997
 51
147.603835
  0
ARC
  5
314
100
AcDbEntity
  8
M0
100
AcDbCircle
 10
226.669385
 20
588.009934
 40
1.799999
100
AcDbArc
 50
236.420125
 51
303.57947
  0
ARC
  5
315
100
AcDbEntity
  8
M0
100
AcDbCircle
 10
226.669385
 20
588.009934
 40
2.799999
100
AcDbArc
 50
212.382826
 51
327.617007
  0
ARC
  5
316
100
AcDbEntity
  8
M0
100
AcDbCircle
 10
203.669208
 20
588.010178
 40
2.799999
100
AcDbArc
 50
212.388762
 51
327.610949
  0
ARC
  5
317
100
AcDbEntity
  8
M0
100
AcDbCircle
 10
203.669208
 20
588.010178
 40
1.799999
100
AcDbArc
 50
236.43432
 51
303.565645
  0
ARC
  5
318
100
AcDbEntity
  8
M0
100
AcDbCircle
 10
180.669431
 20
588.009934
 40
1.799999
100
AcDbArc
 50
236.42053
 51
303.579875
  0
ARC
  5
319
100
AcDbEntity
  8
M0
100
AcDbCircle
 10
180.669431
 20
588.009934
 40
2.799999
100
AcDbArc
 50
212.382993
 51
327.617174
  0
LINE
  5
31A
100
AcDbEntity
  8
M0
100
AcDbLine
 10
248.58093
 20
605.910569
 11
249.669401
 21
605.910569
  0
LINE
  5
31B
100
AcDbEntity
  8
M0
100
AcDbLine
 10
242.726743
 20
615.509676
 11
241.669431
 21
615.509676
  0
LINE
  5
31C
100
AcDbEntity
  8
M0
100
AcDbLine
 10
242.726698
 20
644.509919
 11
241.669431
 21
644.509919
  0
LINE
  5
31D
100
AcDbEntity
  8
M0
100
AcDbLine
 10
248.580839
 20
654.109284
 11
249.669431
 21
654.109284
  0
LINE
  5
31E
100
AcDbEntity
  8
M0
100
AcDbLine
 10
158.757352
 20
605.910569
 11
157.669477
 21
605.910569
  0
LINE
  5
31F
100
AcDbEntity
  8
M0
100
AcDbLine
 10
164.611677
 20
615.50992
 11
165.669447
 21
615.50992
  0
LINE
  5
320
100
AcDbEntity
  8
M0
100
AcDbLine
 10
164.6116
 20
644.509919
 11
165.669477
 21
644.509919
  0
LINE
  5
321
100
AcDbEntity
  8
M0
100
AcDbLine
 10
158.757429
 20
654.109284
 11
157.669477
 21
654.109284
  0
LINE
  5
322
100
AcDbEntity
  8
M0
100
AcDbLine
 10
197.669376
 20
585.509919
 11
197.669376
 21
583.509919
  0
LINE
  5
323
100
AcDbEntity
  8
M0
100
AcDbLine
 10
209.669436
 20
676.509675
 11
209.669436
 21
674.509919
  0
ARC
  5
324
100
AcDbEntity
  8
M0
100
AcDbCircle
 10
209.169375
 20
581.009934
 40
0.5
100
AcDbArc
 50
270.0
 51
360.0
  0
ARC
  5
325
100
AcDbEntity
  8
M0
100
AcDbCircle
 10
221.16937
 20
581.009934
 40
0.5
100
AcDbArc
 50
179.998251
 51
269.998251
  0
LINE
  5
326
100
AcDbEntity
  8
M0
100
AcDbLine
 10
157.669477
 20
644.509919
 11
158.726789
 21
644.509919
  0
LINE
  5
327
100
AcDbEntity
  8
M0
  6
DASHDOT
100
AcDbLine
 10
192.16933
 20
665.184724
 11
192.16933
 21
682.83487
  0
LINE
  5
328
100
AcDbEntity
  8
M0
  6
DASHDOT
100
AcDbLine
 10
183.344328
 20
674.009919
 11
200.994327
 21
674.009919
  0
LINE
  5
329
100
AcDbEntity
  8
M0
  6
DASHDOT
100
AcDbLine
 10
206.344317
 20
586.009934
 11
223.994321
 21
586.009934
  0
LINE
  5
32A
100
AcDbEntity
  8
M0
  6
DASHDOT
100
AcDbLine
 10
248.169462
 20
660.009431
 11
240.169462
 21
660.009431
  0
LINE
  5
32B
100
AcDbEntity
  8
M0
  6
DASHDOT
100
AcDbLine
 10
163.169447
 20
592.759934
 11
163.169447
 21
607.259934
  0
LINE
  5
32C
100
AcDbEntity
  8
M0
  6
DASHDOT
100
AcDbLine
 10
155.919447
 20
600.009934
 11
170.419447
 21
600.009934
  0
LINE
  5
32D
100
AcDbEntity
  8
M0
  6
DASHDOT
100
AcDbLine
 10
252.669431
 20
640.509431
 11
238.669431
 21
640.509431
  0
LINE
  5
32E
100
AcDbEntity
  8
M0
  6
DASHDOT
100
AcDbLine
 10
252.669431
 20
640.509919
 11
238.669431
 21
640.509919
  0
ARC
  5
32F
100
AcDbEntity
  8
M0
100
AcDbCircle
 10
248.669431
 20
636.509919
 40
1.0
100
AcDbArc
 50
269.999126
 51
360.0
  0
LINE
  5
330
100
AcDbEntity
  8
M0
100
AcDbLine
 10
248.669462
 20
635.509919
 11
242.669462
 21
635.509919
  0
LINE
  5
331
100
AcDbEntity
  8
M0
  6
DASHDOT
100
AcDbLine
 10
252.669431
 20
619.509676
 11
238.669431
 21
619.509676
  0
LINE
  5
332
100
AcDbEntity
  8
M0
100
AcDbLine
 10
248.669462
 20
624.509676
 11
242.669462
 21
624.509676
  0
ARC
  5
333
100
AcDbEntity
  8
M0
100
AcDbCircle
 10
248.669431
 20
623.509676
 40
1.0
100
AcDbArc
 50
0.0
 51
90.0
  0
LINE
  5
334
100
AcDbEntity
  8
M0
  6
DASHDOT
100
AcDbLine
 10
154.669447
 20
640.509675
 11
168.669447
 21
640.509675
  0
LINE
  5
335
100
AcDbEntity
  8
M0
  6
DASHDOT
100
AcDbLine
 10
161.669447
 20
647.509675
 11
161.669447
 21
633.509675
  0
ARC
  5
336
100
AcDbEntity
  8
M0
100
AcDbCircle
 10
158.669447
 20
636.509675
 40
1.0
100
AcDbArc
 50
180.0
 51
270.0
  0
LINE
  5
337
100
AcDbEntity
  8
M0
100
AcDbLine
 10
158.669447
 20
635.509675
 11
164.669447
 21
635.509675
  0
ARC
  5
338
100
AcDbEntity
  8
M0
100
AcDbCircle
 10
158.669447
 20
623.50992
 40
1.0
100
AcDbArc
 50
89.999126
 51
179.999945
  0
LINE
  5
339
100
AcDbEntity
  8
M0
100
AcDbLine
 10
158.669447
 20
624.50992
 11
164.669447
 21
624.50992
  0
LINE
  5
33A
100
AcDbEntity
  8
M0
  6
DASHDOT
100
AcDbLine
 10
161.669447
 20
612.509934
 11
161.669447
 21
626.50992
  0
LINE
  5
33B
100
AcDbEntity
  8
M0
  6
DASHDOT
100
AcDbLine
 10
154.669447
 20
619.50992
 11
168.669447
 21
619.50992
  0
LINE
  5
33C
100
AcDbEntity
  8
M0
100
AcDbLine
 10
165.669477
 20
605.910569
 11
164.581037
 21
605.910569
  0
LINE
  5
33D
100
AcDbEntity
  8
M0
100
AcDbLine
 10
165.669477
 20
654.109284
 11
164.580961
 21
654.109284
  0
ARC
  5
33E
100
AcDbEntity
  8
M0
100
AcDbCircle
 10
241.169431
 20
646.009919
 40
0.5
100
AcDbArc
 50
0.0
 51
90.0
  0
LINE
  5
33F
100
AcDbEntity
  8
M0
100
AcDbLine
 10
241.669431
 20
636.509919
 11
241.669431
 21
655.509919
  0
LINE
  5
340
100
AcDbEntity
  8
M0
100
AcDbLine
 10
241.669401
 20
605.910569
 11
242.757551
 21
605.910569
  0
LINE
  5
341
100
AcDbEntity
  8
M0
100
AcDbLine
 10
241.669431
 20
654.109284
 11
242.757474
 21
654.109284
  0
LINE
  5
342
100
AcDbEntity
  8
M0
  6
DASHDOT
100
AcDbLine
 10
252.669401
 20
610.010422
 11
238.669401
 21
610.010422
  0
LINE
  5
343
100
AcDbEntity
  8
M0
  6
DASHDOT
100
AcDbLine
 10
252.669431
 20
650.009431
 11
238.669431
 21
650.009431
  0
LINE
  5
344
100
AcDbEntity
  8
M0
100
AcDbLine
 10
241.669431
 20
636.509919
 11
241.669431
 21
655.509919
  0
LINE
  5
345
100
AcDbEntity
  8
M0
100
AcDbLine
 10
249.669431
 20
636.509919
 11
249.669431
 21
657.009919
  0
LINE
  5
346
100
AcDbEntity
  8
M0
100
AcDbLine
 10
241.669431
 20
636.509919
 11
241.669431
 21
655.509919
  0
ARC
  5
347
100
AcDbEntity
  8
M0
100
AcDbCircle
 10
242.669431
 20
636.509919
 40
1.0
100
AcDbArc
 50
180.0
 51
269.999126
  0
ARC
  5
348
100
AcDbEntity
  8
M0
100
AcDbCircle
 10
241.169431
 20
614.00969
 40
0.5
100
AcDbArc
 50
-90.001749
 51
0.0
  0
LINE
  5
349
100
AcDbEntity
  8
M0
100
AcDbLine
 10
241.669431
 20
623.509676
 11
241.669431
 21
604.50969
  0
LINE
  5
34A
100
AcDbEntity
  8
M0
100
AcDbLine
 10
249.669431
 20
623.509676
 11
249.669431
 21
603.00969
  0
LINE
  5
34B
100
AcDbEntity
  8
M0
  6
DASHDOT
100
AcDbLine
 10
161.669447
 20
657.009675
 11
161.669447
 21
643.009675
  0
ARC
  5
34C
100
AcDbEntity
  8
M0
100
AcDbCircle
 10
242.669431
 20
623.509676
 40
1.0
100
AcDbArc
 50
90.0
 51
179.999945
  0
ARC
  5
34D
100
AcDbEntity
  8
M0
100
AcDbCircle
 10
166.169447
 20
646.009675
 40
0.5
100
AcDbArc
 50
89.998251
 51
180.0
  0
LINE
  5
34E
100
AcDbEntity
  8
M0
  6
DASHDOT
100
AcDbLine
 10
154.669447
 20
650.009675
 11
168.669447
 21
650.009675
  0
ARC
  5
34F
100
AcDbEntity
  8
M0
100
AcDbCircle
 10
226.669431
 20
672.009919
 40
1.799999
100
AcDbArc
 50
56.452052
 51
123.548757
  0
ARC
  5
350
100
AcDbEntity
  8
M0
100
AcDbCircle
 10
226.669431
 20
672.009919
 40
2.799999
100
AcDbArc
 50
32.396165
 51
147.604003
  0
LINE
  5
351
100
AcDbEntity
  8
M0
100
AcDbLine
 10
211.969225
 20
619.809919
 11
211.669229
 21
619.809919
  0
ARC
  5
352
100
AcDbEntity
  8
M0
100
AcDbCircle
 10
195.369226
 20
616.809919
 40
3.0
100
AcDbArc
 50
84.260699
 51
179.999964
  0
ARC
  5
353
100
AcDbEntity
  8
M0
100
AcDbCircle
 10
211.969225
 20
616.809919
 40
3.0
100
AcDbArc
 50
0.0
 51
90.0
  0
LINE
  5
354
100
AcDbEntity
  8
M0
100
AcDbLine
 10
192.369226
 20
613.809922
 11
214.969225
 21
613.809922
  0
LINE
  5
355
100
AcDbEntity
  8
M0
100
AcDbLine
 10
192.369226
 20
616.809919
 11
192.369226
 21
613.809922
  0
LINE
  5
356
100
AcDbEntity
  8
M0
100
AcDbLine
 10
214.969225
 20
613.809922
 11
214.969225
 21
616.809919
  0
LINE
  5
357
100
AcDbEntity
  8
M0
100
AcDbLine
 10
195.66923
 20
623.809919
 11
195.36923
 21
623.809919
  0
LINE
  5
358
100
AcDbEntity
  8
M0
100
AcDbLine
 10
207.669236
 20
640.109918
 11
211.969234
 21
640.109918
  0
ARC
  5
359
100
AcDbEntity
  8
M0
100
AcDbCircle
 10
211.969228
 20
626.809919
 40
3.0
100
AcDbArc
 50
270.0
 51
360.0
  0
ARC
  5
35A
100
AcDbEntity
  8
M0
100
AcDbCircle
 10
195.36923
 20
626.809919
 40
3.0
100
AcDbArc
 50
179.999964
 51
270.0
  0
ARC
  5
35B
100
AcDbEntity
  8
M0
100
AcDbCircle
 10
195.369235
 20
637.109918
 40
3.0
100
AcDbArc
 50
90.0
 51
179.999982
  0
ARC
  5
35C
100
AcDbEntity
  8
M0
100
AcDbCircle
 10
211.969234
 20
637.109918
 40
3.0
100
AcDbArc
 50
0.0
 51
90.0
  0
LINE
  5
35D
100
AcDbEntity
  8
M0
100
AcDbLine
 10
201.169238
 20
642.509919
 11
199.669238
 21
642.509919
  0
LINE
  5
35E
100
AcDbEntity
  8
M0
100
AcDbLine
 10
201.169238
 20
641.809918
 11
199.669238
 21
641.809918
  0
LINE
  5
35F
100
AcDbEntity
  8
M0
100
AcDbLine
 10
207.669237
 20
642.509919
 11
206.169237
 21
642.509919
  0
LINE
  5
360
100
AcDbEntity
  8
M0
100
AcDbLine
 10
207.669237
 20
641.809918
 11
206.169237
 21
641.809918
  0
ARC
  5
361
100
AcDbEntity
  8
M0
100
AcDbCircle
 10
202.16924
 20
644.809918
 40
1.0
100
AcDbArc
 50
90.0
 51
180.0
  0
ARC
  5
362
100
AcDbEntity
  8
M0
100
AcDbCircle
 10
205.169239
 20
644.809918
 40
1.0
100
AcDbArc
 50
0.0
 51
90.0
  0
LINE
  5
363
100
AcDbEntity
  8
M0
100
AcDbLine
 10
199.669238
 20
642.509919
 11
199.669237
 21
640.109918
  0
LINE
  5
364
100
AcDbEntity
  8
M0
100
AcDbLine
 10
207.669237
 20
642.509919
 11
207.669236
 21
640.109918
  0
LINE
  5
365
100
AcDbEntity
  8
M0
100
AcDbLine
 10
201.16924
 20
644.809919
 11
201.169238
 21
641.809918
  0
LINE
  5
366
100
AcDbEntity
  8
M0
100
AcDbLine
 10
206.169239
 20
644.809918
 11
206.169237
 21
641.809918
  0
LINE
  5
367
100
AcDbEntity
  8
M0
100
AcDbLine
 10
192.369235
 20
637.10992
 11
192.36923
 21
626.809921
  0
LINE
  5
368
100
AcDbEntity
  8
M0
100
AcDbLine
 10
214.969234
 20
637.109916
 11
214.969228
 21
626.809918
  0
LINE
  5
369
100
AcDbEntity
  8
M0
100
AcDbLine
 10
202.16924
 20
645.809918
 11
205.169239
 21
645.809918
  0
LINE
  5
36A
100
AcDbEntity
  8
M0
100
AcDbLine
 10
195.369235
 20
640.109918
 11
199.669237
 21
640.109918
  0
LINE
  5
36B
100
AcDbEntity
  8
M0
100
AcDbLine
 10
195.66923
 20
623.809919
 11
195.66923
 21
619.809919
  0
LINE
  5
36C
100
AcDbEntity
  8
M0
100
AcDbLine
 10
211.969228
 20
623.809919
 11
211.669229
 21
623.809919
  0
LINE
  5
36D
100
AcDbEntity
  8
M0
100
AcDbLine
 10
211.669229
 20
619.809919
 11
211.669229
 21
623.809919
  0
LINE
  5
36E
100
AcDbEntity
  8
M0
100
AcDbLine
 10
198.169263
 20
679.509919
 11
176.669263
 21
679.509919
  0
LINE
  5
36F
100
AcDbEntity
  8
M0
100
AcDbLine
 10
153.919263
 20
592.509904
 11
153.919263
 21
575.009934
  0
LINE
  5
370
100
AcDbEntity
  8
M0
100
AcDbLine
 10
253.419248
 20
667.443024
 11
253.419248
 21
685.009919
  0
LINE
  5
371
100
AcDbEntity
  8
M0
  6
DASHDOT
100
AcDbLine
 10
161.669263
 20
562.259934
 11
161.669263
 21
587.759934
  0
LINE
  5
372
100
AcDbEntity
  8
M0
  6
DASHDOT
100
AcDbLine
 10
147.669263
 20
575.009934
 11
175.669263
 21
575.009934
  0
LINE
  5
373
100
AcDbEntity
  8
M0
100
AcDbLine
 10
160.419263
 20
572.259934
 11
160.669233
 21
572.259934
  0
ARC
  5
374
100
AcDbEntity
  8
M0
100
AcDbCircle
 10
160.419263
 20
575.009934
 40
2.75
100
AcDbArc
 50
89.999682
 51
270.0
  0
LINE
  5
375
100
AcDbEntity
  8
M0
  6
DASHDOT
100
AcDbLine
 10
245.669248
 20
672.259919
 11
245.669248
 21
697.759919
  0
LINE
  5
376
100
AcDbEntity
  8
M0
  6
DASHDOT
100
AcDbLine
 10
231.669248
 20
685.009919
 11
259.669248
 21
685.009919
  0
LINE
  5
377
100
AcDbEntity
  8
M0
100
AcDbLine
 10
244.717329
 20
682.259919
 11
246.919248
 21
682.259919
  0
LINE
  5
378
100
AcDbEntity
  8
M0
100
AcDbLine
 10
246.919248
 20
687.759919
 11
246.669248
 21
687.759919
  0
ARC
  5
379
100
AcDbEntity
  8
M0
100
AcDbCircle
 10
246.919248
 20
685.009919
 40
2.75
100
AcDbArc
 50
269.999682
 51
450.0
  0
LINE
  5
37A
100
AcDbEntity
  8
M0
100
AcDbLine
 10
230.669248
 20
580.509934
 11
176.669263
 21
580.509934
  0
LINE
  5
37B
100
AcDbEntity
  8
M0
100
AcDbLine
 10
230.669248
 20
679.509919
 11
209.169262
 21
679.509919
  0
ARC
  5
37C
100
AcDbEntity
  8
M0
100
AcDbCircle
 10
246.419248
 20
575.009934
 40
7.0
100
AcDbArc
 50
269.999875
 51
360.0
  0
LINE
  5
37D
100
AcDbEntity
  8
M0
100
AcDbLine
 10
253.419248
 20
575.009934
 11
253.419248
 21
592.576813
  0
ARC
  5
37E
100
AcDbEntity
  8
M0
100
AcDbCircle
 10
160.919263
 20
575.009934
 40
7.0
100
AcDbArc
 50
179.999875
 51
270.0
  0
LINE
  5
37F
100
AcDbEntity
  8
M0
100
AcDbLine
 10
153.919263
 20
685.009919
 11
153.919263
 21
667.509431
  0
ARC
  5
380
100
AcDbEntity
  8
M0
100
AcDbCircle
 10
160.919263
 20
685.009919
 40
7.0
100
AcDbArc
 50
89.999875
 51
180.0
  0
ARC
  5
381
100
AcDbEntity
  8
M0
100
AcDbCircle
 10
203.669263
 20
672.009919
 40
2.0
100
AcDbArc
 50
48.597115
 51
131.402865
  0
LINE
  5
382
100
AcDbEntity
  8
M0
  6
DASHDOT
100
AcDbLine
 10
216.669262
 20
690.009919
 11
190.669263
 21
690.009919
  0
LINE
  5
383
100
AcDbEntity
  8
M0
100
AcDbLine
 10
209.169262
 20
673.510071
 11
209.169262
 21
679.560853
  0
LINE
  5
384
100
AcDbEntity
  8
M0
100
AcDbLine
 10
198.169263
 20
679.009812
 11
198.169263
 21
679.560853
  0
LINE
  5
385
100
AcDbEntity
  8
M0
100
AcDbLine
 10
213.669262
 20
684.009919
 11
213.669262
 21
698.009919
  0
LINE
  5
386
100
AcDbEntity
  8
M0
100
AcDbLine
 10
209.5049
 20
680.308259
 11
213.669262
 21
684.009919
  0
LINE
  5
387
100
AcDbEntity
  8
M0
100
AcDbLine
 10
193.669263
 20
698.009919
 11
193.669263
 21
684.009919
  0
ARC
  5
388
100
AcDbEntity
  8
M0
100
AcDbCircle
 10
210.169262
 20
679.560853
 40
1.0
100
AcDbArc
 50
131.633707
 51
180.0
  0
ARC
  5
389
100
AcDbEntity
  8
M0
100
AcDbCircle
 10
197.169263
 20
679.560853
 40
1.0
100
AcDbArc
 50
0.0
 51
48.366252
  0
LINE
  5
38A
100
AcDbEntity
  8
M0
100
AcDbLine
 10
197.833627
 20
680.308259
 11
193.669263
 21
684.009919
  0
LINE
  5
38B
100
AcDbEntity
  8
M0
  6
DASHDOT
100
AcDbLine
 10
203.669263
 20
547.092072
 11
203.669263
 21
708.009919
  0
LINE
  5
38C
100
AcDbEntity
  8
M0
100
AcDbLine
 10
213.669262
 20
698.009919
 11
193.669263
 21
698.009919
  0
ARC
  5
38D
100
AcDbEntity
  8
M0
100
AcDbCircle
 10
203.669263
 20
588.009934
 40
2.0
100
AcDbArc
 50
228.573469
 51
311.426511
  0
LINE
  5
38E
100
AcDbEntity
  8
M0
  6
DASHDOT
100
AcDbLine
 10
216.669262
 20
570.009934
 11
190.669263
 21
570.009934
  0
LINE
  5
38F
100
AcDbEntity
  8
M0
100
AcDbLine
 10
198.169263
 20
580.509934
 11
198.169263
 21
580.458985
  0
LINE
  5
390
100
AcDbEntity
  8
M0
100
AcDbLine
 10
213.669262
 20
576.009934
 11
213.669262
 21
562.009934
  0
LINE
  5
391
100
AcDbEntity
  8
M0
100
AcDbLine
 10
193.669263
 20
562.009934
 11
193.669263
 21
576.009934
  0
LINE
  5
392
100
AcDbEntity
  8
M0
100
AcDbLine
 10
220.66937
 20
579.009934
 11
220.66937
 21
580.509934
  0
ARC
  5
393
100
AcDbEntity
  8
M0
100
AcDbCircle
 10
226.669248
 20
672.009919
 40
2.0
100
AcDbArc
 50
48.596907
 51
131.403131
  0
LINE
  5
394
100
AcDbEntity
  8
M0
  6
DASHDOT
100
AcDbLine
 10
238.669248
 20
672.009919
 11
214.669262
 21
672.009919
  0
LINE
  5
395
100
AcDbEntity
  8
M0
  6
DASHDOT
100
AcDbLine
 10
226.669248
 20
660.009919
 11
226.669248
 21
684.009919
  0
LINE
  5
396
100
AcDbEntity
  8
M0
  6
DASHDOT
100
AcDbLine
 10
249.669248
 20
690.009919
 11
223.669248
 21
690.009919
  0
LINE
  5
397
100
AcDbEntity
  8
M0
  6
DASHDOT
100
AcDbLine
 10
236.669248
 20
677.009919
 11
236.669248
 21
703.009919
  0
LINE
  5
398
100
AcDbEntity
  8
M0
100
AcDbLine
 10
239.169431
 20
677.285935
 11
246.669248
 21
684.009919
  0
LINE
  5
399
100
AcDbEntity
  8
M0
100
AcDbLine
 10
226.669248
 20
698.009919
 11
226.669248
 21
684.009919
  0
LINE
  5
39A
100
AcDbEntity
  8
M0
100
AcDbLine
 10
246.669248
 20
684.009919
 11
246.669248
 21
698.009919
  0
LINE
  5
39B
100
AcDbEntity
  8
M0
100
AcDbLine
 10
223.575269
 20
679.509583
 11
226.669248
 21
684.009919
  0
LINE
  5
39C
100
AcDbEntity
  8
M0
100
AcDbLine
 10
161.63986
 20
577.759934
 11
160.419263
 21
577.759934
  0
LINE
  5
39D
100
AcDbEntity
  8
M0
100
AcDbLine
 10
195.169263
 20
577.343262
 11
193.669263
 21
576.009934
  0
LINE
  5
39E
100
AcDbEntity
  8
M0
100
AcDbLine
 10
212.169262
 20
577.343262
 11
213.669262
 21
576.009934
  0
ARC
  5
39F
100
AcDbEntity
  8
M0
100
AcDbCircle
 10
210.169262
 20
580.458985
 40
1.0
100
AcDbArc
 50
179.999126
 51
206.682982
  0
ARC
  5
3A0
100
AcDbEntity
  8
M0
100
AcDbCircle
 10
197.169263
 20
580.458985
 40
1.0
100
AcDbArc
 50
-26.683788
 51
0.0
  0
LINE
  5
3A1
100
AcDbEntity
  8
M0
100
AcDbLine
 10
213.669262
 20
562.009934
 11
211.569263
 21
562.009934
  0
ARC
  5
3A2
100
AcDbEntity
  8
M0
100
AcDbCircle
 10
246.419248
 20
685.009919
 40
7.0
100
AcDbArc
 50
0.0
 51
87.953285
  0
LINE
  5
3A3
100
AcDbEntity
  8
M0
100
AcDbLine
 10
246.669248
 20
698.009919
 11
226.669248
 21
698.009919
  0
ARC
  5
3A4
100
AcDbEntity
  8
M0
100
AcDbCircle
 10
180.669233
 20
672.009949
 40
2.0
100
AcDbArc
 50
48.595635
 51
131.404037
  0
LINE
  5
3A5
100
AcDbEntity
  8
M0
  6
DASHDOT
100
AcDbLine
 10
168.669233
 20
672.009949
 11
192.669223
 21
672.009949
  0
LINE
  5
3A6
100
AcDbEntity
  8
M0
  6
DASHDOT
100
AcDbLine
 10
180.669233
 20
660.009949
 11
180.669233
 21
684.009949
  0
LINE
  5
3A7
100
AcDbEntity
  8
M0
  6
DASHDOT
100
AcDbLine
 10
157.669233
 20
690.009949
 11
183.669233
 21
690.009949
  0
LINE
  5
3A8
100
AcDbEntity
  8
M0
  6
DASHDOT
100
AcDbLine
 10
170.669233
 20
677.009949
 11
170.669233
 21
703.009949
  0
LINE
  5
3A9
100
AcDbEntity
  8
M0
100
AcDbLine
 10
168.16905
 20
677.285966
 11
160.669233
 21
684.009949
  0
LINE
  5
3AA
100
AcDbEntity
  8
M0
100
AcDbLine
 10
180.669233
 20
698.009949
 11
180.669233
 21
684.009949
  0
LINE
  5
3AB
100
AcDbEntity
  8
M0
100
AcDbLine
 10
160.669233
 20
684.009949
 11
160.669233
 21
698.009949
  0
LINE
  5
3AC
100
AcDbEntity
  8
M0
100
AcDbLine
 10
183.763334
 20
679.509431
 11
180.669233
 21
684.009949
  0
LINE
  5
3AD
100
AcDbEntity
  8
M0
100
AcDbLine
 10
160.669233
 20
698.009949
 11
180.669233
 21
698.009949
  0
ARC
  5
3AE
100
AcDbEntity
  8
M0
100
AcDbCircle
 10
180.669233
 20
588.009888
 40
2.0
100
AcDbArc
 50
228.572112
 51
311.428216
  0
LINE
  5
3AF
100
AcDbEntity
  8
M0
  6
DASHDOT
100
AcDbLine
 10
168.669233
 20
588.009888
 11
192.669223
 21
588.009888
  0
LINE
  5
3B0
100
AcDbEntity
  8
M0
  6
DASHDOT
100
AcDbLine
 10
180.669233
 20
600.009888
 11
180.669233
 21
576.009888
  0
LINE
  5
3B1
100
AcDbEntity
  8
M0
  6
DASHDOT
100
AcDbLine
 10
157.669233
 20
570.009888
 11
183.669233
 21
570.009888
  0
LINE
  5
3B2
100
AcDbEntity
  8
M0
  6
DASHDOT
100
AcDbLine
 10
170.669233
 20
583.009888
 11
170.669233
 21
557.009888
  0
LINE
  5
3B3
100
AcDbEntity
  8
M0
100
AcDbLine
 10
180.669233
 20
562.009888
 11
180.669233
 21
576.009888
  0
LINE
  5
3B4
100
AcDbEntity
  8
M0
100
AcDbLine
 10
160.669233
 20
576.009888
 11
160.669233
 21
562.009888
  0
LINE
  5
3B5
100
AcDbEntity
  8
M0
100
AcDbLine
 10
183.762998
 20
580.509934
 11
180.669233
 21
576.009888
  0
ARC
  5
3B6
100
AcDbEntity
  8
M0
100
AcDbCircle
 10
226.669248
 20
588.009934
 40
2.0
100
AcDbArc
 50
228.573635
 51
311.426326
  0
LINE
  5
3B7
100
AcDbEntity
  8
M0
  6
DASHDOT
100
AcDbLine
 10
238.669248
 20
588.009934
 11
214.669262
 21
588.009934
  0
LINE
  5
3B8
100
AcDbEntity
  8
M0
  6
DASHDOT
100
AcDbLine
 10
226.669248
 20
600.009934
 11
226.669248
 21
576.009934
  0
LINE
  5
3B9
100
AcDbEntity
  8
M0
  6
DASHDOT
100
AcDbLine
 10
249.669248
 20
570.009934
 11
223.669248
 21
570.009934
  0
LINE
  5
3BA
100
AcDbEntity
  8
M0
  6
DASHDOT
100
AcDbLine
 10
236.669248
 20
583.009934
 11
236.669248
 21
557.009934
  0
LINE
  5
3BB
100
AcDbEntity
  8
M0
100
AcDbLine
 10
226.669248
 20
562.009934
 11
226.669248
 21
576.009934
  0
LINE
  5
3BC
100
AcDbEntity
  8
M0
100
AcDbLine
 10
246.669248
 20
576.009934
 11
246.669248
 21
562.009934
  0
LINE
  5
3BD
100
AcDbEntity
  8
M0
100
AcDbLine
 10
222.669447
 20
581.82782
 11
226.669248
 21
576.009934
  0
ARC
  5
3BE
100
AcDbEntity
  8
M0
100
AcDbCircle
 10
164.150159
 20
653.809479
 40
0.5
100
AcDbArc
 50
17.150937
 51
89.998251
  0
ARC
  5
3BF
100
AcDbEntity
  8
M0
100
AcDbCircle
 10
159.18849
 20
653.809479
 40
0.5
100
AcDbArc
 50
89.998251
 51
162.856262
  0
LINE
  5
3C0
100
AcDbEntity
  8
M0
100
AcDbLine
 10
163.083265
 20
650.36319
 11
161.315687
 21
648.595612
  0
LINE
  5
3C1
100
AcDbEntity
  8
M0
100
AcDbLine
 10
162.022718
 20
651.423737
 11
160.25514
 21
649.656159
  0
LINE
  5
3C2
100
AcDbEntity
  8
M0
100
AcDbLine
 10
163.260023
 20
648.418854
 11
160.078382
 21
651.600495
  0
LINE
  5
3C3
100
AcDbEntity
  8
M0
100
AcDbLine
 10
160.2693
 20
652.662995
 11
160.2693
 21
653.109528
  0
LINE
  5
3C4
100
AcDbEntity
  8
M0
100
AcDbLine
 10
163.069349
 20
652.662995
 11
163.069349
 21
653.109528
  0
LINE
  5
3C5
100
AcDbEntity
  8
M0
100
AcDbLine
 10
157.8943
 20
651.309724
 11
157.8943
 21
648.709626
  0
LINE
  5
3C6
100
AcDbEntity
  8
M0
100
AcDbLine
 10
164.150159
 20
654.309724
 11
159.18849
 21
654.309479
  0
LINE
  5
3C7
100
AcDbEntity
  8
M0
100
AcDbLine
 10
165.444349
 20
648.709626
 11
165.444349
 21
651.309724
  0
LINE
  5
3C8
100
AcDbEntity
  8
M0
100
AcDbLine
 10
159.347669
 20
648.109528
 11
158.079359
 21
648.109528
  0
LINE
  5
3C9
100
AcDbEntity
  8
M0
100
AcDbLine
 10
159.347669
 20
651.909577
 11
158.079359
 21
651.909577
  0
LINE
  5
3CA
100
AcDbEntity
  8
M0
100
AcDbLine
 10
160.2693
 20
653.109528
 11
158.449232
 21
653.109528
  0
LINE
  5
3CB
100
AcDbEntity
  8
M0
100
AcDbLine
 10
163.99098
 20
648.109528
 11
165.25929
 21
648.109528
  0
LINE
  5
3CC
100
AcDbEntity
  8
M0
100
AcDbLine
 10
163.99098
 20
651.909577
 11
165.25929
 21
651.909577
  0
LINE
  5
3CD
100
AcDbEntity
  8
M0
100
AcDbLine
 10
163.069349
 20
653.109528
 11
164.889417
 21
653.109528
  0
LINE
  5
3CE
100
AcDbEntity
  8
M0
100
AcDbLine
 10
164.627943
 20
646.062409
 11
165.444349
 21
648.709626
  0
LINE
  5
3CF
100
AcDbEntity
  8
M0
100
AcDbLine
 10
164.627943
 20
653.95694
 11
165.444349
 21
651.309724
  0
LINE
  5
3D0
100
AcDbEntity
  8
M0
100
AcDbLine
 10
158.710462
 20
646.062409
 11
157.8943
 21
648.709626
  0
LINE
  5
3D1
100
AcDbEntity
  8
M0
100
AcDbLine
 10
158.710462
 20
653.95694
 11
157.8943
 21
651.309724
  0
CIRCLE
  5
3D2
100
AcDbEntity
  8
M0
100
AcDbCircle
 10
161.669447
 20
650.009675
 40
3.0
  0
LINE
  5
3D3
100
AcDbEntity
  8
M0
  6
DASHDOT
 62
     6
100
AcDbLine
 10
155.345609
 20
650.009675
 11
167.7814
 21
650.009675
  0
ARC
  5
3D4
100
AcDbEntity
  8
M0
100
AcDbCircle
 10
164.150159
 20
646.209626
 40
0.5
100
AcDbArc
 50
270.0
 51
342.875032
  0
ARC
  5
3D5
100
AcDbEntity
  8
M0
100
AcDbCircle
 10
159.18849
 20
646.209626
 40
0.5
100
AcDbArc
 50
197.118284
 51
270.0
  0
LINE
  5
3D6
100
AcDbEntity
  8
M0
100
AcDbLine
 10
160.2693
 20
646.909577
 11
160.2693
 21
647.356354
  0
LINE
  5
3D7
100
AcDbEntity
  8
M0
100
AcDbLine
 10
163.069349
 20
646.909577
 11
163.069349
 21
647.356354
  0
LINE
  5
3D8
100
AcDbEntity
  8
M0
100
AcDbLine
 10
159.18849
 20
645.709626
 11
164.150159
 21
645.709626
  0
LINE
  5
3D9
100
AcDbEntity
  8
M0
100
AcDbLine
 10
160.2693
 20
646.909577
 11
158.449232
 21
646.909577
  0
LINE
  5
3DA
100
AcDbEntity
  8
M0
100
AcDbLine
 10
163.069349
 20
646.909577
 11
164.889417
 21
646.909577
  0
LINE
  5
3DB
100
AcDbEntity
  8
M0
  6
DASHDOT
100
AcDbLine
 10
161.669447
 20
643.17211
 11
161.668821
 21
655.901627
  0
ARC
  5
3DC
100
AcDbEntity
  8
M0
100
AcDbCircle
 10
164.150159
 20
644.309479
 40
0.5
100
AcDbArc
 50
17.151876
 51
89.998251
  0
ARC
  5
3DD
100
AcDbEntity
  8
M0
100
AcDbCircle
 10
159.18849
 20
644.309479
 40
0.5
100
AcDbArc
 50
89.998251
 51
162.856158
  0
LINE
  5
3DE
100
AcDbEntity
  8
M0
100
AcDbLine
 10
163.083265
 20
640.86319
 11
161.315687
 21
639.095612
  0
LINE
  5
3DF
100
AcDbEntity
  8
M0
100
AcDbLine
 10
162.022718
 20
641.923737
 11
160.25514
 21
640.156159
  0
LINE
  5
3E0
100
AcDbEntity
  8
M0
100
AcDbLine
 10
163.260023
 20
638.918854
 11
160.078382
 21
642.100495
  0
LINE
  5
3E1
100
AcDbEntity
  8
M0
100
AcDbLine
 10
160.2693
 20
643.162995
 11
160.2693
 21
643.609528
  0
LINE
  5
3E2
100
AcDbEntity
  8
M0
100
AcDbLine
 10
163.069349
 20
643.162995
 11
163.069349
 21
643.609528
  0
LINE
  5
3E3
100
AcDbEntity
  8
M0
100
AcDbLine
 10
157.8943
 20
641.809724
 11
157.8943
 21
639.209626
  0
LINE
  5
3E4
100
AcDbEntity
  8
M0
100
AcDbLine
 10
160.669233
 20
562.009888
 11
163.502393
 21
562.009888
  0
LINE
  5
3E5
100
AcDbEntity
  8
M0
100
AcDbLine
 10
168.16905
 20
582.733872
 11
163.932066
 21
578.935197
  0
LINE
  5
3E6
100
AcDbEntity
  8
M0
100
AcDbLine
 10
246.669248
 20
562.009934
 11
244.133405
 21
562.009934
  0
LINE
  5
3E7
100
AcDbEntity
  8
M0
100
AcDbLine
 10
239.169431
 20
582.733903
 11
243.408475
 21
578.933381
  0
LINE
  5
3E8
100
AcDbEntity
  8
M0
100
AcDbLine
 10
164.150159
 20
644.809724
 11
159.18849
 21
644.809479
  0
LINE
  5
3E9
100
AcDbEntity
  8
M0
100
AcDbLine
 10
165.444349
 20
639.209626
 11
165.444349
 21
641.809724
  0
LINE
  5
3EA
100
AcDbEntity
  8
M0
100
AcDbLine
 10
159.347669
 20
638.609528
 11
158.079359
 21
638.609528
  0
LINE
  5
3EB
100
AcDbEntity
  8
M0
100
AcDbLine
 10
159.347669
 20
642.409577
 11
158.079359
 21
642.409577
  0
LINE
  5
3EC
100
AcDbEntity
  8
M0
100
AcDbLine
 10
160.2693
 20
643.609528
 11
158.449232
 21
643.609528
  0
LINE
  5
3ED
100
AcDbEntity
  8
M0
100
AcDbLine
 10
163.99098
 20
638.609528
 11
165.25929
 21
638.609528
  0
LINE
  5
3EE
100
AcDbEntity
  8
M0
100
AcDbLine
 10
163.99098
 20
642.409577
 11
165.25929
 21
642.409577
  0
LINE
  5
3EF
100
AcDbEntity
  8
M0
100
AcDbLine
 10
163.069349
 20
643.609528
 11
164.889417
 21
643.609528
  0
LINE
  5
3F0
100
AcDbEntity
  8
M0
100
AcDbLine
 10
164.627943
 20
636.562409
 11
165.444349
 21
639.209626
  0
LINE
  5
3F1
100
AcDbEntity
  8
M0
100
AcDbLine
 10
164.627943
 20
644.45694
 11
165.444349
 21
641.809724
  0
LINE
  5
3F2
100
AcDbEntity
  8
M0
100
AcDbLine
 10
158.710462
 20
636.562409
 11
157.8943
 21
639.209626
  0
LINE
  5
3F3
100
AcDbEntity
  8
M0
100
AcDbLine
 10
158.710462
 20
644.45694
 11
157.8943
 21
641.809724
  0
CIRCLE
  5
3F4
100
AcDbEntity
  8
M0
100
AcDbCircle
 10
161.669447
 20
640.509675
 40
3.0
  0
LINE
  5
3F5
100
AcDbEntity
  8
M0
  6
DASHDOT
 62
     6
100
AcDbLine
 10
155.345609
 20
640.509675
 11
167.7814
 21
640.509675
  0
ARC
  5
3F6
100
AcDbEntity
  8
M0
100
AcDbCircle
 10
164.150159
 20
636.709626
 40
0.5
100
AcDbArc
 50
270.0
 51
342.875032
  0
ARC
  5
3F7
100
AcDbEntity
  8
M0
100
AcDbCircle
 10
159.18849
 20
636.709626
 40
0.5
100
AcDbArc
 50
197.117449
 51
270.0
  0
LINE
  5
3F8
100
AcDbEntity
  8
M0
100
AcDbLine
 10
160.2693
 20
637.409577
 11
160.2693
 21
637.856354
  0
LINE
  5
3F9
100
AcDbEntity
  8
M0
100
AcDbLine
 10
163.069349
 20
637.409577
 11
163.069349
 21
637.856354
  0
LINE
  5
3FA
100
AcDbEntity
  8
M0
100
AcDbLine
 10
159.18849
 20
636.209626
 11
164.150159
 21
636.209626
  0
LINE
  5
3FB
100
AcDbEntity
  8
M0
100
AcDbLine
 10
160.2693
 20
637.409577
 11
158.449232
 21
637.409577
  0
LINE
  5
3FC
100
AcDbEntity
  8
M0
100
AcDbLine
 10
163.069349
 20
637.409577
 11
164.889417
 21
637.409577
  0
LINE
  5
3FD
100
AcDbEntity
  8
M0
  6
DASHDOT
100
AcDbLine
 10
161.669447
 20
633.67211
 11
161.668821
 21
646.401627
  0
ARC
  5
3FE
100
AcDbEntity
  8
M0
100
AcDbCircle
 10
164.150159
 20
623.309724
 40
0.5
100
AcDbArc
 50
17.151981
 51
89.998251
  0
ARC
  5
3FF
100
AcDbEntity
  8
M0
100
AcDbCircle
 10
159.18849
 20
623.309724
 40
0.5
100
AcDbArc
 50
89.998251
 51
162.856053
  0
LINE
  5
400
100
AcDbEntity
  8
M0
100
AcDbLine
 10
163.083265
 20
619.863435
 11
161.315687
 21
618.095857
  0
LINE
  5
401
100
AcDbEntity
  8
M0
100
AcDbLine
 10
162.022718
 20
620.923982
 11
160.25514
 21
619.156404
  0
LINE
  5
402
100
AcDbEntity
  8
M0
100
AcDbLine
 10
163.260023
 20
617.919099
 11
160.078382
 21
621.10074
  0
LINE
  5
403
100
AcDbEntity
  8
M0
100
AcDbLine
 10
160.2693
 20
622.16324
 11
160.2693
 21
622.609773
  0
LINE
  5
404
100
AcDbEntity
  8
M0
100
AcDbLine
 10
163.069349
 20
622.16324
 11
163.069349
 21
622.609773
  0
LINE
  5
405
100
AcDbEntity
  8
M0
100
AcDbLine
 10
157.8943
 20
620.809969
 11
157.8943
 21
618.209871
  0
LINE
  5
406
100
AcDbEntity
  8
M0
100
AcDbLine
 10
164.150159
 20
623.809969
 11
159.18849
 21
623.809724
  0
LINE
  5
407
100
AcDbEntity
  8
M0
100
AcDbLine
 10
165.444349
 20
618.209871
 11
165.444349
 21
620.809969
  0
LINE
  5
408
100
AcDbEntity
  8
M0
100
AcDbLine
 10
159.347669
 20
617.609773
 11
158.079359
 21
617.609773
  0
LINE
  5
409
100
AcDbEntity
  8
M0
100
AcDbLine
 10
159.347669
 20
621.409822
 11
158.079359
 21
621.409822
  0
LINE
  5
40A
100
AcDbEntity
  8
M0
100
AcDbLine
 10
160.2693
 20
622.609773
 11
158.449232
 21
622.609773
  0
LINE
  5
40B
100
AcDbEntity
  8
M0
100
AcDbLine
 10
163.99098
 20
617.609773
 11
165.25929
 21
617.609773
  0
LINE
  5
40C
100
AcDbEntity
  8
M0
100
AcDbLine
 10
163.99098
 20
621.409822
 11
165.25929
 21
621.409822
  0
LINE
  5
40D
100
AcDbEntity
  8
M0
100
AcDbLine
 10
163.069349
 20
622.609773
 11
164.889417
 21
622.609773
  0
LINE
  5
40E
100
AcDbEntity
  8
M0
100
AcDbLine
 10
164.627943
 20
615.562654
 11
165.444349
 21
618.209871
  0
LINE
  5
40F
100
AcDbEntity
  8
M0
100
AcDbLine
 10
164.627943
 20
623.457185
 11
165.444349
 21
620.809969
  0
LINE
  5
410
100
AcDbEntity
  8
M0
100
AcDbLine
 10
158.710462
 20
615.562654
 11
157.8943
 21
618.209871
  0
LINE
  5
411
100
AcDbEntity
  8
M0
100
AcDbLine
 10
158.710462
 20
623.457185
 11
157.8943
 21
620.809969
  0
CIRCLE
  5
412
100
AcDbEntity
  8
M0
100
AcDbCircle
 10
161.669447
 20
619.50992
 40
3.0
  0
LINE
  5
413
100
AcDbEntity
  8
M0
  6
DASHDOT
 62
     6
100
AcDbLine
 10
155.345609
 20
619.50992
 11
167.7814
 21
619.50992
  0
ARC
  5
414
100
AcDbEntity
  8
M0
100
AcDbCircle
 10
164.150159
 20
615.709871
 40
0.5
100
AcDbArc
 50
270.0
 51
342.875136
  0
ARC
  5
415
100
AcDbEntity
  8
M0
100
AcDbCircle
 10
159.18849
 20
615.709871
 40
0.5
100
AcDbArc
 50
197.117344
 51
270.0
  0
LINE
  5
416
100
AcDbEntity
  8
M0
100
AcDbLine
 10
160.2693
 20
616.409822
 11
160.2693
 21
616.856599
  0
LINE
  5
417
100
AcDbEntity
  8
M0
100
AcDbLine
 10
163.069349
 20
616.409822
 11
163.069349
 21
616.856599
  0
LINE
  5
418
100
AcDbEntity
  8
M0
100
AcDbLine
 10
159.18849
 20
615.209871
 11
164.150159
 21
615.209871
  0
LINE
  5
419
100
AcDbEntity
  8
M0
100
AcDbLine
 10
160.2693
 20
616.409822
 11
158.449232
 21
616.409822
  0
LINE
  5
41A
100
AcDbEntity
  8
M0
100
AcDbLine
 10
163.069349
 20
616.409822
 11
164.889417
 21
616.409822
  0
LINE
  5
41B
100
AcDbEntity
  8
M0
  6
DASHDOT
100
AcDbLine
 10
161.669447
 20
612.672364
 11
161.668821
 21
625.401873
  0
ARC
  5
41C
100
AcDbEntity
  8
M0
100
AcDbCircle
 10
164.150159
 20
613.809739
 40
0.5
100
AcDbArc
 50
17.152607
 51
89.998251
  0
ARC
  5
41D
100
AcDbEntity
  8
M0
100
AcDbCircle
 10
159.18849
 20
613.809739
 40
0.5
100
AcDbArc
 50
89.998251
 51
162.854591
  0
LINE
  5
41E
100
AcDbEntity
  8
M0
100
AcDbLine
 10
163.083265
 20
610.36345
 11
161.315687
 21
608.595872
  0
LINE
  5
41F
100
AcDbEntity
  8
M0
100
AcDbLine
 10
162.022718
 20
611.423997
 11
160.25514
 21
609.656418
  0
LINE
  5
420
100
AcDbEntity
  8
M0
100
AcDbLine
 10
163.260023
 20
608.419114
 11
160.078382
 21
611.600754
  0
LINE
  5
421
100
AcDbEntity
  8
M0
100
AcDbLine
 10
160.2693
 20
612.663254
 11
160.2693
 21
613.109788
  0
LINE
  5
422
100
AcDbEntity
  8
M0
100
AcDbLine
 10
163.069349
 20
612.663254
 11
163.069349
 21
613.109788
  0
LINE
  5
423
100
AcDbEntity
  8
M0
100
AcDbLine
 10
157.8943
 20
611.309983
 11
157.8943
 21
608.709885
  0
LINE
  5
424
100
AcDbEntity
  8
M0
100
AcDbLine
 10
164.150159
 20
614.309969
 11
159.18849
 21
614.309724
  0
LINE
  5
425
100
AcDbEntity
  8
M0
100
AcDbLine
 10
165.444349
 20
608.709885
 11
165.444349
 21
611.309983
  0
LINE
  5
426
100
AcDbEntity
  8
M0
100
AcDbLine
 10
159.347669
 20
608.109788
 11
158.079359
 21
608.109788
  0
LINE
  5
427
100
AcDbEntity
  8
M0
100
AcDbLine
 10
159.347669
 20
611.909836
 11
158.079359
 21
611.909836
  0
LINE
  5
428
100
AcDbEntity
  8
M0
100
AcDbLine
 10
160.2693
 20
613.109788
 11
158.449232
 21
613.109788
  0
LINE
  5
429
100
AcDbEntity
  8
M0
100
AcDbLine
 10
163.99098
 20
608.109788
 11
165.25929
 21
608.109788
  0
LINE
  5
42A
100
AcDbEntity
  8
M0
100
AcDbLine
 10
163.99098
 20
611.909836
 11
165.25929
 21
611.909836
  0
LINE
  5
42B
100
AcDbEntity
  8
M0
100
AcDbLine
 10
163.069349
 20
613.109788
 11
164.889417
 21
613.109788
  0
LINE
  5
42C
100
AcDbEntity
  8
M0
100
AcDbLine
 10
164.627943
 20
606.062668
 11
165.444349
 21
608.709885
  0
LINE
  5
42D
100
AcDbEntity
  8
M0
100
AcDbLine
 10
164.627943
 20
613.9572
 11
165.444349
 21
611.309983
  0
LINE
  5
42E
100
AcDbEntity
  8
M0
100
AcDbLine
 10
158.710462
 20
606.062668
 11
157.8943
 21
608.709885
  0
LINE
  5
42F
100
AcDbEntity
  8
M0
100
AcDbLine
 10
158.710462
 20
613.9572
 11
157.8943
 21
611.309983
  0
CIRCLE
  5
430
100
AcDbEntity
  8
M0
100
AcDbCircle
 10
161.669447
 20
610.009934
 40
3.0
  0
LINE
  5
431
100
AcDbEntity
  8
M0
  6
DASHDOT
 62
     6
100
AcDbLine
 10
155.345609
 20
610.009934
 11
167.7814
 21
610.009934
  0
ARC
  5
432
100
AcDbEntity
  8
M0
100
AcDbCircle
 10
164.150159
 20
606.209885
 40
0.5
100
AcDbArc
 50
270.0
 51
342.876703
  0
ARC
  5
433
100
AcDbEntity
  8
M0
100
AcDbCircle
 10
159.18849
 20
606.209885
 40
0.5
100
AcDbArc
 50
197.116613
 51
270.0
  0
LINE
  5
434
100
AcDbEntity
  8
M0
100
AcDbLine
 10
160.2693
 20
606.909836
 11
160.2693
 21
607.356614
  0
LINE
  5
435
100
AcDbEntity
  8
M0
100
AcDbLine
 10
163.069349
 20
606.909836
 11
163.069349
 21
607.356614
  0
LINE
  5
436
100
AcDbEntity
  8
M0
100
AcDbLine
 10
159.18849
 20
605.709885
 11
164.150159
 21
605.709885
  0
LINE
  5
437
100
AcDbEntity
  8
M0
100
AcDbLine
 10
160.2693
 20
606.909836
 11
158.449232
 21
606.909836
  0
LINE
  5
438
100
AcDbEntity
  8
M0
100
AcDbLine
 10
163.069349
 20
606.909836
 11
164.889417
 21
606.909836
  0
LINE
  5
439
100
AcDbEntity
  8
M0
  6
DASHDOT
100
AcDbLine
 10
161.669447
 20
603.172364
 11
161.668821
 21
615.901873
  0
ARC
  5
43A
100
AcDbEntity
  8
M0
100
AcDbCircle
 10
248.150114
 20
653.809235
 40
0.5
100
AcDbArc
 50
17.151452
 51
90.0
  0
ARC
  5
43B
100
AcDbEntity
  8
M0
100
AcDbCircle
 10
243.188444
 20
653.809235
 40
0.5
100
AcDbArc
 50
90.0
 51
162.856778
  0
LINE
  5
43C
100
AcDbEntity
  8
M0
100
AcDbLine
 10
247.083219
 20
650.362946
 11
245.315641
 21
648.595368
  0
LINE
  5
43D
100
AcDbEntity
  8
M0
100
AcDbLine
 10
246.022672
 20
651.423493
 11
244.255094
 21
649.655915
  0
LINE
  5
43E
100
AcDbEntity
  8
M0
100
AcDbLine
 10
247.259977
 20
648.41861
 11
244.078336
 21
651.600251
  0
LINE
  5
43F
100
AcDbEntity
  8
M0
100
AcDbLine
 10
244.269254
 20
652.662751
 11
244.269254
 21
653.109284
  0
LINE
  5
440
100
AcDbEntity
  8
M0
100
AcDbLine
 10
247.069303
 20
652.662751
 11
247.069303
 21
653.109284
  0
LINE
  5
441
100
AcDbEntity
  8
M0
100
AcDbLine
 10
241.894254
 20
651.309479
 11
241.894254
 21
648.709382
  0
LINE
  5
442
100
AcDbEntity
  8
M0
100
AcDbLine
 10
248.150114
 20
654.309479
 11
243.188444
 21
654.309235
  0
LINE
  5
443
100
AcDbEntity
  8
M0
100
AcDbLine
 10
249.444303
 20
648.709382
 11
249.444303
 21
651.309479
  0
LINE
  5
444
100
AcDbEntity
  8
M0
100
AcDbLine
 10
243.347623
 20
648.109284
 11
242.079313
 21
648.109284
  0
LINE
  5
445
100
AcDbEntity
  8
M0
100
AcDbLine
 10
243.347623
 20
651.909333
 11
242.079313
 21
651.909333
  0
LINE
  5
446
100
AcDbEntity
  8
M0
100
AcDbLine
 10
244.269254
 20
653.109284
 11
242.449186
 21
653.109284
  0
LINE
  5
447
100
AcDbEntity
  8
M0
100
AcDbLine
 10
247.990934
 20
648.109284
 11
249.259245
 21
648.109284
  0
LINE
  5
448
100
AcDbEntity
  8
M0
100
AcDbLine
 10
247.990934
 20
651.909333
 11
249.259245
 21
651.909333
  0
LINE
  5
449
100
AcDbEntity
  8
M0
100
AcDbLine
 10
247.069303
 20
653.109284
 11
248.889371
 21
653.109284
  0
LINE
  5
44A
100
AcDbEntity
  8
M0
100
AcDbLine
 10
248.627897
 20
646.062165
 11
249.444303
 21
648.709382
  0
LINE
  5
44B
100
AcDbEntity
  8
M0
100
AcDbLine
 10
248.627897
 20
653.956696
 11
249.444303
 21
651.309479
  0
LINE
  5
44C
100
AcDbEntity
  8
M0
100
AcDbLine
 10
242.710416
 20
646.062165
 11
241.894254
 21
648.709382
  0
LINE
  5
44D
100
AcDbEntity
  8
M0
100
AcDbLine
 10
242.710416
 20
653.956696
 11
241.894254
 21
651.309479
  0
CIRCLE
  5
44E
100
AcDbEntity
  8
M0
100
AcDbCircle
 10
245.669401
 20
650.009431
 40
3.0
  0
LINE
  5
44F
100
AcDbEntity
  8
M0
  6
DASHDOT
 62
     6
100
AcDbLine
 10
239.345563
 20
650.009431
 11
251.781354
 21
650.009431
  0
ARC
  5
450
100
AcDbEntity
  8
M0
100
AcDbCircle
 10
248.150114
 20
646.209382
 40
0.5
100
AcDbArc
 50
269.998251
 51
342.874517
  0
ARC
  5
451
100
AcDbEntity
  8
M0
100
AcDbCircle
 10
243.188444
 20
646.209382
 40
0.5
100
AcDbArc
 50
197.11777
 51
269.998251
  0
LINE
  5
452
100
AcDbEntity
  8
M0
100
AcDbLine
 10
244.269254
 20
646.909333
 11
244.269254
 21
647.35611
  0
LINE
  5
453
100
AcDbEntity
  8
M0
100
AcDbLine
 10
247.069303
 20
646.909333
 11
247.069303
 21
647.35611
  0
LINE
  5
454
100
AcDbEntity
  8
M0
100
AcDbLine
 10
243.188444
 20
645.709382
 11
248.150114
 21
645.709382
  0
LINE
  5
455
100
AcDbEntity
  8
M0
100
AcDbLine
 10
244.269254
 20
646.909333
 11
242.449186
 21
646.909333
  0
LINE
  5
456
100
AcDbEntity
  8
M0
100
AcDbLine
 10
247.069303
 20
646.909333
 11
248.889371
 21
646.909333
  0
LINE
  5
457
100
AcDbEntity
  8
M0
  6
DASHDOT
100
AcDbLine
 10
245.669416
 20
643.171866
 11
245.66879
 21
655.901383
  0
ARC
  5
458
100
AcDbEntity
  8
M0
100
AcDbCircle
 10
248.150144
 20
644.309724
 40
0.5
100
AcDbArc
 50
17.152392
 51
90.0
  0
ARC
  5
459
100
AcDbEntity
  8
M0
100
AcDbCircle
 10
243.188474
 20
644.309724
 40
0.5
100
AcDbArc
 50
90.0
 51
162.856673
  0
LINE
  5
45A
100
AcDbEntity
  8
M0
100
AcDbLine
 10
247.08325
 20
640.863434
 11
245.315672
 21
639.095856
  0
LINE
  5
45B
100
AcDbEntity
  8
M0
100
AcDbLine
 10
246.022703
 20
641.923981
 11
244.255125
 21
640.156403
  0
LINE
  5
45C
100
AcDbEntity
  8
M0
100
AcDbLine
 10
247.260007
 20
638.919099
 11
244.078367
 21
642.100739
  0
LINE
  5
45D
100
AcDbEntity
  8
M0
100
AcDbLine
 10
244.269285
 20
643.163239
 11
244.269285
 21
643.609772
  0
LINE
  5
45E
100
AcDbEntity
  8
M0
100
AcDbLine
 10
247.069334
 20
643.163239
 11
247.069334
 21
643.609772
  0
LINE
  5
45F
100
AcDbEntity
  8
M0
100
AcDbLine
 10
241.894285
 20
641.809968
 11
241.894285
 21
639.20987
  0
LINE
  5
460
100
AcDbEntity
  8
M0
100
AcDbLine
 10
248.150144
 20
644.809968
 11
243.188474
 21
644.809724
  0
LINE
  5
461
100
AcDbEntity
  8
M0
100
AcDbLine
 10
249.444334
 20
639.20987
 11
249.444334
 21
641.809968
  0
LINE
  5
462
100
AcDbEntity
  8
M0
100
AcDbLine
 10
243.347654
 20
638.609772
 11
242.079343
 21
638.609772
  0
LINE
  5
463
100
AcDbEntity
  8
M0
100
AcDbLine
 10
243.347654
 20
642.409821
 11
242.079343
 21
642.409821
  0
LINE
  5
464
100
AcDbEntity
  8
M0
100
AcDbLine
 10
244.269285
 20
643.609772
 11
242.449216
 21
643.609772
  0
LINE
  5
465
100
AcDbEntity
  8
M0
100
AcDbLine
 10
247.990964
 20
638.609772
 11
249.259275
 21
638.609772
  0
LINE
  5
466
100
AcDbEntity
  8
M0
100
AcDbLine
 10
247.990964
 20
642.409821
 11
249.259275
 21
642.409821
  0
LINE
  5
467
100
AcDbEntity
  8
M0
100
AcDbLine
 10
247.069334
 20
643.609772
 11
248.889402
 21
643.609772
  0
LINE
  5
468
100
AcDbEntity
  8
M0
100
AcDbLine
 10
248.627927
 20
636.562653
 11
249.444334
 21
639.20987
  0
LINE
  5
469
100
AcDbEntity
  8
M0
100
AcDbLine
 10
248.627927
 20
644.457184
 11
249.444334
 21
641.809968
  0
LINE
  5
46A
100
AcDbEntity
  8
M0
100
AcDbLine
 10
242.710447
 20
636.562653
 11
241.894285
 21
639.20987
  0
LINE
  5
46B
100
AcDbEntity
  8
M0
100
AcDbLine
 10
242.710447
 20
644.457184
 11
241.894285
 21
641.809968
  0
CIRCLE
  5
46C
100
AcDbEntity
  8
M0
100
AcDbCircle
 10
245.669431
 20
640.509919
 40
3.0
  0
LINE
  5
46D
100
AcDbEntity
  8
M0
  6
DASHDOT
 62
     6
100
AcDbLine
 10
239.345594
 20
640.509919
 11
251.781385
 21
640.509919
  0
ARC
  5
46E
100
AcDbEntity
  8
M0
100
AcDbCircle
 10
248.150144
 20
636.70987
 40
0.5
100
AcDbArc
 50
269.998251
 51
342.874517
  0
ARC
  5
46F
100
AcDbEntity
  8
M0
100
AcDbCircle
 10
243.188474
 20
636.70987
 40
0.5
100
AcDbArc
 50
197.116934
 51
269.998251
  0
LINE
  5
470
100
AcDbEntity
  8
M0
100
AcDbLine
 10
244.269285
 20
637.409821
 11
244.269285
 21
637.856599
  0
LINE
  5
471
100
AcDbEntity
  8
M0
100
AcDbLine
 10
247.069334
 20
637.409821
 11
247.069334
 21
637.856599
  0
LINE
  5
472
100
AcDbEntity
  8
M0
100
AcDbLine
 10
243.188474
 20
636.20987
 11
248.150144
 21
636.20987
  0
LINE
  5
473
100
AcDbEntity
  8
M0
100
AcDbLine
 10
244.269285
 20
637.409821
 11
242.449216
 21
637.409821
  0
LINE
  5
474
100
AcDbEntity
  8
M0
100
AcDbLine
 10
247.069334
 20
637.409821
 11
248.889402
 21
637.409821
  0
LINE
  5
475
100
AcDbEntity
  8
M0
  6
DASHDOT
100
AcDbLine
 10
245.669431
 20
633.672354
 11
245.668806
 21
646.401871
  0
ARC
  5
476
100
AcDbEntity
  8
M0
100
AcDbCircle
 10
248.15019
 20
623.30948
 40
0.5
100
AcDbArc
 50
17.152497
 51
90.0
  0
ARC
  5
477
100
AcDbEntity
  8
M0
100
AcDbCircle
 10
243.18852
 20
623.30948
 40
0.5
100
AcDbArc
 50
90.0
 51
162.856569
  0
LINE
  5
478
100
AcDbEntity
  8
M0
100
AcDbLine
 10
247.083295
 20
619.863191
 11
245.315717
 21
618.095613
  0
LINE
  5
479
100
AcDbEntity
  8
M0
100
AcDbLine
 10
246.022749
 20
620.923738
 11
244.25517
 21
619.15616
  0
LINE
  5
47A
100
AcDbEntity
  8
M0
100
AcDbLine
 10
247.260053
 20
617.918855
 11
244.078413
 21
621.100496
  0
LINE
  5
47B
100
AcDbEntity
  8
M0
100
AcDbLine
 10
244.269331
 20
622.162996
 11
244.269331
 21
622.609529
  0
LINE
  5
47C
100
AcDbEntity
  8
M0
100
AcDbLine
 10
247.069379
 20
622.162996
 11
247.069379
 21
622.609529
  0
LINE
  5
47D
100
AcDbEntity
  8
M0
100
AcDbLine
 10
241.894331
 20
620.809724
 11
241.894331
 21
618.209627
  0
LINE
  5
47E
100
AcDbEntity
  8
M0
100
AcDbLine
 10
248.15019
 20
623.809724
 11
243.18852
 21
623.80948
  0
LINE
  5
47F
100
AcDbEntity
  8
M0
100
AcDbLine
 10
249.444379
 20
618.209627
 11
249.444379
 21
620.809724
  0
LINE
  5
480
100
AcDbEntity
  8
M0
100
AcDbLine
 10
243.3477
 20
617.609529
 11
242.079389
 21
617.609529
  0
LINE
  5
481
100
AcDbEntity
  8
M0
100
AcDbLine
 10
243.3477
 20
621.409578
 11
242.079389
 21
621.409578
  0
LINE
  5
482
100
AcDbEntity
  8
M0
100
AcDbLine
 10
244.269331
 20
622.609529
 11
242.449262
 21
622.609529
  0
LINE
  5
483
100
AcDbEntity
  8
M0
100
AcDbLine
 10
247.99101
 20
617.609529
 11
249.259321
 21
617.609529
  0
LINE
  5
484
100
AcDbEntity
  8
M0
100
AcDbLine
 10
247.99101
 20
621.409578
 11
249.259321
 21
621.409578
  0
LINE
  5
485
100
AcDbEntity
  8
M0
100
AcDbLine
 10
247.069379
 20
622.609529
 11
248.889448
 21
622.609529
  0
LINE
  5
486
100
AcDbEntity
  8
M0
100
AcDbLine
 10
248.627973
 20
615.56241
 11
249.444379
 21
618.209627
  0
LINE
  5
487
100
AcDbEntity
  8
M0
100
AcDbLine
 10
248.627973
 20
623.456941
 11
249.444379
 21
620.809724
  0
LINE
  5
488
100
AcDbEntity
  8
M0
100
AcDbLine
 10
242.710493
 20
615.56241
 11
241.894331
 21
618.209627
  0
LINE
  5
489
100
AcDbEntity
  8
M0
100
AcDbLine
 10
242.710493
 20
623.456941
 11
241.894331
 21
620.809724
  0
CIRCLE
  5
48A
100
AcDbEntity
  8
M0
100
AcDbCircle
 10
245.669477
 20
619.509676
 40
3.0
  0
LINE
  5
48B
100
AcDbEntity
  8
M0
  6
DASHDOT
 62
     6
100
AcDbLine
 10
239.34564
 20
619.509676
 11
251.781431
 21
619.509676
  0
ARC
  5
48C
100
AcDbEntity
  8
M0
100
AcDbCircle
 10
248.15019
 20
615.709627
 40
0.5
100
AcDbArc
 50
269.998251
 51
342.874621
  0
ARC
  5
48D
100
AcDbEntity
  8
M0
100
AcDbCircle
 10
243.18852
 20
615.709627
 40
0.5
100
AcDbArc
 50
197.11683
 51
269.998251
  0
LINE
  5
48E
100
AcDbEntity
  8
M0
100
AcDbLine
 10
244.269331
 20
616.409578
 11
244.269331
 21
616.856355
  0
LINE
  5
48F
100
AcDbEntity
  8
M0
100
AcDbLine
 10
247.069379
 20
616.409578
 11
247.069379
 21
616.856355
  0
LINE
  5
490
100
AcDbEntity
  8
M0
100
AcDbLine
 10
243.18852
 20
615.209627
 11
248.15019
 21
615.209627
  0
LINE
  5
491
100
AcDbEntity
  8
M0
100
AcDbLine
 10
244.269331
 20
616.409578
 11
242.449262
 21
616.409578
  0
LINE
  5
492
100
AcDbEntity
  8
M0
100
AcDbLine
 10
247.069379
 20
616.409578
 11
248.889448
 21
616.409578
  0
LINE
  5
493
100
AcDbEntity
  8
M0
  6
DASHDOT
100
AcDbLine
 10
245.669477
 20
612.67212
 11
245.668851
 21
625.401629
  0
ARC
  5
494
100
AcDbEntity
  8
M0
100
AcDbCircle
 10
248.150205
 20
613.810227
 40
0.5
100
AcDbArc
 50
17.153123
 51
90.0
  0
ARC
  5
495
100
AcDbEntity
  8
M0
100
AcDbCircle
 10
243.188535
 20
613.810227
 40
0.5
100
AcDbArc
 50
90.0
 51
162.855107
  0
LINE
  5
496
100
AcDbEntity
  8
M0
100
AcDbLine
 10
247.083311
 20
610.363938
 11
245.315733
 21
608.59636
  0
LINE
  5
497
100
AcDbEntity
  8
M0
100
AcDbLine
 10
246.022764
 20
611.424485
 11
244.255186
 21
609.656907
  0
LINE
  5
498
100
AcDbEntity
  8
M0
100
AcDbLine
 10
247.260068
 20
608.419602
 11
244.078428
 21
611.601243
  0
LINE
  5
499
100
AcDbEntity
  8
M0
100
AcDbLine
 10
244.269346
 20
612.663743
 11
244.269346
 21
613.110276
  0
LINE
  5
49A
100
AcDbEntity
  8
M0
100
AcDbLine
 10
247.069395
 20
612.663743
 11
247.069395
 21
613.110276
  0
LINE
  5
49B
100
AcDbEntity
  8
M0
100
AcDbLine
 10
241.894346
 20
611.310471
 11
241.894346
 21
608.710374
  0
LINE
  5
49C
100
AcDbEntity
  8
M0
100
AcDbLine
 10
248.150205
 20
614.310457
 11
243.188535
 21
614.310213
  0
LINE
  5
49D
100
AcDbEntity
  8
M0
100
AcDbLine
 10
249.444395
 20
608.710374
 11
249.444395
 21
611.310471
  0
LINE
  5
49E
100
AcDbEntity
  8
M0
100
AcDbLine
 10
243.347715
 20
608.110276
 11
242.079404
 21
608.110276
  0
LINE
  5
49F
100
AcDbEntity
  8
M0
100
AcDbLine
 10
243.347715
 20
611.910325
 11
242.079404
 21
611.910325
  0
LINE
  5
4A0
100
AcDbEntity
  8
M0
100
AcDbLine
 10
244.269346
 20
613.110276
 11
242.449277
 21
613.110276
  0
LINE
  5
4A1
100
AcDbEntity
  8
M0
100
AcDbLine
 10
247.991026
 20
608.110276
 11
249.259336
 21
608.110276
  0
LINE
  5
4A2
100
AcDbEntity
  8
M0
100
AcDbLine
 10
247.991026
 20
611.910325
 11
249.259336
 21
611.910325
  0
LINE
  5
4A3
100
AcDbEntity
  8
M0
100
AcDbLine
 10
247.069395
 20
613.110276
 11
248.889463
 21
613.110276
  0
LINE
  5
4A4
100
AcDbEntity
  8
M0
100
AcDbLine
 10
248.627988
 20
606.063157
 11
249.444395
 21
608.710374
  0
LINE
  5
4A5
100
AcDbEntity
  8
M0
100
AcDbLine
 10
248.627988
 20
613.957688
 11
249.444395
 21
611.310471
  0
LINE
  5
4A6
100
AcDbEntity
  8
M0
100
AcDbLine
 10
242.710508
 20
606.063157
 11
241.894346
 21
608.710374
  0
LINE
  5
4A7
100
AcDbEntity
  8
M0
100
AcDbLine
 10
242.710508
 20
613.957688
 11
241.894346
 21
611.310471
  0
CIRCLE
  5
4A8
100
AcDbEntity
  8
M0
100
AcDbCircle
 10
245.669492
 20
610.010422
 40
3.0
  0
LINE
  5
4A9
100
AcDbEntity
  8
M0
  6
DASHDOT
 62
     6
100
AcDbLine
 10
239.345655
 20
610.010422
 11
251.781446
 21
610.010422
  0
ARC
  5
4AA
100
AcDbEntity
  8
M0
100
AcDbCircle
 10
248.150205
 20
606.210374
 40
0.5
100
AcDbArc
 50
269.998251
 51
342.876188
  0
ARC
  5
4AB
100
AcDbEntity
  8
M0
100
AcDbCircle
 10
243.188535
 20
606.210374
 40
0.5
100
AcDbArc
 50
197.116099
 51
269.998251
  0
LINE
  5
4AC
100
AcDbEntity
  8
M0
100
AcDbLine
 10
244.269346
 20
606.910325
 11
244.269346
 21
607.357102
  0
LINE
  5
4AD
100
AcDbEntity
  8
M0
100
AcDbLine
 10
247.069395
 20
606.910325
 11
247.069395
 21
607.357102
  0
LINE
  5
4AE
100
AcDbEntity
  8
M0
100
AcDbLine
 10
243.188535
 20
605.710374
 11
248.150205
 21
605.710374
  0
LINE
  5
4AF
100
AcDbEntity
  8
M0
100
AcDbLine
 10
244.269346
 20
606.910325
 11
242.449277
 21
606.910325
  0
LINE
  5
4B0
100
AcDbEntity
  8
M0
100
AcDbLine
 10
247.069395
 20
606.910325
 11
248.889463
 21
606.910325
  0
LINE
  5
4B1
100
AcDbEntity
  8
M0
  6
DASHDOT
100
AcDbLine
 10
245.669492
 20
603.172852
 11
245.668867
 21
615.902362
  0
LINE
  5
4B2
100
AcDbEntity
  8
M0
100
AcDbLine
 10
245.583265
 20
660.362946
 11
243.815687
 21
658.595368
  0
LINE
  5
4B3
100
AcDbEntity
  8
M0
100
AcDbLine
 10
244.522718
 20
661.423493
 11
242.75514
 21
659.655915
  0
LINE
  5
4B4
100
AcDbEntity
  8
M0
100
AcDbLine
 10
245.760023
 20
658.41861
 11
242.578382
 21
661.600251
  0
CIRCLE
  5
4B5
100
AcDbEntity
  8
M0
100
AcDbCircle
 10
244.169447
 20
660.009431
 40
3.0
  0
LINE
  5
4B6
100
AcDbEntity
  8
M0
  6
DASHDOT
 62
     6
100
AcDbLine
 10
237.845609
 20
660.009431
 11
250.2814
 21
660.009431
  0
LINE
  5
4B7
100
AcDbEntity
  8
M0
100
AcDbLine
 10
164.583265
 20
600.36345
 11
162.815687
 21
598.595872
  0
LINE
  5
4B8
100
AcDbEntity
  8
M0
100
AcDbLine
 10
163.522718
 20
601.423997
 11
161.75514
 21
599.656418
  0
LINE
  5
4B9
100
AcDbEntity
  8
M0
100
AcDbLine
 10
164.760023
 20
598.419114
 11
161.578382
 21
601.600754
  0
CIRCLE
  5
4BA
100
AcDbEntity
  8
M0
100
AcDbCircle
 10
163.169447
 20
600.009934
 40
3.0
  0
LINE
  5
4BB
100
AcDbEntity
  8
M0
  6
DASHDOT
 62
     6
100
AcDbLine
 10
156.845609
 20
600.009934
 11
169.2814
 21
600.009934
  0
LINE
  5
4BC
100
AcDbEntity
  8
M0
  6
DASHDOT
100
AcDbLine
 10
163.169447
 20
593.172364
 11
163.168821
 21
605.901887
  0
LINE
  5
4BD
100
AcDbEntity
  8
M0
  6
DIVIDE
100
AcDbLine
 10
266.66908
 20
600.009934
 11
253.66908
 21
600.009934
  0
LINE
  5
4BE
100
AcDbEntity
  8
M0
  6
DIVIDE
100
AcDbLine
 10
266.66908
 20
660.009919
 11
266.66908
 21
600.009934
  0
LINE
  5
4BF
100
AcDbEntity
  8
M0
  6
DIVIDE
100
AcDbLine
 10
266.66908
 20
660.009919
 11
253.66908
 21
660.009919
  0
LINE
  5
4C0
100
AcDbEntity
  8
M0
  6
DIVIDE
100
AcDbLine
 10
140.669447
 20
600.009934
 11
153.669447
 21
600.009934
  0
LINE
  5
4C1
100
AcDbEntity
  8
M0
  6
DIVIDE
100
AcDbLine
 10
140.669447
 20
660.009919
 11
153.669447
 21
660.009919
  0
LINE
  5
4C2
100
AcDbEntity
  8
M0
  6
DIVIDE
100
AcDbLine
 10
140.669447
 20
660.009919
 11
140.669447
 21
600.009934
  0
LINE
  5
4C3
100
AcDbEntity
  8
M0
100
AcDbLine
 10
242.726545
 20
676.009949
 11
241.669248
 21
676.009949
  0
LINE
  5
4C4
100
AcDbEntity
  8
M0
100
AcDbLine
 10
164.611494
 20
584.009888
 11
165.669263
 21
584.009888
  0
LINE
  5
4C5
100
AcDbEntity
  8
M0
100
AcDbLine
 10
253.419248
 20
580.510422
 11
241.649488
 21
580.510422
  0
LINE
  5
4C6
100
AcDbEntity
  8
M0
100
AcDbLine
 10
248.419248
 20
584.009888
 11
248.419248
 21
590.509934
  0
ARC
  5
4C7
100
AcDbEntity
  8
M0
100
AcDbCircle
 10
247.919248
 20
590.509934
 40
0.5
100
AcDbArc
 50
0.0
 51
90.0
  0
LINE
  5
4C8
100
AcDbEntity
  8
M0
100
AcDbLine
 10
247.919248
 20
591.009934
 11
243.419248
 21
591.009934
  0
ARC
  5
4C9
100
AcDbEntity
  8
M0
100
AcDbCircle
 10
243.419248
 20
590.509934
 40
0.5
100
AcDbArc
 50
90.0
 51
179.998251
  0
LINE
  5
4CA
100
AcDbEntity
  8
M0
100
AcDbLine
 10
242.919248
 20
584.009888
 11
242.919248
 21
590.509934
  0
LINE
  5
4CB
100
AcDbEntity
  8
M0
100
AcDbLine
 10
249.669248
 20
584.009888
 11
241.669248
 21
584.009888
  0
LINE
  5
4CC
100
AcDbEntity
  8
M0
100
AcDbLine
 10
249.669248
 20
580.510422
 11
249.669248
 21
592.510422
  0
LINE
  5
4CD
100
AcDbEntity
  8
M0
100
AcDbLine
 10
241.669248
 20
580.510422
 11
241.669248
 21
592.510422
  0
LINE
  5
4CE
100
AcDbEntity
  8
M0
100
AcDbLine
 10
153.919263
 20
580.510422
 11
165.689039
 21
580.510422
  0
LINE
  5
4CF
100
AcDbEntity
  8
M0
  6
DASHDOT
100
AcDbLine
 10
149.669263
 20
588.009934
 11
173.669263
 21
588.009934
  0
LINE
  5
4D0
100
AcDbEntity
  8
M0
  6
DASHDOT
100
AcDbLine
 10
161.669263
 20
600.009934
 11
161.669263
 21
576.009934
  0
LINE
  5
4D1
100
AcDbEntity
  8
M0
100
AcDbLine
 10
157.669263
 20
584.009888
 11
158.72656
 21
584.009888
  0
LINE
  5
4D2
100
AcDbEntity
  8
M0
100
AcDbLine
 10
157.669263
 20
580.510422
 11
157.669263
 21
592.510422
  0
LINE
  5
4D3
100
AcDbEntity
  8
M0
100
AcDbLine
 10
165.669263
 20
580.510422
 11
165.669263
 21
592.510422
  0
LINE
  5
4D4
100
AcDbEntity
  8
M0
100
AcDbLine
 10
253.419248
 20
679.509431
 11
241.649488
 21
679.509431
  0
LINE
  5
4D5
100
AcDbEntity
  8
M0
  6
DASHDOT
100
AcDbLine
 10
257.669248
 20
672.009919
 11
233.669248
 21
672.009919
  0
LINE
  5
4D6
100
AcDbEntity
  8
M0
  6
DASHDOT
100
AcDbLine
 10
245.669248
 20
660.009919
 11
245.669248
 21
684.009919
  0
LINE
  5
4D7
100
AcDbEntity
  8
M0
100
AcDbLine
 10
249.669248
 20
676.009949
 11
248.611478
 21
676.009949
  0
LINE
  5
4D8
100
AcDbEntity
  8
M0
100
AcDbLine
 10
249.669248
 20
679.509431
 11
249.669248
 21
667.509431
  0
LINE
  5
4D9
100
AcDbEntity
  8
M0
100
AcDbLine
 10
241.669248
 20
679.509431
 11
241.669248
 21
667.509431
  0
LINE
  5
4DA
100
AcDbEntity
  8
M0
100
AcDbLine
 10
153.919263
 20
679.509431
 11
165.689039
 21
679.509431
  0
LINE
  5
4DB
100
AcDbEntity
  8
M0
100
AcDbLine
 10
153.919263
 20
679.509431
 11
165.689039
 21
679.509431
  0
LINE
  5
4DC
100
AcDbEntity
  8
M0
100
AcDbLine
 10
157.669263
 20
676.009949
 11
165.669263
 21
676.009949
  0
ARC
  5
4DD
100
AcDbEntity
  8
M0
100
AcDbCircle
 10
163.919263
 20
669.509919
 40
0.5
100
AcDbArc
 50
270.0
 51
360.0
  0
ARC
  5
4DE
100
AcDbEntity
  8
M0
100
AcDbCircle
 10
159.419263
 20
669.509919
 40
0.5
100
AcDbArc
 50
180.0
 51
270.0
  0
LINE
  5
4DF
100
AcDbEntity
  8
M0
100
AcDbLine
 10
158.919263
 20
676.009949
 11
158.919263
 21
669.509919
  0
LINE
  5
4E0
100
AcDbEntity
  8
M0
100
AcDbLine
 10
164.419263
 20
676.009949
 11
164.419263
 21
669.509919
  0
LINE
  5
4E1
100
AcDbEntity
  8
M0
100
AcDbLine
 10
159.419263
 20
669.009919
 11
163.919263
 21
669.009919
  0
LINE
  5
4E2
100
AcDbEntity
  8
M0
100
AcDbLine
 10
157.669263
 20
679.509431
 11
157.669263
 21
667.509431
  0
LINE
  5
4E3
100
AcDbEntity
  8
M0
100
AcDbLine
 10
165.669263
 20
679.509431
 11
165.669263
 21
667.509431
  0
LINE
  5
4E4
100
AcDbEntity
  8
M0
  6
DASHDOT
100
AcDbLine
 10
161.669263
 20
660.009919
 11
161.669263
 21
684.009919
  0
LINE
  5
4E5
100
AcDbEntity
  8
M0
  6
DASHDOT
100
AcDbLine
 10
149.669263
 20
672.009919
 11
173.669263
 21
672.009919
  0
CIRCLE
  5
4E6
100
AcDbEntity
  8
M0
100
AcDbCircle
 10
161.669263
 20
672.009919
 40
2.0
  0
LINE
  5
4E7
100
AcDbEntity
  8
M0
  6
DASHDOT
100
AcDbLine
 10
245.669248
 20
660.009919
 11
245.669248
 21
684.009919
  0
LINE
  5
4E8
100
AcDbEntity
  8
M0
  6
DASHDOT
100
AcDbLine
 10
257.669248
 20
672.009919
 11
233.669248
 21
672.009919
  0
LINE
  5
4E9
100
AcDbEntity
  8
M0
  6
DASHDOT
100
AcDbLine
 10
245.669248
 20
600.009934
 11
245.669248
 21
576.009934
  0
LINE
  5
4EA
100
AcDbEntity
  8
M0
  6
DASHDOT
100
AcDbLine
 10
257.669248
 20
588.009934
 11
233.669248
 21
588.009934
  0
CIRCLE
  5
4EB
100
AcDbEntity
  8
M0
100
AcDbCircle
 10
245.669248
 20
588.009934
 40
2.0
  0
LINE
  5
4EC
100
AcDbEntity
  8
M0
  6
DASHDOT
100
AcDbLine
 10
161.669263
 20
600.009934
 11
161.669263
 21
576.009934
  0
LINE
  5
4ED
100
AcDbEntity
  8
M0
  6
DASHDOT
100
AcDbLine
 10
149.669263
 20
588.009934
 11
173.669263
 21
588.009934
  0
ARC
  5
4EE
100
AcDbEntity
  8
M0
100
AcDbCircle
 10
164.149976
 20
591.809739
 40
0.5
100
AcDbArc
 50
17.152607
 51
89.998251
  0
ARC
  5
4EF
100
AcDbEntity
  8
M0
100
AcDbCircle
 10
159.188306
 20
591.809739
 40
0.5
100
AcDbArc
 50
89.998251
 51
162.854591
  0
LINE
  5
4F0
100
AcDbEntity
  8
M0
100
AcDbLine
 10
163.083082
 20
588.36345
 11
161.315504
 21
586.595872
  0
LINE
  5
4F1
100
AcDbEntity
  8
M0
100
AcDbLine
 10
162.022535
 20
589.423997
 11
160.254957
 21
587.656418
  0
LINE
  5
4F2
100
AcDbEntity
  8
M0
100
AcDbLine
 10
163.25984
 20
586.419114
 11
160.078199
 21
589.600754
  0
LINE
  5
4F3
100
AcDbEntity
  8
M0
100
AcDbLine
 10
160.269117
 20
590.663254
 11
160.269117
 21
591.109788
  0
LINE
  5
4F4
100
AcDbEntity
  8
M0
100
AcDbLine
 10
163.069166
 20
590.663254
 11
163.069166
 21
591.109788
  0
LINE
  5
4F5
100
AcDbEntity
  8
M0
100
AcDbLine
 10
157.894117
 20
589.309983
 11
157.894117
 21
586.709885
  0
LINE
  5
4F6
100
AcDbEntity
  8
M0
100
AcDbLine
 10
164.149976
 20
592.309983
 11
159.188306
 21
592.309739
  0
LINE
  5
4F7
100
AcDbEntity
  8
M0
100
AcDbLine
 10
165.444166
 20
586.709885
 11
165.444166
 21
589.309983
  0
LINE
  5
4F8
100
AcDbEntity
  8
M0
100
AcDbLine
 10
159.347486
 20
586.109788
 11
158.079176
 21
586.109788
  0
LINE
  5
4F9
100
AcDbEntity
  8
M0
100
AcDbLine
 10
159.347486
 20
589.909836
 11
158.079176
 21
589.909836
  0
LINE
  5
4FA
100
AcDbEntity
  8
M0
100
AcDbLine
 10
160.269117
 20
591.109788
 11
158.449049
 21
591.109788
  0
LINE
  5
4FB
100
AcDbEntity
  8
M0
100
AcDbLine
 10
163.990797
 20
586.109788
 11
165.259107
 21
586.109788
  0
LINE
  5
4FC
100
AcDbEntity
  8
M0
100
AcDbLine
 10
163.990797
 20
589.909836
 11
165.259107
 21
589.909836
  0
LINE
  5
4FD
100
AcDbEntity
  8
M0
100
AcDbLine
 10
163.069166
 20
591.109788
 11
164.889234
 21
591.109788
  0
LINE
  5
4FE
100
AcDbEntity
  8
M0
100
AcDbLine
 10
164.62776
 20
584.062668
 11
165.444166
 21
586.709885
  0
LINE
  5
4FF
100
AcDbEntity
  8
M0
100
AcDbLine
 10
164.62776
 20
591.9572
 11
165.444166
 21
589.309983
  0
LINE
  5
500
100
AcDbEntity
  8
M0
100
AcDbLine
 10
158.710279
 20
584.062668
 11
157.894117
 21
586.709885
  0
LINE
  5
501
100
AcDbEntity
  8
M0
100
AcDbLine
 10
158.710279
 20
591.9572
 11
157.894117
 21
589.309983
  0
CIRCLE
  5
502
100
AcDbEntity
  8
M0
100
AcDbCircle
 10
161.669263
 20
588.009934
 40
3.0
  0
LINE
  5
503
100
AcDbEntity
  8
M0
  6
DASHDOT
 62
     6
100
AcDbLine
 10
155.345426
 20
588.009934
 11
167.781217
 21
588.009934
  0
ARC
  5
504
100
AcDbEntity
  8
M0
100
AcDbCircle
 10
164.149976
 20
584.209885
 40
0.5
100
AcDbArc
 50
270.0
 51
342.876703
  0
ARC
  5
505
100
AcDbEntity
  8
M0
100
AcDbCircle
 10
159.188306
 20
584.209885
 40
0.5
100
AcDbArc
 50
197.116613
 51
270.0
  0
LINE
  5
506
100
AcDbEntity
  8
M0
100
AcDbLine
 10
160.269117
 20
584.909836
 11
160.269117
 21
585.356614
  0
LINE
  5
507
100
AcDbEntity
  8
M0
100
AcDbLine
 10
163.069166
 20
584.909836
 11
163.069166
 21
585.356614
  0
LINE
  5
508
100
AcDbEntity
  8
M0
100
AcDbLine
 10
159.188306
 20
583.709885
 11
164.149976
 21
583.709885
  0
LINE
  5
509
100
AcDbEntity
  8
M0
100
AcDbLine
 10
160.269117
 20
584.909836
 11
158.449049
 21
584.909836
  0
LINE
  5
50A
100
AcDbEntity
  8
M0
100
AcDbLine
 10
163.069166
 20
584.909836
 11
164.889234
 21
584.909836
  0
LINE
  5
50B
100
AcDbEntity
  8
M0
  6
DASHDOT
100
AcDbLine
 10
161.669279
 20
581.172364
 11
161.668653
 21
593.901887
  0
ARC
  5
50C
100
AcDbEntity
  8
M0
100
AcDbCircle
 10
248.149961
 20
675.809724
 40
0.5
100
AcDbArc
 50
17.151452
 51
90.0
  0
ARC
  5
50D
100
AcDbEntity
  8
M0
100
AcDbCircle
 10
243.188291
 20
675.809724
 40
0.5
100
AcDbArc
 50
90.0
 51
162.856778
  0
LINE
  5
50E
100
AcDbEntity
  8
M0
100
AcDbLine
 10
247.083067
 20
672.363434
 11
245.315488
 21
670.595856
  0
LINE
  5
50F
100
AcDbEntity
  8
M0
100
AcDbLine
 10
246.02252
 20
673.423981
 11
244.254942
 21
671.656403
  0
LINE
  5
510
100
AcDbEntity
  8
M0
100
AcDbLine
 10
247.259824
 20
670.419099
 11
244.078184
 21
673.600739
  0
LINE
  5
511
100
AcDbEntity
  8
M0
100
AcDbLine
 10
244.269102
 20
674.663239
 11
244.269102
 21
675.109772
  0
LINE
  5
512
100
AcDbEntity
  8
M0
100
AcDbLine
 10
247.069151
 20
674.663239
 11
247.069151
 21
675.109772
  0
LINE
  5
513
100
AcDbEntity
  8
M0
100
AcDbLine
 10
241.894102
 20
673.309968
 11
241.894102
 21
670.70987
  0
LINE
  5
514
100
AcDbEntity
  8
M0
100
AcDbLine
 10
248.149961
 20
676.309968
 11
243.188291
 21
676.309724
  0
LINE
  5
515
100
AcDbEntity
  8
M0
100
AcDbLine
 10
249.444151
 20
670.70987
 11
249.444151
 21
673.309968
  0
LINE
  5
516
100
AcDbEntity
  8
M0
100
AcDbLine
 10
243.347471
 20
670.109772
 11
242.07916
 21
670.109772
  0
LINE
  5
517
100
AcDbEntity
  8
M0
100
AcDbLine
 10
243.347471
 20
673.909821
 11
242.07916
 21
673.909821
  0
LINE
  5
518
100
AcDbEntity
  8
M0
100
AcDbLine
 10
244.269102
 20
675.109772
 11
242.449033
 21
675.109772
  0
LINE
  5
519
100
AcDbEntity
  8
M0
100
AcDbLine
 10
247.990781
 20
670.109772
 11
249.259092
 21
670.109772
  0
LINE
  5
51A
100
AcDbEntity
  8
M0
100
AcDbLine
 10
247.990781
 20
673.909821
 11
249.259092
 21
673.909821
  0
LINE
  5
51B
100
AcDbEntity
  8
M0
100
AcDbLine
 10
247.069151
 20
675.109772
 11
248.889219
 21
675.109772
  0
LINE
  5
51C
100
AcDbEntity
  8
M0
100
AcDbLine
 10
248.627744
 20
668.062653
 11
249.444151
 21
670.70987
  0
LINE
  5
51D
100
AcDbEntity
  8
M0
100
AcDbLine
 10
248.627744
 20
675.957184
 11
249.444151
 21
673.309968
  0
LINE
  5
51E
100
AcDbEntity
  8
M0
100
AcDbLine
 10
242.710264
 20
668.062653
 11
241.894102
 21
670.70987
  0
LINE
  5
51F
100
AcDbEntity
  8
M0
100
AcDbLine
 10
242.710264
 20
675.957184
 11
241.894102
 21
673.309968
  0
CIRCLE
  5
520
100
AcDbEntity
  8
M0
100
AcDbCircle
 10
245.669248
 20
672.009919
 40
3.0
  0
LINE
  5
521
100
AcDbEntity
  8
M0
  6
DASHDOT
 62
     6
100
AcDbLine
 10
239.345411
 20
672.009919
 11
251.781202
 21
672.009919
  0
ARC
  5
522
100
AcDbEntity
  8
M0
100
AcDbCircle
 10
248.149961
 20
668.20987
 40
0.5
100
AcDbArc
 50
269.998251
 51
342.874517
  0
ARC
  5
523
100
AcDbEntity
  8
M0
100
AcDbCircle
 10
243.188291
 20
668.20987
 40
0.5
100
AcDbArc
 50
197.11777
 51
269.998251
  0
LINE
  5
524
100
AcDbEntity
  8
M0
100
AcDbLine
 10
244.269102
 20
668.909821
 11
244.269102
 21
669.356599
  0
LINE
  5
525
100
AcDbEntity
  8
M0
100
AcDbLine
 10
247.069151
 20
668.909821
 11
247.069151
 21
669.356599
  0
LINE
  5
526
100
AcDbEntity
  8
M0
100
AcDbLine
 10
243.188291
 20
667.70987
 11
248.149961
 21
667.70987
  0
LINE
  5
527
100
AcDbEntity
  8
M0
100
AcDbLine
 10
244.269102
 20
668.909821
 11
242.449033
 21
668.909821
  0
LINE
  5
528
100
AcDbEntity
  8
M0
100
AcDbLine
 10
247.069151
 20
668.909821
 11
248.889219
 21
668.909821
  0
LINE
  5
529
100
AcDbEntity
  8
M0
  6
DASHDOT
100
AcDbLine
 10
245.669263
 20
665.172349
 11
245.668638
 21
677.901871
  0
LINE
  5
52A
100
AcDbEntity
  8
M0
  6
DASHDOT
100
AcDbLine
 10
170.669218
 20
697.259949
 11
170.669233
 21
682.759949
  0
LINE
  5
52B
100
AcDbEntity
  8
M0
  6
DASHDOT
100
AcDbLine
 10
177.919233
 20
690.009949
 11
163.419233
 21
690.009949
  0
LINE
  5
52C
100
AcDbEntity
  8
M0
100
AcDbLine
 10
171.269224
 20
693.109803
 11
170.069227
 21
693.109803
  0
LINE
  5
52D
100
AcDbEntity
  8
M0
100
AcDbLine
 10
170.069227
 20
686.909852
 11
171.269224
 21
686.909852
  0
LINE
  5
52E
100
AcDbEntity
  8
M0
100
AcDbLine
 10
170.069227
 20
693.109803
 11
170.069227
 21
690.609803
  0
LINE
  5
52F
100
AcDbEntity
  8
M0
100
AcDbLine
 10
170.069227
 20
689.409852
 11
170.069227
 21
686.909852
  0
LINE
  5
530
100
AcDbEntity
  8
M0
100
AcDbLine
 10
171.269224
 20
686.909852
 11
171.269224
 21
689.409852
  0
LINE
  5
531
100
AcDbEntity
  8
M0
100
AcDbLine
 10
171.269224
 20
690.609803
 11
171.269224
 21
693.109803
  0
LINE
  5
532
100
AcDbEntity
  8
M0
100
AcDbLine
 10
175.88484
 20
690.609803
 11
171.269224
 21
690.609788
  0
LINE
  5
533
100
AcDbEntity
  8
M0
100
AcDbLine
 10
170.069227
 20
690.609788
 11
165.453611
 21
690.609788
  0
LINE
  5
534
100
AcDbEntity
  8
M0
100
AcDbLine
 10
165.453641
 20
689.409852
 11
170.069227
 21
689.409852
  0
LINE
  5
535
100
AcDbEntity
  8
M0
100
AcDbLine
 10
171.269224
 20
689.409852
 11
175.884809
 21
689.409852
  0
CIRCLE
  5
536
100
AcDbEntity
  8
M0
100
AcDbCircle
 10
170.669233
 20
690.009949
 40
5.25
  0
LINE
  5
537
100
AcDbEntity
  8
M0
  6
DASHDOT
100
AcDbLine
 10
203.669248
 20
697.259919
 11
203.669263
 21
682.759919
  0
LINE
  5
538
100
AcDbEntity
  8
M0
  6
DASHDOT
100
AcDbLine
 10
210.919262
 20
690.009919
 11
196.419263
 21
690.009919
  0
LINE
  5
539
100
AcDbEntity
  8
M0
100
AcDbLine
 10
204.269254
 20
693.109772
 11
203.069257
 21
693.109772
  0
LINE
  5
53A
100
AcDbEntity
  8
M0
100
AcDbLine
 10
203.069257
 20
686.909821
 11
204.269254
 21
686.909821
  0
LINE
  5
53B
100
AcDbEntity
  8
M0
100
AcDbLine
 10
203.069257
 20
693.109772
 11
203.069257
 21
690.609772
  0
LINE
  5
53C
100
AcDbEntity
  8
M0
100
AcDbLine
 10
203.069257
 20
689.409821
 11
203.069257
 21
686.909821
  0
LINE
  5
53D
100
AcDbEntity
  8
M0
100
AcDbLine
 10
204.269254
 20
686.909821
 11
204.269254
 21
689.409821
  0
LINE
  5
53E
100
AcDbEntity
  8
M0
100
AcDbLine
 10
204.269254
 20
690.609772
 11
204.269254
 21
693.109772
  0
LINE
  5
53F
100
AcDbEntity
  8
M0
100
AcDbLine
 10
208.884869
 20
690.609772
 11
204.269254
 21
690.609757
  0
LINE
  5
540
100
AcDbEntity
  8
M0
100
AcDbLine
 10
203.069257
 20
690.609757
 11
198.453641
 21
690.609757
  0
LINE
  5
541
100
AcDbEntity
  8
M0
100
AcDbLine
 10
198.453672
 20
689.409821
 11
203.069257
 21
689.409821
  0
LINE
  5
542
100
AcDbEntity
  8
M0
100
AcDbLine
 10
204.269254
 20
689.409821
 11
208.884839
 21
689.409821
  0
CIRCLE
  5
543
100
AcDbEntity
  8
M0
100
AcDbCircle
 10
203.669263
 20
690.009919
 40
5.25
  0
LINE
  5
544
100
AcDbEntity
  8
M0
  6
DASHDOT
100
AcDbLine
 10
236.669233
 20
697.259919
 11
236.669248
 21
682.759919
  0
LINE
  5
545
100
AcDbEntity
  8
M0
  6
DASHDOT
100
AcDbLine
 10
243.919248
 20
690.009919
 11
229.419248
 21
690.009919
  0
LINE
  5
546
100
AcDbEntity
  8
M0
100
AcDbLine
 10
237.269239
 20
693.109772
 11
236.069242
 21
693.109772
  0
LINE
  5
547
100
AcDbEntity
  8
M0
100
AcDbLine
 10
236.069242
 20
686.909821
 11
237.269239
 21
686.909821
  0
LINE
  5
548
100
AcDbEntity
  8
M0
100
AcDbLine
 10
236.069242
 20
693.109772
 11
236.069242
 21
690.609772
  0
LINE
  5
549
100
AcDbEntity
  8
M0
100
AcDbLine
 10
236.069242
 20
689.409821
 11
236.069242
 21
686.909821
  0
LINE
  5
54A
100
AcDbEntity
  8
M0
100
AcDbLine
 10
237.269239
 20
686.909821
 11
237.269239
 21
689.409821
  0
LINE
  5
54B
100
AcDbEntity
  8
M0
100
AcDbLine
 10
237.269239
 20
690.609772
 11
237.269239
 21
693.109772
  0
LINE
  5
54C
100
AcDbEntity
  8
M0
100
AcDbLine
 10
241.884855
 20
690.609772
 11
237.269239
 21
690.609757
  0
LINE
  5
54D
100
AcDbEntity
  8
M0
100
AcDbLine
 10
236.069242
 20
690.609757
 11
231.453626
 21
690.609757
  0
LINE
  5
54E
100
AcDbEntity
  8
M0
100
AcDbLine
 10
231.453657
 20
689.409821
 11
236.069242
 21
689.409821
  0
LINE
  5
54F
100
AcDbEntity
  8
M0
100
AcDbLine
 10
237.269239
 20
689.409821
 11
241.884824
 21
689.409821
  0
CIRCLE
  5
550
100
AcDbEntity
  8
M0
100
AcDbCircle
 10
236.669248
 20
690.009919
 40
5.25
  0
LINE
  5
551
100
AcDbEntity
  8
M0
  6
DASHDOT
100
AcDbLine
 10
236.669233
 20
577.259934
 11
236.669248
 21
562.759934
  0
LINE
  5
552
100
AcDbEntity
  8
M0
  6
DASHDOT
100
AcDbLine
 10
243.919248
 20
570.009934
 11
229.419248
 21
570.009934
  0
LINE
  5
553
100
AcDbEntity
  8
M0
100
AcDbLine
 10
237.269239
 20
573.109788
 11
236.069242
 21
573.109788
  0
LINE
  5
554
100
AcDbEntity
  8
M0
100
AcDbLine
 10
236.069242
 20
566.909836
 11
237.269239
 21
566.909836
  0
LINE
  5
555
100
AcDbEntity
  8
M0
100
AcDbLine
 10
236.069242
 20
573.109788
 11
236.069242
 21
570.609788
  0
LINE
  5
556
100
AcDbEntity
  8
M0
100
AcDbLine
 10
236.069242
 20
569.409836
 11
236.069242
 21
566.909836
  0
LINE
  5
557
100
AcDbEntity
  8
M0
100
AcDbLine
 10
237.269239
 20
566.909836
 11
237.269239
 21
569.409836
  0
LINE
  5
558
100
AcDbEntity
  8
M0
100
AcDbLine
 10
237.269239
 20
570.609788
 11
237.269239
 21
573.109788
  0
LINE
  5
559
100
AcDbEntity
  8
M0
100
AcDbLine
 10
241.884855
 20
570.609788
 11
237.269239
 21
570.609772
  0
LINE
  5
55A
100
AcDbEntity
  8
M0
100
AcDbLine
 10
236.069242
 20
570.609772
 11
231.453626
 21
570.609772
  0
LINE
  5
55B
100
AcDbEntity
  8
M0
100
AcDbLine
 10
231.453657
 20
569.409836
 11
236.069242
 21
569.409836
  0
LINE
  5
55C
100
AcDbEntity
  8
M0
100
AcDbLine
 10
237.269239
 20
569.409836
 11
241.884824
 21
569.409836
  0
CIRCLE
  5
55D
100
AcDbEntity
  8
M0
100
AcDbCircle
 10
236.669248
 20
570.009934
 40
5.25
  0
LINE
  5
55E
100
AcDbEntity
  8
M0
  6
DASHDOT
100
AcDbLine
 10
203.669248
 20
577.259934
 11
203.669263
 21
562.759934
  0
LINE
  5
55F
100
AcDbEntity
  8
M0
  6
DASHDOT
100
AcDbLine
 10
210.919262
 20
570.009934
 11
196.419263
 21
570.009934
  0
LINE
  5
560
100
AcDbEntity
  8
M0
100
AcDbLine
 10
204.269254
 20
573.109788
 11
203.069257
 21
573.109788
  0
LINE
  5
561
100
AcDbEntity
  8
M0
100
AcDbLine
 10
203.069257
 20
566.909836
 11
204.269254
 21
566.909836
  0
LINE
  5
562
100
AcDbEntity
  8
M0
100
AcDbLine
 10
203.069257
 20
573.109788
 11
203.069257
 21
570.609788
  0
LINE
  5
563
100
AcDbEntity
  8
M0
100
AcDbLine
 10
203.069257
 20
569.409836
 11
203.069257
 21
566.909836
  0
LINE
  5
564
100
AcDbEntity
  8
M0
100
AcDbLine
 10
204.269254
 20
566.909836
 11
204.269254
 21
569.409836
  0
LINE
  5
565
100
AcDbEntity
  8
M0
100
AcDbLine
 10
204.269254
 20
570.609788
 11
204.269254
 21
573.109788
  0
LINE
  5
566
100
AcDbEntity
  8
M0
100
AcDbLine
 10
208.884869
 20
570.609788
 11
204.269254
 21
570.609772
  0
LINE
  5
567
100
AcDbEntity
  8
M0
100
AcDbLine
 10
203.069257
 20
570.609772
 11
198.453641
 21
570.609772
  0
LINE
  5
568
100
AcDbEntity
  8
M0
100
AcDbLine
 10
198.453672
 20
569.409836
 11
203.069257
 21
569.409836
  0
LINE
  5
569
100
AcDbEntity
  8
M0
100
AcDbLine
 10
204.269254
 20
569.409836
 11
208.884839
 21
569.409836
  0
CIRCLE
  5
56A
100
AcDbEntity
  8
M0
100
AcDbCircle
 10
203.669263
 20
570.009934
 40
5.25
  0
LINE
  5
56B
100
AcDbEntity
  8
M0
  6
DASHDOT
100
AcDbLine
 10
170.669218
 20
577.259888
 11
170.669233
 21
562.759888
  0
LINE
  5
56C
100
AcDbEntity
  8
M0
  6
DASHDOT
100
AcDbLine
 10
177.919233
 20
570.009888
 11
163.419233
 21
570.009888
  0
LINE
  5
56D
100
AcDbEntity
  8
M0
100
AcDbLine
 10
171.269224
 20
573.109742
 11
170.069227
 21
573.109742
  0
LINE
  5
56E
100
AcDbEntity
  8
M0
100
AcDbLine
 10
170.069227
 20
566.909791
 11
171.269224
 21
566.909791
  0
LINE
  5
56F
100
AcDbEntity
  8
M0
100
AcDbLine
 10
170.069227
 20
573.109742
 11
170.069227
 21
570.609742
  0
LINE
  5
570
100
AcDbEntity
  8
M0
100
AcDbLine
 10
170.069227
 20
569.409791
 11
170.069227
 21
566.909791
  0
LINE
  5
571
100
AcDbEntity
  8
M0
100
AcDbLine
 10
171.269224
 20
566.909791
 11
171.269224
 21
569.409791
  0
LINE
  5
572
100
AcDbEntity
  8
M0
100
AcDbLine
 10
171.269224
 20
570.609742
 11
171.269224
 21
573.109742
  0
LINE
  5
573
100
AcDbEntity
  8
M0
100
AcDbLine
 10
175.88484
 20
570.609742
 11
171.269224
 21
570.609727
  0
LINE
  5
574
100
AcDbEntity
  8
M0
100
AcDbLine
 10
170.069227
 20
570.609727
 11
165.453611
 21
570.609727
  0
LINE
  5
575
100
AcDbEntity
  8
M0
100
AcDbLine
 10
165.453641
 20
569.409791
 11
170.069227
 21
569.409791
  0
LINE
  5
576
100
AcDbEntity
  8
M0
100
AcDbLine
 10
171.269224
 20
569.409791
 11
175.884809
 21
569.409791
  0
CIRCLE
  5
577
100
AcDbEntity
  8
M0
100
AcDbCircle
 10
170.669233
 20
570.009888
 40
5.25
  0
LINE
  5
578
100
AcDbEntity
  8
M0
100
AcDbLine
 10
179.304182
 20
562.009888
 11
180.669233
 21
562.009888
  0
LINE
  5
579
100
AcDbEntity
  8
M0
100
AcDbLine
 10
176.27223
 20
580.509934
 11
209.169375
 21
580.509934
  0
LINE
  5
57A
100
AcDbEntity
  8
M0
100
AcDbLine
 10
160.882719
 20
576.201295
 11
160.669233
 21
576.009888
  0
LINE
  5
57B
100
AcDbEntity
  8
M0
100
AcDbLine
 10
195.169263
 20
562.009934
 11
193.669263
 21
562.009934
  0
LINE
  5
57C
100
AcDbEntity
  8
M0
100
AcDbLine
 10
246.457731
 20
576.19957
 11
246.669248
 21
576.009934
  0
LINE
  5
57D
100
AcDbEntity
  8
M0
100
AcDbLine
 10
234.881666
 20
580.509934
 11
238.169385
 21
580.509934
  0
ARC
  5
57E
100
AcDbEntity
  8
M0
100
AcDbCircle
 10
209.169262
 20
577.009919
 40
3.0
100
AcDbArc
 50
0.0
 51
90.0
  0
LINE
  5
57F
100
AcDbEntity
  8
M0
100
AcDbLine
 10
209.169262
 20
580.009919
 11
198.169263
 21
580.009919
  0
ARC
  5
580
100
AcDbEntity
  8
M0
100
AcDbCircle
 10
198.169263
 20
577.009919
 40
3.0
100
AcDbArc
 50
90.0
 51
179.999709
  0
LINE
  5
581
100
AcDbEntity
  8
M0
100
AcDbLine
 10
195.169263
 20
577.009919
 11
195.169263
 21
558.21457
  0
LINE
  5
582
100
AcDbEntity
  8
M0
100
AcDbLine
 10
212.169262
 20
563.009919
 11
212.169262
 21
577.009919
  0
ARC
  5
583
100
AcDbEntity
  8
M0
100
AcDbCircle
 10
196.669263
 20
532.509934
 40
6.5
100
AcDbArc
 50
179.999865
 51
270.0
  0
ARC
  5
584
100
AcDbEntity
  8
M0
100
AcDbCircle
 10
196.669263
 20
532.509934
 40
6.5
100
AcDbArc
 50
270.0
 51
360.0
  0
ARC
  5
585
100
AcDbEntity
  8
M0
100
AcDbCircle
 10
185.169263
 20
558.21457
 40
10.0
100
AcDbArc
 50
324.462332
 51
360.0
  0
LINE
  5
586
100
AcDbEntity
  8
M0
100
AcDbLine
 10
203.169263
 20
532.509934
 11
203.169263
 21
545.240082
  0
ARC
  5
587
100
AcDbEntity
  8
M0
100
AcDbCircle
 10
213.169262
 20
545.240082
 40
10.0
100
AcDbArc
 50
149.036153
 51
179.999913
  0
LINE
  5
588
100
AcDbEntity
  8
M0
100
AcDbLine
 10
190.169263
 20
548.009934
 11
193.306598
 21
552.402192
  0
LINE
  5
589
100
AcDbEntity
  8
M0
100
AcDbLine
 10
190.169263
 20
532.509934
 11
190.169263
 21
548.009934
  0
LINE
  5
58A
100
AcDbEntity
  8
M0
100
AcDbLine
 10
212.169262
 20
563.009919
 11
204.594334
 21
550.385041
  0
CIRCLE
  5
58B
100
AcDbEntity
  8
M0
100
AcDbCircle
 10
244.419492
 20
548.609925
 40
3.5
  0
ARC
  5
58C
100
AcDbEntity
  8
M0
 62
     1
100
AcDbCircle
 10
157.919309
 20
507.109925
 40
2.5
100
AcDbArc
 50
179.99965
 51
270.0
  0
CIRCLE
  5
58D
100
AcDbEntity
  8
M0
  6
DASHED
 62
     7
100
AcDbCircle
 10
246.418348
 20
529.609025
 40
7.699996
  0
LINE
  5
58E
100
AcDbEntity
  8
M0
 62
     7
100
AcDbLine
 10
163.665906
 20
504.260804
 11
177.165906
 21
504.260804
  0
LINE
  5
58F
100
AcDbEntity
  8
M0
 62
     7
100
AcDbLine
 10
178.165906
 20
505.26056
 11
178.165906
 21
518.760316
  0
LINE
  5
590
100
AcDbEntity
  8
M0
 62
     7
100
AcDbLine
 10
162.665906
 20
518.76056
 11
162.665906
 21
505.260804
  0
ARC
  5
591
100
AcDbEntity
  8
M0
 62
     7
100
AcDbCircle
 10
177.165906
 20
518.76056
 40
1.0
100
AcDbArc
 50
359.986012
 51
374.508033
  0
ARC
  5
592
100
AcDbEntity
  8
M0
 62
     7
100
AcDbCircle
 10
163.665906
 20
518.76056
 40
1.0
100
AcDbArc
 50
165.491748
 51
179.999126
  0
ARC
  5
593
100
AcDbEntity
  8
M0
 62
     7
100
AcDbCircle
 10
163.665906
 20
505.260804
 40
1.0
100
AcDbArc
 50
179.999126
 51
270.0
  0
ARC
  5
594
100
AcDbEntity
  8
M0
 62
     7
100
AcDbCircle
 10
177.165906
 20
505.260804
 40
1.0
100
AcDbArc
 50
270.0
 51
359.986012
  0
CIRCLE
  5
595
100
AcDbEntity
  8
M0
 62
     7
100
AcDbCircle
 10
170.415906
 20
512.010804
 40
5.249992
  0
LINE
  5
596
100
AcDbEntity
  8
M0
  6
DASHDOT
 62
     7
100
AcDbLine
 10
157.658338
 20
512.010804
 11
183.173231
 21
512.010804
  0
LINE
  5
597
100
AcDbEntity
  8
M0
 62
     7
100
AcDbLine
 10
172.783094
 20
509.643372
 11
167.846571
 21
514.58014
  0
LINE
  5
598
100
AcDbEntity
  8
M0
 62
     7
100
AcDbLine
 10
168.147596
 20
510.44928
 11
171.948621
 21
514.250306
  0
LINE
  5
599
100
AcDbEntity
  8
M0
 62
     7
100
AcDbLine
 10
168.854627
 20
509.742005
 11
172.655653
 21
513.54303
  0
LINE
  5
59A
100
AcDbEntity
  8
M0
 62
     7
100
AcDbLine
 10
189.665662
 20
504.260804
 11
203.165662
 21
504.260804
  0
LINE
  5
59B
100
AcDbEntity
  8
M0
 62
     7
100
AcDbLine
 10
204.165662
 20
505.26056
 11
204.165662
 21
518.760316
  0
LINE
  5
59C
100
AcDbEntity
  8
M0
 62
     7
100
AcDbLine
 10
188.665662
 20
518.76056
 11
188.665662
 21
505.260804
  0
ARC
  5
59D
100
AcDbEntity
  8
M0
 62
     7
100
AcDbCircle
 10
203.165662
 20
518.76056
 40
1.0
100
AcDbArc
 50
359.986012
 51
374.494648
  0
ARC
  5
59E
100
AcDbEntity
  8
M0
 62
     7
100
AcDbCircle
 10
189.665662
 20
518.76056
 40
1.0
100
AcDbArc
 50
165.508952
 51
179.999126
  0
ARC
  5
59F
100
AcDbEntity
  8
M0
 62
     7
100
AcDbCircle
 10
189.665662
 20
505.260804
 40
1.0
100
AcDbArc
 50
179.999126
 51
270.0
  0
ARC
  5
5A0
100
AcDbEntity
  8
M0
 62
     7
100
AcDbCircle
 10
203.165662
 20
505.260804
 40
1.0
100
AcDbArc
 50
270.0
 51
359.986012
  0
CIRCLE
  5
5A1
100
AcDbEntity
  8
M0
 62
     7
100
AcDbCircle
 10
196.415662
 20
512.010804
 40
5.249992
  0
LINE
  5
5A2
100
AcDbEntity
  8
M0
  6
DASHDOT
 62
     7
100
AcDbLine
 10
183.658094
 20
512.010804
 11
209.172986
 21
512.010804
  0
LINE
  5
5A3
100
AcDbEntity
  8
M0
 62
     7
100
AcDbLine
 10
198.78285
 20
509.643372
 11
193.846082
 21
514.58014
  0
LINE
  5
5A4
100
AcDbEntity
  8
M0
 62
     7
100
AcDbLine
 10
194.147108
 20
510.44928
 11
197.948377
 21
514.250306
  0
LINE
  5
5A5
100
AcDbEntity
  8
M0
 62
     7
100
AcDbLine
 10
194.854383
 20
509.742005
 11
198.655408
 21
513.54303
  0
LINE
  5
5A6
100
AcDbEntity
  8
M0
 62
     7
100
AcDbLine
 10
215.665661
 20
504.260804
 11
229.165647
 21
504.260804
  0
LINE
  5
5A7
100
AcDbEntity
  8
M0
 62
     7
100
AcDbLine
 10
214.665661
 20
518.76056
 11
214.665661
 21
505.260804
  0
ARC
  5
5A8
100
AcDbEntity
  8
M0
 62
     7
100
AcDbCircle
 10
215.665661
 20
518.76056
 40
1.0
100
AcDbArc
 50
165.508966
 51
179.999126
  0
ARC
  5
5A9
100
AcDbEntity
  8
M0
 62
     7
100
AcDbCircle
 10
215.665661
 20
505.260804
 40
1.0
100
AcDbArc
 50
179.999126
 51
270.0
  0
ARC
  5
5AA
100
AcDbEntity
  8
M0
 62
     7
100
AcDbCircle
 10
229.165647
 20
505.260804
 40
1.0
100
AcDbArc
 50
269.999126
 51
359.986012
  0
LINE
  5
5AB
100
AcDbEntity
  8
M0
 62
     7
100
AcDbLine
 10
224.782835
 20
509.643372
 11
219.846067
 21
514.58014
  0
LINE
  5
5AC
100
AcDbEntity
  8
M0
 62
     7
100
AcDbLine
 10
220.147092
 20
510.44928
 11
223.948362
 21
514.250306
  0
LINE
  5
5AD
100
AcDbEntity
  8
M0
  6
DASHDOT
 62
     7
100
AcDbLine
 10
183.658094
 20
533.510804
 11
209.172986
 21
533.510804
  0
LINE
  5
5AE
100
AcDbEntity
  8
M0
 62
     7
100
AcDbLine
 10
198.78285
 20
531.143372
 11
193.846082
 21
536.08014
  0
LINE
  5
5AF
100
AcDbEntity
  8
M0
 62
     7
100
AcDbLine
 10
194.147108
 20
531.94928
 11
197.948377
 21
535.750306
  0
LINE
  5
5B0
100
AcDbEntity
  8
M0
 62
     7
100
AcDbLine
 10
194.854383
 20
531.242005
 11
198.655408
 21
535.04303
  0
LINE
  5
5B1
100
AcDbEntity
  8
M0
 62
     7
100
AcDbLine
 10
220.147092
 20
531.94928
 11
223.948362
 21
535.750306
  0
LINE
  5
5B2
100
AcDbEntity
  8
M0
  6
DASHDOT
 62
     7
100
AcDbLine
 10
157.658338
 20
533.510804
 11
183.173231
 21
533.510804
  0
LINE
  5
5B3
100
AcDbEntity
  8
M0
 62
     7
100
AcDbLine
 10
172.783094
 20
531.143372
 11
167.846571
 21
536.08014
  0
LINE
  5
5B4
100
AcDbEntity
  8
M0
 62
     7
100
AcDbLine
 10
168.147596
 20
531.94928
 11
171.948621
 21
535.750306
  0
LINE
  5
5B5
100
AcDbEntity
  8
M0
 62
     7
100
AcDbLine
 10
168.854627
 20
531.242005
 11
172.655653
 21
535.04303
  0
LINE
  5
5B6
100
AcDbEntity
  8
M0
 62
     7
100
AcDbLine
 10
182.415418
 20
498.510804
 11
184.415418
 21
498.510804
  0
LINE
  5
5B7
100
AcDbEntity
  8
M0
 62
     7
100
AcDbLine
 10
210.415173
 20
499.01056
 11
208.415173
 21
499.01056
  0
ARC
  5
5B8
100
AcDbEntity
  8
M0
 62
     7
100
AcDbCircle
 10
210.415417
 20
500.01056
 40
1.0
100
AcDbArc
 50
269.985957
 51
360.0
  0
ARC
  5
5B9
100
AcDbEntity
  8
M0
 62
     7
100
AcDbCircle
 10
208.415417
 20
500.01056
 40
1.0
100
AcDbArc
 50
179.999126
 51
269.985957
  0
ARC
  5
5BA
100
AcDbEntity
  8
M0
 62
     7
100
AcDbCircle
 10
182.415418
 20
499.511048
 40
1.0
100
AcDbArc
 50
179.999126
 51
270.0
  0
ARC
  5
5BB
100
AcDbEntity
  8
M0
 62
     7
100
AcDbCircle
 10
184.415418
 20
499.511048
 40
1.0
100
AcDbArc
 50
270.0
 51
360.0
  0
LINE
  5
5BC
100
AcDbEntity
  8
M0
 62
     7
100
AcDbLine
 10
204.915417
 20
504.010804
 11
204.915417
 21
518.010804
  0
LINE
  5
5BD
100
AcDbEntity
  8
M0
 62
     7
100
AcDbLine
 10
207.415417
 20
501.51056
 11
204.915417
 21
504.010804
  0
LINE
  5
5BE
100
AcDbEntity
  8
M0
 62
     7
100
AcDbLine
 10
185.415418
 20
501.511048
 11
187.915418
 21
504.011292
  0
LINE
  5
5BF
100
AcDbEntity
  8
M0
 62
     7
100
AcDbLine
 10
187.915418
 20
504.011292
 11
187.915418
 21
518.011048
  0
ARC
  5
5C0
100
AcDbEntity
  8
M0
 62
     7
100
AcDbCircle
 10
206.415417
 20
518.010804
 40
1.0
100
AcDbArc
 50
0.0
 51
90.0
  0
ARC
  5
5C1
100
AcDbEntity
  8
M0
 62
     7
100
AcDbCircle
 10
203.915418
 20
518.011048
 40
1.0
100
AcDbArc
 50
359.986012
 51
450.0
  0
ARC
  5
5C2
100
AcDbEntity
  8
M0
 62
     7
100
AcDbCircle
 10
186.415418
 20
518.011048
 40
1.0
100
AcDbArc
 50
89.999126
 51
179.999126
  0
ARC
  5
5C3
100
AcDbEntity
  8
M0
 62
     7
100
AcDbCircle
 10
188.915418
 20
518.011048
 40
1.0
100
AcDbArc
 50
90.0
 51
179.999126
  0
ARC
  5
5C4
100
AcDbEntity
  8
M0
 62
     7
100
AcDbCircle
 10
188.915418
 20
524.511048
 40
1.0
100
AcDbArc
 50
179.999126
 51
270.0
  0
ARC
  5
5C5
100
AcDbEntity
  8
M0
 62
     7
100
AcDbCircle
 10
203.915418
 20
524.511048
 40
1.0
100
AcDbArc
 50
270.0
 51
359.986012
  0
ARC
  5
5C6
100
AcDbEntity
  8
M0
 62
     7
100
AcDbCircle
 10
186.415418
 20
524.511048
 40
1.0
100
AcDbArc
 50
179.999126
 51
270.0
  0
ARC
  5
5C7
100
AcDbEntity
  8
M0
 62
     7
100
AcDbCircle
 10
206.415417
 20
524.510804
 40
1.0
100
AcDbArc
 50
270.0
 51
360.0
  0
LINE
  5
5C8
100
AcDbEntity
  8
M0
 62
     7
100
AcDbLine
 10
180.415418
 20
519.011048
 11
160.415662
 21
519.011292
  0
LINE
  5
5C9
100
AcDbEntity
  8
M0
 62
     7
100
AcDbLine
 10
180.415418
 20
521.511048
 11
160.415662
 21
521.511292
  0
LINE
  5
5CA
100
AcDbEntity
  8
M0
 62
     7
100
AcDbLine
 10
180.415418
 20
523.511048
 11
160.415662
 21
523.511292
  0
LINE
  5
5CB
100
AcDbEntity
  8
M0
 62
     7
100
AcDbLine
 10
178.915418
 20
518.011048
 11
178.915418
 21
504.011536
  0
LINE
  5
5CC
100
AcDbEntity
  8
M0
 62
     7
100
AcDbLine
 10
161.915662
 20
518.011536
 11
161.915662
 21
513.011536
  0
ARC
  5
5CD
100
AcDbEntity
  8
M0
 62
     7
100
AcDbCircle
 10
180.415418
 20
518.011048
 40
1.0
100
AcDbArc
 50
0.0
 51
89.999126
  0
ARC
  5
5CE
100
AcDbEntity
  8
M0
 62
     7
100
AcDbCircle
 10
180.415418
 20
524.511048
 40
1.0
100
AcDbArc
 50
270.0
 51
360.0
  0
ARC
  5
5CF
100
AcDbEntity
  8
M0
 62
     7
100
AcDbCircle
 10
160.415662
 20
518.011292
 40
1.0
100
AcDbArc
 50
89.999126
 51
179.999126
  0
ARC
  5
5D0
100
AcDbEntity
  8
M0
 62
     7
100
AcDbCircle
 10
160.415662
 20
524.511292
 40
1.0
100
AcDbArc
 50
179.999126
 51
270.0
  0
ARC
  5
5D1
100
AcDbEntity
  8
M0
 62
     7
100
AcDbCircle
 10
180.415418
 20
520.511048
 40
1.0
100
AcDbArc
 50
0.0
 51
89.999126
  0
ARC
  5
5D2
100
AcDbEntity
  8
M0
 62
     7
100
AcDbCircle
 10
160.415662
 20
520.511292
 40
1.0
100
AcDbArc
 50
89.999126
 51
179.999126
  0
LINE
  5
5D3
100
AcDbEntity
  8
M0
 62
     7
100
AcDbLine
 10
159.415662
 20
510.511292
 11
161.915662
 21
513.011536
  0
LINE
  5
5D4
100
AcDbEntity
  8
M0
 62
     7
100
AcDbLine
 10
181.415418
 20
501.51178
 11
178.915418
 21
504.011536
  0
ARC
  5
5D5
100
AcDbEntity
  8
M0
 62
     7
100
AcDbCircle
 10
177.915418
 20
518.011048
 40
1.0
100
AcDbArc
 50
0.0
 51
89.999126
  0
ARC
  5
5D6
100
AcDbEntity
  8
M0
 62
     7
100
AcDbCircle
 10
162.915662
 20
518.011292
 40
1.0
100
AcDbArc
 50
89.999126
 51
179.985137
  0
LINE
  5
5D7
100
AcDbEntity
  8
M0
 62
     7
100
AcDbLine
 10
158.415418
 20
509.011292
 11
155.915418
 21
509.011292
  0
ARC
  5
5D8
100
AcDbEntity
  8
M0
 62
     7
100
AcDbCircle
 10
155.915418
 20
509.511292
 40
0.5
100
AcDbArc
 50
179.998251
 51
270.0
  0
ARC
  5
5D9
100
AcDbEntity
  8
M0
 62
     7
100
AcDbCircle
 10
158.415418
 20
510.011292
 40
1.0
100
AcDbArc
 50
270.0
 51
360.0
  0
LINE
  5
5DA
100
AcDbEntity
  8
M0
 62
     7
100
AcDbLine
 10
213.915417
 20
504.011292
 11
213.915417
 21
518.010804
  0
LINE
  5
5DB
100
AcDbEntity
  8
M0
 62
     7
100
AcDbLine
 10
211.415417
 20
501.511536
 11
213.915417
 21
504.011292
  0
ARC
  5
5DC
100
AcDbEntity
  8
M0
 62
     7
100
AcDbCircle
 10
214.915417
 20
518.010804
 40
1.0
100
AcDbArc
 50
90.0
 51
179.999126
  0
ARC
  5
5DD
100
AcDbEntity
  8
M0
 62
     7
100
AcDbCircle
 10
212.415417
 20
518.010804
 40
1.0
100
AcDbArc
 50
90.0
 51
179.999126
  0
LINE
  5
5DE
100
AcDbEntity
  8
M0
 62
     7
100
AcDbLine
 10
206.415417
 20
519.010804
 11
186.415418
 21
519.011048
  0
LINE
  5
5DF
100
AcDbEntity
  8
M0
 62
     7
100
AcDbLine
 10
214.915417
 20
519.010804
 11
212.415417
 21
519.010804
  0
ARC
  5
5E0
100
AcDbEntity
  8
M0
 62
     7
100
AcDbCircle
 10
214.915417
 20
524.510804
 40
1.0
100
AcDbArc
 50
179.999126
 51
270.0
  0
ARC
  5
5E1
100
AcDbEntity
  8
M0
 62
     7
100
AcDbCircle
 10
212.415417
 20
524.510804
 40
1.0
100
AcDbArc
 50
179.999126
 51
270.0
  0
LINE
  5
5E2
100
AcDbEntity
  8
M0
 62
     7
100
AcDbLine
 10
206.415417
 20
521.510804
 11
186.415418
 21
521.511048
  0
LINE
  5
5E3
100
AcDbEntity
  8
M0
 62
     7
100
AcDbLine
 10
206.415417
 20
523.510804
 11
186.415418
 21
523.511048
  0
ARC
  5
5E4
100
AcDbEntity
  8
M0
 62
     7
100
AcDbCircle
 10
212.415417
 20
520.510804
 40
1.0
100
AcDbArc
 50
90.0
 51
179.999126
  0
ARC
  5
5E5
100
AcDbEntity
  8
M0
 62
     7
100
AcDbCircle
 10
186.415418
 20
520.511048
 40
1.0
100
AcDbArc
 50
89.999126
 51
179.999126
  0
ARC
  5
5E6
100
AcDbEntity
  8
M0
 62
     7
100
AcDbCircle
 10
206.415417
 20
520.510804
 40
1.0
100
AcDbArc
 50
0.0
 51
90.0
  0
LINE
  5
5E7
100
AcDbEntity
  8
M0
 62
     7
100
AcDbLine
 10
234.419309
 20
503.506562
 11
230.915403
 21
507.011048
  0
LINE
  5
5E8
100
AcDbEntity
  8
M0
 62
     7
100
AcDbLine
 10
231.23303
 20
510.608948
 11
233.918089
 21
510.609193
  0
LINE
  5
5E9
100
AcDbEntity
  8
M0
 62
     7
100
AcDbLine
 10
248.460569
 20
506.661683
 11
247.644407
 21
509.3089
  0
LINE
  5
5EA
100
AcDbEntity
  8
M0
 62
     7
100
AcDbLine
 10
254.378049
 20
506.661683
 11
255.194456
 21
509.3089
  0
LINE
  5
5EB
100
AcDbEntity
  8
M0
 62
     7
100
AcDbLine
 10
248.938596
 20
506.3089
 11
253.900266
 21
506.3089
  0
LINE
  5
5EC
100
AcDbEntity
  8
M0
  6
DASHDOT
 62
     7
100
AcDbLine
 10
245.144407
 20
510.608948
 11
257.694456
 21
510.608948
  0
ARC
  5
5ED
100
AcDbEntity
  8
M0
 62
     7
100
AcDbCircle
 10
248.938596
 20
506.8089
 40
0.5
100
AcDbArc
 50
197.116099
 51
269.998251
  0
ARC
  5
5EE
100
AcDbEntity
  8
M0
 62
     7
100
AcDbCircle
 10
253.900266
 20
506.8089
 40
0.5
100
AcDbArc
 50
269.998251
 51
342.876188
  0
LINE
  5
5EF
100
AcDbEntity
  8
M0
 62
     7
100
AcDbLine
 10
238.460569
 20
506.661683
 11
237.644407
 21
509.3089
  0
LINE
  5
5F0
100
AcDbEntity
  8
M0
 62
     7
100
AcDbLine
 10
244.378049
 20
506.661683
 11
245.006223
 21
508.698548
  0
LINE
  5
5F1
100
AcDbEntity
  8
M0
 62
     7
100
AcDbLine
 10
238.938596
 20
506.3089
 11
243.900266
 21
506.3089
  0
LINE
  5
5F2
100
AcDbEntity
  8
M0
  6
DASHDOT
 62
     7
100
AcDbLine
 10
235.144407
 20
510.608948
 11
247.694456
 21
510.608948
  0
ARC
  5
5F3
100
AcDbEntity
  8
M0
 62
     7
100
AcDbCircle
 10
238.938596
 20
506.8089
 40
0.5
100
AcDbArc
 50
197.116099
 51
269.998251
  0
ARC
  5
5F4
100
AcDbEntity
  8
M0
 62
     7
100
AcDbCircle
 10
243.900266
 20
506.8089
 40
0.5
100
AcDbArc
 50
269.998251
 51
342.876188
  0
ARC
  5
5F5
100
AcDbEntity
  8
M0
 62
     7
100
AcDbCircle
 10
246.419309
 20
502.608948
 40
1.0
100
AcDbArc
 50
179.999126
 51
269.999126
  0
ARC
  5
5F6
100
AcDbEntity
  8
M0
 62
     7
100
AcDbCircle
 10
246.419309
 20
502.608948
 40
1.0
100
AcDbArc
 50
269.999126
 51
360.0
  0
LINE
  5
5F7
100
AcDbEntity
  8
M0
 62
     7
100
AcDbLine
 10
237.419309
 20
502.608948
 11
234.419309
 21
502.608948
  0
LINE
  5
5F8
100
AcDbEntity
  8
M0
 62
     7
100
AcDbLine
 10
237.419309
 20
506.608948
 11
238.476682
 21
506.608948
  0
LINE
  5
5F9
100
AcDbEntity
  8
M0
 62
     7
100
AcDbLine
 10
257.919309
 20
505.608948
 11
256.419309
 21
505.608948
  0
LINE
  5
5FA
100
AcDbEntity
  8
M0
 62
     7
100
AcDbLine
 10
257.919309
 20
503.608948
 11
256.419309
 21
503.608948
  0
ARC
  5
5FB
100
AcDbEntity
  8
M0
 62
     7
100
AcDbCircle
 10
257.919309
 20
504.108948
 40
0.499999
100
AcDbArc
 50
269.998251
 51
360.0
  0
ARC
  5
5FC
100
AcDbEntity
  8
M0
 62
     7
100
AcDbCircle
 10
256.419309
 20
504.608948
 40
1.0
100
AcDbArc
 50
179.999126
 51
269.999126
  0
ARC
  5
5FD
100
AcDbEntity
  8
M0
 62
     7
100
AcDbCircle
 10
257.919309
 20
506.108948
 40
0.499999
100
AcDbArc
 50
269.998251
 51
360.0
  0
ARC
  5
5FE
100
AcDbEntity
  8
M0
 62
     7
100
AcDbCircle
 10
256.419309
 20
506.608948
 40
1.0
100
AcDbArc
 50
179.999126
 51
269.999126
  0
LINE
  5
5FF
100
AcDbEntity
  8
M0
 62
     7
100
AcDbLine
 10
257.919309
 20
510.608948
 11
256.419309
 21
510.608948
  0
LINE
  5
600
100
AcDbEntity
  8
M0
 62
     7
100
AcDbLine
 10
254.361692
 20
506.608948
 11
255.419309
 21
506.608948
  0
LINE
  5
601
100
AcDbEntity
  8
M0
 62
     7
100
AcDbLine
 10
246.419309
 20
508.608948
 11
245.419309
 21
508.608948
  0
ARC
  5
602
100
AcDbEntity
  8
M0
 62
     7
100
AcDbCircle
 10
246.419309
 20
509.608948
 40
1.0
100
AcDbArc
 50
269.999126
 51
360.0
  0
ARC
  5
603
100
AcDbEntity
  8
M0
 62
     7
100
AcDbCircle
 10
245.419309
 20
509.608948
 40
1.0
100
AcDbArc
 50
179.999126
 51
269.999126
  0
LINE
  5
604
100
AcDbEntity
  8
M0
 62
     7
100
AcDbLine
 10
238.419309
 20
506.608948
 11
238.419309
 21
506.794739
  0
LINE
  5
605
100
AcDbEntity
  8
M0
 62
     7
100
AcDbLine
 10
245.419309
 20
502.608948
 11
245.419309
 21
508.608948
  0
LINE
  5
606
100
AcDbEntity
  8
M0
 62
     7
100
AcDbLine
 10
247.419309
 20
506.608948
 11
248.476682
 21
506.608948
  0
LINE
  5
607
100
AcDbEntity
  8
M0
 62
     7
100
AcDbLine
 10
237.419309
 20
508.108948
 11
233.919309
 21
508.108948
  0
LINE
  5
608
100
AcDbEntity
  8
M0
 62
     7
100
AcDbLine
 10
237.419309
 20
510.108948
 11
233.919309
 21
510.108948
  0
LINE
  5
609
100
AcDbEntity
  8
M0
 62
     7
100
AcDbLine
 10
234.419309
 20
502.608948
 11
234.419309
 21
508.108948
  0
LINE
  5
60A
100
AcDbEntity
  8
M0
 62
     7
100
AcDbLine
 10
244.361692
 20
506.608948
 11
245.419309
 21
506.608948
  0
LINE
  5
60B
100
AcDbEntity
  8
M0
 62
     7
100
AcDbLine
 10
235.419309
 20
505.608948
 11
235.419309
 21
508.108948
  0
LINE
  5
60C
100
AcDbEntity
  8
M0
 62
     7
100
AcDbLine
 10
237.419309
 20
504.608948
 11
234.419309
 21
504.608948
  0
ARC
  5
60D
100
AcDbEntity
  8
M0
 62
     7
100
AcDbCircle
 10
236.419309
 20
505.608948
 40
1.0
100
AcDbArc
 50
179.999126
 51
269.999126
  0
ARC
  5
60E
100
AcDbEntity
  8
M0
 62
     7
100
AcDbCircle
 10
236.419309
 20
505.608948
 40
1.0
100
AcDbArc
 50
269.999126
 51
360.0
  0
ARC
  5
60F
100
AcDbEntity
  8
M0
 62
     7
100
AcDbCircle
 10
160.419324
 20
509.609925
 40
3.499996
100
AcDbArc
 50
189.84797
 51
309.932285
  0
LINE
  5
610
100
AcDbEntity
  8
M0
  6
DASHDOT
 62
     7
100
AcDbLine
 10
153.127149
 20
509.609925
 11
168.010191
 21
509.609925
  0
LINE
  5
611
100
AcDbEntity
  8
M0
  6
DASHDOT
 62
     7
100
AcDbLine
 10
160.419324
 20
502.239426
 11
160.419324
 21
514.783967
  0
LINE
  5
612
100
AcDbEntity
  8
M0
 62
     7
100
AcDbLine
 10
159.415662
 20
510.613343
 11
162.186903
 21
507.842103
  0
LINE
  5
613
100
AcDbEntity
  8
M0
 62
     7
100
AcDbLine
 10
159.415662
 20
510.020569
 11
160.772596
 21
511.377503
  0
LINE
  5
614
100
AcDbEntity
  8
M0
 62
     7
100
AcDbLine
 10
160.065565
 20
507.841859
 11
162.186903
 21
509.963196
  0
LINE
  5
615
100
AcDbEntity
  8
M0
 62
     7
100
AcDbLine
 10
230.165647
 20
505.26056
 11
230.165647
 21
518.760316
  0
ARC
  5
616
100
AcDbEntity
  8
M0
 62
     7
100
AcDbCircle
 10
229.165647
 20
518.76056
 40
1.0
100
AcDbArc
 50
359.986012
 51
374.477503
  0
CIRCLE
  5
617
100
AcDbEntity
  8
M0
 62
     7
100
AcDbCircle
 10
222.415647
 20
512.010804
 40
5.249992
  0
LINE
  5
618
100
AcDbEntity
  8
M0
  6
DASHDOT
 62
     7
100
AcDbLine
 10
209.658093
 20
512.010804
 11
235.172971
 21
512.010804
  0
LINE
  5
619
100
AcDbEntity
  8
M0
 62
     7
100
AcDbLine
 10
220.854368
 20
509.742005
 11
224.655393
 21
513.54303
  0
LINE
  5
61A
100
AcDbEntity
  8
M0
 62
     7
100
AcDbLine
 10
224.782835
 20
531.143372
 11
219.846067
 21
536.08014
  0
LINE
  5
61B
100
AcDbEntity
  8
M0
 62
     7
100
AcDbLine
 10
220.854368
 20
531.242005
 11
224.655393
 21
535.04303
  0
LINE
  5
61C
100
AcDbEntity
  8
M0
 62
     7
100
AcDbLine
 10
229.915403
 20
519.010804
 11
214.915417
 21
519.010804
  0
LINE
  5
61D
100
AcDbEntity
  8
M0
 62
     7
100
AcDbLine
 10
237.459348
 20
513.661683
 11
236.643186
 21
516.3089
  0
LINE
  5
61E
100
AcDbEntity
  8
M0
 62
     7
100
AcDbLine
 10
243.376829
 20
513.661683
 11
244.193235
 21
516.3089
  0
LINE
  5
61F
100
AcDbEntity
  8
M0
 62
     7
100
AcDbLine
 10
237.937376
 20
513.3089
 11
242.899046
 21
513.3089
  0
ARC
  5
620
100
AcDbEntity
  8
M0
 62
     7
100
AcDbCircle
 10
237.937376
 20
513.8089
 40
0.5
100
AcDbArc
 50
197.116099
 51
269.998251
  0
ARC
  5
621
100
AcDbEntity
  8
M0
 62
     7
100
AcDbCircle
 10
242.899046
 20
513.8089
 40
0.5
100
AcDbArc
 50
269.998251
 51
342.876188
  0
LINE
  5
622
100
AcDbEntity
  8
M0
  6
DASHDOT
 62
     7
100
AcDbLine
 10
243.918333
 20
517.608948
 11
236.918333
 21
517.608948
  0
LINE
  5
623
100
AcDbEntity
  8
M0
 62
     7
100
AcDbLine
 10
248.459348
 20
513.661683
 11
247.643186
 21
516.3089
  0
LINE
  5
624
100
AcDbEntity
  8
M0
 62
     7
100
AcDbLine
 10
254.376829
 20
513.661683
 11
255.193235
 21
516.3089
  0
LINE
  5
625
100
AcDbEntity
  8
M0
 62
     7
100
AcDbLine
 10
248.937376
 20
513.3089
 11
253.899046
 21
513.3089
  0
ARC
  5
626
100
AcDbEntity
  8
M0
 62
     7
100
AcDbCircle
 10
248.937376
 20
513.8089
 40
0.5
100
AcDbArc
 50
197.116099
 51
269.998251
  0
ARC
  5
627
100
AcDbEntity
  8
M0
 62
     7
100
AcDbCircle
 10
253.899046
 20
513.8089
 40
0.5
100
AcDbArc
 50
269.998251
 51
342.876188
  0
LINE
  5
628
100
AcDbEntity
  8
M0
  6
DASHDOT
 62
     7
100
AcDbLine
 10
254.918333
 20
517.608948
 11
247.918333
 21
517.608948
  0
ARC
  5
629
100
AcDbEntity
  8
M0
 62
     7
100
AcDbCircle
 10
251.419553
 20
510.608948
 40
2.999992
100
AcDbArc
 50
115.845625
 51
424.158809
  0
LINE
  5
62A
100
AcDbEntity
  8
M0
 62
     7
100
AcDbLine
 10
248.321897
 20
514.106751
 11
247.644407
 21
511.908997
  0
LINE
  5
62B
100
AcDbEntity
  8
M0
 62
     7
100
AcDbLine
 10
254.515256
 20
514.110902
 11
255.194456
 21
511.908997
  0
LINE
  5
62C
100
AcDbEntity
  8
M0
 62
     7
100
AcDbLine
 10
255.194456
 20
509.3089
 11
255.194456
 21
511.908997
  0
LINE
  5
62D
100
AcDbEntity
  8
M0
 62
     7
100
AcDbLine
 10
247.644407
 20
511.908997
 11
247.644407
 21
509.3089
  0
LINE
  5
62E
100
AcDbEntity
  8
M0
  6
DASHDOT
 62
     7
100
AcDbLine
 10
251.419553
 20
503.8089
 11
251.419553
 21
513.084778
  0
LINE
  5
62F
100
AcDbEntity
  8
M0
 62
     7
100
AcDbLine
 10
253.01013
 20
509.018128
 11
249.828489
 21
512.199769
  0
LINE
  5
630
100
AcDbEntity
  8
M0
 62
     7
100
AcDbLine
 10
251.772825
 20
512.023011
 11
250.005247
 21
510.255433
  0
LINE
  5
631
100
AcDbEntity
  8
M0
 62
     7
100
AcDbLine
 10
252.833372
 20
510.962464
 11
251.065794
 21
509.194886
  0
ARC
  5
632
100
AcDbEntity
  8
M0
 62
     7
100
AcDbCircle
 10
241.419553
 20
510.608948
 40
2.999992
100
AcDbArc
 50
115.845625
 51
424.158809
  0
LINE
  5
633
100
AcDbEntity
  8
M0
 62
     7
100
AcDbLine
 10
238.075803
 20
513.3089
 11
237.644407
 21
511.908997
  0
LINE
  5
634
100
AcDbEntity
  8
M0
 62
     7
100
AcDbLine
 10
237.644407
 20
511.908997
 11
237.644407
 21
509.3089
  0
LINE
  5
635
100
AcDbEntity
  8
M0
  6
DASHDOT
 62
     7
100
AcDbLine
 10
241.419553
 20
503.8089
 11
241.419553
 21
517.408997
  0
LINE
  5
636
100
AcDbEntity
  8
M0
 62
     7
100
AcDbLine
 10
243.01013
 20
509.018128
 11
239.828489
 21
512.199769
  0
LINE
  5
637
100
AcDbEntity
  8
M0
 62
     7
100
AcDbLine
 10
241.772825
 20
512.023011
 11
240.005247
 21
510.255433
  0
LINE
  5
638
100
AcDbEntity
  8
M0
 62
     7
100
AcDbLine
 10
242.833372
 20
510.962464
 11
241.065794
 21
509.194886
  0
LINE
  5
639
100
AcDbEntity
  8
M0
 62
     7
100
AcDbLine
 10
257.919309
 20
512.608948
 11
256.419309
 21
512.608948
  0
ARC
  5
63A
100
AcDbEntity
  8
M0
 62
     7
100
AcDbCircle
 10
257.919309
 20
513.108948
 40
0.499999
100
AcDbArc
 50
269.998251
 51
360.0
  0
ARC
  5
63B
100
AcDbEntity
  8
M0
 62
     7
100
AcDbCircle
 10
256.419309
 20
513.608948
 40
1.0
100
AcDbArc
 50
179.999126
 51
269.999126
  0
ARC
  5
63C
100
AcDbEntity
  8
M0
 62
     7
100
AcDbCircle
 10
256.419309
 20
511.608948
 40
1.0
100
AcDbArc
 50
179.999126
 51
269.999126
  0
ARC
  5
63D
100
AcDbEntity
  8
M0
 62
     7
100
AcDbCircle
 10
257.919309
 20
511.108948
 40
0.499999
100
AcDbArc
 50
269.998251
 51
360.0
  0
LINE
  5
63E
100
AcDbEntity
  8
M0
 62
     7
100
AcDbLine
 10
255.419309
 20
513.608948
 11
254.670042
 21
513.608704
  0
LINE
  5
63F
100
AcDbEntity
  8
M0
 62
     7
100
AcDbLine
 10
248.168333
 20
513.608704
 11
247.419309
 21
513.608948
  0
LINE
  5
640
100
AcDbEntity
  8
M0
 62
     7
100
AcDbLine
 10
243.360471
 20
513.608948
 11
244.419309
 21
513.608948
  0
LINE
  5
641
100
AcDbEntity
  8
M0
 62
     7
100
AcDbLine
 10
237.419309
 20
502.608948
 11
237.419309
 21
513.790833
  0
ARC
  5
642
100
AcDbEntity
  8
M0
 62
     7
100
AcDbCircle
 10
234.919309
 20
511.108948
 40
1.0
100
AcDbArc
 50
179.999126
 51
269.999126
  0
ARC
  5
643
100
AcDbEntity
  8
M0
 62
     7
100
AcDbCircle
 10
235.419309
 20
511.108948
 40
1.0
100
AcDbArc
 50
269.999126
 51
360.0
  0
LINE
  5
644
100
AcDbEntity
  8
M0
 62
     7
100
AcDbLine
 10
238.065672
 20
524.10907
 11
238.065672
 21
522.109299
  0
ARC
  5
645
100
AcDbEntity
  8
M0
 62
     7
100
AcDbCircle
 10
237.565672
 20
524.10907
 40
0.5
100
AcDbArc
 50
0.0
 51
90.0
  0
LINE
  5
646
100
AcDbEntity
  8
M0
  6
DASHDOT
 62
     7
100
AcDbLine
 10
209.658032
 20
533.510789
 11
235.17291
 21
533.510789
  0
LINE
  5
647
100
AcDbEntity
  8
M0
 62
     7
100
AcDbLine
 10
232.937437
 20
519.010544
 11
229.915342
 21
519.010789
  0
LINE
  5
648
100
AcDbEntity
  8
M0
 62
     7
100
AcDbLine
 10
233.468565
 20
521.510773
 11
212.415356
 21
521.510789
  0
LINE
  5
649
100
AcDbEntity
  8
M0
 62
     7
100
AcDbLine
 10
231.415342
 20
523.510789
 11
212.415356
 21
523.510789
  0
LINE
  5
64A
100
AcDbEntity
  8
M0
 62
     7
100
AcDbLine
 10
230.915342
 20
507.011277
 11
230.915342
 21
518.010789
  0
ARC
  5
64B
100
AcDbEntity
  8
M0
 62
     7
100
AcDbCircle
 10
229.915342
 20
518.010789
 40
1.0
100
AcDbArc
 50
0.0
 51
90.0
  0
ARC
  5
64C
100
AcDbEntity
  8
M0
 62
     7
100
AcDbCircle
 10
229.915342
 20
524.510789
 40
1.0
100
AcDbArc
 50
269.999126
 51
360.0
  0
ARC
  5
64D
100
AcDbEntity
  8
M0
 62
     7
100
AcDbCircle
 10
231.415342
 20
524.510789
 40
1.0
100
AcDbArc
 50
269.999126
 51
360.0
  0
ARC
  5
64E
100
AcDbEntity
  8
M0
 62
     7
100
AcDbCircle
 10
232.915342
 20
518.010789
 40
1.0
100
AcDbArc
 50
0.0
 51
90.0
  0
ARC
  5
64F
100
AcDbEntity
  8
M0
 62
     7
100
AcDbCircle
 10
232.915342
 20
520.510789
 40
1.0
100
AcDbArc
 50
0.0
 51
23.485354
  0
CIRCLE
  5
650
100
AcDbEntity
  8
M0
 62
     7
100
AcDbCircle
 10
240.418272
 20
517.608933
 40
2.999992
  0
LINE
  5
651
100
AcDbEntity
  8
M0
 62
     7
100
AcDbLine
 10
237.259809
 20
520.909241
 11
236.643125
 21
518.908982
  0
LINE
  5
652
100
AcDbEntity
  8
M0
 62
     7
100
AcDbLine
 10
243.921613
 20
519.789506
 11
244.193174
 21
518.908982
  0
LINE
  5
653
100
AcDbEntity
  8
M0
 62
     7
100
AcDbLine
 10
244.193174
 20
516.308884
 11
244.193174
 21
518.908982
  0
LINE
  5
654
100
AcDbEntity
  8
M0
 62
     7
100
AcDbLine
 10
236.643125
 20
518.908982
 11
236.643125
 21
516.308884
  0
LINE
  5
655
100
AcDbEntity
  8
M0
 62
     7
100
AcDbLine
 10
242.008848
 20
516.018113
 11
238.827207
 21
519.199753
  0
LINE
  5
656
100
AcDbEntity
  8
M0
 62
     7
100
AcDbLine
 10
240.771543
 20
519.022996
 11
239.003965
 21
517.255417
  0
LINE
  5
657
100
AcDbEntity
  8
M0
 62
     7
100
AcDbLine
 10
241.83209
 20
517.962449
 11
240.064512
 21
516.194871
  0
LINE
  5
658
100
AcDbEntity
  8
M0
  6
DASHDOT
 62
     7
100
AcDbLine
 10
240.418027
 20
521.108933
 11
240.418272
 21
514.108933
  0
CIRCLE
  5
659
100
AcDbEntity
  8
M0
 62
     7
100
AcDbCircle
 10
251.418272
 20
517.608933
 40
2.999992
  0
LINE
  5
65A
100
AcDbEntity
  8
M0
 62
     7
100
AcDbLine
 10
247.859006
 20
519.609208
 11
247.643125
 21
518.908982
  0
LINE
  5
65B
100
AcDbEntity
  8
M0
 62
     7
100
AcDbLine
 10
254.576322
 20
520.909135
 11
255.193174
 21
518.908982
  0
LINE
  5
65C
100
AcDbEntity
  8
M0
 62
     7
100
AcDbLine
 10
255.193174
 20
516.308884
 11
255.193174
 21
518.908982
  0
LINE
  5
65D
100
AcDbEntity
  8
M0
 62
     7
100
AcDbLine
 10
247.643125
 20
518.908982
 11
247.643125
 21
516.308884
  0
LINE
  5
65E
100
AcDbEntity
  8
M0
 62
     7
100
AcDbLine
 10
253.008848
 20
516.018113
 11
249.827207
 21
519.199753
  0
LINE
  5
65F
100
AcDbEntity
  8
M0
 62
     7
100
AcDbLine
 10
251.771543
 20
519.022996
 11
250.003965
 21
517.255417
  0
LINE
  5
660
100
AcDbEntity
  8
M0
 62
     7
100
AcDbLine
 10
252.83209
 20
517.962449
 11
251.064512
 21
516.194871
  0
LINE
  5
661
100
AcDbEntity
  8
M0
  6
DASHDOT
 62
     7
100
AcDbLine
 10
251.418027
 20
521.108933
 11
251.418272
 21
514.108933
  0
LINE
  5
662
100
AcDbEntity
  8
M0
 62
     7
100
AcDbLine
 10
233.919492
 20
503.806443
 11
233.919492
 21
520.909241
  0
LINE
  5
663
100
AcDbEntity
  8
M0
 62
     7
100
AcDbLine
 10
255.419248
 20
504.608933
 11
255.419248
 21
520.909135
  0
LINE
  5
664
100
AcDbEntity
  8
M0
 62
     7
100
AcDbLine
 10
247.419248
 20
502.608933
 11
247.419248
 21
519.609208
  0
LINE
  5
665
100
AcDbEntity
  8
M0
 62
     7
100
AcDbLine
 10
244.419248
 20
509.608933
 11
244.419248
 21
519.609208
  0
LINE
  5
666
100
AcDbEntity
  8
M0
 62
     7
100
AcDbLine
 10
236.419248
 20
511.108933
 11
236.419248
 21
520.909241
  0
LINE
  5
667
100
AcDbEntity
  8
M0
 62
     7
100
AcDbLine
 10
236.419248
 20
511.608933
 11
236.419248
 21
520.909241
  0
ARC
  5
668
100
AcDbEntity
  8
M0
 62
     7
100
AcDbCircle
 10
237.919492
 20
520.608933
 40
1.499992
100
AcDbArc
 50
168.451056
 51
179.999417
  0
LINE
  5
669
100
AcDbEntity
  8
M0
 62
     7
100
AcDbLine
 10
236.269346
 20
529.608933
 11
234.769346
 21
528.108933
  0
LINE
  5
66A
100
AcDbEntity
  8
M0
 62
     7
100
AcDbLine
 10
236.269346
 20
529.608933
 11
234.769346
 21
531.108933
  0
LINE
  5
66B
100
AcDbEntity
  8
M0
 62
     7
100
AcDbLine
 10
233.919492
 20
528.108933
 11
233.919492
 21
531.108689
  0
LINE
  5
66C
100
AcDbEntity
  8
M0
 62
     7
100
AcDbLine
 10
234.769346
 20
528.108689
 11
233.919492
 21
528.108933
  0
LINE
  5
66D
100
AcDbEntity
  8
M0
 62
     7
100
AcDbLine
 10
234.769346
 20
531.108689
 11
233.919492
 21
531.108933
  0
LINE
  5
66E
100
AcDbEntity
  8
M0
 62
     7
100
AcDbLine
 10
236.768369
 20
535.094269
 11
236.269346
 21
535.382371
  0
LINE
  5
66F
100
AcDbEntity
  8
M0
 62
     7
100
AcDbLine
 10
233.919492
 20
522.109254
 11
233.919492
 21
524.609055
  0
LINE
  5
670
100
AcDbEntity
  8
M0
 62
     7
100
AcDbLine
 10
233.468534
 20
520.909287
 11
242.968534
 21
520.909211
  0
LINE
  5
671
100
AcDbEntity
  8
M0
 62
     7
100
AcDbLine
 10
244.268369
 20
519.609208
 11
248.268323
 21
519.609162
  0
LINE
  5
672
100
AcDbEntity
  8
M0
  6
DASHDOT
 62
     7
100
AcDbLine
 10
258.468443
 20
529.609025
 11
233.468626
 21
529.609284
  0
LINE
  5
673
100
AcDbEntity
  8
M0
 62
     7
100
AcDbLine
 10
238.968366
 20
522.109254
 11
238.968381
 21
523.809266
  0
LINE
  5
674
100
AcDbEntity
  8
M0
 62
     7
100
AcDbLine
 10
233.468549
 20
522.109299
 11
242.968549
 21
522.109223
  0
LINE
  5
675
100
AcDbEntity
  8
M0
 62
     7
100
AcDbLine
 10
242.968534
 20
520.909196
 11
242.968549
 21
522.109208
  0
LINE
  5
676
100
AcDbEntity
  8
M0
 62
     7
100
AcDbLine
 10
236.768385
 20
524.809281
 11
237.968381
 21
524.809266
  0
LINE
  5
677
100
AcDbEntity
  8
M0
 62
     7
100
AcDbLine
 10
233.468549
 20
522.109315
 11
233.468534
 21
520.909287
  0
LINE
  5
678
100
AcDbEntity
  8
M0
 62
     7
100
AcDbLine
 10
250.768354
 20
520.909135
 11
248.268339
 21
519.609162
  0
LINE
  5
679
100
AcDbEntity
  8
M0
 62
     7
100
AcDbLine
 10
244.268339
 20
519.609208
 11
241.768354
 21
520.909226
  0
LINE
  5
67A
100
AcDbEntity
  8
M0
 62
     7
100
AcDbLine
 10
250.768339
 20
520.909135
 11
257.968351
 21
520.909074
  0
ARC
  5
67B
100
AcDbEntity
  8
M0
 62
     7
100
AcDbCircle
 10
237.968381
 20
523.809281
 40
1.0
100
AcDbArc
 50
0.0
 51
90.0
  0
ARC
  5
67C
100
AcDbEntity
  8
M0
 62
     7
100
AcDbCircle
 10
257.968351
 20
521.409074
 40
0.5
100
AcDbArc
 50
269.998251
 51
360.0
  0
LINE
  5
67D
100
AcDbEntity
  8
M0
 62
     7
100
AcDbLine
 10
236.265668
 20
526.209077
 11
233.468595
 21
526.209229
  0
LINE
  5
67E
100
AcDbEntity
  8
M0
 62
     7
100
AcDbLine
 10
236.265684
 20
533.00908
 11
233.468626
 21
533.009217
  0
ARC
  5
67F
100
AcDbEntity
  8
M0
 62
     7
100
AcDbCircle
 10
246.26843
 20
529.609116
 40
13.299992
100
AcDbArc
 50
165.188223
 51
194.811027
  0
LINE
  5
680
100
AcDbEntity
  8
M0
 62
     7
100
AcDbLine
 10
237.565672
 20
524.609086
 11
233.919462
 21
524.609101
  0
CIRCLE
  5
681
100
AcDbEntity
  8
M0
 62
     7
100
AcDbCircle
 10
246.418317
 20
529.60904
 40
4.249996
  0
CIRCLE
  5
682
100
AcDbEntity
  8
M0
 62
     7
100
AcDbCircle
 10
246.418317
 20
529.60904
 40
3.749996
  0
LINE
  5
683
100
AcDbEntity
  8
M0
 62
     7
100
AcDbLine
 10
247.018278
 20
532.108979
 11
245.818281
 21
532.108979
  0
LINE
  5
684
100
AcDbEntity
  8
M0
 62
     7
100
AcDbLine
 10
245.818281
 20
527.109269
 11
247.018278
 21
527.109269
  0
LINE
  5
685
100
AcDbEntity
  8
M0
 62
     7
100
AcDbLine
 10
247.018293
 20
532.109009
 11
247.018278
 21
527.109238
  0
LINE
  5
686
100
AcDbEntity
  8
M0
 62
     7
100
AcDbLine
 10
245.818281
 20
532.109009
 11
245.818281
 21
527.109238
  0
ARC
  5
687
100
AcDbEntity
  8
M0
 62
     7
100
AcDbCircle
 10
232.915342
 20
520.510789
 40
1.0
100
AcDbArc
 50
56.412985
 51
90.0
  0
LINE
  5
688
100
AcDbEntity
  8
M0
 62
     7
100
AcDbLine
 10
238.968534
 20
520.909196
 11
238.968534
 21
522.109208
  0
LINE
  5
689
100
AcDbEntity
  8
M0
 62
     7
100
AcDbLine
 10
157.919309
 20
504.609925
 11
162.906721
 21
504.609925
  0
CIRCLE
  5
68A
100
AcDbEntity
  8
M0
 62
     7
100
AcDbCircle
 10
196.415662
 20
533.510804
 40
5.249989
  0
CIRCLE
  5
68B
100
AcDbEntity
  8
M0
 62
     7
100
AcDbCircle
 10
170.415906
 20
533.510804
 40
5.249989
  0
LINE
  5
68C
100
AcDbEntity
  8
M0
 62
     7
100
AcDbLine
 10
181.415662
 20
545.111146
 11
181.415418
 21
499.511048
  0
LINE
  5
68D
100
AcDbEntity
  8
M0
 62
     7
100
AcDbLine
 10
185.415418
 20
499.511048
 11
185.415662
 21
545.110902
  0
LINE
  5
68E
100
AcDbEntity
  8
M0
 62
     7
100
AcDbLine
 10
207.415417
 20
500.01056
 11
207.415661
 21
545.110657
  0
LINE
  5
68F
100
AcDbEntity
  8
M0
 62
     7
100
AcDbLine
 10
211.415417
 20
500.01056
 11
211.415661
 21
545.110657
  0
LINE
  5
690
100
AcDbEntity
  8
M0
  6
DASHDOT
 62
     7
100
AcDbLine
 10
196.415418
 20
499.011048
 11
196.415662
 21
541.611146
  0
LINE
  5
691
100
AcDbEntity
  8
M0
 62
     7
100
AcDbLine
 10
204.915417
 20
524.510804
 11
204.915661
 21
540.610902
  0
LINE
  5
692
100
AcDbEntity
  8
M0
 62
     7
100
AcDbLine
 10
187.915418
 20
524.511048
 11
187.915662
 21
540.610902
  0
LINE
  5
693
100
AcDbEntity
  8
M0
 62
     7
100
AcDbLine
 10
159.415662
 20
543.011292
 11
159.415418
 21
510.011292
  0
LINE
  5
694
100
AcDbEntity
  8
M0
  6
DASHDOT
 62
     7
100
AcDbLine
 10
170.415662
 20
541.61139
 11
170.415418
 21
499.011292
  0
LINE
  5
695
100
AcDbEntity
  8
M0
 62
     7
100
AcDbLine
 10
161.915662
 20
540.611146
 11
161.915662
 21
523.511292
  0
LINE
  5
696
100
AcDbEntity
  8
M0
 62
     7
100
AcDbLine
 10
178.915662
 20
540.611146
 11
178.915418
 21
523.511048
  0
LINE
  5
697
100
AcDbEntity
  8
M0
 62
     7
100
AcDbLine
 10
159.415662
 20
543.111146
 11
161.915662
 21
540.611146
  0
ARC
  5
698
100
AcDbEntity
  8
M0
 62
     7
100
AcDbCircle
 10
158.415662
 20
543.111146
 40
1.0
100
AcDbArc
 50
0.0
 51
89.999126
  0
LINE
  5
699
100
AcDbEntity
  8
M0
  6
DASHDOT
 62
     7
100
AcDbLine
 10
222.415403
 20
500.01056
 11
222.415647
 21
543.110657
  0
LINE
  5
69A
100
AcDbEntity
  8
M0
 62
     7
100
AcDbLine
 10
213.915417
 20
524.510804
 11
213.915661
 21
540.611146
  0
LINE
  5
69B
100
AcDbEntity
  8
M0
 62
     7
100
AcDbLine
 10
181.415662
 20
543.110902
 11
178.915662
 21
540.611146
  0
LINE
  5
69C
100
AcDbEntity
  8
M0
 62
     7
100
AcDbLine
 10
185.415662
 20
543.110902
 11
187.915662
 21
540.610902
  0
LINE
  5
69D
100
AcDbEntity
  8
M0
 62
     7
100
AcDbLine
 10
211.415661
 20
543.110657
 11
213.915661
 21
540.610902
  0
LINE
  5
69E
100
AcDbEntity
  8
M0
 62
     7
100
AcDbLine
 10
207.415661
 20
543.110657
 11
204.915661
 21
540.610902
  0
ARC
  5
69F
100
AcDbEntity
  8
M0
 62
     7
100
AcDbCircle
 10
210.415661
 20
545.110657
 40
1.0
100
AcDbArc
 50
0.0
 51
90.0
  0
LINE
  5
6A0
100
AcDbEntity
  8
M0
 62
     7
100
AcDbLine
 10
210.415661
 20
546.110657
 11
208.415661
 21
546.110657
  0
ARC
  5
6A1
100
AcDbEntity
  8
M0
 62
     7
100
AcDbCircle
 10
208.415661
 20
545.110657
 40
1.0
100
AcDbArc
 50
90.0
 51
179.999126
  0
ARC
  5
6A2
100
AcDbEntity
  8
M0
 62
     7
100
AcDbCircle
 10
184.415662
 20
545.110902
 40
1.0
100
AcDbArc
 50
0.0
 51
89.999126
  0
LINE
  5
6A3
100
AcDbEntity
  8
M0
 62
     7
100
AcDbLine
 10
184.415662
 20
546.110902
 11
182.415662
 21
546.110902
  0
ARC
  5
6A4
100
AcDbEntity
  8
M0
 62
     7
100
AcDbCircle
 10
182.415662
 20
545.110902
 40
1.0
100
AcDbArc
 50
89.999126
 51
179.985137
  0
LINE
  5
6A5
100
AcDbEntity
  8
M0
 62
     7
100
AcDbLine
 10
155.415906
 20
544.110902
 11
161.415906
 21
544.110902
  0
LINE
  5
6A6
100
AcDbEntity
  8
M0
 62
     7
100
AcDbLine
 10
161.415906
 20
544.110902
 11
161.415906
 21
545.110657
  0
LINE
  5
6A7
100
AcDbEntity
  8
M0
 62
     7
100
AcDbLine
 10
160.415906
 20
546.110902
 11
156.415906
 21
546.110657
  0
LINE
  5
6A8
100
AcDbEntity
  8
M0
 62
     7
100
AcDbLine
 10
155.415906
 20
545.110657
 11
155.415906
 21
544.110902
  0
ARC
  5
6A9
100
AcDbEntity
  8
M0
 62
     7
100
AcDbCircle
 10
160.415906
 20
545.110657
 40
1.0
100
AcDbArc
 50
0.0
 51
89.999126
  0
ARC
  5
6AA
100
AcDbEntity
  8
M0
 62
     7
100
AcDbCircle
 10
156.415906
 20
545.110657
 40
1.0
100
AcDbArc
 50
89.999126
 51
179.999126
  0
LINE
  5
6AB
100
AcDbEntity
  8
M0
 62
     7
100
AcDbLine
 10
242.651487
 20
548.25615
 11
244.854414
 21
550.459855
  0
CIRCLE
  5
6AC
100
AcDbEntity
  8
M0
 62
     7
100
AcDbCircle
 10
222.415647
 20
533.510804
 40
5.249989
  0
LINE
  5
6AD
100
AcDbEntity
  8
M0
 62
     7
100
AcDbLine
 10
235.614133
 20
546.109681
 11
231.614133
 21
546.109437
  0
LINE
  5
6AE
100
AcDbEntity
  8
M0
 62
     7
100
AcDbLine
 10
242.659589
 20
550.369126
 11
246.187131
 21
546.842087
  0
LINE
  5
6AF
100
AcDbEntity
  8
M0
 62
     7
100
AcDbLine
 10
244.065794
 20
546.841843
 11
246.269056
 21
549.045243
  0
LINE
  5
6B0
100
AcDbEntity
  8
M0
 62
     7
100
AcDbLine
 10
238.065672
 20
541.109116
 11
238.065672
 21
543.109177
  0
LINE
  5
6B1
100
AcDbEntity
  8
M0
 62
     7
100
AcDbLine
 10
232.415342
 20
524.510789
 11
232.415586
 21
543.110642
  0
LINE
  5
6B2
100
AcDbEntity
  8
M0
 62
     7
100
AcDbLine
 10
230.915342
 20
524.510789
 11
230.915586
 21
541.610886
  0
LINE
  5
6B3
100
AcDbEntity
  8
M0
 62
     7
100
AcDbLine
 10
236.265684
 20
540.609101
 11
236.265684
 21
524.609055
  0
LINE
  5
6B4
100
AcDbEntity
  8
M0
 62
     7
100
AcDbLine
 10
232.415586
 20
543.110642
 11
230.915586
 21
541.610886
  0
LINE
  5
6B5
100
AcDbEntity
  8
M0
 62
     7
100
AcDbLine
 10
233.468732
 20
543.108918
 11
232.413877
 21
543.108689
  0
LINE
  5
6B6
100
AcDbEntity
  8
M0
 62
     7
100
AcDbLine
 10
258.419248
 20
504.108933
 11
258.419492
 21
546.108933
  0
LINE
  5
6B7
100
AcDbEntity
  8
M0
 62
     7
100
AcDbLine
 10
236.269346
 20
540.609101
 11
236.269346
 21
535.858689
  0
LINE
  5
6B8
100
AcDbEntity
  8
M0
 62
     7
100
AcDbLine
 10
239.419492
 20
551.109925
 11
239.419492
 21
544.309022
  0
LINE
  5
6B9
100
AcDbEntity
  8
M0
 62
     7
100
AcDbLine
 10
258.419248
 20
544.108445
 11
258.419248
 21
551.10991
  0
LINE
  5
6BA
100
AcDbEntity
  8
M0
 62
     7
100
AcDbLine
 10
236.614072
 20
544.309022
 11
236.614072
 21
545.109421
  0
ARC
  5
6BB
100
AcDbEntity
  8
M0
 62
     7
100
AcDbCircle
 10
235.614072
 20
545.109421
 40
1.0
100
AcDbArc
 50
0.0
 51
90.0
  0
LINE
  5
6BC
100
AcDbEntity
  8
M0
  6
DASHDOT
 62
     7
100
AcDbLine
 10
244.419492
 20
541.359635
 11
244.419492
 21
552.90712
  0
LINE
  5
6BD
100
AcDbEntity
  8
M0
 62
     7
100
AcDbLine
 10
257.96858
 20
544.309037
 11
233.468763
 21
544.309281
  0
LINE
  5
6BE
100
AcDbEntity
  8
M0
 62
     7
100
AcDbLine
 10
233.468763
 20
544.309281
 11
233.468763
 21
543.109284
  0
LINE
  5
6BF
100
AcDbEntity
  8
M0
 62
     7
100
AcDbLine
 10
258.468351
 20
521.409058
 11
258.46858
 21
543.809022
  0
LINE
  5
6C0
100
AcDbEntity
  8
M0
  6
DASHDOT
 62
     7
100
AcDbLine
 10
246.418302
 20
518.246445
 11
246.418531
 21
540.072495
  0
LINE
  5
6C1
100
AcDbEntity
  8
M0
 62
     7
100
AcDbLine
 10
242.968763
 20
543.109193
 11
233.468763
 21
543.109284
  0
LINE
  5
6C2
100
AcDbEntity
  8
M0
 62
     7
100
AcDbLine
 10
181.415662
 20
545.110673
 11
174.757169
 21
545.110261
  0
LINE
  5
6C3
100
AcDbEntity
  8
M0
 62
     7
100
AcDbLine
 10
181.415662
 20
544.108918
 11
174.941923
 21
544.109406
  0
LINE
  5
6C4
100
AcDbEntity
  8
M0
 62
     7
100
AcDbLine
 10
181.415662
 20
543.109391
 11
175.126463
 21
543.109742
  0
LINE
  5
6C5
100
AcDbEntity
  8
M0
 62
     7
100
AcDbLine
 10
207.415661
 20
545.109589
 11
203.169263
 21
545.109605
  0
LINE
  5
6C6
100
AcDbEntity
  8
M0
 62
     7
100
AcDbLine
 10
207.415657
 20
544.109833
 11
203.169263
 21
544.109849
  0
LINE
  5
6C7
100
AcDbEntity
  8
M0
 62
     7
100
AcDbLine
 10
207.415651
 20
543.110795
 11
203.169263
 21
543.110673
  0
LINE
  5
6C8
100
AcDbEntity
  8
M0
 62
     7
100
AcDbLine
 10
218.336356
 20
545.10843
 11
211.415661
 21
545.108399
  0
LINE
  5
6C9
100
AcDbEntity
  8
M0
 62
     7
100
AcDbLine
 10
233.468732
 20
544.10965
 11
231.372022
 21
544.10965
  0
LINE
  5
6CA
100
AcDbEntity
  8
M0
 62
     7
100
AcDbLine
 10
236.265684
 20
543.110642
 11
231.187315
 21
543.110642
  0
LINE
  5
6CB
100
AcDbEntity
  8
M0
 62
     7
100
AcDbLine
 10
155.415906
 20
545.109437
 11
155.415372
 21
505.966752
  0
LINE
  5
6CC
100
AcDbEntity
  8
M0
 62
     7
100
AcDbLine
 10
231.372022
 20
544.109666
 11
233.468763
 21
544.109666
  0
LINE
  5
6CD
100
AcDbEntity
  8
M0
 62
     7
100
AcDbLine
 10
242.968763
 20
543.109193
 11
242.968763
 21
544.309189
  0
LINE
  5
6CE
100
AcDbEntity
  8
M0
 62
     7
100
AcDbLine
 10
237.968549
 20
540.409241
 11
236.768552
 21
540.409257
  0
LINE
  5
6CF
100
AcDbEntity
  8
M0
 62
     7
100
AcDbLine
 10
236.768385
 20
524.809296
 11
236.768552
 21
540.409257
  0
LINE
  5
6D0
100
AcDbEntity
  8
M0
 62
     7
100
AcDbLine
 10
238.968549
 20
541.409226
 11
238.96858
 21
543.109223
  0
ARC
  5
6D1
100
AcDbEntity
  8
M0
 62
     7
100
AcDbCircle
 10
237.968549
 20
541.409241
 40
1.0
100
AcDbArc
 50
269.999126
 51
360.0
  0
ARC
  5
6D2
100
AcDbEntity
  8
M0
 62
     7
100
AcDbCircle
 10
257.96858
 20
543.809037
 40
0.5
100
AcDbArc
 50
0.0
 51
90.0
  0
LINE
  5
6D3
100
AcDbEntity
  8
M0
 62
     7
100
AcDbLine
 10
237.565672
 20
540.609147
 11
232.415372
 21
540.609162
  0
ARC
  5
6D4
100
AcDbEntity
  8
M0
 62
     7
100
AcDbCircle
 10
237.565672
 20
541.109131
 40
0.5
100
AcDbArc
 50
269.998251
 51
360.0
  0
LINE
  5
6D5
100
AcDbEntity
  8
M0
  6
DASHED
 62
     7
100
AcDbLine
 10
250.768293
 20
539.459016
 11
250.768293
 21
542.259003
  0
LINE
  5
6D6
100
AcDbEntity
  8
M0
  6
DASHED
 62
     7
100
AcDbLine
 10
246.768293
 20
539.459016
 11
246.768293
 21
542.259003
  0
LINE
  5
6D7
100
AcDbEntity
  8
M0
  6
DASHED
 62
     7
100
AcDbLine
 10
246.768293
 20
539.459016
 11
250.768293
 21
539.459016
  0
LINE
  5
6D8
100
AcDbEntity
  8
M0
  6
DASHED
 62
     7
100
AcDbLine
 10
246.768293
 20
542.259003
 11
250.768293
 21
542.259003
  0
LINE
  5
6D9
100
AcDbEntity
  8
M0
 62
     7
100
AcDbLine
 10
238.968763
 20
543.109193
 11
238.968763
 21
544.309189
  0
LINE
  5
6DA
100
AcDbEntity
  8
M0
 62
     7
100
AcDbLine
 10
239.968549
 20
540.309006
 11
239.968549
 21
542.809006
  0
LINE
  5
6DB
100
AcDbEntity
  8
M0
 62
     7
100
AcDbLine
 10
241.968549
 20
540.309022
 11
239.968549
 21
540.309022
  0
LINE
  5
6DC
100
AcDbEntity
  8
M0
 62
     7
100
AcDbLine
 10
241.968549
 20
540.309006
 11
241.968549
 21
542.809006
  0
LINE
  5
6DD
100
AcDbEntity
  8
M0
 62
     7
100
AcDbLine
 10
241.968549
 20
542.809022
 11
239.968549
 21
542.809022
  0
CIRCLE
  5
6DE
100
AcDbEntity
  8
M0
 62
     7
100
AcDbCircle
 10
170.4158
 20
533.510804
 40
6.499993
  0
CIRCLE
  5
6DF
100
AcDbEntity
  8
M0
 62
     7
100
AcDbCircle
 10
196.415556
 20
533.510804
 40
6.499993
  0
CIRCLE
  5
6E0
100
AcDbEntity
  8
M0
 62
     7
100
AcDbCircle
 10
222.415403
 20
533.510789
 40
6.499993
  0
LINE
  5
6E1
100
AcDbEntity
  8
M0
  6
DASHDOT
 62
     7
100
AcDbLine
 10
237.765791
 20
548.609925
 11
251.419202
 21
548.609925
  0
LINE
  5
6E2
100
AcDbEntity
  8
M0
 62
     7
100
AcDbLine
 10
241.919492
 20
553.609925
 11
255.919248
 21
553.609925
  0
ARC
  5
6E3
100
AcDbEntity
  8
M0
 62
     7
100
AcDbCircle
 10
255.919248
 20
551.109925
 40
2.5
100
AcDbArc
 50
0.0
 51
90.0
  0
ARC
  5
6E4
100
AcDbEntity
  8
M0
 62
     7
100
AcDbCircle
 10
241.919492
 20
551.109925
 40
2.5
100
AcDbArc
 50
90.0
 51
179.99965
  0
LINE
  5
6E5
100
AcDbEntity
  8
M0
 62
     7
100
AcDbLine
 10
161.537687
 20
545.109452
 11
161.415662
 21
545.109437
  0
LINE
  5
6E6
100
AcDbEntity
  8
M0
 62
     7
100
AcDbLine
 10
161.722105
 20
544.110428
 11
155.415906
 21
544.110902
  0
LINE
  5
6E7
100
AcDbEntity
  8
M0
 62
     7
100
AcDbLine
 10
161.906675
 20
543.11052
 11
159.415662
 21
543.110657
  0
LINE
  5
6E8
100
AcDbEntity
  8
M0
 62
     7
100
AcDbLine
 10
190.169263
 20
545.109666
 11
185.415662
 21
545.109681
  0
LINE
  5
6E9
100
AcDbEntity
  8
M0
 62
     7
100
AcDbLine
 10
190.169263
 20
544.10991
 11
185.415418
 21
544.109925
  0
LINE
  5
6EA
100
AcDbEntity
  8
M0
 62
     7
100
AcDbLine
 10
190.169263
 20
543.110306
 11
185.415418
 21
543.110169
  0
LINE
  5
6EB
100
AcDbEntity
  8
M0
 62
     7
100
AcDbLine
 10
218.151685
 20
544.10962
 11
211.415657
 21
544.109605
  0
LINE
  5
6EC
100
AcDbEntity
  8
M0
 62
     7
100
AcDbLine
 10
217.966977
 20
543.110612
 11
211.415651
 21
543.110612
  0
ARC
  5
6ED
100
AcDbEntity
  8
M0
100
AcDbCircle
 10
243.350263
 20
575.893296
 40
3.0
100
AcDbArc
 50
349.524867
 51
439.52492
  0
LINE
  5
6EE
100
AcDbEntity
  8
M0
100
AcDbLine
 10
243.895704
 20
578.843308
 11
233.079023
 21
580.843217
  0
ARC
  5
6EF
100
AcDbEntity
  8
M0
100
AcDbCircle
 10
232.533598
 20
577.89322
 40
3.0
100
AcDbArc
 50
79.52492
 51
169.524347
  0
LINE
  5
6F0
100
AcDbEntity
  8
M0
100
AcDbLine
 10
229.583601
 20
578.43866
 11
226.166395
 21
559.956559
  0
LINE
  5
6F1
100
AcDbEntity
  8
M0
100
AcDbLine
 10
243.754911
 20
561.581193
 11
246.30026
 21
575.347871
  0
ARC
  5
6F2
100
AcDbEntity
  8
M0
100
AcDbCircle
 10
216.33307
 20
561.774659
 40
10.0
100
AcDbArc
 50
313.987075
 51
349.524782
  0
LINE
  5
6F3
100
AcDbEntity
  8
M0
100
AcDbLine
 10
229.359678
 20
533.225831
 11
231.674161
 21
545.743821
  0
ARC
  5
6F4
100
AcDbEntity
  8
M0
100
AcDbCircle
 10
241.507505
 20
543.925706
 40
10.0
100
AcDbArc
 50
138.56101
 51
169.52463
  0
LINE
  5
6F5
100
AcDbEntity
  8
M0
100
AcDbLine
 10
219.394423
 20
550.83104
 11
223.278028
 21
554.579697
  0
LINE
  5
6F6
100
AcDbEntity
  8
M0
100
AcDbLine
 10
243.754911
 20
561.581193
 11
234.010892
 21
550.543931
  0
ARC
  5
6F7
100
AcDbEntity
  8
M0
100
AcDbCircle
 10
222.968015
 20
534.407593
 40
6.5
100
AcDbArc
 50
323.710651
 51
349.524805
  0
LINE
  5
6F8
100
AcDbEntity
  8
M0
100
AcDbLine
 10
216.796075
 20
536.777726
 11
219.394423
 21
550.83104
  0
ARC
  5
6F9
100
AcDbEntity
  8
M0
100
AcDbCircle
 10
174.807142
 20
577.891999
 40
3.0
100
AcDbArc
 50
10.459076
 51
100.458503
  0
LINE
  5
6FA
100
AcDbEntity
  8
M0
100
AcDbLine
 10
174.262556
 20
580.842164
 11
163.44531
 21
578.845338
  0
ARC
  5
6FB
100
AcDbEntity
  8
M0
100
AcDbCircle
 10
163.989896
 20
575.895188
 40
3.0
100
AcDbArc
 50
100.458503
 51
190.459129
  0
LINE
  5
6FC
100
AcDbEntity
  8
M0
100
AcDbLine
 10
161.039747
 20
575.350587
 11
164.451658
 21
556.867524
  0
LINE
  5
6FD
100
AcDbEntity
  8
M0
100
AcDbLine
 10
180.298719
 20
564.669205
 11
177.757307
 21
578.4366
  0
ARC
  5
6FE
100
AcDbEntity
  8
M0
100
AcDbCircle
 10
170.592893
 20
531.862229
 40
6.5
100
AcDbArc
 50
190.458654
 51
280.458786
  0
ARC
  5
6FF
100
AcDbEntity
  8
M0
100
AcDbCircle
 10
170.592893
 20
531.862229
 40
6.5
100
AcDbArc
 50
280.458786
 51
370.459026
  0
ARC
  5
700
100
AcDbEntity
  8
M0
100
AcDbCircle
 10
154.617811
 20
555.052216
 40
10.0
100
AcDbArc
 50
334.92128
 51
370.459011
  0
LINE
  5
701
100
AcDbEntity
  8
M0
100
AcDbLine
 10
176.984891
 20
533.042176
 11
174.673994
 21
545.560822
  0
ARC
  5
702
100
AcDbEntity
  8
M0
100
AcDbCircle
 10
184.507856
 20
547.37613
 40
10.0
100
AcDbArc
 50
159.495025
 51
190.458855
  0
LINE
  5
703
100
AcDbEntity
  8
M0
100
AcDbLine
 10
161.387174
 20
545.92476
 11
163.675062
 21
550.813584
  0
LINE
  5
704
100
AcDbEntity
  8
M0
100
AcDbLine
 10
164.20088
 20
530.682297
 11
161.387174
 21
545.92476
  0
LINE
  5
705
100
AcDbEntity
  8
M0
100
AcDbLine
 10
180.298719
 20
564.669205
 11
175.141431
 21
550.878998
  0
LINE
  5
706
100
AcDbEntity
  8
M0
100
AcDbLine
 10
251.669263
 20
717.60994
 11
246.669263
 21
722.60994
  0
LINE
  5
707
100
AcDbEntity
  8
M0
100
AcDbLine
 10
246.669263
 20
722.60994
 11
160.669263
 21
722.60994
  0
LINE
  5
708
100
AcDbEntity
  8
M0
100
AcDbLine
 10
160.669263
 20
722.60994
 11
155.669263
 21
717.60994
  0
LINE
  5
709
100
AcDbEntity
  8
M0
100
AcDbLine
 10
155.669263
 20
462.609955
 11
160.669263
 21
457.609955
  0
LINE
  5
70A
100
AcDbEntity
  8
M0
100
AcDbLine
 10
160.669263
 20
457.609955
 11
246.669263
 21
457.609955
  0
LINE
  5
70B
100
AcDbEntity
  8
M0
100
AcDbLine
 10
246.669263
 20
457.609955
 11
251.669263
 21
462.609955
  0
LINE
  5
70C
100
AcDbEntity
  8
M0
  6
DASHDOT
100
AcDbLine
 10
187.169263
 20
706.10994
 11
220.169263
 21
706.10994
  0
ARC
  5
70D
100
AcDbEntity
  8
M0
100
AcDbCircle
 10
203.669263
 20
706.10994
 40
6.5
100
AcDbArc
 50
117.486412
 51
422.513496
  0
CIRCLE
  5
70E
100
AcDbEntity
  8
M0
100
AcDbCircle
 10
168.669263
 20
705.10994
 40
3.0
  0
LINE
  5
70F
100
AcDbEntity
  8
M0
  6
DASHDOT
100
AcDbLine
 10
155.669263
 20
705.10994
 11
181.669263
 21
705.10994
  0
LINE
  5
710
100
AcDbEntity
  8
M0
  6
DASHDOT
100
AcDbLine
 10
168.669263
 20
692.10994
 11
168.669263
 21
718.10994
  0
LINE
  5
711
100
AcDbEntity
  8
M0
  6
DASHDOT
100
AcDbLine
 10
190.669263
 20
715.10994
 11
216.669263
 21
715.10994
  0
LINE
  5
712
100
AcDbEntity
  8
M0
100
AcDbLine
 10
200.669263
 20
715.10994
 11
200.669263
 21
711.876221
  0
LINE
  5
713
100
AcDbEntity
  8
M0
100
AcDbLine
 10
206.669263
 20
715.10994
 11
206.669263
 21
711.876221
  0
ARC
  5
714
100
AcDbEntity
  8
M0
100
AcDbCircle
 10
203.669263
 20
715.10994
 40
3.0
100
AcDbArc
 50
0.0
 51
180.0
  0
CIRCLE
  5
715
100
AcDbEntity
  8
M0
100
AcDbCircle
 10
238.669263
 20
705.10994
 40
3.0
  0
LINE
  5
716
100
AcDbEntity
  8
M0
  6
DASHDOT
100
AcDbLine
 10
251.669263
 20
705.10994
 11
225.669263
 21
705.10994
  0
LINE
  5
717
100
AcDbEntity
  8
M0
  6
DASHDOT
100
AcDbLine
 10
238.669263
 20
692.10994
 11
238.669263
 21
718.10994
  0
LINE
  5
718
100
AcDbEntity
  8
M0
  6
DASHDOT
100
AcDbLine
 10
161.669263
 20
561.609955
 11
161.669263
 21
586.609955
  0
CIRCLE
  5
719
100
AcDbEntity
  8
M0
100
AcDbCircle
 10
238.669263
 20
490.109955
 40
3.0
  0
LINE
  5
71A
100
AcDbEntity
  8
M0
  6
DASHDOT
100
AcDbLine
 10
225.669263
 20
490.109955
 11
251.669263
 21
490.109955
  0
LINE
  5
71B
100
AcDbEntity
  8
M0
  6
DASHDOT
100
AcDbLine
 10
238.669263
 20
477.109955
 11
238.669263
 21
503.109955
  0
CIRCLE
  5
71C
100
AcDbEntity
  8
M0
100
AcDbCircle
 10
183.669263
 20
490.109955
 40
3.0
  0
LINE
  5
71D
100
AcDbEntity
  8
M0
  6
DASHDOT
100
AcDbLine
 10
170.669263
 20
490.109955
 11
196.669263
 21
490.109955
  0
LINE
  5
71E
100
AcDbEntity
  8
M0
  6
DASHDOT
100
AcDbLine
 10
183.669263
 20
477.109955
 11
183.669263
 21
503.109955
  0
CIRCLE
  5
71F
100
AcDbEntity
  8
M0
100
AcDbCircle
 10
243.669263
 20
465.109955
 40
3.0
  0
LINE
  5
720
100
AcDbEntity
  8
M0
  6
DASHDOT
100
AcDbLine
 10
230.669263
 20
465.109955
 11
256.669263
 21
465.109955
  0
LINE
  5
721
100
AcDbEntity
  8
M0
  6
DASHDOT
100
AcDbLine
 10
243.669263
 20
452.109955
 11
243.669263
 21
478.109955
  0
CIRCLE
  5
722
100
AcDbEntity
  8
M0
100
AcDbCircle
 10
163.669263
 20
465.109955
 40
3.0
  0
LINE
  5
723
100
AcDbEntity
  8
M0
  6
DASHDOT
100
AcDbLine
 10
150.669263
 20
465.109955
 11
176.669263
 21
465.109955
  0
LINE
  5
724
100
AcDbEntity
  8
M0
  6
DASHDOT
100
AcDbLine
 10
163.669263
 20
452.109955
 11
163.669263
 21
478.109955
  0
CIRCLE
  5
725
100
AcDbEntity
  8
M0
100
AcDbCircle
 10
188.669263
 20
465.109955
 40
3.0
  0
LINE
  5
726
100
AcDbEntity
  8
M0
  6
DASHDOT
100
AcDbLine
 10
175.669263
 20
465.109955
 11
201.669263
 21
465.109955
  0
LINE
  5
727
100
AcDbEntity
  8
M0
  6
DASHDOT
100
AcDbLine
 10
188.669263
 20
452.109955
 11
188.669263
 21
478.109955
  0
LINE
  5
728
100
AcDbEntity
  8
M0
100
AcDbLine
 10
155.669263
 20
717.60994
 11
155.669263
 21
690.009949
  0
LINE
  5
729
100
AcDbEntity
  8
M0
100
AcDbLine
 10
251.669263
 20
689.63997
 11
251.669263
 21
717.60994
  0
LINE
  5
72A
100
AcDbEntity
  8
M0
100
AcDbLine
 10
246.669248
 20
694.10994
 11
251.669263
 21
694.10994
  0
LINE
  5
72B
100
AcDbEntity
  8
M0
100
AcDbLine
 10
213.669262
 20
694.10994
 11
226.669248
 21
694.10994
  0
LINE
  5
72C
100
AcDbEntity
  8
M0
100
AcDbLine
 10
155.669263
 20
694.10994
 11
160.669233
 21
694.10994
  0
LINE
  5
72D
100
AcDbEntity
  8
M0
100
AcDbLine
 10
180.669233
 20
694.10994
 11
193.669263
 21
694.10994
  0
LINE
  5
72E
100
AcDbEntity
  8
M0
100
AcDbLine
 10
155.669263
 20
570.379868
 11
155.669263
 21
462.609955
  0
LINE
  5
72F
100
AcDbEntity
  8
M0
100
AcDbLine
 10
155.669263
 20
501.109955
 11
181.415433
 21
501.109955
  0
LINE
  5
730
100
AcDbEntity
  8
M0
100
AcDbLine
 10
185.415433
 20
501.109955
 11
207.415424
 21
501.109955
  0
LINE
  5
731
100
AcDbEntity
  8
M0
100
AcDbLine
 10
211.415424
 20
501.109955
 11
251.669263
 21
501.109955
  0
LINE
  5
732
100
AcDbEntity
  8
M0
100
AcDbLine
 10
251.669263
 20
462.609955
 11
251.669263
 21
506.3089
  0
LINE
  5
733
100
AcDbEntity
  8
M0
100
AcDbLine
 10
251.669263
 20
553.609925
 11
251.669263
 21
570.379868
  0
LINE
  5
734
100
AcDbEntity
  8
M0
100
AcDbLine
 10
200.669263
 20
627.759919
 11
206.669263
 21
627.759919
  0
LINE
  5
735
100
AcDbEntity
  8
M0
100
AcDbLine
 10
206.669263
 20
627.759919
 11
206.669263
 21
632.259919
  0
LINE
  5
736
100
AcDbEntity
  8
M0
100
AcDbLine
 10
206.669263
 20
632.259919
 11
200.669263
 21
632.259919
  0
LINE
  5
737
100
AcDbEntity
  8
M0
100
AcDbLine
 10
200.669263
 20
632.259919
 11
200.669263
 21
627.759919
  0
LINE
  5
738
100
AcDbEntity
  8
M0
  6
DIVIDE
100
AcDbLine
 10
203.669418
 20
400.187822
 11
251.669418
 21
400.187822
  0
LINE
  5
739
100
AcDbEntity
  8
M0
  6
DIVIDE
100
AcDbLine
 10
251.669418
 20
400.187822
 11
251.669418
 21
395.187822
  0
LINE
  5
73A
100
AcDbEntity
  8
M0
  6
DIVIDE
100
AcDbLine
 10
251.669418
 20
246.687837
 11
253.419418
 21
246.687837
  0
LINE
  5
73B
100
AcDbEntity
  8
M0
  6
DIVIDE
100
AcDbLine
 10
251.669418
 20
232.188066
 11
251.669418
 21
246.687837
  0
LINE
  5
73C
100
AcDbEntity
  8
M0
  6
DIVIDE
100
AcDbLine
 10
251.669418
 20
232.188066
 11
258.669662
 21
232.188066
  0
LINE
  5
73D
100
AcDbEntity
  8
M0
  6
DIVIDE
100
AcDbLine
 10
258.669662
 20
232.188066
 11
258.669632
 21
182.187822
  0
LINE
  5
73E
100
AcDbEntity
  8
M0
  6
DIVIDE
100
AcDbLine
 10
258.669632
 20
182.187822
 11
251.669418
 21
182.187822
  0
LINE
  5
73F
100
AcDbEntity
  8
M0
  6
DIVIDE
100
AcDbLine
 10
251.669418
 20
135.187837
 11
251.669418
 21
182.187822
  0
LINE
  5
740
100
AcDbEntity
  8
M0
  6
DIVIDE
100
AcDbLine
 10
251.669418
 20
135.187837
 11
203.669418
 21
135.187837
  0
LINE
  5
741
100
AcDbEntity
  8
M0
  6
DIVIDE
100
AcDbLine
 10
253.669418
 20
395.187822
 11
253.669418
 21
246.687837
  0
LINE
  5
742
100
AcDbEntity
  8
M0
  6
DIVIDE
100
AcDbLine
 10
251.669418
 20
395.187822
 11
253.669418
 21
395.187822
  0
LINE
  5
743
100
AcDbEntity
  8
M0
  6
DIVIDE
100
AcDbLine
 10
155.669418
 20
400.187822
 11
155.669418
 21
395.187822
  0
LINE
  5
744
100
AcDbEntity
  8
M0
  6
DIVIDE
100
AcDbLine
 10
155.669418
 20
246.687837
 11
153.919418
 21
246.687837
  0
LINE
  5
745
100
AcDbEntity
  8
M0
  6
DIVIDE
100
AcDbLine
 10
155.669418
 20
135.187837
 11
155.669418
 21
246.687837
  0
LINE
  5
746
100
AcDbEntity
  8
M0
  6
DIVIDE
100
AcDbLine
 10
153.669418
 20
395.187822
 11
153.669418
 21
246.687837
  0
LINE
  5
747
100
AcDbEntity
  8
M0
  6
DIVIDE
100
AcDbLine
 10
155.669418
 20
395.187822
 11
153.669418
 21
395.187822
  0
LINE
  5
748
100
AcDbEntity
  8
M0
  6
DIVIDE
100
AcDbLine
 10
155.669418
 20
135.187837
 11
203.669418
 21
135.187837
  0
LINE
  5
749
100
AcDbEntity
  8
M0
  6
DIVIDE
100
AcDbLine
 10
203.669418
 20
400.187822
 11
155.669418
 21
400.187822
  0
LINE
  5
74A
100
AcDbEntity
  8
M0
  6
DASHDOT
100
AcDbLine
 10
203.669418
 20
121.879432
 11
203.669418
 21
421.691163
  0
CIRCLE
  5
74B
100
AcDbEntity
  8
M0
100
AcDbCircle
 10
243.669418
 20
142.68773
 40
2.5
  0
LINE
  5
74C
100
AcDbEntity
  8
M0
  6
DASHDOT
100
AcDbLine
 10
207.83609
 20
142.68773
 11
263.58832
 21
142.68773
  0
LINE
  5
74D
100
AcDbEntity
  8
M0
  6
DASHDOT
100
AcDbLine
 10
243.669418
 20
106.854402
 11
243.669418
 21
178.521058
  0
CIRCLE
  5
74E
100
AcDbEntity
  8
M0
100
AcDbCircle
 10
203.669418
 20
392.68773
 40
1.75
  0
CIRCLE
  5
74F
100
AcDbEntity
  8
M0
100
AcDbCircle
 10
163.669418
 20
142.68773
 40
1.75
  0
CIRCLE
  5
750
100
AcDbEntity
  8
M0
100
AcDbCircle
 10
243.669418
 20
142.68773
 40
1.75
  0
CIRCLE
  5
751
100
AcDbEntity
  8
M0
100
AcDbCircle
 10
163.669418
 20
142.68773
 40
2.5
  0
LINE
  5
752
100
AcDbEntity
  8
M0
  6
DASHDOT
100
AcDbLine
 10
143.606527
 20
142.68773
 11
141.129027
 21
142.68773
  0
LINE
  5
753
100
AcDbEntity
  8
M0
  6
DASHDOT
100
AcDbLine
 10
163.669418
 20
106.854402
 11
163.669418
 21
178.521058
  0
CIRCLE
  5
754
100
AcDbEntity
  8
M0
100
AcDbCircle
 10
203.669418
 20
392.68773
 40
2.5
  0
LINE
  5
755
100
AcDbEntity
  8
M0
  6
DASHDOT
100
AcDbLine
 10
167.83609
 20
392.68773
 11
239.502746
 21
392.68773
  0
LINE
  5
756
100
AcDbEntity
  8
M1
 62
     2
100
AcDbLine
 10
30.303029
 20
30.303029
 11
30.303029
 21
863.636329
  0
LINE
  5
757
100
AcDbEntity
  8
M1
 62
     2
100
AcDbLine
 10
30.303029
 20
863.636329
 11
606.060582
 21
863.636329
  0
LINE
  5
758
100
AcDbEntity
  8
M1
 62
     2
100
AcDbLine
 10
606.060582
 20
863.636329
 11
606.060582
 21
30.303029
  0
LINE
  5
759
100
AcDbEntity
  8
M1
 62
     2
100
AcDbLine
 10
606.060582
 20
30.303029
 11
30.303029
 21
30.303029
  0
LINE
  5
75A
100
AcDbEntity
  8
M1
 62
     2
100
AcDbLine
 10
606.060582
 20
60.606058
 11
303.030291
 21
60.606058
  0
LINE
  5
75B
100
AcDbEntity
  8
M1
 62
     2
100
AcDbLine
 10
606.060582
 20
90.909087
 11
303.030291
 21
90.909087
  0
LINE
  5
75C
100
AcDbEntity
  8
M1
 62
     2
100
AcDbLine
 10
606.060582
 20
121.212116
 11
303.030291
 21
121.212116
  0
LINE
  5
75D
100
AcDbEntity
  8
M1
 62
     2
100
AcDbLine
 10
303.030291
 20
30.303029
 11
303.030291
 21
121.212116
  0
TEXT
  5
75E
100
AcDbEntity
  8
M1
 62
     2
100
AcDbText
 10
310.606048
 20
37.878786
 40
15.151515
  1
適　用；
  7
STANDARD
100
AcDbText
  0
TEXT
  5
75F
100
AcDbEntity
  8
M1
 62
     2
100
AcDbText
 10
310.606048
 20
98.484845
 40
15.151515
  1
登録名：
  7
STANDARD
100
AcDbText
  0
TEXT
  5
760
100
AcDbEntity
  8
M1
 62
     2
100
AcDbText
 10
383.333318
 20
98.484845
 40
15.151515
  1
ＤＭＨ８０ＣＴＲ００
 41
0.5
  7
STANDARD
100
AcDbText
  0
TEXT
  5
761
100
AcDbEntity
  8
M1
 62
     2
100
AcDbText
 10
310.606048
 20
68.181815
 40
15.151515
  1
形　式；
  7
STANDARD
100
AcDbText
  0
TEXT
  5
762
100
AcDbEntity
  8
M1
 62
     2
100
AcDbText
 10
383.333318
 20
68.181815
 40
15.151515
  1
Ｈ８０Ｃ－Ｔ，Ｈ８０Ｃ－ＴＫ
 41
0.5
  7
STANDARD
100
AcDbText
  0
LINE
  5
763
100
AcDbEntity
  8
DN0
100
AcDbLine
 10
181.671646
 20
76.237574
 11
237.004968
 21
76.237574
  0
TEXT
  5
764
100
AcDbEntity
  8
DN0
100
AcDbText
 10
183.201949
 20
77.60121
 40
13.636363
  1
せん孔図
 41
0.833333
  7
STANDARD
100
AcDbText
  0
LINE
  5
765
100
AcDbEntity
  8
DN0
100
AcDbLine
 10
103.55368
 20
798.317691
 11
346.674883
 21
798.317691
  0
TEXT
  5
766
100
AcDbEntity
  8
DN0
100
AcDbText
 10
104.912266
 20
799.529813
 40
12.121212
  1
※寸法は補助接点４ａ４ｂ付の場合　１２４
 41
0.833333
  7
STANDARD
100
AcDbText
  0
ENDSEC
  0
SECTION
  2
OBJECTS
  0
DICTIONARY
  5
C
100
AcDbDictionary
  3
ACAD_GROUP
350
D
  3
ACAD_MLINESTYLE
350
E
  0
DICTIONARY
  5
D
102
{ACAD_REACTORS
330
C
102
}
100
AcDbDictionary
  0
DICTIONARY
  5
E
102
{ACAD_REACTORS
330
C
102
}
100
AcDbDictionary
  3
STANDARD
350
13
  0
MLINESTYLE
  5
13
102
{ACAD_REACTORS
330
E
102
}
100
AcDbMlineStyle
  2
STANDARD
 70
     0
  3

 62
     0
 51
90.0
 52
90.0
 71
     2
 49
0.5
 62
   256
  6
BYLAYER
 49
-0.5
 62
   256
  6
BYLAYER
  0
ENDSEC
  0
EOF
