  0
SECTION
  2
HEADER
  9
$ACADVER
  1
AC1014
  9
$INSBASE
 10
0.000000
 20
0.000000
 30
0.0
  9
$VIEWCTR
 10
7.531722
 20
4.5
  9
$VIEWSIZE
 40
9.0
  9
$SNAPMODE
 70
     0
  9
$SNAPUNIT
 10
1.0
 20
1.0
  9
$SNAPBASE
 10
0.0
 20
0.0
  9
$SNAPANG
 50
0.0
  9
$SNAPSTYLE
 70
     0
  9
$SNAPISOPAIR
 70
     0
  9
$GRIDMODE
 70
     0
  9
$GRIDUNIT
 10
0.0
 20
0.0
  9
$ORTHOMODE
 70
     0
  9
$REGENMODE
 70
     1
  9
$FILLMODE
 70
     1
  9
$QTEXTMODE
 70
     0
  9
$DRAGMODE
 70
     2
  9
$LTSCALE
  40
     1.000000
  9
$OSMODE
 70
     0
  9
$ATTMODE
 70
     1
  9
$TEXTSIZE
 40
0.2
  9
$TRACEWID
 40
0.05
  9
$TEXTSTYLE
  7
STANDARD
  9
$CELTYPE
  6
BYLAYER
  9
$CECOLOR
 62
   256
  9
$DIMSCALE
 40
1.0
  9
$DIMASZ
 40
0.18
  9
$DIMEXO
 40
0.0625
  9
$DIMDLI
 40
0.38
  9
$DIMRND
 40
0.0
  9
$DIMDLE
 40
0.0
  9
$DIMEXE
 40
0.18
  9
$DIMTP
 40
0.0
  9
$DIMTM
 40
0.0
  9
$DIMTXT
 40
0.18
  9
$DIMCEN
 40
0.09
  9
$DIMTSZ
 40
0.0
  9
$DIMTOL
 70
     0
  9
$DIMLIM
 70
     0
  9
$DIMTIH
 70
     1
  9
$DIMTOH
 70
     1
  9
$DIMSE1
 70
     0
  9
$DIMSE2
 70
     0
  9
$DIMTAD
 70
     0
  9
$DIMZIN
 70
     0
  9
$DIMBLK
  1

  9
$LUNITS
 70
     2
  9
$LUPREC
 70
     4
  9
$AXISMODE
 70
     0
  9
$AXISUNIT
 10
0.0
 20
0.0
  9
$SKETCHINC
 40
0.1
  9
$FILLETRAD
 40
0.0
  9
$AUNITS
 70
     0
  9
$AUPREC
 70
     0
  9
$MENU
  1
ACAD
  9
$ELEVATION
 40
0.0
  9
$THICKNESS
 40
0.0
  9
$VIEWDIR
 10
0.0
 20
0.0
 30
1.0
  9
$LIMCHECK
 70
     0
  9
$BLIPMODE
 70
     1
  9
$CHAMFERA
 40
0.0
  9
$CHAMFERB
 40
0.0
  9
$FASTZOOM
 70
     1
  9
$SKPOLY
 70
     0
  9
$TDCREATE
 40
0000000.0000000000
  9
$TDUPDATE
 40
0000000.0000000000
  9
$TDINDWG
 40
0.0000000000
  9
$TDUSRTIMER
 40
0.0000000000
  9
$USRTIMER
 70
     1
  9
$ANGBASE
 50
0.0
  9
$ANGDIR
 70
     0
  9
$PDMODE
 70
     0
  9
$PDSIZE
 40
0.0
  9
$PLINEWID
 40
0.0
  9
$COORDS
 70
     0
  9
$USERI1
 70
     0
  9
$USERI2
 70
     0
  9
$USERI3
 70
     0
  9
$USERI4
 70
     0
  9
$USERI5
 70
     0
  9
$USERR1
 40
0.0
  9
$USERR2
 40
0.0
  9
$USERR3
 40
0.0
  9
$USERR4
 40
0.0
  9
$USERR5
 40
0.0
  9
$CLAYER
  8
M0
  9
$EXTMIN
 10
14.285715
 20
14.285715
  9
$EXTMAX
 10
285.714291
 20
407.142864
  9
$LIMMIN
 10
0.0
 20
0.0
  9
$LIMMAX
 10
210.0
 20
297.0
  9
$HANDSEED
  5
4E8
  0
ENDSEC
  0
SECTION
  2
CLASSES
  0
CLASS
  1
LWPOLYLINE
  2
AcDbPolyline
  3
"AutoCAD"
 90
        0
280
     0
281
     1
  0
CLASS
  1
DICTIONARYVAR
  2
AcDbDictionaryVar
  3
"AutoCAD"
 90
        0
280
     0
281
     0
  0
CLASS
  1
HATCH
  2
AcDbHatch
  3
"ACAD_SEDONA"
 90
        0
280
     0
281
     1
  0
ENDSEC
  0
SECTION
  2
TABLES
  0
TABLE
  2
VPORT
  5
8
100
AcDbSymbolTable
 70
     2
  0
VPORT
  5
14
100
AcDbSymbolTableRecord
100
AcDbViewportTableRecord
  2
*ACTIVE
 70
     0
 10
0.0
 20
0.0
 11
1.0
 21
1.0
 12
484.0
 22
297.0
 13
0.0
 23
0.0
 14
1.0
 24
1.0
 15
0.0
 25
0.0
 16
0.0
 26
0.0
 36
1.0
 17
0.0
 27
0.0
 37
0.0
 40
594.0
 41
2.0
 42
50.0
 43
0.0
 44
0.0
 50
0.0
 51
0.0
 71
     0
 72
   100
 73
     1
 74
     1
 75
     0
 76
     0
 77
     0
 78
     0
  0
ENDTAB
  0
TABLE
  2
LTYPE
  5
5
100
AcDbSymbolTable
 70
     5
  0
LTYPE
  5
15
100
AcDbSymbolTableRecord
100
AcDbLinetypeTableRecord
  2
BYBLOCK
 70
     0
  3

 72
    65
 73
     0
 40
0.0
  0
LTYPE
  5
16
100
AcDbSymbolTableRecord
100
AcDbLinetypeTableRecord
  2
BYLAYER
 70
     0
  3

 72
    65
 73
     0
 40
0.0
  0
LTYPE
  5
17
100
AcDbSymbolTableRecord
100
AcDbLinetypeTableRecord
  2
CONTINUOUS
 70
    64
  3
Solid line
 72
    65
 73
     0
 40
0.0
  0
LTYPE
  5
18
100
AcDbSymbolTableRecord
100
AcDbLinetypeTableRecord
  2
DASHED
 70
    64
  3
__ __ __ __ __ __ __ __ __ __ __ __ __ __ __ __
 72
    65
 73
     2
 40
0.75
 49
0.5
 74
     0
 49
-0.25
 74
     0
  0
LTYPE
  5
19
100
AcDbSymbolTableRecord
100
AcDbLinetypeTableRecord
  2
DASHDOT
 70
    64
  3
__ . __ . __ . __ . __ . __ . __ . __ . __ . __
 72
    65
 73
     4
 40
1.0
 49
0.5
 74
     0
 49
-0.25
 74
     0
 49
0.0
 74
     0
 49
-0.25
 74
     0
  0
LTYPE
  5
1A
100
AcDbSymbolTableRecord
100
AcDbLinetypeTableRecord
  2
DIVIDE
 70
    64
  3
____ . . ____ . . ____ . . ____ . . ____ . . __
 72
    65
 73
     6
 40
1.25
 49
0.5
 74
     0
 49
-0.25
 74
     0
 49
0.0
 74
     0
 49
-0.25
 74
     0
 49
0.0
 74
     0
 49
-0.25
 74
     0
  0
LTYPE
  5
1B
100
AcDbSymbolTableRecord
100
AcDbLinetypeTableRecord
  2
DOT
 70
    64
  3
. . . . . . . . . . . . . . . . . . . . . . . .
 72
    65
 73
     2
 40
0.25
 49
0.0
 74
     0
 49
-0.25
 74
     0
  0
ENDTAB
  0
TABLE
  2
LAYER
  5
2
100
AcDbSymbolTable
 70
   102
  0
LAYER
  5
F
100
AcDbSymbolTableRecord
100
AcDbLayerTableRecord
  2
0
 70
     0
 62
     7
  6
CONTINUOUS
  0
LAYER
  5
1C
100
AcDbSymbolTableRecord
100
AcDbLayerTableRecord
  2
DEFPOINTS
 70
     0
 62
     7
  6
CONTINUOUS
  0
LAYER
  5
1D
100
AcDbSymbolTableRecord
100
AcDbLayerTableRecord
  2
M0
 70
     0
 62
     3
  6
CONTINUOUS
  0
LAYER
  5
1E
100
AcDbSymbolTableRecord
100
AcDbLayerTableRecord
  2
M1
 70
     0
 62
     3
  6
CONTINUOUS
  0
LAYER
  5
1F
100
AcDbSymbolTableRecord
100
AcDbLayerTableRecord
  2
DD0
 70
     0
 62
     4
  6
CONTINUOUS
  0
LAYER
  5
20
100
AcDbSymbolTableRecord
100
AcDbLayerTableRecord
  2
DN0
 70
     0
 62
     2
  6
CONTINUOUS
  0
ENDTAB
  0
TABLE
  2
STYLE
  5
3
100
AcDbSymbolTable
 70
     2
  0
STYLE
  5
10
100
AcDbSymbolTableRecord
100
AcDbTextStyleTableRecord
  2
STANDARD
 70
     0
 40
0.0
 41
1.0
 50
0.0
 71
     0
 42
0.2
  3
txt
  4
BIGFONT
  0
ENDTAB
  0
TABLE
  2
VIEW
  5
6
100
AcDbSymbolTable
 70
     0
  0
ENDTAB
  0
TABLE
  2
UCS
  5
7
100
AcDbSymbolTable
 70
     0
  0
ENDTAB
  0
TABLE
  2
APPID
  5
9
100
AcDbSymbolTable
 70
     1
  0
APPID
  5
11
100
AcDbSymbolTableRecord
100
AcDbRegAppTableRecord
  2
ACAD
 70
     0
  0
ENDTAB
  0
TABLE
  2
DIMSTYLE
  5
A
100
AcDbSymbolTable
 70
     2
  0
DIMSTYLE
105
27
100
AcDbSymbolTableRecord
100
AcDbDimStyleTableRecord
  2
STANDARD
 70
     0
  3

  4

  5

  6
_OPEN
  7
_OPEN
 40
1.0
 41
4.285714
 42
1.0
 43
8.0
 44
1.0
 45
0.0
 46
0.0
 47
0.0
 48
0.0
140
4.5
141
0.09
142
0.0
143
0.03937
144
1.0
145
0.0
146
1.0
147
0.6
 71
     0
 72
     0
 73
     1
 74
     1
 75
     0
 76
     0
 77
     3
 78
     8
170
     0
171
     2
172
     0
173
     1
174
     0
175
     0
176
     0
177
     0
178
     0
270
     2
271
     2
272
     4
273
     2
274
     2
340
10
275
     0
280
     0
281
     0
282
     0
283
     1
284
     0
285
     0
286
     0
287
     3
288
     0
  0
DIMSTYLE
105
28
100
AcDbSymbolTableRecord
100
AcDbDimStyleTableRecord
  2
LEADSTYL
 70
     0
  3

  4

  5

  6
_OPEN
  7
_OPEN
 40
1.0
 41
4.285714
 42
0.0625
 43
0.38
 44
0.18
 45
0.0
 46
0.0
 47
0.0
 48
0.0
140
4.5
141
0.09
142
0.0
143
25.4
144
1.0
145
0.0
146
1.0
147
0.6
 71
     0
 72
     0
 73
     1
 74
     1
 75
     0
 76
     0
 77
     0
 78
     0
170
     0
171
     2
172
     0
173
     1
174
     0
175
     0
176
     0
177
     0
178
     0
270
     2
271
     4
272
     4
273
     2
274
     2
340
10
275
     0
280
     0
281
     0
282
     0
283
     1
284
     0
285
     0
286
     0
287
     3
288
     0
  0
ENDTAB
  0
TABLE
  2
BLOCK_RECORD
  5
1
100
AcDbSymbolTable
 70
    24
  0
BLOCK_RECORD
  5
21
100
AcDbSymbolTableRecord
100
AcDbBlockTableRecord
  2
*MODEL_SPACE
  0
BLOCK_RECORD
  5
24
100
AcDbSymbolTableRecord
100
AcDbBlockTableRecord
  2
*PAPER_SPACE
  0
BLOCK_RECORD
  5
29
100
AcDbSymbolTableRecord
100
AcDbBlockTableRecord
  2
_NONE
  0
BLOCK_RECORD
  5
2D
100
AcDbSymbolTableRecord
100
AcDbBlockTableRecord
  2
_OPEN
  0
BLOCK_RECORD
  5
33
100
AcDbSymbolTableRecord
100
AcDbBlockTableRecord
  2
_CLOSED
  0
BLOCK_RECORD
  5
3A
100
AcDbSymbolTableRecord
100
AcDbBlockTableRecord
  2
_ORIGIN
  0
BLOCK_RECORD
  5
3F
100
AcDbSymbolTableRecord
100
AcDbBlockTableRecord
  2
_DOT
  0
BLOCK_RECORD
  5
47
100
AcDbSymbolTableRecord
100
AcDbBlockTableRecord
  2
_OBLIQUE
  0
BLOCK_RECORD
  5
4B
100
AcDbSymbolTableRecord
100
AcDbBlockTableRecord
  2
DIMS0
  0
BLOCK_RECORD
  5
57
100
AcDbSymbolTableRecord
100
AcDbBlockTableRecord
  2
DIMS1
  0
BLOCK_RECORD
  5
63
100
AcDbSymbolTableRecord
100
AcDbBlockTableRecord
  2
DIMS2
  0
BLOCK_RECORD
  5
68
100
AcDbSymbolTableRecord
100
AcDbBlockTableRecord
  2
DIMS3
  0
BLOCK_RECORD
  5
6D
100
AcDbSymbolTableRecord
100
AcDbBlockTableRecord
  2
DIMS4
  0
BLOCK_RECORD
  5
72
100
AcDbSymbolTableRecord
100
AcDbBlockTableRecord
  2
DIMS5
  0
BLOCK_RECORD
  5
7E
100
AcDbSymbolTableRecord
100
AcDbBlockTableRecord
  2
DIMS6
  0
BLOCK_RECORD
  5
8A
100
AcDbSymbolTableRecord
100
AcDbBlockTableRecord
  2
DIMS7
  0
BLOCK_RECORD
  5
96
100
AcDbSymbolTableRecord
100
AcDbBlockTableRecord
  2
DIMS8
  0
BLOCK_RECORD
  5
A1
100
AcDbSymbolTableRecord
100
AcDbBlockTableRecord
  2
DIMS9
  0
BLOCK_RECORD
  5
AE
100
AcDbSymbolTableRecord
100
AcDbBlockTableRecord
  2
DIMS10
  0
BLOCK_RECORD
  5
B9
100
AcDbSymbolTableRecord
100
AcDbBlockTableRecord
  2
DIMS11
  0
BLOCK_RECORD
  5
C4
100
AcDbSymbolTableRecord
100
AcDbBlockTableRecord
  2
DIMS12
  0
BLOCK_RECORD
  5
C9
100
AcDbSymbolTableRecord
100
AcDbBlockTableRecord
  2
DIMS13
  0
BLOCK_RECORD
  5
D0
100
AcDbSymbolTableRecord
100
AcDbBlockTableRecord
  2
DIMS14
  0
BLOCK_RECORD
  5
DB
100
AcDbSymbolTableRecord
100
AcDbBlockTableRecord
  2
DIMS15
  0
BLOCK_RECORD
  5
E6
100
AcDbSymbolTableRecord
100
AcDbBlockTableRecord
  2
DIMS16
  0
BLOCK_RECORD
  5
F2
100
AcDbSymbolTableRecord
100
AcDbBlockTableRecord
  2
DIMS17
  0
ENDTAB
  0
ENDSEC
  0
SECTION
  2
BLOCKS
  0
BLOCK
  5
22
100
AcDbEntity
  8
0
100
AcDbBlockBegin
  2
*MODEL_SPACE
 70
     0
 10
0.0
 20
0.0
 30
0.0
  3
*MODEL_SPACE
  1

  0
ENDBLK
  5
23
100
AcDbEntity
  8
0
100
AcDbBlockEnd
  0
BLOCK
  5
25
100
AcDbEntity
 67
     1
  8
0
100
AcDbBlockBegin
  2
*PAPER_SPACE
 70
     0
 10
0.0
 20
0.0
 30
0.0
  3
*PAPER_SPACE
  1

  0
ENDBLK
  5
26
100
AcDbEntity
 67
     1
  8
0
100
AcDbBlockEnd
  0
BLOCK
  5
2A
100
AcDbEntity
  8
0
100
AcDbBlockBegin
  2
_NONE
 70
     0
 10
0.0
 20
0.0
  0
CIRCLE
  5
2B
100
AcDbEntity
  8
0
 62
     0
100
AcDbCircle
 10
0.0
 20
0.0
 40
0.25
  0
ENDBLK
  5
2C
100
AcDbEntity
  8
0
100
AcDbBlockEnd
  0
BLOCK
  5
2E
100
AcDbEntity
  8
0
100
AcDbBlockBegin
  2
_OPEN
 70
     0
 10
0.0
 20
0.0
  0
LINE
  5
2F
100
AcDbEntity
  8
0
 62
     0
100
AcDbLine
 10
-0.965926
 20
0.258819
 11
0.0
 21
0.0
  0
LINE
  5
30
100
AcDbEntity
  8
0
 62
     0
100
AcDbLine
 10
0.0
 20
0.0
 11
-0.965926
 21
-0.258819
  0
LINE
  5
31
100
AcDbEntity
  8
0
 62
     0
100
AcDbLine
 10
0.0
 20
0.0
 11
-1.0
 21
0.0
  0
ENDBLK
  5
32
100
AcDbEntity
  8
0
100
AcDbBlockEnd
  0
BLOCK
  5
34
100
AcDbEntity
  8
0
100
AcDbBlockBegin
  2
_CLOSED
 70
     0
 10
0.0
 20
0.0
  0
LINE
  5
35
100
AcDbEntity
  8
0
 62
     0
100
AcDbLine
 10
-0.965926
 20
0.258819
 11
0.0
 21
0.0
  0
LINE
  5
36
100
AcDbEntity
  8
0
 62
     0
100
AcDbLine
 10
0.0
 20
0.0
 11
-0.965926
 21
-0.258819
  0
LINE
  5
37
100
AcDbEntity
  8
0
 62
     0
100
AcDbLine
 10
-0.965926
 20
0.258819
 11
-0.965926
 21
-0.258819
  0
LINE
  5
38
100
AcDbEntity
  8
0
 62
     0
100
AcDbLine
 10
0.0
 20
0.0
 11
-1.0
 21
0.0
  0
ENDBLK
  5
39
100
AcDbEntity
  8
0
100
AcDbBlockEnd
  0
BLOCK
  5
3B
100
AcDbEntity
  8
0
100
AcDbBlockBegin
  2
_ORIGIN
 70
     0
 10
0.0
 20
0.0
  0
CIRCLE
  5
3C
100
AcDbEntity
  8
0
 62
     0
100
AcDbCircle
 10
0.0
 20
0.0
 40
0.5
  0
LINE
  5
3D
100
AcDbEntity
  8
0
 62
     0
100
AcDbLine
 10
0.0
 20
0.0
 11
-1.0
 21
0.0
  0
ENDBLK
  5
3E
100
AcDbEntity
  8
0
100
AcDbBlockEnd
  0
BLOCK
  5
40
100
AcDbEntity
  8
0
100
AcDbBlockBegin
  2
_DOT
 70
     0
 10
0.0
 20
0.0
  0
POLYLINE
  5
41
100
AcDbEntity
  8
0
 62
     0
100
AcDb2dPolyline
 66
     1
 70
     1
 40
0.5
 41
0.5
  0
VERTEX
  5
42
100
AcDbEntity
  8
0
 62
     0
100
AcDbVertex
100
AcDb2dVertex
 10
-0.25
 20
0.0
 42
1.0
  0
VERTEX
  5
43
100
AcDbEntity
  8
0
 62
     0
100
AcDbVertex
100
AcDb2dVertex
 10
0.25
 20
0.0
 42
1.0
  0
SEQEND
  5
44
100
AcDbEntity
  8
0
 62
     0
  0
LINE
  5
45
100
AcDbEntity
  8
0
 62
     0
100
AcDbLine
 10
-0.5
 20
0.0
 11
-1.0
 21
0.0
  0
ENDBLK
  5
46
100
AcDbEntity
  8
0
100
AcDbBlockEnd
  0
BLOCK
  5
48
100
AcDbEntity
  8
0
100
AcDbBlockBegin
  2
_OBLIQUE
 70
     0
 10
0.0
 20
0.0
  0
LINE
  5
49
100
AcDbEntity
  8
0
 62
     0
100
AcDbLine
 10
-0.353553
 20
-0.353553
 11
0.353553
 21
0.353553
  0
ENDBLK
  5
4A
100
AcDbEntity
  8
0
100
AcDbBlockEnd
  0
BLOCK
  5
4C
100
AcDbEntity
  8
DD0
100
AcDbBlockBegin
  2
DIMS0
 70
     0
 10
0.0
 20
0.0
  0
LINE
  5
4D
100
AcDbEntity
  8
DD0
100
AcDbLine
 10
83.544242
 20
342.027768
 11
111.524508
 21
342.027768
  0
LINE
  5
4E
100
AcDbEntity
  8
DD0
100
AcDbLine
 10
72.144243
 20
262.127777
 11
111.524508
 21
262.127777
  0
LINE
  5
4F
100
AcDbEntity
  8
DD0
100
AcDbLine
 10
111.205161
 20
337.888086
 11
110.095936
 21
342.027768
  0
LINE
  5
50
100
AcDbEntity
  8
DD0
100
AcDbLine
 10
110.095936
 20
342.027768
 11
108.986712
 21
337.888086
  0
LINE
  5
51
100
AcDbEntity
  8
DD0
100
AcDbLine
 10
108.986712
 20
266.267459
 11
110.095936
 21
262.127777
  0
LINE
  5
52
100
AcDbEntity
  8
DD0
100
AcDbLine
 10
110.095936
 20
262.127777
 11
111.205161
 21
266.267459
  0
LINE
  5
53
100
AcDbEntity
  8
DD0
100
AcDbLine
 10
110.095936
 20
342.027768
 11
110.095936
 21
262.127777
  0
TEXT
  5
54
100
AcDbEntity
  8
DD0
100
AcDbText
 10
109.238795
 20
299.465859
 40
3.571429
  1
８０
 50
90.000003
 41
0.666667
  7
STANDARD
100
AcDbText
  0
ENDBLK
  5
55
100
AcDbEntity
  8
DD0
100
AcDbBlockEnd
  0
BLOCK
  5
58
100
AcDbEntity
  8
DD0
100
AcDbBlockBegin
  2
DIMS1
 70
     0
 10
0.0
 20
0.0
  0
LINE
  5
59
100
AcDbEntity
  8
DD0
100
AcDbLine
 10
50.565671
 20
274.799199
 11
50.565671
 21
247.831796
  0
LINE
  5
5A
100
AcDbEntity
  8
DD0
100
AcDbLine
 10
60.665671
 20
274.799199
 11
60.665671
 21
247.831796
  0
LINE
  5
5B
100
AcDbEntity
  8
DD0
100
AcDbLine
 10
46.425989
 20
248.151143
 11
50.565671
 21
249.260367
  0
LINE
  5
5C
100
AcDbEntity
  8
DD0
100
AcDbLine
 10
50.565671
 20
249.260367
 11
46.425989
 21
250.369592
  0
LINE
  5
5D
100
AcDbEntity
  8
DD0
100
AcDbLine
 10
64.805353
 20
250.369592
 11
60.665671
 21
249.260367
  0
LINE
  5
5E
100
AcDbEntity
  8
DD0
100
AcDbLine
 10
60.665671
 20
249.260367
 11
64.805353
 21
248.151143
  0
LINE
  5
5F
100
AcDbEntity
  8
DD0
100
AcDbLine
 10
45.851386
 20
249.260367
 11
65.379957
 21
249.260367
  0
TEXT
  5
60
100
AcDbEntity
  8
DD0
100
AcDbText
 10
53.003769
 20
250.117519
 40
3.571429
  1
１０
 41
0.666667
  7
STANDARD
100
AcDbText
  0
ENDBLK
  5
61
100
AcDbEntity
  8
DD0
100
AcDbBlockEnd
  0
BLOCK
  5
64
100
AcDbEntity
  8
DD0
100
AcDbBlockBegin
  2
DIMS2
 70
     0
 10
0.0
 20
0.0
  0
TEXT
  5
65
100
AcDbEntity
  8
DD0
100
AcDbText
 10
91.544769
 20
260.981447
 40
4.5
  1
　
 50
114.970976
 41
0.833333
  7
STANDARD
100
AcDbText
  0
ENDBLK
  5
66
100
AcDbEntity
  8
DD0
100
AcDbBlockEnd
  0
BLOCK
  5
69
100
AcDbEntity
  8
DD0
100
AcDbBlockBegin
  2
DIMS3
 70
     0
 10
0.0
 20
0.0
  0
TEXT
  5
6A
100
AcDbEntity
  8
DD0
100
AcDbText
 10
84.858176
 20
260.739405
 40
4.5
  1
　
 50
101.275504
 41
0.833333
  7
STANDARD
100
AcDbText
  0
ENDBLK
  5
6B
100
AcDbEntity
  8
DD0
100
AcDbBlockEnd
  0
BLOCK
  5
6E
100
AcDbEntity
  8
DD0
100
AcDbBlockBegin
  2
DIMS4
 70
     0
 10
0.0
 20
0.0
  0
TEXT
  5
6F
100
AcDbEntity
  8
DD0
100
AcDbText
 10
88.941513
 20
353.103673
 40
4.5
  1
　
 50
50.389529
 41
0.833333
  7
STANDARD
100
AcDbText
  0
ENDBLK
  5
70
100
AcDbEntity
  8
DD0
100
AcDbBlockEnd
  0
BLOCK
  5
73
100
AcDbEntity
  8
DD0
100
AcDbBlockBegin
  2
DIMS5
 70
     0
 10
0.0
 20
0.0
  0
LINE
  5
74
100
AcDbEntity
  8
DD0
100
AcDbLine
 10
89.71567
 20
316.05635
 11
89.71567
 21
352.260596
  0
LINE
  5
75
100
AcDbEntity
  8
DD0
100
AcDbLine
 10
41.715669
 20
316.05635
 11
41.715669
 21
352.260596
  0
LINE
  5
76
100
AcDbEntity
  8
DD0
100
AcDbLine
 10
85.575988
 20
349.7228
 11
89.71567
 21
350.832024
  0
LINE
  5
77
100
AcDbEntity
  8
DD0
100
AcDbLine
 10
89.71567
 20
350.832024
 11
85.575988
 21
351.941249
  0
LINE
  5
78
100
AcDbEntity
  8
DD0
100
AcDbLine
 10
45.855351
 20
351.941249
 11
41.715669
 21
350.832024
  0
LINE
  5
79
100
AcDbEntity
  8
DD0
100
AcDbLine
 10
41.715669
 20
350.832024
 11
45.855351
 21
349.7228
  0
LINE
  5
7A
100
AcDbEntity
  8
DD0
100
AcDbLine
 10
89.71567
 20
350.832024
 11
41.715669
 21
350.832024
  0
TEXT
  5
7B
100
AcDbEntity
  8
DD0
100
AcDbText
 10
63.103768
 20
351.689176
 40
3.571429
  1
４８
 41
0.666667
  7
STANDARD
100
AcDbText
  0
ENDBLK
  5
7C
100
AcDbEntity
  8
DD0
100
AcDbBlockEnd
  0
BLOCK
  5
7F
100
AcDbEntity
  8
DD0
100
AcDbBlockBegin
  2
DIMS6
 70
     0
 10
0.0
 20
0.0
  0
LINE
  5
80
100
AcDbEntity
  8
DD0
100
AcDbLine
 10
261.851419
 20
334.306341
 11
261.851419
 21
365.912874
  0
LINE
  5
81
100
AcDbEntity
  8
DD0
100
AcDbLine
 10
132.051427
 20
316.05635
 11
132.051427
 21
365.912874
  0
LINE
  5
82
100
AcDbEntity
  8
DD0
100
AcDbLine
 10
257.711737
 20
363.375078
 11
261.851419
 21
364.484303
  0
LINE
  5
83
100
AcDbEntity
  8
DD0
100
AcDbLine
 10
261.851419
 20
364.484303
 11
257.711737
 21
365.593527
  0
LINE
  5
84
100
AcDbEntity
  8
DD0
100
AcDbLine
 10
136.191109
 20
365.593527
 11
132.051427
 21
364.484303
  0
LINE
  5
85
100
AcDbEntity
  8
DD0
100
AcDbLine
 10
132.051427
 20
364.484303
 11
136.191109
 21
363.375078
  0
LINE
  5
86
100
AcDbEntity
  8
DD0
100
AcDbLine
 10
261.851419
 20
364.484303
 11
132.051427
 21
364.484303
  0
TEXT
  5
87
100
AcDbEntity
  8
DD0
100
AcDbText
 10
192.910943
 20
365.341454
 40
3.571429
  1
１３０
 41
0.666667
  7
STANDARD
100
AcDbText
  0
ENDBLK
  5
88
100
AcDbEntity
  8
DD0
100
AcDbBlockEnd
  0
BLOCK
  5
8B
100
AcDbEntity
  8
DD0
100
AcDbBlockBegin
  2
DIMS7
 70
     0
 10
0.0
 20
0.0
  0
LINE
  5
8C
100
AcDbEntity
  8
DD0
100
AcDbLine
 10
127.051426
 20
316.05635
 11
127.051426
 21
365.912874
  0
LINE
  5
8D
100
AcDbEntity
  8
DD0
100
AcDbLine
 10
132.051427
 20
316.05635
 11
132.051427
 21
365.912874
  0
LINE
  5
8E
100
AcDbEntity
  8
DD0
100
AcDbLine
 10
122.911744
 20
363.375078
 11
127.051426
 21
364.484303
  0
LINE
  5
8F
100
AcDbEntity
  8
DD0
100
AcDbLine
 10
127.051426
 20
364.484303
 11
122.911744
 21
365.593527
  0
LINE
  5
90
100
AcDbEntity
  8
DD0
100
AcDbLine
 10
136.191109
 20
365.593527
 11
132.051427
 21
364.484303
  0
LINE
  5
91
100
AcDbEntity
  8
DD0
100
AcDbLine
 10
132.051427
 20
364.484303
 11
136.191109
 21
363.375078
  0
LINE
  5
92
100
AcDbEntity
  8
DD0
100
AcDbLine
 10
118.051426
 20
364.484303
 11
136.765712
 21
364.484303
  0
TEXT
  5
93
100
AcDbEntity
  8
DD0
100
AcDbText
 10
119.310947
 20
365.341454
 40
3.571429
  1
５
 41
0.666667
  7
STANDARD
100
AcDbText
  0
ENDBLK
  5
94
100
AcDbEntity
  8
DD0
100
AcDbBlockEnd
  0
BLOCK
  5
97
100
AcDbEntity
  8
DD0
100
AcDbBlockBegin
  2
DIMS8
 70
     0
 10
0.0
 20
0.0
  0
LINE
  5
98
100
AcDbEntity
  8
DD0
100
AcDbLine
 10
250.851423
 20
334.256336
 11
250.851423
 21
352.260596
  0
LINE
  5
99
100
AcDbEntity
  8
DD0
100
AcDbLine
 10
265.991101
 20
351.941249
 11
261.851419
 21
350.832024
  0
LINE
  5
9A
100
AcDbEntity
  8
DD0
100
AcDbLine
 10
261.851419
 20
350.832024
 11
265.991101
 21
349.7228
  0
LINE
  5
9B
100
AcDbEntity
  8
DD0
100
AcDbLine
 10
246.711741
 20
349.7228
 11
250.851423
 21
350.832024
  0
LINE
  5
9C
100
AcDbEntity
  8
DD0
100
AcDbLine
 10
250.851423
 20
350.832024
 11
246.711741
 21
351.941249
  0
LINE
  5
9D
100
AcDbEntity
  8
DD0
100
AcDbLine
 10
266.565704
 20
350.832024
 11
246.137137
 21
350.832024
  0
TEXT
  5
9E
100
AcDbEntity
  8
DD0
100
AcDbText
 10
253.739496
 20
351.689176
 40
3.571429
  1
１１
 41
0.666667
  7
STANDARD
100
AcDbText
  0
ENDBLK
  5
9F
100
AcDbEntity
  8
DD0
100
AcDbBlockEnd
  0
BLOCK
  5
A2
100
AcDbEntity
  8
DD0
100
AcDbBlockBegin
  2
DIMS9
 70
     0
 10
0.0
 20
0.0
  0
LINE
  5
A3
100
AcDbEntity
  8
DD0
100
AcDbLine
 10
31.715669
 20
328.756349
 11
31.715669
 21
365.120006
  0
LINE
  5
A4
100
AcDbEntity
  8
DD0
100
AcDbLine
 10
99.715665
 20
328.756349
 11
99.715665
 21
365.120006
  0
LINE
  5
A5
100
AcDbEntity
  8
DD0
100
AcDbLine
 10
35.855351
 20
364.800659
 11
31.715669
 21
363.691434
  0
LINE
  5
A6
100
AcDbEntity
  8
DD0
100
AcDbLine
 10
31.715669
 20
363.691434
 11
35.855351
 21
362.58221
  0
LINE
  5
A7
100
AcDbEntity
  8
DD0
100
AcDbLine
 10
95.575983
 20
362.58221
 11
99.715665
 21
363.691434
  0
LINE
  5
A8
100
AcDbEntity
  8
DD0
100
AcDbLine
 10
99.715665
 20
363.691434
 11
95.575983
 21
364.800659
  0
LINE
  5
A9
100
AcDbEntity
  8
DD0
100
AcDbLine
 10
31.715669
 20
363.691434
 11
99.715665
 21
363.691434
  0
TEXT
  5
AA
100
AcDbEntity
  8
DD0
100
AcDbText
 10
63.103763
 20
364.548586
 40
3.571429
  1
６８
 41
0.666667
  7
STANDARD
100
AcDbText
  0
TEXT
  5
AB
100
AcDbEntity
  8
DD0
100
AcDbText
 10
35.960905
 20
358.977166
 40
3.571429
  1
（補助接点サイドオンユニットを付けた場合）
 41
0.666667
  7
STANDARD
100
AcDbText
  0
ENDBLK
  5
AC
100
AcDbEntity
  8
DD0
100
AcDbBlockEnd
  0
BLOCK
  5
AF
100
AcDbEntity
  8
DD0
100
AcDbBlockBegin
  2
DIMS10
 70
     0
 10
0.0
 20
0.0
  0
LINE
  5
B0
100
AcDbEntity
  8
DD0
100
AcDbLine
 10
53.741843
 20
182.924328
 11
99.737485
 21
182.924328
  0
LINE
  5
B1
100
AcDbEntity
  8
DD0
100
AcDbLine
 10
84.144441
 20
198.424337
 11
99.737485
 21
198.424337
  0
LWPOLYLINE
  5
B2
100
AcDbEntity
  8
DD0
100
AcDbPolyline
 90
        2
 70
     1
 43
0.714286
 10
97.951771
 20
182.924328
 42
1.0
 10
98.666057
 20
182.924328
 42
1.0
  0
LINE
  5
B3
100
AcDbEntity
  8
DD0
100
AcDbLine
 10
99.418138
 20
194.284655
 11
98.308914
 21
198.424337
  0
LINE
  5
B4
100
AcDbEntity
  8
DD0
100
AcDbLine
 10
98.308914
 20
198.424337
 11
97.199689
 21
194.284655
  0
LINE
  5
B5
100
AcDbEntity
  8
DD0
100
AcDbLine
 10
98.308914
 20
182.924328
 11
98.308914
 21
198.424337
  0
TEXT
  5
B6
100
AcDbEntity
  8
DD0
100
AcDbText
 10
97.451773
 20
185.205276
 40
3.571429
  1
１５．５
 50
90.000003
 41
0.666667
  7
STANDARD
100
AcDbText
  0
ENDBLK
  5
B7
100
AcDbEntity
  8
DD0
100
AcDbBlockEnd
  0
BLOCK
  5
BA
100
AcDbEntity
  8
DD0
100
AcDbBlockBegin
  2
DIMS11
 70
     0
 10
0.0
 20
0.0
  0
LINE
  5
BB
100
AcDbEntity
  8
DD0
100
AcDbLine
 10
44.215868
 20
191.152914
 11
44.215868
 21
207.734618
  0
LINE
  5
BC
100
AcDbEntity
  8
DD0
100
AcDbLine
 10
48.215861
 20
188.450299
 11
48.215861
 21
207.734618
  0
LINE
  5
BD
100
AcDbEntity
  8
DD0
100
AcDbLine
 10
40.076186
 20
205.196822
 11
44.215868
 21
206.306047
  0
LINE
  5
BE
100
AcDbEntity
  8
DD0
100
AcDbLine
 10
44.215868
 20
206.306047
 11
40.076186
 21
207.415271
  0
LWPOLYLINE
  5
BF
100
AcDbEntity
  8
DD0
100
AcDbPolyline
 90
        2
 70
     1
 43
0.714286
 10
47.858719
 20
206.306047
 42
1.0
 10
48.573004
 20
206.306047
 42
1.0
  0
LINE
  5
C0
100
AcDbEntity
  8
DD0
100
AcDbLine
 10
35.215868
 20
206.306047
 11
48.215861
 21
206.306047
  0
TEXT
  5
C1
100
AcDbEntity
  8
DD0
100
AcDbText
 10
36.475394
 20
207.163198
 40
3.571429
  1
４
 41
0.666667
  7
STANDARD
100
AcDbText
  0
ENDBLK
  5
C2
100
AcDbEntity
  8
DD0
100
AcDbBlockEnd
  0
BLOCK
  5
C5
100
AcDbEntity
  8
DD0
100
AcDbBlockBegin
  2
DIMS12
 70
     0
 10
0.0
 20
0.0
  0
TEXT
  5
C6
100
AcDbEntity
  8
DD0
100
AcDbText
 10
80.158724
 20
108.822492
 40
3.571429
  1
２－Ｍ４ねじ穴
 41
0.666667
  7
STANDARD
100
AcDbText
  0
ENDBLK
  5
C7
100
AcDbEntity
  8
DD0
100
AcDbBlockEnd
  0
BLOCK
  5
CA
100
AcDbEntity
  8
DD0
100
AcDbBlockBegin
  2
DIMS13
 70
     0
 10
0.0
 20
0.0
  0
LINE
  5
CB
100
AcDbEntity
  8
DD0
100
AcDbLine
 10
85.222244
 20
123.089066
 11
82.388242
 21
126.303996
  0
LINE
  5
CC
100
AcDbEntity
  8
DD0
100
AcDbLine
 10
82.388242
 20
126.303996
 11
83.235094
 21
122.102784
  0
LINE
  5
CD
100
AcDbEntity
  8
DD0
100
AcDbLine
 10
82.388242
 20
126.303996
 11
88.474319
 21
114.041837
  0
ENDBLK
  5
CE
100
AcDbEntity
  8
DD0
100
AcDbBlockEnd
  0
BLOCK
  5
D1
100
AcDbEntity
  8
DD0
100
AcDbBlockBegin
  2
DIMS14
 70
     0
 10
0.0
 20
0.0
  0
LINE
  5
D2
100
AcDbEntity
  8
DD0
100
AcDbLine
 10
87.241845
 20
127.924349
 11
99.737485
 21
127.924349
  0
LINE
  5
D3
100
AcDbEntity
  8
DD0
100
AcDbLine
 10
53.741843
 20
182.924328
 11
99.737485
 21
182.924328
  0
LINE
  5
D4
100
AcDbEntity
  8
DD0
100
AcDbLine
 10
97.199689
 20
132.064031
 11
98.308914
 21
127.924349
  0
LINE
  5
D5
100
AcDbEntity
  8
DD0
100
AcDbLine
 10
98.308914
 20
127.924349
 11
99.418138
 21
132.064031
  0
LWPOLYLINE
  5
D6
100
AcDbEntity
  8
DD0
100
AcDbPolyline
 90
        2
 70
     1
 43
0.714286
 10
97.951771
 20
182.924328
 42
1.0
 10
98.666057
 20
182.924328
 42
1.0
  0
LINE
  5
D7
100
AcDbEntity
  8
DD0
100
AcDbLine
 10
98.308914
 20
127.924349
 11
98.308914
 21
182.924328
  0
TEXT
  5
D8
100
AcDbEntity
  8
DD0
100
AcDbText
 10
97.451773
 20
152.812436
 40
3.571429
  1
５５
 50
90.000003
 41
0.666667
  7
STANDARD
100
AcDbText
  0
ENDBLK
  5
D9
100
AcDbEntity
  8
DD0
100
AcDbBlockEnd
  0
BLOCK
  5
DC
100
AcDbEntity
  8
DD0
100
AcDbBlockBegin
  2
DIMS15
 70
     0
 10
0.0
 20
0.0
  0
LINE
  5
DD
100
AcDbEntity
  8
DD0
100
AcDbLine
 10
48.215861
 20
188.450299
 11
48.215861
 21
207.734618
  0
LINE
  5
DE
100
AcDbEntity
  8
DD0
100
AcDbLine
 10
81.21586
 20
133.950317
 11
81.21586
 21
207.734618
  0
LWPOLYLINE
  5
DF
100
AcDbEntity
  8
DD0
100
AcDbPolyline
 90
        2
 70
     1
 43
0.714286
 10
47.858719
 20
206.306047
 42
1.0
 10
48.573004
 20
206.306047
 42
1.0
  0
LINE
  5
E0
100
AcDbEntity
  8
DD0
100
AcDbLine
 10
77.076178
 20
205.196822
 11
81.21586
 21
206.306047
  0
LINE
  5
E1
100
AcDbEntity
  8
DD0
100
AcDbLine
 10
81.21586
 20
206.306047
 11
77.076178
 21
207.415271
  0
LINE
  5
E2
100
AcDbEntity
  8
DD0
100
AcDbLine
 10
48.215861
 20
206.306047
 11
81.21586
 21
206.306047
  0
TEXT
  5
E3
100
AcDbEntity
  8
DD0
100
AcDbText
 10
62.103958
 20
207.163198
 40
3.571429
  1
３３
 41
0.666667
  7
STANDARD
100
AcDbText
  0
ENDBLK
  5
E4
100
AcDbEntity
  8
DD0
100
AcDbBlockEnd
  0
BLOCK
  5
E7
100
AcDbEntity
  8
DD0
100
AcDbBlockBegin
  2
DIMS16
 70
     0
 10
0.0
 20
0.0
  0
LINE
  5
E8
100
AcDbEntity
  8
DD0
100
AcDbLine
 10
47.8871
 20
342.027768
 11
22.276297
 21
342.027768
  0
LINE
  5
E9
100
AcDbEntity
  8
DD0
100
AcDbLine
 10
49.1371
 20
318.527772
 11
22.276297
 21
318.527772
  0
LINE
  5
EA
100
AcDbEntity
  8
DD0
100
AcDbLine
 10
24.814092
 20
337.888086
 11
23.704867
 21
342.027768
  0
LINE
  5
EB
100
AcDbEntity
  8
DD0
100
AcDbLine
 10
23.704867
 20
342.027768
 11
22.595643
 21
337.888086
  0
LINE
  5
EC
100
AcDbEntity
  8
DD0
100
AcDbLine
 10
22.595643
 20
322.667454
 11
23.704867
 21
318.527772
  0
LINE
  5
ED
100
AcDbEntity
  8
DD0
100
AcDbLine
 10
23.704867
 20
318.527772
 11
24.814092
 21
322.667454
  0
LINE
  5
EE
100
AcDbEntity
  8
DD0
100
AcDbLine
 10
23.704867
 20
342.027768
 11
23.704867
 21
318.527772
  0
TEXT
  5
EF
100
AcDbEntity
  8
DD0
100
AcDbText
 10
22.847724
 20
324.808703
 40
3.571429
  1
２３．５
 50
90.000003
 41
0.666667
  7
STANDARD
100
AcDbText
  0
ENDBLK
  5
F0
100
AcDbEntity
  8
DD0
100
AcDbBlockEnd
  0
BLOCK
  5
F3
100
AcDbEntity
  8
DD0
100
AcDbBlockBegin
  2
DIMS17
 70
     0
 10
0.0
 20
0.0
  0
LINE
  5
F4
100
AcDbEntity
  8
DD0
100
AcDbLine
 10
49.1371
 20
318.527772
 11
22.276297
 21
318.527772
  0
LINE
  5
F5
100
AcDbEntity
  8
DD0
100
AcDbLine
 10
49.1371
 20
276.727779
 11
22.276297
 21
276.727779
  0
LINE
  5
F6
100
AcDbEntity
  8
DD0
100
AcDbLine
 10
24.814092
 20
314.38809
 11
23.704867
 21
318.527772
  0
LINE
  5
F7
100
AcDbEntity
  8
DD0
100
AcDbLine
 10
23.704867
 20
318.527772
 11
22.595643
 21
314.38809
  0
LINE
  5
F8
100
AcDbEntity
  8
DD0
100
AcDbLine
 10
22.595643
 20
280.867461
 11
23.704867
 21
276.727779
  0
LINE
  5
F9
100
AcDbEntity
  8
DD0
100
AcDbLine
 10
23.704867
 20
276.727779
 11
24.814092
 21
280.867461
  0
LINE
  5
FA
100
AcDbEntity
  8
DD0
100
AcDbLine
 10
23.704867
 20
318.527772
 11
23.704867
 21
276.727779
  0
TEXT
  5
FB
100
AcDbEntity
  8
DD0
100
AcDbText
 10
22.847724
 20
295.015873
 40
3.571429
  1
４２
 50
90.000003
 41
0.666667
  7
STANDARD
100
AcDbText
  0
ENDBLK
  5
FC
100
AcDbEntity
  8
DD0
100
AcDbBlockEnd
  0
ENDSEC
  0
SECTION
  2
ENTITIES
  0
INSERT
  5
56
100
AcDbEntity
  8
DD0
100
AcDbBlockReference
  2
DIMS0
 10
0.0
 20
0.0
  0
INSERT
  5
62
100
AcDbEntity
  8
DD0
100
AcDbBlockReference
  2
DIMS1
 10
0.0
 20
0.0
  0
INSERT
  5
67
100
AcDbEntity
  8
DD0
100
AcDbBlockReference
  2
DIMS2
 10
0.0
 20
0.0
  0
INSERT
  5
6C
100
AcDbEntity
  8
DD0
100
AcDbBlockReference
  2
DIMS3
 10
0.0
 20
0.0
  0
INSERT
  5
71
100
AcDbEntity
  8
DD0
100
AcDbBlockReference
  2
DIMS4
 10
0.0
 20
0.0
  0
INSERT
  5
7D
100
AcDbEntity
  8
DD0
100
AcDbBlockReference
  2
DIMS5
 10
0.0
 20
0.0
  0
INSERT
  5
89
100
AcDbEntity
  8
DD0
100
AcDbBlockReference
  2
DIMS6
 10
0.0
 20
0.0
  0
INSERT
  5
95
100
AcDbEntity
  8
DD0
100
AcDbBlockReference
  2
DIMS7
 10
0.0
 20
0.0
  0
INSERT
  5
A0
100
AcDbEntity
  8
DD0
100
AcDbBlockReference
  2
DIMS8
 10
0.0
 20
0.0
  0
INSERT
  5
AD
100
AcDbEntity
  8
DD0
100
AcDbBlockReference
  2
DIMS9
 10
0.0
 20
0.0
  0
INSERT
  5
B8
100
AcDbEntity
  8
DD0
100
AcDbBlockReference
  2
DIMS10
 10
0.0
 20
0.0
  0
INSERT
  5
C3
100
AcDbEntity
  8
DD0
100
AcDbBlockReference
  2
DIMS11
 10
0.0
 20
0.0
  0
INSERT
  5
C8
100
AcDbEntity
  8
DD0
100
AcDbBlockReference
  2
DIMS12
 10
0.0
 20
0.0
  0
INSERT
  5
CF
100
AcDbEntity
  8
DD0
100
AcDbBlockReference
  2
DIMS13
 10
0.0
 20
0.0
  0
INSERT
  5
DA
100
AcDbEntity
  8
DD0
100
AcDbBlockReference
  2
DIMS14
 10
0.0
 20
0.0
  0
INSERT
  5
E5
100
AcDbEntity
  8
DD0
100
AcDbBlockReference
  2
DIMS15
 10
0.0
 20
0.0
  0
INSERT
  5
F1
100
AcDbEntity
  8
DD0
100
AcDbBlockReference
  2
DIMS16
 10
0.0
 20
0.0
  0
INSERT
  5
FD
100
AcDbEntity
  8
DD0
100
AcDbBlockReference
  2
DIMS17
 10
0.0
 20
0.0
  0
LINE
  5
FE
100
AcDbEntity
  8
M0
  6
DIVIDE
 62
     7
100
AcDbLine
 10
41.715869
 20
136.024335
 11
44.215869
 21
136.024335
  0
LINE
  5
FF
100
AcDbEntity
  8
M0
  6
DIVIDE
 62
     7
100
AcDbLine
 10
41.715869
 20
172.024335
 11
41.715869
 21
136.024335
  0
LINE
  5
100
100
AcDbEntity
  8
M0
  6
DIVIDE
 62
     7
100
AcDbLine
 10
41.715869
 20
172.024335
 11
44.215869
 21
172.024335
  0
LINE
  5
101
100
AcDbEntity
  8
M0
  6
DIVIDE
 62
     7
100
AcDbLine
 10
89.715869
 20
172.024335
 11
89.715869
 21
136.024335
  0
LINE
  5
102
100
AcDbEntity
  8
M0
  6
DIVIDE
 62
     7
100
AcDbLine
 10
87.215869
 20
172.024335
 11
89.715869
 21
172.024335
  0
LINE
  5
103
100
AcDbEntity
  8
M0
  6
DIVIDE
 62
     7
100
AcDbLine
 10
87.215869
 20
136.024335
 11
89.715869
 21
136.024335
  0
ARC
  5
104
100
AcDbEntity
  8
M0
 62
     7
100
AcDbCircle
 10
77.540669
 20
321.852774
 40
0.5
100
AcDbArc
 50
90.0
 51
180.0
  0
ARC
  5
105
100
AcDbEntity
  8
M0
 62
     7
100
AcDbCircle
 10
84.190669
 20
321.852774
 40
0.5
100
AcDbArc
 50
0.0
 51
90.0
  0
LINE
  5
106
100
AcDbEntity
  8
M0
 62
     7
100
AcDbLine
 10
77.040669
 20
321.852774
 11
77.040669
 21
315.627774
  0
LINE
  5
107
100
AcDbEntity
  8
M0
 62
     7
100
AcDbLine
 10
84.690669
 20
315.627774
 11
84.690669
 21
321.852774
  0
LINE
  5
108
100
AcDbEntity
  8
M0
 62
     7
100
AcDbLine
 10
84.190669
 20
322.352774
 11
77.540669
 21
322.352774
  0
LINE
  5
109
100
AcDbEntity
  8
M0
  6
DASHDOT
 62
     7
100
AcDbLine
 10
80.365669
 20
318.527774
 11
81.365669
 21
318.527774
  0
LINE
  5
10A
100
AcDbEntity
  8
M0
  6
DASHDOT
 62
     7
100
AcDbLine
 10
80.865669
 20
318.027774
 11
80.865669
 21
319.027774
  0
ARC
  5
10B
100
AcDbEntity
  8
M0
 62
     7
100
AcDbCircle
 10
57.340669
 20
321.852774
 40
0.5
100
AcDbArc
 50
90.0
 51
180.0
  0
ARC
  5
10C
100
AcDbEntity
  8
M0
 62
     7
100
AcDbCircle
 10
63.990669
 20
321.852774
 40
0.5
100
AcDbArc
 50
0.0
 51
90.0
  0
LINE
  5
10D
100
AcDbEntity
  8
M0
 62
     7
100
AcDbLine
 10
56.840669
 20
321.852774
 11
56.840669
 21
315.627774
  0
LINE
  5
10E
100
AcDbEntity
  8
M0
 62
     7
100
AcDbLine
 10
64.490669
 20
315.627774
 11
64.490669
 21
321.852774
  0
LINE
  5
10F
100
AcDbEntity
  8
M0
 62
     7
100
AcDbLine
 10
63.990669
 20
322.352774
 11
57.340669
 21
322.352774
  0
LINE
  5
110
100
AcDbEntity
  8
M0
  6
DASHDOT
 62
     7
100
AcDbLine
 10
60.165669
 20
318.527774
 11
61.165669
 21
318.527774
  0
LINE
  5
111
100
AcDbEntity
  8
M0
  6
DASHDOT
 62
     7
100
AcDbLine
 10
60.665669
 20
318.027774
 11
60.665669
 21
319.027774
  0
ARC
  5
112
100
AcDbEntity
  8
M0
 62
     7
100
AcDbCircle
 10
67.440669
 20
321.852774
 40
0.5
100
AcDbArc
 50
90.0
 51
180.0
  0
ARC
  5
113
100
AcDbEntity
  8
M0
 62
     7
100
AcDbCircle
 10
74.090669
 20
321.852774
 40
0.5
100
AcDbArc
 50
0.0
 51
90.0
  0
LINE
  5
114
100
AcDbEntity
  8
M0
 62
     7
100
AcDbLine
 10
66.940669
 20
321.852774
 11
66.940669
 21
315.627774
  0
LINE
  5
115
100
AcDbEntity
  8
M0
 62
     7
100
AcDbLine
 10
74.590669
 20
315.627774
 11
74.590669
 21
321.852774
  0
LINE
  5
116
100
AcDbEntity
  8
M0
 62
     7
100
AcDbLine
 10
74.090669
 20
322.352774
 11
67.440669
 21
322.352774
  0
LINE
  5
117
100
AcDbEntity
  8
M0
  6
DASHDOT
 62
     7
100
AcDbLine
 10
70.265669
 20
318.527774
 11
71.265669
 21
318.527774
  0
LINE
  5
118
100
AcDbEntity
  8
M0
  6
DASHDOT
 62
     7
100
AcDbLine
 10
70.765669
 20
318.027774
 11
70.765669
 21
319.027774
  0
LINE
  5
119
100
AcDbEntity
  8
M0
 62
     7
100
AcDbLine
 10
58.640669
 20
338.752774
 11
57.440669
 21
339.952774
  0
ARC
  5
11A
100
AcDbEntity
  8
M0
 62
     7
100
AcDbCircle
 10
51.490669
 20
339.452774
 40
0.5
100
AcDbArc
 50
90.0
 51
180.0
  0
ARC
  5
11B
100
AcDbEntity
  8
M0
 62
     7
100
AcDbCircle
 10
51.490669
 20
332.802774
 40
0.5
100
AcDbArc
 50
180.0
 51
270.0
  0
ARC
  5
11C
100
AcDbEntity
  8
M0
 62
     7
100
AcDbCircle
 10
58.140669
 20
339.452774
 40
0.5
100
AcDbArc
 50
0.0
 51
90.0
  0
ARC
  5
11D
100
AcDbEntity
  8
M0
 62
     7
100
AcDbCircle
 10
58.140669
 20
332.802774
 40
0.5
100
AcDbArc
 50
270.0
 51
360.0
  0
CIRCLE
  5
11E
100
AcDbEntity
  8
M0
 62
     7
100
AcDbCircle
 10
54.815669
 20
336.127774
 40
3.0
  0
LINE
  5
11F
100
AcDbEntity
  8
M0
 62
     7
100
AcDbLine
 10
50.990669
 20
339.452774
 11
50.990669
 21
332.802774
  0
LINE
  5
120
100
AcDbEntity
  8
M0
 62
     7
100
AcDbLine
 10
58.640669
 20
332.802774
 11
58.640669
 21
339.452774
  0
LINE
  5
121
100
AcDbEntity
  8
M0
 62
     7
100
AcDbLine
 10
51.490669
 20
332.302774
 11
58.140669
 21
332.302774
  0
LINE
  5
122
100
AcDbEntity
  8
M0
 62
     7
100
AcDbLine
 10
58.140669
 20
339.952774
 11
51.490669
 21
339.952774
  0
LINE
  5
123
100
AcDbEntity
  8
M0
  6
DASHDOT
 62
     7
100
AcDbLine
 10
54.315669
 20
336.127774
 11
55.315669
 21
336.127774
  0
LINE
  5
124
100
AcDbEntity
  8
M0
  6
DASHDOT
 62
     7
100
AcDbLine
 10
54.815669
 20
335.627774
 11
54.815669
 21
336.627774
  0
ARC
  5
125
100
AcDbEntity
  8
M0
 62
     7
100
AcDbCircle
 10
47.240669
 20
321.852774
 40
0.5
100
AcDbArc
 50
90.0
 51
180.0
  0
ARC
  5
126
100
AcDbEntity
  8
M0
 62
     7
100
AcDbCircle
 10
53.890669
 20
321.852774
 40
0.5
100
AcDbArc
 50
0.0
 51
90.0
  0
LINE
  5
127
100
AcDbEntity
  8
M0
 62
     7
100
AcDbLine
 10
46.740669
 20
321.852774
 11
46.740669
 21
315.627774
  0
LINE
  5
128
100
AcDbEntity
  8
M0
 62
     7
100
AcDbLine
 10
54.390669
 20
315.627774
 11
54.390669
 21
321.852774
  0
LINE
  5
129
100
AcDbEntity
  8
M0
 62
     7
100
AcDbLine
 10
53.890669
 20
322.352774
 11
47.240669
 21
322.352774
  0
LINE
  5
12A
100
AcDbEntity
  8
M0
  6
DASHDOT
 62
     7
100
AcDbLine
 10
50.065669
 20
318.527774
 11
51.065669
 21
318.527774
  0
LINE
  5
12B
100
AcDbEntity
  8
M0
  6
DASHDOT
 62
     7
100
AcDbLine
 10
50.565669
 20
318.027774
 11
50.565669
 21
319.027774
  0
ARC
  5
12C
100
AcDbEntity
  8
M0
 62
     7
100
AcDbCircle
 10
73.290669
 20
339.452774
 40
0.5
100
AcDbArc
 50
90.0
 51
180.0
  0
ARC
  5
12D
100
AcDbEntity
  8
M0
 62
     7
100
AcDbCircle
 10
73.290669
 20
332.802774
 40
0.5
100
AcDbArc
 50
180.0
 51
270.0
  0
ARC
  5
12E
100
AcDbEntity
  8
M0
 62
     7
100
AcDbCircle
 10
79.940669
 20
339.452774
 40
0.5
100
AcDbArc
 50
0.0
 51
90.0
  0
ARC
  5
12F
100
AcDbEntity
  8
M0
 62
     7
100
AcDbCircle
 10
79.940669
 20
332.802774
 40
0.5
100
AcDbArc
 50
270.0
 51
360.0
  0
LINE
  5
130
100
AcDbEntity
  8
M0
 62
     7
100
AcDbLine
 10
72.790669
 20
339.452774
 11
72.790669
 21
332.802774
  0
LINE
  5
131
100
AcDbEntity
  8
M0
 62
     7
100
AcDbLine
 10
80.440669
 20
332.802774
 11
80.440669
 21
339.452774
  0
LINE
  5
132
100
AcDbEntity
  8
M0
 62
     7
100
AcDbLine
 10
73.290669
 20
332.302774
 11
79.940669
 21
332.302774
  0
LINE
  5
133
100
AcDbEntity
  8
M0
 62
     7
100
AcDbLine
 10
79.940669
 20
339.952774
 11
73.290669
 21
339.952774
  0
LINE
  5
134
100
AcDbEntity
  8
M0
  6
DASHDOT
 62
     7
100
AcDbLine
 10
76.115669
 20
336.127774
 11
77.115669
 21
336.127774
  0
LINE
  5
135
100
AcDbEntity
  8
M0
  6
DASHDOT
 62
     7
100
AcDbLine
 10
76.615669
 20
335.627774
 11
76.615669
 21
336.627774
  0
ARC
  5
136
100
AcDbEntity
  8
M0
 62
     7
100
AcDbCircle
 10
77.540669
 20
273.402774
 40
0.5
100
AcDbArc
 50
180.0
 51
270.0
  0
ARC
  5
137
100
AcDbEntity
  8
M0
 62
     7
100
AcDbCircle
 10
84.190669
 20
273.402774
 40
0.5
100
AcDbArc
 50
270.0
 51
360.0
  0
LINE
  5
138
100
AcDbEntity
  8
M0
 62
     7
100
AcDbLine
 10
77.040669
 20
279.627776
 11
77.040669
 21
273.402774
  0
LINE
  5
139
100
AcDbEntity
  8
M0
 62
     7
100
AcDbLine
 10
84.690669
 20
273.402774
 11
84.690669
 21
279.627776
  0
LINE
  5
13A
100
AcDbEntity
  8
M0
 62
     7
100
AcDbLine
 10
77.540669
 20
272.902774
 11
84.190669
 21
272.902774
  0
LINE
  5
13B
100
AcDbEntity
  8
M0
  6
DASHDOT
 62
     7
100
AcDbLine
 10
80.365669
 20
276.727774
 11
81.365669
 21
276.727774
  0
LINE
  5
13C
100
AcDbEntity
  8
M0
  6
DASHDOT
 62
     7
100
AcDbLine
 10
80.865669
 20
276.227774
 11
80.865669
 21
277.227774
  0
ARC
  5
13D
100
AcDbEntity
  8
M0
 62
     7
100
AcDbCircle
 10
67.440669
 20
273.402774
 40
0.5
100
AcDbArc
 50
180.0
 51
270.0
  0
ARC
  5
13E
100
AcDbEntity
  8
M0
 62
     7
100
AcDbCircle
 10
74.090669
 20
273.402774
 40
0.5
100
AcDbArc
 50
270.0
 51
360.0
  0
LINE
  5
13F
100
AcDbEntity
  8
M0
 62
     7
100
AcDbLine
 10
66.940669
 20
279.627776
 11
66.940669
 21
273.402774
  0
LINE
  5
140
100
AcDbEntity
  8
M0
 62
     7
100
AcDbLine
 10
74.590669
 20
273.402774
 11
74.590669
 21
279.627776
  0
LINE
  5
141
100
AcDbEntity
  8
M0
 62
     7
100
AcDbLine
 10
67.440669
 20
272.902774
 11
74.090669
 21
272.902774
  0
LINE
  5
142
100
AcDbEntity
  8
M0
  6
DASHDOT
 62
     7
100
AcDbLine
 10
70.265669
 20
276.727774
 11
71.265669
 21
276.727774
  0
LINE
  5
143
100
AcDbEntity
  8
M0
  6
DASHDOT
 62
     7
100
AcDbLine
 10
70.765669
 20
276.227774
 11
70.765669
 21
277.227774
  0
ARC
  5
144
100
AcDbEntity
  8
M0
 62
     7
100
AcDbCircle
 10
57.340669
 20
273.402774
 40
0.5
100
AcDbArc
 50
180.0
 51
270.0
  0
ARC
  5
145
100
AcDbEntity
  8
M0
 62
     7
100
AcDbCircle
 10
63.990669
 20
273.402774
 40
0.5
100
AcDbArc
 50
270.0
 51
360.0
  0
LINE
  5
146
100
AcDbEntity
  8
M0
 62
     7
100
AcDbLine
 10
56.840669
 20
279.627776
 11
56.840669
 21
273.402774
  0
LINE
  5
147
100
AcDbEntity
  8
M0
 62
     7
100
AcDbLine
 10
64.490669
 20
273.402774
 11
64.490669
 21
279.627776
  0
LINE
  5
148
100
AcDbEntity
  8
M0
 62
     7
100
AcDbLine
 10
57.340669
 20
272.902774
 11
63.990669
 21
272.902774
  0
LINE
  5
149
100
AcDbEntity
  8
M0
  6
DASHDOT
 62
     7
100
AcDbLine
 10
60.165669
 20
276.727774
 11
61.165669
 21
276.727774
  0
LINE
  5
14A
100
AcDbEntity
  8
M0
  6
DASHDOT
 62
     7
100
AcDbLine
 10
60.665669
 20
276.227774
 11
60.665669
 21
277.227774
  0
ARC
  5
14B
100
AcDbEntity
  8
M0
 62
     7
100
AcDbCircle
 10
47.240669
 20
273.402774
 40
0.5
100
AcDbArc
 50
180.0
 51
270.0
  0
ARC
  5
14C
100
AcDbEntity
  8
M0
 62
     7
100
AcDbCircle
 10
53.890669
 20
273.402774
 40
0.5
100
AcDbArc
 50
270.0
 51
360.0
  0
LINE
  5
14D
100
AcDbEntity
  8
M0
 62
     7
100
AcDbLine
 10
46.740669
 20
279.627776
 11
46.740669
 21
273.402774
  0
LINE
  5
14E
100
AcDbEntity
  8
M0
 62
     7
100
AcDbLine
 10
54.390669
 20
273.402774
 11
54.390669
 21
279.627776
  0
LINE
  5
14F
100
AcDbEntity
  8
M0
 62
     7
100
AcDbLine
 10
47.240669
 20
272.902774
 11
53.890669
 21
272.902774
  0
LINE
  5
150
100
AcDbEntity
  8
M0
  6
DASHDOT
 62
     7
100
AcDbLine
 10
50.065669
 20
276.727774
 11
51.065669
 21
276.727774
  0
LINE
  5
151
100
AcDbEntity
  8
M0
  6
DASHDOT
 62
     7
100
AcDbLine
 10
50.565669
 20
276.227774
 11
50.565669
 21
277.227774
  0
CIRCLE
  5
152
100
AcDbEntity
  8
M0
 62
     7
100
AcDbCircle
 10
60.665669
 20
265.127774
 40
2.65
  0
CIRCLE
  5
153
100
AcDbEntity
  8
M0
 62
     7
100
AcDbCircle
 10
65.715669
 20
335.727774
 40
2.65
  0
LINE
  5
154
100
AcDbEntity
  8
M0
 62
     7
100
AcDbLine
 10
66.915669
 20
335.277774
 11
66.915669
 21
336.177774
  0
LINE
  5
155
100
AcDbEntity
  8
M0
 62
     7
100
AcDbLine
 10
59.465669
 20
264.677774
 11
59.465669
 21
265.577774
  0
LINE
  5
156
100
AcDbEntity
  8
M0
 62
     7
100
AcDbLine
 10
64.515669
 20
335.277774
 11
64.515669
 21
336.177774
  0
LINE
  5
157
100
AcDbEntity
  8
M0
 62
     7
100
AcDbLine
 10
61.865669
 20
264.677774
 11
61.865669
 21
265.577774
  0
LINE
  5
158
100
AcDbEntity
  8
M0
 62
     7
100
AcDbLine
 10
78.065669
 20
268.327774
 11
76.965669
 21
268.327774
  0
LINE
  5
159
100
AcDbEntity
  8
M0
 62
     7
100
AcDbLine
 10
78.065669
 20
263.327774
 11
78.065669
 21
268.327774
  0
LINE
  5
15A
100
AcDbEntity
  8
M0
 62
     7
100
AcDbLine
 10
87.215669
 20
329.327774
 11
87.215669
 21
315.627774
  0
LINE
  5
15B
100
AcDbEntity
  8
M0
 62
     7
100
AcDbLine
 10
44.215669
 20
266.327774
 11
44.215669
 21
279.627776
  0
LINE
  5
15C
100
AcDbEntity
  8
M0
 62
     7
100
AcDbLine
 10
83.465669
 20
271.927774
 11
83.465669
 21
271.527774
  0
LINE
  5
15D
100
AcDbEntity
  8
M0
 62
     7
100
AcDbLine
 10
70.415669
 20
262.827774
 11
82.215669
 21
262.827774
  0
LINE
  5
15E
100
AcDbEntity
  8
M0
 62
     7
100
AcDbLine
 10
54.51173
 20
262.827774
 11
47.715669
 21
262.827774
  0
LINE
  5
15F
100
AcDbEntity
  8
M0
 62
     7
100
AcDbLine
 10
54.465669
 20
267.127774
 11
51.465669
 21
267.127774
  0
LINE
  5
160
100
AcDbEntity
  8
M0
 62
     7
100
AcDbLine
 10
74.565669
 20
266.627774
 11
74.565669
 21
263.327774
  0
LINE
  5
161
100
AcDbEntity
  8
M0
 62
     7
100
AcDbLine
 10
69.915669
 20
266.627774
 11
69.915669
 21
263.327774
  0
LINE
  5
162
100
AcDbEntity
  8
M0
 62
     7
100
AcDbLine
 10
72.915669
 20
264.827774
 11
72.915669
 21
266.627774
  0
LINE
  5
163
100
AcDbEntity
  8
M0
 62
     7
100
AcDbLine
 10
72.915669
 20
264.827774
 11
71.415669
 21
264.827774
  0
LINE
  5
164
100
AcDbEntity
  8
M0
 62
     7
100
AcDbLine
 10
78.965669
 20
271.527774
 11
78.965669
 21
271.927774
  0
LINE
  5
165
100
AcDbEntity
  8
M0
 62
     7
100
AcDbLine
 10
51.465669
 20
267.127774
 11
51.465669
 21
263.327774
  0
LINE
  5
166
100
AcDbEntity
  8
M0
 62
     7
100
AcDbLine
 10
45.965669
 20
326.527774
 11
45.965669
 21
326.381713
  0
ARC
  5
167
100
AcDbEntity
  8
M0
 62
     7
100
AcDbCircle
 10
83.215669
 20
329.327774
 40
4.0
100
AcDbArc
 50
0.0
 51
97.180756
  0
ARC
  5
168
100
AcDbEntity
  8
M0
 62
     7
100
AcDbCircle
 10
83.215669
 20
329.327774
 40
2.25
100
AcDbArc
 50
257.160412
 51
462.839588
  0
ARC
  5
169
100
AcDbEntity
  8
M0
 62
     7
100
AcDbCircle
 10
70.415669
 20
263.327774
 40
0.5
100
AcDbArc
 50
180.0
 51
270.0
  0
ARC
  5
16A
100
AcDbEntity
  8
M0
 62
     7
100
AcDbCircle
 10
74.065669
 20
263.327774
 40
0.5
100
AcDbArc
 50
270.0
 51
360.0
  0
LINE
  5
16B
100
AcDbEntity
  8
M0
 62
     7
100
AcDbLine
 10
71.415669
 20
266.627774
 11
71.415669
 21
264.827774
  0
LINE
  5
16C
100
AcDbEntity
  8
M0
 62
     7
100
AcDbLine
 10
50.515669
 20
340.527774
 11
58.815669
 21
340.527774
  0
LINE
  5
16D
100
AcDbEntity
  8
M0
 62
     7
100
AcDbLine
 10
80.115669
 20
340.527774
 11
80.915669
 21
340.527774
  0
LINE
  5
16E
100
AcDbEntity
  8
M0
 62
     7
100
AcDbLine
 10
48.715669
 20
328.527774
 11
48.715669
 21
328.427774
  0
CIRCLE
  5
16F
100
AcDbEntity
  8
M0
 62
     7
100
AcDbCircle
 10
60.665669
 20
265.127774
 40
2.85
  0
LINE
  5
170
100
AcDbEntity
  8
M0
 62
     7
100
AcDbLine
 10
48.715669
 20
332.127774
 11
48.715669
 21
332.027774
  0
LINE
  5
171
100
AcDbEntity
  8
M0
 62
     7
100
AcDbLine
 10
82.715669
 20
328.427774
 11
82.715669
 21
328.527774
  0
LINE
  5
172
100
AcDbEntity
  8
M0
 62
     7
100
AcDbLine
 10
82.715669
 20
332.027774
 11
82.715669
 21
332.127774
  0
LINE
  5
173
100
AcDbEntity
  8
M0
 62
     7
100
AcDbLine
 10
80.915669
 20
341.427774
 11
80.915669
 21
332.027774
  0
LINE
  5
174
100
AcDbEntity
  8
M0
 62
     7
100
AcDbLine
 10
50.515669
 20
332.027774
 11
50.515669
 21
332.127774
  0
LINE
  5
175
100
AcDbEntity
  8
M0
 62
     7
100
AcDbLine
 10
61.115669
 20
265.577774
 11
61.115669
 21
266.327774
  0
ARC
  5
176
100
AcDbEntity
  8
M0
 62
     7
100
AcDbCircle
 10
49.915669
 20
341.427774
 40
0.6
100
AcDbArc
 50
0.0
 51
90.0
  0
LINE
  5
177
100
AcDbEntity
  8
M0
 62
     7
100
AcDbLine
 10
59.465669
 20
265.577774
 11
60.215669
 21
265.577774
  0
LINE
  5
178
100
AcDbEntity
  8
M0
 62
     7
100
AcDbLine
 10
60.215669
 20
266.327774
 11
60.215669
 21
265.577774
  0
LINE
  5
179
100
AcDbEntity
  8
M0
 62
     7
100
AcDbLine
 10
61.115669
 20
265.577774
 11
61.865669
 21
265.577774
  0
ARC
  5
17A
100
AcDbEntity
  8
M0
 62
     7
100
AcDbCircle
 10
81.515669
 20
341.427774
 40
0.6
100
AcDbArc
 50
90.0
 51
180.0
  0
LINE
  5
17B
100
AcDbEntity
  8
M0
 62
     7
100
AcDbLine
 10
61.115669
 20
266.327774
 11
60.215669
 21
266.327774
  0
ARC
  5
17C
100
AcDbEntity
  8
M0
 62
     7
100
AcDbCircle
 10
49.315669
 20
341.427774
 40
0.6
100
AcDbArc
 50
90.0
 51
180.0
  0
ARC
  5
17D
100
AcDbEntity
  8
M0
 62
     7
100
AcDbCircle
 10
70.715669
 20
264.127774
 40
2.0
100
AcDbArc
 50
270.0
 51
319.458398
  0
ARC
  5
17E
100
AcDbEntity
  8
M0
 62
     7
100
AcDbCircle
 10
82.115669
 20
341.427774
 40
0.6
100
AcDbArc
 50
0.0
 51
90.0
  0
LINE
  5
17F
100
AcDbEntity
  8
M0
 62
     7
100
AcDbLine
 10
61.115669
 20
263.927774
 11
61.115669
 21
264.677774
  0
LINE
  5
180
100
AcDbEntity
  8
M0
 62
     7
100
AcDbLine
 10
60.215669
 20
264.677774
 11
59.465669
 21
264.677774
  0
LINE
  5
181
100
AcDbEntity
  8
M0
 62
     7
100
AcDbLine
 10
60.215669
 20
263.927774
 11
61.115669
 21
263.927774
  0
LINE
  5
182
100
AcDbEntity
  8
M0
 62
     7
100
AcDbLine
 10
60.215669
 20
264.677774
 11
60.215669
 21
263.927774
  0
ARC
  5
183
100
AcDbEntity
  8
M0
 62
     7
100
AcDbCircle
 10
83.215669
 20
274.527774
 40
2.25
100
AcDbArc
 50
286.791447
 51
313.542219
  0
ARC
  5
184
100
AcDbEntity
  8
M0
 62
     7
100
AcDbCircle
 10
48.215669
 20
269.327774
 40
2.25
100
AcDbArc
 50
191.257189
 51
493.542219
  0
ARC
  5
185
100
AcDbEntity
  8
M0
 62
     7
100
AcDbCircle
 10
81.215669
 20
271.527774
 40
2.25
100
AcDbArc
 50
180.0
 51
360.0
  0
ARC
  5
186
100
AcDbEntity
  8
M0
 62
     7
100
AcDbCircle
 10
48.215669
 20
326.527774
 40
2.25
100
AcDbArc
 50
77.160412
 51
180.0
  0
ARC
  5
187
100
AcDbEntity
  8
M0
 62
     7
100
AcDbCircle
 10
49.215669
 20
326.527774
 40
5.0
100
AcDbArc
 50
95.73917
 51
180.0
  0
ARC
  5
188
100
AcDbEntity
  8
M0
 62
     7
100
AcDbCircle
 10
78.565669
 20
263.327774
 40
0.5
100
AcDbArc
 50
180.0
 51
270.0
  0
LINE
  5
189
100
AcDbEntity
  8
M0
 62
     7
100
AcDbLine
 10
61.865669
 20
264.677774
 11
61.115669
 21
264.677774
  0
ARC
  5
18A
100
AcDbEntity
  8
M0
 62
     7
100
AcDbCircle
 10
50.965669
 20
263.327774
 40
0.5
100
AcDbArc
 50
270.0
 51
360.0
  0
ARC
  5
18B
100
AcDbEntity
  8
M0
 62
     7
100
AcDbCircle
 10
82.215669
 20
267.827774
 40
5.0
100
AcDbArc
 50
270.0
 51
360.0
  0
ARC
  5
18C
100
AcDbEntity
  8
M0
 62
     7
100
AcDbCircle
 10
47.715669
 20
266.327774
 40
3.5
100
AcDbArc
 50
180.0
 51
270.0
  0
LINE
  5
18D
100
AcDbEntity
  8
M0
 62
     7
100
AcDbLine
 10
82.715669
 20
339.027774
 11
82.715669
 21
341.427774
  0
LINE
  5
18E
100
AcDbEntity
  8
M0
 62
     7
100
AcDbLine
 10
81.515669
 20
342.027774
 11
82.115669
 21
342.027774
  0
LINE
  5
18F
100
AcDbEntity
  8
M0
 62
     7
100
AcDbLine
 10
49.315669
 20
342.027774
 11
49.915669
 21
342.027774
  0
LINE
  5
190
100
AcDbEntity
  8
M0
 62
     7
100
AcDbLine
 10
70.715669
 20
262.127774
 11
55.765669
 21
262.127774
  0
LINE
  5
191
100
AcDbEntity
  8
M0
 62
     7
100
AcDbLine
 10
82.715669
 20
339.027774
 11
82.715669
 21
332.127774
  0
LINE
  5
192
100
AcDbEntity
  8
M0
 62
     7
100
AcDbLine
 10
66.865669
 20
264.127774
 11
69.915669
 21
264.127774
  0
LINE
  5
193
100
AcDbEntity
  8
M0
 62
     7
100
AcDbLine
 10
50.515669
 20
332.027774
 11
50.515669
 21
341.427774
  0
LINE
  5
194
100
AcDbEntity
  8
M0
 62
     7
100
AcDbLine
 10
72.715669
 20
266.627774
 11
72.715669
 21
264.827774
  0
LINE
  5
195
100
AcDbEntity
  8
M0
 62
     7
100
AcDbLine
 10
45.665669
 20
268.827774
 11
45.215669
 21
268.827774
  0
ARC
  5
196
100
AcDbEntity
  8
M0
 62
     7
100
AcDbCircle
 10
75.965669
 20
266.427774
 40
1.0
100
AcDbArc
 50
270.0
 51
360.0
  0
ARC
  5
197
100
AcDbEntity
  8
M0
 62
     7
100
AcDbCircle
 10
55.765669
 20
266.427774
 40
1.0
100
AcDbArc
 50
270.0
 51
360.0
  0
ARC
  5
198
100
AcDbEntity
  8
M0
 62
     7
100
AcDbCircle
 10
65.865669
 20
266.427774
 40
1.0
100
AcDbArc
 50
270.0
 51
360.0
  0
ARC
  5
199
100
AcDbEntity
  8
M0
 62
     7
100
AcDbCircle
 10
55.465669
 20
266.427774
 40
1.0
100
AcDbArc
 50
180.0
 51
270.0
  0
LINE
  5
19A
100
AcDbEntity
  8
M0
 62
     7
100
AcDbLine
 10
84.765669
 20
269.827774
 11
84.765669
 21
279.627776
  0
LINE
  5
19B
100
AcDbEntity
  8
M0
 62
     7
100
AcDbLine
 10
86.215669
 20
268.827774
 11
85.765669
 21
268.827774
  0
LINE
  5
19C
100
AcDbEntity
  8
M0
 62
     7
100
AcDbLine
 10
54.465669
 20
325.827774
 11
54.465669
 21
328.827774
  0
LINE
  5
19D
100
AcDbEntity
  8
M0
 62
     7
100
AcDbLine
 10
65.665669
 20
265.427774
 11
65.565669
 21
265.427774
  0
LINE
  5
19E
100
AcDbEntity
  8
M0
 62
     7
100
AcDbLine
 10
65.765669
 20
265.427774
 11
65.665669
 21
265.427774
  0
LINE
  5
19F
100
AcDbEntity
  8
M0
 62
     7
100
AcDbLine
 10
75.765669
 20
265.427774
 11
75.665669
 21
265.427774
  0
LINE
  5
1A0
100
AcDbEntity
  8
M0
 62
     7
100
AcDbLine
 10
65.865669
 20
265.427774
 11
65.765669
 21
265.427774
  0
LINE
  5
1A1
100
AcDbEntity
  8
M0
 62
     7
100
AcDbLine
 10
75.965669
 20
265.427774
 11
75.765669
 21
265.427774
  0
LINE
  5
1A2
100
AcDbEntity
  8
M0
 62
     7
100
AcDbLine
 10
66.865669
 20
315.627774
 11
66.865669
 21
328.827774
  0
LINE
  5
1A3
100
AcDbEntity
  8
M0
 62
     7
100
AcDbLine
 10
76.965669
 20
315.627774
 11
76.965669
 21
328.827774
  0
LINE
  5
1A4
100
AcDbEntity
  8
M0
 62
     7
100
AcDbLine
 10
65.565669
 20
279.427774
 11
65.865669
 21
279.427774
  0
LINE
  5
1A5
100
AcDbEntity
  8
M0
 62
     7
100
AcDbLine
 10
74.665669
 20
266.427774
 11
74.665669
 21
279.627776
  0
LINE
  5
1A6
100
AcDbEntity
  8
M0
 62
     7
100
AcDbLine
 10
55.665669
 20
265.427774
 11
55.465669
 21
265.427774
  0
LINE
  5
1A7
100
AcDbEntity
  8
M0
 62
     7
100
AcDbLine
 10
55.765669
 20
265.427774
 11
55.665669
 21
265.427774
  0
LINE
  5
1A8
100
AcDbEntity
  8
M0
 62
     7
100
AcDbLine
 10
76.965669
 20
279.627776
 11
76.965669
 21
266.427774
  0
ARC
  5
1A9
100
AcDbEntity
  8
M0
 62
     7
100
AcDbCircle
 10
65.865669
 20
278.427774
 40
1.0
100
AcDbArc
 50
0.0
 51
90.0
  0
ARC
  5
1AA
100
AcDbEntity
  8
M0
 62
     7
100
AcDbCircle
 10
55.765669
 20
278.427774
 40
1.0
100
AcDbArc
 50
0.0
 51
90.0
  0
ARC
  5
1AB
100
AcDbEntity
  8
M0
 62
     7
100
AcDbCircle
 10
55.465669
 20
316.827774
 40
1.0
100
AcDbArc
 50
180.0
 51
270.0
  0
ARC
  5
1AC
100
AcDbEntity
  8
M0
 62
     7
100
AcDbCircle
 10
65.865669
 20
316.827774
 40
1.0
100
AcDbArc
 50
270.0
 51
360.0
  0
ARC
  5
1AD
100
AcDbEntity
  8
M0
 62
     7
100
AcDbCircle
 10
65.565669
 20
316.827774
 40
1.0
100
AcDbArc
 50
180.0
 51
270.0
  0
ARC
  5
1AE
100
AcDbEntity
  8
M0
 62
     7
100
AcDbCircle
 10
75.665669
 20
316.827774
 40
1.0
100
AcDbArc
 50
180.0
 51
270.0
  0
ARC
  5
1AF
100
AcDbEntity
  8
M0
 62
     7
100
AcDbCircle
 10
65.565669
 20
266.427774
 40
1.0
100
AcDbArc
 50
180.0
 51
270.0
  0
ARC
  5
1B0
100
AcDbEntity
  8
M0
 62
     7
100
AcDbCircle
 10
75.665669
 20
266.427774
 40
1.0
100
AcDbArc
 50
180.0
 51
270.0
  0
ARC
  5
1B1
100
AcDbEntity
  8
M0
 62
     7
100
AcDbCircle
 10
75.665669
 20
278.427774
 40
1.0
100
AcDbArc
 50
90.0
 51
180.0
  0
ARC
  5
1B2
100
AcDbEntity
  8
M0
 62
     7
100
AcDbCircle
 10
75.965669
 20
278.427774
 40
1.0
100
AcDbArc
 50
0.0
 51
90.0
  0
ARC
  5
1B3
100
AcDbEntity
  8
M0
 62
     7
100
AcDbCircle
 10
55.465669
 20
278.427774
 40
1.0
100
AcDbArc
 50
90.0
 51
180.0
  0
LINE
  5
1B4
100
AcDbEntity
  8
M0
 62
     7
100
AcDbLine
 10
54.465669
 20
315.627774
 11
54.465669
 21
316.827774
  0
LINE
  5
1B5
100
AcDbEntity
  8
M0
 62
     7
100
AcDbLine
 10
56.765669
 20
316.827774
 11
56.765669
 21
315.627774
  0
LINE
  5
1B6
100
AcDbEntity
  8
M0
 62
     7
100
AcDbLine
 10
74.665669
 20
328.827774
 11
74.665669
 21
315.627774
  0
ARC
  5
1B7
100
AcDbEntity
  8
M0
 62
     7
100
AcDbCircle
 10
75.965669
 20
316.827774
 40
1.0
100
AcDbArc
 50
270.0
 51
360.0
  0
ARC
  5
1B8
100
AcDbEntity
  8
M0
 62
     7
100
AcDbCircle
 10
65.565669
 20
278.427774
 40
1.0
100
AcDbArc
 50
90.0
 51
180.0
  0
ARC
  5
1B9
100
AcDbEntity
  8
M0
 62
     7
100
AcDbCircle
 10
55.765669
 20
316.827774
 40
1.0
100
AcDbArc
 50
270.0
 51
360.0
  0
ARC
  5
1BA
100
AcDbEntity
  8
M0
 62
     7
100
AcDbCircle
 10
86.215669
 20
325.427774
 40
1.0
100
AcDbArc
 50
0.0
 51
90.0
  0
ARC
  5
1BB
100
AcDbEntity
  8
M0
 62
     7
100
AcDbCircle
 10
45.665669
 20
325.427774
 40
1.0
100
AcDbArc
 50
0.0
 51
90.0
  0
ARC
  5
1BC
100
AcDbEntity
  8
M0
 62
     7
100
AcDbCircle
 10
85.765669
 20
325.427774
 40
1.0
100
AcDbArc
 50
90.0
 51
180.0
  0
LINE
  5
1BD
100
AcDbEntity
  8
M0
 62
     7
100
AcDbLine
 10
47.565669
 20
323.327774
 11
53.565669
 21
323.327774
  0
LINE
  5
1BE
100
AcDbEntity
  8
M0
 62
     7
100
AcDbLine
 10
46.665669
 20
279.627776
 11
46.665669
 21
273.827774
  0
ARC
  5
1BF
100
AcDbEntity
  8
M0
 62
     7
100
AcDbCircle
 10
45.215669
 20
325.427774
 40
1.0
100
AcDbArc
 50
90.0
 51
180.0
  0
LINE
  5
1C0
100
AcDbEntity
  8
M0
 62
     7
100
AcDbLine
 10
46.665669
 20
273.827774
 11
46.665669
 21
269.827774
  0
ARC
  5
1C1
100
AcDbEntity
  8
M0
 62
     7
100
AcDbCircle
 10
45.215669
 20
269.827774
 40
1.0
100
AcDbArc
 50
180.0
 51
270.0
  0
ARC
  5
1C2
100
AcDbEntity
  8
M0
 62
     7
100
AcDbCircle
 10
85.765669
 20
269.827774
 40
1.0
100
AcDbArc
 50
180.0
 51
270.0
  0
ARC
  5
1C3
100
AcDbEntity
  8
M0
 62
     7
100
AcDbCircle
 10
75.965669
 20
328.827774
 40
1.0
100
AcDbArc
 50
0.0
 51
90.0
  0
ARC
  5
1C4
100
AcDbEntity
  8
M0
 62
     7
100
AcDbCircle
 10
65.865669
 20
328.827774
 40
1.0
100
AcDbArc
 50
0.0
 51
90.0
  0
ARC
  5
1C5
100
AcDbEntity
  8
M0
 62
     7
100
AcDbCircle
 10
75.665669
 20
328.827774
 40
1.0
100
AcDbArc
 50
90.0
 51
180.0
  0
ARC
  5
1C6
100
AcDbEntity
  8
M0
 62
     7
100
AcDbCircle
 10
55.465669
 20
328.827774
 40
1.0
100
AcDbArc
 50
90.0
 51
180.0
  0
LINE
  5
1C7
100
AcDbEntity
  8
M0
 62
     7
100
AcDbLine
 10
75.765669
 20
329.827774
 11
75.965669
 21
329.827774
  0
LINE
  5
1C8
100
AcDbEntity
  8
M0
 62
     7
100
AcDbLine
 10
75.665669
 20
329.827774
 11
75.765669
 21
329.827774
  0
ARC
  5
1C9
100
AcDbEntity
  8
M0
 62
     7
100
AcDbCircle
 10
86.215669
 20
269.827774
 40
1.0
100
AcDbArc
 50
270.0
 51
360.0
  0
ARC
  5
1CA
100
AcDbEntity
  8
M0
 62
     7
100
AcDbCircle
 10
45.665669
 20
269.827774
 40
1.0
100
AcDbArc
 50
270.0
 51
360.0
  0
LINE
  5
1CB
100
AcDbEntity
  8
M0
 62
     7
100
AcDbLine
 10
64.565669
 20
315.627774
 11
64.565669
 21
328.827774
  0
LINE
  5
1CC
100
AcDbEntity
  8
M0
 62
     7
100
AcDbLine
 10
55.465669
 20
329.827774
 11
55.665669
 21
329.827774
  0
LINE
  5
1CD
100
AcDbEntity
  8
M0
 62
     7
100
AcDbLine
 10
56.765669
 20
328.827774
 11
56.765669
 21
325.827774
  0
LINE
  5
1CE
100
AcDbEntity
  8
M0
 62
     7
100
AcDbLine
 10
85.765669
 20
326.427774
 11
86.215669
 21
326.427774
  0
LINE
  5
1CF
100
AcDbEntity
  8
M0
 62
     7
100
AcDbLine
 10
46.665669
 20
325.427774
 11
46.665669
 21
321.427774
  0
ARC
  5
1D0
100
AcDbEntity
  8
M0
 62
     7
100
AcDbCircle
 10
65.565669
 20
328.827774
 40
1.0
100
AcDbArc
 50
90.0
 51
180.0
  0
ARC
  5
1D1
100
AcDbEntity
  8
M0
 62
     7
100
AcDbCircle
 10
55.765669
 20
328.827774
 40
1.0
100
AcDbArc
 50
0.0
 51
90.0
  0
LINE
  5
1D2
100
AcDbEntity
  8
M0
 62
     7
100
AcDbLine
 10
46.665669
 20
321.427774
 11
46.665669
 21
315.627774
  0
LINE
  5
1D3
100
AcDbEntity
  8
M0
 62
     7
100
AcDbLine
 10
45.215669
 20
326.427774
 11
45.665669
 21
326.427774
  0
LINE
  5
1D4
100
AcDbEntity
  8
M0
 62
     7
100
AcDbLine
 10
60.415669
 20
332.444441
 11
60.415669
 21
339.527774
  0
LINE
  5
1D5
100
AcDbEntity
  8
M0
 62
     7
100
AcDbLine
 10
71.015669
 20
339.527774
 11
71.015669
 21
332.444441
  0
LINE
  5
1D6
100
AcDbEntity
  8
M0
 62
     7
100
AcDbLine
 10
54.465669
 20
328.427774
 11
48.715669
 21
328.427774
  0
LINE
  5
1D7
100
AcDbEntity
  8
M0
 62
     7
100
AcDbLine
 10
61.415669
 20
340.527774
 11
70.015669
 21
340.527774
  0
LINE
  5
1D8
100
AcDbEntity
  8
M0
 62
     7
100
AcDbLine
 10
48.715669
 20
341.427774
 11
48.715669
 21
323.327774
  0
LINE
  5
1D9
100
AcDbEntity
  8
M0
 62
     7
100
AcDbLine
 10
61.415669
 20
332.027774
 11
70.015669
 21
332.027774
  0
LINE
  5
1DA
100
AcDbEntity
  8
M0
 62
     7
100
AcDbLine
 10
60.415669
 20
330.527774
 11
60.415669
 21
332.444441
  0
LINE
  5
1DB
100
AcDbEntity
  8
M0
 62
     7
100
AcDbLine
 10
60.415669
 20
330.527774
 11
71.015669
 21
330.527774
  0
LINE
  5
1DC
100
AcDbEntity
  8
M0
 62
     7
100
AcDbLine
 10
62.565669
 20
268.627774
 11
58.765669
 21
268.627774
  0
LINE
  5
1DD
100
AcDbEntity
  8
M0
 62
     7
100
AcDbLine
 10
74.665669
 20
266.627774
 11
66.865669
 21
266.627774
  0
LINE
  5
1DE
100
AcDbEntity
  8
M0
 62
     7
100
AcDbLine
 10
66.865669
 20
328.427774
 11
74.665669
 21
328.427774
  0
LINE
  5
1DF
100
AcDbEntity
  8
M0
 62
     7
100
AcDbLine
 10
82.715669
 20
328.427774
 11
76.965669
 21
328.427774
  0
LINE
  5
1E0
100
AcDbEntity
  8
M0
 62
     7
100
AcDbLine
 10
82.715669
 20
323.327774
 11
82.715669
 21
328.427774
  0
LINE
  5
1E1
100
AcDbEntity
  8
M0
 62
     7
100
AcDbLine
 10
60.415669
 20
330.527774
 11
60.415669
 21
328.427774
  0
LINE
  5
1E2
100
AcDbEntity
  8
M0
 62
     7
100
AcDbLine
 10
71.015669
 20
328.427774
 11
71.015669
 21
330.527774
  0
LINE
  5
1E3
100
AcDbEntity
  8
M0
 62
     7
100
AcDbLine
 10
71.015669
 20
330.527774
 11
71.015669
 21
332.444441
  0
ARC
  5
1E4
100
AcDbEntity
  8
M0
 62
     7
100
AcDbCircle
 10
62.565669
 20
266.627774
 40
2.0
100
AcDbArc
 50
0.0
 51
90.0
  0
ARC
  5
1E5
100
AcDbEntity
  8
M0
 62
     7
100
AcDbCircle
 10
58.765669
 20
266.627774
 40
2.0
100
AcDbArc
 50
90.0
 51
180.0
  0
ARC
  5
1E6
100
AcDbEntity
  8
M0
 62
     7
100
AcDbCircle
 10
55.765669
 20
263.127774
 40
1.0
100
AcDbArc
 50
270.0
 51
360.0
  0
ARC
  5
1E7
100
AcDbEntity
  8
M0
 62
     7
100
AcDbCircle
 10
65.865669
 20
263.127774
 40
1.0
100
AcDbArc
 50
270.0
 51
360.0
  0
ARC
  5
1E8
100
AcDbEntity
  8
M0
 62
     7
100
AcDbCircle
 10
55.465669
 20
263.127774
 40
1.0
100
AcDbArc
 50
180.0
 51
270.0
  0
ARC
  5
1E9
100
AcDbEntity
  8
M0
 62
     7
100
AcDbCircle
 10
65.565669
 20
263.127774
 40
1.0
100
AcDbArc
 50
180.0
 51
270.0
  0
ARC
  5
1EA
100
AcDbEntity
  8
M0
 62
     7
100
AcDbCircle
 10
70.015669
 20
339.527774
 40
1.0
100
AcDbArc
 50
0.0
 51
90.0
  0
ARC
  5
1EB
100
AcDbEntity
  8
M0
 62
     7
100
AcDbCircle
 10
61.415669
 20
339.527774
 40
1.0
100
AcDbArc
 50
90.0
 51
180.0
  0
LINE
  5
1EC
100
AcDbEntity
  8
M0
 62
     7
100
AcDbLine
 10
54.465669
 20
272.927774
 11
53.565669
 21
272.927774
  0
LINE
  5
1ED
100
AcDbEntity
  8
M0
 62
     7
100
AcDbLine
 10
64.565669
 20
263.127774
 11
64.565669
 21
279.627776
  0
LINE
  5
1EE
100
AcDbEntity
  8
M0
 62
     7
100
AcDbLine
 10
84.765669
 20
272.927774
 11
83.865669
 21
272.927774
  0
LINE
  5
1EF
100
AcDbEntity
  8
M0
 62
     7
100
AcDbLine
 10
47.565669
 20
272.927774
 11
46.665669
 21
272.927774
  0
LINE
  5
1F0
100
AcDbEntity
  8
M0
 62
     7
100
AcDbLine
 10
67.765669
 20
272.927774
 11
66.865669
 21
272.927774
  0
LINE
  5
1F1
100
AcDbEntity
  8
M0
 62
     7
100
AcDbLine
 10
65.565669
 20
262.127774
 11
65.865669
 21
262.127774
  0
LINE
  5
1F2
100
AcDbEntity
  8
M0
 62
     7
100
AcDbLine
 10
56.765669
 20
328.427774
 11
64.565669
 21
328.427774
  0
LINE
  5
1F3
100
AcDbEntity
  8
M0
 62
     7
100
AcDbLine
 10
55.465669
 20
262.127774
 11
55.765669
 21
262.127774
  0
LINE
  5
1F4
100
AcDbEntity
  8
M0
 62
     7
100
AcDbLine
 10
54.465669
 20
263.127774
 11
54.465669
 21
279.627776
  0
LINE
  5
1F5
100
AcDbEntity
  8
M0
 62
     7
100
AcDbLine
 10
56.765669
 20
279.627776
 11
56.765669
 21
263.127774
  0
LINE
  5
1F6
100
AcDbEntity
  8
M0
 62
     7
100
AcDbLine
 10
66.865669
 20
279.627776
 11
66.865669
 21
263.127774
  0
LINE
  5
1F7
100
AcDbEntity
  8
M0
 62
     7
100
AcDbLine
 10
75.865669
 20
265.427774
 11
75.965669
 21
265.427774
  0
LINE
  5
1F8
100
AcDbEntity
  8
M0
 62
     7
100
AcDbLine
 10
63.665669
 20
322.327774
 11
64.565669
 21
322.327774
  0
LINE
  5
1F9
100
AcDbEntity
  8
M0
 62
     7
100
AcDbLine
 10
73.765669
 20
322.327774
 11
74.665669
 21
322.327774
  0
LINE
  5
1FA
100
AcDbEntity
  8
M0
 62
     7
100
AcDbLine
 10
66.865669
 20
322.327774
 11
67.765669
 21
322.327774
  0
LINE
  5
1FB
100
AcDbEntity
  8
M0
 62
     7
100
AcDbLine
 10
57.665669
 20
272.927774
 11
56.765669
 21
272.927774
  0
LINE
  5
1FC
100
AcDbEntity
  8
M0
 62
     7
100
AcDbLine
 10
77.865669
 20
272.927774
 11
76.965669
 21
272.927774
  0
LINE
  5
1FD
100
AcDbEntity
  8
M0
 62
     7
100
AcDbLine
 10
64.565669
 20
272.927774
 11
63.665669
 21
272.927774
  0
LINE
  5
1FE
100
AcDbEntity
  8
M0
 62
     7
100
AcDbLine
 10
74.665669
 20
272.927774
 11
73.765669
 21
272.927774
  0
LINE
  5
1FF
100
AcDbEntity
  8
M0
 62
     7
100
AcDbLine
 10
75.965669
 20
329.827774
 11
75.865669
 21
329.827774
  0
LINE
  5
200
100
AcDbEntity
  8
M0
 62
     7
100
AcDbLine
 10
55.565669
 20
329.827774
 11
55.465669
 21
329.827774
  0
LINE
  5
201
100
AcDbEntity
  8
M0
 62
     7
100
AcDbLine
 10
55.765669
 20
262.627774
 11
55.465669
 21
262.627774
  0
LINE
  5
202
100
AcDbEntity
  8
M0
 62
     7
100
AcDbLine
 10
65.865669
 20
262.627774
 11
65.565669
 21
262.627774
  0
LINE
  5
203
100
AcDbEntity
  8
M0
 62
     7
100
AcDbLine
 10
76.965669
 20
322.327774
 11
77.865669
 21
322.327774
  0
LINE
  5
204
100
AcDbEntity
  8
M0
 62
     7
100
AcDbLine
 10
83.865669
 20
322.327774
 11
84.765669
 21
322.327774
  0
LINE
  5
205
100
AcDbEntity
  8
M0
 62
     7
100
AcDbLine
 10
56.765669
 20
322.327774
 11
57.184544
 21
322.327774
  0
LINE
  5
206
100
AcDbEntity
  8
M0
 62
     7
100
AcDbLine
 10
46.665669
 20
322.327774
 11
47.565669
 21
322.327774
  0
LINE
  5
207
100
AcDbEntity
  8
M0
 62
     7
100
AcDbLine
 10
53.565669
 20
322.327774
 11
54.465669
 21
322.327774
  0
LINE
  5
208
100
AcDbEntity
  8
M0
 62
     7
100
AcDbLine
 10
56.765669
 20
325.827774
 11
56.765669
 21
316.827774
  0
LINE
  5
209
100
AcDbEntity
  8
M0
 62
     7
100
AcDbLine
 10
65.565669
 20
329.827774
 11
65.665669
 21
329.827774
  0
LINE
  5
20A
100
AcDbEntity
  8
M0
 62
     7
100
AcDbLine
 10
75.665669
 20
279.427774
 11
75.965669
 21
279.427774
  0
LINE
  5
20B
100
AcDbEntity
  8
M0
 62
     7
100
AcDbLine
 10
55.465669
 20
279.427774
 11
55.765669
 21
279.427774
  0
LINE
  5
20C
100
AcDbEntity
  8
M0
 62
     7
100
AcDbLine
 10
75.965669
 20
315.827774
 11
75.665669
 21
315.827774
  0
LINE
  5
20D
100
AcDbEntity
  8
M0
 62
     7
100
AcDbLine
 10
65.865669
 20
315.827774
 11
65.565669
 21
315.827774
  0
LINE
  5
20E
100
AcDbEntity
  8
M0
 62
     7
100
AcDbLine
 10
55.765669
 20
315.827774
 11
55.465669
 21
315.827774
  0
ARC
  5
20F
100
AcDbEntity
  8
M0
 62
     7
100
AcDbCircle
 10
65.865669
 20
263.627774
 40
1.0
100
AcDbArc
 50
270.0
 51
360.0
  0
ARC
  5
210
100
AcDbEntity
  8
M0
 62
     7
100
AcDbCircle
 10
65.565669
 20
263.627774
 40
1.0
100
AcDbArc
 50
180.0
 51
270.0
  0
LINE
  5
211
100
AcDbEntity
  8
M0
 62
     7
100
AcDbLine
 10
65.765669
 20
329.827774
 11
65.865669
 21
329.827774
  0
LINE
  5
212
100
AcDbEntity
  8
M0
 62
     7
100
AcDbLine
 10
54.465669
 20
316.827774
 11
54.465669
 21
325.827774
  0
LINE
  5
213
100
AcDbEntity
  8
M0
 62
     7
100
AcDbLine
 10
65.665669
 20
329.827774
 11
65.765669
 21
329.827774
  0
ARC
  5
214
100
AcDbEntity
  8
M0
 62
     7
100
AcDbCircle
 10
55.765669
 20
263.627774
 40
1.0
100
AcDbArc
 50
270.0
 51
360.0
  0
LINE
  5
215
100
AcDbEntity
  8
M0
 62
     7
100
AcDbLine
 10
55.665669
 20
329.827774
 11
55.765669
 21
329.827774
  0
ARC
  5
216
100
AcDbEntity
  8
M0
 62
     7
100
AcDbCircle
 10
55.465669
 20
263.627774
 40
1.0
100
AcDbArc
 50
180.0
 51
270.0
  0
LINE
  5
217
100
AcDbEntity
  8
M0
 62
     7
100
AcDbLine
 10
56.765669
 20
271.827774
 11
56.765669
 21
270.827774
  0
LINE
  5
218
100
AcDbEntity
  8
M0
 62
     7
100
AcDbLine
 10
46.665669
 20
270.827774
 11
46.665669
 21
271.827774
  0
LINE
  5
219
100
AcDbEntity
  8
M0
 62
     7
100
AcDbLine
 10
84.765669
 20
271.827774
 11
84.765669
 21
270.827774
  0
LINE
  5
21A
100
AcDbEntity
  8
M0
 62
     7
100
AcDbLine
 10
46.665669
 20
323.427774
 11
46.665669
 21
324.427774
  0
ELLIPSE
  5
21B
100
AcDbEntity
  8
M0
 62
     7
100
AcDbEllipse
 10
70.015669
 20
332.444441
 11
1.0
 21
0.0
210
0.0
220
0.0
230
1.0
 40
0.416667
 41
4.71238898038469
 42
6.283185307179586
  0
LINE
  5
21C
100
AcDbEntity
  8
M0
 62
     7
100
AcDbLine
 10
56.765669
 20
323.427774
 11
56.765669
 21
324.427774
  0
ELLIPSE
  5
21D
100
AcDbEntity
  8
M0
 62
     7
100
AcDbEllipse
 10
61.415669
 20
332.444441
 11
1.0
 21
0.0
210
0.0
220
0.0
230
1.0
 40
0.416667
 41
3.141592653589793
 42
4.71238898038469
  0
LINE
  5
21E
100
AcDbEntity
  8
M0
 62
     7
100
AcDbLine
 10
85.965669
 20
326.427774
 11
85.765669
 21
326.427774
  0
LINE
  5
21F
100
AcDbEntity
  8
M0
 62
     7
100
AcDbLine
 10
84.765669
 20
325.427774
 11
84.765669
 21
315.627774
  0
LINE
  5
220
100
AcDbEntity
  8
M0
 62
     7
100
AcDbLine
 10
85.965669
 20
268.827774
 11
85.765669
 21
268.827774
  0
LINE
  5
221
100
AcDbEntity
  8
M0
 62
     7
100
AcDbLine
 10
84.765669
 20
270.827774
 11
84.765669
 21
269.827774
  0
LINE
  5
222
100
AcDbEntity
  8
M0
 62
     7
100
AcDbLine
 10
46.665669
 20
269.827774
 11
46.665669
 21
270.827774
  0
LINE
  5
223
100
AcDbEntity
  8
M0
 62
     7
100
AcDbLine
 10
46.665669
 20
324.427774
 11
46.665669
 21
325.427774
  0
LINE
  5
224
100
AcDbEntity
  8
M0
 62
     7
100
AcDbLine
 10
45.465669
 20
268.827774
 11
45.665669
 21
268.827774
  0
LINE
  5
225
100
AcDbEntity
  8
M0
 62
     7
100
AcDbLine
 10
56.765669
 20
324.427774
 11
56.765669
 21
328.827774
  0
LINE
  5
226
100
AcDbEntity
  8
M0
 62
     7
100
AcDbLine
 10
45.465669
 20
326.427774
 11
45.665669
 21
326.427774
  0
LINE
  5
227
100
AcDbEntity
  8
M0
 62
     7
100
AcDbLine
 10
60.315669
 20
340.527774
 11
61.415669
 21
340.527774
  0
LINE
  5
228
100
AcDbEntity
  8
M0
 62
     7
100
AcDbLine
 10
70.015669
 20
340.527774
 11
71.115669
 21
340.527774
  0
ARC
  5
229
100
AcDbEntity
  8
M0
 62
     7
100
AcDbCircle
 10
71.615669
 20
341.527774
 40
0.5
100
AcDbArc
 50
90.0
 51
180.0
  0
ARC
  5
22A
100
AcDbEntity
  8
M0
 62
     7
100
AcDbCircle
 10
59.815669
 20
341.527774
 40
0.5
100
AcDbArc
 50
0.0
 51
90.0
  0
ARC
  5
22B
100
AcDbEntity
  8
M0
 62
     7
100
AcDbCircle
 10
71.615669
 20
341.027774
 40
1.0
100
AcDbArc
 50
0.0
 51
90.0
  0
ARC
  5
22C
100
AcDbEntity
  8
M0
 62
     7
100
AcDbCircle
 10
59.815669
 20
341.027774
 40
1.0
100
AcDbArc
 50
90.0
 51
180.0
  0
LINE
  5
22D
100
AcDbEntity
  8
M0
 62
     7
100
AcDbLine
 10
67.765669
 20
271.927774
 11
67.765669
 21
272.927774
  0
LINE
  5
22E
100
AcDbEntity
  8
M0
 62
     7
100
AcDbLine
 10
73.765669
 20
272.927774
 11
73.765669
 21
271.927774
  0
LINE
  5
22F
100
AcDbEntity
  8
M0
 62
     7
100
AcDbLine
 10
73.765669
 20
271.927774
 11
67.765669
 21
271.927774
  0
LINE
  5
230
100
AcDbEntity
  8
M0
 62
     7
100
AcDbLine
 10
76.965669
 20
328.527774
 11
82.715669
 21
328.527774
  0
LINE
  5
231
100
AcDbEntity
  8
M0
 62
     7
100
AcDbLine
 10
82.715669
 20
330.527774
 11
82.715669
 21
328.527774
  0
LINE
  5
232
100
AcDbEntity
  8
M0
 62
     7
100
AcDbLine
 10
71.115669
 20
328.527774
 11
74.665669
 21
328.527774
  0
LINE
  5
233
100
AcDbEntity
  8
M0
 62
     7
100
AcDbLine
 10
60.315669
 20
341.527774
 11
60.315669
 21
328.527774
  0
LINE
  5
234
100
AcDbEntity
  8
M0
 62
     7
100
AcDbLine
 10
56.765669
 20
328.527774
 11
60.315669
 21
328.527774
  0
LINE
  5
235
100
AcDbEntity
  8
M0
 62
     7
100
AcDbLine
 10
58.815669
 20
332.027774
 11
58.815669
 21
341.027774
  0
LINE
  5
236
100
AcDbEntity
  8
M0
 62
     7
100
AcDbLine
 10
72.615669
 20
341.027774
 11
72.615669
 21
332.027774
  0
LINE
  5
237
100
AcDbEntity
  8
M0
 62
     7
100
AcDbLine
 10
60.315669
 20
332.027774
 11
48.715669
 21
332.027774
  0
LINE
  5
238
100
AcDbEntity
  8
M0
 62
     7
100
AcDbLine
 10
60.315669
 20
330.527774
 11
48.715669
 21
330.527774
  0
LINE
  5
239
100
AcDbEntity
  8
M0
 62
     7
100
AcDbLine
 10
48.715669
 20
328.527774
 11
54.465669
 21
328.527774
  0
LINE
  5
23A
100
AcDbEntity
  8
M0
 62
     7
100
AcDbLine
 10
71.115669
 20
328.527774
 11
71.115669
 21
341.527774
  0
LINE
  5
23B
100
AcDbEntity
  8
M0
 62
     7
100
AcDbLine
 10
82.715669
 20
332.027774
 11
82.715669
 21
330.527774
  0
LINE
  5
23C
100
AcDbEntity
  8
M0
 62
     7
100
AcDbLine
 10
82.715669
 20
330.527774
 11
71.115669
 21
330.527774
  0
LINE
  5
23D
100
AcDbEntity
  8
M0
 62
     7
100
AcDbLine
 10
71.115669
 20
332.027774
 11
82.715669
 21
332.027774
  0
LINE
  5
23E
100
AcDbEntity
  8
M0
 62
     7
100
AcDbLine
 10
80.115669
 20
340.527774
 11
72.615669
 21
340.527774
  0
LINE
  5
23F
100
AcDbEntity
  8
M0
 62
     7
100
AcDbLine
 10
83.865669
 20
272.977774
 11
83.865669
 21
271.927774
  0
LINE
  5
240
100
AcDbEntity
  8
M0
 62
     7
100
AcDbLine
 10
83.865669
 20
271.927774
 11
77.865669
 21
271.927774
  0
LINE
  5
241
100
AcDbEntity
  8
M0
 62
     7
100
AcDbLine
 10
57.665669
 20
271.927774
 11
57.665669
 21
272.977774
  0
LINE
  5
242
100
AcDbEntity
  8
M0
 62
     7
100
AcDbLine
 10
63.665669
 20
271.927774
 11
57.665669
 21
271.927774
  0
LINE
  5
243
100
AcDbEntity
  8
M0
 62
     7
100
AcDbLine
 10
63.665669
 20
272.927774
 11
63.665669
 21
271.927774
  0
LINE
  5
244
100
AcDbEntity
  8
M0
 62
     7
100
AcDbLine
 10
77.865669
 20
271.927774
 11
77.865669
 21
272.977774
  0
LINE
  5
245
100
AcDbEntity
  8
M0
 62
     7
100
AcDbLine
 10
67.765669
 20
322.277774
 11
67.765669
 21
323.327774
  0
LINE
  5
246
100
AcDbEntity
  8
M0
 62
     7
100
AcDbLine
 10
73.765669
 20
323.327774
 11
73.765669
 21
322.277774
  0
LINE
  5
247
100
AcDbEntity
  8
M0
 62
     7
100
AcDbLine
 10
67.765669
 20
323.327774
 11
73.765669
 21
323.327774
  0
LINE
  5
248
100
AcDbEntity
  8
M0
 62
     7
100
AcDbLine
 10
53.565669
 20
323.327774
 11
53.565669
 21
322.277774
  0
LINE
  5
249
100
AcDbEntity
  8
M0
 62
     7
100
AcDbLine
 10
47.565669
 20
322.277774
 11
47.565669
 21
323.327774
  0
LINE
  5
24A
100
AcDbEntity
  8
M0
 62
     7
100
AcDbLine
 10
53.565669
 20
271.927774
 11
47.565669
 21
271.927774
  0
LINE
  5
24B
100
AcDbEntity
  8
M0
 62
     7
100
AcDbLine
 10
47.565669
 20
271.927774
 11
47.565669
 21
272.977774
  0
LINE
  5
24C
100
AcDbEntity
  8
M0
 62
     7
100
AcDbLine
 10
53.565669
 20
272.977774
 11
53.565669
 21
271.927774
  0
LINE
  5
24D
100
AcDbEntity
  8
M0
 62
     7
100
AcDbLine
 10
57.665669
 20
322.352774
 11
57.665669
 21
323.327774
  0
LINE
  5
24E
100
AcDbEntity
  8
M0
 62
     7
100
AcDbLine
 10
57.665669
 20
323.327774
 11
63.665669
 21
323.327774
  0
LINE
  5
24F
100
AcDbEntity
  8
M0
 62
     7
100
AcDbLine
 10
63.665669
 20
323.327774
 11
63.665669
 21
322.327774
  0
LINE
  5
250
100
AcDbEntity
  8
M0
 62
     7
100
AcDbLine
 10
77.865669
 20
322.327774
 11
77.865669
 21
323.327774
  0
LINE
  5
251
100
AcDbEntity
  8
M0
 62
     7
100
AcDbLine
 10
83.865669
 20
323.327774
 11
83.865669
 21
322.327774
  0
LINE
  5
252
100
AcDbEntity
  8
M0
 62
     7
100
AcDbLine
 10
77.865669
 20
323.327774
 11
83.865669
 21
323.327774
  0
LINE
  5
253
100
AcDbEntity
  8
M0
  6
DASHDOT
 62
     7
100
AcDbLine
 10
65.715669
 20
258.747676
 11
65.715669
 21
343.849783
  0
LINE
  5
254
100
AcDbEntity
  8
M0
  6
DASHDOT
 62
     7
100
AcDbLine
 10
60.165669
 20
265.127774
 11
61.165669
 21
265.127774
  0
LINE
  5
255
100
AcDbEntity
  8
M0
  6
DASHDOT
 62
     7
100
AcDbLine
 10
60.665669
 20
264.627774
 11
60.665669
 21
265.627774
  0
LINE
  5
256
100
AcDbEntity
  8
M0
  6
DASHDOT
 62
     7
100
AcDbLine
 10
60.165669
 20
276.727774
 11
61.165669
 21
276.727774
  0
LINE
  5
257
100
AcDbEntity
  8
M0
  6
DASHDOT
 62
     7
100
AcDbLine
 10
60.665669
 20
276.227774
 11
60.665669
 21
277.227774
  0
LINE
  5
258
100
AcDbEntity
  8
M0
  6
DASHDOT
 62
     7
100
AcDbLine
 10
70.265669
 20
276.727774
 11
71.265669
 21
276.727774
  0
LINE
  5
259
100
AcDbEntity
  8
M0
  6
DASHDOT
 62
     7
100
AcDbLine
 10
70.765669
 20
276.227774
 11
70.765669
 21
277.227774
  0
LINE
  5
25A
100
AcDbEntity
  8
M0
  6
DASHDOT
 62
     7
100
AcDbLine
 10
80.365669
 20
276.727774
 11
81.365669
 21
276.727774
  0
LINE
  5
25B
100
AcDbEntity
  8
M0
  6
DASHDOT
 62
     7
100
AcDbLine
 10
80.865669
 20
276.227774
 11
80.865669
 21
277.227774
  0
LINE
  5
25C
100
AcDbEntity
  8
M0
  6
DASHDOT
 62
     7
100
AcDbLine
 10
80.365669
 20
318.527774
 11
81.365669
 21
318.527774
  0
LINE
  5
25D
100
AcDbEntity
  8
M0
  6
DASHDOT
 62
     7
100
AcDbLine
 10
80.865669
 20
318.027774
 11
80.865669
 21
319.027774
  0
LINE
  5
25E
100
AcDbEntity
  8
M0
  6
DASHDOT
 62
     7
100
AcDbLine
 10
70.265669
 20
318.527774
 11
71.265669
 21
318.527774
  0
LINE
  5
25F
100
AcDbEntity
  8
M0
  6
DASHDOT
 62
     7
100
AcDbLine
 10
70.765669
 20
318.027774
 11
70.765669
 21
319.027774
  0
LINE
  5
260
100
AcDbEntity
  8
M0
  6
DASHDOT
 62
     7
100
AcDbLine
 10
60.165669
 20
318.527774
 11
61.165669
 21
318.527774
  0
LINE
  5
261
100
AcDbEntity
  8
M0
  6
DASHDOT
 62
     7
100
AcDbLine
 10
60.665669
 20
318.027774
 11
60.665669
 21
319.027774
  0
LINE
  5
262
100
AcDbEntity
  8
M0
  6
DASHDOT
 62
     7
100
AcDbLine
 10
50.065669
 20
318.527774
 11
51.065669
 21
318.527774
  0
LINE
  5
263
100
AcDbEntity
  8
M0
  6
DASHDOT
 62
     7
100
AcDbLine
 10
50.565669
 20
318.027774
 11
50.565669
 21
319.027774
  0
LINE
  5
264
100
AcDbEntity
  8
M0
  6
DASHDOT
 62
     7
100
AcDbLine
 10
54.315669
 20
336.127774
 11
55.315669
 21
336.127774
  0
LINE
  5
265
100
AcDbEntity
  8
M0
  6
DASHDOT
 62
     7
100
AcDbLine
 10
54.815669
 20
335.627774
 11
54.815669
 21
336.627774
  0
LINE
  5
266
100
AcDbEntity
  8
M0
  6
DASHDOT
 62
     7
100
AcDbLine
 10
76.115669
 20
336.127774
 11
77.115669
 21
336.127774
  0
LINE
  5
267
100
AcDbEntity
  8
M0
  6
DASHDOT
 62
     7
100
AcDbLine
 10
76.615669
 20
335.627774
 11
76.615669
 21
336.627774
  0
LINE
  5
268
100
AcDbEntity
  8
M0
  6
DASHDOT
 62
     7
100
AcDbLine
 10
50.065669
 20
276.727774
 11
51.065669
 21
276.727774
  0
LINE
  5
269
100
AcDbEntity
  8
M0
  6
DASHDOT
 62
     7
100
AcDbLine
 10
50.565669
 20
276.227774
 11
50.565669
 21
277.227774
  0
LINE
  5
26A
100
AcDbEntity
  8
M0
  6
DASHDOT
 62
     7
100
AcDbLine
 10
65.215669
 20
335.727774
 11
66.215669
 21
335.727774
  0
LINE
  5
26B
100
AcDbEntity
  8
M0
 62
     7
100
AcDbLine
 10
65.265669
 20
334.527774
 11
66.165669
 21
334.527774
  0
LINE
  5
26C
100
AcDbEntity
  8
M0
 62
     7
100
AcDbLine
 10
65.265669
 20
335.277774
 11
65.265669
 21
334.527774
  0
LINE
  5
26D
100
AcDbEntity
  8
M0
 62
     7
100
AcDbLine
 10
66.165669
 20
334.527774
 11
66.165669
 21
335.277774
  0
LINE
  5
26E
100
AcDbEntity
  8
M0
  6
DASHDOT
 62
     7
100
AcDbLine
 10
65.215669
 20
335.727774
 11
66.215669
 21
335.727774
  0
LINE
  5
26F
100
AcDbEntity
  8
M0
 62
     7
100
AcDbLine
 10
65.265669
 20
335.277774
 11
64.515669
 21
335.277774
  0
LINE
  5
270
100
AcDbEntity
  8
M0
 62
     7
100
AcDbLine
 10
64.515669
 20
336.177774
 11
65.265669
 21
336.177774
  0
LINE
  5
271
100
AcDbEntity
  8
M0
 62
     7
100
AcDbLine
 10
65.265669
 20
336.927774
 11
65.265669
 21
336.177774
  0
CIRCLE
  5
272
100
AcDbEntity
  8
M0
 62
     7
100
AcDbCircle
 10
65.715669
 20
335.727774
 40
2.85
  0
LINE
  5
273
100
AcDbEntity
  8
M0
 62
     7
100
AcDbLine
 10
66.165669
 20
336.927774
 11
65.265669
 21
336.927774
  0
LINE
  5
274
100
AcDbEntity
  8
M0
 62
     7
100
AcDbLine
 10
66.915669
 20
335.277774
 11
66.165669
 21
335.277774
  0
LINE
  5
275
100
AcDbEntity
  8
M0
 62
     7
100
AcDbLine
 10
66.165669
 20
336.177774
 11
66.165669
 21
336.927774
  0
LINE
  5
276
100
AcDbEntity
  8
M0
 62
     7
100
AcDbLine
 10
66.165669
 20
336.177774
 11
66.915669
 21
336.177774
  0
CIRCLE
  5
277
100
AcDbEntity
  8
M0
 62
     7
100
AcDbCircle
 10
76.615669
 20
336.127774
 40
3.0
  0
LINE
  5
278
100
AcDbEntity
  8
M0
 62
     7
100
AcDbLine
 10
87.215669
 20
279.627776
 11
87.215669
 21
267.827774
  0
LINE
  5
279
100
AcDbEntity
  8
M0
 62
     7
100
AcDbLine
 10
44.215669
 20
315.627774
 11
44.215669
 21
326.527774
  0
ARC
  5
27A
100
AcDbEntity
  8
M0
 62
     7
100
AcDbCircle
 10
50.565669
 20
318.527774
 40
3.0
100
AcDbArc
 50
284.835112
 51
615.164888
  0
ARC
  5
27B
100
AcDbEntity
  8
M0
 62
     7
100
AcDbCircle
 10
60.665669
 20
318.527774
 40
3.0
100
AcDbArc
 50
284.835112
 51
615.164888
  0
ARC
  5
27C
100
AcDbEntity
  8
M0
 62
     7
100
AcDbCircle
 10
70.765669
 20
318.527774
 40
3.0
100
AcDbArc
 50
284.835112
 51
615.164888
  0
ARC
  5
27D
100
AcDbEntity
  8
M0
 62
     7
100
AcDbCircle
 10
80.865669
 20
318.527774
 40
3.0
100
AcDbArc
 50
284.835112
 51
615.164888
  0
ARC
  5
27E
100
AcDbEntity
  8
M0
 62
     7
100
AcDbCircle
 10
80.865669
 20
276.727774
 40
3.0
100
AcDbArc
 50
104.834996
 51
435.165004
  0
ARC
  5
27F
100
AcDbEntity
  8
M0
 62
     7
100
AcDbCircle
 10
70.765669
 20
276.727774
 40
3.0
100
AcDbArc
 50
104.834996
 51
435.165004
  0
ARC
  5
280
100
AcDbEntity
  8
M0
 62
     7
100
AcDbCircle
 10
60.665669
 20
276.727774
 40
3.0
100
AcDbArc
 50
104.834996
 51
435.165004
  0
ARC
  5
281
100
AcDbEntity
  8
M0
 62
     7
100
AcDbCircle
 10
50.565669
 20
276.727774
 40
3.0
100
AcDbArc
 50
104.834996
 51
435.165004
  0
HATCH
  5
282
100
AcDbEntity
  8
M0
 62
     7
100
AcDbHatch
 10
0.0
 20
0.0
210
0.0
220
0.0
230
1.0
  2
SOLID
 70
     1
 71
     0
 91
        1
 92
        1
 93
       12
 72
     1
 10
47.449508
 20
299.358575
 11
47.449508
 21
300.577023
 72
     1
 10
47.449508
 20
300.577023
 11
48.931029
 21
300.577023
 72
     1
 10
48.931029
 20
300.577023
 11
48.931029
 21
299.358575
 72
     1
 10
48.931029
 20
299.358575
 11
49.664867
 21
299.358575
 72
     1
 10
49.664867
 20
299.358575
 11
49.664867
 21
302.127775
 72
     1
 10
49.664867
 20
302.127775
 11
48.931029
 21
302.127775
 72
     1
 10
48.931029
 20
302.127775
 11
48.931029
 21
301.020095
 72
     1
 10
48.931029
 20
301.020095
 11
47.449508
 21
301.020095
 72
     1
 10
47.449508
 20
301.020095
 11
47.449508
 21
302.127775
 72
     1
 10
47.449508
 20
302.127775
 11
46.71567
 21
302.127775
 72
     1
 10
46.71567
 20
302.127775
 11
46.71567
 21
299.358575
 72
     1
 10
46.71567
 20
299.358575
 11
47.449508
 21
299.358575
 97
        0
 75
     0
 76
     1
 98
        1
 10
0.0
 20
0.0
  0
HATCH
  5
285
100
AcDbEntity
  8
M0
 62
     7
100
AcDbHatch
 10
0.0
 20
0.0
210
0.0
220
0.0
230
1.0
  2
SOLID
 70
     1
 71
     0
 91
        1
 92
        1
 93
        4
 72
     1
 10
50.980237
 20
299.358575
 11
50.980237
 21
302.127775
 72
     1
 10
50.980237
 20
302.127775
 11
50.246399
 21
302.127775
 72
     1
 10
50.246399
 20
302.127775
 11
50.246399
 21
299.358575
 72
     1
 10
50.246399
 20
299.358575
 11
50.980237
 21
299.358575
 97
        0
 75
     0
 76
     1
 98
        1
 10
0.0
 20
0.0
  0
HATCH
  5
286
100
AcDbEntity
  8
M0
 62
     7
100
AcDbHatch
 10
0.0
 20
0.0
210
0.0
220
0.0
230
1.0
  2
SOLID
 70
     1
 71
     0
 91
        1
 92
        1
 93
        4
 72
     1
 10
127.05143
 20
314.627773
 11
125.05143
 21
314.627773
 72
     1
 10
125.05143
 20
314.627773
 11
125.05143
 21
280.627774
 72
     1
 10
125.05143
 20
280.627774
 11
127.05143
 21
280.627774
 72
     1
 10
127.05143
 20
280.627774
 11
127.05143
 21
314.627773
 97
        0
 75
     0
 76
     1
 98
        1
 10
0.0
 20
0.0
  0
LINE
  5
287
100
AcDbEntity
  8
M0
100
AcDbLine
 10
55.777876
 20
302.127775
 11
57.072477
 21
299.358575
  0
LINE
  5
288
100
AcDbEntity
  8
M0
100
AcDbLine
 10
52.364837
 20
299.358575
 11
53.098675
 21
299.358575
  0
LINE
  5
289
100
AcDbEntity
  8
M0
100
AcDbLine
 10
64.71547
 20
302.127775
 11
63.981631
 21
302.127775
  0
LINE
  5
28A
100
AcDbEntity
  8
M0
100
AcDbLine
 10
56.255563
 20
299.358575
 11
57.072477
 21
299.358575
  0
LINE
  5
28B
100
AcDbEntity
  8
M0
100
AcDbLine
 10
54.400199
 20
299.358575
 11
54.640502
 21
299.953953
  0
LINE
  5
28C
100
AcDbEntity
  8
M0
100
AcDbLine
 10
50.246399
 20
302.127775
 11
50.246399
 21
299.358575
  0
LINE
  5
28D
100
AcDbEntity
  8
M0
100
AcDbLine
 10
81.71567
 20
294.927777
 11
75.71567
 21
294.927777
  0
LINE
  5
28E
100
AcDbEntity
  8
M0
100
AcDbLine
 10
63.400099
 20
302.127775
 11
62.666261
 21
302.127775
  0
TEXT
  5
28F
100
AcDbEntity
  8
M0
100
AcDbText
 10
68.84067
 20
290.127778
 40
2.0
  1
５６
 41
0.625
  7
STANDARD
100
AcDbText
  0
LINE
  5
290
100
AcDbEntity
  8
M0
100
AcDbLine
 10
62.666261
 20
301.020095
 11
61.184739
 21
301.020095
  0
TEXT
  5
291
100
AcDbEntity
  8
M0
100
AcDbText
 10
46.840662
 20
296.127778
 40
2.0
  1
ＬＡＴＣＨＥＤ
 41
0.625
  7
STANDARD
100
AcDbText
  0
LINE
  5
292
100
AcDbEntity
  8
M0
100
AcDbLine
 10
62.666261
 20
301.020095
 11
62.666261
 21
302.127775
  0
LINE
  5
293
100
AcDbEntity
  8
M0
100
AcDbLine
 10
60.074749
 20
300.355487
 11
59.301683
 21
300.355487
  0
TEXT
  5
294
100
AcDbEntity
  8
M0
100
AcDbText
 10
68.84067
 20
303.127776
 40
2.0
  1
５５
 41
0.625
  7
STANDARD
100
AcDbText
  0
LINE
  5
295
100
AcDbEntity
  8
M0
100
AcDbLine
 10
72.71567
 20
295.427777
 11
75.71567
 21
294.335867
  0
LINE
  5
296
100
AcDbEntity
  8
M0
100
AcDbLine
 10
54.220201
 20
302.127775
 11
51.243311
 21
302.127775
  0
LINE
  5
297
100
AcDbEntity
  8
M0
100
AcDbLine
 10
81.71567
 20
295.927777
 11
75.71567
 21
295.927777
  0
LINE
  5
298
100
AcDbEntity
  8
M0
100
AcDbLine
 10
54.877886
 20
302.127775
 11
53.583285
 21
299.358575
  0
LINE
  5
299
100
AcDbEntity
  8
M0
100
AcDbLine
 10
75.71567
 20
294.335867
 11
75.71567
 21
294.927777
  0
LINE
  5
29A
100
AcDbEntity
  8
M0
100
AcDbLine
 10
52.364837
 20
301.657011
 11
52.364837
 21
299.358575
  0
LINE
  5
29B
100
AcDbEntity
  8
M0
100
AcDbLine
 10
75.71567
 20
295.927777
 11
75.71567
 21
296.519688
  0
LINE
  5
29C
100
AcDbEntity
  8
M0
100
AcDbLine
 10
72.71567
 20
295.427777
 11
75.71567
 21
296.519688
  0
LINE
  5
29D
100
AcDbEntity
  8
M0
100
AcDbLine
 10
54.640502
 20
299.953953
 11
56.01526
 21
299.953953
  0
LINE
  5
29E
100
AcDbEntity
  8
M0
100
AcDbLine
 10
55.83643
 20
300.397025
 11
55.327881
 21
301.657011
  0
LINE
  5
29F
100
AcDbEntity
  8
M0
100
AcDbLine
 10
47.449508
 20
302.127775
 11
46.71567
 21
302.127775
  0
LINE
  5
2A0
100
AcDbEntity
  8
M0
100
AcDbLine
 10
49.664867
 20
302.127775
 11
48.931029
 21
302.127775
  0
LINE
  5
2A1
100
AcDbEntity
  8
M0
100
AcDbLine
 10
48.931029
 20
299.358575
 11
49.664867
 21
299.358575
  0
LINE
  5
2A2
100
AcDbEntity
  8
M0
100
AcDbLine
 10
81.71567
 20
294.927777
 11
81.71567
 21
295.927777
  0
ARC
  5
2A3
100
AcDbEntity
  8
M0
100
AcDbCircle
 10
89.178628
 20
293.327774
 40
0.5
100
AcDbArc
 50
270.0
 51
360.0
  0
ARC
  5
2A4
100
AcDbEntity
  8
M0
100
AcDbCircle
 10
89.178628
 20
301.927774
 40
0.5
100
AcDbArc
 50
0.0
 51
90.0
  0
LINE
  5
2A5
100
AcDbEntity
  8
M0
100
AcDbLine
 10
89.678627
 20
301.927774
 11
89.678627
 21
293.327775
  0
LINE
  5
2A6
100
AcDbEntity
  8
M0
100
AcDbLine
 10
61.184739
 20
299.358575
 11
61.184739
 21
300.577023
  0
LINE
  5
2A7
100
AcDbEntity
  8
M0
100
AcDbLine
 10
51.243311
 20
301.657011
 11
52.364837
 21
301.657011
  0
LINE
  5
2A8
100
AcDbEntity
  8
M0
100
AcDbLine
 10
84.815669
 20
302.427774
 11
89.178628
 21
302.427774
  0
LINE
  5
2A9
100
AcDbEntity
  8
M0
100
AcDbLine
 10
51.243311
 20
302.127775
 11
51.243311
 21
301.657011
  0
LINE
  5
2AA
100
AcDbEntity
  8
M0
100
AcDbLine
 10
74.115669
 20
282.427775
 11
81.91567
 21
282.427775
  0
LINE
  5
2AB
100
AcDbEntity
  8
M0
100
AcDbLine
 10
58.91567
 20
281.127775
 11
58.91567
 21
279.627776
  0
ARC
  5
2AC
100
AcDbEntity
  8
M0
100
AcDbCircle
 10
68.11567
 20
282.027774
 40
0.5
100
AcDbArc
 50
270.0
 51
360.0
  0
LINE
  5
2AD
100
AcDbEntity
  8
M0
100
AcDbLine
 10
51.31567
 20
280.627774
 11
51.21567
 21
280.627774
  0
LINE
  5
2AE
100
AcDbEntity
  8
M0
100
AcDbLine
 10
59.01567
 20
281.127775
 11
58.91567
 21
281.127775
  0
ARC
  5
2AF
100
AcDbEntity
  8
M0
100
AcDbCircle
 10
68.11567
 20
284.927774
 40
0.5
100
AcDbArc
 50
0.0
 51
90.0
  0
LINE
  5
2B0
100
AcDbEntity
  8
M0
100
AcDbLine
 10
51.31567
 20
279.627776
 11
51.31567
 21
280.627774
  0
LINE
  5
2B1
100
AcDbEntity
  8
M0
100
AcDbLine
 10
61.184739
 20
300.577023
 11
62.666261
 21
300.577023
  0
LINE
  5
2B2
100
AcDbEntity
  8
M0
100
AcDbLine
 10
61.184739
 20
302.127775
 11
60.450901
 21
302.127775
  0
LINE
  5
2B3
100
AcDbEntity
  8
M0
100
AcDbLine
 10
53.098675
 20
301.657011
 11
53.098675
 21
299.358575
  0
LINE
  5
2B4
100
AcDbEntity
  8
M0
100
AcDbLine
 10
63.981631
 20
299.358575
 11
64.71547
 21
299.358575
  0
LINE
  5
2B5
100
AcDbEntity
  8
M0
100
AcDbLine
 10
53.098675
 20
301.657011
 11
54.220201
 21
301.657011
  0
LINE
  5
2B6
100
AcDbEntity
  8
M0
100
AcDbLine
 10
46.71567
 20
299.358575
 11
47.449508
 21
299.358575
  0
LINE
  5
2B7
100
AcDbEntity
  8
M0
100
AcDbLine
 10
55.83643
 20
300.397025
 11
54.819332
 21
300.397025
  0
LINE
  5
2B8
100
AcDbEntity
  8
M0
100
AcDbLine
 10
63.400099
 20
299.358575
 11
63.400099
 21
302.127775
  0
LINE
  5
2B9
100
AcDbEntity
  8
M0
100
AcDbLine
 10
60.450901
 20
302.127775
 11
60.450901
 21
299.358575
  0
LINE
  5
2BA
100
AcDbEntity
  8
M0
100
AcDbLine
 10
50.980237
 20
302.127775
 11
50.980237
 21
299.358575
  0
LINE
  5
2BB
100
AcDbEntity
  8
M0
100
AcDbLine
 10
54.220201
 20
302.127775
 11
54.220201
 21
301.657011
  0
LINE
  5
2BC
100
AcDbEntity
  8
M0
100
AcDbLine
 10
62.666261
 20
299.358575
 11
62.666261
 21
300.577023
  0
LINE
  5
2BD
100
AcDbEntity
  8
M0
100
AcDbLine
 10
61.184739
 20
301.020095
 11
61.184739
 21
302.127775
  0
LINE
  5
2BE
100
AcDbEntity
  8
M0
100
AcDbLine
 10
55.468949
 20
284.942138
 11
53.701371
 21
283.174437
  0
LINE
  5
2BF
100
AcDbEntity
  8
M0
100
AcDbLine
 10
79.429495
 20
287.681468
 11
77.661917
 21
285.91389
  0
LINE
  5
2C0
100
AcDbEntity
  8
M0
100
AcDbLine
 10
56.706254
 20
281.937133
 11
53.524613
 21
285.118895
  0
LINE
  5
2C1
100
AcDbEntity
  8
M0
100
AcDbLine
 10
79.606253
 20
285.737132
 11
76.424613
 21
288.918895
  0
CIRCLE
  5
2C2
100
AcDbEntity
  8
M0
100
AcDbCircle
 10
78.015669
 20
307.927774
 40
3.0
  0
LINE
  5
2C3
100
AcDbEntity
  8
M0
100
AcDbLine
 10
56.529496
 20
283.881469
 11
54.761918
 21
282.11389
  0
LINE
  5
2C4
100
AcDbEntity
  8
M0
100
AcDbLine
 10
78.368949
 20
288.742137
 11
76.60137
 21
286.974437
  0
LINE
  5
2C5
100
AcDbEntity
  8
M0
100
AcDbLine
 10
78.368949
 20
309.342137
 11
76.60137
 21
307.574437
  0
LINE
  5
2C6
100
AcDbEntity
  8
M0
100
AcDbLine
 10
79.429495
 20
308.281468
 11
77.661917
 21
306.51389
  0
LINE
  5
2C7
100
AcDbEntity
  8
M0
100
AcDbLine
 10
44.71567
 20
300.827774
 11
44.71567
 21
297.627775
  0
LINE
  5
2C8
100
AcDbEntity
  8
M0
100
AcDbLine
 10
56.706254
 20
310.137132
 11
53.524613
 21
313.318895
  0
LINE
  5
2C9
100
AcDbEntity
  8
M0
100
AcDbLine
 10
56.529496
 20
312.081468
 11
54.761918
 21
310.31389
  0
LINE
  5
2CA
100
AcDbEntity
  8
M0
100
AcDbLine
 10
79.606253
 20
306.337132
 11
76.424613
 21
309.518895
  0
LINE
  5
2CB
100
AcDbEntity
  8
M0
100
AcDbLine
 10
55.468949
 20
313.142137
 11
53.701371
 21
311.374437
  0
ARC
  5
2CC
100
AcDbEntity
  8
M0
100
AcDbCircle
 10
58.581692
 20
301.158554
 40
0.706146
100
AcDbArc
 50
2.247463
 51
18.629353
  0
ARC
  5
2CD
100
AcDbEntity
  8
M0
100
AcDbCircle
 10
59.151405
 20
301.178277
 40
0.89999
100
AcDbArc
 50
11.57091
 51
66.454309
  0
ARC
  5
2CE
100
AcDbEntity
  8
M0
100
AcDbCircle
 10
58.581692
 20
300.826251
 40
1.10768
100
AcDbArc
 50
248.465704
 51
287.487613
  0
ARC
  5
2CF
100
AcDbEntity
  8
M0
100
AcDbCircle
 10
58.581692
 20
300.660098
 40
1.10768
100
AcDbArc
 50
72.944058
 51
108.768683
  0
ARC
  5
2D0
100
AcDbEntity
  8
M0
100
AcDbCircle
 10
59.476143
 20
300.715482
 40
1.758441
100
AcDbArc
 50
160.088603
 51
196.481482
  0
ARC
  5
2D1
100
AcDbEntity
  8
M0
100
AcDbCircle
 10
58.581692
 20
300.355487
 40
0.719992
100
AcDbArc
 50
334.356275
 51
360.0
  0
ARC
  5
2D2
100
AcDbEntity
  8
M0
100
AcDbCircle
 10
58.413976
 20
300.401227
 40
0.650762
100
AcDbArc
 50
196.481517
 51
248.465722
  0
CIRCLE
  5
2D3
100
AcDbEntity
  8
M0
100
AcDbCircle
 10
78.015669
 20
287.327774
 40
3.0
  0
ARC
  5
2D4
100
AcDbEntity
  8
M0
100
AcDbCircle
 10
58.752258
 20
301.216054
 40
0.526148
100
AcDbArc
 50
18.629246
 51
72.943922
  0
CIRCLE
  5
2D5
100
AcDbEntity
  8
M0
100
AcDbCircle
 10
55.11567
 20
311.727774
 40
3.0
  0
ARC
  5
2D6
100
AcDbEntity
  8
M0
100
AcDbCircle
 10
58.434679
 20
301.09272
 40
0.650762
100
AcDbArc
 50
108.768698
 51
160.088638
  0
ARC
  5
2D7
100
AcDbEntity
  8
M0
100
AcDbCircle
 10
59.173204
 20
300.292733
 40
0.886144
100
AcDbArc
 50
292.42259
 51
346.150643
  0
CIRCLE
  5
2D8
100
AcDbEntity
  8
M0
100
AcDbCircle
 10
55.11567
 20
283.527775
 40
3.0
  0
ARC
  5
2D9
100
AcDbEntity
  8
M0
100
AcDbCircle
 10
58.581692
 20
301.061632
 40
1.481521
100
AcDbArc
 50
4.824937
 51
11.570943
  0
LINE
  5
2DA
100
AcDbEntity
  8
M0
100
AcDbLine
 10
47.449508
 20
300.577023
 11
48.931029
 21
300.577023
  0
LINE
  5
2DB
100
AcDbEntity
  8
M0
100
AcDbLine
 10
56.255563
 20
299.358575
 11
56.01526
 21
299.953953
  0
LINE
  5
2DC
100
AcDbEntity
  8
M0
100
AcDbLine
 10
50.246399
 20
299.358575
 11
50.980237
 21
299.358575
  0
ARC
  5
2DD
100
AcDbEntity
  8
M0
100
AcDbCircle
 10
58.747843
 20
300.715482
 40
1.799979
100
AcDbArc
 50
161.72132
 51
190.751551
  0
ARC
  5
2DE
100
AcDbEntity
  8
M0
100
AcDbCircle
 10
58.221949
 20
300.889189
 40
1.246139
100
AcDbArc
 50
109.456972
 51
161.721309
  0
LINE
  5
2DF
100
AcDbEntity
  8
M0
100
AcDbLine
 10
60.057963
 20
301.186246
 11
59.287294
 21
301.186246
  0
LINE
  5
2E0
100
AcDbEntity
  8
M0
100
AcDbLine
 10
48.931029
 20
302.127775
 11
48.931029
 21
301.020095
  0
LINE
  5
2E1
100
AcDbEntity
  8
M0
100
AcDbLine
 10
55.777876
 20
302.127775
 11
54.877886
 21
302.127775
  0
LINE
  5
2E2
100
AcDbEntity
  8
M0
100
AcDbLine
 10
47.449508
 20
302.127775
 11
47.449508
 21
301.020095
  0
LINE
  5
2E3
100
AcDbEntity
  8
M0
100
AcDbLine
 10
54.819332
 20
300.397025
 11
55.327881
 21
301.657011
  0
LINE
  5
2E4
100
AcDbEntity
  8
M0
100
AcDbLine
 10
49.664867
 20
302.127775
 11
49.664867
 21
299.358575
  0
LINE
  5
2E5
100
AcDbEntity
  8
M0
100
AcDbLine
 10
53.583285
 20
299.358575
 11
54.400199
 21
299.358575
  0
LINE
  5
2E6
100
AcDbEntity
  8
M0
100
AcDbLine
 10
47.449508
 20
300.577023
 11
47.449508
 21
299.358575
  0
LINE
  5
2E7
100
AcDbEntity
  8
M0
100
AcDbLine
 10
60.450901
 20
299.358575
 11
61.184739
 21
299.358575
  0
LINE
  5
2E8
100
AcDbEntity
  8
M0
100
AcDbLine
 10
62.666261
 20
299.358575
 11
63.400099
 21
299.358575
  0
LINE
  5
2E9
100
AcDbEntity
  8
M0
100
AcDbLine
 10
48.931029
 20
300.577023
 11
48.931029
 21
299.358575
  0
TEXT
  5
2EA
100
AcDbEntity
  8
M0
100
AcDbText
 10
75.240664
 20
298.327775
 40
2.0
  1
ＯＦＦ
 41
0.625
  7
STANDARD
100
AcDbText
  0
LINE
  5
2EB
100
AcDbEntity
  8
M0
100
AcDbLine
 10
50.980237
 20
302.127775
 11
50.246399
 21
302.127775
  0
LINE
  5
2EC
100
AcDbEntity
  8
M0
100
AcDbLine
 10
48.931029
 20
301.020095
 11
47.449508
 21
301.020095
  0
TEXT
  5
2ED
100
AcDbEntity
  8
M0
100
AcDbText
 10
53.740664
 20
290.127778
 40
2.0
  1
Ｅ２
 41
0.625
  7
STANDARD
100
AcDbText
  0
LINE
  5
2EE
100
AcDbEntity
  8
M0
100
AcDbLine
 10
63.981631
 20
299.358575
 11
63.981631
 21
302.127775
  0
ARC
  5
2EF
100
AcDbEntity
  8
M0
100
AcDbCircle
 10
58.756442
 20
300.271597
 40
0.526148
100
AcDbArc
 50
287.487588
 51
334.356243
  0
ARC
  5
2F0
100
AcDbEntity
  8
M0
100
AcDbCircle
 10
58.230931
 20
300.617328
 40
1.273831
100
AcDbArc
 50
190.75155
 51
252.447271
  0
ARC
  5
2F1
100
AcDbEntity
  8
M0
100
AcDbCircle
 10
58.581692
 20
300.438563
 40
1.495367
100
AcDbArc
 50
346.150651
 51
356.815254
  0
TEXT
  5
2F2
100
AcDbEntity
  8
M0
100
AcDbText
 10
46.840662
 20
293.627778
 40
2.0
  1
ＣＯＮＴＡＣＴＯＲ
 41
0.625
  7
STANDARD
100
AcDbText
  0
TEXT
  5
2F3
100
AcDbEntity
  8
M0
100
AcDbText
 10
53.740664
 20
303.127776
 40
2.0
  1
Ｅ１
 41
0.625
  7
STANDARD
100
AcDbText
  0
ARC
  5
2F4
100
AcDbEntity
  8
M0
100
AcDbCircle
 10
58.581692
 20
301.726241
 40
2.436895
100
AcDbArc
 50
252.447278
 51
292.42262
  0
LINE
  5
2F5
100
AcDbEntity
  8
M0
100
AcDbLine
 10
85.21567
 20
314.627774
 11
85.21567
 21
304.827774
  0
LINE
  5
2F6
100
AcDbEntity
  8
M0
100
AcDbLine
 10
81.91567
 20
303.827774
 11
81.91567
 21
314.627774
  0
LINE
  5
2F7
100
AcDbEntity
  8
M0
100
AcDbLine
 10
85.21567
 20
304.827774
 11
87.71567
 21
304.827774
  0
LINE
  5
2F8
100
AcDbEntity
  8
M0
100
AcDbLine
 10
74.115669
 20
314.627774
 11
74.115669
 21
303.827774
  0
LINE
  5
2F9
100
AcDbEntity
  8
M0
100
AcDbLine
 10
51.21567
 20
307.627774
 11
59.01567
 21
307.627774
  0
LINE
  5
2FA
100
AcDbEntity
  8
M0
100
AcDbLine
 10
87.71567
 20
302.627774
 11
85.21567
 21
302.627774
  0
LINE
  5
2FB
100
AcDbEntity
  8
M0
100
AcDbLine
 10
74.115669
 20
303.827774
 11
81.91567
 21
303.827774
  0
LINE
  5
2FC
100
AcDbEntity
  8
M0
100
AcDbLine
 10
51.21567
 20
315.627774
 11
51.21567
 21
314.627774
  0
LINE
  5
2FD
100
AcDbEntity
  8
M0
100
AcDbLine
 10
59.01567
 20
314.627774
 11
59.01567
 21
315.627774
  0
LINE
  5
2FE
100
AcDbEntity
  8
M0
100
AcDbLine
 10
66.71567
 20
285.527775
 11
66.71567
 21
285.427773
  0
LINE
  5
2FF
100
AcDbEntity
  8
M0
100
AcDbLine
 10
89.71567
 20
303.827774
 11
89.71567
 21
303.627774
  0
LINE
  5
300
100
AcDbEntity
  8
M0
100
AcDbLine
 10
87.71567
 20
304.827774
 11
88.71567
 21
304.827774
  0
LINE
  5
301
100
AcDbEntity
  8
M0
100
AcDbLine
 10
68.61567
 20
285.527775
 11
68.61567
 21
285.427773
  0
LINE
  5
302
100
AcDbEntity
  8
M0
100
AcDbLine
 10
88.71567
 20
302.627774
 11
87.71567
 21
302.627774
  0
ARC
  5
303
100
AcDbEntity
  8
M0
100
AcDbCircle
 10
63.51567
 20
284.927774
 40
0.5
100
AcDbArc
 50
90.0
 51
180.0
  0
ARC
  5
304
100
AcDbEntity
  8
M0
100
AcDbCircle
 10
88.71567
 20
303.627774
 40
1.0
100
AcDbArc
 50
270.0
 51
360.0
  0
LINE
  5
305
100
AcDbEntity
  8
M0
100
AcDbLine
 10
81.765669
 20
311.177774
 11
81.765669
 21
304.677774
  0
ARC
  5
306
100
AcDbEntity
  8
M0
100
AcDbCircle
 10
84.21567
 20
314.627774
 40
1.0
100
AcDbArc
 50
0.0
 51
90.0
  0
ARC
  5
307
100
AcDbEntity
  8
M0
100
AcDbCircle
 10
85.21567
 20
302.127774
 40
0.5
100
AcDbArc
 50
90.0
 51
180.0
  0
ARC
  5
308
100
AcDbEntity
  8
M0
100
AcDbCircle
 10
63.51567
 20
282.027774
 40
0.5
100
AcDbArc
 50
180.0
 51
270.0
  0
ARC
  5
309
100
AcDbEntity
  8
M0
100
AcDbCircle
 10
88.71567
 20
303.827774
 40
1.0
100
AcDbArc
 50
0.0
 51
90.0
  0
LINE
  5
30A
100
AcDbEntity
  8
M0
100
AcDbLine
 10
42.71567
 20
315.627774
 11
88.71567
 21
315.627774
  0
LINE
  5
30B
100
AcDbEntity
  8
M0
100
AcDbLine
 10
42.71567
 20
300.827774
 11
42.21567
 21
300.827774
  0
LINE
  5
30C
100
AcDbEntity
  8
M0
100
AcDbLine
 10
59.01567
 20
307.627774
 11
59.01567
 21
314.627774
  0
LINE
  5
30D
100
AcDbEntity
  8
M0
100
AcDbLine
 10
74.76567
 20
311.677774
 11
81.265669
 21
311.677774
  0
LINE
  5
30E
100
AcDbEntity
  8
M0
100
AcDbLine
 10
81.265669
 20
304.177774
 11
74.76567
 21
304.177774
  0
LINE
  5
30F
100
AcDbEntity
  8
M0
100
AcDbLine
 10
51.21567
 20
314.627774
 11
51.21567
 21
307.627774
  0
LINE
  5
310
100
AcDbEntity
  8
M0
100
AcDbLine
 10
89.71567
 20
297.627775
 11
89.678627
 21
297.627775
  0
LINE
  5
311
100
AcDbEntity
  8
M0
100
AcDbLine
 10
51.86567
 20
315.477774
 11
58.36567
 21
315.477774
  0
ARC
  5
312
100
AcDbEntity
  8
M0
100
AcDbCircle
 10
74.76567
 20
284.077774
 40
0.5
100
AcDbArc
 50
180.0
 51
270.0
  0
LINE
  5
313
100
AcDbEntity
  8
M0
100
AcDbLine
 10
58.36567
 20
279.777774
 11
51.86567
 21
279.777774
  0
ARC
  5
314
100
AcDbEntity
  8
M0
100
AcDbCircle
 10
58.36567
 20
286.777774
 40
0.5
100
AcDbArc
 50
0.0
 51
90.0
  0
ARC
  5
315
100
AcDbEntity
  8
M0
100
AcDbCircle
 10
58.36567
 20
280.277774
 40
0.5
100
AcDbArc
 50
270.0
 51
360.0
  0
LINE
  5
316
100
AcDbEntity
  8
M0
100
AcDbLine
 10
51.36567
 20
280.277774
 11
51.36567
 21
286.777774
  0
ARC
  5
317
100
AcDbEntity
  8
M0
100
AcDbCircle
 10
74.76567
 20
290.577774
 40
0.5
100
AcDbArc
 50
90.0
 51
180.0
  0
LINE
  5
318
100
AcDbEntity
  8
M0
100
AcDbLine
 10
51.36567
 20
308.477774
 11
51.36567
 21
314.977774
  0
ARC
  5
319
100
AcDbEntity
  8
M0
100
AcDbCircle
 10
51.86567
 20
314.977774
 40
0.5
100
AcDbArc
 50
90.0
 51
180.0
  0
LINE
  5
31A
100
AcDbEntity
  8
M0
100
AcDbLine
 10
58.86567
 20
314.977774
 11
58.86567
 21
308.477774
  0
LINE
  5
31B
100
AcDbEntity
  8
M0
100
AcDbLine
 10
51.86567
 20
287.277775
 11
58.36567
 21
287.277775
  0
LINE
  5
31C
100
AcDbEntity
  8
M0
100
AcDbLine
 10
58.86567
 20
286.777774
 11
58.86567
 21
280.277776
  0
LINE
  5
31D
100
AcDbEntity
  8
M0
100
AcDbLine
 10
58.36567
 20
307.977774
 11
51.86567
 21
307.977774
  0
ARC
  5
31E
100
AcDbEntity
  8
M0
100
AcDbCircle
 10
51.86567
 20
308.477774
 40
0.5
100
AcDbArc
 50
180.0
 51
270.0
  0
ARC
  5
31F
100
AcDbEntity
  8
M0
100
AcDbCircle
 10
74.76567
 20
311.177774
 40
0.5
100
AcDbArc
 50
90.0
 51
180.0
  0
ARC
  5
320
100
AcDbEntity
  8
M0
100
AcDbCircle
 10
74.76567
 20
304.677774
 40
0.5
100
AcDbArc
 50
180.0
 51
270.0
  0
LINE
  5
321
100
AcDbEntity
  8
M0
100
AcDbLine
 10
81.26567
 20
283.577775
 11
74.76567
 21
283.577775
  0
ARC
  5
322
100
AcDbEntity
  8
M0
100
AcDbCircle
 10
81.26567
 20
284.077774
 40
0.5
100
AcDbArc
 50
270.0
 51
360.0
  0
LINE
  5
323
100
AcDbEntity
  8
M0
100
AcDbLine
 10
68.61567
 20
285.427773
 11
68.61567
 21
283.627773
  0
LINE
  5
324
100
AcDbEntity
  8
M0
100
AcDbLine
 10
74.26567
 20
284.077773
 11
74.26567
 21
290.577774
  0
ARC
  5
325
100
AcDbEntity
  8
M0
100
AcDbCircle
 10
81.26567
 20
290.577774
 40
0.5
100
AcDbArc
 50
0.0
 51
90.0
  0
ARC
  5
326
100
AcDbEntity
  8
M0
100
AcDbCircle
 10
58.36567
 20
308.477774
 40
0.5
100
AcDbArc
 50
270.0
 51
360.0
  0
ARC
  5
327
100
AcDbEntity
  8
M0
100
AcDbCircle
 10
58.36567
 20
314.977774
 40
0.5
100
AcDbArc
 50
0.0
 51
90.0
  0
ARC
  5
328
100
AcDbEntity
  8
M0
100
AcDbCircle
 10
51.86567
 20
286.777774
 40
0.5
100
AcDbArc
 50
90.0
 51
180.0
  0
LINE
  5
329
100
AcDbEntity
  8
M0
100
AcDbLine
 10
81.765669
 20
290.577774
 11
81.765669
 21
284.077773
  0
LINE
  5
32A
100
AcDbEntity
  8
M0
100
AcDbLine
 10
74.76567
 20
291.077774
 11
81.265669
 21
291.077774
  0
ARC
  5
32B
100
AcDbEntity
  8
M0
100
AcDbCircle
 10
51.86567
 20
280.277774
 40
0.5
100
AcDbArc
 50
180.0
 51
270.0
  0
LINE
  5
32C
100
AcDbEntity
  8
M0
100
AcDbLine
 10
81.91567
 20
312.827774
 11
74.115669
 21
312.827774
  0
LINE
  5
32D
100
AcDbEntity
  8
M0
100
AcDbLine
 10
68.61567
 20
282.027775
 11
68.61567
 21
282.527773
  0
LINE
  5
32E
100
AcDbEntity
  8
M0
100
AcDbLine
 10
41.715669
 20
280.627774
 11
41.715669
 21
287.127774
  0
LINE
  5
32F
100
AcDbEntity
  8
M0
100
AcDbLine
 10
63.51567
 20
285.427773
 11
68.11567
 21
285.427773
  0
LINE
  5
330
100
AcDbEntity
  8
M0
100
AcDbLine
 10
68.11567
 20
281.527774
 11
63.51567
 21
281.527774
  0
LINE
  5
331
100
AcDbEntity
  8
M0
100
AcDbLine
 10
68.91567
 20
285.327773
 11
68.91567
 21
283.627773
  0
LINE
  5
332
100
AcDbEntity
  8
M0
100
AcDbLine
 10
68.61567
 20
284.927774
 11
68.61567
 21
282.527773
  0
LINE
  5
333
100
AcDbEntity
  8
M0
100
AcDbLine
 10
42.21567
 20
294.427775
 11
42.71567
 21
294.427775
  0
LINE
  5
334
100
AcDbEntity
  8
M0
100
AcDbLine
 10
89.71567
 20
314.627774
 11
89.71567
 21
280.627774
  0
LINE
  5
335
100
AcDbEntity
  8
M0
100
AcDbLine
 10
42.71567
 20
294.427775
 11
42.71567
 21
300.827774
  0
LINE
  5
336
100
AcDbEntity
  8
M0
100
AcDbLine
 10
68.91567
 20
281.127775
 11
63.01567
 21
281.127775
  0
LINE
  5
337
100
AcDbEntity
  8
M0
100
AcDbLine
 10
45.215669
 20
279.627776
 11
42.71567
 21
279.627776
  0
LINE
  5
338
100
AcDbEntity
  8
M0
100
AcDbLine
 10
41.715669
 20
280.627774
 11
41.715669
 21
314.627774
  0
LINE
  5
339
100
AcDbEntity
  8
M0
100
AcDbLine
 10
89.678627
 20
297.627775
 11
89.71567
 21
297.627775
  0
ARC
  5
33A
100
AcDbEntity
  8
M0
100
AcDbCircle
 10
50.21567
 20
280.627774
 40
1.0
100
AcDbArc
 50
270.0
 51
360.0
  0
ARC
  5
33B
100
AcDbEntity
  8
M0
100
AcDbCircle
 10
42.71567
 20
280.627774
 40
1.0
100
AcDbArc
 50
180.0
 51
270.0
  0
ARC
  5
33C
100
AcDbEntity
  8
M0
100
AcDbCircle
 10
62.01567
 20
280.627774
 40
1.0
100
AcDbArc
 50
270.0
 51
360.0
  0
ARC
  5
33D
100
AcDbEntity
  8
M0
100
AcDbCircle
 10
88.71567
 20
280.627774
 40
1.0
100
AcDbArc
 50
270.0
 51
360.0
  0
ARC
  5
33E
100
AcDbEntity
  8
M0
100
AcDbCircle
 10
58.581692
 20
299.870877
 40
2.326127
100
AcDbArc
 50
66.454301
 51
109.456969
  0
ARC
  5
33F
100
AcDbEntity
  8
M0
100
AcDbCircle
 10
60.01567
 20
280.627774
 40
1.0
100
AcDbArc
 50
180.0
 51
270.0
  0
ARC
  5
340
100
AcDbEntity
  8
M0
100
AcDbCircle
 10
42.21567
 20
293.927774
 40
0.5
100
AcDbArc
 50
90.0
 51
180.0
  0
ARC
  5
341
100
AcDbEntity
  8
M0
100
AcDbCircle
 10
85.21567
 20
293.127774
 40
0.5
100
AcDbArc
 50
180.0
 51
270.0
  0
ARC
  5
342
100
AcDbEntity
  8
M0
100
AcDbCircle
 10
84.21567
 20
280.627774
 40
1.0
100
AcDbArc
 50
270.0
 51
360.0
  0
ARC
  5
343
100
AcDbEntity
  8
M0
100
AcDbCircle
 10
88.71567
 20
291.627774
 40
1.0
100
AcDbArc
 50
0.0
 51
90.0
  0
ARC
  5
344
100
AcDbEntity
  8
M0
100
AcDbCircle
 10
73.11567
 20
280.627774
 40
1.0
100
AcDbArc
 50
270.0
 51
360.0
  0
ARC
  5
345
100
AcDbEntity
  8
M0
100
AcDbCircle
 10
69.91567
 20
280.627774
 40
1.0
100
AcDbArc
 50
180.0
 51
270.0
  0
ARC
  5
346
100
AcDbEntity
  8
M0
100
AcDbCircle
 10
88.71567
 20
291.427774
 40
1.0
100
AcDbArc
 50
270.0
 51
360.0
  0
ARC
  5
347
100
AcDbEntity
  8
M0
100
AcDbCircle
 10
82.91567
 20
280.627774
 40
1.0
100
AcDbArc
 50
180.0
 51
270.0
  0
ARC
  5
348
100
AcDbEntity
  8
M0
100
AcDbCircle
 10
81.26567
 20
304.677774
 40
0.5
100
AcDbArc
 50
270.0
 51
360.0
  0
LINE
  5
349
100
AcDbEntity
  8
M0
100
AcDbLine
 10
89.178628
 20
292.827774
 11
84.815669
 21
292.827774
  0
ARC
  5
34A
100
AcDbEntity
  8
M0
100
AcDbCircle
 10
88.71567
 20
314.627774
 40
1.0
100
AcDbArc
 50
0.0
 51
90.0
  0
LINE
  5
34B
100
AcDbEntity
  8
M0
100
AcDbLine
 10
87.71567
 20
290.427774
 11
88.71567
 21
290.427774
  0
LINE
  5
34C
100
AcDbEntity
  8
M0
100
AcDbLine
 10
89.71567
 20
291.627774
 11
89.71567
 21
291.427774
  0
ARC
  5
34D
100
AcDbEntity
  8
M0
100
AcDbCircle
 10
81.26567
 20
311.177774
 40
0.5
100
AcDbArc
 50
0.0
 51
90.0
  0
LINE
  5
34E
100
AcDbEntity
  8
M0
100
AcDbLine
 10
87.71567
 20
292.627774
 11
88.71567
 21
292.627774
  0
ARC
  5
34F
100
AcDbEntity
  8
M0
100
AcDbCircle
 10
73.11567
 20
314.627774
 40
1.0
100
AcDbArc
 50
0.0
 51
90.0
  0
ARC
  5
350
100
AcDbEntity
  8
M0
100
AcDbCircle
 10
60.01567
 20
314.627774
 40
1.0
100
AcDbArc
 50
90.0
 51
180.0
  0
LINE
  5
351
100
AcDbEntity
  8
M0
100
AcDbLine
 10
74.26567
 20
304.677774
 11
74.26567
 21
311.177774
  0
ARC
  5
352
100
AcDbEntity
  8
M0
100
AcDbCircle
 10
42.71567
 20
314.627774
 40
1.0
100
AcDbArc
 50
90.0
 51
180.0
  0
ARC
  5
353
100
AcDbEntity
  8
M0
100
AcDbCircle
 10
42.21567
 20
301.327774
 40
0.5
100
AcDbArc
 50
180.0
 51
270.0
  0
ARC
  5
354
100
AcDbEntity
  8
M0
100
AcDbCircle
 10
82.91567
 20
314.627774
 40
1.0
100
AcDbArc
 50
90.0
 51
180.0
  0
ARC
  5
355
100
AcDbEntity
  8
M0
100
AcDbCircle
 10
50.21567
 20
314.627774
 40
1.0
100
AcDbArc
 50
0.0
 51
90.0
  0
LINE
  5
356
100
AcDbEntity
  8
M0
100
AcDbLine
 10
63.01567
 20
285.527775
 11
63.01567
 21
280.627774
  0
LINE
  5
357
100
AcDbEntity
  8
M0
100
AcDbLine
 10
59.01567
 20
280.627774
 11
59.01567
 21
287.627773
  0
LINE
  5
358
100
AcDbEntity
  8
M0
100
AcDbLine
 10
68.91567
 20
280.627774
 11
68.91567
 21
285.527775
  0
LINE
  5
359
100
AcDbEntity
  8
M0
100
AcDbLine
 10
51.21567
 20
287.627773
 11
51.21567
 21
280.627774
  0
LINE
  5
35A
100
AcDbEntity
  8
M0
100
AcDbLine
 10
88.71567
 20
279.627776
 11
42.71567
 21
279.627776
  0
LINE
  5
35B
100
AcDbEntity
  8
M0
100
AcDbLine
 10
68.91567
 20
285.527775
 11
63.01567
 21
285.527775
  0
LINE
  5
35C
100
AcDbEntity
  8
M0
100
AcDbLine
 10
59.01567
 20
287.627773
 11
51.21567
 21
287.627773
  0
LINE
  5
35D
100
AcDbEntity
  8
M0
100
AcDbLine
 10
85.21567
 20
290.427774
 11
85.21567
 21
280.627774
  0
LINE
  5
35E
100
AcDbEntity
  8
M0
100
AcDbLine
 10
84.715669
 20
302.127774
 11
84.715669
 21
293.127773
  0
LINE
  5
35F
100
AcDbEntity
  8
M0
100
AcDbLine
 10
87.71567
 20
290.427774
 11
85.21567
 21
290.427774
  0
LINE
  5
360
100
AcDbEntity
  8
M0
100
AcDbLine
 10
81.91567
 20
291.427774
 11
74.115669
 21
291.427774
  0
LINE
  5
361
100
AcDbEntity
  8
M0
100
AcDbLine
 10
74.115669
 20
291.427774
 11
74.115669
 21
280.627774
  0
LINE
  5
362
100
AcDbEntity
  8
M0
100
AcDbLine
 10
85.21567
 20
292.627774
 11
87.71567
 21
292.627774
  0
LINE
  5
363
100
AcDbEntity
  8
M0
100
AcDbLine
 10
81.91567
 20
280.627774
 11
81.91567
 21
291.427774
  0
LINE
  5
364
100
AcDbEntity
  8
M0
100
AcDbLine
 10
45.21567
 20
306.127775
 11
72.21567
 21
306.127775
  0
LINE
  5
365
100
AcDbEntity
  8
M0
100
AcDbLine
 10
44.71567
 20
305.627775
 11
44.71567
 21
289.627775
  0
LINE
  5
366
100
AcDbEntity
  8
M0
100
AcDbLine
 10
45.21567
 20
289.127775
 11
72.21567
 21
289.127775
  0
LINE
  5
367
100
AcDbEntity
  8
M0
100
AcDbLine
 10
82.71567
 20
293.627775
 11
82.71567
 21
301.627775
  0
LINE
  5
368
100
AcDbEntity
  8
M0
100
AcDbLine
 10
82.21567
 20
293.127775
 11
73.21567
 21
293.127775
  0
LINE
  5
369
100
AcDbEntity
  8
M0
100
AcDbLine
 10
82.21567
 20
302.127775
 11
73.21567
 21
302.127775
  0
LINE
  5
36A
100
AcDbEntity
  8
M0
100
AcDbLine
 10
72.71567
 20
289.627775
 11
72.71567
 21
292.627775
  0
LINE
  5
36B
100
AcDbEntity
  8
M0
100
AcDbLine
 10
72.71567
 20
302.627775
 11
72.71567
 21
305.627775
  0
ARC
  5
36C
100
AcDbEntity
  8
M0
100
AcDbCircle
 10
45.21567
 20
305.627775
 40
0.5
100
AcDbArc
 50
90.0
 51
180.0
  0
ARC
  5
36D
100
AcDbEntity
  8
M0
100
AcDbCircle
 10
72.21567
 20
305.627775
 40
0.5
100
AcDbArc
 50
0.0
 51
90.0
  0
ARC
  5
36E
100
AcDbEntity
  8
M0
100
AcDbCircle
 10
73.21567
 20
302.627775
 40
0.5
100
AcDbArc
 50
180.0
 51
270.0
  0
ARC
  5
36F
100
AcDbEntity
  8
M0
100
AcDbCircle
 10
82.21567
 20
301.627775
 40
0.5
100
AcDbArc
 50
0.0
 51
90.0
  0
ARC
  5
370
100
AcDbEntity
  8
M0
100
AcDbCircle
 10
82.21567
 20
293.627775
 40
0.5
100
AcDbArc
 50
270.0
 51
360.0
  0
ARC
  5
371
100
AcDbEntity
  8
M0
100
AcDbCircle
 10
73.21567
 20
292.627775
 40
0.5
100
AcDbArc
 50
90.0
 51
180.0
  0
ARC
  5
372
100
AcDbEntity
  8
M0
100
AcDbCircle
 10
72.21567
 20
289.627775
 40
0.5
100
AcDbArc
 50
270.0
 51
360.0
  0
ARC
  5
373
100
AcDbEntity
  8
M0
100
AcDbCircle
 10
45.21567
 20
289.627775
 40
0.5
100
AcDbArc
 50
180.0
 51
270.0
  0
HATCH
  5
374
100
AcDbEntity
  8
M0
 62
     7
100
AcDbHatch
 10
0.0
 20
0.0
210
0.0
220
0.0
230
1.0
  2
SOLID
 70
     1
 71
     0
 91
        1
 92
        1
 93
       20
 72
     2
 10
58.581692
 20
301.726241
 40
2.436895
 50
252.447306
 51
292.422669
 73
     1
 72
     2
 10
59.173204
 20
300.292733
 40
0.886144
 50
292.422669
 51
346.150662
 73
     1
 72
     2
 10
58.581692
 20
300.438563
 40
1.495367
 50
346.150662
 51
356.81526
 73
     1
 72
     1
 10
60.07475
 20
300.355487
 11
59.301684
 21
300.355487
 72
     2
 10
58.581692
 20
300.355487
 40
0.719992
 50
0.0
 51
25.643738
 73
     0
 72
     2
 10
58.756442
 20
300.271597
 40
0.526148
 50
25.643738
 51
72.512342
 73
     0
 72
     2
 10
58.581692
 20
300.826251
 40
1.10768
 50
72.512342
 51
111.534322
 73
     0
 72
     2
 10
58.413976
 20
300.401227
 40
0.650762
 50
111.534322
 51
163.518484
 73
     0
 72
     2
 10
59.476143
 20
300.715482
 40
1.758441
 50
163.518484
 51
199.911347
 73
     0
 72
     2
 10
58.434679
 20
301.09272
 40
0.650762
 50
199.911347
 51
251.231339
 73
     0
 72
     2
 10
58.581692
 20
300.660098
 40
1.10768
 50
251.231339
 51
287.055921
 73
     0
 72
     2
 10
58.752258
 20
301.216054
 40
0.526148
 50
287.055921
 51
341.370551
 73
     0
 72
     2
 10
58.581692
 20
301.158554
 40
0.706146
 50
341.370551
 51
357.752539
 73
     0
 72
     1
 10
59.287294
 20
301.186246
 11
60.057962
 21
301.186246
 72
     2
 10
58.581692
 20
301.061632
 40
1.481521
 50
4.824977
 51
11.570993
 73
     1
 72
     2
 10
59.151405
 20
301.178277
 40
0.89999
 50
11.570993
 51
66.454336
 73
     1
 72
     2
 10
58.581692
 20
299.870877
 40
2.326127
 50
66.454336
 51
109.456965
 73
     1
 72
     2
 10
58.221949
 20
300.889189
 40
1.246139
 50
109.456965
 51
161.721239
 73
     1
 72
     2
 10
58.747843
 20
300.715482
 40
1.799979
 50
161.721239
 51
190.751611
 73
     1
 72
     2
 10
58.230931
 20
300.617328
 40
1.273831
 50
190.751611
 51
252.447306
 73
     1
 97
        0
 75
     0
 76
     1
 98
        1
 10
0.0
 20
0.0
  0
HATCH
  5
375
100
AcDbEntity
  8
M0
 62
     7
100
AcDbHatch
 10
0.0
 20
0.0
210
0.0
220
0.0
230
1.0
  2
SOLID
 70
     1
 71
     0
 91
        1
 92
        1
 93
        4
 72
     1
 10
64.71547
 20
299.358575
 11
64.71547
 21
302.127775
 72
     1
 10
64.71547
 20
302.127775
 11
63.981631
 21
302.127775
 72
     1
 10
63.981631
 20
302.127775
 11
63.981631
 21
299.358575
 72
     1
 10
63.981631
 20
299.358575
 11
64.71547
 21
299.358575
 97
        0
 75
     0
 76
     1
 98
        1
 10
0.0
 20
0.0
  0
HATCH
  5
376
100
AcDbEntity
  8
M0
 62
     7
100
AcDbHatch
 10
0.0
 20
0.0
210
0.0
220
0.0
230
1.0
  2
SOLID
 70
     1
 71
     0
 91
        1
 92
        1
 93
        8
 72
     1
 10
53.098675
 20
299.358575
 11
53.098675
 21
301.657011
 72
     1
 10
53.098675
 20
301.657011
 11
54.220201
 21
301.657011
 72
     1
 10
54.220201
 20
301.657011
 11
54.220201
 21
302.127775
 72
     1
 10
54.220201
 20
302.127775
 11
51.243311
 21
302.127775
 72
     1
 10
51.243311
 20
302.127775
 11
51.243311
 21
301.657011
 72
     1
 10
51.243311
 20
301.657011
 11
52.364837
 21
301.657011
 72
     1
 10
52.364837
 20
301.657011
 11
52.364837
 21
299.358575
 72
     1
 10
52.364837
 20
299.358575
 11
53.098675
 21
299.358575
 97
        0
 75
     0
 76
     1
 98
        1
 10
0.0
 20
0.0
  0
LINE
  5
377
100
AcDbEntity
  8
M0
  6
DIVIDE
 62
     7
100
AcDbLine
 10
264.851429
 20
311.127774
 11
258.351429
 21
311.127774
  0
LINE
  5
378
100
AcDbEntity
  8
M0
  6
DIVIDE
 62
     7
100
AcDbLine
 10
264.851429
 20
284.127774
 11
258.351429
 21
284.127774
  0
LINE
  5
379
100
AcDbEntity
  8
M0
  6
DIVIDE
 62
     7
100
AcDbLine
 10
263.851429
 20
310.127774
 11
257.351429
 21
310.127774
  0
LINE
  5
37A
100
AcDbEntity
  8
M0
  6
DIVIDE
 62
     7
100
AcDbLine
 10
258.351429
 20
284.127774
 11
258.351429
 21
280.127774
  0
LINE
  5
37B
100
AcDbEntity
  8
M0
  6
DIVIDE
 62
     7
100
AcDbLine
 10
263.851429
 20
285.127774
 11
257.351429
 21
285.127774
  0
LINE
  5
37C
100
AcDbEntity
  8
M0
  6
DIVIDE
 62
     7
100
AcDbLine
 10
257.351429
 20
285.127774
 11
257.351429
 21
280.127774
  0
LINE
  5
37D
100
AcDbEntity
  8
M0
  6
DIVIDE
 62
     7
100
AcDbLine
 10
258.351429
 20
315.127774
 11
257.351429
 21
315.127774
  0
LINE
  5
37E
100
AcDbEntity
  8
M0
  6
DIVIDE
 62
     7
100
AcDbLine
 10
264.851429
 20
284.127774
 11
264.851429
 21
311.127774
  0
LINE
  5
37F
100
AcDbEntity
  8
M0
  6
DIVIDE
 62
     7
100
AcDbLine
 10
257.351429
 20
315.127774
 11
257.351429
 21
310.127774
  0
LINE
  5
380
100
AcDbEntity
  8
M0
  6
DIVIDE
 62
     7
100
AcDbLine
 10
258.351429
 20
315.127774
 11
258.351429
 21
311.127774
  0
LINE
  5
381
100
AcDbEntity
  8
M0
  6
DIVIDE
 62
     7
100
AcDbLine
 10
257.351429
 20
280.127774
 11
258.351429
 21
280.127774
  0
LINE
  5
382
100
AcDbEntity
  8
M0
  6
DIVIDE
 62
     7
100
AcDbLine
 10
263.851429
 20
310.127774
 11
263.851429
 21
285.127774
  0
HATCH
  5
383
100
AcDbEntity
  8
M0
 62
     7
100
AcDbHatch
 10
0.0
 20
0.0
210
0.0
220
0.0
230
1.0
  2
SOLID
 70
     1
 71
     0
 91
        1
 92
        1
 93
       12
 72
     1
 10
61.184739
 20
299.358575
 11
61.184739
 21
300.577023
 72
     1
 10
61.184739
 20
300.577023
 11
62.666261
 21
300.577023
 72
     1
 10
62.666261
 20
300.577023
 11
62.666261
 21
299.358575
 72
     1
 10
62.666261
 20
299.358575
 11
63.400099
 21
299.358575
 72
     1
 10
63.400099
 20
299.358575
 11
63.400099
 21
302.127775
 72
     1
 10
63.400099
 20
302.127775
 11
62.666261
 21
302.127775
 72
     1
 10
62.666261
 20
302.127775
 11
62.666261
 21
301.020095
 72
     1
 10
62.666261
 20
301.020095
 11
61.184739
 21
301.020095
 72
     1
 10
61.184739
 20
301.020095
 11
61.184739
 21
302.127775
 72
     1
 10
61.184739
 20
302.127775
 11
60.450901
 21
302.127775
 72
     1
 10
60.450901
 20
302.127775
 11
60.450901
 21
299.358575
 72
     1
 10
60.450901
 20
299.358575
 11
61.184739
 21
299.358575
 97
        0
 75
     0
 76
     1
 98
        1
 10
0.0
 20
0.0
  0
HATCH
  5
384
100
AcDbEntity
  8
M0
 62
     7
100
AcDbHatch
 10
0.0
 20
0.0
210
0.0
220
0.0
230
1.0
  2
SOLID
 70
     1
 71
     0
 91
        2
 92
        1
 93
        8
 72
     1
 10
54.640502
 20
299.953953
 11
56.01526
 21
299.953953
 72
     1
 10
56.01526
 20
299.953953
 11
56.255563
 21
299.358575
 72
     1
 10
56.255563
 20
299.358575
 11
57.072477
 21
299.358575
 72
     1
 10
57.072477
 20
299.358575
 11
55.777876
 21
302.127775
 72
     1
 10
55.777876
 20
302.127775
 11
54.877886
 21
302.127775
 72
     1
 10
54.877886
 20
302.127775
 11
53.583285
 21
299.358575
 72
     1
 10
53.583285
 20
299.358575
 11
54.400199
 21
299.358575
 72
     1
 10
54.400199
 20
299.358575
 11
54.640502
 21
299.953953
 97
        0
 92
       16
 93
        3
 72
     1
 10
55.327881
 20
301.657011
 11
54.819332
 21
300.397025
 72
     1
 10
54.819332
 20
300.397025
 11
55.83643
 21
300.397025
 72
     1
 10
55.83643
 20
300.397025
 11
55.327881
 21
301.657011
 97
        0
 75
     0
 76
     1
 98
        1
 10
0.0
 20
0.0
  0
LINE
  5
385
100
AcDbEntity
  8
M0
  6
DASHED
100
AcDbLine
 10
138.15143
 20
288.752775
 11
138.15143
 21
285.902775
  0
LINE
  5
386
100
AcDbEntity
  8
M0
  6
DASHED
100
AcDbLine
 10
138.15143
 20
313.152774
 11
138.15143
 21
310.302774
  0
LINE
  5
387
100
AcDbEntity
  8
M0
100
AcDbLine
 10
137.751429
 20
302.417672
 11
137.751429
 21
302.627773
  0
LINE
  5
388
100
AcDbEntity
  8
M0
100
AcDbLine
 10
134.05143
 20
298.677773
 11
133.551429
 21
298.677773
  0
LINE
  5
389
100
AcDbEntity
  8
M0
100
AcDbLine
 10
132.05143
 20
280.627774
 11
132.05143
 21
314.627773
  0
LINE
  5
38A
100
AcDbEntity
  8
M0
100
AcDbLine
 10
134.221609
 20
302.627773
 11
134.221609
 21
302.303562
  0
LINE
  5
38B
100
AcDbEntity
  8
M0
100
AcDbLine
 10
183.051429
 20
314.627773
 11
183.051429
 21
315.627774
  0
LINE
  5
38C
100
AcDbEntity
  8
M0
100
AcDbLine
 10
183.051429
 20
315.627774
 11
184.051429
 21
315.627774
  0
LINE
  5
38D
100
AcDbEntity
  8
M0
100
AcDbLine
 10
183.051429
 20
310.727773
 11
183.051429
 21
314.627773
  0
LINE
  5
38E
100
AcDbEntity
  8
M0
100
AcDbLine
 10
185.051429
 20
312.127773
 11
184.051429
 21
315.627774
  0
LINE
  5
38F
100
AcDbEntity
  8
M0
100
AcDbLine
 10
180.754155
 20
301.627773
 11
180.754155
 21
297.627774
  0
LINE
  5
390
100
AcDbEntity
  8
M0
100
AcDbLine
 10
183.49517
 20
310.727773
 11
184.051429
 21
310.727773
  0
LINE
  5
391
100
AcDbEntity
  8
M0
100
AcDbLine
 10
179.051429
 20
315.627774
 11
179.747082
 21
315.627774
  0
LINE
  5
392
100
AcDbEntity
  8
M0
100
AcDbLine
 10
185.051429
 20
301.627773
 11
180.754155
 21
301.627773
  0
LINE
  5
393
100
AcDbEntity
  8
M0
100
AcDbLine
 10
180.751429
 20
314.88596
 11
180.751429
 21
310.727773
  0
LINE
  5
394
100
AcDbEntity
  8
M0
100
AcDbLine
 10
183.801429
 20
310.727773
 11
180.751429
 21
310.727773
  0
LINE
  5
395
100
AcDbEntity
  8
M0
100
AcDbLine
 10
180.751429
 20
310.727773
 11
183.49517
 21
310.727773
  0
LINE
  5
396
100
AcDbEntity
  8
M0
100
AcDbLine
 10
180.551429
 20
314.627773
 11
180.551429
 21
280.627774
  0
LINE
  5
397
100
AcDbEntity
  8
M0
100
AcDbLine
 10
135.051428
 20
302.427774
 11
134.551427
 21
302.427774
  0
LINE
  5
398
100
AcDbEntity
  8
M0
100
AcDbLine
 10
134.05143
 20
293.327774
 11
134.05143
 21
301.927773
  0
LINE
  5
399
100
AcDbEntity
  8
M0
100
AcDbLine
 10
183.701429
 20
297.627774
 11
183.701429
 21
301.627773
  0
LINE
  5
39A
100
AcDbEntity
  8
M0
100
AcDbLine
 10
134.551427
 20
292.827773
 11
135.051428
 21
292.827773
  0
ARC
  5
39B
100
AcDbEntity
  8
M0
100
AcDbCircle
 10
134.551429
 20
293.327774
 40
0.5
100
AcDbArc
 50
180.0
 51
270.0
  0
ARC
  5
39C
100
AcDbEntity
  8
M0
100
AcDbCircle
 10
134.551429
 20
301.927774
 40
0.5
100
AcDbArc
 50
90.0
 51
180.0
  0
LINE
  5
39D
100
AcDbEntity
  8
M0
100
AcDbLine
 10
137.651428
 20
292.827773
 11
135.051428
 21
292.827773
  0
ARC
  5
39E
100
AcDbEntity
  8
M0
100
AcDbCircle
 10
180.251429
 20
314.88596
 40
0.5
100
AcDbArc
 50
0.0
 51
44.92732
  0
ARC
  5
39F
100
AcDbEntity
  8
M0
100
AcDbCircle
 10
139.151429
 20
314.627774
 40
1.0
100
AcDbArc
 50
90.0
 51
180.0
  0
ARC
  5
3A0
100
AcDbEntity
  8
M0
100
AcDbCircle
 10
180.051429
 20
315.127774
 40
0.5
100
AcDbArc
 50
0.0
 51
90.0
  0
ARC
  5
3A1
100
AcDbEntity
  8
M0
100
AcDbCircle
 10
133.051429
 20
303.827774
 40
1.0
100
AcDbArc
 50
90.0
 51
180.0
  0
LINE
  5
3A2
100
AcDbEntity
  8
M0
100
AcDbLine
 10
183.701429
 20
293.627774
 11
183.701429
 21
297.627774
  0
LINE
  5
3A3
100
AcDbEntity
  8
M0
100
AcDbLine
 10
180.603188
 20
315.235709
 11
180.512079
 21
315.321562
  0
ARC
  5
3A4
100
AcDbEntity
  8
M0
100
AcDbCircle
 10
184.051429
 20
309.727774
 40
1.0
100
AcDbArc
 50
0.0
 51
90.0
  0
ARC
  5
3A5
100
AcDbEntity
  8
M0
100
AcDbCircle
 10
133.051429
 20
314.627774
 40
1.0
100
AcDbArc
 50
90.0
 51
180.0
  0
LINE
  5
3A6
100
AcDbEntity
  8
M0
100
AcDbLine
 10
133.551429
 20
302.627773
 11
133.551429
 21
292.627773
  0
LINE
  5
3A7
100
AcDbEntity
  8
M0
100
AcDbLine
 10
180.751429
 20
284.527774
 11
180.751429
 21
280.627773
  0
LINE
  5
3A8
100
AcDbEntity
  8
M0
100
AcDbLine
 10
183.49517
 20
284.527774
 11
180.751429
 21
284.527774
  0
LINE
  5
3A9
100
AcDbEntity
  8
M0
100
AcDbLine
 10
139.151431
 20
279.627775
 11
133.051428
 21
279.627775
  0
LINE
  5
3AA
100
AcDbEntity
  8
M0
100
AcDbLine
 10
137.751429
 20
292.837876
 11
137.751429
 21
292.627773
  0
LINE
  5
3AB
100
AcDbEntity
  8
M0
100
AcDbLine
 10
133.551429
 20
298.627773
 11
134.05143
 21
298.627773
  0
LINE
  5
3AC
100
AcDbEntity
  8
M0
100
AcDbLine
 10
139.651428
 20
279.627775
 11
133.051428
 21
279.627775
  0
LINE
  5
3AD
100
AcDbEntity
  8
M0
100
AcDbLine
 10
134.221609
 20
292.627773
 11
134.221609
 21
292.951984
  0
LINE
  5
3AE
100
AcDbEntity
  8
M0
100
AcDbLine
 10
138.151429
 20
280.627773
 11
138.151429
 21
290.427773
  0
LINE
  5
3AF
100
AcDbEntity
  8
M0
100
AcDbLine
 10
138.151429
 20
292.627773
 11
138.151429
 21
302.627773
  0
LINE
  5
3B0
100
AcDbEntity
  8
M0
100
AcDbLine
 10
133.051429
 20
292.627773
 11
138.151429
 21
292.627773
  0
LINE
  5
3B1
100
AcDbEntity
  8
M0
100
AcDbLine
 10
138.151429
 20
290.427773
 11
133.051429
 21
290.427773
  0
LINE
  5
3B2
100
AcDbEntity
  8
M0
100
AcDbLine
 10
184.051429
 20
284.527774
 11
183.49517
 21
284.527774
  0
LINE
  5
3B3
100
AcDbEntity
  8
M0
100
AcDbLine
 10
185.051429
 20
312.127773
 11
185.051429
 21
285.527774
  0
LINE
  5
3B4
100
AcDbEntity
  8
M0
100
AcDbLine
 10
180.751429
 20
297.627774
 11
180.751429
 21
293.627774
  0
LINE
  5
3B5
100
AcDbEntity
  8
M0
100
AcDbLine
 10
185.051429
 20
293.627774
 11
180.751429
 21
293.627774
  0
LINE
  5
3B6
100
AcDbEntity
  8
M0
100
AcDbLine
 10
135.051428
 20
302.427774
 11
137.651428
 21
302.427774
  0
ARC
  5
3B7
100
AcDbEntity
  8
M0
100
AcDbCircle
 10
133.051429
 20
280.627774
 40
1.0
100
AcDbArc
 50
180.0
 51
270.0
  0
ARC
  5
3B8
100
AcDbEntity
  8
M0
100
AcDbCircle
 10
133.051429
 20
303.627774
 40
1.0
100
AcDbArc
 50
180.0
 51
270.0
  0
ARC
  5
3B9
100
AcDbEntity
  8
M0
100
AcDbCircle
 10
184.051429
 20
285.527774
 40
1.0
100
AcDbArc
 50
270.0
 51
360.0
  0
ARC
  5
3BA
100
AcDbEntity
  8
M0
100
AcDbCircle
 10
179.751435
 20
280.627768
 40
0.999994
100
AcDbArc
 50
270.0
 51
360.0
  0
LINE
  5
3BB
100
AcDbEntity
  8
M0
100
AcDbLine
 10
180.551429
 20
314.627773
 11
180.551429
 21
315.127773
  0
LINE
  5
3BC
100
AcDbEntity
  8
M0
100
AcDbLine
 10
133.051429
 20
315.627774
 11
180.051429
 21
315.627774
  0
LINE
  5
3BD
100
AcDbEntity
  8
M0
100
AcDbLine
 10
133.051428
 20
304.827773
 11
138.151429
 21
304.827773
  0
LINE
  5
3BE
100
AcDbEntity
  8
M0
100
AcDbLine
 10
138.151429
 20
304.827773
 11
138.151429
 21
314.627773
  0
ARC
  5
3BF
100
AcDbEntity
  8
M0
100
AcDbCircle
 10
137.651429
 20
301.927774
 40
0.5
100
AcDbArc
 50
0.0
 51
90.0
  0
ARC
  5
3C0
100
AcDbEntity
  8
M0
100
AcDbCircle
 10
137.651429
 20
293.327774
 40
0.5
100
AcDbArc
 50
270.0
 51
360.0
  0
LINE
  5
3C1
100
AcDbEntity
  8
M0
100
AcDbLine
 10
179.551429
 20
279.627775
 11
133.051428
 21
279.627775
  0
LINE
  5
3C2
100
AcDbEntity
  8
M0
100
AcDbLine
 10
138.151429
 20
302.627773
 11
133.051428
 21
302.627773
  0
ARC
  5
3C3
100
AcDbEntity
  8
M0
100
AcDbCircle
 10
139.151429
 20
280.627774
 40
1.0
100
AcDbArc
 50
180.0
 51
270.0
  0
ARC
  5
3C4
100
AcDbEntity
  8
M0
100
AcDbCircle
 10
179.551429
 20
280.627774
 40
1.0
100
AcDbArc
 50
270.0
 51
360.0
  0
ARC
  5
3C5
100
AcDbEntity
  8
M0
100
AcDbCircle
 10
133.051429
 20
291.627774
 40
1.0
100
AcDbArc
 50
90.0
 51
180.0
  0
ARC
  5
3C6
100
AcDbEntity
  8
M0
100
AcDbCircle
 10
133.051429
 20
291.427774
 40
1.0
100
AcDbArc
 50
180.0
 51
270.0
  0
LINE
  5
3C7
100
AcDbEntity
  8
M0
100
AcDbLine
 10
139.851428
 20
279.627775
 11
133.051428
 21
279.627775
  0
LINE
  5
3C8
100
AcDbEntity
  8
M0
 62
     7
100
AcDbLine
 10
127.05143
 20
314.627773
 11
127.05143
 21
280.627774
  0
LINE
  5
3C9
100
AcDbEntity
  8
M0
 62
     7
100
AcDbLine
 10
251.351429
 20
333.327774
 11
261.053936
 21
333.327774
  0
LINE
  5
3CA
100
AcDbEntity
  8
M0
 62
     7
100
AcDbLine
 10
258.351429
 20
313.927774
 11
259.351429
 21
312.927774
  0
LINE
  5
3CB
100
AcDbEntity
  8
M0
 62
     7
100
AcDbLine
 10
258.351429
 20
315.427774
 11
258.351429
 21
313.927774
  0
LINE
  5
3CC
100
AcDbEntity
  8
M0
 62
     7
100
AcDbLine
 10
261.551429
 20
332.877774
 11
261.551429
 21
313.427774
  0
LINE
  5
3CD
100
AcDbEntity
  8
M0
 62
     7
100
AcDbLine
 10
257.651429
 20
311.927774
 11
257.651429
 21
309.927774
  0
LINE
  5
3CE
100
AcDbEntity
  8
M0
 62
     7
100
AcDbLine
 10
257.351429
 20
309.427774
 11
257.651429
 21
309.927774
  0
LINE
  5
3CF
100
AcDbEntity
  8
M0
 62
     7
100
AcDbLine
 10
257.651429
 20
311.927774
 11
257.351429
 21
311.927774
  0
LINE
  5
3D0
100
AcDbEntity
  8
M0
 62
     7
100
AcDbLine
 10
237.351429
 20
336.613561
 11
237.351429
 21
316.727774
  0
LINE
  5
3D1
100
AcDbEntity
  8
M0
 62
     7
100
AcDbLine
 10
234.144322
 20
340.234881
 11
237.058536
 21
337.320667
  0
LINE
  5
3D2
100
AcDbEntity
  8
M0
 62
     7
100
AcDbLine
 10
261.551429
 20
279.327774
 11
261.551429
 21
263.327774
  0
LINE
  5
3D3
100
AcDbEntity
  8
M0
 62
     7
100
AcDbLine
 10
221.251429
 20
310.627774
 11
221.251429
 21
328.527774
  0
LINE
  5
3D4
100
AcDbEntity
  8
M0
 62
     7
100
AcDbLine
 10
229.00518
 20
342.027774
 11
229.151429
 21
342.027774
  0
LINE
  5
3D5
100
AcDbEntity
  8
M0
 62
     7
100
AcDbLine
 10
214.751429
 20
332.127774
 11
220.351429
 21
332.127774
  0
LINE
  5
3D6
100
AcDbEntity
  8
M0
 62
     7
100
AcDbLine
 10
221.251429
 20
328.527774
 11
220.351429
 21
328.527774
  0
LINE
  5
3D7
100
AcDbEntity
  8
M0
 62
     7
100
AcDbLine
 10
220.351429
 20
328.527774
 11
220.351429
 21
332.127774
  0
LINE
  5
3D8
100
AcDbEntity
  8
M0
 62
     7
100
AcDbLine
 10
230.151429
 20
341.027774
 11
230.151429
 21
340.527774
  0
LINE
  5
3D9
100
AcDbEntity
  8
M0
 62
     7
100
AcDbLine
 10
259.351429
 20
312.927774
 11
261.051429
 21
312.927774
  0
LINE
  5
3DA
100
AcDbEntity
  8
M0
 62
     7
100
AcDbLine
 10
230.151429
 20
340.527774
 11
233.437216
 21
340.527774
  0
LINE
  5
3DB
100
AcDbEntity
  8
M0
 62
     7
100
AcDbLine
 10
214.151429
 20
332.127774
 11
214.151429
 21
339.027774
  0
LINE
  5
3DC
100
AcDbEntity
  8
M0
 62
     7
100
AcDbLine
 10
214.751429
 20
332.127774
 11
214.151429
 21
332.127774
  0
ELLIPSE
  5
3DD
100
AcDbEntity
  8
M0
 62
     7
100
AcDbEllipse
 10
231.080841
 20
315.727774
 11
1.929412
 21
0.0
210
0.0
220
0.0
230
1.0
 40
0.518293
 41
1.570796326794897
 42
3.141592653589793
  0
ARC
  5
3DE
100
AcDbEntity
  8
M0
 62
     7
100
AcDbCircle
 10
233.437216
 20
339.527774
 40
1.0
100
AcDbArc
 50
45.0
 51
90.0
  0
ARC
  5
3DF
100
AcDbEntity
  8
M0
 62
     7
100
AcDbCircle
 10
236.351429
 20
336.613561
 40
1.0
100
AcDbArc
 50
0.0
 51
45.0
  0
ARC
  5
3E0
100
AcDbEntity
  8
M0
 62
     7
100
AcDbCircle
 10
261.051429
 20
313.427774
 40
0.5
100
AcDbArc
 50
270.0
 51
360.0
  0
LINE
  5
3E1
100
AcDbEntity
  8
M0
 62
     7
100
AcDbLine
 10
226.651429
 20
312.727774
 11
226.651429
 21
319.527774
  0
LINE
  5
3E2
100
AcDbEntity
  8
M0
 62
     7
100
AcDbLine
 10
226.651429
 20
312.727774
 11
234.051429
 21
312.727774
  0
LINE
  5
3E3
100
AcDbEntity
  8
M0
 62
     7
100
AcDbLine
 10
226.651429
 20
302.927774
 11
226.651429
 21
309.627774
  0
LINE
  5
3E4
100
AcDbEntity
  8
M0
 62
     7
100
AcDbLine
 10
226.151429
 20
310.127774
 11
221.751429
 21
310.127774
  0
LINE
  5
3E5
100
AcDbEntity
  8
M0
 62
     7
100
AcDbLine
 10
240.651429
 20
278.527774
 11
240.651429
 21
269.327774
  0
ARC
  5
3E6
100
AcDbEntity
  8
M0
 62
     7
100
AcDbCircle
 10
225.651429
 20
319.527774
 40
1.0
100
AcDbArc
 50
0.0
 51
90.0
  0
ELLIPSE
  5
3E7
100
AcDbEntity
  8
M0
 62
     7
100
AcDbEllipse
 10
229.00518
 20
341.427774
 11
0.0
 21
0.6
210
0.0
220
0.0
230
1.0
 40
0.243749
 41
4.71238898038469
 42
6.283185307179586
  0
ARC
  5
3E8
100
AcDbEntity
  8
M0
 62
     7
100
AcDbCircle
 10
229.151429
 20
341.027774
 40
1.0
100
AcDbArc
 50
0.0
 51
90.0
  0
ARC
  5
3E9
100
AcDbEntity
  8
M0
 62
     7
100
AcDbCircle
 10
228.151429
 20
319.527774
 40
1.0
100
AcDbArc
 50
0.0
 51
90.0
  0
ARC
  5
3EA
100
AcDbEntity
  8
M0
 62
     7
100
AcDbCircle
 10
217.151429
 20
339.027774
 40
3.0
100
AcDbArc
 50
90.0
 51
180.0
  0
ARC
  5
3EB
100
AcDbEntity
  8
M0
 62
     7
100
AcDbCircle
 10
215.551429
 20
341.027774
 40
1.0
100
AcDbArc
 50
90.0
 51
180.0
  0
ARC
  5
3EC
100
AcDbEntity
  8
M0
 62
     7
100
AcDbCircle
 10
233.751429
 20
263.127774
 40
1.0
100
AcDbArc
 50
270.0
 51
360.0
  0
ARC
  5
3ED
100
AcDbEntity
  8
M0
 62
     7
100
AcDbCircle
 10
231.937216
 20
341.027774
 40
1.0
100
AcDbArc
 50
45.0
 51
90.0
  0
LINE
  5
3EE
100
AcDbEntity
  8
M0
 62
     7
100
AcDbLine
 10
228.351429
 20
275.127774
 11
210.551429
 21
275.127774
  0
LINE
  5
3EF
100
AcDbEntity
  8
M0
 62
     7
100
AcDbLine
 10
234.051429
 20
277.527774
 11
234.051429
 21
282.527774
  0
LINE
  5
3F0
100
AcDbEntity
  8
M0
 62
     7
100
AcDbLine
 10
214.551429
 20
340.524437
 11
214.551429
 21
341.027774
  0
LINE
  5
3F1
100
AcDbEntity
  8
M0
 62
     7
100
AcDbLine
 10
214.551429
 20
332.027774
 11
214.551429
 21
332.127774
  0
ARC
  5
3F2
100
AcDbEntity
  8
M0
 62
     7
100
AcDbCircle
 10
250.251429
 20
263.827774
 40
1.0
100
AcDbArc
 50
180.0
 51
270.0
  0
ELLIPSE
  5
3F3
100
AcDbEntity
  8
M0
 62
     7
100
AcDbEllipse
 10
241.537216
 20
327.527774
 11
0.0
 21
1.0
210
0.0
220
0.0
230
1.0
 40
0.414214
 41
4.71238898038469
 42
6.283185307179586
  0
ARC
  5
3F4
100
AcDbEntity
  8
M0
 62
     7
100
AcDbCircle
 10
240.151429
 20
267.127774
 40
0.5
100
AcDbArc
 50
270.0
 51
360.0
  0
LINE
  5
3F5
100
AcDbEntity
  8
M0
 62
     7
100
AcDbLine
 10
229.151429
 20
319.527774
 11
229.151429
 21
341.427774
  0
ARC
  5
3F6
100
AcDbEntity
  8
M0
 62
     7
100
AcDbCircle
 10
228.351429
 20
276.127774
 40
1.0
100
AcDbArc
 50
270.0
 51
360.0
  0
LINE
  5
3F7
100
AcDbEntity
  8
M0
 62
     7
100
AcDbLine
 10
257.351429
 20
315.427774
 11
257.351429
 21
279.827774
  0
LINE
  5
3F8
100
AcDbEntity
  8
M0
 62
     7
100
AcDbLine
 10
261.851429
 20
332.877774
 11
261.851429
 21
318.977774
  0
LINE
  5
3F9
100
AcDbEntity
  8
M0
 62
     7
100
AcDbLine
 10
229.351429
 20
276.227774
 11
229.351429
 21
276.127774
  0
LINE
  5
3FA
100
AcDbEntity
  8
M0
 62
     7
100
AcDbLine
 10
261.851429
 20
278.077774
 11
261.551429
 21
278.077774
  0
LINE
  5
3FB
100
AcDbEntity
  8
M0
 62
     7
100
AcDbLine
 10
229.151429
 20
315.727774
 11
229.651429
 21
312.727774
  0
LINE
  5
3FC
100
AcDbEntity
  8
M0
 62
     7
100
AcDbLine
 10
210.551429
 20
320.527774
 11
228.151429
 21
320.527774
  0
LINE
  5
3FD
100
AcDbEntity
  8
M0
 62
     7
100
AcDbLine
 10
229.151429
 20
319.527774
 11
229.151429
 21
315.727774
  0
ARC
  5
3FE
100
AcDbEntity
  8
M0
 62
     7
100
AcDbCircle
 10
235.051429
 20
315.727774
 40
1.0
100
AcDbArc
 50
90.0
 51
180.0
  0
ARC
  5
3FF
100
AcDbEntity
  8
M0
 62
     7
100
AcDbCircle
 10
236.351429
 20
277.227774
 40
1.0
100
AcDbArc
 50
270.0
 51
360.0
  0
ARC
  5
400
100
AcDbEntity
  8
M0
 62
     7
100
AcDbCircle
 10
251.351429
 20
263.327774
 40
0.5
100
AcDbArc
 50
180.0
 51
270.0
  0
LINE
  5
401
100
AcDbEntity
  8
M0
 62
     7
100
AcDbLine
 10
261.851429
 20
332.877774
 11
261.551429
 21
332.877774
  0
LINE
  5
402
100
AcDbEntity
  8
M0
 62
     7
100
AcDbLine
 10
254.051429
 20
280.211546
 11
238.551429
 21
280.211546
  0
LINE
  5
403
100
AcDbEntity
  8
M0
 62
     7
100
AcDbLine
 10
254.051429
 20
312.167219
 11
238.551429
 21
312.167219
  0
LINE
  5
404
100
AcDbEntity
  8
M0
 62
     7
100
AcDbLine
 10
238.551429
 20
315.044002
 11
254.051429
 21
315.044002
  0
ARC
  5
405
100
AcDbEntity
  8
M0
 62
     7
100
AcDbCircle
 10
261.051429
 20
263.327774
 40
0.5
100
AcDbArc
 50
270.0
 51
360.0
  0
ARC
  5
406
100
AcDbEntity
  8
M0
 62
     7
100
AcDbCircle
 10
261.051429
 20
315.927774
 40
0.5
100
AcDbArc
 50
270.0
 51
360.0
  0
ARC
  5
407
100
AcDbEntity
  8
M0
 62
     7
100
AcDbCircle
 10
224.851429
 20
302.327774
 40
0.6
100
AcDbArc
 50
90.0
 51
180.0
  0
ARC
  5
408
100
AcDbEntity
  8
M0
 62
     7
100
AcDbCircle
 10
224.851429
 20
293.227774
 40
0.6
100
AcDbArc
 50
180.0
 51
270.0
  0
LINE
  5
409
100
AcDbEntity
  8
M0
 62
     7
100
AcDbLine
 10
238.551429
 20
283.088329
 11
254.051429
 21
283.088329
  0
ARC
  5
40A
100
AcDbEntity
  8
M0
 62
     7
100
AcDbCircle
 10
256.851429
 20
284.327774
 40
0.5
100
AcDbArc
 50
270.0
 51
360.0
  0
ARC
  5
40B
100
AcDbEntity
  8
M0
 62
     7
100
AcDbCircle
 10
256.851429
 20
310.927774
 40
0.5
100
AcDbArc
 50
0.0
 51
90.0
  0
ARC
  5
40C
100
AcDbEntity
  8
M0
 62
     7
100
AcDbCircle
 10
261.053936
 20
332.827774
 40
0.5
100
AcDbArc
 50
5.73917
 51
90.0
  0
ARC
  5
40D
100
AcDbEntity
  8
M0
 62
     7
100
AcDbCircle
 10
254.051429
 20
315.344002
 40
0.3
100
AcDbArc
 50
270.0
 51
360.0
  0
LINE
  5
40E
100
AcDbEntity
  8
M0
 62
     7
100
AcDbLine
 10
259.051429
 20
282.127774
 11
259.491429
 21
281.627774
  0
LINE
  5
40F
100
AcDbEntity
  8
M0
 62
     7
100
AcDbLine
 10
258.351429
 20
282.127774
 11
259.051429
 21
282.127774
  0
LINE
  5
410
100
AcDbEntity
  8
M0
 62
     7
100
AcDbLine
 10
258.351429
 20
281.627774
 11
258.351429
 21
282.127774
  0
LINE
  5
411
100
AcDbEntity
  8
M0
 62
     7
100
AcDbLine
 10
261.075959
 20
279.827172
 11
259.491429
 21
281.627774
  0
ARC
  5
412
100
AcDbEntity
  8
M0
 62
     7
100
AcDbCircle
 10
258.051429
 20
262.627774
 40
0.5
100
AcDbArc
 50
180.0
 51
270.0
  0
ARC
  5
413
100
AcDbEntity
  8
M0
 62
     7
100
AcDbCircle
 10
258.051429
 20
280.127774
 40
0.5
100
AcDbArc
 50
90.0
 51
180.0
  0
ARC
  5
414
100
AcDbEntity
  8
M0
 62
     7
100
AcDbCircle
 10
254.051429
 20
279.911546
 40
0.3
100
AcDbArc
 50
0.0
 51
90.0
  0
ARC
  5
415
100
AcDbEntity
  8
M0
 62
     7
100
AcDbCircle
 10
254.051429
 20
311.867219
 40
0.3
100
AcDbArc
 50
0.0
 51
90.0
  0
ARC
  5
416
100
AcDbEntity
  8
M0
 62
     7
100
AcDbCircle
 10
251.351429
 20
332.827774
 40
0.5
100
AcDbArc
 50
90.0
 51
180.0
  0
LINE
  5
417
100
AcDbEntity
  8
M0
 62
     7
100
AcDbLine
 10
261.251429
 20
262.869517
 11
261.251429
 21
262.127774
  0
LINE
  5
418
100
AcDbEntity
  8
M0
 62
     7
100
AcDbLine
 10
257.551429
 20
262.627774
 11
257.551429
 21
262.827774
  0
LINE
  5
419
100
AcDbEntity
  8
M0
 62
     7
100
AcDbLine
 10
261.251429
 20
262.127774
 11
258.051429
 21
262.127774
  0
LINE
  5
41A
100
AcDbEntity
  8
M0
 62
     7
100
AcDbLine
 10
261.551429
 20
265.777774
 11
261.851429
 21
265.777774
  0
ARC
  5
41B
100
AcDbEntity
  8
M0
 62
     7
100
AcDbCircle
 10
261.051429
 20
279.327774
 40
0.5
100
AcDbArc
 50
0.0
 51
90.0
  0
LINE
  5
41C
100
AcDbEntity
  8
M0
 62
     7
100
AcDbLine
 10
258.351429
 20
281.627774
 11
258.351429
 21
280.627774
  0
ARC
  5
41D
100
AcDbEntity
  8
M0
 62
     7
100
AcDbCircle
 10
254.051429
 20
283.388329
 40
0.3
100
AcDbArc
 50
270.0
 51
360.0
  0
LINE
  5
41E
100
AcDbEntity
  8
M0
 62
     7
100
AcDbLine
 10
259.551429
 20
280.127774
 11
259.551429
 21
279.827774
  0
LINE
  5
41F
100
AcDbEntity
  8
M0
 62
     7
100
AcDbLine
 10
259.551429
 20
280.627774
 11
259.551429
 21
280.127774
  0
LINE
  5
420
100
AcDbEntity
  8
M0
 62
     7
100
AcDbLine
 10
257.551429
 20
279.827774
 11
257.551429
 21
280.127774
  0
LINE
  5
421
100
AcDbEntity
  8
M0
 62
     7
100
AcDbLine
 10
261.051429
 20
315.427774
 11
254.351429
 21
315.427774
  0
LINE
  5
422
100
AcDbEntity
  8
M0
 62
     7
100
AcDbLine
 10
261.051429
 20
262.827774
 11
251.351429
 21
262.827774
  0
LINE
  5
423
100
AcDbEntity
  8
M0
 62
     7
100
AcDbLine
 10
234.051429
 20
282.527774
 11
226.651429
 21
282.527774
  0
LINE
  5
424
100
AcDbEntity
  8
M0
 62
     7
100
AcDbLine
 10
234.051429
 20
277.527774
 11
226.651429
 21
277.527774
  0
LINE
  5
425
100
AcDbEntity
  8
M0
 62
     7
100
AcDbLine
 10
238.551429
 20
283.088329
 11
238.551429
 21
280.211546
  0
LINE
  5
426
100
AcDbEntity
  8
M0
 62
     7
100
AcDbLine
 10
238.551429
 20
315.044002
 11
238.551429
 21
312.167219
  0
LINE
  5
427
100
AcDbEntity
  8
M0
 62
     7
100
AcDbLine
 10
254.351429
 20
279.827774
 11
261.051429
 21
279.827774
  0
LINE
  5
428
100
AcDbEntity
  8
M0
 62
     7
100
AcDbLine
 10
224.251429
 20
293.227774
 11
224.251429
 21
302.327774
  0
LINE
  5
429
100
AcDbEntity
  8
M0
 62
     7
100
AcDbLine
 10
226.651429
 20
302.927774
 11
224.851429
 21
302.927774
  0
LINE
  5
42A
100
AcDbEntity
  8
M0
 62
     7
100
AcDbLine
 10
234.051429
 20
312.727774
 11
234.051429
 21
315.727774
  0
LINE
  5
42B
100
AcDbEntity
  8
M0
 62
     7
100
AcDbLine
 10
250.851429
 20
278.527774
 11
237.351429
 21
278.527774
  0
LINE
  5
42C
100
AcDbEntity
  8
M0
 62
     7
100
AcDbLine
 10
250.851429
 20
263.327774
 11
250.851429
 21
278.527774
  0
LINE
  5
42D
100
AcDbEntity
  8
M0
 62
     7
100
AcDbLine
 10
231.080841
 20
316.727774
 11
250.851429
 21
316.727774
  0
ARC
  5
42E
100
AcDbEntity
  8
M0
 62
     7
100
AcDbCircle
 10
221.751429
 20
310.627774
 40
0.5
100
AcDbArc
 50
180.0
 51
270.0
  0
LINE
  5
42F
100
AcDbEntity
  8
M0
 62
     7
100
AcDbLine
 10
258.051429
 20
280.627774
 11
259.551429
 21
280.627774
  0
ARC
  5
430
100
AcDbEntity
  8
M0
 62
     7
100
AcDbCircle
 10
226.151429
 20
309.627774
 40
0.5
100
AcDbArc
 50
0.0
 51
90.0
  0
LINE
  5
431
100
AcDbEntity
  8
M0
 62
     7
100
AcDbLine
 10
237.351429
 20
278.527774
 11
237.351429
 21
277.227774
  0
LINE
  5
432
100
AcDbEntity
  8
M0
 62
     7
100
AcDbLine
 10
254.351429
 20
311.867219
 11
254.351429
 21
311.427774
  0
LINE
  5
433
100
AcDbEntity
  8
M0
 62
     7
100
AcDbLine
 10
254.351429
 20
311.427774
 11
256.851429
 21
311.427774
  0
LINE
  5
434
100
AcDbEntity
  8
M0
 62
     7
100
AcDbLine
 10
256.851429
 20
283.827774
 11
254.351429
 21
283.827774
  0
LINE
  5
435
100
AcDbEntity
  8
M0
 62
     7
100
AcDbLine
 10
226.651429
 20
292.627774
 11
224.851429
 21
292.627774
  0
LINE
  5
436
100
AcDbEntity
  8
M0
 62
     7
100
AcDbLine
 10
235.051429
 20
316.727774
 11
237.051429
 21
316.727774
  0
LINE
  5
437
100
AcDbEntity
  8
M0
 62
     7
100
AcDbLine
 10
236.351429
 20
276.227774
 11
229.351429
 21
276.227774
  0
LINE
  5
438
100
AcDbEntity
  8
M0
 62
     7
100
AcDbLine
 10
250.851429
 20
316.727774
 11
250.851429
 21
332.827774
  0
LINE
  5
439
100
AcDbEntity
  8
M0
 62
     7
100
AcDbLine
 10
254.351429
 20
283.827774
 11
254.351429
 21
283.388329
  0
ARC
  5
43A
100
AcDbEntity
  8
M0
 62
     7
100
AcDbCircle
 10
207.055811
 20
271.827774
 40
3.0
100
AcDbArc
 50
270.0
 51
320.582606
  0
ARC
  5
43B
100
AcDbEntity
  8
M0
 62
     7
100
AcDbCircle
 10
190.051429
 20
273.827774
 40
5.0
100
AcDbArc
 50
180.0
 51
270.0
  0
ARC
  5
43C
100
AcDbEntity
  8
M0
 62
     7
100
AcDbCircle
 10
207.154103
 20
323.427774
 40
3.0
100
AcDbArc
 50
41.009087
 51
90.0
  0
ARC
  5
43D
100
AcDbEntity
  8
M0
 62
     7
100
AcDbCircle
 10
207.551429
 20
322.970849
 40
3.0
100
AcDbArc
 50
0.0
 51
41.009087
  0
ARC
  5
43E
100
AcDbEntity
  8
M0
 62
     7
100
AcDbCircle
 10
207.551429
 20
272.430777
 40
3.0
100
AcDbArc
 50
320.582606
 51
360.0
  0
ARC
  5
43F
100
AcDbEntity
  8
M0
 62
     7
100
AcDbCircle
 10
186.051429
 20
302.327774
 40
1.0
100
AcDbArc
 50
180.0
 51
270.0
  0
LINE
  5
440
100
AcDbEntity
  8
M0
 62
     7
100
AcDbLine
 10
202.851429
 20
328.827774
 11
202.851429
 21
329.827774
  0
ARC
  5
441
100
AcDbEntity
  8
M0
 62
     7
100
AcDbCircle
 10
186.051429
 20
292.927774
 40
1.0
100
AcDbArc
 50
90.0
 51
180.0
  0
LINE
  5
442
100
AcDbEntity
  8
M0
 62
     7
100
AcDbLine
 10
202.851429
 20
329.827774
 11
206.451429
 21
329.827774
  0
LINE
  5
443
100
AcDbEntity
  8
M0
 62
     7
100
AcDbLine
 10
209.951429
 20
266.627774
 11
208.751429
 21
265.427774
  0
LINE
  5
444
100
AcDbEntity
  8
M0
 62
     7
100
AcDbLine
 10
202.851429
 20
265.427774
 11
202.851429
 21
266.427774
  0
ARC
  5
445
100
AcDbEntity
  8
M0
 62
     7
100
AcDbCircle
 10
190.051429
 20
321.427774
 40
5.0
100
AcDbArc
 50
90.0
 51
180.0
  0
ARC
  5
446
100
AcDbEntity
  8
M0
 62
     7
100
AcDbCircle
 10
212.951429
 20
295.427774
 40
0.5
100
AcDbArc
 50
180.0
 51
270.0
  0
ARC
  5
447
100
AcDbEntity
  8
M0
 62
     7
100
AcDbCircle
 10
212.951429
 20
299.827774
 40
0.5
100
AcDbArc
 50
90.0
 51
180.0
  0
LINE
  5
448
100
AcDbEntity
  8
M0
 62
     7
100
AcDbLine
 10
191.051429
 20
329.827774
 11
200.952731
 21
329.827774
  0
LINE
  5
449
100
AcDbEntity
  8
M0
 62
     7
100
AcDbLine
 10
200.952731
 20
329.827774
 11
201.059224
 21
328.827774
  0
LINE
  5
44A
100
AcDbEntity
  8
M0
 62
     7
100
AcDbLine
 10
201.314808
 20
326.427774
 11
201.059224
 21
328.827774
  0
LINE
  5
44B
100
AcDbEntity
  8
M0
 62
     7
100
AcDbLine
 10
206.451429
 20
329.827774
 11
207.851429
 21
328.427774
  0
LINE
  5
44C
100
AcDbEntity
  8
M0
 62
     7
100
AcDbLine
 10
201.059224
 20
266.427774
 11
201.314808
 21
268.827774
  0
LINE
  5
44D
100
AcDbEntity
  8
M0
 62
     7
100
AcDbLine
 10
200.952731
 20
329.827774
 11
202.851429
 21
329.827774
  0
LINE
  5
44E
100
AcDbEntity
  8
M0
 62
     7
100
AcDbLine
 10
187.051429
 20
325.427774
 11
187.051429
 21
325.827774
  0
LINE
  5
44F
100
AcDbEntity
  8
M0
 62
     7
100
AcDbLine
 10
201.059224
 20
266.427774
 11
200.952731
 21
265.427774
  0
LINE
  5
450
100
AcDbEntity
  8
M0
 62
     7
100
AcDbLine
 10
187.051429
 20
269.427774
 11
187.051429
 21
269.827774
  0
LINE
  5
451
100
AcDbEntity
  8
M0
 62
     7
100
AcDbLine
 10
226.651429
 20
309.527774
 11
226.651429
 21
303.127774
  0
LINE
  5
452
100
AcDbEntity
  8
M0
 62
     7
100
AcDbLine
 10
209.41792
 20
325.39631
 11
209.815246
 21
324.939385
  0
LINE
  5
453
100
AcDbEntity
  8
M0
 62
     7
100
AcDbLine
 10
190.051429
 20
326.427774
 11
207.154103
 21
326.427774
  0
LINE
  5
454
100
AcDbEntity
  8
M0
 62
     7
100
AcDbLine
 10
209.869052
 20
270.525882
 11
209.373433
 21
269.922879
  0
LINE
  5
455
100
AcDbEntity
  8
M0
 62
     7
100
AcDbLine
 10
210.551429
 20
322.970849
 11
210.551429
 21
320.527774
  0
LINE
  5
456
100
AcDbEntity
  8
M0
 62
     7
100
AcDbLine
 10
210.551429
 20
275.127774
 11
210.551429
 21
272.430777
  0
LINE
  5
457
100
AcDbEntity
  8
M0
 62
     7
100
AcDbLine
 10
187.551429
 20
301.327774
 11
187.551429
 21
293.927774
  0
LINE
  5
458
100
AcDbEntity
  8
M0
 62
     7
100
AcDbLine
 10
212.451429
 20
299.827774
 11
212.451429
 21
295.427774
  0
LINE
  5
459
100
AcDbEntity
  8
M0
 62
     7
100
AcDbLine
 10
212.951429
 20
294.927774
 11
224.251429
 21
294.927774
  0
LINE
  5
45A
100
AcDbEntity
  8
M0
 62
     7
100
AcDbLine
 10
249.251429
 20
266.627774
 11
209.951429
 21
266.627774
  0
LINE
  5
45B
100
AcDbEntity
  8
M0
 62
     7
100
AcDbLine
 10
210.951429
 20
320.527774
 11
210.951429
 21
328.427774
  0
LINE
  5
45C
100
AcDbEntity
  8
M0
 62
     7
100
AcDbLine
 10
202.851429
 20
326.427774
 11
202.851429
 21
328.827774
  0
LINE
  5
45D
100
AcDbEntity
  8
M0
 62
     7
100
AcDbLine
 10
208.751429
 20
265.427774
 11
191.051429
 21
265.427774
  0
LINE
  5
45E
100
AcDbEntity
  8
M0
 62
     7
100
AcDbLine
 10
207.851429
 20
328.427774
 11
210.951429
 21
328.427774
  0
LINE
  5
45F
100
AcDbEntity
  8
M0
 62
     7
100
AcDbLine
 10
186.551429
 20
293.927774
 11
186.551429
 21
301.327774
  0
LINE
  5
460
100
AcDbEntity
  8
M0
 62
     7
100
AcDbLine
 10
185.051429
 20
273.827774
 11
185.051429
 21
321.427774
  0
LINE
  5
461
100
AcDbEntity
  8
M0
 62
     7
100
AcDbLine
 10
187.551429
 20
301.327774
 11
186.051429
 21
301.327774
  0
LINE
  5
462
100
AcDbEntity
  8
M0
 62
     7
100
AcDbLine
 10
207.055811
 20
268.827774
 11
190.051429
 21
268.827774
  0
LINE
  5
463
100
AcDbEntity
  8
M0
 62
     7
100
AcDbLine
 10
186.051429
 20
293.927774
 11
187.551429
 21
293.927774
  0
LINE
  5
464
100
AcDbEntity
  8
M0
 62
     7
100
AcDbLine
 10
224.251429
 20
300.327774
 11
212.951429
 21
300.327774
  0
LINE
  5
465
100
AcDbEntity
  8
M0
 62
     7
100
AcDbLine
 10
202.851429
 20
266.427774
 11
202.851429
 21
268.827774
  0
LINE
  5
466
100
AcDbEntity
  8
M0
 62
     7
100
AcDbLine
 10
234.751429
 20
266.627774
 11
234.751429
 21
263.127774
  0
LINE
  5
467
100
AcDbEntity
  8
M0
 62
     7
100
AcDbLine
 10
237.351429
 20
334.427774
 11
237.351429
 21
336.613561
  0
LINE
  5
468
100
AcDbEntity
  8
M0
 62
     7
100
AcDbLine
 10
244.951429
 20
331.527774
 11
250.851429
 21
331.527774
  0
LINE
  5
469
100
AcDbEntity
  8
M0
 62
     7
100
AcDbLine
 10
237.251429
 20
266.627774
 11
235.251429
 21
266.627774
  0
LINE
  5
46A
100
AcDbEntity
  8
M0
 62
     7
100
AcDbLine
 10
237.751429
 20
266.627774
 11
237.251429
 21
266.627774
  0
LINE
  5
46B
100
AcDbEntity
  8
M0
 62
     7
100
AcDbLine
 10
237.351429
 20
332.127774
 11
237.351429
 21
328.527774
  0
LINE
  5
46C
100
AcDbEntity
  8
M0
 62
     7
100
AcDbLine
 10
249.251429
 20
263.827774
 11
249.251429
 21
278.527774
  0
LINE
  5
46D
100
AcDbEntity
  8
M0
 62
     7
100
AcDbLine
 10
232.644322
 20
341.734881
 11
234.144322
 21
340.234881
  0
LINE
  5
46E
100
AcDbEntity
  8
M0
 62
     7
100
AcDbLine
 10
253.351429
 20
262.827774
 11
250.251429
 21
262.827774
  0
LINE
  5
46F
100
AcDbEntity
  8
M0
 62
     7
100
AcDbLine
 10
249.251429
 20
268.327774
 11
250.851429
 21
268.327774
  0
LINE
  5
470
100
AcDbEntity
  8
M0
 62
     7
100
AcDbLine
 10
244.951429
 20
331.527774
 11
244.951429
 21
328.527774
  0
LINE
  5
471
100
AcDbEntity
  8
M0
 62
     7
100
AcDbLine
 10
226.651429
 20
262.127774
 11
226.651429
 21
263.127774
  0
LINE
  5
472
100
AcDbEntity
  8
M0
 62
     7
100
AcDbLine
 10
257.651429
 20
311.927774
 11
257.351429
 21
312.927774
  0
LINE
  5
473
100
AcDbEntity
  8
M0
 62
     7
100
AcDbLine
 10
214.551429
 20
332.027774
 11
210.951429
 21
330.527774
  0
LINE
  5
474
100
AcDbEntity
  8
M0
 62
     7
100
AcDbLine
 10
220.251429
 20
332.027774
 11
214.551429
 21
332.027774
  0
LINE
  5
475
100
AcDbEntity
  8
M0
 62
     7
100
AcDbLine
 10
210.951429
 20
330.527774
 11
210.951429
 21
328.527774
  0
LINE
  5
476
100
AcDbEntity
  8
M0
 62
     7
100
AcDbLine
 10
214.751429
 20
331.027774
 11
211.951429
 21
329.861107
  0
LINE
  5
477
100
AcDbEntity
  8
M0
 62
     7
100
AcDbLine
 10
220.251429
 20
328.527774
 11
220.251429
 21
332.027774
  0
LINE
  5
478
100
AcDbEntity
  8
M0
 62
     7
100
AcDbLine
 10
219.251429
 20
331.027774
 11
214.751429
 21
331.027774
  0
LINE
  5
479
100
AcDbEntity
  8
M0
 62
     7
100
AcDbLine
 10
232.351429
 20
342.027774
 11
215.551429
 21
342.027774
  0
LINE
  5
47A
100
AcDbEntity
  8
M0
 62
     7
100
AcDbLine
 10
220.251429
 20
332.027774
 11
220.351429
 21
332.027774
  0
LINE
  5
47B
100
AcDbEntity
  8
M0
 62
     7
100
AcDbLine
 10
220.351429
 20
328.527774
 11
220.251429
 21
328.527774
  0
LINE
  5
47C
100
AcDbEntity
  8
M0
 62
     7
100
AcDbLine
 10
261.851429
 20
318.977774
 11
261.551429
 21
318.977774
  0
LINE
  5
47D
100
AcDbEntity
  8
M0
 62
     7
100
AcDbLine
 10
219.251429
 20
329.527774
 11
219.251429
 21
331.027774
  0
LINE
  5
47E
100
AcDbEntity
  8
M0
 62
     7
100
AcDbLine
 10
220.251429
 20
328.527774
 11
210.951429
 21
328.527774
  0
LINE
  5
47F
100
AcDbEntity
  8
M0
 62
     7
100
AcDbLine
 10
211.951429
 20
329.527774
 11
219.251429
 21
329.527774
  0
LINE
  5
480
100
AcDbEntity
  8
M0
 62
     7
100
AcDbLine
 10
211.951429
 20
329.861107
 11
211.951429
 21
329.527774
  0
LINE
  5
481
100
AcDbEntity
  8
M0
 62
     7
100
AcDbLine
 10
226.651429
 20
292.627774
 11
226.651429
 21
262.127774
  0
LINE
  5
482
100
AcDbEntity
  8
M0
 62
     7
100
AcDbLine
 10
210.651429
 20
262.127774
 11
202.851429
 21
262.627774
  0
LINE
  5
483
100
AcDbEntity
  8
M0
 62
     7
100
AcDbLine
 10
233.751429
 20
262.127774
 11
210.651429
 21
262.127774
  0
LINE
  5
484
100
AcDbEntity
  8
M0
 62
     7
100
AcDbLine
 10
202.851429
 20
263.629827
 11
202.851429
 21
265.427774
  0
LINE
  5
485
100
AcDbEntity
  8
M0
 62
     7
100
AcDbLine
 10
196.263274
 20
262.896719
 11
193.551429
 21
265.427774
  0
LINE
  5
486
100
AcDbEntity
  8
M0
 62
     7
100
AcDbLine
 10
202.851429
 20
262.627774
 11
200.952313
 21
262.627774
  0
LINE
  5
487
100
AcDbEntity
  8
M0
 62
     7
100
AcDbLine
 10
201.029897
 20
263.627774
 11
200.952313
 21
262.627774
  0
LINE
  5
488
100
AcDbEntity
  8
M0
 62
     7
100
AcDbLine
 10
201.029897
 20
263.627774
 11
201.169549
 21
265.427774
  0
LINE
  5
489
100
AcDbEntity
  8
M0
 62
     7
100
AcDbLine
 10
200.952313
 20
262.627774
 11
196.945592
 21
262.627774
  0
LINE
  5
48A
100
AcDbEntity
  8
M0
 62
     7
100
AcDbLine
 10
202.851429
 20
262.627774
 11
202.851429
 21
263.629827
  0
LINE
  5
48B
100
AcDbEntity
  8
M0
 62
     7
100
AcDbLine
 10
210.951429
 20
328.427774
 11
210.951429
 21
328.527774
  0
ARC
  5
48C
100
AcDbEntity
  8
M0
 62
     7
100
AcDbCircle
 10
213.951429
 20
296.027774
 40
1.0
100
AcDbArc
 50
180.0
 51
270.0
  0
ARC
  5
48D
100
AcDbEntity
  8
M0
 62
     7
100
AcDbCircle
 10
196.945592
 20
263.627774
 40
1.0
100
AcDbArc
 50
226.974934
 51
270.0
  0
ARC
  5
48E
100
AcDbEntity
  8
M0
 62
     7
100
AcDbCircle
 10
215.451429
 20
296.027774
 40
1.0
100
AcDbArc
 50
270.0
 51
360.0
  0
LINE
  5
48F
100
AcDbEntity
  8
M0
 62
     7
100
AcDbLine
 10
261.851429
 20
278.077774
 11
261.851429
 21
265.777774
  0
LINE
  5
490
100
AcDbEntity
  8
M0
 62
     7
100
AcDbLine
 10
240.151429
 20
266.627774
 11
240.057655
 21
266.627774
  0
LINE
  5
491
100
AcDbEntity
  8
M0
 62
     7
100
AcDbLine
 10
237.351429
 20
328.527774
 11
250.851429
 21
328.527774
  0
LINE
  5
492
100
AcDbEntity
  8
M0
 62
     7
100
AcDbLine
 10
241.951429
 20
316.727774
 11
241.951429
 21
327.527774
  0
LINE
  5
493
100
AcDbEntity
  8
M0
 62
     7
100
AcDbLine
 10
216.451429
 20
296.027774
 11
216.451429
 21
300.327774
  0
LINE
  5
494
100
AcDbEntity
  8
M0
 62
     7
100
AcDbLine
 10
213.951429
 20
295.027774
 11
215.451429
 21
295.027774
  0
LINE
  5
495
100
AcDbEntity
  8
M0
 62
     7
100
AcDbLine
 10
218.551429
 20
300.327774
 11
218.551429
 21
294.927774
  0
LINE
  5
496
100
AcDbEntity
  8
M0
 62
     7
100
AcDbLine
 10
216.151429
 20
262.127774
 11
210.651429
 21
262.127774
  0
LINE
  5
497
100
AcDbEntity
  8
M0
 62
     7
100
AcDbLine
 10
240.651429
 20
269.327774
 11
240.651429
 21
267.127774
  0
ARC
  5
498
100
AcDbEntity
  8
M0
 62
     7
100
AcDbCircle
 10
191.051429
 20
325.827774
 40
4.0
100
AcDbArc
 50
90.0
 51
180.0
  0
ARC
  5
499
100
AcDbEntity
  8
M0
 62
     7
100
AcDbCircle
 10
191.051429
 20
269.427774
 40
4.0
100
AcDbArc
 50
180.0
 51
270.0
  0
LINE
  5
49A
100
AcDbEntity
  8
M0
 62
     7
100
AcDbLine
 10
212.951429
 20
300.327774
 11
212.951429
 21
296.027774
  0
LINE
  5
49B
100
AcDbEntity
  8
M0
  6
DASHDOT
 62
     7
100
AcDbLine
 10
29.715669
 20
297.627774
 11
101.715669
 21
297.627774
  0
LINE
  5
49C
100
AcDbEntity
  8
M0
 62
     7
100
AcDbLine
 10
71.118949
 20
278.142134
 11
69.35137
 21
276.374434
  0
LINE
  5
49D
100
AcDbEntity
  8
M0
 62
     7
100
AcDbLine
 10
62.079495
 20
277.081465
 11
60.311917
 21
275.313887
  0
LINE
  5
49E
100
AcDbEntity
  8
M0
 62
     7
100
AcDbLine
 10
72.179495
 20
277.081465
 11
70.411917
 21
275.313887
  0
LINE
  5
49F
100
AcDbEntity
  8
M0
 62
     7
100
AcDbLine
 10
82.456253
 20
316.937129
 11
79.274613
 21
320.118892
  0
LINE
  5
4A0
100
AcDbEntity
  8
M0
 62
     7
100
AcDbLine
 10
78.206253
 20
334.537129
 11
75.024613
 21
337.718892
  0
LINE
  5
4A1
100
AcDbEntity
  8
M0
 62
     7
100
AcDbLine
 10
51.979495
 20
318.881465
 11
50.211917
 21
317.113887
  0
LINE
  5
4A2
100
AcDbEntity
  8
M0
 62
     7
100
AcDbLine
 10
50.918949
 20
319.942134
 11
49.15137
 21
318.174434
  0
LINE
  5
4A3
100
AcDbEntity
  8
M0
 62
     7
100
AcDbLine
 10
50.918949
 20
278.142134
 11
49.15137
 21
276.374434
  0
LINE
  5
4A4
100
AcDbEntity
  8
M0
 62
     7
100
AcDbLine
 10
61.018949
 20
278.142134
 11
59.25137
 21
276.374434
  0
LINE
  5
4A5
100
AcDbEntity
  8
M0
 62
     7
100
AcDbLine
 10
51.979495
 20
277.081465
 11
50.211917
 21
275.313887
  0
LINE
  5
4A6
100
AcDbEntity
  8
M0
 62
     7
100
AcDbLine
 10
81.218949
 20
278.142134
 11
79.45137
 21
276.374434
  0
LINE
  5
4A7
100
AcDbEntity
  8
M0
 62
     7
100
AcDbLine
 10
72.356253
 20
275.137129
 11
69.174613
 21
278.318892
  0
LINE
  5
4A8
100
AcDbEntity
  8
M0
 62
     7
100
AcDbLine
 10
82.279495
 20
277.081465
 11
80.511917
 21
275.313887
  0
LINE
  5
4A9
100
AcDbEntity
  8
M0
 62
     7
100
AcDbLine
 10
82.456253
 20
275.137129
 11
79.274613
 21
278.318892
  0
LINE
  5
4AA
100
AcDbEntity
  8
M0
 62
     7
100
AcDbLine
 10
62.256253
 20
316.937129
 11
59.074613
 21
320.118892
  0
LINE
  5
4AB
100
AcDbEntity
  8
M0
 62
     7
100
AcDbLine
 10
72.356253
 20
316.937129
 11
69.174613
 21
320.118892
  0
LINE
  5
4AC
100
AcDbEntity
  8
M0
 62
     7
100
AcDbLine
 10
52.156253
 20
316.937129
 11
48.974613
 21
320.118892
  0
LINE
  5
4AD
100
AcDbEntity
  8
M0
 62
     7
100
AcDbLine
 10
62.256253
 20
275.137129
 11
59.074613
 21
278.318892
  0
LINE
  5
4AE
100
AcDbEntity
  8
M0
 62
     7
100
AcDbLine
 10
52.156253
 20
275.137129
 11
48.974613
 21
278.318892
  0
LINE
  5
4AF
100
AcDbEntity
  8
M0
 62
     7
100
AcDbLine
 10
55.168949
 20
337.542134
 11
53.40137
 21
335.774434
  0
LINE
  5
4B0
100
AcDbEntity
  8
M0
 62
     7
100
AcDbLine
 10
71.118949
 20
319.942134
 11
69.35137
 21
318.174434
  0
LINE
  5
4B1
100
AcDbEntity
  8
M0
 62
     7
100
AcDbLine
 10
82.279495
 20
318.881465
 11
80.511917
 21
317.113887
  0
LINE
  5
4B2
100
AcDbEntity
  8
M0
 62
     7
100
AcDbLine
 10
72.179495
 20
318.881465
 11
70.411917
 21
317.113887
  0
LINE
  5
4B3
100
AcDbEntity
  8
M0
 62
     7
100
AcDbLine
 10
62.079495
 20
318.881465
 11
60.311917
 21
317.113887
  0
LINE
  5
4B4
100
AcDbEntity
  8
M0
 62
     7
100
AcDbLine
 10
61.018949
 20
319.942134
 11
59.25137
 21
318.174434
  0
LINE
  5
4B5
100
AcDbEntity
  8
M0
 62
     7
100
AcDbLine
 10
56.229495
 20
336.481465
 11
54.461917
 21
334.713887
  0
LINE
  5
4B6
100
AcDbEntity
  8
M0
 62
     7
100
AcDbLine
 10
56.406253
 20
334.537129
 11
53.224613
 21
337.718892
  0
LINE
  5
4B7
100
AcDbEntity
  8
M0
 62
     7
100
AcDbLine
 10
76.968949
 20
337.542134
 11
75.20137
 21
335.774434
  0
LINE
  5
4B8
100
AcDbEntity
  8
M0
 62
     7
100
AcDbLine
 10
81.218949
 20
319.942134
 11
79.45137
 21
318.174434
  0
LINE
  5
4B9
100
AcDbEntity
  8
M0
 62
     7
100
AcDbLine
 10
78.029495
 20
336.481465
 11
76.261917
 21
334.713887
  0
HATCH
  5
4BA
100
AcDbEntity
  8
M0
 62
     7
100
AcDbHatch
 10
0.0
 20
0.0
210
0.0
220
0.0
230
1.0
  2
SOLID
 70
     1
 71
     0
 91
        1
 92
        1
 93
        7
 72
     1
 10
75.71567
 20
296.519688
 11
72.71567
 21
295.427777
 72
     1
 10
72.71567
 20
295.427777
 11
75.71567
 21
294.335867
 72
     1
 10
75.71567
 20
294.335867
 11
75.71567
 21
294.927777
 72
     1
 10
75.71567
 20
294.927777
 11
81.71567
 21
294.927777
 72
     1
 10
81.71567
 20
294.927777
 11
81.71567
 21
295.927777
 72
     1
 10
81.71567
 20
295.927777
 11
75.71567
 21
295.927777
 72
     1
 10
75.71567
 20
295.927777
 11
75.71567
 21
296.519688
 97
        0
 75
     0
 76
     1
 98
        1
 10
0.0
 20
0.0
  0
LINE
  5
4BB
100
AcDbEntity
  8
M0
  6
DASHED
 62
     7
100
AcDbLine
 10
99.715669
 20
327.327774
 11
99.715669
 21
267.927774
  0
LINE
  5
4BC
100
AcDbEntity
  8
M0
  6
DASHED
 62
     7
100
AcDbLine
 10
99.715669
 20
267.927774
 11
87.215669
 21
267.927774
  0
LINE
  5
4BD
100
AcDbEntity
  8
M0
  6
DASHED
 62
     7
100
AcDbLine
 10
99.715669
 20
327.327774
 11
87.215669
 21
327.327774
  0
LINE
  5
4BE
100
AcDbEntity
  8
M0
  6
DASHED
 62
     7
100
AcDbLine
 10
31.715669
 20
327.327774
 11
44.215669
 21
327.327774
  0
LINE
  5
4BF
100
AcDbEntity
  8
M0
  6
DASHED
 62
     7
100
AcDbLine
 10
31.715669
 20
327.327774
 11
31.715669
 21
267.927774
  0
LINE
  5
4C0
100
AcDbEntity
  8
M0
  6
DASHED
 62
     7
100
AcDbLine
 10
31.715669
 20
267.927774
 11
44.215669
 21
267.927774
  0
LINE
  5
4C1
100
AcDbEntity
  8
M0
  6
DIVIDE
 62
     7
100
AcDbLine
 10
87.215869
 20
126.224335
 11
87.215869
 21
124.224335
  0
LINE
  5
4C2
100
AcDbEntity
  8
M0
  6
DIVIDE
 62
     7
100
AcDbLine
 10
87.215869
 20
189.724335
 11
87.215869
 21
181.824335
  0
LINE
  5
4C3
100
AcDbEntity
  8
M0
  6
DIVIDE
 62
     7
100
AcDbLine
 10
82.715869
 20
195.424335
 11
82.715869
 21
198.424335
  0
LINE
  5
4C4
100
AcDbEntity
  8
M0
  6
DIVIDE
 62
     7
100
AcDbLine
 10
65.715869
 20
198.424335
 11
82.715869
 21
198.424335
  0
LINE
  5
4C5
100
AcDbEntity
  8
M0
  6
DIVIDE
 62
     7
100
AcDbLine
 10
87.215869
 20
118.524335
 11
44.215869
 21
118.524335
  0
LINE
  5
4C6
100
AcDbEntity
  8
M0
  6
DIVIDE
 62
     7
100
AcDbLine
 10
82.715869
 20
195.424335
 11
82.715869
 21
189.724335
  0
LINE
  5
4C7
100
AcDbEntity
  8
M0
  6
DIVIDE
 62
     7
100
AcDbLine
 10
87.215869
 20
136.024335
 11
87.215869
 21
118.524335
  0
LINE
  5
4C8
100
AcDbEntity
  8
M0
  6
DIVIDE
 62
     7
100
AcDbLine
 10
87.215869
 20
177.824335
 11
87.215869
 21
172.024335
  0
LINE
  5
4C9
100
AcDbEntity
  8
M0
  6
DIVIDE
 62
     7
100
AcDbLine
 10
87.215869
 20
181.824335
 11
87.215869
 21
177.824335
  0
LINE
  5
4CA
100
AcDbEntity
  8
M0
  6
DIVIDE
 62
     7
100
AcDbLine
 10
65.715869
 20
198.424335
 11
48.715869
 21
198.424335
  0
LINE
  5
4CB
100
AcDbEntity
  8
M0
  6
DIVIDE
 62
     7
100
AcDbLine
 10
48.715869
 20
198.424335
 11
48.715869
 21
189.724335
  0
LINE
  5
4CC
100
AcDbEntity
  8
M0
  6
DIVIDE
 62
     7
100
AcDbLine
 10
44.215869
 20
189.724335
 11
44.215869
 21
172.024335
  0
LINE
  5
4CD
100
AcDbEntity
  8
M0
  6
DIVIDE
 62
     7
100
AcDbLine
 10
82.715869
 20
189.724335
 11
87.215869
 21
189.724335
  0
LINE
  5
4CE
100
AcDbEntity
  8
M0
  6
DIVIDE
 62
     7
100
AcDbLine
 10
48.715869
 20
189.724335
 11
44.215869
 21
189.724335
  0
CIRCLE
  5
4CF
100
AcDbEntity
  8
M0
 62
     7
100
AcDbCircle
 10
81.215877
 20
127.92435
 40
2.0
  0
LINE
  5
4D0
100
AcDbEntity
  8
M0
  6
DASHDOT
 62
     7
100
AcDbLine
 10
85.813274
 20
127.92435
 11
76.618465
 21
127.92435
  0
LINE
  5
4D1
100
AcDbEntity
  8
M0
  6
DASHDOT
 62
     7
100
AcDbLine
 10
81.215862
 20
132.521747
 11
81.215877
 21
123.326938
  0
LINE
  5
4D2
100
AcDbEntity
  8
M0
  6
DASHDOT
 62
     7
100
AcDbLine
 10
52.313274
 20
182.924335
 11
44.118465
 21
182.924335
  0
LINE
  5
4D3
100
AcDbEntity
  8
M0
  6
DASHDOT
 62
     7
100
AcDbLine
 10
48.215862
 20
187.021732
 11
48.215877
 21
178.826923
  0
LINE
  5
4D4
100
AcDbEntity
  8
M0
  6
DIVIDE
 62
     7
100
AcDbLine
 10
44.215869
 20
136.024335
 11
44.215869
 21
118.524335
  0
CIRCLE
  5
4D5
100
AcDbEntity
  8
M0
 62
     7
100
AcDbCircle
 10
48.215869
 20
182.924335
 40
2.0
  0
CIRCLE
  5
4D6
100
AcDbEntity
  8
M0
 62
     7
100
AcDbCircle
 10
48.215869
 20
182.924335
 40
1.7
  0
CIRCLE
  5
4D7
100
AcDbEntity
  8
M0
 62
     7
100
AcDbCircle
 10
81.215869
 20
127.92435
 40
1.7
  0
LINE
  5
4D8
100
AcDbEntity
  8
M1
 62
     2
100
AcDbLine
 10
14.285715
 20
14.285715
 11
14.285715
 21
407.142864
  0
LINE
  5
4D9
100
AcDbEntity
  8
M1
 62
     2
100
AcDbLine
 10
14.285715
 20
407.142864
 11
285.714291
 21
407.142864
  0
LINE
  5
4DA
100
AcDbEntity
  8
M1
 62
     2
100
AcDbLine
 10
285.714291
 20
407.142864
 11
285.714291
 21
14.285715
  0
LINE
  5
4DB
100
AcDbEntity
  8
M1
 62
     2
100
AcDbLine
 10
285.714291
 20
14.285715
 11
14.285715
 21
14.285715
  0
LINE
  5
4DC
100
AcDbEntity
  8
M1
 62
     2
100
AcDbLine
 10
285.714291
 20
28.571429
 11
142.857145
 21
28.571429
  0
LINE
  5
4DD
100
AcDbEntity
  8
M1
 62
     2
100
AcDbLine
 10
285.714291
 20
42.857144
 11
142.857145
 21
42.857144
  0
LINE
  5
4DE
100
AcDbEntity
  8
M1
 62
     2
100
AcDbLine
 10
285.714291
 20
57.142858
 11
142.857145
 21
57.142858
  0
LINE
  5
4DF
100
AcDbEntity
  8
M1
 62
     2
100
AcDbLine
 10
142.857145
 20
14.285715
 11
142.857145
 21
57.142858
  0
TEXT
  5
4E0
100
AcDbEntity
  8
M1
 62
     2
100
AcDbText
 10
146.428574
 20
17.857143
 40
7.142857
  1
適　用；
 41
1.0
  7
STANDARD
100
AcDbText
  0
TEXT
  5
4E1
100
AcDbEntity
  8
M1
 62
     2
100
AcDbText
 10
146.428574
 20
46.428572
 40
7.142857
  1
登録名：
 41
1.0
  7
STANDARD
100
AcDbText
  0
TEXT
  5
4E2
100
AcDbEntity
  8
M1
 62
     2
100
AcDbText
 10
180.714289
 20
46.428572
 40
7.142857
  1
ＤＭＨＳ１０ＬＲ０１
 41
0.5
  7
STANDARD
100
AcDbText
  0
TEXT
  5
4E3
100
AcDbEntity
  8
M1
 62
     2
100
AcDbText
 10
146.428574
 20
32.142858
 40
7.142857
  1
形　式；
 41
1.0
  7
STANDARD
100
AcDbText
  0
TEXT
  5
4E4
100
AcDbEntity
  8
M1
 62
     2
100
AcDbText
 10
180.714289
 20
32.142858
 40
7.142857
  1
ＨＳ１０－Ｌ
 41
0.5
  7
STANDARD
100
AcDbText
  0
LINE
  5
4E5
100
AcDbEntity
  8
DN0
100
AcDbLine
 10
53.243951
 20
95.925591
 11
76.429666
 21
95.925591
  0
TEXT
  5
4E6
100
AcDbEntity
  8
DN0
100
AcDbText
 10
53.884427
 20
96.49702
 40
5.714286
  1
せん孔図
 41
0.833333
  7
STANDARD
100
AcDbText
  0
ENDSEC
  0
SECTION
  2
OBJECTS
  0
DICTIONARY
  5
C
100
AcDbDictionary
  3
ACAD_GROUP
350
D
  3
ACAD_MLINESTYLE
350
E
  3
ACDBVARIABLEDICTIONARY
350
283
  0
DICTIONARY
  5
D
102
{ACAD_REACTORS
330
C
102
}
100
AcDbDictionary
  0
DICTIONARY
  5
E
102
{ACAD_REACTORS
330
C
102
}
100
AcDbDictionary
  3
STANDARD
350
13
  0
DICTIONARY
  5
283
102
{ACAD_REACTORS
330
C
102
}
100
AcDbDictionary
  3
SORTENTS
350
284
  0
MLINESTYLE
  5
13
102
{ACAD_REACTORS
330
E
102
}
100
AcDbMlineStyle
  2
STANDARD
 70
     0
  3

 62
     0
 51
90.0
 52
90.0
 71
     2
 49
0.5
 62
   256
  6
BYLAYER
 49
-0.5
 62
   256
  6
BYLAYER
  0
DICTIONARYVAR
  5
284
102
{ACAD_REACTORS
330
283
102
}
100
DictionaryVariables
280
     0
  1
96
  0
ENDSEC
  0
EOF
