  0
SECTION
  2
HEADER
  9
$ACADVER
  1
AC1009
  9
$INSBASE
 10
0.000000
 20
0.000000
 30
0.0
  9
$VIEWCTR
 10
7.531722
 20
4.5
  9
$VIEWSIZE
 40
9.0
  9
$SNAPMODE
 70
     0
  9
$SNAPUNIT
 10
1.0
 20
1.0
  9
$SNAPBASE
 10
0.0
 20
0.0
  9
$SNAPANG
 50
0.0
  9
$SNAPSTYLE
 70
     0
  9
$SNAPISOPAIR
 70
     0
  9
$GRIDMODE
 70
     0
  9
$GRIDUNIT
 10
0.0
 20
0.0
  9
$ORTHOMODE
 70
     0
  9
$REGENMODE
 70
     1
  9
$FILLMODE
 70
     1
  9
$QTEXTMODE
 70
     0
  9
$DRAGMODE
 70
     2
  9
$LTSCALE
  40
     1.000000
  9
$OSMODE
 70
     0
  9
$ATTMODE
 70
     1
  9
$TEXTSIZE
 40
0.2
  9
$TRACEWID
 40
0.05
  9
$TEXTSTYLE
  7
STANDARD
  9
$CELTYPE
  6
BYLAYER
  9
$CECOLOR
 62
   256
  9
$DIMSCALE
 40
1.0
  9
$DIMASZ
 40
0.18
  9
$DIMEXO
 40
0.0625
  9
$DIMDLI
 40
0.38
  9
$DIMRND
 40
0.0
  9
$DIMDLE
 40
0.0
  9
$DIMEXE
 40
0.18
  9
$DIMTP
 40
0.0
  9
$DIMTM
 40
0.0
  9
$DIMTXT
 40
0.18
  9
$DIMCEN
 40
0.09
  9
$DIMTSZ
 40
0.0
  9
$DIMTOL
 70
     0
  9
$DIMLIM
 70
     0
  9
$DIMTIH
 70
     1
  9
$DIMTOH
 70
     1
  9
$DIMSE1
 70
     0
  9
$DIMSE2
 70
     0
  9
$DIMTAD
 70
     0
  9
$DIMZIN
 70
     0
  9
$DIMBLK
  1

  9
$LUNITS
 70
     2
  9
$LUPREC
 70
     4
  9
$AXISMODE
 70
     0
  9
$AXISUNIT
 10
0.0
 20
0.0
  9
$SKETCHINC
 40
0.1
  9
$FILLETRAD
 40
0.0
  9
$AUNITS
 70
     0
  9
$AUPREC
 70
     0
  9
$MENU
  1
ACAD
  9
$ELEVATION
 40
0.0
  9
$THICKNESS
 40
0.0
  9
$VIEWDIR
 10
0.0
 20
0.0
 30
1.0
  9
$LIMCHECK
 70
     0
  9
$BLIPMODE
 70
     1
  9
$CHAMFERA
 40
0.0
  9
$CHAMFERB
 40
0.0
  9
$FASTZOOM
 70
     1
  9
$SKPOLY
 70
     0
  9
$TDCREATE
 40
0000000.0000000000
  9
$TDUPDATE
 40
0000000.0000000000
  9
$TDINDWG
 40
0.0000000000
  9
$TDUSRTIMER
 40
0.0000000000
  9
$USRTIMER
 70
     1
  9
$ANGBASE
 50
0.0
  9
$ANGDIR
 70
     0
  9
$PDMODE
 70
     0
  9
$PDSIZE
 40
0.0
  9
$PLINEWID
 40
0.0
  9
$COORDS
 70
     0
  9
$USERI1
 70
     0
  9
$USERI2
 70
     0
  9
$USERI3
 70
     0
  9
$USERI4
 70
     0
  9
$USERI5
 70
     0
  9
$USERR1
 40
0.0
  9
$USERR2
 40
0.0
  9
$USERR3
 40
0.0
  9
$USERR4
 40
0.0
  9
$USERR5
 40
0.0
  9
$CLAYER
  8
M0
  9
$EXTMIN
 10
12.942344
 20
16.464629
  9
$EXTMAX
 10
284.37092
 20
409.321779
  9
$LIMMIN
 10
0.0
 20
0.0
  9
$LIMMAX
 10
210.0
 20
297.0
  0
ENDSEC
  0
SECTION
  2
TABLES
  0
TABLE
  2
VPORT
  0
VPORT
  2
*ACTIVE
 70
     0
 10
0.0
 20
0.0
 11
1.0
 21
1.0
 12
484.0
 22
297.0
 13
0.0
 23
0.0
 14
1.0
 24
1.0
 15
0.0
 25
0.0
 16
0.0
 26
0.0
 36
1.0
 17
0.0
 27
0.0
 37
0.0
 40
594.0
 41
2.0
 42
50.0
 43
0.0
 44
0.0
 50
0.0
 51
0.0
 71
     0
 72
   100
 73
     1
 74
     1
 75
     0
 76
     0
 77
     0
 78
     0
  0
ENDTAB
  0
TABLE
  2
LTYPE
 70
     5
  0
LTYPE
  2
CONTINUOUS
 70
    64
  3
Solid line
 72
    65
 73
     0
 40
0.0
  0
LTYPE
  2
DASHED
 70
    64
  3
__ __ __ __ __ __ __ __ __ __ __ __ __ __ __ __
 72
    65
 73
     2
 40
0.75
 49
0.5
 49
-0.25
  0
LTYPE
  2
DASHDOT
 70
    64
  3
__ . __ . __ . __ . __ . __ . __ . __ . __ . __
 72
    65
 73
     4
 40
1.0
 49
0.5
 49
-0.25
 49
0.0
 49
-0.25
  0
LTYPE
  2
DIVIDE
 70
    64
  3
____ . . ____ . . ____ . . ____ . . ____ . . __
 72
    65
 73
     6
 40
1.25
 49
0.5
 49
-0.25
 49
0.0
 49
-0.25
 49
0.0
 49
-0.25
  0
LTYPE
  2
DOT
 70
    64
  3
. . . . . . . . . . . . . . . . . . . . . . . .
 72
    65
 73
     2
 40
0.25
 49
0.0
 49
-0.25
  0
ENDTAB
  0
TABLE
  2
LAYER
 70
   102
  0
LAYER
  2
0
 70
     0
 62
     7
  6
CONTINUOUS
  0
LAYER
  2
M0
 70
     0
 62
     3
  6
CONTINUOUS
  0
LAYER
  2
M2
 70
     0
 62
     3
  6
CONTINUOUS
  0
LAYER
  2
DD0
 70
     0
 62
     4
  6
CONTINUOUS
  0
LAYER
  2
DN0
 70
     0
 62
     2
  6
CONTINUOUS
  0
ENDTAB
  0
TABLE
  2
STYLE
 70
     2
  0
STYLE
  2
STANDARD
 70
     0
 40
0.0
 41
1.0
 50
0.0
 71
     0
 42
0.2
  3
txt
  4
BIGFONT
  0
ENDTAB
  0
TABLE
  2
VIEW
 70
     0
  0
ENDTAB
  0
TABLE
  2
DIMSTYLE
 70
     2
  0
DIMSTYLE
  2
STANDARD
 70
     0
  3

  4

  5

  6
_OPEN
  7
_OPEN
 40
1.0
 41
4.285714
 42
1.0
 43
8.0
 44
1.0
 45
0.0
 46
0.0
 47
0.0
 48
0.0
140
4.5
141
0.09
142
0.0
143
0.03937
144
1.0
145
0.0
146
1.0
147
0.6
 71
     0
 72
     0
 73
     1
 74
     1
 75
     0
 76
     0
 77
     3
 78
     8
170
     0
171
     2
172
     0
173
     1
174
     0
175
     0
176
     0
177
     0
178
     0
  0
ENDTAB
  0
ENDSEC
  0
SECTION
  2
BLOCKS
  0
BLOCK
  8
DD0
  2
DIMS0
 70
     0
 10
0.0
 20
0.0
  0
LINE
  8
DD0
 10
174.882968
 20
297.31594
 11
174.882968
 21
353.745886
  0
LINE
  8
DD0
 10
251.843272
 20
351.20809
 11
255.982954
 21
352.317315
  0
LINE
  8
DD0
 10
255.982954
 20
352.317315
 11
251.843272
 21
353.426539
  0
LINE
  8
DD0
 10
179.02265
 20
353.426539
 11
174.882968
 21
352.317315
  0
LINE
  8
DD0
 10
174.882968
 20
352.317315
 11
179.02265
 21
351.20809
  0
LINE
  8
DD0
 10
255.982954
 20
352.317315
 11
174.882968
 21
352.317315
  0
TEXT
  8
DD0
 10
212.821047
 20
353.174466
 40
3.571429
  1
８１
 41
0.666667
  7
STANDARD
  0
ENDBLK
  8
DD0
  0
BLOCK
  8
DD0
  2
DIMS1
 70
     0
 10
0.0
 20
0.0
  0
LINE
  8
DD0
 10
255.982954
 20
320.865942
 11
255.982954
 21
359.835473
  0
LINE
  8
DD0
 10
143.582962
 20
287.915938
 11
143.582962
 21
359.835473
  0
LINE
  8
DD0
 10
251.843272
 20
357.297677
 11
255.982954
 21
358.406901
  0
LINE
  8
DD0
 10
255.982954
 20
358.406901
 11
251.843272
 21
359.516126
  0
LINE
  8
DD0
 10
147.722644
 20
359.516126
 11
143.582962
 21
358.406901
  0
LINE
  8
DD0
 10
143.582962
 20
358.406901
 11
147.722644
 21
357.297677
  0
LINE
  8
DD0
 10
255.982954
 20
358.406901
 11
143.582962
 21
358.406901
  0
TEXT
  8
DD0
 10
165.742473
 20
359.264053
 40
3.571429
  1
１１２（補助接点ヘッドオンユニットを付けた場合）
 41
0.666667
  7
STANDARD
  0
ENDBLK
  8
DD0
  0
BLOCK
  8
DD0
  2
DIMS2
 70
     0
 10
0.0
 20
0.0
  0
LINE
  8
DD0
 10
174.882968
 20
297.31594
 11
174.882968
 21
338.127774
  0
LINE
  8
DD0
 10
169.882968
 20
329.615942
 11
169.882968
 21
338.127774
  0
LINE
  8
DD0
 10
179.02265
 20
337.808427
 11
174.882968
 21
336.699203
  0
LINE
  8
DD0
 10
174.882968
 20
336.699203
 11
179.02265
 21
335.589978
  0
LINE
  8
DD0
 10
165.743286
 20
335.589978
 11
169.882968
 21
336.699203
  0
LINE
  8
DD0
 10
169.882968
 20
336.699203
 11
165.743286
 21
337.808427
  0
LINE
  8
DD0
 10
179.597254
 20
336.699203
 11
160.882968
 21
336.699203
  0
TEXT
  8
DD0
 10
162.142488
 20
337.556354
 40
3.571429
  1
５
 41
0.666667
  7
STANDARD
  0
ENDBLK
  8
DD0
  0
BLOCK
  8
DD0
  2
DIMS3
 70
     0
 10
0.0
 20
0.0
  0
LINE
  8
DD0
 10
255.982954
 20
250.908796
 11
255.982954
 21
234.391374
  0
LINE
  8
DD0
 10
244.982958
 20
248.458801
 11
244.982958
 21
234.391374
  0
LINE
  8
DD0
 10
260.122636
 20
236.92917
 11
255.982954
 21
235.819946
  0
LINE
  8
DD0
 10
255.982954
 20
235.819946
 11
260.122636
 21
234.710721
  0
LINE
  8
DD0
 10
240.843276
 20
234.710721
 11
244.982958
 21
235.819946
  0
LINE
  8
DD0
 10
244.982958
 20
235.819946
 11
240.843276
 21
236.92917
  0
LINE
  8
DD0
 10
260.697239
 20
235.819946
 11
240.268672
 21
235.819946
  0
TEXT
  8
DD0
 10
247.871053
 20
236.677098
 40
3.571429
  1
１１
 41
0.666667
  7
STANDARD
  0
ENDBLK
  8
DD0
  0
BLOCK
  8
DD0
  2
DIMS4
 70
     0
 10
0.0
 20
0.0
  0
LINE
  8
DD0
 10
47.502529
 20
315.315928
 11
47.502529
 21
359.835451
  0
LINE
  8
DD0
 10
115.502528
 20
315.315928
 11
115.502528
 21
359.835451
  0
LINE
  8
DD0
 10
51.642212
 20
359.516104
 11
47.502529
 21
358.40688
  0
LINE
  8
DD0
 10
47.502529
 20
358.40688
 11
51.642212
 21
357.297655
  0
LINE
  8
DD0
 10
111.362846
 20
357.297655
 11
115.502528
 21
358.40688
  0
LINE
  8
DD0
 10
115.502528
 20
358.40688
 11
111.362846
 21
359.516104
  0
LINE
  8
DD0
 10
47.502529
 20
358.40688
 11
115.502528
 21
358.40688
  0
TEXT
  8
DD0
 10
78.890626
 20
359.264031
 40
3.571429
  1
６８
 41
0.666667
  7
STANDARD
  0
TEXT
  8
DD0
 10
51.747769
 20
353.692611
 40
3.571429
  1
（補助接点サイドオンユニットを付けた場合）
 41
0.666667
  7
STANDARD
  0
ENDBLK
  8
DD0
  0
BLOCK
  8
DD0
  2
DIMS5
 70
     0
 10
0.0
 20
0.0
  0
LINE
  8
DD0
 10
60.00253
 20
314.515931
 11
60.00253
 21
346.243728
  0
LINE
  8
DD0
 10
103.002528
 20
317.315941
 11
103.002528
 21
346.243728
  0
LINE
  8
DD0
 10
64.142212
 20
345.924381
 11
60.00253
 21
344.815157
  0
LINE
  8
DD0
 10
60.00253
 20
344.815157
 11
64.142212
 21
343.705932
  0
LINE
  8
DD0
 10
98.862846
 20
343.705932
 11
103.002528
 21
344.815157
  0
LINE
  8
DD0
 10
103.002528
 20
344.815157
 11
98.862846
 21
345.924381
  0
LINE
  8
DD0
 10
60.00253
 20
344.815157
 11
103.002528
 21
344.815157
  0
TEXT
  8
DD0
 10
78.890626
 20
345.672308
 40
3.571429
  1
４３
 41
0.666667
  7
STANDARD
  0
ENDBLK
  8
DD0
  0
BLOCK
  8
DD0
  2
DIMS6
 70
     0
 10
0.0
 20
0.0
  0
LINE
  8
DD0
 10
99.3311
 20
328.587369
 11
134.829235
 21
328.587369
  0
LINE
  8
DD0
 10
87.931106
 20
248.687356
 11
134.829235
 21
248.687356
  0
LINE
  8
DD0
 10
134.509888
 20
324.447687
 11
133.400663
 21
328.587369
  0
LINE
  8
DD0
 10
133.400663
 20
328.587369
 11
132.291439
 21
324.447687
  0
LINE
  8
DD0
 10
132.291439
 20
252.827038
 11
133.400663
 21
248.687356
  0
LINE
  8
DD0
 10
133.400663
 20
248.687356
 11
134.509888
 21
252.827038
  0
LINE
  8
DD0
 10
133.400663
 20
328.587369
 11
133.400663
 21
248.687356
  0
TEXT
  8
DD0
 10
132.543523
 20
286.025438
 40
3.571429
  1
８０
 50
90.000003
 41
0.666667
  7
STANDARD
  0
ENDBLK
  8
DD0
  0
BLOCK
  8
DD0
  2
DIMS7
 70
     0
 10
0.0
 20
0.0
  0
TEXT
  8
DD0
 10
95.94537
 20
112.247284
 40
3.571429
  1
２－Ｍ４ねじ穴
 41
0.666667
  7
STANDARD
  0
ENDBLK
  8
DD0
  0
BLOCK
  8
DD0
  2
DIMS8
 70
     0
 10
0.0
 20
0.0
  0
LINE
  8
DD0
 10
101.008911
 20
126.513857
 11
98.174909
 21
129.728788
  0
LINE
  8
DD0
 10
98.174909
 20
129.728788
 11
99.021761
 21
125.527575
  0
LINE
  8
DD0
 10
98.174909
 20
129.728788
 11
104.260986
 21
117.466629
  0
ENDBLK
  8
DD0
  0
BLOCK
  8
DD0
  2
DIMS9
 70
     0
 10
0.0
 20
0.0
  0
LINE
  8
DD0
 10
103.028512
 20
131.349141
 11
114.899937
 21
131.349141
  0
LINE
  8
DD0
 10
69.52851
 20
186.34912
 11
114.899937
 21
186.34912
  0
LINE
  8
DD0
 10
112.362141
 20
135.488823
 11
113.471366
 21
131.349141
  0
LINE
  8
DD0
 10
113.471366
 20
131.349141
 11
114.58059
 21
135.488823
  0
LINE
  8
DD0
 10
114.58059
 20
182.209438
 11
113.471366
 21
186.34912
  0
LINE
  8
DD0
 10
113.471366
 20
186.34912
 11
112.362141
 21
182.209438
  0
LINE
  8
DD0
 10
113.471366
 20
131.349141
 11
113.471366
 21
186.34912
  0
TEXT
  8
DD0
 10
112.614225
 20
156.237228
 40
3.571429
  1
５５
 50
90.000003
 41
0.666667
  7
STANDARD
  0
ENDBLK
  8
DD0
  0
BLOCK
  8
DD0
  2
DIMS10
 70
     0
 10
0.0
 20
0.0
  0
LINE
  8
DD0
 10
64.002523
 20
191.87509
 11
64.002523
 21
211.414254
  0
LINE
  8
DD0
 10
97.002522
 20
137.375109
 11
97.002522
 21
211.414254
  0
LINE
  8
DD0
 10
68.142205
 20
211.094907
 11
64.002523
 21
209.985682
  0
LINE
  8
DD0
 10
64.002523
 20
209.985682
 11
68.142205
 21
208.876458
  0
LINE
  8
DD0
 10
92.862839
 20
208.876458
 11
97.002522
 21
209.985682
  0
LINE
  8
DD0
 10
97.002522
 20
209.985682
 11
92.862839
 21
211.094907
  0
LINE
  8
DD0
 10
64.002523
 20
209.985682
 11
97.002522
 21
209.985682
  0
TEXT
  8
DD0
 10
77.89062
 20
210.842834
 40
3.571429
  1
３３
 41
0.666667
  7
STANDARD
  0
ENDBLK
  8
DD0
  0
BLOCK
  8
DD0
  2
DIMS11
 70
     0
 10
0.0
 20
0.0
  0
LINE
  8
DD0
 10
66.352529
 20
261.3588
 11
66.352529
 21
234.391374
  0
LINE
  8
DD0
 10
76.452529
 20
261.3588
 11
76.452529
 21
234.391374
  0
LINE
  8
DD0
 10
62.212847
 20
234.710721
 11
66.352529
 21
235.819946
  0
LINE
  8
DD0
 10
66.352529
 20
235.819946
 11
62.212847
 21
236.92917
  0
LINE
  8
DD0
 10
80.592211
 20
236.92917
 11
76.452529
 21
235.819946
  0
LINE
  8
DD0
 10
76.452529
 20
235.819946
 11
80.592211
 21
234.710721
  0
LINE
  8
DD0
 10
61.638244
 20
235.819946
 11
81.166815
 21
235.819946
  0
TEXT
  8
DD0
 10
68.790627
 20
236.677098
 40
3.571429
  1
１０
 41
0.666667
  7
STANDARD
  0
ENDBLK
  8
DD0
  0
BLOCK
  8
DD0
  2
DIMS12
 70
     0
 10
0.0
 20
0.0
  0
LINE
  8
DD0
 10
60.00253
 20
194.577705
 11
60.00253
 21
211.414254
  0
LINE
  8
DD0
 10
64.002523
 20
191.87509
 11
64.002523
 21
211.414254
  0
LINE
  8
DD0
 10
55.862847
 20
208.876458
 11
60.00253
 21
209.985682
  0
LINE
  8
DD0
 10
60.00253
 20
209.985682
 11
55.862847
 21
211.094907
  0
LINE
  8
DD0
 10
68.142205
 20
211.094907
 11
64.002523
 21
209.985682
  0
LINE
  8
DD0
 10
64.002523
 20
209.985682
 11
68.142205
 21
208.876458
  0
LINE
  8
DD0
 10
51.002529
 20
209.985682
 11
68.716809
 21
209.985682
  0
TEXT
  8
DD0
 10
52.262055
 20
210.842834
 40
3.571429
  1
４
 41
0.666667
  7
STANDARD
  0
ENDBLK
  8
DD0
  0
BLOCK
  8
DD0
  2
DIMS13
 70
     0
 10
0.0
 20
0.0
  0
LINE
  8
DD0
 10
99.931108
 20
201.849129
 11
114.899937
 21
201.849129
  0
LINE
  8
DD0
 10
69.52851
 20
186.34912
 11
114.899937
 21
186.34912
  0
LINE
  8
DD0
 10
114.58059
 20
197.709447
 11
113.471366
 21
201.849129
  0
LINE
  8
DD0
 10
113.471366
 20
201.849129
 11
112.362141
 21
197.709447
  0
LINE
  8
DD0
 10
112.362141
 20
190.488802
 11
113.471366
 21
186.34912
  0
LINE
  8
DD0
 10
113.471366
 20
186.34912
 11
114.58059
 21
190.488802
  0
LINE
  8
DD0
 10
113.471366
 20
201.849129
 11
113.471366
 21
186.34912
  0
TEXT
  8
DD0
 10
112.614225
 20
188.630068
 40
3.571429
  1
１５．５
 50
90.000003
 41
0.666667
  7
STANDARD
  0
ENDBLK
  8
DD0
  0
ENDSEC
  0
SECTION
  2
ENTITIES
  0
INSERT
  8
DD0
  2
DIMS0
 10
0.0
 20
0.0
  0
INSERT
  8
DD0
  2
DIMS1
 10
0.0
 20
0.0
  0
INSERT
  8
DD0
  2
DIMS2
 10
0.0
 20
0.0
  0
INSERT
  8
DD0
  2
DIMS3
 10
0.0
 20
0.0
  0
INSERT
  8
DD0
  2
DIMS4
 10
0.0
 20
0.0
  0
INSERT
  8
DD0
  2
DIMS5
 10
0.0
 20
0.0
  0
INSERT
  8
DD0
  2
DIMS6
 10
0.0
 20
0.0
  0
INSERT
  8
DD0
  2
DIMS7
 10
0.0
 20
0.0
  0
INSERT
  8
DD0
  2
DIMS8
 10
0.0
 20
0.0
  0
INSERT
  8
DD0
  2
DIMS9
 10
0.0
 20
0.0
  0
INSERT
  8
DD0
  2
DIMS10
 10
0.0
 20
0.0
  0
INSERT
  8
DD0
  2
DIMS11
 10
0.0
 20
0.0
  0
INSERT
  8
DD0
  2
DIMS12
 10
0.0
 20
0.0
  0
INSERT
  8
DD0
  2
DIMS13
 10
0.0
 20
0.0
  0
LINE
  8
M0
 62
     7
 10
245.482964
 20
319.887366
 11
255.185471
 21
319.887366
  0
LINE
  8
M0
 62
     7
 10
252.482964
 20
300.487366
 11
253.482964
 21
299.487366
  0
LINE
  8
M0
 62
     7
 10
252.482964
 20
301.987366
 11
252.482964
 21
300.487366
  0
LINE
  8
M0
 62
     7
 10
255.682964
 20
319.437366
 11
255.682964
 21
299.987366
  0
LINE
  8
M0
 62
     7
 10
251.782964
 20
298.487366
 11
251.782964
 21
296.487366
  0
LINE
  8
M0
 62
     7
 10
251.482964
 20
295.987366
 11
251.782964
 21
296.487366
  0
LINE
  8
M0
 62
     7
 10
251.782964
 20
298.487366
 11
251.482964
 21
298.487366
  0
LINE
  8
M0
 62
     7
 10
231.482964
 20
323.173153
 11
231.482964
 21
303.287366
  0
LINE
  8
M0
 62
     7
 10
228.275858
 20
326.794473
 11
231.190071
 21
323.88026
  0
LINE
  8
M0
 62
     7
 10
255.682964
 20
265.887366
 11
255.682964
 21
249.887366
  0
LINE
  8
M0
 62
     7
 10
215.382964
 20
297.187366
 11
215.382964
 21
315.087366
  0
LINE
  8
M0
 62
     7
 10
223.136715
 20
328.587366
 11
223.282964
 21
328.587366
  0
LINE
  8
M0
 62
     7
 10
208.882964
 20
318.687366
 11
214.482964
 21
318.687366
  0
LINE
  8
M0
 62
     7
 10
215.382964
 20
315.087366
 11
214.482964
 21
315.087366
  0
LINE
  8
M0
 62
     7
 10
214.482964
 20
315.087366
 11
214.482964
 21
318.687366
  0
LINE
  8
M0
 62
     7
 10
224.282964
 20
327.587366
 11
224.282964
 21
327.087366
  0
LINE
  8
M0
 62
     7
 10
253.482964
 20
299.487366
 11
255.182964
 21
299.487366
  0
LINE
  8
M0
 62
     7
 10
224.282964
 20
327.087366
 11
227.568751
 21
327.087366
  0
LINE
  8
M0
 62
     7
 10
208.282964
 20
318.687366
 11
208.282964
 21
325.587366
  0
LINE
  8
M0
 62
     7
 10
208.882964
 20
318.687366
 11
208.282964
 21
318.687366
  0
POLYLINE
  8
M0
 62
     7
 66
     1
  0
VERTEX
  8
M0
 62
     7
 10
225.212376
 20
303.287366
  0
VERTEX
  8
M0
 62
     7
 10
224.877337
 20
303.272174
  0
VERTEX
  8
M0
 62
     7
 10
224.552478
 20
303.227059
  0
VERTEX
  8
M0
 62
     7
 10
224.24767
 20
303.153392
  0
VERTEX
  8
M0
 62
     7
 10
223.972174
 20
303.053411
  0
VERTEX
  8
M0
 62
     7
 10
223.734361
 20
302.930154
  0
VERTEX
  8
M0
 62
     7
 10
223.541457
 20
302.787366
  0
VERTEX
  8
M0
 62
     7
 10
223.399322
 20
302.629387
  0
VERTEX
  8
M0
 62
     7
 10
223.312276
 20
302.461015
  0
VERTEX
  8
M0
 62
     7
 10
223.282964
 20
302.287366
  0
SEQEND
  8
M0
 62
     7
  0
ARC
  8
M0
 62
     7
 10
227.568751
 20
326.087366
 40
1.0
 50
45.0
 51
90.0
  0
ARC
  8
M0
 62
     7
 10
230.482964
 20
323.173153
 40
1.0
 50
0.0
 51
45.0
  0
ARC
  8
M0
 62
     7
 10
255.182964
 20
299.987366
 40
0.5
 50
270.0
 51
360.0
  0
LINE
  8
M0
 62
     7
 10
220.782964
 20
299.287366
 11
220.782964
 21
306.087366
  0
LINE
  8
M0
 62
     7
 10
220.782964
 20
299.287366
 11
228.182964
 21
299.287366
  0
LINE
  8
M0
 62
     7
 10
220.782964
 20
289.487366
 11
220.782964
 21
296.187366
  0
LINE
  8
M0
 62
     7
 10
220.282964
 20
296.687366
 11
215.882964
 21
296.687366
  0
LINE
  8
M0
 62
     7
 10
234.782964
 20
265.087366
 11
234.782964
 21
255.887366
  0
ARC
  8
M0
 62
     7
 10
219.782964
 20
306.087366
 40
1.0
 50
0.0
 51
90.0
  0
POLYLINE
  8
M0
 62
     7
 66
     1
  0
VERTEX
  8
M0
 62
     7
 10
223.282964
 20
327.987366
  0
VERTEX
  8
M0
 62
     7
 10
223.280742
 20
328.091555
  0
VERTEX
  8
M0
 62
     7
 10
223.274144
 20
328.192579
  0
VERTEX
  8
M0
 62
     7
 10
223.263371
 20
328.287366
  0
VERTEX
  8
M0
 62
     7
 10
223.248748
 20
328.373039
  0
VERTEX
  8
M0
 62
     7
 10
223.230722
 20
328.446993
  0
VERTEX
  8
M0
 62
     7
 10
223.20984
 20
328.506982
  0
VERTEX
  8
M0
 62
     7
 10
223.186735
 20
328.551182
  0
VERTEX
  8
M0
 62
     7
 10
223.162111
 20
328.578251
  0
VERTEX
  8
M0
 62
     7
 10
223.136715
 20
328.587366
  0
SEQEND
  8
M0
 62
     7
  0
ARC
  8
M0
 62
     7
 10
223.282964
 20
327.587366
 40
1.0
 50
0.0
 51
90.0
  0
ARC
  8
M0
 62
     7
 10
222.282964
 20
306.087366
 40
1.0
 50
0.0
 51
90.0
  0
ARC
  8
M0
 62
     7
 10
211.282964
 20
325.587366
 40
3.0
 50
90.0
 51
180.0
  0
ARC
  8
M0
 62
     7
 10
209.682964
 20
327.587366
 40
1.0
 50
90.0
 51
180.0
  0
ARC
  8
M0
 62
     7
 10
227.882964
 20
249.687366
 40
1.0
 50
270.0
 51
360.0
  0
ARC
  8
M0
 62
     7
 10
226.068751
 20
327.587366
 40
1.0
 50
45.0
 51
90.0
  0
LINE
  8
M0
 62
     7
 10
222.482964
 20
261.687366
 11
204.682964
 21
261.687366
  0
LINE
  8
M0
 62
     7
 10
228.182964
 20
264.087366
 11
228.182964
 21
269.087366
  0
LINE
  8
M0
 62
     7
 10
208.682964
 20
327.084029
 11
208.682964
 21
327.587366
  0
LINE
  8
M0
 62
     7
 10
208.682964
 20
318.587366
 11
208.682964
 21
318.687366
  0
ARC
  8
M0
 62
     7
 10
244.382964
 20
250.387366
 40
1.0
 50
180.0
 51
270.0
  0
POLYLINE
  8
M0
 62
     7
 66
     1
  0
VERTEX
  8
M0
 62
     7
 10
236.082964
 20
314.087366
  0
VERTEX
  8
M0
 62
     7
 10
236.076672
 20
314.261015
  0
VERTEX
  8
M0
 62
     7
 10
236.057984
 20
314.429387
  0
VERTEX
  8
M0
 62
     7
 10
236.02747
 20
314.587366
  0
VERTEX
  8
M0
 62
     7
 10
235.986057
 20
314.730154
  0
VERTEX
  8
M0
 62
     7
 10
235.935002
 20
314.853411
  0
VERTEX
  8
M0
 62
     7
 10
235.875858
 20
314.953392
  0
VERTEX
  8
M0
 62
     7
 10
235.81042
 20
315.027059
  0
VERTEX
  8
M0
 62
     7
 10
235.740678
 20
315.072174
  0
VERTEX
  8
M0
 62
     7
 10
235.668751
 20
315.087366
  0
SEQEND
  8
M0
 62
     7
  0
ARC
  8
M0
 62
     7
 10
234.282964
 20
253.687366
 40
0.5
 50
270.0
 51
360.0
  0
LINE
  8
M0
 62
     7
 10
223.282964
 20
306.087366
 11
223.282964
 21
327.987366
  0
ARC
  8
M0
 62
     7
 10
222.482964
 20
262.687366
 40
1.0
 50
270.0
 51
360.0
  0
LINE
  8
M0
 62
     7
 10
251.482964
 20
301.987366
 11
251.482964
 21
266.387366
  0
LINE
  8
M0
 62
     7
 10
255.982964
 20
319.437366
 11
255.982964
 21
305.537366
  0
LINE
  8
M0
 62
     7
 10
223.482964
 20
262.787366
 11
223.482964
 21
262.687366
  0
LINE
  8
M0
 62
     7
 10
255.982964
 20
264.637366
 11
255.682964
 21
264.637366
  0
LINE
  8
M0
 62
     7
 10
223.282964
 20
302.287366
 11
223.782964
 21
299.287366
  0
LINE
  8
M0
 62
     7
 10
204.682964
 20
307.087366
 11
222.282964
 21
307.087366
  0
LINE
  8
M0
 62
     7
 10
223.282964
 20
306.087366
 11
223.282964
 21
302.287366
  0
ARC
  8
M0
 62
     7
 10
229.182964
 20
302.287366
 40
1.0
 50
90.0
 51
180.0
  0
ARC
  8
M0
 62
     7
 10
230.482964
 20
263.787366
 40
1.0
 50
270.0
 51
360.0
  0
ARC
  8
M0
 62
     7
 10
245.482964
 20
249.887366
 40
0.5
 50
180.0
 51
270.0
  0
LINE
  8
M0
 62
     7
 10
255.982964
 20
319.437366
 11
255.682964
 21
319.437366
  0
LINE
  8
M0
 62
     7
 10
248.182964
 20
266.771139
 11
232.682964
 21
266.771139
  0
LINE
  8
M0
 62
     7
 10
248.182964
 20
298.726811
 11
232.682964
 21
298.726811
  0
LINE
  8
M0
 62
     7
 10
232.682964
 20
301.603594
 11
248.182964
 21
301.603594
  0
ARC
  8
M0
 62
     7
 10
255.182964
 20
249.887366
 40
0.5
 50
270.0
 51
360.0
  0
ARC
  8
M0
 62
     7
 10
255.182964
 20
302.487366
 40
0.5
 50
270.0
 51
360.0
  0
ARC
  8
M0
 62
     7
 10
218.982964
 20
288.887366
 40
0.6
 50
90.0
 51
180.0
  0
ARC
  8
M0
 62
     7
 10
218.982964
 20
279.787366
 40
0.6
 50
180.0
 51
270.0
  0
LINE
  8
M0
 62
     7
 10
232.682964
 20
269.647922
 11
248.182964
 21
269.647922
  0
ARC
  8
M0
 62
     7
 10
250.982964
 20
270.887366
 40
0.5
 50
270.0
 51
360.0
  0
ARC
  8
M0
 62
     7
 10
250.982964
 20
297.487366
 40
0.5
 50
0.0
 51
90.0
  0
ARC
  8
M0
 62
     7
 10
255.185471
 20
319.387366
 40
0.5
 50
5.73917
 51
90.0
  0
ARC
  8
M0
 62
     7
 10
248.182964
 20
301.903594
 40
0.3
 50
270.0
 51
360.0
  0
LINE
  8
M0
 62
     7
 10
253.182964
 20
268.687366
 11
253.622964
 21
268.187366
  0
LINE
  8
M0
 62
     7
 10
252.482964
 20
268.687366
 11
253.182964
 21
268.687366
  0
LINE
  8
M0
 62
     7
 10
252.482964
 20
268.187366
 11
252.482964
 21
268.687366
  0
LINE
  8
M0
 62
     7
 10
255.207494
 20
266.386764
 11
253.622964
 21
268.187366
  0
ARC
  8
M0
 62
     7
 10
252.182964
 20
249.187366
 40
0.5
 50
180.0
 51
270.0
  0
ARC
  8
M0
 62
     7
 10
252.182964
 20
266.687366
 40
0.5
 50
90.0
 51
180.0
  0
ARC
  8
M0
 62
     7
 10
248.182964
 20
266.471139
 40
0.3
 50
0.0
 51
90.0
  0
ARC
  8
M0
 62
     7
 10
248.182964
 20
298.426811
 40
0.3
 50
0.0
 51
90.0
  0
ARC
  8
M0
 62
     7
 10
245.482964
 20
319.387366
 40
0.5
 50
90.0
 51
180.0
  0
LINE
  8
M0
 62
     7
 10
255.382964
 20
249.429109
 11
255.382964
 21
248.687366
  0
LINE
  8
M0
 62
     7
 10
251.682964
 20
249.187366
 11
251.682964
 21
249.387366
  0
LINE
  8
M0
 62
     7
 10
255.382964
 20
248.687366
 11
252.182964
 21
248.687366
  0
LINE
  8
M0
 62
     7
 10
255.682964
 20
252.337366
 11
255.982964
 21
252.337366
  0
ARC
  8
M0
 62
     7
 10
255.182964
 20
265.887366
 40
0.5
 50
0.0
 51
90.0
  0
LINE
  8
M0
 62
     7
 10
252.482964
 20
268.187366
 11
252.482964
 21
267.187366
  0
ARC
  8
M0
 62
     7
 10
248.182964
 20
269.947922
 40
0.3
 50
270.0
 51
360.0
  0
LINE
  8
M0
 62
     7
 10
253.682964
 20
266.687366
 11
253.682964
 21
266.387366
  0
LINE
  8
M0
 62
     7
 10
253.682964
 20
267.187366
 11
253.682964
 21
266.687366
  0
LINE
  8
M0
 62
     7
 10
251.682964
 20
266.387366
 11
251.682964
 21
266.687366
  0
LINE
  8
M0
 62
     7
 10
255.182964
 20
301.987366
 11
248.482964
 21
301.987366
  0
LINE
  8
M0
 62
     7
 10
255.182964
 20
249.387366
 11
245.482964
 21
249.387366
  0
LINE
  8
M0
 62
     7
 10
228.182964
 20
269.087366
 11
220.782964
 21
269.087366
  0
LINE
  8
M0
 62
     7
 10
228.182964
 20
264.087366
 11
220.782964
 21
264.087366
  0
LINE
  8
M0
 62
     7
 10
232.682964
 20
269.647922
 11
232.682964
 21
266.771139
  0
LINE
  8
M0
 62
     7
 10
232.682964
 20
301.603594
 11
232.682964
 21
298.726811
  0
LINE
  8
M0
 62
     7
 10
248.482964
 20
266.387366
 11
255.182964
 21
266.387366
  0
LINE
  8
M0
 62
     7
 10
218.382964
 20
279.787366
 11
218.382964
 21
288.887366
  0
LINE
  8
M0
 62
     7
 10
220.782964
 20
289.487366
 11
218.982964
 21
289.487366
  0
LINE
  8
M0
 62
     7
 10
228.182964
 20
299.287366
 11
228.182964
 21
302.287366
  0
LINE
  8
M0
 62
     7
 10
244.982964
 20
265.087366
 11
231.482964
 21
265.087366
  0
LINE
  8
M0
 62
     7
 10
244.982964
 20
249.887366
 11
244.982964
 21
265.087366
  0
LINE
  8
M0
 62
     7
 10
225.212376
 20
303.287366
 11
244.982964
 21
303.287366
  0
ARC
  8
M0
 62
     7
 10
215.882964
 20
297.187366
 40
0.5
 50
180.0
 51
270.0
  0
LINE
  8
M0
 62
     7
 10
252.182964
 20
267.187366
 11
253.682964
 21
267.187366
  0
ARC
  8
M0
 62
     7
 10
220.282964
 20
296.187366
 40
0.5
 50
0.0
 51
90.0
  0
LINE
  8
M0
 62
     7
 10
231.482964
 20
265.087366
 11
231.482964
 21
263.787366
  0
LINE
  8
M0
 62
     7
 10
248.482964
 20
298.426811
 11
248.482964
 21
297.987366
  0
LINE
  8
M0
 62
     7
 10
248.482964
 20
297.987366
 11
250.982964
 21
297.987366
  0
LINE
  8
M0
 62
     7
 10
250.982964
 20
270.387366
 11
248.482964
 21
270.387366
  0
LINE
  8
M0
 62
     7
 10
220.782964
 20
279.187366
 11
218.982964
 21
279.187366
  0
LINE
  8
M0
 62
     7
 10
229.182964
 20
303.287366
 11
231.182964
 21
303.287366
  0
LINE
  8
M0
 62
     7
 10
230.482964
 20
262.787366
 11
223.482964
 21
262.787366
  0
LINE
  8
M0
 62
     7
 10
244.982964
 20
303.287366
 11
244.982964
 21
319.387366
  0
LINE
  8
M0
 62
     7
 10
248.482964
 20
270.387366
 11
248.482964
 21
269.947922
  0
ARC
  8
M0
 62
     7
 10
201.187346
 20
258.387366
 40
3.0
 50
270.0
 51
320.582606
  0
ARC
  8
M0
 62
     7
 10
184.182964
 20
260.387366
 40
5.0
 50
180.0
 51
270.0
  0
ARC
  8
M0
 62
     7
 10
201.285638
 20
309.987366
 40
3.0
 50
41.009087
 51
90.0
  0
ARC
  8
M0
 62
     7
 10
201.682964
 20
309.530441
 40
3.0
 50
0.0
 51
41.009087
  0
ARC
  8
M0
 62
     7
 10
201.682964
 20
258.990369
 40
3.0
 50
320.582606
 51
360.0
  0
ARC
  8
M0
 62
     7
 10
180.182964
 20
288.887366
 40
1.0
 50
180.0
 51
270.0
  0
LINE
  8
M0
 62
     7
 10
196.982964
 20
315.387366
 11
196.982964
 21
316.387366
  0
ARC
  8
M0
 62
     7
 10
180.182964
 20
279.487366
 40
1.0
 50
90.0
 51
180.0
  0
LINE
  8
M0
 62
     7
 10
196.982964
 20
316.387366
 11
200.582964
 21
316.387366
  0
LINE
  8
M0
 62
     7
 10
204.082964
 20
253.187366
 11
202.882964
 21
251.987366
  0
LINE
  8
M0
 62
     7
 10
196.982964
 20
251.987366
 11
196.982964
 21
252.987366
  0
ARC
  8
M0
 62
     7
 10
184.182964
 20
307.987366
 40
5.0
 50
90.0
 51
180.0
  0
ARC
  8
M0
 62
     7
 10
207.082964
 20
281.987366
 40
0.5
 50
180.0
 51
270.0
  0
ARC
  8
M0
 62
     7
 10
207.082964
 20
286.387366
 40
0.5
 50
90.0
 51
180.0
  0
LINE
  8
M0
 62
     7
 10
175.382964
 20
277.687366
 11
176.882964
 21
277.687366
  0
LINE
  8
M0
 62
     7
 10
175.382964
 20
296.387366
 11
179.182964
 21
296.387366
  0
LINE
  8
M0
 62
     7
 10
176.882964
 20
296.387366
 11
176.882964
 21
288.787366
  0
LINE
  8
M0
 62
     7
 10
179.182964
 20
273.187366
 11
175.382964
 21
273.187366
  0
LINE
  8
M0
 62
     7
 10
176.882964
 20
277.687366
 11
176.882964
 21
273.187366
  0
LINE
  8
M0
 62
     7
 10
175.382964
 20
288.787366
 11
176.882964
 21
288.787366
  0
LINE
  8
M0
 62
     7
 10
176.882964
 20
290.287366
 11
175.382964
 21
290.287366
  0
LINE
  8
M0
 62
     7
 10
185.182964
 20
316.387366
 11
195.084266
 21
316.387366
  0
LINE
  8
M0
 62
     7
 10
195.084266
 20
316.387366
 11
195.190759
 21
315.387366
  0
LINE
  8
M0
 62
     7
 10
195.446343
 20
312.987366
 11
195.190759
 21
315.387366
  0
LINE
  8
M0
 62
     7
 10
200.582964
 20
316.387366
 11
201.982964
 21
314.987366
  0
LINE
  8
M0
 62
     7
 10
195.190759
 20
252.987366
 11
195.446343
 21
255.387366
  0
LINE
  8
M0
 62
     7
 10
195.084266
 20
316.387366
 11
196.982964
 21
316.387366
  0
LINE
  8
M0
 62
     7
 10
181.182964
 20
311.987366
 11
181.182964
 21
312.387366
  0
LINE
  8
M0
 62
     7
 10
195.190759
 20
252.987366
 11
195.084266
 21
251.987366
  0
LINE
  8
M0
 62
     7
 10
181.182964
 20
255.987366
 11
181.182964
 21
256.387366
  0
LINE
  8
M0
 62
     7
 10
220.782964
 20
296.087366
 11
220.782964
 21
289.687366
  0
LINE
  8
M0
 62
     7
 10
203.549455
 20
311.955903
 11
203.946781
 21
311.498977
  0
LINE
  8
M0
 62
     7
 10
184.182964
 20
312.987366
 11
201.285638
 21
312.987366
  0
LINE
  8
M0
 62
     7
 10
204.000587
 20
257.085474
 11
203.504968
 21
256.482471
  0
LINE
  8
M0
 62
     7
 10
204.682964
 20
309.530441
 11
204.682964
 21
307.087366
  0
LINE
  8
M0
 62
     7
 10
204.682964
 20
261.687366
 11
204.682964
 21
258.990369
  0
LINE
  8
M0
 62
     7
 10
181.682964
 20
287.887366
 11
181.682964
 21
280.487366
  0
LINE
  8
M0
 62
     7
 10
206.582964
 20
286.387366
 11
206.582964
 21
281.987366
  0
LINE
  8
M0
 62
     7
 10
207.082964
 20
281.487366
 11
218.382964
 21
281.487366
  0
LINE
  8
M0
 62
     7
 10
243.382964
 20
253.187366
 11
204.082964
 21
253.187366
  0
LINE
  8
M0
 62
     7
 10
205.082964
 20
307.087366
 11
205.082964
 21
314.987366
  0
LINE
  8
M0
 62
     7
 10
196.982964
 20
312.987366
 11
196.982964
 21
315.387366
  0
LINE
  8
M0
 62
     7
 10
202.882964
 20
251.987366
 11
185.182964
 21
251.987366
  0
LINE
  8
M0
 62
     7
 10
201.982964
 20
314.987366
 11
205.082964
 21
314.987366
  0
LINE
  8
M0
 62
     7
 10
180.682964
 20
280.487366
 11
180.682964
 21
287.887366
  0
LINE
  8
M0
 62
     7
 10
179.182964
 20
260.387366
 11
179.182964
 21
307.987366
  0
LINE
  8
M0
 62
     7
 10
181.682964
 20
287.887366
 11
180.182964
 21
287.887366
  0
LINE
  8
M0
 62
     7
 10
201.187346
 20
255.387366
 11
184.182964
 21
255.387366
  0
LINE
  8
M0
 62
     7
 10
180.182964
 20
280.487366
 11
181.682964
 21
280.487366
  0
LINE
  8
M0
 62
     7
 10
218.382964
 20
286.887366
 11
207.082964
 21
286.887366
  0
LINE
  8
M0
 62
     7
 10
196.982964
 20
252.987366
 11
196.982964
 21
255.387366
  0
LINE
  8
M0
 62
     7
 10
228.882964
 20
253.187366
 11
228.882964
 21
249.687366
  0
LINE
  8
M0
 62
     7
 10
231.482964
 20
320.987366
 11
231.482964
 21
323.173153
  0
LINE
  8
M0
 62
     7
 10
239.082964
 20
318.087366
 11
244.982964
 21
318.087366
  0
LINE
  8
M0
 62
     7
 10
231.382964
 20
253.187366
 11
229.382964
 21
253.187366
  0
LINE
  8
M0
 62
     7
 10
231.882964
 20
253.187366
 11
231.382964
 21
253.187366
  0
LINE
  8
M0
 62
     7
 10
231.482964
 20
318.687366
 11
231.482964
 21
315.087366
  0
LINE
  8
M0
 62
     7
 10
243.382964
 20
250.387366
 11
243.382964
 21
265.087366
  0
LINE
  8
M0
 62
     7
 10
226.775858
 20
328.294473
 11
228.275858
 21
326.794473
  0
LINE
  8
M0
 62
     7
 10
247.482964
 20
249.387366
 11
244.382964
 21
249.387366
  0
LINE
  8
M0
 62
     7
 10
243.382964
 20
254.887366
 11
244.982964
 21
254.887366
  0
LINE
  8
M0
 62
     7
 10
239.082964
 20
318.087366
 11
239.082964
 21
315.087366
  0
LINE
  8
M0
 62
     7
 10
220.782964
 20
248.687366
 11
220.782964
 21
249.687366
  0
LINE
  8
M0
 62
     7
 10
251.782964
 20
298.487366
 11
251.482964
 21
299.487366
  0
LINE
  8
M0
 62
     7
 10
208.682964
 20
318.587366
 11
205.082964
 21
317.087366
  0
LINE
  8
M0
 62
     7
 10
214.382964
 20
318.587366
 11
208.682964
 21
318.587366
  0
LINE
  8
M0
 62
     7
 10
205.082964
 20
317.087366
 11
205.082964
 21
315.087366
  0
LINE
  8
M0
 62
     7
 10
208.882964
 20
317.587366
 11
206.082964
 21
316.4207
  0
LINE
  8
M0
 62
     7
 10
214.382964
 20
315.087366
 11
214.382964
 21
318.587366
  0
LINE
  8
M0
 62
     7
 10
213.382964
 20
317.587366
 11
208.882964
 21
317.587366
  0
LINE
  8
M0
 62
     7
 10
226.482964
 20
328.587366
 11
209.682964
 21
328.587366
  0
LINE
  8
M0
 62
     7
 10
214.382964
 20
318.587366
 11
214.482964
 21
318.587366
  0
LINE
  8
M0
 62
     7
 10
214.482964
 20
315.087366
 11
214.382964
 21
315.087366
  0
LINE
  8
M0
 62
     7
 10
255.982964
 20
305.537366
 11
255.682964
 21
305.537366
  0
LINE
  8
M0
 62
     7
 10
213.382964
 20
316.087366
 11
213.382964
 21
317.587366
  0
LINE
  8
M0
 62
     7
 10
214.382964
 20
315.087366
 11
205.082964
 21
315.087366
  0
LINE
  8
M0
 62
     7
 10
206.082964
 20
316.087366
 11
213.382964
 21
316.087366
  0
LINE
  8
M0
 62
     7
 10
206.082964
 20
316.4207
 11
206.082964
 21
316.087366
  0
LINE
  8
M0
 62
     7
 10
220.782964
 20
279.187366
 11
220.782964
 21
248.687366
  0
LINE
  8
M0
 62
     7
 10
204.782964
 20
248.687366
 11
196.982964
 21
249.187366
  0
LINE
  8
M0
 62
     7
 10
227.882964
 20
248.687366
 11
204.782964
 21
248.687366
  0
LINE
  8
M0
 62
     7
 10
196.982964
 20
250.189419
 11
196.982964
 21
251.987366
  0
LINE
  8
M0
 62
     7
 10
190.394809
 20
249.456311
 11
187.682964
 21
251.987366
  0
LINE
  8
M0
 62
     7
 10
196.982964
 20
249.187366
 11
195.083848
 21
249.187366
  0
LINE
  8
M0
 62
     7
 10
195.161432
 20
250.187366
 11
195.083848
 21
249.187366
  0
LINE
  8
M0
 62
     7
 10
195.161432
 20
250.187366
 11
195.301084
 21
251.987366
  0
LINE
  8
M0
 62
     7
 10
195.083848
 20
249.187366
 11
191.077128
 21
249.187366
  0
LINE
  8
M0
 62
     7
 10
174.882964
 20
273.687366
 11
174.882964
 21
295.887366
  0
LINE
  8
M0
 62
     7
 10
196.982964
 20
249.187366
 11
196.982964
 21
250.189419
  0
LINE
  8
M0
 62
     7
 10
205.082964
 20
314.987366
 11
205.082964
 21
315.087366
  0
POLYLINE
  8
M0
 62
     7
 66
     1
  0
VERTEX
  8
M0
 62
     7
 10
174.882964
 20
290.494473
  0
VERTEX
  8
M0
 62
     7
 10
174.89056
 20
290.458509
  0
VERTEX
  8
M0
 62
     7
 10
174.913118
 20
290.423639
  0
VERTEX
  8
M0
 62
     7
 10
174.949952
 20
290.39092
  0
VERTEX
  8
M0
 62
     7
 10
174.999942
 20
290.361348
  0
VERTEX
  8
M0
 62
     7
 10
175.061571
 20
290.33582
  0
VERTEX
  8
M0
 62
     7
 10
175.132964
 20
290.315113
  0
VERTEX
  8
M0
 62
     7
 10
175.211954
 20
290.299856
  0
VERTEX
  8
M0
 62
     7
 10
175.29614
 20
290.290513
  0
VERTEX
  8
M0
 62
     7
 10
175.382964
 20
290.287366
  0
SEQEND
  8
M0
 62
     7
  0
POLYLINE
  8
M0
 62
     7
 66
     1
  0
VERTEX
  8
M0
 62
     7
 10
174.882964
 20
288.994473
  0
VERTEX
  8
M0
 62
     7
 10
174.89056
 20
288.958509
  0
VERTEX
  8
M0
 62
     7
 10
174.913118
 20
288.923639
  0
VERTEX
  8
M0
 62
     7
 10
174.949952
 20
288.89092
  0
VERTEX
  8
M0
 62
     7
 10
174.999942
 20
288.861348
  0
VERTEX
  8
M0
 62
     7
 10
175.061571
 20
288.83582
  0
VERTEX
  8
M0
 62
     7
 10
175.132964
 20
288.815113
  0
VERTEX
  8
M0
 62
     7
 10
175.211954
 20
288.799856
  0
VERTEX
  8
M0
 62
     7
 10
175.29614
 20
288.790513
  0
VERTEX
  8
M0
 62
     7
 10
175.382964
 20
288.787366
  0
SEQEND
  8
M0
 62
     7
  0
ARC
  8
M0
 62
     7
 10
208.082964
 20
282.587366
 40
1.0
 50
180.0
 51
270.0
  0
ARC
  8
M0
 62
     7
 10
191.077128
 20
250.187366
 40
1.0
 50
226.974934
 51
270.0
  0
ARC
  8
M0
 62
     7
 10
209.582964
 20
282.587366
 40
1.0
 50
270.0
 51
360.0
  0
ARC
  8
M0
 62
     7
 10
175.382964
 20
295.887366
 40
0.5
 50
90.0
 51
180.0
  0
LINE
  8
M0
 62
     7
 10
255.982964
 20
264.637366
 11
255.982964
 21
252.337366
  0
LINE
  8
M0
 62
     7
 10
234.282964
 20
253.187366
 11
234.18919
 21
253.187366
  0
LINE
  8
M0
 62
     7
 10
231.482964
 20
315.087366
 11
244.982964
 21
315.087366
  0
LINE
  8
M0
 62
     7
 10
236.082964
 20
303.287366
 11
236.082964
 21
314.087366
  0
LINE
  8
M0
 62
     7
 10
210.582964
 20
282.587366
 11
210.582964
 21
286.887366
  0
LINE
  8
M0
 62
     7
 10
208.082964
 20
281.587366
 11
209.582964
 21
281.587366
  0
LINE
  8
M0
 62
     7
 10
212.682964
 20
286.887366
 11
212.682964
 21
281.487366
  0
LINE
  8
M0
 62
     7
 10
175.382964
 20
273.187366
 11
176.382964
 21
273.187366
  0
LINE
  8
M0
 62
     7
 10
210.282964
 20
248.687366
 11
204.782964
 21
248.687366
  0
ARC
  8
M0
 62
     7
 10
175.382964
 20
273.687366
 40
0.5
 50
180.0
 51
270.0
  0
LINE
  8
M0
 62
     7
 10
234.782964
 20
255.887366
 11
234.782964
 21
253.687366
  0
ARC
  8
M0
 62
     7
 10
175.382964
 20
277.187366
 40
0.5
 50
90.0
 51
180.0
  0
ARC
  8
M0
 62
     7
 10
185.182964
 20
312.387366
 40
4.0
 50
90.0
 51
180.0
  0
ARC
  8
M0
 62
     7
 10
185.182964
 20
255.987366
 40
4.0
 50
180.0
 51
270.0
  0
LINE
  8
M0
 62
     7
 10
207.082964
 20
286.887366
 11
207.082964
 21
282.587366
  0
LINE
  8
M0
  6
DASHED
 62
     7
 10
143.582965
 20
286.48736
 11
143.582965
 21
283.68736
  0
LINE
  8
M0
  6
DASHED
 62
     7
 10
143.582965
 20
286.48736
 11
145.182964
 21
286.48736
  0
LINE
  8
M0
  6
DASHED
 62
     7
 10
145.182964
 20
283.68736
 11
143.582965
 21
283.68736
  0
LINE
  8
M0
  6
DASHED
 62
     7
 10
178.682964
 20
302.887354
 11
169.282964
 21
302.887354
  0
LINE
  8
M0
  6
DASHED
 62
     7
 10
178.682965
 20
267.487366
 11
173.882964
 21
267.487366
  0
LINE
  8
M0
  6
DASHED
 62
     7
 10
145.182964
 20
265.78736
 11
145.182964
 21
304.58736
  0
ARC
  8
M0
  6
DASHED
 62
     7
 10
149.182964
 20
265.78736
 40
4.0
 50
180.0
 51
270.0
  0
ARC
  8
M0
  6
DASHED
 62
     7
 10
164.282964
 20
266.78736
 40
5.0
 50
270.0
 51
360.0
  0
ARC
  8
M0
  6
DASHED
 62
     7
 10
178.682964
 20
267.987366
 40
0.5
 50
270.0
 51
360.0
  0
ARC
  8
M0
  6
DASHED
 62
     7
 10
149.182964
 20
304.58736
 40
4.0
 50
90.0
 51
180.0
  0
ARC
  8
M0
  6
DASHED
 62
     7
 10
164.282964
 20
303.58736
 40
5.0
 50
0.0
 51
90.0
  0
ARC
  8
M0
  6
DASHED
 62
     7
 10
178.682964
 20
302.387354
 40
0.5
 50
0.0
 51
90.0
  0
LINE
  8
M0
  6
DASHED
 62
     7
 10
169.282964
 20
302.887354
 11
169.282964
 21
303.58736
  0
LINE
  8
M0
  6
DASHED
 62
     7
 10
164.282965
 20
308.587361
 11
149.182964
 21
308.587361
  0
LINE
  8
M0
  6
DASHED
 62
     7
 10
177.082964
 20
302.887354
 11
177.082964
 21
304.88736
  0
LINE
  8
M0
  6
DASHED
 62
     7
 10
177.482964
 20
304.88736
 11
178.082966
 21
302.887354
  0
LINE
  8
M0
  6
DASHED
 62
     7
 10
177.082964
 20
304.88736
 11
177.482964
 21
304.88736
  0
LINE
  8
M0
  6
DASHED
 62
     7
 10
178.682965
 20
267.487366
 11
169.282964
 21
267.487366
  0
LINE
  8
M0
  6
DASHED
 62
     7
 10
169.282964
 20
267.487366
 11
169.282964
 21
266.78736
  0
LINE
  8
M0
  6
DASHED
 62
     7
 10
164.282965
 20
261.78736
 11
149.182964
 21
261.78736
  0
LINE
  8
M0
  6
DASHED
 62
     7
 10
115.502532
 20
313.887366
 11
115.502532
 21
254.487366
  0
LINE
  8
M0
  6
DASHED
 62
     7
 10
115.502532
 20
254.487366
 11
103.002532
 21
254.487366
  0
LINE
  8
M0
  6
DASHED
 62
     7
 10
115.502532
 20
313.887366
 11
103.002532
 21
313.887366
  0
LINE
  8
M0
  6
DASHED
 62
     7
 10
47.502532
 20
313.887366
 11
60.002532
 21
313.887366
  0
LINE
  8
M0
  6
DASHED
 62
     7
 10
47.502532
 20
313.887366
 11
47.502532
 21
254.487366
  0
LINE
  8
M0
  6
DASHED
 62
     7
 10
47.502532
 20
254.487366
 11
60.002532
 21
254.487366
  0
SOLID
  8
M0
 62
     7
 10
169.882964
 20
328.187366
 11
167.882964
 21
328.187366
 12
169.882964
 22
309.987366
 13
167.882964
 23
309.987366
  0
ARC
  8
M0
 62
     7
 10
93.327532
 20
308.412366
 40
0.5
 50
90.0
 51
180.0
  0
ARC
  8
M0
 62
     7
 10
93.327532
 20
301.762366
 40
0.5
 50
180.0
 51
270.0
  0
ARC
  8
M0
 62
     7
 10
99.977532
 20
308.412366
 40
0.5
 50
0.0
 51
90.0
  0
ARC
  8
M0
 62
     7
 10
99.977532
 20
301.762366
 40
0.5
 50
270.0
 51
360.0
  0
LINE
  8
M0
 62
     7
 10
92.827532
 20
308.412366
 11
92.827532
 21
301.762366
  0
LINE
  8
M0
 62
     7
 10
100.477532
 20
301.762366
 11
100.477532
 21
308.412366
  0
LINE
  8
M0
 62
     7
 10
93.327532
 20
301.262366
 11
99.977532
 21
301.262366
  0
LINE
  8
M0
 62
     7
 10
99.977532
 20
308.912366
 11
93.327532
 21
308.912366
  0
LINE
  8
M0
  6
DASHDOT
 62
     7
 10
96.152532
 20
305.087366
 11
97.152532
 21
305.087366
  0
LINE
  8
M0
  6
DASHDOT
 62
     7
 10
96.652532
 20
304.587366
 11
96.652532
 21
305.587366
  0
ARC
  8
M0
 62
     7
 10
73.127532
 20
308.412366
 40
0.5
 50
90.0
 51
180.0
  0
ARC
  8
M0
 62
     7
 10
73.127532
 20
301.762366
 40
0.5
 50
180.0
 51
270.0
  0
ARC
  8
M0
 62
     7
 10
79.777532
 20
308.412366
 40
0.5
 50
0.0
 51
90.0
  0
ARC
  8
M0
 62
     7
 10
79.777532
 20
301.762366
 40
0.5
 50
270.0
 51
360.0
  0
LINE
  8
M0
 62
     7
 10
72.627532
 20
308.412366
 11
72.627532
 21
301.762366
  0
LINE
  8
M0
 62
     7
 10
80.277532
 20
301.762366
 11
80.277532
 21
308.412366
  0
LINE
  8
M0
 62
     7
 10
73.127532
 20
301.262366
 11
79.777532
 21
301.262366
  0
LINE
  8
M0
 62
     7
 10
79.777532
 20
308.912366
 11
73.127532
 21
308.912366
  0
LINE
  8
M0
  6
DASHDOT
 62
     7
 10
75.952532
 20
305.087366
 11
76.952532
 21
305.087366
  0
LINE
  8
M0
  6
DASHDOT
 62
     7
 10
76.452532
 20
304.587366
 11
76.452532
 21
305.587366
  0
ARC
  8
M0
 62
     7
 10
83.227532
 20
308.412366
 40
0.5
 50
90.0
 51
180.0
  0
ARC
  8
M0
 62
     7
 10
83.227532
 20
301.762366
 40
0.5
 50
180.0
 51
270.0
  0
ARC
  8
M0
 62
     7
 10
89.877532
 20
308.412366
 40
0.5
 50
0.0
 51
90.0
  0
ARC
  8
M0
 62
     7
 10
89.877532
 20
301.762366
 40
0.5
 50
270.0
 51
360.0
  0
LINE
  8
M0
 62
     7
 10
82.727532
 20
308.412366
 11
82.727532
 21
301.762366
  0
LINE
  8
M0
 62
     7
 10
90.377532
 20
301.762366
 11
90.377532
 21
308.412366
  0
LINE
  8
M0
 62
     7
 10
83.227532
 20
301.262366
 11
89.877532
 21
301.262366
  0
LINE
  8
M0
 62
     7
 10
89.877532
 20
308.912366
 11
83.227532
 21
308.912366
  0
LINE
  8
M0
  6
DASHDOT
 62
     7
 10
86.052532
 20
305.087366
 11
87.052532
 21
305.087366
  0
LINE
  8
M0
  6
DASHDOT
 62
     7
 10
86.552532
 20
304.587366
 11
86.552532
 21
305.587366
  0
LINE
  8
M0
 62
     7
 10
74.427532
 20
325.312366
 11
73.227532
 21
326.512366
  0
ARC
  8
M0
 62
     7
 10
67.277532
 20
326.012366
 40
0.5
 50
90.0
 51
180.0
  0
ARC
  8
M0
 62
     7
 10
67.277532
 20
319.362366
 40
0.5
 50
180.0
 51
270.0
  0
ARC
  8
M0
 62
     7
 10
73.927532
 20
326.012366
 40
0.5
 50
0.0
 51
90.0
  0
ARC
  8
M0
 62
     7
 10
73.927532
 20
319.362366
 40
0.5
 50
270.0
 51
360.0
  0
CIRCLE
  8
M0
 62
     7
 10
70.602532
 20
322.687366
 40
3.0
  0
LINE
  8
M0
 62
     7
 10
66.777532
 20
326.012366
 11
66.777532
 21
319.362366
  0
LINE
  8
M0
 62
     7
 10
74.427532
 20
319.362366
 11
74.427532
 21
326.012366
  0
LINE
  8
M0
 62
     7
 10
67.277532
 20
318.862366
 11
73.927532
 21
318.862366
  0
LINE
  8
M0
 62
     7
 10
73.927532
 20
326.512366
 11
67.277532
 21
326.512366
  0
LINE
  8
M0
  6
DASHDOT
 62
     7
 10
70.102532
 20
322.687366
 11
71.102532
 21
322.687366
  0
LINE
  8
M0
  6
DASHDOT
 62
     7
 10
70.602532
 20
322.187366
 11
70.602532
 21
323.187366
  0
ARC
  8
M0
 62
     7
 10
63.027532
 20
308.412366
 40
0.5
 50
90.0
 51
180.0
  0
ARC
  8
M0
 62
     7
 10
63.027532
 20
301.762366
 40
0.5
 50
180.0
 51
270.0
  0
ARC
  8
M0
 62
     7
 10
69.677532
 20
308.412366
 40
0.5
 50
0.0
 51
90.0
  0
ARC
  8
M0
 62
     7
 10
69.677532
 20
301.762366
 40
0.5
 50
270.0
 51
360.0
  0
LINE
  8
M0
 62
     7
 10
62.527532
 20
308.412366
 11
62.527532
 21
301.762366
  0
LINE
  8
M0
 62
     7
 10
70.177532
 20
301.762366
 11
70.177532
 21
308.412366
  0
LINE
  8
M0
 62
     7
 10
63.027532
 20
301.262366
 11
69.677532
 21
301.262366
  0
LINE
  8
M0
 62
     7
 10
69.677532
 20
308.912366
 11
63.027532
 21
308.912366
  0
LINE
  8
M0
  6
DASHDOT
 62
     7
 10
65.852532
 20
305.087366
 11
66.852532
 21
305.087366
  0
LINE
  8
M0
  6
DASHDOT
 62
     7
 10
66.352532
 20
304.587366
 11
66.352532
 21
305.587366
  0
ARC
  8
M0
 62
     7
 10
89.077532
 20
326.012366
 40
0.5
 50
90.0
 51
180.0
  0
ARC
  8
M0
 62
     7
 10
89.077532
 20
319.362366
 40
0.5
 50
180.0
 51
270.0
  0
ARC
  8
M0
 62
     7
 10
95.727532
 20
326.012366
 40
0.5
 50
0.0
 51
90.0
  0
ARC
  8
M0
 62
     7
 10
95.727532
 20
319.362366
 40
0.5
 50
270.0
 51
360.0
  0
LINE
  8
M0
 62
     7
 10
88.577532
 20
326.012366
 11
88.577532
 21
319.362366
  0
LINE
  8
M0
 62
     7
 10
96.227532
 20
319.362366
 11
96.227532
 21
326.012366
  0
LINE
  8
M0
 62
     7
 10
89.077532
 20
318.862366
 11
95.727532
 21
318.862366
  0
LINE
  8
M0
 62
     7
 10
95.727532
 20
326.512366
 11
89.077532
 21
326.512366
  0
LINE
  8
M0
  6
DASHDOT
 62
     7
 10
91.902532
 20
322.687366
 11
92.902532
 21
322.687366
  0
LINE
  8
M0
  6
DASHDOT
 62
     7
 10
92.402532
 20
322.187366
 11
92.402532
 21
323.187366
  0
LINE
  8
M0
 62
     7
 10
100.477532
 20
265.912366
 11
99.277532
 21
267.112366
  0
LINE
  8
M0
 62
     7
 10
92.827532
 20
265.912366
 11
94.027532
 21
267.112366
  0
LINE
  8
M0
 62
     7
 10
97.252532
 20
260.347979
 11
97.252532
 21
259.462366
  0
ARC
  8
M0
 62
     7
 10
93.327532
 20
266.612366
 40
0.5
 50
90.0
 51
180.0
  0
ARC
  8
M0
 62
     7
 10
93.327532
 20
259.962366
 40
0.5
 50
180.0
 51
270.0
  0
ARC
  8
M0
 62
     7
 10
99.977532
 20
266.612366
 40
0.5
 50
0.0
 51
90.0
  0
ARC
  8
M0
 62
     7
 10
99.977532
 20
259.962366
 40
0.5
 50
270.0
 51
360.0
  0
LINE
  8
M0
 62
     7
 10
92.827532
 20
260.662366
 11
94.027532
 21
259.462366
  0
LINE
  8
M0
 62
     7
 10
96.052532
 20
260.347979
 11
96.052532
 21
259.462366
  0
LINE
  8
M0
 62
     7
 10
100.477532
 20
260.662366
 11
99.277532
 21
259.462366
  0
CIRCLE
  8
M0
 62
     7
 10
96.652532
 20
263.287366
 40
3.0
  0
LINE
  8
M0
 62
     7
 10
92.827532
 20
262.687366
 11
93.713144
 21
262.687366
  0
LINE
  8
M0
 62
     7
 10
92.827532
 20
266.612366
 11
92.827532
 21
259.962366
  0
LINE
  8
M0
 62
     7
 10
100.477532
 20
259.962366
 11
100.477532
 21
266.612366
  0
LINE
  8
M0
 62
     7
 10
93.327532
 20
259.462366
 11
99.977532
 21
259.462366
  0
LINE
  8
M0
 62
     7
 10
96.052532
 20
267.112366
 11
96.052532
 21
266.226754
  0
LINE
  8
M0
 62
     7
 10
92.827532
 20
263.887366
 11
93.713144
 21
263.887366
  0
LINE
  8
M0
 62
     7
 10
99.591919
 20
263.887366
 11
100.477532
 21
263.887366
  0
LINE
  8
M0
 62
     7
 10
99.591919
 20
262.687366
 11
100.477532
 21
262.687366
  0
LINE
  8
M0
 62
     7
 10
97.252532
 20
267.112366
 11
97.252532
 21
266.226754
  0
LINE
  8
M0
 62
     7
 10
99.977532
 20
267.112366
 11
93.327532
 21
267.112366
  0
LINE
  8
M0
  6
DASHDOT
 62
     7
 10
96.152532
 20
263.287366
 11
97.152532
 21
263.287366
  0
LINE
  8
M0
  6
DASHDOT
 62
     7
 10
96.652532
 20
262.787366
 11
96.652532
 21
263.787366
  0
ARC
  8
M0
 62
     7
 10
83.227532
 20
266.612366
 40
0.5
 50
90.0
 51
180.0
  0
ARC
  8
M0
 62
     7
 10
83.227532
 20
259.962366
 40
0.5
 50
180.0
 51
270.0
  0
ARC
  8
M0
 62
     7
 10
89.877532
 20
266.612366
 40
0.5
 50
0.0
 51
90.0
  0
ARC
  8
M0
 62
     7
 10
89.877532
 20
259.962366
 40
0.5
 50
270.0
 51
360.0
  0
LINE
  8
M0
 62
     7
 10
82.727532
 20
266.612366
 11
82.727532
 21
259.962366
  0
LINE
  8
M0
 62
     7
 10
90.377532
 20
259.962366
 11
90.377532
 21
266.612366
  0
LINE
  8
M0
 62
     7
 10
83.227532
 20
259.462366
 11
89.877532
 21
259.462366
  0
LINE
  8
M0
 62
     7
 10
89.877532
 20
267.112366
 11
83.227532
 21
267.112366
  0
LINE
  8
M0
  6
DASHDOT
 62
     7
 10
86.052532
 20
263.287366
 11
87.052532
 21
263.287366
  0
LINE
  8
M0
  6
DASHDOT
 62
     7
 10
86.552532
 20
262.787366
 11
86.552532
 21
263.787366
  0
ARC
  8
M0
 62
     7
 10
73.127532
 20
266.612366
 40
0.5
 50
90.0
 51
180.0
  0
ARC
  8
M0
 62
     7
 10
73.127532
 20
259.962366
 40
0.5
 50
180.0
 51
270.0
  0
ARC
  8
M0
 62
     7
 10
79.777532
 20
266.612366
 40
0.5
 50
0.0
 51
90.0
  0
ARC
  8
M0
 62
     7
 10
79.777532
 20
259.962366
 40
0.5
 50
270.0
 51
360.0
  0
LINE
  8
M0
 62
     7
 10
72.627532
 20
266.612366
 11
72.627532
 21
259.962366
  0
LINE
  8
M0
 62
     7
 10
80.277532
 20
259.962366
 11
80.277532
 21
266.612366
  0
LINE
  8
M0
 62
     7
 10
73.127532
 20
259.462366
 11
79.777532
 21
259.462366
  0
LINE
  8
M0
 62
     7
 10
79.777532
 20
267.112366
 11
73.127532
 21
267.112366
  0
LINE
  8
M0
  6
DASHDOT
 62
     7
 10
75.952532
 20
263.287366
 11
76.952532
 21
263.287366
  0
LINE
  8
M0
  6
DASHDOT
 62
     7
 10
76.452532
 20
262.787366
 11
76.452532
 21
263.787366
  0
ARC
  8
M0
 62
     7
 10
63.027532
 20
266.612366
 40
0.5
 50
90.0
 51
180.0
  0
ARC
  8
M0
 62
     7
 10
63.027532
 20
259.962366
 40
0.5
 50
180.0
 51
270.0
  0
ARC
  8
M0
 62
     7
 10
69.677532
 20
266.612366
 40
0.5
 50
0.0
 51
90.0
  0
ARC
  8
M0
 62
     7
 10
69.677532
 20
259.962366
 40
0.5
 50
270.0
 51
360.0
  0
LINE
  8
M0
 62
     7
 10
62.527532
 20
266.612366
 11
62.527532
 21
259.962366
  0
LINE
  8
M0
 62
     7
 10
70.177532
 20
259.962366
 11
70.177532
 21
266.612366
  0
LINE
  8
M0
 62
     7
 10
63.027532
 20
259.462366
 11
69.677532
 21
259.462366
  0
LINE
  8
M0
 62
     7
 10
69.677532
 20
267.112366
 11
63.027532
 21
267.112366
  0
LINE
  8
M0
  6
DASHDOT
 62
     7
 10
65.852532
 20
263.287366
 11
66.852532
 21
263.287366
  0
LINE
  8
M0
  6
DASHDOT
 62
     7
 10
66.352532
 20
262.787366
 11
66.352532
 21
263.787366
  0
CIRCLE
  8
M0
 62
     7
 10
76.452532
 20
251.687366
 40
2.65
  0
CIRCLE
  8
M0
 62
     7
 10
81.502532
 20
322.287366
 40
2.65
  0
LINE
  8
M0
 62
     7
 10
82.702532
 20
321.837366
 11
82.702532
 21
322.737366
  0
LINE
  8
M0
 62
     7
 10
75.252532
 20
251.237366
 11
75.252532
 21
252.137366
  0
LINE
  8
M0
 62
     7
 10
80.302532
 20
321.837366
 11
80.302532
 21
322.737366
  0
LINE
  8
M0
 62
     7
 10
77.652532
 20
251.237366
 11
77.652532
 21
252.137366
  0
LINE
  8
M0
  6
DASHDOT
 62
     7
 10
58.002532
 20
284.187366
 11
105.002532
 21
284.187366
  0
LINE
  8
M0
 62
     7
 10
93.852532
 20
254.887366
 11
92.752532
 21
254.887366
  0
LINE
  8
M0
 62
     7
 10
93.852532
 20
249.887366
 11
93.852532
 21
254.887366
  0
LINE
  8
M0
 62
     7
 10
103.002532
 20
315.887366
 11
103.002532
 21
254.387366
  0
LINE
  8
M0
 62
     7
 10
60.002532
 20
252.887366
 11
60.002532
 21
313.087366
  0
LINE
  8
M0
 62
     7
 10
99.252532
 20
258.487366
 11
99.252532
 21
258.087366
  0
LINE
  8
M0
 62
     7
 10
86.202532
 20
249.387366
 11
98.002532
 21
249.387366
  0
LINE
  8
M0
 62
     7
 10
70.298593
 20
249.387366
 11
63.502532
 21
249.387366
  0
LINE
  8
M0
 62
     7
 10
70.252532
 20
253.687366
 11
67.252532
 21
253.687366
  0
LINE
  8
M0
 62
     7
 10
90.352532
 20
253.187366
 11
90.352532
 21
249.887366
  0
LINE
  8
M0
 62
     7
 10
85.702532
 20
253.187366
 11
85.702532
 21
249.887366
  0
LINE
  8
M0
 62
     7
 10
88.702532
 20
251.387366
 11
88.702532
 21
253.187366
  0
LINE
  8
M0
 62
     7
 10
88.702532
 20
251.387366
 11
87.202532
 21
251.387366
  0
LINE
  8
M0
 62
     7
 10
94.752532
 20
258.087366
 11
94.752532
 21
258.487366
  0
LINE
  8
M0
 62
     7
 10
67.252532
 20
253.687366
 11
67.252532
 21
249.887366
  0
LINE
  8
M0
 62
     7
 10
61.752532
 20
313.087366
 11
61.752532
 21
312.941306
  0
ARC
  8
M0
 62
     7
 10
99.002532
 20
315.887366
 40
4.0
 50
0.0
 51
97.180756
  0
ARC
  8
M0
 62
     7
 10
99.002532
 20
315.887366
 40
2.25
 50
257.160412
 51
462.839588
  0
ARC
  8
M0
 62
     7
 10
86.202532
 20
249.887366
 40
0.5
 50
180.0
 51
270.0
  0
ARC
  8
M0
 62
     7
 10
89.852532
 20
249.887366
 40
0.5
 50
270.0
 51
360.0
  0
LINE
  8
M0
 62
     7
 10
87.202532
 20
253.187366
 11
87.202532
 21
251.387366
  0
LINE
  8
M0
 62
     7
 10
66.302532
 20
327.087366
 11
74.602532
 21
327.087366
  0
LINE
  8
M0
 62
     7
 10
95.902532
 20
327.087366
 11
96.702532
 21
327.087366
  0
LINE
  8
M0
 62
     7
 10
64.502532
 20
315.087366
 11
64.502532
 21
314.987366
  0
CIRCLE
  8
M0
 62
     7
 10
76.452532
 20
251.687366
 40
2.85
  0
LINE
  8
M0
 62
     7
 10
64.502532
 20
318.687366
 11
64.502532
 21
318.587366
  0
LINE
  8
M0
 62
     7
 10
98.502532
 20
314.987366
 11
98.502532
 21
315.087366
  0
LINE
  8
M0
 62
     7
 10
98.502532
 20
318.587366
 11
98.502532
 21
318.687366
  0
LINE
  8
M0
 62
     7
 10
96.702532
 20
327.987366
 11
96.702532
 21
318.587366
  0
LINE
  8
M0
 62
     7
 10
66.302532
 20
318.587366
 11
66.302532
 21
318.687366
  0
LINE
  8
M0
 62
     7
 10
76.902532
 20
252.137366
 11
76.902532
 21
252.887366
  0
ARC
  8
M0
 62
     7
 10
65.702532
 20
327.987366
 40
0.6
 50
0.0
 51
90.0
  0
LINE
  8
M0
 62
     7
 10
75.252532
 20
252.137366
 11
76.002532
 21
252.137366
  0
LINE
  8
M0
 62
     7
 10
76.002532
 20
252.887366
 11
76.002532
 21
252.137366
  0
LINE
  8
M0
 62
     7
 10
76.902532
 20
252.137366
 11
77.652532
 21
252.137366
  0
ARC
  8
M0
 62
     7
 10
97.302532
 20
327.987366
 40
0.6
 50
90.0
 51
180.0
  0
LINE
  8
M0
 62
     7
 10
76.902532
 20
252.887366
 11
76.002532
 21
252.887366
  0
ARC
  8
M0
 62
     7
 10
65.102532
 20
327.987366
 40
0.6
 50
90.0
 51
180.0
  0
ARC
  8
M0
 62
     7
 10
86.502532
 20
250.687366
 40
2.0
 50
270.0
 51
319.458398
  0
ARC
  8
M0
 62
     7
 10
97.902532
 20
327.987366
 40
0.6
 50
0.0
 51
90.0
  0
LINE
  8
M0
 62
     7
 10
76.902532
 20
250.487366
 11
76.902532
 21
251.237366
  0
LINE
  8
M0
 62
     7
 10
76.002532
 20
251.237366
 11
75.252532
 21
251.237366
  0
LINE
  8
M0
 62
     7
 10
76.002532
 20
250.487366
 11
76.902532
 21
250.487366
  0
LINE
  8
M0
 62
     7
 10
76.002532
 20
251.237366
 11
76.002532
 21
250.487366
  0
ARC
  8
M0
 62
     7
 10
99.002532
 20
261.087366
 40
2.25
 50
286.791447
 51
313.542219
  0
ARC
  8
M0
 62
     7
 10
64.002532
 20
255.887366
 40
2.25
 50
191.257189
 51
493.542219
  0
ARC
  8
M0
 62
     7
 10
97.002532
 20
258.087366
 40
2.25
 50
180.0
 51
360.0
  0
ARC
  8
M0
 62
     7
 10
64.002532
 20
313.087366
 40
2.25
 50
77.160412
 51
180.0
  0
ARC
  8
M0
 62
     7
 10
65.002532
 20
313.087366
 40
5.0
 50
95.73917
 51
180.0
  0
ARC
  8
M0
 62
     7
 10
94.352532
 20
249.887366
 40
0.5
 50
180.0
 51
270.0
  0
LINE
  8
M0
 62
     7
 10
77.652532
 20
251.237366
 11
76.902532
 21
251.237366
  0
ARC
  8
M0
 62
     7
 10
66.752532
 20
249.887366
 40
0.5
 50
270.0
 51
360.0
  0
ARC
  8
M0
 62
     7
 10
98.002532
 20
254.387366
 40
5.0
 50
270.0
 51
360.0
  0
ARC
  8
M0
 62
     7
 10
63.502532
 20
252.887366
 40
3.5
 50
180.0
 51
270.0
  0
LINE
  8
M0
 62
     7
 10
98.502532
 20
325.587366
 11
98.502532
 21
327.987366
  0
LINE
  8
M0
 62
     7
 10
97.302532
 20
328.587366
 11
97.902532
 21
328.587366
  0
LINE
  8
M0
 62
     7
 10
65.102532
 20
328.587366
 11
65.702532
 21
328.587366
  0
LINE
  8
M0
 62
     7
 10
86.502532
 20
248.687366
 11
71.552532
 21
248.687366
  0
LINE
  8
M0
 62
     7
 10
98.502532
 20
325.587366
 11
98.502532
 21
318.687366
  0
LINE
  8
M0
 62
     7
 10
82.652532
 20
250.687366
 11
85.702532
 21
250.687366
  0
LINE
  8
M0
 62
     7
 10
66.302532
 20
318.587366
 11
66.302532
 21
327.987366
  0
LINE
  8
M0
 62
     7
 10
88.502532
 20
253.187366
 11
88.502532
 21
251.387366
  0
LINE
  8
M0
 62
     7
 10
65.302532
 20
287.837366
 11
65.302532
 21
286.587366
  0
LINE
  8
M0
 62
     7
 10
65.502532
 20
286.587366
 11
65.302532
 21
286.587366
  0
LINE
  8
M0
 62
     7
 10
65.302532
 20
281.587366
 11
65.302532
 21
280.537366
  0
LINE
  8
M0
 62
     7
 10
65.302532
 20
281.587366
 11
65.502532
 21
281.587366
  0
LINE
  8
M0
 62
     7
 10
65.220477
 20
280.487366
 11
62.302532
 21
280.487366
  0
LINE
  8
M0
 62
     7
 10
61.952532
 20
290.287366
 11
62.102532
 21
290.287366
  0
LINE
  8
M0
 62
     7
 10
62.102532
 20
293.087366
 11
61.952532
 21
293.087366
  0
LINE
  8
M0
 62
     7
 10
61.452532
 20
255.387366
 11
61.002532
 21
255.387366
  0
ARC
  8
M0
 62
     7
 10
91.752532
 20
252.987366
 40
1.0
 50
270.0
 51
360.0
  0
ARC
  8
M0
 62
     7
 10
71.552532
 20
252.987366
 40
1.0
 50
270.0
 51
360.0
  0
ARC
  8
M0
 62
     7
 10
81.652532
 20
252.987366
 40
1.0
 50
270.0
 51
360.0
  0
ARC
  8
M0
 62
     7
 10
71.252532
 20
252.987366
 40
1.0
 50
180.0
 51
270.0
  0
LINE
  8
M0
 62
     7
 10
62.302532
 20
280.487366
 11
62.302532
 21
287.887366
  0
LINE
  8
M0
 62
     7
 10
61.002532
 20
280.487366
 11
61.002532
 21
287.887366
  0
LINE
  8
M0
 62
     7
 10
62.302532
 20
287.887366
 11
65.220477
 21
287.887366
  0
LINE
  8
M0
 62
     7
 10
100.552532
 20
256.387366
 11
100.552532
 21
267.487366
  0
LINE
  8
M0
 62
     7
 10
102.002532
 20
255.387366
 11
101.552532
 21
255.387366
  0
LINE
  8
M0
 62
     7
 10
86.402532
 20
295.187366
 11
86.552532
 21
295.187366
  0
LINE
  8
M0
 62
     7
 10
100.9499
 20
290.287366
 11
100.9499
 21
293.087366
  0
LINE
  8
M0
 62
     7
 10
76.602532
 20
295.187366
 11
76.452532
 21
295.187366
  0
LINE
  8
M0
 62
     7
 10
97.502532
 20
281.587366
 11
97.702532
 21
281.587366
  0
LINE
  8
M0
 62
     7
 10
97.702532
 20
281.587366
 11
97.702532
 21
280.537366
  0
LINE
  8
M0
 62
     7
 10
97.702532
 20
286.587366
 11
97.502532
 21
286.587366
  0
LINE
  8
M0
 62
     7
 10
70.252532
 20
312.387366
 11
70.252532
 21
315.387366
  0
LINE
  8
M0
 62
     7
 10
101.052532
 20
293.087366
 11
100.902532
 21
293.087366
  0
LINE
  8
M0
 62
     7
 10
102.002532
 20
280.487366
 11
102.002532
 21
287.887366
  0
LINE
  8
M0
 62
     7
 10
97.702532
 20
287.837366
 11
97.702532
 21
286.587366
  0
LINE
  8
M0
 62
     7
 10
62.055163
 20
290.287366
 11
62.055163
 21
293.087366
  0
LINE
  8
M0
 62
     7
 10
100.702532
 20
287.887366
 11
97.784587
 21
287.887366
  0
LINE
  8
M0
 62
     7
 10
97.784587
 20
280.487366
 11
100.702532
 21
280.487366
  0
LINE
  8
M0
 62
     7
 10
100.702532
 20
280.487366
 11
100.702532
 21
287.887366
  0
LINE
  8
M0
 62
     7
 10
100.902532
 20
290.287366
 11
101.052532
 21
290.287366
  0
LINE
  8
M0
 62
     7
 10
81.452532
 20
251.987366
 11
81.352532
 21
251.987366
  0
LINE
  8
M0
 62
     7
 10
81.552532
 20
251.987366
 11
81.452532
 21
251.987366
  0
LINE
  8
M0
 62
     7
 10
91.552532
 20
251.987366
 11
91.452532
 21
251.987366
  0
LINE
  8
M0
 62
     7
 10
81.652532
 20
251.987366
 11
81.552532
 21
251.987366
  0
LINE
  8
M0
 62
     7
 10
91.752532
 20
251.987366
 11
91.552532
 21
251.987366
  0
LINE
  8
M0
 62
     7
 10
82.652532
 20
300.887366
 11
82.652532
 21
315.387366
  0
LINE
  8
M0
 62
     7
 10
92.752532
 20
300.887366
 11
92.752532
 21
315.387366
  0
LINE
  8
M0
 62
     7
 10
81.352532
 20
265.987366
 11
81.652532
 21
265.987366
  0
LINE
  8
M0
 62
     7
 10
90.452532
 20
252.987366
 11
90.452532
 21
267.487366
  0
LINE
  8
M0
 62
     7
 10
71.452532
 20
251.987366
 11
71.252532
 21
251.987366
  0
LINE
  8
M0
 62
     7
 10
71.552532
 20
251.987366
 11
71.452532
 21
251.987366
  0
LINE
  8
M0
 62
     7
 10
92.752532
 20
267.487366
 11
92.752532
 21
252.987366
  0
ARC
  8
M0
 62
     7
 10
81.652532
 20
264.987366
 40
1.0
 50
0.0
 51
90.0
  0
ARC
  8
M0
 62
     7
 10
71.552532
 20
264.987366
 40
1.0
 50
0.0
 51
90.0
  0
ARC
  8
M0
 62
     7
 10
71.252532
 20
303.387366
 40
1.0
 50
180.0
 51
270.0
  0
ARC
  8
M0
 62
     7
 10
81.652532
 20
303.387366
 40
1.0
 50
270.0
 51
360.0
  0
ARC
  8
M0
 62
     7
 10
81.352532
 20
303.387366
 40
1.0
 50
180.0
 51
270.0
  0
ARC
  8
M0
 62
     7
 10
91.452532
 20
303.387366
 40
1.0
 50
180.0
 51
270.0
  0
ARC
  8
M0
 62
     7
 10
81.352532
 20
252.987366
 40
1.0
 50
180.0
 51
270.0
  0
ARC
  8
M0
 62
     7
 10
91.452532
 20
252.987366
 40
1.0
 50
180.0
 51
270.0
  0
ARC
  8
M0
 62
     7
 10
91.452532
 20
264.987366
 40
1.0
 50
90.0
 51
180.0
  0
ARC
  8
M0
 62
     7
 10
91.752532
 20
264.987366
 40
1.0
 50
0.0
 51
90.0
  0
ARC
  8
M0
 62
     7
 10
71.252532
 20
264.987366
 40
1.0
 50
90.0
 51
180.0
  0
LINE
  8
M0
 62
     7
 10
70.252532
 20
300.887366
 11
70.252532
 21
303.387366
  0
LINE
  8
M0
 62
     7
 10
72.552532
 20
303.387366
 11
72.552532
 21
300.887366
  0
LINE
  8
M0
 62
     7
 10
90.452532
 20
315.387366
 11
90.452532
 21
300.887366
  0
ARC
  8
M0
 62
     7
 10
91.752532
 20
303.387366
 40
1.0
 50
270.0
 51
360.0
  0
ARC
  8
M0
 62
     7
 10
81.352532
 20
264.987366
 40
1.0
 50
90.0
 51
180.0
  0
ARC
  8
M0
 62
     7
 10
71.552532
 20
303.387366
 40
1.0
 50
270.0
 51
360.0
  0
LINE
  8
M0
 62
     7
 10
101.052532
 20
279.487366
 11
101.052532
 21
279.488617
  0
LINE
  8
M0
 62
     7
 10
61.952532
 20
279.488617
 11
61.952532
 21
279.487366
  0
LINE
  8
M0
 62
     7
 10
101.052532
 20
288.886116
 11
101.052532
 21
288.887366
  0
LINE
  8
M0
 62
     7
 10
61.952532
 20
288.887366
 11
61.952532
 21
288.886116
  0
LINE
  8
M0
 62
     7
 10
101.052532
 20
267.487366
 11
101.052532
 21
279.487366
  0
LINE
  8
M0
 62
     7
 10
61.952532
 20
279.487366
 11
61.952532
 21
267.487366
  0
LINE
  8
M0
 62
     7
 10
73.302532
 20
296.387366
 11
73.802532
 21
296.387366
  0
LINE
  8
M0
 62
     7
 10
90.702532
 20
276.687366
 11
90.702532
 21
290.287366
  0
LINE
  8
M0
 62
     7
 10
73.802532
 20
273.187366
 11
73.302532
 21
273.187366
  0
LINE
  8
M0
 62
     7
 10
61.952532
 20
300.887366
 11
61.952532
 21
288.887366
  0
LINE
  8
M0
 62
     7
 10
72.302532
 20
276.687366
 11
72.302532
 21
290.287366
  0
LINE
  8
M0
 62
     7
 10
101.052532
 20
288.887366
 11
101.052532
 21
300.887366
  0
LINE
  8
M0
 62
     7
 10
87.052532
 20
288.987366
 11
75.952532
 21
288.987366
  0
LINE
  8
M0
 62
     7
 10
89.202532
 20
296.387366
 11
89.702532
 21
296.387366
  0
LINE
  8
M0
 62
     7
 10
86.552532
 20
294.187366
 11
76.452532
 21
294.187366
  0
LINE
  8
M0
 62
     7
 10
89.202532
 20
273.187366
 11
89.702532
 21
273.187366
  0
ARC
  8
M0
 62
     7
 10
61.002532
 20
288.887366
 40
1.0
 50
180.0
 51
270.0
  0
ARC
  8
M0
 62
     7
 10
102.052532
 20
288.886116
 40
1.0
 50
180.0
 51
267.134016
  0
ARC
  8
M0
 62
     7
 10
102.002532
 20
288.887366
 40
1.0
 50
270.0
 51
360.0
  0
ARC
  8
M0
 62
     7
 10
102.002532
 20
311.987366
 40
1.0
 50
0.0
 51
90.0
  0
ARC
  8
M0
 62
     7
 10
61.452532
 20
311.987366
 40
1.0
 50
0.0
 51
90.0
  0
ARC
  8
M0
 62
     7
 10
101.552532
 20
311.987366
 40
1.0
 50
90.0
 51
180.0
  0
ARC
  8
M0
 62
     7
 10
61.002532
 20
279.487366
 40
1.0
 50
90.0
 51
180.0
  0
LINE
  8
M0
 62
     7
 10
63.352532
 20
309.887366
 11
69.352532
 21
309.887366
  0
ARC
  8
M0
 62
     7
 10
102.002532
 20
279.487366
 40
1.0
 50
0.0
 51
90.0
  0
ARC
  8
M0
 62
     7
 10
102.052532
 20
279.488617
 40
1.0
 50
92.865984
 51
180.0
  0
ARC
  8
M0
 62
     7
 10
60.952532
 20
279.488617
 40
1.0
 50
0.0
 51
87.134016
  0
LINE
  8
M0
 62
     7
 10
62.452532
 20
267.487366
 11
62.452532
 21
260.387366
  0
ARC
  8
M0
 62
     7
 10
61.002532
 20
311.987366
 40
1.0
 50
90.0
 51
180.0
  0
ARC
  8
M0
 62
     7
 10
60.952532
 20
288.886116
 40
1.0
 50
272.865984
 51
360.0
  0
ARC
  8
M0
 62
     7
 10
87.552532
 20
273.687366
 40
0.5
 50
180.0
 51
270.0
  0
LINE
  8
M0
 62
     7
 10
62.452532
 20
260.387366
 11
62.452532
 21
256.387366
  0
ARC
  8
M0
 62
     7
 10
75.452532
 20
273.687366
 40
0.5
 50
270.0
 51
360.0
  0
ARC
  8
M0
 62
     7
 10
89.952532
 20
272.687366
 40
0.5
 50
67.201593
 51
90.0
  0
ARC
  8
M0
 62
     7
 10
89.952532
 20
296.887366
 40
0.5
 50
270.0
 51
292.798407
  0
ARC
  8
M0
 62
     7
 10
73.052532
 20
272.687366
 40
0.5
 50
90.0
 51
112.798407
  0
ARC
  8
M0
 62
     7
 10
61.002532
 20
256.387366
 40
1.0
 50
180.0
 51
270.0
  0
ARC
  8
M0
 62
     7
 10
73.052532
 20
296.887366
 40
0.5
 50
247.201593
 51
270.0
  0
ARC
  8
M0
 62
     7
 10
101.552532
 20
256.387366
 40
1.0
 50
180.0
 51
270.0
  0
ARC
  8
M0
 62
     7
 10
91.752532
 20
315.387366
 40
1.0
 50
0.0
 51
90.0
  0
ARC
  8
M0
 62
     7
 10
81.652532
 20
315.387366
 40
1.0
 50
0.0
 51
90.0
  0
ARC
  8
M0
 62
     7
 10
91.452532
 20
315.387366
 40
1.0
 50
90.0
 51
180.0
  0
ARC
  8
M0
 62
     7
 10
79.852532
 20
272.687366
 40
0.5
 50
53.130102
 51
90.0
  0
ARC
  8
M0
 62
     7
 10
71.252532
 20
315.387366
 40
1.0
 50
90.0
 51
180.0
  0
LINE
  8
M0
 62
     7
 10
91.552532
 20
316.387366
 11
91.752532
 21
316.387366
  0
LINE
  8
M0
 62
     7
 10
91.452532
 20
316.387366
 11
91.552532
 21
316.387366
  0
ARC
  8
M0
 62
     7
 10
102.002532
 20
256.387366
 40
1.0
 50
270.0
 51
360.0
  0
ARC
  8
M0
 62
     7
 10
83.152532
 20
272.687366
 40
0.5
 50
90.0
 51
126.869898
  0
ARC
  8
M0
 62
     7
 10
61.452532
 20
256.387366
 40
1.0
 50
270.0
 51
360.0
  0
LINE
  8
M0
 62
     7
 10
80.352532
 20
300.887366
 11
80.352532
 21
315.387366
  0
LINE
  8
M0
 62
     7
 10
71.252532
 20
316.387366
 11
71.452532
 21
316.387366
  0
LINE
  8
M0
 62
     7
 10
72.552532
 20
315.387366
 11
72.552532
 21
312.387366
  0
LINE
  8
M0
 62
     7
 10
101.552532
 20
312.987366
 11
102.002532
 21
312.987366
  0
LINE
  8
M0
 62
     7
 10
62.452532
 20
311.987366
 11
62.452532
 21
307.987366
  0
LINE
  8
M0
 62
     7
 10
101.052532
 20
300.887366
 11
61.952532
 21
300.887366
  0
LINE
  8
M0
 62
     7
 10
87.052532
 20
277.887366
 11
75.952532
 21
277.887366
  0
LINE
  8
M0
 62
     7
 10
75.952532
 20
274.687366
 11
87.052532
 21
274.687366
  0
LINE
  8
M0
 62
     7
 10
75.952532
 20
279.287366
 11
87.052532
 21
279.287366
  0
ARC
  8
M0
 62
     7
 10
81.352532
 20
315.387366
 40
1.0
 50
90.0
 51
180.0
  0
LINE
  8
M0
 62
     7
 10
73.302532
 20
273.187366
 11
75.452532
 21
273.187366
  0
ARC
  8
M0
 62
     7
 10
71.552532
 20
315.387366
 40
1.0
 50
0.0
 51
90.0
  0
LINE
  8
M0
 62
     7
 10
62.452532
 20
307.987366
 11
62.452532
 21
300.887366
  0
LINE
  8
M0
 62
     7
 10
61.002532
 20
312.987366
 11
61.452532
 21
312.987366
  0
LINE
  8
M0
 62
     7
 10
87.552532
 20
273.187366
 11
75.452532
 21
273.187366
  0
LINE
  8
M0
 62
     7
 10
76.202532
 20
319.004033
 11
76.202532
 21
326.087366
  0
LINE
  8
M0
 62
     7
 10
86.802532
 20
326.087366
 11
86.802532
 21
319.004033
  0
LINE
  8
M0
 62
     7
 10
70.252532
 20
314.987366
 11
64.502532
 21
314.987366
  0
LINE
  8
M0
 62
     7
 10
77.202532
 20
327.087366
 11
85.802532
 21
327.087366
  0
LINE
  8
M0
 62
     7
 10
64.502532
 20
327.987366
 11
64.502532
 21
309.887366
  0
LINE
  8
M0
 62
     7
 10
80.352532
 20
280.087366
 11
80.352532
 21
280.587366
  0
LINE
  8
M0
 62
     7
 10
86.802532
 20
288.287366
 11
86.802532
 21
280.087366
  0
LINE
  8
M0
 62
     7
 10
83.752532
 20
288.787366
 11
86.302532
 21
288.787366
  0
LINE
  8
M0
 62
     7
 10
79.252532
 20
288.787366
 11
76.702532
 21
288.787366
  0
LINE
  8
M0
 62
     7
 10
77.202532
 20
318.587366
 11
85.802532
 21
318.587366
  0
LINE
  8
M0
 62
     7
 10
76.202532
 20
317.087366
 11
76.202532
 21
319.004033
  0
LINE
  8
M0
 62
     7
 10
76.202532
 20
317.087366
 11
86.802532
 21
317.087366
  0
LINE
  8
M0
 62
     7
 10
78.352532
 20
255.187366
 11
74.552532
 21
255.187366
  0
LINE
  8
M0
 62
     7
 10
90.452532
 20
253.187366
 11
82.652532
 21
253.187366
  0
LINE
  8
M0
 62
     7
 10
82.652532
 20
314.987366
 11
90.452532
 21
314.987366
  0
LINE
  8
M0
 62
     7
 10
98.502532
 20
314.987366
 11
92.752532
 21
314.987366
  0
LINE
  8
M0
 62
     7
 10
98.502532
 20
309.887366
 11
98.502532
 21
314.987366
  0
LINE
  8
M0
 62
     7
 10
76.202532
 20
317.087366
 11
76.202532
 21
314.987366
  0
LINE
  8
M0
 62
     7
 10
86.802532
 20
314.987366
 11
86.802532
 21
317.087366
  0
LINE
  8
M0
 62
     7
 10
86.802532
 20
317.087366
 11
86.802532
 21
319.004033
  0
ARC
  8
M0
 62
     7
 10
78.352532
 20
253.187366
 40
2.0
 50
0.0
 51
90.0
  0
ARC
  8
M0
 62
     7
 10
74.552532
 20
253.187366
 40
2.0
 50
90.0
 51
180.0
  0
ARC
  8
M0
 62
     7
 10
71.552532
 20
249.687366
 40
1.0
 50
270.0
 51
360.0
  0
ARC
  8
M0
 62
     7
 10
81.652532
 20
249.687366
 40
1.0
 50
270.0
 51
360.0
  0
ARC
  8
M0
 62
     7
 10
71.252532
 20
249.687366
 40
1.0
 50
180.0
 51
270.0
  0
ARC
  8
M0
 62
     7
 10
81.352532
 20
249.687366
 40
1.0
 50
180.0
 51
270.0
  0
ARC
  8
M0
 62
     7
 10
83.752532
 20
288.287366
 40
0.5
 50
90.0
 51
180.0
  0
ARC
  8
M0
 62
     7
 10
79.252532
 20
288.287366
 40
0.5
 50
0.0
 51
90.0
  0
ARC
  8
M0
 62
     7
 10
86.302532
 20
288.287366
 40
0.5
 50
0.0
 51
90.0
  0
ARC
  8
M0
 62
     7
 10
85.802532
 20
326.087366
 40
1.0
 50
0.0
 51
90.0
  0
ARC
  8
M0
 62
     7
 10
76.702532
 20
288.287366
 40
0.5
 50
90.0
 51
180.0
  0
LINE
  8
M0
 62
     7
 10
82.652532
 20
281.087366
 11
82.752532
 21
281.087366
  0
LINE
  8
M0
 62
     7
 10
82.652532
 20
280.587366
 11
82.652532
 21
281.087366
  0
LINE
  8
M0
 62
     7
 10
76.202532
 20
288.287366
 11
76.202532
 21
280.087366
  0
LINE
  8
M0
 62
     7
 10
83.252532
 20
281.587366
 11
83.252532
 21
288.287366
  0
LINE
  8
M0
 62
     7
 10
82.652532
 20
280.087366
 11
82.652532
 21
280.587366
  0
LINE
  8
M0
 62
     7
 10
79.752532
 20
281.587366
 11
79.752532
 21
288.287366
  0
ARC
  8
M0
 62
     7
 10
77.202532
 20
326.087366
 40
1.0
 50
90.0
 51
180.0
  0
LINE
  8
M0
 62
     7
 10
86.302532
 20
279.587366
 11
83.152532
 21
279.587366
  0
LINE
  8
M0
 62
     7
 10
80.352532
 20
280.587366
 11
80.352532
 21
281.087366
  0
LINE
  8
M0
 62
     7
 10
76.702532
 20
279.587366
 11
79.852532
 21
279.587366
  0
LINE
  8
M0
 62
     7
 10
80.352532
 20
281.087366
 11
80.252532
 21
281.087366
  0
LINE
  8
M0
 62
     7
 10
80.352532
 20
287.787366
 11
80.352532
 21
288.987366
  0
LINE
  8
M0
 62
     7
 10
87.052532
 20
279.887366
 11
87.016675
 21
279.887366
  0
LINE
  8
M0
 62
     7
 10
76.269519
 20
288.537366
 11
76.265568
 21
288.530381
  0
LINE
  8
M0
 62
     7
 10
75.952532
 20
279.887366
 11
75.988389
 21
279.887366
  0
LINE
  8
M0
 62
     7
 10
80.852532
 20
285.587366
 11
82.152532
 21
285.587366
  0
LINE
  8
M0
 62
     7
 10
82.652532
 20
279.287366
 11
82.652532
 21
280.087366
  0
LINE
  8
M0
 62
     7
 10
80.352532
 20
279.287366
 11
80.352532
 21
280.087366
  0
LINE
  8
M0
 62
     7
 10
83.152532
 20
288.787366
 11
84.502532
 21
288.787366
  0
LINE
  8
M0
 62
     7
 10
79.852532
 20
288.787366
 11
78.502532
 21
288.787366
  0
LINE
  8
M0
 62
     7
 10
82.652532
 20
281.087366
 11
82.652532
 21
281.587366
  0
LINE
  8
M0
 62
     7
 10
85.502532
 20
288.787366
 11
84.502532
 21
288.787366
  0
LINE
  8
M0
 62
     7
 10
80.352532
 20
281.087366
 11
80.352532
 21
281.587366
  0
LINE
  8
M0
 62
     7
 10
77.502532
 20
288.787366
 11
78.502532
 21
288.787366
  0
LINE
  8
M0
 62
     7
 10
80.352532
 20
282.087366
 11
80.352532
 21
281.587366
  0
LINE
  8
M0
 62
     7
 10
82.652532
 20
287.787366
 11
82.652532
 21
288.987366
  0
LINE
  8
M0
 62
     7
 10
82.652532
 20
282.087366
 11
82.652532
 21
281.587366
  0
LINE
  8
M0
 62
     7
 10
80.352532
 20
286.087366
 11
80.352532
 21
288.287366
  0
LINE
  8
M0
 62
     7
 10
80.852532
 20
282.587366
 11
82.152532
 21
282.587366
  0
LINE
  8
M0
 62
     7
 10
82.652532
 20
286.087366
 11
82.652532
 21
288.287366
  0
LINE
  8
M0
 62
     7
 10
70.252532
 20
259.487366
 11
69.352532
 21
259.487366
  0
LINE
  8
M0
 62
     7
 10
80.352532
 20
249.687366
 11
80.352532
 21
267.487366
  0
LINE
  8
M0
 62
     7
 10
100.552532
 20
259.487366
 11
99.652532
 21
259.487366
  0
LINE
  8
M0
 62
     7
 10
63.352532
 20
259.487366
 11
62.452532
 21
259.487366
  0
LINE
  8
M0
 62
     7
 10
83.552532
 20
259.487366
 11
82.652532
 21
259.487366
  0
LINE
  8
M0
 62
     7
 10
81.352532
 20
248.687366
 11
81.652532
 21
248.687366
  0
LINE
  8
M0
 62
     7
 10
72.552532
 20
314.987366
 11
80.352532
 21
314.987366
  0
LINE
  8
M0
 62
     7
 10
71.252532
 20
248.687366
 11
71.552532
 21
248.687366
  0
LINE
  8
M0
 62
     7
 10
70.252532
 20
249.687366
 11
70.252532
 21
267.487366
  0
LINE
  8
M0
 62
     7
 10
72.552532
 20
267.487366
 11
72.552532
 21
249.687366
  0
ARC
  8
M0
 62
     7
 10
80.852532
 20
282.087366
 40
0.5
 50
90.0
 51
180.0
  0
ARC
  8
M0
 62
     7
 10
82.152532
 20
286.087366
 40
0.5
 50
270.0
 51
360.0
  0
ARC
  8
M0
 62
     7
 10
82.152532
 20
282.087366
 40
0.5
 50
0.0
 51
90.0
  0
ARC
  8
M0
 62
     7
 10
79.852532
 20
288.287366
 40
0.5
 50
0.0
 51
90.0
  0
ARC
  8
M0
 62
     7
 10
83.152532
 20
288.287366
 40
0.5
 50
90.0
 51
180.0
  0
ARC
  8
M0
 62
     7
 10
83.152532
 20
280.087366
 40
0.5
 50
180.0
 51
270.0
  0
LINE
  8
M0
 62
     7
 10
82.652532
 20
267.487366
 11
82.652532
 21
249.687366
  0
ARC
  8
M0
 62
     7
 10
76.660566
 20
280.048533
 40
0.44285
 50
206.131697
 51
224.639687
  0
LINE
  8
M0
 62
     7
 10
89.302532
 20
273.187366
 11
89.302532
 21
273.087366
  0
LINE
  8
M0
 62
     7
 10
91.652532
 20
251.987366
 11
91.752532
 21
251.987366
  0
LINE
  8
M0
 62
     7
 10
73.702532
 20
273.087366
 11
73.702532
 21
273.187366
  0
LINE
  8
M0
 62
     7
 10
79.452532
 20
308.887366
 11
80.352532
 21
308.887366
  0
LINE
  8
M0
 62
     7
 10
89.552532
 20
308.887366
 11
90.452532
 21
308.887366
  0
LINE
  8
M0
 62
     7
 10
82.652532
 20
308.887366
 11
83.552532
 21
308.887366
  0
LINE
  8
M0
 62
     7
 10
73.452532
 20
259.487366
 11
72.552532
 21
259.487366
  0
LINE
  8
M0
 62
     7
 10
93.652532
 20
259.487366
 11
92.752532
 21
259.487366
  0
LINE
  8
M0
 62
     7
 10
80.352532
 20
259.487366
 11
79.452532
 21
259.487366
  0
LINE
  8
M0
 62
     7
 10
83.802532
 20
273.087366
 11
83.802532
 21
273.187366
  0
LINE
  8
M0
 62
     7
 10
90.452532
 20
259.487366
 11
89.552532
 21
259.487366
  0
LINE
  8
M0
 62
     7
 10
89.302532
 20
296.487366
 11
89.302532
 21
296.387366
  0
LINE
  8
M0
 62
     7
 10
91.752532
 20
316.387366
 11
91.652532
 21
316.387366
  0
LINE
  8
M0
 62
     7
 10
71.352532
 20
316.387366
 11
71.252532
 21
316.387366
  0
LINE
  8
M0
 62
     7
 10
71.552532
 20
249.187366
 11
71.252532
 21
249.187366
  0
LINE
  8
M0
 62
     7
 10
73.702532
 20
296.387366
 11
73.702532
 21
296.487366
  0
LINE
  8
M0
 62
     7
 10
81.652532
 20
249.187366
 11
81.352532
 21
249.187366
  0
LINE
  8
M0
 62
     7
 10
92.752532
 20
308.887366
 11
93.652532
 21
308.887366
  0
LINE
  8
M0
 62
     7
 10
79.202532
 20
273.187366
 11
79.202532
 21
273.087366
  0
LINE
  8
M0
 62
     7
 10
99.652532
 20
308.887366
 11
100.552532
 21
308.887366
  0
LINE
  8
M0
 62
     7
 10
72.552532
 20
308.887366
 11
72.971407
 21
308.887366
  0
LINE
  8
M0
 62
     7
 10
62.452532
 20
308.887366
 11
63.352532
 21
308.887366
  0
LINE
  8
M0
 62
     7
 10
69.352532
 20
308.887366
 11
70.252532
 21
308.887366
  0
LINE
  8
M0
 62
     7
 10
72.552532
 20
312.387366
 11
72.552532
 21
303.387366
  0
LINE
  8
M0
 62
     7
 10
81.352532
 20
316.387366
 11
81.452532
 21
316.387366
  0
LINE
  8
M0
 62
     7
 10
91.452532
 20
265.987366
 11
91.752532
 21
265.987366
  0
LINE
  8
M0
 62
     7
 10
71.252532
 20
265.987366
 11
71.552532
 21
265.987366
  0
LINE
  8
M0
 62
     7
 10
91.752532
 20
302.387366
 11
91.452532
 21
302.387366
  0
LINE
  8
M0
 62
     7
 10
81.652532
 20
302.387366
 11
81.352532
 21
302.387366
  0
LINE
  8
M0
 62
     7
 10
71.552532
 20
302.387366
 11
71.252532
 21
302.387366
  0
ARC
  8
M0
 62
     7
 10
81.652532
 20
250.187366
 40
1.0
 50
270.0
 51
360.0
  0
ARC
  8
M0
 62
     7
 10
81.352532
 20
250.187366
 40
1.0
 50
180.0
 51
270.0
  0
ARC
  8
M0
 62
     7
 10
81.652532
 20
281.687366
 40
0.5
 50
0.0
 51
90.0
  0
ARC
  8
M0
 62
     7
 10
81.652532
 20
286.687366
 40
0.5
 50
270.0
 51
360.0
  0
ARC
  8
M0
 62
     7
 10
81.352532
 20
281.687366
 40
0.5
 50
90.0
 51
180.0
  0
ARC
  8
M0
 62
     7
 10
81.352532
 20
286.687366
 40
0.5
 50
180.0
 51
270.0
  0
LINE
  8
M0
 62
     7
 10
81.552532
 20
316.387366
 11
81.652532
 21
316.387366
  0
LINE
  8
M0
 62
     7
 10
70.252532
 20
303.387366
 11
70.252532
 21
312.387366
  0
LINE
  8
M0
 62
     7
 10
81.452532
 20
316.387366
 11
81.552532
 21
316.387366
  0
ARC
  8
M0
 62
     7
 10
71.552532
 20
250.187366
 40
1.0
 50
270.0
 51
360.0
  0
LINE
  8
M0
 62
     7
 10
71.452532
 20
316.387366
 11
71.552532
 21
316.387366
  0
ARC
  8
M0
 62
     7
 10
71.252532
 20
250.187366
 40
1.0
 50
180.0
 51
270.0
  0
LINE
  8
M0
 62
     7
 10
72.552532
 20
258.387366
 11
72.552532
 21
257.387366
  0
LINE
  8
M0
 62
     7
 10
62.452532
 20
257.387366
 11
62.452532
 21
258.387366
  0
LINE
  8
M0
 62
     7
 10
100.552532
 20
258.387366
 11
100.552532
 21
257.387366
  0
ARC
  8
M0
 62
     7
 10
76.702532
 20
280.087366
 40
0.5
 50
180.0
 51
270.0
  0
ARC
  8
M0
 62
     7
 10
86.302532
 20
280.087366
 40
0.5
 50
270.0
 51
360.0
  0
ARC
  8
M0
 62
     7
 10
79.852532
 20
280.087366
 40
0.5
 50
270.0
 51
360.0
  0
ARC
  8
M0
 62
     7
 10
82.752532
 20
281.587366
 40
0.5
 50
270.0
 51
360.0
  0
ARC
  8
M0
 62
     7
 10
80.252532
 20
281.587366
 40
0.5
 50
180.0
 51
270.0
  0
ARC
  8
M0
 62
     7
 10
80.852532
 20
286.087366
 40
0.5
 50
180.0
 51
270.0
  0
LINE
  8
M0
 62
     7
 10
62.452532
 20
309.987366
 11
62.452532
 21
310.987366
  0
POLYLINE
  8
M0
 62
     7
 66
     1
  0
VERTEX
  8
M0
 62
     7
 10
85.802532
 20
318.587366
  0
VERTEX
  8
M0
 62
     7
 10
85.97618
 20
318.593697
  0
VERTEX
  8
M0
 62
     7
 10
86.144552
 20
318.612494
  0
VERTEX
  8
M0
 62
     7
 10
86.302532
 20
318.643189
  0
VERTEX
  8
M0
 62
     7
 10
86.445319
 20
318.684848
  0
VERTEX
  8
M0
 62
     7
 10
86.568576
 20
318.736205
  0
VERTEX
  8
M0
 62
     7
 10
86.668557
 20
318.7957
  0
VERTEX
  8
M0
 62
     7
 10
86.742224
 20
318.861525
  0
VERTEX
  8
M0
 62
     7
 10
86.78734
 20
318.93168
  0
VERTEX
  8
M0
 62
     7
 10
86.802532
 20
319.004033
  0
SEQEND
  8
M0
 62
     7
  0
LINE
  8
M0
 62
     7
 10
72.552532
 20
309.987366
 11
72.552532
 21
310.987366
  0
POLYLINE
  8
M0
 62
     7
 66
     1
  0
VERTEX
  8
M0
 62
     7
 10
76.202532
 20
319.004033
  0
VERTEX
  8
M0
 62
     7
 10
76.217724
 20
318.93168
  0
VERTEX
  8
M0
 62
     7
 10
76.262839
 20
318.861525
  0
VERTEX
  8
M0
 62
     7
 10
76.336506
 20
318.7957
  0
VERTEX
  8
M0
 62
     7
 10
76.436487
 20
318.736205
  0
VERTEX
  8
M0
 62
     7
 10
76.559744
 20
318.684848
  0
VERTEX
  8
M0
 62
     7
 10
76.702532
 20
318.643189
  0
VERTEX
  8
M0
 62
     7
 10
76.860512
 20
318.612494
  0
VERTEX
  8
M0
 62
     7
 10
77.028884
 20
318.593697
  0
VERTEX
  8
M0
 62
     7
 10
77.202532
 20
318.587366
  0
SEQEND
  8
M0
 62
     7
  0
LINE
  8
M0
 62
     7
 10
101.752532
 20
312.987366
 11
101.552532
 21
312.987366
  0
LINE
  8
M0
 62
     7
 10
100.552532
 20
311.987366
 11
100.552532
 21
300.887366
  0
LINE
  8
M0
 62
     7
 10
101.752532
 20
255.387366
 11
101.552532
 21
255.387366
  0
LINE
  8
M0
 62
     7
 10
100.552532
 20
257.387366
 11
100.552532
 21
256.387366
  0
LINE
  8
M0
 62
     7
 10
62.452532
 20
256.387366
 11
62.452532
 21
257.387366
  0
LINE
  8
M0
 62
     7
 10
62.452532
 20
310.987366
 11
62.452532
 21
311.987366
  0
LINE
  8
M0
 62
     7
 10
61.252532
 20
255.387366
 11
61.452532
 21
255.387366
  0
LINE
  8
M0
 62
     7
 10
81.352532
 20
286.187366
 11
81.652532
 21
286.187366
  0
LINE
  8
M0
 62
     7
 10
72.552532
 20
310.987366
 11
72.552532
 21
315.387366
  0
LINE
  8
M0
 62
     7
 10
82.152532
 20
279.287366
 11
82.152532
 21
281.687366
  0
LINE
  8
M0
 62
     7
 10
61.252532
 20
312.987366
 11
61.452532
 21
312.987366
  0
LINE
  8
M0
 62
     7
 10
80.852532
 20
281.687366
 11
80.852532
 21
279.287366
  0
LINE
  8
M0
 62
     7
 10
80.852532
 20
288.987366
 11
80.852532
 21
286.687366
  0
LINE
  8
M0
 62
     7
 10
81.352532
 20
282.187366
 11
81.652532
 21
282.187366
  0
LINE
  8
M0
 62
     7
 10
82.152532
 20
286.687366
 11
82.152532
 21
288.987366
  0
LINE
  8
M0
 62
     7
 10
62.102532
 20
300.387366
 11
62.102532
 21
288.437366
  0
LINE
  8
M0
 62
     7
 10
89.802532
 20
273.087366
 11
73.202532
 21
273.087366
  0
LINE
  8
M0
 62
     7
 10
76.102532
 20
327.087366
 11
77.202532
 21
327.087366
  0
LINE
  8
M0
 62
     7
 10
85.802532
 20
327.087366
 11
86.902532
 21
327.087366
  0
LINE
  8
M0
 62
     7
 10
76.602532
 20
294.787366
 11
76.602532
 21
295.487366
  0
LINE
  8
M0
 62
     7
 10
75.602532
 20
296.487366
 11
73.202532
 21
296.487366
  0
LINE
  8
M0
 62
     7
 10
85.902532
 20
294.287366
 11
77.102532
 21
294.287366
  0
LINE
  8
M0
 62
     7
 10
87.402532
 20
296.487366
 11
89.802532
 21
296.487366
  0
LINE
  8
M0
 62
     7
 10
86.402532
 20
294.787366
 11
86.402532
 21
295.487366
  0
LINE
  8
M0
 62
     7
 10
90.802532
 20
274.087366
 11
90.802532
 21
295.487366
  0
ARC
  8
M0
 62
     7
 10
73.202532
 20
295.487366
 40
1.0
 50
90.0
 51
180.0
  0
ARC
  8
M0
 62
     7
 10
75.602532
 20
295.487366
 40
1.0
 50
0.0
 51
90.0
  0
ARC
  8
M0
 62
     7
 10
85.902532
 20
294.787366
 40
0.5
 50
270.0
 51
360.0
  0
ARC
  8
M0
 62
     7
 10
77.102532
 20
294.787366
 40
0.5
 50
180.0
 51
270.0
  0
ARC
  8
M0
 62
     7
 10
87.402532
 20
295.487366
 40
1.0
 50
90.0
 51
180.0
  0
ARC
  8
M0
 62
     7
 10
87.402532
 20
328.087366
 40
0.5
 50
90.0
 51
180.0
  0
ARC
  8
M0
 62
     7
 10
75.602532
 20
328.087366
 40
0.5
 50
0.0
 51
90.0
  0
ARC
  8
M0
 62
     7
 10
87.402532
 20
327.587366
 40
1.0
 50
0.0
 51
90.0
  0
ARC
  8
M0
 62
     7
 10
75.602532
 20
327.587366
 40
1.0
 50
90.0
 51
180.0
  0
ARC
  8
M0
 62
     7
 10
89.802532
 20
295.487366
 40
1.0
 50
0.0
 51
90.0
  0
ARC
  8
M0
 62
     7
 10
89.802532
 20
274.087366
 40
1.0
 50
270.0
 51
360.0
  0
ARC
  8
M0
 62
     7
 10
62.602532
 20
300.387366
 40
0.5
 50
90.0
 51
180.0
  0
ARC
  8
M0
 62
     7
 10
73.202532
 20
274.087366
 40
1.0
 50
180.0
 51
270.0
  0
ARC
  8
M0
 62
     7
 10
65.002532
 20
280.937366
 40
0.5
 50
270.0
 51
360.0
  0
ARC
  8
M0
 62
     7
 10
62.602532
 20
279.937366
 40
0.5
 50
90.0
 51
180.0
  0
ARC
  8
M0
 62
     7
 10
98.002532
 20
287.437366
 40
0.5
 50
90.0
 51
180.0
  0
ARC
  8
M0
 62
     7
 10
65.002532
 20
287.437366
 40
0.5
 50
0.0
 51
90.0
  0
ARC
  8
M0
 62
     7
 10
100.402532
 20
288.437366
 40
0.5
 50
270.0
 51
360.0
  0
ARC
  8
M0
 62
     7
 10
62.602532
 20
288.437366
 40
0.5
 50
180.0
 51
270.0
  0
ARC
  8
M0
 62
     7
 10
84.052532
 20
272.687366
 40
0.5
 50
53.130102
 51
90.0
  0
ARC
  8
M0
 62
     7
 10
89.052532
 20
272.687366
 40
0.5
 50
90.0
 51
126.869898
  0
ARC
  8
M0
 62
     7
 10
100.402532
 20
267.987366
 40
0.5
 50
270.0
 51
360.0
  0
ARC
  8
M0
 62
     7
 10
100.402532
 20
279.937366
 40
0.5
 50
0.0
 51
90.0
  0
ARC
  8
M0
 62
     7
 10
62.602532
 20
267.987366
 40
0.5
 50
180.0
 51
270.0
  0
LINE
  8
M0
 62
     7
 10
83.552532
 20
258.487366
 11
83.552532
 21
259.487366
  0
LINE
  8
M0
 62
     7
 10
89.552532
 20
259.487366
 11
89.552532
 21
258.487366
  0
LINE
  8
M0
 62
     7
 10
89.552532
 20
258.487366
 11
83.552532
 21
258.487366
  0
ARC
  8
M0
 62
     7
 10
100.402532
 20
300.387366
 40
0.5
 50
0.0
 51
90.0
  0
ARC
  8
M0
 62
     7
 10
98.002532
 20
280.937366
 40
0.5
 50
180.0
 51
270.0
  0
LINE
  8
M0
 62
     7
 10
92.752532
 20
315.087366
 11
98.502532
 21
315.087366
  0
LINE
  8
M0
 62
     7
 10
98.502532
 20
317.087366
 11
98.502532
 21
315.087366
  0
LINE
  8
M0
 62
     7
 10
86.902532
 20
315.087366
 11
90.452532
 21
315.087366
  0
LINE
  8
M0
 62
     7
 10
76.102532
 20
328.087366
 11
76.102532
 21
315.087366
  0
LINE
  8
M0
 62
     7
 10
72.552532
 20
315.087366
 11
76.102532
 21
315.087366
  0
LINE
  8
M0
 62
     7
 10
74.602532
 20
318.587366
 11
74.602532
 21
327.587366
  0
LINE
  8
M0
 62
     7
 10
88.402532
 20
327.587366
 11
88.402532
 21
318.587366
  0
LINE
  8
M0
 62
     7
 10
76.102532
 20
318.587366
 11
64.502532
 21
318.587366
  0
LINE
  8
M0
 62
     7
 10
76.102532
 20
317.087366
 11
64.502532
 21
317.087366
  0
LINE
  8
M0
 62
     7
 10
64.502532
 20
315.087366
 11
70.252532
 21
315.087366
  0
LINE
  8
M0
 62
     7
 10
86.902532
 20
315.087366
 11
86.902532
 21
328.087366
  0
LINE
  8
M0
 62
     7
 10
98.502532
 20
318.587366
 11
98.502532
 21
317.087366
  0
LINE
  8
M0
 62
     7
 10
98.502532
 20
317.087366
 11
86.902532
 21
317.087366
  0
LINE
  8
M0
 62
     7
 10
86.902532
 20
318.587366
 11
98.502532
 21
318.587366
  0
LINE
  8
M0
 62
     7
 10
95.902532
 20
327.087366
 11
88.402532
 21
327.087366
  0
ARC
  8
M0
 62
     7
 10
87.052532
 20
289.487366
 40
0.5
 50
180.0
 51
270.0
  0
ARC
  8
M0
 62
     7
 10
75.952532
 20
289.487366
 40
0.5
 50
270.0
 51
360.0
  0
ARC
  8
M0
 62
     7
 10
87.752532
 20
295.187366
 40
1.2
 50
90.0
 51
180.0
  0
ARC
  8
M0
 62
     7
 10
75.252532
 20
295.187366
 40
1.2
 50
0.0
 51
90.0
  0
ARC
  8
M0
 62
     7
 10
73.302532
 20
295.387366
 40
1.0
 50
90.0
 51
180.0
  0
ARC
  8
M0
 62
     7
 10
89.702532
 20
295.387366
 40
1.0
 50
0.0
 51
90.0
  0
ARC
  8
M0
 62
     7
 10
89.702532
 20
274.187366
 40
1.0
 50
270.0
 51
360.0
  0
ARC
  8
M0
 62
     7
 10
73.302532
 20
276.687366
 40
1.0
 50
90.0
 51
180.0
  0
ARC
  8
M0
 62
     7
 10
73.302532
 20
274.187366
 40
1.0
 50
180.0
 51
270.0
  0
LINE
  8
M0
 62
     7
 10
87.052532
 20
273.687366
 11
87.052532
 21
281.537366
  0
LINE
  8
M0
 62
     7
 10
75.952532
 20
273.687366
 11
75.952532
 21
281.537366
  0
LINE
  8
M0
 62
     7
 10
87.052532
 20
281.537366
 11
87.302532
 21
282.037366
  0
LINE
  8
M0
 62
     7
 10
75.952532
 20
281.537366
 11
75.702532
 21
282.037366
  0
LINE
  8
M0
 62
     7
 10
89.702532
 20
273.187366
 11
87.552532
 21
273.187366
  0
ARC
  8
M0
 62
     7
 10
89.702532
 20
276.687366
 40
1.0
 50
0.0
 51
90.0
  0
LINE
  8
M0
 62
     7
 10
90.702532
 20
276.687366
 11
90.702532
 21
274.187366
  0
LINE
  8
M0
 62
     7
 10
89.202532
 20
277.687366
 11
89.702532
 21
277.687366
  0
LINE
  8
M0
 62
     7
 10
72.302532
 20
276.687366
 11
72.302532
 21
274.187366
  0
LINE
  8
M0
 62
     7
 10
73.802532
 20
277.687366
 11
73.302532
 21
277.687366
  0
LINE
  8
M0
 62
     7
 10
99.652532
 20
259.537366
 11
99.652532
 21
258.487366
  0
LINE
  8
M0
 62
     7
 10
99.652532
 20
258.487366
 11
93.652532
 21
258.487366
  0
LINE
  8
M0
 62
     7
 10
73.452532
 20
258.487366
 11
73.452532
 21
259.537366
  0
LINE
  8
M0
 62
     7
 10
79.452532
 20
258.487366
 11
73.452532
 21
258.487366
  0
LINE
  8
M0
 62
     7
 10
79.452532
 20
259.487366
 11
79.452532
 21
258.487366
  0
LINE
  8
M0
 62
     7
 10
93.652532
 20
258.487366
 11
93.652532
 21
259.537366
  0
LINE
  8
M0
 62
     7
 10
83.552532
 20
308.837366
 11
83.552532
 21
309.887366
  0
LINE
  8
M0
 62
     7
 10
73.302532
 20
296.387366
 11
75.252532
 21
296.387366
  0
LINE
  8
M0
 62
     7
 10
89.552532
 20
309.887366
 11
89.552532
 21
308.837366
  0
LINE
  8
M0
 62
     7
 10
88.552532
 20
296.387366
 11
88.552532
 21
296.487366
  0
LINE
  8
M0
 62
     7
 10
83.552532
 20
309.887366
 11
89.552532
 21
309.887366
  0
LINE
  8
M0
 62
     7
 10
72.302532
 20
295.387366
 11
72.302532
 21
290.287366
  0
LINE
  8
M0
 62
     7
 10
90.702532
 20
295.387366
 11
90.702532
 21
290.287366
  0
LINE
  8
M0
 62
     7
 10
76.452532
 20
289.487366
 11
76.452532
 21
295.187366
  0
LINE
  8
M0
 62
     7
 10
69.352532
 20
309.887366
 11
69.352532
 21
308.837366
  0
LINE
  8
M0
 62
     7
 10
63.352532
 20
308.837366
 11
63.352532
 21
309.887366
  0
LINE
  8
M0
 62
     7
 10
87.752532
 20
296.387366
 11
89.702532
 21
296.387366
  0
LINE
  8
M0
 62
     7
 10
87.302532
 20
287.537366
 11
87.052532
 21
288.037366
  0
LINE
  8
M0
 62
     7
 10
73.802532
 20
288.787366
 11
73.802532
 21
277.687366
  0
LINE
  8
M0
 62
     7
 10
89.202532
 20
288.787366
 11
89.202532
 21
277.687366
  0
LINE
  8
M0
 62
     7
 10
75.702532
 20
282.037366
 11
75.702532
 21
287.537366
  0
LINE
  8
M0
 62
     7
 10
87.302532
 20
282.037366
 11
87.302532
 21
287.537366
  0
LINE
  8
M0
 62
     7
 10
72.302532
 20
290.287366
 11
73.802532
 21
288.787366
  0
LINE
  8
M0
 62
     7
 10
90.702532
 20
290.287366
 11
89.202532
 21
288.787366
  0
LINE
  8
M0
 62
     7
 10
86.552532
 20
289.487366
 11
86.552532
 21
295.187366
  0
LINE
  8
M0
 62
     7
 10
75.702532
 20
287.537366
 11
75.952532
 21
288.037366
  0
LINE
  8
M0
 62
     7
 10
75.952532
 20
288.037366
 11
75.952532
 21
288.987366
  0
LINE
  8
M0
 62
     7
 10
87.052532
 20
288.037366
 11
87.052532
 21
288.987366
  0
LINE
  8
M0
 62
     7
 10
100.902532
 20
267.987366
 11
100.902532
 21
279.937366
  0
LINE
  8
M0
 62
     7
 10
101.052532
 20
267.487366
 11
61.952532
 21
267.487366
  0
LINE
  8
M0
 62
     7
 10
98.002532
 20
280.437366
 11
100.402532
 21
280.437366
  0
LINE
  8
M0
 62
     7
 10
62.602532
 20
280.437366
 11
65.002532
 21
280.437366
  0
LINE
  8
M0
 62
     7
 10
62.102532
 20
267.987366
 11
62.102532
 21
279.937366
  0
LINE
  8
M0
 62
     7
 10
97.502532
 20
287.437366
 11
97.502532
 21
280.937366
  0
LINE
  8
M0
 62
     7
 10
100.402532
 20
300.887366
 11
100.552532
 21
300.887366
  0
LINE
  8
M0
 62
     7
 10
62.602532
 20
300.887366
 11
62.452532
 21
300.887366
  0
LINE
  8
M0
 62
     7
 10
84.502532
 20
297.787366
 11
78.502532
 21
297.787366
  0
LINE
  8
M0
 62
     7
 10
78.502532
 20
297.787366
 11
78.502532
 21
296.187366
  0
LINE
  8
M0
 62
     7
 10
84.502532
 20
296.187366
 11
84.502532
 21
297.787366
  0
ARC
  8
M0
 62
     7
 10
78.952532
 20
272.687366
 40
0.5
 50
90.0
 51
126.869898
  0
LINE
  8
M0
 62
     7
 10
72.202532
 20
274.087366
 11
72.202532
 21
295.487366
  0
ARC
  8
M0
 62
     7
 10
73.952532
 20
272.687366
 40
0.5
 50
53.130102
 51
90.0
  0
LINE
  8
M0
 62
     7
 10
100.402532
 20
287.937366
 11
98.002532
 21
287.937366
  0
LINE
  8
M0
 62
     7
 10
65.502532
 20
280.937366
 11
65.502532
 21
287.437366
  0
LINE
  8
M0
 62
     7
 10
100.902532
 20
300.387366
 11
100.902532
 21
288.437366
  0
LINE
  8
M0
 62
     7
 10
65.002532
 20
287.937366
 11
62.602532
 21
287.937366
  0
LINE
  8
M0
 62
     7
 10
78.502532
 20
296.187366
 11
84.502532
 21
296.187366
  0
LINE
  8
M0
 62
     7
 10
100.402532
 20
267.487366
 11
100.552532
 21
267.487366
  0
LINE
  8
M0
 62
     7
 10
62.602532
 20
267.487366
 11
62.452532
 21
267.487366
  0
LINE
  8
M0
 62
     7
 10
100.9499
 20
292.937366
 11
100.902532
 21
292.937366
  0
LINE
  8
M0
 62
     7
 10
62.055163
 20
292.937366
 11
62.102532
 21
292.937366
  0
LINE
  8
M0
 62
     7
 10
100.9499
 20
290.437366
 11
100.902532
 21
290.437366
  0
LINE
  8
M0
 62
     7
 10
62.055163
 20
290.437366
 11
62.102532
 21
290.437366
  0
LINE
  8
M0
 62
     7
 10
69.352532
 20
258.487366
 11
63.352532
 21
258.487366
  0
LINE
  8
M0
 62
     7
 10
63.352532
 20
258.487366
 11
63.352532
 21
259.537366
  0
LINE
  8
M0
 62
     7
 10
69.352532
 20
259.537366
 11
69.352532
 21
258.487366
  0
LINE
  8
M0
 62
     7
 10
74.452532
 20
296.487366
 11
74.452532
 21
296.387366
  0
LINE
  8
M0
 62
     7
 10
73.452532
 20
308.912366
 11
73.452532
 21
309.887366
  0
LINE
  8
M0
 62
     7
 10
73.452532
 20
309.887366
 11
79.452532
 21
309.887366
  0
LINE
  8
M0
 62
     7
 10
79.452532
 20
309.887366
 11
79.452532
 21
308.887366
  0
LINE
  8
M0
 62
     7
 10
93.652532
 20
308.887366
 11
93.652532
 21
309.887366
  0
LINE
  8
M0
 62
     7
 10
99.652532
 20
309.887366
 11
99.652532
 21
308.887366
  0
LINE
  8
M0
 62
     7
 10
93.652532
 20
309.887366
 11
99.652532
 21
309.887366
  0
LINE
  8
M0
  6
DASHDOT
 62
     7
 10
81.502532
 20
245.307269
 11
81.502532
 21
330.409375
  0
LINE
  8
M0
  6
DASHDOT
 62
     7
 10
75.952532
 20
251.687366
 11
76.952532
 21
251.687366
  0
LINE
  8
M0
  6
DASHDOT
 62
     7
 10
76.452532
 20
251.187366
 11
76.452532
 21
252.187366
  0
LINE
  8
M0
  6
DASHDOT
 62
     7
 10
75.952532
 20
263.287366
 11
76.952532
 21
263.287366
  0
LINE
  8
M0
  6
DASHDOT
 62
     7
 10
76.452532
 20
262.787366
 11
76.452532
 21
263.787366
  0
LINE
  8
M0
  6
DASHDOT
 62
     7
 10
86.052532
 20
263.287366
 11
87.052532
 21
263.287366
  0
LINE
  8
M0
  6
DASHDOT
 62
     7
 10
86.552532
 20
262.787366
 11
86.552532
 21
263.787366
  0
LINE
  8
M0
  6
DASHDOT
 62
     7
 10
96.152532
 20
263.287366
 11
97.152532
 21
263.287366
  0
LINE
  8
M0
  6
DASHDOT
 62
     7
 10
96.652532
 20
262.787366
 11
96.652532
 21
263.787366
  0
LINE
  8
M0
  6
DASHDOT
 62
     7
 10
96.152532
 20
305.087366
 11
97.152532
 21
305.087366
  0
LINE
  8
M0
  6
DASHDOT
 62
     7
 10
96.652532
 20
304.587366
 11
96.652532
 21
305.587366
  0
LINE
  8
M0
  6
DASHDOT
 62
     7
 10
86.052532
 20
305.087366
 11
87.052532
 21
305.087366
  0
LINE
  8
M0
  6
DASHDOT
 62
     7
 10
86.552532
 20
304.587366
 11
86.552532
 21
305.587366
  0
LINE
  8
M0
  6
DASHDOT
 62
     7
 10
75.952532
 20
305.087366
 11
76.952532
 21
305.087366
  0
LINE
  8
M0
  6
DASHDOT
 62
     7
 10
76.452532
 20
304.587366
 11
76.452532
 21
305.587366
  0
LINE
  8
M0
  6
DASHDOT
 62
     7
 10
65.852532
 20
305.087366
 11
66.852532
 21
305.087366
  0
LINE
  8
M0
  6
DASHDOT
 62
     7
 10
66.352532
 20
304.587366
 11
66.352532
 21
305.587366
  0
LINE
  8
M0
  6
DASHDOT
 62
     7
 10
70.102532
 20
322.687366
 11
71.102532
 21
322.687366
  0
LINE
  8
M0
  6
DASHDOT
 62
     7
 10
70.602532
 20
322.187366
 11
70.602532
 21
323.187366
  0
LINE
  8
M0
  6
DASHDOT
 62
     7
 10
91.902532
 20
322.687366
 11
92.902532
 21
322.687366
  0
LINE
  8
M0
  6
DASHDOT
 62
     7
 10
92.402532
 20
322.187366
 11
92.402532
 21
323.187366
  0
LINE
  8
M0
  6
DASHDOT
 62
     7
 10
65.852532
 20
263.287366
 11
66.852532
 21
263.287366
  0
LINE
  8
M0
  6
DASHDOT
 62
     7
 10
66.352532
 20
262.787366
 11
66.352532
 21
263.787366
  0
LINE
  8
M0
  6
DASHDOT
 62
     7
 10
81.002532
 20
322.287366
 11
82.002532
 21
322.287366
  0
LINE
  8
M0
 62
     7
 10
81.052532
 20
321.087366
 11
81.952532
 21
321.087366
  0
LINE
  8
M0
 62
     7
 10
81.052532
 20
321.837366
 11
81.052532
 21
321.087366
  0
LINE
  8
M0
 62
     7
 10
81.952532
 20
321.087366
 11
81.952532
 21
321.837366
  0
LINE
  8
M0
  6
DASHDOT
 62
     7
 10
81.002532
 20
322.287366
 11
82.002532
 21
322.287366
  0
LINE
  8
M0
 62
     7
 10
81.052532
 20
321.837366
 11
80.302532
 21
321.837366
  0
LINE
  8
M0
 62
     7
 10
80.302532
 20
322.737366
 11
81.052532
 21
322.737366
  0
LINE
  8
M0
 62
     7
 10
81.052532
 20
323.487366
 11
81.052532
 21
322.737366
  0
CIRCLE
  8
M0
 62
     7
 10
81.502532
 20
322.287366
 40
2.85
  0
LINE
  8
M0
 62
     7
 10
81.952532
 20
323.487366
 11
81.052532
 21
323.487366
  0
LINE
  8
M0
 62
     7
 10
82.702532
 20
321.837366
 11
81.952532
 21
321.837366
  0
LINE
  8
M0
 62
     7
 10
81.952532
 20
322.737366
 11
81.952532
 21
323.487366
  0
LINE
  8
M0
 62
     7
 10
81.952532
 20
322.737366
 11
82.702532
 21
322.737366
  0
CIRCLE
  8
M0
 62
     7
 10
92.402532
 20
322.687366
 40
3.0
  0
CIRCLE
  8
M0
 62
     7
 10
96.652532
 20
305.087366
 40
3.0
  0
CIRCLE
  8
M0
 62
     7
 10
86.552532
 20
305.087366
 40
3.0
  0
CIRCLE
  8
M0
 62
     7
 10
76.452532
 20
305.087366
 40
3.0
  0
CIRCLE
  8
M0
 62
     7
 10
66.352532
 20
305.087366
 40
3.0
  0
CIRCLE
  8
M0
 62
     7
 10
66.352532
 20
263.287366
 40
3.0
  0
CIRCLE
  8
M0
 62
     7
 10
76.452532
 20
263.287366
 40
3.0
  0
CIRCLE
  8
M0
 62
     7
 10
86.552532
 20
263.287366
 40
3.0
  0
LINE
  8
M0
  6
DIVIDE
 62
     7
 10
258.982964
 20
297.687366
 11
252.482964
 21
297.687366
  0
LINE
  8
M0
  6
DIVIDE
 62
     7
 10
258.982964
 20
270.687366
 11
252.482964
 21
270.687366
  0
LINE
  8
M0
  6
DIVIDE
 62
     7
 10
257.982964
 20
296.687366
 11
251.482964
 21
296.687366
  0
LINE
  8
M0
  6
DIVIDE
 62
     7
 10
252.482964
 20
270.687366
 11
252.482964
 21
266.687366
  0
LINE
  8
M0
  6
DIVIDE
 62
     7
 10
257.982964
 20
271.687366
 11
251.482964
 21
271.687366
  0
LINE
  8
M0
  6
DIVIDE
 62
     7
 10
251.482964
 20
271.687366
 11
251.482964
 21
266.687366
  0
LINE
  8
M0
  6
DIVIDE
 62
     7
 10
252.482964
 20
301.687366
 11
251.482964
 21
301.687366
  0
LINE
  8
M0
  6
DIVIDE
 62
     7
 10
258.982964
 20
270.687366
 11
258.982964
 21
297.687366
  0
LINE
  8
M0
  6
DIVIDE
 62
     7
 10
251.482964
 20
301.687366
 11
251.482964
 21
296.687366
  0
LINE
  8
M0
  6
DIVIDE
 62
     7
 10
252.482964
 20
301.687366
 11
252.482964
 21
297.687366
  0
LINE
  8
M0
  6
DIVIDE
 62
     7
 10
251.482964
 20
266.687366
 11
252.482964
 21
266.687366
  0
LINE
  8
M0
  6
DIVIDE
 62
     7
 10
257.982964
 20
296.687366
 11
257.982964
 21
271.687366
  0
LINE
  8
M0
 62
     7
 10
86.905811
 20
264.701726
 11
85.138233
 21
262.934026
  0
LINE
  8
M0
 62
     7
 10
77.866358
 20
263.641058
 11
76.09878
 21
261.873479
  0
LINE
  8
M0
 62
     7
 10
87.966358
 20
263.641058
 11
86.19878
 21
261.873479
  0
LINE
  8
M0
 62
     7
 10
98.243116
 20
303.496722
 11
95.061475
 21
306.678484
  0
LINE
  8
M0
 62
     7
 10
93.993116
 20
321.096722
 11
90.811475
 21
324.278484
  0
LINE
  8
M0
 62
     7
 10
67.766358
 20
305.441058
 11
65.99878
 21
303.673479
  0
LINE
  8
M0
 62
     7
 10
66.705811
 20
306.501726
 11
64.938233
 21
304.734026
  0
LINE
  8
M0
 62
     7
 10
66.705811
 20
264.701726
 11
64.938233
 21
262.934026
  0
LINE
  8
M0
 62
     7
 10
76.805811
 20
264.701726
 11
75.038233
 21
262.934026
  0
LINE
  8
M0
 62
     7
 10
67.766358
 20
263.641058
 11
65.99878
 21
261.873479
  0
LINE
  8
M0
 62
     7
 10
97.005811
 20
264.701726
 11
95.238233
 21
262.934026
  0
LINE
  8
M0
 62
     7
 10
88.143116
 20
261.696722
 11
84.961475
 21
264.878484
  0
LINE
  8
M0
 62
     7
 10
98.066358
 20
263.641058
 11
96.29878
 21
261.873479
  0
LINE
  8
M0
 62
     7
 10
98.243116
 20
261.696722
 11
95.061475
 21
264.878484
  0
LINE
  8
M0
 62
     7
 10
78.043116
 20
303.496722
 11
74.861475
 21
306.678484
  0
LINE
  8
M0
 62
     7
 10
88.143116
 20
303.496722
 11
84.961475
 21
306.678484
  0
LINE
  8
M0
 62
     7
 10
67.943116
 20
303.496722
 11
64.761475
 21
306.678484
  0
LINE
  8
M0
 62
     7
 10
78.043116
 20
261.696722
 11
74.861475
 21
264.878484
  0
LINE
  8
M0
 62
     7
 10
67.943116
 20
261.696722
 11
64.761475
 21
264.878484
  0
LINE
  8
M0
 62
     7
 10
70.955811
 20
324.101726
 11
69.188233
 21
322.334026
  0
LINE
  8
M0
 62
     7
 10
86.905811
 20
306.501726
 11
85.138233
 21
304.734026
  0
LINE
  8
M0
 62
     7
 10
98.066358
 20
305.441058
 11
96.29878
 21
303.673479
  0
LINE
  8
M0
 62
     7
 10
87.966358
 20
305.441058
 11
86.19878
 21
303.673479
  0
LINE
  8
M0
 62
     7
 10
77.866358
 20
305.441058
 11
76.09878
 21
303.673479
  0
LINE
  8
M0
 62
     7
 10
76.805811
 20
306.501726
 11
75.038233
 21
304.734026
  0
LINE
  8
M0
 62
     7
 10
72.016358
 20
323.041058
 11
70.24878
 21
321.273479
  0
LINE
  8
M0
 62
     7
 10
72.193116
 20
321.096722
 11
69.011475
 21
324.278484
  0
LINE
  8
M0
 62
     7
 10
92.755811
 20
324.101726
 11
90.988233
 21
322.334026
  0
LINE
  8
M0
 62
     7
 10
97.005811
 20
306.501726
 11
95.238233
 21
304.734026
  0
LINE
  8
M0
 62
     7
 10
93.816358
 20
323.041058
 11
92.04878
 21
321.273479
  0
LINE
  8
M0
 62
     7
 10
169.882964
 20
309.987366
 11
169.882964
 21
328.187366
  0
LINE
  8
M0
  6
DIVIDE
 62
     7
 10
103.002532
 20
129.649126
 11
103.002532
 21
127.649126
  0
LINE
  8
M0
  6
DIVIDE
 62
     7
 10
103.002532
 20
122.649126
 11
94.852532
 21
122.649126
  0
LINE
  8
M0
  6
DIVIDE
 62
     7
 10
94.352532
 20
122.649126
 11
94.852532
 21
122.649126
  0
LINE
  8
M0
  6
DIVIDE
 62
     7
 10
103.002532
 20
193.149126
 11
103.002532
 21
185.249126
  0
LINE
  8
M0
  6
DIVIDE
 62
     7
 10
89.852532
 20
122.649126
 11
88.0224
 21
122.649126
  0
LINE
  8
M0
  6
DIVIDE
 62
     7
 10
94.352532
 20
122.649126
 11
89.852532
 21
122.649126
  0
ARC
  8
M0
  6
DIVIDE
 62
     7
 10
86.502532
 20
123.949126
 40
2.0
 50
270.0
 51
319.458398
  0
LINE
  8
M0
  6
DIVIDE
 62
     7
 10
98.502532
 20
198.849126
 11
98.502532
 21
201.849126
  0
LINE
  8
M0
  6
DIVIDE
 62
     7
 10
81.502532
 20
201.849126
 11
98.502532
 21
201.849126
  0
LINE
  8
M0
  6
DIVIDE
 62
     7
 10
86.502532
 20
121.949126
 11
81.652532
 21
121.949126
  0
LINE
  8
M0
  6
DIVIDE
 62
     7
 10
98.502532
 20
198.849126
 11
98.502532
 21
193.149126
  0
LINE
  8
M0
  6
DIVIDE
 62
     7
 10
103.002532
 20
157.449126
 11
103.002532
 21
122.649126
  0
LINE
  8
M0
  6
DIVIDE
 62
     7
 10
103.002532
 20
181.249126
 11
103.002532
 21
157.449126
  0
LINE
  8
M0
  6
DIVIDE
 62
     7
 10
103.002532
 20
185.249126
 11
103.002532
 21
181.249126
  0
LINE
  8
M0
 62
     7
 10
81.502532
 20
121.949126
 11
81.652532
 21
121.949126
  0
LINE
  8
M0
  6
DIVIDE
 62
     7
 10
81.502532
 20
201.849126
 11
64.502532
 21
201.849126
  0
LINE
  8
M0
  6
DIVIDE
 62
     7
 10
64.502532
 20
201.849126
 11
64.502532
 21
193.149126
  0
LINE
  8
M0
  6
DIVIDE
 62
     7
 10
60.002532
 20
193.149126
 11
60.002532
 21
122.649126
  0
LINE
  8
M0
  6
DIVIDE
 62
     7
 10
98.502532
 20
193.149126
 11
103.002532
 21
193.149126
  0
LINE
  8
M0
  6
DIVIDE
 62
     7
 10
64.502532
 20
193.149126
 11
60.002532
 21
193.149126
  0
CIRCLE
  8
M0
 62
     7
 10
97.002539
 20
131.349141
 40
2.0
  0
LINE
  8
M0
  6
DASHDOT
 62
     7
 10
101.599936
 20
131.349141
 11
92.405127
 21
131.349141
  0
LINE
  8
M0
  6
DASHDOT
 62
     7
 10
97.002524
 20
135.946538
 11
97.002539
 21
126.751729
  0
LINE
  8
M0
  6
DASHDOT
 62
     7
 10
68.099936
 20
186.349126
 11
59.905127
 21
186.349126
  0
LINE
  8
M0
  6
DASHDOT
 62
     7
 10
64.002524
 20
190.446522
 11
64.002539
 21
182.251713
  0
LINE
  8
M0
  6
DIVIDE
 62
     7
 10
71.252532
 20
121.949126
 11
81.352532
 21
121.949126
  0
LINE
  8
M0
  6
DIVIDE
 62
     7
 10
70.298593
 20
122.649126
 11
60.002532
 21
122.649126
  0
ARC
  8
M0
  6
DIVIDE
 62
     7
 10
71.252532
 20
122.949126
 40
1.0
 50
197.457603
 51
270.0
  0
CIRCLE
  8
M0
 62
     7
 10
64.002532
 20
186.349126
 40
2.0
  0
CIRCLE
  8
M0
 62
     7
 10
64.002532
 20
186.349126
 40
1.7
  0
CIRCLE
  8
M0
 62
     7
 10
97.002532
 20
131.349141
 40
1.7
  0
LINE
  8
M2
 62
     2
 10
284.37092
 20
59.321773
 11
141.513775
 21
59.321773
  0
LINE
  8
M2
 62
     2
 10
12.942344
 20
16.464629
 11
12.942344
 21
409.321779
  0
LINE
  8
M2
 62
     2
 10
284.37092
 20
16.464629
 11
12.942344
 21
16.464629
  0
LINE
  8
M2
 62
     2
 10
284.37092
 20
30.750344
 11
141.513775
 21
30.750344
  0
TEXT
  8
M2
 62
     2
 10
144.609009
 20
34.321772
 40
7.142857
  1
形　式；
 41
1.0
  7
STANDARD
  0
LINE
  8
M2
 62
     2
 10
284.37092
 20
45.036058
 11
141.513775
 21
45.036058
  0
TEXT
  8
M2
 62
     2
 10
144.609009
 20
48.607487
 40
7.142857
  1
登録名：
 41
1.0
  7
STANDARD
  0
LINE
  8
M2
 62
     2
 10
141.513775
 20
16.464629
 11
141.513775
 21
59.321773
  0
TEXT
  8
M2
 62
     2
 10
144.609009
 20
20.036058
 40
7.142857
  1
適　用；
 41
1.0
  7
STANDARD
  0
LINE
  8
M2
 62
     2
 10
12.942344
 20
409.321779
 11
284.37092
 21
409.321779
  0
LINE
  8
M2
 62
     2
 10
284.37092
 20
409.321779
 11
284.37092
 21
16.464629
  0
TEXT
  8
M2
 62
     2
 10
179.132826
 20
34.321772
 40
7.142857
  1
ＨＳ１０
 41
0.5
  7
STANDARD
  0
TEXT
  8
M2
 62
     2
 10
179.132826
 20
48.607487
 40
7.142857
  1
ＤＭＨＳ１０Ｒ００
 41
0.5
  7
STANDARD
  0
LINE
  8
DN0
 10
71.816846
 20
98.608511
 11
95.002561
 21
98.608511
  0
TEXT
  8
DN0
 10
72.457322
 20
99.17994
 40
5.714286
  1
せん孔図
 41
0.833333
  7
STANDARD
  0
ENDSEC
  0
EOF
