  0
SECTION
  2
HEADER
  9
$ACADVER
  1
AC1014
  9
$INSBASE
 10
0.000000
 20
0.000000
 30
0.0
  9
$VIEWCTR
 10
7.531722
 20
4.5
  9
$VIEWSIZE
 40
9.0
  9
$SNAPMODE
 70
     0
  9
$SNAPUNIT
 10
1.0
 20
1.0
  9
$SNAPBASE
 10
0.0
 20
0.0
  9
$SNAPANG
 50
0.0
  9
$SNAPSTYLE
 70
     0
  9
$SNAPISOPAIR
 70
     0
  9
$GRIDMODE
 70
     0
  9
$GRIDUNIT
 10
0.0
 20
0.0
  9
$ORTHOMODE
 70
     0
  9
$REGENMODE
 70
     1
  9
$FILLMODE
 70
     1
  9
$QTEXTMODE
 70
     0
  9
$DRAGMODE
 70
     2
  9
$LTSCALE
  40
     1.000000
  9
$OSMODE
 70
     0
  9
$ATTMODE
 70
     1
  9
$TEXTSIZE
 40
0.2
  9
$TRACEWID
 40
0.05
  9
$TEXTSTYLE
  7
STANDARD
  9
$CELTYPE
  6
BYLAYER
  9
$CECOLOR
 62
   256
  9
$DIMSCALE
 40
1.0
  9
$DIMASZ
 40
0.18
  9
$DIMEXO
 40
0.0625
  9
$DIMDLI
 40
0.38
  9
$DIMRND
 40
0.0
  9
$DIMDLE
 40
0.0
  9
$DIMEXE
 40
0.18
  9
$DIMTP
 40
0.0
  9
$DIMTM
 40
0.0
  9
$DIMTXT
 40
0.18
  9
$DIMCEN
 40
0.09
  9
$DIMTSZ
 40
0.0
  9
$DIMTOL
 70
     0
  9
$DIMLIM
 70
     0
  9
$DIMTIH
 70
     1
  9
$DIMTOH
 70
     1
  9
$DIMSE1
 70
     0
  9
$DIMSE2
 70
     0
  9
$DIMTAD
 70
     0
  9
$DIMZIN
 70
     0
  9
$DIMBLK
  1

  9
$LUNITS
 70
     2
  9
$LUPREC
 70
     4
  9
$AXISMODE
 70
     0
  9
$AXISUNIT
 10
0.0
 20
0.0
  9
$SKETCHINC
 40
0.1
  9
$FILLETRAD
 40
0.0
  9
$AUNITS
 70
     0
  9
$AUPREC
 70
     0
  9
$MENU
  1
ACAD
  9
$ELEVATION
 40
0.0
  9
$THICKNESS
 40
0.0
  9
$VIEWDIR
 10
0.0
 20
0.0
 30
1.0
  9
$LIMCHECK
 70
     0
  9
$BLIPMODE
 70
     1
  9
$CHAMFERA
 40
0.0
  9
$CHAMFERB
 40
0.0
  9
$FASTZOOM
 70
     1
  9
$SKPOLY
 70
     0
  9
$TDCREATE
 40
0000000.0000000000
  9
$TDUPDATE
 40
0000000.0000000000
  9
$TDINDWG
 40
0.0000000000
  9
$TDUSRTIMER
 40
0.0000000000
  9
$USRTIMER
 70
     1
  9
$ANGBASE
 50
0.0
  9
$ANGDIR
 70
     0
  9
$PDMODE
 70
     0
  9
$PDSIZE
 40
0.0
  9
$PLINEWID
 40
0.0
  9
$COORDS
 70
     0
  9
$USERI1
 70
     0
  9
$USERI2
 70
     0
  9
$USERI3
 70
     0
  9
$USERI4
 70
     0
  9
$USERI5
 70
     0
  9
$USERR1
 40
0.0
  9
$USERR2
 40
0.0
  9
$USERR3
 40
0.0
  9
$USERR4
 40
0.0
  9
$USERR5
 40
0.0
  9
$CLAYER
  8
M2
  9
$EXTMIN
 10
3.944305E-031
 20
7.888609E-031
  9
$EXTMAX
 10
271.428576
 20
392.85715
  9
$LIMMIN
 10
0.0
 20
0.0
  9
$LIMMAX
 10
841.0
 20
594.0
  9
$HANDSEED
  5
590
  0
ENDSEC
  0
SECTION
  2
CLASSES
  0
CLASS
  1
LWPOLYLINE
  2
AcDbPolyline
  3
"AutoCAD"
 90
        0
280
     0
281
     1
  0
CLASS
  1
DICTIONARYVAR
  2
AcDbDictionaryVar
  3
"AutoCAD"
 90
        0
280
     0
281
     0
  0
CLASS
  1
HATCH
  2
AcDbHatch
  3
"ACAD_SEDONA"
 90
        0
280
     0
281
     1
  0
ENDSEC
  0
SECTION
  2
TABLES
  0
TABLE
  2
VPORT
  5
8
100
AcDbSymbolTable
 70
     2
  0
VPORT
  5
14
100
AcDbSymbolTableRecord
100
AcDbViewportTableRecord
  2
*ACTIVE
 70
     0
 10
0.0
 20
0.0
 11
1.0
 21
1.0
 12
484.0
 22
297.0
 13
0.0
 23
0.0
 14
1.0
 24
1.0
 15
0.0
 25
0.0
 16
0.0
 26
0.0
 36
1.0
 17
0.0
 27
0.0
 37
0.0
 40
594.0
 41
2.0
 42
50.0
 43
0.0
 44
0.0
 50
0.0
 51
0.0
 71
     0
 72
   100
 73
     1
 74
     1
 75
     0
 76
     0
 77
     0
 78
     0
  0
ENDTAB
  0
TABLE
  2
LTYPE
  5
5
100
AcDbSymbolTable
 70
     5
  0
LTYPE
  5
15
100
AcDbSymbolTableRecord
100
AcDbLinetypeTableRecord
  2
BYBLOCK
 70
     0
  3

 72
    65
 73
     0
 40
0.0
  0
LTYPE
  5
16
100
AcDbSymbolTableRecord
100
AcDbLinetypeTableRecord
  2
BYLAYER
 70
     0
  3

 72
    65
 73
     0
 40
0.0
  0
LTYPE
  5
17
100
AcDbSymbolTableRecord
100
AcDbLinetypeTableRecord
  2
CONTINUOUS
 70
    64
  3
Solid line
 72
    65
 73
     0
 40
0.0
  0
LTYPE
  5
18
100
AcDbSymbolTableRecord
100
AcDbLinetypeTableRecord
  2
DASHED
 70
    64
  3
__ __ __ __ __ __ __ __ __ __ __ __ __ __ __ __
 72
    65
 73
     2
 40
0.75
 49
0.5
 74
     0
 49
-0.25
 74
     0
  0
LTYPE
  5
19
100
AcDbSymbolTableRecord
100
AcDbLinetypeTableRecord
  2
DASHDOT
 70
    64
  3
__ . __ . __ . __ . __ . __ . __ . __ . __ . __
 72
    65
 73
     4
 40
1.0
 49
0.5
 74
     0
 49
-0.25
 74
     0
 49
0.0
 74
     0
 49
-0.25
 74
     0
  0
LTYPE
  5
1A
100
AcDbSymbolTableRecord
100
AcDbLinetypeTableRecord
  2
DIVIDE
 70
    64
  3
____ . . ____ . . ____ . . ____ . . ____ . . __
 72
    65
 73
     6
 40
1.25
 49
0.5
 74
     0
 49
-0.25
 74
     0
 49
0.0
 74
     0
 49
-0.25
 74
     0
 49
0.0
 74
     0
 49
-0.25
 74
     0
  0
LTYPE
  5
1B
100
AcDbSymbolTableRecord
100
AcDbLinetypeTableRecord
  2
DOT
 70
    64
  3
. . . . . . . . . . . . . . . . . . . . . . . .
 72
    65
 73
     2
 40
0.25
 49
0.0
 74
     0
 49
-0.25
 74
     0
  0
ENDTAB
  0
TABLE
  2
LAYER
  5
2
100
AcDbSymbolTable
 70
   102
  0
LAYER
  5
F
100
AcDbSymbolTableRecord
100
AcDbLayerTableRecord
  2
0
 70
     0
 62
     7
  6
CONTINUOUS
  0
LAYER
  5
1C
100
AcDbSymbolTableRecord
100
AcDbLayerTableRecord
  2
DEFPOINTS
 70
     0
 62
     7
  6
CONTINUOUS
  0
LAYER
  5
1D
100
AcDbSymbolTableRecord
100
AcDbLayerTableRecord
  2
M2
 70
     0
 62
     3
  6
CONTINUOUS
  0
LAYER
  5
1E
100
AcDbSymbolTableRecord
100
AcDbLayerTableRecord
  2
M3
 70
     0
 62
     3
  6
CONTINUOUS
  0
LAYER
  5
1F
100
AcDbSymbolTableRecord
100
AcDbLayerTableRecord
  2
DD0
 70
     0
 62
     4
  6
CONTINUOUS
  0
LAYER
  5
20
100
AcDbSymbolTableRecord
100
AcDbLayerTableRecord
  2
DN0
 70
     0
 62
     2
  6
CONTINUOUS
  0
ENDTAB
  0
TABLE
  2
STYLE
  5
3
100
AcDbSymbolTable
 70
     2
  0
STYLE
  5
10
100
AcDbSymbolTableRecord
100
AcDbTextStyleTableRecord
  2
STANDARD
 70
     0
 40
0.0
 41
1.0
 50
0.0
 71
     0
 42
0.2
  3
txt
  4
BIGFONT
  0
ENDTAB
  0
TABLE
  2
VIEW
  5
6
100
AcDbSymbolTable
 70
     0
  0
ENDTAB
  0
TABLE
  2
UCS
  5
7
100
AcDbSymbolTable
 70
     0
  0
ENDTAB
  0
TABLE
  2
APPID
  5
9
100
AcDbSymbolTable
 70
     1
  0
APPID
  5
11
100
AcDbSymbolTableRecord
100
AcDbRegAppTableRecord
  2
ACAD
 70
     0
  0
ENDTAB
  0
TABLE
  2
DIMSTYLE
  5
A
100
AcDbSymbolTable
 70
     2
  0
DIMSTYLE
105
27
100
AcDbSymbolTableRecord
100
AcDbDimStyleTableRecord
  2
STANDARD
 70
     0
  3

  4

  5

  6
_OPEN
  7
_OPEN
 40
1.0
 41
3.0
 42
1.0
 43
8.0
 44
1.0
 45
0.0
 46
0.0
 47
0.0
 48
0.0
140
3.15
141
0.09
142
0.0
143
0.03937
144
1.0
145
0.0
146
1.0
147
0.6
 71
     0
 72
     0
 73
     1
 74
     1
 75
     0
 76
     0
 77
     3
 78
     8
170
     0
171
     2
172
     0
173
     1
174
     0
175
     0
176
     0
177
     0
178
     0
270
     2
271
     2
272
     4
273
     2
274
     2
340
10
275
     0
280
     0
281
     0
282
     0
283
     1
284
     0
285
     0
286
     0
287
     3
288
     0
  0
DIMSTYLE
105
28
100
AcDbSymbolTableRecord
100
AcDbDimStyleTableRecord
  2
LEADSTYL
 70
     0
  3

  4

  5

  6
_OPEN
  7
_OPEN
 40
1.0
 41
3.0
 42
0.0625
 43
0.38
 44
0.18
 45
0.0
 46
0.0
 47
0.0
 48
0.0
140
3.15
141
0.09
142
0.0
143
25.4
144
1.0
145
0.0
146
1.0
147
0.6
 71
     0
 72
     0
 73
     1
 74
     1
 75
     0
 76
     0
 77
     0
 78
     0
170
     0
171
     2
172
     0
173
     1
174
     0
175
     0
176
     0
177
     0
178
     0
270
     2
271
     4
272
     4
273
     2
274
     2
340
10
275
     0
280
     0
281
     0
282
     0
283
     1
284
     0
285
     0
286
     0
287
     3
288
     0
  0
ENDTAB
  0
TABLE
  2
BLOCK_RECORD
  5
1
100
AcDbSymbolTable
 70
    25
  0
BLOCK_RECORD
  5
21
100
AcDbSymbolTableRecord
100
AcDbBlockTableRecord
  2
*MODEL_SPACE
  0
BLOCK_RECORD
  5
24
100
AcDbSymbolTableRecord
100
AcDbBlockTableRecord
  2
*PAPER_SPACE
  0
BLOCK_RECORD
  5
29
100
AcDbSymbolTableRecord
100
AcDbBlockTableRecord
  2
_NONE
  0
BLOCK_RECORD
  5
2D
100
AcDbSymbolTableRecord
100
AcDbBlockTableRecord
  2
_OPEN
  0
BLOCK_RECORD
  5
33
100
AcDbSymbolTableRecord
100
AcDbBlockTableRecord
  2
_CLOSED
  0
BLOCK_RECORD
  5
3A
100
AcDbSymbolTableRecord
100
AcDbBlockTableRecord
  2
_ORIGIN
  0
BLOCK_RECORD
  5
3F
100
AcDbSymbolTableRecord
100
AcDbBlockTableRecord
  2
_DOT
  0
BLOCK_RECORD
  5
47
100
AcDbSymbolTableRecord
100
AcDbBlockTableRecord
  2
_OBLIQUE
  0
BLOCK_RECORD
  5
4B
100
AcDbSymbolTableRecord
100
AcDbBlockTableRecord
  2
DIMS0
  0
BLOCK_RECORD
  5
57
100
AcDbSymbolTableRecord
100
AcDbBlockTableRecord
  2
DIMS1
  0
BLOCK_RECORD
  5
62
100
AcDbSymbolTableRecord
100
AcDbBlockTableRecord
  2
DIMS2
  0
BLOCK_RECORD
  5
6E
100
AcDbSymbolTableRecord
100
AcDbBlockTableRecord
  2
DIMS3
  0
BLOCK_RECORD
  5
7A
100
AcDbSymbolTableRecord
100
AcDbBlockTableRecord
  2
DIMS4
  0
BLOCK_RECORD
  5
86
100
AcDbSymbolTableRecord
100
AcDbBlockTableRecord
  2
DIMS5
  0
BLOCK_RECORD
  5
90
100
AcDbSymbolTableRecord
100
AcDbBlockTableRecord
  2
DIMS6
  0
BLOCK_RECORD
  5
9B
100
AcDbSymbolTableRecord
100
AcDbBlockTableRecord
  2
DIMS7
  0
BLOCK_RECORD
  5
A7
100
AcDbSymbolTableRecord
100
AcDbBlockTableRecord
  2
DIMS8
  0
BLOCK_RECORD
  5
B3
100
AcDbSymbolTableRecord
100
AcDbBlockTableRecord
  2
DIMS9
  0
BLOCK_RECORD
  5
BF
100
AcDbSymbolTableRecord
100
AcDbBlockTableRecord
  2
DIMS10
  0
BLOCK_RECORD
  5
CB
100
AcDbSymbolTableRecord
100
AcDbBlockTableRecord
  2
DIMS11
  0
BLOCK_RECORD
  5
D7
100
AcDbSymbolTableRecord
100
AcDbBlockTableRecord
  2
DIMS12
  0
BLOCK_RECORD
  5
E4
100
AcDbSymbolTableRecord
100
AcDbBlockTableRecord
  2
DIMS13
  0
BLOCK_RECORD
  5
F0
100
AcDbSymbolTableRecord
100
AcDbBlockTableRecord
  2
DIMS14
  0
BLOCK_RECORD
  5
FC
100
AcDbSymbolTableRecord
100
AcDbBlockTableRecord
  2
DIMS15
  0
BLOCK_RECORD
  5
101
100
AcDbSymbolTableRecord
100
AcDbBlockTableRecord
  2
DIMS16
  0
BLOCK_RECORD
  5
108
100
AcDbSymbolTableRecord
100
AcDbBlockTableRecord
  2
DIMS17
  0
BLOCK_RECORD
  5
114
100
AcDbSymbolTableRecord
100
AcDbBlockTableRecord
  2
DIMS18
  0
ENDTAB
  0
ENDSEC
  0
SECTION
  2
BLOCKS
  0
BLOCK
  5
22
100
AcDbEntity
  8
0
100
AcDbBlockBegin
  2
*MODEL_SPACE
 70
     0
 10
0.0
 20
0.0
 30
0.0
  3
*MODEL_SPACE
  1

  0
ENDBLK
  5
23
100
AcDbEntity
  8
0
100
AcDbBlockEnd
  0
BLOCK
  5
25
100
AcDbEntity
 67
     1
  8
0
100
AcDbBlockBegin
  2
*PAPER_SPACE
 70
     0
 10
0.0
 20
0.0
 30
0.0
  3
*PAPER_SPACE
  1

  0
ENDBLK
  5
26
100
AcDbEntity
 67
     1
  8
0
100
AcDbBlockEnd
  0
BLOCK
  5
2A
100
AcDbEntity
  8
0
100
AcDbBlockBegin
  2
_NONE
 70
     0
 10
0.0
 20
0.0
  0
CIRCLE
  5
2B
100
AcDbEntity
  8
0
 62
     0
100
AcDbCircle
 10
0.0
 20
0.0
 40
0.25
  0
ENDBLK
  5
2C
100
AcDbEntity
  8
0
100
AcDbBlockEnd
  0
BLOCK
  5
2E
100
AcDbEntity
  8
0
100
AcDbBlockBegin
  2
_OPEN
 70
     0
 10
0.0
 20
0.0
  0
LINE
  5
2F
100
AcDbEntity
  8
0
 62
     0
100
AcDbLine
 10
-0.965926
 20
0.258819
 11
0.0
 21
0.0
  0
LINE
  5
30
100
AcDbEntity
  8
0
 62
     0
100
AcDbLine
 10
0.0
 20
0.0
 11
-0.965926
 21
-0.258819
  0
LINE
  5
31
100
AcDbEntity
  8
0
 62
     0
100
AcDbLine
 10
0.0
 20
0.0
 11
-1.0
 21
0.0
  0
ENDBLK
  5
32
100
AcDbEntity
  8
0
100
AcDbBlockEnd
  0
BLOCK
  5
34
100
AcDbEntity
  8
0
100
AcDbBlockBegin
  2
_CLOSED
 70
     0
 10
0.0
 20
0.0
  0
LINE
  5
35
100
AcDbEntity
  8
0
 62
     0
100
AcDbLine
 10
-0.965926
 20
0.258819
 11
0.0
 21
0.0
  0
LINE
  5
36
100
AcDbEntity
  8
0
 62
     0
100
AcDbLine
 10
0.0
 20
0.0
 11
-0.965926
 21
-0.258819
  0
LINE
  5
37
100
AcDbEntity
  8
0
 62
     0
100
AcDbLine
 10
-0.965926
 20
0.258819
 11
-0.965926
 21
-0.258819
  0
LINE
  5
38
100
AcDbEntity
  8
0
 62
     0
100
AcDbLine
 10
0.0
 20
0.0
 11
-1.0
 21
0.0
  0
ENDBLK
  5
39
100
AcDbEntity
  8
0
100
AcDbBlockEnd
  0
BLOCK
  5
3B
100
AcDbEntity
  8
0
100
AcDbBlockBegin
  2
_ORIGIN
 70
     0
 10
0.0
 20
0.0
  0
CIRCLE
  5
3C
100
AcDbEntity
  8
0
 62
     0
100
AcDbCircle
 10
0.0
 20
0.0
 40
0.5
  0
LINE
  5
3D
100
AcDbEntity
  8
0
 62
     0
100
AcDbLine
 10
0.0
 20
0.0
 11
-1.0
 21
0.0
  0
ENDBLK
  5
3E
100
AcDbEntity
  8
0
100
AcDbBlockEnd
  0
BLOCK
  5
40
100
AcDbEntity
  8
0
100
AcDbBlockBegin
  2
_DOT
 70
     0
 10
0.0
 20
0.0
  0
POLYLINE
  5
41
100
AcDbEntity
  8
0
 62
     0
100
AcDb2dPolyline
 66
     1
 70
     1
 40
0.5
 41
0.5
  0
VERTEX
  5
42
100
AcDbEntity
  8
0
 62
     0
100
AcDbVertex
100
AcDb2dVertex
 10
-0.25
 20
0.0
 42
1.0
  0
VERTEX
  5
43
100
AcDbEntity
  8
0
 62
     0
100
AcDbVertex
100
AcDb2dVertex
 10
0.25
 20
0.0
 42
1.0
  0
SEQEND
  5
44
100
AcDbEntity
  8
0
 62
     0
  0
LINE
  5
45
100
AcDbEntity
  8
0
 62
     0
100
AcDbLine
 10
-0.5
 20
0.0
 11
-1.0
 21
0.0
  0
ENDBLK
  5
46
100
AcDbEntity
  8
0
100
AcDbBlockEnd
  0
BLOCK
  5
48
100
AcDbEntity
  8
0
100
AcDbBlockBegin
  2
_OBLIQUE
 70
     0
 10
0.0
 20
0.0
  0
LINE
  5
49
100
AcDbEntity
  8
0
 62
     0
100
AcDbLine
 10
-0.353553
 20
-0.353553
 11
0.353553
 21
0.353553
  0
ENDBLK
  5
4A
100
AcDbEntity
  8
0
100
AcDbBlockEnd
  0
BLOCK
  5
4C
100
AcDbEntity
  8
DD0
100
AcDbBlockBegin
  2
DIMS0
 70
     0
 10
0.0
 20
0.0
  0
LINE
  5
4D
100
AcDbEntity
  8
DD0
100
AcDbLine
 10
258.833801
 20
294.603058
 11
258.833801
 21
312.262512
  0
LINE
  5
4E
100
AcDbEntity
  8
DD0
100
AcDbLine
 10
189.533798
 20
303.753052
 11
189.533798
 21
312.262512
  0
LINE
  5
4F
100
AcDbEntity
  8
DD0
100
AcDbLine
 10
255.936024
 20
310.486055
 11
258.833801
 21
311.262512
  0
LINE
  5
50
100
AcDbEntity
  8
DD0
100
AcDbLine
 10
258.833801
 20
311.262512
 11
255.936024
 21
312.038969
  0
LINE
  5
51
100
AcDbEntity
  8
DD0
100
AcDbLine
 10
192.431576
 20
312.038969
 11
189.533798
 21
311.262512
  0
LINE
  5
52
100
AcDbEntity
  8
DD0
100
AcDbLine
 10
189.533798
 20
311.262512
 11
192.431576
 21
310.486055
  0
LINE
  5
53
100
AcDbEntity
  8
DD0
100
AcDbLine
 10
258.833801
 20
311.262512
 11
189.533798
 21
311.262512
  0
TEXT
  5
54
100
AcDbEntity
  8
DD0
100
AcDbText
 10
215.355468
 20
311.862518
 40
2.5
  1
６９（コイル端子）
 41
0.666667
  7
STANDARD
100
AcDbText
  0
ENDBLK
  5
55
100
AcDbEntity
  8
DD0
100
AcDbBlockEnd
  0
BLOCK
  5
58
100
AcDbEntity
  8
DD0
100
AcDbBlockBegin
  2
DIMS1
 70
     0
 10
0.0
 20
0.0
  0
LINE
  5
59
100
AcDbEntity
  8
DD0
100
AcDbLine
 10
247.533798
 20
294.05307
 11
247.533798
 21
304.192963
  0
LINE
  5
5A
100
AcDbEntity
  8
DD0
100
AcDbLine
 10
258.833801
 20
294.603058
 11
258.833801
 21
304.192963
  0
LINE
  5
5B
100
AcDbEntity
  8
DD0
100
AcDbLine
 10
250.431576
 20
303.96942
 11
247.533798
 21
303.192963
  0
LINE
  5
5C
100
AcDbEntity
  8
DD0
100
AcDbLine
 10
247.533798
 20
303.192963
 11
250.431576
 21
302.416505
  0
LWPOLYLINE
  5
5D
100
AcDbEntity
  8
DD0
100
AcDbPolyline
 90
        2
 70
     1
 43
0.5
 10
258.583801
 20
303.192963
 42
1.0
 10
259.083801
 20
303.192963
 42
1.0
  0
LINE
  5
5E
100
AcDbEntity
  8
DD0
100
AcDbLine
 10
239.233798
 20
303.192963
 11
258.833801
 21
303.192963
  0
TEXT
  5
5F
100
AcDbEntity
  8
DD0
100
AcDbText
 10
240.115462
 20
303.792969
 40
2.5
  1
１１
 41
0.666667
  7
STANDARD
100
AcDbText
  0
ENDBLK
  5
60
100
AcDbEntity
  8
DD0
100
AcDbBlockEnd
  0
BLOCK
  5
63
100
AcDbEntity
  8
DD0
100
AcDbBlockBegin
  2
DIMS2
 70
     0
 10
0.0
 20
0.0
  0
LINE
  5
64
100
AcDbEntity
  8
DD0
100
AcDbLine
 10
166.533798
 20
283.55307
 11
166.533798
 21
320.216736
  0
LINE
  5
65
100
AcDbEntity
  8
DD0
100
AcDbLine
 10
258.833801
 20
294.603058
 11
258.833801
 21
320.216736
  0
LINE
  5
66
100
AcDbEntity
  8
DD0
100
AcDbLine
 10
169.431576
 20
319.993193
 11
166.533798
 21
319.216736
  0
LINE
  5
67
100
AcDbEntity
  8
DD0
100
AcDbLine
 10
166.533798
 20
319.216736
 11
169.431576
 21
318.440279
  0
LINE
  5
68
100
AcDbEntity
  8
DD0
100
AcDbLine
 10
255.936024
 20
318.440279
 11
258.833801
 21
319.216736
  0
LINE
  5
69
100
AcDbEntity
  8
DD0
100
AcDbLine
 10
258.833801
 20
319.216736
 11
255.936024
 21
319.993193
  0
LINE
  5
6A
100
AcDbEntity
  8
DD0
100
AcDbLine
 10
166.533798
 20
319.216736
 11
258.833801
 21
319.216736
  0
TEXT
  5
6B
100
AcDbEntity
  8
DD0
100
AcDbText
 10
200.855468
 20
319.816742
 40
2.5
  1
９２（主端子・補助端子）
 41
0.666667
  7
STANDARD
100
AcDbText
  0
ENDBLK
  5
6C
100
AcDbEntity
  8
DD0
100
AcDbBlockEnd
  0
BLOCK
  5
6F
100
AcDbEntity
  8
DD0
100
AcDbBlockBegin
  2
DIMS3
 70
     0
 10
0.0
 20
0.0
  0
LINE
  5
70
100
AcDbEntity
  8
DD0
100
AcDbLine
 10
145.433792
 20
271.05307
 11
145.433792
 21
327.528107
  0
LINE
  5
71
100
AcDbEntity
  8
DD0
100
AcDbLine
 10
258.833801
 20
294.603058
 11
258.833801
 21
327.528107
  0
LINE
  5
72
100
AcDbEntity
  8
DD0
100
AcDbLine
 10
148.33157
 20
327.304564
 11
145.433792
 21
326.528107
  0
LINE
  5
73
100
AcDbEntity
  8
DD0
100
AcDbLine
 10
145.433792
 20
326.528107
 11
148.33157
 21
325.75165
  0
LINE
  5
74
100
AcDbEntity
  8
DD0
100
AcDbLine
 10
255.936024
 20
325.75165
 11
258.833801
 21
326.528107
  0
LINE
  5
75
100
AcDbEntity
  8
DD0
100
AcDbLine
 10
258.833801
 20
326.528107
 11
255.936024
 21
327.304564
  0
LINE
  5
76
100
AcDbEntity
  8
DD0
100
AcDbLine
 10
145.433792
 20
326.528107
 11
258.833801
 21
326.528107
  0
TEXT
  5
77
100
AcDbEntity
  8
DD0
100
AcDbText
 10
199.30545
 20
327.128113
 40
2.5
  1
１１４
 41
0.666667
  7
STANDARD
100
AcDbText
  0
ENDBLK
  5
78
100
AcDbEntity
  8
DD0
100
AcDbBlockEnd
  0
BLOCK
  5
7B
100
AcDbEntity
  8
DD0
100
AcDbBlockBegin
  2
DIMS4
 70
     0
 10
0.0
 20
0.0
  0
LINE
  5
7C
100
AcDbEntity
  8
DD0
100
AcDbLine
 10
114.133797
 20
261.653046
 11
114.133797
 21
334.275635
  0
LINE
  5
7D
100
AcDbEntity
  8
DD0
100
AcDbLine
 10
258.833801
 20
294.603058
 11
258.833801
 21
334.275635
  0
LINE
  5
7E
100
AcDbEntity
  8
DD0
100
AcDbLine
 10
117.031574
 20
334.052092
 11
114.133797
 21
333.275635
  0
LINE
  5
7F
100
AcDbEntity
  8
DD0
100
AcDbLine
 10
114.133797
 20
333.275635
 11
117.031574
 21
332.499178
  0
LINE
  5
80
100
AcDbEntity
  8
DD0
100
AcDbLine
 10
255.936024
 20
332.499178
 11
258.833801
 21
333.275635
  0
LINE
  5
81
100
AcDbEntity
  8
DD0
100
AcDbLine
 10
258.833801
 20
333.275635
 11
255.936024
 21
334.052092
  0
LINE
  5
82
100
AcDbEntity
  8
DD0
100
AcDbLine
 10
114.133797
 20
333.275635
 11
258.833801
 21
333.275635
  0
TEXT
  5
83
100
AcDbEntity
  8
DD0
100
AcDbText
 10
162.655456
 20
333.875641
 40
2.5
  1
１４５（補助接点ヘッドオンユニットを付けた場合）
 41
0.666667
  7
STANDARD
100
AcDbText
  0
ENDBLK
  5
84
100
AcDbEntity
  8
DD0
100
AcDbBlockEnd
  0
BLOCK
  5
87
100
AcDbEntity
  8
DD0
100
AcDbBlockBegin
  2
DIMS5
 70
     0
 10
0.0
 20
0.0
  0
LINE
  5
88
100
AcDbEntity
  8
DD0
100
AcDbLine
 10
258.833801
 20
294.603058
 11
258.833801
 21
304.192963
  0
LINE
  5
89
100
AcDbEntity
  8
DD0
100
AcDbLine
 10
261.833801
 20
272.853058
 11
261.833801
 21
304.192963
  0
LINE
  5
8A
100
AcDbEntity
  8
DD0
100
AcDbLine
 10
264.731579
 20
303.96942
 11
261.833801
 21
303.192963
  0
LINE
  5
8B
100
AcDbEntity
  8
DD0
100
AcDbLine
 10
261.833801
 20
303.192963
 11
264.731579
 21
302.416505
  0
LINE
  5
8C
100
AcDbEntity
  8
DD0
100
AcDbLine
 10
258.833801
 20
303.192963
 11
268.133801
 21
303.192963
  0
TEXT
  5
8D
100
AcDbEntity
  8
DD0
100
AcDbText
 10
265.30545
 20
303.792969
 40
2.5
  1
３
 41
0.666667
  7
STANDARD
100
AcDbText
  0
ENDBLK
  5
8E
100
AcDbEntity
  8
DD0
100
AcDbBlockEnd
  0
BLOCK
  5
91
100
AcDbEntity
  8
DD0
100
AcDbBlockBegin
  2
DIMS6
 70
     0
 10
0.0
 20
0.0
  0
LINE
  5
92
100
AcDbEntity
  8
DD0
100
AcDbLine
 10
145.433792
 20
271.05307
 11
145.433792
 21
294.718201
  0
LINE
  5
93
100
AcDbEntity
  8
DD0
100
AcDbLine
 10
148.33157
 20
294.494658
 11
145.433792
 21
293.718201
  0
LINE
  5
94
100
AcDbEntity
  8
DD0
100
AcDbLine
 10
145.433792
 20
293.718201
 11
148.33157
 21
292.941744
  0
LINE
  5
95
100
AcDbEntity
  8
DD0
100
AcDbLine
 10
137.536015
 20
292.941744
 11
140.433792
 21
293.718201
  0
LINE
  5
96
100
AcDbEntity
  8
DD0
100
AcDbLine
 10
140.433792
 20
293.718201
 11
137.536015
 21
294.494658
  0
LINE
  5
97
100
AcDbEntity
  8
DD0
100
AcDbLine
 10
148.733792
 20
293.718201
 11
134.133792
 21
293.718201
  0
TEXT
  5
98
100
AcDbEntity
  8
DD0
100
AcDbText
 10
135.015456
 20
294.318207
 40
2.5
  1
５
 41
0.666667
  7
STANDARD
100
AcDbText
  0
ENDBLK
  5
99
100
AcDbEntity
  8
DD0
100
AcDbBlockEnd
  0
BLOCK
  5
9C
100
AcDbEntity
  8
DD0
100
AcDbBlockBegin
  2
DIMS7
 70
     0
 10
0.0
 20
0.0
  0
LINE
  5
9D
100
AcDbEntity
  8
DD0
100
AcDbLine
 10
21.182049
 20
290.05307
 11
21.182049
 21
312.262512
  0
LINE
  5
9E
100
AcDbEntity
  8
DD0
100
AcDbLine
 10
64.182045
 20
291.05307
 11
64.182045
 21
312.262512
  0
LINE
  5
9F
100
AcDbEntity
  8
DD0
100
AcDbLine
 10
24.079826
 20
312.038969
 11
21.182049
 21
311.262512
  0
LINE
  5
A0
100
AcDbEntity
  8
DD0
100
AcDbLine
 10
21.182049
 20
311.262512
 11
24.079826
 21
310.486055
  0
LINE
  5
A1
100
AcDbEntity
  8
DD0
100
AcDbLine
 10
61.284268
 20
310.486055
 11
64.182045
 21
311.262512
  0
LINE
  5
A2
100
AcDbEntity
  8
DD0
100
AcDbLine
 10
64.182045
 20
311.262512
 11
61.284268
 21
312.038969
  0
LINE
  5
A3
100
AcDbEntity
  8
DD0
100
AcDbLine
 10
21.182049
 20
311.262512
 11
64.182045
 21
311.262512
  0
TEXT
  5
A4
100
AcDbEntity
  8
DD0
100
AcDbText
 10
40.853713
 20
311.862518
 40
2.5
  1
４３
 41
0.666667
  7
STANDARD
100
AcDbText
  0
ENDBLK
  5
A5
100
AcDbEntity
  8
DD0
100
AcDbBlockEnd
  0
BLOCK
  5
A8
100
AcDbEntity
  8
DD0
100
AcDbBlockBegin
  2
DIMS8
 70
     0
 10
0.0
 20
0.0
  0
LINE
  5
A9
100
AcDbEntity
  8
DD0
100
AcDbLine
 10
59.332047
 20
279.253052
 11
82.184067
 21
279.253052
  0
LINE
  5
AA
100
AcDbEntity
  8
DD0
100
AcDbLine
 10
59.482048
 20
302.753052
 11
82.184067
 21
302.753052
  0
LINE
  5
AB
100
AcDbEntity
  8
DD0
100
AcDbLine
 10
80.40761
 20
282.150829
 11
81.184067
 21
279.253052
  0
LINE
  5
AC
100
AcDbEntity
  8
DD0
100
AcDbLine
 10
81.184067
 20
279.253052
 11
81.960524
 21
282.150829
  0
LINE
  5
AD
100
AcDbEntity
  8
DD0
100
AcDbLine
 10
81.960524
 20
299.855274
 11
81.184067
 21
302.753052
  0
LINE
  5
AE
100
AcDbEntity
  8
DD0
100
AcDbLine
 10
81.184067
 20
302.753052
 11
80.40761
 21
299.855274
  0
LINE
  5
AF
100
AcDbEntity
  8
DD0
100
AcDbLine
 10
81.184067
 20
279.253052
 11
81.184067
 21
302.753052
  0
TEXT
  5
B0
100
AcDbEntity
  8
DD0
100
AcDbText
 10
80.584068
 20
287.174712
 40
2.5
  1
２３．５
 50
90.000003
 41
0.666667
  7
STANDARD
100
AcDbText
  0
ENDBLK
  5
B1
100
AcDbEntity
  8
DD0
100
AcDbBlockEnd
  0
BLOCK
  5
B4
100
AcDbEntity
  8
DD0
100
AcDbBlockBegin
  2
DIMS9
 70
     0
 10
0.0
 20
0.0
  0
LINE
  5
B5
100
AcDbEntity
  8
DD0
100
AcDbLine
 10
59.332047
 20
237.453064
 11
82.184067
 21
237.453064
  0
LINE
  5
B6
100
AcDbEntity
  8
DD0
100
AcDbLine
 10
59.332047
 20
279.253052
 11
82.184067
 21
279.253052
  0
LINE
  5
B7
100
AcDbEntity
  8
DD0
100
AcDbLine
 10
80.40761
 20
240.350841
 11
81.184067
 21
237.453064
  0
LINE
  5
B8
100
AcDbEntity
  8
DD0
100
AcDbLine
 10
81.184067
 20
237.453064
 11
81.960524
 21
240.350841
  0
LINE
  5
B9
100
AcDbEntity
  8
DD0
100
AcDbLine
 10
81.960524
 20
276.355274
 11
81.184067
 21
279.253052
  0
LINE
  5
BA
100
AcDbEntity
  8
DD0
100
AcDbLine
 10
81.184067
 20
279.253052
 11
80.40761
 21
276.355274
  0
LINE
  5
BB
100
AcDbEntity
  8
DD0
100
AcDbLine
 10
81.184067
 20
237.453064
 11
81.184067
 21
279.253052
  0
TEXT
  5
BC
100
AcDbEntity
  8
DD0
100
AcDbText
 10
80.584068
 20
256.524718
 40
2.5
  1
４２
 50
90.000003
 41
0.666667
  7
STANDARD
100
AcDbText
  0
ENDBLK
  5
BD
100
AcDbEntity
  8
DD0
100
AcDbBlockEnd
  0
BLOCK
  5
C0
100
AcDbEntity
  8
DD0
100
AcDbBlockBegin
  2
DIMS10
 70
     0
 10
0.0
 20
0.0
  0
LINE
  5
C1
100
AcDbEntity
  8
DD0
100
AcDbLine
 10
60.082047
 20
302.753052
 11
91.461899
 21
302.753052
  0
LINE
  5
C2
100
AcDbEntity
  8
DD0
100
AcDbLine
 10
48.682049
 20
222.853058
 11
91.461899
 21
222.853058
  0
LINE
  5
C3
100
AcDbEntity
  8
DD0
100
AcDbLine
 10
91.238356
 20
299.855274
 11
90.461899
 21
302.753052
  0
LINE
  5
C4
100
AcDbEntity
  8
DD0
100
AcDbLine
 10
90.461899
 20
302.753052
 11
89.685442
 21
299.855274
  0
LINE
  5
C5
100
AcDbEntity
  8
DD0
100
AcDbLine
 10
89.685442
 20
225.750835
 11
90.461899
 21
222.853058
  0
LINE
  5
C6
100
AcDbEntity
  8
DD0
100
AcDbLine
 10
90.461899
 20
222.853058
 11
91.238356
 21
225.750835
  0
LINE
  5
C7
100
AcDbEntity
  8
DD0
100
AcDbLine
 10
90.461899
 20
302.753052
 11
90.461899
 21
222.853058
  0
TEXT
  5
C8
100
AcDbEntity
  8
DD0
100
AcDbText
 10
89.8619
 20
260.9747
 40
2.5
  1
８０
 50
90.000003
 41
0.666667
  7
STANDARD
100
AcDbText
  0
ENDBLK
  5
C9
100
AcDbEntity
  8
DD0
100
AcDbBlockEnd
  0
BLOCK
  5
CC
100
AcDbEntity
  8
DD0
100
AcDbBlockBegin
  2
DIMS11
 70
     0
 10
0.0
 20
0.0
  0
LINE
  5
CD
100
AcDbEntity
  8
DD0
100
AcDbLine
 10
27.532049
 20
235.953064
 11
27.532049
 21
217.075867
  0
LINE
  5
CE
100
AcDbEntity
  8
DD0
100
AcDbLine
 10
37.63205
 20
235.953064
 11
37.63205
 21
217.075867
  0
LINE
  5
CF
100
AcDbEntity
  8
DD0
100
AcDbLine
 10
30.429827
 20
218.852324
 11
27.532049
 21
218.075867
  0
LINE
  5
D0
100
AcDbEntity
  8
DD0
100
AcDbLine
 10
27.532049
 20
218.075867
 11
30.429827
 21
217.29941
  0
LINE
  5
D1
100
AcDbEntity
  8
DD0
100
AcDbLine
 10
34.734272
 20
217.29941
 11
37.63205
 21
218.075867
  0
LINE
  5
D2
100
AcDbEntity
  8
DD0
100
AcDbLine
 10
37.63205
 20
218.075867
 11
34.734272
 21
218.852324
  0
LINE
  5
D3
100
AcDbEntity
  8
DD0
100
AcDbLine
 10
27.532049
 20
218.075867
 11
37.63205
 21
218.075867
  0
TEXT
  5
D4
100
AcDbEntity
  8
DD0
100
AcDbText
 10
30.753719
 20
218.675873
 40
2.5
  1
１０
 41
0.666667
  7
STANDARD
100
AcDbText
  0
ENDBLK
  5
D5
100
AcDbEntity
  8
DD0
100
AcDbBlockEnd
  0
BLOCK
  5
D8
100
AcDbEntity
  8
DD0
100
AcDbBlockBegin
  2
DIMS12
 70
     0
 10
0.0
 20
0.0
  0
LINE
  5
D9
100
AcDbEntity
  8
DD0
100
AcDbLine
 10
8.682049
 20
289.05307
 11
8.682049
 21
320.216736
  0
LINE
  5
DA
100
AcDbEntity
  8
DD0
100
AcDbLine
 10
76.682045
 20
289.05307
 11
76.682045
 21
320.216736
  0
LINE
  5
DB
100
AcDbEntity
  8
DD0
100
AcDbLine
 10
11.579826
 20
319.993193
 11
8.682049
 21
319.216736
  0
LINE
  5
DC
100
AcDbEntity
  8
DD0
100
AcDbLine
 10
8.682049
 20
319.216736
 11
11.579826
 21
318.440279
  0
LINE
  5
DD
100
AcDbEntity
  8
DD0
100
AcDbLine
 10
73.784268
 20
318.440279
 11
76.682045
 21
319.216736
  0
LINE
  5
DE
100
AcDbEntity
  8
DD0
100
AcDbLine
 10
76.682045
 20
319.216736
 11
73.784268
 21
319.993193
  0
LINE
  5
DF
100
AcDbEntity
  8
DD0
100
AcDbLine
 10
8.682049
 20
319.216736
 11
76.682045
 21
319.216736
  0
TEXT
  5
E0
100
AcDbEntity
  8
DD0
100
AcDbText
 10
40.853713
 20
319.816742
 40
2.5
  1
６８
 41
0.666667
  7
STANDARD
100
AcDbText
  0
TEXT
  5
E1
100
AcDbEntity
  8
DD0
100
AcDbText
 10
27.166215
 20
315.916748
 40
2.5
  1
（補助接点サイドオンユニットを付けた場合）
 41
0.496667
  7
STANDARD
100
AcDbText
  0
ENDBLK
  5
E2
100
AcDbEntity
  8
DD0
100
AcDbBlockEnd
  0
BLOCK
  5
E5
100
AcDbEntity
  8
DD0
100
AcDbBlockBegin
  2
DIMS13
 70
     0
 10
0.0
 20
0.0
  0
LINE
  5
E6
100
AcDbEntity
  8
DD0
100
AcDbLine
 10
30.279453
 20
119.021469
 11
62.039448
 21
119.021469
  0
LINE
  5
E7
100
AcDbEntity
  8
DD0
100
AcDbLine
 10
60.682049
 20
134.521469
 11
62.039448
 21
134.521469
  0
LINE
  5
E8
100
AcDbEntity
  8
DD0
100
AcDbLine
 10
60.262991
 20
121.919247
 11
61.039448
 21
119.021469
  0
LINE
  5
E9
100
AcDbEntity
  8
DD0
100
AcDbLine
 10
61.039448
 20
119.021469
 11
61.815905
 21
121.919247
  0
LINE
  5
EA
100
AcDbEntity
  8
DD0
100
AcDbLine
 10
61.815905
 20
131.623692
 11
61.039448
 21
134.521469
  0
LINE
  5
EB
100
AcDbEntity
  8
DD0
100
AcDbLine
 10
61.039448
 20
134.521469
 11
60.262991
 21
131.623692
  0
LINE
  5
EC
100
AcDbEntity
  8
DD0
100
AcDbLine
 10
61.039448
 20
119.021469
 11
61.039448
 21
134.521469
  0
TEXT
  5
ED
100
AcDbEntity
  8
DD0
100
AcDbText
 10
60.439449
 20
122.943137
 40
2.5
  1
１５．５
 50
90.000003
 41
0.666667
  7
STANDARD
100
AcDbText
  0
ENDBLK
  5
EE
100
AcDbEntity
  8
DD0
100
AcDbBlockEnd
  0
BLOCK
  5
F1
100
AcDbEntity
  8
DD0
100
AcDbBlockBegin
  2
DIMS14
 70
     0
 10
0.0
 20
0.0
  0
LINE
  5
F2
100
AcDbEntity
  8
DD0
100
AcDbLine
 10
25.182041
 20
124.118866
 11
25.182041
 21
137.79628
  0
LINE
  5
F3
100
AcDbEntity
  8
DD0
100
AcDbLine
 10
21.182049
 20
126.821472
 11
21.182049
 21
137.79628
  0
LINE
  5
F4
100
AcDbEntity
  8
DD0
100
AcDbLine
 10
28.079819
 20
137.572737
 11
25.182041
 21
136.79628
  0
LINE
  5
F5
100
AcDbEntity
  8
DD0
100
AcDbLine
 10
25.182041
 20
136.79628
 11
28.079819
 21
136.019823
  0
LINE
  5
F6
100
AcDbEntity
  8
DD0
100
AcDbLine
 10
18.284271
 20
136.019823
 11
21.182049
 21
136.79628
  0
LINE
  5
F7
100
AcDbEntity
  8
DD0
100
AcDbLine
 10
21.182049
 20
136.79628
 11
18.284271
 21
137.572737
  0
LINE
  5
F8
100
AcDbEntity
  8
DD0
100
AcDbLine
 10
28.482041
 20
136.79628
 11
14.882049
 21
136.79628
  0
TEXT
  5
F9
100
AcDbEntity
  8
DD0
100
AcDbText
 10
15.763717
 20
137.396286
 40
2.5
  1
４
 41
0.666667
  7
STANDARD
100
AcDbText
  0
ENDBLK
  5
FA
100
AcDbEntity
  8
DD0
100
AcDbBlockEnd
  0
BLOCK
  5
FD
100
AcDbEntity
  8
DD0
100
AcDbBlockBegin
  2
DIMS15
 70
     0
 10
0.0
 20
0.0
  0
TEXT
  5
FE
100
AcDbEntity
  8
DD0
100
AcDbText
 10
58.042037
 20
50.650188
 40
2.5
  1
２－Ｍ４ねじ穴
 41
0.666667
  7
STANDARD
100
AcDbText
  0
ENDBLK
  5
FF
100
AcDbEntity
  8
DD0
100
AcDbBlockEnd
  0
BLOCK
  5
102
100
AcDbEntity
  8
DD0
100
AcDbBlockBegin
  2
DIMS16
 70
     0
 10
0.0
 20
0.0
  0
LINE
  5
103
100
AcDbEntity
  8
DD0
100
AcDbLine
 10
61.338221
 20
60.150675
 11
59.35442
 21
62.401127
  0
LINE
  5
104
100
AcDbEntity
  8
DD0
100
AcDbLine
 10
59.35442
 20
62.401127
 11
59.947216
 21
59.460278
  0
LINE
  5
105
100
AcDbEntity
  8
DD0
100
AcDbLine
 10
59.35442
 20
62.401127
 11
63.614674
 21
53.817616
  0
ENDBLK
  5
106
100
AcDbEntity
  8
DD0
100
AcDbBlockEnd
  0
BLOCK
  5
109
100
AcDbEntity
  8
DD0
100
AcDbBlockBegin
  2
DIMS17
 70
     0
 10
0.0
 20
0.0
  0
LINE
  5
10A
100
AcDbEntity
  8
DD0
100
AcDbLine
 10
63.779453
 20
64.021484
 11
72.089447
 21
64.021484
  0
LINE
  5
10B
100
AcDbEntity
  8
DD0
100
AcDbLine
 10
30.279453
 20
119.021469
 11
72.089447
 21
119.021469
  0
LINE
  5
10C
100
AcDbEntity
  8
DD0
100
AcDbLine
 10
70.31299
 20
66.919262
 11
71.089447
 21
64.021484
  0
LINE
  5
10D
100
AcDbEntity
  8
DD0
100
AcDbLine
 10
71.089447
 20
64.021484
 11
71.865904
 21
66.919262
  0
LINE
  5
10E
100
AcDbEntity
  8
DD0
100
AcDbLine
 10
71.865904
 20
116.123692
 11
71.089447
 21
119.021469
  0
LINE
  5
10F
100
AcDbEntity
  8
DD0
100
AcDbLine
 10
71.089447
 20
119.021469
 11
70.31299
 21
116.123692
  0
LINE
  5
110
100
AcDbEntity
  8
DD0
100
AcDbLine
 10
71.089447
 20
64.021484
 11
71.089447
 21
119.021469
  0
TEXT
  5
111
100
AcDbEntity
  8
DD0
100
AcDbText
 10
70.489449
 20
89.693145
 40
2.5
  1
５５
 50
90.000003
 41
0.666667
  7
STANDARD
100
AcDbText
  0
ENDBLK
  5
112
100
AcDbEntity
  8
DD0
100
AcDbBlockEnd
  0
BLOCK
  5
115
100
AcDbEntity
  8
DD0
100
AcDbBlockBegin
  2
DIMS18
 70
     0
 10
0.0
 20
0.0
  0
LINE
  5
116
100
AcDbEntity
  8
DD0
100
AcDbLine
 10
25.182041
 20
124.118866
 11
25.182041
 21
137.79628
  0
LINE
  5
117
100
AcDbEntity
  8
DD0
100
AcDbLine
 10
58.182041
 20
69.618881
 11
58.182041
 21
137.79628
  0
LINE
  5
118
100
AcDbEntity
  8
DD0
100
AcDbLine
 10
28.079819
 20
137.572737
 11
25.182041
 21
136.79628
  0
LINE
  5
119
100
AcDbEntity
  8
DD0
100
AcDbLine
 10
25.182041
 20
136.79628
 11
28.079819
 21
136.019823
  0
LINE
  5
11A
100
AcDbEntity
  8
DD0
100
AcDbLine
 10
55.284264
 20
136.019823
 11
58.182041
 21
136.79628
  0
LINE
  5
11B
100
AcDbEntity
  8
DD0
100
AcDbLine
 10
58.182041
 20
136.79628
 11
55.284264
 21
137.572737
  0
LINE
  5
11C
100
AcDbEntity
  8
DD0
100
AcDbLine
 10
25.182041
 20
136.79628
 11
58.182041
 21
136.79628
  0
TEXT
  5
11D
100
AcDbEntity
  8
DD0
100
AcDbText
 10
39.853709
 20
137.396286
 40
2.5
  1
３３
 41
0.666667
  7
STANDARD
100
AcDbText
  0
ENDBLK
  5
11E
100
AcDbEntity
  8
DD0
100
AcDbBlockEnd
  0
ENDSEC
  0
SECTION
  2
ENTITIES
  0
INSERT
  5
56
100
AcDbEntity
  8
DD0
100
AcDbBlockReference
  2
DIMS0
 10
0.0
 20
0.0
  0
INSERT
  5
61
100
AcDbEntity
  8
DD0
100
AcDbBlockReference
  2
DIMS1
 10
0.0
 20
0.0
  0
INSERT
  5
6D
100
AcDbEntity
  8
DD0
100
AcDbBlockReference
  2
DIMS2
 10
0.0
 20
0.0
  0
INSERT
  5
79
100
AcDbEntity
  8
DD0
100
AcDbBlockReference
  2
DIMS3
 10
0.0
 20
0.0
  0
INSERT
  5
85
100
AcDbEntity
  8
DD0
100
AcDbBlockReference
  2
DIMS4
 10
0.0
 20
0.0
  0
INSERT
  5
8F
100
AcDbEntity
  8
DD0
100
AcDbBlockReference
  2
DIMS5
 10
0.0
 20
0.0
  0
INSERT
  5
9A
100
AcDbEntity
  8
DD0
100
AcDbBlockReference
  2
DIMS6
 10
0.0
 20
0.0
  0
INSERT
  5
A6
100
AcDbEntity
  8
DD0
100
AcDbBlockReference
  2
DIMS7
 10
0.0
 20
0.0
  0
INSERT
  5
B2
100
AcDbEntity
  8
DD0
100
AcDbBlockReference
  2
DIMS8
 10
0.0
 20
0.0
  0
INSERT
  5
BE
100
AcDbEntity
  8
DD0
100
AcDbBlockReference
  2
DIMS9
 10
0.0
 20
0.0
  0
INSERT
  5
CA
100
AcDbEntity
  8
DD0
100
AcDbBlockReference
  2
DIMS10
 10
0.0
 20
0.0
  0
INSERT
  5
D6
100
AcDbEntity
  8
DD0
100
AcDbBlockReference
  2
DIMS11
 10
0.0
 20
0.0
  0
INSERT
  5
E3
100
AcDbEntity
  8
DD0
100
AcDbBlockReference
  2
DIMS12
 10
0.0
 20
0.0
  0
INSERT
  5
EF
100
AcDbEntity
  8
DD0
100
AcDbBlockReference
  2
DIMS13
 10
0.0
 20
0.0
  0
INSERT
  5
FB
100
AcDbEntity
  8
DD0
100
AcDbBlockReference
  2
DIMS14
 10
0.0
 20
0.0
  0
INSERT
  5
100
100
AcDbEntity
  8
DD0
100
AcDbBlockReference
  2
DIMS15
 10
0.0
 20
0.0
  0
INSERT
  5
107
100
AcDbEntity
  8
DD0
100
AcDbBlockReference
  2
DIMS16
 10
0.0
 20
0.0
  0
INSERT
  5
113
100
AcDbEntity
  8
DD0
100
AcDbBlockReference
  2
DIMS17
 10
0.0
 20
0.0
  0
INSERT
  5
11F
100
AcDbEntity
  8
DD0
100
AcDbBlockReference
  2
DIMS18
 10
0.0
 20
0.0
  0
LINE
  5
120
100
AcDbEntity
  8
M2
 62
     7
100
AcDbLine
 10
219.533792
 20
288.853061
 11
221.033792
 21
288.853061
  0
LINE
  5
121
100
AcDbEntity
  8
M2
 62
     7
100
AcDbLine
 10
219.533792
 20
281.953061
 11
219.533792
 21
287.853061
  0
LINE
  5
122
100
AcDbEntity
  8
M2
 62
     7
100
AcDbLine
 10
218.033792
 20
281.953061
 11
218.033792
 21
287.853061
  0
LINE
  5
123
100
AcDbEntity
  8
M2
 62
     7
100
AcDbLine
 10
219.533792
 20
287.853061
 11
219.533792
 21
288.853061
  0
LINE
  5
124
100
AcDbEntity
  8
M2
 62
     7
100
AcDbLine
 10
210.533792
 20
281.953061
 11
210.533792
 21
287.853061
  0
LINE
  5
125
100
AcDbEntity
  8
M2
 62
     7
100
AcDbLine
 10
230.033792
 20
281.953061
 11
230.033792
 21
287.853061
  0
LINE
  5
126
100
AcDbEntity
  8
M2
 62
     7
100
AcDbLine
 10
218.033792
 20
281.953061
 11
219.533792
 21
281.953061
  0
LINE
  5
127
100
AcDbEntity
  8
M2
 62
     7
100
AcDbLine
 10
224.033792
 20
281.953061
 11
224.033792
 21
287.853061
  0
LINE
  5
128
100
AcDbEntity
  8
M2
 62
     7
100
AcDbLine
 10
254.333792
 20
270.953061
 11
254.333792
 21
245.753061
  0
LINE
  5
129
100
AcDbEntity
  8
M2
 62
     7
100
AcDbLine
 10
255.033792
 20
241.353061
 11
256.533792
 21
241.353061
  0
LINE
  5
12A
100
AcDbEntity
  8
M2
 62
     7
100
AcDbLine
 10
198.733792
 20
238.253061
 11
198.733792
 21
243.253061
  0
LINE
  5
12B
100
AcDbEntity
  8
M2
 62
     7
100
AcDbLine
 10
258.533792
 20
286.503061
 11
258.833792
 21
286.503061
  0
LINE
  5
12C
100
AcDbEntity
  8
M2
 62
     7
100
AcDbLine
 10
233.033792
 20
281.953061
 11
233.033792
 21
287.853061
  0
LINE
  5
12D
100
AcDbEntity
  8
M2
 62
     7
100
AcDbLine
 10
218.533792
 20
240.636833
 11
218.533792
 21
240.353061
  0
LINE
  5
12E
100
AcDbEntity
  8
M2
 62
     7
100
AcDbLine
 10
218.533792
 20
244.753061
 11
218.533792
 21
244.113616
  0
LINE
  5
12F
100
AcDbEntity
  8
M2
 62
     7
100
AcDbLine
 10
202.733792
 20
243.813616
 11
218.233792
 21
243.813616
  0
LINE
  5
130
100
AcDbEntity
  8
M2
 62
     7
100
AcDbLine
 10
215.033792
 20
281.953061
 11
215.033792
 21
287.853061
  0
LINE
  5
131
100
AcDbEntity
  8
M2
 62
     7
100
AcDbLine
 10
222.533792
 20
281.953061
 11
222.533792
 21
287.853061
  0
LINE
  5
132
100
AcDbEntity
  8
M2
 62
     7
100
AcDbLine
 10
221.033792
 20
281.953061
 11
222.533792
 21
281.953061
  0
LINE
  5
133
100
AcDbEntity
  8
M2
 62
     7
100
AcDbLine
 10
209.033792
 20
281.953061
 11
210.533792
 21
281.953061
  0
LINE
  5
134
100
AcDbEntity
  8
M2
 62
     7
100
AcDbLine
 10
215.033792
 20
281.953061
 11
216.533792
 21
281.953061
  0
LINE
  5
135
100
AcDbEntity
  8
M2
 62
     7
100
AcDbLine
 10
216.533792
 20
288.853061
 11
218.033792
 21
288.853061
  0
LINE
  5
136
100
AcDbEntity
  8
M2
 62
     7
100
AcDbLine
 10
228.533792
 20
281.953061
 11
228.533792
 21
287.853061
  0
LINE
  5
137
100
AcDbEntity
  8
M2
 62
     7
100
AcDbLine
 10
233.033792
 20
281.953061
 11
234.533792
 21
281.953061
  0
LINE
  5
138
100
AcDbEntity
  8
M2
 62
     7
100
AcDbLine
 10
216.533792
 20
281.953061
 11
216.533792
 21
287.853061
  0
LINE
  5
139
100
AcDbEntity
  8
M2
 62
     7
100
AcDbLine
 10
227.033792
 20
281.953061
 11
227.033792
 21
287.853061
  0
LINE
  5
13A
100
AcDbEntity
  8
M2
 62
     7
100
AcDbLine
 10
209.033792
 20
281.953061
 11
209.033792
 21
287.853061
  0
LINE
  5
13B
100
AcDbEntity
  8
M2
 62
     7
100
AcDbLine
 10
213.533792
 20
281.953061
 11
213.533792
 21
287.853061
  0
LINE
  5
13C
100
AcDbEntity
  8
M2
 62
     7
100
AcDbLine
 10
231.533792
 20
281.953061
 11
231.533792
 21
287.853061
  0
LINE
  5
13D
100
AcDbEntity
  8
M2
 62
     7
100
AcDbLine
 10
224.033792
 20
281.953061
 11
225.533792
 21
281.953061
  0
LINE
  5
13E
100
AcDbEntity
  8
M2
 62
     7
100
AcDbLine
 10
234.533792
 20
281.953061
 11
234.533792
 21
287.853061
  0
LINE
  5
13F
100
AcDbEntity
  8
M2
 62
     7
100
AcDbLine
 10
212.033792
 20
281.953061
 11
213.533792
 21
281.953061
  0
LINE
  5
140
100
AcDbEntity
  8
M2
 62
     7
100
AcDbLine
 10
218.533792
 20
276.353061
 11
218.533792
 21
276.069289
  0
LINE
  5
141
100
AcDbEntity
  8
M2
 62
     7
100
AcDbLine
 10
218.533792
 20
240.353061
 11
258.033792
 21
240.353061
  0
LINE
  5
142
100
AcDbEntity
  8
M2
 62
     7
100
AcDbLine
 10
253.833792
 20
244.753061
 11
218.533792
 21
244.753061
  0
LINE
  5
143
100
AcDbEntity
  8
M2
 62
     7
100
AcDbLine
 10
199.233792
 20
277.653061
 11
199.733792
 21
277.653061
  0
LINE
  5
144
100
AcDbEntity
  8
M2
 62
     7
100
AcDbLine
 10
247.533792
 20
239.053061
 11
202.733792
 21
239.053061
  0
LINE
  5
145
100
AcDbEntity
  8
M2
 62
     7
100
AcDbLine
 10
258.533792
 20
239.853061
 11
258.533792
 21
224.053061
  0
LINE
  5
146
100
AcDbEntity
  8
M2
 62
     7
100
AcDbLine
 10
202.733792
 20
239.053061
 11
202.733792
 21
237.753061
  0
LINE
  5
147
100
AcDbEntity
  8
M2
 62
     7
100
AcDbLine
 10
254.533792
 20
223.353061
 11
254.533792
 21
223.553061
  0
LINE
  5
148
100
AcDbEntity
  8
M2
 62
     7
100
AcDbLine
 10
254.333792
 20
271.453061
 11
254.333792
 21
270.953061
  0
LINE
  5
149
100
AcDbEntity
  8
M2
 62
     7
100
AcDbLine
 10
202.733792
 20
275.769289
 11
202.733792
 21
272.892506
  0
LINE
  5
14A
100
AcDbEntity
  8
M2
 62
     7
100
AcDbLine
 10
218.533792
 20
272.592506
 11
218.533792
 21
271.953061
  0
LINE
  5
14B
100
AcDbEntity
  8
M2
 62
     7
100
AcDbLine
 10
254.333792
 20
245.753061
 11
254.333792
 21
245.253061
  0
LINE
  5
14C
100
AcDbEntity
  8
M2
 62
     7
100
AcDbLine
 10
199.733792
 20
277.653061
 11
247.667767
 21
277.653061
  0
LINE
  5
14D
100
AcDbEntity
  8
M2
 62
     7
100
AcDbLine
 10
258.033792
 20
276.353061
 11
218.533792
 21
276.353061
  0
LINE
  5
14E
100
AcDbEntity
  8
M2
 62
     7
100
AcDbLine
 10
202.733792
 20
243.813616
 11
202.733792
 21
240.936833
  0
ARC
  5
14F
100
AcDbEntity
  8
M2
 62
     7
100
AcDbCircle
 10
199.233792
 20
277.153061
 40
0.5
100
AcDbArc
 50
90.0
 51
180.0
  0
ARC
  5
150
100
AcDbEntity
  8
M2
 62
     7
100
AcDbCircle
 10
201.733792
 20
237.753061
 40
1.0
100
AcDbArc
 50
270.0
 51
360.0
  0
ARC
  5
151
100
AcDbEntity
  8
M2
 62
     7
100
AcDbCircle
 10
258.036298
 20
293.553061
 40
0.5
100
AcDbArc
 50
5.73917
 51
90.0
  0
ARC
  5
152
100
AcDbEntity
  8
M2
 62
     7
100
AcDbCircle
 10
258.033792
 20
239.853061
 40
0.5
100
AcDbArc
 50
0.0
 51
90.0
  0
LINE
  5
153
100
AcDbEntity
  8
M2
 62
     7
100
AcDbLine
 10
258.233792
 20
223.594804
 11
258.233792
 21
222.853061
  0
LINE
  5
154
100
AcDbEntity
  8
M2
 62
     7
100
AcDbLine
 10
221.033792
 20
281.953061
 11
221.033792
 21
287.853061
  0
LINE
  5
155
100
AcDbEntity
  8
M2
 62
     7
100
AcDbLine
 10
218.233792
 20
240.936833
 11
202.733792
 21
240.936833
  0
LINE
  5
156
100
AcDbEntity
  8
M2
 62
     7
100
AcDbLine
 10
258.533792
 20
228.703061
 11
258.833792
 21
228.703061
  0
LINE
  5
157
100
AcDbEntity
  8
M2
 62
     7
100
AcDbLine
 10
202.733792
 20
275.769289
 11
218.233792
 21
275.769289
  0
ARC
  5
158
100
AcDbEntity
  8
M2
 62
     7
100
AcDbCircle
 10
258.033792
 20
240.053061
 40
0.5
100
AcDbArc
 50
0.0
 51
90.0
  0
LINE
  5
159
100
AcDbEntity
  8
M2
 62
     7
100
AcDbLine
 10
247.533792
 20
228.553061
 11
247.533792
 21
239.053061
  0
LINE
  5
15A
100
AcDbEntity
  8
M2
 62
     7
100
AcDbLine
 10
258.833792
 20
293.603061
 11
258.533792
 21
293.603061
  0
ARC
  5
15B
100
AcDbEntity
  8
M2
 62
     7
100
AcDbCircle
 10
258.033792
 20
276.853061
 40
0.5
100
AcDbArc
 50
270.0
 51
360.0
  0
ARC
  5
15C
100
AcDbEntity
  8
M2
 62
     7
100
AcDbCircle
 10
253.833792
 20
245.253061
 40
0.5
100
AcDbArc
 50
270.0
 51
360.0
  0
ARC
  5
15D
100
AcDbEntity
  8
M2
 62
     7
100
AcDbCircle
 10
204.233792
 20
297.338848
 40
1.0
100
AcDbArc
 50
0.0
 51
45.0
  0
ARC
  5
15E
100
AcDbEntity
  8
M2
 62
     7
100
AcDbCircle
 10
253.833792
 20
271.453061
 40
0.5
100
AcDbArc
 50
0.0
 51
90.0
  0
LINE
  5
15F
100
AcDbEntity
  8
M2
 62
     7
100
AcDbLine
 10
191.333792
 20
235.853061
 11
191.333792
 21
236.853061
  0
LINE
  5
160
100
AcDbEntity
  8
M2
 62
     7
100
AcDbLine
 10
191.333792
 20
236.853061
 11
191.333792
 21
238.253061
  0
LINE
  5
161
100
AcDbEntity
  8
M2
 62
     7
100
AcDbLine
 10
191.333792
 20
223.853061
 11
191.333792
 21
227.353061
  0
LINE
  5
162
100
AcDbEntity
  8
M2
 62
     7
100
AcDbLine
 10
201.833792
 20
222.853061
 11
191.333792
 21
222.853061
  0
LINE
  5
163
100
AcDbEntity
  8
M2
 62
     7
100
AcDbLine
 10
201.733792
 20
236.753061
 11
193.333792
 21
236.753061
  0
LINE
  5
164
100
AcDbEntity
  8
M2
 62
     7
100
AcDbLine
 10
191.333792
 20
235.853061
 11
191.333792
 21
228.353061
  0
LINE
  5
165
100
AcDbEntity
  8
M2
 62
     7
100
AcDbLine
 10
191.333792
 20
223.853061
 11
191.333792
 21
222.853061
  0
LINE
  5
166
100
AcDbEntity
  8
M2
 62
     7
100
AcDbLine
 10
192.433792
 20
235.853061
 11
191.333792
 21
235.853061
  0
LINE
  5
167
100
AcDbEntity
  8
M2
 62
     7
100
AcDbLine
 10
191.333792
 20
223.853061
 11
191.333792
 21
227.353061
  0
LINE
  5
168
100
AcDbEntity
  8
M2
 62
     7
100
AcDbLine
 10
191.333792
 20
228.353061
 11
191.333792
 21
235.853061
  0
LINE
  5
169
100
AcDbEntity
  8
M2
 62
     7
100
AcDbLine
 10
213.533792
 20
287.853061
 11
213.533792
 21
288.853061
  0
LINE
  5
16A
100
AcDbEntity
  8
M2
 62
     7
100
AcDbLine
 10
215.033792
 20
288.853061
 11
215.033792
 21
287.853061
  0
LINE
  5
16B
100
AcDbEntity
  8
M2
 62
     7
100
AcDbLine
 10
193.333792
 20
236.753061
 11
193.333792
 21
228.353061
  0
LINE
  5
16C
100
AcDbEntity
  8
M2
 62
     7
100
AcDbLine
 10
191.333792
 20
222.853061
 11
191.333792
 21
223.853061
  0
LINE
  5
16D
100
AcDbEntity
  8
M2
 62
     7
100
AcDbLine
 10
191.333792
 20
236.853061
 11
191.333792
 21
235.853061
  0
LINE
  5
16E
100
AcDbEntity
  8
M2
 62
     7
100
AcDbLine
 10
191.333792
 20
227.353061
 11
191.333792
 21
228.353061
  0
LINE
  5
16F
100
AcDbEntity
  8
M2
 62
     7
100
AcDbLine
 10
212.033792
 20
288.853061
 11
212.033792
 21
287.853061
  0
ARC
  5
170
100
AcDbEntity
  8
M2
 62
     7
100
AcDbCircle
 10
204.233792
 20
297.338848
 40
1.0
100
AcDbArc
 50
0.0
 51
45.0
  0
ARC
  5
171
100
AcDbEntity
  8
M2
 62
     7
100
AcDbCircle
 10
201.319579
 20
300.253061
 40
1.0
100
AcDbArc
 50
45.0
 51
90.0
  0
ARC
  5
172
100
AcDbEntity
  8
M2
 62
     7
100
AcDbCircle
 10
192.333792
 20
228.353061
 40
1.0
100
AcDbArc
 50
270.0
 51
360.0
  0
ARC
  5
173
100
AcDbEntity
  8
M2
 62
     7
100
AcDbCircle
 10
192.433792
 20
236.753061
 40
0.9
100
AcDbArc
 50
270.0
 51
360.0
  0
ARC
  5
174
100
AcDbEntity
  8
M2
 62
     7
100
AcDbCircle
 10
190.933792
 20
263.053061
 40
0.6
100
AcDbArc
 50
90.0
 51
180.0
  0
ARC
  5
175
100
AcDbEntity
  8
M2
 62
     7
100
AcDbCircle
 10
190.933792
 20
253.953061
 40
0.6
100
AcDbArc
 50
180.0
 51
270.0
  0
ARC
  5
176
100
AcDbEntity
  8
M2
 62
     7
100
AcDbCircle
 10
199.819579
 20
301.753061
 40
1.0
100
AcDbArc
 50
45.0
 51
90.0
  0
ARC
  5
177
100
AcDbEntity
  8
M2
 62
     7
100
AcDbCircle
 10
193.633792
 20
302.153061
 40
0.6
100
AcDbArc
 50
0.0
 51
90.0
  0
LINE
  5
178
100
AcDbEntity
  8
M2
 62
     7
100
AcDbLine
 10
200.526685
 20
302.460168
 11
202.026685
 21
300.960168
  0
LINE
  5
179
100
AcDbEntity
  8
M2
 62
     7
100
AcDbLine
 10
193.633792
 20
302.753061
 11
199.819579
 21
302.753061
  0
LINE
  5
17A
100
AcDbEntity
  8
M2
 62
     7
100
AcDbLine
 10
202.026685
 20
300.960168
 11
204.940899
 21
298.045954
  0
LINE
  5
17B
100
AcDbEntity
  8
M2
 62
     7
100
AcDbLine
 10
194.233792
 20
301.253061
 11
201.319579
 21
301.253061
  0
LINE
  5
17C
100
AcDbEntity
  8
M2
 62
     7
100
AcDbLine
 10
190.933792
 20
263.653061
 11
191.333792
 21
263.653061
  0
LINE
  5
17D
100
AcDbEntity
  8
M2
 62
     7
100
AcDbLine
 10
190.333792
 20
253.953061
 11
190.333792
 21
263.053061
  0
LINE
  5
17E
100
AcDbEntity
  8
M2
 62
     7
100
AcDbLine
 10
194.233792
 20
302.153061
 11
194.233792
 21
301.146051
  0
LINE
  5
17F
100
AcDbEntity
  8
M2
 62
     7
100
AcDbLine
 10
190.933792
 20
253.353061
 11
191.333792
 21
253.353061
  0
LINE
  5
180
100
AcDbEntity
  8
M2
 62
     7
100
AcDbLine
 10
258.833792
 20
228.703061
 11
258.833792
 21
226.503061
  0
LINE
  5
181
100
AcDbEntity
  8
M2
 62
     7
100
AcDbLine
 10
212.033792
 20
281.953061
 11
212.033792
 21
287.853061
  0
LINE
  5
182
100
AcDbEntity
  8
M2
 62
     7
100
AcDbLine
 10
258.533792
 20
286.503061
 11
258.533792
 21
286.053061
  0
LINE
  5
183
100
AcDbEntity
  8
M2
 62
     7
100
AcDbLine
 10
210.533792
 20
288.853061
 11
212.033792
 21
288.853061
  0
LINE
  5
184
100
AcDbEntity
  8
M2
 62
     7
100
AcDbLine
 10
258.533792
 20
284.753061
 11
258.533792
 21
284.253061
  0
ARC
  5
185
100
AcDbEntity
  8
M2
 62
     7
100
AcDbCircle
 10
205.619579
 20
228.353061
 40
1.0
100
AcDbArc
 50
270.0
 51
315.0
  0
LINE
  5
186
100
AcDbEntity
  8
M2
 62
     7
100
AcDbLine
 10
230.033792
 20
281.953061
 11
231.533792
 21
281.953061
  0
LINE
  5
187
100
AcDbEntity
  8
M2
 62
     7
100
AcDbLine
 10
258.533792
 20
228.553061
 11
258.533792
 21
228.703061
  0
LINE
  5
188
100
AcDbEntity
  8
M2
 62
     7
100
AcDbLine
 10
255.333792
 20
242.353061
 11
255.333792
 21
241.353061
  0
LINE
  5
189
100
AcDbEntity
  8
M2
 62
     7
100
AcDbLine
 10
255.333792
 20
242.853061
 11
256.033792
 21
242.853061
  0
LINE
  5
18A
100
AcDbEntity
  8
M2
 62
     7
100
AcDbLine
 10
205.233792
 20
288.853061
 11
209.033792
 21
288.853061
  0
LINE
  5
18B
100
AcDbEntity
  8
M2
 62
     7
100
AcDbLine
 10
218.033792
 20
288.853061
 11
218.033792
 21
287.853061
  0
LINE
  5
18C
100
AcDbEntity
  8
M2
 62
     7
100
AcDbLine
 10
254.533792
 20
240.553061
 11
254.533792
 21
240.853061
  0
LINE
  5
18D
100
AcDbEntity
  8
M2
 62
     7
100
AcDbLine
 10
258.05967
 20
240.550928
 11
256.473792
 21
242.353061
  0
LINE
  5
18E
100
AcDbEntity
  8
M2
 62
     7
100
AcDbLine
 10
256.033792
 20
242.853061
 11
256.473792
 21
242.353061
  0
LINE
  5
18F
100
AcDbEntity
  8
M2
 62
     7
100
AcDbLine
 10
213.533792
 20
288.853061
 11
215.033792
 21
288.853061
  0
LINE
  5
190
100
AcDbEntity
  8
M2
 62
     7
100
AcDbLine
 10
210.533792
 20
287.853061
 11
210.533792
 21
288.853061
  0
ARC
  5
191
100
AcDbEntity
  8
M2
 62
     7
100
AcDbCircle
 10
248.533792
 20
293.053061
 40
1.0
100
AcDbArc
 50
90.0
 51
180.0
  0
ARC
  5
192
100
AcDbEntity
  8
M2
 62
     7
100
AcDbCircle
 10
218.233792
 20
240.636833
 40
0.3
100
AcDbArc
 50
0.0
 51
90.0
  0
LINE
  5
193
100
AcDbEntity
  8
M2
 62
     7
100
AcDbLine
 10
209.033792
 20
288.853061
 11
209.033792
 21
287.853061
  0
LINE
  5
194
100
AcDbEntity
  8
M2
 62
     7
100
AcDbLine
 10
191.333792
 20
228.353061
 11
191.333792
 21
227.353061
  0
LINE
  5
195
100
AcDbEntity
  8
M2
 62
     7
100
AcDbLine
 10
255.333792
 20
242.353061
 11
255.333792
 21
242.853061
  0
LINE
  5
196
100
AcDbEntity
  8
M2
 62
     7
100
AcDbLine
 10
216.533792
 20
287.853061
 11
216.533792
 21
288.853061
  0
ARC
  5
197
100
AcDbEntity
  8
M2
 62
     7
100
AcDbCircle
 10
255.033792
 20
223.353061
 40
0.5
100
AcDbArc
 50
180.0
 51
270.0
  0
ARC
  5
198
100
AcDbEntity
  8
M2
 62
     7
100
AcDbCircle
 10
214.933792
 20
223.653061
 40
0.5
100
AcDbArc
 50
180.0
 51
270.0
  0
ARC
  5
199
100
AcDbEntity
  8
M2
 62
     7
100
AcDbCircle
 10
201.833792
 20
223.853061
 40
1.0
100
AcDbArc
 50
270.0
 51
360.0
  0
ARC
  5
19A
100
AcDbEntity
  8
M2
 62
     7
100
AcDbCircle
 10
255.033792
 20
240.853061
 40
0.5
100
AcDbArc
 50
90.0
 51
180.0
  0
ARC
  5
19B
100
AcDbEntity
  8
M2
 62
     7
100
AcDbCircle
 10
218.233792
 20
276.069289
 40
0.3
100
AcDbArc
 50
270.0
 51
360.0
  0
ARC
  5
19C
100
AcDbEntity
  8
M2
 62
     7
100
AcDbCircle
 10
218.233792
 20
272.592506
 40
0.3
100
AcDbArc
 50
0.0
 51
90.0
  0
ARC
  5
19D
100
AcDbEntity
  8
M2
 62
     7
100
AcDbCircle
 10
218.233792
 20
244.113616
 40
0.3
100
AcDbArc
 50
270.0
 51
360.0
  0
ARC
  5
19E
100
AcDbEntity
  8
M2
 62
     7
100
AcDbCircle
 10
199.819579
 20
301.753061
 40
1.0
100
AcDbArc
 50
45.0
 51
90.0
  0
LINE
  5
19F
100
AcDbEntity
  8
M2
 62
     7
100
AcDbLine
 10
230.033792
 20
288.853061
 11
231.533792
 21
288.853061
  0
LINE
  5
1A0
100
AcDbEntity
  8
M2
 62
     7
100
AcDbLine
 10
233.033792
 20
288.853061
 11
234.533792
 21
288.853061
  0
LINE
  5
1A1
100
AcDbEntity
  8
M2
 62
     7
100
AcDbLine
 10
221.033792
 20
284.053061
 11
222.533792
 21
284.053061
  0
LINE
  5
1A2
100
AcDbEntity
  8
M2
 62
     7
100
AcDbLine
 10
218.033792
 20
284.053061
 11
219.533792
 21
284.053061
  0
LINE
  5
1A3
100
AcDbEntity
  8
M2
 62
     7
100
AcDbLine
 10
224.033792
 20
288.853061
 11
225.533792
 21
288.853061
  0
LINE
  5
1A4
100
AcDbEntity
  8
M2
 62
     7
100
AcDbLine
 10
215.033792
 20
284.053061
 11
216.533792
 21
284.053061
  0
LINE
  5
1A5
100
AcDbEntity
  8
M2
 62
     7
100
AcDbLine
 10
227.033792
 20
281.953061
 11
228.533792
 21
281.953061
  0
ARC
  5
1A6
100
AcDbEntity
  8
M2
 62
     7
100
AcDbCircle
 10
255.095674
 20
238.410548
 40
2.316399
100
AcDbArc
 50
112.341791
 51
123.008287
  0
ARC
  5
1A7
100
AcDbEntity
  8
M2
 62
     7
100
AcDbCircle
 10
248.533792
 20
224.553061
 40
1.0
100
AcDbArc
 50
180.0
 51
270.0
  0
ARC
  5
1A8
100
AcDbEntity
  8
M2
 62
     7
100
AcDbCircle
 10
193.633792
 20
302.153061
 40
0.6
100
AcDbArc
 50
0.0
 51
90.0
  0
ARC
  5
1A9
100
AcDbEntity
  8
M2
 62
     7
100
AcDbCircle
 10
193.233792
 20
280.253061
 40
1.0
100
AcDbArc
 50
0.0
 51
90.0
  0
LINE
  5
1AA
100
AcDbEntity
  8
M2
 62
     7
100
AcDbLine
 10
227.033792
 20
284.053061
 11
228.533792
 21
284.053061
  0
LINE
  5
1AB
100
AcDbEntity
  8
M2
 62
     7
100
AcDbLine
 10
224.033792
 20
284.053061
 11
225.533792
 21
284.053061
  0
ARC
  5
1AC
100
AcDbEntity
  8
M2
 62
     7
100
AcDbCircle
 10
254.653953
 20
277.456098
 40
1.374538
100
AcDbArc
 50
233.367407
 51
251.438337
  0
ELLIPSE
  5
1AD
100
AcDbEntity
  8
M2
 62
     7
100
AcDbEllipse
 10
196.525459
 20
276.653061
 11
-2.291667
 21
0.0
210
0.0
220
0.0
230
1.0
 40
0.436364
 41
4.71238898038469
 42
6.283185307179586
  0
ARC
  5
1AE
100
AcDbEntity
  8
M2
 62
     7
100
AcDbCircle
 10
182.733792
 20
299.753061
 40
3.0
100
AcDbArc
 50
90.0
 51
180.0
  0
LINE
  5
1AF
100
AcDbEntity
  8
M2
 62
     7
100
AcDbLine
 10
221.033792
 20
288.853061
 11
222.533792
 21
288.853061
  0
LINE
  5
1B0
100
AcDbEntity
  8
M2
 62
     7
100
AcDbLine
 10
231.533792
 20
287.353061
 11
230.033792
 21
287.353061
  0
LINE
  5
1B1
100
AcDbEntity
  8
M2
 62
     7
100
AcDbLine
 10
210.533792
 20
287.353061
 11
209.033792
 21
287.353061
  0
LINE
  5
1B2
100
AcDbEntity
  8
M2
 62
     7
100
AcDbLine
 10
213.533792
 20
287.353061
 11
212.033792
 21
287.353061
  0
LINE
  5
1B3
100
AcDbEntity
  8
M2
 62
     7
100
AcDbLine
 10
209.033792
 20
288.853061
 11
210.533792
 21
288.853061
  0
LINE
  5
1B4
100
AcDbEntity
  8
M2
 62
     7
100
AcDbLine
 10
222.533792
 20
287.353061
 11
221.033792
 21
287.353061
  0
LINE
  5
1B5
100
AcDbEntity
  8
M2
 62
     7
100
AcDbLine
 10
212.033792
 20
288.853061
 11
213.533792
 21
288.853061
  0
LINE
  5
1B6
100
AcDbEntity
  8
M2
 62
     7
100
AcDbLine
 10
214.433792
 20
223.653061
 11
214.433792
 21
228.653061
  0
LINE
  5
1B7
100
AcDbEntity
  8
M2
 62
     7
100
AcDbLine
 10
215.033792
 20
288.853061
 11
216.533792
 21
288.853061
  0
LINE
  5
1B8
100
AcDbEntity
  8
M2
 62
     7
100
AcDbLine
 10
216.533792
 20
287.353061
 11
215.033792
 21
287.353061
  0
LINE
  5
1B9
100
AcDbEntity
  8
M2
 62
     7
100
AcDbLine
 10
254.333792
 20
276.153061
 11
254.333792
 21
273.153061
  0
LINE
  5
1BA
100
AcDbEntity
  8
M2
 62
     7
100
AcDbLine
 10
225.533792
 20
287.353061
 11
224.033792
 21
287.353061
  0
LINE
  5
1BB
100
AcDbEntity
  8
M2
 62
     7
100
AcDbLine
 10
236.033792
 20
294.053061
 11
248.533792
 21
294.053061
  0
LINE
  5
1BC
100
AcDbEntity
  8
M2
 62
     7
100
AcDbLine
 10
219.533792
 20
287.353061
 11
218.033792
 21
287.353061
  0
LINE
  5
1BD
100
AcDbEntity
  8
M2
 62
     7
100
AcDbLine
 10
227.033792
 20
288.853061
 11
228.533792
 21
288.853061
  0
LINE
  5
1BE
100
AcDbEntity
  8
M2
 62
     7
100
AcDbLine
 10
228.533792
 20
287.353061
 11
227.033792
 21
287.353061
  0
LINE
  5
1BF
100
AcDbEntity
  8
M2
 62
     7
100
AcDbLine
 10
200.526685
 20
302.460168
 11
202.026685
 21
300.960168
  0
LINE
  5
1C0
100
AcDbEntity
  8
M2
 62
     7
100
AcDbLine
 10
227.033792
 20
288.853061
 11
225.533792
 21
288.853061
  0
LINE
  5
1C1
100
AcDbEntity
  8
M2
 62
     7
100
AcDbLine
 10
254.633792
 20
272.653061
 11
254.333792
 21
273.653061
  0
LINE
  5
1C2
100
AcDbEntity
  8
M2
 62
     7
100
AcDbLine
 10
254.633792
 20
272.653061
 11
254.633792
 21
272.153061
  0
LINE
  5
1C3
100
AcDbEntity
  8
M2
 62
     7
100
AcDbLine
 10
236.033792
 20
288.853061
 11
234.533792
 21
288.853061
  0
LINE
  5
1C4
100
AcDbEntity
  8
M2
 62
     7
100
AcDbLine
 10
258.833792
 20
286.36955
 11
258.533792
 21
286.36955
  0
LINE
  5
1C5
100
AcDbEntity
  8
M2
 62
     7
100
AcDbLine
 10
230.033792
 20
288.853061
 11
228.533792
 21
288.853061
  0
LINE
  5
1C6
100
AcDbEntity
  8
M2
 62
     7
100
AcDbLine
 10
233.033792
 20
288.853061
 11
231.533792
 21
288.853061
  0
LINE
  5
1C7
100
AcDbEntity
  8
M2
 62
     7
100
AcDbLine
 10
194.233792
 20
280.253061
 11
194.233792
 21
273.453061
  0
LINE
  5
1C8
100
AcDbEntity
  8
M2
 62
     7
100
AcDbLine
 10
237.533792
 20
294.053061
 11
258.033792
 21
294.053061
  0
LINE
  5
1C9
100
AcDbEntity
  8
M2
 62
     7
100
AcDbLine
 10
179.733792
 20
292.853061
 11
179.733792
 21
299.753061
  0
LINE
  5
1CA
100
AcDbEntity
  8
M2
 62
     7
100
AcDbLine
 10
194.233792
 20
302.153061
 11
194.233792
 21
280.253061
  0
LINE
  5
1CB
100
AcDbEntity
  8
M2
 62
     7
100
AcDbLine
 10
224.033792
 20
288.853061
 11
222.533792
 21
288.853061
  0
LINE
  5
1CC
100
AcDbEntity
  8
M2
 62
     7
100
AcDbLine
 10
221.033792
 20
288.853061
 11
219.533792
 21
288.853061
  0
LINE
  5
1CD
100
AcDbEntity
  8
M2
 62
     7
100
AcDbLine
 10
179.233792
 20
292.753061
 11
179.233792
 21
300.253061
  0
LINE
  5
1CE
100
AcDbEntity
  8
M2
 62
     7
100
AcDbLine
 10
250.833792
 20
294.053061
 11
258.033792
 21
294.053061
  0
LINE
  5
1CF
100
AcDbEntity
  8
M2
 62
     7
100
AcDbLine
 10
212.833792
 20
285.553061
 11
213.533792
 21
284.853061
  0
LINE
  5
1D0
100
AcDbEntity
  8
M2
 62
     7
100
AcDbLine
 10
209.033792
 20
285.553061
 11
210.533792
 21
285.553061
  0
LINE
  5
1D1
100
AcDbEntity
  8
M2
 62
     7
100
AcDbLine
 10
214.433792
 20
228.653061
 11
214.433792
 21
225.153061
  0
ARC
  5
1D2
100
AcDbEntity
  8
M2
 62
     7
100
AcDbCircle
 10
180.233792
 20
300.253061
 40
1.0
100
AcDbArc
 50
95.798093
 51
180.0
  0
LINE
  5
1D3
100
AcDbEntity
  8
M2
 62
     7
100
AcDbLine
 10
234.533792
 20
287.353061
 11
233.033792
 21
287.353061
  0
LINE
  5
1D4
100
AcDbEntity
  8
M2
 62
     7
100
AcDbLine
 10
233.033792
 20
284.053061
 11
234.533792
 21
284.053061
  0
LINE
  5
1D5
100
AcDbEntity
  8
M2
 62
     7
100
AcDbLine
 10
230.033792
 20
284.053061
 11
231.533792
 21
284.053061
  0
LINE
  5
1D6
100
AcDbEntity
  8
M2
 62
     7
100
AcDbLine
 10
212.033792
 20
285.553061
 11
212.833792
 21
285.553061
  0
LINE
  5
1D7
100
AcDbEntity
  8
M2
 62
     7
100
AcDbLine
 10
214.433792
 20
227.353061
 11
191.333792
 21
227.353061
  0
LINE
  5
1D8
100
AcDbEntity
  8
M2
 62
     7
100
AcDbLine
 10
202.833792
 20
227.353061
 11
202.833792
 21
223.853061
  0
LINE
  5
1D9
100
AcDbEntity
  8
M2
 62
     7
100
AcDbLine
 10
247.533792
 20
227.353061
 11
226.533792
 21
227.353061
  0
LINE
  5
1DA
100
AcDbEntity
  8
M2
 62
     7
100
AcDbLine
 10
236.033792
 20
288.853061
 11
236.033792
 21
294.053061
  0
LINE
  5
1DB
100
AcDbEntity
  8
M2
 62
     7
100
AcDbLine
 10
258.833792
 20
279.703061
 11
258.533792
 21
279.703061
  0
LINE
  5
1DC
100
AcDbEntity
  8
M2
 62
     7
100
AcDbLine
 10
255.333792
 20
274.653061
 11
255.333792
 21
276.153061
  0
LINE
  5
1DD
100
AcDbEntity
  8
M2
 62
     7
100
AcDbLine
 10
218.033792
 20
288.853061
 11
219.533792
 21
288.853061
  0
LINE
  5
1DE
100
AcDbEntity
  8
M2
 62
     7
100
AcDbLine
 10
247.533792
 20
224.553061
 11
247.533792
 21
228.553061
  0
LINE
  5
1DF
100
AcDbEntity
  8
M2
 62
     7
100
AcDbLine
 10
258.833792
 20
238.803061
 11
258.533792
 21
238.803061
  0
LINE
  5
1E0
100
AcDbEntity
  8
M2
 62
     7
100
AcDbLine
 10
233.033792
 20
288.853061
 11
233.033792
 21
287.853061
  0
LINE
  5
1E1
100
AcDbEntity
  8
M2
 62
     7
100
AcDbLine
 10
258.533792
 20
284.753061
 11
258.533792
 21
286.053061
  0
LINE
  5
1E2
100
AcDbEntity
  8
M2
 62
     7
100
AcDbLine
 10
254.333792
 20
270.153061
 11
254.633792
 21
270.653061
  0
LINE
  5
1E3
100
AcDbEntity
  8
M2
 62
     7
100
AcDbLine
 10
231.533792
 20
287.853061
 11
231.533792
 21
288.853061
  0
ARC
  5
1E4
100
AcDbEntity
  8
M2
 62
     7
100
AcDbCircle
 10
258.033792
 20
224.053061
 40
0.5
100
AcDbArc
 50
270.0
 51
360.0
  0
ARC
  5
1E5
100
AcDbEntity
  8
M2
 62
     7
100
AcDbCircle
 10
258.033792
 20
276.653061
 40
0.5
100
AcDbArc
 50
270.0
 51
360.0
  0
LINE
  5
1E6
100
AcDbEntity
  8
M2
 62
     7
100
AcDbLine
 10
258.533792
 20
293.603061
 11
258.533792
 21
274.153061
  0
ARC
  5
1E7
100
AcDbEntity
  8
M2
 62
     7
100
AcDbCircle
 10
258.033792
 20
274.153061
 40
0.5
100
AcDbArc
 50
270.0
 51
360.0
  0
LINE
  5
1E8
100
AcDbEntity
  8
M2
 62
     7
100
AcDbLine
 10
213.933792
 20
239.053061
 11
202.733792
 21
239.053061
  0
LINE
  5
1E9
100
AcDbEntity
  8
M2
 62
     7
100
AcDbLine
 10
254.233792
 20
240.553061
 11
258.033792
 21
240.553061
  0
ARC
  5
1EA
100
AcDbEntity
  8
M2
 62
     7
100
AcDbCircle
 10
201.319579
 20
300.253061
 40
1.0
100
AcDbArc
 50
45.0
 51
90.0
  0
LINE
  5
1EB
100
AcDbEntity
  8
M2
 62
     7
100
AcDbLine
 10
202.026685
 20
300.960168
 11
204.940899
 21
298.045954
  0
LINE
  5
1EC
100
AcDbEntity
  8
M2
 62
     7
100
AcDbLine
 10
254.633792
 20
272.153061
 11
254.333792
 21
272.153061
  0
LINE
  5
1ED
100
AcDbEntity
  8
M2
 62
     7
100
AcDbLine
 10
256.533792
 20
241.353061
 11
256.533792
 21
240.853061
  0
LINE
  5
1EE
100
AcDbEntity
  8
M2
 62
     7
100
AcDbLine
 10
218.533792
 20
271.953061
 11
253.833792
 21
271.953061
  0
LINE
  5
1EF
100
AcDbEntity
  8
M2
 62
     7
100
AcDbLine
 10
218.233792
 20
272.892506
 11
202.733792
 21
272.892506
  0
LINE
  5
1F0
100
AcDbEntity
  8
M2
 62
     7
100
AcDbLine
 10
256.533792
 20
240.853061
 11
256.533792
 21
240.553061
  0
LINE
  5
1F1
100
AcDbEntity
  8
M2
 62
     7
100
AcDbLine
 10
198.733792
 20
273.453061
 11
198.733792
 21
277.153061
  0
LINE
  5
1F2
100
AcDbEntity
  8
M2
 62
     7
100
AcDbLine
 10
258.233792
 20
222.853061
 11
255.033792
 21
222.853061
  0
LINE
  5
1F3
100
AcDbEntity
  8
M2
 62
     7
100
AcDbLine
 10
247.533792
 20
228.653061
 11
226.533792
 21
228.653061
  0
LINE
  5
1F4
100
AcDbEntity
  8
M2
 62
     7
100
AcDbLine
 10
248.533792
 20
223.553061
 11
258.033792
 21
223.553061
  0
LINE
  5
1F5
100
AcDbEntity
  8
M2
 62
     7
100
AcDbLine
 10
258.833792
 20
293.603061
 11
258.833792
 21
279.703061
  0
LINE
  5
1F6
100
AcDbEntity
  8
M2
 62
     7
100
AcDbLine
 10
258.533792
 20
226.503061
 11
258.833792
 21
226.503061
  0
LINE
  5
1F7
100
AcDbEntity
  8
M2
 62
     7
100
AcDbLine
 10
247.533792
 20
277.653061
 11
247.533792
 21
293.053061
  0
LINE
  5
1F8
100
AcDbEntity
  8
M2
 62
     7
100
AcDbLine
 10
248.533792
 20
294.053061
 11
258.036298
 21
294.053061
  0
LINE
  5
1F9
100
AcDbEntity
  8
M2
 62
     7
100
AcDbLine
 10
234.533792
 20
288.853061
 11
247.533792
 21
288.853061
  0
LINE
  5
1FA
100
AcDbEntity
  8
M2
 62
     7
100
AcDbLine
 10
254.333792
 20
276.153061
 11
254.333792
 21
272.703452
  0
LINE
  5
1FB
100
AcDbEntity
  8
M2
 62
     7
100
AcDbLine
 10
222.533792
 20
287.853061
 11
222.533792
 21
288.853061
  0
LINE
  5
1FC
100
AcDbEntity
  8
M2
 62
     7
100
AcDbLine
 10
225.533792
 20
288.853061
 11
227.033792
 21
288.853061
  0
LINE
  5
1FD
100
AcDbEntity
  8
M2
 62
     7
100
AcDbLine
 10
254.333792
 20
272.703452
 11
254.333792
 21
271.453061
  0
LINE
  5
1FE
100
AcDbEntity
  8
M2
 62
     7
100
AcDbLine
 10
254.333792
 20
245.253061
 11
254.333792
 21
243.092829
  0
LINE
  5
1FF
100
AcDbEntity
  8
M2
 62
     7
100
AcDbLine
 10
258.033792
 20
276.153061
 11
254.233792
 21
276.153061
  0
LINE
  5
200
100
AcDbEntity
  8
M2
 62
     7
100
AcDbLine
 10
258.533792
 20
276.853061
 11
258.533792
 21
276.653061
  0
LINE
  5
201
100
AcDbEntity
  8
M2
 62
     7
100
AcDbLine
 10
230.033792
 20
288.853061
 11
230.033792
 21
287.853061
  0
LINE
  5
202
100
AcDbEntity
  8
M2
 62
     7
100
AcDbLine
 10
221.033792
 20
288.853061
 11
221.033792
 21
287.853061
  0
LINE
  5
203
100
AcDbEntity
  8
M2
 62
     7
100
AcDbLine
 10
226.033792
 20
223.153061
 11
214.933792
 21
223.153061
  0
LINE
  5
204
100
AcDbEntity
  8
M2
 62
     7
100
AcDbLine
 10
222.533792
 20
288.853061
 11
224.033792
 21
288.853061
  0
LINE
  5
205
100
AcDbEntity
  8
M2
 62
     7
100
AcDbLine
 10
234.533792
 20
287.853061
 11
234.533792
 21
288.853061
  0
LINE
  5
206
100
AcDbEntity
  8
M2
 62
     7
100
AcDbLine
 10
224.033792
 20
288.853061
 11
224.033792
 21
287.853061
  0
LINE
  5
207
100
AcDbEntity
  8
M2
 62
     7
100
AcDbLine
 10
231.533792
 20
288.853061
 11
233.033792
 21
288.853061
  0
LINE
  5
208
100
AcDbEntity
  8
M2
 62
     7
100
AcDbLine
 10
227.033792
 20
288.853061
 11
227.033792
 21
287.853061
  0
LINE
  5
209
100
AcDbEntity
  8
M2
 62
     7
100
AcDbLine
 10
225.533792
 20
281.953061
 11
225.533792
 21
287.853061
  0
LINE
  5
20A
100
AcDbEntity
  8
M2
 62
     7
100
AcDbLine
 10
258.033792
 20
273.653061
 11
256.333792
 21
273.653061
  0
LINE
  5
20B
100
AcDbEntity
  8
M2
 62
     7
100
AcDbLine
 10
207.333792
 20
228.653061
 11
206.326685
 21
227.645954
  0
LINE
  5
20C
100
AcDbEntity
  8
M2
 62
     7
100
AcDbLine
 10
205.233792
 20
297.338848
 11
205.233792
 21
277.653061
  0
LINE
  5
20D
100
AcDbEntity
  8
M2
 62
     7
100
AcDbLine
 10
258.533792
 20
240.053061
 11
258.533792
 21
239.853061
  0
LINE
  5
20E
100
AcDbEntity
  8
M2
 62
     7
100
AcDbLine
 10
214.433792
 20
228.653061
 11
207.333792
 21
228.653061
  0
LINE
  5
20F
100
AcDbEntity
  8
M2
 62
     7
100
AcDbLine
 10
256.333792
 20
273.653061
 11
255.833792
 21
274.153061
  0
LINE
  5
210
100
AcDbEntity
  8
M2
 62
     7
100
AcDbLine
 10
255.333792
 20
274.653061
 11
255.833792
 21
274.153061
  0
LINE
  5
211
100
AcDbEntity
  8
M2
 62
     7
100
AcDbLine
 10
225.533792
 20
287.853061
 11
225.533792
 21
288.853061
  0
LINE
  5
212
100
AcDbEntity
  8
M2
 62
     7
100
AcDbLine
 10
228.533792
 20
287.853061
 11
228.533792
 21
288.853061
  0
LINE
  5
213
100
AcDbEntity
  8
M2
 62
     7
100
AcDbLine
 10
196.525459
 20
277.653061
 11
201.233792
 21
277.653061
  0
LINE
  5
214
100
AcDbEntity
  8
M2
 62
     7
100
AcDbLine
 10
254.333792
 20
243.092829
 11
254.333792
 21
240.553061
  0
LINE
  5
215
100
AcDbEntity
  8
M2
 62
     7
100
AcDbLine
 10
258.833792
 20
232.056685
 11
258.833792
 21
228.703061
  0
LINE
  5
216
100
AcDbEntity
  8
M2
 62
     7
100
AcDbLine
 10
254.633792
 20
272.153061
 11
254.633792
 21
270.653061
  0
LINE
  5
217
100
AcDbEntity
  8
M2
 62
     7
100
AcDbLine
 10
228.533792
 20
288.853061
 11
230.033792
 21
288.853061
  0
LINE
  5
218
100
AcDbEntity
  8
M2
 62
     7
100
AcDbLine
 10
258.833792
 20
238.803061
 11
258.833792
 21
232.056685
  0
LINE
  5
219
100
AcDbEntity
  8
M2
 62
     7
100
AcDbLine
 10
258.833792
 20
232.056685
 11
258.533792
 21
232.056685
  0
LINE
  5
21A
100
AcDbEntity
  8
M2
 62
     7
100
AcDbLine
 10
184.933792
 20
292.753061
 11
185.033792
 21
292.753061
  0
LINE
  5
21B
100
AcDbEntity
  8
M2
 62
     7
100
AcDbLine
 10
197.033792
 20
302.753061
 11
182.733792
 21
302.753061
  0
LINE
  5
21C
100
AcDbEntity
  8
M2
 62
     7
100
AcDbLine
 10
185.033792
 20
289.253061
 11
184.933792
 21
289.253061
  0
LINE
  5
21D
100
AcDbEntity
  8
M2
 62
     7
100
AcDbLine
 10
184.933792
 20
289.253061
 11
175.633792
 21
289.253061
  0
LINE
  5
21E
100
AcDbEntity
  8
M2
 62
     7
100
AcDbLine
 10
183.933792
 20
290.253061
 11
183.933792
 21
291.753061
  0
LINE
  5
21F
100
AcDbEntity
  8
M2
 62
     7
100
AcDbLine
 10
175.633792
 20
291.253061
 11
175.633792
 21
289.253061
  0
LINE
  5
220
100
AcDbEntity
  8
M2
 62
     7
100
AcDbLine
 10
184.933792
 20
292.753061
 11
179.233792
 21
292.753061
  0
LINE
  5
221
100
AcDbEntity
  8
M2
 62
     7
100
AcDbLine
 10
179.433792
 20
291.753061
 11
176.633792
 21
290.586395
  0
LINE
  5
222
100
AcDbEntity
  8
M2
 62
     7
100
AcDbLine
 10
183.933792
 20
291.753061
 11
179.433792
 21
291.753061
  0
LINE
  5
223
100
AcDbEntity
  8
M2
 62
     7
100
AcDbLine
 10
184.933792
 20
289.253061
 11
184.933792
 21
292.753061
  0
LINE
  5
224
100
AcDbEntity
  8
M2
 62
     7
100
AcDbLine
 10
176.633792
 20
290.253061
 11
183.933792
 21
290.253061
  0
LINE
  5
225
100
AcDbEntity
  8
M2
 62
     7
100
AcDbLine
 10
145.433792
 20
247.853061
 11
145.433792
 21
270.053061
  0
LINE
  5
226
100
AcDbEntity
  8
M2
 62
     7
100
AcDbLine
 10
165.696743
 20
224.153061
 11
165.851911
 21
226.153061
  0
LINE
  5
227
100
AcDbEntity
  8
M2
 62
     7
100
AcDbLine
 10
175.633792
 20
289.153061
 11
175.633792
 21
289.253061
  0
LINE
  5
228
100
AcDbEntity
  8
M2
 62
     7
100
AcDbLine
 10
178.633792
 20
255.753061
 11
180.133792
 21
255.753061
  0
LINE
  5
229
100
AcDbEntity
  8
M2
 62
     7
100
AcDbLine
 10
181.133792
 20
256.753061
 11
181.133792
 21
261.053061
  0
LINE
  5
22A
100
AcDbEntity
  8
M2
 62
     7
100
AcDbLine
 10
191.333792
 20
253.353061
 11
191.333792
 21
222.853061
  0
LINE
  5
22B
100
AcDbEntity
  8
M2
 62
     7
100
AcDbLine
 10
176.633792
 20
290.586395
 11
176.633792
 21
290.253061
  0
LINE
  5
22C
100
AcDbEntity
  8
M2
 62
     7
100
AcDbLine
 10
175.333792
 20
222.853061
 11
168.801806
 21
223.271778
  0
LINE
  5
22D
100
AcDbEntity
  8
M2
 62
     7
100
AcDbLine
 10
167.533792
 20
224.153061
 11
167.533792
 21
226.153061
  0
LINE
  5
22E
100
AcDbEntity
  8
M2
 62
     7
100
AcDbLine
 10
191.333792
 20
222.853061
 11
175.333792
 21
222.853061
  0
LINE
  5
22F
100
AcDbEntity
  8
M2
 62
     7
100
AcDbLine
 10
183.233792
 20
261.053061
 11
183.233792
 21
255.653061
  0
LINE
  5
230
100
AcDbEntity
  8
M2
 62
     7
100
AcDbLine
 10
177.133792
 20
260.553061
 11
177.133792
 21
256.153061
  0
LINE
  5
231
100
AcDbEntity
  8
M2
 62
     7
100
AcDbLine
 10
152.233792
 20
262.053061
 11
152.233792
 21
254.653061
  0
LINE
  5
232
100
AcDbEntity
  8
M2
 62
     7
100
AcDbLine
 10
177.633792
 20
255.653061
 11
190.333792
 21
255.653061
  0
LINE
  5
233
100
AcDbEntity
  8
M2
 62
     7
100
AcDbLine
 10
175.633792
 20
281.253061
 11
175.633792
 21
289.153061
  0
LINE
  5
234
100
AcDbEntity
  8
M2
 62
     7
100
AcDbLine
 10
191.333792
 20
227.353061
 11
174.633792
 21
227.353061
  0
LINE
  5
235
100
AcDbEntity
  8
M2
 62
     7
100
AcDbLine
 10
154.733792
 20
287.153061
 11
171.836466
 21
287.153061
  0
LINE
  5
236
100
AcDbEntity
  8
M2
 62
     7
100
AcDbLine
 10
174.100282
 20
286.121597
 11
174.497609
 21
285.664672
  0
LINE
  5
237
100
AcDbEntity
  8
M2
 62
     7
100
AcDbLine
 10
174.551415
 20
231.251169
 11
174.055796
 21
230.648166
  0
LINE
  5
238
100
AcDbEntity
  8
M2
 62
     7
100
AcDbLine
 10
175.233792
 20
235.853061
 11
175.233792
 21
233.156064
  0
LINE
  5
239
100
AcDbEntity
  8
M2
 62
     7
100
AcDbLine
 10
175.233792
 20
283.696136
 11
175.233792
 21
281.253061
  0
LINE
  5
23A
100
AcDbEntity
  8
M2
 62
     7
100
AcDbLine
 10
167.533792
 20
287.153061
 11
167.533792
 21
289.553061
  0
LINE
  5
23B
100
AcDbEntity
  8
M2
 62
     7
100
AcDbLine
 10
150.733792
 20
254.653061
 11
152.233792
 21
254.653061
  0
LINE
  5
23C
100
AcDbEntity
  8
M2
 62
     7
100
AcDbLine
 10
171.738173
 20
229.553061
 11
154.733792
 21
229.553061
  0
LINE
  5
23D
100
AcDbEntity
  8
M2
 62
     7
100
AcDbLine
 10
190.333792
 20
261.053061
 11
177.633792
 21
261.053061
  0
LINE
  5
23E
100
AcDbEntity
  8
M2
 62
     7
100
AcDbLine
 10
191.333792
 20
222.853061
 11
191.333792
 21
223.853061
  0
LINE
  5
23F
100
AcDbEntity
  8
M2
 62
     7
100
AcDbLine
 10
167.533792
 20
227.153061
 11
167.533792
 21
229.553061
  0
LINE
  5
240
100
AcDbEntity
  8
M2
 62
     7
100
AcDbLine
 10
172.533792
 20
289.153061
 11
175.633792
 21
289.153061
  0
LINE
  5
241
100
AcDbEntity
  8
M2
 62
     7
100
AcDbLine
 10
173.433792
 20
226.153061
 11
155.733792
 21
226.153061
  0
LINE
  5
242
100
AcDbEntity
  8
M2
 62
     7
100
AcDbLine
 10
151.233792
 20
254.653061
 11
151.233792
 21
262.053061
  0
LINE
  5
243
100
AcDbEntity
  8
M2
 62
     7
100
AcDbLine
 10
152.233792
 20
262.053061
 11
150.733792
 21
262.053061
  0
LINE
  5
244
100
AcDbEntity
  8
M2
 62
     7
100
AcDbLine
 10
149.733792
 20
234.553061
 11
149.733792
 21
282.153061
  0
LINE
  5
245
100
AcDbEntity
  8
M2
 62
     7
100
AcDbLine
 10
179.233792
 20
292.753061
 11
175.633792
 21
291.253061
  0
ARC
  5
246
100
AcDbEntity
  8
M2
  6
DASHED
 62
     7
100
AcDbCircle
 10
119.733792
 20
239.953055
 40
4.0
100
AcDbArc
 50
180.0
 51
270.0
  0
ARC
  5
247
100
AcDbEntity
  8
M2
 62
     7
100
AcDbCircle
 10
155.733792
 20
230.153061
 40
4.0
100
AcDbArc
 50
180.0
 51
270.0
  0
ARC
  5
248
100
AcDbEntity
  8
M2
  6
DASHED
 62
     7
100
AcDbCircle
 10
134.833792
 20
240.953055
 40
5.0
100
AcDbArc
 50
270.0
 51
360.0
  0
ARC
  5
249
100
AcDbEntity
  8
M2
  6
DASHED
 62
     7
100
AcDbCircle
 10
119.733792
 20
278.753055
 40
4.0
100
AcDbArc
 50
90.0
 51
180.0
  0
ARC
  5
24A
100
AcDbEntity
  8
M2
  6
DASHED
 62
     7
100
AcDbCircle
 10
149.233792
 20
242.153061
 40
0.5
100
AcDbArc
 50
270.0
 51
360.0
  0
LINE
  5
24B
100
AcDbEntity
  8
M2
  6
DASHED
 62
     7
100
AcDbLine
 10
134.833792
 20
235.953055
 11
119.733792
 21
235.953055
  0
LINE
  5
24C
100
AcDbEntity
  8
M2
  6
DASHED
 62
     7
100
AcDbLine
 10
139.833792
 20
241.653061
 11
139.833792
 21
240.953055
  0
ARC
  5
24D
100
AcDbEntity
  8
M2
 62
     7
100
AcDbCircle
 10
145.933792
 20
247.853061
 40
0.5
100
AcDbArc
 50
180.0
 51
270.0
  0
ARC
  5
24E
100
AcDbEntity
  8
M2
 62
     7
100
AcDbCircle
 10
155.733792
 20
286.553061
 40
4.0
100
AcDbArc
 50
90.0
 51
180.0
  0
ARC
  5
24F
100
AcDbEntity
  8
M2
 62
     7
100
AcDbCircle
 10
145.933792
 20
251.353061
 40
0.5
100
AcDbArc
 50
90.0
 51
180.0
  0
ARC
  5
250
100
AcDbEntity
  8
M2
  6
DASHED
 62
     7
100
AcDbCircle
 10
134.833792
 20
277.753055
 40
5.0
100
AcDbArc
 50
0.0
 51
90.0
  0
LINE
  5
251
100
AcDbEntity
  8
M2
  6
DIVIDE
 62
     7
100
AcDbLine
 10
261.833792
 20
271.853061
 11
255.333792
 21
271.853061
  0
LINE
  5
252
100
AcDbEntity
  8
M2
  6
DIVIDE
 62
     7
100
AcDbLine
 10
261.833792
 20
244.853061
 11
261.833792
 21
271.853061
  0
LINE
  5
253
100
AcDbEntity
  8
M2
  6
DIVIDE
 62
     7
100
AcDbLine
 10
260.833792
 20
270.853061
 11
254.333792
 21
270.853061
  0
LINE
  5
254
100
AcDbEntity
  8
M2
  6
DIVIDE
 62
     7
100
AcDbLine
 10
255.333792
 20
275.853061
 11
254.333792
 21
275.853061
  0
LINE
  5
255
100
AcDbEntity
  8
M2
  6
DIVIDE
 62
     7
100
AcDbLine
 10
255.333792
 20
275.853061
 11
255.333792
 21
271.853061
  0
LINE
  5
256
100
AcDbEntity
  8
M2
  6
DIVIDE
 62
     7
100
AcDbLine
 10
255.333792
 20
244.853061
 11
255.333792
 21
240.853061
  0
ARC
  5
257
100
AcDbEntity
  8
M2
  6
DASHED
 62
     7
100
AcDbCircle
 10
149.233792
 20
276.553049
 40
0.5
100
AcDbArc
 50
0.0
 51
90.0
  0
LINE
  5
258
100
AcDbEntity
  8
M2
  6
DIVIDE
 62
     7
100
AcDbLine
 10
261.833792
 20
244.853061
 11
255.333792
 21
244.853061
  0
LINE
  5
259
100
AcDbEntity
  8
M2
  6
DIVIDE
 62
     7
100
AcDbLine
 10
260.833792
 20
270.853061
 11
260.833792
 21
245.853061
  0
LINE
  5
25A
100
AcDbEntity
  8
M2
  6
DIVIDE
 62
     7
100
AcDbLine
 10
260.833792
 20
245.853061
 11
254.333792
 21
245.853061
  0
LINE
  5
25B
100
AcDbEntity
  8
M2
  6
DIVIDE
 62
     7
100
AcDbLine
 10
254.333792
 20
240.853061
 11
255.333792
 21
240.853061
  0
ELLIPSE
  5
25C
100
AcDbEntity
  8
M2
 62
     7
100
AcDbEllipse
 10
145.933792
 20
263.160168
 11
0.5
 21
0.0
210
0.0
220
0.0
230
1.0
 40
0.414214
 41
3.141592653589793
 42
4.71238898038469
  0
ELLIPSE
  5
25D
100
AcDbEntity
  8
M2
 62
     7
100
AcDbEllipse
 10
145.933792
 20
264.660168
 11
0.5
 21
0.0
210
0.0
220
0.0
230
1.0
 40
0.414214
 41
3.141592653589793
 42
4.71238898038469
  0
LINE
  5
25E
100
AcDbEntity
  8
M2
 62
     7
100
AcDbLine
 10
177.633792
 20
261.053061
 11
177.633792
 21
256.753061
  0
LINE
  5
25F
100
AcDbEntity
  8
M2
  6
DASHED
 62
     7
100
AcDbLine
 10
190.533792
 20
302.753061
 11
190.533792
 21
295.753061
  0
LINE
  5
260
100
AcDbEntity
  8
M2
  6
DASHED
 62
     7
100
AcDbLine
 10
189.533792
 20
295.753061
 11
189.533792
 21
302.753061
  0
LINE
  5
261
100
AcDbEntity
  8
M2
 62
     7
100
AcDbLine
 10
180.833792
 20
222.853061
 11
175.333792
 21
222.853061
  0
LINE
  5
262
100
AcDbEntity
  8
M2
 62
     7
100
AcDbLine
 10
145.933792
 20
247.353061
 11
146.933792
 21
247.353061
  0
ARC
  5
263
100
AcDbEntity
  8
M2
 62
     7
100
AcDbCircle
 10
178.633792
 20
256.753061
 40
1.0
100
AcDbArc
 50
180.0
 51
270.0
  0
ARC
  5
264
100
AcDbEntity
  8
M2
 62
     7
100
AcDbCircle
 10
145.933792
 20
270.053061
 40
0.5
100
AcDbArc
 50
90.0
 51
180.0
  0
ARC
  5
265
100
AcDbEntity
  8
M2
 62
     7
100
AcDbCircle
 10
180.133792
 20
256.753061
 40
1.0
100
AcDbArc
 50
270.0
 51
360.0
  0
LINE
  5
266
100
AcDbEntity
  8
M2
  6
DASHED
 62
     7
100
AcDbLine
 10
114.133793
 20
260.653055
 11
114.133793
 21
257.853055
  0
LINE
  5
267
100
AcDbEntity
  8
M2
  6
DASHED
 62
     7
100
AcDbLine
 10
134.833792
 20
282.753056
 11
119.733792
 21
282.753056
  0
LINE
  5
268
100
AcDbEntity
  8
M2
  6
DASHED
 62
     7
100
AcDbLine
 10
139.833792
 20
277.053049
 11
139.833792
 21
277.753055
  0
LINE
  5
269
100
AcDbEntity
  8
M2
  6
DASHED
 62
     7
100
AcDbLine
 10
147.633792
 20
277.053049
 11
147.633792
 21
279.053055
  0
LINE
  5
26A
100
AcDbEntity
  8
M2
  6
DASHED
 62
     7
100
AcDbLine
 10
147.633792
 20
279.053055
 11
148.033792
 21
279.053055
  0
LINE
  5
26B
100
AcDbEntity
  8
M2
  6
DASHED
 62
     7
100
AcDbLine
 10
148.033792
 20
279.053055
 11
148.633794
 21
277.053049
  0
LINE
  5
26C
100
AcDbEntity
  8
M2
  6
DASHED
 62
     7
100
AcDbLine
 10
115.733792
 20
257.853055
 11
114.133793
 21
257.853055
  0
LINE
  5
26D
100
AcDbEntity
  8
M2
  6
DASHED
 62
     7
100
AcDbLine
 10
114.133793
 20
260.653055
 11
115.733792
 21
260.653055
  0
LINE
  5
26E
100
AcDbEntity
  8
M2
  6
DASHED
 62
     7
100
AcDbLine
 10
149.233792
 20
277.053049
 11
139.833792
 21
277.053049
  0
LINE
  5
26F
100
AcDbEntity
  8
M2
  6
DASHED
 62
     7
100
AcDbLine
 10
115.733792
 20
239.953055
 11
115.733792
 21
278.753055
  0
LINE
  5
270
100
AcDbEntity
  8
M2
  6
DASHED
 62
     7
100
AcDbLine
 10
149.233793
 20
241.653061
 11
144.433792
 21
241.653061
  0
LINE
  5
271
100
AcDbEntity
  8
M2
  6
DASHED
 62
     7
100
AcDbLine
 10
163.183792
 20
282.253061
 11
164.483792
 21
282.253061
  0
LINE
  5
272
100
AcDbEntity
  8
M2
  6
DASHED
 62
     7
100
AcDbLine
 10
164.483792
 20
282.253061
 11
164.483792
 21
276.253061
  0
LINE
  5
273
100
AcDbEntity
  8
M2
  6
DASHED
 62
     7
100
AcDbLine
 10
165.533792
 20
280.678061
 11
165.533792
 21
277.828061
  0
LINE
  5
274
100
AcDbEntity
  8
M2
 62
     7
100
AcDbLine
 10
185.933792
 20
271.353061
 11
185.933792
 21
289.253061
  0
LINE
  5
275
100
AcDbEntity
  8
M2
  6
DASHED
 62
     7
100
AcDbLine
 10
163.183792
 20
276.253061
 11
164.483792
 21
276.253061
  0
LINE
  5
276
100
AcDbEntity
  8
M2
  6
DASHED
 62
     7
100
AcDbLine
 10
164.483792
 20
282.003061
 11
165.533792
 21
282.003061
  0
LINE
  5
277
100
AcDbEntity
  8
M2
  6
DASHED
 62
     7
100
AcDbLine
 10
172.983792
 20
281.003061
 11
172.983792
 21
277.503061
  0
LINE
  5
278
100
AcDbEntity
  8
M2
  6
DASHED
 62
     7
100
AcDbLine
 10
166.533792
 20
283.078061
 11
165.533792
 21
283.078061
  0
LINE
  5
279
100
AcDbEntity
  8
M2
  6
DASHED
 62
     7
100
AcDbLine
 10
166.533792
 20
275.428061
 11
165.533792
 21
275.428061
  0
LINE
  5
27A
100
AcDbEntity
  8
M2
  6
DASHED
 62
     7
100
AcDbLine
 10
165.533792
 20
283.078061
 11
165.533792
 21
275.428061
  0
LINE
  5
27B
100
AcDbEntity
  8
M2
 62
     7
100
AcDbLine
 10
193.687542
 20
302.753061
 11
193.833792
 21
302.753061
  0
ARC
  5
27C
100
AcDbEntity
  8
M2
  6
DASHED
 62
     7
100
AcDbCircle
 10
168.033792
 20
282.553061
 40
0.5
100
AcDbArc
 50
90.0
 51
180.0
  0
ARC
  5
27D
100
AcDbEntity
  8
M2
 62
     7
100
AcDbCircle
 10
168.833792
 20
223.770754
 40
0.5
100
AcDbArc
 50
180.0
 51
266.332212
  0
ARC
  5
27E
100
AcDbEntity
  8
M2
  6
DASHED
 62
     7
100
AcDbCircle
 10
168.033792
 20
282.553061
 40
1.5
100
AcDbArc
 50
90.0
 51
180.0
  0
ARC
  5
27F
100
AcDbEntity
  8
M2
  6
DASHED
 62
     7
100
AcDbCircle
 10
163.183792
 20
277.253061
 40
1.0
100
AcDbArc
 50
180.0
 51
270.0
  0
ARC
  5
280
100
AcDbEntity
  8
M2
  6
DASHED
 62
     7
100
AcDbCircle
 10
163.183792
 20
281.253061
 40
1.0
100
AcDbArc
 50
90.0
 51
180.0
  0
LINE
  5
281
100
AcDbEntity
  8
M2
 62
     7
100
AcDbLine
 10
185.933792
 20
289.253061
 11
185.033792
 21
289.253061
  0
LINE
  5
282
100
AcDbEntity
  8
M2
 62
     7
100
AcDbLine
 10
179.433792
 20
292.853061
 11
185.033792
 21
292.853061
  0
LINE
  5
283
100
AcDbEntity
  8
M2
 62
     7
100
AcDbLine
 10
185.033792
 20
289.253061
 11
185.033792
 21
292.853061
  0
ARC
  5
284
100
AcDbEntity
  8
M2
 62
     7
100
AcDbCircle
 10
162.736498
 20
223.853061
 40
1.0
100
AcDbArc
 50
270.0
 51
331.699244
  0
LINE
  5
285
100
AcDbEntity
  8
M2
 62
     7
100
AcDbLine
 10
194.833792
 20
301.253061
 11
198.119579
 21
301.253061
  0
LINE
  5
286
100
AcDbEntity
  8
M2
 62
     7
100
AcDbLine
 10
179.433792
 20
292.853061
 11
179.233792
 21
292.853061
  0
LINE
  5
287
100
AcDbEntity
  8
M2
 62
     7
100
AcDbLine
 10
168.333792
 20
224.153061
 11
164.033792
 21
224.153061
  0
LINE
  5
288
100
AcDbEntity
  8
M2
 62
     7
100
AcDbLine
 10
175.333792
 20
222.853061
 11
168.801806
 21
223.271778
  0
LINE
  5
289
100
AcDbEntity
  8
M2
 62
     7
100
AcDbLine
 10
163.872254
 20
223.853061
 11
163.616969
 21
223.378961
  0
LINE
  5
28A
100
AcDbEntity
  8
M2
  6
DASHED
 62
     7
100
AcDbLine
 10
166.533792
 20
263.453061
 11
167.533792
 21
263.453061
  0
LINE
  5
28B
100
AcDbEntity
  8
M2
  6
DASHED
 62
     7
100
AcDbLine
 10
167.533792
 20
276.103061
 11
167.533792
 21
281.403061
  0
LINE
  5
28C
100
AcDbEntity
  8
M2
 62
     7
100
AcDbLine
 10
161.769506
 20
222.853061
 11
158.233792
 21
226.153061
  0
LINE
  5
28D
100
AcDbEntity
  8
M2
 62
     7
100
AcDbLine
 10
168.333792
 20
223.770754
 11
168.333792
 21
224.153061
  0
LINE
  5
28E
100
AcDbEntity
  8
M2
 62
     7
100
AcDbLine
 10
164.033792
 20
224.153061
 11
163.872254
 21
223.853061
  0
LINE
  5
28F
100
AcDbEntity
  8
M2
 62
     7
100
AcDbLine
 10
167.533792
 20
226.153061
 11
167.533792
 21
227.153061
  0
LINE
  5
290
100
AcDbEntity
  8
M2
 62
     7
100
AcDbLine
 10
165.741587
 20
227.153061
 11
165.635094
 21
226.153061
  0
LINE
  5
291
100
AcDbEntity
  8
M2
  6
DASHED
 62
     7
100
AcDbLine
 10
167.533792
 20
281.403061
 11
167.533792
 21
282.553061
  0
LINE
  5
292
100
AcDbEntity
  8
M2
  6
DASHED
 62
     7
100
AcDbLine
 10
166.533792
 20
263.453061
 11
166.533792
 21
282.553061
  0
LINE
  5
293
100
AcDbEntity
  8
M2
 62
     7
100
AcDbLine
 10
140.433792
 20
284.153061
 11
140.433792
 21
302.353061
  0
LINE
  5
294
100
AcDbEntity
  8
M2
  6
DASHED
 62
     7
100
AcDbLine
 10
172.983792
 20
281.003061
 11
167.533792
 21
281.003061
  0
LINE
  5
295
100
AcDbEntity
  8
M2
  6
DASHED
 62
     7
100
AcDbLine
 10
162.183792
 20
277.253061
 11
162.183792
 21
281.253061
  0
LINE
  5
296
100
AcDbEntity
  8
M2
  6
DASHED
 62
     7
100
AcDbLine
 10
167.533792
 20
277.503061
 11
172.983792
 21
277.503061
  0
LINE
  5
297
100
AcDbEntity
  8
M2
  6
DASHED
 62
     7
100
AcDbLine
 10
168.033792
 20
283.053061
 11
170.533792
 21
283.053061
  0
LINE
  5
298
100
AcDbEntity
  8
M2
  6
DASHED
 62
     7
100
AcDbLine
 10
167.533792
 20
263.453061
 11
167.533792
 21
276.103061
  0
LINE
  5
299
100
AcDbEntity
  8
M2
  6
DASHED
 62
     7
100
AcDbLine
 10
170.533792
 20
284.053061
 11
170.533792
 21
283.053061
  0
LINE
  5
29A
100
AcDbEntity
  8
M2
  6
DASHED
 62
     7
100
AcDbLine
 10
168.033792
 20
284.053061
 11
170.533792
 21
284.053061
  0
LINE
  5
29B
100
AcDbEntity
  8
M2
 62
     7
100
AcDbLine
 10
162.736498
 20
222.853061
 11
161.769506
 21
222.853061
  0
LINE
  5
29C
100
AcDbEntity
  8
M2
  6
DASHED
 62
     7
100
AcDbLine
 10
164.483792
 20
276.503061
 11
165.533792
 21
276.503061
  0
LINE
  5
29D
100
AcDbEntity
  8
M2
 62
     7
100
AcDbLine
 10
165.741587
 20
227.153061
 11
165.635094
 21
226.153061
  0
LINE
  5
29E
100
AcDbEntity
  8
M2
 62
     7
100
AcDbLine
 10
151.733792
 20
286.153061
 11
151.733792
 21
286.553061
  0
ARC
  5
29F
100
AcDbEntity
  8
M2
 62
     7
100
AcDbCircle
 10
186.433792
 20
271.353061
 40
0.5
100
AcDbArc
 50
180.0
 51
270.0
  0
ARC
  5
2A0
100
AcDbEntity
  8
M2
 62
     7
100
AcDbCircle
 10
171.738173
 20
232.553061
 40
3.0
100
AcDbArc
 50
270.0
 51
320.582606
  0
ARC
  5
2A1
100
AcDbEntity
  8
M2
 62
     7
100
AcDbCircle
 10
190.833792
 20
270.353061
 40
0.5
100
AcDbArc
 50
0.0
 51
90.0
  0
LINE
  5
2A2
100
AcDbEntity
  8
M2
 62
     7
100
AcDbLine
 10
165.99717
 20
287.153061
 11
165.741587
 21
289.553061
  0
LINE
  5
2A3
100
AcDbEntity
  8
M2
 62
     7
100
AcDbLine
 10
165.635094
 20
290.553061
 11
165.741587
 21
289.553061
  0
LINE
  5
2A4
100
AcDbEntity
  8
M2
 62
     7
100
AcDbLine
 10
171.133792
 20
290.553061
 11
172.533792
 21
289.153061
  0
LINE
  5
2A5
100
AcDbEntity
  8
M2
 62
     7
100
AcDbLine
 10
165.635094
 20
290.553061
 11
167.533792
 21
290.553061
  0
LINE
  5
2A6
100
AcDbEntity
  8
M2
 62
     7
100
AcDbLine
 10
165.741587
 20
227.153061
 11
165.99717
 21
229.553061
  0
ARC
  5
2A7
100
AcDbEntity
  8
M2
 62
     7
100
AcDbCircle
 10
154.733792
 20
234.553061
 40
5.0
100
AcDbArc
 50
180.0
 51
270.0
  0
ARC
  5
2A8
100
AcDbEntity
  8
M2
 62
     7
100
AcDbCircle
 10
177.633792
 20
256.153061
 40
0.5
100
AcDbArc
 50
180.0
 51
270.0
  0
ARC
  5
2A9
100
AcDbEntity
  8
M2
 62
     7
100
AcDbCircle
 10
154.733792
 20
282.153061
 40
5.0
100
AcDbArc
 50
90.0
 51
180.0
  0
ARC
  5
2AA
100
AcDbEntity
  8
M2
 62
     7
100
AcDbCircle
 10
177.633792
 20
260.553061
 40
0.5
100
AcDbArc
 50
90.0
 51
180.0
  0
LINE
  5
2AB
100
AcDbEntity
  8
M2
 62
     7
100
AcDbLine
 10
191.333792
 20
270.253061
 11
191.333792
 21
263.853061
  0
LINE
  5
2AC
100
AcDbEntity
  8
M2
 62
     7
100
AcDbLine
 10
151.733792
 20
230.153061
 11
151.733792
 21
230.553061
  0
ARC
  5
2AD
100
AcDbEntity
  8
M2
 62
     7
100
AcDbCircle
 10
172.233792
 20
283.696136
 40
3.0
100
AcDbArc
 50
0.0
 51
41.009087
  0
ARC
  5
2AE
100
AcDbEntity
  8
M2
 62
     7
100
AcDbCircle
 10
171.836466
 20
284.153061
 40
3.0
100
AcDbArc
 50
41.009087
 51
90.0
  0
ARC
  5
2AF
100
AcDbEntity
  8
M2
 62
     7
100
AcDbCircle
 10
172.233792
 20
233.156064
 40
3.0
100
AcDbArc
 50
320.582606
 51
360.0
  0
ARC
  5
2B0
100
AcDbEntity
  8
M2
 62
     7
100
AcDbCircle
 10
150.733792
 20
253.653061
 40
1.0
100
AcDbArc
 50
90.0
 51
180.0
  0
ARC
  5
2B1
100
AcDbEntity
  8
M2
 62
     7
100
AcDbCircle
 10
150.733792
 20
263.053061
 40
1.0
100
AcDbArc
 50
180.0
 51
270.0
  0
LINE
  5
2B2
100
AcDbEntity
  8
M2
  6
DASHED
 62
     7
100
AcDbLine
 10
149.233793
 20
241.653061
 11
139.833792
 21
241.653061
  0
LINE
  5
2B3
100
AcDbEntity
  8
M2
 62
     7
100
AcDbLine
 10
175.233792
 20
281.253061
 11
193.233792
 21
281.253061
  0
LINE
  5
2B4
100
AcDbEntity
  8
M2
 62
     7
100
AcDbLine
 10
179.233792
 20
292.753061
 11
179.233792
 21
292.853061
  0
ARC
  5
2B5
100
AcDbEntity
  8
M2
 62
     7
100
AcDbCircle
 10
190.333792
 20
280.253061
 40
1.0
100
AcDbArc
 50
0.0
 51
90.0
  0
LINE
  5
2B6
100
AcDbEntity
  8
M2
 62
     7
100
AcDbLine
 10
198.733792
 20
238.253061
 11
191.333792
 21
238.253061
  0
LINE
  5
2B7
100
AcDbEntity
  8
M2
 62
     7
100
AcDbLine
 10
198.733792
 20
243.253061
 11
191.333792
 21
243.253061
  0
LINE
  5
2B8
100
AcDbEntity
  8
M2
 62
     7
100
AcDbLine
 10
191.333792
 20
273.453061
 11
198.733792
 21
273.453061
  0
LINE
  5
2B9
100
AcDbEntity
  8
M2
 62
     7
100
AcDbLine
 10
191.333792
 20
273.453061
 11
191.333792
 21
280.253061
  0
LINE
  5
2BA
100
AcDbEntity
  8
M2
 62
     7
100
AcDbLine
 10
191.333792
 20
263.653061
 11
191.333792
 21
270.353061
  0
LINE
  5
2BB
100
AcDbEntity
  8
M2
 62
     7
100
AcDbLine
 10
191.333792
 20
235.853061
 11
175.233792
 21
235.853061
  0
LINE
  5
2BC
100
AcDbEntity
  8
M2
 62
     7
100
AcDbLine
 10
190.833792
 20
270.853061
 11
186.433792
 21
270.853061
  0
LINE
  5
2BD
100
AcDbEntity
  8
M2
 62
     7
100
AcDbLine
 10
167.533792
 20
289.553061
 11
167.533792
 21
290.553061
  0
LINE
  5
2BE
100
AcDbEntity
  8
M2
 62
     7
100
AcDbLine
 10
149.733792
 20
247.353061
 11
145.933792
 21
247.353061
  0
LINE
  5
2BF
100
AcDbEntity
  8
M2
 62
     7
100
AcDbLine
 10
147.433792
 20
270.553061
 11
147.433792
 21
262.953061
  0
LINE
  5
2C0
100
AcDbEntity
  8
M2
 62
     7
100
AcDbLine
 10
147.433792
 20
251.853061
 11
147.433792
 21
247.353061
  0
LINE
  5
2C1
100
AcDbEntity
  8
M2
 62
     7
100
AcDbLine
 10
147.433792
 20
264.453061
 11
145.933792
 21
264.453061
  0
LINE
  5
2C2
100
AcDbEntity
  8
M2
 62
     7
100
AcDbLine
 10
145.933792
 20
262.953061
 11
147.433792
 21
262.953061
  0
LINE
  5
2C3
100
AcDbEntity
  8
M2
 62
     7
100
AcDbLine
 10
174.633792
 20
227.353061
 11
173.433792
 21
226.153061
  0
LINE
  5
2C4
100
AcDbEntity
  8
M2
 62
     7
100
AcDbLine
 10
167.533792
 20
290.553061
 11
171.133792
 21
290.553061
  0
LINE
  5
2C5
100
AcDbEntity
  8
M2
 62
     7
100
AcDbLine
 10
167.533792
 20
226.153061
 11
167.533792
 21
227.153061
  0
LINE
  5
2C6
100
AcDbEntity
  8
M2
 62
     7
100
AcDbLine
 10
145.933792
 20
270.553061
 11
149.733792
 21
270.553061
  0
LINE
  5
2C7
100
AcDbEntity
  8
M2
 62
     7
100
AcDbLine
 10
145.933792
 20
251.853061
 11
147.433792
 21
251.853061
  0
LINE
  5
2C8
100
AcDbEntity
  8
M2
 62
     7
100
AcDbLine
 10
155.733792
 20
290.553061
 11
165.635094
 21
290.553061
  0
LINE
  5
2C9
100
AcDbEntity
  8
M2
100
AcDbLine
 10
226.533792
 20
228.653061
 11
226.533792
 21
223.653061
  0
ARC
  5
2CA
100
AcDbEntity
  8
M2
 62
     7
100
AcDbCircle
 10
226.033792
 20
223.653061
 40
0.5
100
AcDbArc
 50
270.0
 51
360.0
  0
LINE
  5
2CB
100
AcDbEntity
  8
M2
 62
     7
100
AcDbLine
 10
33.195874
 20
297.206752
 11
31.428296
 21
295.439174
  0
LINE
  5
2CC
100
AcDbEntity
  8
M2
 62
     7
100
AcDbLine
 10
37.985327
 20
280.667421
 11
36.217749
 21
278.899721
  0
LINE
  5
2CD
100
AcDbEntity
  8
M2
 62
     7
100
AcDbLine
 10
53.935327
 20
298.267421
 11
52.167749
 21
296.499721
  0
LINE
  5
2CE
100
AcDbEntity
  8
M2
 62
     7
100
AcDbLine
 10
33.372632
 20
295.262416
 11
30.190992
 21
298.444179
  0
LINE
  5
2CF
100
AcDbEntity
  8
M2
 62
     7
100
AcDbLine
 10
58.185327
 20
280.667421
 11
56.417749
 21
278.899721
  0
LINE
  5
2D0
100
AcDbEntity
  8
M2
 62
     7
100
AcDbLine
 10
48.085327
 20
280.667421
 11
46.317749
 21
278.899721
  0
LINE
  5
2D1
100
AcDbEntity
  8
M2
 62
     7
100
AcDbLine
 10
32.135327
 20
298.267421
 11
30.367749
 21
296.499721
  0
LINE
  5
2D2
100
AcDbEntity
  8
M2
 62
     7
100
AcDbLine
 10
49.145874
 20
279.606752
 11
47.378296
 21
277.839174
  0
LINE
  5
2D3
100
AcDbEntity
  8
M2
 62
     7
100
AcDbLine
 10
59.245874
 20
279.606752
 11
57.478296
 21
277.839174
  0
LINE
  5
2D4
100
AcDbEntity
  8
M2
 62
     7
100
AcDbLine
 10
39.045874
 20
279.606752
 11
37.278296
 21
277.839174
  0
LINE
  5
2D5
100
AcDbEntity
  8
M2
 62
     7
100
AcDbLine
 10
49.682048
 20
227.353061
 11
49.682048
 21
225.153061
  0
LINE
  5
2D6
100
AcDbEntity
  8
M2
 62
     7
100
AcDbLine
 10
48.432048
 20
225.153061
 11
49.932048
 21
225.153061
  0
ARC
  5
2D7
100
AcDbEntity
  8
M2
 62
     7
100
AcDbCircle
 10
47.932048
 20
224.153061
 40
1.0
100
AcDbArc
 50
180.0
 51
270.0
  0
LINE
  5
2D8
100
AcDbEntity
  8
M2
 62
     7
100
AcDbLine
 10
49.932048
 20
225.153061
 11
49.932048
 21
227.353061
  0
ARC
  5
2D9
100
AcDbEntity
  8
M2
 62
     7
100
AcDbCircle
 10
51.532048
 20
224.153061
 40
1.0
100
AcDbArc
 50
270.0
 51
360.0
  0
LINE
  5
2DA
100
AcDbEntity
  8
M2
 62
     7
100
AcDbLine
 10
46.932048
 20
224.153061
 11
46.932048
 21
227.353061
  0
LINE
  5
2DB
100
AcDbEntity
  8
M2
 62
     7
100
AcDbLine
 10
54.995874
 20
297.206752
 11
53.228296
 21
295.439174
  0
LINE
  5
2DC
100
AcDbEntity
  8
M2
 62
     7
100
AcDbLine
 10
52.532048
 20
226.158074
 11
52.532048
 21
224.153061
  0
LINE
  5
2DD
100
AcDbEntity
  8
M2
 62
     7
100
AcDbLine
 10
51.532048
 20
223.153061
 11
47.932048
 21
223.153061
  0
LINE
  5
2DE
100
AcDbEntity
  8
M2
 62
     7
100
AcDbLine
 10
27.885327
 20
280.667421
 11
26.117749
 21
278.899721
  0
LINE
  5
2DF
100
AcDbEntity
  8
M2
 62
     7
100
AcDbLine
 10
28.945874
 20
279.606752
 11
27.178296
 21
277.839174
  0
LINE
  5
2E0
100
AcDbEntity
  8
M2
 62
     7
100
AcDbLine
 10
37.985327
 20
238.867421
 11
36.217749
 21
237.099721
  0
LINE
  5
2E1
100
AcDbEntity
  8
M2
 62
     7
100
AcDbLine
 10
27.885327
 20
238.867421
 11
26.117749
 21
237.099721
  0
LINE
  5
2E2
100
AcDbEntity
  8
M2
 62
     7
100
AcDbLine
 10
28.945874
 20
237.806752
 11
27.178296
 21
236.039174
  0
LINE
  5
2E3
100
AcDbEntity
  8
M2
 62
     7
100
AcDbLine
 10
39.045874
 20
237.806752
 11
37.278296
 21
236.039174
  0
LINE
  5
2E4
100
AcDbEntity
  8
M2
 62
     7
100
AcDbLine
 10
48.085327
 20
238.867421
 11
46.317749
 21
237.099721
  0
LINE
  5
2E5
100
AcDbEntity
  8
M2
 62
     7
100
AcDbLine
 10
59.422632
 20
277.662416
 11
56.240992
 21
280.844179
  0
LINE
  5
2E6
100
AcDbEntity
  8
M2
 62
     7
100
AcDbLine
 10
49.145874
 20
237.806752
 11
47.378296
 21
236.039174
  0
LINE
  5
2E7
100
AcDbEntity
  8
M2
 62
     7
100
AcDbLine
 10
55.172632
 20
295.262416
 11
51.990992
 21
298.444179
  0
LINE
  5
2E8
100
AcDbEntity
  8
M2
 62
     7
100
AcDbLine
 10
29.122632
 20
277.662416
 11
25.940992
 21
280.844179
  0
LINE
  5
2E9
100
AcDbEntity
  8
M2
 62
     7
100
AcDbLine
 10
49.322632
 20
277.662416
 11
46.140992
 21
280.844179
  0
LINE
  5
2EA
100
AcDbEntity
  8
M2
 62
     7
100
AcDbLine
 10
29.122632
 20
235.862416
 11
25.940992
 21
239.044179
  0
LINE
  5
2EB
100
AcDbEntity
  8
M2
 62
     7
100
AcDbLine
 10
39.222632
 20
235.862416
 11
36.040992
 21
239.044179
  0
LINE
  5
2EC
100
AcDbEntity
  8
M2
 62
     7
100
AcDbLine
 10
48.432048
 20
227.353061
 11
48.432048
 21
225.153061
  0
LINE
  5
2ED
100
AcDbEntity
  8
M2
 62
     7
100
AcDbLine
 10
49.322632
 20
235.862416
 11
46.140992
 21
239.044179
  0
LINE
  5
2EE
100
AcDbEntity
  8
M2
 62
     7
100
AcDbLine
 10
58.185327
 20
238.867421
 11
56.417749
 21
237.099721
  0
LINE
  5
2EF
100
AcDbEntity
  8
M2
 62
     7
100
AcDbLine
 10
59.422632
 20
235.862416
 11
56.240992
 21
239.044179
  0
LINE
  5
2F0
100
AcDbEntity
  8
M2
 62
     7
100
AcDbLine
 10
59.245874
 20
237.806752
 11
57.478296
 21
236.039174
  0
LINE
  5
2F1
100
AcDbEntity
  8
M2
 62
     7
100
AcDbLine
 10
39.222632
 20
277.662416
 11
36.040992
 21
280.844179
  0
ARC
  5
2F2
100
AcDbEntity
  8
M2
 62
     7
100
AcDbCircle
 10
54.507048
 20
282.578061
 40
0.5
100
AcDbArc
 50
90.0
 51
180.0
  0
ARC
  5
2F3
100
AcDbEntity
  8
M2
 62
     7
100
AcDbCircle
 10
54.507048
 20
275.928061
 40
0.5
100
AcDbArc
 50
180.0
 51
270.0
  0
ARC
  5
2F4
100
AcDbEntity
  8
M2
 62
     7
100
AcDbCircle
 10
61.157048
 20
282.578061
 40
0.5
100
AcDbArc
 50
0.0
 51
90.0
  0
ARC
  5
2F5
100
AcDbEntity
  8
M2
 62
     7
100
AcDbCircle
 10
61.157048
 20
275.928061
 40
0.5
100
AcDbArc
 50
270.0
 51
360.0
  0
LINE
  5
2F6
100
AcDbEntity
  8
M2
 62
     7
100
AcDbLine
 10
54.007048
 20
282.578061
 11
54.007048
 21
275.928061
  0
LINE
  5
2F7
100
AcDbEntity
  8
M2
 62
     7
100
AcDbLine
 10
61.657048
 20
275.928061
 11
61.657048
 21
282.578061
  0
LINE
  5
2F8
100
AcDbEntity
  8
M2
 62
     7
100
AcDbLine
 10
54.507048
 20
275.428061
 11
61.157048
 21
275.428061
  0
LINE
  5
2F9
100
AcDbEntity
  8
M2
 62
     7
100
AcDbLine
 10
61.157048
 20
283.078061
 11
54.507048
 21
283.078061
  0
LINE
  5
2FA
100
AcDbEntity
  8
M2
  6
DASHDOT
 62
     7
100
AcDbLine
 10
57.332048
 20
279.253061
 11
58.332048
 21
279.253061
  0
LINE
  5
2FB
100
AcDbEntity
  8
M2
  6
DASHDOT
 62
     7
100
AcDbLine
 10
57.832048
 20
278.753061
 11
57.832048
 21
279.753061
  0
ARC
  5
2FC
100
AcDbEntity
  8
M2
 62
     7
100
AcDbCircle
 10
34.307048
 20
282.578061
 40
0.5
100
AcDbArc
 50
90.0
 51
180.0
  0
ARC
  5
2FD
100
AcDbEntity
  8
M2
 62
     7
100
AcDbCircle
 10
34.307048
 20
275.928061
 40
0.5
100
AcDbArc
 50
180.0
 51
270.0
  0
ARC
  5
2FE
100
AcDbEntity
  8
M2
 62
     7
100
AcDbCircle
 10
40.957048
 20
282.578061
 40
0.5
100
AcDbArc
 50
0.0
 51
90.0
  0
ARC
  5
2FF
100
AcDbEntity
  8
M2
 62
     7
100
AcDbCircle
 10
40.957048
 20
275.928061
 40
0.5
100
AcDbArc
 50
270.0
 51
360.0
  0
LINE
  5
300
100
AcDbEntity
  8
M2
 62
     7
100
AcDbLine
 10
33.807048
 20
282.578061
 11
33.807048
 21
275.928061
  0
LINE
  5
301
100
AcDbEntity
  8
M2
 62
     7
100
AcDbLine
 10
41.457048
 20
275.928061
 11
41.457048
 21
282.578061
  0
LINE
  5
302
100
AcDbEntity
  8
M2
 62
     7
100
AcDbLine
 10
34.307048
 20
275.428061
 11
40.957048
 21
275.428061
  0
LINE
  5
303
100
AcDbEntity
  8
M2
 62
     7
100
AcDbLine
 10
40.957048
 20
283.078061
 11
34.307048
 21
283.078061
  0
LINE
  5
304
100
AcDbEntity
  8
M2
  6
DASHDOT
 62
     7
100
AcDbLine
 10
37.132048
 20
279.253061
 11
38.132048
 21
279.253061
  0
LINE
  5
305
100
AcDbEntity
  8
M2
  6
DASHDOT
 62
     7
100
AcDbLine
 10
37.632048
 20
278.753061
 11
37.632048
 21
279.753061
  0
ARC
  5
306
100
AcDbEntity
  8
M2
 62
     7
100
AcDbCircle
 10
44.407048
 20
282.578061
 40
0.5
100
AcDbArc
 50
90.0
 51
180.0
  0
ARC
  5
307
100
AcDbEntity
  8
M2
 62
     7
100
AcDbCircle
 10
44.407048
 20
275.928061
 40
0.5
100
AcDbArc
 50
180.0
 51
270.0
  0
ARC
  5
308
100
AcDbEntity
  8
M2
 62
     7
100
AcDbCircle
 10
51.057048
 20
282.578061
 40
0.5
100
AcDbArc
 50
0.0
 51
90.0
  0
ARC
  5
309
100
AcDbEntity
  8
M2
 62
     7
100
AcDbCircle
 10
51.057048
 20
275.928061
 40
0.5
100
AcDbArc
 50
270.0
 51
360.0
  0
LINE
  5
30A
100
AcDbEntity
  8
M2
 62
     7
100
AcDbLine
 10
43.907048
 20
282.578061
 11
43.907048
 21
275.928061
  0
LINE
  5
30B
100
AcDbEntity
  8
M2
 62
     7
100
AcDbLine
 10
51.557048
 20
275.928061
 11
51.557048
 21
282.578061
  0
LINE
  5
30C
100
AcDbEntity
  8
M2
 62
     7
100
AcDbLine
 10
44.407048
 20
275.428061
 11
51.057048
 21
275.428061
  0
LINE
  5
30D
100
AcDbEntity
  8
M2
 62
     7
100
AcDbLine
 10
51.057048
 20
283.078061
 11
44.407048
 21
283.078061
  0
LINE
  5
30E
100
AcDbEntity
  8
M2
  6
DASHDOT
 62
     7
100
AcDbLine
 10
47.232048
 20
279.253061
 11
48.232048
 21
279.253061
  0
LINE
  5
30F
100
AcDbEntity
  8
M2
  6
DASHDOT
 62
     7
100
AcDbLine
 10
47.732048
 20
278.753061
 11
47.732048
 21
279.753061
  0
LINE
  5
310
100
AcDbEntity
  8
M2
 62
     7
100
AcDbLine
 10
35.607048
 20
299.478061
 11
34.407048
 21
300.678061
  0
ARC
  5
311
100
AcDbEntity
  8
M2
 62
     7
100
AcDbCircle
 10
28.457048
 20
300.178061
 40
0.5
100
AcDbArc
 50
90.0
 51
180.0
  0
ARC
  5
312
100
AcDbEntity
  8
M2
 62
     7
100
AcDbCircle
 10
28.457048
 20
293.528061
 40
0.5
100
AcDbArc
 50
180.0
 51
270.0
  0
ARC
  5
313
100
AcDbEntity
  8
M2
 62
     7
100
AcDbCircle
 10
35.107048
 20
300.178061
 40
0.5
100
AcDbArc
 50
0.0
 51
90.0
  0
ARC
  5
314
100
AcDbEntity
  8
M2
 62
     7
100
AcDbCircle
 10
35.107048
 20
293.528061
 40
0.5
100
AcDbArc
 50
270.0
 51
360.0
  0
CIRCLE
  5
315
100
AcDbEntity
  8
M2
 62
     7
100
AcDbCircle
 10
31.782048
 20
296.853061
 40
3.0
  0
LINE
  5
316
100
AcDbEntity
  8
M2
 62
     7
100
AcDbLine
 10
27.957048
 20
300.178061
 11
27.957048
 21
293.528061
  0
LINE
  5
317
100
AcDbEntity
  8
M2
 62
     7
100
AcDbLine
 10
35.607048
 20
293.528061
 11
35.607048
 21
300.178061
  0
LINE
  5
318
100
AcDbEntity
  8
M2
 62
     7
100
AcDbLine
 10
28.457048
 20
293.028061
 11
35.107048
 21
293.028061
  0
LINE
  5
319
100
AcDbEntity
  8
M2
 62
     7
100
AcDbLine
 10
35.107048
 20
300.678061
 11
28.457048
 21
300.678061
  0
LINE
  5
31A
100
AcDbEntity
  8
M2
  6
DASHDOT
 62
     7
100
AcDbLine
 10
31.282048
 20
296.853061
 11
32.282048
 21
296.853061
  0
LINE
  5
31B
100
AcDbEntity
  8
M2
  6
DASHDOT
 62
     7
100
AcDbLine
 10
31.782048
 20
296.353061
 11
31.782048
 21
297.353061
  0
ARC
  5
31C
100
AcDbEntity
  8
M2
 62
     7
100
AcDbCircle
 10
24.207048
 20
282.578061
 40
0.5
100
AcDbArc
 50
90.0
 51
180.0
  0
ARC
  5
31D
100
AcDbEntity
  8
M2
 62
     7
100
AcDbCircle
 10
24.207048
 20
275.928061
 40
0.5
100
AcDbArc
 50
180.0
 51
270.0
  0
ARC
  5
31E
100
AcDbEntity
  8
M2
 62
     7
100
AcDbCircle
 10
30.857048
 20
282.578061
 40
0.5
100
AcDbArc
 50
0.0
 51
90.0
  0
ARC
  5
31F
100
AcDbEntity
  8
M2
 62
     7
100
AcDbCircle
 10
30.857048
 20
275.928061
 40
0.5
100
AcDbArc
 50
270.0
 51
360.0
  0
LINE
  5
320
100
AcDbEntity
  8
M2
 62
     7
100
AcDbLine
 10
23.707048
 20
282.578061
 11
23.707048
 21
275.928061
  0
LINE
  5
321
100
AcDbEntity
  8
M2
 62
     7
100
AcDbLine
 10
31.357048
 20
275.928061
 11
31.357048
 21
282.578061
  0
LINE
  5
322
100
AcDbEntity
  8
M2
 62
     7
100
AcDbLine
 10
24.207048
 20
275.428061
 11
30.857048
 21
275.428061
  0
LINE
  5
323
100
AcDbEntity
  8
M2
 62
     7
100
AcDbLine
 10
30.857048
 20
283.078061
 11
24.207048
 21
283.078061
  0
LINE
  5
324
100
AcDbEntity
  8
M2
  6
DASHDOT
 62
     7
100
AcDbLine
 10
27.032048
 20
279.253061
 11
28.032048
 21
279.253061
  0
LINE
  5
325
100
AcDbEntity
  8
M2
  6
DASHDOT
 62
     7
100
AcDbLine
 10
27.532048
 20
278.753061
 11
27.532048
 21
279.753061
  0
ARC
  5
326
100
AcDbEntity
  8
M2
 62
     7
100
AcDbCircle
 10
50.257048
 20
300.178061
 40
0.5
100
AcDbArc
 50
90.0
 51
180.0
  0
ARC
  5
327
100
AcDbEntity
  8
M2
 62
     7
100
AcDbCircle
 10
50.257048
 20
293.528061
 40
0.5
100
AcDbArc
 50
180.0
 51
270.0
  0
ARC
  5
328
100
AcDbEntity
  8
M2
 62
     7
100
AcDbCircle
 10
56.907048
 20
300.178061
 40
0.5
100
AcDbArc
 50
0.0
 51
90.0
  0
ARC
  5
329
100
AcDbEntity
  8
M2
 62
     7
100
AcDbCircle
 10
56.907048
 20
293.528061
 40
0.5
100
AcDbArc
 50
270.0
 51
360.0
  0
LINE
  5
32A
100
AcDbEntity
  8
M2
 62
     7
100
AcDbLine
 10
49.757048
 20
300.178061
 11
49.757048
 21
293.528061
  0
LINE
  5
32B
100
AcDbEntity
  8
M2
 62
     7
100
AcDbLine
 10
57.407048
 20
293.528061
 11
57.407048
 21
300.178061
  0
LINE
  5
32C
100
AcDbEntity
  8
M2
 62
     7
100
AcDbLine
 10
50.257048
 20
293.028061
 11
56.907048
 21
293.028061
  0
LINE
  5
32D
100
AcDbEntity
  8
M2
 62
     7
100
AcDbLine
 10
56.907048
 20
300.678061
 11
50.257048
 21
300.678061
  0
LINE
  5
32E
100
AcDbEntity
  8
M2
  6
DASHDOT
 62
     7
100
AcDbLine
 10
53.082048
 20
296.853061
 11
54.082048
 21
296.853061
  0
LINE
  5
32F
100
AcDbEntity
  8
M2
  6
DASHDOT
 62
     7
100
AcDbLine
 10
53.582048
 20
296.353061
 11
53.582048
 21
297.353061
  0
ARC
  5
330
100
AcDbEntity
  8
M2
 62
     7
100
AcDbCircle
 10
54.507048
 20
240.778061
 40
0.5
100
AcDbArc
 50
90.0
 51
180.0
  0
ARC
  5
331
100
AcDbEntity
  8
M2
 62
     7
100
AcDbCircle
 10
54.507048
 20
234.128061
 40
0.5
100
AcDbArc
 50
180.0
 51
270.0
  0
ARC
  5
332
100
AcDbEntity
  8
M2
 62
     7
100
AcDbCircle
 10
61.157048
 20
240.778061
 40
0.5
100
AcDbArc
 50
0.0
 51
90.0
  0
ARC
  5
333
100
AcDbEntity
  8
M2
 62
     7
100
AcDbCircle
 10
61.157048
 20
234.128061
 40
0.5
100
AcDbArc
 50
270.0
 51
360.0
  0
CIRCLE
  5
334
100
AcDbEntity
  8
M2
 62
     7
100
AcDbCircle
 10
57.832048
 20
237.453061
 40
3.0
  0
LINE
  5
335
100
AcDbEntity
  8
M2
 62
     7
100
AcDbLine
 10
54.007048
 20
240.778061
 11
54.007048
 21
234.128061
  0
LINE
  5
336
100
AcDbEntity
  8
M2
 62
     7
100
AcDbLine
 10
61.657048
 20
234.128061
 11
61.657048
 21
240.778061
  0
LINE
  5
337
100
AcDbEntity
  8
M2
 62
     7
100
AcDbLine
 10
54.507048
 20
233.628061
 11
61.157048
 21
233.628061
  0
LINE
  5
338
100
AcDbEntity
  8
M2
 62
     7
100
AcDbLine
 10
61.157048
 20
241.278061
 11
54.507048
 21
241.278061
  0
LINE
  5
339
100
AcDbEntity
  8
M2
  6
DASHDOT
 62
     7
100
AcDbLine
 10
57.332048
 20
237.453061
 11
58.332048
 21
237.453061
  0
LINE
  5
33A
100
AcDbEntity
  8
M2
  6
DASHDOT
 62
     7
100
AcDbLine
 10
57.832048
 20
236.953061
 11
57.832048
 21
237.953061
  0
ARC
  5
33B
100
AcDbEntity
  8
M2
 62
     7
100
AcDbCircle
 10
44.407048
 20
240.778061
 40
0.5
100
AcDbArc
 50
90.0
 51
180.0
  0
ARC
  5
33C
100
AcDbEntity
  8
M2
 62
     7
100
AcDbCircle
 10
44.407048
 20
234.128061
 40
0.5
100
AcDbArc
 50
180.0
 51
270.0
  0
ARC
  5
33D
100
AcDbEntity
  8
M2
 62
     7
100
AcDbCircle
 10
51.057048
 20
240.778061
 40
0.5
100
AcDbArc
 50
0.0
 51
90.0
  0
ARC
  5
33E
100
AcDbEntity
  8
M2
 62
     7
100
AcDbCircle
 10
51.057048
 20
234.128061
 40
0.5
100
AcDbArc
 50
270.0
 51
360.0
  0
LINE
  5
33F
100
AcDbEntity
  8
M2
 62
     7
100
AcDbLine
 10
43.907048
 20
240.778061
 11
43.907048
 21
234.128061
  0
LINE
  5
340
100
AcDbEntity
  8
M2
 62
     7
100
AcDbLine
 10
51.557048
 20
234.128061
 11
51.557048
 21
240.778061
  0
LINE
  5
341
100
AcDbEntity
  8
M2
 62
     7
100
AcDbLine
 10
44.407048
 20
233.628061
 11
51.057048
 21
233.628061
  0
LINE
  5
342
100
AcDbEntity
  8
M2
 62
     7
100
AcDbLine
 10
51.057048
 20
241.278061
 11
44.407048
 21
241.278061
  0
LINE
  5
343
100
AcDbEntity
  8
M2
  6
DASHDOT
 62
     7
100
AcDbLine
 10
47.232048
 20
237.453061
 11
48.232048
 21
237.453061
  0
LINE
  5
344
100
AcDbEntity
  8
M2
  6
DASHDOT
 62
     7
100
AcDbLine
 10
47.732048
 20
236.953061
 11
47.732048
 21
237.953061
  0
ARC
  5
345
100
AcDbEntity
  8
M2
 62
     7
100
AcDbCircle
 10
34.307048
 20
240.778061
 40
0.5
100
AcDbArc
 50
90.0
 51
180.0
  0
ARC
  5
346
100
AcDbEntity
  8
M2
 62
     7
100
AcDbCircle
 10
34.307048
 20
234.128061
 40
0.5
100
AcDbArc
 50
180.0
 51
270.0
  0
ARC
  5
347
100
AcDbEntity
  8
M2
 62
     7
100
AcDbCircle
 10
40.957048
 20
240.778061
 40
0.5
100
AcDbArc
 50
0.0
 51
90.0
  0
ARC
  5
348
100
AcDbEntity
  8
M2
 62
     7
100
AcDbCircle
 10
40.957048
 20
234.128061
 40
0.5
100
AcDbArc
 50
270.0
 51
360.0
  0
LINE
  5
349
100
AcDbEntity
  8
M2
 62
     7
100
AcDbLine
 10
33.807048
 20
240.778061
 11
33.807048
 21
234.128061
  0
LINE
  5
34A
100
AcDbEntity
  8
M2
 62
     7
100
AcDbLine
 10
41.457048
 20
234.128061
 11
41.457048
 21
240.778061
  0
LINE
  5
34B
100
AcDbEntity
  8
M2
 62
     7
100
AcDbLine
 10
34.307048
 20
233.628061
 11
40.957048
 21
233.628061
  0
LINE
  5
34C
100
AcDbEntity
  8
M2
 62
     7
100
AcDbLine
 10
40.957048
 20
241.278061
 11
34.307048
 21
241.278061
  0
LINE
  5
34D
100
AcDbEntity
  8
M2
  6
DASHDOT
 62
     7
100
AcDbLine
 10
37.132048
 20
237.453061
 11
38.132048
 21
237.453061
  0
LINE
  5
34E
100
AcDbEntity
  8
M2
  6
DASHDOT
 62
     7
100
AcDbLine
 10
37.632048
 20
236.953061
 11
37.632048
 21
237.953061
  0
ARC
  5
34F
100
AcDbEntity
  8
M2
 62
     7
100
AcDbCircle
 10
24.207048
 20
240.778061
 40
0.5
100
AcDbArc
 50
90.0
 51
180.0
  0
ARC
  5
350
100
AcDbEntity
  8
M2
 62
     7
100
AcDbCircle
 10
24.207048
 20
234.128061
 40
0.5
100
AcDbArc
 50
180.0
 51
270.0
  0
ARC
  5
351
100
AcDbEntity
  8
M2
 62
     7
100
AcDbCircle
 10
30.857048
 20
240.778061
 40
0.5
100
AcDbArc
 50
0.0
 51
90.0
  0
ARC
  5
352
100
AcDbEntity
  8
M2
 62
     7
100
AcDbCircle
 10
30.857048
 20
234.128061
 40
0.5
100
AcDbArc
 50
270.0
 51
360.0
  0
LINE
  5
353
100
AcDbEntity
  8
M2
 62
     7
100
AcDbLine
 10
23.707048
 20
240.778061
 11
23.707048
 21
234.128061
  0
LINE
  5
354
100
AcDbEntity
  8
M2
 62
     7
100
AcDbLine
 10
31.357048
 20
234.128061
 11
31.357048
 21
240.778061
  0
LINE
  5
355
100
AcDbEntity
  8
M2
 62
     7
100
AcDbLine
 10
24.207048
 20
233.628061
 11
30.857048
 21
233.628061
  0
LINE
  5
356
100
AcDbEntity
  8
M2
 62
     7
100
AcDbLine
 10
30.857048
 20
241.278061
 11
24.207048
 21
241.278061
  0
LINE
  5
357
100
AcDbEntity
  8
M2
  6
DASHDOT
 62
     7
100
AcDbLine
 10
27.032048
 20
237.453061
 11
28.032048
 21
237.453061
  0
LINE
  5
358
100
AcDbEntity
  8
M2
  6
DASHDOT
 62
     7
100
AcDbLine
 10
27.532048
 20
236.953061
 11
27.532048
 21
237.953061
  0
CIRCLE
  5
359
100
AcDbEntity
  8
M2
 62
     7
100
AcDbCircle
 10
37.632048
 20
225.853061
 40
2.65
  0
CIRCLE
  5
35A
100
AcDbEntity
  8
M2
 62
     7
100
AcDbCircle
 10
42.682048
 20
296.453061
 40
2.65
  0
LINE
  5
35B
100
AcDbEntity
  8
M2
 62
     7
100
AcDbLine
 10
43.882048
 20
296.003061
 11
43.882048
 21
296.903061
  0
LINE
  5
35C
100
AcDbEntity
  8
M2
 62
     7
100
AcDbLine
 10
36.432048
 20
225.403061
 11
36.432048
 21
226.303061
  0
LINE
  5
35D
100
AcDbEntity
  8
M2
 62
     7
100
AcDbLine
 10
41.482048
 20
296.003061
 11
41.482048
 21
296.903061
  0
LINE
  5
35E
100
AcDbEntity
  8
M2
 62
     7
100
AcDbLine
 10
38.832048
 20
225.403061
 11
38.832048
 21
226.303061
  0
LINE
  5
35F
100
AcDbEntity
  8
M2
  6
DASHDOT
 62
     7
100
AcDbLine
 10
6.682048
 20
258.353061
 11
78.682048
 21
258.353061
  0
LINE
  5
360
100
AcDbEntity
  8
M2
 62
     7
100
AcDbLine
 10
64.182048
 20
290.053061
 11
64.182048
 21
228.553061
  0
LINE
  5
361
100
AcDbEntity
  8
M2
 62
     7
100
AcDbLine
 10
21.182048
 20
228.553061
 11
21.182048
 21
289.053061
  0
LINE
  5
362
100
AcDbEntity
  8
M2
 62
     7
100
AcDbLine
 10
60.432048
 20
232.653061
 11
60.432048
 21
232.253061
  0
LINE
  5
363
100
AcDbEntity
  8
M2
 62
     7
100
AcDbLine
 10
57.532048
 20
223.553061
 11
59.182048
 21
223.553061
  0
LINE
  5
364
100
AcDbEntity
  8
M2
 62
     7
100
AcDbLine
 10
31.478109
 20
223.553061
 11
26.182048
 21
223.553061
  0
LINE
  5
365
100
AcDbEntity
  8
M2
 62
     7
100
AcDbLine
 10
31.432048
 20
227.853061
 11
28.432048
 21
227.853061
  0
LINE
  5
366
100
AcDbEntity
  8
M2
 62
     7
100
AcDbLine
 10
55.932048
 20
232.253061
 11
55.932048
 21
232.653061
  0
LINE
  5
367
100
AcDbEntity
  8
M2
 62
     7
100
AcDbLine
 10
28.432048
 20
227.853061
 11
28.432048
 21
224.053061
  0
LINE
  5
368
100
AcDbEntity
  8
M2
 62
     7
100
AcDbLine
 10
22.932048
 20
287.253061
 11
22.932048
 21
287.107
  0
ARC
  5
369
100
AcDbEntity
  8
M2
 62
     7
100
AcDbCircle
 10
60.182048
 20
290.053061
 40
4.0
100
AcDbArc
 50
0.0
 51
97.180756
  0
ARC
  5
36A
100
AcDbEntity
  8
M2
 62
     7
100
AcDbCircle
 10
60.182048
 20
290.053061
 40
2.25
100
AcDbArc
 50
257.160412
 51
462.839588
  0
LINE
  5
36B
100
AcDbEntity
  8
M2
 62
     7
100
AcDbLine
 10
27.482048
 20
301.253061
 11
35.782048
 21
301.253061
  0
LINE
  5
36C
100
AcDbEntity
  8
M2
 62
     7
100
AcDbLine
 10
57.082048
 20
301.253061
 11
57.882048
 21
301.253061
  0
LINE
  5
36D
100
AcDbEntity
  8
M2
 62
     7
100
AcDbLine
 10
25.682048
 20
289.253061
 11
25.682048
 21
289.153061
  0
CIRCLE
  5
36E
100
AcDbEntity
  8
M2
 62
     7
100
AcDbCircle
 10
37.632048
 20
225.853061
 40
2.85
  0
LINE
  5
36F
100
AcDbEntity
  8
M2
 62
     7
100
AcDbLine
 10
25.682048
 20
292.853061
 11
25.682048
 21
292.753061
  0
LINE
  5
370
100
AcDbEntity
  8
M2
 62
     7
100
AcDbLine
 10
59.682048
 20
289.153061
 11
59.682048
 21
289.253061
  0
LINE
  5
371
100
AcDbEntity
  8
M2
 62
     7
100
AcDbLine
 10
59.682048
 20
292.753061
 11
59.682048
 21
292.853061
  0
LINE
  5
372
100
AcDbEntity
  8
M2
 62
     7
100
AcDbLine
 10
57.882048
 20
302.153061
 11
57.882048
 21
292.753061
  0
LINE
  5
373
100
AcDbEntity
  8
M2
 62
     7
100
AcDbLine
 10
27.482048
 20
292.753061
 11
27.482048
 21
292.853061
  0
LINE
  5
374
100
AcDbEntity
  8
M2
 62
     7
100
AcDbLine
 10
38.082048
 20
226.303061
 11
38.082048
 21
227.053061
  0
ARC
  5
375
100
AcDbEntity
  8
M2
 62
     7
100
AcDbCircle
 10
26.882048
 20
302.153061
 40
0.6
100
AcDbArc
 50
0.0
 51
90.0
  0
LINE
  5
376
100
AcDbEntity
  8
M2
 62
     7
100
AcDbLine
 10
36.432048
 20
226.303061
 11
37.182048
 21
226.303061
  0
LINE
  5
377
100
AcDbEntity
  8
M2
 62
     7
100
AcDbLine
 10
37.182048
 20
227.053061
 11
37.182048
 21
226.303061
  0
LINE
  5
378
100
AcDbEntity
  8
M2
 62
     7
100
AcDbLine
 10
38.082048
 20
226.303061
 11
38.832048
 21
226.303061
  0
ARC
  5
379
100
AcDbEntity
  8
M2
 62
     7
100
AcDbCircle
 10
58.482048
 20
302.153061
 40
0.6
100
AcDbArc
 50
90.0
 51
180.0
  0
LINE
  5
37A
100
AcDbEntity
  8
M2
 62
     7
100
AcDbLine
 10
38.082048
 20
227.053061
 11
37.182048
 21
227.053061
  0
ARC
  5
37B
100
AcDbEntity
  8
M2
 62
     7
100
AcDbCircle
 10
26.282048
 20
302.153061
 40
0.6
100
AcDbArc
 50
90.0
 51
180.0
  0
ARC
  5
37C
100
AcDbEntity
  8
M2
 62
     7
100
AcDbCircle
 10
47.682048
 20
224.853061
 40
2.0
100
AcDbArc
 50
270.0
 51
301.788331
  0
ARC
  5
37D
100
AcDbEntity
  8
M2
 62
     7
100
AcDbCircle
 10
59.082048
 20
302.153061
 40
0.6
100
AcDbArc
 50
0.0
 51
90.0
  0
LINE
  5
37E
100
AcDbEntity
  8
M2
 62
     7
100
AcDbLine
 10
38.082048
 20
224.653061
 11
38.082048
 21
225.403061
  0
LINE
  5
37F
100
AcDbEntity
  8
M2
 62
     7
100
AcDbLine
 10
37.182048
 20
225.403061
 11
36.432048
 21
225.403061
  0
LINE
  5
380
100
AcDbEntity
  8
M2
 62
     7
100
AcDbLine
 10
37.182048
 20
224.653061
 11
38.082048
 21
224.653061
  0
LINE
  5
381
100
AcDbEntity
  8
M2
 62
     7
100
AcDbLine
 10
37.182048
 20
225.403061
 11
37.182048
 21
224.653061
  0
ARC
  5
382
100
AcDbEntity
  8
M2
 62
     7
100
AcDbCircle
 10
60.182048
 20
235.253061
 40
2.25
100
AcDbArc
 50
286.791447
 51
313.542219
  0
ARC
  5
383
100
AcDbEntity
  8
M2
 62
     7
100
AcDbCircle
 10
25.182048
 20
230.053061
 40
2.25
100
AcDbArc
 50
191.257189
 51
493.542219
  0
ARC
  5
384
100
AcDbEntity
  8
M2
 62
     7
100
AcDbCircle
 10
58.182048
 20
232.253061
 40
2.25
100
AcDbArc
 50
180.0
 51
360.0
  0
ARC
  5
385
100
AcDbEntity
  8
M2
 62
     7
100
AcDbCircle
 10
25.182048
 20
287.253061
 40
2.25
100
AcDbArc
 50
77.160412
 51
180.0
  0
ARC
  5
386
100
AcDbEntity
  8
M2
 62
     7
100
AcDbCircle
 10
26.182048
 20
289.053061
 40
5.0
100
AcDbArc
 50
95.73917
 51
180.0
  0
LINE
  5
387
100
AcDbEntity
  8
M2
 62
     7
100
AcDbLine
 10
38.832048
 20
225.403061
 11
38.082048
 21
225.403061
  0
ARC
  5
388
100
AcDbEntity
  8
M2
 62
     7
100
AcDbCircle
 10
27.932048
 20
224.053061
 40
0.5
100
AcDbArc
 50
270.0
 51
360.0
  0
ARC
  5
389
100
AcDbEntity
  8
M2
 62
     7
100
AcDbCircle
 10
59.182048
 20
228.553061
 40
5.0
100
AcDbArc
 50
270.0
 51
360.0
  0
LINE
  5
38A
100
AcDbEntity
  8
M2
 62
     7
100
AcDbLine
 10
59.682048
 20
299.753061
 11
59.682048
 21
302.153061
  0
LINE
  5
38B
100
AcDbEntity
  8
M2
 62
     7
100
AcDbLine
 10
58.482048
 20
302.753061
 11
59.082048
 21
302.753061
  0
LINE
  5
38C
100
AcDbEntity
  8
M2
 62
     7
100
AcDbLine
 10
26.282048
 20
302.753061
 11
26.882048
 21
302.753061
  0
LINE
  5
38D
100
AcDbEntity
  8
M2
 62
     7
100
AcDbLine
 10
47.682048
 20
222.853061
 11
32.732048
 21
222.853061
  0
LINE
  5
38E
100
AcDbEntity
  8
M2
 62
     7
100
AcDbLine
 10
59.682048
 20
299.753061
 11
59.682048
 21
292.853061
  0
LINE
  5
38F
100
AcDbEntity
  8
M2
 62
     7
100
AcDbLine
 10
43.832048
 20
224.853061
 11
46.932048
 21
224.853061
  0
LINE
  5
390
100
AcDbEntity
  8
M2
 62
     7
100
AcDbLine
 10
27.482048
 20
292.753061
 11
27.482048
 21
302.153061
  0
LINE
  5
391
100
AcDbEntity
  8
M2
 62
     7
100
AcDbLine
 10
26.482048
 20
262.003061
 11
26.482048
 21
260.753061
  0
LINE
  5
392
100
AcDbEntity
  8
M2
 62
     7
100
AcDbLine
 10
26.682048
 20
260.753061
 11
26.482048
 21
260.753061
  0
LINE
  5
393
100
AcDbEntity
  8
M2
 62
     7
100
AcDbLine
 10
26.482048
 20
255.753061
 11
26.482048
 21
254.703061
  0
LINE
  5
394
100
AcDbEntity
  8
M2
 62
     7
100
AcDbLine
 10
26.482048
 20
255.753061
 11
26.682048
 21
255.753061
  0
LINE
  5
395
100
AcDbEntity
  8
M2
 62
     7
100
AcDbLine
 10
26.399993
 20
254.653061
 11
23.482048
 21
254.653061
  0
LINE
  5
396
100
AcDbEntity
  8
M2
 62
     7
100
AcDbLine
 10
23.132048
 20
264.453061
 11
23.282048
 21
264.453061
  0
LINE
  5
397
100
AcDbEntity
  8
M2
 62
     7
100
AcDbLine
 10
23.282048
 20
267.253061
 11
23.132048
 21
267.253061
  0
LINE
  5
398
100
AcDbEntity
  8
M2
 62
     7
100
AcDbLine
 10
22.632048
 20
229.553061
 11
22.182048
 21
229.553061
  0
ARC
  5
399
100
AcDbEntity
  8
M2
 62
     7
100
AcDbCircle
 10
52.932048
 20
227.153061
 40
1.0
100
AcDbArc
 50
270.0
 51
360.0
  0
ARC
  5
39A
100
AcDbEntity
  8
M2
 62
     7
100
AcDbCircle
 10
32.732048
 20
227.153061
 40
1.0
100
AcDbArc
 50
270.0
 51
360.0
  0
ARC
  5
39B
100
AcDbEntity
  8
M2
 62
     7
100
AcDbCircle
 10
42.832048
 20
227.153061
 40
1.0
100
AcDbArc
 50
270.0
 51
360.0
  0
ARC
  5
39C
100
AcDbEntity
  8
M2
 62
     7
100
AcDbCircle
 10
32.432048
 20
227.153061
 40
1.0
100
AcDbArc
 50
180.0
 51
270.0
  0
LINE
  5
39D
100
AcDbEntity
  8
M2
 62
     7
100
AcDbLine
 10
23.482048
 20
254.653061
 11
23.482048
 21
262.053061
  0
LINE
  5
39E
100
AcDbEntity
  8
M2
 62
     7
100
AcDbLine
 10
22.182048
 20
254.653061
 11
22.182048
 21
262.053061
  0
LINE
  5
39F
100
AcDbEntity
  8
M2
 62
     7
100
AcDbLine
 10
23.482048
 20
262.053061
 11
26.399993
 21
262.053061
  0
LINE
  5
3A0
100
AcDbEntity
  8
M2
 62
     7
100
AcDbLine
 10
61.732048
 20
230.553061
 11
61.732048
 21
241.653061
  0
LINE
  5
3A1
100
AcDbEntity
  8
M2
 62
     7
100
AcDbLine
 10
63.182048
 20
229.553061
 11
62.732048
 21
229.553061
  0
LINE
  5
3A2
100
AcDbEntity
  8
M2
 62
     7
100
AcDbLine
 10
47.582048
 20
269.353061
 11
47.732048
 21
269.353061
  0
LINE
  5
3A3
100
AcDbEntity
  8
M2
 62
     7
100
AcDbLine
 10
62.129417
 20
264.453061
 11
62.129417
 21
267.253061
  0
LINE
  5
3A4
100
AcDbEntity
  8
M2
 62
     7
100
AcDbLine
 10
37.782048
 20
269.353061
 11
37.632048
 21
269.353061
  0
LINE
  5
3A5
100
AcDbEntity
  8
M2
 62
     7
100
AcDbLine
 10
58.682048
 20
255.753061
 11
58.882048
 21
255.753061
  0
LINE
  5
3A6
100
AcDbEntity
  8
M2
 62
     7
100
AcDbLine
 10
58.882048
 20
255.753061
 11
58.882048
 21
254.703061
  0
LINE
  5
3A7
100
AcDbEntity
  8
M2
 62
     7
100
AcDbLine
 10
58.882048
 20
260.753061
 11
58.682048
 21
260.753061
  0
LINE
  5
3A8
100
AcDbEntity
  8
M2
 62
     7
100
AcDbLine
 10
31.432048
 20
286.553061
 11
31.432048
 21
289.553061
  0
LINE
  5
3A9
100
AcDbEntity
  8
M2
 62
     7
100
AcDbLine
 10
62.232048
 20
267.253061
 11
62.082048
 21
267.253061
  0
LINE
  5
3AA
100
AcDbEntity
  8
M2
 62
     7
100
AcDbLine
 10
63.182048
 20
254.653061
 11
63.182048
 21
262.053061
  0
LINE
  5
3AB
100
AcDbEntity
  8
M2
 62
     7
100
AcDbLine
 10
58.882048
 20
262.003061
 11
58.882048
 21
260.753061
  0
LINE
  5
3AC
100
AcDbEntity
  8
M2
 62
     7
100
AcDbLine
 10
23.23468
 20
264.453061
 11
23.23468
 21
267.253061
  0
LINE
  5
3AD
100
AcDbEntity
  8
M2
 62
     7
100
AcDbLine
 10
61.882048
 20
262.053061
 11
58.964103
 21
262.053061
  0
LINE
  5
3AE
100
AcDbEntity
  8
M2
 62
     7
100
AcDbLine
 10
58.964103
 20
254.653061
 11
61.882048
 21
254.653061
  0
LINE
  5
3AF
100
AcDbEntity
  8
M2
 62
     7
100
AcDbLine
 10
61.882048
 20
254.653061
 11
61.882048
 21
262.053061
  0
LINE
  5
3B0
100
AcDbEntity
  8
M2
 62
     7
100
AcDbLine
 10
62.082048
 20
264.453061
 11
62.232048
 21
264.453061
  0
LINE
  5
3B1
100
AcDbEntity
  8
M2
 62
     7
100
AcDbLine
 10
42.632048
 20
226.153061
 11
42.532048
 21
226.153061
  0
LINE
  5
3B2
100
AcDbEntity
  8
M2
 62
     7
100
AcDbLine
 10
42.732048
 20
226.153061
 11
42.632048
 21
226.153061
  0
LINE
  5
3B3
100
AcDbEntity
  8
M2
 62
     7
100
AcDbLine
 10
52.732048
 20
226.153061
 11
52.632048
 21
226.153061
  0
LINE
  5
3B4
100
AcDbEntity
  8
M2
 62
     7
100
AcDbLine
 10
42.832048
 20
226.153061
 11
42.732048
 21
226.153061
  0
LINE
  5
3B5
100
AcDbEntity
  8
M2
 62
     7
100
AcDbLine
 10
52.932048
 20
226.153061
 11
52.732048
 21
226.153061
  0
LINE
  5
3B6
100
AcDbEntity
  8
M2
 62
     7
100
AcDbLine
 10
43.832048
 20
275.053061
 11
43.832048
 21
289.553061
  0
LINE
  5
3B7
100
AcDbEntity
  8
M2
 62
     7
100
AcDbLine
 10
53.932048
 20
275.053061
 11
53.932048
 21
289.553061
  0
LINE
  5
3B8
100
AcDbEntity
  8
M2
 62
     7
100
AcDbLine
 10
42.532048
 20
240.153061
 11
42.832048
 21
240.153061
  0
LINE
  5
3B9
100
AcDbEntity
  8
M2
 62
     7
100
AcDbLine
 10
51.632048
 20
227.153061
 11
51.632048
 21
241.653061
  0
LINE
  5
3BA
100
AcDbEntity
  8
M2
 62
     7
100
AcDbLine
 10
32.632048
 20
226.153061
 11
32.432048
 21
226.153061
  0
LINE
  5
3BB
100
AcDbEntity
  8
M2
 62
     7
100
AcDbLine
 10
32.732048
 20
226.153061
 11
32.632048
 21
226.153061
  0
LINE
  5
3BC
100
AcDbEntity
  8
M2
 62
     7
100
AcDbLine
 10
53.932048
 20
241.653061
 11
53.932048
 21
227.153061
  0
ARC
  5
3BD
100
AcDbEntity
  8
M2
 62
     7
100
AcDbCircle
 10
42.832048
 20
239.153061
 40
1.0
100
AcDbArc
 50
0.0
 51
90.0
  0
ARC
  5
3BE
100
AcDbEntity
  8
M2
 62
     7
100
AcDbCircle
 10
32.732048
 20
239.153061
 40
1.0
100
AcDbArc
 50
0.0
 51
90.0
  0
ARC
  5
3BF
100
AcDbEntity
  8
M2
 62
     7
100
AcDbCircle
 10
32.432048
 20
277.553061
 40
1.0
100
AcDbArc
 50
180.0
 51
270.0
  0
ARC
  5
3C0
100
AcDbEntity
  8
M2
 62
     7
100
AcDbCircle
 10
42.832048
 20
277.553061
 40
1.0
100
AcDbArc
 50
270.0
 51
360.0
  0
ARC
  5
3C1
100
AcDbEntity
  8
M2
 62
     7
100
AcDbCircle
 10
42.532048
 20
277.553061
 40
1.0
100
AcDbArc
 50
180.0
 51
270.0
  0
ARC
  5
3C2
100
AcDbEntity
  8
M2
 62
     7
100
AcDbCircle
 10
52.632048
 20
277.553061
 40
1.0
100
AcDbArc
 50
180.0
 51
270.0
  0
ARC
  5
3C3
100
AcDbEntity
  8
M2
 62
     7
100
AcDbCircle
 10
42.532048
 20
227.153061
 40
1.0
100
AcDbArc
 50
180.0
 51
270.0
  0
ARC
  5
3C4
100
AcDbEntity
  8
M2
 62
     7
100
AcDbCircle
 10
52.632048
 20
227.153061
 40
1.0
100
AcDbArc
 50
180.0
 51
270.0
  0
ARC
  5
3C5
100
AcDbEntity
  8
M2
 62
     7
100
AcDbCircle
 10
52.632048
 20
239.153061
 40
1.0
100
AcDbArc
 50
90.0
 51
180.0
  0
ARC
  5
3C6
100
AcDbEntity
  8
M2
 62
     7
100
AcDbCircle
 10
52.932048
 20
239.153061
 40
1.0
100
AcDbArc
 50
0.0
 51
90.0
  0
ARC
  5
3C7
100
AcDbEntity
  8
M2
 62
     7
100
AcDbCircle
 10
32.432048
 20
239.153061
 40
1.0
100
AcDbArc
 50
90.0
 51
180.0
  0
LINE
  5
3C8
100
AcDbEntity
  8
M2
 62
     7
100
AcDbLine
 10
31.432048
 20
275.053061
 11
31.432048
 21
277.553061
  0
LINE
  5
3C9
100
AcDbEntity
  8
M2
 62
     7
100
AcDbLine
 10
33.732048
 20
277.553061
 11
33.732048
 21
275.053061
  0
LINE
  5
3CA
100
AcDbEntity
  8
M2
 62
     7
100
AcDbLine
 10
51.632048
 20
289.553061
 11
51.632048
 21
275.053061
  0
ARC
  5
3CB
100
AcDbEntity
  8
M2
 62
     7
100
AcDbCircle
 10
52.932048
 20
277.553061
 40
1.0
100
AcDbArc
 50
270.0
 51
360.0
  0
ARC
  5
3CC
100
AcDbEntity
  8
M2
 62
     7
100
AcDbCircle
 10
42.532048
 20
239.153061
 40
1.0
100
AcDbArc
 50
90.0
 51
180.0
  0
ARC
  5
3CD
100
AcDbEntity
  8
M2
 62
     7
100
AcDbCircle
 10
32.732048
 20
277.553061
 40
1.0
100
AcDbArc
 50
270.0
 51
360.0
  0
LINE
  5
3CE
100
AcDbEntity
  8
M2
 62
     7
100
AcDbLine
 10
62.232048
 20
253.653061
 11
62.232048
 21
253.654312
  0
LINE
  5
3CF
100
AcDbEntity
  8
M2
 62
     7
100
AcDbLine
 10
23.132048
 20
253.654312
 11
23.132048
 21
253.653061
  0
LINE
  5
3D0
100
AcDbEntity
  8
M2
 62
     7
100
AcDbLine
 10
62.232048
 20
263.05181
 11
62.232048
 21
263.053061
  0
LINE
  5
3D1
100
AcDbEntity
  8
M2
 62
     7
100
AcDbLine
 10
23.132048
 20
263.053061
 11
23.132048
 21
263.05181
  0
LINE
  5
3D2
100
AcDbEntity
  8
M2
 62
     7
100
AcDbLine
 10
62.232048
 20
241.653061
 11
62.232048
 21
253.653061
  0
LINE
  5
3D3
100
AcDbEntity
  8
M2
 62
     7
100
AcDbLine
 10
23.132048
 20
253.653061
 11
23.132048
 21
241.653061
  0
LINE
  5
3D4
100
AcDbEntity
  8
M2
 62
     7
100
AcDbLine
 10
34.482048
 20
270.553061
 11
34.982048
 21
270.553061
  0
LINE
  5
3D5
100
AcDbEntity
  8
M2
 62
     7
100
AcDbLine
 10
51.882048
 20
250.853061
 11
51.882048
 21
264.453061
  0
LINE
  5
3D6
100
AcDbEntity
  8
M2
 62
     7
100
AcDbLine
 10
34.982048
 20
247.353061
 11
34.482048
 21
247.353061
  0
LINE
  5
3D7
100
AcDbEntity
  8
M2
 62
     7
100
AcDbLine
 10
23.132048
 20
275.053061
 11
23.132048
 21
263.053061
  0
LINE
  5
3D8
100
AcDbEntity
  8
M2
 62
     7
100
AcDbLine
 10
33.482048
 20
250.853061
 11
33.482048
 21
264.453061
  0
LINE
  5
3D9
100
AcDbEntity
  8
M2
 62
     7
100
AcDbLine
 10
62.232048
 20
263.053061
 11
62.232048
 21
275.053061
  0
LINE
  5
3DA
100
AcDbEntity
  8
M2
 62
     7
100
AcDbLine
 10
48.232048
 20
263.153061
 11
37.132048
 21
263.153061
  0
LINE
  5
3DB
100
AcDbEntity
  8
M2
 62
     7
100
AcDbLine
 10
50.382048
 20
270.553061
 11
50.882048
 21
270.553061
  0
LINE
  5
3DC
100
AcDbEntity
  8
M2
 62
     7
100
AcDbLine
 10
47.732048
 20
268.353061
 11
37.632048
 21
268.353061
  0
LINE
  5
3DD
100
AcDbEntity
  8
M2
 62
     7
100
AcDbLine
 10
50.382048
 20
247.353061
 11
50.882048
 21
247.353061
  0
ARC
  5
3DE
100
AcDbEntity
  8
M2
 62
     7
100
AcDbCircle
 10
22.182048
 20
263.053061
 40
1.0
100
AcDbArc
 50
180.0
 51
270.0
  0
ARC
  5
3DF
100
AcDbEntity
  8
M2
 62
     7
100
AcDbCircle
 10
63.232048
 20
263.05181
 40
1.0
100
AcDbArc
 50
180.0
 51
267.134016
  0
ARC
  5
3E0
100
AcDbEntity
  8
M2
 62
     7
100
AcDbCircle
 10
63.182048
 20
263.053061
 40
1.0
100
AcDbArc
 50
270.0
 51
360.0
  0
ARC
  5
3E1
100
AcDbEntity
  8
M2
 62
     7
100
AcDbCircle
 10
63.182048
 20
286.153061
 40
1.0
100
AcDbArc
 50
0.0
 51
90.0
  0
ARC
  5
3E2
100
AcDbEntity
  8
M2
 62
     7
100
AcDbCircle
 10
22.632048
 20
286.153061
 40
1.0
100
AcDbArc
 50
0.0
 51
90.0
  0
ARC
  5
3E3
100
AcDbEntity
  8
M2
 62
     7
100
AcDbCircle
 10
62.732048
 20
286.153061
 40
1.0
100
AcDbArc
 50
90.0
 51
180.0
  0
ARC
  5
3E4
100
AcDbEntity
  8
M2
 62
     7
100
AcDbCircle
 10
22.182048
 20
253.653061
 40
1.0
100
AcDbArc
 50
90.0
 51
180.0
  0
LINE
  5
3E5
100
AcDbEntity
  8
M2
 62
     7
100
AcDbLine
 10
24.532048
 20
284.053061
 11
30.532048
 21
284.053061
  0
ARC
  5
3E6
100
AcDbEntity
  8
M2
 62
     7
100
AcDbCircle
 10
63.182048
 20
253.653061
 40
1.0
100
AcDbArc
 50
0.0
 51
90.0
  0
ARC
  5
3E7
100
AcDbEntity
  8
M2
 62
     7
100
AcDbCircle
 10
63.232048
 20
253.654312
 40
1.0
100
AcDbArc
 50
92.865984
 51
180.0
  0
ARC
  5
3E8
100
AcDbEntity
  8
M2
 62
     7
100
AcDbCircle
 10
22.132048
 20
253.654312
 40
1.0
100
AcDbArc
 50
0.0
 51
87.134016
  0
LINE
  5
3E9
100
AcDbEntity
  8
M2
 62
     7
100
AcDbLine
 10
23.632048
 20
241.653061
 11
23.632048
 21
234.553061
  0
ARC
  5
3EA
100
AcDbEntity
  8
M2
 62
     7
100
AcDbCircle
 10
22.182048
 20
286.153061
 40
1.0
100
AcDbArc
 50
90.0
 51
180.0
  0
ARC
  5
3EB
100
AcDbEntity
  8
M2
 62
     7
100
AcDbCircle
 10
22.132048
 20
263.05181
 40
1.0
100
AcDbArc
 50
272.865984
 51
360.0
  0
ARC
  5
3EC
100
AcDbEntity
  8
M2
 62
     7
100
AcDbCircle
 10
48.732048
 20
247.853061
 40
0.5
100
AcDbArc
 50
180.0
 51
270.0
  0
LINE
  5
3ED
100
AcDbEntity
  8
M2
 62
     7
100
AcDbLine
 10
23.632048
 20
234.553061
 11
23.632048
 21
230.553061
  0
ARC
  5
3EE
100
AcDbEntity
  8
M2
 62
     7
100
AcDbCircle
 10
36.632048
 20
247.853061
 40
0.5
100
AcDbArc
 50
270.0
 51
360.0
  0
ARC
  5
3EF
100
AcDbEntity
  8
M2
 62
     7
100
AcDbCircle
 10
51.132048
 20
246.853061
 40
0.5
100
AcDbArc
 50
67.201593
 51
90.0
  0
ARC
  5
3F0
100
AcDbEntity
  8
M2
 62
     7
100
AcDbCircle
 10
51.132048
 20
271.053061
 40
0.5
100
AcDbArc
 50
270.0
 51
292.798407
  0
ARC
  5
3F1
100
AcDbEntity
  8
M2
 62
     7
100
AcDbCircle
 10
34.232048
 20
246.853061
 40
0.5
100
AcDbArc
 50
90.0
 51
112.798407
  0
ARC
  5
3F2
100
AcDbEntity
  8
M2
 62
     7
100
AcDbCircle
 10
22.182048
 20
230.553061
 40
1.0
100
AcDbArc
 50
180.0
 51
270.0
  0
ARC
  5
3F3
100
AcDbEntity
  8
M2
 62
     7
100
AcDbCircle
 10
34.232048
 20
271.053061
 40
0.5
100
AcDbArc
 50
247.201593
 51
270.0
  0
ARC
  5
3F4
100
AcDbEntity
  8
M2
 62
     7
100
AcDbCircle
 10
62.732048
 20
230.553061
 40
1.0
100
AcDbArc
 50
180.0
 51
270.0
  0
ARC
  5
3F5
100
AcDbEntity
  8
M2
 62
     7
100
AcDbCircle
 10
52.932048
 20
289.553061
 40
1.0
100
AcDbArc
 50
0.0
 51
90.0
  0
ARC
  5
3F6
100
AcDbEntity
  8
M2
 62
     7
100
AcDbCircle
 10
42.832048
 20
289.553061
 40
1.0
100
AcDbArc
 50
0.0
 51
90.0
  0
ARC
  5
3F7
100
AcDbEntity
  8
M2
 62
     7
100
AcDbCircle
 10
52.632048
 20
289.553061
 40
1.0
100
AcDbArc
 50
90.0
 51
180.0
  0
ARC
  5
3F8
100
AcDbEntity
  8
M2
 62
     7
100
AcDbCircle
 10
41.032048
 20
246.853061
 40
0.5
100
AcDbArc
 50
53.130102
 51
90.0
  0
ARC
  5
3F9
100
AcDbEntity
  8
M2
 62
     7
100
AcDbCircle
 10
32.432048
 20
289.553061
 40
1.0
100
AcDbArc
 50
90.0
 51
180.0
  0
LINE
  5
3FA
100
AcDbEntity
  8
M2
 62
     7
100
AcDbLine
 10
52.732048
 20
290.553061
 11
52.932048
 21
290.553061
  0
LINE
  5
3FB
100
AcDbEntity
  8
M2
 62
     7
100
AcDbLine
 10
52.632048
 20
290.553061
 11
52.732048
 21
290.553061
  0
ARC
  5
3FC
100
AcDbEntity
  8
M2
 62
     7
100
AcDbCircle
 10
63.182048
 20
230.553061
 40
1.0
100
AcDbArc
 50
270.0
 51
360.0
  0
ARC
  5
3FD
100
AcDbEntity
  8
M2
 62
     7
100
AcDbCircle
 10
44.332048
 20
246.853061
 40
0.5
100
AcDbArc
 50
90.0
 51
126.869898
  0
ARC
  5
3FE
100
AcDbEntity
  8
M2
 62
     7
100
AcDbCircle
 10
22.632048
 20
230.553061
 40
1.0
100
AcDbArc
 50
270.0
 51
360.0
  0
LINE
  5
3FF
100
AcDbEntity
  8
M2
 62
     7
100
AcDbLine
 10
41.532048
 20
275.053061
 11
41.532048
 21
289.553061
  0
LINE
  5
400
100
AcDbEntity
  8
M2
 62
     7
100
AcDbLine
 10
32.432048
 20
290.553061
 11
32.632048
 21
290.553061
  0
LINE
  5
401
100
AcDbEntity
  8
M2
 62
     7
100
AcDbLine
 10
33.732048
 20
289.553061
 11
33.732048
 21
286.553061
  0
LINE
  5
402
100
AcDbEntity
  8
M2
 62
     7
100
AcDbLine
 10
62.732048
 20
287.153061
 11
63.182048
 21
287.153061
  0
LINE
  5
403
100
AcDbEntity
  8
M2
 62
     7
100
AcDbLine
 10
23.632048
 20
286.153061
 11
23.632048
 21
282.153061
  0
LINE
  5
404
100
AcDbEntity
  8
M2
 62
     7
100
AcDbLine
 10
62.232048
 20
275.053061
 11
23.132048
 21
275.053061
  0
LINE
  5
405
100
AcDbEntity
  8
M2
 62
     7
100
AcDbLine
 10
48.232048
 20
252.053061
 11
37.132048
 21
252.053061
  0
LINE
  5
406
100
AcDbEntity
  8
M2
 62
     7
100
AcDbLine
 10
37.132048
 20
248.853061
 11
48.232048
 21
248.853061
  0
LINE
  5
407
100
AcDbEntity
  8
M2
 62
     7
100
AcDbLine
 10
37.132048
 20
253.453061
 11
48.232048
 21
253.453061
  0
ARC
  5
408
100
AcDbEntity
  8
M2
 62
     7
100
AcDbCircle
 10
42.532048
 20
289.553061
 40
1.0
100
AcDbArc
 50
90.0
 51
180.0
  0
LINE
  5
409
100
AcDbEntity
  8
M2
 62
     7
100
AcDbLine
 10
34.482048
 20
247.353061
 11
36.632048
 21
247.353061
  0
ARC
  5
40A
100
AcDbEntity
  8
M2
 62
     7
100
AcDbCircle
 10
32.732048
 20
289.553061
 40
1.0
100
AcDbArc
 50
0.0
 51
90.0
  0
LINE
  5
40B
100
AcDbEntity
  8
M2
 62
     7
100
AcDbLine
 10
23.632048
 20
282.153061
 11
23.632048
 21
275.053061
  0
LINE
  5
40C
100
AcDbEntity
  8
M2
 62
     7
100
AcDbLine
 10
22.182048
 20
287.153061
 11
22.632048
 21
287.153061
  0
LINE
  5
40D
100
AcDbEntity
  8
M2
 62
     7
100
AcDbLine
 10
48.732048
 20
247.353061
 11
36.632048
 21
247.353061
  0
LINE
  5
40E
100
AcDbEntity
  8
M2
 62
     7
100
AcDbLine
 10
37.382048
 20
293.169728
 11
37.382048
 21
300.253061
  0
LINE
  5
40F
100
AcDbEntity
  8
M2
 62
     7
100
AcDbLine
 10
47.982048
 20
300.253061
 11
47.982048
 21
293.169728
  0
LINE
  5
410
100
AcDbEntity
  8
M2
 62
     7
100
AcDbLine
 10
31.432048
 20
289.153061
 11
25.682048
 21
289.153061
  0
LINE
  5
411
100
AcDbEntity
  8
M2
 62
     7
100
AcDbLine
 10
38.382048
 20
301.253061
 11
46.982048
 21
301.253061
  0
LINE
  5
412
100
AcDbEntity
  8
M2
 62
     7
100
AcDbLine
 10
25.682048
 20
302.153061
 11
25.682048
 21
284.053061
  0
LINE
  5
413
100
AcDbEntity
  8
M2
 62
     7
100
AcDbLine
 10
41.532048
 20
254.253061
 11
41.532048
 21
254.753061
  0
LINE
  5
414
100
AcDbEntity
  8
M2
 62
     7
100
AcDbLine
 10
47.982048
 20
262.453061
 11
47.982048
 21
254.253061
  0
LINE
  5
415
100
AcDbEntity
  8
M2
 62
     7
100
AcDbLine
 10
44.932048
 20
262.953061
 11
47.482048
 21
262.953061
  0
LINE
  5
416
100
AcDbEntity
  8
M2
 62
     7
100
AcDbLine
 10
40.432048
 20
262.953061
 11
37.882048
 21
262.953061
  0
LINE
  5
417
100
AcDbEntity
  8
M2
 62
     7
100
AcDbLine
 10
38.382048
 20
292.753061
 11
46.982048
 21
292.753061
  0
LINE
  5
418
100
AcDbEntity
  8
M2
 62
     7
100
AcDbLine
 10
37.382048
 20
291.253061
 11
37.382048
 21
293.169728
  0
LINE
  5
419
100
AcDbEntity
  8
M2
 62
     7
100
AcDbLine
 10
37.382048
 20
291.253061
 11
47.982048
 21
291.253061
  0
LINE
  5
41A
100
AcDbEntity
  8
M2
 62
     7
100
AcDbLine
 10
39.532048
 20
229.353061
 11
35.732048
 21
229.353061
  0
LINE
  5
41B
100
AcDbEntity
  8
M2
 62
     7
100
AcDbLine
 10
51.632048
 20
227.353061
 11
43.832048
 21
227.353061
  0
LINE
  5
41C
100
AcDbEntity
  8
M2
 62
     7
100
AcDbLine
 10
43.832048
 20
289.153061
 11
51.632048
 21
289.153061
  0
LINE
  5
41D
100
AcDbEntity
  8
M2
 62
     7
100
AcDbLine
 10
59.682048
 20
289.153061
 11
53.932048
 21
289.153061
  0
LINE
  5
41E
100
AcDbEntity
  8
M2
 62
     7
100
AcDbLine
 10
59.682048
 20
284.053061
 11
59.682048
 21
289.153061
  0
LINE
  5
41F
100
AcDbEntity
  8
M2
 62
     7
100
AcDbLine
 10
37.382048
 20
291.253061
 11
37.382048
 21
289.153061
  0
LINE
  5
420
100
AcDbEntity
  8
M2
 62
     7
100
AcDbLine
 10
47.982048
 20
289.153061
 11
47.982048
 21
291.253061
  0
LINE
  5
421
100
AcDbEntity
  8
M2
 62
     7
100
AcDbLine
 10
47.982048
 20
291.253061
 11
47.982048
 21
293.169728
  0
ARC
  5
422
100
AcDbEntity
  8
M2
 62
     7
100
AcDbCircle
 10
39.532048
 20
227.353061
 40
2.0
100
AcDbArc
 50
0.0
 51
90.0
  0
ARC
  5
423
100
AcDbEntity
  8
M2
 62
     7
100
AcDbCircle
 10
35.732048
 20
227.353061
 40
2.0
100
AcDbArc
 50
90.0
 51
180.0
  0
ARC
  5
424
100
AcDbEntity
  8
M2
 62
     7
100
AcDbCircle
 10
32.732048
 20
223.853061
 40
1.0
100
AcDbArc
 50
270.0
 51
360.0
  0
ARC
  5
425
100
AcDbEntity
  8
M2
 62
     7
100
AcDbCircle
 10
42.832048
 20
223.853061
 40
1.0
100
AcDbArc
 50
270.0
 51
360.0
  0
ARC
  5
426
100
AcDbEntity
  8
M2
 62
     7
100
AcDbCircle
 10
32.432048
 20
223.853061
 40
1.0
100
AcDbArc
 50
180.0
 51
270.0
  0
ARC
  5
427
100
AcDbEntity
  8
M2
 62
     7
100
AcDbCircle
 10
42.532048
 20
223.853061
 40
1.0
100
AcDbArc
 50
180.0
 51
270.0
  0
ARC
  5
428
100
AcDbEntity
  8
M2
 62
     7
100
AcDbCircle
 10
44.932048
 20
262.453061
 40
0.5
100
AcDbArc
 50
90.0
 51
180.0
  0
ARC
  5
429
100
AcDbEntity
  8
M2
 62
     7
100
AcDbCircle
 10
40.432048
 20
262.453061
 40
0.5
100
AcDbArc
 50
0.0
 51
90.0
  0
ARC
  5
42A
100
AcDbEntity
  8
M2
 62
     7
100
AcDbCircle
 10
47.482048
 20
262.453061
 40
0.5
100
AcDbArc
 50
0.0
 51
90.0
  0
ARC
  5
42B
100
AcDbEntity
  8
M2
 62
     7
100
AcDbCircle
 10
46.982048
 20
300.253061
 40
1.0
100
AcDbArc
 50
0.0
 51
90.0
  0
ARC
  5
42C
100
AcDbEntity
  8
M2
 62
     7
100
AcDbCircle
 10
37.882048
 20
262.453061
 40
0.5
100
AcDbArc
 50
90.0
 51
180.0
  0
LINE
  5
42D
100
AcDbEntity
  8
M2
 62
     7
100
AcDbLine
 10
43.832048
 20
255.253061
 11
43.932048
 21
255.253061
  0
LINE
  5
42E
100
AcDbEntity
  8
M2
 62
     7
100
AcDbLine
 10
43.832048
 20
254.753061
 11
43.832048
 21
255.253061
  0
LINE
  5
42F
100
AcDbEntity
  8
M2
 62
     7
100
AcDbLine
 10
37.382048
 20
262.453061
 11
37.382048
 21
254.253061
  0
LINE
  5
430
100
AcDbEntity
  8
M2
 62
     7
100
AcDbLine
 10
44.432048
 20
255.753061
 11
44.432048
 21
262.453061
  0
LINE
  5
431
100
AcDbEntity
  8
M2
 62
     7
100
AcDbLine
 10
43.832048
 20
254.253061
 11
43.832048
 21
254.753061
  0
LINE
  5
432
100
AcDbEntity
  8
M2
 62
     7
100
AcDbLine
 10
40.932048
 20
255.753061
 11
40.932048
 21
262.453061
  0
ARC
  5
433
100
AcDbEntity
  8
M2
 62
     7
100
AcDbCircle
 10
38.382048
 20
300.253061
 40
1.0
100
AcDbArc
 50
90.0
 51
180.0
  0
LINE
  5
434
100
AcDbEntity
  8
M2
 62
     7
100
AcDbLine
 10
47.482048
 20
253.753061
 11
44.332048
 21
253.753061
  0
LINE
  5
435
100
AcDbEntity
  8
M2
 62
     7
100
AcDbLine
 10
41.532048
 20
254.753061
 11
41.532048
 21
255.253061
  0
LINE
  5
436
100
AcDbEntity
  8
M2
 62
     7
100
AcDbLine
 10
37.882048
 20
253.753061
 11
41.032048
 21
253.753061
  0
LINE
  5
437
100
AcDbEntity
  8
M2
 62
     7
100
AcDbLine
 10
41.532048
 20
255.253061
 11
41.432048
 21
255.253061
  0
LINE
  5
438
100
AcDbEntity
  8
M2
 62
     7
100
AcDbLine
 10
41.532048
 20
261.953061
 11
41.532048
 21
263.153061
  0
LINE
  5
439
100
AcDbEntity
  8
M2
 62
     7
100
AcDbLine
 10
48.232048
 20
254.053061
 11
48.196191
 21
254.053061
  0
LINE
  5
43A
100
AcDbEntity
  8
M2
 62
     7
100
AcDbLine
 10
37.449036
 20
262.703061
 11
37.445084
 21
262.696076
  0
LINE
  5
43B
100
AcDbEntity
  8
M2
 62
     7
100
AcDbLine
 10
37.132048
 20
254.053061
 11
37.167906
 21
254.053061
  0
LINE
  5
43C
100
AcDbEntity
  8
M2
 62
     7
100
AcDbLine
 10
42.032048
 20
259.753061
 11
43.332048
 21
259.753061
  0
LINE
  5
43D
100
AcDbEntity
  8
M2
 62
     7
100
AcDbLine
 10
43.832048
 20
253.453061
 11
43.832048
 21
254.253061
  0
LINE
  5
43E
100
AcDbEntity
  8
M2
 62
     7
100
AcDbLine
 10
41.532048
 20
253.453061
 11
41.532048
 21
254.253061
  0
LINE
  5
43F
100
AcDbEntity
  8
M2
 62
     7
100
AcDbLine
 10
44.332048
 20
262.953061
 11
45.682048
 21
262.953061
  0
LINE
  5
440
100
AcDbEntity
  8
M2
 62
     7
100
AcDbLine
 10
41.032048
 20
262.953061
 11
39.682048
 21
262.953061
  0
LINE
  5
441
100
AcDbEntity
  8
M2
 62
     7
100
AcDbLine
 10
43.832048
 20
255.253061
 11
43.832048
 21
255.753061
  0
LINE
  5
442
100
AcDbEntity
  8
M2
 62
     7
100
AcDbLine
 10
46.682048
 20
262.953061
 11
45.682048
 21
262.953061
  0
LINE
  5
443
100
AcDbEntity
  8
M2
 62
     7
100
AcDbLine
 10
41.532048
 20
255.253061
 11
41.532048
 21
255.753061
  0
LINE
  5
444
100
AcDbEntity
  8
M2
 62
     7
100
AcDbLine
 10
38.682048
 20
262.953061
 11
39.682048
 21
262.953061
  0
LINE
  5
445
100
AcDbEntity
  8
M2
 62
     7
100
AcDbLine
 10
41.532048
 20
256.253061
 11
41.532048
 21
255.753061
  0
LINE
  5
446
100
AcDbEntity
  8
M2
 62
     7
100
AcDbLine
 10
43.832048
 20
261.953061
 11
43.832048
 21
263.153061
  0
LINE
  5
447
100
AcDbEntity
  8
M2
 62
     7
100
AcDbLine
 10
43.832048
 20
256.253061
 11
43.832048
 21
255.753061
  0
LINE
  5
448
100
AcDbEntity
  8
M2
 62
     7
100
AcDbLine
 10
41.532048
 20
260.253061
 11
41.532048
 21
262.453061
  0
LINE
  5
449
100
AcDbEntity
  8
M2
 62
     7
100
AcDbLine
 10
42.032048
 20
256.753061
 11
43.332048
 21
256.753061
  0
LINE
  5
44A
100
AcDbEntity
  8
M2
 62
     7
100
AcDbLine
 10
43.832048
 20
260.253061
 11
43.832048
 21
262.453061
  0
LINE
  5
44B
100
AcDbEntity
  8
M2
 62
     7
100
AcDbLine
 10
31.432048
 20
233.653061
 11
30.532048
 21
233.653061
  0
LINE
  5
44C
100
AcDbEntity
  8
M2
 62
     7
100
AcDbLine
 10
41.532048
 20
223.853061
 11
41.532048
 21
241.653061
  0
LINE
  5
44D
100
AcDbEntity
  8
M2
 62
     7
100
AcDbLine
 10
61.732048
 20
233.653061
 11
60.832048
 21
233.653061
  0
LINE
  5
44E
100
AcDbEntity
  8
M2
 62
     7
100
AcDbLine
 10
24.532048
 20
233.653061
 11
23.632048
 21
233.653061
  0
LINE
  5
44F
100
AcDbEntity
  8
M2
 62
     7
100
AcDbLine
 10
44.732048
 20
233.653061
 11
43.832048
 21
233.653061
  0
LINE
  5
450
100
AcDbEntity
  8
M2
 62
     7
100
AcDbLine
 10
42.532048
 20
222.853061
 11
42.832048
 21
222.853061
  0
LINE
  5
451
100
AcDbEntity
  8
M2
 62
     7
100
AcDbLine
 10
33.732048
 20
289.153061
 11
41.532048
 21
289.153061
  0
LINE
  5
452
100
AcDbEntity
  8
M2
 62
     7
100
AcDbLine
 10
32.432048
 20
222.853061
 11
32.732048
 21
222.853061
  0
LINE
  5
453
100
AcDbEntity
  8
M2
 62
     7
100
AcDbLine
 10
31.432048
 20
223.853061
 11
31.432048
 21
241.653061
  0
LINE
  5
454
100
AcDbEntity
  8
M2
 62
     7
100
AcDbLine
 10
33.732048
 20
241.653061
 11
33.732048
 21
223.853061
  0
ARC
  5
455
100
AcDbEntity
  8
M2
 62
     7
100
AcDbCircle
 10
42.032048
 20
256.253061
 40
0.5
100
AcDbArc
 50
90.0
 51
180.0
  0
ARC
  5
456
100
AcDbEntity
  8
M2
 62
     7
100
AcDbCircle
 10
43.332048
 20
260.253061
 40
0.5
100
AcDbArc
 50
270.0
 51
360.0
  0
ARC
  5
457
100
AcDbEntity
  8
M2
 62
     7
100
AcDbCircle
 10
43.332048
 20
256.253061
 40
0.5
100
AcDbArc
 50
0.0
 51
90.0
  0
ARC
  5
458
100
AcDbEntity
  8
M2
 62
     7
100
AcDbCircle
 10
41.032048
 20
262.453061
 40
0.5
100
AcDbArc
 50
0.0
 51
90.0
  0
ARC
  5
459
100
AcDbEntity
  8
M2
 62
     7
100
AcDbCircle
 10
44.332048
 20
262.453061
 40
0.5
100
AcDbArc
 50
90.0
 51
180.0
  0
ARC
  5
45A
100
AcDbEntity
  8
M2
 62
     7
100
AcDbCircle
 10
44.332048
 20
254.253061
 40
0.5
100
AcDbArc
 50
180.0
 51
270.0
  0
LINE
  5
45B
100
AcDbEntity
  8
M2
 62
     7
100
AcDbLine
 10
43.832048
 20
241.653061
 11
43.832048
 21
223.853061
  0
ARC
  5
45C
100
AcDbEntity
  8
M2
 62
     7
100
AcDbCircle
 10
37.840082
 20
254.214228
 40
0.44285
100
AcDbArc
 50
206.131697
 51
224.639687
  0
LINE
  5
45D
100
AcDbEntity
  8
M2
 62
     7
100
AcDbLine
 10
50.482048
 20
247.353061
 11
50.482048
 21
247.253061
  0
LINE
  5
45E
100
AcDbEntity
  8
M2
 62
     7
100
AcDbLine
 10
52.832048
 20
226.153061
 11
52.932048
 21
226.153061
  0
LINE
  5
45F
100
AcDbEntity
  8
M2
 62
     7
100
AcDbLine
 10
34.882048
 20
247.253061
 11
34.882048
 21
247.353061
  0
LINE
  5
460
100
AcDbEntity
  8
M2
 62
     7
100
AcDbLine
 10
40.632048
 20
283.053061
 11
41.532048
 21
283.053061
  0
LINE
  5
461
100
AcDbEntity
  8
M2
 62
     7
100
AcDbLine
 10
50.732048
 20
283.053061
 11
51.632048
 21
283.053061
  0
LINE
  5
462
100
AcDbEntity
  8
M2
 62
     7
100
AcDbLine
 10
43.832048
 20
283.053061
 11
44.732048
 21
283.053061
  0
LINE
  5
463
100
AcDbEntity
  8
M2
 62
     7
100
AcDbLine
 10
34.632048
 20
233.653061
 11
33.732048
 21
233.653061
  0
LINE
  5
464
100
AcDbEntity
  8
M2
 62
     7
100
AcDbLine
 10
54.832048
 20
233.653061
 11
53.932048
 21
233.653061
  0
LINE
  5
465
100
AcDbEntity
  8
M2
 62
     7
100
AcDbLine
 10
41.532048
 20
233.653061
 11
40.632048
 21
233.653061
  0
LINE
  5
466
100
AcDbEntity
  8
M2
 62
     7
100
AcDbLine
 10
44.982048
 20
247.253061
 11
44.982048
 21
247.353061
  0
LINE
  5
467
100
AcDbEntity
  8
M2
 62
     7
100
AcDbLine
 10
51.632048
 20
233.653061
 11
50.732048
 21
233.653061
  0
LINE
  5
468
100
AcDbEntity
  8
M2
 62
     7
100
AcDbLine
 10
50.482048
 20
270.653061
 11
50.482048
 21
270.553061
  0
LINE
  5
469
100
AcDbEntity
  8
M2
 62
     7
100
AcDbLine
 10
52.932048
 20
290.553061
 11
52.832048
 21
290.553061
  0
LINE
  5
46A
100
AcDbEntity
  8
M2
 62
     7
100
AcDbLine
 10
32.532048
 20
290.553061
 11
32.432048
 21
290.553061
  0
LINE
  5
46B
100
AcDbEntity
  8
M2
 62
     7
100
AcDbLine
 10
32.732048
 20
223.353061
 11
32.432048
 21
223.353061
  0
LINE
  5
46C
100
AcDbEntity
  8
M2
 62
     7
100
AcDbLine
 10
34.882048
 20
270.553061
 11
34.882048
 21
270.653061
  0
LINE
  5
46D
100
AcDbEntity
  8
M2
 62
     7
100
AcDbLine
 10
42.832048
 20
223.353061
 11
42.532048
 21
223.353061
  0
LINE
  5
46E
100
AcDbEntity
  8
M2
 62
     7
100
AcDbLine
 10
53.932048
 20
283.053061
 11
54.832048
 21
283.053061
  0
LINE
  5
46F
100
AcDbEntity
  8
M2
 62
     7
100
AcDbLine
 10
40.382048
 20
247.353061
 11
40.382048
 21
247.253061
  0
LINE
  5
470
100
AcDbEntity
  8
M2
 62
     7
100
AcDbLine
 10
60.832048
 20
283.053061
 11
61.732048
 21
283.053061
  0
LINE
  5
471
100
AcDbEntity
  8
M2
 62
     7
100
AcDbLine
 10
33.732048
 20
283.053061
 11
34.150923
 21
283.053061
  0
LINE
  5
472
100
AcDbEntity
  8
M2
 62
     7
100
AcDbLine
 10
23.632048
 20
283.053061
 11
24.532048
 21
283.053061
  0
LINE
  5
473
100
AcDbEntity
  8
M2
 62
     7
100
AcDbLine
 10
30.532048
 20
283.053061
 11
31.432048
 21
283.053061
  0
LINE
  5
474
100
AcDbEntity
  8
M2
 62
     7
100
AcDbLine
 10
33.732048
 20
286.553061
 11
33.732048
 21
277.553061
  0
LINE
  5
475
100
AcDbEntity
  8
M2
 62
     7
100
AcDbLine
 10
42.532048
 20
290.553061
 11
42.632048
 21
290.553061
  0
LINE
  5
476
100
AcDbEntity
  8
M2
 62
     7
100
AcDbLine
 10
52.632048
 20
240.153061
 11
52.932048
 21
240.153061
  0
LINE
  5
477
100
AcDbEntity
  8
M2
 62
     7
100
AcDbLine
 10
32.432048
 20
240.153061
 11
32.732048
 21
240.153061
  0
LINE
  5
478
100
AcDbEntity
  8
M2
 62
     7
100
AcDbLine
 10
52.932048
 20
276.553061
 11
52.632048
 21
276.553061
  0
LINE
  5
479
100
AcDbEntity
  8
M2
 62
     7
100
AcDbLine
 10
42.832048
 20
276.553061
 11
42.532048
 21
276.553061
  0
LINE
  5
47A
100
AcDbEntity
  8
M2
 62
     7
100
AcDbLine
 10
32.732048
 20
276.553061
 11
32.432048
 21
276.553061
  0
ARC
  5
47B
100
AcDbEntity
  8
M2
 62
     7
100
AcDbCircle
 10
42.832048
 20
224.353061
 40
1.0
100
AcDbArc
 50
270.0
 51
360.0
  0
ARC
  5
47C
100
AcDbEntity
  8
M2
 62
     7
100
AcDbCircle
 10
42.532048
 20
224.353061
 40
1.0
100
AcDbArc
 50
180.0
 51
270.0
  0
ARC
  5
47D
100
AcDbEntity
  8
M2
 62
     7
100
AcDbCircle
 10
42.832048
 20
255.853061
 40
0.5
100
AcDbArc
 50
0.0
 51
90.0
  0
ARC
  5
47E
100
AcDbEntity
  8
M2
 62
     7
100
AcDbCircle
 10
42.832048
 20
260.853061
 40
0.5
100
AcDbArc
 50
270.0
 51
360.0
  0
ARC
  5
47F
100
AcDbEntity
  8
M2
 62
     7
100
AcDbCircle
 10
42.532048
 20
255.853061
 40
0.5
100
AcDbArc
 50
90.0
 51
180.0
  0
ARC
  5
480
100
AcDbEntity
  8
M2
 62
     7
100
AcDbCircle
 10
42.532048
 20
260.853061
 40
0.5
100
AcDbArc
 50
180.0
 51
270.0
  0
LINE
  5
481
100
AcDbEntity
  8
M2
 62
     7
100
AcDbLine
 10
42.732048
 20
290.553061
 11
42.832048
 21
290.553061
  0
LINE
  5
482
100
AcDbEntity
  8
M2
 62
     7
100
AcDbLine
 10
31.432048
 20
277.553061
 11
31.432048
 21
286.553061
  0
LINE
  5
483
100
AcDbEntity
  8
M2
 62
     7
100
AcDbLine
 10
42.632048
 20
290.553061
 11
42.732048
 21
290.553061
  0
ARC
  5
484
100
AcDbEntity
  8
M2
 62
     7
100
AcDbCircle
 10
32.732048
 20
224.353061
 40
1.0
100
AcDbArc
 50
270.0
 51
360.0
  0
LINE
  5
485
100
AcDbEntity
  8
M2
 62
     7
100
AcDbLine
 10
32.632048
 20
290.553061
 11
32.732048
 21
290.553061
  0
ARC
  5
486
100
AcDbEntity
  8
M2
 62
     7
100
AcDbCircle
 10
32.432048
 20
224.353061
 40
1.0
100
AcDbArc
 50
180.0
 51
270.0
  0
LINE
  5
487
100
AcDbEntity
  8
M2
 62
     7
100
AcDbLine
 10
33.732048
 20
232.553061
 11
33.732048
 21
231.553061
  0
LINE
  5
488
100
AcDbEntity
  8
M2
 62
     7
100
AcDbLine
 10
23.632048
 20
231.553061
 11
23.632048
 21
232.553061
  0
LINE
  5
489
100
AcDbEntity
  8
M2
 62
     7
100
AcDbLine
 10
61.732048
 20
232.553061
 11
61.732048
 21
231.553061
  0
ARC
  5
48A
100
AcDbEntity
  8
M2
 62
     7
100
AcDbCircle
 10
37.882048
 20
254.253061
 40
0.5
100
AcDbArc
 50
180.0
 51
270.0
  0
ARC
  5
48B
100
AcDbEntity
  8
M2
 62
     7
100
AcDbCircle
 10
47.482048
 20
254.253061
 40
0.5
100
AcDbArc
 50
270.0
 51
360.0
  0
ARC
  5
48C
100
AcDbEntity
  8
M2
 62
     7
100
AcDbCircle
 10
41.032048
 20
254.253061
 40
0.5
100
AcDbArc
 50
270.0
 51
360.0
  0
ARC
  5
48D
100
AcDbEntity
  8
M2
 62
     7
100
AcDbCircle
 10
43.932048
 20
255.753061
 40
0.5
100
AcDbArc
 50
270.0
 51
360.0
  0
ARC
  5
48E
100
AcDbEntity
  8
M2
 62
     7
100
AcDbCircle
 10
41.432048
 20
255.753061
 40
0.5
100
AcDbArc
 50
180.0
 51
270.0
  0
ARC
  5
48F
100
AcDbEntity
  8
M2
 62
     7
100
AcDbCircle
 10
42.032048
 20
260.253061
 40
0.5
100
AcDbArc
 50
180.0
 51
270.0
  0
LINE
  5
490
100
AcDbEntity
  8
M2
 62
     7
100
AcDbLine
 10
23.632048
 20
284.153061
 11
23.632048
 21
285.153061
  0
ELLIPSE
  5
491
100
AcDbEntity
  8
M2
 62
     7
100
AcDbEllipse
 10
46.982048
 20
293.169728
 11
1.0
 21
0.0
210
0.0
220
0.0
230
1.0
 40
0.416667
 41
4.71238898038469
 42
6.283185307179586
  0
LINE
  5
492
100
AcDbEntity
  8
M2
 62
     7
100
AcDbLine
 10
33.732048
 20
284.153061
 11
33.732048
 21
285.153061
  0
ELLIPSE
  5
493
100
AcDbEntity
  8
M2
 62
     7
100
AcDbEllipse
 10
38.382048
 20
293.169728
 11
1.0
 21
0.0
210
0.0
220
0.0
230
1.0
 40
0.416667
 41
3.141592653589793
 42
4.71238898038469
  0
LINE
  5
494
100
AcDbEntity
  8
M2
 62
     7
100
AcDbLine
 10
62.932048
 20
287.153061
 11
62.732048
 21
287.153061
  0
LINE
  5
495
100
AcDbEntity
  8
M2
 62
     7
100
AcDbLine
 10
61.732048
 20
286.153061
 11
61.732048
 21
275.053061
  0
LINE
  5
496
100
AcDbEntity
  8
M2
 62
     7
100
AcDbLine
 10
62.932048
 20
229.553061
 11
62.732048
 21
229.553061
  0
LINE
  5
497
100
AcDbEntity
  8
M2
 62
     7
100
AcDbLine
 10
61.732048
 20
231.553061
 11
61.732048
 21
230.553061
  0
LINE
  5
498
100
AcDbEntity
  8
M2
 62
     7
100
AcDbLine
 10
23.632048
 20
230.553061
 11
23.632048
 21
231.553061
  0
LINE
  5
499
100
AcDbEntity
  8
M2
 62
     7
100
AcDbLine
 10
23.632048
 20
285.153061
 11
23.632048
 21
286.153061
  0
LINE
  5
49A
100
AcDbEntity
  8
M2
 62
     7
100
AcDbLine
 10
22.432048
 20
229.553061
 11
22.632048
 21
229.553061
  0
LINE
  5
49B
100
AcDbEntity
  8
M2
 62
     7
100
AcDbLine
 10
42.532048
 20
260.353061
 11
42.832048
 21
260.353061
  0
LINE
  5
49C
100
AcDbEntity
  8
M2
 62
     7
100
AcDbLine
 10
33.732048
 20
285.153061
 11
33.732048
 21
289.553061
  0
LINE
  5
49D
100
AcDbEntity
  8
M2
 62
     7
100
AcDbLine
 10
43.332048
 20
253.453061
 11
43.332048
 21
255.853061
  0
LINE
  5
49E
100
AcDbEntity
  8
M2
 62
     7
100
AcDbLine
 10
22.432048
 20
287.153061
 11
22.632048
 21
287.153061
  0
LINE
  5
49F
100
AcDbEntity
  8
M2
 62
     7
100
AcDbLine
 10
42.032048
 20
255.853061
 11
42.032048
 21
253.453061
  0
LINE
  5
4A0
100
AcDbEntity
  8
M2
 62
     7
100
AcDbLine
 10
42.032048
 20
263.153061
 11
42.032048
 21
260.853061
  0
LINE
  5
4A1
100
AcDbEntity
  8
M2
 62
     7
100
AcDbLine
 10
42.532048
 20
256.353061
 11
42.832048
 21
256.353061
  0
LINE
  5
4A2
100
AcDbEntity
  8
M2
 62
     7
100
AcDbLine
 10
43.332048
 20
260.853061
 11
43.332048
 21
263.153061
  0
LINE
  5
4A3
100
AcDbEntity
  8
M2
 62
     7
100
AcDbLine
 10
23.282048
 20
274.553061
 11
23.282048
 21
262.603061
  0
LINE
  5
4A4
100
AcDbEntity
  8
M2
 62
     7
100
AcDbLine
 10
50.982048
 20
247.253061
 11
34.382048
 21
247.253061
  0
LINE
  5
4A5
100
AcDbEntity
  8
M2
 62
     7
100
AcDbLine
 10
37.282048
 20
301.253061
 11
38.382048
 21
301.253061
  0
LINE
  5
4A6
100
AcDbEntity
  8
M2
 62
     7
100
AcDbLine
 10
46.982048
 20
301.253061
 11
48.082048
 21
301.253061
  0
LINE
  5
4A7
100
AcDbEntity
  8
M2
 62
     7
100
AcDbLine
 10
37.782048
 20
268.953061
 11
37.782048
 21
269.653061
  0
LINE
  5
4A8
100
AcDbEntity
  8
M2
 62
     7
100
AcDbLine
 10
36.782048
 20
270.653061
 11
34.382048
 21
270.653061
  0
LINE
  5
4A9
100
AcDbEntity
  8
M2
 62
     7
100
AcDbLine
 10
47.082048
 20
268.453061
 11
38.282048
 21
268.453061
  0
LINE
  5
4AA
100
AcDbEntity
  8
M2
 62
     7
100
AcDbLine
 10
48.582048
 20
270.653061
 11
50.982048
 21
270.653061
  0
LINE
  5
4AB
100
AcDbEntity
  8
M2
 62
     7
100
AcDbLine
 10
47.582048
 20
268.953061
 11
47.582048
 21
269.653061
  0
LINE
  5
4AC
100
AcDbEntity
  8
M2
 62
     7
100
AcDbLine
 10
51.982048
 20
248.253061
 11
51.982048
 21
269.653061
  0
ARC
  5
4AD
100
AcDbEntity
  8
M2
 62
     7
100
AcDbCircle
 10
34.382048
 20
269.653061
 40
1.0
100
AcDbArc
 50
90.0
 51
180.0
  0
ARC
  5
4AE
100
AcDbEntity
  8
M2
 62
     7
100
AcDbCircle
 10
36.782048
 20
269.653061
 40
1.0
100
AcDbArc
 50
0.0
 51
90.0
  0
ARC
  5
4AF
100
AcDbEntity
  8
M2
 62
     7
100
AcDbCircle
 10
47.082048
 20
268.953061
 40
0.5
100
AcDbArc
 50
270.0
 51
360.0
  0
ARC
  5
4B0
100
AcDbEntity
  8
M2
 62
     7
100
AcDbCircle
 10
38.282048
 20
268.953061
 40
0.5
100
AcDbArc
 50
180.0
 51
270.0
  0
ARC
  5
4B1
100
AcDbEntity
  8
M2
 62
     7
100
AcDbCircle
 10
48.582048
 20
269.653061
 40
1.0
100
AcDbArc
 50
90.0
 51
180.0
  0
ARC
  5
4B2
100
AcDbEntity
  8
M2
 62
     7
100
AcDbCircle
 10
48.582048
 20
302.253061
 40
0.5
100
AcDbArc
 50
90.0
 51
180.0
  0
ARC
  5
4B3
100
AcDbEntity
  8
M2
 62
     7
100
AcDbCircle
 10
36.782048
 20
302.253061
 40
0.5
100
AcDbArc
 50
0.0
 51
90.0
  0
ARC
  5
4B4
100
AcDbEntity
  8
M2
 62
     7
100
AcDbCircle
 10
48.582048
 20
301.753061
 40
1.0
100
AcDbArc
 50
0.0
 51
90.0
  0
ARC
  5
4B5
100
AcDbEntity
  8
M2
 62
     7
100
AcDbCircle
 10
36.782048
 20
301.753061
 40
1.0
100
AcDbArc
 50
90.0
 51
180.0
  0
ARC
  5
4B6
100
AcDbEntity
  8
M2
 62
     7
100
AcDbCircle
 10
50.982048
 20
269.653061
 40
1.0
100
AcDbArc
 50
0.0
 51
90.0
  0
ARC
  5
4B7
100
AcDbEntity
  8
M2
 62
     7
100
AcDbCircle
 10
50.982048
 20
248.253061
 40
1.0
100
AcDbArc
 50
270.0
 51
360.0
  0
ARC
  5
4B8
100
AcDbEntity
  8
M2
 62
     7
100
AcDbCircle
 10
23.782048
 20
274.553061
 40
0.5
100
AcDbArc
 50
90.0
 51
180.0
  0
ARC
  5
4B9
100
AcDbEntity
  8
M2
 62
     7
100
AcDbCircle
 10
34.382048
 20
248.253061
 40
1.0
100
AcDbArc
 50
180.0
 51
270.0
  0
ARC
  5
4BA
100
AcDbEntity
  8
M2
 62
     7
100
AcDbCircle
 10
26.182048
 20
255.103061
 40
0.5
100
AcDbArc
 50
270.0
 51
360.0
  0
ARC
  5
4BB
100
AcDbEntity
  8
M2
 62
     7
100
AcDbCircle
 10
23.782048
 20
254.103061
 40
0.5
100
AcDbArc
 50
90.0
 51
180.0
  0
ARC
  5
4BC
100
AcDbEntity
  8
M2
 62
     7
100
AcDbCircle
 10
59.182048
 20
261.603061
 40
0.5
100
AcDbArc
 50
90.0
 51
180.0
  0
ARC
  5
4BD
100
AcDbEntity
  8
M2
 62
     7
100
AcDbCircle
 10
26.182048
 20
261.603061
 40
0.5
100
AcDbArc
 50
0.0
 51
90.0
  0
ARC
  5
4BE
100
AcDbEntity
  8
M2
 62
     7
100
AcDbCircle
 10
61.582048
 20
262.603061
 40
0.5
100
AcDbArc
 50
270.0
 51
360.0
  0
ARC
  5
4BF
100
AcDbEntity
  8
M2
 62
     7
100
AcDbCircle
 10
23.782048
 20
262.603061
 40
0.5
100
AcDbArc
 50
180.0
 51
270.0
  0
ARC
  5
4C0
100
AcDbEntity
  8
M2
 62
     7
100
AcDbCircle
 10
45.232048
 20
246.853061
 40
0.5
100
AcDbArc
 50
53.130102
 51
90.0
  0
ARC
  5
4C1
100
AcDbEntity
  8
M2
 62
     7
100
AcDbCircle
 10
50.232048
 20
246.853061
 40
0.5
100
AcDbArc
 50
90.0
 51
126.869898
  0
ARC
  5
4C2
100
AcDbEntity
  8
M2
 62
     7
100
AcDbCircle
 10
61.582048
 20
242.153061
 40
0.5
100
AcDbArc
 50
270.0
 51
360.0
  0
ARC
  5
4C3
100
AcDbEntity
  8
M2
 62
     7
100
AcDbCircle
 10
61.582048
 20
254.103061
 40
0.5
100
AcDbArc
 50
0.0
 51
90.0
  0
ARC
  5
4C4
100
AcDbEntity
  8
M2
 62
     7
100
AcDbCircle
 10
23.782048
 20
242.153061
 40
0.5
100
AcDbArc
 50
180.0
 51
270.0
  0
LINE
  5
4C5
100
AcDbEntity
  8
M2
 62
     7
100
AcDbLine
 10
44.732048
 20
232.653061
 11
44.732048
 21
233.653061
  0
LINE
  5
4C6
100
AcDbEntity
  8
M2
 62
     7
100
AcDbLine
 10
50.732048
 20
233.653061
 11
50.732048
 21
232.653061
  0
LINE
  5
4C7
100
AcDbEntity
  8
M2
 62
     7
100
AcDbLine
 10
50.732048
 20
232.653061
 11
44.732048
 21
232.653061
  0
ARC
  5
4C8
100
AcDbEntity
  8
M2
 62
     7
100
AcDbCircle
 10
61.582048
 20
274.553061
 40
0.5
100
AcDbArc
 50
0.0
 51
90.0
  0
ARC
  5
4C9
100
AcDbEntity
  8
M2
 62
     7
100
AcDbCircle
 10
59.182048
 20
255.103061
 40
0.5
100
AcDbArc
 50
180.0
 51
270.0
  0
LINE
  5
4CA
100
AcDbEntity
  8
M2
 62
     7
100
AcDbLine
 10
53.932048
 20
289.253061
 11
59.682048
 21
289.253061
  0
LINE
  5
4CB
100
AcDbEntity
  8
M2
 62
     7
100
AcDbLine
 10
59.682048
 20
291.253061
 11
59.682048
 21
289.253061
  0
LINE
  5
4CC
100
AcDbEntity
  8
M2
 62
     7
100
AcDbLine
 10
48.082048
 20
289.253061
 11
51.632048
 21
289.253061
  0
LINE
  5
4CD
100
AcDbEntity
  8
M2
 62
     7
100
AcDbLine
 10
37.282048
 20
302.253061
 11
37.282048
 21
289.253061
  0
LINE
  5
4CE
100
AcDbEntity
  8
M2
 62
     7
100
AcDbLine
 10
33.732048
 20
289.253061
 11
37.282048
 21
289.253061
  0
LINE
  5
4CF
100
AcDbEntity
  8
M2
 62
     7
100
AcDbLine
 10
35.782048
 20
292.753061
 11
35.782048
 21
301.753061
  0
LINE
  5
4D0
100
AcDbEntity
  8
M2
 62
     7
100
AcDbLine
 10
49.582048
 20
301.753061
 11
49.582048
 21
292.753061
  0
LINE
  5
4D1
100
AcDbEntity
  8
M2
 62
     7
100
AcDbLine
 10
37.282048
 20
292.753061
 11
25.682048
 21
292.753061
  0
LINE
  5
4D2
100
AcDbEntity
  8
M2
 62
     7
100
AcDbLine
 10
37.282048
 20
291.253061
 11
25.682048
 21
291.253061
  0
LINE
  5
4D3
100
AcDbEntity
  8
M2
 62
     7
100
AcDbLine
 10
25.682048
 20
289.253061
 11
31.432048
 21
289.253061
  0
LINE
  5
4D4
100
AcDbEntity
  8
M2
 62
     7
100
AcDbLine
 10
48.082048
 20
289.253061
 11
48.082048
 21
302.253061
  0
LINE
  5
4D5
100
AcDbEntity
  8
M2
 62
     7
100
AcDbLine
 10
59.682048
 20
292.753061
 11
59.682048
 21
291.253061
  0
LINE
  5
4D6
100
AcDbEntity
  8
M2
 62
     7
100
AcDbLine
 10
59.682048
 20
291.253061
 11
48.082048
 21
291.253061
  0
LINE
  5
4D7
100
AcDbEntity
  8
M2
 62
     7
100
AcDbLine
 10
48.082048
 20
292.753061
 11
59.682048
 21
292.753061
  0
LINE
  5
4D8
100
AcDbEntity
  8
M2
 62
     7
100
AcDbLine
 10
57.082048
 20
301.253061
 11
49.582048
 21
301.253061
  0
ARC
  5
4D9
100
AcDbEntity
  8
M2
 62
     7
100
AcDbCircle
 10
48.232048
 20
263.653061
 40
0.5
100
AcDbArc
 50
180.0
 51
270.0
  0
ARC
  5
4DA
100
AcDbEntity
  8
M2
 62
     7
100
AcDbCircle
 10
37.132048
 20
263.653061
 40
0.5
100
AcDbArc
 50
270.0
 51
360.0
  0
ARC
  5
4DB
100
AcDbEntity
  8
M2
 62
     7
100
AcDbCircle
 10
48.932048
 20
269.353061
 40
1.2
100
AcDbArc
 50
90.0
 51
180.0
  0
ARC
  5
4DC
100
AcDbEntity
  8
M2
 62
     7
100
AcDbCircle
 10
36.432048
 20
269.353061
 40
1.2
100
AcDbArc
 50
0.0
 51
90.0
  0
ARC
  5
4DD
100
AcDbEntity
  8
M2
 62
     7
100
AcDbCircle
 10
34.482048
 20
269.553061
 40
1.0
100
AcDbArc
 50
90.0
 51
180.0
  0
ARC
  5
4DE
100
AcDbEntity
  8
M2
 62
     7
100
AcDbCircle
 10
50.882048
 20
269.553061
 40
1.0
100
AcDbArc
 50
0.0
 51
90.0
  0
ARC
  5
4DF
100
AcDbEntity
  8
M2
 62
     7
100
AcDbCircle
 10
50.882048
 20
248.353061
 40
1.0
100
AcDbArc
 50
270.0
 51
360.0
  0
ARC
  5
4E0
100
AcDbEntity
  8
M2
 62
     7
100
AcDbCircle
 10
34.482048
 20
250.853061
 40
1.0
100
AcDbArc
 50
90.0
 51
180.0
  0
ARC
  5
4E1
100
AcDbEntity
  8
M2
 62
     7
100
AcDbCircle
 10
34.482048
 20
248.353061
 40
1.0
100
AcDbArc
 50
180.0
 51
270.0
  0
LINE
  5
4E2
100
AcDbEntity
  8
M2
 62
     7
100
AcDbLine
 10
48.232048
 20
247.853061
 11
48.232048
 21
255.703061
  0
LINE
  5
4E3
100
AcDbEntity
  8
M2
 62
     7
100
AcDbLine
 10
37.132048
 20
247.853061
 11
37.132048
 21
255.703061
  0
LINE
  5
4E4
100
AcDbEntity
  8
M2
 62
     7
100
AcDbLine
 10
48.232048
 20
255.703061
 11
48.482048
 21
256.203061
  0
LINE
  5
4E5
100
AcDbEntity
  8
M2
 62
     7
100
AcDbLine
 10
37.132048
 20
255.703061
 11
36.882048
 21
256.203061
  0
LINE
  5
4E6
100
AcDbEntity
  8
M2
 62
     7
100
AcDbLine
 10
50.882048
 20
247.353061
 11
48.732048
 21
247.353061
  0
ARC
  5
4E7
100
AcDbEntity
  8
M2
 62
     7
100
AcDbCircle
 10
50.882048
 20
250.853061
 40
1.0
100
AcDbArc
 50
0.0
 51
90.0
  0
LINE
  5
4E8
100
AcDbEntity
  8
M2
 62
     7
100
AcDbLine
 10
51.882048
 20
250.853061
 11
51.882048
 21
248.353061
  0
LINE
  5
4E9
100
AcDbEntity
  8
M2
 62
     7
100
AcDbLine
 10
50.382048
 20
251.853061
 11
50.882048
 21
251.853061
  0
LINE
  5
4EA
100
AcDbEntity
  8
M2
 62
     7
100
AcDbLine
 10
33.482048
 20
250.853061
 11
33.482048
 21
248.353061
  0
LINE
  5
4EB
100
AcDbEntity
  8
M2
 62
     7
100
AcDbLine
 10
34.982048
 20
251.853061
 11
34.482048
 21
251.853061
  0
LINE
  5
4EC
100
AcDbEntity
  8
M2
 62
     7
100
AcDbLine
 10
60.832048
 20
233.703061
 11
60.832048
 21
232.653061
  0
LINE
  5
4ED
100
AcDbEntity
  8
M2
 62
     7
100
AcDbLine
 10
60.832048
 20
232.653061
 11
54.832048
 21
232.653061
  0
LINE
  5
4EE
100
AcDbEntity
  8
M2
 62
     7
100
AcDbLine
 10
34.632048
 20
232.653061
 11
34.632048
 21
233.703061
  0
LINE
  5
4EF
100
AcDbEntity
  8
M2
 62
     7
100
AcDbLine
 10
40.632048
 20
232.653061
 11
34.632048
 21
232.653061
  0
LINE
  5
4F0
100
AcDbEntity
  8
M2
 62
     7
100
AcDbLine
 10
40.632048
 20
233.653061
 11
40.632048
 21
232.653061
  0
LINE
  5
4F1
100
AcDbEntity
  8
M2
 62
     7
100
AcDbLine
 10
54.832048
 20
232.653061
 11
54.832048
 21
233.703061
  0
LINE
  5
4F2
100
AcDbEntity
  8
M2
 62
     7
100
AcDbLine
 10
44.732048
 20
283.003061
 11
44.732048
 21
284.053061
  0
LINE
  5
4F3
100
AcDbEntity
  8
M2
 62
     7
100
AcDbLine
 10
34.482048
 20
270.553061
 11
36.432048
 21
270.553061
  0
LINE
  5
4F4
100
AcDbEntity
  8
M2
 62
     7
100
AcDbLine
 10
50.732048
 20
284.053061
 11
50.732048
 21
283.003061
  0
LINE
  5
4F5
100
AcDbEntity
  8
M2
 62
     7
100
AcDbLine
 10
49.732048
 20
270.553061
 11
49.732048
 21
270.653061
  0
LINE
  5
4F6
100
AcDbEntity
  8
M2
 62
     7
100
AcDbLine
 10
44.732048
 20
284.053061
 11
50.732048
 21
284.053061
  0
LINE
  5
4F7
100
AcDbEntity
  8
M2
 62
     7
100
AcDbLine
 10
33.482048
 20
269.553061
 11
33.482048
 21
264.453061
  0
LINE
  5
4F8
100
AcDbEntity
  8
M2
 62
     7
100
AcDbLine
 10
51.882048
 20
269.553061
 11
51.882048
 21
264.453061
  0
LINE
  5
4F9
100
AcDbEntity
  8
M2
 62
     7
100
AcDbLine
 10
37.632048
 20
263.653061
 11
37.632048
 21
269.353061
  0
LINE
  5
4FA
100
AcDbEntity
  8
M2
 62
     7
100
AcDbLine
 10
30.532048
 20
284.053061
 11
30.532048
 21
283.003061
  0
LINE
  5
4FB
100
AcDbEntity
  8
M2
 62
     7
100
AcDbLine
 10
24.532048
 20
283.003061
 11
24.532048
 21
284.053061
  0
LINE
  5
4FC
100
AcDbEntity
  8
M2
 62
     7
100
AcDbLine
 10
48.932048
 20
270.553061
 11
50.882048
 21
270.553061
  0
LINE
  5
4FD
100
AcDbEntity
  8
M2
 62
     7
100
AcDbLine
 10
48.482048
 20
261.703061
 11
48.232048
 21
262.203061
  0
LINE
  5
4FE
100
AcDbEntity
  8
M2
 62
     7
100
AcDbLine
 10
34.982048
 20
262.953061
 11
34.982048
 21
251.853061
  0
LINE
  5
4FF
100
AcDbEntity
  8
M2
 62
     7
100
AcDbLine
 10
50.382048
 20
262.953061
 11
50.382048
 21
251.853061
  0
LINE
  5
500
100
AcDbEntity
  8
M2
 62
     7
100
AcDbLine
 10
36.882048
 20
256.203061
 11
36.882048
 21
261.703061
  0
LINE
  5
501
100
AcDbEntity
  8
M2
 62
     7
100
AcDbLine
 10
48.482048
 20
256.203061
 11
48.482048
 21
261.703061
  0
LINE
  5
502
100
AcDbEntity
  8
M2
 62
     7
100
AcDbLine
 10
33.482048
 20
264.453061
 11
34.982048
 21
262.953061
  0
LINE
  5
503
100
AcDbEntity
  8
M2
 62
     7
100
AcDbLine
 10
51.882048
 20
264.453061
 11
50.382048
 21
262.953061
  0
LINE
  5
504
100
AcDbEntity
  8
M2
 62
     7
100
AcDbLine
 10
47.732048
 20
263.653061
 11
47.732048
 21
269.353061
  0
LINE
  5
505
100
AcDbEntity
  8
M2
 62
     7
100
AcDbLine
 10
36.882048
 20
261.703061
 11
37.132048
 21
262.203061
  0
LINE
  5
506
100
AcDbEntity
  8
M2
 62
     7
100
AcDbLine
 10
37.132048
 20
262.203061
 11
37.132048
 21
263.153061
  0
LINE
  5
507
100
AcDbEntity
  8
M2
 62
     7
100
AcDbLine
 10
48.232048
 20
262.203061
 11
48.232048
 21
263.153061
  0
LINE
  5
508
100
AcDbEntity
  8
M2
 62
     7
100
AcDbLine
 10
62.082048
 20
242.153061
 11
62.082048
 21
254.103061
  0
LINE
  5
509
100
AcDbEntity
  8
M2
 62
     7
100
AcDbLine
 10
62.232048
 20
241.653061
 11
23.132048
 21
241.653061
  0
LINE
  5
50A
100
AcDbEntity
  8
M2
 62
     7
100
AcDbLine
 10
59.182048
 20
254.603061
 11
61.582048
 21
254.603061
  0
LINE
  5
50B
100
AcDbEntity
  8
M2
 62
     7
100
AcDbLine
 10
23.782048
 20
254.603061
 11
26.182048
 21
254.603061
  0
LINE
  5
50C
100
AcDbEntity
  8
M2
 62
     7
100
AcDbLine
 10
23.282048
 20
242.153061
 11
23.282048
 21
254.103061
  0
LINE
  5
50D
100
AcDbEntity
  8
M2
 62
     7
100
AcDbLine
 10
58.682048
 20
261.603061
 11
58.682048
 21
255.103061
  0
LINE
  5
50E
100
AcDbEntity
  8
M2
 62
     7
100
AcDbLine
 10
61.582048
 20
275.053061
 11
61.732048
 21
275.053061
  0
LINE
  5
50F
100
AcDbEntity
  8
M2
 62
     7
100
AcDbLine
 10
23.782048
 20
275.053061
 11
23.632048
 21
275.053061
  0
LINE
  5
510
100
AcDbEntity
  8
M2
 62
     7
100
AcDbLine
 10
45.682048
 20
271.953061
 11
39.682048
 21
271.953061
  0
LINE
  5
511
100
AcDbEntity
  8
M2
 62
     7
100
AcDbLine
 10
39.682048
 20
271.953061
 11
39.682048
 21
270.353061
  0
LINE
  5
512
100
AcDbEntity
  8
M2
 62
     7
100
AcDbLine
 10
45.682048
 20
270.353061
 11
45.682048
 21
271.953061
  0
ARC
  5
513
100
AcDbEntity
  8
M2
 62
     7
100
AcDbCircle
 10
40.132048
 20
246.853061
 40
0.5
100
AcDbArc
 50
90.0
 51
126.869898
  0
LINE
  5
514
100
AcDbEntity
  8
M2
 62
     7
100
AcDbLine
 10
33.382048
 20
248.253061
 11
33.382048
 21
269.653061
  0
ARC
  5
515
100
AcDbEntity
  8
M2
 62
     7
100
AcDbCircle
 10
35.132048
 20
246.853061
 40
0.5
100
AcDbArc
 50
53.130102
 51
90.0
  0
LINE
  5
516
100
AcDbEntity
  8
M2
 62
     7
100
AcDbLine
 10
61.582048
 20
262.103061
 11
59.182048
 21
262.103061
  0
LINE
  5
517
100
AcDbEntity
  8
M2
 62
     7
100
AcDbLine
 10
26.682048
 20
255.103061
 11
26.682048
 21
261.603061
  0
LINE
  5
518
100
AcDbEntity
  8
M2
 62
     7
100
AcDbLine
 10
62.082048
 20
274.553061
 11
62.082048
 21
262.603061
  0
LINE
  5
519
100
AcDbEntity
  8
M2
 62
     7
100
AcDbLine
 10
26.182048
 20
262.103061
 11
23.782048
 21
262.103061
  0
LINE
  5
51A
100
AcDbEntity
  8
M2
 62
     7
100
AcDbLine
 10
39.682048
 20
270.353061
 11
45.682048
 21
270.353061
  0
LINE
  5
51B
100
AcDbEntity
  8
M2
 62
     7
100
AcDbLine
 10
61.582048
 20
241.653061
 11
61.732048
 21
241.653061
  0
LINE
  5
51C
100
AcDbEntity
  8
M2
 62
     7
100
AcDbLine
 10
23.782048
 20
241.653061
 11
23.632048
 21
241.653061
  0
LINE
  5
51D
100
AcDbEntity
  8
M2
 62
     7
100
AcDbLine
 10
62.129417
 20
267.103061
 11
62.082048
 21
267.103061
  0
LINE
  5
51E
100
AcDbEntity
  8
M2
 62
     7
100
AcDbLine
 10
23.23468
 20
267.103061
 11
23.282048
 21
267.103061
  0
LINE
  5
51F
100
AcDbEntity
  8
M2
 62
     7
100
AcDbLine
 10
62.129417
 20
264.603061
 11
62.082048
 21
264.603061
  0
LINE
  5
520
100
AcDbEntity
  8
M2
 62
     7
100
AcDbLine
 10
23.23468
 20
264.603061
 11
23.282048
 21
264.603061
  0
LINE
  5
521
100
AcDbEntity
  8
M2
 62
     7
100
AcDbLine
 10
30.532048
 20
232.653061
 11
24.532048
 21
232.653061
  0
LINE
  5
522
100
AcDbEntity
  8
M2
 62
     7
100
AcDbLine
 10
24.532048
 20
232.653061
 11
24.532048
 21
233.703061
  0
LINE
  5
523
100
AcDbEntity
  8
M2
 62
     7
100
AcDbLine
 10
30.532048
 20
233.703061
 11
30.532048
 21
232.653061
  0
LINE
  5
524
100
AcDbEntity
  8
M2
 62
     7
100
AcDbLine
 10
35.632048
 20
270.653061
 11
35.632048
 21
270.553061
  0
LINE
  5
525
100
AcDbEntity
  8
M2
 62
     7
100
AcDbLine
 10
34.632048
 20
283.078061
 11
34.632048
 21
284.053061
  0
LINE
  5
526
100
AcDbEntity
  8
M2
 62
     7
100
AcDbLine
 10
34.632048
 20
284.053061
 11
40.632048
 21
284.053061
  0
LINE
  5
527
100
AcDbEntity
  8
M2
 62
     7
100
AcDbLine
 10
40.632048
 20
284.053061
 11
40.632048
 21
283.053061
  0
LINE
  5
528
100
AcDbEntity
  8
M2
 62
     7
100
AcDbLine
 10
54.832048
 20
283.053061
 11
54.832048
 21
284.053061
  0
LINE
  5
529
100
AcDbEntity
  8
M2
 62
     7
100
AcDbLine
 10
60.832048
 20
284.053061
 11
60.832048
 21
283.053061
  0
LINE
  5
52A
100
AcDbEntity
  8
M2
 62
     7
100
AcDbLine
 10
54.832048
 20
284.053061
 11
60.832048
 21
284.053061
  0
LINE
  5
52B
100
AcDbEntity
  8
M2
  6
DASHDOT
 62
     7
100
AcDbLine
 10
42.682048
 20
219.472964
 11
42.682048
 21
304.57507
  0
LINE
  5
52C
100
AcDbEntity
  8
M2
  6
DASHDOT
 62
     7
100
AcDbLine
 10
37.132048
 20
225.853061
 11
38.132048
 21
225.853061
  0
LINE
  5
52D
100
AcDbEntity
  8
M2
  6
DASHDOT
 62
     7
100
AcDbLine
 10
37.632048
 20
225.353061
 11
37.632048
 21
226.353061
  0
LINE
  5
52E
100
AcDbEntity
  8
M2
  6
DASHDOT
 62
     7
100
AcDbLine
 10
37.132048
 20
237.453061
 11
38.132048
 21
237.453061
  0
LINE
  5
52F
100
AcDbEntity
  8
M2
  6
DASHDOT
 62
     7
100
AcDbLine
 10
37.632048
 20
236.953061
 11
37.632048
 21
237.953061
  0
LINE
  5
530
100
AcDbEntity
  8
M2
  6
DASHDOT
 62
     7
100
AcDbLine
 10
47.232048
 20
237.453061
 11
48.232048
 21
237.453061
  0
LINE
  5
531
100
AcDbEntity
  8
M2
  6
DASHDOT
 62
     7
100
AcDbLine
 10
47.732048
 20
236.953061
 11
47.732048
 21
237.953061
  0
LINE
  5
532
100
AcDbEntity
  8
M2
  6
DASHDOT
 62
     7
100
AcDbLine
 10
57.332048
 20
237.453061
 11
58.332048
 21
237.453061
  0
LINE
  5
533
100
AcDbEntity
  8
M2
  6
DASHDOT
 62
     7
100
AcDbLine
 10
57.832048
 20
236.953061
 11
57.832048
 21
237.953061
  0
LINE
  5
534
100
AcDbEntity
  8
M2
  6
DASHDOT
 62
     7
100
AcDbLine
 10
57.332048
 20
279.253061
 11
58.332048
 21
279.253061
  0
LINE
  5
535
100
AcDbEntity
  8
M2
  6
DASHDOT
 62
     7
100
AcDbLine
 10
57.832048
 20
278.753061
 11
57.832048
 21
279.753061
  0
LINE
  5
536
100
AcDbEntity
  8
M2
  6
DASHDOT
 62
     7
100
AcDbLine
 10
47.232048
 20
279.253061
 11
48.232048
 21
279.253061
  0
LINE
  5
537
100
AcDbEntity
  8
M2
  6
DASHDOT
 62
     7
100
AcDbLine
 10
47.732048
 20
278.753061
 11
47.732048
 21
279.753061
  0
LINE
  5
538
100
AcDbEntity
  8
M2
  6
DASHDOT
 62
     7
100
AcDbLine
 10
37.132048
 20
279.253061
 11
38.132048
 21
279.253061
  0
LINE
  5
539
100
AcDbEntity
  8
M2
  6
DASHDOT
 62
     7
100
AcDbLine
 10
37.632048
 20
278.753061
 11
37.632048
 21
279.753061
  0
LINE
  5
53A
100
AcDbEntity
  8
M2
  6
DASHDOT
 62
     7
100
AcDbLine
 10
27.032048
 20
279.253061
 11
28.032048
 21
279.253061
  0
LINE
  5
53B
100
AcDbEntity
  8
M2
  6
DASHDOT
 62
     7
100
AcDbLine
 10
27.532048
 20
278.753061
 11
27.532048
 21
279.753061
  0
LINE
  5
53C
100
AcDbEntity
  8
M2
  6
DASHDOT
 62
     7
100
AcDbLine
 10
31.282048
 20
296.853061
 11
32.282048
 21
296.853061
  0
LINE
  5
53D
100
AcDbEntity
  8
M2
  6
DASHDOT
 62
     7
100
AcDbLine
 10
31.782048
 20
296.353061
 11
31.782048
 21
297.353061
  0
LINE
  5
53E
100
AcDbEntity
  8
M2
  6
DASHDOT
 62
     7
100
AcDbLine
 10
53.082048
 20
296.853061
 11
54.082048
 21
296.853061
  0
LINE
  5
53F
100
AcDbEntity
  8
M2
  6
DASHDOT
 62
     7
100
AcDbLine
 10
53.582048
 20
296.353061
 11
53.582048
 21
297.353061
  0
LINE
  5
540
100
AcDbEntity
  8
M2
  6
DASHDOT
 62
     7
100
AcDbLine
 10
27.032048
 20
237.453061
 11
28.032048
 21
237.453061
  0
LINE
  5
541
100
AcDbEntity
  8
M2
  6
DASHDOT
 62
     7
100
AcDbLine
 10
27.532048
 20
236.953061
 11
27.532048
 21
237.953061
  0
LINE
  5
542
100
AcDbEntity
  8
M2
  6
DASHDOT
 62
     7
100
AcDbLine
 10
42.182048
 20
296.453061
 11
43.182048
 21
296.453061
  0
LINE
  5
543
100
AcDbEntity
  8
M2
 62
     7
100
AcDbLine
 10
42.232048
 20
295.253061
 11
43.132048
 21
295.253061
  0
LINE
  5
544
100
AcDbEntity
  8
M2
 62
     7
100
AcDbLine
 10
42.232048
 20
296.003061
 11
42.232048
 21
295.253061
  0
LINE
  5
545
100
AcDbEntity
  8
M2
 62
     7
100
AcDbLine
 10
43.132048
 20
295.253061
 11
43.132048
 21
296.003061
  0
LINE
  5
546
100
AcDbEntity
  8
M2
  6
DASHDOT
 62
     7
100
AcDbLine
 10
42.182048
 20
296.453061
 11
43.182048
 21
296.453061
  0
LINE
  5
547
100
AcDbEntity
  8
M2
 62
     7
100
AcDbLine
 10
42.232048
 20
296.003061
 11
41.482048
 21
296.003061
  0
LINE
  5
548
100
AcDbEntity
  8
M2
 62
     7
100
AcDbLine
 10
41.482048
 20
296.903061
 11
42.232048
 21
296.903061
  0
LINE
  5
549
100
AcDbEntity
  8
M2
 62
     7
100
AcDbLine
 10
42.232048
 20
297.653061
 11
42.232048
 21
296.903061
  0
CIRCLE
  5
54A
100
AcDbEntity
  8
M2
 62
     7
100
AcDbCircle
 10
42.682048
 20
296.453061
 40
2.85
  0
LINE
  5
54B
100
AcDbEntity
  8
M2
 62
     7
100
AcDbLine
 10
43.132048
 20
297.653061
 11
42.232048
 21
297.653061
  0
LINE
  5
54C
100
AcDbEntity
  8
M2
 62
     7
100
AcDbLine
 10
43.882048
 20
296.003061
 11
43.132048
 21
296.003061
  0
LINE
  5
54D
100
AcDbEntity
  8
M2
 62
     7
100
AcDbLine
 10
43.132048
 20
296.903061
 11
43.132048
 21
297.653061
  0
LINE
  5
54E
100
AcDbEntity
  8
M2
 62
     7
100
AcDbLine
 10
43.132048
 20
296.903061
 11
43.882048
 21
296.903061
  0
CIRCLE
  5
54F
100
AcDbEntity
  8
M2
 62
     7
100
AcDbCircle
 10
53.582048
 20
296.853061
 40
3.0
  0
CIRCLE
  5
550
100
AcDbEntity
  8
M2
 62
     7
100
AcDbCircle
 10
57.832048
 20
279.253061
 40
3.0
  0
CIRCLE
  5
551
100
AcDbEntity
  8
M2
 62
     7
100
AcDbCircle
 10
47.732048
 20
279.253061
 40
3.0
  0
CIRCLE
  5
552
100
AcDbEntity
  8
M2
 62
     7
100
AcDbCircle
 10
37.632048
 20
279.253061
 40
3.0
  0
CIRCLE
  5
553
100
AcDbEntity
  8
M2
 62
     7
100
AcDbCircle
 10
27.532048
 20
279.253061
 40
3.0
  0
CIRCLE
  5
554
100
AcDbEntity
  8
M2
 62
     7
100
AcDbCircle
 10
27.532048
 20
237.453061
 40
3.0
  0
CIRCLE
  5
555
100
AcDbEntity
  8
M2
 62
     7
100
AcDbCircle
 10
37.632048
 20
237.453061
 40
3.0
  0
CIRCLE
  5
556
100
AcDbEntity
  8
M2
 62
     7
100
AcDbCircle
 10
47.732048
 20
237.453061
 40
3.0
  0
ARC
  5
557
100
AcDbEntity
  8
M2
 62
     7
100
AcDbCircle
 10
26.182048
 20
228.553061
 40
5.0
100
AcDbArc
 50
180.0
 51
270.0
  0
ARC
  5
558
100
AcDbEntity
  8
M2
 62
     7
100
AcDbCircle
 10
57.532048
 20
228.553061
 40
5.0
100
AcDbArc
 50
208.415406
 51
270.0
  0
ARC
  5
559
100
AcDbEntity
  8
M2
 62
     7
100
AcDbCircle
 10
26.482273
 20
228.549069
 40
5.0
100
AcDbArc
 50
-90.0
 51
0.0
  0
LINE
  5
55A
100
AcDbEntity
  8
M2
  6
DASHED
 62
     7
100
AcDbLine
 10
76.682048
 20
288.053061
 11
76.682048
 21
228.653061
  0
LINE
  5
55B
100
AcDbEntity
  8
M2
  6
DASHED
 62
     7
100
AcDbLine
 10
76.682048
 20
228.653061
 11
64.182048
 21
228.653061
  0
LINE
  5
55C
100
AcDbEntity
  8
M2
  6
DASHED
 62
     7
100
AcDbLine
 10
76.682048
 20
288.053061
 11
64.182048
 21
288.053061
  0
LINE
  5
55D
100
AcDbEntity
  8
M2
  6
DASHED
 62
     7
100
AcDbLine
 10
8.682048
 20
288.053061
 11
21.182048
 21
288.053061
  0
LINE
  5
55E
100
AcDbEntity
  8
M2
  6
DASHED
 62
     7
100
AcDbLine
 10
8.682048
 20
288.053061
 11
8.682048
 21
228.653061
  0
LINE
  5
55F
100
AcDbEntity
  8
M2
  6
DASHED
 62
     7
100
AcDbLine
 10
8.682048
 20
228.653061
 11
21.182048
 21
228.653061
  0
HATCH
  5
560
100
AcDbEntity
  8
M2
 62
     7
100
AcDbHatch
 10
0.0
 20
0.0
210
0.0
220
0.0
230
1.0
  2
SOLID
 70
     1
 71
     0
 91
        1
 92
        1
 93
        4
 72
     1
 10
140.433792
 20
302.353061
 11
138.433792
 21
302.353061
 72
     1
 10
138.433792
 20
302.353061
 11
138.433792
 21
284.153061
 72
     1
 10
138.433792
 20
284.153061
 11
140.433792
 21
284.153061
 72
     1
 10
140.433792
 20
284.153061
 11
140.433792
 21
302.353061
 97
        0
 75
     0
 76
     1
 98
        1
 10
0.0
 20
0.0
  0
CIRCLE
  5
563
100
AcDbEntity
  8
M2
 62
     7
100
AcDbCircle
 10
25.182048
 20
119.021471
 40
2.0
  0
CIRCLE
  5
564
100
AcDbEntity
  8
M2
 62
     7
100
AcDbCircle
 10
25.182048
 20
119.021471
 40
1.7
  0
CIRCLE
  5
565
100
AcDbEntity
  8
M2
 62
     7
100
AcDbCircle
 10
58.182048
 20
64.021486
 40
1.7
  0
LINE
  5
566
100
AcDbEntity
  8
M2
  6
DIVIDE
 62
     7
100
AcDbLine
 10
64.182048
 20
62.321471
 11
64.182048
 21
60.321471
  0
LINE
  5
567
100
AcDbEntity
  8
M2
  6
DIVIDE
 62
     7
100
AcDbLine
 10
64.182048
 20
125.821471
 11
64.182048
 21
117.921471
  0
LINE
  5
568
100
AcDbEntity
  8
M2
  6
DIVIDE
 62
     7
100
AcDbLine
 10
59.682048
 20
131.521471
 11
59.682048
 21
134.521471
  0
LINE
  5
569
100
AcDbEntity
  8
M2
  6
DIVIDE
 62
     7
100
AcDbLine
 10
42.682048
 20
134.521471
 11
59.682048
 21
134.521471
  0
LINE
  5
56A
100
AcDbEntity
  8
M2
  6
DIVIDE
 62
     7
100
AcDbLine
 10
64.182048
 20
54.621471
 11
21.182048
 21
54.621471
  0
LINE
  5
56B
100
AcDbEntity
  8
M2
  6
DIVIDE
 62
     7
100
AcDbLine
 10
59.682048
 20
131.521471
 11
59.682048
 21
125.821471
  0
LINE
  5
56C
100
AcDbEntity
  8
M2
  6
DIVIDE
 62
     7
100
AcDbLine
 10
64.182048
 20
90.121471
 11
64.182048
 21
54.621471
  0
LINE
  5
56D
100
AcDbEntity
  8
M2
  6
DIVIDE
 62
     7
100
AcDbLine
 10
64.182048
 20
113.921471
 11
64.182048
 21
90.121471
  0
LINE
  5
56E
100
AcDbEntity
  8
M2
  6
DIVIDE
 62
     7
100
AcDbLine
 10
64.182048
 20
117.921471
 11
64.182048
 21
113.921471
  0
LINE
  5
56F
100
AcDbEntity
  8
M2
  6
DIVIDE
 62
     7
100
AcDbLine
 10
42.682048
 20
134.521471
 11
25.682048
 21
134.521471
  0
LINE
  5
570
100
AcDbEntity
  8
M2
  6
DIVIDE
 62
     7
100
AcDbLine
 10
25.682048
 20
134.521471
 11
25.682048
 21
125.821471
  0
LINE
  5
571
100
AcDbEntity
  8
M2
  6
DIVIDE
 62
     7
100
AcDbLine
 10
21.182048
 20
125.821471
 11
21.182048
 21
54.621471
  0
LINE
  5
572
100
AcDbEntity
  8
M2
  6
DIVIDE
 62
     7
100
AcDbLine
 10
59.682048
 20
125.821471
 11
64.182048
 21
125.821471
  0
LINE
  5
573
100
AcDbEntity
  8
M2
  6
DIVIDE
 62
     7
100
AcDbLine
 10
25.682048
 20
125.821471
 11
21.182048
 21
125.821471
  0
CIRCLE
  5
574
100
AcDbEntity
  8
M2
 62
     7
100
AcDbCircle
 10
58.182056
 20
64.021486
 40
2.0
  0
LINE
  5
575
100
AcDbEntity
  8
M2
  6
DASHDOT
 62
     7
100
AcDbLine
 10
62.779453
 20
64.021486
 11
53.584644
 21
64.021486
  0
LINE
  5
576
100
AcDbEntity
  8
M2
  6
DASHDOT
 62
     7
100
AcDbLine
 10
58.182041
 20
68.618883
 11
58.182056
 21
59.424074
  0
LINE
  5
577
100
AcDbEntity
  8
M2
  6
DASHDOT
 62
     7
100
AcDbLine
 10
29.279453
 20
119.021471
 11
21.084644
 21
119.021471
  0
LINE
  5
578
100
AcDbEntity
  8
M2
  6
DASHDOT
 62
     7
100
AcDbLine
 10
25.182041
 20
123.118867
 11
25.182056
 21
114.924059
  0
LINE
  5
579
100
AcDbEntity
  8
M3
 62
     2
100
AcDbLine
 10
271.428576
 20
42.857144
 11
128.571431
 21
42.857144
  0
LINE
  5
57A
100
AcDbEntity
  8
M3
 62
     2
100
AcDbLine
 10
3.944305E-031
 20
7.888609E-031
 11
3.944305E-031
 21
392.85715
  0
LINE
  5
57B
100
AcDbEntity
  8
M3
 62
     2
100
AcDbLine
 10
271.428576
 20
7.888609E-031
 11
3.944305E-031
 21
7.888609E-031
  0
LINE
  5
57C
100
AcDbEntity
  8
M3
 62
     2
100
AcDbLine
 10
271.428576
 20
14.285715
 11
128.571431
 21
14.285715
  0
TEXT
  5
57D
100
AcDbEntity
  8
M3
 62
     2
100
AcDbText
 10
130.714279
 20
17.857145
 40
7.142857
  1
形　式；
 41
1.0
  7
STANDARD
100
AcDbText
  0
LINE
  5
57E
100
AcDbEntity
  8
M3
 62
     2
100
AcDbLine
 10
271.428576
 20
28.571429
 11
128.571431
 21
28.571429
  0
TEXT
  5
57F
100
AcDbEntity
  8
M3
 62
     2
100
AcDbText
 10
130.714279
 20
32.142857
 40
7.142857
  1
登録名：
 41
1.0
  7
STANDARD
100
AcDbText
  0
LINE
  5
580
100
AcDbEntity
  8
M3
 62
     2
100
AcDbLine
 10
128.571431
 20
7.888609E-031
 11
128.571431
 21
42.857144
  0
TEXT
  5
581
100
AcDbEntity
  8
M3
 62
     2
100
AcDbText
 10
130.714279
 20
3.571429
 40
7.142857
  1
適　用；
 41
1.0
  7
STANDARD
100
AcDbText
  0
LINE
  5
582
100
AcDbEntity
  8
M3
 62
     2
100
AcDbLine
 10
3.944305E-031
 20
392.85715
 11
271.428576
 21
392.85715
  0
LINE
  5
583
100
AcDbEntity
  8
M3
 62
     2
100
AcDbLine
 10
271.428576
 20
392.85715
 11
271.428576
 21
7.888609E-031
  0
TEXT
  5
584
100
AcDbEntity
  8
M3
 62
     2
100
AcDbText
 10
165.714294
 20
32.142857
 40
7.142857
  1
ＤＭＨＳ１０ＧＲ００
 41
0.5
  7
STANDARD
100
AcDbText
  0
TEXT
  5
585
100
AcDbEntity
  8
M3
 62
     2
100
AcDbText
 10
165.714294
 20
17.857145
 40
7.142857
  1
ＨＳ１０－Ｇ
 41
0.5
  7
STANDARD
100
AcDbText
  0
LINE
  5
586
100
AcDbEntity
  8
DN0
100
AcDbLine
 10
205.315561
 20
206.610269
 11
221.545561
 21
206.610269
  0
TEXT
  5
587
100
AcDbEntity
  8
DN0
100
AcDbText
 10
205.763894
 20
207.010269
 40
4.0
  1
取付状態
 41
0.833333
  7
STANDARD
100
AcDbText
  0
LINE
  5
588
100
AcDbEntity
  8
DN0
100
AcDbLine
 10
34.70434
 20
36.473856
 11
50.93434
 21
36.473856
  0
TEXT
  5
589
100
AcDbEntity
  8
DN0
100
AcDbText
 10
35.152673
 20
36.873856
 40
4.0
  1
せん孔図
 41
0.833333
  7
STANDARD
100
AcDbText
  0
TEXT
  5
58A
100
AcDbEntity
  8
DN0
100
AcDbText
 10
4.414543
 20
74.694717
 40
2.5
  1
３０ｘ４８
 41
0.666667
  7
STANDARD
100
AcDbText
  0
TEXT
  5
58B
100
AcDbEntity
  8
DN0
100
AcDbText
 10
4.414543
 20
70.794716
 40
2.5
  1
３４ｘ４８
 41
0.666667
  7
STANDARD
100
AcDbText
  0
TEXT
  5
58C
100
AcDbEntity
  8
DN0
100
AcDbText
 10
4.414543
 20
66.894714
 40
2.5
  1
３４ｘ５２
 41
0.666667
  7
STANDARD
100
AcDbText
  0
TEXT
  5
58D
100
AcDbEntity
  8
DN0
100
AcDbText
 10
4.414543
 20
62.994713
 40
2.5
  1
３５ｘ５０
 41
0.666667
  7
STANDARD
100
AcDbText
  0
TEXT
  5
58E
100
AcDbEntity
  8
DN0
100
AcDbText
 10
4.414543
 20
59.094711
 40
2.5
  1
も取付可能
 41
0.666667
  7
STANDARD
100
AcDbText
  0
ENDSEC
  0
SECTION
  2
OBJECTS
  0
DICTIONARY
  5
C
100
AcDbDictionary
  3
ACAD_GROUP
350
D
  3
ACAD_MLINESTYLE
350
E
  3
ACDBVARIABLEDICTIONARY
350
561
  0
DICTIONARY
  5
D
102
{ACAD_REACTORS
330
C
102
}
100
AcDbDictionary
  0
DICTIONARY
  5
E
102
{ACAD_REACTORS
330
C
102
}
100
AcDbDictionary
  3
STANDARD
350
13
  0
DICTIONARY
  5
561
102
{ACAD_REACTORS
330
C
102
}
100
AcDbDictionary
  3
SORTENTS
350
562
  0
MLINESTYLE
  5
13
102
{ACAD_REACTORS
330
E
102
}
100
AcDbMlineStyle
  2
STANDARD
 70
     0
  3

 62
     0
 51
90.0
 52
90.0
 71
     2
 49
0.5
 62
   256
  6
BYLAYER
 49
-0.5
 62
   256
  6
BYLAYER
  0
DICTIONARYVAR
  5
562
102
{ACAD_REACTORS
330
561
102
}
100
DictionaryVariables
280
     0
  1
96
  0
ENDSEC
  0
EOF
