  0
SECTION
  2
HEADER
  9
$ACADVER
  1
AC1014
  9
$INSBASE
 10
0.000000
 20
0.000000
 30
0.0
  9
$VIEWCTR
 10
7.531722
 20
4.5
  9
$VIEWSIZE
 40
9.0
  9
$SNAPMODE
 70
     0
  9
$SNAPUNIT
 10
1.0
 20
1.0
  9
$SNAPBASE
 10
0.0
 20
0.0
  9
$SNAPANG
 50
0.0
  9
$SNAPSTYLE
 70
     0
  9
$SNAPISOPAIR
 70
     0
  9
$GRIDMODE
 70
     0
  9
$GRIDUNIT
 10
0.0
 20
0.0
  9
$ORTHOMODE
 70
     0
  9
$REGENMODE
 70
     1
  9
$FILLMODE
 70
     1
  9
$QTEXTMODE
 70
     0
  9
$DRAGMODE
 70
     2
  9
$LTSCALE
  40
     1.000000
  9
$OSMODE
 70
     0
  9
$ATTMODE
 70
     1
  9
$TEXTSIZE
 40
0.2
  9
$TRACEWID
 40
0.05
  9
$TEXTSTYLE
  7
STANDARD
  9
$CELTYPE
  6
BYLAYER
  9
$CECOLOR
 62
   256
  9
$DIMSCALE
 40
1.0
  9
$DIMASZ
 40
0.18
  9
$DIMEXO
 40
0.0625
  9
$DIMDLI
 40
0.38
  9
$DIMRND
 40
0.0
  9
$DIMDLE
 40
0.0
  9
$DIMEXE
 40
0.18
  9
$DIMTP
 40
0.0
  9
$DIMTM
 40
0.0
  9
$DIMTXT
 40
0.18
  9
$DIMCEN
 40
0.09
  9
$DIMTSZ
 40
0.0
  9
$DIMTOL
 70
     0
  9
$DIMLIM
 70
     0
  9
$DIMTIH
 70
     1
  9
$DIMTOH
 70
     1
  9
$DIMSE1
 70
     0
  9
$DIMSE2
 70
     0
  9
$DIMTAD
 70
     0
  9
$DIMZIN
 70
     0
  9
$DIMBLK
  1

  9
$LUNITS
 70
     2
  9
$LUPREC
 70
     4
  9
$AXISMODE
 70
     0
  9
$AXISUNIT
 10
0.0
 20
0.0
  9
$SKETCHINC
 40
0.1
  9
$FILLETRAD
 40
0.0
  9
$AUNITS
 70
     0
  9
$AUPREC
 70
     0
  9
$MENU
  1
ACAD
  9
$ELEVATION
 40
0.0
  9
$THICKNESS
 40
0.0
  9
$VIEWDIR
 10
0.0
 20
0.0
 30
1.0
  9
$LIMCHECK
 70
     0
  9
$BLIPMODE
 70
     1
  9
$CHAMFERA
 40
0.0
  9
$CHAMFERB
 40
0.0
  9
$FASTZOOM
 70
     1
  9
$SKPOLY
 70
     0
  9
$TDCREATE
 40
0000000.0000000000
  9
$TDUPDATE
 40
0000000.0000000000
  9
$TDINDWG
 40
0.0000000000
  9
$TDUSRTIMER
 40
0.0000000000
  9
$USRTIMER
 70
     1
  9
$ANGBASE
 50
0.0
  9
$ANGDIR
 70
     0
  9
$PDMODE
 70
     0
  9
$PDSIZE
 40
0.0
  9
$PLINEWID
 40
0.0
  9
$COORDS
 70
     0
  9
$USERI1
 70
     0
  9
$USERI2
 70
     0
  9
$USERI3
 70
     0
  9
$USERI4
 70
     0
  9
$USERI5
 70
     0
  9
$USERR1
 40
0.0
  9
$USERR2
 40
0.0
  9
$USERR3
 40
0.0
  9
$USERR4
 40
0.0
  9
$USERR5
 40
0.0
  9
$CLAYER
  8
M0
  9
$EXTMIN
 10
14.717987
 20
15.85014
  9
$EXTMAX
 10
300.003268
 20
428.763047
  9
$LIMMIN
 10
0.0
 20
0.0
  9
$LIMMAX
 10
210.0
 20
297.0
  9
$HANDSEED
  5
86E
  0
ENDSEC
  0
SECTION
  2
CLASSES
  0
CLASS
  1
DICTIONARYVAR
  2
AcDbDictionaryVar
  3
"AutoCAD"
 90
        0
280
     0
281
     0
  0
CLASS
  1
HATCH
  2
AcDbHatch
  3
"ACAD_SEDONA"
 90
        0
280
     0
281
     1
  0
ENDSEC
  0
SECTION
  2
TABLES
  0
TABLE
  2
VPORT
  5
8
100
AcDbSymbolTable
 70
     2
  0
VPORT
  5
14
100
AcDbSymbolTableRecord
100
AcDbViewportTableRecord
  2
*ACTIVE
 70
     0
 10
0.0
 20
0.0
 11
1.0
 21
1.0
 12
484.0
 22
297.0
 13
0.0
 23
0.0
 14
1.0
 24
1.0
 15
0.0
 25
0.0
 16
0.0
 26
0.0
 36
1.0
 17
0.0
 27
0.0
 37
0.0
 40
594.0
 41
2.0
 42
50.0
 43
0.0
 44
0.0
 50
0.0
 51
0.0
 71
     0
 72
   100
 73
     1
 74
     1
 75
     0
 76
     0
 77
     0
 78
     0
  0
ENDTAB
  0
TABLE
  2
LTYPE
  5
5
100
AcDbSymbolTable
 70
     5
  0
LTYPE
  5
15
100
AcDbSymbolTableRecord
100
AcDbLinetypeTableRecord
  2
BYBLOCK
 70
     0
  3

 72
    65
 73
     0
 40
0.0
  0
LTYPE
  5
16
100
AcDbSymbolTableRecord
100
AcDbLinetypeTableRecord
  2
BYLAYER
 70
     0
  3

 72
    65
 73
     0
 40
0.0
  0
LTYPE
  5
17
100
AcDbSymbolTableRecord
100
AcDbLinetypeTableRecord
  2
CONTINUOUS
 70
    64
  3
Solid line
 72
    65
 73
     0
 40
0.0
  0
LTYPE
  5
18
100
AcDbSymbolTableRecord
100
AcDbLinetypeTableRecord
  2
DASHED
 70
    64
  3
__ __ __ __ __ __ __ __ __ __ __ __ __ __ __ __
 72
    65
 73
     2
 40
0.75
 49
0.5
 74
     0
 49
-0.25
 74
     0
  0
LTYPE
  5
19
100
AcDbSymbolTableRecord
100
AcDbLinetypeTableRecord
  2
DASHDOT
 70
    64
  3
__ . __ . __ . __ . __ . __ . __ . __ . __ . __
 72
    65
 73
     4
 40
1.0
 49
0.5
 74
     0
 49
-0.25
 74
     0
 49
0.0
 74
     0
 49
-0.25
 74
     0
  0
LTYPE
  5
1A
100
AcDbSymbolTableRecord
100
AcDbLinetypeTableRecord
  2
DIVIDE
 70
    64
  3
____ . . ____ . . ____ . . ____ . . ____ . . __
 72
    65
 73
     6
 40
1.25
 49
0.5
 74
     0
 49
-0.25
 74
     0
 49
0.0
 74
     0
 49
-0.25
 74
     0
 49
0.0
 74
     0
 49
-0.25
 74
     0
  0
LTYPE
  5
1B
100
AcDbSymbolTableRecord
100
AcDbLinetypeTableRecord
  2
DOT
 70
    64
  3
. . . . . . . . . . . . . . . . . . . . . . . .
 72
    65
 73
     2
 40
0.25
 49
0.0
 74
     0
 49
-0.25
 74
     0
  0
ENDTAB
  0
TABLE
  2
LAYER
  5
2
100
AcDbSymbolTable
 70
   102
  0
LAYER
  5
F
100
AcDbSymbolTableRecord
100
AcDbLayerTableRecord
  2
0
 70
     0
 62
     7
  6
CONTINUOUS
  0
LAYER
  5
1C
100
AcDbSymbolTableRecord
100
AcDbLayerTableRecord
  2
DEFPOINTS
 70
     0
 62
     7
  6
CONTINUOUS
  0
LAYER
  5
1D
100
AcDbSymbolTableRecord
100
AcDbLayerTableRecord
  2
M0
 70
     0
 62
     3
  6
CONTINUOUS
  0
LAYER
  5
1E
100
AcDbSymbolTableRecord
100
AcDbLayerTableRecord
  2
M3
 70
     0
 62
     3
  6
CONTINUOUS
  0
LAYER
  5
1F
100
AcDbSymbolTableRecord
100
AcDbLayerTableRecord
  2
DD0
 70
     0
 62
     4
  6
CONTINUOUS
  0
LAYER
  5
20
100
AcDbSymbolTableRecord
100
AcDbLayerTableRecord
  2
DN0
 70
     0
 62
     2
  6
CONTINUOUS
  0
ENDTAB
  0
TABLE
  2
STYLE
  5
3
100
AcDbSymbolTable
 70
     2
  0
STYLE
  5
10
100
AcDbSymbolTableRecord
100
AcDbTextStyleTableRecord
  2
STANDARD
 70
     0
 40
0.0
 41
1.0
 50
0.0
 71
     0
 42
0.2
  3
txt
  4
BIGFONT
  0
ENDTAB
  0
TABLE
  2
VIEW
  5
6
100
AcDbSymbolTable
 70
     0
  0
ENDTAB
  0
TABLE
  2
UCS
  5
7
100
AcDbSymbolTable
 70
     0
  0
ENDTAB
  0
TABLE
  2
APPID
  5
9
100
AcDbSymbolTable
 70
     1
  0
APPID
  5
11
100
AcDbSymbolTableRecord
100
AcDbRegAppTableRecord
  2
ACAD
 70
     0
  0
ENDTAB
  0
TABLE
  2
DIMSTYLE
  5
A
100
AcDbSymbolTable
 70
     2
  0
DIMSTYLE
105
27
100
AcDbSymbolTableRecord
100
AcDbDimStyleTableRecord
  2
STANDARD
 70
     0
  3

  4

  5

  6
_OPEN
  7
_OPEN
 40
1.0
 41
4.504504
 42
1.0
 43
8.0
 44
1.0
 45
0.0
 46
0.0
 47
0.0
 48
0.0
140
4.72973
141
0.09
142
0.0
143
0.03937
144
1.0
145
0.0
146
1.0
147
0.6
 71
     0
 72
     0
 73
     1
 74
     1
 75
     0
 76
     0
 77
     3
 78
     8
170
     0
171
     2
172
     0
173
     1
174
     0
175
     0
176
     0
177
     0
178
     0
270
     2
271
     2
272
     4
273
     2
274
     2
340
10
275
     0
280
     0
281
     0
282
     0
283
     1
284
     0
285
     0
286
     0
287
     3
288
     0
  0
DIMSTYLE
105
28
100
AcDbSymbolTableRecord
100
AcDbDimStyleTableRecord
  2
LEADSTYL
 70
     0
  3

  4

  5

  6
_OPEN
  7
_OPEN
 40
1.0
 41
4.504504
 42
0.0625
 43
0.38
 44
0.18
 45
0.0
 46
0.0
 47
0.0
 48
0.0
140
4.72973
141
0.09
142
0.0
143
25.4
144
1.0
145
0.0
146
1.0
147
0.6
 71
     0
 72
     0
 73
     1
 74
     1
 75
     0
 76
     0
 77
     0
 78
     0
170
     0
171
     2
172
     0
173
     1
174
     0
175
     0
176
     0
177
     0
178
     0
270
     2
271
     4
272
     4
273
     2
274
     2
340
10
275
     0
280
     0
281
     0
282
     0
283
     1
284
     0
285
     0
286
     0
287
     3
288
     0
  0
ENDTAB
  0
TABLE
  2
BLOCK_RECORD
  5
1
100
AcDbSymbolTable
 70
    20
  0
BLOCK_RECORD
  5
21
100
AcDbSymbolTableRecord
100
AcDbBlockTableRecord
  2
*MODEL_SPACE
  0
BLOCK_RECORD
  5
24
100
AcDbSymbolTableRecord
100
AcDbBlockTableRecord
  2
*PAPER_SPACE
  0
BLOCK_RECORD
  5
29
100
AcDbSymbolTableRecord
100
AcDbBlockTableRecord
  2
_NONE
  0
BLOCK_RECORD
  5
2D
100
AcDbSymbolTableRecord
100
AcDbBlockTableRecord
  2
_OPEN
  0
BLOCK_RECORD
  5
33
100
AcDbSymbolTableRecord
100
AcDbBlockTableRecord
  2
_CLOSED
  0
BLOCK_RECORD
  5
3A
100
AcDbSymbolTableRecord
100
AcDbBlockTableRecord
  2
_ORIGIN
  0
BLOCK_RECORD
  5
3F
100
AcDbSymbolTableRecord
100
AcDbBlockTableRecord
  2
_DOT
  0
BLOCK_RECORD
  5
47
100
AcDbSymbolTableRecord
100
AcDbBlockTableRecord
  2
_OBLIQUE
  0
BLOCK_RECORD
  5
4B
100
AcDbSymbolTableRecord
100
AcDbBlockTableRecord
  2
DIMS0
  0
BLOCK_RECORD
  5
57
100
AcDbSymbolTableRecord
100
AcDbBlockTableRecord
  2
DIMS1
  0
BLOCK_RECORD
  5
62
100
AcDbSymbolTableRecord
100
AcDbBlockTableRecord
  2
DIMS2
  0
BLOCK_RECORD
  5
6E
100
AcDbSymbolTableRecord
100
AcDbBlockTableRecord
  2
DIMS3
  0
BLOCK_RECORD
  5
7A
100
AcDbSymbolTableRecord
100
AcDbBlockTableRecord
  2
DIMS4
  0
BLOCK_RECORD
  5
86
100
AcDbSymbolTableRecord
100
AcDbBlockTableRecord
  2
DIMS5
  0
BLOCK_RECORD
  5
92
100
AcDbSymbolTableRecord
100
AcDbBlockTableRecord
  2
DIMS6
  0
BLOCK_RECORD
  5
9E
100
AcDbSymbolTableRecord
100
AcDbBlockTableRecord
  2
DIMS7
  0
BLOCK_RECORD
  5
AA
100
AcDbSymbolTableRecord
100
AcDbBlockTableRecord
  2
DIMS8
  0
BLOCK_RECORD
  5
B6
100
AcDbSymbolTableRecord
100
AcDbBlockTableRecord
  2
DIMS9
  0
BLOCK_RECORD
  5
C2
100
AcDbSymbolTableRecord
100
AcDbBlockTableRecord
  2
DIMS10
  0
BLOCK_RECORD
  5
CE
100
AcDbSymbolTableRecord
100
AcDbBlockTableRecord
  2
DIMS11
  0
BLOCK_RECORD
  5
D7
100
AcDbSymbolTableRecord
100
AcDbBlockTableRecord
  2
DIMS12
  0
BLOCK_RECORD
  5
E3
100
AcDbSymbolTableRecord
100
AcDbBlockTableRecord
  2
DIMS13
  0
ENDTAB
  0
ENDSEC
  0
SECTION
  2
BLOCKS
  0
BLOCK
  5
22
100
AcDbEntity
  8
0
100
AcDbBlockBegin
  2
*MODEL_SPACE
 70
     0
 10
0.0
 20
0.0
 30
0.0
  3
*MODEL_SPACE
  1

  0
ENDBLK
  5
23
100
AcDbEntity
  8
0
100
AcDbBlockEnd
  0
BLOCK
  5
25
100
AcDbEntity
 67
     1
  8
0
100
AcDbBlockBegin
  2
*PAPER_SPACE
 70
     0
 10
0.0
 20
0.0
 30
0.0
  3
*PAPER_SPACE
  1

  0
ENDBLK
  5
26
100
AcDbEntity
 67
     1
  8
0
100
AcDbBlockEnd
  0
BLOCK
  5
2A
100
AcDbEntity
  8
0
100
AcDbBlockBegin
  2
_NONE
 70
     0
 10
0.0
 20
0.0
  0
CIRCLE
  5
2B
100
AcDbEntity
  8
0
 62
     0
100
AcDbCircle
 10
0.0
 20
0.0
 40
0.25
  0
ENDBLK
  5
2C
100
AcDbEntity
  8
0
100
AcDbBlockEnd
  0
BLOCK
  5
2E
100
AcDbEntity
  8
0
100
AcDbBlockBegin
  2
_OPEN
 70
     0
 10
0.0
 20
0.0
  0
LINE
  5
2F
100
AcDbEntity
  8
0
 62
     0
100
AcDbLine
 10
-0.965926
 20
0.258819
 11
0.0
 21
0.0
  0
LINE
  5
30
100
AcDbEntity
  8
0
 62
     0
100
AcDbLine
 10
0.0
 20
0.0
 11
-0.965926
 21
-0.258819
  0
LINE
  5
31
100
AcDbEntity
  8
0
 62
     0
100
AcDbLine
 10
0.0
 20
0.0
 11
-1.0
 21
0.0
  0
ENDBLK
  5
32
100
AcDbEntity
  8
0
100
AcDbBlockEnd
  0
BLOCK
  5
34
100
AcDbEntity
  8
0
100
AcDbBlockBegin
  2
_CLOSED
 70
     0
 10
0.0
 20
0.0
  0
LINE
  5
35
100
AcDbEntity
  8
0
 62
     0
100
AcDbLine
 10
-0.965926
 20
0.258819
 11
0.0
 21
0.0
  0
LINE
  5
36
100
AcDbEntity
  8
0
 62
     0
100
AcDbLine
 10
0.0
 20
0.0
 11
-0.965926
 21
-0.258819
  0
LINE
  5
37
100
AcDbEntity
  8
0
 62
     0
100
AcDbLine
 10
-0.965926
 20
0.258819
 11
-0.965926
 21
-0.258819
  0
LINE
  5
38
100
AcDbEntity
  8
0
 62
     0
100
AcDbLine
 10
0.0
 20
0.0
 11
-1.0
 21
0.0
  0
ENDBLK
  5
39
100
AcDbEntity
  8
0
100
AcDbBlockEnd
  0
BLOCK
  5
3B
100
AcDbEntity
  8
0
100
AcDbBlockBegin
  2
_ORIGIN
 70
     0
 10
0.0
 20
0.0
  0
CIRCLE
  5
3C
100
AcDbEntity
  8
0
 62
     0
100
AcDbCircle
 10
0.0
 20
0.0
 40
0.5
  0
LINE
  5
3D
100
AcDbEntity
  8
0
 62
     0
100
AcDbLine
 10
0.0
 20
0.0
 11
-1.0
 21
0.0
  0
ENDBLK
  5
3E
100
AcDbEntity
  8
0
100
AcDbBlockEnd
  0
BLOCK
  5
40
100
AcDbEntity
  8
0
100
AcDbBlockBegin
  2
_DOT
 70
     0
 10
0.0
 20
0.0
  0
POLYLINE
  5
41
100
AcDbEntity
  8
0
 62
     0
100
AcDb2dPolyline
 66
     1
 70
     1
 40
0.5
 41
0.5
  0
VERTEX
  5
42
100
AcDbEntity
  8
0
 62
     0
100
AcDbVertex
100
AcDb2dVertex
 10
-0.25
 20
0.0
 42
1.0
  0
VERTEX
  5
43
100
AcDbEntity
  8
0
 62
     0
100
AcDbVertex
100
AcDb2dVertex
 10
0.25
 20
0.0
 42
1.0
  0
SEQEND
  5
44
100
AcDbEntity
  8
0
 62
     0
  0
LINE
  5
45
100
AcDbEntity
  8
0
 62
     0
100
AcDbLine
 10
-0.5
 20
0.0
 11
-1.0
 21
0.0
  0
ENDBLK
  5
46
100
AcDbEntity
  8
0
100
AcDbBlockEnd
  0
BLOCK
  5
48
100
AcDbEntity
  8
0
100
AcDbBlockBegin
  2
_OBLIQUE
 70
     0
 10
0.0
 20
0.0
  0
LINE
  5
49
100
AcDbEntity
  8
0
 62
     0
100
AcDbLine
 10
-0.353553
 20
-0.353553
 11
0.353553
 21
0.353553
  0
ENDBLK
  5
4A
100
AcDbEntity
  8
0
100
AcDbBlockEnd
  0
BLOCK
  5
4C
100
AcDbEntity
  8
DD0
100
AcDbBlockBegin
  2
DIMS0
 70
     0
 10
0.0
 20
0.0
  0
LINE
  5
4D
100
AcDbEntity
  8
DD0
100
AcDbLine
 10
267.483613
 20
340.613558
 11
267.483613
 21
372.971309
  0
LINE
  5
4E
100
AcDbEntity
  8
DD0
100
AcDbLine
 10
186.38362
 20
317.063565
 11
186.38362
 21
372.971309
  0
LINE
  5
4F
100
AcDbEntity
  8
DD0
100
AcDbLine
 10
263.132596
 20
370.303956
 11
267.483613
 21
371.469808
  0
LINE
  5
50
100
AcDbEntity
  8
DD0
100
AcDbLine
 10
267.483613
 20
371.469808
 11
263.132596
 21
372.635659
  0
LINE
  5
51
100
AcDbEntity
  8
DD0
100
AcDbLine
 10
190.734637
 20
372.635659
 11
186.38362
 21
371.469808
  0
LINE
  5
52
100
AcDbEntity
  8
DD0
100
AcDbLine
 10
186.38362
 20
371.469808
 11
190.734637
 21
370.303956
  0
LINE
  5
53
100
AcDbEntity
  8
DD0
100
AcDbLine
 10
267.483613
 20
371.469808
 11
186.38362
 21
371.469808
  0
TEXT
  5
54
100
AcDbEntity
  8
DD0
100
AcDbText
 10
224.188357
 20
372.370718
 40
3.753754
  1
８１
 41
0.666667
  7
STANDARD
100
AcDbText
  0
ENDBLK
  5
55
100
AcDbEntity
  8
DD0
100
AcDbBlockEnd
  0
BLOCK
  5
58
100
AcDbEntity
  8
DD0
100
AcDbBlockBegin
  2
DIMS1
 70
     0
 10
0.0
 20
0.0
  0
LINE
  5
59
100
AcDbEntity
  8
DD0
100
AcDbLine
 10
256.48363
 20
340.563566
 11
256.48363
 21
352.580985
  0
LINE
  5
5A
100
AcDbEntity
  8
DD0
100
AcDbLine
 10
263.132596
 20
349.913632
 11
267.483613
 21
351.079484
  0
LINE
  5
5B
100
AcDbEntity
  8
DD0
100
AcDbLine
 10
267.483613
 20
351.079484
 11
263.132596
 21
352.245335
  0
LINE
  5
5C
100
AcDbEntity
  8
DD0
100
AcDbLine
 10
260.834647
 20
352.245335
 11
256.48363
 21
351.079484
  0
LINE
  5
5D
100
AcDbEntity
  8
DD0
100
AcDbLine
 10
256.48363
 20
351.079484
 11
260.834647
 21
349.913632
  0
LINE
  5
5E
100
AcDbEntity
  8
DD0
100
AcDbLine
 10
267.483613
 20
351.079484
 11
256.48363
 21
351.079484
  0
TEXT
  5
5F
100
AcDbEntity
  8
DD0
100
AcDbText
 10
259.233762
 20
351.980394
 40
3.753754
  1
１１
 41
0.666667
  7
STANDARD
100
AcDbText
  0
ENDBLK
  5
60
100
AcDbEntity
  8
DD0
100
AcDbBlockEnd
  0
BLOCK
  5
63
100
AcDbEntity
  8
DD0
100
AcDbBlockBegin
  2
DIMS2
 70
     0
 10
0.0
 20
0.0
  0
LINE
  5
64
100
AcDbEntity
  8
DD0
100
AcDbLine
 10
186.38362
 20
317.063565
 11
186.38362
 21
359.175967
  0
LINE
  5
65
100
AcDbEntity
  8
DD0
100
AcDbLine
 10
181.383629
 20
349.363557
 11
181.383629
 21
359.175967
  0
LINE
  5
66
100
AcDbEntity
  8
DD0
100
AcDbLine
 10
190.734637
 20
358.840317
 11
186.38362
 21
357.674465
  0
LINE
  5
67
100
AcDbEntity
  8
DD0
100
AcDbLine
 10
186.38362
 20
357.674465
 11
190.734637
 21
356.508614
  0
LINE
  5
68
100
AcDbEntity
  8
DD0
100
AcDbLine
 10
177.032612
 20
356.508614
 11
181.383629
 21
357.674465
  0
LINE
  5
69
100
AcDbEntity
  8
DD0
100
AcDbLine
 10
181.383629
 20
357.674465
 11
177.032612
 21
358.840317
  0
LINE
  5
6A
100
AcDbEntity
  8
DD0
100
AcDbLine
 10
191.338575
 20
357.674465
 11
171.924169
 21
357.674465
  0
TEXT
  5
6B
100
AcDbEntity
  8
DD0
100
AcDbText
 10
173.24799
 20
358.575375
 40
3.753754
  1
５
 41
0.666667
  7
STANDARD
100
AcDbText
  0
ENDBLK
  5
6C
100
AcDbEntity
  8
DD0
100
AcDbBlockEnd
  0
BLOCK
  5
6F
100
AcDbEntity
  8
DD0
100
AcDbBlockBegin
  2
DIMS3
 70
     0
 10
0.0
 20
0.0
  0
LINE
  5
70
100
AcDbEntity
  8
DD0
100
AcDbLine
 10
44.055446
 20
332.013558
 11
44.055446
 21
372.971309
  0
LINE
  5
71
100
AcDbEntity
  8
DD0
100
AcDbLine
 10
165.055442
 20
332.013558
 11
165.055442
 21
372.971309
  0
LINE
  5
72
100
AcDbEntity
  8
DD0
100
AcDbLine
 10
48.406463
 20
372.635659
 11
44.055446
 21
371.469808
  0
LINE
  5
73
100
AcDbEntity
  8
DD0
100
AcDbLine
 10
44.055446
 20
371.469808
 11
48.406463
 21
370.303956
  0
LINE
  5
74
100
AcDbEntity
  8
DD0
100
AcDbLine
 10
160.704425
 20
370.303956
 11
165.055442
 21
371.469808
  0
LINE
  5
75
100
AcDbEntity
  8
DD0
100
AcDbLine
 10
165.055442
 20
371.469808
 11
160.704425
 21
372.635659
  0
LINE
  5
76
100
AcDbEntity
  8
DD0
100
AcDbLine
 10
44.055446
 20
371.469808
 11
165.055442
 21
371.469808
  0
TEXT
  5
77
100
AcDbEntity
  8
DD0
100
AcDbText
 10
100.308699
 20
372.370718
 40
3.753754
  1
１２１
 41
0.666667
  7
STANDARD
100
AcDbText
  0
ENDBLK
  5
78
100
AcDbEntity
  8
DD0
100
AcDbBlockEnd
  0
BLOCK
  5
7B
100
AcDbEntity
  8
DD0
100
AcDbBlockBegin
  2
DIMS4
 70
     0
 10
0.0
 20
0.0
  0
LINE
  5
7C
100
AcDbEntity
  8
DD0
100
AcDbLine
 10
78.055447
 20
351.585567
 11
78.055447
 21
365.98464
  0
LINE
  5
7D
100
AcDbEntity
  8
DD0
100
AcDbLine
 10
131.055446
 20
351.585567
 11
131.055446
 21
365.98464
  0
LINE
  5
7E
100
AcDbEntity
  8
DD0
100
AcDbLine
 10
82.406464
 20
365.64899
 11
78.055447
 21
364.483138
  0
LINE
  5
7F
100
AcDbEntity
  8
DD0
100
AcDbLine
 10
78.055447
 20
364.483138
 11
82.406464
 21
363.317287
  0
LINE
  5
80
100
AcDbEntity
  8
DD0
100
AcDbLine
 10
126.704429
 20
363.317287
 11
131.055446
 21
364.483138
  0
LINE
  5
81
100
AcDbEntity
  8
DD0
100
AcDbLine
 10
131.055446
 20
364.483138
 11
126.704429
 21
365.64899
  0
LINE
  5
82
100
AcDbEntity
  8
DD0
100
AcDbLine
 10
78.055447
 20
364.483138
 11
131.055446
 21
364.483138
  0
TEXT
  5
83
100
AcDbEntity
  8
DD0
100
AcDbText
 10
101.810201
 20
365.384048
 40
3.753754
  1
５３
 41
0.666667
  7
STANDARD
100
AcDbText
  0
ENDBLK
  5
84
100
AcDbEntity
  8
DD0
100
AcDbBlockEnd
  0
BLOCK
  5
87
100
AcDbEntity
  8
DD0
100
AcDbBlockBegin
  2
DIMS5
 70
     0
 10
0.0
 20
0.0
  0
LINE
  5
88
100
AcDbEntity
  8
DD0
100
AcDbLine
 10
62.905445
 20
280.960561
 11
62.905445
 21
255.843632
  0
LINE
  5
89
100
AcDbEntity
  8
DD0
100
AcDbLine
 10
73.005446
 20
280.960561
 11
73.005446
 21
255.843632
  0
LINE
  5
8A
100
AcDbEntity
  8
DD0
100
AcDbLine
 10
67.256463
 20
258.510985
 11
62.905445
 21
257.345133
  0
LINE
  5
8B
100
AcDbEntity
  8
DD0
100
AcDbLine
 10
62.905445
 20
257.345133
 11
67.256463
 21
256.179282
  0
LINE
  5
8C
100
AcDbEntity
  8
DD0
100
AcDbLine
 10
68.654429
 20
256.179282
 11
73.005446
 21
257.345133
  0
LINE
  5
8D
100
AcDbEntity
  8
DD0
100
AcDbLine
 10
73.005446
 20
257.345133
 11
68.654429
 21
258.510985
  0
LINE
  5
8E
100
AcDbEntity
  8
DD0
100
AcDbLine
 10
62.905445
 20
257.345133
 11
73.005446
 21
257.345133
  0
TEXT
  5
8F
100
AcDbEntity
  8
DD0
100
AcDbText
 10
65.210203
 20
258.246043
 40
3.753754
  1
１０
 41
0.666667
  7
STANDARD
100
AcDbText
  0
ENDBLK
  5
90
100
AcDbEntity
  8
DD0
100
AcDbBlockEnd
  0
BLOCK
  5
93
100
AcDbEntity
  8
DD0
100
AcDbBlockBegin
  2
DIMS6
 70
     0
 10
0.0
 20
0.0
  0
LINE
  5
94
100
AcDbEntity
  8
DD0
100
AcDbLine
 10
148.95695
 20
348.262061
 11
175.689729
 21
348.262061
  0
LINE
  5
95
100
AcDbEntity
  8
DD0
100
AcDbLine
 10
137.556951
 20
268.36207
 11
175.689729
 21
268.36207
  0
LINE
  5
96
100
AcDbEntity
  8
DD0
100
AcDbLine
 10
175.354079
 20
343.911044
 11
174.188228
 21
348.262061
  0
LINE
  5
97
100
AcDbEntity
  8
DD0
100
AcDbLine
 10
174.188228
 20
348.262061
 11
173.022376
 21
343.911044
  0
LINE
  5
98
100
AcDbEntity
  8
DD0
100
AcDbLine
 10
173.022376
 20
272.713088
 11
174.188228
 21
268.36207
  0
LINE
  5
99
100
AcDbEntity
  8
DD0
100
AcDbLine
 10
174.188228
 20
268.36207
 11
175.354079
 21
272.713088
  0
LINE
  5
9A
100
AcDbEntity
  8
DD0
100
AcDbLine
 10
174.188228
 20
348.262061
 11
174.188228
 21
268.36207
  0
TEXT
  5
9B
100
AcDbEntity
  8
DD0
100
AcDbText
 10
173.287329
 20
305.566823
 40
3.753754
  1
８０
 50
90.000003
 41
0.666667
  7
STANDARD
100
AcDbText
  0
ENDBLK
  5
9C
100
AcDbEntity
  8
DD0
100
AcDbBlockEnd
  0
BLOCK
  5
9F
100
AcDbEntity
  8
DD0
100
AcDbBlockBegin
  2
DIMS7
 70
     0
 10
0.0
 20
0.0
  0
LINE
  5
A0
100
AcDbEntity
  8
DD0
100
AcDbLine
 10
60.555449
 20
196.914372
 11
60.555449
 21
223.332193
  0
LINE
  5
A1
100
AcDbEntity
  8
DD0
100
AcDbLine
 10
44.055446
 20
199.71436
 11
44.055446
 21
223.332193
  0
LINE
  5
A2
100
AcDbEntity
  8
DD0
100
AcDbLine
 10
56.204432
 20
220.66484
 11
60.555449
 21
221.830692
  0
LINE
  5
A3
100
AcDbEntity
  8
DD0
100
AcDbLine
 10
60.555449
 20
221.830692
 11
56.204432
 21
222.996543
  0
LINE
  5
A4
100
AcDbEntity
  8
DD0
100
AcDbLine
 10
48.406463
 20
222.996543
 11
44.055446
 21
221.830692
  0
LINE
  5
A5
100
AcDbEntity
  8
DD0
100
AcDbLine
 10
44.055446
 20
221.830692
 11
48.406463
 21
220.66484
  0
LINE
  5
A6
100
AcDbEntity
  8
DD0
100
AcDbLine
 10
60.555449
 20
221.830692
 11
44.055446
 21
221.830692
  0
TEXT
  5
A7
100
AcDbEntity
  8
DD0
100
AcDbText
 10
46.557198
 20
222.731602
 40
3.753754
  1
１６．５
 41
0.666667
  7
STANDARD
100
AcDbText
  0
ENDBLK
  5
A8
100
AcDbEntity
  8
DD0
100
AcDbBlockEnd
  0
BLOCK
  5
AB
100
AcDbEntity
  8
DD0
100
AcDbBlockBegin
  2
DIMS8
 70
     0
 10
0.0
 20
0.0
  0
LINE
  5
AC
100
AcDbEntity
  8
DD0
100
AcDbLine
 10
149.556946
 20
206.912866
 11
175.689729
 21
206.912866
  0
LINE
  5
AD
100
AcDbEntity
  8
DD0
100
AcDbLine
 10
66.056947
 20
191.412857
 11
175.689729
 21
191.412857
  0
LINE
  5
AE
100
AcDbEntity
  8
DD0
100
AcDbLine
 10
175.354079
 20
202.561849
 11
174.188228
 21
206.912866
  0
LINE
  5
AF
100
AcDbEntity
  8
DD0
100
AcDbLine
 10
174.188228
 20
206.912866
 11
173.022376
 21
202.561849
  0
LINE
  5
B0
100
AcDbEntity
  8
DD0
100
AcDbLine
 10
173.022376
 20
195.763875
 11
174.188228
 21
191.412857
  0
LINE
  5
B1
100
AcDbEntity
  8
DD0
100
AcDbLine
 10
174.188228
 20
191.412857
 11
175.354079
 21
195.763875
  0
LINE
  5
B2
100
AcDbEntity
  8
DD0
100
AcDbLine
 10
174.188228
 20
223.823682
 11
174.188228
 21
191.412857
  0
TEXT
  5
B3
100
AcDbEntity
  8
DD0
100
AcDbText
 10
173.287329
 20
210.567917
 40
3.753754
  1
１５．５
 50
90.000003
 41
0.666667
  7
STANDARD
100
AcDbText
  0
ENDBLK
  5
B4
100
AcDbEntity
  8
DD0
100
AcDbBlockEnd
  0
BLOCK
  5
B7
100
AcDbEntity
  8
DD0
100
AcDbBlockBegin
  2
DIMS9
 70
     0
 10
0.0
 20
0.0
  0
LINE
  5
B8
100
AcDbEntity
  8
DD0
100
AcDbLine
 10
66.056947
 20
191.412857
 11
175.689729
 21
191.412857
  0
LINE
  5
B9
100
AcDbEntity
  8
DD0
100
AcDbLine
 10
99.056953
 20
136.412862
 11
175.689729
 21
136.412862
  0
LINE
  5
BA
100
AcDbEntity
  8
DD0
100
AcDbLine
 10
175.354079
 20
187.06184
 11
174.188228
 21
191.412857
  0
LINE
  5
BB
100
AcDbEntity
  8
DD0
100
AcDbLine
 10
174.188228
 20
191.412857
 11
173.022376
 21
187.06184
  0
LINE
  5
BC
100
AcDbEntity
  8
DD0
100
AcDbLine
 10
173.022376
 20
140.763879
 11
174.188228
 21
136.412862
  0
LINE
  5
BD
100
AcDbEntity
  8
DD0
100
AcDbLine
 10
174.188228
 20
136.412862
 11
175.354079
 21
140.763879
  0
LINE
  5
BE
100
AcDbEntity
  8
DD0
100
AcDbLine
 10
174.188228
 20
191.412857
 11
174.188228
 21
136.412862
  0
TEXT
  5
BF
100
AcDbEntity
  8
DD0
100
AcDbText
 10
173.287329
 20
161.167623
 40
3.753754
  1
５５
 50
90.000003
 41
0.666667
  7
STANDARD
100
AcDbText
  0
ENDBLK
  5
C0
100
AcDbEntity
  8
DD0
100
AcDbBlockEnd
  0
BLOCK
  5
C3
100
AcDbEntity
  8
DD0
100
AcDbBlockBegin
  2
DIMS10
 70
     0
 10
0.0
 20
0.0
  0
LINE
  5
C4
100
AcDbEntity
  8
DD0
100
AcDbLine
 10
113.555449
 20
196.914372
 11
113.555449
 21
223.332193
  0
LINE
  5
C5
100
AcDbEntity
  8
DD0
100
AcDbLine
 10
146.555443
 20
141.914366
 11
146.555443
 21
223.332193
  0
LINE
  5
C6
100
AcDbEntity
  8
DD0
100
AcDbLine
 10
117.906466
 20
222.996543
 11
113.555449
 21
221.830692
  0
LINE
  5
C7
100
AcDbEntity
  8
DD0
100
AcDbLine
 10
113.555449
 20
221.830692
 11
117.906466
 21
220.66484
  0
LINE
  5
C8
100
AcDbEntity
  8
DD0
100
AcDbLine
 10
142.204426
 20
220.66484
 11
146.555443
 21
221.830692
  0
LINE
  5
C9
100
AcDbEntity
  8
DD0
100
AcDbLine
 10
146.555443
 20
221.830692
 11
142.204426
 21
222.996543
  0
LINE
  5
CA
100
AcDbEntity
  8
DD0
100
AcDbLine
 10
113.555449
 20
221.830692
 11
146.555443
 21
221.830692
  0
TEXT
  5
CB
100
AcDbEntity
  8
DD0
100
AcDbText
 10
127.310203
 20
222.731602
 40
3.753754
  1
３３
 41
0.666667
  7
STANDARD
100
AcDbText
  0
ENDBLK
  5
CC
100
AcDbEntity
  8
DD0
100
AcDbBlockEnd
  0
BLOCK
  5
CF
100
AcDbEntity
  8
DD0
100
AcDbBlockBegin
  2
DIMS11
 70
     0
 10
0.0
 20
0.0
  0
TEXT
  5
D0
100
AcDbEntity
  8
DD0
100
AcDbText
 10
164.668873
 20
112.188
 40
3.753754
  1
４－Ｍ４ねじ穴
 41
0.666667
  7
STANDARD
100
AcDbText
  0
LINE
  5
D1
100
AcDbEntity
  8
DD0
100
AcDbLine
 10
150.598852
 20
131.348313
 11
147.592377
 21
134.702664
  0
LINE
  5
D2
100
AcDbEntity
  8
DD0
100
AcDbLine
 10
147.592377
 20
134.702664
 11
148.518886
 21
130.294473
  0
LINE
  5
D3
100
AcDbEntity
  8
DD0
100
AcDbLine
 10
147.592377
 20
134.702664
 11
159.456154
 21
111.287101
  0
LINE
  5
D4
100
AcDbEntity
  8
DD0
100
AcDbLine
 10
159.456154
 20
111.287101
 11
190.387082
 21
111.287101
  0
ENDBLK
  5
D5
100
AcDbEntity
  8
DD0
100
AcDbBlockEnd
  0
BLOCK
  5
D8
100
AcDbEntity
  8
DD0
100
AcDbBlockBegin
  2
DIMS12
 70
     0
 10
0.0
 20
0.0
  0
LINE
  5
D9
100
AcDbEntity
  8
DD0
100
AcDbLine
 10
93.555444
 20
141.914366
 11
93.555444
 21
223.332193
  0
LINE
  5
DA
100
AcDbEntity
  8
DD0
100
AcDbLine
 10
113.555449
 20
196.914372
 11
113.555449
 21
223.332193
  0
LINE
  5
DB
100
AcDbEntity
  8
DD0
100
AcDbLine
 10
97.906461
 20
222.996543
 11
93.555444
 21
221.830692
  0
LINE
  5
DC
100
AcDbEntity
  8
DD0
100
AcDbLine
 10
93.555444
 20
221.830692
 11
97.906461
 21
220.66484
  0
LINE
  5
DD
100
AcDbEntity
  8
DD0
100
AcDbLine
 10
109.204431
 20
220.66484
 11
113.555449
 21
221.830692
  0
LINE
  5
DE
100
AcDbEntity
  8
DD0
100
AcDbLine
 10
113.555449
 20
221.830692
 11
109.204431
 21
222.996543
  0
LINE
  5
DF
100
AcDbEntity
  8
DD0
100
AcDbLine
 10
93.555444
 20
221.830692
 11
113.555449
 21
221.830692
  0
TEXT
  5
E0
100
AcDbEntity
  8
DD0
100
AcDbText
 10
100.8102
 20
222.731602
 40
3.753754
  1
２０
 41
0.666667
  7
STANDARD
100
AcDbText
  0
ENDBLK
  5
E1
100
AcDbEntity
  8
DD0
100
AcDbBlockEnd
  0
BLOCK
  5
E4
100
AcDbEntity
  8
DD0
100
AcDbBlockBegin
  2
DIMS13
 70
     0
 10
0.0
 20
0.0
  0
LINE
  5
E5
100
AcDbEntity
  8
DD0
100
AcDbLine
 10
60.555449
 20
196.914372
 11
60.555449
 21
223.332193
  0
LINE
  5
E6
100
AcDbEntity
  8
DD0
100
AcDbLine
 10
93.555444
 20
141.914366
 11
93.555444
 21
223.332193
  0
LINE
  5
E7
100
AcDbEntity
  8
DD0
100
AcDbLine
 10
64.906466
 20
222.996543
 11
60.555449
 21
221.830692
  0
LINE
  5
E8
100
AcDbEntity
  8
DD0
100
AcDbLine
 10
60.555449
 20
221.830692
 11
64.906466
 21
220.66484
  0
LINE
  5
E9
100
AcDbEntity
  8
DD0
100
AcDbLine
 10
89.204426
 20
220.66484
 11
93.555444
 21
221.830692
  0
LINE
  5
EA
100
AcDbEntity
  8
DD0
100
AcDbLine
 10
93.555444
 20
221.830692
 11
89.204426
 21
222.996543
  0
LINE
  5
EB
100
AcDbEntity
  8
DD0
100
AcDbLine
 10
60.555449
 20
221.830692
 11
93.555444
 21
221.830692
  0
TEXT
  5
EC
100
AcDbEntity
  8
DD0
100
AcDbText
 10
74.310203
 20
222.731602
 40
3.753754
  1
３３
 41
0.666667
  7
STANDARD
100
AcDbText
  0
ENDBLK
  5
ED
100
AcDbEntity
  8
DD0
100
AcDbBlockEnd
  0
ENDSEC
  0
SECTION
  2
ENTITIES
  0
INSERT
  5
56
100
AcDbEntity
  8
DD0
100
AcDbBlockReference
  2
DIMS0
 10
0.0
 20
0.0
  0
INSERT
  5
61
100
AcDbEntity
  8
DD0
100
AcDbBlockReference
  2
DIMS1
 10
0.0
 20
0.0
  0
INSERT
  5
6D
100
AcDbEntity
  8
DD0
100
AcDbBlockReference
  2
DIMS2
 10
0.0
 20
0.0
  0
INSERT
  5
79
100
AcDbEntity
  8
DD0
100
AcDbBlockReference
  2
DIMS3
 10
0.0
 20
0.0
  0
INSERT
  5
85
100
AcDbEntity
  8
DD0
100
AcDbBlockReference
  2
DIMS4
 10
0.0
 20
0.0
  0
INSERT
  5
91
100
AcDbEntity
  8
DD0
100
AcDbBlockReference
  2
DIMS5
 10
0.0
 20
0.0
  0
INSERT
  5
9D
100
AcDbEntity
  8
DD0
100
AcDbBlockReference
  2
DIMS6
 10
0.0
 20
0.0
  0
INSERT
  5
A9
100
AcDbEntity
  8
DD0
100
AcDbBlockReference
  2
DIMS7
 10
0.0
 20
0.0
  0
INSERT
  5
B5
100
AcDbEntity
  8
DD0
100
AcDbBlockReference
  2
DIMS8
 10
0.0
 20
0.0
  0
INSERT
  5
C1
100
AcDbEntity
  8
DD0
100
AcDbBlockReference
  2
DIMS9
 10
0.0
 20
0.0
  0
INSERT
  5
CD
100
AcDbEntity
  8
DD0
100
AcDbBlockReference
  2
DIMS10
 10
0.0
 20
0.0
  0
INSERT
  5
D6
100
AcDbEntity
  8
DD0
100
AcDbBlockReference
  2
DIMS11
 10
0.0
 20
0.0
  0
INSERT
  5
E2
100
AcDbEntity
  8
DD0
100
AcDbBlockReference
  2
DIMS12
 10
0.0
 20
0.0
  0
INSERT
  5
EE
100
AcDbEntity
  8
DD0
100
AcDbBlockReference
  2
DIMS13
 10
0.0
 20
0.0
  0
LINE
  5
EF
100
AcDbEntity
  8
M0
 62
     7
100
AcDbLine
 10
147.79603
 20
323.171418
 11
144.614389
 21
326.353181
  0
LINE
  5
F0
100
AcDbEntity
  8
M0
 62
     7
100
AcDbLine
 10
146.558725
 20
326.176423
 11
144.791147
 21
324.408723
  0
LINE
  5
F1
100
AcDbEntity
  8
M0
 62
     7
100
AcDbLine
 10
137.519272
 20
283.315754
 11
135.751694
 21
281.548176
  0
LINE
  5
F2
100
AcDbEntity
  8
M0
 62
     7
100
AcDbLine
 10
136.458725
 20
284.376423
 11
134.691147
 21
282.608723
  0
LINE
  5
F3
100
AcDbEntity
  8
M0
 62
     7
100
AcDbLine
 10
127.59603
 20
281.371418
 11
124.414389
 21
284.553181
  0
LINE
  5
F4
100
AcDbEntity
  8
M0
 62
     7
100
AcDbLine
 10
117.49603
 20
281.371418
 11
114.314389
 21
284.553181
  0
LINE
  5
F5
100
AcDbEntity
  8
M0
 62
     7
100
AcDbLine
 10
146.558725
 20
284.376423
 11
144.791147
 21
282.608723
  0
LINE
  5
F6
100
AcDbEntity
  8
M0
 62
     7
100
AcDbLine
 10
116.258725
 20
284.376423
 11
114.491147
 21
282.608723
  0
LINE
  5
F7
100
AcDbEntity
  8
M0
 62
     7
100
AcDbLine
 10
147.619272
 20
283.315754
 11
145.851694
 21
281.548176
  0
LINE
  5
F8
100
AcDbEntity
  8
M0
 62
     7
100
AcDbLine
 10
74.419272
 20
283.315754
 11
72.651694
 21
281.548176
  0
LINE
  5
F9
100
AcDbEntity
  8
M0
 62
     7
100
AcDbLine
 10
74.59603
 20
281.371418
 11
71.414389
 21
284.553181
  0
LINE
  5
FA
100
AcDbEntity
  8
M0
 62
     7
100
AcDbLine
 10
84.69603
 20
281.371418
 11
81.514389
 21
284.553181
  0
LINE
  5
FB
100
AcDbEntity
  8
M0
 62
     7
100
AcDbLine
 10
73.358725
 20
284.376423
 11
71.591147
 21
282.608723
  0
LINE
  5
FC
100
AcDbEntity
  8
M0
 62
     7
100
AcDbLine
 10
64.49603
 20
281.371418
 11
61.314389
 21
284.553181
  0
LINE
  5
FD
100
AcDbEntity
  8
M0
 62
     7
100
AcDbLine
 10
147.79603
 20
281.371418
 11
144.614389
 21
284.553181
  0
LINE
  5
FE
100
AcDbEntity
  8
M0
 62
     7
100
AcDbLine
 10
63.258725
 20
284.376423
 11
61.491147
 21
282.608723
  0
LINE
  5
FF
100
AcDbEntity
  8
M0
 62
     7
100
AcDbLine
 10
64.319272
 20
283.315754
 11
62.551694
 21
281.548176
  0
LINE
  5
100
100
AcDbEntity
  8
M0
 62
     7
100
AcDbLine
 10
84.519272
 20
283.315754
 11
82.751694
 21
281.548176
  0
LINE
  5
101
100
AcDbEntity
  8
M0
 62
     7
100
AcDbLine
 10
136.458725
 20
326.176423
 11
134.691147
 21
324.408723
  0
LINE
  5
102
100
AcDbEntity
  8
M0
 62
     7
100
AcDbLine
 10
127.419272
 20
325.115754
 11
125.651694
 21
323.348176
  0
LINE
  5
103
100
AcDbEntity
  8
M0
 62
     7
100
AcDbLine
 10
120.508725
 20
343.776423
 11
118.741147
 21
342.008723
  0
LINE
  5
104
100
AcDbEntity
  8
M0
 62
     7
100
AcDbLine
 10
142.308725
 20
343.776423
 11
140.541147
 21
342.008723
  0
ARC
  5
105
100
AcDbEntity
  8
M0
  6
DASHED
 62
     7
100
AcDbCircle
 10
208.983624
 20
328.062063
 40
1.5
100
AcDbArc
 50
90.0
 51
180.0
  0
ARC
  5
106
100
AcDbEntity
  8
M0
  6
DASHED
 62
     7
100
AcDbCircle
 10
208.983624
 20
328.062063
 40
0.5
100
AcDbArc
 50
90.0
 51
180.0
  0
LINE
  5
107
100
AcDbEntity
  8
M0
 62
     7
100
AcDbLine
 10
137.519272
 20
325.115754
 11
135.751694
 21
323.348176
  0
LINE
  5
108
100
AcDbEntity
  8
M0
 62
     7
100
AcDbLine
 10
137.69603
 20
323.171418
 11
134.514389
 21
326.353181
  0
LINE
  5
109
100
AcDbEntity
  8
M0
 62
     7
100
AcDbLine
 10
121.74603
 20
340.771418
 11
118.564389
 21
343.953181
  0
LINE
  5
10A
100
AcDbEntity
  8
M0
 62
     7
100
AcDbLine
 10
127.419272
 20
283.315754
 11
125.651694
 21
281.548176
  0
LINE
  5
10B
100
AcDbEntity
  8
M0
 62
     7
100
AcDbLine
 10
126.358725
 20
284.376423
 11
124.591147
 21
282.608723
  0
LINE
  5
10C
100
AcDbEntity
  8
M0
 62
     7
100
AcDbLine
 10
137.69603
 20
281.371418
 11
134.514389
 21
284.553181
  0
LINE
  5
10D
100
AcDbEntity
  8
M0
 62
     7
100
AcDbLine
 10
147.619272
 20
325.115754
 11
145.851694
 21
323.348176
  0
LINE
  5
10E
100
AcDbEntity
  8
M0
 62
     7
100
AcDbLine
 10
117.49603
 20
323.171418
 11
114.314389
 21
326.353181
  0
LINE
  5
10F
100
AcDbEntity
  8
M0
 62
     7
100
AcDbLine
 10
116.258725
 20
326.176423
 11
114.491147
 21
324.408723
  0
LINE
  5
110
100
AcDbEntity
  8
M0
 62
     7
100
AcDbLine
 10
143.369272
 20
342.715754
 11
141.601694
 21
340.948176
  0
LINE
  5
111
100
AcDbEntity
  8
M0
 62
     7
100
AcDbLine
 10
143.54603
 20
340.771418
 11
140.364389
 21
343.953181
  0
LINE
  5
112
100
AcDbEntity
  8
M0
  6
DASHED
 62
     7
100
AcDbLine
 10
208.483624
 20
326.912063
 11
208.483624
 21
328.062063
  0
LINE
  5
113
100
AcDbEntity
  8
M0
 62
     7
100
AcDbLine
 10
67.508725
 20
343.776423
 11
65.741147
 21
342.008723
  0
LINE
  5
114
100
AcDbEntity
  8
M0
  6
DASHED
 62
     7
100
AcDbLine
 10
211.483624
 20
329.562063
 11
211.483624
 21
328.562063
  0
LINE
  5
115
100
AcDbEntity
  8
M0
  6
DASHED
 62
     7
100
AcDbLine
 10
208.983624
 20
328.562063
 11
211.483624
 21
328.562063
  0
LINE
  5
116
100
AcDbEntity
  8
M0
 62
     7
100
AcDbLine
 10
89.308725
 20
343.776423
 11
87.541147
 21
342.008723
  0
LINE
  5
117
100
AcDbEntity
  8
M0
 62
     7
100
AcDbLine
 10
90.54603
 20
340.771418
 11
87.364389
 21
343.953181
  0
LINE
  5
118
100
AcDbEntity
  8
M0
 62
     7
100
AcDbLine
 10
68.74603
 20
340.771418
 11
65.564389
 21
343.953181
  0
LINE
  5
119
100
AcDbEntity
  8
M0
 62
     7
100
AcDbLine
 10
68.569272
 20
342.715754
 11
66.801694
 21
340.948176
  0
LINE
  5
11A
100
AcDbEntity
  8
M0
  6
DASHED
 62
     7
100
AcDbLine
 10
208.483624
 20
308.962063
 11
208.483624
 21
321.612063
  0
LINE
  5
11B
100
AcDbEntity
  8
M0
 62
     7
100
AcDbLine
 10
126.358725
 20
326.176423
 11
124.591147
 21
324.408723
  0
LINE
  5
11C
100
AcDbEntity
  8
M0
 62
     7
100
AcDbLine
 10
121.569272
 20
342.715754
 11
119.801694
 21
340.948176
  0
LINE
  5
11D
100
AcDbEntity
  8
M0
 62
     7
100
AcDbLine
 10
127.59603
 20
323.171418
 11
124.414389
 21
326.353181
  0
LINE
  5
11E
100
AcDbEntity
  8
M0
  6
DASHED
 62
     7
100
AcDbLine
 10
208.983624
 20
329.562063
 11
211.483624
 21
329.562063
  0
LINE
  5
11F
100
AcDbEntity
  8
M0
  6
DASHED
 62
     7
100
AcDbLine
 10
207.483624
 20
308.962063
 11
207.483624
 21
328.062063
  0
LINE
  5
120
100
AcDbEntity
  8
M0
  6
DASHED
 62
     7
100
AcDbLine
 10
208.483624
 20
321.612063
 11
208.483624
 21
326.912063
  0
LINE
  5
121
100
AcDbEntity
  8
M0
  6
DASHED
 62
     7
100
AcDbLine
 10
207.483624
 20
308.962063
 11
208.483624
 21
308.962063
  0
LINE
  5
122
100
AcDbEntity
  8
M0
 62
     7
100
AcDbLine
 10
117.319272
 20
325.115754
 11
115.551694
 21
323.348176
  0
LINE
  5
123
100
AcDbEntity
  8
M0
 62
     7
100
AcDbLine
 10
94.619272
 20
325.115754
 11
92.851694
 21
323.348176
  0
LINE
  5
124
100
AcDbEntity
  8
M0
 62
     7
100
AcDbLine
 10
93.558725
 20
284.376423
 11
91.791147
 21
282.608723
  0
LINE
  5
125
100
AcDbEntity
  8
M0
 62
     7
100
AcDbLine
 10
93.558725
 20
326.176423
 11
91.791147
 21
324.408723
  0
LINE
  5
126
100
AcDbEntity
  8
M0
 62
     7
100
AcDbLine
 10
94.79603
 20
323.171418
 11
91.614389
 21
326.353181
  0
LINE
  5
127
100
AcDbEntity
  8
M0
 62
     7
100
AcDbLine
 10
83.458725
 20
284.376423
 11
81.691147
 21
282.608723
  0
LINE
  5
128
100
AcDbEntity
  8
M0
 62
     7
100
AcDbLine
 10
117.319272
 20
283.315754
 11
115.551694
 21
281.548176
  0
LINE
  5
129
100
AcDbEntity
  8
M0
 62
     7
100
AcDbLine
 10
94.619272
 20
283.315754
 11
92.851694
 21
281.548176
  0
LINE
  5
12A
100
AcDbEntity
  8
M0
 62
     7
100
AcDbLine
 10
94.79603
 20
281.371418
 11
91.614389
 21
284.553181
  0
LINE
  5
12B
100
AcDbEntity
  8
M0
 62
     7
100
AcDbLine
 10
84.519272
 20
325.115754
 11
82.751694
 21
323.348176
  0
LINE
  5
12C
100
AcDbEntity
  8
M0
 62
     7
100
AcDbLine
 10
64.319272
 20
325.115754
 11
62.551694
 21
323.348176
  0
LINE
  5
12D
100
AcDbEntity
  8
M0
 62
     7
100
AcDbLine
 10
73.358725
 20
326.176423
 11
71.591147
 21
324.408723
  0
LINE
  5
12E
100
AcDbEntity
  8
M0
 62
     7
100
AcDbLine
 10
63.258725
 20
326.176423
 11
61.491147
 21
324.408723
  0
LINE
  5
12F
100
AcDbEntity
  8
M0
 62
     7
100
AcDbLine
 10
64.49603
 20
323.171418
 11
61.314389
 21
326.353181
  0
LINE
  5
130
100
AcDbEntity
  8
M0
 62
     7
100
AcDbLine
 10
83.458725
 20
326.176423
 11
81.691147
 21
324.408723
  0
LINE
  5
131
100
AcDbEntity
  8
M0
 62
     7
100
AcDbLine
 10
84.69603
 20
323.171418
 11
81.514389
 21
326.353181
  0
LINE
  5
132
100
AcDbEntity
  8
M0
 62
     7
100
AcDbLine
 10
74.59603
 20
323.171418
 11
71.414389
 21
326.353181
  0
LINE
  5
133
100
AcDbEntity
  8
M0
 62
     7
100
AcDbLine
 10
74.419272
 20
325.115754
 11
72.651694
 21
323.348176
  0
LINE
  5
134
100
AcDbEntity
  8
M0
 62
     7
100
AcDbLine
 10
90.369272
 20
342.715754
 11
88.601694
 21
340.948176
  0
LINE
  5
135
100
AcDbEntity
  8
M0
 62
     7
100
AcDbLine
 10
181.383624
 20
329.662063
 11
181.383624
 21
347.862063
  0
LINE
  5
136
100
AcDbEntity
  8
M0
100
AcDbLine
 10
47.055446
 20
329.512064
 11
53.055446
 21
329.512064
  0
LINE
  5
137
100
AcDbEntity
  8
M0
  6
DASHDOT
100
AcDbLine
 10
50.055446
 20
317.612063
 11
50.055446
 21
316.612063
  0
LINE
  5
138
100
AcDbEntity
  8
M0
100
AcDbLine
 10
47.055446
 20
328.462063
 11
47.055446
 21
329.512064
  0
LINE
  5
139
100
AcDbEntity
  8
M0
100
AcDbLine
 10
53.055446
 20
329.512064
 11
53.055446
 21
328.462063
  0
LINE
  5
13A
100
AcDbEntity
  8
M0
100
AcDbLine
 10
60.855446
 20
307.362063
 11
56.555446
 21
307.362063
  0
LINE
  5
13B
100
AcDbEntity
  8
M0
100
AcDbLine
 10
55.055446
 20
333.512062
 11
55.555446
 21
333.512062
  0
LINE
  5
13C
100
AcDbEntity
  8
M0
100
AcDbLine
 10
60.855446
 20
307.362063
 11
60.855446
 21
303.862063
  0
LINE
  5
13D
100
AcDbEntity
  8
M0
100
AcDbLine
 10
56.555446
 20
318.862063
 11
56.555446
 21
307.362063
  0
LINE
  5
13E
100
AcDbEntity
  8
M0
  6
DASHDOT
100
AcDbLine
 10
50.055446
 20
325.212063
 11
50.055446
 21
324.212063
  0
LINE
  5
13F
100
AcDbEntity
  8
M0
  6
DASHDOT
100
AcDbLine
 10
49.555446
 20
324.712063
 11
50.555446
 21
324.712063
  0
LINE
  5
140
100
AcDbEntity
  8
M0
100
AcDbLine
 10
54.055446
 20
311.062063
 11
54.055446
 21
303.862063
  0
ARC
  5
141
100
AcDbEntity
  8
M0
100
AcDbCircle
 10
55.055446
 20
295.612063
 40
1.0
100
AcDbArc
 50
90.0
 51
180.0
  0
ARC
  5
142
100
AcDbEntity
  8
M0
100
AcDbCircle
 10
55.555446
 20
282.812063
 40
1.0
100
AcDbArc
 50
-90.0
 51
0.0
  0
ARC
  5
143
100
AcDbEntity
  8
M0
100
AcDbCircle
 10
45.055446
 20
284.812063
 40
1.0
100
AcDbArc
 50
180.0
 51
270.0
  0
ARC
  5
144
100
AcDbEntity
  8
M0
100
AcDbCircle
 10
55.055446
 20
282.812063
 40
1.0
100
AcDbArc
 50
180.0
 51
270.0
  0
ARC
  5
145
100
AcDbEntity
  8
M0
100
AcDbCircle
 10
45.055446
 20
284.812063
 40
1.0
100
AcDbArc
 50
-90.0
 51
0.0
  0
LINE
  5
146
100
AcDbEntity
  8
M0
100
AcDbLine
 10
54.055446
 20
311.062063
 11
54.055446
 21
311.112063
  0
LINE
  5
147
100
AcDbEntity
  8
M0
  6
DASHDOT
100
AcDbLine
 10
49.555446
 20
317.112063
 11
50.555446
 21
317.112063
  0
LINE
  5
148
100
AcDbEntity
  8
M0
100
AcDbLine
 10
55.055446
 20
311.112063
 11
46.055446
 21
311.112063
  0
LINE
  5
149
100
AcDbEntity
  8
M0
100
AcDbLine
 10
56.555446
 20
332.512062
 11
56.555446
 21
319.012063
  0
LINE
  5
14A
100
AcDbEntity
  8
M0
100
AcDbLine
 10
46.055446
 20
313.112063
 11
54.055446
 21
313.112063
  0
LINE
  5
14B
100
AcDbEntity
  8
M0
  6
DASHDOT
100
AcDbLine
 10
49.555446
 20
290.612063
 11
50.555446
 21
290.612063
  0
ARC
  5
14C
100
AcDbEntity
  8
M0
100
AcDbCircle
 10
55.555446
 20
324.912063
 40
1.0
100
AcDbArc
 50
0.0
 51
90.0
  0
LINE
  5
14D
100
AcDbEntity
  8
M0
100
AcDbLine
 10
54.055446
 20
295.612063
 11
54.055446
 21
275.212063
  0
LINE
  5
14E
100
AcDbEntity
  8
M0
100
AcDbLine
 10
55.055446
 20
288.862063
 11
56.555446
 21
288.862063
  0
LINE
  5
14F
100
AcDbEntity
  8
M0
100
AcDbLine
 10
47.155446
 20
303.862063
 11
47.155446
 21
296.662063
  0
LINE
  5
150
100
AcDbEntity
  8
M0
100
AcDbLine
 10
53.055446
 20
303.862063
 11
53.055446
 21
296.662063
  0
ARC
  5
151
100
AcDbEntity
  8
M0
100
AcDbCircle
 10
45.055446
 20
330.512063
 40
1.0
100
AcDbArc
 50
3.256888E-012
 51
90.0
  0
ARC
  5
152
100
AcDbEntity
  8
M0
100
AcDbCircle
 10
45.055446
 20
330.512063
 40
1.0
100
AcDbArc
 50
90.0
 51
180.0
  0
ARC
  5
153
100
AcDbEntity
  8
M0
100
AcDbCircle
 10
55.555446
 20
332.512063
 40
1.0
100
AcDbArc
 50
6.513776E-012
 51
90.0
  0
LINE
  5
154
100
AcDbEntity
  8
M0
100
AcDbLine
 10
54.055446
 20
312.112063
 11
54.055446
 21
332.512063
  0
LINE
  5
155
100
AcDbEntity
  8
M0
100
AcDbLine
 10
55.055446
 20
318.862063
 11
56.555446
 21
318.862063
  0
LINE
  5
156
100
AcDbEntity
  8
M0
100
AcDbLine
 10
53.055446
 20
303.862063
 11
53.055446
 21
311.062063
  0
LINE
  5
157
100
AcDbEntity
  8
M0
100
AcDbLine
 10
47.155446
 20
303.862063
 11
47.155446
 21
311.062063
  0
LINE
  5
158
100
AcDbEntity
  8
M0
100
AcDbLine
 10
48.155446
 20
311.062063
 11
48.155446
 21
303.862063
  0
LINE
  5
159
100
AcDbEntity
  8
M0
100
AcDbLine
 10
56.555446
 20
288.862063
 11
56.555446
 21
300.362063
  0
ARC
  5
15A
100
AcDbEntity
  8
M0
100
AcDbCircle
 10
55.055446
 20
332.512063
 40
1.0
100
AcDbArc
 50
90.0
 51
180.0
  0
LINE
  5
15B
100
AcDbEntity
  8
M0
100
AcDbLine
 10
48.155446
 20
296.662063
 11
48.155446
 21
303.862063
  0
LINE
  5
15C
100
AcDbEntity
  8
M0
100
AcDbLine
 10
55.055446
 20
325.912062
 11
55.555446
 21
325.912062
  0
LINE
  5
15D
100
AcDbEntity
  8
M0
100
AcDbLine
 10
55.055446
 20
311.112063
 11
55.055446
 21
319.012063
  0
LINE
  5
15E
100
AcDbEntity
  8
M0
  6
DASHDOT
100
AcDbLine
 10
49.555446
 20
283.012063
 11
50.555446
 21
283.012063
  0
LINE
  5
15F
100
AcDbEntity
  8
M0
  6
DASHDOT
100
AcDbLine
 10
50.055446
 20
282.512063
 11
50.055446
 21
283.512063
  0
LINE
  5
160
100
AcDbEntity
  8
M0
  6
DASHDOT
100
AcDbLine
 10
50.055446
 20
290.112063
 11
50.055446
 21
291.112063
  0
ARC
  5
161
100
AcDbEntity
  8
M0
100
AcDbCircle
 10
55.055446
 20
312.112063
 40
1.0
100
AcDbArc
 50
180.0
 51
270.0
  0
ARC
  5
162
100
AcDbEntity
  8
M0
100
AcDbCircle
 10
55.055446
 20
324.912063
 40
1.0
100
AcDbArc
 50
90.0
 51
180.0
  0
LINE
  5
163
100
AcDbEntity
  8
M0
100
AcDbLine
 10
55.055446
 20
296.612063
 11
55.055446
 21
288.712063
  0
LINE
  5
164
100
AcDbEntity
  8
M0
100
AcDbLine
 10
55.055446
 20
281.812064
 11
55.555446
 21
281.812064
  0
LINE
  5
165
100
AcDbEntity
  8
M0
100
AcDbLine
 10
44.055446
 20
303.862063
 11
44.055446
 21
277.212062
  0
LINE
  5
166
100
AcDbEntity
  8
M0
100
AcDbLine
 10
60.855446
 20
300.362063
 11
60.855446
 21
303.862063
  0
LINE
  5
167
100
AcDbEntity
  8
M0
100
AcDbLine
 10
54.055446
 20
320.912063
 11
46.055446
 21
320.912063
  0
LINE
  5
168
100
AcDbEntity
  8
M0
100
AcDbLine
 10
46.055446
 20
330.512063
 11
46.055446
 21
303.862063
  0
LINE
  5
169
100
AcDbEntity
  8
M0
100
AcDbLine
 10
56.555446
 20
319.012063
 11
55.055446
 21
319.012063
  0
ARC
  5
16A
100
AcDbEntity
  8
M0
100
AcDbCircle
 10
45.055446
 20
322.912063
 40
1.0
100
AcDbArc
 50
90.0
 51
180.0
  0
LINE
  5
16B
100
AcDbEntity
  8
M0
100
AcDbLine
 10
54.055446
 20
296.662063
 11
54.055446
 21
303.862063
  0
LINE
  5
16C
100
AcDbEntity
  8
M0
100
AcDbLine
 10
53.055446
 20
328.512063
 11
54.055446
 21
328.512063
  0
ARC
  5
16D
100
AcDbEntity
  8
M0
100
AcDbCircle
 10
45.055446
 20
322.912063
 40
1.0
100
AcDbArc
 50
0.0
 51
90.0
  0
LINE
  5
16E
100
AcDbEntity
  8
M0
100
AcDbLine
 10
46.055446
 20
328.512063
 11
47.055446
 21
328.512063
  0
LINE
  5
16F
100
AcDbEntity
  8
M0
100
AcDbLine
 10
54.055446
 20
296.662063
 11
54.055446
 21
296.612063
  0
ARC
  5
170
100
AcDbEntity
  8
M0
100
AcDbCircle
 10
55.555446
 20
275.212063
 40
1.0
100
AcDbArc
 50
-90.0
 51
0.0
  0
LINE
  5
171
100
AcDbEntity
  8
M0
100
AcDbLine
 10
46.055446
 20
294.612063
 11
54.055446
 21
294.612063
  0
LINE
  5
172
100
AcDbEntity
  8
M0
100
AcDbLine
 10
56.555446
 20
275.212064
 11
56.555446
 21
288.712063
  0
LINE
  5
173
100
AcDbEntity
  8
M0
100
AcDbLine
 10
55.055446
 20
296.612063
 11
46.055446
 21
296.612063
  0
LINE
  5
174
100
AcDbEntity
  8
M0
100
AcDbLine
 10
46.055446
 20
279.212062
 11
47.055446
 21
279.212062
  0
ARC
  5
175
100
AcDbEntity
  8
M0
100
AcDbCircle
 10
45.055446
 20
277.212063
 40
1.0
100
AcDbArc
 50
180.0
 51
270.0
  0
LINE
  5
176
100
AcDbEntity
  8
M0
100
AcDbLine
 10
44.055446
 20
303.862063
 11
44.055446
 21
330.512064
  0
ARC
  5
177
100
AcDbEntity
  8
M0
100
AcDbCircle
 10
45.055446
 20
277.212063
 40
1.0
100
AcDbArc
 50
-90.0
 51
3.256888E-012
  0
LINE
  5
178
100
AcDbEntity
  8
M0
100
AcDbLine
 10
46.055446
 20
277.212063
 11
46.055446
 21
303.862063
  0
LINE
  5
179
100
AcDbEntity
  8
M0
100
AcDbLine
 10
54.055446
 20
286.812062
 11
46.055446
 21
286.812062
  0
LINE
  5
17A
100
AcDbEntity
  8
M0
100
AcDbLine
 10
56.555446
 20
288.712063
 11
55.055446
 21
288.712063
  0
LINE
  5
17B
100
AcDbEntity
  8
M0
100
AcDbLine
 10
53.055446
 20
279.212062
 11
54.055446
 21
279.212062
  0
LINE
  5
17C
100
AcDbEntity
  8
M0
100
AcDbLine
 10
47.055446
 20
279.262063
 11
47.055446
 21
278.212062
  0
ARC
  5
17D
100
AcDbEntity
  8
M0
100
AcDbCircle
 10
55.055446
 20
275.212063
 40
1.0
100
AcDbArc
 50
180.0
 51
270.0
  0
LINE
  5
17E
100
AcDbEntity
  8
M0
100
AcDbLine
 10
47.055446
 20
278.212062
 11
53.055446
 21
278.212062
  0
LINE
  5
17F
100
AcDbEntity
  8
M0
100
AcDbLine
 10
55.055446
 20
274.212063
 11
55.555446
 21
274.212063
  0
LINE
  5
180
100
AcDbEntity
  8
M0
100
AcDbLine
 10
60.855446
 20
300.362063
 11
56.555446
 21
300.362063
  0
LINE
  5
181
100
AcDbEntity
  8
M0
100
AcDbLine
 10
53.055446
 20
278.212062
 11
53.055446
 21
279.262063
  0
CIRCLE
  5
182
100
AcDbEntity
  8
M0
 62
     7
100
AcDbCircle
 10
50.055446
 20
290.612063
 40
3.0
  0
LINE
  5
183
100
AcDbEntity
  8
M0
 62
     7
100
AcDbLine
 10
53.880446
 20
293.937063
 11
53.880446
 21
287.287063
  0
ARC
  5
184
100
AcDbEntity
  8
M0
 62
     7
100
AcDbCircle
 10
46.730446
 20
293.937063
 40
0.5
100
AcDbArc
 50
90.0
 51
180.0
  0
ARC
  5
185
100
AcDbEntity
  8
M0
 62
     7
100
AcDbCircle
 10
53.380446
 20
287.287063
 40
0.5
100
AcDbArc
 50
-90.0
 51
0.0
  0
ARC
  5
186
100
AcDbEntity
  8
M0
 62
     7
100
AcDbCircle
 10
46.730446
 20
287.287063
 40
0.5
100
AcDbArc
 50
180.0
 51
270.0
  0
ARC
  5
187
100
AcDbEntity
  8
M0
 62
     7
100
AcDbCircle
 10
53.380446
 20
293.937063
 40
0.5
100
AcDbArc
 50
0.0
 51
90.0
  0
LINE
  5
188
100
AcDbEntity
  8
M0
 62
     7
100
AcDbLine
 10
50.408725
 20
289.197703
 11
48.641147
 21
290.965403
  0
LINE
  5
189
100
AcDbEntity
  8
M0
 62
     7
100
AcDbLine
 10
51.64603
 20
292.202708
 11
48.464389
 21
289.020945
  0
LINE
  5
18A
100
AcDbEntity
  8
M0
 62
     7
100
AcDbLine
 10
51.469272
 20
290.258372
 11
49.701694
 21
292.02595
  0
LINE
  5
18B
100
AcDbEntity
  8
M0
 62
     7
100
AcDbLine
 10
46.230446
 20
287.287063
 11
46.230446
 21
293.937063
  0
LINE
  5
18C
100
AcDbEntity
  8
M0
 62
     7
100
AcDbLine
 10
46.730446
 20
294.437063
 11
53.380446
 21
294.437063
  0
LINE
  5
18D
100
AcDbEntity
  8
M0
 62
     7
100
AcDbLine
 10
53.380446
 20
286.787063
 11
46.730446
 21
286.787063
  0
CIRCLE
  5
18E
100
AcDbEntity
  8
M0
 62
     7
100
AcDbCircle
 10
50.055446
 20
324.712063
 40
3.0
  0
LINE
  5
18F
100
AcDbEntity
  8
M0
 62
     7
100
AcDbLine
 10
53.880446
 20
328.037063
 11
53.880446
 21
321.387063
  0
ARC
  5
190
100
AcDbEntity
  8
M0
 62
     7
100
AcDbCircle
 10
46.730446
 20
328.037063
 40
0.5
100
AcDbArc
 50
90.0
 51
180.0
  0
ARC
  5
191
100
AcDbEntity
  8
M0
 62
     7
100
AcDbCircle
 10
53.380446
 20
321.387063
 40
0.5
100
AcDbArc
 50
-90.0
 51
0.0
  0
ARC
  5
192
100
AcDbEntity
  8
M0
 62
     7
100
AcDbCircle
 10
46.730446
 20
321.387063
 40
0.5
100
AcDbArc
 50
180.0
 51
270.0
  0
ARC
  5
193
100
AcDbEntity
  8
M0
 62
     7
100
AcDbCircle
 10
53.380446
 20
328.037063
 40
0.5
100
AcDbArc
 50
0.0
 51
90.0
  0
LINE
  5
194
100
AcDbEntity
  8
M0
 62
     7
100
AcDbLine
 10
50.408725
 20
323.297703
 11
48.641147
 21
325.065403
  0
LINE
  5
195
100
AcDbEntity
  8
M0
 62
     7
100
AcDbLine
 10
51.64603
 20
326.302708
 11
48.464389
 21
323.120945
  0
LINE
  5
196
100
AcDbEntity
  8
M0
 62
     7
100
AcDbLine
 10
51.469272
 20
324.358372
 11
49.701694
 21
326.12595
  0
LINE
  5
197
100
AcDbEntity
  8
M0
 62
     7
100
AcDbLine
 10
46.230446
 20
321.387063
 11
46.230446
 21
328.037063
  0
LINE
  5
198
100
AcDbEntity
  8
M0
 62
     7
100
AcDbLine
 10
46.730446
 20
328.537063
 11
53.380446
 21
328.537063
  0
LINE
  5
199
100
AcDbEntity
  8
M0
 62
     7
100
AcDbLine
 10
53.380446
 20
320.887063
 11
46.730446
 21
320.887063
  0
CIRCLE
  5
19A
100
AcDbEntity
  8
M0
 62
     7
100
AcDbCircle
 10
50.055446
 20
283.012063
 40
3.0
  0
LINE
  5
19B
100
AcDbEntity
  8
M0
 62
     7
100
AcDbLine
 10
53.880446
 20
286.337063
 11
53.880446
 21
279.687063
  0
ARC
  5
19C
100
AcDbEntity
  8
M0
 62
     7
100
AcDbCircle
 10
46.730446
 20
286.337063
 40
0.5
100
AcDbArc
 50
90.0
 51
180.0
  0
ARC
  5
19D
100
AcDbEntity
  8
M0
 62
     7
100
AcDbCircle
 10
53.380446
 20
279.687063
 40
0.5
100
AcDbArc
 50
-90.0
 51
0.0
  0
ARC
  5
19E
100
AcDbEntity
  8
M0
 62
     7
100
AcDbCircle
 10
46.730446
 20
279.687063
 40
0.5
100
AcDbArc
 50
180.0
 51
270.0
  0
ARC
  5
19F
100
AcDbEntity
  8
M0
 62
     7
100
AcDbCircle
 10
53.380446
 20
286.337063
 40
0.5
100
AcDbArc
 50
0.0
 51
90.0
  0
LINE
  5
1A0
100
AcDbEntity
  8
M0
 62
     7
100
AcDbLine
 10
50.408725
 20
281.597703
 11
48.641147
 21
283.365403
  0
LINE
  5
1A1
100
AcDbEntity
  8
M0
 62
     7
100
AcDbLine
 10
51.64603
 20
284.602708
 11
48.464389
 21
281.420945
  0
LINE
  5
1A2
100
AcDbEntity
  8
M0
 62
     7
100
AcDbLine
 10
51.469272
 20
282.658372
 11
49.701694
 21
284.42595
  0
LINE
  5
1A3
100
AcDbEntity
  8
M0
 62
     7
100
AcDbLine
 10
46.230446
 20
279.687063
 11
46.230446
 21
286.337063
  0
LINE
  5
1A4
100
AcDbEntity
  8
M0
 62
     7
100
AcDbLine
 10
46.730446
 20
286.837063
 11
53.380446
 21
286.837063
  0
LINE
  5
1A5
100
AcDbEntity
  8
M0
 62
     7
100
AcDbLine
 10
53.380446
 20
279.187063
 11
46.730446
 21
279.187063
  0
CIRCLE
  5
1A6
100
AcDbEntity
  8
M0
 62
     7
100
AcDbCircle
 10
50.055446
 20
317.112063
 40
3.0
  0
LINE
  5
1A7
100
AcDbEntity
  8
M0
 62
     7
100
AcDbLine
 10
53.880446
 20
320.437063
 11
53.880446
 21
313.787063
  0
ARC
  5
1A8
100
AcDbEntity
  8
M0
 62
     7
100
AcDbCircle
 10
46.730446
 20
320.437063
 40
0.5
100
AcDbArc
 50
90.0
 51
180.0
  0
ARC
  5
1A9
100
AcDbEntity
  8
M0
 62
     7
100
AcDbCircle
 10
53.380446
 20
313.787063
 40
0.5
100
AcDbArc
 50
-90.0
 51
0.0
  0
ARC
  5
1AA
100
AcDbEntity
  8
M0
 62
     7
100
AcDbCircle
 10
46.730446
 20
313.787063
 40
0.5
100
AcDbArc
 50
180.0
 51
270.0
  0
ARC
  5
1AB
100
AcDbEntity
  8
M0
 62
     7
100
AcDbCircle
 10
53.380446
 20
320.437063
 40
0.5
100
AcDbArc
 50
0.0
 51
90.0
  0
LINE
  5
1AC
100
AcDbEntity
  8
M0
 62
     7
100
AcDbLine
 10
50.408725
 20
315.697703
 11
48.641147
 21
317.465403
  0
LINE
  5
1AD
100
AcDbEntity
  8
M0
 62
     7
100
AcDbLine
 10
51.64603
 20
318.702708
 11
48.464389
 21
315.520945
  0
LINE
  5
1AE
100
AcDbEntity
  8
M0
 62
     7
100
AcDbLine
 10
51.469272
 20
316.758372
 11
49.701694
 21
318.52595
  0
LINE
  5
1AF
100
AcDbEntity
  8
M0
 62
     7
100
AcDbLine
 10
46.230446
 20
313.787063
 11
46.230446
 21
320.437063
  0
LINE
  5
1B0
100
AcDbEntity
  8
M0
 62
     7
100
AcDbLine
 10
46.730446
 20
320.937063
 11
53.380446
 21
320.937063
  0
LINE
  5
1B1
100
AcDbEntity
  8
M0
 62
     7
100
AcDbLine
 10
53.380446
 20
313.287063
 11
46.730446
 21
313.287063
  0
LINE
  5
1B2
100
AcDbEntity
  8
M0
100
AcDbLine
 10
109.555446
 20
328.162063
 11
109.555446
 21
303.862063
  0
LINE
  5
1B3
100
AcDbEntity
  8
M0
100
AcDbLine
 10
109.555446
 20
321.262063
 11
104.555446
 21
321.262063
  0
LINE
  5
1B4
100
AcDbEntity
  8
M0
100
AcDbLine
 10
106.955446
 20
329.262064
 11
102.155446
 21
329.262064
  0
LINE
  5
1B5
100
AcDbEntity
  8
M0
100
AcDbLine
 10
99.555446
 20
321.262063
 11
104.555446
 21
321.262063
  0
LINE
  5
1B6
100
AcDbEntity
  8
M0
100
AcDbLine
 10
109.555446
 20
325.362063
 11
104.555446
 21
325.362063
  0
LINE
  5
1B7
100
AcDbEntity
  8
M0
100
AcDbLine
 10
99.555446
 20
286.462063
 11
104.555446
 21
286.462063
  0
ARC
  5
1B8
100
AcDbEntity
  8
M0
100
AcDbCircle
 10
109.055446
 20
328.162063
 40
0.5
100
AcDbArc
 50
23.578178
 51
90.0
  0
LINE
  5
1B9
100
AcDbEntity
  8
M0
100
AcDbLine
 10
106.955446
 20
278.462062
 11
102.155446
 21
278.462062
  0
ARC
  5
1BA
100
AcDbEntity
  8
M0
100
AcDbCircle
 10
102.155446
 20
328.662063
 40
0.6
100
AcDbArc
 50
90.0
 51
180.0
  0
ARC
  5
1BB
100
AcDbEntity
  8
M0
100
AcDbCircle
 10
100.055446
 20
328.162063
 40
0.5
100
AcDbArc
 50
90.0
 51
156.421822
  0
LINE
  5
1BC
100
AcDbEntity
  8
M0
100
AcDbLine
 10
99.555446
 20
303.862063
 11
99.555446
 21
279.562063
  0
ARC
  5
1BD
100
AcDbEntity
  8
M0
100
AcDbCircle
 10
106.955446
 20
328.662063
 40
0.6
100
AcDbArc
 50
0.0
 51
90.0
  0
LINE
  5
1BE
100
AcDbEntity
  8
M0
100
AcDbLine
 10
109.555446
 20
279.562063
 11
109.555446
 21
303.862063
  0
LINE
  5
1BF
100
AcDbEntity
  8
M0
100
AcDbLine
 10
109.555446
 20
282.362062
 11
104.555446
 21
282.362062
  0
ARC
  5
1C0
100
AcDbEntity
  8
M0
100
AcDbCircle
 10
106.955446
 20
279.062063
 40
0.6
100
AcDbArc
 50
270.0
 51
360.0
  0
LINE
  5
1C1
100
AcDbEntity
  8
M0
  6
DASHDOT
 62
     7
100
AcDbLine
 10
104.555446
 20
332.215261
 11
104.555446
 21
276.122903
  0
ARC
  5
1C2
100
AcDbEntity
  8
M0
100
AcDbCircle
 10
109.055446
 20
279.562063
 40
0.5
100
AcDbArc
 50
270.0
 51
336.421822
  0
LINE
  5
1C3
100
AcDbEntity
  8
M0
100
AcDbLine
 10
109.555446
 20
286.462063
 11
104.555446
 21
286.462063
  0
LINE
  5
1C4
100
AcDbEntity
  8
M0
100
AcDbLine
 10
99.555446
 20
325.362063
 11
104.555446
 21
325.362063
  0
ARC
  5
1C5
100
AcDbEntity
  8
M0
100
AcDbCircle
 10
100.055446
 20
279.562063
 40
0.5
100
AcDbArc
 50
203.578178
 51
270.0
  0
LINE
  5
1C6
100
AcDbEntity
  8
M0
100
AcDbLine
 10
99.555446
 20
303.862063
 11
99.555446
 21
328.162063
  0
LINE
  5
1C7
100
AcDbEntity
  8
M0
100
AcDbLine
 10
100.055446
 20
279.062064
 11
109.055446
 21
279.062064
  0
ARC
  5
1C8
100
AcDbEntity
  8
M0
100
AcDbCircle
 10
102.155446
 20
279.062063
 40
0.6
100
AcDbArc
 50
180.0
 51
270.0
  0
LINE
  5
1C9
100
AcDbEntity
  8
M0
100
AcDbLine
 10
100.055446
 20
328.662061
 11
109.055446
 21
328.662061
  0
LINE
  5
1CA
100
AcDbEntity
  8
M0
100
AcDbLine
 10
99.555446
 20
282.362062
 11
104.555446
 21
282.362062
  0
HATCH
  5
1CB
100
AcDbEntity
  8
M0
 62
     7
100
AcDbHatch
 10
0.0
 20
0.0
210
0.0
220
0.0
230
1.0
  2
SOLID
 70
     1
 71
     0
 91
        1
 92
        1
 93
        4
 72
     1
 10
181.383624
 20
347.862063
 11
179.383624
 21
347.862063
 72
     1
 10
179.383624
 20
347.862063
 11
179.383624
 21
329.662063
 72
     1
 10
179.383624
 20
329.662063
 11
181.383624
 21
329.662063
 72
     1
 10
181.383624
 20
329.662063
 11
181.383624
 21
347.862063
 97
        0
 75
     0
 76
     1
 98
        1
 10
0.0
 20
0.0
  0
LINE
  5
1CE
100
AcDbEntity
  8
M0
  6
DASHED
 62
     7
100
AcDbLine
 10
213.933624
 20
326.512063
 11
208.483624
 21
326.512063
  0
LINE
  5
1CF
100
AcDbEntity
  8
M0
  6
DASHED
 62
     7
100
AcDbLine
 10
208.483624
 20
323.012063
 11
213.933624
 21
323.012063
  0
ARC
  5
1D0
100
AcDbEntity
  8
M0
  6
DASHED
 62
     7
100
AcDbCircle
 10
204.133624
 20
326.762063
 40
1.0
100
AcDbArc
 50
90.0
 51
180.0
  0
LINE
  5
1D1
100
AcDbEntity
  8
M0
  6
DASHED
 62
     7
100
AcDbLine
 10
203.133624
 20
322.762063
 11
203.133624
 21
326.762063
  0
LINE
  5
1D2
100
AcDbEntity
  8
M0
  6
DASHED
 62
     7
100
AcDbLine
 10
205.433624
 20
322.012063
 11
206.483624
 21
322.012063
  0
ARC
  5
1D3
100
AcDbEntity
  8
M0
  6
DASHED
 62
     7
100
AcDbCircle
 10
204.133624
 20
322.762063
 40
1.0
100
AcDbArc
 50
180.0
 51
270.0
  0
LINE
  5
1D4
100
AcDbEntity
  8
M0
  6
DASHED
 62
     7
100
AcDbLine
 10
213.933624
 20
326.512063
 11
213.933624
 21
323.012063
  0
LINE
  5
1D5
100
AcDbEntity
  8
M0
  6
DASHED
 62
     7
100
AcDbLine
 10
205.433624
 20
327.512063
 11
206.483624
 21
327.512063
  0
LINE
  5
1D6
100
AcDbEntity
  8
M0
  6
DASHED
 62
     7
100
AcDbLine
 10
207.483624
 20
328.587063
 11
206.483624
 21
328.587063
  0
LINE
  5
1D7
100
AcDbEntity
  8
M0
  6
DASHED
 62
     7
100
AcDbLine
 10
206.483624
 20
328.587063
 11
206.483624
 21
320.937063
  0
LINE
  5
1D8
100
AcDbEntity
  8
M0
  6
DASHED
 62
     7
100
AcDbLine
 10
207.483624
 20
320.937063
 11
206.483624
 21
320.937063
  0
LINE
  5
1D9
100
AcDbEntity
  8
M0
  6
DASHED
 62
     7
100
AcDbLine
 10
205.433624
 20
327.762063
 11
205.433624
 21
321.762063
  0
LINE
  5
1DA
100
AcDbEntity
  8
M0
  6
DASHED
 62
     7
100
AcDbLine
 10
204.133624
 20
327.762063
 11
205.433624
 21
327.762063
  0
LINE
  5
1DB
100
AcDbEntity
  8
M0
  6
DASHED
 62
     7
100
AcDbLine
 10
206.483624
 20
326.187063
 11
206.483624
 21
323.337063
  0
LINE
  5
1DC
100
AcDbEntity
  8
M0
  6
DASHED
 62
     7
100
AcDbLine
 10
204.133624
 20
321.762063
 11
205.433624
 21
321.762063
  0
LINE
  5
1DD
100
AcDbEntity
  8
M0
100
AcDbLine
 10
162.055446
 20
329.512064
 11
156.055446
 21
329.512064
  0
LINE
  5
1DE
100
AcDbEntity
  8
M0
  6
DASHDOT
100
AcDbLine
 10
159.055446
 20
317.612063
 11
159.055446
 21
316.612063
  0
LINE
  5
1DF
100
AcDbEntity
  8
M0
100
AcDbLine
 10
162.055446
 20
328.462063
 11
162.055446
 21
329.512064
  0
LINE
  5
1E0
100
AcDbEntity
  8
M0
100
AcDbLine
 10
156.055446
 20
329.512064
 11
156.055446
 21
328.462063
  0
LINE
  5
1E1
100
AcDbEntity
  8
M0
100
AcDbLine
 10
148.255446
 20
307.362063
 11
152.555446
 21
307.362063
  0
LINE
  5
1E2
100
AcDbEntity
  8
M0
100
AcDbLine
 10
154.055446
 20
333.512062
 11
153.555446
 21
333.512062
  0
LINE
  5
1E3
100
AcDbEntity
  8
M0
100
AcDbLine
 10
148.255446
 20
307.362063
 11
148.255446
 21
303.862063
  0
LINE
  5
1E4
100
AcDbEntity
  8
M0
100
AcDbLine
 10
152.555446
 20
318.862063
 11
152.555446
 21
307.362063
  0
LINE
  5
1E5
100
AcDbEntity
  8
M0
  6
DASHDOT
100
AcDbLine
 10
159.055446
 20
325.212063
 11
159.055446
 21
324.212063
  0
LINE
  5
1E6
100
AcDbEntity
  8
M0
  6
DASHDOT
100
AcDbLine
 10
159.555446
 20
324.712063
 11
158.555446
 21
324.712063
  0
LINE
  5
1E7
100
AcDbEntity
  8
M0
100
AcDbLine
 10
155.055446
 20
311.062063
 11
155.055446
 21
303.862063
  0
ARC
  5
1E8
100
AcDbEntity
  8
M0
100
AcDbCircle
 10
154.055446
 20
295.612063
 40
1.0
100
AcDbArc
 50
0.0
 51
90.0
  0
ARC
  5
1E9
100
AcDbEntity
  8
M0
100
AcDbCircle
 10
153.555446
 20
282.812063
 40
1.0
100
AcDbArc
 50
180.0
 51
270.0
  0
ARC
  5
1EA
100
AcDbEntity
  8
M0
100
AcDbCircle
 10
164.055446
 20
284.812063
 40
1.0
100
AcDbArc
 50
270.0
 51
360.0
  0
ARC
  5
1EB
100
AcDbEntity
  8
M0
100
AcDbCircle
 10
154.055446
 20
282.812063
 40
1.0
100
AcDbArc
 50
270.0
 51
360.0
  0
ARC
  5
1EC
100
AcDbEntity
  8
M0
100
AcDbCircle
 10
164.055446
 20
284.812063
 40
1.0
100
AcDbArc
 50
180.0
 51
270.0
  0
LINE
  5
1ED
100
AcDbEntity
  8
M0
100
AcDbLine
 10
155.055446
 20
311.062063
 11
155.055446
 21
311.112063
  0
LINE
  5
1EE
100
AcDbEntity
  8
M0
  6
DASHDOT
100
AcDbLine
 10
159.555446
 20
317.112063
 11
158.555446
 21
317.112063
  0
LINE
  5
1EF
100
AcDbEntity
  8
M0
100
AcDbLine
 10
154.055446
 20
311.112063
 11
163.055446
 21
311.112063
  0
LINE
  5
1F0
100
AcDbEntity
  8
M0
100
AcDbLine
 10
152.555446
 20
332.512062
 11
152.555446
 21
319.012063
  0
LINE
  5
1F1
100
AcDbEntity
  8
M0
100
AcDbLine
 10
163.055446
 20
313.112063
 11
155.055446
 21
313.112063
  0
LINE
  5
1F2
100
AcDbEntity
  8
M0
  6
DASHDOT
100
AcDbLine
 10
159.555446
 20
290.612063
 11
158.555446
 21
290.612063
  0
ARC
  5
1F3
100
AcDbEntity
  8
M0
100
AcDbCircle
 10
153.555446
 20
324.912063
 40
1.0
100
AcDbArc
 50
90.0
 51
180.0
  0
LINE
  5
1F4
100
AcDbEntity
  8
M0
100
AcDbLine
 10
155.055446
 20
295.612063
 11
155.055446
 21
275.212063
  0
LINE
  5
1F5
100
AcDbEntity
  8
M0
100
AcDbLine
 10
154.055446
 20
288.862063
 11
152.555446
 21
288.862063
  0
LINE
  5
1F6
100
AcDbEntity
  8
M0
100
AcDbLine
 10
161.955446
 20
303.862063
 11
161.955446
 21
296.662063
  0
LINE
  5
1F7
100
AcDbEntity
  8
M0
100
AcDbLine
 10
156.055446
 20
303.862063
 11
156.055446
 21
296.662063
  0
ARC
  5
1F8
100
AcDbEntity
  8
M0
100
AcDbCircle
 10
164.055446
 20
330.512063
 40
1.0
100
AcDbArc
 50
90.0
 51
180.0
  0
ARC
  5
1F9
100
AcDbEntity
  8
M0
100
AcDbCircle
 10
164.055446
 20
330.512063
 40
1.0
100
AcDbArc
 50
-3.240075E-012
 51
90.0
  0
ARC
  5
1FA
100
AcDbEntity
  8
M0
100
AcDbCircle
 10
153.555446
 20
332.512063
 40
1.0
100
AcDbArc
 50
90.0
 51
180.0
  0
LINE
  5
1FB
100
AcDbEntity
  8
M0
100
AcDbLine
 10
155.055446
 20
312.112063
 11
155.055446
 21
332.512063
  0
LINE
  5
1FC
100
AcDbEntity
  8
M0
100
AcDbLine
 10
154.055446
 20
318.862063
 11
152.555446
 21
318.862063
  0
LINE
  5
1FD
100
AcDbEntity
  8
M0
100
AcDbLine
 10
156.055446
 20
303.862063
 11
156.055446
 21
311.062063
  0
LINE
  5
1FE
100
AcDbEntity
  8
M0
100
AcDbLine
 10
161.955446
 20
303.862063
 11
161.955446
 21
311.062063
  0
LINE
  5
1FF
100
AcDbEntity
  8
M0
100
AcDbLine
 10
160.955446
 20
311.062063
 11
160.955446
 21
303.862063
  0
LINE
  5
200
100
AcDbEntity
  8
M0
100
AcDbLine
 10
152.555446
 20
288.862063
 11
152.555446
 21
300.362063
  0
ARC
  5
201
100
AcDbEntity
  8
M0
100
AcDbCircle
 10
154.055446
 20
332.512063
 40
1.0
100
AcDbArc
 50
0.0
 51
90.0
  0
LINE
  5
202
100
AcDbEntity
  8
M0
100
AcDbLine
 10
160.955446
 20
296.662063
 11
160.955446
 21
303.862063
  0
LINE
  5
203
100
AcDbEntity
  8
M0
100
AcDbLine
 10
154.055446
 20
325.912062
 11
153.555446
 21
325.912062
  0
LINE
  5
204
100
AcDbEntity
  8
M0
100
AcDbLine
 10
154.055446
 20
311.112063
 11
154.055446
 21
319.012063
  0
LINE
  5
205
100
AcDbEntity
  8
M0
  6
DASHDOT
100
AcDbLine
 10
159.555446
 20
283.012063
 11
158.555446
 21
283.012063
  0
LINE
  5
206
100
AcDbEntity
  8
M0
  6
DASHDOT
100
AcDbLine
 10
159.055446
 20
282.512063
 11
159.055446
 21
283.512063
  0
LINE
  5
207
100
AcDbEntity
  8
M0
  6
DASHDOT
100
AcDbLine
 10
159.055446
 20
290.112063
 11
159.055446
 21
291.112063
  0
ARC
  5
208
100
AcDbEntity
  8
M0
100
AcDbCircle
 10
154.055446
 20
312.112063
 40
1.0
100
AcDbArc
 50
-90.0
 51
0.0
  0
ARC
  5
209
100
AcDbEntity
  8
M0
100
AcDbCircle
 10
154.055446
 20
324.912063
 40
1.0
100
AcDbArc
 50
-3.240075E-012
 51
90.0
  0
LINE
  5
20A
100
AcDbEntity
  8
M0
100
AcDbLine
 10
154.055446
 20
296.612063
 11
154.055446
 21
288.712063
  0
LINE
  5
20B
100
AcDbEntity
  8
M0
100
AcDbLine
 10
154.055446
 20
281.812064
 11
153.555446
 21
281.812064
  0
LINE
  5
20C
100
AcDbEntity
  8
M0
100
AcDbLine
 10
165.055446
 20
303.862063
 11
165.055446
 21
277.212062
  0
LINE
  5
20D
100
AcDbEntity
  8
M0
100
AcDbLine
 10
148.255446
 20
300.362063
 11
148.255446
 21
303.862063
  0
LINE
  5
20E
100
AcDbEntity
  8
M0
100
AcDbLine
 10
155.055446
 20
320.912063
 11
163.055446
 21
320.912063
  0
LINE
  5
20F
100
AcDbEntity
  8
M0
100
AcDbLine
 10
163.055446
 20
330.512063
 11
163.055446
 21
303.862063
  0
LINE
  5
210
100
AcDbEntity
  8
M0
100
AcDbLine
 10
152.555446
 20
319.012063
 11
154.055446
 21
319.012063
  0
LINE
  5
211
100
AcDbEntity
  8
M0
  6
DASHDOT
 62
     7
100
AcDbLine
 10
42.055446
 20
303.862063
 11
167.055446
 21
303.862063
  0
ARC
  5
212
100
AcDbEntity
  8
M0
100
AcDbCircle
 10
164.055446
 20
322.912063
 40
1.0
100
AcDbArc
 50
-3.240075E-012
 51
90.0
  0
LINE
  5
213
100
AcDbEntity
  8
M0
100
AcDbLine
 10
155.055446
 20
296.662063
 11
155.055446
 21
303.862063
  0
LINE
  5
214
100
AcDbEntity
  8
M0
100
AcDbLine
 10
156.055446
 20
328.512063
 11
155.055446
 21
328.512063
  0
ARC
  5
215
100
AcDbEntity
  8
M0
100
AcDbCircle
 10
164.055446
 20
322.912063
 40
1.0
100
AcDbArc
 50
90.0
 51
180.0
  0
LINE
  5
216
100
AcDbEntity
  8
M0
100
AcDbLine
 10
163.055446
 20
328.512063
 11
162.055446
 21
328.512063
  0
LINE
  5
217
100
AcDbEntity
  8
M0
100
AcDbLine
 10
155.055446
 20
296.662063
 11
155.055446
 21
296.612063
  0
ARC
  5
218
100
AcDbEntity
  8
M0
100
AcDbCircle
 10
153.555446
 20
275.212063
 40
1.0
100
AcDbArc
 50
180.0
 51
270.0
  0
LINE
  5
219
100
AcDbEntity
  8
M0
100
AcDbLine
 10
163.055446
 20
294.612063
 11
155.055446
 21
294.612063
  0
LINE
  5
21A
100
AcDbEntity
  8
M0
100
AcDbLine
 10
152.555446
 20
275.212064
 11
152.555446
 21
288.712063
  0
LINE
  5
21B
100
AcDbEntity
  8
M0
100
AcDbLine
 10
154.055446
 20
296.612063
 11
163.055446
 21
296.612063
  0
LINE
  5
21C
100
AcDbEntity
  8
M0
100
AcDbLine
 10
163.055446
 20
279.212062
 11
162.055446
 21
279.212062
  0
ARC
  5
21D
100
AcDbEntity
  8
M0
100
AcDbCircle
 10
164.055446
 20
277.212063
 40
1.0
100
AcDbArc
 50
270.0
 51
360.0
  0
LINE
  5
21E
100
AcDbEntity
  8
M0
100
AcDbLine
 10
165.055446
 20
303.862063
 11
165.055446
 21
330.512064
  0
ARC
  5
21F
100
AcDbEntity
  8
M0
100
AcDbCircle
 10
164.055446
 20
277.212063
 40
1.0
100
AcDbArc
 50
180.0
 51
270.0
  0
LINE
  5
220
100
AcDbEntity
  8
M0
100
AcDbLine
 10
163.055446
 20
277.212063
 11
163.055446
 21
303.862063
  0
LINE
  5
221
100
AcDbEntity
  8
M0
100
AcDbLine
 10
155.055446
 20
286.812062
 11
163.055446
 21
286.812062
  0
LINE
  5
222
100
AcDbEntity
  8
M0
100
AcDbLine
 10
152.555446
 20
288.712063
 11
154.055446
 21
288.712063
  0
LINE
  5
223
100
AcDbEntity
  8
M0
100
AcDbLine
 10
156.055446
 20
279.212062
 11
155.055446
 21
279.212062
  0
LINE
  5
224
100
AcDbEntity
  8
M0
100
AcDbLine
 10
162.055446
 20
279.262063
 11
162.055446
 21
278.212062
  0
ARC
  5
225
100
AcDbEntity
  8
M0
100
AcDbCircle
 10
154.055446
 20
275.212063
 40
1.0
100
AcDbArc
 50
270.0
 51
360.0
  0
LINE
  5
226
100
AcDbEntity
  8
M0
100
AcDbLine
 10
162.055446
 20
278.212062
 11
156.055446
 21
278.212062
  0
LINE
  5
227
100
AcDbEntity
  8
M0
100
AcDbLine
 10
154.055446
 20
274.212063
 11
153.555446
 21
274.212063
  0
LINE
  5
228
100
AcDbEntity
  8
M0
100
AcDbLine
 10
148.255446
 20
300.362063
 11
152.555446
 21
300.362063
  0
LINE
  5
229
100
AcDbEntity
  8
M0
100
AcDbLine
 10
156.055446
 20
278.212062
 11
156.055446
 21
279.262063
  0
CIRCLE
  5
22A
100
AcDbEntity
  8
M0
 62
     7
100
AcDbCircle
 10
159.055446
 20
290.612063
 40
3.0
  0
LINE
  5
22B
100
AcDbEntity
  8
M0
 62
     7
100
AcDbLine
 10
155.230446
 20
293.937063
 11
155.230446
 21
287.287063
  0
ARC
  5
22C
100
AcDbEntity
  8
M0
 62
     7
100
AcDbCircle
 10
162.380446
 20
293.937063
 40
0.5
100
AcDbArc
 50
0.0
 51
90.0
  0
ARC
  5
22D
100
AcDbEntity
  8
M0
 62
     7
100
AcDbCircle
 10
155.730446
 20
287.287063
 40
0.5
100
AcDbArc
 50
180.0
 51
270.0
  0
ARC
  5
22E
100
AcDbEntity
  8
M0
 62
     7
100
AcDbCircle
 10
162.380446
 20
287.287063
 40
0.5
100
AcDbArc
 50
270.0
 51
360.0
  0
ARC
  5
22F
100
AcDbEntity
  8
M0
 62
     7
100
AcDbCircle
 10
155.730446
 20
293.937063
 40
0.5
100
AcDbArc
 50
90.0
 51
180.0
  0
LINE
  5
230
100
AcDbEntity
  8
M0
 62
     7
100
AcDbLine
 10
158.702167
 20
289.197703
 11
160.469745
 21
290.965403
  0
LINE
  5
231
100
AcDbEntity
  8
M0
 62
     7
100
AcDbLine
 10
157.464862
 20
292.202708
 11
160.646503
 21
289.020945
  0
LINE
  5
232
100
AcDbEntity
  8
M0
 62
     7
100
AcDbLine
 10
157.64162
 20
290.258372
 11
159.409198
 21
292.02595
  0
LINE
  5
233
100
AcDbEntity
  8
M0
 62
     7
100
AcDbLine
 10
162.880446
 20
287.287063
 11
162.880446
 21
293.937063
  0
LINE
  5
234
100
AcDbEntity
  8
M0
 62
     7
100
AcDbLine
 10
162.380446
 20
294.437063
 11
155.730446
 21
294.437063
  0
LINE
  5
235
100
AcDbEntity
  8
M0
 62
     7
100
AcDbLine
 10
155.730446
 20
286.787063
 11
162.380446
 21
286.787063
  0
CIRCLE
  5
236
100
AcDbEntity
  8
M0
 62
     7
100
AcDbCircle
 10
159.055446
 20
324.712063
 40
3.0
  0
LINE
  5
237
100
AcDbEntity
  8
M0
 62
     7
100
AcDbLine
 10
155.230446
 20
328.037063
 11
155.230446
 21
321.387063
  0
ARC
  5
238
100
AcDbEntity
  8
M0
 62
     7
100
AcDbCircle
 10
162.380446
 20
328.037063
 40
0.5
100
AcDbArc
 50
0.0
 51
90.0
  0
ARC
  5
239
100
AcDbEntity
  8
M0
 62
     7
100
AcDbCircle
 10
155.730446
 20
321.387063
 40
0.5
100
AcDbArc
 50
180.0
 51
270.0
  0
ARC
  5
23A
100
AcDbEntity
  8
M0
 62
     7
100
AcDbCircle
 10
162.380446
 20
321.387063
 40
0.5
100
AcDbArc
 50
270.0
 51
360.0
  0
ARC
  5
23B
100
AcDbEntity
  8
M0
 62
     7
100
AcDbCircle
 10
155.730446
 20
328.037063
 40
0.5
100
AcDbArc
 50
90.0
 51
180.0
  0
LINE
  5
23C
100
AcDbEntity
  8
M0
 62
     7
100
AcDbLine
 10
158.702167
 20
323.297703
 11
160.469745
 21
325.065403
  0
LINE
  5
23D
100
AcDbEntity
  8
M0
 62
     7
100
AcDbLine
 10
157.464862
 20
326.302708
 11
160.646503
 21
323.120945
  0
LINE
  5
23E
100
AcDbEntity
  8
M0
 62
     7
100
AcDbLine
 10
157.64162
 20
324.358372
 11
159.409198
 21
326.12595
  0
LINE
  5
23F
100
AcDbEntity
  8
M0
 62
     7
100
AcDbLine
 10
162.880446
 20
321.387063
 11
162.880446
 21
328.037063
  0
LINE
  5
240
100
AcDbEntity
  8
M0
 62
     7
100
AcDbLine
 10
162.380446
 20
328.537063
 11
155.730446
 21
328.537063
  0
LINE
  5
241
100
AcDbEntity
  8
M0
 62
     7
100
AcDbLine
 10
155.730446
 20
320.887063
 11
162.380446
 21
320.887063
  0
CIRCLE
  5
242
100
AcDbEntity
  8
M0
 62
     7
100
AcDbCircle
 10
159.055446
 20
283.012063
 40
3.0
  0
LINE
  5
243
100
AcDbEntity
  8
M0
 62
     7
100
AcDbLine
 10
155.230446
 20
286.337063
 11
155.230446
 21
279.687063
  0
ARC
  5
244
100
AcDbEntity
  8
M0
 62
     7
100
AcDbCircle
 10
162.380446
 20
286.337063
 40
0.5
100
AcDbArc
 50
0.0
 51
90.0
  0
ARC
  5
245
100
AcDbEntity
  8
M0
 62
     7
100
AcDbCircle
 10
155.730446
 20
279.687063
 40
0.5
100
AcDbArc
 50
180.0
 51
270.0
  0
ARC
  5
246
100
AcDbEntity
  8
M0
 62
     7
100
AcDbCircle
 10
162.380446
 20
279.687063
 40
0.5
100
AcDbArc
 50
270.0
 51
360.0
  0
ARC
  5
247
100
AcDbEntity
  8
M0
 62
     7
100
AcDbCircle
 10
155.730446
 20
286.337063
 40
0.5
100
AcDbArc
 50
90.0
 51
180.0
  0
LINE
  5
248
100
AcDbEntity
  8
M0
 62
     7
100
AcDbLine
 10
158.702167
 20
281.597703
 11
160.469745
 21
283.365403
  0
LINE
  5
249
100
AcDbEntity
  8
M0
 62
     7
100
AcDbLine
 10
157.464862
 20
284.602708
 11
160.646503
 21
281.420945
  0
LINE
  5
24A
100
AcDbEntity
  8
M0
 62
     7
100
AcDbLine
 10
157.64162
 20
282.658372
 11
159.409198
 21
284.42595
  0
LINE
  5
24B
100
AcDbEntity
  8
M0
 62
     7
100
AcDbLine
 10
162.880446
 20
279.687063
 11
162.880446
 21
286.337063
  0
LINE
  5
24C
100
AcDbEntity
  8
M0
 62
     7
100
AcDbLine
 10
162.380446
 20
286.837063
 11
155.730446
 21
286.837063
  0
LINE
  5
24D
100
AcDbEntity
  8
M0
 62
     7
100
AcDbLine
 10
155.730446
 20
279.187063
 11
162.380446
 21
279.187063
  0
CIRCLE
  5
24E
100
AcDbEntity
  8
M0
 62
     7
100
AcDbCircle
 10
159.055446
 20
317.112063
 40
3.0
  0
LINE
  5
24F
100
AcDbEntity
  8
M0
 62
     7
100
AcDbLine
 10
155.230446
 20
320.437063
 11
155.230446
 21
313.787063
  0
ARC
  5
250
100
AcDbEntity
  8
M0
 62
     7
100
AcDbCircle
 10
162.380446
 20
320.437063
 40
0.5
100
AcDbArc
 50
0.0
 51
90.0
  0
ARC
  5
251
100
AcDbEntity
  8
M0
 62
     7
100
AcDbCircle
 10
155.730446
 20
313.787063
 40
0.5
100
AcDbArc
 50
180.0
 51
270.0
  0
ARC
  5
252
100
AcDbEntity
  8
M0
 62
     7
100
AcDbCircle
 10
162.380446
 20
313.787063
 40
0.5
100
AcDbArc
 50
270.0
 51
360.0
  0
ARC
  5
253
100
AcDbEntity
  8
M0
 62
     7
100
AcDbCircle
 10
155.730446
 20
320.437063
 40
0.5
100
AcDbArc
 50
90.0
 51
180.0
  0
LINE
  5
254
100
AcDbEntity
  8
M0
 62
     7
100
AcDbLine
 10
158.702167
 20
315.697703
 11
160.469745
 21
317.465403
  0
LINE
  5
255
100
AcDbEntity
  8
M0
 62
     7
100
AcDbLine
 10
157.464862
 20
318.702708
 11
160.646503
 21
315.520945
  0
LINE
  5
256
100
AcDbEntity
  8
M0
 62
     7
100
AcDbLine
 10
157.64162
 20
316.758372
 11
159.409198
 21
318.52595
  0
LINE
  5
257
100
AcDbEntity
  8
M0
 62
     7
100
AcDbLine
 10
162.880446
 20
313.787063
 11
162.880446
 21
320.437063
  0
LINE
  5
258
100
AcDbEntity
  8
M0
 62
     7
100
AcDbLine
 10
162.380446
 20
320.937063
 11
155.730446
 21
320.937063
  0
LINE
  5
259
100
AcDbEntity
  8
M0
 62
     7
100
AcDbLine
 10
155.730446
 20
313.287063
 11
162.380446
 21
313.287063
  0
ARC
  5
25A
100
AcDbEntity
  8
M0
 62
     7
100
AcDbCircle
 10
89.880446
 20
328.087063
 40
0.5
100
AcDbArc
 50
90.0
 51
180.0
  0
ARC
  5
25B
100
AcDbEntity
  8
M0
 62
     7
100
AcDbCircle
 10
89.880446
 20
321.437063
 40
0.5
100
AcDbArc
 50
180.0
 51
270.0
  0
ARC
  5
25C
100
AcDbEntity
  8
M0
 62
     7
100
AcDbCircle
 10
96.530446
 20
328.087063
 40
0.5
100
AcDbArc
 50
0.0
 51
90.0
  0
ARC
  5
25D
100
AcDbEntity
  8
M0
 62
     7
100
AcDbCircle
 10
96.530446
 20
321.437063
 40
0.5
100
AcDbArc
 50
270.0
 51
360.0
  0
LINE
  5
25E
100
AcDbEntity
  8
M0
 62
     7
100
AcDbLine
 10
89.380446
 20
328.087063
 11
89.380446
 21
321.437063
  0
LINE
  5
25F
100
AcDbEntity
  8
M0
 62
     7
100
AcDbLine
 10
97.030446
 20
321.437063
 11
97.030446
 21
328.087063
  0
LINE
  5
260
100
AcDbEntity
  8
M0
 62
     7
100
AcDbLine
 10
89.880446
 20
320.937063
 11
96.530446
 21
320.937063
  0
LINE
  5
261
100
AcDbEntity
  8
M0
 62
     7
100
AcDbLine
 10
96.530446
 20
328.587063
 11
89.880446
 21
328.587063
  0
LINE
  5
262
100
AcDbEntity
  8
M0
  6
DASHDOT
 62
     7
100
AcDbLine
 10
92.705446
 20
324.762063
 11
93.705446
 21
324.762063
  0
LINE
  5
263
100
AcDbEntity
  8
M0
  6
DASHDOT
 62
     7
100
AcDbLine
 10
93.205446
 20
324.262063
 11
93.205446
 21
325.262063
  0
ARC
  5
264
100
AcDbEntity
  8
M0
 62
     7
100
AcDbCircle
 10
69.680446
 20
328.087063
 40
0.5
100
AcDbArc
 50
90.0
 51
180.0
  0
ARC
  5
265
100
AcDbEntity
  8
M0
 62
     7
100
AcDbCircle
 10
69.680446
 20
321.437063
 40
0.5
100
AcDbArc
 50
180.0
 51
270.0
  0
ARC
  5
266
100
AcDbEntity
  8
M0
 62
     7
100
AcDbCircle
 10
76.330446
 20
328.087063
 40
0.5
100
AcDbArc
 50
0.0
 51
90.0
  0
ARC
  5
267
100
AcDbEntity
  8
M0
 62
     7
100
AcDbCircle
 10
76.330446
 20
321.437063
 40
0.5
100
AcDbArc
 50
270.0
 51
360.0
  0
LINE
  5
268
100
AcDbEntity
  8
M0
 62
     7
100
AcDbLine
 10
69.180446
 20
328.087063
 11
69.180446
 21
321.437063
  0
LINE
  5
269
100
AcDbEntity
  8
M0
 62
     7
100
AcDbLine
 10
76.830446
 20
321.437063
 11
76.830446
 21
328.087063
  0
LINE
  5
26A
100
AcDbEntity
  8
M0
 62
     7
100
AcDbLine
 10
69.680446
 20
320.937063
 11
76.330446
 21
320.937063
  0
LINE
  5
26B
100
AcDbEntity
  8
M0
 62
     7
100
AcDbLine
 10
76.330446
 20
328.587063
 11
69.680446
 21
328.587063
  0
LINE
  5
26C
100
AcDbEntity
  8
M0
  6
DASHDOT
 62
     7
100
AcDbLine
 10
72.505446
 20
324.762063
 11
73.505446
 21
324.762063
  0
LINE
  5
26D
100
AcDbEntity
  8
M0
  6
DASHDOT
 62
     7
100
AcDbLine
 10
73.005446
 20
324.262063
 11
73.005446
 21
325.262063
  0
ARC
  5
26E
100
AcDbEntity
  8
M0
 62
     7
100
AcDbCircle
 10
79.780446
 20
328.087063
 40
0.5
100
AcDbArc
 50
90.0
 51
180.0
  0
ARC
  5
26F
100
AcDbEntity
  8
M0
 62
     7
100
AcDbCircle
 10
79.780446
 20
321.437063
 40
0.5
100
AcDbArc
 50
180.0
 51
270.0
  0
ARC
  5
270
100
AcDbEntity
  8
M0
 62
     7
100
AcDbCircle
 10
86.430446
 20
328.087063
 40
0.5
100
AcDbArc
 50
0.0
 51
90.0
  0
ARC
  5
271
100
AcDbEntity
  8
M0
 62
     7
100
AcDbCircle
 10
86.430446
 20
321.437063
 40
0.5
100
AcDbArc
 50
270.0
 51
360.0
  0
LINE
  5
272
100
AcDbEntity
  8
M0
 62
     7
100
AcDbLine
 10
79.280446
 20
328.087063
 11
79.280446
 21
321.437063
  0
LINE
  5
273
100
AcDbEntity
  8
M0
 62
     7
100
AcDbLine
 10
86.930446
 20
321.437063
 11
86.930446
 21
328.087063
  0
LINE
  5
274
100
AcDbEntity
  8
M0
 62
     7
100
AcDbLine
 10
79.780446
 20
320.937063
 11
86.430446
 21
320.937063
  0
LINE
  5
275
100
AcDbEntity
  8
M0
 62
     7
100
AcDbLine
 10
86.430446
 20
328.587063
 11
79.780446
 21
328.587063
  0
LINE
  5
276
100
AcDbEntity
  8
M0
  6
DASHDOT
 62
     7
100
AcDbLine
 10
82.605446
 20
324.762063
 11
83.605446
 21
324.762063
  0
LINE
  5
277
100
AcDbEntity
  8
M0
  6
DASHDOT
 62
     7
100
AcDbLine
 10
83.105446
 20
324.262063
 11
83.105446
 21
325.262063
  0
ARC
  5
278
100
AcDbEntity
  8
M0
 62
     7
100
AcDbCircle
 10
63.830446
 20
345.687063
 40
0.5
100
AcDbArc
 50
90.0
 51
180.0
  0
ARC
  5
279
100
AcDbEntity
  8
M0
 62
     7
100
AcDbCircle
 10
63.830446
 20
339.037063
 40
0.5
100
AcDbArc
 50
180.0
 51
270.0
  0
ARC
  5
27A
100
AcDbEntity
  8
M0
 62
     7
100
AcDbCircle
 10
70.480446
 20
345.687063
 40
0.5
100
AcDbArc
 50
0.0
 51
90.0
  0
ARC
  5
27B
100
AcDbEntity
  8
M0
 62
     7
100
AcDbCircle
 10
70.480446
 20
339.037063
 40
0.5
100
AcDbArc
 50
270.0
 51
360.0
  0
CIRCLE
  5
27C
100
AcDbEntity
  8
M0
 62
     7
100
AcDbCircle
 10
67.155446
 20
342.362063
 40
3.0
  0
LINE
  5
27D
100
AcDbEntity
  8
M0
 62
     7
100
AcDbLine
 10
63.330446
 20
345.687063
 11
63.330446
 21
339.037063
  0
LINE
  5
27E
100
AcDbEntity
  8
M0
 62
     7
100
AcDbLine
 10
70.980446
 20
339.037063
 11
70.980446
 21
345.687063
  0
LINE
  5
27F
100
AcDbEntity
  8
M0
 62
     7
100
AcDbLine
 10
63.830446
 20
338.537063
 11
70.480446
 21
338.537063
  0
LINE
  5
280
100
AcDbEntity
  8
M0
 62
     7
100
AcDbLine
 10
70.480446
 20
346.187063
 11
63.830446
 21
346.187063
  0
LINE
  5
281
100
AcDbEntity
  8
M0
  6
DASHDOT
 62
     7
100
AcDbLine
 10
66.655446
 20
342.362063
 11
67.655446
 21
342.362063
  0
LINE
  5
282
100
AcDbEntity
  8
M0
  6
DASHDOT
 62
     7
100
AcDbLine
 10
67.155446
 20
341.862063
 11
67.155446
 21
342.862063
  0
ARC
  5
283
100
AcDbEntity
  8
M0
 62
     7
100
AcDbCircle
 10
59.580446
 20
328.087063
 40
0.5
100
AcDbArc
 50
90.0
 51
180.0
  0
ARC
  5
284
100
AcDbEntity
  8
M0
 62
     7
100
AcDbCircle
 10
59.580446
 20
321.437063
 40
0.5
100
AcDbArc
 50
180.0
 51
270.0
  0
ARC
  5
285
100
AcDbEntity
  8
M0
 62
     7
100
AcDbCircle
 10
66.230446
 20
328.087063
 40
0.5
100
AcDbArc
 50
0.0
 51
90.0
  0
ARC
  5
286
100
AcDbEntity
  8
M0
 62
     7
100
AcDbCircle
 10
66.230446
 20
321.437063
 40
0.5
100
AcDbArc
 50
270.0
 51
360.0
  0
LINE
  5
287
100
AcDbEntity
  8
M0
 62
     7
100
AcDbLine
 10
59.080446
 20
328.087063
 11
59.080446
 21
321.437063
  0
LINE
  5
288
100
AcDbEntity
  8
M0
 62
     7
100
AcDbLine
 10
66.730446
 20
321.437063
 11
66.730446
 21
328.087063
  0
LINE
  5
289
100
AcDbEntity
  8
M0
 62
     7
100
AcDbLine
 10
59.580446
 20
320.937063
 11
66.230446
 21
320.937063
  0
LINE
  5
28A
100
AcDbEntity
  8
M0
 62
     7
100
AcDbLine
 10
66.230446
 20
328.587063
 11
59.580446
 21
328.587063
  0
LINE
  5
28B
100
AcDbEntity
  8
M0
  6
DASHDOT
 62
     7
100
AcDbLine
 10
62.405446
 20
324.762063
 11
63.405446
 21
324.762063
  0
LINE
  5
28C
100
AcDbEntity
  8
M0
  6
DASHDOT
 62
     7
100
AcDbLine
 10
62.905446
 20
324.262063
 11
62.905446
 21
325.262063
  0
ARC
  5
28D
100
AcDbEntity
  8
M0
 62
     7
100
AcDbCircle
 10
85.630446
 20
345.687063
 40
0.5
100
AcDbArc
 50
90.0
 51
180.0
  0
ARC
  5
28E
100
AcDbEntity
  8
M0
 62
     7
100
AcDbCircle
 10
85.630446
 20
339.037063
 40
0.5
100
AcDbArc
 50
180.0
 51
270.0
  0
ARC
  5
28F
100
AcDbEntity
  8
M0
 62
     7
100
AcDbCircle
 10
92.280446
 20
345.687063
 40
0.5
100
AcDbArc
 50
0.0
 51
90.0
  0
ARC
  5
290
100
AcDbEntity
  8
M0
 62
     7
100
AcDbCircle
 10
92.280446
 20
339.037063
 40
0.5
100
AcDbArc
 50
270.0
 51
360.0
  0
LINE
  5
291
100
AcDbEntity
  8
M0
 62
     7
100
AcDbLine
 10
85.130446
 20
345.687063
 11
85.130446
 21
339.037063
  0
LINE
  5
292
100
AcDbEntity
  8
M0
 62
     7
100
AcDbLine
 10
92.780446
 20
339.037063
 11
92.780446
 21
345.687063
  0
LINE
  5
293
100
AcDbEntity
  8
M0
 62
     7
100
AcDbLine
 10
85.630446
 20
338.537063
 11
92.280446
 21
338.537063
  0
LINE
  5
294
100
AcDbEntity
  8
M0
 62
     7
100
AcDbLine
 10
92.280446
 20
346.187063
 11
85.630446
 21
346.187063
  0
LINE
  5
295
100
AcDbEntity
  8
M0
  6
DASHDOT
 62
     7
100
AcDbLine
 10
88.455446
 20
342.362063
 11
89.455446
 21
342.362063
  0
LINE
  5
296
100
AcDbEntity
  8
M0
  6
DASHDOT
 62
     7
100
AcDbLine
 10
88.955446
 20
341.862063
 11
88.955446
 21
342.862063
  0
ARC
  5
297
100
AcDbEntity
  8
M0
 62
     7
100
AcDbCircle
 10
89.880446
 20
286.287063
 40
0.5
100
AcDbArc
 50
90.0
 51
180.0
  0
ARC
  5
298
100
AcDbEntity
  8
M0
 62
     7
100
AcDbCircle
 10
89.880446
 20
279.637063
 40
0.5
100
AcDbArc
 50
180.0
 51
270.0
  0
ARC
  5
299
100
AcDbEntity
  8
M0
 62
     7
100
AcDbCircle
 10
96.530446
 20
286.287063
 40
0.5
100
AcDbArc
 50
0.0
 51
90.0
  0
ARC
  5
29A
100
AcDbEntity
  8
M0
 62
     7
100
AcDbCircle
 10
96.530446
 20
279.637063
 40
0.5
100
AcDbArc
 50
270.0
 51
360.0
  0
CIRCLE
  5
29B
100
AcDbEntity
  8
M0
 62
     7
100
AcDbCircle
 10
93.205446
 20
282.962063
 40
3.0
  0
LINE
  5
29C
100
AcDbEntity
  8
M0
 62
     7
100
AcDbLine
 10
89.380446
 20
286.287063
 11
89.380446
 21
279.637063
  0
LINE
  5
29D
100
AcDbEntity
  8
M0
 62
     7
100
AcDbLine
 10
97.030446
 20
279.637063
 11
97.030446
 21
286.287063
  0
LINE
  5
29E
100
AcDbEntity
  8
M0
 62
     7
100
AcDbLine
 10
89.880446
 20
279.137063
 11
96.530446
 21
279.137063
  0
LINE
  5
29F
100
AcDbEntity
  8
M0
 62
     7
100
AcDbLine
 10
96.530446
 20
286.787063
 11
89.880446
 21
286.787063
  0
LINE
  5
2A0
100
AcDbEntity
  8
M0
  6
DASHDOT
 62
     7
100
AcDbLine
 10
92.705446
 20
282.962063
 11
93.705446
 21
282.962063
  0
LINE
  5
2A1
100
AcDbEntity
  8
M0
  6
DASHDOT
 62
     7
100
AcDbLine
 10
93.205446
 20
282.462063
 11
93.205446
 21
283.462063
  0
ARC
  5
2A2
100
AcDbEntity
  8
M0
 62
     7
100
AcDbCircle
 10
79.780446
 20
286.287063
 40
0.5
100
AcDbArc
 50
90.0
 51
180.0
  0
ARC
  5
2A3
100
AcDbEntity
  8
M0
 62
     7
100
AcDbCircle
 10
79.780446
 20
279.637063
 40
0.5
100
AcDbArc
 50
180.0
 51
270.0
  0
ARC
  5
2A4
100
AcDbEntity
  8
M0
 62
     7
100
AcDbCircle
 10
86.430446
 20
286.287063
 40
0.5
100
AcDbArc
 50
0.0
 51
90.0
  0
ARC
  5
2A5
100
AcDbEntity
  8
M0
 62
     7
100
AcDbCircle
 10
86.430446
 20
279.637063
 40
0.5
100
AcDbArc
 50
270.0
 51
360.0
  0
LINE
  5
2A6
100
AcDbEntity
  8
M0
 62
     7
100
AcDbLine
 10
79.280446
 20
286.287063
 11
79.280446
 21
279.637063
  0
LINE
  5
2A7
100
AcDbEntity
  8
M0
 62
     7
100
AcDbLine
 10
86.930446
 20
279.637063
 11
86.930446
 21
286.287063
  0
LINE
  5
2A8
100
AcDbEntity
  8
M0
 62
     7
100
AcDbLine
 10
79.780446
 20
279.137063
 11
86.430446
 21
279.137063
  0
LINE
  5
2A9
100
AcDbEntity
  8
M0
 62
     7
100
AcDbLine
 10
86.430446
 20
286.787063
 11
79.780446
 21
286.787063
  0
LINE
  5
2AA
100
AcDbEntity
  8
M0
  6
DASHDOT
 62
     7
100
AcDbLine
 10
82.605446
 20
282.962063
 11
83.605446
 21
282.962063
  0
LINE
  5
2AB
100
AcDbEntity
  8
M0
  6
DASHDOT
 62
     7
100
AcDbLine
 10
83.105446
 20
282.462063
 11
83.105446
 21
283.462063
  0
ARC
  5
2AC
100
AcDbEntity
  8
M0
 62
     7
100
AcDbCircle
 10
69.680446
 20
286.287063
 40
0.5
100
AcDbArc
 50
90.0
 51
180.0
  0
ARC
  5
2AD
100
AcDbEntity
  8
M0
 62
     7
100
AcDbCircle
 10
69.680446
 20
279.637063
 40
0.5
100
AcDbArc
 50
180.0
 51
270.0
  0
ARC
  5
2AE
100
AcDbEntity
  8
M0
 62
     7
100
AcDbCircle
 10
76.330446
 20
286.287063
 40
0.5
100
AcDbArc
 50
0.0
 51
90.0
  0
ARC
  5
2AF
100
AcDbEntity
  8
M0
 62
     7
100
AcDbCircle
 10
76.330446
 20
279.637063
 40
0.5
100
AcDbArc
 50
270.0
 51
360.0
  0
CIRCLE
  5
2B0
100
AcDbEntity
  8
M0
 62
     7
100
AcDbCircle
 10
73.005446
 20
282.962063
 40
3.0
  0
LINE
  5
2B1
100
AcDbEntity
  8
M0
 62
     7
100
AcDbLine
 10
69.180446
 20
286.287063
 11
69.180446
 21
279.637063
  0
LINE
  5
2B2
100
AcDbEntity
  8
M0
 62
     7
100
AcDbLine
 10
76.830446
 20
279.637063
 11
76.830446
 21
286.287063
  0
LINE
  5
2B3
100
AcDbEntity
  8
M0
 62
     7
100
AcDbLine
 10
69.680446
 20
279.137063
 11
76.330446
 21
279.137063
  0
LINE
  5
2B4
100
AcDbEntity
  8
M0
 62
     7
100
AcDbLine
 10
76.330446
 20
286.787063
 11
69.680446
 21
286.787063
  0
LINE
  5
2B5
100
AcDbEntity
  8
M0
  6
DASHDOT
 62
     7
100
AcDbLine
 10
72.505446
 20
282.962063
 11
73.505446
 21
282.962063
  0
LINE
  5
2B6
100
AcDbEntity
  8
M0
  6
DASHDOT
 62
     7
100
AcDbLine
 10
73.005446
 20
282.462063
 11
73.005446
 21
283.462063
  0
ARC
  5
2B7
100
AcDbEntity
  8
M0
 62
     7
100
AcDbCircle
 10
59.580446
 20
286.287063
 40
0.5
100
AcDbArc
 50
90.0
 51
180.0
  0
ARC
  5
2B8
100
AcDbEntity
  8
M0
 62
     7
100
AcDbCircle
 10
59.580446
 20
279.637063
 40
0.5
100
AcDbArc
 50
180.0
 51
270.0
  0
ARC
  5
2B9
100
AcDbEntity
  8
M0
 62
     7
100
AcDbCircle
 10
66.230446
 20
286.287063
 40
0.5
100
AcDbArc
 50
0.0
 51
90.0
  0
ARC
  5
2BA
100
AcDbEntity
  8
M0
 62
     7
100
AcDbCircle
 10
66.230446
 20
279.637063
 40
0.5
100
AcDbArc
 50
270.0
 51
360.0
  0
LINE
  5
2BB
100
AcDbEntity
  8
M0
 62
     7
100
AcDbLine
 10
59.080446
 20
286.287063
 11
59.080446
 21
279.637063
  0
LINE
  5
2BC
100
AcDbEntity
  8
M0
 62
     7
100
AcDbLine
 10
66.730446
 20
279.637063
 11
66.730446
 21
286.287063
  0
LINE
  5
2BD
100
AcDbEntity
  8
M0
 62
     7
100
AcDbLine
 10
59.580446
 20
279.137063
 11
66.230446
 21
279.137063
  0
LINE
  5
2BE
100
AcDbEntity
  8
M0
 62
     7
100
AcDbLine
 10
66.230446
 20
286.787063
 11
59.580446
 21
286.787063
  0
LINE
  5
2BF
100
AcDbEntity
  8
M0
  6
DASHDOT
 62
     7
100
AcDbLine
 10
62.405446
 20
282.962063
 11
63.405446
 21
282.962063
  0
LINE
  5
2C0
100
AcDbEntity
  8
M0
  6
DASHDOT
 62
     7
100
AcDbLine
 10
62.905446
 20
282.462063
 11
62.905446
 21
283.462063
  0
CIRCLE
  5
2C1
100
AcDbEntity
  8
M0
 62
     7
100
AcDbCircle
 10
73.005446
 20
271.362063
 40
2.65
  0
CIRCLE
  5
2C2
100
AcDbEntity
  8
M0
 62
     7
100
AcDbCircle
 10
78.055446
 20
341.962063
 40
2.65
  0
LINE
  5
2C3
100
AcDbEntity
  8
M0
 62
     7
100
AcDbLine
 10
79.255446
 20
341.512063
 11
79.255446
 21
342.412063
  0
LINE
  5
2C4
100
AcDbEntity
  8
M0
 62
     7
100
AcDbLine
 10
71.805446
 20
270.912063
 11
71.805446
 21
271.812063
  0
LINE
  5
2C5
100
AcDbEntity
  8
M0
 62
     7
100
AcDbLine
 10
76.855446
 20
341.512063
 11
76.855446
 21
342.412063
  0
LINE
  5
2C6
100
AcDbEntity
  8
M0
 62
     7
100
AcDbLine
 10
74.205446
 20
270.912063
 11
74.205446
 21
271.812063
  0
LINE
  5
2C7
100
AcDbEntity
  8
M0
 62
     7
100
AcDbLine
 10
90.405446
 20
274.562063
 11
89.305446
 21
274.562063
  0
LINE
  5
2C8
100
AcDbEntity
  8
M0
 62
     7
100
AcDbLine
 10
90.405446
 20
269.562063
 11
90.405446
 21
274.562063
  0
LINE
  5
2C9
100
AcDbEntity
  8
M0
 62
     7
100
AcDbLine
 10
99.555446
 20
335.562063
 11
99.555446
 21
274.062063
  0
LINE
  5
2CA
100
AcDbEntity
  8
M0
 62
     7
100
AcDbLine
 10
56.555446
 20
272.562063
 11
56.555446
 21
300.362063
  0
LINE
  5
2CB
100
AcDbEntity
  8
M0
 62
     7
100
AcDbLine
 10
95.805446
 20
278.162063
 11
95.805446
 21
277.762063
  0
LINE
  5
2CC
100
AcDbEntity
  8
M0
 62
     7
100
AcDbLine
 10
82.755446
 20
269.062063
 11
94.555446
 21
269.062063
  0
LINE
  5
2CD
100
AcDbEntity
  8
M0
 62
     7
100
AcDbLine
 10
66.851507
 20
269.062063
 11
60.055446
 21
269.062063
  0
LINE
  5
2CE
100
AcDbEntity
  8
M0
 62
     7
100
AcDbLine
 10
66.805446
 20
273.362063
 11
63.805446
 21
273.362063
  0
LINE
  5
2CF
100
AcDbEntity
  8
M0
 62
     7
100
AcDbLine
 10
86.905446
 20
272.862063
 11
86.905446
 21
269.562063
  0
LINE
  5
2D0
100
AcDbEntity
  8
M0
 62
     7
100
AcDbLine
 10
82.255446
 20
272.862063
 11
82.255446
 21
269.562063
  0
LINE
  5
2D1
100
AcDbEntity
  8
M0
 62
     7
100
AcDbLine
 10
85.255446
 20
271.062063
 11
85.255446
 21
272.862063
  0
LINE
  5
2D2
100
AcDbEntity
  8
M0
 62
     7
100
AcDbLine
 10
85.255446
 20
271.062063
 11
83.755446
 21
271.062063
  0
LINE
  5
2D3
100
AcDbEntity
  8
M0
 62
     7
100
AcDbLine
 10
91.305446
 20
277.762063
 11
91.305446
 21
278.162063
  0
LINE
  5
2D4
100
AcDbEntity
  8
M0
 62
     7
100
AcDbLine
 10
63.805446
 20
273.362063
 11
63.805446
 21
269.562063
  0
LINE
  5
2D5
100
AcDbEntity
  8
M0
 62
     7
100
AcDbLine
 10
58.305446
 20
332.762063
 11
58.305446
 21
332.616002
  0
ARC
  5
2D6
100
AcDbEntity
  8
M0
 62
     7
100
AcDbCircle
 10
95.555446
 20
335.562063
 40
4.0
100
AcDbArc
 50
0.0
 51
97.180756
  0
ARC
  5
2D7
100
AcDbEntity
  8
M0
 62
     7
100
AcDbCircle
 10
95.555446
 20
335.562063
 40
2.25
100
AcDbArc
 50
257.160412
 51
462.839588
  0
ARC
  5
2D8
100
AcDbEntity
  8
M0
 62
     7
100
AcDbCircle
 10
82.755446
 20
269.562063
 40
0.5
100
AcDbArc
 50
180.0
 51
270.0
  0
ARC
  5
2D9
100
AcDbEntity
  8
M0
 62
     7
100
AcDbCircle
 10
86.405446
 20
269.562063
 40
0.5
100
AcDbArc
 50
270.0
 51
360.0
  0
LINE
  5
2DA
100
AcDbEntity
  8
M0
 62
     7
100
AcDbLine
 10
83.755446
 20
272.862063
 11
83.755446
 21
271.062063
  0
LINE
  5
2DB
100
AcDbEntity
  8
M0
 62
     7
100
AcDbLine
 10
62.855446
 20
346.762063
 11
71.155446
 21
346.762063
  0
LINE
  5
2DC
100
AcDbEntity
  8
M0
 62
     7
100
AcDbLine
 10
92.455446
 20
346.762063
 11
93.255446
 21
346.762063
  0
LINE
  5
2DD
100
AcDbEntity
  8
M0
 62
     7
100
AcDbLine
 10
61.055446
 20
334.762063
 11
61.055446
 21
334.662063
  0
CIRCLE
  5
2DE
100
AcDbEntity
  8
M0
 62
     7
100
AcDbCircle
 10
73.005446
 20
271.362063
 40
2.85
  0
LINE
  5
2DF
100
AcDbEntity
  8
M0
 62
     7
100
AcDbLine
 10
61.055446
 20
338.362063
 11
61.055446
 21
338.262063
  0
LINE
  5
2E0
100
AcDbEntity
  8
M0
 62
     7
100
AcDbLine
 10
95.055446
 20
334.662063
 11
95.055446
 21
334.762063
  0
LINE
  5
2E1
100
AcDbEntity
  8
M0
 62
     7
100
AcDbLine
 10
95.055446
 20
338.262063
 11
95.055446
 21
338.362063
  0
LINE
  5
2E2
100
AcDbEntity
  8
M0
 62
     7
100
AcDbLine
 10
93.255446
 20
347.662063
 11
93.255446
 21
338.262063
  0
LINE
  5
2E3
100
AcDbEntity
  8
M0
 62
     7
100
AcDbLine
 10
62.855446
 20
338.262063
 11
62.855446
 21
338.362063
  0
LINE
  5
2E4
100
AcDbEntity
  8
M0
 62
     7
100
AcDbLine
 10
73.455446
 20
271.812063
 11
73.455446
 21
272.562063
  0
ARC
  5
2E5
100
AcDbEntity
  8
M0
 62
     7
100
AcDbCircle
 10
62.255446
 20
347.662063
 40
0.6
100
AcDbArc
 50
0.0
 51
90.0
  0
LINE
  5
2E6
100
AcDbEntity
  8
M0
 62
     7
100
AcDbLine
 10
71.805446
 20
271.812063
 11
72.555446
 21
271.812063
  0
LINE
  5
2E7
100
AcDbEntity
  8
M0
 62
     7
100
AcDbLine
 10
72.555446
 20
272.562063
 11
72.555446
 21
271.812063
  0
LINE
  5
2E8
100
AcDbEntity
  8
M0
 62
     7
100
AcDbLine
 10
73.455446
 20
271.812063
 11
74.205446
 21
271.812063
  0
ARC
  5
2E9
100
AcDbEntity
  8
M0
 62
     7
100
AcDbCircle
 10
93.855446
 20
347.662063
 40
0.6
100
AcDbArc
 50
90.0
 51
180.0
  0
LINE
  5
2EA
100
AcDbEntity
  8
M0
 62
     7
100
AcDbLine
 10
73.455446
 20
272.562063
 11
72.555446
 21
272.562063
  0
ARC
  5
2EB
100
AcDbEntity
  8
M0
 62
     7
100
AcDbCircle
 10
61.655446
 20
347.662063
 40
0.6
100
AcDbArc
 50
90.0
 51
180.0
  0
ARC
  5
2EC
100
AcDbEntity
  8
M0
 62
     7
100
AcDbCircle
 10
83.055446
 20
270.362063
 40
2.0
100
AcDbArc
 50
270.0
 51
319.458398
  0
ARC
  5
2ED
100
AcDbEntity
  8
M0
 62
     7
100
AcDbCircle
 10
94.455446
 20
347.662063
 40
0.6
100
AcDbArc
 50
0.0
 51
90.0
  0
LINE
  5
2EE
100
AcDbEntity
  8
M0
 62
     7
100
AcDbLine
 10
73.455446
 20
270.162063
 11
73.455446
 21
270.912063
  0
LINE
  5
2EF
100
AcDbEntity
  8
M0
 62
     7
100
AcDbLine
 10
72.555446
 20
270.912063
 11
71.805446
 21
270.912063
  0
LINE
  5
2F0
100
AcDbEntity
  8
M0
 62
     7
100
AcDbLine
 10
72.555446
 20
270.162063
 11
73.455446
 21
270.162063
  0
LINE
  5
2F1
100
AcDbEntity
  8
M0
 62
     7
100
AcDbLine
 10
72.555446
 20
270.912063
 11
72.555446
 21
270.162063
  0
ARC
  5
2F2
100
AcDbEntity
  8
M0
 62
     7
100
AcDbCircle
 10
95.555446
 20
280.762063
 40
2.25
100
AcDbArc
 50
286.791447
 51
313.542219
  0
ARC
  5
2F3
100
AcDbEntity
  8
M0
 62
     7
100
AcDbCircle
 10
60.555446
 20
275.562063
 40
2.25
100
AcDbArc
 50
191.257189
 51
493.542219
  0
ARC
  5
2F4
100
AcDbEntity
  8
M0
 62
     7
100
AcDbCircle
 10
93.555446
 20
277.762063
 40
2.25
100
AcDbArc
 50
180.0
 51
360.0
  0
ARC
  5
2F5
100
AcDbEntity
  8
M0
 62
     7
100
AcDbCircle
 10
60.555446
 20
332.762063
 40
2.25
100
AcDbArc
 50
77.160412
 51
180.0
  0
ARC
  5
2F6
100
AcDbEntity
  8
M0
 62
     7
100
AcDbCircle
 10
61.555446
 20
332.762063
 40
5.0
100
AcDbArc
 50
95.73917
 51
180.0
  0
ARC
  5
2F7
100
AcDbEntity
  8
M0
 62
     7
100
AcDbCircle
 10
90.905446
 20
269.562063
 40
0.5
100
AcDbArc
 50
180.0
 51
270.0
  0
LINE
  5
2F8
100
AcDbEntity
  8
M0
 62
     7
100
AcDbLine
 10
74.205446
 20
270.912063
 11
73.455446
 21
270.912063
  0
ARC
  5
2F9
100
AcDbEntity
  8
M0
 62
     7
100
AcDbCircle
 10
63.305446
 20
269.562063
 40
0.5
100
AcDbArc
 50
270.0
 51
360.0
  0
ARC
  5
2FA
100
AcDbEntity
  8
M0
 62
     7
100
AcDbCircle
 10
94.555446
 20
274.062063
 40
5.0
100
AcDbArc
 50
270.0
 51
360.0
  0
ARC
  5
2FB
100
AcDbEntity
  8
M0
 62
     7
100
AcDbCircle
 10
60.055446
 20
272.562063
 40
3.5
100
AcDbArc
 50
180.0
 51
270.0
  0
LINE
  5
2FC
100
AcDbEntity
  8
M0
 62
     7
100
AcDbLine
 10
95.055446
 20
345.262063
 11
95.055446
 21
347.662063
  0
LINE
  5
2FD
100
AcDbEntity
  8
M0
 62
     7
100
AcDbLine
 10
93.855446
 20
348.262063
 11
94.455446
 21
348.262063
  0
LINE
  5
2FE
100
AcDbEntity
  8
M0
 62
     7
100
AcDbLine
 10
61.655446
 20
348.262063
 11
62.255446
 21
348.262063
  0
LINE
  5
2FF
100
AcDbEntity
  8
M0
 62
     7
100
AcDbLine
 10
83.055446
 20
268.362063
 11
68.105446
 21
268.362063
  0
LINE
  5
300
100
AcDbEntity
  8
M0
 62
     7
100
AcDbLine
 10
95.055446
 20
345.262063
 11
95.055446
 21
338.362063
  0
LINE
  5
301
100
AcDbEntity
  8
M0
 62
     7
100
AcDbLine
 10
79.205446
 20
270.362063
 11
82.255446
 21
270.362063
  0
LINE
  5
302
100
AcDbEntity
  8
M0
 62
     7
100
AcDbLine
 10
62.855446
 20
338.262063
 11
62.855446
 21
347.662063
  0
LINE
  5
303
100
AcDbEntity
  8
M0
 62
     7
100
AcDbLine
 10
85.055446
 20
272.862063
 11
85.055446
 21
271.062063
  0
LINE
  5
304
100
AcDbEntity
  8
M0
 62
     7
100
AcDbLine
 10
61.855446
 20
307.512063
 11
61.855446
 21
306.262063
  0
LINE
  5
305
100
AcDbEntity
  8
M0
 62
     7
100
AcDbLine
 10
62.055446
 20
306.262063
 11
61.855446
 21
306.262063
  0
LINE
  5
306
100
AcDbEntity
  8
M0
 62
     7
100
AcDbLine
 10
61.855446
 20
301.262063
 11
61.855446
 21
300.212063
  0
LINE
  5
307
100
AcDbEntity
  8
M0
 62
     7
100
AcDbLine
 10
61.855446
 20
301.262063
 11
62.055446
 21
301.262063
  0
LINE
  5
308
100
AcDbEntity
  8
M0
 62
     7
100
AcDbLine
 10
61.773391
 20
300.162063
 11
58.855446
 21
300.162063
  0
LINE
  5
309
100
AcDbEntity
  8
M0
 62
     7
100
AcDbLine
 10
58.505446
 20
309.962063
 11
58.655446
 21
309.962063
  0
LINE
  5
30A
100
AcDbEntity
  8
M0
 62
     7
100
AcDbLine
 10
58.655446
 20
312.762063
 11
58.505446
 21
312.762063
  0
LINE
  5
30B
100
AcDbEntity
  8
M0
 62
     7
100
AcDbLine
 10
58.005446
 20
275.062063
 11
57.555446
 21
275.062063
  0
ARC
  5
30C
100
AcDbEntity
  8
M0
 62
     7
100
AcDbCircle
 10
88.305446
 20
272.662063
 40
1.0
100
AcDbArc
 50
270.0
 51
360.0
  0
ARC
  5
30D
100
AcDbEntity
  8
M0
 62
     7
100
AcDbCircle
 10
68.105446
 20
272.662063
 40
1.0
100
AcDbArc
 50
270.0
 51
360.0
  0
ARC
  5
30E
100
AcDbEntity
  8
M0
 62
     7
100
AcDbCircle
 10
78.205446
 20
272.662063
 40
1.0
100
AcDbArc
 50
270.0
 51
360.0
  0
ARC
  5
30F
100
AcDbEntity
  8
M0
 62
     7
100
AcDbCircle
 10
67.805446
 20
272.662063
 40
1.0
100
AcDbArc
 50
180.0
 51
270.0
  0
LINE
  5
310
100
AcDbEntity
  8
M0
 62
     7
100
AcDbLine
 10
58.855446
 20
300.162063
 11
58.855446
 21
300.362063
  0
LINE
  5
311
100
AcDbEntity
  8
M0
 62
     7
100
AcDbLine
 10
57.555446
 20
300.162063
 11
57.555446
 21
300.362063
  0
LINE
  5
312
100
AcDbEntity
  8
M0
 62
     7
100
AcDbLine
 10
58.855446
 20
307.562063
 11
61.773391
 21
307.562063
  0
LINE
  5
313
100
AcDbEntity
  8
M0
 62
     7
100
AcDbLine
 10
97.105446
 20
276.062063
 11
97.105446
 21
287.162063
  0
LINE
  5
314
100
AcDbEntity
  8
M0
 62
     7
100
AcDbLine
 10
98.555446
 20
275.062063
 11
98.105446
 21
275.062063
  0
LINE
  5
315
100
AcDbEntity
  8
M0
 62
     7
100
AcDbLine
 10
82.955446
 20
314.862063
 11
83.105446
 21
314.862063
  0
LINE
  5
316
100
AcDbEntity
  8
M0
 62
     7
100
AcDbLine
 10
97.502814
 20
309.962063
 11
97.502814
 21
312.762063
  0
LINE
  5
317
100
AcDbEntity
  8
M0
 62
     7
100
AcDbLine
 10
73.155446
 20
314.862063
 11
73.005446
 21
314.862063
  0
LINE
  5
318
100
AcDbEntity
  8
M0
 62
     7
100
AcDbLine
 10
94.055446
 20
301.262063
 11
94.255446
 21
301.262063
  0
LINE
  5
319
100
AcDbEntity
  8
M0
 62
     7
100
AcDbLine
 10
94.255446
 20
301.262063
 11
94.255446
 21
300.212063
  0
LINE
  5
31A
100
AcDbEntity
  8
M0
 62
     7
100
AcDbLine
 10
94.255446
 20
306.262063
 11
94.055446
 21
306.262063
  0
LINE
  5
31B
100
AcDbEntity
  8
M0
 62
     7
100
AcDbLine
 10
66.805446
 20
332.062063
 11
66.805446
 21
335.062063
  0
LINE
  5
31C
100
AcDbEntity
  8
M0
 62
     7
100
AcDbLine
 10
97.605446
 20
312.762063
 11
97.455446
 21
312.762063
  0
LINE
  5
31D
100
AcDbEntity
  8
M0
 62
     7
100
AcDbLine
 10
98.555446
 20
300.162063
 11
98.555446
 21
307.562063
  0
LINE
  5
31E
100
AcDbEntity
  8
M0
 62
     7
100
AcDbLine
 10
94.255446
 20
307.512063
 11
94.255446
 21
306.262063
  0
LINE
  5
31F
100
AcDbEntity
  8
M0
 62
     7
100
AcDbLine
 10
58.608077
 20
309.962063
 11
58.608077
 21
312.762063
  0
LINE
  5
320
100
AcDbEntity
  8
M0
 62
     7
100
AcDbLine
 10
97.255446
 20
307.562063
 11
94.337501
 21
307.562063
  0
LINE
  5
321
100
AcDbEntity
  8
M0
 62
     7
100
AcDbLine
 10
94.337501
 20
300.162063
 11
97.255446
 21
300.162063
  0
LINE
  5
322
100
AcDbEntity
  8
M0
 62
     7
100
AcDbLine
 10
97.255446
 20
300.162063
 11
97.255446
 21
307.562063
  0
LINE
  5
323
100
AcDbEntity
  8
M0
 62
     7
100
AcDbLine
 10
97.455446
 20
309.962063
 11
97.605446
 21
309.962063
  0
LINE
  5
324
100
AcDbEntity
  8
M0
 62
     7
100
AcDbLine
 10
78.005446
 20
271.662063
 11
77.905446
 21
271.662063
  0
LINE
  5
325
100
AcDbEntity
  8
M0
 62
     7
100
AcDbLine
 10
78.105446
 20
271.662063
 11
78.005446
 21
271.662063
  0
LINE
  5
326
100
AcDbEntity
  8
M0
 62
     7
100
AcDbLine
 10
88.105446
 20
271.662063
 11
88.005446
 21
271.662063
  0
LINE
  5
327
100
AcDbEntity
  8
M0
 62
     7
100
AcDbLine
 10
78.205446
 20
271.662063
 11
78.105446
 21
271.662063
  0
LINE
  5
328
100
AcDbEntity
  8
M0
 62
     7
100
AcDbLine
 10
88.305446
 20
271.662063
 11
88.105446
 21
271.662063
  0
LINE
  5
329
100
AcDbEntity
  8
M0
 62
     7
100
AcDbLine
 10
79.205446
 20
320.562063
 11
79.205446
 21
335.062063
  0
LINE
  5
32A
100
AcDbEntity
  8
M0
 62
     7
100
AcDbLine
 10
89.305446
 20
320.562063
 11
89.305446
 21
335.062063
  0
LINE
  5
32B
100
AcDbEntity
  8
M0
 62
     7
100
AcDbLine
 10
77.905446
 20
285.662063
 11
78.205446
 21
285.662063
  0
LINE
  5
32C
100
AcDbEntity
  8
M0
 62
     7
100
AcDbLine
 10
87.005446
 20
272.662063
 11
87.005446
 21
287.162063
  0
LINE
  5
32D
100
AcDbEntity
  8
M0
 62
     7
100
AcDbLine
 10
68.005446
 20
271.662063
 11
67.805446
 21
271.662063
  0
LINE
  5
32E
100
AcDbEntity
  8
M0
 62
     7
100
AcDbLine
 10
68.105446
 20
271.662063
 11
68.005446
 21
271.662063
  0
LINE
  5
32F
100
AcDbEntity
  8
M0
 62
     7
100
AcDbLine
 10
89.305446
 20
287.162063
 11
89.305446
 21
272.662063
  0
ARC
  5
330
100
AcDbEntity
  8
M0
 62
     7
100
AcDbCircle
 10
78.205446
 20
284.662063
 40
1.0
100
AcDbArc
 50
0.0
 51
90.0
  0
ARC
  5
331
100
AcDbEntity
  8
M0
 62
     7
100
AcDbCircle
 10
68.105446
 20
284.662063
 40
1.0
100
AcDbArc
 50
0.0
 51
90.0
  0
ARC
  5
332
100
AcDbEntity
  8
M0
 62
     7
100
AcDbCircle
 10
67.805446
 20
323.062063
 40
1.0
100
AcDbArc
 50
180.0
 51
270.0
  0
ARC
  5
333
100
AcDbEntity
  8
M0
 62
     7
100
AcDbCircle
 10
78.205446
 20
323.062063
 40
1.0
100
AcDbArc
 50
270.0
 51
360.0
  0
ARC
  5
334
100
AcDbEntity
  8
M0
 62
     7
100
AcDbCircle
 10
77.905446
 20
323.062063
 40
1.0
100
AcDbArc
 50
180.0
 51
270.0
  0
ARC
  5
335
100
AcDbEntity
  8
M0
 62
     7
100
AcDbCircle
 10
88.005446
 20
323.062063
 40
1.0
100
AcDbArc
 50
180.0
 51
270.0
  0
ARC
  5
336
100
AcDbEntity
  8
M0
 62
     7
100
AcDbCircle
 10
77.905446
 20
272.662063
 40
1.0
100
AcDbArc
 50
180.0
 51
270.0
  0
ARC
  5
337
100
AcDbEntity
  8
M0
 62
     7
100
AcDbCircle
 10
88.005446
 20
272.662063
 40
1.0
100
AcDbArc
 50
180.0
 51
270.0
  0
ARC
  5
338
100
AcDbEntity
  8
M0
 62
     7
100
AcDbCircle
 10
88.005446
 20
284.662063
 40
1.0
100
AcDbArc
 50
90.0
 51
180.0
  0
ARC
  5
339
100
AcDbEntity
  8
M0
 62
     7
100
AcDbCircle
 10
88.305446
 20
284.662063
 40
1.0
100
AcDbArc
 50
0.0
 51
90.0
  0
ARC
  5
33A
100
AcDbEntity
  8
M0
 62
     7
100
AcDbCircle
 10
67.805446
 20
284.662063
 40
1.0
100
AcDbArc
 50
90.0
 51
180.0
  0
LINE
  5
33B
100
AcDbEntity
  8
M0
 62
     7
100
AcDbLine
 10
66.805446
 20
320.562063
 11
66.805446
 21
323.062063
  0
LINE
  5
33C
100
AcDbEntity
  8
M0
 62
     7
100
AcDbLine
 10
69.105446
 20
323.062063
 11
69.105446
 21
320.562063
  0
LINE
  5
33D
100
AcDbEntity
  8
M0
 62
     7
100
AcDbLine
 10
87.005446
 20
335.062063
 11
87.005446
 21
320.562063
  0
ARC
  5
33E
100
AcDbEntity
  8
M0
 62
     7
100
AcDbCircle
 10
88.305446
 20
323.062063
 40
1.0
100
AcDbArc
 50
270.0
 51
360.0
  0
ARC
  5
33F
100
AcDbEntity
  8
M0
 62
     7
100
AcDbCircle
 10
77.905446
 20
284.662063
 40
1.0
100
AcDbArc
 50
90.0
 51
180.0
  0
ARC
  5
340
100
AcDbEntity
  8
M0
 62
     7
100
AcDbCircle
 10
68.105446
 20
323.062063
 40
1.0
100
AcDbArc
 50
270.0
 51
360.0
  0
LINE
  5
341
100
AcDbEntity
  8
M0
 62
     7
100
AcDbLine
 10
97.605446
 20
299.162063
 11
97.605446
 21
299.163314
  0
LINE
  5
342
100
AcDbEntity
  8
M0
 62
     7
100
AcDbLine
 10
58.505446
 20
299.163314
 11
58.505446
 21
299.162063
  0
LINE
  5
343
100
AcDbEntity
  8
M0
 62
     7
100
AcDbLine
 10
97.605446
 20
308.560812
 11
97.605446
 21
308.562063
  0
LINE
  5
344
100
AcDbEntity
  8
M0
 62
     7
100
AcDbLine
 10
58.505446
 20
308.562063
 11
58.505446
 21
308.560812
  0
LINE
  5
345
100
AcDbEntity
  8
M0
 62
     7
100
AcDbLine
 10
97.605446
 20
287.162063
 11
97.605446
 21
299.162063
  0
LINE
  5
346
100
AcDbEntity
  8
M0
 62
     7
100
AcDbLine
 10
58.505446
 20
299.162063
 11
58.505446
 21
287.162063
  0
LINE
  5
347
100
AcDbEntity
  8
M0
 62
     7
100
AcDbLine
 10
69.855446
 20
316.062063
 11
70.355446
 21
316.062063
  0
LINE
  5
348
100
AcDbEntity
  8
M0
 62
     7
100
AcDbLine
 10
87.255446
 20
296.362063
 11
87.255446
 21
309.962063
  0
LINE
  5
349
100
AcDbEntity
  8
M0
 62
     7
100
AcDbLine
 10
70.355446
 20
292.862063
 11
69.855446
 21
292.862063
  0
LINE
  5
34A
100
AcDbEntity
  8
M0
 62
     7
100
AcDbLine
 10
58.505446
 20
320.562063
 11
58.505446
 21
308.562063
  0
LINE
  5
34B
100
AcDbEntity
  8
M0
 62
     7
100
AcDbLine
 10
68.855446
 20
296.362063
 11
68.855446
 21
309.962063
  0
LINE
  5
34C
100
AcDbEntity
  8
M0
 62
     7
100
AcDbLine
 10
97.605446
 20
308.562063
 11
97.605446
 21
320.562063
  0
LINE
  5
34D
100
AcDbEntity
  8
M0
 62
     7
100
AcDbLine
 10
83.605446
 20
308.662063
 11
72.505446
 21
308.662063
  0
LINE
  5
34E
100
AcDbEntity
  8
M0
 62
     7
100
AcDbLine
 10
85.755446
 20
316.062063
 11
86.255446
 21
316.062063
  0
LINE
  5
34F
100
AcDbEntity
  8
M0
 62
     7
100
AcDbLine
 10
83.105446
 20
313.862063
 11
73.005446
 21
313.862063
  0
LINE
  5
350
100
AcDbEntity
  8
M0
 62
     7
100
AcDbLine
 10
85.755446
 20
292.862063
 11
86.255446
 21
292.862063
  0
ARC
  5
351
100
AcDbEntity
  8
M0
 62
     7
100
AcDbCircle
 10
57.555446
 20
308.562063
 40
1.0
100
AcDbArc
 50
180.0
 51
270.0
  0
ARC
  5
352
100
AcDbEntity
  8
M0
 62
     7
100
AcDbCircle
 10
98.605446
 20
308.560812
 40
1.0
100
AcDbArc
 50
180.0
 51
267.134016
  0
ARC
  5
353
100
AcDbEntity
  8
M0
 62
     7
100
AcDbCircle
 10
98.555446
 20
308.562063
 40
1.0
100
AcDbArc
 50
270.0
 51
360.0
  0
ARC
  5
354
100
AcDbEntity
  8
M0
 62
     7
100
AcDbCircle
 10
98.555446
 20
331.662063
 40
1.0
100
AcDbArc
 50
0.0
 51
90.0
  0
ARC
  5
355
100
AcDbEntity
  8
M0
 62
     7
100
AcDbCircle
 10
58.005446
 20
331.662063
 40
1.0
100
AcDbArc
 50
0.0
 51
90.0
  0
ARC
  5
356
100
AcDbEntity
  8
M0
 62
     7
100
AcDbCircle
 10
98.105446
 20
331.662063
 40
1.0
100
AcDbArc
 50
90.0
 51
180.0
  0
ARC
  5
357
100
AcDbEntity
  8
M0
 62
     7
100
AcDbCircle
 10
57.555446
 20
299.162063
 40
1.0
100
AcDbArc
 50
90.0
 51
180.0
  0
LINE
  5
358
100
AcDbEntity
  8
M0
 62
     7
100
AcDbLine
 10
59.905446
 20
329.562063
 11
65.905446
 21
329.562063
  0
ARC
  5
359
100
AcDbEntity
  8
M0
 62
     7
100
AcDbCircle
 10
98.555446
 20
299.162063
 40
1.0
100
AcDbArc
 50
0.0
 51
90.0
  0
ARC
  5
35A
100
AcDbEntity
  8
M0
 62
     7
100
AcDbCircle
 10
98.605446
 20
299.163314
 40
1.0
100
AcDbArc
 50
92.865984
 51
180.0
  0
ARC
  5
35B
100
AcDbEntity
  8
M0
 62
     7
100
AcDbCircle
 10
57.505446
 20
299.163314
 40
1.0
100
AcDbArc
 50
0.0
 51
87.134016
  0
LINE
  5
35C
100
AcDbEntity
  8
M0
 62
     7
100
AcDbLine
 10
59.005446
 20
287.162063
 11
59.005446
 21
280.062063
  0
ARC
  5
35D
100
AcDbEntity
  8
M0
 62
     7
100
AcDbCircle
 10
57.555446
 20
331.662063
 40
1.0
100
AcDbArc
 50
90.0
 51
180.0
  0
ARC
  5
35E
100
AcDbEntity
  8
M0
 62
     7
100
AcDbCircle
 10
57.505446
 20
308.560812
 40
1.0
100
AcDbArc
 50
272.865984
 51
360.0
  0
ARC
  5
35F
100
AcDbEntity
  8
M0
 62
     7
100
AcDbCircle
 10
84.105446
 20
293.362063
 40
0.5
100
AcDbArc
 50
180.0
 51
270.0
  0
LINE
  5
360
100
AcDbEntity
  8
M0
 62
     7
100
AcDbLine
 10
59.005446
 20
280.062063
 11
59.005446
 21
276.062063
  0
ARC
  5
361
100
AcDbEntity
  8
M0
 62
     7
100
AcDbCircle
 10
72.005446
 20
293.362063
 40
0.5
100
AcDbArc
 50
270.0
 51
360.0
  0
ARC
  5
362
100
AcDbEntity
  8
M0
 62
     7
100
AcDbCircle
 10
86.505446
 20
292.362063
 40
0.5
100
AcDbArc
 50
67.201593
 51
90.0
  0
ARC
  5
363
100
AcDbEntity
  8
M0
 62
     7
100
AcDbCircle
 10
86.505446
 20
316.562063
 40
0.5
100
AcDbArc
 50
270.0
 51
292.798407
  0
ARC
  5
364
100
AcDbEntity
  8
M0
 62
     7
100
AcDbCircle
 10
69.605446
 20
292.362063
 40
0.5
100
AcDbArc
 50
90.0
 51
112.798407
  0
ARC
  5
365
100
AcDbEntity
  8
M0
 62
     7
100
AcDbCircle
 10
57.555446
 20
276.062063
 40
1.0
100
AcDbArc
 50
180.0
 51
270.0
  0
ARC
  5
366
100
AcDbEntity
  8
M0
 62
     7
100
AcDbCircle
 10
69.605446
 20
316.562063
 40
0.5
100
AcDbArc
 50
247.201593
 51
270.0
  0
ARC
  5
367
100
AcDbEntity
  8
M0
 62
     7
100
AcDbCircle
 10
98.105446
 20
276.062063
 40
1.0
100
AcDbArc
 50
180.0
 51
270.0
  0
ARC
  5
368
100
AcDbEntity
  8
M0
 62
     7
100
AcDbCircle
 10
88.305446
 20
335.062063
 40
1.0
100
AcDbArc
 50
0.0
 51
90.0
  0
ARC
  5
369
100
AcDbEntity
  8
M0
 62
     7
100
AcDbCircle
 10
78.205446
 20
335.062063
 40
1.0
100
AcDbArc
 50
0.0
 51
90.0
  0
ARC
  5
36A
100
AcDbEntity
  8
M0
 62
     7
100
AcDbCircle
 10
88.005446
 20
335.062063
 40
1.0
100
AcDbArc
 50
90.0
 51
180.0
  0
ARC
  5
36B
100
AcDbEntity
  8
M0
 62
     7
100
AcDbCircle
 10
76.405446
 20
292.362063
 40
0.5
100
AcDbArc
 50
53.130102
 51
90.0
  0
ARC
  5
36C
100
AcDbEntity
  8
M0
 62
     7
100
AcDbCircle
 10
67.805446
 20
335.062063
 40
1.0
100
AcDbArc
 50
90.0
 51
180.0
  0
LINE
  5
36D
100
AcDbEntity
  8
M0
 62
     7
100
AcDbLine
 10
88.105446
 20
336.062063
 11
88.305446
 21
336.062063
  0
LINE
  5
36E
100
AcDbEntity
  8
M0
 62
     7
100
AcDbLine
 10
88.005446
 20
336.062063
 11
88.105446
 21
336.062063
  0
ARC
  5
36F
100
AcDbEntity
  8
M0
 62
     7
100
AcDbCircle
 10
98.555446
 20
276.062063
 40
1.0
100
AcDbArc
 50
270.0
 51
360.0
  0
ARC
  5
370
100
AcDbEntity
  8
M0
 62
     7
100
AcDbCircle
 10
79.705446
 20
292.362063
 40
0.5
100
AcDbArc
 50
90.0
 51
126.869898
  0
ARC
  5
371
100
AcDbEntity
  8
M0
 62
     7
100
AcDbCircle
 10
58.005446
 20
276.062063
 40
1.0
100
AcDbArc
 50
270.0
 51
360.0
  0
LINE
  5
372
100
AcDbEntity
  8
M0
 62
     7
100
AcDbLine
 10
76.905446
 20
320.562063
 11
76.905446
 21
335.062063
  0
LINE
  5
373
100
AcDbEntity
  8
M0
 62
     7
100
AcDbLine
 10
67.805446
 20
336.062063
 11
68.005446
 21
336.062063
  0
LINE
  5
374
100
AcDbEntity
  8
M0
 62
     7
100
AcDbLine
 10
69.105446
 20
335.062063
 11
69.105446
 21
332.062063
  0
LINE
  5
375
100
AcDbEntity
  8
M0
 62
     7
100
AcDbLine
 10
98.105446
 20
332.662063
 11
98.555446
 21
332.662063
  0
LINE
  5
376
100
AcDbEntity
  8
M0
 62
     7
100
AcDbLine
 10
59.005446
 20
331.662063
 11
59.005446
 21
327.662063
  0
LINE
  5
377
100
AcDbEntity
  8
M0
 62
     7
100
AcDbLine
 10
97.605446
 20
320.562063
 11
58.505446
 21
320.562063
  0
LINE
  5
378
100
AcDbEntity
  8
M0
 62
     7
100
AcDbLine
 10
83.605446
 20
297.562063
 11
72.505446
 21
297.562063
  0
LINE
  5
379
100
AcDbEntity
  8
M0
 62
     7
100
AcDbLine
 10
72.505446
 20
294.362063
 11
83.605446
 21
294.362063
  0
LINE
  5
37A
100
AcDbEntity
  8
M0
 62
     7
100
AcDbLine
 10
72.505446
 20
298.962063
 11
83.605446
 21
298.962063
  0
ARC
  5
37B
100
AcDbEntity
  8
M0
 62
     7
100
AcDbCircle
 10
77.905446
 20
335.062063
 40
1.0
100
AcDbArc
 50
90.0
 51
180.0
  0
LINE
  5
37C
100
AcDbEntity
  8
M0
 62
     7
100
AcDbLine
 10
69.855446
 20
292.862063
 11
72.005446
 21
292.862063
  0
ARC
  5
37D
100
AcDbEntity
  8
M0
 62
     7
100
AcDbCircle
 10
68.105446
 20
335.062063
 40
1.0
100
AcDbArc
 50
0.0
 51
90.0
  0
LINE
  5
37E
100
AcDbEntity
  8
M0
 62
     7
100
AcDbLine
 10
59.005446
 20
327.662063
 11
59.005446
 21
320.562063
  0
LINE
  5
37F
100
AcDbEntity
  8
M0
 62
     7
100
AcDbLine
 10
57.555446
 20
332.662063
 11
58.005446
 21
332.662063
  0
LINE
  5
380
100
AcDbEntity
  8
M0
 62
     7
100
AcDbLine
 10
84.105446
 20
292.862063
 11
72.005446
 21
292.862063
  0
LINE
  5
381
100
AcDbEntity
  8
M0
 62
     7
100
AcDbLine
 10
72.755446
 20
338.67873
 11
72.755446
 21
345.762063
  0
LINE
  5
382
100
AcDbEntity
  8
M0
 62
     7
100
AcDbLine
 10
83.355446
 20
345.762063
 11
83.355446
 21
338.67873
  0
LINE
  5
383
100
AcDbEntity
  8
M0
 62
     7
100
AcDbLine
 10
66.805446
 20
334.662063
 11
61.055446
 21
334.662063
  0
LINE
  5
384
100
AcDbEntity
  8
M0
 62
     7
100
AcDbLine
 10
73.755446
 20
346.762063
 11
82.355446
 21
346.762063
  0
LINE
  5
385
100
AcDbEntity
  8
M0
 62
     7
100
AcDbLine
 10
61.055446
 20
347.662063
 11
61.055446
 21
329.562063
  0
LINE
  5
386
100
AcDbEntity
  8
M0
 62
     7
100
AcDbLine
 10
76.905446
 20
299.762063
 11
76.905446
 21
300.262063
  0
LINE
  5
387
100
AcDbEntity
  8
M0
 62
     7
100
AcDbLine
 10
83.355446
 20
307.962063
 11
83.355446
 21
299.762063
  0
LINE
  5
388
100
AcDbEntity
  8
M0
 62
     7
100
AcDbLine
 10
80.305446
 20
308.462063
 11
82.855446
 21
308.462063
  0
LINE
  5
389
100
AcDbEntity
  8
M0
 62
     7
100
AcDbLine
 10
75.805446
 20
308.462063
 11
73.255446
 21
308.462063
  0
LINE
  5
38A
100
AcDbEntity
  8
M0
 62
     7
100
AcDbLine
 10
73.755446
 20
338.262063
 11
82.355446
 21
338.262063
  0
LINE
  5
38B
100
AcDbEntity
  8
M0
 62
     7
100
AcDbLine
 10
72.755446
 20
336.762063
 11
72.755446
 21
338.67873
  0
LINE
  5
38C
100
AcDbEntity
  8
M0
 62
     7
100
AcDbLine
 10
72.755446
 20
336.762063
 11
83.355446
 21
336.762063
  0
LINE
  5
38D
100
AcDbEntity
  8
M0
 62
     7
100
AcDbLine
 10
74.905446
 20
274.862063
 11
71.105446
 21
274.862063
  0
LINE
  5
38E
100
AcDbEntity
  8
M0
 62
     7
100
AcDbLine
 10
87.005446
 20
272.862063
 11
79.205446
 21
272.862063
  0
LINE
  5
38F
100
AcDbEntity
  8
M0
 62
     7
100
AcDbLine
 10
79.205446
 20
334.662063
 11
87.005446
 21
334.662063
  0
LINE
  5
390
100
AcDbEntity
  8
M0
 62
     7
100
AcDbLine
 10
95.055446
 20
334.662063
 11
89.305446
 21
334.662063
  0
LINE
  5
391
100
AcDbEntity
  8
M0
 62
     7
100
AcDbLine
 10
95.055446
 20
329.562063
 11
95.055446
 21
334.662063
  0
LINE
  5
392
100
AcDbEntity
  8
M0
 62
     7
100
AcDbLine
 10
72.755446
 20
336.762063
 11
72.755446
 21
334.662063
  0
LINE
  5
393
100
AcDbEntity
  8
M0
 62
     7
100
AcDbLine
 10
83.355446
 20
334.662063
 11
83.355446
 21
336.762063
  0
LINE
  5
394
100
AcDbEntity
  8
M0
 62
     7
100
AcDbLine
 10
83.355446
 20
336.762063
 11
83.355446
 21
338.67873
  0
ARC
  5
395
100
AcDbEntity
  8
M0
 62
     7
100
AcDbCircle
 10
74.905446
 20
272.862063
 40
2.0
100
AcDbArc
 50
0.0
 51
90.0
  0
ARC
  5
396
100
AcDbEntity
  8
M0
 62
     7
100
AcDbCircle
 10
71.105446
 20
272.862063
 40
2.0
100
AcDbArc
 50
90.0
 51
180.0
  0
ARC
  5
397
100
AcDbEntity
  8
M0
 62
     7
100
AcDbCircle
 10
68.105446
 20
269.362063
 40
1.0
100
AcDbArc
 50
270.0
 51
360.0
  0
ARC
  5
398
100
AcDbEntity
  8
M0
 62
     7
100
AcDbCircle
 10
78.205446
 20
269.362063
 40
1.0
100
AcDbArc
 50
270.0
 51
360.0
  0
ARC
  5
399
100
AcDbEntity
  8
M0
 62
     7
100
AcDbCircle
 10
67.805446
 20
269.362063
 40
1.0
100
AcDbArc
 50
180.0
 51
270.0
  0
ARC
  5
39A
100
AcDbEntity
  8
M0
 62
     7
100
AcDbCircle
 10
77.905446
 20
269.362063
 40
1.0
100
AcDbArc
 50
180.0
 51
270.0
  0
ARC
  5
39B
100
AcDbEntity
  8
M0
 62
     7
100
AcDbCircle
 10
80.305446
 20
307.962063
 40
0.5
100
AcDbArc
 50
90.0
 51
180.0
  0
ARC
  5
39C
100
AcDbEntity
  8
M0
 62
     7
100
AcDbCircle
 10
75.805446
 20
307.962063
 40
0.5
100
AcDbArc
 50
0.0
 51
90.0
  0
ARC
  5
39D
100
AcDbEntity
  8
M0
 62
     7
100
AcDbCircle
 10
82.855446
 20
307.962063
 40
0.5
100
AcDbArc
 50
0.0
 51
90.0
  0
ARC
  5
39E
100
AcDbEntity
  8
M0
 62
     7
100
AcDbCircle
 10
82.355446
 20
345.762063
 40
1.0
100
AcDbArc
 50
0.0
 51
90.0
  0
ARC
  5
39F
100
AcDbEntity
  8
M0
 62
     7
100
AcDbCircle
 10
73.255446
 20
307.962063
 40
0.5
100
AcDbArc
 50
90.0
 51
180.0
  0
LINE
  5
3A0
100
AcDbEntity
  8
M0
 62
     7
100
AcDbLine
 10
79.205446
 20
300.762063
 11
79.305446
 21
300.762063
  0
LINE
  5
3A1
100
AcDbEntity
  8
M0
 62
     7
100
AcDbLine
 10
79.205446
 20
300.262063
 11
79.205446
 21
300.762063
  0
LINE
  5
3A2
100
AcDbEntity
  8
M0
 62
     7
100
AcDbLine
 10
72.755446
 20
307.962063
 11
72.755446
 21
299.762063
  0
LINE
  5
3A3
100
AcDbEntity
  8
M0
 62
     7
100
AcDbLine
 10
79.805446
 20
301.262063
 11
79.805446
 21
307.962063
  0
LINE
  5
3A4
100
AcDbEntity
  8
M0
 62
     7
100
AcDbLine
 10
79.205446
 20
299.762063
 11
79.205446
 21
300.262063
  0
LINE
  5
3A5
100
AcDbEntity
  8
M0
 62
     7
100
AcDbLine
 10
76.305446
 20
301.262063
 11
76.305446
 21
307.962063
  0
ARC
  5
3A6
100
AcDbEntity
  8
M0
 62
     7
100
AcDbCircle
 10
73.755446
 20
345.762063
 40
1.0
100
AcDbArc
 50
90.0
 51
180.0
  0
LINE
  5
3A7
100
AcDbEntity
  8
M0
 62
     7
100
AcDbLine
 10
82.855446
 20
299.262063
 11
79.705446
 21
299.262063
  0
LINE
  5
3A8
100
AcDbEntity
  8
M0
 62
     7
100
AcDbLine
 10
76.905446
 20
300.262063
 11
76.905446
 21
300.762063
  0
LINE
  5
3A9
100
AcDbEntity
  8
M0
 62
     7
100
AcDbLine
 10
73.255446
 20
299.262063
 11
76.405446
 21
299.262063
  0
LINE
  5
3AA
100
AcDbEntity
  8
M0
 62
     7
100
AcDbLine
 10
76.905446
 20
300.762063
 11
76.805446
 21
300.762063
  0
LINE
  5
3AB
100
AcDbEntity
  8
M0
 62
     7
100
AcDbLine
 10
76.905446
 20
307.462063
 11
76.905446
 21
308.662063
  0
LINE
  5
3AC
100
AcDbEntity
  8
M0
 62
     7
100
AcDbLine
 10
83.605446
 20
299.562063
 11
83.569589
 21
299.562063
  0
LINE
  5
3AD
100
AcDbEntity
  8
M0
 62
     7
100
AcDbLine
 10
72.822433
 20
308.212063
 11
72.818482
 21
308.205078
  0
LINE
  5
3AE
100
AcDbEntity
  8
M0
 62
     7
100
AcDbLine
 10
72.505446
 20
299.562063
 11
72.541303
 21
299.562063
  0
LINE
  5
3AF
100
AcDbEntity
  8
M0
 62
     7
100
AcDbLine
 10
77.405446
 20
305.262063
 11
78.705446
 21
305.262063
  0
LINE
  5
3B0
100
AcDbEntity
  8
M0
 62
     7
100
AcDbLine
 10
79.205446
 20
298.962063
 11
79.205446
 21
299.762063
  0
LINE
  5
3B1
100
AcDbEntity
  8
M0
 62
     7
100
AcDbLine
 10
76.905446
 20
298.962063
 11
76.905446
 21
299.762063
  0
LINE
  5
3B2
100
AcDbEntity
  8
M0
 62
     7
100
AcDbLine
 10
79.705446
 20
308.462063
 11
81.055446
 21
308.462063
  0
LINE
  5
3B3
100
AcDbEntity
  8
M0
 62
     7
100
AcDbLine
 10
76.405446
 20
308.462063
 11
75.055446
 21
308.462063
  0
LINE
  5
3B4
100
AcDbEntity
  8
M0
 62
     7
100
AcDbLine
 10
79.205446
 20
300.762063
 11
79.205446
 21
301.262063
  0
LINE
  5
3B5
100
AcDbEntity
  8
M0
 62
     7
100
AcDbLine
 10
82.055446
 20
308.462063
 11
81.055446
 21
308.462063
  0
LINE
  5
3B6
100
AcDbEntity
  8
M0
 62
     7
100
AcDbLine
 10
76.905446
 20
300.762063
 11
76.905446
 21
301.262063
  0
LINE
  5
3B7
100
AcDbEntity
  8
M0
 62
     7
100
AcDbLine
 10
74.055446
 20
308.462063
 11
75.055446
 21
308.462063
  0
LINE
  5
3B8
100
AcDbEntity
  8
M0
 62
     7
100
AcDbLine
 10
76.905446
 20
301.762063
 11
76.905446
 21
301.262063
  0
LINE
  5
3B9
100
AcDbEntity
  8
M0
 62
     7
100
AcDbLine
 10
79.205446
 20
307.462063
 11
79.205446
 21
308.662063
  0
LINE
  5
3BA
100
AcDbEntity
  8
M0
 62
     7
100
AcDbLine
 10
79.205446
 20
301.762063
 11
79.205446
 21
301.262063
  0
LINE
  5
3BB
100
AcDbEntity
  8
M0
 62
     7
100
AcDbLine
 10
76.905446
 20
305.762063
 11
76.905446
 21
307.962063
  0
LINE
  5
3BC
100
AcDbEntity
  8
M0
 62
     7
100
AcDbLine
 10
77.405446
 20
302.262063
 11
78.705446
 21
302.262063
  0
LINE
  5
3BD
100
AcDbEntity
  8
M0
 62
     7
100
AcDbLine
 10
79.205446
 20
305.762063
 11
79.205446
 21
307.962063
  0
LINE
  5
3BE
100
AcDbEntity
  8
M0
 62
     7
100
AcDbLine
 10
66.805446
 20
279.162063
 11
65.905446
 21
279.162063
  0
LINE
  5
3BF
100
AcDbEntity
  8
M0
 62
     7
100
AcDbLine
 10
76.905446
 20
269.362063
 11
76.905446
 21
287.162063
  0
LINE
  5
3C0
100
AcDbEntity
  8
M0
 62
     7
100
AcDbLine
 10
97.105446
 20
279.162063
 11
96.205446
 21
279.162063
  0
LINE
  5
3C1
100
AcDbEntity
  8
M0
 62
     7
100
AcDbLine
 10
59.905446
 20
279.162063
 11
59.005446
 21
279.162063
  0
LINE
  5
3C2
100
AcDbEntity
  8
M0
 62
     7
100
AcDbLine
 10
80.105446
 20
279.162063
 11
79.205446
 21
279.162063
  0
LINE
  5
3C3
100
AcDbEntity
  8
M0
 62
     7
100
AcDbLine
 10
77.905446
 20
268.362063
 11
78.205446
 21
268.362063
  0
LINE
  5
3C4
100
AcDbEntity
  8
M0
 62
     7
100
AcDbLine
 10
69.105446
 20
334.662063
 11
76.905446
 21
334.662063
  0
LINE
  5
3C5
100
AcDbEntity
  8
M0
 62
     7
100
AcDbLine
 10
67.805446
 20
268.362063
 11
68.105446
 21
268.362063
  0
LINE
  5
3C6
100
AcDbEntity
  8
M0
 62
     7
100
AcDbLine
 10
66.805446
 20
269.362063
 11
66.805446
 21
287.162063
  0
LINE
  5
3C7
100
AcDbEntity
  8
M0
 62
     7
100
AcDbLine
 10
69.105446
 20
287.162063
 11
69.105446
 21
269.362063
  0
ARC
  5
3C8
100
AcDbEntity
  8
M0
 62
     7
100
AcDbCircle
 10
77.405446
 20
301.762063
 40
0.5
100
AcDbArc
 50
90.0
 51
180.0
  0
ARC
  5
3C9
100
AcDbEntity
  8
M0
 62
     7
100
AcDbCircle
 10
78.705446
 20
305.762063
 40
0.5
100
AcDbArc
 50
270.0
 51
360.0
  0
ARC
  5
3CA
100
AcDbEntity
  8
M0
 62
     7
100
AcDbCircle
 10
78.705446
 20
301.762063
 40
0.5
100
AcDbArc
 50
0.0
 51
90.0
  0
ARC
  5
3CB
100
AcDbEntity
  8
M0
 62
     7
100
AcDbCircle
 10
76.405446
 20
307.962063
 40
0.5
100
AcDbArc
 50
0.0
 51
90.0
  0
ARC
  5
3CC
100
AcDbEntity
  8
M0
 62
     7
100
AcDbCircle
 10
79.705446
 20
307.962063
 40
0.5
100
AcDbArc
 50
90.0
 51
180.0
  0
ARC
  5
3CD
100
AcDbEntity
  8
M0
 62
     7
100
AcDbCircle
 10
79.705446
 20
299.762063
 40
0.5
100
AcDbArc
 50
180.0
 51
270.0
  0
LINE
  5
3CE
100
AcDbEntity
  8
M0
 62
     7
100
AcDbLine
 10
79.205446
 20
287.162063
 11
79.205446
 21
269.362063
  0
ARC
  5
3CF
100
AcDbEntity
  8
M0
 62
     7
100
AcDbCircle
 10
73.21348
 20
299.72323
 40
0.44285
100
AcDbArc
 50
206.131697
 51
224.639687
  0
LINE
  5
3D0
100
AcDbEntity
  8
M0
 62
     7
100
AcDbLine
 10
85.855446
 20
292.862063
 11
85.855446
 21
292.762063
  0
LINE
  5
3D1
100
AcDbEntity
  8
M0
 62
     7
100
AcDbLine
 10
88.205446
 20
271.662063
 11
88.305446
 21
271.662063
  0
LINE
  5
3D2
100
AcDbEntity
  8
M0
 62
     7
100
AcDbLine
 10
70.255446
 20
292.762063
 11
70.255446
 21
292.862063
  0
LINE
  5
3D3
100
AcDbEntity
  8
M0
 62
     7
100
AcDbLine
 10
76.005446
 20
328.562063
 11
76.905446
 21
328.562063
  0
LINE
  5
3D4
100
AcDbEntity
  8
M0
 62
     7
100
AcDbLine
 10
86.105446
 20
328.562063
 11
87.005446
 21
328.562063
  0
LINE
  5
3D5
100
AcDbEntity
  8
M0
 62
     7
100
AcDbLine
 10
79.205446
 20
328.562063
 11
80.105446
 21
328.562063
  0
LINE
  5
3D6
100
AcDbEntity
  8
M0
 62
     7
100
AcDbLine
 10
70.005446
 20
279.162063
 11
69.105446
 21
279.162063
  0
LINE
  5
3D7
100
AcDbEntity
  8
M0
 62
     7
100
AcDbLine
 10
90.205446
 20
279.162063
 11
89.305446
 21
279.162063
  0
LINE
  5
3D8
100
AcDbEntity
  8
M0
 62
     7
100
AcDbLine
 10
76.905446
 20
279.162063
 11
76.005446
 21
279.162063
  0
LINE
  5
3D9
100
AcDbEntity
  8
M0
 62
     7
100
AcDbLine
 10
80.355446
 20
292.762063
 11
80.355446
 21
292.862063
  0
LINE
  5
3DA
100
AcDbEntity
  8
M0
 62
     7
100
AcDbLine
 10
87.005446
 20
279.162063
 11
86.105446
 21
279.162063
  0
LINE
  5
3DB
100
AcDbEntity
  8
M0
 62
     7
100
AcDbLine
 10
85.855446
 20
316.162063
 11
85.855446
 21
316.062063
  0
LINE
  5
3DC
100
AcDbEntity
  8
M0
 62
     7
100
AcDbLine
 10
88.305446
 20
336.062063
 11
88.205446
 21
336.062063
  0
LINE
  5
3DD
100
AcDbEntity
  8
M0
 62
     7
100
AcDbLine
 10
67.905446
 20
336.062063
 11
67.805446
 21
336.062063
  0
LINE
  5
3DE
100
AcDbEntity
  8
M0
 62
     7
100
AcDbLine
 10
68.105446
 20
268.862063
 11
67.805446
 21
268.862063
  0
LINE
  5
3DF
100
AcDbEntity
  8
M0
 62
     7
100
AcDbLine
 10
70.255446
 20
316.062063
 11
70.255446
 21
316.162063
  0
LINE
  5
3E0
100
AcDbEntity
  8
M0
 62
     7
100
AcDbLine
 10
78.205446
 20
268.862063
 11
77.905446
 21
268.862063
  0
LINE
  5
3E1
100
AcDbEntity
  8
M0
 62
     7
100
AcDbLine
 10
89.305446
 20
328.562063
 11
90.205446
 21
328.562063
  0
LINE
  5
3E2
100
AcDbEntity
  8
M0
 62
     7
100
AcDbLine
 10
75.755446
 20
292.862063
 11
75.755446
 21
292.762063
  0
LINE
  5
3E3
100
AcDbEntity
  8
M0
 62
     7
100
AcDbLine
 10
96.205446
 20
328.562063
 11
97.105446
 21
328.562063
  0
LINE
  5
3E4
100
AcDbEntity
  8
M0
 62
     7
100
AcDbLine
 10
69.105446
 20
328.562063
 11
70.005446
 21
328.562063
  0
LINE
  5
3E5
100
AcDbEntity
  8
M0
 62
     7
100
AcDbLine
 10
59.005446
 20
328.562063
 11
59.905446
 21
328.562063
  0
LINE
  5
3E6
100
AcDbEntity
  8
M0
 62
     7
100
AcDbLine
 10
65.905446
 20
328.562063
 11
66.805446
 21
328.562063
  0
LINE
  5
3E7
100
AcDbEntity
  8
M0
 62
     7
100
AcDbLine
 10
69.105446
 20
332.062063
 11
69.105446
 21
323.062063
  0
LINE
  5
3E8
100
AcDbEntity
  8
M0
 62
     7
100
AcDbLine
 10
77.905446
 20
336.062063
 11
78.005446
 21
336.062063
  0
LINE
  5
3E9
100
AcDbEntity
  8
M0
 62
     7
100
AcDbLine
 10
88.005446
 20
285.662063
 11
88.305446
 21
285.662063
  0
LINE
  5
3EA
100
AcDbEntity
  8
M0
 62
     7
100
AcDbLine
 10
67.805446
 20
285.662063
 11
68.105446
 21
285.662063
  0
LINE
  5
3EB
100
AcDbEntity
  8
M0
 62
     7
100
AcDbLine
 10
88.305446
 20
322.062063
 11
88.005446
 21
322.062063
  0
LINE
  5
3EC
100
AcDbEntity
  8
M0
 62
     7
100
AcDbLine
 10
78.205446
 20
322.062063
 11
77.905446
 21
322.062063
  0
LINE
  5
3ED
100
AcDbEntity
  8
M0
 62
     7
100
AcDbLine
 10
68.105446
 20
322.062063
 11
67.805446
 21
322.062063
  0
ARC
  5
3EE
100
AcDbEntity
  8
M0
 62
     7
100
AcDbCircle
 10
78.205446
 20
269.862063
 40
1.0
100
AcDbArc
 50
270.0
 51
360.0
  0
ARC
  5
3EF
100
AcDbEntity
  8
M0
 62
     7
100
AcDbCircle
 10
77.905446
 20
269.862063
 40
1.0
100
AcDbArc
 50
180.0
 51
270.0
  0
ARC
  5
3F0
100
AcDbEntity
  8
M0
 62
     7
100
AcDbCircle
 10
78.205446
 20
301.362063
 40
0.5
100
AcDbArc
 50
0.0
 51
90.0
  0
ARC
  5
3F1
100
AcDbEntity
  8
M0
 62
     7
100
AcDbCircle
 10
78.205446
 20
306.362063
 40
0.5
100
AcDbArc
 50
270.0
 51
360.0
  0
ARC
  5
3F2
100
AcDbEntity
  8
M0
 62
     7
100
AcDbCircle
 10
77.905446
 20
301.362063
 40
0.5
100
AcDbArc
 50
90.0
 51
180.0
  0
ARC
  5
3F3
100
AcDbEntity
  8
M0
 62
     7
100
AcDbCircle
 10
77.905446
 20
306.362063
 40
0.5
100
AcDbArc
 50
180.0
 51
270.0
  0
LINE
  5
3F4
100
AcDbEntity
  8
M0
 62
     7
100
AcDbLine
 10
78.105446
 20
336.062063
 11
78.205446
 21
336.062063
  0
LINE
  5
3F5
100
AcDbEntity
  8
M0
 62
     7
100
AcDbLine
 10
66.805446
 20
323.062063
 11
66.805446
 21
332.062063
  0
LINE
  5
3F6
100
AcDbEntity
  8
M0
 62
     7
100
AcDbLine
 10
78.005446
 20
336.062063
 11
78.105446
 21
336.062063
  0
ARC
  5
3F7
100
AcDbEntity
  8
M0
 62
     7
100
AcDbCircle
 10
68.105446
 20
269.862063
 40
1.0
100
AcDbArc
 50
270.0
 51
360.0
  0
LINE
  5
3F8
100
AcDbEntity
  8
M0
 62
     7
100
AcDbLine
 10
68.005446
 20
336.062063
 11
68.105446
 21
336.062063
  0
ARC
  5
3F9
100
AcDbEntity
  8
M0
 62
     7
100
AcDbCircle
 10
67.805446
 20
269.862063
 40
1.0
100
AcDbArc
 50
180.0
 51
270.0
  0
LINE
  5
3FA
100
AcDbEntity
  8
M0
 62
     7
100
AcDbLine
 10
69.105446
 20
278.062063
 11
69.105446
 21
277.062063
  0
LINE
  5
3FB
100
AcDbEntity
  8
M0
 62
     7
100
AcDbLine
 10
59.005446
 20
277.062063
 11
59.005446
 21
278.062063
  0
LINE
  5
3FC
100
AcDbEntity
  8
M0
 62
     7
100
AcDbLine
 10
97.105446
 20
278.062063
 11
97.105446
 21
277.062063
  0
ARC
  5
3FD
100
AcDbEntity
  8
M0
 62
     7
100
AcDbCircle
 10
73.255446
 20
299.762063
 40
0.5
100
AcDbArc
 50
180.0
 51
270.0
  0
ARC
  5
3FE
100
AcDbEntity
  8
M0
 62
     7
100
AcDbCircle
 10
82.855446
 20
299.762063
 40
0.5
100
AcDbArc
 50
270.0
 51
360.0
  0
ARC
  5
3FF
100
AcDbEntity
  8
M0
 62
     7
100
AcDbCircle
 10
76.405446
 20
299.762063
 40
0.5
100
AcDbArc
 50
270.0
 51
360.0
  0
ARC
  5
400
100
AcDbEntity
  8
M0
 62
     7
100
AcDbCircle
 10
79.305446
 20
301.262063
 40
0.5
100
AcDbArc
 50
270.0
 51
360.0
  0
ARC
  5
401
100
AcDbEntity
  8
M0
 62
     7
100
AcDbCircle
 10
76.805446
 20
301.262063
 40
0.5
100
AcDbArc
 50
180.0
 51
270.0
  0
ARC
  5
402
100
AcDbEntity
  8
M0
 62
     7
100
AcDbCircle
 10
77.405446
 20
305.762063
 40
0.5
100
AcDbArc
 50
180.0
 51
270.0
  0
LINE
  5
403
100
AcDbEntity
  8
M0
 62
     7
100
AcDbLine
 10
59.005446
 20
329.662063
 11
59.005446
 21
330.662063
  0
ELLIPSE
  5
404
100
AcDbEntity
  8
M0
 62
     7
100
AcDbEllipse
 10
82.355446
 20
338.67873
 11
1.0
 21
0.0
210
0.0
220
0.0
230
1.0
 40
0.416667
 41
4.71238898038469
 42
6.283185307179586
  0
LINE
  5
405
100
AcDbEntity
  8
M0
 62
     7
100
AcDbLine
 10
69.105446
 20
329.662063
 11
69.105446
 21
330.662063
  0
ELLIPSE
  5
406
100
AcDbEntity
  8
M0
 62
     7
100
AcDbEllipse
 10
73.755446
 20
338.67873
 11
1.0
 21
0.0
210
0.0
220
0.0
230
1.0
 40
0.416667
 41
3.141592653589793
 42
4.71238898038469
  0
LINE
  5
407
100
AcDbEntity
  8
M0
 62
     7
100
AcDbLine
 10
98.305446
 20
332.662063
 11
98.105446
 21
332.662063
  0
LINE
  5
408
100
AcDbEntity
  8
M0
 62
     7
100
AcDbLine
 10
97.105446
 20
331.662063
 11
97.105446
 21
320.562063
  0
LINE
  5
409
100
AcDbEntity
  8
M0
 62
     7
100
AcDbLine
 10
98.305446
 20
275.062063
 11
98.105446
 21
275.062063
  0
LINE
  5
40A
100
AcDbEntity
  8
M0
 62
     7
100
AcDbLine
 10
97.105446
 20
277.062063
 11
97.105446
 21
276.062063
  0
LINE
  5
40B
100
AcDbEntity
  8
M0
 62
     7
100
AcDbLine
 10
59.005446
 20
276.062063
 11
59.005446
 21
277.062063
  0
LINE
  5
40C
100
AcDbEntity
  8
M0
 62
     7
100
AcDbLine
 10
59.005446
 20
330.662063
 11
59.005446
 21
331.662063
  0
LINE
  5
40D
100
AcDbEntity
  8
M0
 62
     7
100
AcDbLine
 10
57.805446
 20
275.062063
 11
58.005446
 21
275.062063
  0
LINE
  5
40E
100
AcDbEntity
  8
M0
 62
     7
100
AcDbLine
 10
77.905446
 20
305.862063
 11
78.205446
 21
305.862063
  0
LINE
  5
40F
100
AcDbEntity
  8
M0
 62
     7
100
AcDbLine
 10
69.105446
 20
330.662063
 11
69.105446
 21
335.062063
  0
LINE
  5
410
100
AcDbEntity
  8
M0
 62
     7
100
AcDbLine
 10
78.705446
 20
298.962063
 11
78.705446
 21
301.362063
  0
LINE
  5
411
100
AcDbEntity
  8
M0
 62
     7
100
AcDbLine
 10
57.805446
 20
332.662063
 11
58.005446
 21
332.662063
  0
LINE
  5
412
100
AcDbEntity
  8
M0
 62
     7
100
AcDbLine
 10
77.405446
 20
301.362063
 11
77.405446
 21
298.962063
  0
LINE
  5
413
100
AcDbEntity
  8
M0
 62
     7
100
AcDbLine
 10
77.405446
 20
308.662063
 11
77.405446
 21
306.362063
  0
LINE
  5
414
100
AcDbEntity
  8
M0
 62
     7
100
AcDbLine
 10
77.905446
 20
301.862063
 11
78.205446
 21
301.862063
  0
LINE
  5
415
100
AcDbEntity
  8
M0
 62
     7
100
AcDbLine
 10
78.705446
 20
306.362063
 11
78.705446
 21
308.662063
  0
LINE
  5
416
100
AcDbEntity
  8
M0
 62
     7
100
AcDbLine
 10
58.655446
 20
320.062063
 11
58.655446
 21
308.112063
  0
LINE
  5
417
100
AcDbEntity
  8
M0
 62
     7
100
AcDbLine
 10
86.355446
 20
292.762063
 11
69.755446
 21
292.762063
  0
LINE
  5
418
100
AcDbEntity
  8
M0
 62
     7
100
AcDbLine
 10
72.655446
 20
346.762063
 11
73.755446
 21
346.762063
  0
LINE
  5
419
100
AcDbEntity
  8
M0
 62
     7
100
AcDbLine
 10
82.355446
 20
346.762063
 11
83.455446
 21
346.762063
  0
LINE
  5
41A
100
AcDbEntity
  8
M0
 62
     7
100
AcDbLine
 10
73.155446
 20
314.462063
 11
73.155446
 21
315.162063
  0
LINE
  5
41B
100
AcDbEntity
  8
M0
 62
     7
100
AcDbLine
 10
72.155446
 20
316.162063
 11
69.755446
 21
316.162063
  0
LINE
  5
41C
100
AcDbEntity
  8
M0
 62
     7
100
AcDbLine
 10
82.455446
 20
313.962063
 11
73.655446
 21
313.962063
  0
LINE
  5
41D
100
AcDbEntity
  8
M0
 62
     7
100
AcDbLine
 10
83.955446
 20
316.162063
 11
86.355446
 21
316.162063
  0
LINE
  5
41E
100
AcDbEntity
  8
M0
 62
     7
100
AcDbLine
 10
82.955446
 20
314.462063
 11
82.955446
 21
315.162063
  0
LINE
  5
41F
100
AcDbEntity
  8
M0
 62
     7
100
AcDbLine
 10
87.355446
 20
293.762063
 11
87.355446
 21
315.162063
  0
ARC
  5
420
100
AcDbEntity
  8
M0
 62
     7
100
AcDbCircle
 10
69.755446
 20
315.162063
 40
1.0
100
AcDbArc
 50
90.0
 51
180.0
  0
ARC
  5
421
100
AcDbEntity
  8
M0
 62
     7
100
AcDbCircle
 10
72.155446
 20
315.162063
 40
1.0
100
AcDbArc
 50
0.0
 51
90.0
  0
ARC
  5
422
100
AcDbEntity
  8
M0
 62
     7
100
AcDbCircle
 10
82.455446
 20
314.462063
 40
0.5
100
AcDbArc
 50
270.0
 51
360.0
  0
ARC
  5
423
100
AcDbEntity
  8
M0
 62
     7
100
AcDbCircle
 10
73.655446
 20
314.462063
 40
0.5
100
AcDbArc
 50
180.0
 51
270.0
  0
ARC
  5
424
100
AcDbEntity
  8
M0
 62
     7
100
AcDbCircle
 10
83.955446
 20
315.162063
 40
1.0
100
AcDbArc
 50
90.0
 51
180.0
  0
ARC
  5
425
100
AcDbEntity
  8
M0
 62
     7
100
AcDbCircle
 10
83.955446
 20
347.762063
 40
0.5
100
AcDbArc
 50
90.0
 51
180.0
  0
ARC
  5
426
100
AcDbEntity
  8
M0
 62
     7
100
AcDbCircle
 10
72.155446
 20
347.762063
 40
0.5
100
AcDbArc
 50
0.0
 51
90.0
  0
ARC
  5
427
100
AcDbEntity
  8
M0
 62
     7
100
AcDbCircle
 10
83.955446
 20
347.262063
 40
1.0
100
AcDbArc
 50
0.0
 51
90.0
  0
ARC
  5
428
100
AcDbEntity
  8
M0
 62
     7
100
AcDbCircle
 10
72.155446
 20
347.262063
 40
1.0
100
AcDbArc
 50
90.0
 51
180.0
  0
ARC
  5
429
100
AcDbEntity
  8
M0
 62
     7
100
AcDbCircle
 10
86.355446
 20
315.162063
 40
1.0
100
AcDbArc
 50
0.0
 51
90.0
  0
ARC
  5
42A
100
AcDbEntity
  8
M0
 62
     7
100
AcDbCircle
 10
86.355446
 20
293.762063
 40
1.0
100
AcDbArc
 50
270.0
 51
360.0
  0
ARC
  5
42B
100
AcDbEntity
  8
M0
 62
     7
100
AcDbCircle
 10
59.155446
 20
320.062063
 40
0.5
100
AcDbArc
 50
90.0
 51
180.0
  0
ARC
  5
42C
100
AcDbEntity
  8
M0
 62
     7
100
AcDbCircle
 10
69.755446
 20
293.762063
 40
1.0
100
AcDbArc
 50
180.0
 51
270.0
  0
ARC
  5
42D
100
AcDbEntity
  8
M0
 62
     7
100
AcDbCircle
 10
61.555446
 20
300.612063
 40
0.5
100
AcDbArc
 50
270.0
 51
360.0
  0
ARC
  5
42E
100
AcDbEntity
  8
M0
 62
     7
100
AcDbCircle
 10
59.155446
 20
299.612063
 40
0.5
100
AcDbArc
 50
90.0
 51
180.0
  0
ARC
  5
42F
100
AcDbEntity
  8
M0
 62
     7
100
AcDbCircle
 10
94.555446
 20
307.112063
 40
0.5
100
AcDbArc
 50
90.0
 51
180.0
  0
ARC
  5
430
100
AcDbEntity
  8
M0
 62
     7
100
AcDbCircle
 10
61.555446
 20
307.112063
 40
0.5
100
AcDbArc
 50
0.0
 51
90.0
  0
ARC
  5
431
100
AcDbEntity
  8
M0
 62
     7
100
AcDbCircle
 10
96.955446
 20
308.112063
 40
0.5
100
AcDbArc
 50
270.0
 51
360.0
  0
ARC
  5
432
100
AcDbEntity
  8
M0
 62
     7
100
AcDbCircle
 10
59.155446
 20
308.112063
 40
0.5
100
AcDbArc
 50
180.0
 51
270.0
  0
ARC
  5
433
100
AcDbEntity
  8
M0
 62
     7
100
AcDbCircle
 10
80.605446
 20
292.362063
 40
0.5
100
AcDbArc
 50
53.130102
 51
90.0
  0
ARC
  5
434
100
AcDbEntity
  8
M0
 62
     7
100
AcDbCircle
 10
85.605446
 20
292.362063
 40
0.5
100
AcDbArc
 50
90.0
 51
126.869898
  0
ARC
  5
435
100
AcDbEntity
  8
M0
 62
     7
100
AcDbCircle
 10
96.955446
 20
287.662063
 40
0.5
100
AcDbArc
 50
270.0
 51
360.0
  0
ARC
  5
436
100
AcDbEntity
  8
M0
 62
     7
100
AcDbCircle
 10
96.955446
 20
299.612063
 40
0.5
100
AcDbArc
 50
0.0
 51
90.0
  0
ARC
  5
437
100
AcDbEntity
  8
M0
 62
     7
100
AcDbCircle
 10
59.155446
 20
287.662063
 40
0.5
100
AcDbArc
 50
180.0
 51
270.0
  0
LINE
  5
438
100
AcDbEntity
  8
M0
 62
     7
100
AcDbLine
 10
80.105446
 20
278.162063
 11
80.105446
 21
279.162063
  0
LINE
  5
439
100
AcDbEntity
  8
M0
 62
     7
100
AcDbLine
 10
86.105446
 20
279.162063
 11
86.105446
 21
278.162063
  0
LINE
  5
43A
100
AcDbEntity
  8
M0
 62
     7
100
AcDbLine
 10
86.105446
 20
278.162063
 11
80.105446
 21
278.162063
  0
ARC
  5
43B
100
AcDbEntity
  8
M0
 62
     7
100
AcDbCircle
 10
96.955446
 20
320.062063
 40
0.5
100
AcDbArc
 50
0.0
 51
90.0
  0
ARC
  5
43C
100
AcDbEntity
  8
M0
 62
     7
100
AcDbCircle
 10
94.555446
 20
300.612063
 40
0.5
100
AcDbArc
 50
180.0
 51
270.0
  0
LINE
  5
43D
100
AcDbEntity
  8
M0
 62
     7
100
AcDbLine
 10
89.305446
 20
334.762063
 11
95.055446
 21
334.762063
  0
LINE
  5
43E
100
AcDbEntity
  8
M0
 62
     7
100
AcDbLine
 10
95.055446
 20
336.762063
 11
95.055446
 21
334.762063
  0
LINE
  5
43F
100
AcDbEntity
  8
M0
 62
     7
100
AcDbLine
 10
83.455446
 20
334.762063
 11
87.005446
 21
334.762063
  0
LINE
  5
440
100
AcDbEntity
  8
M0
 62
     7
100
AcDbLine
 10
72.655446
 20
347.762063
 11
72.655446
 21
334.762063
  0
LINE
  5
441
100
AcDbEntity
  8
M0
 62
     7
100
AcDbLine
 10
69.105446
 20
334.762063
 11
72.655446
 21
334.762063
  0
LINE
  5
442
100
AcDbEntity
  8
M0
 62
     7
100
AcDbLine
 10
71.155446
 20
338.262063
 11
71.155446
 21
347.262063
  0
LINE
  5
443
100
AcDbEntity
  8
M0
 62
     7
100
AcDbLine
 10
84.955446
 20
347.262063
 11
84.955446
 21
338.262063
  0
LINE
  5
444
100
AcDbEntity
  8
M0
 62
     7
100
AcDbLine
 10
72.655446
 20
338.262063
 11
61.055446
 21
338.262063
  0
LINE
  5
445
100
AcDbEntity
  8
M0
 62
     7
100
AcDbLine
 10
72.655446
 20
336.762063
 11
61.055446
 21
336.762063
  0
LINE
  5
446
100
AcDbEntity
  8
M0
 62
     7
100
AcDbLine
 10
61.055446
 20
334.762063
 11
66.805446
 21
334.762063
  0
LINE
  5
447
100
AcDbEntity
  8
M0
 62
     7
100
AcDbLine
 10
83.455446
 20
334.762063
 11
83.455446
 21
347.762063
  0
LINE
  5
448
100
AcDbEntity
  8
M0
 62
     7
100
AcDbLine
 10
95.055446
 20
338.262063
 11
95.055446
 21
336.762063
  0
LINE
  5
449
100
AcDbEntity
  8
M0
 62
     7
100
AcDbLine
 10
95.055446
 20
336.762063
 11
83.455446
 21
336.762063
  0
LINE
  5
44A
100
AcDbEntity
  8
M0
 62
     7
100
AcDbLine
 10
83.455446
 20
338.262063
 11
95.055446
 21
338.262063
  0
LINE
  5
44B
100
AcDbEntity
  8
M0
 62
     7
100
AcDbLine
 10
92.455446
 20
346.762063
 11
84.955446
 21
346.762063
  0
ARC
  5
44C
100
AcDbEntity
  8
M0
 62
     7
100
AcDbCircle
 10
83.605446
 20
309.162063
 40
0.5
100
AcDbArc
 50
180.0
 51
270.0
  0
ARC
  5
44D
100
AcDbEntity
  8
M0
 62
     7
100
AcDbCircle
 10
72.505446
 20
309.162063
 40
0.5
100
AcDbArc
 50
270.0
 51
360.0
  0
ARC
  5
44E
100
AcDbEntity
  8
M0
 62
     7
100
AcDbCircle
 10
84.305446
 20
314.862063
 40
1.2
100
AcDbArc
 50
90.0
 51
180.0
  0
ARC
  5
44F
100
AcDbEntity
  8
M0
 62
     7
100
AcDbCircle
 10
71.805446
 20
314.862063
 40
1.2
100
AcDbArc
 50
0.0
 51
90.0
  0
ARC
  5
450
100
AcDbEntity
  8
M0
 62
     7
100
AcDbCircle
 10
69.855446
 20
315.062063
 40
1.0
100
AcDbArc
 50
90.0
 51
180.0
  0
ARC
  5
451
100
AcDbEntity
  8
M0
 62
     7
100
AcDbCircle
 10
86.255446
 20
315.062063
 40
1.0
100
AcDbArc
 50
0.0
 51
90.0
  0
ARC
  5
452
100
AcDbEntity
  8
M0
 62
     7
100
AcDbCircle
 10
86.255446
 20
293.862063
 40
1.0
100
AcDbArc
 50
270.0
 51
360.0
  0
ARC
  5
453
100
AcDbEntity
  8
M0
 62
     7
100
AcDbCircle
 10
69.855446
 20
296.362063
 40
1.0
100
AcDbArc
 50
90.0
 51
180.0
  0
ARC
  5
454
100
AcDbEntity
  8
M0
 62
     7
100
AcDbCircle
 10
69.855446
 20
293.862063
 40
1.0
100
AcDbArc
 50
180.0
 51
270.0
  0
LINE
  5
455
100
AcDbEntity
  8
M0
 62
     7
100
AcDbLine
 10
83.605446
 20
293.362063
 11
83.605446
 21
301.212063
  0
LINE
  5
456
100
AcDbEntity
  8
M0
 62
     7
100
AcDbLine
 10
72.505446
 20
293.362063
 11
72.505446
 21
301.212063
  0
LINE
  5
457
100
AcDbEntity
  8
M0
 62
     7
100
AcDbLine
 10
83.605446
 20
301.212063
 11
83.855446
 21
301.712063
  0
LINE
  5
458
100
AcDbEntity
  8
M0
 62
     7
100
AcDbLine
 10
72.505446
 20
301.212063
 11
72.255446
 21
301.712063
  0
LINE
  5
459
100
AcDbEntity
  8
M0
 62
     7
100
AcDbLine
 10
86.255446
 20
292.862063
 11
84.105446
 21
292.862063
  0
ARC
  5
45A
100
AcDbEntity
  8
M0
 62
     7
100
AcDbCircle
 10
86.255446
 20
296.362063
 40
1.0
100
AcDbArc
 50
0.0
 51
90.0
  0
LINE
  5
45B
100
AcDbEntity
  8
M0
 62
     7
100
AcDbLine
 10
87.255446
 20
296.362063
 11
87.255446
 21
293.862063
  0
LINE
  5
45C
100
AcDbEntity
  8
M0
 62
     7
100
AcDbLine
 10
85.755446
 20
297.362063
 11
86.255446
 21
297.362063
  0
LINE
  5
45D
100
AcDbEntity
  8
M0
 62
     7
100
AcDbLine
 10
68.855446
 20
296.362063
 11
68.855446
 21
293.862063
  0
LINE
  5
45E
100
AcDbEntity
  8
M0
 62
     7
100
AcDbLine
 10
70.355446
 20
297.362063
 11
69.855446
 21
297.362063
  0
LINE
  5
45F
100
AcDbEntity
  8
M0
 62
     7
100
AcDbLine
 10
96.205446
 20
279.212063
 11
96.205446
 21
278.162063
  0
LINE
  5
460
100
AcDbEntity
  8
M0
 62
     7
100
AcDbLine
 10
96.205446
 20
278.162063
 11
90.205446
 21
278.162063
  0
LINE
  5
461
100
AcDbEntity
  8
M0
 62
     7
100
AcDbLine
 10
70.005446
 20
278.162063
 11
70.005446
 21
279.212063
  0
LINE
  5
462
100
AcDbEntity
  8
M0
 62
     7
100
AcDbLine
 10
76.005446
 20
278.162063
 11
70.005446
 21
278.162063
  0
LINE
  5
463
100
AcDbEntity
  8
M0
 62
     7
100
AcDbLine
 10
76.005446
 20
279.162063
 11
76.005446
 21
278.162063
  0
LINE
  5
464
100
AcDbEntity
  8
M0
 62
     7
100
AcDbLine
 10
90.205446
 20
278.162063
 11
90.205446
 21
279.212063
  0
LINE
  5
465
100
AcDbEntity
  8
M0
 62
     7
100
AcDbLine
 10
80.105446
 20
328.512063
 11
80.105446
 21
329.562063
  0
LINE
  5
466
100
AcDbEntity
  8
M0
 62
     7
100
AcDbLine
 10
69.855446
 20
316.062063
 11
71.805446
 21
316.062063
  0
LINE
  5
467
100
AcDbEntity
  8
M0
 62
     7
100
AcDbLine
 10
86.105446
 20
329.562063
 11
86.105446
 21
328.512063
  0
LINE
  5
468
100
AcDbEntity
  8
M0
 62
     7
100
AcDbLine
 10
85.105446
 20
316.062063
 11
85.105446
 21
316.162063
  0
LINE
  5
469
100
AcDbEntity
  8
M0
 62
     7
100
AcDbLine
 10
80.105446
 20
329.562063
 11
86.105446
 21
329.562063
  0
LINE
  5
46A
100
AcDbEntity
  8
M0
 62
     7
100
AcDbLine
 10
68.855446
 20
315.062063
 11
68.855446
 21
309.962063
  0
LINE
  5
46B
100
AcDbEntity
  8
M0
 62
     7
100
AcDbLine
 10
87.255446
 20
315.062063
 11
87.255446
 21
309.962063
  0
LINE
  5
46C
100
AcDbEntity
  8
M0
 62
     7
100
AcDbLine
 10
73.005446
 20
309.162063
 11
73.005446
 21
314.862063
  0
LINE
  5
46D
100
AcDbEntity
  8
M0
 62
     7
100
AcDbLine
 10
65.905446
 20
329.562063
 11
65.905446
 21
328.512063
  0
LINE
  5
46E
100
AcDbEntity
  8
M0
 62
     7
100
AcDbLine
 10
59.905446
 20
328.512063
 11
59.905446
 21
329.562063
  0
LINE
  5
46F
100
AcDbEntity
  8
M0
 62
     7
100
AcDbLine
 10
84.305446
 20
316.062063
 11
86.255446
 21
316.062063
  0
LINE
  5
470
100
AcDbEntity
  8
M0
 62
     7
100
AcDbLine
 10
83.855446
 20
307.212063
 11
83.605446
 21
307.712063
  0
LINE
  5
471
100
AcDbEntity
  8
M0
 62
     7
100
AcDbLine
 10
70.355446
 20
308.462063
 11
70.355446
 21
297.362063
  0
LINE
  5
472
100
AcDbEntity
  8
M0
 62
     7
100
AcDbLine
 10
85.755446
 20
308.462063
 11
85.755446
 21
297.362063
  0
LINE
  5
473
100
AcDbEntity
  8
M0
 62
     7
100
AcDbLine
 10
72.255446
 20
301.712063
 11
72.255446
 21
307.212063
  0
LINE
  5
474
100
AcDbEntity
  8
M0
 62
     7
100
AcDbLine
 10
83.855446
 20
301.712063
 11
83.855446
 21
307.212063
  0
LINE
  5
475
100
AcDbEntity
  8
M0
 62
     7
100
AcDbLine
 10
68.855446
 20
309.962063
 11
70.355446
 21
308.462063
  0
LINE
  5
476
100
AcDbEntity
  8
M0
 62
     7
100
AcDbLine
 10
87.255446
 20
309.962063
 11
85.755446
 21
308.462063
  0
LINE
  5
477
100
AcDbEntity
  8
M0
 62
     7
100
AcDbLine
 10
83.105446
 20
309.162063
 11
83.105446
 21
314.862063
  0
LINE
  5
478
100
AcDbEntity
  8
M0
 62
     7
100
AcDbLine
 10
72.255446
 20
307.212063
 11
72.505446
 21
307.712063
  0
LINE
  5
479
100
AcDbEntity
  8
M0
 62
     7
100
AcDbLine
 10
72.505446
 20
307.712063
 11
72.505446
 21
308.662063
  0
LINE
  5
47A
100
AcDbEntity
  8
M0
 62
     7
100
AcDbLine
 10
83.605446
 20
307.712063
 11
83.605446
 21
308.662063
  0
LINE
  5
47B
100
AcDbEntity
  8
M0
 62
     7
100
AcDbLine
 10
97.455446
 20
287.662063
 11
97.455446
 21
299.612063
  0
LINE
  5
47C
100
AcDbEntity
  8
M0
 62
     7
100
AcDbLine
 10
97.605446
 20
287.162063
 11
58.505446
 21
287.162063
  0
LINE
  5
47D
100
AcDbEntity
  8
M0
 62
     7
100
AcDbLine
 10
94.555446
 20
300.112063
 11
96.955446
 21
300.112063
  0
LINE
  5
47E
100
AcDbEntity
  8
M0
 62
     7
100
AcDbLine
 10
59.155446
 20
300.112063
 11
61.555446
 21
300.112063
  0
LINE
  5
47F
100
AcDbEntity
  8
M0
 62
     7
100
AcDbLine
 10
58.655446
 20
287.662063
 11
58.655446
 21
299.612063
  0
LINE
  5
480
100
AcDbEntity
  8
M0
 62
     7
100
AcDbLine
 10
94.055446
 20
307.112063
 11
94.055446
 21
300.612063
  0
LINE
  5
481
100
AcDbEntity
  8
M0
 62
     7
100
AcDbLine
 10
96.955446
 20
320.562063
 11
97.105446
 21
320.562063
  0
LINE
  5
482
100
AcDbEntity
  8
M0
 62
     7
100
AcDbLine
 10
59.155446
 20
320.562063
 11
59.005446
 21
320.562063
  0
LINE
  5
483
100
AcDbEntity
  8
M0
 62
     7
100
AcDbLine
 10
81.055446
 20
317.462063
 11
75.055446
 21
317.462063
  0
LINE
  5
484
100
AcDbEntity
  8
M0
 62
     7
100
AcDbLine
 10
75.055446
 20
317.462063
 11
75.055446
 21
315.862063
  0
LINE
  5
485
100
AcDbEntity
  8
M0
 62
     7
100
AcDbLine
 10
81.055446
 20
315.862063
 11
81.055446
 21
317.462063
  0
ARC
  5
486
100
AcDbEntity
  8
M0
 62
     7
100
AcDbCircle
 10
75.505446
 20
292.362063
 40
0.5
100
AcDbArc
 50
90.0
 51
126.869898
  0
LINE
  5
487
100
AcDbEntity
  8
M0
 62
     7
100
AcDbLine
 10
68.755446
 20
293.762063
 11
68.755446
 21
315.162063
  0
ARC
  5
488
100
AcDbEntity
  8
M0
 62
     7
100
AcDbCircle
 10
70.505446
 20
292.362063
 40
0.5
100
AcDbArc
 50
53.130102
 51
90.0
  0
LINE
  5
489
100
AcDbEntity
  8
M0
 62
     7
100
AcDbLine
 10
96.955446
 20
307.612063
 11
94.555446
 21
307.612063
  0
LINE
  5
48A
100
AcDbEntity
  8
M0
 62
     7
100
AcDbLine
 10
62.055446
 20
300.612063
 11
62.055446
 21
307.112063
  0
LINE
  5
48B
100
AcDbEntity
  8
M0
 62
     7
100
AcDbLine
 10
97.455446
 20
320.062063
 11
97.455446
 21
308.112063
  0
LINE
  5
48C
100
AcDbEntity
  8
M0
 62
     7
100
AcDbLine
 10
61.555446
 20
307.612063
 11
59.155446
 21
307.612063
  0
LINE
  5
48D
100
AcDbEntity
  8
M0
 62
     7
100
AcDbLine
 10
75.055446
 20
315.862063
 11
81.055446
 21
315.862063
  0
LINE
  5
48E
100
AcDbEntity
  8
M0
 62
     7
100
AcDbLine
 10
96.955446
 20
287.162063
 11
97.105446
 21
287.162063
  0
LINE
  5
48F
100
AcDbEntity
  8
M0
 62
     7
100
AcDbLine
 10
59.155446
 20
287.162063
 11
59.005446
 21
287.162063
  0
LINE
  5
490
100
AcDbEntity
  8
M0
 62
     7
100
AcDbLine
 10
97.502814
 20
312.612063
 11
97.455446
 21
312.612063
  0
LINE
  5
491
100
AcDbEntity
  8
M0
 62
     7
100
AcDbLine
 10
58.608077
 20
312.612063
 11
58.655446
 21
312.612063
  0
LINE
  5
492
100
AcDbEntity
  8
M0
 62
     7
100
AcDbLine
 10
97.502814
 20
310.112063
 11
97.455446
 21
310.112063
  0
LINE
  5
493
100
AcDbEntity
  8
M0
 62
     7
100
AcDbLine
 10
58.608077
 20
310.112063
 11
58.655446
 21
310.112063
  0
LINE
  5
494
100
AcDbEntity
  8
M0
 62
     7
100
AcDbLine
 10
65.905446
 20
278.162063
 11
59.905446
 21
278.162063
  0
LINE
  5
495
100
AcDbEntity
  8
M0
 62
     7
100
AcDbLine
 10
59.905446
 20
278.162063
 11
59.905446
 21
279.212063
  0
LINE
  5
496
100
AcDbEntity
  8
M0
 62
     7
100
AcDbLine
 10
65.905446
 20
279.212063
 11
65.905446
 21
278.162063
  0
LINE
  5
497
100
AcDbEntity
  8
M0
 62
     7
100
AcDbLine
 10
71.005446
 20
316.162063
 11
71.005446
 21
316.062063
  0
LINE
  5
498
100
AcDbEntity
  8
M0
 62
     7
100
AcDbLine
 10
70.005446
 20
328.512063
 11
70.005446
 21
329.562063
  0
LINE
  5
499
100
AcDbEntity
  8
M0
 62
     7
100
AcDbLine
 10
70.005446
 20
329.562063
 11
76.005446
 21
329.562063
  0
LINE
  5
49A
100
AcDbEntity
  8
M0
 62
     7
100
AcDbLine
 10
76.005446
 20
329.562063
 11
76.005446
 21
328.512063
  0
LINE
  5
49B
100
AcDbEntity
  8
M0
 62
     7
100
AcDbLine
 10
90.205446
 20
328.562063
 11
90.205446
 21
329.562063
  0
LINE
  5
49C
100
AcDbEntity
  8
M0
 62
     7
100
AcDbLine
 10
96.205446
 20
329.562063
 11
96.205446
 21
328.562063
  0
LINE
  5
49D
100
AcDbEntity
  8
M0
 62
     7
100
AcDbLine
 10
90.205446
 20
329.562063
 11
96.205446
 21
329.562063
  0
LINE
  5
49E
100
AcDbEntity
  8
M0
  6
DASHDOT
 62
     7
100
AcDbLine
 10
78.055446
 20
264.981965
 11
78.055446
 21
350.084071
  0
LINE
  5
49F
100
AcDbEntity
  8
M0
  6
DASHDOT
 62
     7
100
AcDbLine
 10
89.305446
 20
277.762063
 11
97.805446
 21
277.762063
  0
LINE
  5
4A0
100
AcDbEntity
  8
M0
  6
DASHDOT
 62
     7
100
AcDbLine
 10
93.555446
 20
273.512063
 11
93.555446
 21
282.012063
  0
LINE
  5
4A1
100
AcDbEntity
  8
M0
  6
DASHDOT
 62
     7
100
AcDbLine
 10
72.505446
 20
271.362063
 11
73.505446
 21
271.362063
  0
LINE
  5
4A2
100
AcDbEntity
  8
M0
  6
DASHDOT
 62
     7
100
AcDbLine
 10
73.005446
 20
270.862063
 11
73.005446
 21
271.862063
  0
LINE
  5
4A3
100
AcDbEntity
  8
M0
  6
DASHDOT
 62
     7
100
AcDbLine
 10
72.505446
 20
282.962063
 11
73.505446
 21
282.962063
  0
LINE
  5
4A4
100
AcDbEntity
  8
M0
  6
DASHDOT
 62
     7
100
AcDbLine
 10
73.005446
 20
282.462063
 11
73.005446
 21
283.462063
  0
LINE
  5
4A5
100
AcDbEntity
  8
M0
  6
DASHDOT
 62
     7
100
AcDbLine
 10
82.605446
 20
282.962063
 11
83.605446
 21
282.962063
  0
LINE
  5
4A6
100
AcDbEntity
  8
M0
  6
DASHDOT
 62
     7
100
AcDbLine
 10
83.105446
 20
282.462063
 11
83.105446
 21
283.462063
  0
LINE
  5
4A7
100
AcDbEntity
  8
M0
  6
DASHDOT
 62
     7
100
AcDbLine
 10
92.705446
 20
282.962063
 11
93.705446
 21
282.962063
  0
LINE
  5
4A8
100
AcDbEntity
  8
M0
  6
DASHDOT
 62
     7
100
AcDbLine
 10
93.205446
 20
282.462063
 11
93.205446
 21
283.462063
  0
LINE
  5
4A9
100
AcDbEntity
  8
M0
  6
DASHDOT
 62
     7
100
AcDbLine
 10
92.705446
 20
324.762063
 11
93.705446
 21
324.762063
  0
LINE
  5
4AA
100
AcDbEntity
  8
M0
  6
DASHDOT
 62
     7
100
AcDbLine
 10
93.205446
 20
324.262063
 11
93.205446
 21
325.262063
  0
LINE
  5
4AB
100
AcDbEntity
  8
M0
  6
DASHDOT
 62
     7
100
AcDbLine
 10
82.605446
 20
324.762063
 11
83.605446
 21
324.762063
  0
LINE
  5
4AC
100
AcDbEntity
  8
M0
  6
DASHDOT
 62
     7
100
AcDbLine
 10
83.105446
 20
324.262063
 11
83.105446
 21
325.262063
  0
LINE
  5
4AD
100
AcDbEntity
  8
M0
  6
DASHDOT
 62
     7
100
AcDbLine
 10
72.505446
 20
324.762063
 11
73.505446
 21
324.762063
  0
LINE
  5
4AE
100
AcDbEntity
  8
M0
  6
DASHDOT
 62
     7
100
AcDbLine
 10
73.005446
 20
324.262063
 11
73.005446
 21
325.262063
  0
LINE
  5
4AF
100
AcDbEntity
  8
M0
  6
DASHDOT
 62
     7
100
AcDbLine
 10
62.405446
 20
324.762063
 11
63.405446
 21
324.762063
  0
LINE
  5
4B0
100
AcDbEntity
  8
M0
  6
DASHDOT
 62
     7
100
AcDbLine
 10
62.905446
 20
324.262063
 11
62.905446
 21
325.262063
  0
LINE
  5
4B1
100
AcDbEntity
  8
M0
  6
DASHDOT
 62
     7
100
AcDbLine
 10
66.655446
 20
342.362063
 11
67.655446
 21
342.362063
  0
LINE
  5
4B2
100
AcDbEntity
  8
M0
  6
DASHDOT
 62
     7
100
AcDbLine
 10
67.155446
 20
341.862063
 11
67.155446
 21
342.862063
  0
LINE
  5
4B3
100
AcDbEntity
  8
M0
  6
DASHDOT
 62
     7
100
AcDbLine
 10
88.455446
 20
342.362063
 11
89.455446
 21
342.362063
  0
LINE
  5
4B4
100
AcDbEntity
  8
M0
  6
DASHDOT
 62
     7
100
AcDbLine
 10
88.955446
 20
341.862063
 11
88.955446
 21
342.862063
  0
LINE
  5
4B5
100
AcDbEntity
  8
M0
  6
DASHDOT
 62
     7
100
AcDbLine
 10
62.405446
 20
282.962063
 11
63.405446
 21
282.962063
  0
LINE
  5
4B6
100
AcDbEntity
  8
M0
  6
DASHDOT
 62
     7
100
AcDbLine
 10
62.905446
 20
282.462063
 11
62.905446
 21
283.462063
  0
LINE
  5
4B7
100
AcDbEntity
  8
M0
  6
DASHDOT
 62
     7
100
AcDbLine
 10
77.555446
 20
341.962063
 11
78.555446
 21
341.962063
  0
LINE
  5
4B8
100
AcDbEntity
  8
M0
 62
     7
100
AcDbLine
 10
77.605446
 20
340.762063
 11
78.505446
 21
340.762063
  0
LINE
  5
4B9
100
AcDbEntity
  8
M0
 62
     7
100
AcDbLine
 10
77.605446
 20
341.512063
 11
77.605446
 21
340.762063
  0
LINE
  5
4BA
100
AcDbEntity
  8
M0
 62
     7
100
AcDbLine
 10
78.505446
 20
340.762063
 11
78.505446
 21
341.512063
  0
LINE
  5
4BB
100
AcDbEntity
  8
M0
  6
DASHDOT
 62
     7
100
AcDbLine
 10
77.555446
 20
341.962063
 11
78.555446
 21
341.962063
  0
LINE
  5
4BC
100
AcDbEntity
  8
M0
 62
     7
100
AcDbLine
 10
77.605446
 20
341.512063
 11
76.855446
 21
341.512063
  0
LINE
  5
4BD
100
AcDbEntity
  8
M0
 62
     7
100
AcDbLine
 10
76.855446
 20
342.412063
 11
77.605446
 21
342.412063
  0
LINE
  5
4BE
100
AcDbEntity
  8
M0
 62
     7
100
AcDbLine
 10
77.605446
 20
343.162063
 11
77.605446
 21
342.412063
  0
CIRCLE
  5
4BF
100
AcDbEntity
  8
M0
 62
     7
100
AcDbCircle
 10
78.055446
 20
341.962063
 40
2.85
  0
LINE
  5
4C0
100
AcDbEntity
  8
M0
 62
     7
100
AcDbLine
 10
78.505446
 20
343.162063
 11
77.605446
 21
343.162063
  0
LINE
  5
4C1
100
AcDbEntity
  8
M0
 62
     7
100
AcDbLine
 10
79.255446
 20
341.512063
 11
78.505446
 21
341.512063
  0
LINE
  5
4C2
100
AcDbEntity
  8
M0
 62
     7
100
AcDbLine
 10
78.505446
 20
342.412063
 11
78.505446
 21
343.162063
  0
LINE
  5
4C3
100
AcDbEntity
  8
M0
 62
     7
100
AcDbLine
 10
78.505446
 20
342.412063
 11
79.255446
 21
342.412063
  0
CIRCLE
  5
4C4
100
AcDbEntity
  8
M0
 62
     7
100
AcDbCircle
 10
88.955446
 20
342.362063
 40
3.0
  0
CIRCLE
  5
4C5
100
AcDbEntity
  8
M0
 62
     7
100
AcDbCircle
 10
93.205446
 20
324.762063
 40
3.0
  0
CIRCLE
  5
4C6
100
AcDbEntity
  8
M0
 62
     7
100
AcDbCircle
 10
83.105446
 20
324.762063
 40
3.0
  0
CIRCLE
  5
4C7
100
AcDbEntity
  8
M0
 62
     7
100
AcDbCircle
 10
73.005446
 20
324.762063
 40
3.0
  0
CIRCLE
  5
4C8
100
AcDbEntity
  8
M0
 62
     7
100
AcDbCircle
 10
62.905446
 20
324.762063
 40
3.0
  0
CIRCLE
  5
4C9
100
AcDbEntity
  8
M0
 62
     7
100
AcDbCircle
 10
83.105446
 20
282.962063
 40
3.0
  0
CIRCLE
  5
4CA
100
AcDbEntity
  8
M0
 62
     7
100
AcDbCircle
 10
62.905446
 20
282.962063
 40
3.0
  0
LINE
  5
4CB
100
AcDbEntity
  8
M0
 62
     7
100
AcDbLine
 10
150.455446
 20
287.662063
 11
150.455446
 21
299.612063
  0
LINE
  5
4CC
100
AcDbEntity
  8
M0
 62
     7
100
AcDbLine
 10
136.605446
 20
307.712063
 11
136.605446
 21
308.662063
  0
LINE
  5
4CD
100
AcDbEntity
  8
M0
 62
     7
100
AcDbLine
 10
147.555446
 20
300.112063
 11
149.955446
 21
300.112063
  0
LINE
  5
4CE
100
AcDbEntity
  8
M0
 62
     7
100
AcDbLine
 10
150.605446
 20
287.162063
 11
111.505446
 21
287.162063
  0
LINE
  5
4CF
100
AcDbEntity
  8
M0
 62
     7
100
AcDbLine
 10
112.155446
 20
300.112063
 11
114.555446
 21
300.112063
  0
LINE
  5
4D0
100
AcDbEntity
  8
M0
 62
     7
100
AcDbLine
 10
140.255446
 20
309.962063
 11
138.755446
 21
308.462063
  0
LINE
  5
4D1
100
AcDbEntity
  8
M0
 62
     7
100
AcDbLine
 10
121.855446
 20
309.962063
 11
123.355446
 21
308.462063
  0
LINE
  5
4D2
100
AcDbEntity
  8
M0
 62
     7
100
AcDbLine
 10
125.255446
 20
307.212063
 11
125.505446
 21
307.712063
  0
LINE
  5
4D3
100
AcDbEntity
  8
M0
 62
     7
100
AcDbLine
 10
136.105446
 20
309.162063
 11
136.105446
 21
314.862063
  0
LINE
  5
4D4
100
AcDbEntity
  8
M0
 62
     7
100
AcDbLine
 10
125.505446
 20
307.712063
 11
125.505446
 21
308.662063
  0
LINE
  5
4D5
100
AcDbEntity
  8
M0
 62
     7
100
AcDbLine
 10
134.055446
 20
315.862063
 11
134.055446
 21
317.462063
  0
LINE
  5
4D6
100
AcDbEntity
  8
M0
 62
     7
100
AcDbLine
 10
128.055446
 20
317.462063
 11
128.055446
 21
315.862063
  0
LINE
  5
4D7
100
AcDbEntity
  8
M0
 62
     7
100
AcDbLine
 10
149.955446
 20
307.612063
 11
147.555446
 21
307.612063
  0
LINE
  5
4D8
100
AcDbEntity
  8
M0
 62
     7
100
AcDbLine
 10
121.755446
 20
293.762063
 11
121.755446
 21
315.162063
  0
LINE
  5
4D9
100
AcDbEntity
  8
M0
 62
     7
100
AcDbLine
 10
115.055446
 20
300.612063
 11
115.055446
 21
307.112063
  0
LINE
  5
4DA
100
AcDbEntity
  8
M0
 62
     7
100
AcDbLine
 10
147.055446
 20
307.112063
 11
147.055446
 21
300.612063
  0
LINE
  5
4DB
100
AcDbEntity
  8
M0
 62
     7
100
AcDbLine
 10
111.655446
 20
287.662063
 11
111.655446
 21
299.612063
  0
LINE
  5
4DC
100
AcDbEntity
  8
M0
 62
     7
100
AcDbLine
 10
112.155446
 20
320.562063
 11
112.005446
 21
320.562063
  0
LINE
  5
4DD
100
AcDbEntity
  8
M0
 62
     7
100
AcDbLine
 10
149.955446
 20
320.562063
 11
150.105446
 21
320.562063
  0
LINE
  5
4DE
100
AcDbEntity
  8
M0
 62
     7
100
AcDbLine
 10
134.055446
 20
317.462063
 11
128.055446
 21
317.462063
  0
LINE
  5
4DF
100
AcDbEntity
  8
M0
 62
     7
100
AcDbLine
 10
139.105446
 20
329.562063
 11
139.105446
 21
328.512063
  0
LINE
  5
4E0
100
AcDbEntity
  8
M0
 62
     7
100
AcDbLine
 10
122.855446
 20
316.062063
 11
124.805446
 21
316.062063
  0
LINE
  5
4E1
100
AcDbEntity
  8
M0
 62
     7
100
AcDbLine
 10
133.105446
 20
329.562063
 11
139.105446
 21
329.562063
  0
LINE
  5
4E2
100
AcDbEntity
  8
M0
 62
     7
100
AcDbLine
 10
138.105446
 20
316.062063
 11
138.105446
 21
316.162063
  0
LINE
  5
4E3
100
AcDbEntity
  8
M0
 62
     7
100
AcDbLine
 10
121.855446
 20
315.062063
 11
121.855446
 21
309.962063
  0
LINE
  5
4E4
100
AcDbEntity
  8
M0
 62
     7
100
AcDbLine
 10
129.005446
 20
278.162063
 11
123.005446
 21
278.162063
  0
LINE
  5
4E5
100
AcDbEntity
  8
M0
 62
     7
100
AcDbLine
 10
123.005446
 20
278.162063
 11
123.005446
 21
279.212063
  0
LINE
  5
4E6
100
AcDbEntity
  8
M0
 62
     7
100
AcDbLine
 10
143.205446
 20
278.162063
 11
143.205446
 21
279.212063
  0
LINE
  5
4E7
100
AcDbEntity
  8
M0
 62
     7
100
AcDbLine
 10
129.005446
 20
279.162063
 11
129.005446
 21
278.162063
  0
LINE
  5
4E8
100
AcDbEntity
  8
M0
 62
     7
100
AcDbLine
 10
133.105446
 20
328.512063
 11
133.105446
 21
329.562063
  0
LINE
  5
4E9
100
AcDbEntity
  8
M0
 62
     7
100
AcDbLine
 10
123.355446
 20
308.462063
 11
123.355446
 21
297.362063
  0
LINE
  5
4EA
100
AcDbEntity
  8
M0
 62
     7
100
AcDbLine
 10
136.855446
 20
307.212063
 11
136.605446
 21
307.712063
  0
LINE
  5
4EB
100
AcDbEntity
  8
M0
 62
     7
100
AcDbLine
 10
125.255446
 20
301.712063
 11
125.255446
 21
307.212063
  0
LINE
  5
4EC
100
AcDbEntity
  8
M0
 62
     7
100
AcDbLine
 10
138.755446
 20
308.462063
 11
138.755446
 21
297.362063
  0
LINE
  5
4ED
100
AcDbEntity
  8
M0
 62
     7
100
AcDbLine
 10
136.855446
 20
301.712063
 11
136.855446
 21
307.212063
  0
LINE
  5
4EE
100
AcDbEntity
  8
M0
 62
     7
100
AcDbLine
 10
126.005446
 20
309.162063
 11
126.005446
 21
314.862063
  0
LINE
  5
4EF
100
AcDbEntity
  8
M0
 62
     7
100
AcDbLine
 10
140.255446
 20
315.062063
 11
140.255446
 21
309.962063
  0
LINE
  5
4F0
100
AcDbEntity
  8
M0
 62
     7
100
AcDbLine
 10
112.905446
 20
328.512063
 11
112.905446
 21
329.562063
  0
LINE
  5
4F1
100
AcDbEntity
  8
M0
 62
     7
100
AcDbLine
 10
118.905446
 20
329.562063
 11
118.905446
 21
328.512063
  0
LINE
  5
4F2
100
AcDbEntity
  8
M0
 62
     7
100
AcDbLine
 10
135.455446
 20
313.962063
 11
126.655446
 21
313.962063
  0
LINE
  5
4F3
100
AcDbEntity
  8
M0
 62
     7
100
AcDbLine
 10
125.155446
 20
316.162063
 11
122.755446
 21
316.162063
  0
LINE
  5
4F4
100
AcDbEntity
  8
M0
 62
     7
100
AcDbLine
 10
135.955446
 20
314.462063
 11
135.955446
 21
315.162063
  0
LINE
  5
4F5
100
AcDbEntity
  8
M0
 62
     7
100
AcDbLine
 10
136.955446
 20
316.162063
 11
139.355446
 21
316.162063
  0
LINE
  5
4F6
100
AcDbEntity
  8
M0
 62
     7
100
AcDbLine
 10
140.355446
 20
293.762063
 11
140.355446
 21
315.162063
  0
LINE
  5
4F7
100
AcDbEntity
  8
M0
 62
     7
100
AcDbLine
 10
139.355446
 20
292.762063
 11
122.755446
 21
292.762063
  0
LINE
  5
4F8
100
AcDbEntity
  8
M0
 62
     7
100
AcDbLine
 10
111.655446
 20
320.062063
 11
111.655446
 21
308.112063
  0
LINE
  5
4F9
100
AcDbEntity
  8
M0
 62
     7
100
AcDbLine
 10
135.355446
 20
346.762063
 11
136.455446
 21
346.762063
  0
LINE
  5
4FA
100
AcDbEntity
  8
M0
 62
     7
100
AcDbLine
 10
125.655446
 20
346.762063
 11
126.755446
 21
346.762063
  0
LINE
  5
4FB
100
AcDbEntity
  8
M0
 62
     7
100
AcDbLine
 10
126.155446
 20
314.462063
 11
126.155446
 21
315.162063
  0
LINE
  5
4FC
100
AcDbEntity
  8
M0
 62
     7
100
AcDbLine
 10
125.655446
 20
347.762063
 11
125.655446
 21
334.762063
  0
LINE
  5
4FD
100
AcDbEntity
  8
M0
 62
     7
100
AcDbLine
 10
136.455446
 20
334.762063
 11
140.005446
 21
334.762063
  0
LINE
  5
4FE
100
AcDbEntity
  8
M0
 62
     7
100
AcDbLine
 10
124.155446
 20
338.262063
 11
124.155446
 21
347.262063
  0
LINE
  5
4FF
100
AcDbEntity
  8
M0
 62
     7
100
AcDbLine
 10
122.105446
 20
334.762063
 11
125.655446
 21
334.762063
  0
LINE
  5
500
100
AcDbEntity
  8
M0
 62
     7
100
AcDbLine
 10
137.955446
 20
347.262063
 11
137.955446
 21
338.262063
  0
LINE
  5
501
100
AcDbEntity
  8
M0
 62
     7
100
AcDbLine
 10
139.105446
 20
279.162063
 11
139.105446
 21
278.162063
  0
LINE
  5
502
100
AcDbEntity
  8
M0
 62
     7
100
AcDbLine
 10
133.105446
 20
278.162063
 11
133.105446
 21
279.162063
  0
LINE
  5
503
100
AcDbEntity
  8
M0
 62
     7
100
AcDbLine
 10
142.305446
 20
334.762063
 11
148.055446
 21
334.762063
  0
LINE
  5
504
100
AcDbEntity
  8
M0
 62
     7
100
AcDbLine
 10
139.105446
 20
278.162063
 11
133.105446
 21
278.162063
  0
LINE
  5
505
100
AcDbEntity
  8
M0
 62
     7
100
AcDbLine
 10
148.055446
 20
336.762063
 11
148.055446
 21
334.762063
  0
LINE
  5
506
100
AcDbEntity
  8
M0
 62
     7
100
AcDbLine
 10
150.502814
 20
312.612063
 11
150.455446
 21
312.612063
  0
LINE
  5
507
100
AcDbEntity
  8
M0
 62
     7
100
AcDbLine
 10
112.155446
 20
287.162063
 11
112.005446
 21
287.162063
  0
LINE
  5
508
100
AcDbEntity
  8
M0
 62
     7
100
AcDbLine
 10
150.502814
 20
310.112063
 11
150.455446
 21
310.112063
  0
LINE
  5
509
100
AcDbEntity
  8
M0
 62
     7
100
AcDbLine
 10
111.608077
 20
312.612063
 11
111.655446
 21
312.612063
  0
LINE
  5
50A
100
AcDbEntity
  8
M0
 62
     7
100
AcDbLine
 10
111.608077
 20
310.112063
 11
111.655446
 21
310.112063
  0
LINE
  5
50B
100
AcDbEntity
  8
M0
 62
     7
100
AcDbLine
 10
150.455446
 20
320.062063
 11
150.455446
 21
308.112063
  0
LINE
  5
50C
100
AcDbEntity
  8
M0
 62
     7
100
AcDbLine
 10
137.305446
 20
316.062063
 11
139.255446
 21
316.062063
  0
LINE
  5
50D
100
AcDbEntity
  8
M0
 62
     7
100
AcDbLine
 10
128.055446
 20
315.862063
 11
134.055446
 21
315.862063
  0
LINE
  5
50E
100
AcDbEntity
  8
M0
 62
     7
100
AcDbLine
 10
114.555446
 20
307.612063
 11
112.155446
 21
307.612063
  0
LINE
  5
50F
100
AcDbEntity
  8
M0
 62
     7
100
AcDbLine
 10
149.955446
 20
287.162063
 11
150.105446
 21
287.162063
  0
ARC
  5
510
100
AcDbEntity
  8
M0
 62
     7
100
AcDbCircle
 10
122.855446
 20
293.862063
 40
1.0
100
AcDbArc
 50
180.0
 51
270.0
  0
ARC
  5
511
100
AcDbEntity
  8
M0
 62
     7
100
AcDbCircle
 10
122.855446
 20
296.362063
 40
1.0
100
AcDbArc
 50
90.0
 51
180.0
  0
ARC
  5
512
100
AcDbEntity
  8
M0
 62
     7
100
AcDbCircle
 10
128.505446
 20
292.362063
 40
0.5
100
AcDbArc
 50
90.0
 51
126.869898
  0
ARC
  5
513
100
AcDbEntity
  8
M0
 62
     7
100
AcDbCircle
 10
139.255446
 20
296.362063
 40
1.0
100
AcDbArc
 50
0.0
 51
90.0
  0
ARC
  5
514
100
AcDbEntity
  8
M0
 62
     7
100
AcDbCircle
 10
123.505446
 20
292.362063
 40
0.5
100
AcDbArc
 50
53.130102
 51
90.0
  0
LINE
  5
515
100
AcDbEntity
  8
M0
 62
     7
100
AcDbLine
 10
112.905446
 20
278.162063
 11
112.905446
 21
279.212063
  0
LINE
  5
516
100
AcDbEntity
  8
M0
 62
     7
100
AcDbLine
 10
118.905446
 20
278.162063
 11
112.905446
 21
278.162063
  0
ARC
  5
517
100
AcDbEntity
  8
M0
 62
     7
100
AcDbCircle
 10
139.255446
 20
315.062063
 40
1.0
100
AcDbArc
 50
0.0
 51
90.0
  0
LINE
  5
518
100
AcDbEntity
  8
M0
 62
     7
100
AcDbLine
 10
118.905446
 20
279.212063
 11
118.905446
 21
278.162063
  0
LINE
  5
519
100
AcDbEntity
  8
M0
 62
     7
100
AcDbLine
 10
129.905446
 20
301.762063
 11
129.905446
 21
301.262063
  0
LINE
  5
51A
100
AcDbEntity
  8
M0
 62
     7
100
AcDbLine
 10
127.055446
 20
308.462063
 11
128.055446
 21
308.462063
  0
LINE
  5
51B
100
AcDbEntity
  8
M0
 62
     7
100
AcDbLine
 10
132.205446
 20
301.762063
 11
132.205446
 21
301.262063
  0
LINE
  5
51C
100
AcDbEntity
  8
M0
 62
     7
100
AcDbLine
 10
132.205446
 20
307.462063
 11
132.205446
 21
308.662063
  0
LINE
  5
51D
100
AcDbEntity
  8
M0
 62
     7
100
AcDbLine
 10
129.905446
 20
305.762063
 11
129.905446
 21
307.962063
  0
LINE
  5
51E
100
AcDbEntity
  8
M0
 62
     7
100
AcDbLine
 10
129.405446
 20
308.462063
 11
128.055446
 21
308.462063
  0
LINE
  5
51F
100
AcDbEntity
  8
M0
 62
     7
100
AcDbLine
 10
132.705446
 20
308.462063
 11
134.055446
 21
308.462063
  0
LINE
  5
520
100
AcDbEntity
  8
M0
 62
     7
100
AcDbLine
 10
135.055446
 20
308.462063
 11
134.055446
 21
308.462063
  0
LINE
  5
521
100
AcDbEntity
  8
M0
 62
     7
100
AcDbLine
 10
132.205446
 20
300.762063
 11
132.205446
 21
301.262063
  0
LINE
  5
522
100
AcDbEntity
  8
M0
 62
     7
100
AcDbLine
 10
129.905446
 20
300.762063
 11
129.905446
 21
301.262063
  0
LINE
  5
523
100
AcDbEntity
  8
M0
 62
     7
100
AcDbLine
 10
133.105446
 20
279.162063
 11
132.205446
 21
279.162063
  0
LINE
  5
524
100
AcDbEntity
  8
M0
 62
     7
100
AcDbLine
 10
112.905446
 20
279.162063
 11
112.005446
 21
279.162063
  0
LINE
  5
525
100
AcDbEntity
  8
M0
 62
     7
100
AcDbLine
 10
122.105446
 20
334.662063
 11
129.905446
 21
334.662063
  0
LINE
  5
526
100
AcDbEntity
  8
M0
 62
     7
100
AcDbLine
 10
130.905446
 20
268.362063
 11
131.205446
 21
268.362063
  0
LINE
  5
527
100
AcDbEntity
  8
M0
 62
     7
100
AcDbLine
 10
120.805446
 20
268.362063
 11
121.105446
 21
268.362063
  0
LINE
  5
528
100
AcDbEntity
  8
M0
 62
     7
100
AcDbLine
 10
132.205446
 20
305.762063
 11
132.205446
 21
307.962063
  0
LINE
  5
529
100
AcDbEntity
  8
M0
 62
     7
100
AcDbLine
 10
130.405446
 20
302.262063
 11
131.705446
 21
302.262063
  0
LINE
  5
52A
100
AcDbEntity
  8
M0
 62
     7
100
AcDbLine
 10
129.905446
 20
269.362063
 11
129.905446
 21
287.162063
  0
LINE
  5
52B
100
AcDbEntity
  8
M0
 62
     7
100
AcDbLine
 10
119.805446
 20
279.162063
 11
118.905446
 21
279.162063
  0
LINE
  5
52C
100
AcDbEntity
  8
M0
 62
     7
100
AcDbLine
 10
150.105446
 20
279.162063
 11
149.205446
 21
279.162063
  0
LINE
  5
52D
100
AcDbEntity
  8
M0
 62
     7
100
AcDbLine
 10
132.805446
 20
301.262063
 11
132.805446
 21
307.962063
  0
LINE
  5
52E
100
AcDbEntity
  8
M0
 62
     7
100
AcDbLine
 10
125.755446
 20
307.962063
 11
125.755446
 21
299.762063
  0
LINE
  5
52F
100
AcDbEntity
  8
M0
 62
     7
100
AcDbLine
 10
129.305446
 20
301.262063
 11
129.305446
 21
307.962063
  0
LINE
  5
530
100
AcDbEntity
  8
M0
 62
     7
100
AcDbLine
 10
132.205446
 20
299.762063
 11
132.205446
 21
300.262063
  0
LINE
  5
531
100
AcDbEntity
  8
M0
 62
     7
100
AcDbLine
 10
135.855446
 20
299.262063
 11
132.705446
 21
299.262063
  0
ARC
  5
532
100
AcDbEntity
  8
M0
 62
     7
100
AcDbCircle
 10
111.005446
 20
331.662063
 40
1.0
100
AcDbArc
 50
0.0
 51
90.0
  0
ARC
  5
533
100
AcDbEntity
  8
M0
 62
     7
100
AcDbCircle
 10
151.555446
 20
331.662063
 40
1.0
100
AcDbArc
 50
0.0
 51
90.0
  0
LINE
  5
534
100
AcDbEntity
  8
M0
 62
     7
100
AcDbLine
 10
132.205446
 20
300.762063
 11
132.305446
 21
300.762063
  0
ARC
  5
535
100
AcDbEntity
  8
M0
 62
     7
100
AcDbCircle
 10
151.105446
 20
331.662063
 40
1.0
100
AcDbArc
 50
90.0
 51
180.0
  0
LINE
  5
536
100
AcDbEntity
  8
M0
 62
     7
100
AcDbLine
 10
132.205446
 20
300.262063
 11
132.205446
 21
300.762063
  0
LINE
  5
537
100
AcDbEntity
  8
M0
 62
     7
100
AcDbLine
 10
125.505446
 20
299.562063
 11
125.541303
 21
299.562063
  0
LINE
  5
538
100
AcDbEntity
  8
M0
 62
     7
100
AcDbLine
 10
125.822433
 20
308.212063
 11
125.818482
 21
308.205078
  0
LINE
  5
539
100
AcDbEntity
  8
M0
 62
     7
100
AcDbLine
 10
132.205446
 20
298.962063
 11
132.205446
 21
299.762063
  0
LINE
  5
53A
100
AcDbEntity
  8
M0
 62
     7
100
AcDbLine
 10
130.405446
 20
305.262063
 11
131.705446
 21
305.262063
  0
LINE
  5
53B
100
AcDbEntity
  8
M0
 62
     7
100
AcDbLine
 10
129.905446
 20
298.962063
 11
129.905446
 21
299.762063
  0
LINE
  5
53C
100
AcDbEntity
  8
M0
 62
     7
100
AcDbLine
 10
126.255446
 20
299.262063
 11
129.405446
 21
299.262063
  0
LINE
  5
53D
100
AcDbEntity
  8
M0
 62
     7
100
AcDbLine
 10
129.905446
 20
300.262063
 11
129.905446
 21
300.762063
  0
LINE
  5
53E
100
AcDbEntity
  8
M0
 62
     7
100
AcDbLine
 10
129.905446
 20
307.462063
 11
129.905446
 21
308.662063
  0
LINE
  5
53F
100
AcDbEntity
  8
M0
 62
     7
100
AcDbLine
 10
129.905446
 20
300.762063
 11
129.805446
 21
300.762063
  0
ARC
  5
540
100
AcDbEntity
  8
M0
 62
     7
100
AcDbCircle
 10
132.705446
 20
299.762063
 40
0.5
100
AcDbArc
 50
180.0
 51
270.0
  0
ARC
  5
541
100
AcDbEntity
  8
M0
 62
     7
100
AcDbCircle
 10
132.705446
 20
307.962063
 40
0.5
100
AcDbArc
 50
90.0
 51
180.0
  0
LINE
  5
542
100
AcDbEntity
  8
M0
 62
     7
100
AcDbLine
 10
136.605446
 20
293.362063
 11
136.605446
 21
301.212063
  0
ARC
  5
543
100
AcDbEntity
  8
M0
 62
     7
100
AcDbCircle
 10
126.21348
 20
299.72323
 40
0.44285
100
AcDbArc
 50
206.131697
 51
224.639687
  0
LINE
  5
544
100
AcDbEntity
  8
M0
 62
     7
100
AcDbLine
 10
125.505446
 20
293.362063
 11
125.505446
 21
301.212063
  0
ARC
  5
545
100
AcDbEntity
  8
M0
 62
     7
100
AcDbCircle
 10
130.405446
 20
301.762063
 40
0.5
100
AcDbArc
 50
90.0
 51
180.0
  0
ARC
  5
546
100
AcDbEntity
  8
M0
 62
     7
100
AcDbCircle
 10
126.755446
 20
345.762063
 40
1.0
100
AcDbArc
 50
90.0
 51
180.0
  0
ARC
  5
547
100
AcDbEntity
  8
M0
 62
     7
100
AcDbCircle
 10
131.705446
 20
301.762063
 40
0.5
100
AcDbArc
 50
0.0
 51
90.0
  0
ARC
  5
548
100
AcDbEntity
  8
M0
 62
     7
100
AcDbCircle
 10
131.705446
 20
305.762063
 40
0.5
100
AcDbArc
 50
270.0
 51
360.0
  0
ARC
  5
549
100
AcDbEntity
  8
M0
 62
     7
100
AcDbCircle
 10
129.405446
 20
307.962063
 40
0.5
100
AcDbArc
 50
0.0
 51
90.0
  0
LINE
  5
54A
100
AcDbEntity
  8
M0
 62
     7
100
AcDbLine
 10
123.355446
 20
297.362063
 11
122.855446
 21
297.362063
  0
LINE
  5
54B
100
AcDbEntity
  8
M0
 62
     7
100
AcDbLine
 10
121.855446
 20
296.362063
 11
121.855446
 21
293.862063
  0
LINE
  5
54C
100
AcDbEntity
  8
M0
 62
     7
100
AcDbLine
 10
149.205446
 20
278.162063
 11
143.205446
 21
278.162063
  0
LINE
  5
54D
100
AcDbEntity
  8
M0
 62
     7
100
AcDbLine
 10
149.205446
 20
279.212063
 11
149.205446
 21
278.162063
  0
ARC
  5
54E
100
AcDbEntity
  8
M0
 62
     7
100
AcDbCircle
 10
139.255446
 20
293.862063
 40
1.0
100
AcDbArc
 50
270.0
 51
360.0
  0
LINE
  5
54F
100
AcDbEntity
  8
M0
 62
     7
100
AcDbLine
 10
125.505446
 20
301.212063
 11
125.255446
 21
301.712063
  0
LINE
  5
550
100
AcDbEntity
  8
M0
 62
     7
100
AcDbLine
 10
136.605446
 20
301.212063
 11
136.855446
 21
301.712063
  0
LINE
  5
551
100
AcDbEntity
  8
M0
 62
     7
100
AcDbLine
 10
140.255446
 20
296.362063
 11
140.255446
 21
293.862063
  0
LINE
  5
552
100
AcDbEntity
  8
M0
 62
     7
100
AcDbLine
 10
139.255446
 20
292.862063
 11
137.105446
 21
292.862063
  0
LINE
  5
553
100
AcDbEntity
  8
M0
 62
     7
100
AcDbLine
 10
138.755446
 20
297.362063
 11
139.255446
 21
297.362063
  0
LINE
  5
554
100
AcDbEntity
  8
M0
 62
     7
100
AcDbLine
 10
123.255446
 20
292.762063
 11
123.255446
 21
292.862063
  0
LINE
  5
555
100
AcDbEntity
  8
M0
 62
     7
100
AcDbLine
 10
141.205446
 20
271.662063
 11
141.305446
 21
271.662063
  0
LINE
  5
556
100
AcDbEntity
  8
M0
 62
     7
100
AcDbLine
 10
139.105446
 20
328.562063
 11
140.005446
 21
328.562063
  0
LINE
  5
557
100
AcDbEntity
  8
M0
 62
     7
100
AcDbLine
 10
129.005446
 20
328.562063
 11
129.905446
 21
328.562063
  0
ARC
  5
558
100
AcDbEntity
  8
M0
 62
     7
100
AcDbCircle
 10
127.905446
 20
272.862063
 40
2.0
100
AcDbArc
 50
0.0
 51
90.0
  0
LINE
  5
559
100
AcDbEntity
  8
M0
 62
     7
100
AcDbLine
 10
119.805446
 20
269.362063
 11
119.805446
 21
287.162063
  0
LINE
  5
55A
100
AcDbEntity
  8
M0
 62
     7
100
AcDbLine
 10
136.605446
 20
299.562063
 11
136.569589
 21
299.562063
  0
LINE
  5
55B
100
AcDbEntity
  8
M0
 62
     7
100
AcDbLine
 10
132.205446
 20
287.162063
 11
132.205446
 21
269.362063
  0
LINE
  5
55C
100
AcDbEntity
  8
M0
 62
     7
100
AcDbLine
 10
122.105446
 20
287.162063
 11
122.105446
 21
269.362063
  0
LINE
  5
55D
100
AcDbEntity
  8
M0
 62
     7
100
AcDbLine
 10
138.855446
 20
292.862063
 11
138.855446
 21
292.762063
  0
ARC
  5
55E
100
AcDbEntity
  8
M0
 62
     7
100
AcDbCircle
 10
128.805446
 20
307.962063
 40
0.5
100
AcDbArc
 50
0.0
 51
90.0
  0
ARC
  5
55F
100
AcDbEntity
  8
M0
 62
     7
100
AcDbCircle
 10
133.305446
 20
307.962063
 40
0.5
100
AcDbArc
 50
90.0
 51
180.0
  0
ARC
  5
560
100
AcDbEntity
  8
M0
 62
     7
100
AcDbCircle
 10
135.355446
 20
345.762063
 40
1.0
100
AcDbArc
 50
0.0
 51
90.0
  0
ARC
  5
561
100
AcDbEntity
  8
M0
 62
     7
100
AcDbCircle
 10
135.855446
 20
307.962063
 40
0.5
100
AcDbArc
 50
0.0
 51
90.0
  0
ARC
  5
562
100
AcDbEntity
  8
M0
 62
     7
100
AcDbCircle
 10
126.255446
 20
307.962063
 40
0.5
100
AcDbArc
 50
90.0
 51
180.0
  0
ARC
  5
563
100
AcDbEntity
  8
M0
 62
     7
100
AcDbCircle
 10
121.105446
 20
269.362063
 40
1.0
100
AcDbArc
 50
270.0
 51
360.0
  0
ARC
  5
564
100
AcDbEntity
  8
M0
 62
     7
100
AcDbCircle
 10
124.105446
 20
272.862063
 40
2.0
100
AcDbArc
 50
90.0
 51
180.0
  0
ARC
  5
565
100
AcDbEntity
  8
M0
 62
     7
100
AcDbCircle
 10
120.805446
 20
269.362063
 40
1.0
100
AcDbArc
 50
180.0
 51
270.0
  0
ARC
  5
566
100
AcDbEntity
  8
M0
 62
     7
100
AcDbCircle
 10
131.205446
 20
269.362063
 40
1.0
100
AcDbArc
 50
270.0
 51
360.0
  0
ARC
  5
567
100
AcDbEntity
  8
M0
 62
     7
100
AcDbCircle
 10
130.905446
 20
269.362063
 40
1.0
100
AcDbArc
 50
180.0
 51
270.0
  0
LINE
  5
568
100
AcDbEntity
  8
M0
 62
     7
100
AcDbLine
 10
123.005446
 20
328.512063
 11
123.005446
 21
329.562063
  0
LINE
  5
569
100
AcDbEntity
  8
M0
 62
     7
100
AcDbLine
 10
124.005446
 20
316.162063
 11
124.005446
 21
316.062063
  0
LINE
  5
56A
100
AcDbEntity
  8
M0
 62
     7
100
AcDbLine
 10
129.005446
 20
329.562063
 11
129.005446
 21
328.512063
  0
LINE
  5
56B
100
AcDbEntity
  8
M0
 62
     7
100
AcDbLine
 10
123.005446
 20
329.562063
 11
129.005446
 21
329.562063
  0
LINE
  5
56C
100
AcDbEntity
  8
M0
 62
     7
100
AcDbLine
 10
143.205446
 20
328.562063
 11
143.205446
 21
329.562063
  0
ARC
  5
56D
100
AcDbEntity
  8
M0
 62
     7
100
AcDbCircle
 10
112.580446
 20
279.637063
 40
0.5
100
AcDbArc
 50
180.0
 51
270.0
  0
ARC
  5
56E
100
AcDbEntity
  8
M0
 62
     7
100
AcDbCircle
 10
112.580446
 20
286.287063
 40
0.5
100
AcDbArc
 50
90.0
 51
180.0
  0
ARC
  5
56F
100
AcDbEntity
  8
M0
 62
     7
100
AcDbCircle
 10
119.230446
 20
279.637063
 40
0.5
100
AcDbArc
 50
270.0
 51
360.0
  0
ARC
  5
570
100
AcDbEntity
  8
M0
 62
     7
100
AcDbCircle
 10
119.230446
 20
286.287063
 40
0.5
100
AcDbArc
 50
0.0
 51
90.0
  0
ARC
  5
571
100
AcDbEntity
  8
M0
 62
     7
100
AcDbCircle
 10
148.555446
 20
335.562063
 40
4.0
100
AcDbArc
 50
0.0
 51
97.180756
  0
LINE
  5
572
100
AcDbEntity
  8
M0
  6
DASHDOT
 62
     7
100
AcDbLine
 10
126.005446
 20
270.862063
 11
126.005446
 21
271.862063
  0
LINE
  5
573
100
AcDbEntity
  8
M0
  6
DASHDOT
 62
     7
100
AcDbLine
 10
125.505446
 20
271.362063
 11
126.505446
 21
271.362063
  0
LINE
  5
574
100
AcDbEntity
  8
M0
  6
DASHDOT
 62
     7
100
AcDbLine
 10
125.505446
 20
282.962063
 11
126.505446
 21
282.962063
  0
LINE
  5
575
100
AcDbEntity
  8
M0
 62
     7
100
AcDbLine
 10
143.205446
 20
329.562063
 11
149.205446
 21
329.562063
  0
LINE
  5
576
100
AcDbEntity
  8
M0
 62
     7
100
AcDbLine
 10
149.205446
 20
329.562063
 11
149.205446
 21
328.562063
  0
LINE
  5
577
100
AcDbEntity
  8
M0
  6
DASHDOT
 62
     7
100
AcDbLine
 10
131.055446
 20
264.981965
 11
131.055446
 21
350.084071
  0
CIRCLE
  5
578
100
AcDbEntity
  8
M0
 62
     7
100
AcDbCircle
 10
126.005446
 20
271.362063
 40
2.65
  0
CIRCLE
  5
579
100
AcDbEntity
  8
M0
 62
     7
100
AcDbCircle
 10
126.005446
 20
282.962063
 40
3.0
  0
ARC
  5
57A
100
AcDbEntity
  8
M0
 62
     7
100
AcDbCircle
 10
142.880446
 20
286.287063
 40
0.5
100
AcDbArc
 50
90.0
 51
180.0
  0
CIRCLE
  5
57B
100
AcDbEntity
  8
M0
 62
     7
100
AcDbCircle
 10
131.055446
 20
341.962063
 40
2.65
  0
ARC
  5
57C
100
AcDbEntity
  8
M0
 62
     7
100
AcDbCircle
 10
142.880446
 20
279.637063
 40
0.5
100
AcDbArc
 50
180.0
 51
270.0
  0
LINE
  5
57D
100
AcDbEntity
  8
M0
 62
     7
100
AcDbLine
 10
144.305446
 20
277.762063
 11
144.305446
 21
278.162063
  0
LINE
  5
57E
100
AcDbEntity
  8
M0
 62
     7
100
AcDbLine
 10
138.255446
 20
271.062063
 11
136.755446
 21
271.062063
  0
LINE
  5
57F
100
AcDbEntity
  8
M0
 62
     7
100
AcDbLine
 10
111.305446
 20
332.762063
 11
111.305446
 21
332.616002
  0
LINE
  5
580
100
AcDbEntity
  8
M0
 62
     7
100
AcDbLine
 10
116.805446
 20
273.362063
 11
116.805446
 21
269.562063
  0
CIRCLE
  5
581
100
AcDbEntity
  8
M0
 62
     7
100
AcDbCircle
 10
146.205446
 20
282.962063
 40
3.0
  0
ARC
  5
582
100
AcDbEntity
  8
M0
 62
     7
100
AcDbCircle
 10
122.680446
 20
286.287063
 40
0.5
100
AcDbArc
 50
90.0
 51
180.0
  0
ARC
  5
583
100
AcDbEntity
  8
M0
 62
     7
100
AcDbCircle
 10
139.430446
 20
279.637063
 40
0.5
100
AcDbArc
 50
270.0
 51
360.0
  0
ARC
  5
584
100
AcDbEntity
  8
M0
 62
     7
100
AcDbCircle
 10
129.330446
 20
286.287063
 40
0.5
100
AcDbArc
 50
0.0
 51
90.0
  0
ARC
  5
585
100
AcDbEntity
  8
M0
 62
     7
100
AcDbCircle
 10
122.680446
 20
279.637063
 40
0.5
100
AcDbArc
 50
180.0
 51
270.0
  0
ARC
  5
586
100
AcDbEntity
  8
M0
 62
     7
100
AcDbCircle
 10
129.330446
 20
279.637063
 40
0.5
100
AcDbArc
 50
270.0
 51
360.0
  0
ARC
  5
587
100
AcDbEntity
  8
M0
 62
     7
100
AcDbCircle
 10
149.530446
 20
279.637063
 40
0.5
100
AcDbArc
 50
270.0
 51
360.0
  0
ARC
  5
588
100
AcDbEntity
  8
M0
 62
     7
100
AcDbCircle
 10
149.530446
 20
286.287063
 40
0.5
100
AcDbArc
 50
0.0
 51
90.0
  0
ARC
  5
589
100
AcDbEntity
  8
M0
 62
     7
100
AcDbCircle
 10
132.780446
 20
279.637063
 40
0.5
100
AcDbArc
 50
180.0
 51
270.0
  0
ARC
  5
58A
100
AcDbEntity
  8
M0
 62
     7
100
AcDbCircle
 10
132.780446
 20
286.287063
 40
0.5
100
AcDbArc
 50
90.0
 51
180.0
  0
LINE
  5
58B
100
AcDbEntity
  8
M0
 62
     7
100
AcDbLine
 10
129.855446
 20
342.412063
 11
130.605446
 21
342.412063
  0
LINE
  5
58C
100
AcDbEntity
  8
M0
 62
     7
100
AcDbLine
 10
130.605446
 20
341.512063
 11
129.855446
 21
341.512063
  0
LINE
  5
58D
100
AcDbEntity
  8
M0
 62
     7
100
AcDbLine
 10
131.505446
 20
343.162063
 11
130.605446
 21
343.162063
  0
LINE
  5
58E
100
AcDbEntity
  8
M0
 62
     7
100
AcDbLine
 10
130.605446
 20
343.162063
 11
130.605446
 21
342.412063
  0
LINE
  5
58F
100
AcDbEntity
  8
M0
 62
     7
100
AcDbLine
 10
132.255446
 20
341.512063
 11
131.505446
 21
341.512063
  0
LINE
  5
590
100
AcDbEntity
  8
M0
 62
     7
100
AcDbLine
 10
130.605446
 20
340.762063
 11
131.505446
 21
340.762063
  0
LINE
  5
591
100
AcDbEntity
  8
M0
  6
DASHDOT
 62
     7
100
AcDbLine
 10
130.555446
 20
341.962063
 11
131.555446
 21
341.962063
  0
LINE
  5
592
100
AcDbEntity
  8
M0
 62
     7
100
AcDbLine
 10
131.505446
 20
340.762063
 11
131.505446
 21
341.512063
  0
LINE
  5
593
100
AcDbEntity
  8
M0
 62
     7
100
AcDbLine
 10
130.605446
 20
341.512063
 11
130.605446
 21
340.762063
  0
LINE
  5
594
100
AcDbEntity
  8
M0
  6
DASHDOT
 62
     7
100
AcDbLine
 10
130.555446
 20
341.962063
 11
131.555446
 21
341.962063
  0
CIRCLE
  5
595
100
AcDbEntity
  8
M0
 62
     7
100
AcDbCircle
 10
126.005446
 20
324.762063
 40
3.0
  0
CIRCLE
  5
596
100
AcDbEntity
  8
M0
 62
     7
100
AcDbCircle
 10
136.105446
 20
324.762063
 40
3.0
  0
CIRCLE
  5
597
100
AcDbEntity
  8
M0
 62
     7
100
AcDbCircle
 10
136.105446
 20
282.962063
 40
3.0
  0
CIRCLE
  5
598
100
AcDbEntity
  8
M0
 62
     7
100
AcDbCircle
 10
115.905446
 20
324.762063
 40
3.0
  0
CIRCLE
  5
599
100
AcDbEntity
  8
M0
 62
     7
100
AcDbCircle
 10
115.905446
 20
282.962063
 40
3.0
  0
LINE
  5
59A
100
AcDbEntity
  8
M0
 62
     7
100
AcDbLine
 10
131.505446
 20
342.412063
 11
132.255446
 21
342.412063
  0
LINE
  5
59B
100
AcDbEntity
  8
M0
 62
     7
100
AcDbLine
 10
131.505446
 20
342.412063
 11
131.505446
 21
343.162063
  0
CIRCLE
  5
59C
100
AcDbEntity
  8
M0
 62
     7
100
AcDbCircle
 10
141.955446
 20
342.362063
 40
3.0
  0
CIRCLE
  5
59D
100
AcDbEntity
  8
M0
 62
     7
100
AcDbCircle
 10
131.055446
 20
341.962063
 40
2.85
  0
CIRCLE
  5
59E
100
AcDbEntity
  8
M0
 62
     7
100
AcDbCircle
 10
146.205446
 20
324.762063
 40
3.0
  0
LINE
  5
59F
100
AcDbEntity
  8
M0
  6
DASHDOT
 62
     7
100
AcDbLine
 10
145.705446
 20
324.762063
 11
146.705446
 21
324.762063
  0
LINE
  5
5A0
100
AcDbEntity
  8
M0
  6
DASHDOT
 62
     7
100
AcDbLine
 10
146.205446
 20
282.462063
 11
146.205446
 21
283.462063
  0
LINE
  5
5A1
100
AcDbEntity
  8
M0
  6
DASHDOT
 62
     7
100
AcDbLine
 10
135.605446
 20
324.762063
 11
136.605446
 21
324.762063
  0
LINE
  5
5A2
100
AcDbEntity
  8
M0
  6
DASHDOT
 62
     7
100
AcDbLine
 10
146.205446
 20
324.262063
 11
146.205446
 21
325.262063
  0
LINE
  5
5A3
100
AcDbEntity
  8
M0
  6
DASHDOT
 62
     7
100
AcDbLine
 10
136.105446
 20
324.262063
 11
136.105446
 21
325.262063
  0
LINE
  5
5A4
100
AcDbEntity
  8
M0
  6
DASHDOT
 62
     7
100
AcDbLine
 10
126.005446
 20
282.462063
 11
126.005446
 21
283.462063
  0
ARC
  5
5A5
100
AcDbEntity
  8
M0
 62
     7
100
AcDbCircle
 10
139.430446
 20
286.287063
 40
0.5
100
AcDbArc
 50
0.0
 51
90.0
  0
LINE
  5
5A6
100
AcDbEntity
  8
M0
  6
DASHDOT
 62
     7
100
AcDbLine
 10
136.105446
 20
282.462063
 11
136.105446
 21
283.462063
  0
LINE
  5
5A7
100
AcDbEntity
  8
M0
  6
DASHDOT
 62
     7
100
AcDbLine
 10
135.605446
 20
282.962063
 11
136.605446
 21
282.962063
  0
LINE
  5
5A8
100
AcDbEntity
  8
M0
  6
DASHDOT
 62
     7
100
AcDbLine
 10
145.705446
 20
282.962063
 11
146.705446
 21
282.962063
  0
LINE
  5
5A9
100
AcDbEntity
  8
M0
  6
DASHDOT
 62
     7
100
AcDbLine
 10
141.455446
 20
342.362063
 11
142.455446
 21
342.362063
  0
LINE
  5
5AA
100
AcDbEntity
  8
M0
  6
DASHDOT
 62
     7
100
AcDbLine
 10
120.155446
 20
341.862063
 11
120.155446
 21
342.862063
  0
LINE
  5
5AB
100
AcDbEntity
  8
M0
  6
DASHDOT
 62
     7
100
AcDbLine
 10
115.405446
 20
282.962063
 11
116.405446
 21
282.962063
  0
LINE
  5
5AC
100
AcDbEntity
  8
M0
  6
DASHDOT
 62
     7
100
AcDbLine
 10
141.955446
 20
341.862063
 11
141.955446
 21
342.862063
  0
LINE
  5
5AD
100
AcDbEntity
  8
M0
  6
DASHDOT
 62
     7
100
AcDbLine
 10
115.905446
 20
282.462063
 11
115.905446
 21
283.462063
  0
LINE
  5
5AE
100
AcDbEntity
  8
M0
  6
DASHDOT
 62
     7
100
AcDbLine
 10
126.005446
 20
324.262063
 11
126.005446
 21
325.262063
  0
LINE
  5
5AF
100
AcDbEntity
  8
M0
  6
DASHDOT
 62
     7
100
AcDbLine
 10
125.505446
 20
324.762063
 11
126.505446
 21
324.762063
  0
LINE
  5
5B0
100
AcDbEntity
  8
M0
  6
DASHDOT
 62
     7
100
AcDbLine
 10
115.905446
 20
324.262063
 11
115.905446
 21
325.262063
  0
LINE
  5
5B1
100
AcDbEntity
  8
M0
  6
DASHDOT
 62
     7
100
AcDbLine
 10
115.405446
 20
324.762063
 11
116.405446
 21
324.762063
  0
ARC
  5
5B2
100
AcDbEntity
  8
M0
 62
     7
100
AcDbCircle
 10
112.155446
 20
308.112063
 40
0.5
100
AcDbArc
 50
180.0
 51
270.0
  0
ARC
  5
5B3
100
AcDbEntity
  8
M0
 62
     7
100
AcDbCircle
 10
149.955446
 20
308.112063
 40
0.5
100
AcDbArc
 50
270.0
 51
360.0
  0
ARC
  5
5B4
100
AcDbEntity
  8
M0
 62
     7
100
AcDbCircle
 10
138.605446
 20
292.362063
 40
0.5
100
AcDbArc
 50
90.0
 51
126.869898
  0
ARC
  5
5B5
100
AcDbEntity
  8
M0
 62
     7
100
AcDbCircle
 10
133.605446
 20
292.362063
 40
0.5
100
AcDbArc
 50
53.130102
 51
90.0
  0
ARC
  5
5B6
100
AcDbEntity
  8
M0
 62
     7
100
AcDbCircle
 10
149.955446
 20
287.662063
 40
0.5
100
AcDbArc
 50
270.0
 51
360.0
  0
ARC
  5
5B7
100
AcDbEntity
  8
M0
 62
     7
100
AcDbCircle
 10
114.555446
 20
300.612063
 40
0.5
100
AcDbArc
 50
270.0
 51
360.0
  0
ARC
  5
5B8
100
AcDbEntity
  8
M0
 62
     7
100
AcDbCircle
 10
122.755446
 20
293.762063
 40
1.0
100
AcDbArc
 50
180.0
 51
270.0
  0
ARC
  5
5B9
100
AcDbEntity
  8
M0
 62
     7
100
AcDbCircle
 10
147.555446
 20
307.112063
 40
0.5
100
AcDbArc
 50
90.0
 51
180.0
  0
ARC
  5
5BA
100
AcDbEntity
  8
M0
 62
     7
100
AcDbCircle
 10
112.155446
 20
299.612063
 40
0.5
100
AcDbArc
 50
90.0
 51
180.0
  0
ARC
  5
5BB
100
AcDbEntity
  8
M0
 62
     7
100
AcDbCircle
 10
114.555446
 20
307.112063
 40
0.5
100
AcDbArc
 50
0.0
 51
90.0
  0
ARC
  5
5BC
100
AcDbEntity
  8
M0
 62
     7
100
AcDbCircle
 10
137.305446
 20
314.862063
 40
1.2
100
AcDbArc
 50
90.0
 51
180.0
  0
ARC
  5
5BD
100
AcDbEntity
  8
M0
 62
     7
100
AcDbCircle
 10
125.505446
 20
309.162063
 40
0.5
100
AcDbArc
 50
270.0
 51
360.0
  0
ARC
  5
5BE
100
AcDbEntity
  8
M0
 62
     7
100
AcDbCircle
 10
122.855446
 20
315.062063
 40
1.0
100
AcDbArc
 50
90.0
 51
180.0
  0
ARC
  5
5BF
100
AcDbEntity
  8
M0
 62
     7
100
AcDbCircle
 10
124.805446
 20
314.862063
 40
1.2
100
AcDbArc
 50
0.0
 51
90.0
  0
LINE
  5
5C0
100
AcDbEntity
  8
M0
 62
     7
100
AcDbLine
 10
142.380446
 20
286.287063
 11
142.380446
 21
279.637063
  0
ARC
  5
5C1
100
AcDbEntity
  8
M0
 62
     7
100
AcDbCircle
 10
112.155446
 20
287.662063
 40
0.5
100
AcDbArc
 50
180.0
 51
270.0
  0
ARC
  5
5C2
100
AcDbEntity
  8
M0
 62
     7
100
AcDbCircle
 10
149.955446
 20
299.612063
 40
0.5
100
AcDbArc
 50
0.0
 51
90.0
  0
ARC
  5
5C3
100
AcDbEntity
  8
M0
 62
     7
100
AcDbCircle
 10
147.555446
 20
300.612063
 40
0.5
100
AcDbArc
 50
180.0
 51
270.0
  0
ARC
  5
5C4
100
AcDbEntity
  8
M0
 62
     7
100
AcDbCircle
 10
149.955446
 20
320.062063
 40
0.5
100
AcDbArc
 50
0.0
 51
90.0
  0
ARC
  5
5C5
100
AcDbEntity
  8
M0
 62
     7
100
AcDbCircle
 10
136.605446
 20
309.162063
 40
0.5
100
AcDbArc
 50
180.0
 51
270.0
  0
LINE
  5
5C6
100
AcDbEntity
  8
M0
 62
     7
100
AcDbLine
 10
136.455446
 20
338.262063
 11
148.055446
 21
338.262063
  0
LINE
  5
5C7
100
AcDbEntity
  8
M0
 62
     7
100
AcDbLine
 10
148.055446
 20
336.762063
 11
136.455446
 21
336.762063
  0
ARC
  5
5C8
100
AcDbEntity
  8
M0
 62
     7
100
AcDbCircle
 10
122.755446
 20
315.162063
 40
1.0
100
AcDbArc
 50
90.0
 51
180.0
  0
LINE
  5
5C9
100
AcDbEntity
  8
M0
 62
     7
100
AcDbLine
 10
145.455446
 20
346.762063
 11
137.955446
 21
346.762063
  0
ARC
  5
5CA
100
AcDbEntity
  8
M0
 62
     7
100
AcDbCircle
 10
125.155446
 20
315.162063
 40
1.0
100
AcDbArc
 50
0.0
 51
90.0
  0
LINE
  5
5CB
100
AcDbEntity
  8
M0
 62
     7
100
AcDbLine
 10
125.655446
 20
336.762063
 11
114.055446
 21
336.762063
  0
LINE
  5
5CC
100
AcDbEntity
  8
M0
 62
     7
100
AcDbLine
 10
125.655446
 20
338.262063
 11
114.055446
 21
338.262063
  0
LINE
  5
5CD
100
AcDbEntity
  8
M0
 62
     7
100
AcDbLine
 10
136.455446
 20
334.762063
 11
136.455446
 21
347.762063
  0
LINE
  5
5CE
100
AcDbEntity
  8
M0
 62
     7
100
AcDbLine
 10
114.055446
 20
334.762063
 11
119.805446
 21
334.762063
  0
LINE
  5
5CF
100
AcDbEntity
  8
M0
 62
     7
100
AcDbLine
 10
148.055446
 20
338.262063
 11
148.055446
 21
336.762063
  0
ARC
  5
5D0
100
AcDbEntity
  8
M0
 62
     7
100
AcDbCircle
 10
125.155446
 20
347.262063
 40
1.0
100
AcDbArc
 50
90.0
 51
180.0
  0
ARC
  5
5D1
100
AcDbEntity
  8
M0
 62
     7
100
AcDbCircle
 10
136.955446
 20
347.262063
 40
1.0
100
AcDbArc
 50
0.0
 51
90.0
  0
ARC
  5
5D2
100
AcDbEntity
  8
M0
 62
     7
100
AcDbCircle
 10
139.355446
 20
293.762063
 40
1.0
100
AcDbArc
 50
270.0
 51
360.0
  0
ARC
  5
5D3
100
AcDbEntity
  8
M0
 62
     7
100
AcDbCircle
 10
139.355446
 20
315.162063
 40
1.0
100
AcDbArc
 50
0.0
 51
90.0
  0
ARC
  5
5D4
100
AcDbEntity
  8
M0
 62
     7
100
AcDbCircle
 10
112.155446
 20
320.062063
 40
0.5
100
AcDbArc
 50
90.0
 51
180.0
  0
ARC
  5
5D5
100
AcDbEntity
  8
M0
 62
     7
100
AcDbCircle
 10
126.655446
 20
314.462063
 40
0.5
100
AcDbArc
 50
180.0
 51
270.0
  0
ARC
  5
5D6
100
AcDbEntity
  8
M0
 62
     7
100
AcDbCircle
 10
135.455446
 20
314.462063
 40
0.5
100
AcDbArc
 50
270.0
 51
360.0
  0
ARC
  5
5D7
100
AcDbEntity
  8
M0
 62
     7
100
AcDbCircle
 10
136.955446
 20
347.762063
 40
0.5
100
AcDbArc
 50
90.0
 51
180.0
  0
ARC
  5
5D8
100
AcDbEntity
  8
M0
 62
     7
100
AcDbCircle
 10
136.955446
 20
315.162063
 40
1.0
100
AcDbArc
 50
90.0
 51
180.0
  0
LINE
  5
5D9
100
AcDbEntity
  8
M0
 62
     7
100
AcDbLine
 10
129.855446
 20
341.512063
 11
129.855446
 21
342.412063
  0
LINE
  5
5DA
100
AcDbEntity
  8
M0
 62
     7
100
AcDbLine
 10
124.805446
 20
270.912063
 11
124.805446
 21
271.812063
  0
LINE
  5
5DB
100
AcDbEntity
  8
M0
 62
     7
100
AcDbLine
 10
143.405446
 20
274.562063
 11
142.305446
 21
274.562063
  0
LINE
  5
5DC
100
AcDbEntity
  8
M0
 62
     7
100
AcDbLine
 10
127.205446
 20
270.912063
 11
127.205446
 21
271.812063
  0
LINE
  5
5DD
100
AcDbEntity
  8
M0
 62
     7
100
AcDbLine
 10
143.405446
 20
269.562063
 11
143.405446
 21
274.562063
  0
LINE
  5
5DE
100
AcDbEntity
  8
M0
 62
     7
100
AcDbLine
 10
119.230446
 20
286.787063
 11
112.580446
 21
286.787063
  0
LINE
  5
5DF
100
AcDbEntity
  8
M0
 62
     7
100
AcDbLine
 10
112.580446
 20
279.137063
 11
119.230446
 21
279.137063
  0
LINE
  5
5E0
100
AcDbEntity
  8
M0
  6
DASHDOT
 62
     7
100
AcDbLine
 10
115.905446
 20
282.462063
 11
115.905446
 21
283.462063
  0
LINE
  5
5E1
100
AcDbEntity
  8
M0
  6
DASHDOT
 62
     7
100
AcDbLine
 10
115.405446
 20
282.962063
 11
116.405446
 21
282.962063
  0
LINE
  5
5E2
100
AcDbEntity
  8
M0
 62
     7
100
AcDbLine
 10
132.255446
 20
341.512063
 11
132.255446
 21
342.412063
  0
LINE
  5
5E3
100
AcDbEntity
  8
M0
 62
     7
100
AcDbLine
 10
139.905446
 20
272.862063
 11
139.905446
 21
269.562063
  0
LINE
  5
5E4
100
AcDbEntity
  8
M0
 62
     7
100
AcDbLine
 10
119.805446
 20
273.362063
 11
116.805446
 21
273.362063
  0
LINE
  5
5E5
100
AcDbEntity
  8
M0
 62
     7
100
AcDbLine
 10
138.255446
 20
271.062063
 11
138.255446
 21
272.862063
  0
LINE
  5
5E6
100
AcDbEntity
  8
M0
 62
     7
100
AcDbLine
 10
135.255446
 20
272.862063
 11
135.255446
 21
269.562063
  0
LINE
  5
5E7
100
AcDbEntity
  8
M0
  6
DASHDOT
 62
     7
100
AcDbLine
 10
119.655446
 20
342.362063
 11
120.655446
 21
342.362063
  0
LINE
  5
5E8
100
AcDbEntity
  8
M0
 62
     7
100
AcDbLine
 10
109.555446
 20
272.562063
 11
109.555446
 21
332.762063
  0
LINE
  5
5E9
100
AcDbEntity
  8
M0
 62
     7
100
AcDbLine
 10
152.555446
 20
335.562063
 11
152.555446
 21
307.362063
  0
LINE
  5
5EA
100
AcDbEntity
  8
M0
 62
     7
100
AcDbLine
 10
135.755446
 20
269.062063
 11
147.555446
 21
269.062063
  0
LINE
  5
5EB
100
AcDbEntity
  8
M0
 62
     7
100
AcDbLine
 10
148.805446
 20
278.162063
 11
148.805446
 21
277.762063
  0
LINE
  5
5EC
100
AcDbEntity
  8
M0
 62
     7
100
AcDbLine
 10
119.851507
 20
269.062063
 11
113.055446
 21
269.062063
  0
LINE
  5
5ED
100
AcDbEntity
  8
M0
 62
     7
100
AcDbLine
 10
132.280446
 20
286.287063
 11
132.280446
 21
279.637063
  0
LINE
  5
5EE
100
AcDbEntity
  8
M0
  6
DASHDOT
 62
     7
100
AcDbLine
 10
146.205446
 20
282.462063
 11
146.205446
 21
283.462063
  0
LINE
  5
5EF
100
AcDbEntity
  8
M0
 62
     7
100
AcDbLine
 10
132.780446
 20
279.137063
 11
139.430446
 21
279.137063
  0
LINE
  5
5F0
100
AcDbEntity
  8
M0
 62
     7
100
AcDbLine
 10
139.930446
 20
279.637063
 11
139.930446
 21
286.287063
  0
LINE
  5
5F1
100
AcDbEntity
  8
M0
 62
     7
100
AcDbLine
 10
139.430446
 20
286.787063
 11
132.780446
 21
286.787063
  0
LINE
  5
5F2
100
AcDbEntity
  8
M0
 62
     7
100
AcDbLine
 10
150.030446
 20
279.637063
 11
150.030446
 21
286.287063
  0
ARC
  5
5F3
100
AcDbEntity
  8
M0
 62
     7
100
AcDbCircle
 10
125.155446
 20
347.762063
 40
0.5
100
AcDbArc
 50
0.0
 51
90.0
  0
LINE
  5
5F4
100
AcDbEntity
  8
M0
 62
     7
100
AcDbLine
 10
149.530446
 20
286.787063
 11
142.880446
 21
286.787063
  0
LINE
  5
5F5
100
AcDbEntity
  8
M0
 62
     7
100
AcDbLine
 10
142.880446
 20
279.137063
 11
149.530446
 21
279.137063
  0
LINE
  5
5F6
100
AcDbEntity
  8
M0
  6
DASHDOT
 62
     7
100
AcDbLine
 10
145.705446
 20
282.962063
 11
146.705446
 21
282.962063
  0
LINE
  5
5F7
100
AcDbEntity
  8
M0
  6
DASHDOT
 62
     7
100
AcDbLine
 10
125.505446
 20
282.962063
 11
126.505446
 21
282.962063
  0
LINE
  5
5F8
100
AcDbEntity
  8
M0
 62
     7
100
AcDbLine
 10
129.330446
 20
286.787063
 11
122.680446
 21
286.787063
  0
LINE
  5
5F9
100
AcDbEntity
  8
M0
 62
     7
100
AcDbLine
 10
112.080446
 20
286.287063
 11
112.080446
 21
279.637063
  0
LINE
  5
5FA
100
AcDbEntity
  8
M0
  6
DASHDOT
 62
     7
100
AcDbLine
 10
126.005446
 20
282.462063
 11
126.005446
 21
283.462063
  0
LINE
  5
5FB
100
AcDbEntity
  8
M0
 62
     7
100
AcDbLine
 10
119.730446
 20
279.637063
 11
119.730446
 21
286.287063
  0
LINE
  5
5FC
100
AcDbEntity
  8
M0
  6
DASHDOT
 62
     7
100
AcDbLine
 10
136.105446
 20
282.462063
 11
136.105446
 21
283.462063
  0
LINE
  5
5FD
100
AcDbEntity
  8
M0
  6
DASHDOT
 62
     7
100
AcDbLine
 10
135.605446
 20
282.962063
 11
136.605446
 21
282.962063
  0
LINE
  5
5FE
100
AcDbEntity
  8
M0
 62
     7
100
AcDbLine
 10
129.830446
 20
279.637063
 11
129.830446
 21
286.287063
  0
LINE
  5
5FF
100
AcDbEntity
  8
M0
 62
     7
100
AcDbLine
 10
122.180446
 20
286.287063
 11
122.180446
 21
279.637063
  0
CIRCLE
  5
600
100
AcDbEntity
  8
M0
 62
     7
100
AcDbCircle
 10
126.005446
 20
271.362063
 40
2.85
  0
LINE
  5
601
100
AcDbEntity
  8
M0
 62
     7
100
AcDbLine
 10
150.502814
 20
309.962063
 11
150.502814
 21
312.762063
  0
ARC
  5
602
100
AcDbEntity
  8
M0
 62
     7
100
AcDbCircle
 10
135.755446
 20
269.562063
 40
0.5
100
AcDbArc
 50
180.0
 51
270.0
  0
ARC
  5
603
100
AcDbEntity
  8
M0
 62
     7
100
AcDbCircle
 10
148.555446
 20
335.562063
 40
2.25
100
AcDbArc
 50
257.160412
 51
462.839588
  0
ARC
  5
604
100
AcDbEntity
  8
M0
 62
     7
100
AcDbCircle
 10
139.405446
 20
269.562063
 40
0.5
100
AcDbArc
 50
270.0
 51
360.0
  0
LINE
  5
605
100
AcDbEntity
  8
M0
 62
     7
100
AcDbLine
 10
111.855446
 20
307.562063
 11
114.773391
 21
307.562063
  0
LINE
  5
606
100
AcDbEntity
  8
M0
 62
     7
100
AcDbLine
 10
110.555446
 20
300.162063
 11
110.555446
 21
307.562063
  0
LINE
  5
607
100
AcDbEntity
  8
M0
 62
     7
100
AcDbLine
 10
151.555446
 20
275.062063
 11
151.105446
 21
275.062063
  0
LINE
  5
608
100
AcDbEntity
  8
M0
 62
     7
100
AcDbLine
 10
150.105446
 20
276.062063
 11
150.105446
 21
287.162063
  0
LINE
  5
609
100
AcDbEntity
  8
M0
 62
     7
100
AcDbLine
 10
135.955446
 20
314.862063
 11
136.105446
 21
314.862063
  0
ARC
  5
60A
100
AcDbEntity
  8
M0
 62
     7
100
AcDbCircle
 10
113.555446
 20
275.562063
 40
2.25
100
AcDbArc
 50
191.257189
 51
493.542219
  0
ARC
  5
60B
100
AcDbEntity
  8
M0
 62
     7
100
AcDbCircle
 10
148.555446
 20
280.762063
 40
2.25
100
AcDbArc
 50
286.791447
 51
313.542219
  0
ARC
  5
60C
100
AcDbEntity
  8
M0
 62
     7
100
AcDbCircle
 10
113.555446
 20
332.762063
 40
2.25
100
AcDbArc
 50
77.160412
 51
180.0
  0
ARC
  5
60D
100
AcDbEntity
  8
M0
 62
     7
100
AcDbCircle
 10
146.555446
 20
277.762063
 40
2.25
100
AcDbArc
 50
180.0
 51
360.0
  0
ARC
  5
60E
100
AcDbEntity
  8
M0
 62
     7
100
AcDbCircle
 10
114.555446
 20
332.762063
 40
5.0
100
AcDbArc
 50
95.73917
 51
180.0
  0
ARC
  5
60F
100
AcDbEntity
  8
M0
 62
     7
100
AcDbCircle
 10
146.855446
 20
347.662063
 40
0.6
100
AcDbArc
 50
90.0
 51
180.0
  0
ARC
  5
610
100
AcDbEntity
  8
M0
 62
     7
100
AcDbCircle
 10
115.255446
 20
347.662063
 40
0.6
100
AcDbArc
 50
0.0
 51
90.0
  0
ARC
  5
611
100
AcDbEntity
  8
M0
 62
     7
100
AcDbCircle
 10
136.055446
 20
270.362063
 40
2.0
100
AcDbArc
 50
270.0
 51
319.458398
  0
ARC
  5
612
100
AcDbEntity
  8
M0
 62
     7
100
AcDbCircle
 10
114.655446
 20
347.662063
 40
0.6
100
AcDbArc
 50
90.0
 51
180.0
  0
ARC
  5
613
100
AcDbEntity
  8
M0
 62
     7
100
AcDbCircle
 10
147.455446
 20
347.662063
 40
0.6
100
AcDbArc
 50
0.0
 51
90.0
  0
LINE
  5
614
100
AcDbEntity
  8
M0
 62
     7
100
AcDbLine
 10
136.055446
 20
268.362063
 11
121.105446
 21
268.362063
  0
LINE
  5
615
100
AcDbEntity
  8
M0
 62
     7
100
AcDbLine
 10
114.655446
 20
348.262063
 11
115.255446
 21
348.262063
  0
LINE
  5
616
100
AcDbEntity
  8
M0
 62
     7
100
AcDbLine
 10
132.205446
 20
270.362063
 11
135.255446
 21
270.362063
  0
LINE
  5
617
100
AcDbEntity
  8
M0
 62
     7
100
AcDbLine
 10
148.055446
 20
345.262063
 11
148.055446
 21
338.362063
  0
LINE
  5
618
100
AcDbEntity
  8
M0
 62
     7
100
AcDbLine
 10
115.855446
 20
338.262063
 11
115.855446
 21
347.662063
  0
LINE
  5
619
100
AcDbEntity
  8
M0
 62
     7
100
AcDbLine
 10
125.555446
 20
270.912063
 11
125.555446
 21
270.162063
  0
LINE
  5
61A
100
AcDbEntity
  8
M0
 62
     7
100
AcDbLine
 10
125.555446
 20
270.162063
 11
126.455446
 21
270.162063
  0
LINE
  5
61B
100
AcDbEntity
  8
M0
 62
     7
100
AcDbLine
 10
148.055446
 20
345.262063
 11
148.055446
 21
347.662063
  0
LINE
  5
61C
100
AcDbEntity
  8
M0
 62
     7
100
AcDbLine
 10
127.205446
 20
270.912063
 11
126.455446
 21
270.912063
  0
LINE
  5
61D
100
AcDbEntity
  8
M0
 62
     7
100
AcDbLine
 10
146.855446
 20
348.262063
 11
147.455446
 21
348.262063
  0
LINE
  5
61E
100
AcDbEntity
  8
M0
 62
     7
100
AcDbLine
 10
111.505446
 20
309.962063
 11
111.655446
 21
309.962063
  0
LINE
  5
61F
100
AcDbEntity
  8
M0
 62
     7
100
AcDbLine
 10
114.773391
 20
300.162063
 11
111.855446
 21
300.162063
  0
LINE
  5
620
100
AcDbEntity
  8
M0
 62
     7
100
AcDbLine
 10
111.005446
 20
275.062063
 11
110.555446
 21
275.062063
  0
LINE
  5
621
100
AcDbEntity
  8
M0
 62
     7
100
AcDbLine
 10
111.655446
 20
312.762063
 11
111.505446
 21
312.762063
  0
LINE
  5
622
100
AcDbEntity
  8
M0
 62
     7
100
AcDbLine
 10
111.855446
 20
300.162063
 11
111.855446
 21
307.562063
  0
LINE
  5
623
100
AcDbEntity
  8
M0
 62
     7
100
AcDbLine
 10
114.855446
 20
307.512063
 11
114.855446
 21
306.262063
  0
LINE
  5
624
100
AcDbEntity
  8
M0
 62
     7
100
AcDbLine
 10
138.055446
 20
272.862063
 11
138.055446
 21
271.062063
  0
LINE
  5
625
100
AcDbEntity
  8
M0
 62
     7
100
AcDbLine
 10
114.855446
 20
301.262063
 11
114.855446
 21
300.212063
  0
LINE
  5
626
100
AcDbEntity
  8
M0
 62
     7
100
AcDbLine
 10
115.055446
 20
306.262063
 11
114.855446
 21
306.262063
  0
LINE
  5
627
100
AcDbEntity
  8
M0
  6
DASHDOT
 62
     7
100
AcDbLine
 10
136.105446
 20
324.262063
 11
136.105446
 21
325.262063
  0
LINE
  5
628
100
AcDbEntity
  8
M0
  6
DASHDOT
 62
     7
100
AcDbLine
 10
135.605446
 20
324.762063
 11
136.605446
 21
324.762063
  0
LINE
  5
629
100
AcDbEntity
  8
M0
 62
     7
100
AcDbLine
 10
123.980446
 20
339.037063
 11
123.980446
 21
345.687063
  0
LINE
  5
62A
100
AcDbEntity
  8
M0
 62
     7
100
AcDbLine
 10
116.330446
 20
345.687063
 11
116.330446
 21
339.037063
  0
LINE
  5
62B
100
AcDbEntity
  8
M0
 62
     7
100
AcDbLine
 10
116.830446
 20
338.537063
 11
123.480446
 21
338.537063
  0
LINE
  5
62C
100
AcDbEntity
  8
M0
 62
     7
100
AcDbLine
 10
132.280446
 20
328.087063
 11
132.280446
 21
321.437063
  0
LINE
  5
62D
100
AcDbEntity
  8
M0
  6
DASHDOT
 62
     7
100
AcDbLine
 10
126.005446
 20
324.262063
 11
126.005446
 21
325.262063
  0
LINE
  5
62E
100
AcDbEntity
  8
M0
 62
     7
100
AcDbLine
 10
132.780446
 20
320.937063
 11
139.430446
 21
320.937063
  0
LINE
  5
62F
100
AcDbEntity
  8
M0
 62
     7
100
AcDbLine
 10
139.930446
 20
321.437063
 11
139.930446
 21
328.087063
  0
LINE
  5
630
100
AcDbEntity
  8
M0
 62
     7
100
AcDbLine
 10
139.430446
 20
328.587063
 11
132.780446
 21
328.587063
  0
LINE
  5
631
100
AcDbEntity
  8
M0
 62
     7
100
AcDbLine
 10
119.230446
 20
328.587063
 11
112.580446
 21
328.587063
  0
LINE
  5
632
100
AcDbEntity
  8
M0
 62
     7
100
AcDbLine
 10
112.580446
 20
320.937063
 11
119.230446
 21
320.937063
  0
LINE
  5
633
100
AcDbEntity
  8
M0
  6
DASHDOT
 62
     7
100
AcDbLine
 10
115.905446
 20
324.262063
 11
115.905446
 21
325.262063
  0
LINE
  5
634
100
AcDbEntity
  8
M0
  6
DASHDOT
 62
     7
100
AcDbLine
 10
115.405446
 20
324.762063
 11
116.405446
 21
324.762063
  0
LINE
  5
635
100
AcDbEntity
  8
M0
 62
     7
100
AcDbLine
 10
138.130446
 20
345.687063
 11
138.130446
 21
339.037063
  0
LINE
  5
636
100
AcDbEntity
  8
M0
  6
DASHDOT
 62
     7
100
AcDbLine
 10
119.655446
 20
342.362063
 11
120.655446
 21
342.362063
  0
LINE
  5
637
100
AcDbEntity
  8
M0
 62
     7
100
AcDbLine
 10
123.480446
 20
346.187063
 11
116.830446
 21
346.187063
  0
LINE
  5
638
100
AcDbEntity
  8
M0
 62
     7
100
AcDbLine
 10
112.080446
 20
328.087063
 11
112.080446
 21
321.437063
  0
LINE
  5
639
100
AcDbEntity
  8
M0
  6
DASHDOT
 62
     7
100
AcDbLine
 10
120.155446
 20
341.862063
 11
120.155446
 21
342.862063
  0
LINE
  5
63A
100
AcDbEntity
  8
M0
 62
     7
100
AcDbLine
 10
119.730446
 20
321.437063
 11
119.730446
 21
328.087063
  0
ARC
  5
63B
100
AcDbEntity
  8
M0
 62
     7
100
AcDbCircle
 10
121.105446
 20
272.662063
 40
1.0
100
AcDbArc
 50
270.0
 51
360.0
  0
ARC
  5
63C
100
AcDbEntity
  8
M0
 62
     7
100
AcDbCircle
 10
141.305446
 20
272.662063
 40
1.0
100
AcDbArc
 50
270.0
 51
360.0
  0
ARC
  5
63D
100
AcDbEntity
  8
M0
 62
     7
100
AcDbCircle
 10
120.805446
 20
272.662063
 40
1.0
100
AcDbArc
 50
180.0
 51
270.0
  0
ARC
  5
63E
100
AcDbEntity
  8
M0
 62
     7
100
AcDbCircle
 10
131.205446
 20
272.662063
 40
1.0
100
AcDbArc
 50
270.0
 51
360.0
  0
LINE
  5
63F
100
AcDbEntity
  8
M0
 62
     7
100
AcDbLine
 10
142.380446
 20
328.087063
 11
142.380446
 21
321.437063
  0
ARC
  5
640
100
AcDbEntity
  8
M0
 62
     7
100
AcDbCircle
 10
143.905446
 20
269.562063
 40
0.5
100
AcDbArc
 50
180.0
 51
270.0
  0
LINE
  5
641
100
AcDbEntity
  8
M0
 62
     7
100
AcDbLine
 10
114.855446
 20
301.262063
 11
115.055446
 21
301.262063
  0
ARC
  5
642
100
AcDbEntity
  8
M0
 62
     7
100
AcDbCircle
 10
147.555446
 20
274.062063
 40
5.0
100
AcDbArc
 50
270.0
 51
360.0
  0
ARC
  5
643
100
AcDbEntity
  8
M0
 62
     7
100
AcDbCircle
 10
116.305446
 20
269.562063
 40
0.5
100
AcDbArc
 50
270.0
 51
360.0
  0
ARC
  5
644
100
AcDbEntity
  8
M0
 62
     7
100
AcDbCircle
 10
113.055446
 20
272.562063
 40
3.5
100
AcDbArc
 50
180.0
 51
270.0
  0
LINE
  5
645
100
AcDbEntity
  8
M0
 62
     7
100
AcDbLine
 10
129.830446
 20
321.437063
 11
129.830446
 21
328.087063
  0
LINE
  5
646
100
AcDbEntity
  8
M0
 62
     7
100
AcDbLine
 10
122.180446
 20
328.087063
 11
122.180446
 21
321.437063
  0
LINE
  5
647
100
AcDbEntity
  8
M0
 62
     7
100
AcDbLine
 10
129.330446
 20
328.587063
 11
122.680446
 21
328.587063
  0
LINE
  5
648
100
AcDbEntity
  8
M0
 62
     7
100
AcDbLine
 10
122.680446
 20
320.937063
 11
129.330446
 21
320.937063
  0
LINE
  5
649
100
AcDbEntity
  8
M0
  6
DASHDOT
 62
     7
100
AcDbLine
 10
125.505446
 20
324.762063
 11
126.505446
 21
324.762063
  0
LINE
  5
64A
100
AcDbEntity
  8
M0
 62
     7
100
AcDbLine
 10
142.880446
 20
320.937063
 11
149.530446
 21
320.937063
  0
LINE
  5
64B
100
AcDbEntity
  8
M0
 62
     7
100
AcDbLine
 10
150.030446
 20
321.437063
 11
150.030446
 21
328.087063
  0
LINE
  5
64C
100
AcDbEntity
  8
M0
  6
DASHDOT
 62
     7
100
AcDbLine
 10
145.705446
 20
324.762063
 11
146.705446
 21
324.762063
  0
LINE
  5
64D
100
AcDbEntity
  8
M0
 62
     7
100
AcDbLine
 10
149.530446
 20
328.587063
 11
142.880446
 21
328.587063
  0
LINE
  5
64E
100
AcDbEntity
  8
M0
 62
     7
100
AcDbLine
 10
128.805446
 20
308.462063
 11
126.255446
 21
308.462063
  0
LINE
  5
64F
100
AcDbEntity
  8
M0
 62
     7
100
AcDbLine
 10
133.305446
 20
308.462063
 11
135.855446
 21
308.462063
  0
LINE
  5
650
100
AcDbEntity
  8
M0
 62
     7
100
AcDbLine
 10
125.755446
 20
336.762063
 11
125.755446
 21
338.67873
  0
LINE
  5
651
100
AcDbEntity
  8
M0
 62
     7
100
AcDbLine
 10
126.755446
 20
338.262063
 11
135.355446
 21
338.262063
  0
LINE
  5
652
100
AcDbEntity
  8
M0
 62
     7
100
AcDbLine
 10
125.755446
 20
336.762063
 11
136.355446
 21
336.762063
  0
LINE
  5
653
100
AcDbEntity
  8
M0
 62
     7
100
AcDbLine
 10
126.755446
 20
346.762063
 11
135.355446
 21
346.762063
  0
LINE
  5
654
100
AcDbEntity
  8
M0
 62
     7
100
AcDbLine
 10
119.805446
 20
334.662063
 11
114.055446
 21
334.662063
  0
LINE
  5
655
100
AcDbEntity
  8
M0
 62
     7
100
AcDbLine
 10
129.905446
 20
299.762063
 11
129.905446
 21
300.262063
  0
LINE
  5
656
100
AcDbEntity
  8
M0
 62
     7
100
AcDbLine
 10
114.055446
 20
347.662063
 11
114.055446
 21
329.562063
  0
LINE
  5
657
100
AcDbEntity
  8
M0
 62
     7
100
AcDbLine
 10
136.355446
 20
307.962063
 11
136.355446
 21
299.762063
  0
LINE
  5
658
100
AcDbEntity
  8
M0
 62
     7
100
AcDbLine
 10
136.355446
 20
334.662063
 11
136.355446
 21
336.762063
  0
LINE
  5
659
100
AcDbEntity
  8
M0
 62
     7
100
AcDbLine
 10
125.755446
 20
336.762063
 11
125.755446
 21
334.662063
  0
ARC
  5
65A
100
AcDbEntity
  8
M0
 62
     7
100
AcDbCircle
 10
110.555446
 20
299.162063
 40
1.0
100
AcDbArc
 50
90.0
 51
180.0
  0
LINE
  5
65B
100
AcDbEntity
  8
M0
 62
     7
100
AcDbLine
 10
136.355446
 20
336.762063
 11
136.355446
 21
338.67873
  0
ARC
  5
65C
100
AcDbEntity
  8
M0
 62
     7
100
AcDbCircle
 10
151.555446
 20
299.162063
 40
1.0
100
AcDbArc
 50
0.0
 51
90.0
  0
LINE
  5
65D
100
AcDbEntity
  8
M0
 62
     7
100
AcDbLine
 10
140.005446
 20
272.862063
 11
132.205446
 21
272.862063
  0
LINE
  5
65E
100
AcDbEntity
  8
M0
 62
     7
100
AcDbLine
 10
127.905446
 20
274.862063
 11
124.105446
 21
274.862063
  0
LINE
  5
65F
100
AcDbEntity
  8
M0
 62
     7
100
AcDbLine
 10
148.055446
 20
334.662063
 11
142.305446
 21
334.662063
  0
LINE
  5
660
100
AcDbEntity
  8
M0
 62
     7
100
AcDbLine
 10
132.205446
 20
334.662063
 11
140.005446
 21
334.662063
  0
LINE
  5
661
100
AcDbEntity
  8
M0
 62
     7
100
AcDbLine
 10
148.055446
 20
329.562063
 11
148.055446
 21
334.662063
  0
LINE
  5
662
100
AcDbEntity
  8
M0
 62
     7
100
AcDbLine
 10
120.805446
 20
336.062063
 11
121.005446
 21
336.062063
  0
LINE
  5
663
100
AcDbEntity
  8
M0
 62
     7
100
AcDbLine
 10
129.905446
 20
320.562063
 11
129.905446
 21
335.062063
  0
LINE
  5
664
100
AcDbEntity
  8
M0
 62
     7
100
AcDbLine
 10
151.105446
 20
332.662063
 11
151.555446
 21
332.662063
  0
LINE
  5
665
100
AcDbEntity
  8
M0
 62
     7
100
AcDbLine
 10
122.105446
 20
335.062063
 11
122.105446
 21
332.062063
  0
LINE
  5
666
100
AcDbEntity
  8
M0
 62
     7
100
AcDbLine
 10
112.005446
 20
331.662063
 11
112.005446
 21
327.662063
  0
LINE
  5
667
100
AcDbEntity
  8
M0
 62
     7
100
AcDbLine
 10
112.005446
 20
287.162063
 11
112.005446
 21
280.062063
  0
LINE
  5
668
100
AcDbEntity
  8
M0
 62
     7
100
AcDbLine
 10
112.905446
 20
329.562063
 11
118.905446
 21
329.562063
  0
LINE
  5
669
100
AcDbEntity
  8
M0
 62
     7
100
AcDbLine
 10
141.105446
 20
336.062063
 11
141.305446
 21
336.062063
  0
LINE
  5
66A
100
AcDbEntity
  8
M0
 62
     7
100
AcDbLine
 10
112.005446
 20
280.062063
 11
112.005446
 21
276.062063
  0
LINE
  5
66B
100
AcDbEntity
  8
M0
 62
     7
100
AcDbLine
 10
141.005446
 20
336.062063
 11
141.105446
 21
336.062063
  0
LINE
  5
66C
100
AcDbEntity
  8
M0
 62
     7
100
AcDbLine
 10
110.555446
 20
332.662063
 11
111.005446
 21
332.662063
  0
LINE
  5
66D
100
AcDbEntity
  8
M0
 62
     7
100
AcDbLine
 10
112.005446
 20
327.662063
 11
112.005446
 21
320.562063
  0
LINE
  5
66E
100
AcDbEntity
  8
M0
 62
     7
100
AcDbLine
 10
125.755446
 20
338.67873
 11
125.755446
 21
345.762063
  0
LINE
  5
66F
100
AcDbEntity
  8
M0
 62
     7
100
AcDbLine
 10
137.105446
 20
292.862063
 11
125.005446
 21
292.862063
  0
LINE
  5
670
100
AcDbEntity
  8
M0
 62
     7
100
AcDbLine
 10
136.355446
 20
345.762063
 11
136.355446
 21
338.67873
  0
LINE
  5
671
100
AcDbEntity
  8
M0
 62
     7
100
AcDbLine
 10
136.605446
 20
297.562063
 11
125.505446
 21
297.562063
  0
LINE
  5
672
100
AcDbEntity
  8
M0
 62
     7
100
AcDbLine
 10
150.605446
 20
320.562063
 11
111.505446
 21
320.562063
  0
LINE
  5
673
100
AcDbEntity
  8
M0
 62
     7
100
AcDbLine
 10
125.505446
 20
298.962063
 11
136.605446
 21
298.962063
  0
LINE
  5
674
100
AcDbEntity
  8
M0
 62
     7
100
AcDbLine
 10
125.505446
 20
294.362063
 11
136.605446
 21
294.362063
  0
LINE
  5
675
100
AcDbEntity
  8
M0
 62
     7
100
AcDbLine
 10
114.055446
 20
334.762063
 11
114.055446
 21
334.662063
  0
LINE
  5
676
100
AcDbEntity
  8
M0
 62
     7
100
AcDbLine
 10
145.455446
 20
346.762063
 11
146.255446
 21
346.762063
  0
LINE
  5
677
100
AcDbEntity
  8
M0
 62
     7
100
AcDbLine
 10
148.055446
 20
334.662063
 11
148.055446
 21
334.762063
  0
LINE
  5
678
100
AcDbEntity
  8
M0
 62
     7
100
AcDbLine
 10
114.055446
 20
338.362063
 11
114.055446
 21
338.262063
  0
LINE
  5
679
100
AcDbEntity
  8
M0
 62
     7
100
AcDbLine
 10
148.055446
 20
338.262063
 11
148.055446
 21
338.362063
  0
ARC
  5
67A
100
AcDbEntity
  8
M0
 62
     7
100
AcDbCircle
 10
130.905446
 20
335.062063
 40
1.0
100
AcDbArc
 50
90.0
 51
180.0
  0
ARC
  5
67B
100
AcDbEntity
  8
M0
 62
     7
100
AcDbCircle
 10
111.005446
 20
276.062063
 40
1.0
100
AcDbArc
 50
270.0
 51
360.0
  0
LINE
  5
67C
100
AcDbEntity
  8
M0
 62
     7
100
AcDbLine
 10
136.755446
 20
272.862063
 11
136.755446
 21
271.062063
  0
ARC
  5
67D
100
AcDbEntity
  8
M0
 62
     7
100
AcDbCircle
 10
121.105446
 20
335.062063
 40
1.0
100
AcDbArc
 50
0.0
 51
90.0
  0
LINE
  5
67E
100
AcDbEntity
  8
M0
 62
     7
100
AcDbLine
 10
115.855446
 20
346.762063
 11
124.155446
 21
346.762063
  0
LINE
  5
67F
100
AcDbEntity
  8
M0
 62
     7
100
AcDbLine
 10
126.455446
 20
272.562063
 11
125.555446
 21
272.562063
  0
LINE
  5
680
100
AcDbEntity
  8
M0
 62
     7
100
AcDbLine
 10
126.455446
 20
271.812063
 11
127.205446
 21
271.812063
  0
LINE
  5
681
100
AcDbEntity
  8
M0
 62
     7
100
AcDbLine
 10
125.555446
 20
270.912063
 11
124.805446
 21
270.912063
  0
LINE
  5
682
100
AcDbEntity
  8
M0
 62
     7
100
AcDbLine
 10
126.455446
 20
270.162063
 11
126.455446
 21
270.912063
  0
LINE
  5
683
100
AcDbEntity
  8
M0
  6
DASHDOT
 62
     7
100
AcDbLine
 10
146.205446
 20
324.262063
 11
146.205446
 21
325.262063
  0
LINE
  5
684
100
AcDbEntity
  8
M0
 62
     7
100
AcDbLine
 10
115.855446
 20
338.262063
 11
115.855446
 21
338.362063
  0
LINE
  5
685
100
AcDbEntity
  8
M0
 62
     7
100
AcDbLine
 10
146.255446
 20
347.662063
 11
146.255446
 21
338.262063
  0
LINE
  5
686
100
AcDbEntity
  8
M0
 62
     7
100
AcDbLine
 10
124.805446
 20
271.812063
 11
125.555446
 21
271.812063
  0
LINE
  5
687
100
AcDbEntity
  8
M0
 62
     7
100
AcDbLine
 10
126.455446
 20
271.812063
 11
126.455446
 21
272.562063
  0
LINE
  5
688
100
AcDbEntity
  8
M0
 62
     7
100
AcDbLine
 10
125.555446
 20
272.562063
 11
125.555446
 21
271.812063
  0
ARC
  5
689
100
AcDbEntity
  8
M0
 62
     7
100
AcDbCircle
 10
125.005446
 20
293.362063
 40
0.5
100
AcDbArc
 50
270.0
 51
360.0
  0
ARC
  5
68A
100
AcDbEntity
  8
M0
 62
     7
100
AcDbCircle
 10
137.105446
 20
293.362063
 40
0.5
100
AcDbArc
 50
180.0
 51
270.0
  0
ARC
  5
68B
100
AcDbEntity
  8
M0
 62
     7
100
AcDbCircle
 10
139.505446
 20
316.562063
 40
0.5
100
AcDbArc
 50
270.0
 51
292.798407
  0
ARC
  5
68C
100
AcDbEntity
  8
M0
 62
     7
100
AcDbCircle
 10
139.505446
 20
292.362063
 40
0.5
100
AcDbArc
 50
67.201593
 51
90.0
  0
ARC
  5
68D
100
AcDbEntity
  8
M0
 62
     7
100
AcDbCircle
 10
122.605446
 20
292.362063
 40
0.5
100
AcDbArc
 50
90.0
 51
112.798407
  0
ARC
  5
68E
100
AcDbEntity
  8
M0
 62
     7
100
AcDbCircle
 10
151.605446
 20
299.163314
 40
1.0
100
AcDbArc
 50
92.865984
 51
180.0
  0
LINE
  5
68F
100
AcDbEntity
  8
M0
 62
     7
100
AcDbLine
 10
122.855446
 20
292.862063
 11
125.005446
 21
292.862063
  0
ARC
  5
690
100
AcDbEntity
  8
M0
 62
     7
100
AcDbCircle
 10
110.555446
 20
331.662063
 40
1.0
100
AcDbArc
 50
90.0
 51
180.0
  0
ARC
  5
691
100
AcDbEntity
  8
M0
 62
     7
100
AcDbCircle
 10
110.505446
 20
299.163314
 40
1.0
100
AcDbArc
 50
0.0
 51
87.134016
  0
ARC
  5
692
100
AcDbEntity
  8
M0
 62
     7
100
AcDbCircle
 10
110.505446
 20
308.560812
 40
1.0
100
AcDbArc
 50
272.865984
 51
360.0
  0
ARC
  5
693
100
AcDbEntity
  8
M0
 62
     7
100
AcDbCircle
 10
129.405446
 20
292.362063
 40
0.5
100
AcDbArc
 50
53.130102
 51
90.0
  0
ARC
  5
694
100
AcDbEntity
  8
M0
 62
     7
100
AcDbCircle
 10
141.005446
 20
335.062063
 40
1.0
100
AcDbArc
 50
90.0
 51
180.0
  0
ARC
  5
695
100
AcDbEntity
  8
M0
 62
     7
100
AcDbCircle
 10
151.555446
 20
276.062063
 40
1.0
100
AcDbArc
 50
270.0
 51
360.0
  0
ARC
  5
696
100
AcDbEntity
  8
M0
 62
     7
100
AcDbCircle
 10
120.805446
 20
335.062063
 40
1.0
100
AcDbArc
 50
90.0
 51
180.0
  0
ARC
  5
697
100
AcDbEntity
  8
M0
 62
     7
100
AcDbCircle
 10
132.705446
 20
292.362063
 40
0.5
100
AcDbArc
 50
90.0
 51
126.869898
  0
ARC
  5
698
100
AcDbEntity
  8
M0
 62
     7
100
AcDbCircle
 10
122.605446
 20
316.562063
 40
0.5
100
AcDbArc
 50
247.201593
 51
270.0
  0
ARC
  5
699
100
AcDbEntity
  8
M0
 62
     7
100
AcDbCircle
 10
110.555446
 20
276.062063
 40
1.0
100
AcDbArc
 50
180.0
 51
270.0
  0
ARC
  5
69A
100
AcDbEntity
  8
M0
 62
     7
100
AcDbCircle
 10
141.305446
 20
335.062063
 40
1.0
100
AcDbArc
 50
0.0
 51
90.0
  0
ARC
  5
69B
100
AcDbEntity
  8
M0
 62
     7
100
AcDbCircle
 10
151.105446
 20
276.062063
 40
1.0
100
AcDbArc
 50
180.0
 51
270.0
  0
ARC
  5
69C
100
AcDbEntity
  8
M0
 62
     7
100
AcDbCircle
 10
131.205446
 20
335.062063
 40
1.0
100
AcDbArc
 50
0.0
 51
90.0
  0
LINE
  5
69D
100
AcDbEntity
  8
M0
 62
     7
100
AcDbLine
 10
150.255446
 20
307.562063
 11
147.337501
 21
307.562063
  0
LINE
  5
69E
100
AcDbEntity
  8
M0
 62
     7
100
AcDbLine
 10
111.608077
 20
309.962063
 11
111.608077
 21
312.762063
  0
LINE
  5
69F
100
AcDbEntity
  8
M0
 62
     7
100
AcDbLine
 10
150.255446
 20
300.162063
 11
150.255446
 21
300.362063
  0
LINE
  5
6A0
100
AcDbEntity
  8
M0
 62
     7
100
AcDbLine
 10
147.337501
 20
300.162063
 11
150.255446
 21
300.162063
  0
LINE
  5
6A1
100
AcDbEntity
  8
M0
 62
     7
100
AcDbLine
 10
150.455446
 20
309.962063
 11
150.605446
 21
309.962063
  0
LINE
  5
6A2
100
AcDbEntity
  8
M0
 62
     7
100
AcDbLine
 10
119.805446
 20
332.062063
 11
119.805446
 21
335.062063
  0
LINE
  5
6A3
100
AcDbEntity
  8
M0
 62
     7
100
AcDbLine
 10
147.255446
 20
306.262063
 11
147.055446
 21
306.262063
  0
LINE
  5
6A4
100
AcDbEntity
  8
M0
 62
     7
100
AcDbLine
 10
151.555446
 20
300.162063
 11
151.555446
 21
300.362063
  0
LINE
  5
6A5
100
AcDbEntity
  8
M0
 62
     7
100
AcDbLine
 10
150.605446
 20
312.762063
 11
150.455446
 21
312.762063
  0
LINE
  5
6A6
100
AcDbEntity
  8
M0
 62
     7
100
AcDbLine
 10
147.255446
 20
307.512063
 11
147.255446
 21
306.262063
  0
LINE
  5
6A7
100
AcDbEntity
  8
M0
 62
     7
100
AcDbLine
 10
142.305446
 20
320.562063
 11
142.305446
 21
335.062063
  0
LINE
  5
6A8
100
AcDbEntity
  8
M0
 62
     7
100
AcDbLine
 10
132.205446
 20
320.562063
 11
132.205446
 21
335.062063
  0
LINE
  5
6A9
100
AcDbEntity
  8
M0
 62
     7
100
AcDbLine
 10
140.005446
 20
272.662063
 11
140.005446
 21
287.162063
  0
LINE
  5
6AA
100
AcDbEntity
  8
M0
 62
     7
100
AcDbLine
 10
130.905446
 20
285.662063
 11
131.205446
 21
285.662063
  0
LINE
  5
6AB
100
AcDbEntity
  8
M0
 62
     7
100
AcDbLine
 10
121.005446
 20
271.662063
 11
120.805446
 21
271.662063
  0
LINE
  5
6AC
100
AcDbEntity
  8
M0
 62
     7
100
AcDbLine
 10
131.105446
 20
271.662063
 11
131.005446
 21
271.662063
  0
LINE
  5
6AD
100
AcDbEntity
  8
M0
 62
     7
100
AcDbLine
 10
131.005446
 20
271.662063
 11
130.905446
 21
271.662063
  0
LINE
  5
6AE
100
AcDbEntity
  8
M0
 62
     7
100
AcDbLine
 10
131.205446
 20
271.662063
 11
131.105446
 21
271.662063
  0
LINE
  5
6AF
100
AcDbEntity
  8
M0
 62
     7
100
AcDbLine
 10
141.105446
 20
271.662063
 11
141.005446
 21
271.662063
  0
LINE
  5
6B0
100
AcDbEntity
  8
M0
 62
     7
100
AcDbLine
 10
141.305446
 20
271.662063
 11
141.105446
 21
271.662063
  0
ARC
  5
6B1
100
AcDbEntity
  8
M0
 62
     7
100
AcDbCircle
 10
130.905446
 20
306.362063
 40
0.5
100
AcDbArc
 50
180.0
 51
270.0
  0
ARC
  5
6B2
100
AcDbEntity
  8
M0
 62
     7
100
AcDbCircle
 10
130.905446
 20
301.362063
 40
0.5
100
AcDbArc
 50
90.0
 51
180.0
  0
ARC
  5
6B3
100
AcDbEntity
  8
M0
 62
     7
100
AcDbCircle
 10
120.805446
 20
269.862063
 40
1.0
100
AcDbArc
 50
180.0
 51
270.0
  0
ARC
  5
6B4
100
AcDbEntity
  8
M0
 62
     7
100
AcDbCircle
 10
121.105446
 20
269.862063
 40
1.0
100
AcDbArc
 50
270.0
 51
360.0
  0
ARC
  5
6B5
100
AcDbEntity
  8
M0
 62
     7
100
AcDbCircle
 10
126.255446
 20
299.762063
 40
0.5
100
AcDbArc
 50
180.0
 51
270.0
  0
ARC
  5
6B6
100
AcDbEntity
  8
M0
 62
     7
100
AcDbCircle
 10
131.205446
 20
269.862063
 40
1.0
100
AcDbArc
 50
270.0
 51
360.0
  0
LINE
  5
6B7
100
AcDbEntity
  8
M0
 62
     7
100
AcDbLine
 10
131.705446
 20
306.362063
 11
131.705446
 21
308.662063
  0
ARC
  5
6B8
100
AcDbEntity
  8
M0
 62
     7
100
AcDbCircle
 10
131.205446
 20
301.362063
 40
0.5
100
AcDbArc
 50
0.0
 51
90.0
  0
ARC
  5
6B9
100
AcDbEntity
  8
M0
 62
     7
100
AcDbCircle
 10
130.905446
 20
269.862063
 40
1.0
100
AcDbArc
 50
180.0
 51
270.0
  0
ARC
  5
6BA
100
AcDbEntity
  8
M0
 62
     7
100
AcDbCircle
 10
131.205446
 20
306.362063
 40
0.5
100
AcDbArc
 50
270.0
 51
360.0
  0
ELLIPSE
  5
6BB
100
AcDbEntity
  8
M0
 62
     7
100
AcDbEllipse
 10
126.755446
 20
338.67873
 11
1.0
 21
0.0
210
0.0
220
0.0
230
1.0
 40
0.416667
 41
3.141592653589793
 42
4.71238898038469
  0
ELLIPSE
  5
6BC
100
AcDbEntity
  8
M0
 62
     7
100
AcDbEllipse
 10
135.355446
 20
338.67873
 11
1.0
 21
0.0
210
0.0
220
0.0
230
1.0
 40
0.416667
 41
4.71238898038469
 42
6.283185307179586
  0
LINE
  5
6BD
100
AcDbEntity
  8
M0
 62
     7
100
AcDbLine
 10
147.055446
 20
301.262063
 11
147.255446
 21
301.262063
  0
LINE
  5
6BE
100
AcDbEntity
  8
M0
 62
     7
100
AcDbLine
 10
126.155446
 20
314.862063
 11
126.005446
 21
314.862063
  0
LINE
  5
6BF
100
AcDbEntity
  8
M0
 62
     7
100
AcDbLine
 10
147.255446
 20
301.262063
 11
147.255446
 21
300.212063
  0
ARC
  5
6C0
100
AcDbEntity
  8
M0
 62
     7
100
AcDbCircle
 10
129.405446
 20
299.762063
 40
0.5
100
AcDbArc
 50
270.0
 51
360.0
  0
ARC
  5
6C1
100
AcDbEntity
  8
M0
 62
     7
100
AcDbCircle
 10
135.855446
 20
299.762063
 40
0.5
100
AcDbArc
 50
270.0
 51
360.0
  0
ARC
  5
6C2
100
AcDbEntity
  8
M0
 62
     7
100
AcDbCircle
 10
129.805446
 20
301.262063
 40
0.5
100
AcDbArc
 50
180.0
 51
270.0
  0
ARC
  5
6C3
100
AcDbEntity
  8
M0
 62
     7
100
AcDbCircle
 10
132.305446
 20
301.262063
 40
0.5
100
AcDbArc
 50
270.0
 51
360.0
  0
ARC
  5
6C4
100
AcDbEntity
  8
M0
 62
     7
100
AcDbCircle
 10
130.905446
 20
323.062063
 40
1.0
100
AcDbArc
 50
180.0
 51
270.0
  0
ARC
  5
6C5
100
AcDbEntity
  8
M0
 62
     7
100
AcDbCircle
 10
131.205446
 20
323.062063
 40
1.0
100
AcDbArc
 50
270.0
 51
360.0
  0
ARC
  5
6C6
100
AcDbEntity
  8
M0
 62
     7
100
AcDbCircle
 10
130.905446
 20
272.662063
 40
1.0
100
AcDbArc
 50
180.0
 51
270.0
  0
ARC
  5
6C7
100
AcDbEntity
  8
M0
 62
     7
100
AcDbCircle
 10
141.005446
 20
323.062063
 40
1.0
100
AcDbArc
 50
180.0
 51
270.0
  0
ARC
  5
6C8
100
AcDbEntity
  8
M0
 62
     7
100
AcDbCircle
 10
141.005446
 20
272.662063
 40
1.0
100
AcDbArc
 50
180.0
 51
270.0
  0
LINE
  5
6C9
100
AcDbEntity
  8
M0
 62
     7
100
AcDbLine
 10
138.755446
 20
292.862063
 11
139.255446
 21
292.862063
  0
LINE
  5
6CA
100
AcDbEntity
  8
M0
 62
     7
100
AcDbLine
 10
136.105446
 20
313.862063
 11
126.005446
 21
313.862063
  0
ARC
  5
6CB
100
AcDbEntity
  8
M0
 62
     7
100
AcDbCircle
 10
121.105446
 20
284.662063
 40
1.0
100
AcDbArc
 50
0.0
 51
90.0
  0
ARC
  5
6CC
100
AcDbEntity
  8
M0
 62
     7
100
AcDbCircle
 10
131.205446
 20
284.662063
 40
1.0
100
AcDbArc
 50
0.0
 51
90.0
  0
ARC
  5
6CD
100
AcDbEntity
  8
M0
 62
     7
100
AcDbCircle
 10
120.805446
 20
323.062063
 40
1.0
100
AcDbArc
 50
180.0
 51
270.0
  0
ARC
  5
6CE
100
AcDbEntity
  8
M0
 62
     7
100
AcDbCircle
 10
110.555446
 20
308.562063
 40
1.0
100
AcDbArc
 50
180.0
 51
270.0
  0
ARC
  5
6CF
100
AcDbEntity
  8
M0
 62
     7
100
AcDbCircle
 10
121.105446
 20
323.062063
 40
1.0
100
AcDbArc
 50
270.0
 51
360.0
  0
ARC
  5
6D0
100
AcDbEntity
  8
M0
 62
     7
100
AcDbCircle
 10
151.555446
 20
308.562063
 40
1.0
100
AcDbArc
 50
270.0
 51
360.0
  0
ARC
  5
6D1
100
AcDbEntity
  8
M0
 62
     7
100
AcDbCircle
 10
151.605446
 20
308.560812
 40
1.0
100
AcDbArc
 50
180.0
 51
267.134016
  0
LINE
  5
6D2
100
AcDbEntity
  8
M0
 62
     7
100
AcDbLine
 10
122.680446
 20
279.137063
 11
129.330446
 21
279.137063
  0
ARC
  5
6D3
100
AcDbEntity
  8
M0
 62
     7
100
AcDbCircle
 10
141.305446
 20
284.662063
 40
1.0
100
AcDbArc
 50
0.0
 51
90.0
  0
ARC
  5
6D4
100
AcDbEntity
  8
M0
 62
     7
100
AcDbCircle
 10
141.005446
 20
284.662063
 40
1.0
100
AcDbArc
 50
90.0
 51
180.0
  0
ARC
  5
6D5
100
AcDbEntity
  8
M0
 62
     7
100
AcDbCircle
 10
141.305446
 20
323.062063
 40
1.0
100
AcDbArc
 50
270.0
 51
360.0
  0
ARC
  5
6D6
100
AcDbEntity
  8
M0
 62
     7
100
AcDbCircle
 10
120.805446
 20
284.662063
 40
1.0
100
AcDbArc
 50
90.0
 51
180.0
  0
ARC
  5
6D7
100
AcDbEntity
  8
M0
 62
     7
100
AcDbCircle
 10
130.905446
 20
284.662063
 40
1.0
100
AcDbArc
 50
90.0
 51
180.0
  0
LINE
  5
6D8
100
AcDbEntity
  8
M0
 62
     7
100
AcDbLine
 10
150.605446
 20
299.162063
 11
150.605446
 21
299.163314
  0
LINE
  5
6D9
100
AcDbEntity
  8
M0
 62
     7
100
AcDbLine
 10
140.005446
 20
335.062063
 11
140.005446
 21
320.562063
  0
LINE
  5
6DA
100
AcDbEntity
  8
M0
 62
     7
100
AcDbLine
 10
150.605446
 20
308.560812
 11
150.605446
 21
308.562063
  0
LINE
  5
6DB
100
AcDbEntity
  8
M0
 62
     7
100
AcDbLine
 10
111.505446
 20
299.163314
 11
111.505446
 21
299.162063
  0
LINE
  5
6DC
100
AcDbEntity
  8
M0
 62
     7
100
AcDbLine
 10
111.505446
 20
308.562063
 11
111.505446
 21
308.560812
  0
LINE
  5
6DD
100
AcDbEntity
  8
M0
 62
     7
100
AcDbLine
 10
121.105446
 20
271.662063
 11
121.005446
 21
271.662063
  0
ARC
  5
6DE
100
AcDbEntity
  8
M0
 62
     7
100
AcDbCircle
 10
130.405446
 20
305.762063
 40
0.5
100
AcDbArc
 50
180.0
 51
270.0
  0
LINE
  5
6DF
100
AcDbEntity
  8
M0
 62
     7
100
AcDbLine
 10
119.805446
 20
320.562063
 11
119.805446
 21
323.062063
  0
LINE
  5
6E0
100
AcDbEntity
  8
M0
 62
     7
100
AcDbLine
 10
142.305446
 20
287.162063
 11
142.305446
 21
272.662063
  0
LINE
  5
6E1
100
AcDbEntity
  8
M0
 62
     7
100
AcDbLine
 10
122.105446
 20
323.062063
 11
122.105446
 21
320.562063
  0
LINE
  5
6E2
100
AcDbEntity
  8
M0
 62
     7
100
AcDbLine
 10
121.855446
 20
296.362063
 11
121.855446
 21
309.962063
  0
LINE
  5
6E3
100
AcDbEntity
  8
M0
 62
     7
100
AcDbLine
 10
111.505446
 20
320.562063
 11
111.505446
 21
308.562063
  0
LINE
  5
6E4
100
AcDbEntity
  8
M0
 62
     7
100
AcDbLine
 10
136.605446
 20
308.662063
 11
125.505446
 21
308.662063
  0
LINE
  5
6E5
100
AcDbEntity
  8
M0
 62
     7
100
AcDbLine
 10
150.605446
 20
308.562063
 11
150.605446
 21
320.562063
  0
LINE
  5
6E6
100
AcDbEntity
  8
M0
 62
     7
100
AcDbLine
 10
138.755446
 20
316.062063
 11
139.255446
 21
316.062063
  0
LINE
  5
6E7
100
AcDbEntity
  8
M0
 62
     7
100
AcDbLine
 10
111.505446
 20
299.162063
 11
111.505446
 21
287.162063
  0
LINE
  5
6E8
100
AcDbEntity
  8
M0
 62
     7
100
AcDbLine
 10
150.605446
 20
287.162063
 11
150.605446
 21
299.162063
  0
LINE
  5
6E9
100
AcDbEntity
  8
M0
 62
     7
100
AcDbLine
 10
140.255446
 20
296.362063
 11
140.255446
 21
309.962063
  0
LINE
  5
6EA
100
AcDbEntity
  8
M0
 62
     7
100
AcDbLine
 10
122.855446
 20
316.062063
 11
123.355446
 21
316.062063
  0
ARC
  5
6EB
100
AcDbEntity
  8
M0
 62
     7
100
AcDbCircle
 10
138.630446
 20
345.687063
 40
0.5
100
AcDbArc
 50
90.0
 51
180.0
  0
ARC
  5
6EC
100
AcDbEntity
  8
M0
 62
     7
100
AcDbCircle
 10
119.230446
 20
321.437063
 40
0.5
100
AcDbArc
 50
270.0
 51
360.0
  0
ARC
  5
6ED
100
AcDbEntity
  8
M0
 62
     7
100
AcDbCircle
 10
145.280446
 20
345.687063
 40
0.5
100
AcDbArc
 50
0.0
 51
90.0
  0
ARC
  5
6EE
100
AcDbEntity
  8
M0
 62
     7
100
AcDbCircle
 10
138.630446
 20
339.037063
 40
0.5
100
AcDbArc
 50
180.0
 51
270.0
  0
ARC
  5
6EF
100
AcDbEntity
  8
M0
 62
     7
100
AcDbCircle
 10
145.280446
 20
339.037063
 40
0.5
100
AcDbArc
 50
270.0
 51
360.0
  0
ARC
  5
6F0
100
AcDbEntity
  8
M0
 62
     7
100
AcDbCircle
 10
123.480446
 20
339.037063
 40
0.5
100
AcDbArc
 50
270.0
 51
360.0
  0
ARC
  5
6F1
100
AcDbEntity
  8
M0
 62
     7
100
AcDbCircle
 10
123.480446
 20
345.687063
 40
0.5
100
AcDbArc
 50
0.0
 51
90.0
  0
ARC
  5
6F2
100
AcDbEntity
  8
M0
 62
     7
100
AcDbCircle
 10
112.580446
 20
321.437063
 40
0.5
100
AcDbArc
 50
180.0
 51
270.0
  0
ARC
  5
6F3
100
AcDbEntity
  8
M0
 62
     7
100
AcDbCircle
 10
112.580446
 20
328.087063
 40
0.5
100
AcDbArc
 50
90.0
 51
180.0
  0
ARC
  5
6F4
100
AcDbEntity
  8
M0
 62
     7
100
AcDbCircle
 10
119.230446
 20
328.087063
 40
0.5
100
AcDbArc
 50
0.0
 51
90.0
  0
LINE
  5
6F5
100
AcDbEntity
  8
M0
 62
     7
100
AcDbLine
 10
138.855446
 20
316.162063
 11
138.855446
 21
316.062063
  0
LINE
  5
6F6
100
AcDbEntity
  8
M0
 62
     7
100
AcDbLine
 10
140.005446
 20
279.162063
 11
139.105446
 21
279.162063
  0
LINE
  5
6F7
100
AcDbEntity
  8
M0
 62
     7
100
AcDbLine
 10
120.905446
 20
336.062063
 11
120.805446
 21
336.062063
  0
LINE
  5
6F8
100
AcDbEntity
  8
M0
 62
     7
100
AcDbLine
 10
141.305446
 20
336.062063
 11
141.205446
 21
336.062063
  0
LINE
  5
6F9
100
AcDbEntity
  8
M0
 62
     7
100
AcDbLine
 10
121.105446
 20
268.862063
 11
120.805446
 21
268.862063
  0
LINE
  5
6FA
100
AcDbEntity
  8
M0
 62
     7
100
AcDbLine
 10
123.005446
 20
279.162063
 11
122.105446
 21
279.162063
  0
LINE
  5
6FB
100
AcDbEntity
  8
M0
 62
     7
100
AcDbLine
 10
132.205446
 20
328.562063
 11
133.105446
 21
328.562063
  0
LINE
  5
6FC
100
AcDbEntity
  8
M0
 62
     7
100
AcDbLine
 10
129.905446
 20
279.162063
 11
129.005446
 21
279.162063
  0
LINE
  5
6FD
100
AcDbEntity
  8
M0
 62
     7
100
AcDbLine
 10
143.205446
 20
279.162063
 11
142.305446
 21
279.162063
  0
LINE
  5
6FE
100
AcDbEntity
  8
M0
 62
     7
100
AcDbLine
 10
133.355446
 20
292.762063
 11
133.355446
 21
292.862063
  0
ARC
  5
6FF
100
AcDbEntity
  8
M0
 62
     7
100
AcDbCircle
 10
142.880446
 20
328.087063
 40
0.5
100
AcDbArc
 50
90.0
 51
180.0
  0
CIRCLE
  5
700
100
AcDbEntity
  8
M0
 62
     7
100
AcDbCircle
 10
120.155446
 20
342.362063
 40
3.0
  0
ARC
  5
701
100
AcDbEntity
  8
M0
 62
     7
100
AcDbCircle
 10
149.530446
 20
328.087063
 40
0.5
100
AcDbArc
 50
0.0
 51
90.0
  0
ARC
  5
702
100
AcDbEntity
  8
M0
 62
     7
100
AcDbCircle
 10
142.880446
 20
321.437063
 40
0.5
100
AcDbArc
 50
180.0
 51
270.0
  0
ARC
  5
703
100
AcDbEntity
  8
M0
 62
     7
100
AcDbCircle
 10
149.530446
 20
321.437063
 40
0.5
100
AcDbArc
 50
270.0
 51
360.0
  0
LINE
  5
704
100
AcDbEntity
  8
M0
 62
     7
100
AcDbLine
 10
138.630446
 20
338.537063
 11
145.280446
 21
338.537063
  0
LINE
  5
705
100
AcDbEntity
  8
M0
 62
     7
100
AcDbLine
 10
145.780446
 20
339.037063
 11
145.780446
 21
345.687063
  0
LINE
  5
706
100
AcDbEntity
  8
M0
  6
DASHDOT
 62
     7
100
AcDbLine
 10
141.455446
 20
342.362063
 11
142.455446
 21
342.362063
  0
LINE
  5
707
100
AcDbEntity
  8
M0
 62
     7
100
AcDbLine
 10
145.280446
 20
346.187063
 11
138.630446
 21
346.187063
  0
LINE
  5
708
100
AcDbEntity
  8
M0
  6
DASHDOT
 62
     7
100
AcDbLine
 10
141.955446
 20
341.862063
 11
141.955446
 21
342.862063
  0
ARC
  5
709
100
AcDbEntity
  8
M0
 62
     7
100
AcDbCircle
 10
139.430446
 20
328.087063
 40
0.5
100
AcDbArc
 50
0.0
 51
90.0
  0
ARC
  5
70A
100
AcDbEntity
  8
M0
 62
     7
100
AcDbCircle
 10
132.780446
 20
321.437063
 40
0.5
100
AcDbArc
 50
180.0
 51
270.0
  0
ARC
  5
70B
100
AcDbEntity
  8
M0
 62
     7
100
AcDbCircle
 10
116.830446
 20
345.687063
 40
0.5
100
AcDbArc
 50
90.0
 51
180.0
  0
ARC
  5
70C
100
AcDbEntity
  8
M0
 62
     7
100
AcDbCircle
 10
139.430446
 20
321.437063
 40
0.5
100
AcDbArc
 50
270.0
 51
360.0
  0
ARC
  5
70D
100
AcDbEntity
  8
M0
 62
     7
100
AcDbCircle
 10
116.830446
 20
339.037063
 40
0.5
100
AcDbArc
 50
180.0
 51
270.0
  0
ARC
  5
70E
100
AcDbEntity
  8
M0
 62
     7
100
AcDbCircle
 10
122.680446
 20
321.437063
 40
0.5
100
AcDbArc
 50
180.0
 51
270.0
  0
ARC
  5
70F
100
AcDbEntity
  8
M0
 62
     7
100
AcDbCircle
 10
122.680446
 20
328.087063
 40
0.5
100
AcDbArc
 50
90.0
 51
180.0
  0
ARC
  5
710
100
AcDbEntity
  8
M0
 62
     7
100
AcDbCircle
 10
129.330446
 20
321.437063
 40
0.5
100
AcDbArc
 50
270.0
 51
360.0
  0
ARC
  5
711
100
AcDbEntity
  8
M0
 62
     7
100
AcDbCircle
 10
129.330446
 20
328.087063
 40
0.5
100
AcDbArc
 50
0.0
 51
90.0
  0
LINE
  5
712
100
AcDbEntity
  8
M0
 62
     7
100
AcDbLine
 10
150.105446
 20
331.662063
 11
150.105446
 21
320.562063
  0
LINE
  5
713
100
AcDbEntity
  8
M0
 62
     7
100
AcDbLine
 10
151.305446
 20
332.662063
 11
151.105446
 21
332.662063
  0
LINE
  5
714
100
AcDbEntity
  8
M0
 62
     7
100
AcDbLine
 10
150.105446
 20
277.062063
 11
150.105446
 21
276.062063
  0
LINE
  5
715
100
AcDbEntity
  8
M0
 62
     7
100
AcDbLine
 10
151.305446
 20
275.062063
 11
151.105446
 21
275.062063
  0
LINE
  5
716
100
AcDbEntity
  8
M0
 62
     7
100
AcDbLine
 10
112.005446
 20
276.062063
 11
112.005446
 21
277.062063
  0
LINE
  5
717
100
AcDbEntity
  8
M0
 62
     7
100
AcDbLine
 10
112.005446
 20
277.062063
 11
112.005446
 21
278.062063
  0
LINE
  5
718
100
AcDbEntity
  8
M0
 62
     7
100
AcDbLine
 10
122.105446
 20
278.062063
 11
122.105446
 21
277.062063
  0
LINE
  5
719
100
AcDbEntity
  8
M0
 62
     7
100
AcDbLine
 10
112.005446
 20
329.662063
 11
112.005446
 21
330.662063
  0
LINE
  5
71A
100
AcDbEntity
  8
M0
 62
     7
100
AcDbLine
 10
150.105446
 20
278.062063
 11
150.105446
 21
277.062063
  0
LINE
  5
71B
100
AcDbEntity
  8
M0
 62
     7
100
AcDbLine
 10
122.105446
 20
329.662063
 11
122.105446
 21
330.662063
  0
LINE
  5
71C
100
AcDbEntity
  8
M0
 62
     7
100
AcDbLine
 10
130.405446
 20
301.362063
 11
130.405446
 21
298.962063
  0
LINE
  5
71D
100
AcDbEntity
  8
M0
 62
     7
100
AcDbLine
 10
110.805446
 20
332.662063
 11
111.005446
 21
332.662063
  0
LINE
  5
71E
100
AcDbEntity
  8
M0
 62
     7
100
AcDbLine
 10
130.905446
 20
301.862063
 11
131.205446
 21
301.862063
  0
LINE
  5
71F
100
AcDbEntity
  8
M0
 62
     7
100
AcDbLine
 10
130.405446
 20
308.662063
 11
130.405446
 21
306.362063
  0
LINE
  5
720
100
AcDbEntity
  8
M0
 62
     7
100
AcDbLine
 10
123.355446
 20
292.862063
 11
122.855446
 21
292.862063
  0
LINE
  5
721
100
AcDbEntity
  8
M0
 62
     7
100
AcDbLine
 10
110.805446
 20
275.062063
 11
111.005446
 21
275.062063
  0
LINE
  5
722
100
AcDbEntity
  8
M0
 62
     7
100
AcDbLine
 10
112.005446
 20
330.662063
 11
112.005446
 21
331.662063
  0
LINE
  5
723
100
AcDbEntity
  8
M0
 62
     7
100
AcDbLine
 10
122.105446
 20
330.662063
 11
122.105446
 21
335.062063
  0
LINE
  5
724
100
AcDbEntity
  8
M0
 62
     7
100
AcDbLine
 10
130.905446
 20
305.862063
 11
131.205446
 21
305.862063
  0
LINE
  5
725
100
AcDbEntity
  8
M0
 62
     7
100
AcDbLine
 10
131.705446
 20
298.962063
 11
131.705446
 21
301.362063
  0
LINE
  5
726
100
AcDbEntity
  8
M0
 62
     7
100
AcDbLine
 10
122.105446
 20
328.562063
 11
123.005446
 21
328.562063
  0
LINE
  5
727
100
AcDbEntity
  8
M0
 62
     7
100
AcDbLine
 10
149.205446
 20
328.562063
 11
150.105446
 21
328.562063
  0
LINE
  5
728
100
AcDbEntity
  8
M0
 62
     7
100
AcDbLine
 10
118.905446
 20
328.562063
 11
119.805446
 21
328.562063
  0
LINE
  5
729
100
AcDbEntity
  8
M0
 62
     7
100
AcDbLine
 10
112.005446
 20
328.562063
 11
112.905446
 21
328.562063
  0
LINE
  5
72A
100
AcDbEntity
  8
M0
 62
     7
100
AcDbLine
 10
122.105446
 20
332.062063
 11
122.105446
 21
323.062063
  0
LINE
  5
72B
100
AcDbEntity
  8
M0
 62
     7
100
AcDbLine
 10
123.255446
 20
316.062063
 11
123.255446
 21
316.162063
  0
ARC
  5
72C
100
AcDbEntity
  8
M0
 62
     7
100
AcDbCircle
 10
132.780446
 20
328.087063
 40
0.5
100
AcDbArc
 50
90.0
 51
180.0
  0
LINE
  5
72D
100
AcDbEntity
  8
M0
 62
     7
100
AcDbLine
 10
142.305446
 20
328.562063
 11
143.205446
 21
328.562063
  0
LINE
  5
72E
100
AcDbEntity
  8
M0
 62
     7
100
AcDbLine
 10
131.205446
 20
268.862063
 11
130.905446
 21
268.862063
  0
LINE
  5
72F
100
AcDbEntity
  8
M0
 62
     7
100
AcDbLine
 10
128.755446
 20
292.862063
 11
128.755446
 21
292.762063
  0
LINE
  5
730
100
AcDbEntity
  8
M0
 62
     7
100
AcDbLine
 10
131.105446
 20
336.062063
 11
131.205446
 21
336.062063
  0
LINE
  5
731
100
AcDbEntity
  8
M0
 62
     7
100
AcDbLine
 10
121.105446
 20
322.062063
 11
120.805446
 21
322.062063
  0
LINE
  5
732
100
AcDbEntity
  8
M0
 62
     7
100
AcDbLine
 10
131.005446
 20
336.062063
 11
131.105446
 21
336.062063
  0
LINE
  5
733
100
AcDbEntity
  8
M0
 62
     7
100
AcDbLine
 10
119.805446
 20
323.062063
 11
119.805446
 21
332.062063
  0
LINE
  5
734
100
AcDbEntity
  8
M0
 62
     7
100
AcDbLine
 10
121.005446
 20
336.062063
 11
121.105446
 21
336.062063
  0
LINE
  5
735
100
AcDbEntity
  8
M0
 62
     7
100
AcDbLine
 10
141.005446
 20
285.662063
 11
141.305446
 21
285.662063
  0
LINE
  5
736
100
AcDbEntity
  8
M0
 62
     7
100
AcDbLine
 10
130.905446
 20
336.062063
 11
131.005446
 21
336.062063
  0
LINE
  5
737
100
AcDbEntity
  8
M0
 62
     7
100
AcDbLine
 10
141.305446
 20
322.062063
 11
141.005446
 21
322.062063
  0
LINE
  5
738
100
AcDbEntity
  8
M0
 62
     7
100
AcDbLine
 10
120.805446
 20
285.662063
 11
121.105446
 21
285.662063
  0
LINE
  5
739
100
AcDbEntity
  8
M0
 62
     7
100
AcDbLine
 10
131.205446
 20
322.062063
 11
130.905446
 21
322.062063
  0
LINE
  5
73A
100
AcDbEntity
  8
M0
 62
     7
100
AcDbLine
 10
150.255446
 20
307.362063
 11
150.255446
 21
307.562063
  0
LINE
  5
73B
100
AcDbEntity
  8
M0
 62
     7
100
AcDbLine
 10
151.555446
 20
307.362063
 11
151.555446
 21
307.562063
  0
LINE
  5
73C
100
AcDbEntity
  8
M0
 62
     7
100
AcDbLine
 10
152.555446
 20
300.362063
 11
152.555446
 21
274.062063
  0
LINE
  5
73D
100
AcDbEntity
  8
M0
 62
     7
100
AcDbLine
 10
58.855446
 20
307.362063
 11
58.855446
 21
307.562063
  0
LINE
  5
73E
100
AcDbEntity
  8
M0
 62
     7
100
AcDbLine
 10
57.555446
 20
307.362063
 11
57.555446
 21
307.562063
  0
LINE
  5
73F
100
AcDbEntity
  8
M0
 62
     7
100
AcDbLine
 10
56.555446
 20
307.362063
 11
56.555446
 21
332.762063
  0
LINE
  5
740
100
AcDbEntity
  8
M0
  6
DIVIDE
 62
     6
100
AcDbLine
 10
270.483624
 20
317.362063
 11
263.983624
 21
317.362063
  0
LINE
  5
741
100
AcDbEntity
  8
M0
  6
DIVIDE
 62
     6
100
AcDbLine
 10
270.483624
 20
290.362063
 11
263.983624
 21
290.362063
  0
LINE
  5
742
100
AcDbEntity
  8
M0
  6
DIVIDE
 62
     6
100
AcDbLine
 10
269.483624
 20
316.362063
 11
262.983624
 21
316.362063
  0
LINE
  5
743
100
AcDbEntity
  8
M0
  6
DIVIDE
 62
     6
100
AcDbLine
 10
263.983624
 20
290.362063
 11
263.983624
 21
286.362063
  0
LINE
  5
744
100
AcDbEntity
  8
M0
  6
DIVIDE
 62
     6
100
AcDbLine
 10
269.483624
 20
291.362063
 11
262.983624
 21
291.362063
  0
LINE
  5
745
100
AcDbEntity
  8
M0
  6
DIVIDE
 62
     6
100
AcDbLine
 10
262.983624
 20
291.362063
 11
262.983624
 21
286.362063
  0
LINE
  5
746
100
AcDbEntity
  8
M0
  6
DIVIDE
 62
     6
100
AcDbLine
 10
263.983624
 20
321.362063
 11
262.983624
 21
321.362063
  0
LINE
  5
747
100
AcDbEntity
  8
M0
  6
DIVIDE
 62
     6
100
AcDbLine
 10
270.483624
 20
290.362063
 11
270.483624
 21
317.362063
  0
LINE
  5
748
100
AcDbEntity
  8
M0
  6
DIVIDE
 62
     6
100
AcDbLine
 10
262.983624
 20
321.362063
 11
262.983624
 21
316.362063
  0
LINE
  5
749
100
AcDbEntity
  8
M0
  6
DIVIDE
 62
     6
100
AcDbLine
 10
263.983624
 20
321.362063
 11
263.983624
 21
317.362063
  0
LINE
  5
74A
100
AcDbEntity
  8
M0
  6
DIVIDE
 62
     6
100
AcDbLine
 10
262.983624
 20
286.362063
 11
263.983624
 21
286.362063
  0
LINE
  5
74B
100
AcDbEntity
  8
M0
  6
DIVIDE
 62
     6
100
AcDbLine
 10
269.483624
 20
316.362063
 11
269.483624
 21
291.362063
  0
ARC
  5
74C
100
AcDbEntity
  8
M0
100
AcDbCircle
 10
206.583623
 20
280.762064
 40
3.0
100
AcDbArc
 50
0.0
 51
90.0
  0
ARC
  5
74D
100
AcDbEntity
  8
M0
100
AcDbCircle
 10
193.683623
 20
286.762064
 40
3.0
100
AcDbArc
 50
180.0
 51
270.0
  0
LINE
  5
74E
100
AcDbEntity
  8
M0
100
AcDbLine
 10
209.583623
 20
279.162064
 11
209.583623
 21
280.762065
  0
LINE
  5
74F
100
AcDbEntity
  8
M0
100
AcDbLine
 10
238.683624
 20
279.162064
 11
227.783623
 21
279.162064
  0
ARC
  5
750
100
AcDbEntity
  8
M0
100
AcDbCircle
 10
238.683623
 20
280.162064
 40
1.0
100
AcDbArc
 50
270.0
 51
360.0
  0
ARC
  5
751
100
AcDbEntity
  8
M0
100
AcDbCircle
 10
223.540982
 20
279.162064
 40
3.0
100
AcDbArc
 50
270.0
 51
315.0
  0
LINE
  5
752
100
AcDbEntity
  8
M0
100
AcDbLine
 10
222.783623
 20
275.162065
 11
222.783623
 21
276.162065
  0
LINE
  5
753
100
AcDbEntity
  8
M0
100
AcDbLine
 10
230.283623
 20
279.162064
 11
225.641821
 21
274.942245
  0
LINE
  5
754
100
AcDbEntity
  8
M0
100
AcDbLine
 10
223.623803
 20
274.162065
 11
210.583623
 21
274.162065
  0
LINE
  5
755
100
AcDbEntity
  8
M0
100
AcDbLine
 10
223.540982
 20
331.562066
 11
212.583623
 21
331.562066
  0
LINE
  5
756
100
AcDbEntity
  8
M0
100
AcDbLine
 10
227.783623
 20
279.162064
 11
225.662303
 21
277.040744
  0
ARC
  5
757
100
AcDbEntity
  8
M0
100
AcDbCircle
 10
212.583623
 20
279.162064
 40
3.0
100
AcDbArc
 50
180.0
 51
270.0
  0
LINE
  5
758
100
AcDbEntity
  8
M0
100
AcDbLine
 10
239.683622
 20
327.562064
 11
239.683622
 21
280.162064
  0
LINE
  5
759
100
AcDbEntity
  8
M0
100
AcDbLine
 10
223.540982
 20
276.162065
 11
212.583623
 21
276.162065
  0
LINE
  5
75A
100
AcDbEntity
  8
M0
100
AcDbLine
 10
227.783623
 20
328.562064
 11
225.662303
 21
330.683386
  0
LINE
  5
75B
100
AcDbEntity
  8
M0
100
AcDbLine
 10
238.683624
 20
328.562064
 11
227.783623
 21
328.562064
  0
ARC
  5
75C
100
AcDbEntity
  8
M0
100
AcDbCircle
 10
223.623802
 20
277.162064
 40
3.0
100
AcDbArc
 50
270.0
 51
312.273689
  0
ARC
  5
75D
100
AcDbEntity
  8
M0
100
AcDbCircle
 10
212.583623
 20
328.562064
 40
3.0
100
AcDbArc
 50
90.0
 51
180.0
  0
LINE
  5
75E
100
AcDbEntity
  8
M0
100
AcDbLine
 10
206.583623
 20
283.762064
 11
193.683623
 21
283.762064
  0
LINE
  5
75F
100
AcDbEntity
  8
M0
100
AcDbLine
 10
222.783623
 20
274.162065
 11
222.783623
 21
275.162065
  0
LINE
  5
760
100
AcDbEntity
  8
M0
100
AcDbLine
 10
209.583623
 20
328.562064
 11
209.583623
 21
326.962065
  0
ARC
  5
761
100
AcDbEntity
  8
M0
100
AcDbCircle
 10
193.683623
 20
320.962064
 40
3.0
100
AcDbArc
 50
90.0
 51
180.0
  0
ARC
  5
762
100
AcDbEntity
  8
M0
100
AcDbCircle
 10
241.183623
 20
323.262064
 40
0.5
100
AcDbArc
 50
0.0
 51
90.0
  0
ARC
  5
763
100
AcDbEntity
  8
M0
100
AcDbCircle
 10
206.583623
 20
326.962064
 40
3.0
100
AcDbArc
 50
270.0
 51
360.0
  0
LINE
  5
764
100
AcDbEntity
  8
M0
100
AcDbLine
 10
206.583623
 20
323.962064
 11
193.683623
 21
323.962064
  0
ARC
  5
765
100
AcDbEntity
  8
M0
100
AcDbCircle
 10
223.540982
 20
328.562064
 40
3.0
100
AcDbArc
 50
45.0
 51
90.0
  0
LINE
  5
766
100
AcDbEntity
  8
M0
100
AcDbLine
 10
200.943623
 20
283.762064
 11
200.383622
 21
281.762065
  0
LINE
  5
767
100
AcDbEntity
  8
M0
100
AcDbLine
 10
220.843623
 20
331.562066
 11
220.283623
 21
333.562063
  0
LINE
  5
768
100
AcDbEntity
  8
M0
100
AcDbLine
 10
223.623802
 20
333.562063
 11
210.583623
 21
333.562063
  0
LINE
  5
769
100
AcDbEntity
  8
M0
100
AcDbLine
 10
239.683622
 20
280.662065
 11
239.683622
 21
281.312065
  0
LINE
  5
76A
100
AcDbEntity
  8
M0
100
AcDbLine
 10
204.583623
 20
281.762065
 11
193.683623
 21
281.762065
  0
LINE
  5
76B
100
AcDbEntity
  8
M0
100
AcDbLine
 10
207.583623
 20
277.162064
 11
207.583623
 21
278.762065
  0
LINE
  5
76C
100
AcDbEntity
  8
M0
100
AcDbLine
 10
220.843623
 20
276.162065
 11
220.563623
 21
275.162065
  0
LINE
  5
76D
100
AcDbEntity
  8
M0
100
AcDbLine
 10
239.683622
 20
323.762065
 11
241.183623
 21
323.762065
  0
LINE
  5
76E
100
AcDbEntity
  8
M0
100
AcDbLine
 10
239.683622
 20
327.062065
 11
239.683622
 21
326.312065
  0
LINE
  5
76F
100
AcDbEntity
  8
M0
100
AcDbLine
 10
202.883623
 20
281.762065
 11
202.883623
 21
283.762064
  0
LINE
  5
770
100
AcDbEntity
  8
M0
100
AcDbLine
 10
241.683623
 20
323.262064
 11
241.683623
 21
322.962063
  0
ARC
  5
771
100
AcDbEntity
  8
M0
100
AcDbCircle
 10
210.583623
 20
330.562064
 40
3.0
100
AcDbArc
 50
90.0
 51
180.0
  0
ARC
  5
772
100
AcDbEntity
  8
M0
100
AcDbCircle
 10
204.583623
 20
328.962064
 40
3.0
100
AcDbArc
 50
270.0
 51
360.0
  0
ARC
  5
773
100
AcDbEntity
  8
M0
100
AcDbCircle
 10
210.583623
 20
277.162064
 40
3.0
100
AcDbArc
 50
180.0
 51
270.0
  0
ARC
  5
774
100
AcDbEntity
  8
M0
100
AcDbCircle
 10
223.623802
 20
330.562064
 40
3.0
100
AcDbArc
 50
47.726311
 51
90.0
  0
LINE
  5
775
100
AcDbEntity
  8
M0
100
AcDbLine
 10
230.283623
 20
328.562064
 11
225.641821
 21
332.781886
  0
ARC
  5
776
100
AcDbEntity
  8
M0
100
AcDbCircle
 10
238.683623
 20
327.562064
 40
1.0
100
AcDbArc
 50
0.0
 51
90.0
  0
ARC
  5
777
100
AcDbEntity
  8
M0
100
AcDbCircle
 10
193.683623
 20
322.962064
 40
3.0
100
AcDbArc
 50
90.0
 51
180.0
  0
LINE
  5
778
100
AcDbEntity
  8
M0
100
AcDbLine
 10
190.683624
 20
322.962064
 11
190.683624
 21
284.762064
  0
LINE
  5
779
100
AcDbEntity
  8
M0
100
AcDbLine
 10
200.943623
 20
323.962064
 11
200.383623
 21
325.962065
  0
LINE
  5
77A
100
AcDbEntity
  8
M0
100
AcDbLine
 10
204.583623
 20
325.962065
 11
193.683623
 21
325.962065
  0
LINE
  5
77B
100
AcDbEntity
  8
M0
100
AcDbLine
 10
207.583623
 20
330.562064
 11
207.583623
 21
328.962065
  0
ARC
  5
77C
100
AcDbEntity
  8
M0
100
AcDbCircle
 10
193.683623
 20
284.762064
 40
3.0
100
AcDbArc
 50
180.0
 51
270.0
  0
LINE
  5
77D
100
AcDbEntity
  8
M0
100
AcDbLine
 10
222.783623
 20
333.562063
 11
222.783623
 21
331.562066
  0
LINE
  5
77E
100
AcDbEntity
  8
M0
100
AcDbLine
 10
202.883623
 20
325.962065
 11
202.883623
 21
323.962064
  0
ARC
  5
77F
100
AcDbEntity
  8
M0
100
AcDbCircle
 10
204.583623
 20
278.762064
 40
3.0
100
AcDbArc
 50
0.0
 51
90.0
  0
LINE
  5
780
100
AcDbEntity
  8
M0
100
AcDbLine
 10
220.563623
 20
275.162065
 11
220.515002
 21
274.988416
  0
LINE
  5
781
100
AcDbEntity
  8
M0
100
AcDbLine
 10
220.515002
 20
274.988416
 11
220.467857
 21
274.820044
  0
LINE
  5
782
100
AcDbEntity
  8
M0
100
AcDbLine
 10
220.467857
 20
274.820044
 11
220.423623
 21
274.662064
  0
LINE
  5
783
100
AcDbEntity
  8
M0
100
AcDbLine
 10
220.423623
 20
274.662064
 11
220.383642
 21
274.519278
  0
LINE
  5
784
100
AcDbEntity
  8
M0
100
AcDbLine
 10
220.383642
 20
274.519278
 11
220.34913
 21
274.396021
  0
LINE
  5
785
100
AcDbEntity
  8
M0
100
AcDbLine
 10
220.34913
 20
274.396021
 11
220.321136
 21
274.29604
  0
LINE
  5
786
100
AcDbEntity
  8
M0
100
AcDbLine
 10
220.321136
 20
274.29604
 11
220.300509
 21
274.222372
  0
LINE
  5
787
100
AcDbEntity
  8
M0
100
AcDbLine
 10
220.300509
 20
274.222372
 11
220.287877
 21
274.177257
  0
LINE
  5
788
100
AcDbEntity
  8
M0
100
AcDbLine
 10
220.287877
 20
274.177257
 11
220.283623
 21
274.162065
  0
LINE
  5
789
100
AcDbEntity
  8
M0
100
AcDbLine
 10
220.563623
 20
332.562065
 11
220.515002
 21
332.735712
  0
LINE
  5
78A
100
AcDbEntity
  8
M0
 62
     7
100
AcDbLine
 10
256.983624
 20
339.562063
 11
266.68613
 21
339.562063
  0
LINE
  5
78B
100
AcDbEntity
  8
M0
 62
     7
100
AcDbLine
 10
263.983624
 20
320.162063
 11
264.983624
 21
319.162063
  0
LINE
  5
78C
100
AcDbEntity
  8
M0
 62
     7
100
AcDbLine
 10
263.983624
 20
321.662063
 11
263.983624
 21
320.162063
  0
LINE
  5
78D
100
AcDbEntity
  8
M0
 62
     7
100
AcDbLine
 10
267.183624
 20
339.112063
 11
267.183624
 21
319.662063
  0
LINE
  5
78E
100
AcDbEntity
  8
M0
 62
     7
100
AcDbLine
 10
263.283624
 20
318.162063
 11
263.283624
 21
316.162063
  0
LINE
  5
78F
100
AcDbEntity
  8
M0
 62
     7
100
AcDbLine
 10
262.983624
 20
315.662063
 11
263.283624
 21
316.162063
  0
LINE
  5
790
100
AcDbEntity
  8
M0
 62
     7
100
AcDbLine
 10
263.283624
 20
318.162063
 11
262.983624
 21
318.162063
  0
LINE
  5
791
100
AcDbEntity
  8
M0
 62
     7
100
AcDbLine
 10
242.983624
 20
342.847849
 11
242.983624
 21
322.962063
  0
LINE
  5
792
100
AcDbEntity
  8
M0
 62
     7
100
AcDbLine
 10
239.776517
 20
346.46917
 11
242.69073
 21
343.554956
  0
LINE
  5
793
100
AcDbEntity
  8
M0
 62
     7
100
AcDbLine
 10
267.183624
 20
285.562063
 11
267.183624
 21
269.562063
  0
LINE
  5
794
100
AcDbEntity
  8
M0
 62
     7
100
AcDbLine
 10
226.883624
 20
331.652975
 11
226.883624
 21
334.762063
  0
LINE
  5
795
100
AcDbEntity
  8
M0
 62
     7
100
AcDbLine
 10
234.637374
 20
348.262063
 11
234.783624
 21
348.262063
  0
LINE
  5
796
100
AcDbEntity
  8
M0
 62
     7
100
AcDbLine
 10
220.383624
 20
338.362063
 11
225.983624
 21
338.362063
  0
LINE
  5
797
100
AcDbEntity
  8
M0
 62
     7
100
AcDbLine
 10
226.883624
 20
334.762063
 11
225.983624
 21
334.762063
  0
LINE
  5
798
100
AcDbEntity
  8
M0
 62
     7
100
AcDbLine
 10
225.983624
 20
334.762063
 11
225.983624
 21
338.362063
  0
LINE
  5
799
100
AcDbEntity
  8
M0
 62
     7
100
AcDbLine
 10
235.783624
 20
347.262063
 11
235.783624
 21
346.762063
  0
LINE
  5
79A
100
AcDbEntity
  8
M0
 62
     7
100
AcDbLine
 10
264.983624
 20
319.162063
 11
266.683624
 21
319.162063
  0
LINE
  5
79B
100
AcDbEntity
  8
M0
 62
     7
100
AcDbLine
 10
235.783624
 20
346.762063
 11
239.06941
 21
346.762063
  0
LINE
  5
79C
100
AcDbEntity
  8
M0
 62
     7
100
AcDbLine
 10
219.783624
 20
338.362063
 11
219.783624
 21
345.262063
  0
LINE
  5
79D
100
AcDbEntity
  8
M0
 62
     7
100
AcDbLine
 10
220.383624
 20
338.362063
 11
219.783624
 21
338.362063
  0
ARC
  5
79E
100
AcDbEntity
  8
M0
 62
     7
100
AcDbCircle
 10
239.06941
 20
345.762063
 40
1.0
100
AcDbArc
 50
45.0
 51
90.0
  0
ARC
  5
79F
100
AcDbEntity
  8
M0
 62
     7
100
AcDbCircle
 10
241.983624
 20
342.847849
 40
1.0
100
AcDbArc
 50
0.0
 51
45.0
  0
ARC
  5
7A0
100
AcDbEntity
  8
M0
 62
     7
100
AcDbCircle
 10
266.683624
 20
319.662063
 40
0.5
100
AcDbArc
 50
270.0
 51
360.0
  0
LINE
  5
7A1
100
AcDbEntity
  8
M0
 62
     7
100
AcDbLine
 10
246.283624
 20
284.762063
 11
246.283624
 21
275.562063
  0
ELLIPSE
  5
7A2
100
AcDbEntity
  8
M0
 62
     7
100
AcDbEllipse
 10
234.637374
 20
347.662063
 11
0.0
 21
0.6
210
0.0
220
0.0
230
1.0
 40
0.243749
 41
4.71238898038469
 42
6.283185307179586
  0
ARC
  5
7A3
100
AcDbEntity
  8
M0
 62
     7
100
AcDbCircle
 10
234.783624
 20
347.262063
 40
1.0
100
AcDbArc
 50
0.0
 51
90.0
  0
ARC
  5
7A4
100
AcDbEntity
  8
M0
 62
     7
100
AcDbCircle
 10
222.783624
 20
345.262063
 40
3.0
100
AcDbArc
 50
90.0
 51
180.0
  0
ARC
  5
7A5
100
AcDbEntity
  8
M0
 62
     7
100
AcDbCircle
 10
221.183624
 20
347.262063
 40
1.0
100
AcDbArc
 50
90.0
 51
180.0
  0
ARC
  5
7A6
100
AcDbEntity
  8
M0
 62
     7
100
AcDbCircle
 10
239.383624
 20
269.362063
 40
1.0
100
AcDbArc
 50
270.0
 51
360.0
  0
ARC
  5
7A7
100
AcDbEntity
  8
M0
 62
     7
100
AcDbCircle
 10
237.56941
 20
347.262063
 40
1.0
100
AcDbArc
 50
45.0
 51
90.0
  0
LINE
  5
7A8
100
AcDbEntity
  8
M0
 62
     7
100
AcDbLine
 10
220.183624
 20
346.758726
 11
220.183624
 21
347.262063
  0
LINE
  5
7A9
100
AcDbEntity
  8
M0
 62
     7
100
AcDbLine
 10
220.183624
 20
338.262063
 11
220.183624
 21
338.362063
  0
ARC
  5
7AA
100
AcDbEntity
  8
M0
 62
     7
100
AcDbCircle
 10
255.883624
 20
270.062063
 40
1.0
100
AcDbArc
 50
180.0
 51
270.0
  0
ELLIPSE
  5
7AB
100
AcDbEntity
  8
M0
 62
     7
100
AcDbEllipse
 10
247.16941
 20
333.762063
 11
0.0
 21
1.0
210
0.0
220
0.0
230
1.0
 40
0.414214
 41
4.71238898038469
 42
6.283185307179586
  0
ARC
  5
7AC
100
AcDbEntity
  8
M0
 62
     7
100
AcDbCircle
 10
245.783624
 20
273.362063
 40
0.5
100
AcDbArc
 50
270.0
 51
360.0
  0
LINE
  5
7AD
100
AcDbEntity
  8
M0
 62
     7
100
AcDbLine
 10
234.783624
 20
328.562064
 11
234.783624
 21
347.662063
  0
LINE
  5
7AE
100
AcDbEntity
  8
M0
 62
     7
100
AcDbLine
 10
262.983624
 20
321.662063
 11
262.983624
 21
286.062063
  0
LINE
  5
7AF
100
AcDbEntity
  8
M0
 62
     7
100
AcDbLine
 10
267.483624
 20
339.112063
 11
267.483624
 21
325.212063
  0
LINE
  5
7B0
100
AcDbEntity
  8
M0
 62
     7
100
AcDbLine
 10
267.483624
 20
284.312063
 11
267.183624
 21
284.312063
  0
ARC
  5
7B1
100
AcDbEntity
  8
M0
 62
     7
100
AcDbCircle
 10
240.683624
 20
321.962063
 40
1.0
100
AcDbArc
 50
90.0
 51
180.0
  0
ARC
  5
7B2
100
AcDbEntity
  8
M0
 62
     7
100
AcDbCircle
 10
241.983624
 20
283.462063
 40
1.0
100
AcDbArc
 50
270.0
 51
360.0
  0
ARC
  5
7B3
100
AcDbEntity
  8
M0
 62
     7
100
AcDbCircle
 10
256.983624
 20
269.562063
 40
0.5
100
AcDbArc
 50
180.0
 51
270.0
  0
LINE
  5
7B4
100
AcDbEntity
  8
M0
 62
     7
100
AcDbLine
 10
267.483624
 20
339.112063
 11
267.183624
 21
339.112063
  0
LINE
  5
7B5
100
AcDbEntity
  8
M0
 62
     7
100
AcDbLine
 10
259.683624
 20
286.445835
 11
244.183624
 21
286.445835
  0
LINE
  5
7B6
100
AcDbEntity
  8
M0
 62
     7
100
AcDbLine
 10
259.683624
 20
318.401508
 11
244.183624
 21
318.401508
  0
LINE
  5
7B7
100
AcDbEntity
  8
M0
 62
     7
100
AcDbLine
 10
244.183624
 20
321.278291
 11
259.683624
 21
321.278291
  0
ARC
  5
7B8
100
AcDbEntity
  8
M0
 62
     7
100
AcDbCircle
 10
266.683624
 20
269.562063
 40
0.5
100
AcDbArc
 50
270.0
 51
360.0
  0
ARC
  5
7B9
100
AcDbEntity
  8
M0
 62
     7
100
AcDbCircle
 10
266.683624
 20
322.162063
 40
0.5
100
AcDbArc
 50
270.0
 51
360.0
  0
LINE
  5
7BA
100
AcDbEntity
  8
M0
 62
     7
100
AcDbLine
 10
244.183624
 20
289.322618
 11
259.683624
 21
289.322618
  0
ARC
  5
7BB
100
AcDbEntity
  8
M0
 62
     7
100
AcDbCircle
 10
262.483624
 20
290.562063
 40
0.5
100
AcDbArc
 50
270.0
 51
360.0
  0
ARC
  5
7BC
100
AcDbEntity
  8
M0
 62
     7
100
AcDbCircle
 10
262.483624
 20
317.162063
 40
0.5
100
AcDbArc
 50
0.0
 51
90.0
  0
ARC
  5
7BD
100
AcDbEntity
  8
M0
 62
     7
100
AcDbCircle
 10
266.68613
 20
339.062063
 40
0.5
100
AcDbArc
 50
5.73917
 51
90.0
  0
ARC
  5
7BE
100
AcDbEntity
  8
M0
 62
     7
100
AcDbCircle
 10
259.683624
 20
321.578291
 40
0.3
100
AcDbArc
 50
270.0
 51
360.0
  0
LINE
  5
7BF
100
AcDbEntity
  8
M0
 62
     7
100
AcDbLine
 10
264.683624
 20
288.362063
 11
265.123624
 21
287.862063
  0
LINE
  5
7C0
100
AcDbEntity
  8
M0
 62
     7
100
AcDbLine
 10
263.983624
 20
288.362063
 11
264.683624
 21
288.362063
  0
LINE
  5
7C1
100
AcDbEntity
  8
M0
 62
     7
100
AcDbLine
 10
263.983624
 20
287.862063
 11
263.983624
 21
288.362063
  0
LINE
  5
7C2
100
AcDbEntity
  8
M0
 62
     7
100
AcDbLine
 10
266.708153
 20
286.061461
 11
265.123624
 21
287.862063
  0
ARC
  5
7C3
100
AcDbEntity
  8
M0
 62
     7
100
AcDbCircle
 10
263.683624
 20
268.862063
 40
0.5
100
AcDbArc
 50
180.0
 51
270.0
  0
ARC
  5
7C4
100
AcDbEntity
  8
M0
 62
     7
100
AcDbCircle
 10
263.683624
 20
286.362063
 40
0.5
100
AcDbArc
 50
90.0
 51
180.0
  0
ARC
  5
7C5
100
AcDbEntity
  8
M0
 62
     7
100
AcDbCircle
 10
259.683624
 20
286.145835
 40
0.3
100
AcDbArc
 50
0.0
 51
90.0
  0
ARC
  5
7C6
100
AcDbEntity
  8
M0
 62
     7
100
AcDbCircle
 10
259.683624
 20
318.101508
 40
0.3
100
AcDbArc
 50
0.0
 51
90.0
  0
ARC
  5
7C7
100
AcDbEntity
  8
M0
 62
     7
100
AcDbCircle
 10
256.983624
 20
339.062063
 40
0.5
100
AcDbArc
 50
90.0
 51
180.0
  0
LINE
  5
7C8
100
AcDbEntity
  8
M0
 62
     7
100
AcDbLine
 10
266.883624
 20
269.103805
 11
266.883624
 21
268.362063
  0
LINE
  5
7C9
100
AcDbEntity
  8
M0
 62
     7
100
AcDbLine
 10
263.183624
 20
268.862063
 11
263.183624
 21
269.062063
  0
LINE
  5
7CA
100
AcDbEntity
  8
M0
 62
     7
100
AcDbLine
 10
266.883624
 20
268.362063
 11
263.683624
 21
268.362063
  0
LINE
  5
7CB
100
AcDbEntity
  8
M0
 62
     7
100
AcDbLine
 10
267.183624
 20
272.012063
 11
267.483624
 21
272.012063
  0
ARC
  5
7CC
100
AcDbEntity
  8
M0
 62
     7
100
AcDbCircle
 10
266.683624
 20
285.562063
 40
0.5
100
AcDbArc
 50
0.0
 51
90.0
  0
LINE
  5
7CD
100
AcDbEntity
  8
M0
 62
     7
100
AcDbLine
 10
263.983624
 20
287.862063
 11
263.983624
 21
286.862063
  0
ARC
  5
7CE
100
AcDbEntity
  8
M0
 62
     7
100
AcDbCircle
 10
259.683624
 20
289.622618
 40
0.3
100
AcDbArc
 50
270.0
 51
360.0
  0
LINE
  5
7CF
100
AcDbEntity
  8
M0
 62
     7
100
AcDbLine
 10
265.183624
 20
286.362063
 11
265.183624
 21
286.062063
  0
LINE
  5
7D0
100
AcDbEntity
  8
M0
 62
     7
100
AcDbLine
 10
265.183624
 20
286.862063
 11
265.183624
 21
286.362063
  0
LINE
  5
7D1
100
AcDbEntity
  8
M0
 62
     7
100
AcDbLine
 10
263.183624
 20
286.062063
 11
263.183624
 21
286.362063
  0
LINE
  5
7D2
100
AcDbEntity
  8
M0
 62
     7
100
AcDbLine
 10
266.683624
 20
321.662063
 11
259.983624
 21
321.662063
  0
LINE
  5
7D3
100
AcDbEntity
  8
M0
 62
     7
100
AcDbLine
 10
266.683624
 20
269.062063
 11
256.983624
 21
269.062063
  0
LINE
  5
7D4
100
AcDbEntity
  8
M0
 62
     7
100
AcDbLine
 10
244.183624
 20
289.322618
 11
244.183624
 21
286.445835
  0
LINE
  5
7D5
100
AcDbEntity
  8
M0
 62
     7
100
AcDbLine
 10
244.183624
 20
321.278291
 11
244.183624
 21
318.401508
  0
LINE
  5
7D6
100
AcDbEntity
  8
M0
 62
     7
100
AcDbLine
 10
259.983624
 20
286.062063
 11
266.683624
 21
286.062063
  0
LINE
  5
7D7
100
AcDbEntity
  8
M0
 62
     7
100
AcDbLine
 10
256.483624
 20
284.762063
 11
242.983624
 21
284.762063
  0
LINE
  5
7D8
100
AcDbEntity
  8
M0
 62
     7
100
AcDbLine
 10
256.483624
 20
269.562063
 11
256.483624
 21
284.762063
  0
LINE
  5
7D9
100
AcDbEntity
  8
M0
 62
     7
100
AcDbLine
 10
239.683622
 20
322.962063
 11
256.483624
 21
322.962063
  0
LINE
  5
7DA
100
AcDbEntity
  8
M0
 62
     7
100
AcDbLine
 10
263.683624
 20
286.862063
 11
265.183624
 21
286.862063
  0
LINE
  5
7DB
100
AcDbEntity
  8
M0
 62
     7
100
AcDbLine
 10
242.983624
 20
284.762063
 11
242.983624
 21
283.462063
  0
LINE
  5
7DC
100
AcDbEntity
  8
M0
 62
     7
100
AcDbLine
 10
259.983624
 20
318.101508
 11
259.983624
 21
317.662063
  0
LINE
  5
7DD
100
AcDbEntity
  8
M0
 62
     7
100
AcDbLine
 10
259.983624
 20
317.662063
 11
262.483624
 21
317.662063
  0
LINE
  5
7DE
100
AcDbEntity
  8
M0
 62
     7
100
AcDbLine
 10
262.483624
 20
290.062063
 11
259.983624
 21
290.062063
  0
LINE
  5
7DF
100
AcDbEntity
  8
M0
 62
     7
100
AcDbLine
 10
240.683624
 20
322.962063
 11
242.683624
 21
322.962063
  0
LINE
  5
7E0
100
AcDbEntity
  8
M0
 62
     7
100
AcDbLine
 10
241.983624
 20
282.462063
 11
239.683622
 21
282.462063
  0
LINE
  5
7E1
100
AcDbEntity
  8
M0
 62
     7
100
AcDbLine
 10
256.483624
 20
322.962063
 11
256.483624
 21
339.062063
  0
LINE
  5
7E2
100
AcDbEntity
  8
M0
 62
     7
100
AcDbLine
 10
259.983624
 20
290.062063
 11
259.983624
 21
289.622618
  0
ARC
  5
7E3
100
AcDbEntity
  8
M0
 62
     7
100
AcDbCircle
 10
195.683624
 20
280.062063
 40
5.0
100
AcDbArc
 50
180.0
 51
270.0
  0
LINE
  5
7E4
100
AcDbEntity
  8
M0
 62
     7
100
AcDbLine
 10
208.483624
 20
335.062063
 11
208.483624
 21
336.062063
  0
LINE
  5
7E5
100
AcDbEntity
  8
M0
 62
     7
100
AcDbLine
 10
208.483624
 20
336.062063
 11
212.083624
 21
336.062063
  0
LINE
  5
7E6
100
AcDbEntity
  8
M0
 62
     7
100
AcDbLine
 10
215.583624
 20
272.862063
 11
214.383624
 21
271.662063
  0
LINE
  5
7E7
100
AcDbEntity
  8
M0
 62
     7
100
AcDbLine
 10
208.483624
 20
271.662063
 11
208.483624
 21
272.662063
  0
ARC
  5
7E8
100
AcDbEntity
  8
M0
 62
     7
100
AcDbCircle
 10
195.683624
 20
327.662063
 40
5.0
100
AcDbArc
 50
90.0
 51
180.0
  0
LINE
  5
7E9
100
AcDbEntity
  8
M0
 62
     7
100
AcDbLine
 10
186.883624
 20
297.362063
 11
188.383624
 21
297.362063
  0
LINE
  5
7EA
100
AcDbEntity
  8
M0
 62
     7
100
AcDbLine
 10
186.883624
 20
316.062063
 11
190.683624
 21
316.062063
  0
LINE
  5
7EB
100
AcDbEntity
  8
M0
 62
     7
100
AcDbLine
 10
188.383624
 20
316.062063
 11
188.383624
 21
308.462063
  0
LINE
  5
7EC
100
AcDbEntity
  8
M0
 62
     7
100
AcDbLine
 10
190.683624
 20
292.862063
 11
186.883624
 21
292.862063
  0
LINE
  5
7ED
100
AcDbEntity
  8
M0
 62
     7
100
AcDbLine
 10
188.383624
 20
297.362063
 11
188.383624
 21
292.862063
  0
LINE
  5
7EE
100
AcDbEntity
  8
M0
 62
     7
100
AcDbLine
 10
186.883624
 20
308.462063
 11
188.383624
 21
308.462063
  0
LINE
  5
7EF
100
AcDbEntity
  8
M0
 62
     7
100
AcDbLine
 10
188.383624
 20
309.962063
 11
186.883624
 21
309.962063
  0
LINE
  5
7F0
100
AcDbEntity
  8
M0
 62
     7
100
AcDbLine
 10
196.683624
 20
336.062063
 11
206.584925
 21
336.062063
  0
LINE
  5
7F1
100
AcDbEntity
  8
M0
 62
     7
100
AcDbLine
 10
206.584925
 20
336.062063
 11
206.691418
 21
335.062063
  0
LINE
  5
7F2
100
AcDbEntity
  8
M0
 62
     7
100
AcDbLine
 10
206.947002
 20
332.662063
 11
206.691418
 21
335.062063
  0
LINE
  5
7F3
100
AcDbEntity
  8
M0
 62
     7
100
AcDbLine
 10
212.083624
 20
336.062063
 11
213.483624
 21
334.662063
  0
LINE
  5
7F4
100
AcDbEntity
  8
M0
 62
     7
100
AcDbLine
 10
206.691418
 20
272.662063
 11
206.947002
 21
275.062063
  0
LINE
  5
7F5
100
AcDbEntity
  8
M0
 62
     7
100
AcDbLine
 10
206.584925
 20
336.062063
 11
208.483624
 21
336.062063
  0
LINE
  5
7F6
100
AcDbEntity
  8
M0
 62
     7
100
AcDbLine
 10
192.683624
 20
331.662063
 11
192.683624
 21
332.062063
  0
LINE
  5
7F7
100
AcDbEntity
  8
M0
 62
     7
100
AcDbLine
 10
206.691418
 20
272.662063
 11
206.584925
 21
271.662063
  0
LINE
  5
7F8
100
AcDbEntity
  8
M0
 62
     7
100
AcDbLine
 10
192.683624
 20
275.662063
 11
192.683624
 21
276.062063
  0
LINE
  5
7F9
100
AcDbEntity
  8
M0
 62
     7
100
AcDbLine
 10
195.683624
 20
332.662063
 11
208.441193
 21
332.662063
  0
LINE
  5
7FA
100
AcDbEntity
  8
M0
 62
     7
100
AcDbLine
 10
254.883624
 20
272.862063
 11
215.583624
 21
272.862063
  0
LINE
  5
7FB
100
AcDbEntity
  8
M0
 62
     7
100
AcDbLine
 10
216.583624
 20
333.562063
 11
216.583624
 21
334.662063
  0
LINE
  5
7FC
100
AcDbEntity
  8
M0
 62
     7
100
AcDbLine
 10
208.483624
 20
332.662063
 11
208.483624
 21
335.062063
  0
LINE
  5
7FD
100
AcDbEntity
  8
M0
 62
     7
100
AcDbLine
 10
214.383624
 20
271.662063
 11
196.683624
 21
271.662063
  0
LINE
  5
7FE
100
AcDbEntity
  8
M0
 62
     7
100
AcDbLine
 10
213.483624
 20
334.662063
 11
216.583624
 21
334.662063
  0
LINE
  5
7FF
100
AcDbEntity
  8
M0
 62
     7
100
AcDbLine
 10
190.683624
 20
280.062063
 11
190.683624
 21
327.662063
  0
LINE
  5
800
100
AcDbEntity
  8
M0
 62
     7
100
AcDbLine
 10
208.441196
 20
275.062063
 11
195.683624
 21
275.062063
  0
LINE
  5
801
100
AcDbEntity
  8
M0
 62
     7
100
AcDbLine
 10
208.483624
 20
272.662063
 11
208.483624
 21
275.062063
  0
LINE
  5
802
100
AcDbEntity
  8
M0
 62
     7
100
AcDbLine
 10
240.383624
 20
272.862063
 11
240.383624
 21
269.362063
  0
LINE
  5
803
100
AcDbEntity
  8
M0
 62
     7
100
AcDbLine
 10
242.983624
 20
340.662063
 11
242.983624
 21
342.847849
  0
LINE
  5
804
100
AcDbEntity
  8
M0
 62
     7
100
AcDbLine
 10
250.583624
 20
337.762063
 11
256.483624
 21
337.762063
  0
LINE
  5
805
100
AcDbEntity
  8
M0
 62
     7
100
AcDbLine
 10
242.883624
 20
272.862063
 11
240.883624
 21
272.862063
  0
LINE
  5
806
100
AcDbEntity
  8
M0
 62
     7
100
AcDbLine
 10
243.383624
 20
272.862063
 11
242.883624
 21
272.862063
  0
LINE
  5
807
100
AcDbEntity
  8
M0
 62
     7
100
AcDbLine
 10
242.983624
 20
338.362063
 11
242.983624
 21
334.762063
  0
LINE
  5
808
100
AcDbEntity
  8
M0
 62
     7
100
AcDbLine
 10
254.883624
 20
270.062063
 11
254.883624
 21
284.762063
  0
LINE
  5
809
100
AcDbEntity
  8
M0
 62
     7
100
AcDbLine
 10
238.276517
 20
347.96917
 11
239.776517
 21
346.46917
  0
LINE
  5
80A
100
AcDbEntity
  8
M0
 62
     7
100
AcDbLine
 10
258.983624
 20
269.062063
 11
255.883624
 21
269.062063
  0
LINE
  5
80B
100
AcDbEntity
  8
M0
 62
     7
100
AcDbLine
 10
254.883624
 20
274.562063
 11
256.483624
 21
274.562063
  0
LINE
  5
80C
100
AcDbEntity
  8
M0
 62
     7
100
AcDbLine
 10
250.583624
 20
337.762063
 11
250.583624
 21
334.762063
  0
LINE
  5
80D
100
AcDbEntity
  8
M0
 62
     7
100
AcDbLine
 10
232.283624
 20
268.362063
 11
232.283624
 21
269.362063
  0
LINE
  5
80E
100
AcDbEntity
  8
M0
 62
     7
100
AcDbLine
 10
263.283624
 20
318.162063
 11
262.983624
 21
319.162063
  0
LINE
  5
80F
100
AcDbEntity
  8
M0
 62
     7
100
AcDbLine
 10
220.183624
 20
338.262063
 11
216.583624
 21
336.762063
  0
LINE
  5
810
100
AcDbEntity
  8
M0
 62
     7
100
AcDbLine
 10
225.883624
 20
338.262063
 11
220.183624
 21
338.262063
  0
LINE
  5
811
100
AcDbEntity
  8
M0
 62
     7
100
AcDbLine
 10
216.583624
 20
336.762063
 11
216.583624
 21
334.762063
  0
LINE
  5
812
100
AcDbEntity
  8
M0
 62
     7
100
AcDbLine
 10
220.383624
 20
337.262063
 11
217.583624
 21
336.095396
  0
LINE
  5
813
100
AcDbEntity
  8
M0
 62
     7
100
AcDbLine
 10
225.883624
 20
334.762063
 11
225.883624
 21
338.262063
  0
LINE
  5
814
100
AcDbEntity
  8
M0
 62
     7
100
AcDbLine
 10
224.883624
 20
337.262063
 11
220.383624
 21
337.262063
  0
LINE
  5
815
100
AcDbEntity
  8
M0
 62
     7
100
AcDbLine
 10
237.983624
 20
348.262063
 11
221.183624
 21
348.262063
  0
LINE
  5
816
100
AcDbEntity
  8
M0
 62
     7
100
AcDbLine
 10
225.883624
 20
338.262063
 11
225.983624
 21
338.262063
  0
LINE
  5
817
100
AcDbEntity
  8
M0
 62
     7
100
AcDbLine
 10
225.983624
 20
334.762063
 11
225.883624
 21
334.762063
  0
LINE
  5
818
100
AcDbEntity
  8
M0
 62
     7
100
AcDbLine
 10
267.483624
 20
325.212063
 11
267.183624
 21
325.212063
  0
LINE
  5
819
100
AcDbEntity
  8
M0
 62
     7
100
AcDbLine
 10
224.883624
 20
335.762063
 11
224.883624
 21
337.262063
  0
LINE
  5
81A
100
AcDbEntity
  8
M0
 62
     7
100
AcDbLine
 10
225.883624
 20
334.762063
 11
216.583624
 21
334.762063
  0
LINE
  5
81B
100
AcDbEntity
  8
M0
 62
     7
100
AcDbLine
 10
217.583624
 20
335.762063
 11
224.883624
 21
335.762063
  0
LINE
  5
81C
100
AcDbEntity
  8
M0
 62
     7
100
AcDbLine
 10
217.583624
 20
336.095396
 11
217.583624
 21
335.762063
  0
LINE
  5
81D
100
AcDbEntity
  8
M0
 62
     7
100
AcDbLine
 10
232.283624
 20
279.162064
 11
232.283624
 21
268.362063
  0
LINE
  5
81E
100
AcDbEntity
  8
M0
 62
     7
100
AcDbLine
 10
216.283624
 20
268.362063
 11
208.483624
 21
268.862063
  0
LINE
  5
81F
100
AcDbEntity
  8
M0
 62
     7
100
AcDbLine
 10
239.383624
 20
268.362063
 11
216.283624
 21
268.362063
  0
LINE
  5
820
100
AcDbEntity
  8
M0
 62
     7
100
AcDbLine
 10
208.483624
 20
269.864115
 11
208.483624
 21
271.662063
  0
LINE
  5
821
100
AcDbEntity
  8
M0
 62
     7
100
AcDbLine
 10
201.895468
 20
269.131008
 11
199.183624
 21
271.662063
  0
LINE
  5
822
100
AcDbEntity
  8
M0
 62
     7
100
AcDbLine
 10
208.483624
 20
268.862063
 11
206.584507
 21
268.862063
  0
LINE
  5
823
100
AcDbEntity
  8
M0
 62
     7
100
AcDbLine
 10
206.662091
 20
269.862063
 11
206.584507
 21
268.862063
  0
LINE
  5
824
100
AcDbEntity
  8
M0
 62
     7
100
AcDbLine
 10
206.662091
 20
269.862063
 11
206.801743
 21
271.662063
  0
LINE
  5
825
100
AcDbEntity
  8
M0
 62
     7
100
AcDbLine
 10
206.584507
 20
268.862063
 11
202.577787
 21
268.862063
  0
LINE
  5
826
100
AcDbEntity
  8
M0
 62
     7
100
AcDbLine
 10
186.383624
 20
293.362063
 11
186.383624
 21
315.562063
  0
LINE
  5
827
100
AcDbEntity
  8
M0
 62
     7
100
AcDbLine
 10
208.483624
 20
268.862063
 11
208.483624
 21
269.864115
  0
LINE
  5
828
100
AcDbEntity
  8
M0
 62
     7
100
AcDbLine
 10
216.583624
 20
334.662063
 11
216.583624
 21
334.762063
  0
ELLIPSE
  5
829
100
AcDbEntity
  8
M0
 62
     7
100
AcDbEllipse
 10
186.883624
 20
310.16917
 11
0.5
 21
0.0
210
0.0
220
0.0
230
1.0
 40
0.414214
 41
3.141592653589793
 42
4.71238898038469
  0
ELLIPSE
  5
82A
100
AcDbEntity
  8
M0
 62
     7
100
AcDbEllipse
 10
186.883624
 20
308.66917
 11
0.5
 21
0.0
210
0.0
220
0.0
230
1.0
 40
0.414214
 41
3.141592653589793
 42
4.71238898038469
  0
ARC
  5
82B
100
AcDbEntity
  8
M0
 62
     7
100
AcDbCircle
 10
202.577787
 20
269.862063
 40
1.0
100
AcDbArc
 50
226.974934
 51
270.0
  0
ARC
  5
82C
100
AcDbEntity
  8
M0
 62
     7
100
AcDbCircle
 10
186.883624
 20
315.562063
 40
0.5
100
AcDbArc
 50
90.0
 51
180.0
  0
LINE
  5
82D
100
AcDbEntity
  8
M0
 62
     7
100
AcDbLine
 10
267.483624
 20
284.312063
 11
267.483624
 21
272.012063
  0
LINE
  5
82E
100
AcDbEntity
  8
M0
 62
     7
100
AcDbLine
 10
245.783624
 20
272.862063
 11
245.689849
 21
272.862063
  0
LINE
  5
82F
100
AcDbEntity
  8
M0
 62
     7
100
AcDbLine
 10
242.983624
 20
334.762063
 11
256.483624
 21
334.762063
  0
LINE
  5
830
100
AcDbEntity
  8
M0
 62
     7
100
AcDbLine
 10
247.583624
 20
322.962063
 11
247.583624
 21
333.762063
  0
LINE
  5
831
100
AcDbEntity
  8
M0
 62
     7
100
AcDbLine
 10
186.883624
 20
292.862063
 11
187.883624
 21
292.862063
  0
LINE
  5
832
100
AcDbEntity
  8
M0
 62
     7
100
AcDbLine
 10
221.783624
 20
268.362063
 11
216.283624
 21
268.362063
  0
ARC
  5
833
100
AcDbEntity
  8
M0
 62
     7
100
AcDbCircle
 10
186.883624
 20
293.362063
 40
0.5
100
AcDbArc
 50
180.0
 51
270.0
  0
LINE
  5
834
100
AcDbEntity
  8
M0
 62
     7
100
AcDbLine
 10
246.283624
 20
275.562063
 11
246.283624
 21
273.362063
  0
ARC
  5
835
100
AcDbEntity
  8
M0
 62
     7
100
AcDbCircle
 10
186.883624
 20
296.862063
 40
0.5
100
AcDbArc
 50
90.0
 51
180.0
  0
ARC
  5
836
100
AcDbEntity
  8
M0
 62
     7
100
AcDbCircle
 10
196.683624
 20
332.062063
 40
4.0
100
AcDbArc
 50
90.0
 51
180.0
  0
ARC
  5
837
100
AcDbEntity
  8
M0
 62
     7
100
AcDbCircle
 10
196.683624
 20
275.662063
 40
4.0
100
AcDbArc
 50
180.0
 51
270.0
  0
LINE
  5
838
100
AcDbEntity
  8
M0
  6
DASHED
 62
     7
100
AcDbLine
 10
230.383624
 20
341.262063
 11
230.383624
 21
348.262063
  0
LINE
  5
839
100
AcDbEntity
  8
M0
  6
DASHED
 62
     7
100
AcDbLine
 10
231.383624
 20
348.262063
 11
231.383624
 21
341.262063
  0
LINE
  5
83A
100
AcDbEntity
  8
M0
  6
DIVIDE
100
AcDbLine
 10
44.055446
 20
127.012862
 11
44.055446
 21
198.212862
  0
LINE
  5
83B
100
AcDbEntity
  8
M0
  6
DIVIDE
100
AcDbLine
 10
109.555446
 20
187.912864
 11
99.555446
 21
187.912864
  0
LINE
  5
83C
100
AcDbEntity
  8
M0
  6
DIVIDE
100
AcDbLine
 10
109.555446
 20
137.112861
 11
99.555446
 21
137.112861
  0
LINE
  5
83D
100
AcDbEntity
  8
M0
  6
DIVIDE
100
AcDbLine
 10
109.555446
 20
198.212862
 11
109.555446
 21
187.912864
  0
LINE
  5
83E
100
AcDbEntity
  8
M0
  6
DIVIDE
100
AcDbLine
 10
148.055446
 20
206.912862
 11
114.055446
 21
206.912862
  0
LINE
  5
83F
100
AcDbEntity
  8
M0
  6
DIVIDE
100
AcDbLine
 10
109.555446
 20
127.012862
 11
165.055446
 21
127.012862
  0
LINE
  5
840
100
AcDbEntity
  8
M0
  6
DIVIDE
100
AcDbLine
 10
114.055446
 20
206.912862
 11
114.055446
 21
198.181489
  0
LINE
  5
841
100
AcDbEntity
  8
M0
  6
DIVIDE
100
AcDbLine
 10
148.055446
 20
206.912862
 11
148.055446
 21
198.212862
  0
LINE
  5
842
100
AcDbEntity
  8
M0
  6
DIVIDE
100
AcDbLine
 10
109.555446
 20
137.112861
 11
109.555446
 21
127.012862
  0
LINE
  5
843
100
AcDbEntity
  8
M0
  6
DIVIDE
100
AcDbLine
 10
99.555446
 20
198.212862
 11
99.555446
 21
187.912864
  0
LINE
  5
844
100
AcDbEntity
  8
M0
  6
DIVIDE
100
AcDbLine
 10
61.055446
 20
206.912862
 11
95.055446
 21
206.912862
  0
LINE
  5
845
100
AcDbEntity
  8
M0
  6
DIVIDE
100
AcDbLine
 10
99.555446
 20
127.012862
 11
44.055446
 21
127.012862
  0
LINE
  5
846
100
AcDbEntity
  8
M0
  6
DIVIDE
100
AcDbLine
 10
95.055446
 20
206.912862
 11
95.055446
 21
198.181489
  0
LINE
  5
847
100
AcDbEntity
  8
M0
  6
DIVIDE
100
AcDbLine
 10
61.055446
 20
206.912862
 11
61.055446
 21
198.212862
  0
LINE
  5
848
100
AcDbEntity
  8
M0
  6
DIVIDE
100
AcDbLine
 10
99.555446
 20
137.112861
 11
99.555446
 21
127.012862
  0
CIRCLE
  5
849
100
AcDbEntity
  8
M0
100
AcDbCircle
 10
93.555446
 20
136.412862
 40
2.0
  0
CIRCLE
  5
84A
100
AcDbEntity
  8
M0
100
AcDbCircle
 10
60.555446
 20
191.412862
 40
1.7
  0
LINE
  5
84B
100
AcDbEntity
  8
M0
  6
DASHDOT
100
AcDbLine
 10
146.555446
 20
132.412862
 11
146.555446
 21
140.412862
  0
CIRCLE
  5
84C
100
AcDbEntity
  8
M0
100
AcDbCircle
 10
60.555446
 20
191.412862
 40
2.0
  0
LINE
  5
84D
100
AcDbEntity
  8
M0
  6
DASHDOT
100
AcDbLine
 10
142.555446
 20
136.412862
 11
150.555446
 21
136.412862
  0
CIRCLE
  5
84E
100
AcDbEntity
  8
M0
100
AcDbCircle
 10
146.555446
 20
136.412862
 40
2.0
  0
CIRCLE
  5
84F
100
AcDbEntity
  8
M0
100
AcDbCircle
 10
146.555446
 20
136.412862
 40
1.7
  0
CIRCLE
  5
850
100
AcDbEntity
  8
M0
100
AcDbCircle
 10
113.555446
 20
191.412862
 40
2.0
  0
CIRCLE
  5
851
100
AcDbEntity
  8
M0
100
AcDbCircle
 10
113.555446
 20
191.412862
 40
1.7
  0
CIRCLE
  5
852
100
AcDbEntity
  8
M0
100
AcDbCircle
 10
93.555446
 20
136.412862
 40
1.7
  0
LINE
  5
853
100
AcDbEntity
  8
M0
  6
DIVIDE
100
AcDbLine
 10
165.055446
 20
198.212862
 11
148.055446
 21
198.212862
  0
LINE
  5
854
100
AcDbEntity
  8
M0
  6
DASHDOT
100
AcDbLine
 10
56.555446
 20
191.412862
 11
64.555446
 21
191.412862
  0
LINE
  5
855
100
AcDbEntity
  8
M0
  6
DIVIDE
100
AcDbLine
 10
99.555446
 20
198.212862
 11
95.055446
 21
198.212862
  0
LINE
  5
856
100
AcDbEntity
  8
M0
  6
DIVIDE
100
AcDbLine
 10
109.555446
 20
198.212862
 11
114.055446
 21
198.212862
  0
LINE
  5
857
100
AcDbEntity
  8
M0
  6
DIVIDE
100
AcDbLine
 10
44.055446
 20
198.212862
 11
61.055446
 21
198.212862
  0
LINE
  5
858
100
AcDbEntity
  8
M0
  6
DASHDOT
100
AcDbLine
 10
109.555446
 20
191.412862
 11
117.555446
 21
191.412862
  0
LINE
  5
859
100
AcDbEntity
  8
M0
  6
DASHDOT
100
AcDbLine
 10
113.555446
 20
187.412862
 11
113.555446
 21
195.412862
  0
LINE
  5
85A
100
AcDbEntity
  8
M0
  6
DASHDOT
100
AcDbLine
 10
89.555446
 20
136.412862
 11
97.555446
 21
136.412862
  0
LINE
  5
85B
100
AcDbEntity
  8
M0
  6
DASHDOT
100
AcDbLine
 10
93.555446
 20
132.412862
 11
93.555446
 21
140.412862
  0
LINE
  5
85C
100
AcDbEntity
  8
M0
  6
DASHDOT
100
AcDbLine
 10
60.555446
 20
187.412862
 11
60.555446
 21
195.412862
  0
LINE
  5
85D
100
AcDbEntity
  8
M0
  6
DIVIDE
100
AcDbLine
 10
165.055446
 20
127.012862
 11
165.055446
 21
198.212862
  0
LINE
  5
85E
100
AcDbEntity
  8
M3
 62
     2
100
AcDbLine
 10
300.003268
 20
60.895184
 11
149.85312
 21
60.895184
  0
LINE
  5
85F
100
AcDbEntity
  8
M3
 62
     2
100
AcDbLine
 10
14.717987
 20
15.85014
 11
14.717987
 21
428.763047
  0
LINE
  5
860
100
AcDbEntity
  8
M3
 62
     2
100
AcDbLine
 10
300.003268
 20
15.85014
 11
14.717987
 21
15.85014
  0
LINE
  5
861
100
AcDbEntity
  8
M3
 62
     2
100
AcDbLine
 10
300.003268
 20
30.865154
 11
149.85312
 21
30.865154
  0
TEXT
  5
862
100
AcDbEntity
  8
M3
 62
     2
100
AcDbText
 10
153.106369
 20
34.618908
 40
7.507507
  1
形　式；
 41
1.0
  7
STANDARD
100
AcDbText
  0
LINE
  5
863
100
AcDbEntity
  8
M3
 62
     2
100
AcDbLine
 10
300.003268
 20
45.880169
 11
149.85312
 21
45.880169
  0
TEXT
  5
864
100
AcDbEntity
  8
M3
 62
     2
100
AcDbText
 10
153.106369
 20
49.633923
 40
7.507507
  1
登録名：
 41
1.0
  7
STANDARD
100
AcDbText
  0
LINE
  5
865
100
AcDbEntity
  8
M3
 62
     2
100
AcDbLine
 10
149.85312
 20
15.85014
 11
149.85312
 21
60.895184
  0
TEXT
  5
866
100
AcDbEntity
  8
M3
 62
     2
100
AcDbText
 10
153.106369
 20
19.603893
 40
7.507507
  1
適　用；
 41
1.0
  7
STANDARD
100
AcDbText
  0
LINE
  5
867
100
AcDbEntity
  8
M3
 62
     2
100
AcDbLine
 10
14.717987
 20
428.763047
 11
300.003268
 21
428.763047
  0
LINE
  5
868
100
AcDbEntity
  8
M3
 62
     2
100
AcDbLine
 10
300.003268
 20
428.763047
 11
300.003268
 21
15.85014
  0
TEXT
  5
869
100
AcDbEntity
  8
M3
 62
     2
100
AcDbText
 10
189.392663
 20
49.633923
 40
7.507507
  1
ＤＭＨＳ１０ＲＲ００
 41
0.5
  7
STANDARD
100
AcDbText
  0
TEXT
  5
86A
100
AcDbEntity
  8
M3
 62
     2
100
AcDbText
 10
189.392663
 20
34.618908
 40
7.507507
  1
ＨＳ１０－Ｒ
 41
0.5
  7
STANDARD
100
AcDbText
  0
LINE
  5
86B
100
AcDbEntity
  8
DN0
100
AcDbLine
 10
93.197282
 20
100.533186
 11
117.566652
 21
100.533186
  0
TEXT
  5
86C
100
AcDbEntity
  8
DN0
100
AcDbText
 10
93.870456
 20
101.133786
 40
6.006006
  1
せん孔図
 41
0.833333
  7
STANDARD
100
AcDbText
  0
ENDSEC
  0
SECTION
  2
OBJECTS
  0
DICTIONARY
  5
C
100
AcDbDictionary
  3
ACAD_GROUP
350
D
  3
ACAD_MLINESTYLE
350
E
  3
ACDBVARIABLEDICTIONARY
350
1CC
  0
DICTIONARY
  5
D
102
{ACAD_REACTORS
330
C
102
}
100
AcDbDictionary
  0
DICTIONARY
  5
E
102
{ACAD_REACTORS
330
C
102
}
100
AcDbDictionary
  3
STANDARD
350
13
  0
DICTIONARY
  5
1CC
102
{ACAD_REACTORS
330
C
102
}
100
AcDbDictionary
  3
SORTENTS
350
1CD
  0
MLINESTYLE
  5
13
102
{ACAD_REACTORS
330
E
102
}
100
AcDbMlineStyle
  2
STANDARD
 70
     0
  3

 62
     0
 51
90.0
 52
90.0
 71
     2
 49
0.5
 62
   256
  6
BYLAYER
 49
-0.5
 62
   256
  6
BYLAYER
  0
DICTIONARYVAR
  5
1CD
102
{ACAD_REACTORS
330
1CC
102
}
100
DictionaryVariables
280
     0
  1
96
  0
ENDSEC
  0
EOF
