  0
SECTION
  2
HEADER
  9
$ACADVER
  1
AC1014
  9
$INSBASE
 10
0.000000
 20
0.000000
 30
0.0
  9
$VIEWCTR
 10
7.531722
 20
4.5
  9
$VIEWSIZE
 40
9.0
  9
$SNAPMODE
 70
     0
  9
$SNAPUNIT
 10
1.0
 20
1.0
  9
$SNAPBASE
 10
0.0
 20
0.0
  9
$SNAPANG
 50
0.0
  9
$SNAPSTYLE
 70
     0
  9
$SNAPISOPAIR
 70
     0
  9
$GRIDMODE
 70
     0
  9
$GRIDUNIT
 10
0.0
 20
0.0
  9
$ORTHOMODE
 70
     0
  9
$REGENMODE
 70
     1
  9
$FILLMODE
 70
     1
  9
$QTEXTMODE
 70
     0
  9
$DRAGMODE
 70
     2
  9
$LTSCALE
  40
     1.000000
  9
$OSMODE
 70
     0
  9
$ATTMODE
 70
     1
  9
$TEXTSIZE
 40
0.2
  9
$TRACEWID
 40
0.05
  9
$TEXTSTYLE
  7
STANDARD
  9
$CELTYPE
  6
BYLAYER
  9
$CECOLOR
 62
   256
  9
$DIMSCALE
 40
1.0
  9
$DIMASZ
 40
0.18
  9
$DIMEXO
 40
0.0625
  9
$DIMDLI
 40
0.38
  9
$DIMRND
 40
0.0
  9
$DIMDLE
 40
0.0
  9
$DIMEXE
 40
0.18
  9
$DIMTP
 40
0.0
  9
$DIMTM
 40
0.0
  9
$DIMTXT
 40
0.18
  9
$DIMCEN
 40
0.09
  9
$DIMTSZ
 40
0.0
  9
$DIMTOL
 70
     0
  9
$DIMLIM
 70
     0
  9
$DIMTIH
 70
     1
  9
$DIMTOH
 70
     1
  9
$DIMSE1
 70
     0
  9
$DIMSE2
 70
     0
  9
$DIMTAD
 70
     0
  9
$DIMZIN
 70
     0
  9
$DIMBLK
  1

  9
$LUNITS
 70
     2
  9
$LUPREC
 70
     4
  9
$AXISMODE
 70
     0
  9
$AXISUNIT
 10
0.0
 20
0.0
  9
$SKETCHINC
 40
0.1
  9
$FILLETRAD
 40
0.0
  9
$AUNITS
 70
     0
  9
$AUPREC
 70
     0
  9
$MENU
  1
ACAD
  9
$ELEVATION
 40
0.0
  9
$THICKNESS
 40
0.0
  9
$VIEWDIR
 10
0.0
 20
0.0
 30
1.0
  9
$LIMCHECK
 70
     0
  9
$BLIPMODE
 70
     1
  9
$CHAMFERA
 40
0.0
  9
$CHAMFERB
 40
0.0
  9
$FASTZOOM
 70
     1
  9
$SKPOLY
 70
     0
  9
$TDCREATE
 40
0000000.0000000000
  9
$TDUPDATE
 40
0000000.0000000000
  9
$TDINDWG
 40
0.0000000000
  9
$TDUSRTIMER
 40
0.0000000000
  9
$USRTIMER
 70
     1
  9
$ANGBASE
 50
0.0
  9
$ANGDIR
 70
     0
  9
$PDMODE
 70
     0
  9
$PDSIZE
 40
0.0
  9
$PLINEWID
 40
0.0
  9
$COORDS
 70
     0
  9
$USERI1
 70
     0
  9
$USERI2
 70
     0
  9
$USERI3
 70
     0
  9
$USERI4
 70
     0
  9
$USERI5
 70
     0
  9
$USERR1
 40
0.0
  9
$USERR2
 40
0.0
  9
$USERR3
 40
0.0
  9
$USERR4
 40
0.0
  9
$USERR5
 40
0.0
  9
$CLAYER
  8
M0
  9
$EXTMIN
 10
16.666666
 20
16.666666
  9
$EXTMAX
 10
333.33332
 20
474.999981
  9
$LIMMIN
 10
0.0
 20
0.0
  9
$LIMMAX
 10
210.0
 20
297.0
  9
$HANDSEED
  5
8EF
  0
ENDSEC
  0
SECTION
  2
CLASSES
  0
CLASS
  1
DICTIONARYVAR
  2
AcDbDictionaryVar
  3
"AutoCAD"
 90
        0
280
     0
281
     0
  0
CLASS
  1
HATCH
  2
AcDbHatch
  3
"ACAD_SEDONA"
 90
        0
280
     0
281
     1
  0
ENDSEC
  0
SECTION
  2
TABLES
  0
TABLE
  2
VPORT
  5
8
100
AcDbSymbolTable
 70
     2
  0
VPORT
  5
14
100
AcDbSymbolTableRecord
100
AcDbViewportTableRecord
  2
*ACTIVE
 70
     0
 10
0.0
 20
0.0
 11
1.0
 21
1.0
 12
484.0
 22
297.0
 13
0.0
 23
0.0
 14
1.0
 24
1.0
 15
0.0
 25
0.0
 16
0.0
 26
0.0
 36
1.0
 17
0.0
 27
0.0
 37
0.0
 40
594.0
 41
2.0
 42
50.0
 43
0.0
 44
0.0
 50
0.0
 51
0.0
 71
     0
 72
   100
 73
     1
 74
     1
 75
     0
 76
     0
 77
     0
 78
     0
  0
ENDTAB
  0
TABLE
  2
LTYPE
  5
5
100
AcDbSymbolTable
 70
     5
  0
LTYPE
  5
15
100
AcDbSymbolTableRecord
100
AcDbLinetypeTableRecord
  2
BYBLOCK
 70
     0
  3

 72
    65
 73
     0
 40
0.0
  0
LTYPE
  5
16
100
AcDbSymbolTableRecord
100
AcDbLinetypeTableRecord
  2
BYLAYER
 70
     0
  3

 72
    65
 73
     0
 40
0.0
  0
LTYPE
  5
17
100
AcDbSymbolTableRecord
100
AcDbLinetypeTableRecord
  2
CONTINUOUS
 70
    64
  3
Solid line
 72
    65
 73
     0
 40
0.0
  0
LTYPE
  5
18
100
AcDbSymbolTableRecord
100
AcDbLinetypeTableRecord
  2
DASHED
 70
    64
  3
__ __ __ __ __ __ __ __ __ __ __ __ __ __ __ __
 72
    65
 73
     2
 40
0.75
 49
0.5
 74
     0
 49
-0.25
 74
     0
  0
LTYPE
  5
19
100
AcDbSymbolTableRecord
100
AcDbLinetypeTableRecord
  2
DASHDOT
 70
    64
  3
__ . __ . __ . __ . __ . __ . __ . __ . __ . __
 72
    65
 73
     4
 40
1.0
 49
0.5
 74
     0
 49
-0.25
 74
     0
 49
0.0
 74
     0
 49
-0.25
 74
     0
  0
LTYPE
  5
1A
100
AcDbSymbolTableRecord
100
AcDbLinetypeTableRecord
  2
DIVIDE
 70
    64
  3
____ . . ____ . . ____ . . ____ . . ____ . . __
 72
    65
 73
     6
 40
1.25
 49
0.5
 74
     0
 49
-0.25
 74
     0
 49
0.0
 74
     0
 49
-0.25
 74
     0
 49
0.0
 74
     0
 49
-0.25
 74
     0
  0
LTYPE
  5
1B
100
AcDbSymbolTableRecord
100
AcDbLinetypeTableRecord
  2
DOT
 70
    64
  3
. . . . . . . . . . . . . . . . . . . . . . . .
 72
    65
 73
     2
 40
0.25
 49
0.0
 74
     0
 49
-0.25
 74
     0
  0
ENDTAB
  0
TABLE
  2
LAYER
  5
2
100
AcDbSymbolTable
 70
   102
  0
LAYER
  5
F
100
AcDbSymbolTableRecord
100
AcDbLayerTableRecord
  2
0
 70
     0
 62
     7
  6
CONTINUOUS
  0
LAYER
  5
1C
100
AcDbSymbolTableRecord
100
AcDbLayerTableRecord
  2
DEFPOINTS
 70
     0
 62
     7
  6
CONTINUOUS
  0
LAYER
  5
1D
100
AcDbSymbolTableRecord
100
AcDbLayerTableRecord
  2
M0
 70
     0
 62
     3
  6
CONTINUOUS
  0
LAYER
  5
1E
100
AcDbSymbolTableRecord
100
AcDbLayerTableRecord
  2
M1
 70
     0
 62
     3
  6
CONTINUOUS
  0
LAYER
  5
1F
100
AcDbSymbolTableRecord
100
AcDbLayerTableRecord
  2
DD0
 70
     0
 62
     4
  6
CONTINUOUS
  0
LAYER
  5
20
100
AcDbSymbolTableRecord
100
AcDbLayerTableRecord
  2
DN0
 70
     0
 62
     2
  6
CONTINUOUS
  0
ENDTAB
  0
TABLE
  2
STYLE
  5
3
100
AcDbSymbolTable
 70
     2
  0
STYLE
  5
10
100
AcDbSymbolTableRecord
100
AcDbTextStyleTableRecord
  2
STANDARD
 70
     0
 40
0.0
 41
1.0
 50
0.0
 71
     0
 42
0.2
  3
txt
  4
BIGFONT
  0
ENDTAB
  0
TABLE
  2
VIEW
  5
6
100
AcDbSymbolTable
 70
     0
  0
ENDTAB
  0
TABLE
  2
UCS
  5
7
100
AcDbSymbolTable
 70
     0
  0
ENDTAB
  0
TABLE
  2
APPID
  5
9
100
AcDbSymbolTable
 70
     1
  0
APPID
  5
11
100
AcDbSymbolTableRecord
100
AcDbRegAppTableRecord
  2
ACAD
 70
     0
  0
ENDTAB
  0
TABLE
  2
DIMSTYLE
  5
A
100
AcDbSymbolTable
 70
     2
  0
DIMSTYLE
105
27
100
AcDbSymbolTableRecord
100
AcDbDimStyleTableRecord
  2
STANDARD
 70
     0
  3

  4

  5

  6
_OPEN
  7
_OPEN
 40
1.0
 41
5.0
 42
1.0
 43
8.0
 44
1.0
 45
0.0
 46
0.0
 47
0.0
 48
0.0
140
5.25
141
0.09
142
0.0
143
0.03937
144
1.0
145
0.0
146
1.0
147
0.6
 71
     0
 72
     0
 73
     1
 74
     1
 75
     0
 76
     0
 77
     3
 78
     8
170
     0
171
     2
172
     0
173
     1
174
     0
175
     0
176
     0
177
     0
178
     0
270
     2
271
     2
272
     4
273
     2
274
     2
340
10
275
     0
280
     0
281
     0
282
     0
283
     1
284
     0
285
     0
286
     0
287
     3
288
     0
  0
DIMSTYLE
105
28
100
AcDbSymbolTableRecord
100
AcDbDimStyleTableRecord
  2
LEADSTYL
 70
     0
  3

  4

  5

  6
_OPEN
  7
_OPEN
 40
1.0
 41
5.0
 42
0.0625
 43
0.38
 44
0.18
 45
0.0
 46
0.0
 47
0.0
 48
0.0
140
5.25
141
0.09
142
0.0
143
25.4
144
1.0
145
0.0
146
1.0
147
0.6
 71
     0
 72
     0
 73
     1
 74
     1
 75
     0
 76
     0
 77
     0
 78
     0
170
     0
171
     2
172
     0
173
     1
174
     0
175
     0
176
     0
177
     0
178
     0
270
     2
271
     4
272
     4
273
     2
274
     2
340
10
275
     0
280
     0
281
     0
282
     0
283
     1
284
     0
285
     0
286
     0
287
     3
288
     0
  0
ENDTAB
  0
TABLE
  2
BLOCK_RECORD
  5
1
100
AcDbSymbolTable
 70
    21
  0
BLOCK_RECORD
  5
21
100
AcDbSymbolTableRecord
100
AcDbBlockTableRecord
  2
*MODEL_SPACE
  0
BLOCK_RECORD
  5
24
100
AcDbSymbolTableRecord
100
AcDbBlockTableRecord
  2
*PAPER_SPACE
  0
BLOCK_RECORD
  5
29
100
AcDbSymbolTableRecord
100
AcDbBlockTableRecord
  2
_NONE
  0
BLOCK_RECORD
  5
2D
100
AcDbSymbolTableRecord
100
AcDbBlockTableRecord
  2
_OPEN
  0
BLOCK_RECORD
  5
33
100
AcDbSymbolTableRecord
100
AcDbBlockTableRecord
  2
_CLOSED
  0
BLOCK_RECORD
  5
3A
100
AcDbSymbolTableRecord
100
AcDbBlockTableRecord
  2
_ORIGIN
  0
BLOCK_RECORD
  5
3F
100
AcDbSymbolTableRecord
100
AcDbBlockTableRecord
  2
_DOT
  0
BLOCK_RECORD
  5
47
100
AcDbSymbolTableRecord
100
AcDbBlockTableRecord
  2
_OBLIQUE
  0
BLOCK_RECORD
  5
4B
100
AcDbSymbolTableRecord
100
AcDbBlockTableRecord
  2
DIMS0
  0
BLOCK_RECORD
  5
57
100
AcDbSymbolTableRecord
100
AcDbBlockTableRecord
  2
DIMS1
  0
BLOCK_RECORD
  5
63
100
AcDbSymbolTableRecord
100
AcDbBlockTableRecord
  2
DIMS2
  0
BLOCK_RECORD
  5
6F
100
AcDbSymbolTableRecord
100
AcDbBlockTableRecord
  2
DIMS3
  0
BLOCK_RECORD
  5
7B
100
AcDbSymbolTableRecord
100
AcDbBlockTableRecord
  2
DIMS4
  0
BLOCK_RECORD
  5
87
100
AcDbSymbolTableRecord
100
AcDbBlockTableRecord
  2
DIMS5
  0
BLOCK_RECORD
  5
93
100
AcDbSymbolTableRecord
100
AcDbBlockTableRecord
  2
DIMS6
  0
BLOCK_RECORD
  5
9F
100
AcDbSymbolTableRecord
100
AcDbBlockTableRecord
  2
DIMS7
  0
BLOCK_RECORD
  5
AB
100
AcDbSymbolTableRecord
100
AcDbBlockTableRecord
  2
DIMS8
  0
BLOCK_RECORD
  5
B7
100
AcDbSymbolTableRecord
100
AcDbBlockTableRecord
  2
DIMS9
  0
BLOCK_RECORD
  5
C0
100
AcDbSymbolTableRecord
100
AcDbBlockTableRecord
  2
DIMS10
  0
BLOCK_RECORD
  5
CC
100
AcDbSymbolTableRecord
100
AcDbBlockTableRecord
  2
DIMS11
  0
BLOCK_RECORD
  5
D8
100
AcDbSymbolTableRecord
100
AcDbBlockTableRecord
  2
DIMS12
  0
BLOCK_RECORD
  5
E3
100
AcDbSymbolTableRecord
100
AcDbBlockTableRecord
  2
DIMS13
  0
BLOCK_RECORD
  5
EF
100
AcDbSymbolTableRecord
100
AcDbBlockTableRecord
  2
DIMS14
  0
ENDTAB
  0
ENDSEC
  0
SECTION
  2
BLOCKS
  0
BLOCK
  5
22
100
AcDbEntity
  8
0
100
AcDbBlockBegin
  2
*MODEL_SPACE
 70
     0
 10
0.0
 20
0.0
 30
0.0
  3
*MODEL_SPACE
  1

  0
ENDBLK
  5
23
100
AcDbEntity
  8
0
100
AcDbBlockEnd
  0
BLOCK
  5
25
100
AcDbEntity
 67
     1
  8
0
100
AcDbBlockBegin
  2
*PAPER_SPACE
 70
     0
 10
0.0
 20
0.0
 30
0.0
  3
*PAPER_SPACE
  1

  0
ENDBLK
  5
26
100
AcDbEntity
 67
     1
  8
0
100
AcDbBlockEnd
  0
BLOCK
  5
2A
100
AcDbEntity
  8
0
100
AcDbBlockBegin
  2
_NONE
 70
     0
 10
0.0
 20
0.0
  0
CIRCLE
  5
2B
100
AcDbEntity
  8
0
 62
     0
100
AcDbCircle
 10
0.0
 20
0.0
 40
0.25
  0
ENDBLK
  5
2C
100
AcDbEntity
  8
0
100
AcDbBlockEnd
  0
BLOCK
  5
2E
100
AcDbEntity
  8
0
100
AcDbBlockBegin
  2
_OPEN
 70
     0
 10
0.0
 20
0.0
  0
LINE
  5
2F
100
AcDbEntity
  8
0
 62
     0
100
AcDbLine
 10
-0.965926
 20
0.258819
 11
0.0
 21
0.0
  0
LINE
  5
30
100
AcDbEntity
  8
0
 62
     0
100
AcDbLine
 10
0.0
 20
0.0
 11
-0.965926
 21
-0.258819
  0
LINE
  5
31
100
AcDbEntity
  8
0
 62
     0
100
AcDbLine
 10
0.0
 20
0.0
 11
-1.0
 21
0.0
  0
ENDBLK
  5
32
100
AcDbEntity
  8
0
100
AcDbBlockEnd
  0
BLOCK
  5
34
100
AcDbEntity
  8
0
100
AcDbBlockBegin
  2
_CLOSED
 70
     0
 10
0.0
 20
0.0
  0
LINE
  5
35
100
AcDbEntity
  8
0
 62
     0
100
AcDbLine
 10
-0.965926
 20
0.258819
 11
0.0
 21
0.0
  0
LINE
  5
36
100
AcDbEntity
  8
0
 62
     0
100
AcDbLine
 10
0.0
 20
0.0
 11
-0.965926
 21
-0.258819
  0
LINE
  5
37
100
AcDbEntity
  8
0
 62
     0
100
AcDbLine
 10
-0.965926
 20
0.258819
 11
-0.965926
 21
-0.258819
  0
LINE
  5
38
100
AcDbEntity
  8
0
 62
     0
100
AcDbLine
 10
0.0
 20
0.0
 11
-1.0
 21
0.0
  0
ENDBLK
  5
39
100
AcDbEntity
  8
0
100
AcDbBlockEnd
  0
BLOCK
  5
3B
100
AcDbEntity
  8
0
100
AcDbBlockBegin
  2
_ORIGIN
 70
     0
 10
0.0
 20
0.0
  0
CIRCLE
  5
3C
100
AcDbEntity
  8
0
 62
     0
100
AcDbCircle
 10
0.0
 20
0.0
 40
0.5
  0
LINE
  5
3D
100
AcDbEntity
  8
0
 62
     0
100
AcDbLine
 10
0.0
 20
0.0
 11
-1.0
 21
0.0
  0
ENDBLK
  5
3E
100
AcDbEntity
  8
0
100
AcDbBlockEnd
  0
BLOCK
  5
40
100
AcDbEntity
  8
0
100
AcDbBlockBegin
  2
_DOT
 70
     0
 10
0.0
 20
0.0
  0
POLYLINE
  5
41
100
AcDbEntity
  8
0
 62
     0
100
AcDb2dPolyline
 66
     1
 70
     1
 40
0.5
 41
0.5
  0
VERTEX
  5
42
100
AcDbEntity
  8
0
 62
     0
100
AcDbVertex
100
AcDb2dVertex
 10
-0.25
 20
0.0
 42
1.0
  0
VERTEX
  5
43
100
AcDbEntity
  8
0
 62
     0
100
AcDbVertex
100
AcDb2dVertex
 10
0.25
 20
0.0
 42
1.0
  0
SEQEND
  5
44
100
AcDbEntity
  8
0
 62
     0
  0
LINE
  5
45
100
AcDbEntity
  8
0
 62
     0
100
AcDbLine
 10
-0.5
 20
0.0
 11
-1.0
 21
0.0
  0
ENDBLK
  5
46
100
AcDbEntity
  8
0
100
AcDbBlockEnd
  0
BLOCK
  5
48
100
AcDbEntity
  8
0
100
AcDbBlockBegin
  2
_OBLIQUE
 70
     0
 10
0.0
 20
0.0
  0
LINE
  5
49
100
AcDbEntity
  8
0
 62
     0
100
AcDbLine
 10
-0.353553
 20
-0.353553
 11
0.353553
 21
0.353553
  0
ENDBLK
  5
4A
100
AcDbEntity
  8
0
100
AcDbBlockEnd
  0
BLOCK
  5
4C
100
AcDbEntity
  8
DD0
100
AcDbBlockBegin
  2
DIMS0
 70
     0
 10
0.0
 20
0.0
  0
LINE
  5
4D
100
AcDbEntity
  8
DD0
100
AcDbLine
 10
38.669594
 20
376.94515
 11
38.669594
 21
420.009902
  0
LINE
  5
4E
100
AcDbEntity
  8
DD0
100
AcDbLine
 10
159.66959
 20
376.94515
 11
159.66959
 21
420.009902
  0
LINE
  5
4F
100
AcDbEntity
  8
DD0
100
AcDbLine
 10
43.499223
 20
419.63733
 11
38.669594
 21
418.343235
  0
LINE
  5
50
100
AcDbEntity
  8
DD0
100
AcDbLine
 10
38.669594
 20
418.343235
 11
43.499223
 21
417.04914
  0
LINE
  5
51
100
AcDbEntity
  8
DD0
100
AcDbLine
 10
154.839961
 20
417.04914
 11
159.66959
 21
418.343235
  0
LINE
  5
52
100
AcDbEntity
  8
DD0
100
AcDbLine
 10
159.66959
 20
418.343235
 11
154.839961
 21
419.63733
  0
LINE
  5
53
100
AcDbEntity
  8
DD0
100
AcDbLine
 10
38.669594
 20
418.343235
 11
159.66959
 21
418.343235
  0
TEXT
  5
54
100
AcDbEntity
  8
DD0
100
AcDbText
 10
94.455708
 20
419.343245
 40
4.166667
  1
１２１
 41
0.666667
  7
STANDARD
100
AcDbText
  0
ENDBLK
  5
55
100
AcDbEntity
  8
DD0
100
AcDbBlockEnd
  0
BLOCK
  5
58
100
AcDbEntity
  8
DD0
100
AcDbBlockBegin
  2
DIMS1
 70
     0
 10
0.0
 20
0.0
  0
LINE
  5
59
100
AcDbEntity
  8
DD0
100
AcDbLine
 10
54.602926
 20
393.028473
 11
27.185124
 21
393.028473
  0
LINE
  5
5A
100
AcDbEntity
  8
DD0
100
AcDbLine
 10
55.852926
 20
369.528489
 11
27.185124
 21
369.528489
  0
LINE
  5
5B
100
AcDbEntity
  8
DD0
100
AcDbLine
 10
30.145886
 20
388.198844
 11
28.851791
 21
393.028473
  0
LINE
  5
5C
100
AcDbEntity
  8
DD0
100
AcDbLine
 10
28.851791
 20
393.028473
 11
27.557696
 21
388.198844
  0
LINE
  5
5D
100
AcDbEntity
  8
DD0
100
AcDbLine
 10
27.557696
 20
374.358118
 11
28.851791
 21
369.528489
  0
LINE
  5
5E
100
AcDbEntity
  8
DD0
100
AcDbLine
 10
28.851791
 20
369.528489
 11
30.145886
 21
374.358118
  0
LINE
  5
5F
100
AcDbEntity
  8
DD0
100
AcDbLine
 10
28.851791
 20
393.028473
 11
28.851791
 21
369.528489
  0
TEXT
  5
60
100
AcDbEntity
  8
DD0
100
AcDbText
 10
27.85179
 20
374.897902
 40
4.166667
  1
２３．５
 50
90.000003
 41
0.666667
  7
STANDARD
100
AcDbText
  0
ENDBLK
  5
61
100
AcDbEntity
  8
DD0
100
AcDbBlockEnd
  0
BLOCK
  5
64
100
AcDbEntity
  8
DD0
100
AcDbBlockBegin
  2
DIMS2
 70
     0
 10
0.0
 20
0.0
  0
LINE
  5
65
100
AcDbEntity
  8
DD0
100
AcDbLine
 10
55.852926
 20
369.528489
 11
27.185124
 21
369.528489
  0
LINE
  5
66
100
AcDbEntity
  8
DD0
100
AcDbLine
 10
55.852926
 20
327.728487
 11
27.185124
 21
327.728487
  0
LINE
  5
67
100
AcDbEntity
  8
DD0
100
AcDbLine
 10
30.145886
 20
364.69886
 11
28.851791
 21
369.528489
  0
LINE
  5
68
100
AcDbEntity
  8
DD0
100
AcDbLine
 10
28.851791
 20
369.528489
 11
27.557696
 21
364.69886
  0
LINE
  5
69
100
AcDbEntity
  8
DD0
100
AcDbLine
 10
27.557696
 20
332.558116
 11
28.851791
 21
327.728487
  0
LINE
  5
6A
100
AcDbEntity
  8
DD0
100
AcDbLine
 10
28.851791
 20
327.728487
 11
30.145886
 21
332.558116
  0
LINE
  5
6B
100
AcDbEntity
  8
DD0
100
AcDbLine
 10
28.851791
 20
369.528489
 11
28.851791
 21
327.728487
  0
TEXT
  5
6C
100
AcDbEntity
  8
DD0
100
AcDbText
 10
27.85179
 20
345.581243
 40
4.166667
  1
４２
 50
90.000003
 41
0.666667
  7
STANDARD
100
AcDbText
  0
ENDBLK
  5
6D
100
AcDbEntity
  8
DD0
100
AcDbBlockEnd
  0
BLOCK
  5
70
100
AcDbEntity
  8
DD0
100
AcDbBlockBegin
  2
DIMS3
 70
     0
 10
0.0
 20
0.0
  0
LINE
  5
71
100
AcDbEntity
  8
DD0
100
AcDbLine
 10
72.669592
 20
396.517166
 11
72.669592
 21
409.741551
  0
LINE
  5
72
100
AcDbEntity
  8
DD0
100
AcDbLine
 10
125.669589
 20
396.517166
 11
125.669589
 21
409.741551
  0
LINE
  5
73
100
AcDbEntity
  8
DD0
100
AcDbLine
 10
77.499221
 20
409.368979
 11
72.669592
 21
408.074884
  0
LINE
  5
74
100
AcDbEntity
  8
DD0
100
AcDbLine
 10
72.669592
 20
408.074884
 11
77.499221
 21
406.780789
  0
LINE
  5
75
100
AcDbEntity
  8
DD0
100
AcDbLine
 10
120.83996
 20
406.780789
 11
125.669589
 21
408.074884
  0
LINE
  5
76
100
AcDbEntity
  8
DD0
100
AcDbLine
 10
125.669589
 20
408.074884
 11
120.83996
 21
409.368979
  0
LINE
  5
77
100
AcDbEntity
  8
DD0
100
AcDbLine
 10
72.669592
 20
408.074884
 11
125.669589
 21
408.074884
  0
TEXT
  5
78
100
AcDbEntity
  8
DD0
100
AcDbText
 10
96.122368
 20
409.074894
 40
4.166667
  1
５３
 41
0.666667
  7
STANDARD
100
AcDbText
  0
ENDBLK
  5
79
100
AcDbEntity
  8
DD0
100
AcDbBlockEnd
  0
BLOCK
  5
7C
100
AcDbEntity
  8
DD0
100
AcDbBlockBegin
  2
DIMS4
 70
     0
 10
0.0
 20
0.0
  0
LINE
  5
7D
100
AcDbEntity
  8
DD0
100
AcDbLine
 10
57.519593
 20
325.561816
 11
57.519593
 21
302.933643
  0
LINE
  5
7E
100
AcDbEntity
  8
DD0
100
AcDbLine
 10
67.619594
 20
325.561816
 11
67.619594
 21
302.933643
  0
LINE
  5
7F
100
AcDbEntity
  8
DD0
100
AcDbLine
 10
52.689964
 20
303.306214
 11
57.519593
 21
304.600309
  0
LINE
  5
80
100
AcDbEntity
  8
DD0
100
AcDbLine
 10
57.519593
 20
304.600309
 11
52.689964
 21
305.894405
  0
LINE
  5
81
100
AcDbEntity
  8
DD0
100
AcDbLine
 10
72.449223
 20
305.894405
 11
67.619594
 21
304.600309
  0
LINE
  5
82
100
AcDbEntity
  8
DD0
100
AcDbLine
 10
67.619594
 20
304.600309
 11
72.449223
 21
303.306214
  0
LINE
  5
83
100
AcDbEntity
  8
DD0
100
AcDbLine
 10
52.019593
 20
304.600309
 11
73.119594
 21
304.600309
  0
TEXT
  5
84
100
AcDbEntity
  8
DD0
100
AcDbText
 10
59.522371
 20
305.600319
 40
4.166667
  1
１０
 41
0.666667
  7
STANDARD
100
AcDbText
  0
ENDBLK
  5
85
100
AcDbEntity
  8
DD0
100
AcDbBlockEnd
  0
BLOCK
  5
88
100
AcDbEntity
  8
DD0
100
AcDbBlockBegin
  2
DIMS5
 70
     0
 10
0.0
 20
0.0
  0
LINE
  5
89
100
AcDbEntity
  8
DD0
100
AcDbLine
 10
143.736261
 20
393.028473
 11
175.256188
 21
393.028473
  0
LINE
  5
8A
100
AcDbEntity
  8
DD0
100
AcDbLine
 10
132.336255
 20
313.128472
 11
175.256188
 21
313.128472
  0
LINE
  5
8B
100
AcDbEntity
  8
DD0
100
AcDbLine
 10
174.883617
 20
388.198844
 11
173.589522
 21
393.028473
  0
LINE
  5
8C
100
AcDbEntity
  8
DD0
100
AcDbLine
 10
173.589522
 20
393.028473
 11
172.295426
 21
388.198844
  0
LINE
  5
8D
100
AcDbEntity
  8
DD0
100
AcDbLine
 10
172.295426
 20
317.958101
 11
173.589522
 21
313.128472
  0
LINE
  5
8E
100
AcDbEntity
  8
DD0
100
AcDbLine
 10
173.589522
 20
313.128472
 11
174.883617
 21
317.958101
  0
LINE
  5
8F
100
AcDbEntity
  8
DD0
100
AcDbLine
 10
173.589522
 20
393.028473
 11
173.589522
 21
313.128472
  0
TEXT
  5
90
100
AcDbEntity
  8
DD0
100
AcDbText
 10
172.589524
 20
350.03124
 40
4.166667
  1
８０
 50
90.000003
 41
0.666667
  7
STANDARD
100
AcDbText
  0
ENDBLK
  5
91
100
AcDbEntity
  8
DD0
100
AcDbBlockEnd
  0
BLOCK
  5
94
100
AcDbEntity
  8
DD0
100
AcDbBlockBegin
  2
DIMS6
 70
     0
 10
0.0
 20
0.0
  0
LINE
  5
95
100
AcDbEntity
  8
DD0
100
AcDbLine
 10
311.216596
 20
385.545156
 11
311.216596
 21
420.009876
  0
LINE
  5
96
100
AcDbEntity
  8
DD0
100
AcDbLine
 10
197.816587
 20
361.995149
 11
197.816587
 21
420.009876
  0
LINE
  5
97
100
AcDbEntity
  8
DD0
100
AcDbLine
 10
306.386967
 20
417.049114
 11
311.216596
 21
418.343209
  0
LINE
  5
98
100
AcDbEntity
  8
DD0
100
AcDbLine
 10
311.216596
 20
418.343209
 11
306.386967
 21
419.637305
  0
LINE
  5
99
100
AcDbEntity
  8
DD0
100
AcDbLine
 10
202.646216
 20
419.637305
 11
197.816587
 21
418.343209
  0
LINE
  5
9A
100
AcDbEntity
  8
DD0
100
AcDbLine
 10
197.816587
 20
418.343209
 11
202.646216
 21
417.049114
  0
LINE
  5
9B
100
AcDbEntity
  8
DD0
100
AcDbLine
 10
311.216596
 20
418.343209
 11
197.816587
 21
418.343209
  0
TEXT
  5
9C
100
AcDbEntity
  8
DD0
100
AcDbText
 10
249.802693
 20
419.34322
 40
4.166667
  1
１１４
 41
0.666667
  7
STANDARD
100
AcDbText
  0
ENDBLK
  5
9D
100
AcDbEntity
  8
DD0
100
AcDbBlockEnd
  0
BLOCK
  5
A0
100
AcDbEntity
  8
DD0
100
AcDbBlockBegin
  2
DIMS7
 70
     0
 10
0.0
 20
0.0
  0
LINE
  5
A1
100
AcDbEntity
  8
DD0
100
AcDbLine
 10
197.816587
 20
361.995149
 11
197.816587
 21
420.009876
  0
LINE
  5
A2
100
AcDbEntity
  8
DD0
100
AcDbLine
 10
192.816587
 20
394.295155
 11
192.816587
 21
420.009876
  0
LINE
  5
A3
100
AcDbEntity
  8
DD0
100
AcDbLine
 10
202.646216
 20
419.637305
 11
197.816587
 21
418.343209
  0
LINE
  5
A4
100
AcDbEntity
  8
DD0
100
AcDbLine
 10
197.816587
 20
418.343209
 11
202.646216
 21
417.049114
  0
LINE
  5
A5
100
AcDbEntity
  8
DD0
100
AcDbLine
 10
187.986958
 20
417.049114
 11
192.816587
 21
418.343209
  0
LINE
  5
A6
100
AcDbEntity
  8
DD0
100
AcDbLine
 10
192.816587
 20
418.343209
 11
187.986958
 21
419.637305
  0
LINE
  5
A7
100
AcDbEntity
  8
DD0
100
AcDbLine
 10
203.316586
 20
418.343209
 11
182.316587
 21
418.343209
  0
TEXT
  5
A8
100
AcDbEntity
  8
DD0
100
AcDbText
 10
183.786028
 20
419.34322
 40
4.166667
  1
５
 41
0.666667
  7
STANDARD
100
AcDbText
  0
ENDBLK
  5
A9
100
AcDbEntity
  8
DD0
100
AcDbBlockEnd
  0
BLOCK
  5
AC
100
AcDbEntity
  8
DD0
100
AcDbBlockBegin
  2
DIMS8
 70
     0
 10
0.0
 20
0.0
  0
LINE
  5
AD
100
AcDbEntity
  8
DD0
100
AcDbLine
 10
108.169628
 20
223.094753
 11
108.169628
 21
244.177287
  0
LINE
  5
AE
100
AcDbEntity
  8
DD0
100
AcDbLine
 10
141.169631
 20
168.094743
 11
141.169631
 21
244.177287
  0
LINE
  5
AF
100
AcDbEntity
  8
DD0
100
AcDbLine
 10
112.999257
 20
243.804716
 11
108.169628
 21
242.510621
  0
LINE
  5
B0
100
AcDbEntity
  8
DD0
100
AcDbLine
 10
108.169628
 20
242.510621
 11
112.999257
 21
241.216525
  0
LINE
  5
B1
100
AcDbEntity
  8
DD0
100
AcDbLine
 10
136.340003
 20
241.216525
 11
141.169631
 21
242.510621
  0
LINE
  5
B2
100
AcDbEntity
  8
DD0
100
AcDbLine
 10
141.169631
 20
242.510621
 11
136.340003
 21
243.804716
  0
LINE
  5
B3
100
AcDbEntity
  8
DD0
100
AcDbLine
 10
108.169628
 20
242.510621
 11
141.169631
 21
242.510621
  0
TEXT
  5
B4
100
AcDbEntity
  8
DD0
100
AcDbText
 10
121.62241
 20
243.510631
 40
4.166667
  1
３３
 41
0.666667
  7
STANDARD
100
AcDbText
  0
ENDBLK
  5
B5
100
AcDbEntity
  8
DD0
100
AcDbBlockEnd
  0
BLOCK
  5
B8
100
AcDbEntity
  8
DD0
100
AcDbBlockBegin
  2
DIMS9
 70
     0
 10
0.0
 20
0.0
  0
TEXT
  5
B9
100
AcDbEntity
  8
DD0
100
AcDbText
 10
154.422384
 20
140.970619
 40
4.166667
  1
４－Ｍ４ねじ穴
 41
0.666667
  7
STANDARD
100
AcDbText
  0
LINE
  5
BA
100
AcDbEntity
  8
DD0
100
AcDbLine
 10
144.872316
 20
156.487777
 11
142.206568
 21
160.717881
  0
LINE
  5
BB
100
AcDbEntity
  8
DD0
100
AcDbLine
 10
142.206568
 20
160.717881
 11
142.400121
 21
155.721629
  0
LINE
  5
BC
100
AcDbEntity
  8
DD0
100
AcDbLine
 10
142.206568
 20
160.717881
 11
148.636265
 21
139.970621
  0
LINE
  5
BD
100
AcDbEntity
  8
DD0
100
AcDbLine
 10
148.636265
 20
139.970621
 11
182.969595
 21
139.970621
  0
ENDBLK
  5
BE
100
AcDbEntity
  8
DD0
100
AcDbBlockEnd
  0
BLOCK
  5
C1
100
AcDbEntity
  8
DD0
100
AcDbBlockBegin
  2
DIMS10
 70
     0
 10
0.0
 20
0.0
  0
LINE
  5
C2
100
AcDbEntity
  8
DD0
100
AcDbLine
 10
144.336301
 20
232.928076
 11
175.256188
 21
232.928076
  0
LINE
  5
C3
100
AcDbEntity
  8
DD0
100
AcDbLine
 10
60.8363
 20
217.428072
 11
175.256188
 21
217.428072
  0
LINE
  5
C4
100
AcDbEntity
  8
DD0
100
AcDbLine
 10
174.883617
 20
228.098447
 11
173.589522
 21
232.928076
  0
LINE
  5
C5
100
AcDbEntity
  8
DD0
100
AcDbLine
 10
173.589522
 20
232.928076
 11
172.295426
 21
228.098447
  0
LINE
  5
C6
100
AcDbEntity
  8
DD0
100
AcDbLine
 10
172.295426
 20
222.257701
 11
173.589522
 21
217.428072
  0
LINE
  5
C7
100
AcDbEntity
  8
DD0
100
AcDbLine
 10
173.589522
 20
217.428072
 11
174.883617
 21
222.257701
  0
LINE
  5
C8
100
AcDbEntity
  8
DD0
100
AcDbLine
 10
173.589522
 20
251.699082
 11
173.589522
 21
217.428072
  0
TEXT
  5
C9
100
AcDbEntity
  8
DD0
100
AcDbText
 10
172.589524
 20
236.985183
 40
4.166667
  1
１５．５
 50
90.000003
 41
0.666667
  7
STANDARD
100
AcDbText
  0
ENDBLK
  5
CA
100
AcDbEntity
  8
DD0
100
AcDbBlockEnd
  0
BLOCK
  5
CD
100
AcDbEntity
  8
DD0
100
AcDbBlockBegin
  2
DIMS11
 70
     0
 10
0.0
 20
0.0
  0
LINE
  5
CE
100
AcDbEntity
  8
DD0
100
AcDbLine
 10
60.8363
 20
217.428072
 11
175.256175
 21
217.428072
  0
LINE
  5
CF
100
AcDbEntity
  8
DD0
100
AcDbLine
 10
93.836297
 20
162.428074
 11
175.256175
 21
162.428074
  0
LINE
  5
D0
100
AcDbEntity
  8
DD0
100
AcDbLine
 10
174.883604
 20
212.598443
 11
173.589509
 21
217.428072
  0
LINE
  5
D1
100
AcDbEntity
  8
DD0
100
AcDbLine
 10
173.589509
 20
217.428072
 11
172.295414
 21
212.598443
  0
LINE
  5
D2
100
AcDbEntity
  8
DD0
100
AcDbLine
 10
172.295414
 20
167.257703
 11
173.589509
 21
162.428074
  0
LINE
  5
D3
100
AcDbEntity
  8
DD0
100
AcDbLine
 10
173.589509
 20
162.428074
 11
174.883604
 21
167.257703
  0
LINE
  5
D4
100
AcDbEntity
  8
DD0
100
AcDbLine
 10
173.589509
 20
217.428072
 11
173.589509
 21
162.428074
  0
TEXT
  5
D5
100
AcDbEntity
  8
DD0
100
AcDbText
 10
172.589511
 20
186.880853
 40
4.166667
  1
５５
 50
90.000003
 41
0.666667
  7
STANDARD
100
AcDbText
  0
ENDBLK
  5
D6
100
AcDbEntity
  8
DD0
100
AcDbBlockEnd
  0
BLOCK
  5
D9
100
AcDbEntity
  8
DD0
100
AcDbBlockBegin
  2
DIMS12
 70
     0
 10
0.0
 20
0.0
  0
LINE
  5
DA
100
AcDbEntity
  8
DD0
100
AcDbLine
 10
88.169628
 20
168.094743
 11
88.169628
 21
244.177287
  0
LINE
  5
DB
100
AcDbEntity
  8
DD0
100
AcDbLine
 10
92.999257
 20
243.804716
 11
88.169628
 21
242.510621
  0
LINE
  5
DC
100
AcDbEntity
  8
DD0
100
AcDbLine
 10
88.169628
 20
242.510621
 11
92.999257
 21
241.216525
  0
LINE
  5
DD
100
AcDbEntity
  8
DD0
100
AcDbLine
 10
103.339999
 20
241.216525
 11
108.169628
 21
242.510621
  0
LINE
  5
DE
100
AcDbEntity
  8
DD0
100
AcDbLine
 10
108.169628
 20
242.510621
 11
103.339999
 21
243.804716
  0
LINE
  5
DF
100
AcDbEntity
  8
DD0
100
AcDbLine
 10
88.169628
 20
242.510621
 11
108.169628
 21
242.510621
  0
TEXT
  5
E0
100
AcDbEntity
  8
DD0
100
AcDbText
 10
95.122409
 20
243.510631
 40
4.166667
  1
２０
 41
0.666667
  7
STANDARD
100
AcDbText
  0
ENDBLK
  5
E1
100
AcDbEntity
  8
DD0
100
AcDbBlockEnd
  0
BLOCK
  5
E4
100
AcDbEntity
  8
DD0
100
AcDbBlockBegin
  2
DIMS13
 70
     0
 10
0.0
 20
0.0
  0
LINE
  5
E5
100
AcDbEntity
  8
DD0
100
AcDbLine
 10
55.169631
 20
223.094753
 11
55.169631
 21
244.177287
  0
LINE
  5
E6
100
AcDbEntity
  8
DD0
100
AcDbLine
 10
88.169628
 20
168.094743
 11
88.169628
 21
244.177287
  0
LINE
  5
E7
100
AcDbEntity
  8
DD0
100
AcDbLine
 10
59.99926
 20
243.804716
 11
55.169631
 21
242.510621
  0
LINE
  5
E8
100
AcDbEntity
  8
DD0
100
AcDbLine
 10
55.169631
 20
242.510621
 11
59.99926
 21
241.216525
  0
LINE
  5
E9
100
AcDbEntity
  8
DD0
100
AcDbLine
 10
83.34
 20
241.216525
 11
88.169628
 21
242.510621
  0
LINE
  5
EA
100
AcDbEntity
  8
DD0
100
AcDbLine
 10
88.169628
 20
242.510621
 11
83.34
 21
243.804716
  0
LINE
  5
EB
100
AcDbEntity
  8
DD0
100
AcDbLine
 10
55.169631
 20
242.510621
 11
88.169628
 21
242.510621
  0
TEXT
  5
EC
100
AcDbEntity
  8
DD0
100
AcDbText
 10
68.622407
 20
243.510631
 40
4.166667
  1
３３
 41
0.666667
  7
STANDARD
100
AcDbText
  0
ENDBLK
  5
ED
100
AcDbEntity
  8
DD0
100
AcDbBlockEnd
  0
BLOCK
  5
F0
100
AcDbEntity
  8
DD0
100
AcDbBlockBegin
  2
DIMS14
 70
     0
 10
0.0
 20
0.0
  0
LINE
  5
F1
100
AcDbEntity
  8
DD0
100
AcDbLine
 10
55.169631
 20
223.094753
 11
55.169631
 21
244.177287
  0
LINE
  5
F2
100
AcDbEntity
  8
DD0
100
AcDbLine
 10
38.669632
 20
225.894741
 11
38.669632
 21
244.177287
  0
LINE
  5
F3
100
AcDbEntity
  8
DD0
100
AcDbLine
 10
50.340002
 20
241.216525
 11
55.169631
 21
242.510621
  0
LINE
  5
F4
100
AcDbEntity
  8
DD0
100
AcDbLine
 10
55.169631
 20
242.510621
 11
50.340002
 21
243.804716
  0
LINE
  5
F5
100
AcDbEntity
  8
DD0
100
AcDbLine
 10
43.499261
 20
243.804716
 11
38.669632
 21
242.510621
  0
LINE
  5
F6
100
AcDbEntity
  8
DD0
100
AcDbLine
 10
38.669632
 20
242.510621
 11
43.499261
 21
241.216525
  0
LINE
  5
F7
100
AcDbEntity
  8
DD0
100
AcDbLine
 10
55.169631
 20
242.510621
 11
38.669632
 21
242.510621
  0
TEXT
  5
F8
100
AcDbEntity
  8
DD0
100
AcDbText
 10
40.539074
 20
243.510631
 40
4.166667
  1
１６．５
 41
0.666667
  7
STANDARD
100
AcDbText
  0
ENDBLK
  5
F9
100
AcDbEntity
  8
DD0
100
AcDbBlockEnd
  0
ENDSEC
  0
SECTION
  2
ENTITIES
  0
INSERT
  5
56
100
AcDbEntity
  8
DD0
100
AcDbBlockReference
  2
DIMS0
 10
0.0
 20
0.0
  0
INSERT
  5
62
100
AcDbEntity
  8
DD0
100
AcDbBlockReference
  2
DIMS1
 10
0.0
 20
0.0
  0
INSERT
  5
6E
100
AcDbEntity
  8
DD0
100
AcDbBlockReference
  2
DIMS2
 10
0.0
 20
0.0
  0
INSERT
  5
7A
100
AcDbEntity
  8
DD0
100
AcDbBlockReference
  2
DIMS3
 10
0.0
 20
0.0
  0
INSERT
  5
86
100
AcDbEntity
  8
DD0
100
AcDbBlockReference
  2
DIMS4
 10
0.0
 20
0.0
  0
INSERT
  5
92
100
AcDbEntity
  8
DD0
100
AcDbBlockReference
  2
DIMS5
 10
0.0
 20
0.0
  0
INSERT
  5
9E
100
AcDbEntity
  8
DD0
100
AcDbBlockReference
  2
DIMS6
 10
0.0
 20
0.0
  0
INSERT
  5
AA
100
AcDbEntity
  8
DD0
100
AcDbBlockReference
  2
DIMS7
 10
0.0
 20
0.0
  0
INSERT
  5
B6
100
AcDbEntity
  8
DD0
100
AcDbBlockReference
  2
DIMS8
 10
0.0
 20
0.0
  0
INSERT
  5
BF
100
AcDbEntity
  8
DD0
100
AcDbBlockReference
  2
DIMS9
 10
0.0
 20
0.0
  0
INSERT
  5
CB
100
AcDbEntity
  8
DD0
100
AcDbBlockReference
  2
DIMS10
 10
0.0
 20
0.0
  0
INSERT
  5
D7
100
AcDbEntity
  8
DD0
100
AcDbBlockReference
  2
DIMS11
 10
0.0
 20
0.0
  0
INSERT
  5
E2
100
AcDbEntity
  8
DD0
100
AcDbBlockReference
  2
DIMS12
 10
0.0
 20
0.0
  0
INSERT
  5
EE
100
AcDbEntity
  8
DD0
100
AcDbBlockReference
  2
DIMS13
 10
0.0
 20
0.0
  0
INSERT
  5
FA
100
AcDbEntity
  8
DD0
100
AcDbBlockReference
  2
DIMS14
 10
0.0
 20
0.0
  0
LINE
  5
FB
100
AcDbEntity
  8
M0
100
AcDbLine
 10
156.669594
 20
374.278479
 11
150.669594
 21
374.278479
  0
LINE
  5
FC
100
AcDbEntity
  8
M0
  6
DASHDOT
100
AcDbLine
 10
153.669594
 20
362.378478
 11
153.669594
 21
361.378478
  0
LINE
  5
FD
100
AcDbEntity
  8
M0
100
AcDbLine
 10
156.669594
 20
373.228478
 11
156.669594
 21
374.278479
  0
LINE
  5
FE
100
AcDbEntity
  8
M0
100
AcDbLine
 10
150.669594
 20
374.278479
 11
150.669594
 21
373.228478
  0
LINE
  5
FF
100
AcDbEntity
  8
M0
100
AcDbLine
 10
142.869594
 20
352.128478
 11
147.169595
 21
352.128478
  0
LINE
  5
100
100
AcDbEntity
  8
M0
100
AcDbLine
 10
148.669595
 20
378.278477
 11
148.169595
 21
378.278477
  0
LINE
  5
101
100
AcDbEntity
  8
M0
100
AcDbLine
 10
142.869594
 20
352.128478
 11
142.869594
 21
348.628478
  0
LINE
  5
102
100
AcDbEntity
  8
M0
100
AcDbLine
 10
147.169595
 20
363.628478
 11
147.169595
 21
352.128478
  0
LINE
  5
103
100
AcDbEntity
  8
M0
  6
DASHDOT
100
AcDbLine
 10
153.669594
 20
369.978478
 11
153.669594
 21
368.978478
  0
LINE
  5
104
100
AcDbEntity
  8
M0
  6
DASHDOT
100
AcDbLine
 10
154.169594
 20
369.478478
 11
153.169594
 21
369.478478
  0
LINE
  5
105
100
AcDbEntity
  8
M0
100
AcDbLine
 10
149.669594
 20
355.828478
 11
149.669594
 21
348.628478
  0
ARC
  5
106
100
AcDbEntity
  8
M0
100
AcDbCircle
 10
148.669594
 20
340.378478
 40
1.0
100
AcDbArc
 50
0.0
 51
90.0
  0
ARC
  5
107
100
AcDbEntity
  8
M0
100
AcDbCircle
 10
148.169594
 20
327.578478
 40
1.0
100
AcDbArc
 50
180.0
 51
270.0
  0
ARC
  5
108
100
AcDbEntity
  8
M0
100
AcDbCircle
 10
158.669594
 20
329.578478
 40
1.0
100
AcDbArc
 50
270.0
 51
360.0
  0
ARC
  5
109
100
AcDbEntity
  8
M0
100
AcDbCircle
 10
148.669594
 20
327.578478
 40
1.0
100
AcDbArc
 50
270.0
 51
360.0
  0
ARC
  5
10A
100
AcDbEntity
  8
M0
100
AcDbCircle
 10
158.669594
 20
329.578478
 40
1.0
100
AcDbArc
 50
180.0
 51
270.0
  0
LINE
  5
10B
100
AcDbEntity
  8
M0
100
AcDbLine
 10
149.669594
 20
355.828478
 11
149.669594
 21
355.878478
  0
LINE
  5
10C
100
AcDbEntity
  8
M0
  6
DASHDOT
100
AcDbLine
 10
154.169594
 20
361.878478
 11
153.169594
 21
361.878478
  0
LINE
  5
10D
100
AcDbEntity
  8
M0
100
AcDbLine
 10
148.669595
 20
355.878478
 11
157.669594
 21
355.878478
  0
LINE
  5
10E
100
AcDbEntity
  8
M0
100
AcDbLine
 10
147.169595
 20
377.278477
 11
147.169595
 21
363.778478
  0
LINE
  5
10F
100
AcDbEntity
  8
M0
100
AcDbLine
 10
157.669594
 20
357.878478
 11
149.669594
 21
357.878478
  0
LINE
  5
110
100
AcDbEntity
  8
M0
  6
DASHDOT
100
AcDbLine
 10
154.169594
 20
335.378478
 11
153.169594
 21
335.378478
  0
ARC
  5
111
100
AcDbEntity
  8
M0
100
AcDbCircle
 10
148.169594
 20
369.678478
 40
1.0
100
AcDbArc
 50
90.0
 51
180.0
  0
LINE
  5
112
100
AcDbEntity
  8
M0
100
AcDbLine
 10
149.669594
 20
340.378478
 11
149.669594
 21
319.978478
  0
LINE
  5
113
100
AcDbEntity
  8
M0
100
AcDbLine
 10
148.669595
 20
333.628478
 11
147.169595
 21
333.628478
  0
LINE
  5
114
100
AcDbEntity
  8
M0
100
AcDbLine
 10
156.569594
 20
348.628478
 11
156.569594
 21
341.428478
  0
LINE
  5
115
100
AcDbEntity
  8
M0
100
AcDbLine
 10
150.669594
 20
348.628478
 11
150.669594
 21
341.428478
  0
ARC
  5
116
100
AcDbEntity
  8
M0
100
AcDbCircle
 10
158.669594
 20
375.278478
 40
1.0
100
AcDbArc
 50
90.0
 51
180.0
  0
ARC
  5
117
100
AcDbEntity
  8
M0
100
AcDbCircle
 10
158.669594
 20
375.278478
 40
1.0
100
AcDbArc
 50
-3.240075E-012
 51
90.0
  0
ARC
  5
118
100
AcDbEntity
  8
M0
100
AcDbCircle
 10
148.169594
 20
377.278478
 40
1.0
100
AcDbArc
 50
90.0
 51
180.0
  0
LINE
  5
119
100
AcDbEntity
  8
M0
100
AcDbLine
 10
149.669594
 20
356.878478
 11
149.669594
 21
377.278478
  0
LINE
  5
11A
100
AcDbEntity
  8
M0
100
AcDbLine
 10
148.669595
 20
363.628478
 11
147.169595
 21
363.628478
  0
LINE
  5
11B
100
AcDbEntity
  8
M0
100
AcDbLine
 10
150.669594
 20
348.628478
 11
150.669594
 21
355.828478
  0
LINE
  5
11C
100
AcDbEntity
  8
M0
100
AcDbLine
 10
156.569594
 20
348.628478
 11
156.569594
 21
355.828478
  0
LINE
  5
11D
100
AcDbEntity
  8
M0
100
AcDbLine
 10
155.569594
 20
355.828478
 11
155.569594
 21
348.628478
  0
LINE
  5
11E
100
AcDbEntity
  8
M0
100
AcDbLine
 10
147.169595
 20
333.628478
 11
147.169595
 21
345.128478
  0
ARC
  5
11F
100
AcDbEntity
  8
M0
100
AcDbCircle
 10
148.669594
 20
377.278478
 40
1.0
100
AcDbArc
 50
-6.536993E-012
 51
90.0
  0
LINE
  5
120
100
AcDbEntity
  8
M0
100
AcDbLine
 10
155.569594
 20
341.428478
 11
155.569594
 21
348.628478
  0
LINE
  5
121
100
AcDbEntity
  8
M0
100
AcDbLine
 10
148.669595
 20
370.678477
 11
148.169595
 21
370.678477
  0
LINE
  5
122
100
AcDbEntity
  8
M0
100
AcDbLine
 10
148.669595
 20
355.878478
 11
148.669595
 21
363.778478
  0
LINE
  5
123
100
AcDbEntity
  8
M0
  6
DASHDOT
100
AcDbLine
 10
154.169594
 20
327.778478
 11
153.169594
 21
327.778478
  0
LINE
  5
124
100
AcDbEntity
  8
M0
  6
DASHDOT
100
AcDbLine
 10
153.669594
 20
327.278478
 11
153.669594
 21
328.278478
  0
LINE
  5
125
100
AcDbEntity
  8
M0
  6
DASHDOT
100
AcDbLine
 10
153.669594
 20
334.878478
 11
153.669594
 21
335.878478
  0
ARC
  5
126
100
AcDbEntity
  8
M0
100
AcDbCircle
 10
148.669594
 20
356.878478
 40
1.0
100
AcDbArc
 50
-90.0
 51
0.0
  0
ARC
  5
127
100
AcDbEntity
  8
M0
100
AcDbCircle
 10
148.669594
 20
369.678478
 40
1.0
100
AcDbArc
 50
-3.240075E-012
 51
90.0
  0
LINE
  5
128
100
AcDbEntity
  8
M0
100
AcDbLine
 10
148.669595
 20
341.378478
 11
148.669595
 21
333.478478
  0
LINE
  5
129
100
AcDbEntity
  8
M0
100
AcDbLine
 10
148.669595
 20
326.578479
 11
148.169595
 21
326.578479
  0
LINE
  5
12A
100
AcDbEntity
  8
M0
100
AcDbLine
 10
159.669594
 20
348.628478
 11
159.669594
 21
321.978477
  0
LINE
  5
12B
100
AcDbEntity
  8
M0
100
AcDbLine
 10
142.869594
 20
345.128478
 11
142.869594
 21
348.628478
  0
LINE
  5
12C
100
AcDbEntity
  8
M0
100
AcDbLine
 10
149.669594
 20
365.678478
 11
157.669594
 21
365.678478
  0
LINE
  5
12D
100
AcDbEntity
  8
M0
100
AcDbLine
 10
157.669594
 20
375.278478
 11
157.669594
 21
348.628478
  0
LINE
  5
12E
100
AcDbEntity
  8
M0
100
AcDbLine
 10
147.169595
 20
363.778478
 11
148.669595
 21
363.778478
  0
LINE
  5
12F
100
AcDbEntity
  8
M0
  6
DASHDOT
 62
     7
100
AcDbLine
 10
36.669595
 20
348.628478
 11
161.669594
 21
348.628478
  0
ARC
  5
130
100
AcDbEntity
  8
M0
100
AcDbCircle
 10
158.669594
 20
367.678478
 40
1.0
100
AcDbArc
 50
0.0
 51
90.0
  0
LINE
  5
131
100
AcDbEntity
  8
M0
100
AcDbLine
 10
149.669594
 20
341.428478
 11
149.669594
 21
348.628478
  0
LINE
  5
132
100
AcDbEntity
  8
M0
100
AcDbLine
 10
150.669594
 20
373.278478
 11
149.669594
 21
373.278478
  0
ARC
  5
133
100
AcDbEntity
  8
M0
100
AcDbCircle
 10
158.669594
 20
367.678478
 40
1.0
100
AcDbArc
 50
90.0
 51
180.0
  0
LINE
  5
134
100
AcDbEntity
  8
M0
100
AcDbLine
 10
157.669594
 20
373.278478
 11
156.669594
 21
373.278478
  0
LINE
  5
135
100
AcDbEntity
  8
M0
100
AcDbLine
 10
149.669594
 20
341.428478
 11
149.669594
 21
341.378478
  0
ARC
  5
136
100
AcDbEntity
  8
M0
100
AcDbCircle
 10
148.169594
 20
319.978478
 40
1.0
100
AcDbArc
 50
180.0
 51
270.0
  0
LINE
  5
137
100
AcDbEntity
  8
M0
100
AcDbLine
 10
157.669594
 20
339.378478
 11
149.669594
 21
339.378478
  0
LINE
  5
138
100
AcDbEntity
  8
M0
100
AcDbLine
 10
147.169595
 20
319.978479
 11
147.169595
 21
333.478478
  0
LINE
  5
139
100
AcDbEntity
  8
M0
100
AcDbLine
 10
148.669595
 20
341.378478
 11
157.669594
 21
341.378478
  0
LINE
  5
13A
100
AcDbEntity
  8
M0
100
AcDbLine
 10
157.669594
 20
323.978477
 11
156.669594
 21
323.978477
  0
ARC
  5
13B
100
AcDbEntity
  8
M0
100
AcDbCircle
 10
158.669594
 20
321.978478
 40
1.0
100
AcDbArc
 50
270.0
 51
360.0
  0
LINE
  5
13C
100
AcDbEntity
  8
M0
100
AcDbLine
 10
159.669594
 20
348.628478
 11
159.669594
 21
375.278479
  0
ARC
  5
13D
100
AcDbEntity
  8
M0
100
AcDbCircle
 10
158.669594
 20
321.978478
 40
1.0
100
AcDbArc
 50
180.0
 51
270.0
  0
LINE
  5
13E
100
AcDbEntity
  8
M0
100
AcDbLine
 10
157.669594
 20
321.978478
 11
157.669594
 21
348.628478
  0
LINE
  5
13F
100
AcDbEntity
  8
M0
100
AcDbLine
 10
149.669594
 20
331.578478
 11
157.669594
 21
331.578478
  0
LINE
  5
140
100
AcDbEntity
  8
M0
100
AcDbLine
 10
147.169595
 20
333.478478
 11
148.669595
 21
333.478478
  0
LINE
  5
141
100
AcDbEntity
  8
M0
100
AcDbLine
 10
150.669594
 20
323.978477
 11
149.669594
 21
323.978477
  0
LINE
  5
142
100
AcDbEntity
  8
M0
100
AcDbLine
 10
156.669594
 20
324.028478
 11
156.669594
 21
322.978477
  0
ARC
  5
143
100
AcDbEntity
  8
M0
100
AcDbCircle
 10
148.669594
 20
319.978478
 40
1.0
100
AcDbArc
 50
270.0
 51
360.0
  0
LINE
  5
144
100
AcDbEntity
  8
M0
100
AcDbLine
 10
156.669594
 20
322.978477
 11
150.669594
 21
322.978477
  0
LINE
  5
145
100
AcDbEntity
  8
M0
100
AcDbLine
 10
148.669595
 20
318.978478
 11
148.169595
 21
318.978478
  0
LINE
  5
146
100
AcDbEntity
  8
M0
100
AcDbLine
 10
142.869594
 20
345.128478
 11
147.169595
 21
345.128478
  0
LINE
  5
147
100
AcDbEntity
  8
M0
100
AcDbLine
 10
150.669594
 20
322.978477
 11
150.669594
 21
324.028478
  0
CIRCLE
  5
148
100
AcDbEntity
  8
M0
 62
     7
100
AcDbCircle
 10
153.669594
 20
335.378478
 40
3.0
  0
LINE
  5
149
100
AcDbEntity
  8
M0
 62
     7
100
AcDbLine
 10
149.844594
 20
338.703478
 11
149.844594
 21
332.053478
  0
ARC
  5
14A
100
AcDbEntity
  8
M0
 62
     7
100
AcDbCircle
 10
156.994594
 20
338.703478
 40
0.5
100
AcDbArc
 50
0.0
 51
90.0
  0
ARC
  5
14B
100
AcDbEntity
  8
M0
 62
     7
100
AcDbCircle
 10
150.344594
 20
332.053478
 40
0.5
100
AcDbArc
 50
180.0
 51
270.0
  0
ARC
  5
14C
100
AcDbEntity
  8
M0
 62
     7
100
AcDbCircle
 10
156.994594
 20
332.053478
 40
0.5
100
AcDbArc
 50
270.0
 51
360.0
  0
ARC
  5
14D
100
AcDbEntity
  8
M0
 62
     7
100
AcDbCircle
 10
150.344594
 20
338.703478
 40
0.5
100
AcDbArc
 50
90.0
 51
180.0
  0
LINE
  5
14E
100
AcDbEntity
  8
M0
 62
     7
100
AcDbLine
 10
153.316315
 20
333.964118
 11
155.083893
 21
335.731818
  0
LINE
  5
14F
100
AcDbEntity
  8
M0
 62
     7
100
AcDbLine
 10
152.079011
 20
336.969123
 11
155.260651
 21
333.78736
  0
LINE
  5
150
100
AcDbEntity
  8
M0
 62
     7
100
AcDbLine
 10
152.255768
 20
335.024787
 11
154.023346
 21
336.792365
  0
LINE
  5
151
100
AcDbEntity
  8
M0
 62
     7
100
AcDbLine
 10
157.494594
 20
332.053478
 11
157.494594
 21
338.703478
  0
LINE
  5
152
100
AcDbEntity
  8
M0
 62
     7
100
AcDbLine
 10
156.994594
 20
339.203478
 11
150.344594
 21
339.203478
  0
LINE
  5
153
100
AcDbEntity
  8
M0
 62
     7
100
AcDbLine
 10
150.344594
 20
331.553478
 11
156.994594
 21
331.553478
  0
CIRCLE
  5
154
100
AcDbEntity
  8
M0
 62
     7
100
AcDbCircle
 10
153.669594
 20
369.478478
 40
3.0
  0
LINE
  5
155
100
AcDbEntity
  8
M0
 62
     7
100
AcDbLine
 10
149.844594
 20
372.803478
 11
149.844594
 21
366.153478
  0
ARC
  5
156
100
AcDbEntity
  8
M0
 62
     7
100
AcDbCircle
 10
156.994594
 20
372.803478
 40
0.5
100
AcDbArc
 50
0.0
 51
90.0
  0
ARC
  5
157
100
AcDbEntity
  8
M0
 62
     7
100
AcDbCircle
 10
150.344594
 20
366.153478
 40
0.5
100
AcDbArc
 50
180.0
 51
270.0
  0
ARC
  5
158
100
AcDbEntity
  8
M0
 62
     7
100
AcDbCircle
 10
156.994594
 20
366.153478
 40
0.5
100
AcDbArc
 50
270.0
 51
360.0
  0
ARC
  5
159
100
AcDbEntity
  8
M0
 62
     7
100
AcDbCircle
 10
150.344594
 20
372.803478
 40
0.5
100
AcDbArc
 50
90.0
 51
180.0
  0
LINE
  5
15A
100
AcDbEntity
  8
M0
 62
     7
100
AcDbLine
 10
153.316315
 20
368.064118
 11
155.083893
 21
369.831818
  0
LINE
  5
15B
100
AcDbEntity
  8
M0
 62
     7
100
AcDbLine
 10
152.079011
 20
371.069123
 11
155.260651
 21
367.88736
  0
LINE
  5
15C
100
AcDbEntity
  8
M0
 62
     7
100
AcDbLine
 10
152.255768
 20
369.124787
 11
154.023346
 21
370.892365
  0
LINE
  5
15D
100
AcDbEntity
  8
M0
 62
     7
100
AcDbLine
 10
157.494594
 20
366.153478
 11
157.494594
 21
372.803478
  0
LINE
  5
15E
100
AcDbEntity
  8
M0
 62
     7
100
AcDbLine
 10
156.994594
 20
373.303478
 11
150.344594
 21
373.303478
  0
LINE
  5
15F
100
AcDbEntity
  8
M0
 62
     7
100
AcDbLine
 10
150.344594
 20
365.653478
 11
156.994594
 21
365.653478
  0
CIRCLE
  5
160
100
AcDbEntity
  8
M0
 62
     7
100
AcDbCircle
 10
153.669594
 20
327.778478
 40
3.0
  0
LINE
  5
161
100
AcDbEntity
  8
M0
 62
     7
100
AcDbLine
 10
149.844594
 20
331.103478
 11
149.844594
 21
324.453478
  0
ARC
  5
162
100
AcDbEntity
  8
M0
 62
     7
100
AcDbCircle
 10
156.994594
 20
331.103478
 40
0.5
100
AcDbArc
 50
0.0
 51
90.0
  0
ARC
  5
163
100
AcDbEntity
  8
M0
 62
     7
100
AcDbCircle
 10
150.344594
 20
324.453478
 40
0.5
100
AcDbArc
 50
180.0
 51
270.0
  0
ARC
  5
164
100
AcDbEntity
  8
M0
 62
     7
100
AcDbCircle
 10
156.994594
 20
324.453478
 40
0.5
100
AcDbArc
 50
270.0
 51
360.0
  0
ARC
  5
165
100
AcDbEntity
  8
M0
 62
     7
100
AcDbCircle
 10
150.344594
 20
331.103478
 40
0.5
100
AcDbArc
 50
90.0
 51
180.0
  0
LINE
  5
166
100
AcDbEntity
  8
M0
 62
     7
100
AcDbLine
 10
153.316315
 20
326.364118
 11
155.083893
 21
328.131818
  0
LINE
  5
167
100
AcDbEntity
  8
M0
 62
     7
100
AcDbLine
 10
152.079011
 20
329.369123
 11
155.260651
 21
326.18736
  0
LINE
  5
168
100
AcDbEntity
  8
M0
 62
     7
100
AcDbLine
 10
152.255768
 20
327.424787
 11
154.023346
 21
329.192365
  0
LINE
  5
169
100
AcDbEntity
  8
M0
 62
     7
100
AcDbLine
 10
157.494594
 20
324.453478
 11
157.494594
 21
331.103478
  0
LINE
  5
16A
100
AcDbEntity
  8
M0
 62
     7
100
AcDbLine
 10
156.994594
 20
331.603478
 11
150.344594
 21
331.603478
  0
LINE
  5
16B
100
AcDbEntity
  8
M0
 62
     7
100
AcDbLine
 10
150.344594
 20
323.953478
 11
156.994594
 21
323.953478
  0
CIRCLE
  5
16C
100
AcDbEntity
  8
M0
 62
     7
100
AcDbCircle
 10
153.669594
 20
361.878478
 40
3.0
  0
LINE
  5
16D
100
AcDbEntity
  8
M0
 62
     7
100
AcDbLine
 10
149.844594
 20
365.203478
 11
149.844594
 21
358.553478
  0
ARC
  5
16E
100
AcDbEntity
  8
M0
 62
     7
100
AcDbCircle
 10
156.994594
 20
365.203478
 40
0.5
100
AcDbArc
 50
0.0
 51
90.0
  0
ARC
  5
16F
100
AcDbEntity
  8
M0
 62
     7
100
AcDbCircle
 10
150.344594
 20
358.553478
 40
0.5
100
AcDbArc
 50
180.0
 51
270.0
  0
ARC
  5
170
100
AcDbEntity
  8
M0
 62
     7
100
AcDbCircle
 10
156.994594
 20
358.553478
 40
0.5
100
AcDbArc
 50
270.0
 51
360.0
  0
ARC
  5
171
100
AcDbEntity
  8
M0
 62
     7
100
AcDbCircle
 10
150.344594
 20
365.203478
 40
0.5
100
AcDbArc
 50
90.0
 51
180.0
  0
LINE
  5
172
100
AcDbEntity
  8
M0
 62
     7
100
AcDbLine
 10
153.316315
 20
360.464118
 11
155.083893
 21
362.231818
  0
LINE
  5
173
100
AcDbEntity
  8
M0
 62
     7
100
AcDbLine
 10
152.079011
 20
363.469123
 11
155.260651
 21
360.28736
  0
LINE
  5
174
100
AcDbEntity
  8
M0
 62
     7
100
AcDbLine
 10
152.255768
 20
361.524787
 11
154.023346
 21
363.292365
  0
LINE
  5
175
100
AcDbEntity
  8
M0
 62
     7
100
AcDbLine
 10
157.494594
 20
358.553478
 11
157.494594
 21
365.203478
  0
LINE
  5
176
100
AcDbEntity
  8
M0
 62
     7
100
AcDbLine
 10
156.994594
 20
365.703478
 11
150.344594
 21
365.703478
  0
LINE
  5
177
100
AcDbEntity
  8
M0
 62
     7
100
AcDbLine
 10
150.344594
 20
358.053478
 11
156.994594
 21
358.053478
  0
LINE
  5
178
100
AcDbEntity
  8
M0
 62
     7
100
AcDbLine
 10
142.410178
 20
367.937833
 11
139.228538
 21
371.119596
  0
LINE
  5
179
100
AcDbEntity
  8
M0
 62
     7
100
AcDbLine
 10
141.172874
 20
370.942838
 11
139.405296
 21
369.175138
  0
LINE
  5
17A
100
AcDbEntity
  8
M0
 62
     7
100
AcDbLine
 10
132.133421
 20
328.082169
 11
130.365842
 21
326.314591
  0
LINE
  5
17B
100
AcDbEntity
  8
M0
 62
     7
100
AcDbLine
 10
131.072874
 20
329.142838
 11
129.305296
 21
327.375138
  0
LINE
  5
17C
100
AcDbEntity
  8
M0
 62
     7
100
AcDbLine
 10
122.210178
 20
326.137833
 11
119.028538
 21
329.319596
  0
LINE
  5
17D
100
AcDbEntity
  8
M0
 62
     7
100
AcDbLine
 10
112.110178
 20
326.137833
 11
108.928538
 21
329.319596
  0
LINE
  5
17E
100
AcDbEntity
  8
M0
 62
     7
100
AcDbLine
 10
141.172874
 20
329.142838
 11
139.405296
 21
327.375138
  0
LINE
  5
17F
100
AcDbEntity
  8
M0
 62
     7
100
AcDbLine
 10
110.872874
 20
329.142838
 11
109.105296
 21
327.375138
  0
LINE
  5
180
100
AcDbEntity
  8
M0
 62
     7
100
AcDbLine
 10
142.233421
 20
328.082169
 11
140.465842
 21
326.314591
  0
LINE
  5
181
100
AcDbEntity
  8
M0
 62
     7
100
AcDbLine
 10
69.033421
 20
328.082169
 11
67.265842
 21
326.314591
  0
LINE
  5
182
100
AcDbEntity
  8
M0
 62
     7
100
AcDbLine
 10
69.210178
 20
326.137833
 11
66.028538
 21
329.319596
  0
LINE
  5
183
100
AcDbEntity
  8
M0
 62
     7
100
AcDbLine
 10
79.310178
 20
326.137833
 11
76.128538
 21
329.319596
  0
LINE
  5
184
100
AcDbEntity
  8
M0
 62
     7
100
AcDbLine
 10
67.972874
 20
329.142838
 11
66.205296
 21
327.375138
  0
LINE
  5
185
100
AcDbEntity
  8
M0
 62
     7
100
AcDbLine
 10
59.110178
 20
326.137833
 11
55.928538
 21
329.319596
  0
LINE
  5
186
100
AcDbEntity
  8
M0
 62
     7
100
AcDbLine
 10
142.410178
 20
326.137833
 11
139.228538
 21
329.319596
  0
LINE
  5
187
100
AcDbEntity
  8
M0
 62
     7
100
AcDbLine
 10
57.872874
 20
329.142838
 11
56.105296
 21
327.375138
  0
LINE
  5
188
100
AcDbEntity
  8
M0
 62
     7
100
AcDbLine
 10
58.933421
 20
328.082169
 11
57.165842
 21
326.314591
  0
LINE
  5
189
100
AcDbEntity
  8
M0
 62
     7
100
AcDbLine
 10
79.133421
 20
328.082169
 11
77.365842
 21
326.314591
  0
LINE
  5
18A
100
AcDbEntity
  8
M0
 62
     7
100
AcDbLine
 10
131.072874
 20
370.942838
 11
129.305296
 21
369.175138
  0
LINE
  5
18B
100
AcDbEntity
  8
M0
 62
     7
100
AcDbLine
 10
122.033421
 20
369.882169
 11
120.265842
 21
368.114591
  0
LINE
  5
18C
100
AcDbEntity
  8
M0
 62
     7
100
AcDbLine
 10
115.122874
 20
388.542838
 11
113.355296
 21
386.775138
  0
LINE
  5
18D
100
AcDbEntity
  8
M0
 62
     7
100
AcDbLine
 10
136.922874
 20
388.542838
 11
135.155296
 21
386.775138
  0
LINE
  5
18E
100
AcDbEntity
  8
M0
 62
     7
100
AcDbLine
 10
132.133421
 20
369.882169
 11
130.365842
 21
368.114591
  0
LINE
  5
18F
100
AcDbEntity
  8
M0
 62
     7
100
AcDbLine
 10
132.310178
 20
367.937833
 11
129.128538
 21
371.119596
  0
LINE
  5
190
100
AcDbEntity
  8
M0
 62
     7
100
AcDbLine
 10
116.360178
 20
385.537833
 11
113.178538
 21
388.719596
  0
LINE
  5
191
100
AcDbEntity
  8
M0
 62
     7
100
AcDbLine
 10
122.033421
 20
328.082169
 11
120.265842
 21
326.314591
  0
LINE
  5
192
100
AcDbEntity
  8
M0
 62
     7
100
AcDbLine
 10
120.972874
 20
329.142838
 11
119.205296
 21
327.375138
  0
LINE
  5
193
100
AcDbEntity
  8
M0
 62
     7
100
AcDbLine
 10
132.310178
 20
326.137833
 11
129.128538
 21
329.319596
  0
LINE
  5
194
100
AcDbEntity
  8
M0
 62
     7
100
AcDbLine
 10
142.233421
 20
369.882169
 11
140.465842
 21
368.114591
  0
LINE
  5
195
100
AcDbEntity
  8
M0
 62
     7
100
AcDbLine
 10
112.110178
 20
367.937833
 11
108.928538
 21
371.119596
  0
LINE
  5
196
100
AcDbEntity
  8
M0
 62
     7
100
AcDbLine
 10
110.872874
 20
370.942838
 11
109.105296
 21
369.175138
  0
LINE
  5
197
100
AcDbEntity
  8
M0
 62
     7
100
AcDbLine
 10
137.983421
 20
387.482169
 11
136.215842
 21
385.714591
  0
LINE
  5
198
100
AcDbEntity
  8
M0
 62
     7
100
AcDbLine
 10
138.160178
 20
385.537833
 11
134.978538
 21
388.719596
  0
LINE
  5
199
100
AcDbEntity
  8
M0
 62
     7
100
AcDbLine
 10
62.122874
 20
388.542838
 11
60.355296
 21
386.775138
  0
LINE
  5
19A
100
AcDbEntity
  8
M0
 62
     7
100
AcDbLine
 10
83.922874
 20
388.542838
 11
82.155296
 21
386.775138
  0
LINE
  5
19B
100
AcDbEntity
  8
M0
 62
     7
100
AcDbLine
 10
85.160178
 20
385.537833
 11
81.978538
 21
388.719596
  0
LINE
  5
19C
100
AcDbEntity
  8
M0
 62
     7
100
AcDbLine
 10
63.360178
 20
385.537833
 11
60.178538
 21
388.719596
  0
LINE
  5
19D
100
AcDbEntity
  8
M0
 62
     7
100
AcDbLine
 10
63.183421
 20
387.482169
 11
61.415842
 21
385.714591
  0
LINE
  5
19E
100
AcDbEntity
  8
M0
 62
     7
100
AcDbLine
 10
120.972874
 20
370.942838
 11
119.205296
 21
369.175138
  0
LINE
  5
19F
100
AcDbEntity
  8
M0
 62
     7
100
AcDbLine
 10
116.183421
 20
387.482169
 11
114.415842
 21
385.714591
  0
LINE
  5
1A0
100
AcDbEntity
  8
M0
 62
     7
100
AcDbLine
 10
122.210178
 20
367.937833
 11
119.028538
 21
371.119596
  0
LINE
  5
1A1
100
AcDbEntity
  8
M0
 62
     7
100
AcDbLine
 10
111.933421
 20
369.882169
 11
110.165842
 21
368.114591
  0
LINE
  5
1A2
100
AcDbEntity
  8
M0
 62
     7
100
AcDbLine
 10
89.233421
 20
369.882169
 11
87.465842
 21
368.114591
  0
LINE
  5
1A3
100
AcDbEntity
  8
M0
 62
     7
100
AcDbLine
 10
88.172874
 20
329.142838
 11
86.405296
 21
327.375138
  0
LINE
  5
1A4
100
AcDbEntity
  8
M0
 62
     7
100
AcDbLine
 10
88.172874
 20
370.942838
 11
86.405296
 21
369.175138
  0
LINE
  5
1A5
100
AcDbEntity
  8
M0
 62
     7
100
AcDbLine
 10
89.410178
 20
367.937833
 11
86.228538
 21
371.119596
  0
LINE
  5
1A6
100
AcDbEntity
  8
M0
 62
     7
100
AcDbLine
 10
78.072874
 20
329.142838
 11
76.305296
 21
327.375138
  0
LINE
  5
1A7
100
AcDbEntity
  8
M0
 62
     7
100
AcDbLine
 10
111.933421
 20
328.082169
 11
110.165842
 21
326.314591
  0
LINE
  5
1A8
100
AcDbEntity
  8
M0
 62
     7
100
AcDbLine
 10
89.233421
 20
328.082169
 11
87.465842
 21
326.314591
  0
LINE
  5
1A9
100
AcDbEntity
  8
M0
 62
     7
100
AcDbLine
 10
89.410178
 20
326.137833
 11
86.228538
 21
329.319596
  0
LINE
  5
1AA
100
AcDbEntity
  8
M0
 62
     7
100
AcDbLine
 10
79.133421
 20
369.882169
 11
77.365842
 21
368.114591
  0
LINE
  5
1AB
100
AcDbEntity
  8
M0
 62
     7
100
AcDbLine
 10
58.933421
 20
369.882169
 11
57.165842
 21
368.114591
  0
LINE
  5
1AC
100
AcDbEntity
  8
M0
 62
     7
100
AcDbLine
 10
67.972874
 20
370.942838
 11
66.205296
 21
369.175138
  0
LINE
  5
1AD
100
AcDbEntity
  8
M0
 62
     7
100
AcDbLine
 10
57.872874
 20
370.942838
 11
56.105296
 21
369.175138
  0
LINE
  5
1AE
100
AcDbEntity
  8
M0
 62
     7
100
AcDbLine
 10
59.110178
 20
367.937833
 11
55.928538
 21
371.119596
  0
LINE
  5
1AF
100
AcDbEntity
  8
M0
 62
     7
100
AcDbLine
 10
78.072874
 20
370.942838
 11
76.305296
 21
369.175138
  0
LINE
  5
1B0
100
AcDbEntity
  8
M0
 62
     7
100
AcDbLine
 10
79.310178
 20
367.937833
 11
76.128538
 21
371.119596
  0
LINE
  5
1B1
100
AcDbEntity
  8
M0
 62
     7
100
AcDbLine
 10
69.210178
 20
367.937833
 11
66.028538
 21
371.119596
  0
LINE
  5
1B2
100
AcDbEntity
  8
M0
 62
     7
100
AcDbLine
 10
69.033421
 20
369.882169
 11
67.265842
 21
368.114591
  0
LINE
  5
1B3
100
AcDbEntity
  8
M0
 62
     7
100
AcDbLine
 10
84.983421
 20
387.482169
 11
83.215842
 21
385.714591
  0
LINE
  5
1B4
100
AcDbEntity
  8
M0
100
AcDbLine
 10
41.669595
 20
374.278479
 11
47.669595
 21
374.278479
  0
LINE
  5
1B5
100
AcDbEntity
  8
M0
  6
DASHDOT
100
AcDbLine
 10
44.669595
 20
362.378478
 11
44.669595
 21
361.378478
  0
LINE
  5
1B6
100
AcDbEntity
  8
M0
100
AcDbLine
 10
41.669595
 20
373.228478
 11
41.669595
 21
374.278479
  0
LINE
  5
1B7
100
AcDbEntity
  8
M0
100
AcDbLine
 10
47.669595
 20
374.278479
 11
47.669595
 21
373.228478
  0
LINE
  5
1B8
100
AcDbEntity
  8
M0
100
AcDbLine
 10
55.469595
 20
352.128478
 11
51.169595
 21
352.128478
  0
LINE
  5
1B9
100
AcDbEntity
  8
M0
100
AcDbLine
 10
49.669594
 20
378.278477
 11
50.169594
 21
378.278477
  0
LINE
  5
1BA
100
AcDbEntity
  8
M0
100
AcDbLine
 10
55.469595
 20
352.128478
 11
55.469595
 21
348.628478
  0
LINE
  5
1BB
100
AcDbEntity
  8
M0
100
AcDbLine
 10
51.169595
 20
363.628478
 11
51.169595
 21
352.128478
  0
LINE
  5
1BC
100
AcDbEntity
  8
M0
  6
DASHDOT
100
AcDbLine
 10
44.669595
 20
369.978478
 11
44.669595
 21
368.978478
  0
LINE
  5
1BD
100
AcDbEntity
  8
M0
  6
DASHDOT
100
AcDbLine
 10
44.169595
 20
369.478478
 11
45.169595
 21
369.478478
  0
LINE
  5
1BE
100
AcDbEntity
  8
M0
100
AcDbLine
 10
48.669595
 20
355.828478
 11
48.669595
 21
348.628478
  0
ARC
  5
1BF
100
AcDbEntity
  8
M0
100
AcDbCircle
 10
49.669595
 20
340.378478
 40
1.0
100
AcDbArc
 50
90.0
 51
180.0
  0
ARC
  5
1C0
100
AcDbEntity
  8
M0
100
AcDbCircle
 10
50.169595
 20
327.578478
 40
1.0
100
AcDbArc
 50
-90.0
 51
0.0
  0
ARC
  5
1C1
100
AcDbEntity
  8
M0
100
AcDbCircle
 10
39.669595
 20
329.578478
 40
1.0
100
AcDbArc
 50
180.0
 51
270.0
  0
ARC
  5
1C2
100
AcDbEntity
  8
M0
100
AcDbCircle
 10
49.669595
 20
327.578478
 40
1.0
100
AcDbArc
 50
180.0
 51
270.0
  0
ARC
  5
1C3
100
AcDbEntity
  8
M0
100
AcDbCircle
 10
39.669595
 20
329.578478
 40
1.0
100
AcDbArc
 50
-90.0
 51
0.0
  0
LINE
  5
1C4
100
AcDbEntity
  8
M0
100
AcDbLine
 10
48.669595
 20
355.828478
 11
48.669595
 21
355.878478
  0
LINE
  5
1C5
100
AcDbEntity
  8
M0
  6
DASHDOT
100
AcDbLine
 10
44.169595
 20
361.878478
 11
45.169595
 21
361.878478
  0
LINE
  5
1C6
100
AcDbEntity
  8
M0
100
AcDbLine
 10
49.669594
 20
355.878478
 11
40.669595
 21
355.878478
  0
LINE
  5
1C7
100
AcDbEntity
  8
M0
100
AcDbLine
 10
51.169595
 20
377.278477
 11
51.169595
 21
363.778478
  0
LINE
  5
1C8
100
AcDbEntity
  8
M0
100
AcDbLine
 10
40.669595
 20
357.878478
 11
48.669595
 21
357.878478
  0
LINE
  5
1C9
100
AcDbEntity
  8
M0
  6
DASHDOT
100
AcDbLine
 10
44.169595
 20
335.378478
 11
45.169595
 21
335.378478
  0
ARC
  5
1CA
100
AcDbEntity
  8
M0
100
AcDbCircle
 10
50.169595
 20
369.678478
 40
1.0
100
AcDbArc
 50
3.256888E-012
 51
90.0
  0
LINE
  5
1CB
100
AcDbEntity
  8
M0
100
AcDbLine
 10
48.669595
 20
340.378478
 11
48.669595
 21
319.978478
  0
LINE
  5
1CC
100
AcDbEntity
  8
M0
100
AcDbLine
 10
49.669594
 20
333.628478
 11
51.169595
 21
333.628478
  0
LINE
  5
1CD
100
AcDbEntity
  8
M0
100
AcDbLine
 10
41.769595
 20
348.628478
 11
41.769595
 21
341.428478
  0
LINE
  5
1CE
100
AcDbEntity
  8
M0
100
AcDbLine
 10
47.669595
 20
348.628478
 11
47.669595
 21
341.428478
  0
ARC
  5
1CF
100
AcDbEntity
  8
M0
100
AcDbCircle
 10
39.669595
 20
375.278478
 40
1.0
100
AcDbArc
 50
0.0
 51
90.0
  0
ARC
  5
1D0
100
AcDbEntity
  8
M0
100
AcDbCircle
 10
39.669595
 20
375.278478
 40
1.0
100
AcDbArc
 50
90.0
 51
180.0
  0
ARC
  5
1D1
100
AcDbEntity
  8
M0
100
AcDbCircle
 10
50.169595
 20
377.278478
 40
1.0
100
AcDbArc
 50
0.0
 51
90.0
  0
LINE
  5
1D2
100
AcDbEntity
  8
M0
100
AcDbLine
 10
48.669595
 20
356.878478
 11
48.669595
 21
377.278478
  0
LINE
  5
1D3
100
AcDbEntity
  8
M0
100
AcDbLine
 10
49.669594
 20
363.628478
 11
51.169595
 21
363.628478
  0
LINE
  5
1D4
100
AcDbEntity
  8
M0
100
AcDbLine
 10
47.669595
 20
348.628478
 11
47.669595
 21
355.828478
  0
LINE
  5
1D5
100
AcDbEntity
  8
M0
100
AcDbLine
 10
41.769595
 20
348.628478
 11
41.769595
 21
355.828478
  0
LINE
  5
1D6
100
AcDbEntity
  8
M0
100
AcDbLine
 10
42.769595
 20
355.828478
 11
42.769595
 21
348.628478
  0
LINE
  5
1D7
100
AcDbEntity
  8
M0
100
AcDbLine
 10
51.169595
 20
333.628478
 11
51.169595
 21
345.128478
  0
ARC
  5
1D8
100
AcDbEntity
  8
M0
100
AcDbCircle
 10
49.669595
 20
377.278478
 40
1.0
100
AcDbArc
 50
90.0
 51
180.0
  0
LINE
  5
1D9
100
AcDbEntity
  8
M0
100
AcDbLine
 10
42.769595
 20
341.428478
 11
42.769595
 21
348.628478
  0
LINE
  5
1DA
100
AcDbEntity
  8
M0
100
AcDbLine
 10
49.669594
 20
370.678477
 11
50.169594
 21
370.678477
  0
LINE
  5
1DB
100
AcDbEntity
  8
M0
100
AcDbLine
 10
49.669594
 20
355.878478
 11
49.669594
 21
363.778478
  0
LINE
  5
1DC
100
AcDbEntity
  8
M0
  6
DASHDOT
100
AcDbLine
 10
44.169595
 20
327.778478
 11
45.169595
 21
327.778478
  0
LINE
  5
1DD
100
AcDbEntity
  8
M0
  6
DASHDOT
100
AcDbLine
 10
44.669595
 20
327.278478
 11
44.669595
 21
328.278478
  0
LINE
  5
1DE
100
AcDbEntity
  8
M0
  6
DASHDOT
100
AcDbLine
 10
44.669595
 20
334.878478
 11
44.669595
 21
335.878478
  0
ARC
  5
1DF
100
AcDbEntity
  8
M0
100
AcDbCircle
 10
49.669595
 20
356.878478
 40
1.0
100
AcDbArc
 50
180.0
 51
270.0
  0
ARC
  5
1E0
100
AcDbEntity
  8
M0
100
AcDbCircle
 10
49.669595
 20
369.678478
 40
1.0
100
AcDbArc
 50
90.0
 51
180.0
  0
LINE
  5
1E1
100
AcDbEntity
  8
M0
100
AcDbLine
 10
49.669594
 20
341.378478
 11
49.669594
 21
333.478478
  0
LINE
  5
1E2
100
AcDbEntity
  8
M0
100
AcDbLine
 10
49.669594
 20
326.578479
 11
50.169594
 21
326.578479
  0
LINE
  5
1E3
100
AcDbEntity
  8
M0
100
AcDbLine
 10
38.669595
 20
348.628478
 11
38.669595
 21
321.978477
  0
LINE
  5
1E4
100
AcDbEntity
  8
M0
100
AcDbLine
 10
55.469595
 20
345.128478
 11
55.469595
 21
348.628478
  0
LINE
  5
1E5
100
AcDbEntity
  8
M0
100
AcDbLine
 10
48.669595
 20
365.678478
 11
40.669595
 21
365.678478
  0
LINE
  5
1E6
100
AcDbEntity
  8
M0
100
AcDbLine
 10
40.669595
 20
375.278478
 11
40.669595
 21
348.628478
  0
LINE
  5
1E7
100
AcDbEntity
  8
M0
100
AcDbLine
 10
51.169595
 20
363.778478
 11
49.669594
 21
363.778478
  0
ARC
  5
1E8
100
AcDbEntity
  8
M0
100
AcDbCircle
 10
39.669595
 20
367.678478
 40
1.0
100
AcDbArc
 50
90.0
 51
180.0
  0
LINE
  5
1E9
100
AcDbEntity
  8
M0
100
AcDbLine
 10
48.669595
 20
341.428478
 11
48.669595
 21
348.628478
  0
LINE
  5
1EA
100
AcDbEntity
  8
M0
100
AcDbLine
 10
47.669595
 20
373.278478
 11
48.669595
 21
373.278478
  0
ARC
  5
1EB
100
AcDbEntity
  8
M0
100
AcDbCircle
 10
39.669595
 20
367.678478
 40
1.0
100
AcDbArc
 50
6.513776E-012
 51
90.0
  0
LINE
  5
1EC
100
AcDbEntity
  8
M0
100
AcDbLine
 10
40.669595
 20
373.278478
 11
41.669595
 21
373.278478
  0
LINE
  5
1ED
100
AcDbEntity
  8
M0
100
AcDbLine
 10
48.669595
 20
341.428478
 11
48.669595
 21
341.378478
  0
ARC
  5
1EE
100
AcDbEntity
  8
M0
100
AcDbCircle
 10
50.169595
 20
319.978478
 40
1.0
100
AcDbArc
 50
-90.0
 51
0.0
  0
LINE
  5
1EF
100
AcDbEntity
  8
M0
100
AcDbLine
 10
40.669595
 20
339.378478
 11
48.669595
 21
339.378478
  0
LINE
  5
1F0
100
AcDbEntity
  8
M0
100
AcDbLine
 10
51.169595
 20
319.978479
 11
51.169595
 21
333.478478
  0
LINE
  5
1F1
100
AcDbEntity
  8
M0
100
AcDbLine
 10
49.669594
 20
341.378478
 11
40.669595
 21
341.378478
  0
LINE
  5
1F2
100
AcDbEntity
  8
M0
100
AcDbLine
 10
40.669595
 20
323.978477
 11
41.669595
 21
323.978477
  0
ARC
  5
1F3
100
AcDbEntity
  8
M0
100
AcDbCircle
 10
39.669595
 20
321.978478
 40
1.0
100
AcDbArc
 50
180.0
 51
270.0
  0
LINE
  5
1F4
100
AcDbEntity
  8
M0
100
AcDbLine
 10
38.669595
 20
348.628478
 11
38.669595
 21
375.278479
  0
ARC
  5
1F5
100
AcDbEntity
  8
M0
100
AcDbCircle
 10
39.669595
 20
321.978478
 40
1.0
100
AcDbArc
 50
-90.0
 51
0.0
  0
LINE
  5
1F6
100
AcDbEntity
  8
M0
100
AcDbLine
 10
40.669595
 20
321.978478
 11
40.669595
 21
348.628478
  0
LINE
  5
1F7
100
AcDbEntity
  8
M0
100
AcDbLine
 10
48.669595
 20
331.578478
 11
40.669595
 21
331.578478
  0
LINE
  5
1F8
100
AcDbEntity
  8
M0
100
AcDbLine
 10
51.169595
 20
333.478478
 11
49.669594
 21
333.478478
  0
LINE
  5
1F9
100
AcDbEntity
  8
M0
100
AcDbLine
 10
47.669595
 20
323.978477
 11
48.669595
 21
323.978477
  0
LINE
  5
1FA
100
AcDbEntity
  8
M0
100
AcDbLine
 10
41.669595
 20
324.028478
 11
41.669595
 21
322.978477
  0
ARC
  5
1FB
100
AcDbEntity
  8
M0
100
AcDbCircle
 10
49.669595
 20
319.978478
 40
1.0
100
AcDbArc
 50
180.0
 51
270.0
  0
LINE
  5
1FC
100
AcDbEntity
  8
M0
100
AcDbLine
 10
41.669595
 20
322.978477
 11
47.669595
 21
322.978477
  0
LINE
  5
1FD
100
AcDbEntity
  8
M0
100
AcDbLine
 10
49.669594
 20
318.978478
 11
50.169594
 21
318.978478
  0
LINE
  5
1FE
100
AcDbEntity
  8
M0
100
AcDbLine
 10
55.469595
 20
345.128478
 11
51.169595
 21
345.128478
  0
LINE
  5
1FF
100
AcDbEntity
  8
M0
100
AcDbLine
 10
47.669595
 20
322.978477
 11
47.669595
 21
324.028478
  0
CIRCLE
  5
200
100
AcDbEntity
  8
M0
 62
     7
100
AcDbCircle
 10
44.669595
 20
335.378478
 40
3.0
  0
LINE
  5
201
100
AcDbEntity
  8
M0
 62
     7
100
AcDbLine
 10
48.494595
 20
338.703478
 11
48.494595
 21
332.053478
  0
ARC
  5
202
100
AcDbEntity
  8
M0
 62
     7
100
AcDbCircle
 10
41.344595
 20
338.703478
 40
0.5
100
AcDbArc
 50
90.0
 51
180.0
  0
ARC
  5
203
100
AcDbEntity
  8
M0
 62
     7
100
AcDbCircle
 10
47.994595
 20
332.053478
 40
0.5
100
AcDbArc
 50
-90.0
 51
0.0
  0
ARC
  5
204
100
AcDbEntity
  8
M0
 62
     7
100
AcDbCircle
 10
41.344595
 20
332.053478
 40
0.5
100
AcDbArc
 50
180.0
 51
270.0
  0
ARC
  5
205
100
AcDbEntity
  8
M0
 62
     7
100
AcDbCircle
 10
47.994595
 20
338.703478
 40
0.5
100
AcDbArc
 50
0.0
 51
90.0
  0
LINE
  5
206
100
AcDbEntity
  8
M0
 62
     7
100
AcDbLine
 10
45.022874
 20
333.964118
 11
43.255296
 21
335.731818
  0
LINE
  5
207
100
AcDbEntity
  8
M0
 62
     7
100
AcDbLine
 10
46.260179
 20
336.969123
 11
43.078538
 21
333.78736
  0
LINE
  5
208
100
AcDbEntity
  8
M0
 62
     7
100
AcDbLine
 10
46.083421
 20
335.024787
 11
44.315843
 21
336.792365
  0
LINE
  5
209
100
AcDbEntity
  8
M0
 62
     7
100
AcDbLine
 10
40.844595
 20
332.053478
 11
40.844595
 21
338.703478
  0
LINE
  5
20A
100
AcDbEntity
  8
M0
 62
     7
100
AcDbLine
 10
41.344595
 20
339.203478
 11
47.994595
 21
339.203478
  0
LINE
  5
20B
100
AcDbEntity
  8
M0
 62
     7
100
AcDbLine
 10
47.994595
 20
331.553478
 11
41.344595
 21
331.553478
  0
CIRCLE
  5
20C
100
AcDbEntity
  8
M0
 62
     7
100
AcDbCircle
 10
44.669595
 20
369.478478
 40
3.0
  0
LINE
  5
20D
100
AcDbEntity
  8
M0
 62
     7
100
AcDbLine
 10
48.494595
 20
372.803478
 11
48.494595
 21
366.153478
  0
ARC
  5
20E
100
AcDbEntity
  8
M0
 62
     7
100
AcDbCircle
 10
41.344595
 20
372.803478
 40
0.5
100
AcDbArc
 50
90.0
 51
180.0
  0
ARC
  5
20F
100
AcDbEntity
  8
M0
 62
     7
100
AcDbCircle
 10
47.994595
 20
366.153478
 40
0.5
100
AcDbArc
 50
-90.0
 51
0.0
  0
ARC
  5
210
100
AcDbEntity
  8
M0
 62
     7
100
AcDbCircle
 10
41.344595
 20
366.153478
 40
0.5
100
AcDbArc
 50
180.0
 51
270.0
  0
ARC
  5
211
100
AcDbEntity
  8
M0
 62
     7
100
AcDbCircle
 10
47.994595
 20
372.803478
 40
0.5
100
AcDbArc
 50
0.0
 51
90.0
  0
LINE
  5
212
100
AcDbEntity
  8
M0
 62
     7
100
AcDbLine
 10
45.022874
 20
368.064118
 11
43.255296
 21
369.831818
  0
LINE
  5
213
100
AcDbEntity
  8
M0
 62
     7
100
AcDbLine
 10
46.260179
 20
371.069123
 11
43.078538
 21
367.88736
  0
LINE
  5
214
100
AcDbEntity
  8
M0
 62
     7
100
AcDbLine
 10
46.083421
 20
369.124787
 11
44.315843
 21
370.892365
  0
LINE
  5
215
100
AcDbEntity
  8
M0
 62
     7
100
AcDbLine
 10
40.844595
 20
366.153478
 11
40.844595
 21
372.803478
  0
LINE
  5
216
100
AcDbEntity
  8
M0
 62
     7
100
AcDbLine
 10
41.344595
 20
373.303478
 11
47.994595
 21
373.303478
  0
LINE
  5
217
100
AcDbEntity
  8
M0
 62
     7
100
AcDbLine
 10
47.994595
 20
365.653478
 11
41.344595
 21
365.653478
  0
CIRCLE
  5
218
100
AcDbEntity
  8
M0
 62
     7
100
AcDbCircle
 10
44.669595
 20
327.778478
 40
3.0
  0
LINE
  5
219
100
AcDbEntity
  8
M0
 62
     7
100
AcDbLine
 10
48.494595
 20
331.103478
 11
48.494595
 21
324.453478
  0
ARC
  5
21A
100
AcDbEntity
  8
M0
 62
     7
100
AcDbCircle
 10
41.344595
 20
331.103478
 40
0.5
100
AcDbArc
 50
90.0
 51
180.0
  0
ARC
  5
21B
100
AcDbEntity
  8
M0
 62
     7
100
AcDbCircle
 10
47.994595
 20
324.453478
 40
0.5
100
AcDbArc
 50
-90.0
 51
0.0
  0
ARC
  5
21C
100
AcDbEntity
  8
M0
 62
     7
100
AcDbCircle
 10
41.344595
 20
324.453478
 40
0.5
100
AcDbArc
 50
180.0
 51
270.0
  0
ARC
  5
21D
100
AcDbEntity
  8
M0
 62
     7
100
AcDbCircle
 10
47.994595
 20
331.103478
 40
0.5
100
AcDbArc
 50
0.0
 51
90.0
  0
LINE
  5
21E
100
AcDbEntity
  8
M0
 62
     7
100
AcDbLine
 10
45.022874
 20
326.364118
 11
43.255296
 21
328.131818
  0
LINE
  5
21F
100
AcDbEntity
  8
M0
 62
     7
100
AcDbLine
 10
46.260179
 20
329.369123
 11
43.078538
 21
326.18736
  0
LINE
  5
220
100
AcDbEntity
  8
M0
 62
     7
100
AcDbLine
 10
46.083421
 20
327.424787
 11
44.315843
 21
329.192365
  0
LINE
  5
221
100
AcDbEntity
  8
M0
 62
     7
100
AcDbLine
 10
40.844595
 20
324.453478
 11
40.844595
 21
331.103478
  0
LINE
  5
222
100
AcDbEntity
  8
M0
 62
     7
100
AcDbLine
 10
41.344595
 20
331.603478
 11
47.994595
 21
331.603478
  0
LINE
  5
223
100
AcDbEntity
  8
M0
 62
     7
100
AcDbLine
 10
47.994595
 20
323.953478
 11
41.344595
 21
323.953478
  0
CIRCLE
  5
224
100
AcDbEntity
  8
M0
 62
     7
100
AcDbCircle
 10
44.669595
 20
361.878478
 40
3.0
  0
LINE
  5
225
100
AcDbEntity
  8
M0
 62
     7
100
AcDbLine
 10
48.494595
 20
365.203478
 11
48.494595
 21
358.553478
  0
ARC
  5
226
100
AcDbEntity
  8
M0
 62
     7
100
AcDbCircle
 10
41.344595
 20
365.203478
 40
0.5
100
AcDbArc
 50
90.0
 51
180.0
  0
ARC
  5
227
100
AcDbEntity
  8
M0
 62
     7
100
AcDbCircle
 10
47.994595
 20
358.553478
 40
0.5
100
AcDbArc
 50
-90.0
 51
0.0
  0
ARC
  5
228
100
AcDbEntity
  8
M0
 62
     7
100
AcDbCircle
 10
41.344595
 20
358.553478
 40
0.5
100
AcDbArc
 50
180.0
 51
270.0
  0
ARC
  5
229
100
AcDbEntity
  8
M0
 62
     7
100
AcDbCircle
 10
47.994595
 20
365.203478
 40
0.5
100
AcDbArc
 50
0.0
 51
90.0
  0
LINE
  5
22A
100
AcDbEntity
  8
M0
 62
     7
100
AcDbLine
 10
45.022874
 20
360.464118
 11
43.255296
 21
362.231818
  0
LINE
  5
22B
100
AcDbEntity
  8
M0
 62
     7
100
AcDbLine
 10
46.260179
 20
363.469123
 11
43.078538
 21
360.28736
  0
LINE
  5
22C
100
AcDbEntity
  8
M0
 62
     7
100
AcDbLine
 10
46.083421
 20
361.524787
 11
44.315843
 21
363.292365
  0
LINE
  5
22D
100
AcDbEntity
  8
M0
 62
     7
100
AcDbLine
 10
40.844595
 20
358.553478
 11
40.844595
 21
365.203478
  0
LINE
  5
22E
100
AcDbEntity
  8
M0
 62
     7
100
AcDbLine
 10
41.344595
 20
365.703478
 11
47.994595
 21
365.703478
  0
LINE
  5
22F
100
AcDbEntity
  8
M0
 62
     7
100
AcDbLine
 10
47.994595
 20
358.053478
 11
41.344595
 21
358.053478
  0
ARC
  5
230
100
AcDbEntity
  8
M0
 62
     7
100
AcDbCircle
 10
84.494595
 20
372.853478
 40
0.5
100
AcDbArc
 50
90.0
 51
180.0
  0
ARC
  5
231
100
AcDbEntity
  8
M0
 62
     7
100
AcDbCircle
 10
84.494595
 20
366.203478
 40
0.5
100
AcDbArc
 50
180.0
 51
270.0
  0
ARC
  5
232
100
AcDbEntity
  8
M0
 62
     7
100
AcDbCircle
 10
91.144595
 20
372.853478
 40
0.5
100
AcDbArc
 50
0.0
 51
90.0
  0
ARC
  5
233
100
AcDbEntity
  8
M0
 62
     7
100
AcDbCircle
 10
91.144595
 20
366.203478
 40
0.5
100
AcDbArc
 50
270.0
 51
360.0
  0
LINE
  5
234
100
AcDbEntity
  8
M0
 62
     7
100
AcDbLine
 10
83.994595
 20
372.853478
 11
83.994595
 21
366.203478
  0
LINE
  5
235
100
AcDbEntity
  8
M0
 62
     7
100
AcDbLine
 10
91.644595
 20
366.203478
 11
91.644595
 21
372.853478
  0
LINE
  5
236
100
AcDbEntity
  8
M0
 62
     7
100
AcDbLine
 10
84.494595
 20
365.703478
 11
91.144595
 21
365.703478
  0
LINE
  5
237
100
AcDbEntity
  8
M0
 62
     7
100
AcDbLine
 10
91.144595
 20
373.353478
 11
84.494595
 21
373.353478
  0
LINE
  5
238
100
AcDbEntity
  8
M0
  6
DASHDOT
 62
     7
100
AcDbLine
 10
87.319595
 20
369.528478
 11
88.319595
 21
369.528478
  0
LINE
  5
239
100
AcDbEntity
  8
M0
  6
DASHDOT
 62
     7
100
AcDbLine
 10
87.819595
 20
369.028478
 11
87.819595
 21
370.028478
  0
ARC
  5
23A
100
AcDbEntity
  8
M0
 62
     7
100
AcDbCircle
 10
64.294595
 20
372.853478
 40
0.5
100
AcDbArc
 50
90.0
 51
180.0
  0
ARC
  5
23B
100
AcDbEntity
  8
M0
 62
     7
100
AcDbCircle
 10
64.294595
 20
366.203478
 40
0.5
100
AcDbArc
 50
180.0
 51
270.0
  0
ARC
  5
23C
100
AcDbEntity
  8
M0
 62
     7
100
AcDbCircle
 10
70.944595
 20
372.853478
 40
0.5
100
AcDbArc
 50
0.0
 51
90.0
  0
ARC
  5
23D
100
AcDbEntity
  8
M0
 62
     7
100
AcDbCircle
 10
70.944595
 20
366.203478
 40
0.5
100
AcDbArc
 50
270.0
 51
360.0
  0
LINE
  5
23E
100
AcDbEntity
  8
M0
 62
     7
100
AcDbLine
 10
63.794595
 20
372.853478
 11
63.794595
 21
366.203478
  0
LINE
  5
23F
100
AcDbEntity
  8
M0
 62
     7
100
AcDbLine
 10
71.444595
 20
366.203478
 11
71.444595
 21
372.853478
  0
LINE
  5
240
100
AcDbEntity
  8
M0
 62
     7
100
AcDbLine
 10
64.294595
 20
365.703478
 11
70.944595
 21
365.703478
  0
LINE
  5
241
100
AcDbEntity
  8
M0
 62
     7
100
AcDbLine
 10
70.944595
 20
373.353478
 11
64.294595
 21
373.353478
  0
LINE
  5
242
100
AcDbEntity
  8
M0
  6
DASHDOT
 62
     7
100
AcDbLine
 10
67.119595
 20
369.528478
 11
68.119595
 21
369.528478
  0
LINE
  5
243
100
AcDbEntity
  8
M0
  6
DASHDOT
 62
     7
100
AcDbLine
 10
67.619595
 20
369.028478
 11
67.619595
 21
370.028478
  0
ARC
  5
244
100
AcDbEntity
  8
M0
 62
     7
100
AcDbCircle
 10
74.394595
 20
372.853478
 40
0.5
100
AcDbArc
 50
90.0
 51
180.0
  0
ARC
  5
245
100
AcDbEntity
  8
M0
 62
     7
100
AcDbCircle
 10
74.394595
 20
366.203478
 40
0.5
100
AcDbArc
 50
180.0
 51
270.0
  0
ARC
  5
246
100
AcDbEntity
  8
M0
 62
     7
100
AcDbCircle
 10
81.044595
 20
372.853478
 40
0.5
100
AcDbArc
 50
0.0
 51
90.0
  0
ARC
  5
247
100
AcDbEntity
  8
M0
 62
     7
100
AcDbCircle
 10
81.044595
 20
366.203478
 40
0.5
100
AcDbArc
 50
270.0
 51
360.0
  0
LINE
  5
248
100
AcDbEntity
  8
M0
 62
     7
100
AcDbLine
 10
73.894595
 20
372.853478
 11
73.894595
 21
366.203478
  0
LINE
  5
249
100
AcDbEntity
  8
M0
 62
     7
100
AcDbLine
 10
81.544595
 20
366.203478
 11
81.544595
 21
372.853478
  0
LINE
  5
24A
100
AcDbEntity
  8
M0
 62
     7
100
AcDbLine
 10
74.394595
 20
365.703478
 11
81.044595
 21
365.703478
  0
LINE
  5
24B
100
AcDbEntity
  8
M0
 62
     7
100
AcDbLine
 10
81.044595
 20
373.353478
 11
74.394595
 21
373.353478
  0
LINE
  5
24C
100
AcDbEntity
  8
M0
  6
DASHDOT
 62
     7
100
AcDbLine
 10
77.219595
 20
369.528478
 11
78.219595
 21
369.528478
  0
LINE
  5
24D
100
AcDbEntity
  8
M0
  6
DASHDOT
 62
     7
100
AcDbLine
 10
77.719595
 20
369.028478
 11
77.719595
 21
370.028478
  0
ARC
  5
24E
100
AcDbEntity
  8
M0
 62
     7
100
AcDbCircle
 10
58.444595
 20
390.453478
 40
0.5
100
AcDbArc
 50
90.0
 51
180.0
  0
ARC
  5
24F
100
AcDbEntity
  8
M0
 62
     7
100
AcDbCircle
 10
58.444595
 20
383.803478
 40
0.5
100
AcDbArc
 50
180.0
 51
270.0
  0
ARC
  5
250
100
AcDbEntity
  8
M0
 62
     7
100
AcDbCircle
 10
65.094595
 20
390.453478
 40
0.5
100
AcDbArc
 50
0.0
 51
90.0
  0
ARC
  5
251
100
AcDbEntity
  8
M0
 62
     7
100
AcDbCircle
 10
65.094595
 20
383.803478
 40
0.5
100
AcDbArc
 50
270.0
 51
360.0
  0
CIRCLE
  5
252
100
AcDbEntity
  8
M0
 62
     7
100
AcDbCircle
 10
61.769595
 20
387.128478
 40
3.0
  0
LINE
  5
253
100
AcDbEntity
  8
M0
 62
     7
100
AcDbLine
 10
57.944595
 20
390.453478
 11
57.944595
 21
383.803478
  0
LINE
  5
254
100
AcDbEntity
  8
M0
 62
     7
100
AcDbLine
 10
65.594595
 20
383.803478
 11
65.594595
 21
390.453478
  0
LINE
  5
255
100
AcDbEntity
  8
M0
 62
     7
100
AcDbLine
 10
58.444595
 20
383.303478
 11
65.094595
 21
383.303478
  0
LINE
  5
256
100
AcDbEntity
  8
M0
 62
     7
100
AcDbLine
 10
65.094595
 20
390.953478
 11
58.444595
 21
390.953478
  0
LINE
  5
257
100
AcDbEntity
  8
M0
  6
DASHDOT
 62
     7
100
AcDbLine
 10
61.269595
 20
387.128478
 11
62.269595
 21
387.128478
  0
LINE
  5
258
100
AcDbEntity
  8
M0
  6
DASHDOT
 62
     7
100
AcDbLine
 10
61.769595
 20
386.628478
 11
61.769595
 21
387.628478
  0
ARC
  5
259
100
AcDbEntity
  8
M0
 62
     7
100
AcDbCircle
 10
54.194595
 20
372.853478
 40
0.5
100
AcDbArc
 50
90.0
 51
180.0
  0
ARC
  5
25A
100
AcDbEntity
  8
M0
 62
     7
100
AcDbCircle
 10
54.194595
 20
366.203478
 40
0.5
100
AcDbArc
 50
180.0
 51
270.0
  0
ARC
  5
25B
100
AcDbEntity
  8
M0
 62
     7
100
AcDbCircle
 10
60.844595
 20
372.853478
 40
0.5
100
AcDbArc
 50
0.0
 51
90.0
  0
ARC
  5
25C
100
AcDbEntity
  8
M0
 62
     7
100
AcDbCircle
 10
60.844595
 20
366.203478
 40
0.5
100
AcDbArc
 50
270.0
 51
360.0
  0
LINE
  5
25D
100
AcDbEntity
  8
M0
 62
     7
100
AcDbLine
 10
53.694595
 20
372.853478
 11
53.694595
 21
366.203478
  0
LINE
  5
25E
100
AcDbEntity
  8
M0
 62
     7
100
AcDbLine
 10
61.344595
 20
366.203478
 11
61.344595
 21
372.853478
  0
LINE
  5
25F
100
AcDbEntity
  8
M0
 62
     7
100
AcDbLine
 10
54.194595
 20
365.703478
 11
60.844595
 21
365.703478
  0
LINE
  5
260
100
AcDbEntity
  8
M0
 62
     7
100
AcDbLine
 10
60.844595
 20
373.353478
 11
54.194595
 21
373.353478
  0
LINE
  5
261
100
AcDbEntity
  8
M0
  6
DASHDOT
 62
     7
100
AcDbLine
 10
57.019595
 20
369.528478
 11
58.019595
 21
369.528478
  0
LINE
  5
262
100
AcDbEntity
  8
M0
  6
DASHDOT
 62
     7
100
AcDbLine
 10
57.519595
 20
369.028478
 11
57.519595
 21
370.028478
  0
ARC
  5
263
100
AcDbEntity
  8
M0
 62
     7
100
AcDbCircle
 10
80.244595
 20
390.453478
 40
0.5
100
AcDbArc
 50
90.0
 51
180.0
  0
ARC
  5
264
100
AcDbEntity
  8
M0
 62
     7
100
AcDbCircle
 10
80.244595
 20
383.803478
 40
0.5
100
AcDbArc
 50
180.0
 51
270.0
  0
ARC
  5
265
100
AcDbEntity
  8
M0
 62
     7
100
AcDbCircle
 10
86.894595
 20
390.453478
 40
0.5
100
AcDbArc
 50
0.0
 51
90.0
  0
ARC
  5
266
100
AcDbEntity
  8
M0
 62
     7
100
AcDbCircle
 10
86.894595
 20
383.803478
 40
0.5
100
AcDbArc
 50
270.0
 51
360.0
  0
LINE
  5
267
100
AcDbEntity
  8
M0
 62
     7
100
AcDbLine
 10
79.744595
 20
390.453478
 11
79.744595
 21
383.803478
  0
LINE
  5
268
100
AcDbEntity
  8
M0
 62
     7
100
AcDbLine
 10
87.394595
 20
383.803478
 11
87.394595
 21
390.453478
  0
LINE
  5
269
100
AcDbEntity
  8
M0
 62
     7
100
AcDbLine
 10
80.244595
 20
383.303478
 11
86.894595
 21
383.303478
  0
LINE
  5
26A
100
AcDbEntity
  8
M0
 62
     7
100
AcDbLine
 10
86.894595
 20
390.953478
 11
80.244595
 21
390.953478
  0
LINE
  5
26B
100
AcDbEntity
  8
M0
  6
DASHDOT
 62
     7
100
AcDbLine
 10
83.069595
 20
387.128478
 11
84.069595
 21
387.128478
  0
LINE
  5
26C
100
AcDbEntity
  8
M0
  6
DASHDOT
 62
     7
100
AcDbLine
 10
83.569595
 20
386.628478
 11
83.569595
 21
387.628478
  0
ARC
  5
26D
100
AcDbEntity
  8
M0
 62
     7
100
AcDbCircle
 10
84.494595
 20
331.053478
 40
0.5
100
AcDbArc
 50
90.0
 51
180.0
  0
ARC
  5
26E
100
AcDbEntity
  8
M0
 62
     7
100
AcDbCircle
 10
84.494595
 20
324.403478
 40
0.5
100
AcDbArc
 50
180.0
 51
270.0
  0
ARC
  5
26F
100
AcDbEntity
  8
M0
 62
     7
100
AcDbCircle
 10
91.144595
 20
331.053478
 40
0.5
100
AcDbArc
 50
0.0
 51
90.0
  0
ARC
  5
270
100
AcDbEntity
  8
M0
 62
     7
100
AcDbCircle
 10
91.144595
 20
324.403478
 40
0.5
100
AcDbArc
 50
270.0
 51
360.0
  0
CIRCLE
  5
271
100
AcDbEntity
  8
M0
 62
     7
100
AcDbCircle
 10
87.819595
 20
327.728478
 40
3.0
  0
LINE
  5
272
100
AcDbEntity
  8
M0
 62
     7
100
AcDbLine
 10
83.994595
 20
331.053478
 11
83.994595
 21
324.403478
  0
LINE
  5
273
100
AcDbEntity
  8
M0
 62
     7
100
AcDbLine
 10
91.644595
 20
324.403478
 11
91.644595
 21
331.053478
  0
LINE
  5
274
100
AcDbEntity
  8
M0
 62
     7
100
AcDbLine
 10
84.494595
 20
323.903478
 11
91.144595
 21
323.903478
  0
LINE
  5
275
100
AcDbEntity
  8
M0
 62
     7
100
AcDbLine
 10
91.144595
 20
331.553478
 11
84.494595
 21
331.553478
  0
LINE
  5
276
100
AcDbEntity
  8
M0
  6
DASHDOT
 62
     7
100
AcDbLine
 10
87.319595
 20
327.728478
 11
88.319595
 21
327.728478
  0
LINE
  5
277
100
AcDbEntity
  8
M0
  6
DASHDOT
 62
     7
100
AcDbLine
 10
87.819595
 20
327.228478
 11
87.819595
 21
328.228478
  0
ARC
  5
278
100
AcDbEntity
  8
M0
 62
     7
100
AcDbCircle
 10
74.394595
 20
331.053478
 40
0.5
100
AcDbArc
 50
90.0
 51
180.0
  0
ARC
  5
279
100
AcDbEntity
  8
M0
 62
     7
100
AcDbCircle
 10
74.394595
 20
324.403478
 40
0.5
100
AcDbArc
 50
180.0
 51
270.0
  0
ARC
  5
27A
100
AcDbEntity
  8
M0
 62
     7
100
AcDbCircle
 10
81.044595
 20
331.053478
 40
0.5
100
AcDbArc
 50
0.0
 51
90.0
  0
ARC
  5
27B
100
AcDbEntity
  8
M0
 62
     7
100
AcDbCircle
 10
81.044595
 20
324.403478
 40
0.5
100
AcDbArc
 50
270.0
 51
360.0
  0
LINE
  5
27C
100
AcDbEntity
  8
M0
 62
     7
100
AcDbLine
 10
73.894595
 20
331.053478
 11
73.894595
 21
324.403478
  0
LINE
  5
27D
100
AcDbEntity
  8
M0
 62
     7
100
AcDbLine
 10
81.544595
 20
324.403478
 11
81.544595
 21
331.053478
  0
LINE
  5
27E
100
AcDbEntity
  8
M0
 62
     7
100
AcDbLine
 10
74.394595
 20
323.903478
 11
81.044595
 21
323.903478
  0
LINE
  5
27F
100
AcDbEntity
  8
M0
 62
     7
100
AcDbLine
 10
81.044595
 20
331.553478
 11
74.394595
 21
331.553478
  0
LINE
  5
280
100
AcDbEntity
  8
M0
  6
DASHDOT
 62
     7
100
AcDbLine
 10
77.219595
 20
327.728478
 11
78.219595
 21
327.728478
  0
LINE
  5
281
100
AcDbEntity
  8
M0
  6
DASHDOT
 62
     7
100
AcDbLine
 10
77.719595
 20
327.228478
 11
77.719595
 21
328.228478
  0
ARC
  5
282
100
AcDbEntity
  8
M0
 62
     7
100
AcDbCircle
 10
64.294595
 20
331.053478
 40
0.5
100
AcDbArc
 50
90.0
 51
180.0
  0
ARC
  5
283
100
AcDbEntity
  8
M0
 62
     7
100
AcDbCircle
 10
64.294595
 20
324.403478
 40
0.5
100
AcDbArc
 50
180.0
 51
270.0
  0
ARC
  5
284
100
AcDbEntity
  8
M0
 62
     7
100
AcDbCircle
 10
70.944595
 20
331.053478
 40
0.5
100
AcDbArc
 50
0.0
 51
90.0
  0
ARC
  5
285
100
AcDbEntity
  8
M0
 62
     7
100
AcDbCircle
 10
70.944595
 20
324.403478
 40
0.5
100
AcDbArc
 50
270.0
 51
360.0
  0
CIRCLE
  5
286
100
AcDbEntity
  8
M0
 62
     7
100
AcDbCircle
 10
67.619595
 20
327.728478
 40
3.0
  0
LINE
  5
287
100
AcDbEntity
  8
M0
 62
     7
100
AcDbLine
 10
63.794595
 20
331.053478
 11
63.794595
 21
324.403478
  0
LINE
  5
288
100
AcDbEntity
  8
M0
 62
     7
100
AcDbLine
 10
71.444595
 20
324.403478
 11
71.444595
 21
331.053478
  0
LINE
  5
289
100
AcDbEntity
  8
M0
 62
     7
100
AcDbLine
 10
64.294595
 20
323.903478
 11
70.944595
 21
323.903478
  0
LINE
  5
28A
100
AcDbEntity
  8
M0
 62
     7
100
AcDbLine
 10
70.944595
 20
331.553478
 11
64.294595
 21
331.553478
  0
LINE
  5
28B
100
AcDbEntity
  8
M0
  6
DASHDOT
 62
     7
100
AcDbLine
 10
67.119595
 20
327.728478
 11
68.119595
 21
327.728478
  0
LINE
  5
28C
100
AcDbEntity
  8
M0
  6
DASHDOT
 62
     7
100
AcDbLine
 10
67.619595
 20
327.228478
 11
67.619595
 21
328.228478
  0
ARC
  5
28D
100
AcDbEntity
  8
M0
 62
     7
100
AcDbCircle
 10
54.194595
 20
331.053478
 40
0.5
100
AcDbArc
 50
90.0
 51
180.0
  0
ARC
  5
28E
100
AcDbEntity
  8
M0
 62
     7
100
AcDbCircle
 10
54.194595
 20
324.403478
 40
0.5
100
AcDbArc
 50
180.0
 51
270.0
  0
ARC
  5
28F
100
AcDbEntity
  8
M0
 62
     7
100
AcDbCircle
 10
60.844595
 20
331.053478
 40
0.5
100
AcDbArc
 50
0.0
 51
90.0
  0
ARC
  5
290
100
AcDbEntity
  8
M0
 62
     7
100
AcDbCircle
 10
60.844595
 20
324.403478
 40
0.5
100
AcDbArc
 50
270.0
 51
360.0
  0
LINE
  5
291
100
AcDbEntity
  8
M0
 62
     7
100
AcDbLine
 10
53.694595
 20
331.053478
 11
53.694595
 21
324.403478
  0
LINE
  5
292
100
AcDbEntity
  8
M0
 62
     7
100
AcDbLine
 10
61.344595
 20
324.403478
 11
61.344595
 21
331.053478
  0
LINE
  5
293
100
AcDbEntity
  8
M0
 62
     7
100
AcDbLine
 10
54.194595
 20
323.903478
 11
60.844595
 21
323.903478
  0
LINE
  5
294
100
AcDbEntity
  8
M0
 62
     7
100
AcDbLine
 10
60.844595
 20
331.553478
 11
54.194595
 21
331.553478
  0
LINE
  5
295
100
AcDbEntity
  8
M0
  6
DASHDOT
 62
     7
100
AcDbLine
 10
57.019595
 20
327.728478
 11
58.019595
 21
327.728478
  0
LINE
  5
296
100
AcDbEntity
  8
M0
  6
DASHDOT
 62
     7
100
AcDbLine
 10
57.519595
 20
327.228478
 11
57.519595
 21
328.228478
  0
CIRCLE
  5
297
100
AcDbEntity
  8
M0
 62
     7
100
AcDbCircle
 10
67.619595
 20
316.128478
 40
2.65
  0
CIRCLE
  5
298
100
AcDbEntity
  8
M0
 62
     7
100
AcDbCircle
 10
72.669595
 20
386.728478
 40
2.65
  0
LINE
  5
299
100
AcDbEntity
  8
M0
 62
     7
100
AcDbLine
 10
73.869595
 20
386.278478
 11
73.869595
 21
387.178478
  0
LINE
  5
29A
100
AcDbEntity
  8
M0
 62
     7
100
AcDbLine
 10
66.419595
 20
315.678478
 11
66.419595
 21
316.578478
  0
LINE
  5
29B
100
AcDbEntity
  8
M0
 62
     7
100
AcDbLine
 10
71.469595
 20
386.278478
 11
71.469595
 21
387.178478
  0
LINE
  5
29C
100
AcDbEntity
  8
M0
 62
     7
100
AcDbLine
 10
68.819595
 20
315.678478
 11
68.819595
 21
316.578478
  0
LINE
  5
29D
100
AcDbEntity
  8
M0
 62
     7
100
AcDbLine
 10
85.019595
 20
319.328478
 11
83.919595
 21
319.328478
  0
LINE
  5
29E
100
AcDbEntity
  8
M0
 62
     7
100
AcDbLine
 10
85.019595
 20
314.328478
 11
85.019595
 21
319.328478
  0
LINE
  5
29F
100
AcDbEntity
  8
M0
 62
     7
100
AcDbLine
 10
94.169595
 20
380.328478
 11
94.169595
 21
318.828478
  0
LINE
  5
2A0
100
AcDbEntity
  8
M0
 62
     7
100
AcDbLine
 10
51.169595
 20
317.328478
 11
51.169595
 21
345.128478
  0
LINE
  5
2A1
100
AcDbEntity
  8
M0
 62
     7
100
AcDbLine
 10
90.419595
 20
322.928478
 11
90.419595
 21
322.528478
  0
LINE
  5
2A2
100
AcDbEntity
  8
M0
 62
     7
100
AcDbLine
 10
77.369595
 20
313.828478
 11
89.169595
 21
313.828478
  0
LINE
  5
2A3
100
AcDbEntity
  8
M0
 62
     7
100
AcDbLine
 10
61.465655
 20
313.828478
 11
54.669595
 21
313.828478
  0
LINE
  5
2A4
100
AcDbEntity
  8
M0
 62
     7
100
AcDbLine
 10
61.419595
 20
318.128478
 11
58.419595
 21
318.128478
  0
LINE
  5
2A5
100
AcDbEntity
  8
M0
 62
     7
100
AcDbLine
 10
81.519595
 20
317.628478
 11
81.519595
 21
314.328478
  0
LINE
  5
2A6
100
AcDbEntity
  8
M0
 62
     7
100
AcDbLine
 10
76.869595
 20
317.628478
 11
76.869595
 21
314.328478
  0
LINE
  5
2A7
100
AcDbEntity
  8
M0
 62
     7
100
AcDbLine
 10
79.869595
 20
315.828478
 11
79.869595
 21
317.628478
  0
LINE
  5
2A8
100
AcDbEntity
  8
M0
 62
     7
100
AcDbLine
 10
79.869595
 20
315.828478
 11
78.369595
 21
315.828478
  0
LINE
  5
2A9
100
AcDbEntity
  8
M0
 62
     7
100
AcDbLine
 10
85.919595
 20
322.528478
 11
85.919595
 21
322.928478
  0
LINE
  5
2AA
100
AcDbEntity
  8
M0
 62
     7
100
AcDbLine
 10
58.419595
 20
318.128478
 11
58.419595
 21
314.328478
  0
LINE
  5
2AB
100
AcDbEntity
  8
M0
 62
     7
100
AcDbLine
 10
52.919595
 20
377.528478
 11
52.919595
 21
377.382417
  0
ARC
  5
2AC
100
AcDbEntity
  8
M0
 62
     7
100
AcDbCircle
 10
90.169595
 20
380.328478
 40
4.0
100
AcDbArc
 50
0.0
 51
97.180756
  0
ARC
  5
2AD
100
AcDbEntity
  8
M0
 62
     7
100
AcDbCircle
 10
90.169595
 20
380.328478
 40
2.25
100
AcDbArc
 50
257.160412
 51
462.839588
  0
ARC
  5
2AE
100
AcDbEntity
  8
M0
 62
     7
100
AcDbCircle
 10
77.369595
 20
314.328478
 40
0.5
100
AcDbArc
 50
180.0
 51
270.0
  0
ARC
  5
2AF
100
AcDbEntity
  8
M0
 62
     7
100
AcDbCircle
 10
81.019595
 20
314.328478
 40
0.5
100
AcDbArc
 50
270.0
 51
360.0
  0
LINE
  5
2B0
100
AcDbEntity
  8
M0
 62
     7
100
AcDbLine
 10
78.369595
 20
317.628478
 11
78.369595
 21
315.828478
  0
LINE
  5
2B1
100
AcDbEntity
  8
M0
 62
     7
100
AcDbLine
 10
57.469595
 20
391.528478
 11
65.769595
 21
391.528478
  0
LINE
  5
2B2
100
AcDbEntity
  8
M0
 62
     7
100
AcDbLine
 10
87.069595
 20
391.528478
 11
87.869595
 21
391.528478
  0
LINE
  5
2B3
100
AcDbEntity
  8
M0
 62
     7
100
AcDbLine
 10
55.669595
 20
379.528478
 11
55.669595
 21
379.428478
  0
CIRCLE
  5
2B4
100
AcDbEntity
  8
M0
 62
     7
100
AcDbCircle
 10
67.619595
 20
316.128478
 40
2.85
  0
LINE
  5
2B5
100
AcDbEntity
  8
M0
 62
     7
100
AcDbLine
 10
55.669595
 20
383.128478
 11
55.669595
 21
383.028478
  0
LINE
  5
2B6
100
AcDbEntity
  8
M0
 62
     7
100
AcDbLine
 10
89.669595
 20
379.428478
 11
89.669595
 21
379.528478
  0
LINE
  5
2B7
100
AcDbEntity
  8
M0
 62
     7
100
AcDbLine
 10
89.669595
 20
383.028478
 11
89.669595
 21
383.128478
  0
LINE
  5
2B8
100
AcDbEntity
  8
M0
 62
     7
100
AcDbLine
 10
87.869595
 20
392.428478
 11
87.869595
 21
383.028478
  0
LINE
  5
2B9
100
AcDbEntity
  8
M0
 62
     7
100
AcDbLine
 10
57.469595
 20
383.028478
 11
57.469595
 21
383.128478
  0
LINE
  5
2BA
100
AcDbEntity
  8
M0
 62
     7
100
AcDbLine
 10
68.069595
 20
316.578478
 11
68.069595
 21
317.328478
  0
ARC
  5
2BB
100
AcDbEntity
  8
M0
 62
     7
100
AcDbCircle
 10
56.869595
 20
392.428478
 40
0.6
100
AcDbArc
 50
0.0
 51
90.0
  0
LINE
  5
2BC
100
AcDbEntity
  8
M0
 62
     7
100
AcDbLine
 10
66.419595
 20
316.578478
 11
67.169595
 21
316.578478
  0
LINE
  5
2BD
100
AcDbEntity
  8
M0
 62
     7
100
AcDbLine
 10
67.169595
 20
317.328478
 11
67.169595
 21
316.578478
  0
LINE
  5
2BE
100
AcDbEntity
  8
M0
 62
     7
100
AcDbLine
 10
68.069595
 20
316.578478
 11
68.819595
 21
316.578478
  0
ARC
  5
2BF
100
AcDbEntity
  8
M0
 62
     7
100
AcDbCircle
 10
88.469595
 20
392.428478
 40
0.6
100
AcDbArc
 50
90.0
 51
180.0
  0
LINE
  5
2C0
100
AcDbEntity
  8
M0
 62
     7
100
AcDbLine
 10
68.069595
 20
317.328478
 11
67.169595
 21
317.328478
  0
ARC
  5
2C1
100
AcDbEntity
  8
M0
 62
     7
100
AcDbCircle
 10
56.269595
 20
392.428478
 40
0.6
100
AcDbArc
 50
90.0
 51
180.0
  0
ARC
  5
2C2
100
AcDbEntity
  8
M0
 62
     7
100
AcDbCircle
 10
77.669595
 20
315.128478
 40
2.0
100
AcDbArc
 50
270.0
 51
319.458398
  0
ARC
  5
2C3
100
AcDbEntity
  8
M0
 62
     7
100
AcDbCircle
 10
89.069595
 20
392.428478
 40
0.6
100
AcDbArc
 50
0.0
 51
90.0
  0
LINE
  5
2C4
100
AcDbEntity
  8
M0
 62
     7
100
AcDbLine
 10
68.069595
 20
314.928478
 11
68.069595
 21
315.678478
  0
LINE
  5
2C5
100
AcDbEntity
  8
M0
 62
     7
100
AcDbLine
 10
67.169595
 20
315.678478
 11
66.419595
 21
315.678478
  0
LINE
  5
2C6
100
AcDbEntity
  8
M0
 62
     7
100
AcDbLine
 10
67.169595
 20
314.928478
 11
68.069595
 21
314.928478
  0
LINE
  5
2C7
100
AcDbEntity
  8
M0
 62
     7
100
AcDbLine
 10
67.169595
 20
315.678478
 11
67.169595
 21
314.928478
  0
ARC
  5
2C8
100
AcDbEntity
  8
M0
 62
     7
100
AcDbCircle
 10
90.169595
 20
325.528478
 40
2.25
100
AcDbArc
 50
286.791447
 51
313.542219
  0
ARC
  5
2C9
100
AcDbEntity
  8
M0
 62
     7
100
AcDbCircle
 10
55.169595
 20
320.328478
 40
2.25
100
AcDbArc
 50
191.257189
 51
493.542219
  0
ARC
  5
2CA
100
AcDbEntity
  8
M0
 62
     7
100
AcDbCircle
 10
88.169595
 20
322.528478
 40
2.25
100
AcDbArc
 50
180.0
 51
360.0
  0
ARC
  5
2CB
100
AcDbEntity
  8
M0
 62
     7
100
AcDbCircle
 10
55.169595
 20
377.528478
 40
2.25
100
AcDbArc
 50
77.160412
 51
180.0
  0
ARC
  5
2CC
100
AcDbEntity
  8
M0
 62
     7
100
AcDbCircle
 10
56.169595
 20
377.528478
 40
5.0
100
AcDbArc
 50
95.73917
 51
180.0
  0
ARC
  5
2CD
100
AcDbEntity
  8
M0
 62
     7
100
AcDbCircle
 10
85.519595
 20
314.328478
 40
0.5
100
AcDbArc
 50
180.0
 51
270.0
  0
LINE
  5
2CE
100
AcDbEntity
  8
M0
 62
     7
100
AcDbLine
 10
68.819595
 20
315.678478
 11
68.069595
 21
315.678478
  0
ARC
  5
2CF
100
AcDbEntity
  8
M0
 62
     7
100
AcDbCircle
 10
57.919595
 20
314.328478
 40
0.5
100
AcDbArc
 50
270.0
 51
360.0
  0
ARC
  5
2D0
100
AcDbEntity
  8
M0
 62
     7
100
AcDbCircle
 10
89.169595
 20
318.828478
 40
5.0
100
AcDbArc
 50
270.0
 51
360.0
  0
ARC
  5
2D1
100
AcDbEntity
  8
M0
 62
     7
100
AcDbCircle
 10
54.669595
 20
317.328478
 40
3.5
100
AcDbArc
 50
180.0
 51
270.0
  0
LINE
  5
2D2
100
AcDbEntity
  8
M0
 62
     7
100
AcDbLine
 10
89.669595
 20
390.028478
 11
89.669595
 21
392.428478
  0
LINE
  5
2D3
100
AcDbEntity
  8
M0
 62
     7
100
AcDbLine
 10
88.469595
 20
393.028478
 11
89.069595
 21
393.028478
  0
LINE
  5
2D4
100
AcDbEntity
  8
M0
 62
     7
100
AcDbLine
 10
56.269595
 20
393.028478
 11
56.869595
 21
393.028478
  0
LINE
  5
2D5
100
AcDbEntity
  8
M0
 62
     7
100
AcDbLine
 10
77.669595
 20
313.128478
 11
62.719595
 21
313.128478
  0
LINE
  5
2D6
100
AcDbEntity
  8
M0
 62
     7
100
AcDbLine
 10
89.669595
 20
390.028478
 11
89.669595
 21
383.128478
  0
LINE
  5
2D7
100
AcDbEntity
  8
M0
 62
     7
100
AcDbLine
 10
73.819595
 20
315.128478
 11
76.869595
 21
315.128478
  0
LINE
  5
2D8
100
AcDbEntity
  8
M0
 62
     7
100
AcDbLine
 10
57.469595
 20
383.028478
 11
57.469595
 21
392.428478
  0
LINE
  5
2D9
100
AcDbEntity
  8
M0
 62
     7
100
AcDbLine
 10
79.669595
 20
317.628478
 11
79.669595
 21
315.828478
  0
LINE
  5
2DA
100
AcDbEntity
  8
M0
 62
     7
100
AcDbLine
 10
56.469595
 20
352.278478
 11
56.469595
 21
351.028478
  0
LINE
  5
2DB
100
AcDbEntity
  8
M0
 62
     7
100
AcDbLine
 10
56.669595
 20
351.028478
 11
56.469595
 21
351.028478
  0
LINE
  5
2DC
100
AcDbEntity
  8
M0
 62
     7
100
AcDbLine
 10
56.469595
 20
346.028478
 11
56.469595
 21
344.978478
  0
LINE
  5
2DD
100
AcDbEntity
  8
M0
 62
     7
100
AcDbLine
 10
56.469595
 20
346.028478
 11
56.669595
 21
346.028478
  0
LINE
  5
2DE
100
AcDbEntity
  8
M0
 62
     7
100
AcDbLine
 10
56.387539
 20
344.928478
 11
53.469595
 21
344.928478
  0
LINE
  5
2DF
100
AcDbEntity
  8
M0
 62
     7
100
AcDbLine
 10
53.119595
 20
354.728478
 11
53.269595
 21
354.728478
  0
LINE
  5
2E0
100
AcDbEntity
  8
M0
 62
     7
100
AcDbLine
 10
53.269595
 20
357.528478
 11
53.119595
 21
357.528478
  0
LINE
  5
2E1
100
AcDbEntity
  8
M0
 62
     7
100
AcDbLine
 10
52.619595
 20
319.828478
 11
52.169595
 21
319.828478
  0
ARC
  5
2E2
100
AcDbEntity
  8
M0
 62
     7
100
AcDbCircle
 10
82.919595
 20
317.428478
 40
1.0
100
AcDbArc
 50
270.0
 51
360.0
  0
ARC
  5
2E3
100
AcDbEntity
  8
M0
 62
     7
100
AcDbCircle
 10
62.719595
 20
317.428478
 40
1.0
100
AcDbArc
 50
270.0
 51
360.0
  0
ARC
  5
2E4
100
AcDbEntity
  8
M0
 62
     7
100
AcDbCircle
 10
72.819595
 20
317.428478
 40
1.0
100
AcDbArc
 50
270.0
 51
360.0
  0
ARC
  5
2E5
100
AcDbEntity
  8
M0
 62
     7
100
AcDbCircle
 10
62.419595
 20
317.428478
 40
1.0
100
AcDbArc
 50
180.0
 51
270.0
  0
LINE
  5
2E6
100
AcDbEntity
  8
M0
 62
     7
100
AcDbLine
 10
53.469595
 20
344.928478
 11
53.469595
 21
345.128478
  0
LINE
  5
2E7
100
AcDbEntity
  8
M0
 62
     7
100
AcDbLine
 10
52.169595
 20
344.928478
 11
52.169595
 21
345.128478
  0
LINE
  5
2E8
100
AcDbEntity
  8
M0
 62
     7
100
AcDbLine
 10
53.469595
 20
352.328478
 11
56.387539
 21
352.328478
  0
LINE
  5
2E9
100
AcDbEntity
  8
M0
 62
     7
100
AcDbLine
 10
91.719595
 20
320.828478
 11
91.719595
 21
331.928478
  0
LINE
  5
2EA
100
AcDbEntity
  8
M0
 62
     7
100
AcDbLine
 10
93.169595
 20
319.828478
 11
92.719595
 21
319.828478
  0
LINE
  5
2EB
100
AcDbEntity
  8
M0
 62
     7
100
AcDbLine
 10
77.569595
 20
359.628478
 11
77.719595
 21
359.628478
  0
LINE
  5
2EC
100
AcDbEntity
  8
M0
 62
     7
100
AcDbLine
 10
92.116963
 20
354.728478
 11
92.116963
 21
357.528478
  0
LINE
  5
2ED
100
AcDbEntity
  8
M0
 62
     7
100
AcDbLine
 10
67.769595
 20
359.628478
 11
67.619595
 21
359.628478
  0
LINE
  5
2EE
100
AcDbEntity
  8
M0
 62
     7
100
AcDbLine
 10
88.669595
 20
346.028478
 11
88.869595
 21
346.028478
  0
LINE
  5
2EF
100
AcDbEntity
  8
M0
 62
     7
100
AcDbLine
 10
88.869595
 20
346.028478
 11
88.869595
 21
344.978478
  0
LINE
  5
2F0
100
AcDbEntity
  8
M0
 62
     7
100
AcDbLine
 10
88.869595
 20
351.028478
 11
88.669595
 21
351.028478
  0
LINE
  5
2F1
100
AcDbEntity
  8
M0
 62
     7
100
AcDbLine
 10
61.419595
 20
376.828478
 11
61.419595
 21
379.828478
  0
LINE
  5
2F2
100
AcDbEntity
  8
M0
 62
     7
100
AcDbLine
 10
92.219595
 20
357.528478
 11
92.069595
 21
357.528478
  0
LINE
  5
2F3
100
AcDbEntity
  8
M0
 62
     7
100
AcDbLine
 10
93.169595
 20
344.928478
 11
93.169595
 21
352.328478
  0
LINE
  5
2F4
100
AcDbEntity
  8
M0
 62
     7
100
AcDbLine
 10
88.869595
 20
352.278478
 11
88.869595
 21
351.028478
  0
LINE
  5
2F5
100
AcDbEntity
  8
M0
 62
     7
100
AcDbLine
 10
53.222226
 20
354.728478
 11
53.222226
 21
357.528478
  0
LINE
  5
2F6
100
AcDbEntity
  8
M0
 62
     7
100
AcDbLine
 10
91.869595
 20
352.328478
 11
88.95165
 21
352.328478
  0
LINE
  5
2F7
100
AcDbEntity
  8
M0
 62
     7
100
AcDbLine
 10
88.95165
 20
344.928478
 11
91.869595
 21
344.928478
  0
LINE
  5
2F8
100
AcDbEntity
  8
M0
 62
     7
100
AcDbLine
 10
91.869595
 20
344.928478
 11
91.869595
 21
352.328478
  0
LINE
  5
2F9
100
AcDbEntity
  8
M0
 62
     7
100
AcDbLine
 10
92.069595
 20
354.728478
 11
92.219595
 21
354.728478
  0
LINE
  5
2FA
100
AcDbEntity
  8
M0
 62
     7
100
AcDbLine
 10
72.619595
 20
316.428478
 11
72.519595
 21
316.428478
  0
LINE
  5
2FB
100
AcDbEntity
  8
M0
 62
     7
100
AcDbLine
 10
72.719595
 20
316.428478
 11
72.619595
 21
316.428478
  0
LINE
  5
2FC
100
AcDbEntity
  8
M0
 62
     7
100
AcDbLine
 10
82.719595
 20
316.428478
 11
82.619595
 21
316.428478
  0
LINE
  5
2FD
100
AcDbEntity
  8
M0
 62
     7
100
AcDbLine
 10
72.819595
 20
316.428478
 11
72.719595
 21
316.428478
  0
LINE
  5
2FE
100
AcDbEntity
  8
M0
 62
     7
100
AcDbLine
 10
82.919595
 20
316.428478
 11
82.719595
 21
316.428478
  0
LINE
  5
2FF
100
AcDbEntity
  8
M0
 62
     7
100
AcDbLine
 10
73.819595
 20
365.328478
 11
73.819595
 21
379.828478
  0
LINE
  5
300
100
AcDbEntity
  8
M0
 62
     7
100
AcDbLine
 10
83.919595
 20
365.328478
 11
83.919595
 21
379.828478
  0
LINE
  5
301
100
AcDbEntity
  8
M0
 62
     7
100
AcDbLine
 10
72.519595
 20
330.428478
 11
72.819595
 21
330.428478
  0
LINE
  5
302
100
AcDbEntity
  8
M0
 62
     7
100
AcDbLine
 10
81.619595
 20
317.428478
 11
81.619595
 21
331.928478
  0
LINE
  5
303
100
AcDbEntity
  8
M0
 62
     7
100
AcDbLine
 10
62.619595
 20
316.428478
 11
62.419595
 21
316.428478
  0
LINE
  5
304
100
AcDbEntity
  8
M0
 62
     7
100
AcDbLine
 10
62.719595
 20
316.428478
 11
62.619595
 21
316.428478
  0
LINE
  5
305
100
AcDbEntity
  8
M0
 62
     7
100
AcDbLine
 10
83.919595
 20
331.928478
 11
83.919595
 21
317.428478
  0
ARC
  5
306
100
AcDbEntity
  8
M0
 62
     7
100
AcDbCircle
 10
72.819595
 20
329.428478
 40
1.0
100
AcDbArc
 50
0.0
 51
90.0
  0
ARC
  5
307
100
AcDbEntity
  8
M0
 62
     7
100
AcDbCircle
 10
62.719595
 20
329.428478
 40
1.0
100
AcDbArc
 50
0.0
 51
90.0
  0
ARC
  5
308
100
AcDbEntity
  8
M0
 62
     7
100
AcDbCircle
 10
62.419595
 20
367.828478
 40
1.0
100
AcDbArc
 50
180.0
 51
270.0
  0
ARC
  5
309
100
AcDbEntity
  8
M0
 62
     7
100
AcDbCircle
 10
72.819595
 20
367.828478
 40
1.0
100
AcDbArc
 50
270.0
 51
360.0
  0
ARC
  5
30A
100
AcDbEntity
  8
M0
 62
     7
100
AcDbCircle
 10
72.519595
 20
367.828478
 40
1.0
100
AcDbArc
 50
180.0
 51
270.0
  0
ARC
  5
30B
100
AcDbEntity
  8
M0
 62
     7
100
AcDbCircle
 10
82.619595
 20
367.828478
 40
1.0
100
AcDbArc
 50
180.0
 51
270.0
  0
ARC
  5
30C
100
AcDbEntity
  8
M0
 62
     7
100
AcDbCircle
 10
72.519595
 20
317.428478
 40
1.0
100
AcDbArc
 50
180.0
 51
270.0
  0
ARC
  5
30D
100
AcDbEntity
  8
M0
 62
     7
100
AcDbCircle
 10
82.619595
 20
317.428478
 40
1.0
100
AcDbArc
 50
180.0
 51
270.0
  0
ARC
  5
30E
100
AcDbEntity
  8
M0
 62
     7
100
AcDbCircle
 10
82.619595
 20
329.428478
 40
1.0
100
AcDbArc
 50
90.0
 51
180.0
  0
ARC
  5
30F
100
AcDbEntity
  8
M0
 62
     7
100
AcDbCircle
 10
82.919595
 20
329.428478
 40
1.0
100
AcDbArc
 50
0.0
 51
90.0
  0
ARC
  5
310
100
AcDbEntity
  8
M0
 62
     7
100
AcDbCircle
 10
62.419595
 20
329.428478
 40
1.0
100
AcDbArc
 50
90.0
 51
180.0
  0
LINE
  5
311
100
AcDbEntity
  8
M0
 62
     7
100
AcDbLine
 10
61.419595
 20
365.328478
 11
61.419595
 21
367.828478
  0
LINE
  5
312
100
AcDbEntity
  8
M0
 62
     7
100
AcDbLine
 10
63.719595
 20
367.828478
 11
63.719595
 21
365.328478
  0
LINE
  5
313
100
AcDbEntity
  8
M0
 62
     7
100
AcDbLine
 10
81.619595
 20
379.828478
 11
81.619595
 21
365.328478
  0
ARC
  5
314
100
AcDbEntity
  8
M0
 62
     7
100
AcDbCircle
 10
82.919595
 20
367.828478
 40
1.0
100
AcDbArc
 50
270.0
 51
360.0
  0
ARC
  5
315
100
AcDbEntity
  8
M0
 62
     7
100
AcDbCircle
 10
72.519595
 20
329.428478
 40
1.0
100
AcDbArc
 50
90.0
 51
180.0
  0
ARC
  5
316
100
AcDbEntity
  8
M0
 62
     7
100
AcDbCircle
 10
62.719595
 20
367.828478
 40
1.0
100
AcDbArc
 50
270.0
 51
360.0
  0
LINE
  5
317
100
AcDbEntity
  8
M0
 62
     7
100
AcDbLine
 10
92.219595
 20
343.928478
 11
92.219595
 21
343.929729
  0
LINE
  5
318
100
AcDbEntity
  8
M0
 62
     7
100
AcDbLine
 10
53.119595
 20
343.929729
 11
53.119595
 21
343.928478
  0
LINE
  5
319
100
AcDbEntity
  8
M0
 62
     7
100
AcDbLine
 10
92.219595
 20
353.327227
 11
92.219595
 21
353.328478
  0
LINE
  5
31A
100
AcDbEntity
  8
M0
 62
     7
100
AcDbLine
 10
53.119595
 20
353.328478
 11
53.119595
 21
353.327227
  0
LINE
  5
31B
100
AcDbEntity
  8
M0
 62
     7
100
AcDbLine
 10
92.219595
 20
331.928478
 11
92.219595
 21
343.928478
  0
LINE
  5
31C
100
AcDbEntity
  8
M0
 62
     7
100
AcDbLine
 10
53.119595
 20
343.928478
 11
53.119595
 21
331.928478
  0
LINE
  5
31D
100
AcDbEntity
  8
M0
 62
     7
100
AcDbLine
 10
64.469595
 20
360.828478
 11
64.969595
 21
360.828478
  0
LINE
  5
31E
100
AcDbEntity
  8
M0
 62
     7
100
AcDbLine
 10
81.869595
 20
341.128478
 11
81.869595
 21
354.728478
  0
LINE
  5
31F
100
AcDbEntity
  8
M0
 62
     7
100
AcDbLine
 10
64.969595
 20
337.628478
 11
64.469595
 21
337.628478
  0
LINE
  5
320
100
AcDbEntity
  8
M0
 62
     7
100
AcDbLine
 10
53.119595
 20
365.328478
 11
53.119595
 21
353.328478
  0
LINE
  5
321
100
AcDbEntity
  8
M0
 62
     7
100
AcDbLine
 10
63.469595
 20
341.128478
 11
63.469595
 21
354.728478
  0
LINE
  5
322
100
AcDbEntity
  8
M0
 62
     7
100
AcDbLine
 10
92.219595
 20
353.328478
 11
92.219595
 21
365.328478
  0
LINE
  5
323
100
AcDbEntity
  8
M0
 62
     7
100
AcDbLine
 10
78.219595
 20
353.428478
 11
67.119595
 21
353.428478
  0
LINE
  5
324
100
AcDbEntity
  8
M0
 62
     7
100
AcDbLine
 10
80.369595
 20
360.828478
 11
80.869595
 21
360.828478
  0
LINE
  5
325
100
AcDbEntity
  8
M0
 62
     7
100
AcDbLine
 10
77.719595
 20
358.628478
 11
67.619595
 21
358.628478
  0
LINE
  5
326
100
AcDbEntity
  8
M0
 62
     7
100
AcDbLine
 10
80.369595
 20
337.628478
 11
80.869595
 21
337.628478
  0
ARC
  5
327
100
AcDbEntity
  8
M0
 62
     7
100
AcDbCircle
 10
52.169595
 20
353.328478
 40
1.0
100
AcDbArc
 50
180.0
 51
270.0
  0
ARC
  5
328
100
AcDbEntity
  8
M0
 62
     7
100
AcDbCircle
 10
93.219595
 20
353.327227
 40
1.0
100
AcDbArc
 50
180.0
 51
267.134016
  0
ARC
  5
329
100
AcDbEntity
  8
M0
 62
     7
100
AcDbCircle
 10
93.169595
 20
353.328478
 40
1.0
100
AcDbArc
 50
270.0
 51
360.0
  0
ARC
  5
32A
100
AcDbEntity
  8
M0
 62
     7
100
AcDbCircle
 10
93.169595
 20
376.428478
 40
1.0
100
AcDbArc
 50
0.0
 51
90.0
  0
ARC
  5
32B
100
AcDbEntity
  8
M0
 62
     7
100
AcDbCircle
 10
52.619595
 20
376.428478
 40
1.0
100
AcDbArc
 50
0.0
 51
90.0
  0
ARC
  5
32C
100
AcDbEntity
  8
M0
 62
     7
100
AcDbCircle
 10
92.719595
 20
376.428478
 40
1.0
100
AcDbArc
 50
90.0
 51
180.0
  0
ARC
  5
32D
100
AcDbEntity
  8
M0
 62
     7
100
AcDbCircle
 10
52.169595
 20
343.928478
 40
1.0
100
AcDbArc
 50
90.0
 51
180.0
  0
LINE
  5
32E
100
AcDbEntity
  8
M0
 62
     7
100
AcDbLine
 10
54.519595
 20
374.328478
 11
60.519595
 21
374.328478
  0
ARC
  5
32F
100
AcDbEntity
  8
M0
 62
     7
100
AcDbCircle
 10
93.169595
 20
343.928478
 40
1.0
100
AcDbArc
 50
0.0
 51
90.0
  0
ARC
  5
330
100
AcDbEntity
  8
M0
 62
     7
100
AcDbCircle
 10
93.219595
 20
343.929729
 40
1.0
100
AcDbArc
 50
92.865984
 51
180.0
  0
ARC
  5
331
100
AcDbEntity
  8
M0
 62
     7
100
AcDbCircle
 10
52.119595
 20
343.929729
 40
1.0
100
AcDbArc
 50
0.0
 51
87.134016
  0
LINE
  5
332
100
AcDbEntity
  8
M0
 62
     7
100
AcDbLine
 10
53.619595
 20
331.928478
 11
53.619595
 21
324.828478
  0
ARC
  5
333
100
AcDbEntity
  8
M0
 62
     7
100
AcDbCircle
 10
52.169595
 20
376.428478
 40
1.0
100
AcDbArc
 50
90.0
 51
180.0
  0
ARC
  5
334
100
AcDbEntity
  8
M0
 62
     7
100
AcDbCircle
 10
52.119595
 20
353.327227
 40
1.0
100
AcDbArc
 50
272.865984
 51
360.0
  0
ARC
  5
335
100
AcDbEntity
  8
M0
 62
     7
100
AcDbCircle
 10
78.719595
 20
338.128478
 40
0.5
100
AcDbArc
 50
180.0
 51
270.0
  0
LINE
  5
336
100
AcDbEntity
  8
M0
 62
     7
100
AcDbLine
 10
53.619595
 20
324.828478
 11
53.619595
 21
320.828478
  0
ARC
  5
337
100
AcDbEntity
  8
M0
 62
     7
100
AcDbCircle
 10
66.619595
 20
338.128478
 40
0.5
100
AcDbArc
 50
270.0
 51
360.0
  0
ARC
  5
338
100
AcDbEntity
  8
M0
 62
     7
100
AcDbCircle
 10
81.119595
 20
337.128478
 40
0.5
100
AcDbArc
 50
67.201593
 51
90.0
  0
ARC
  5
339
100
AcDbEntity
  8
M0
 62
     7
100
AcDbCircle
 10
81.119595
 20
361.328478
 40
0.5
100
AcDbArc
 50
270.0
 51
292.798407
  0
ARC
  5
33A
100
AcDbEntity
  8
M0
 62
     7
100
AcDbCircle
 10
64.219595
 20
337.128478
 40
0.5
100
AcDbArc
 50
90.0
 51
112.798407
  0
ARC
  5
33B
100
AcDbEntity
  8
M0
 62
     7
100
AcDbCircle
 10
52.169595
 20
320.828478
 40
1.0
100
AcDbArc
 50
180.0
 51
270.0
  0
ARC
  5
33C
100
AcDbEntity
  8
M0
 62
     7
100
AcDbCircle
 10
64.219595
 20
361.328478
 40
0.5
100
AcDbArc
 50
247.201593
 51
270.0
  0
ARC
  5
33D
100
AcDbEntity
  8
M0
 62
     7
100
AcDbCircle
 10
92.719595
 20
320.828478
 40
1.0
100
AcDbArc
 50
180.0
 51
270.0
  0
ARC
  5
33E
100
AcDbEntity
  8
M0
 62
     7
100
AcDbCircle
 10
82.919595
 20
379.828478
 40
1.0
100
AcDbArc
 50
0.0
 51
90.0
  0
ARC
  5
33F
100
AcDbEntity
  8
M0
 62
     7
100
AcDbCircle
 10
72.819595
 20
379.828478
 40
1.0
100
AcDbArc
 50
0.0
 51
90.0
  0
ARC
  5
340
100
AcDbEntity
  8
M0
 62
     7
100
AcDbCircle
 10
82.619595
 20
379.828478
 40
1.0
100
AcDbArc
 50
90.0
 51
180.0
  0
ARC
  5
341
100
AcDbEntity
  8
M0
 62
     7
100
AcDbCircle
 10
71.019595
 20
337.128478
 40
0.5
100
AcDbArc
 50
53.130102
 51
90.0
  0
ARC
  5
342
100
AcDbEntity
  8
M0
 62
     7
100
AcDbCircle
 10
62.419595
 20
379.828478
 40
1.0
100
AcDbArc
 50
90.0
 51
180.0
  0
LINE
  5
343
100
AcDbEntity
  8
M0
 62
     7
100
AcDbLine
 10
82.719595
 20
380.828478
 11
82.919595
 21
380.828478
  0
LINE
  5
344
100
AcDbEntity
  8
M0
 62
     7
100
AcDbLine
 10
82.619595
 20
380.828478
 11
82.719595
 21
380.828478
  0
ARC
  5
345
100
AcDbEntity
  8
M0
 62
     7
100
AcDbCircle
 10
93.169595
 20
320.828478
 40
1.0
100
AcDbArc
 50
270.0
 51
360.0
  0
ARC
  5
346
100
AcDbEntity
  8
M0
 62
     7
100
AcDbCircle
 10
74.319595
 20
337.128478
 40
0.5
100
AcDbArc
 50
90.0
 51
126.869898
  0
ARC
  5
347
100
AcDbEntity
  8
M0
 62
     7
100
AcDbCircle
 10
52.619595
 20
320.828478
 40
1.0
100
AcDbArc
 50
270.0
 51
360.0
  0
LINE
  5
348
100
AcDbEntity
  8
M0
 62
     7
100
AcDbLine
 10
71.519595
 20
365.328478
 11
71.519595
 21
379.828478
  0
LINE
  5
349
100
AcDbEntity
  8
M0
 62
     7
100
AcDbLine
 10
62.419595
 20
380.828478
 11
62.619595
 21
380.828478
  0
LINE
  5
34A
100
AcDbEntity
  8
M0
 62
     7
100
AcDbLine
 10
63.719595
 20
379.828478
 11
63.719595
 21
376.828478
  0
LINE
  5
34B
100
AcDbEntity
  8
M0
 62
     7
100
AcDbLine
 10
92.719595
 20
377.428478
 11
93.169595
 21
377.428478
  0
LINE
  5
34C
100
AcDbEntity
  8
M0
 62
     7
100
AcDbLine
 10
53.619595
 20
376.428478
 11
53.619595
 21
372.428478
  0
LINE
  5
34D
100
AcDbEntity
  8
M0
 62
     7
100
AcDbLine
 10
92.219595
 20
365.328478
 11
53.119595
 21
365.328478
  0
LINE
  5
34E
100
AcDbEntity
  8
M0
 62
     7
100
AcDbLine
 10
78.219595
 20
342.328478
 11
67.119595
 21
342.328478
  0
LINE
  5
34F
100
AcDbEntity
  8
M0
 62
     7
100
AcDbLine
 10
67.119595
 20
339.128478
 11
78.219595
 21
339.128478
  0
LINE
  5
350
100
AcDbEntity
  8
M0
 62
     7
100
AcDbLine
 10
67.119595
 20
343.728478
 11
78.219595
 21
343.728478
  0
ARC
  5
351
100
AcDbEntity
  8
M0
 62
     7
100
AcDbCircle
 10
72.519595
 20
379.828478
 40
1.0
100
AcDbArc
 50
90.0
 51
180.0
  0
LINE
  5
352
100
AcDbEntity
  8
M0
 62
     7
100
AcDbLine
 10
64.469595
 20
337.628478
 11
66.619595
 21
337.628478
  0
ARC
  5
353
100
AcDbEntity
  8
M0
 62
     7
100
AcDbCircle
 10
62.719595
 20
379.828478
 40
1.0
100
AcDbArc
 50
0.0
 51
90.0
  0
LINE
  5
354
100
AcDbEntity
  8
M0
 62
     7
100
AcDbLine
 10
53.619595
 20
372.428478
 11
53.619595
 21
365.328478
  0
LINE
  5
355
100
AcDbEntity
  8
M0
 62
     7
100
AcDbLine
 10
52.169595
 20
377.428478
 11
52.619595
 21
377.428478
  0
LINE
  5
356
100
AcDbEntity
  8
M0
 62
     7
100
AcDbLine
 10
78.719595
 20
337.628478
 11
66.619595
 21
337.628478
  0
LINE
  5
357
100
AcDbEntity
  8
M0
 62
     7
100
AcDbLine
 10
67.369595
 20
383.445145
 11
67.369595
 21
390.528478
  0
LINE
  5
358
100
AcDbEntity
  8
M0
 62
     7
100
AcDbLine
 10
77.969595
 20
390.528478
 11
77.969595
 21
383.445145
  0
LINE
  5
359
100
AcDbEntity
  8
M0
 62
     7
100
AcDbLine
 10
61.419595
 20
379.428478
 11
55.669595
 21
379.428478
  0
LINE
  5
35A
100
AcDbEntity
  8
M0
 62
     7
100
AcDbLine
 10
68.369595
 20
391.528478
 11
76.969595
 21
391.528478
  0
LINE
  5
35B
100
AcDbEntity
  8
M0
 62
     7
100
AcDbLine
 10
55.669595
 20
392.428478
 11
55.669595
 21
374.328478
  0
LINE
  5
35C
100
AcDbEntity
  8
M0
 62
     7
100
AcDbLine
 10
71.519595
 20
344.528478
 11
71.519595
 21
345.028478
  0
LINE
  5
35D
100
AcDbEntity
  8
M0
 62
     7
100
AcDbLine
 10
77.969595
 20
352.728478
 11
77.969595
 21
344.528478
  0
LINE
  5
35E
100
AcDbEntity
  8
M0
 62
     7
100
AcDbLine
 10
74.919595
 20
353.228478
 11
77.469595
 21
353.228478
  0
LINE
  5
35F
100
AcDbEntity
  8
M0
 62
     7
100
AcDbLine
 10
70.419595
 20
353.228478
 11
67.869595
 21
353.228478
  0
LINE
  5
360
100
AcDbEntity
  8
M0
 62
     7
100
AcDbLine
 10
68.369595
 20
383.028478
 11
76.969595
 21
383.028478
  0
LINE
  5
361
100
AcDbEntity
  8
M0
 62
     7
100
AcDbLine
 10
67.369595
 20
381.528478
 11
67.369595
 21
383.445145
  0
LINE
  5
362
100
AcDbEntity
  8
M0
 62
     7
100
AcDbLine
 10
67.369595
 20
381.528478
 11
77.969595
 21
381.528478
  0
LINE
  5
363
100
AcDbEntity
  8
M0
 62
     7
100
AcDbLine
 10
69.519595
 20
319.628478
 11
65.719595
 21
319.628478
  0
LINE
  5
364
100
AcDbEntity
  8
M0
 62
     7
100
AcDbLine
 10
81.619595
 20
317.628478
 11
73.819595
 21
317.628478
  0
LINE
  5
365
100
AcDbEntity
  8
M0
 62
     7
100
AcDbLine
 10
73.819595
 20
379.428478
 11
81.619595
 21
379.428478
  0
LINE
  5
366
100
AcDbEntity
  8
M0
 62
     7
100
AcDbLine
 10
89.669595
 20
379.428478
 11
83.919595
 21
379.428478
  0
LINE
  5
367
100
AcDbEntity
  8
M0
 62
     7
100
AcDbLine
 10
89.669595
 20
374.328478
 11
89.669595
 21
379.428478
  0
LINE
  5
368
100
AcDbEntity
  8
M0
 62
     7
100
AcDbLine
 10
67.369595
 20
381.528478
 11
67.369595
 21
379.428478
  0
LINE
  5
369
100
AcDbEntity
  8
M0
 62
     7
100
AcDbLine
 10
77.969595
 20
379.428478
 11
77.969595
 21
381.528478
  0
LINE
  5
36A
100
AcDbEntity
  8
M0
 62
     7
100
AcDbLine
 10
77.969595
 20
381.528478
 11
77.969595
 21
383.445145
  0
ARC
  5
36B
100
AcDbEntity
  8
M0
 62
     7
100
AcDbCircle
 10
69.519595
 20
317.628478
 40
2.0
100
AcDbArc
 50
0.0
 51
90.0
  0
ARC
  5
36C
100
AcDbEntity
  8
M0
 62
     7
100
AcDbCircle
 10
65.719595
 20
317.628478
 40
2.0
100
AcDbArc
 50
90.0
 51
180.0
  0
ARC
  5
36D
100
AcDbEntity
  8
M0
 62
     7
100
AcDbCircle
 10
62.719595
 20
314.128478
 40
1.0
100
AcDbArc
 50
270.0
 51
360.0
  0
ARC
  5
36E
100
AcDbEntity
  8
M0
 62
     7
100
AcDbCircle
 10
72.819595
 20
314.128478
 40
1.0
100
AcDbArc
 50
270.0
 51
360.0
  0
ARC
  5
36F
100
AcDbEntity
  8
M0
 62
     7
100
AcDbCircle
 10
62.419595
 20
314.128478
 40
1.0
100
AcDbArc
 50
180.0
 51
270.0
  0
ARC
  5
370
100
AcDbEntity
  8
M0
 62
     7
100
AcDbCircle
 10
72.519595
 20
314.128478
 40
1.0
100
AcDbArc
 50
180.0
 51
270.0
  0
ARC
  5
371
100
AcDbEntity
  8
M0
 62
     7
100
AcDbCircle
 10
74.919595
 20
352.728478
 40
0.5
100
AcDbArc
 50
90.0
 51
180.0
  0
ARC
  5
372
100
AcDbEntity
  8
M0
 62
     7
100
AcDbCircle
 10
70.419595
 20
352.728478
 40
0.5
100
AcDbArc
 50
0.0
 51
90.0
  0
ARC
  5
373
100
AcDbEntity
  8
M0
 62
     7
100
AcDbCircle
 10
77.469595
 20
352.728478
 40
0.5
100
AcDbArc
 50
0.0
 51
90.0
  0
ARC
  5
374
100
AcDbEntity
  8
M0
 62
     7
100
AcDbCircle
 10
76.969595
 20
390.528478
 40
1.0
100
AcDbArc
 50
0.0
 51
90.0
  0
ARC
  5
375
100
AcDbEntity
  8
M0
 62
     7
100
AcDbCircle
 10
67.869595
 20
352.728478
 40
0.5
100
AcDbArc
 50
90.0
 51
180.0
  0
LINE
  5
376
100
AcDbEntity
  8
M0
 62
     7
100
AcDbLine
 10
73.819595
 20
345.528478
 11
73.919595
 21
345.528478
  0
LINE
  5
377
100
AcDbEntity
  8
M0
 62
     7
100
AcDbLine
 10
73.819595
 20
345.028478
 11
73.819595
 21
345.528478
  0
LINE
  5
378
100
AcDbEntity
  8
M0
 62
     7
100
AcDbLine
 10
67.369595
 20
352.728478
 11
67.369595
 21
344.528478
  0
LINE
  5
379
100
AcDbEntity
  8
M0
 62
     7
100
AcDbLine
 10
74.419595
 20
346.028478
 11
74.419595
 21
352.728478
  0
LINE
  5
37A
100
AcDbEntity
  8
M0
 62
     7
100
AcDbLine
 10
73.819595
 20
344.528478
 11
73.819595
 21
345.028478
  0
LINE
  5
37B
100
AcDbEntity
  8
M0
 62
     7
100
AcDbLine
 10
70.919595
 20
346.028478
 11
70.919595
 21
352.728478
  0
ARC
  5
37C
100
AcDbEntity
  8
M0
 62
     7
100
AcDbCircle
 10
68.369595
 20
390.528478
 40
1.0
100
AcDbArc
 50
90.0
 51
180.0
  0
LINE
  5
37D
100
AcDbEntity
  8
M0
 62
     7
100
AcDbLine
 10
77.469595
 20
344.028478
 11
74.319595
 21
344.028478
  0
LINE
  5
37E
100
AcDbEntity
  8
M0
 62
     7
100
AcDbLine
 10
71.519595
 20
345.028478
 11
71.519595
 21
345.528478
  0
LINE
  5
37F
100
AcDbEntity
  8
M0
 62
     7
100
AcDbLine
 10
67.869595
 20
344.028478
 11
71.019595
 21
344.028478
  0
LINE
  5
380
100
AcDbEntity
  8
M0
 62
     7
100
AcDbLine
 10
71.519595
 20
345.528478
 11
71.419595
 21
345.528478
  0
LINE
  5
381
100
AcDbEntity
  8
M0
 62
     7
100
AcDbLine
 10
71.519595
 20
352.228478
 11
71.519595
 21
353.428478
  0
LINE
  5
382
100
AcDbEntity
  8
M0
 62
     7
100
AcDbLine
 10
78.219595
 20
344.328478
 11
78.183737
 21
344.328478
  0
LINE
  5
383
100
AcDbEntity
  8
M0
 62
     7
100
AcDbLine
 10
67.436582
 20
352.978478
 11
67.432631
 21
352.971493
  0
LINE
  5
384
100
AcDbEntity
  8
M0
 62
     7
100
AcDbLine
 10
67.119595
 20
344.328478
 11
67.155452
 21
344.328478
  0
LINE
  5
385
100
AcDbEntity
  8
M0
 62
     7
100
AcDbLine
 10
72.019595
 20
350.028478
 11
73.319595
 21
350.028478
  0
LINE
  5
386
100
AcDbEntity
  8
M0
 62
     7
100
AcDbLine
 10
73.819595
 20
343.728478
 11
73.819595
 21
344.528478
  0
LINE
  5
387
100
AcDbEntity
  8
M0
 62
     7
100
AcDbLine
 10
71.519595
 20
343.728478
 11
71.519595
 21
344.528478
  0
LINE
  5
388
100
AcDbEntity
  8
M0
 62
     7
100
AcDbLine
 10
74.319595
 20
353.228478
 11
75.669595
 21
353.228478
  0
LINE
  5
389
100
AcDbEntity
  8
M0
 62
     7
100
AcDbLine
 10
71.019595
 20
353.228478
 11
69.669595
 21
353.228478
  0
LINE
  5
38A
100
AcDbEntity
  8
M0
 62
     7
100
AcDbLine
 10
73.819595
 20
345.528478
 11
73.819595
 21
346.028478
  0
LINE
  5
38B
100
AcDbEntity
  8
M0
 62
     7
100
AcDbLine
 10
76.669595
 20
353.228478
 11
75.669595
 21
353.228478
  0
LINE
  5
38C
100
AcDbEntity
  8
M0
 62
     7
100
AcDbLine
 10
71.519595
 20
345.528478
 11
71.519595
 21
346.028478
  0
LINE
  5
38D
100
AcDbEntity
  8
M0
 62
     7
100
AcDbLine
 10
68.669595
 20
353.228478
 11
69.669595
 21
353.228478
  0
LINE
  5
38E
100
AcDbEntity
  8
M0
 62
     7
100
AcDbLine
 10
71.519595
 20
346.528478
 11
71.519595
 21
346.028478
  0
LINE
  5
38F
100
AcDbEntity
  8
M0
 62
     7
100
AcDbLine
 10
73.819595
 20
352.228478
 11
73.819595
 21
353.428478
  0
LINE
  5
390
100
AcDbEntity
  8
M0
 62
     7
100
AcDbLine
 10
73.819595
 20
346.528478
 11
73.819595
 21
346.028478
  0
LINE
  5
391
100
AcDbEntity
  8
M0
 62
     7
100
AcDbLine
 10
71.519595
 20
350.528478
 11
71.519595
 21
352.728478
  0
LINE
  5
392
100
AcDbEntity
  8
M0
 62
     7
100
AcDbLine
 10
72.019595
 20
347.028478
 11
73.319595
 21
347.028478
  0
LINE
  5
393
100
AcDbEntity
  8
M0
 62
     7
100
AcDbLine
 10
73.819595
 20
350.528478
 11
73.819595
 21
352.728478
  0
LINE
  5
394
100
AcDbEntity
  8
M0
 62
     7
100
AcDbLine
 10
61.419595
 20
323.928478
 11
60.519595
 21
323.928478
  0
LINE
  5
395
100
AcDbEntity
  8
M0
 62
     7
100
AcDbLine
 10
71.519595
 20
314.128478
 11
71.519595
 21
331.928478
  0
LINE
  5
396
100
AcDbEntity
  8
M0
 62
     7
100
AcDbLine
 10
91.719595
 20
323.928478
 11
90.819595
 21
323.928478
  0
LINE
  5
397
100
AcDbEntity
  8
M0
 62
     7
100
AcDbLine
 10
54.519595
 20
323.928478
 11
53.619595
 21
323.928478
  0
LINE
  5
398
100
AcDbEntity
  8
M0
 62
     7
100
AcDbLine
 10
74.719595
 20
323.928478
 11
73.819595
 21
323.928478
  0
LINE
  5
399
100
AcDbEntity
  8
M0
 62
     7
100
AcDbLine
 10
72.519595
 20
313.128478
 11
72.819595
 21
313.128478
  0
LINE
  5
39A
100
AcDbEntity
  8
M0
 62
     7
100
AcDbLine
 10
63.719595
 20
379.428478
 11
71.519595
 21
379.428478
  0
LINE
  5
39B
100
AcDbEntity
  8
M0
 62
     7
100
AcDbLine
 10
62.419595
 20
313.128478
 11
62.719595
 21
313.128478
  0
LINE
  5
39C
100
AcDbEntity
  8
M0
 62
     7
100
AcDbLine
 10
61.419595
 20
314.128478
 11
61.419595
 21
331.928478
  0
LINE
  5
39D
100
AcDbEntity
  8
M0
 62
     7
100
AcDbLine
 10
63.719595
 20
331.928478
 11
63.719595
 21
314.128478
  0
ARC
  5
39E
100
AcDbEntity
  8
M0
 62
     7
100
AcDbCircle
 10
72.019595
 20
346.528478
 40
0.5
100
AcDbArc
 50
90.0
 51
180.0
  0
ARC
  5
39F
100
AcDbEntity
  8
M0
 62
     7
100
AcDbCircle
 10
73.319595
 20
350.528478
 40
0.5
100
AcDbArc
 50
270.0
 51
360.0
  0
ARC
  5
3A0
100
AcDbEntity
  8
M0
 62
     7
100
AcDbCircle
 10
73.319595
 20
346.528478
 40
0.5
100
AcDbArc
 50
0.0
 51
90.0
  0
ARC
  5
3A1
100
AcDbEntity
  8
M0
 62
     7
100
AcDbCircle
 10
71.019595
 20
352.728478
 40
0.5
100
AcDbArc
 50
0.0
 51
90.0
  0
ARC
  5
3A2
100
AcDbEntity
  8
M0
 62
     7
100
AcDbCircle
 10
74.319595
 20
352.728478
 40
0.5
100
AcDbArc
 50
90.0
 51
180.0
  0
ARC
  5
3A3
100
AcDbEntity
  8
M0
 62
     7
100
AcDbCircle
 10
74.319595
 20
344.528478
 40
0.5
100
AcDbArc
 50
180.0
 51
270.0
  0
LINE
  5
3A4
100
AcDbEntity
  8
M0
 62
     7
100
AcDbLine
 10
73.819595
 20
331.928478
 11
73.819595
 21
314.128478
  0
ARC
  5
3A5
100
AcDbEntity
  8
M0
 62
     7
100
AcDbCircle
 10
67.827629
 20
344.489645
 40
0.44285
100
AcDbArc
 50
206.131697
 51
224.639687
  0
LINE
  5
3A6
100
AcDbEntity
  8
M0
 62
     7
100
AcDbLine
 10
80.469595
 20
337.628478
 11
80.469595
 21
337.528478
  0
LINE
  5
3A7
100
AcDbEntity
  8
M0
 62
     7
100
AcDbLine
 10
82.819595
 20
316.428478
 11
82.919595
 21
316.428478
  0
LINE
  5
3A8
100
AcDbEntity
  8
M0
 62
     7
100
AcDbLine
 10
64.869595
 20
337.528478
 11
64.869595
 21
337.628478
  0
LINE
  5
3A9
100
AcDbEntity
  8
M0
 62
     7
100
AcDbLine
 10
70.619595
 20
373.328478
 11
71.519595
 21
373.328478
  0
LINE
  5
3AA
100
AcDbEntity
  8
M0
 62
     7
100
AcDbLine
 10
80.719595
 20
373.328478
 11
81.619595
 21
373.328478
  0
LINE
  5
3AB
100
AcDbEntity
  8
M0
 62
     7
100
AcDbLine
 10
73.819595
 20
373.328478
 11
74.719595
 21
373.328478
  0
LINE
  5
3AC
100
AcDbEntity
  8
M0
 62
     7
100
AcDbLine
 10
64.619595
 20
323.928478
 11
63.719595
 21
323.928478
  0
LINE
  5
3AD
100
AcDbEntity
  8
M0
 62
     7
100
AcDbLine
 10
84.819595
 20
323.928478
 11
83.919595
 21
323.928478
  0
LINE
  5
3AE
100
AcDbEntity
  8
M0
 62
     7
100
AcDbLine
 10
71.519595
 20
323.928478
 11
70.619595
 21
323.928478
  0
LINE
  5
3AF
100
AcDbEntity
  8
M0
 62
     7
100
AcDbLine
 10
74.969595
 20
337.528478
 11
74.969595
 21
337.628478
  0
LINE
  5
3B0
100
AcDbEntity
  8
M0
 62
     7
100
AcDbLine
 10
81.619595
 20
323.928478
 11
80.719595
 21
323.928478
  0
LINE
  5
3B1
100
AcDbEntity
  8
M0
 62
     7
100
AcDbLine
 10
80.469595
 20
360.928478
 11
80.469595
 21
360.828478
  0
LINE
  5
3B2
100
AcDbEntity
  8
M0
 62
     7
100
AcDbLine
 10
82.919595
 20
380.828478
 11
82.819595
 21
380.828478
  0
LINE
  5
3B3
100
AcDbEntity
  8
M0
 62
     7
100
AcDbLine
 10
62.519595
 20
380.828478
 11
62.419595
 21
380.828478
  0
LINE
  5
3B4
100
AcDbEntity
  8
M0
 62
     7
100
AcDbLine
 10
62.719595
 20
313.628478
 11
62.419595
 21
313.628478
  0
LINE
  5
3B5
100
AcDbEntity
  8
M0
 62
     7
100
AcDbLine
 10
64.869595
 20
360.828478
 11
64.869595
 21
360.928478
  0
LINE
  5
3B6
100
AcDbEntity
  8
M0
 62
     7
100
AcDbLine
 10
72.819595
 20
313.628478
 11
72.519595
 21
313.628478
  0
LINE
  5
3B7
100
AcDbEntity
  8
M0
 62
     7
100
AcDbLine
 10
83.919595
 20
373.328478
 11
84.819595
 21
373.328478
  0
LINE
  5
3B8
100
AcDbEntity
  8
M0
 62
     7
100
AcDbLine
 10
70.369595
 20
337.628478
 11
70.369595
 21
337.528478
  0
LINE
  5
3B9
100
AcDbEntity
  8
M0
 62
     7
100
AcDbLine
 10
90.819595
 20
373.328478
 11
91.719595
 21
373.328478
  0
LINE
  5
3BA
100
AcDbEntity
  8
M0
 62
     7
100
AcDbLine
 10
63.719595
 20
373.328478
 11
64.619595
 21
373.328478
  0
LINE
  5
3BB
100
AcDbEntity
  8
M0
 62
     7
100
AcDbLine
 10
53.619595
 20
373.328478
 11
54.519595
 21
373.328478
  0
LINE
  5
3BC
100
AcDbEntity
  8
M0
 62
     7
100
AcDbLine
 10
60.519595
 20
373.328478
 11
61.419595
 21
373.328478
  0
LINE
  5
3BD
100
AcDbEntity
  8
M0
 62
     7
100
AcDbLine
 10
63.719595
 20
376.828478
 11
63.719595
 21
367.828478
  0
LINE
  5
3BE
100
AcDbEntity
  8
M0
 62
     7
100
AcDbLine
 10
72.519595
 20
380.828478
 11
72.619595
 21
380.828478
  0
LINE
  5
3BF
100
AcDbEntity
  8
M0
 62
     7
100
AcDbLine
 10
82.619595
 20
330.428478
 11
82.919595
 21
330.428478
  0
LINE
  5
3C0
100
AcDbEntity
  8
M0
 62
     7
100
AcDbLine
 10
62.419595
 20
330.428478
 11
62.719595
 21
330.428478
  0
LINE
  5
3C1
100
AcDbEntity
  8
M0
 62
     7
100
AcDbLine
 10
82.919595
 20
366.828478
 11
82.619595
 21
366.828478
  0
LINE
  5
3C2
100
AcDbEntity
  8
M0
 62
     7
100
AcDbLine
 10
72.819595
 20
366.828478
 11
72.519595
 21
366.828478
  0
LINE
  5
3C3
100
AcDbEntity
  8
M0
 62
     7
100
AcDbLine
 10
62.719595
 20
366.828478
 11
62.419595
 21
366.828478
  0
ARC
  5
3C4
100
AcDbEntity
  8
M0
 62
     7
100
AcDbCircle
 10
72.819595
 20
314.628478
 40
1.0
100
AcDbArc
 50
270.0
 51
360.0
  0
ARC
  5
3C5
100
AcDbEntity
  8
M0
 62
     7
100
AcDbCircle
 10
72.519595
 20
314.628478
 40
1.0
100
AcDbArc
 50
180.0
 51
270.0
  0
ARC
  5
3C6
100
AcDbEntity
  8
M0
 62
     7
100
AcDbCircle
 10
72.819595
 20
346.128478
 40
0.5
100
AcDbArc
 50
0.0
 51
90.0
  0
ARC
  5
3C7
100
AcDbEntity
  8
M0
 62
     7
100
AcDbCircle
 10
72.819595
 20
351.128478
 40
0.5
100
AcDbArc
 50
270.0
 51
360.0
  0
ARC
  5
3C8
100
AcDbEntity
  8
M0
 62
     7
100
AcDbCircle
 10
72.519595
 20
346.128478
 40
0.5
100
AcDbArc
 50
90.0
 51
180.0
  0
ARC
  5
3C9
100
AcDbEntity
  8
M0
 62
     7
100
AcDbCircle
 10
72.519595
 20
351.128478
 40
0.5
100
AcDbArc
 50
180.0
 51
270.0
  0
LINE
  5
3CA
100
AcDbEntity
  8
M0
 62
     7
100
AcDbLine
 10
72.719595
 20
380.828478
 11
72.819595
 21
380.828478
  0
LINE
  5
3CB
100
AcDbEntity
  8
M0
 62
     7
100
AcDbLine
 10
61.419595
 20
367.828478
 11
61.419595
 21
376.828478
  0
LINE
  5
3CC
100
AcDbEntity
  8
M0
 62
     7
100
AcDbLine
 10
72.619595
 20
380.828478
 11
72.719595
 21
380.828478
  0
ARC
  5
3CD
100
AcDbEntity
  8
M0
 62
     7
100
AcDbCircle
 10
62.719595
 20
314.628478
 40
1.0
100
AcDbArc
 50
270.0
 51
360.0
  0
LINE
  5
3CE
100
AcDbEntity
  8
M0
 62
     7
100
AcDbLine
 10
62.619595
 20
380.828478
 11
62.719595
 21
380.828478
  0
ARC
  5
3CF
100
AcDbEntity
  8
M0
 62
     7
100
AcDbCircle
 10
62.419595
 20
314.628478
 40
1.0
100
AcDbArc
 50
180.0
 51
270.0
  0
LINE
  5
3D0
100
AcDbEntity
  8
M0
 62
     7
100
AcDbLine
 10
63.719595
 20
322.828478
 11
63.719595
 21
321.828478
  0
LINE
  5
3D1
100
AcDbEntity
  8
M0
 62
     7
100
AcDbLine
 10
53.619595
 20
321.828478
 11
53.619595
 21
322.828478
  0
LINE
  5
3D2
100
AcDbEntity
  8
M0
 62
     7
100
AcDbLine
 10
91.719595
 20
322.828478
 11
91.719595
 21
321.828478
  0
ARC
  5
3D3
100
AcDbEntity
  8
M0
 62
     7
100
AcDbCircle
 10
67.869595
 20
344.528478
 40
0.5
100
AcDbArc
 50
180.0
 51
270.0
  0
ARC
  5
3D4
100
AcDbEntity
  8
M0
 62
     7
100
AcDbCircle
 10
77.469595
 20
344.528478
 40
0.5
100
AcDbArc
 50
270.0
 51
360.0
  0
ARC
  5
3D5
100
AcDbEntity
  8
M0
 62
     7
100
AcDbCircle
 10
71.019595
 20
344.528478
 40
0.5
100
AcDbArc
 50
270.0
 51
360.0
  0
ARC
  5
3D6
100
AcDbEntity
  8
M0
 62
     7
100
AcDbCircle
 10
73.919595
 20
346.028478
 40
0.5
100
AcDbArc
 50
270.0
 51
360.0
  0
ARC
  5
3D7
100
AcDbEntity
  8
M0
 62
     7
100
AcDbCircle
 10
71.419595
 20
346.028478
 40
0.5
100
AcDbArc
 50
180.0
 51
270.0
  0
ARC
  5
3D8
100
AcDbEntity
  8
M0
 62
     7
100
AcDbCircle
 10
72.019595
 20
350.528478
 40
0.5
100
AcDbArc
 50
180.0
 51
270.0
  0
LINE
  5
3D9
100
AcDbEntity
  8
M0
 62
     7
100
AcDbLine
 10
53.619595
 20
374.428478
 11
53.619595
 21
375.428478
  0
ELLIPSE
  5
3DA
100
AcDbEntity
  8
M0
 62
     7
100
AcDbEllipse
 10
76.969595
 20
383.445145
 11
1.0
 21
0.0
210
0.0
220
0.0
230
1.0
 40
0.416667
 41
4.71238898038469
 42
6.283185307179586
  0
LINE
  5
3DB
100
AcDbEntity
  8
M0
 62
     7
100
AcDbLine
 10
63.719595
 20
374.428478
 11
63.719595
 21
375.428478
  0
ELLIPSE
  5
3DC
100
AcDbEntity
  8
M0
 62
     7
100
AcDbEllipse
 10
68.369595
 20
383.445145
 11
1.0
 21
0.0
210
0.0
220
0.0
230
1.0
 40
0.416667
 41
3.141592653589793
 42
4.71238898038469
  0
LINE
  5
3DD
100
AcDbEntity
  8
M0
 62
     7
100
AcDbLine
 10
92.919595
 20
377.428478
 11
92.719595
 21
377.428478
  0
LINE
  5
3DE
100
AcDbEntity
  8
M0
 62
     7
100
AcDbLine
 10
91.719595
 20
376.428478
 11
91.719595
 21
365.328478
  0
LINE
  5
3DF
100
AcDbEntity
  8
M0
 62
     7
100
AcDbLine
 10
92.919595
 20
319.828478
 11
92.719595
 21
319.828478
  0
LINE
  5
3E0
100
AcDbEntity
  8
M0
 62
     7
100
AcDbLine
 10
91.719595
 20
321.828478
 11
91.719595
 21
320.828478
  0
LINE
  5
3E1
100
AcDbEntity
  8
M0
 62
     7
100
AcDbLine
 10
53.619595
 20
320.828478
 11
53.619595
 21
321.828478
  0
LINE
  5
3E2
100
AcDbEntity
  8
M0
 62
     7
100
AcDbLine
 10
53.619595
 20
375.428478
 11
53.619595
 21
376.428478
  0
LINE
  5
3E3
100
AcDbEntity
  8
M0
 62
     7
100
AcDbLine
 10
52.419595
 20
319.828478
 11
52.619595
 21
319.828478
  0
LINE
  5
3E4
100
AcDbEntity
  8
M0
 62
     7
100
AcDbLine
 10
72.519595
 20
350.628478
 11
72.819595
 21
350.628478
  0
LINE
  5
3E5
100
AcDbEntity
  8
M0
 62
     7
100
AcDbLine
 10
63.719595
 20
375.428478
 11
63.719595
 21
379.828478
  0
LINE
  5
3E6
100
AcDbEntity
  8
M0
 62
     7
100
AcDbLine
 10
73.319595
 20
343.728478
 11
73.319595
 21
346.128478
  0
LINE
  5
3E7
100
AcDbEntity
  8
M0
 62
     7
100
AcDbLine
 10
52.419595
 20
377.428478
 11
52.619595
 21
377.428478
  0
LINE
  5
3E8
100
AcDbEntity
  8
M0
 62
     7
100
AcDbLine
 10
72.019595
 20
346.128478
 11
72.019595
 21
343.728478
  0
LINE
  5
3E9
100
AcDbEntity
  8
M0
 62
     7
100
AcDbLine
 10
72.019595
 20
353.428478
 11
72.019595
 21
351.128478
  0
LINE
  5
3EA
100
AcDbEntity
  8
M0
 62
     7
100
AcDbLine
 10
72.519595
 20
346.628478
 11
72.819595
 21
346.628478
  0
LINE
  5
3EB
100
AcDbEntity
  8
M0
 62
     7
100
AcDbLine
 10
73.319595
 20
351.128478
 11
73.319595
 21
353.428478
  0
LINE
  5
3EC
100
AcDbEntity
  8
M0
 62
     7
100
AcDbLine
 10
53.269595
 20
364.828478
 11
53.269595
 21
352.878478
  0
LINE
  5
3ED
100
AcDbEntity
  8
M0
 62
     7
100
AcDbLine
 10
80.969595
 20
337.528478
 11
64.369595
 21
337.528478
  0
LINE
  5
3EE
100
AcDbEntity
  8
M0
 62
     7
100
AcDbLine
 10
67.269595
 20
391.528478
 11
68.369595
 21
391.528478
  0
LINE
  5
3EF
100
AcDbEntity
  8
M0
 62
     7
100
AcDbLine
 10
76.969595
 20
391.528478
 11
78.069595
 21
391.528478
  0
LINE
  5
3F0
100
AcDbEntity
  8
M0
 62
     7
100
AcDbLine
 10
67.769595
 20
359.228478
 11
67.769595
 21
359.928478
  0
LINE
  5
3F1
100
AcDbEntity
  8
M0
 62
     7
100
AcDbLine
 10
66.769595
 20
360.928478
 11
64.369595
 21
360.928478
  0
LINE
  5
3F2
100
AcDbEntity
  8
M0
 62
     7
100
AcDbLine
 10
77.069595
 20
358.728478
 11
68.269595
 21
358.728478
  0
LINE
  5
3F3
100
AcDbEntity
  8
M0
 62
     7
100
AcDbLine
 10
78.569595
 20
360.928478
 11
80.969595
 21
360.928478
  0
LINE
  5
3F4
100
AcDbEntity
  8
M0
 62
     7
100
AcDbLine
 10
77.569595
 20
359.228478
 11
77.569595
 21
359.928478
  0
LINE
  5
3F5
100
AcDbEntity
  8
M0
 62
     7
100
AcDbLine
 10
81.969595
 20
338.528478
 11
81.969595
 21
359.928478
  0
ARC
  5
3F6
100
AcDbEntity
  8
M0
 62
     7
100
AcDbCircle
 10
64.369595
 20
359.928478
 40
1.0
100
AcDbArc
 50
90.0
 51
180.0
  0
ARC
  5
3F7
100
AcDbEntity
  8
M0
 62
     7
100
AcDbCircle
 10
66.769595
 20
359.928478
 40
1.0
100
AcDbArc
 50
0.0
 51
90.0
  0
ARC
  5
3F8
100
AcDbEntity
  8
M0
 62
     7
100
AcDbCircle
 10
77.069595
 20
359.228478
 40
0.5
100
AcDbArc
 50
270.0
 51
360.0
  0
ARC
  5
3F9
100
AcDbEntity
  8
M0
 62
     7
100
AcDbCircle
 10
68.269595
 20
359.228478
 40
0.5
100
AcDbArc
 50
180.0
 51
270.0
  0
ARC
  5
3FA
100
AcDbEntity
  8
M0
 62
     7
100
AcDbCircle
 10
78.569595
 20
359.928478
 40
1.0
100
AcDbArc
 50
90.0
 51
180.0
  0
ARC
  5
3FB
100
AcDbEntity
  8
M0
 62
     7
100
AcDbCircle
 10
78.569595
 20
392.528478
 40
0.5
100
AcDbArc
 50
90.0
 51
180.0
  0
ARC
  5
3FC
100
AcDbEntity
  8
M0
 62
     7
100
AcDbCircle
 10
66.769595
 20
392.528478
 40
0.5
100
AcDbArc
 50
0.0
 51
90.0
  0
ARC
  5
3FD
100
AcDbEntity
  8
M0
 62
     7
100
AcDbCircle
 10
78.569595
 20
392.028478
 40
1.0
100
AcDbArc
 50
0.0
 51
90.0
  0
ARC
  5
3FE
100
AcDbEntity
  8
M0
 62
     7
100
AcDbCircle
 10
66.769595
 20
392.028478
 40
1.0
100
AcDbArc
 50
90.0
 51
180.0
  0
ARC
  5
3FF
100
AcDbEntity
  8
M0
 62
     7
100
AcDbCircle
 10
80.969595
 20
359.928478
 40
1.0
100
AcDbArc
 50
0.0
 51
90.0
  0
ARC
  5
400
100
AcDbEntity
  8
M0
 62
     7
100
AcDbCircle
 10
80.969595
 20
338.528478
 40
1.0
100
AcDbArc
 50
270.0
 51
360.0
  0
ARC
  5
401
100
AcDbEntity
  8
M0
 62
     7
100
AcDbCircle
 10
53.769595
 20
364.828478
 40
0.5
100
AcDbArc
 50
90.0
 51
180.0
  0
ARC
  5
402
100
AcDbEntity
  8
M0
 62
     7
100
AcDbCircle
 10
64.369595
 20
338.528478
 40
1.0
100
AcDbArc
 50
180.0
 51
270.0
  0
ARC
  5
403
100
AcDbEntity
  8
M0
 62
     7
100
AcDbCircle
 10
56.169595
 20
345.378478
 40
0.5
100
AcDbArc
 50
270.0
 51
360.0
  0
ARC
  5
404
100
AcDbEntity
  8
M0
 62
     7
100
AcDbCircle
 10
53.769595
 20
344.378478
 40
0.5
100
AcDbArc
 50
90.0
 51
180.0
  0
ARC
  5
405
100
AcDbEntity
  8
M0
 62
     7
100
AcDbCircle
 10
89.169595
 20
351.878478
 40
0.5
100
AcDbArc
 50
90.0
 51
180.0
  0
ARC
  5
406
100
AcDbEntity
  8
M0
 62
     7
100
AcDbCircle
 10
56.169595
 20
351.878478
 40
0.5
100
AcDbArc
 50
0.0
 51
90.0
  0
ARC
  5
407
100
AcDbEntity
  8
M0
 62
     7
100
AcDbCircle
 10
91.569595
 20
352.878478
 40
0.5
100
AcDbArc
 50
270.0
 51
360.0
  0
ARC
  5
408
100
AcDbEntity
  8
M0
 62
     7
100
AcDbCircle
 10
53.769595
 20
352.878478
 40
0.5
100
AcDbArc
 50
180.0
 51
270.0
  0
ARC
  5
409
100
AcDbEntity
  8
M0
 62
     7
100
AcDbCircle
 10
75.219595
 20
337.128478
 40
0.5
100
AcDbArc
 50
53.130102
 51
90.0
  0
ARC
  5
40A
100
AcDbEntity
  8
M0
 62
     7
100
AcDbCircle
 10
80.219595
 20
337.128478
 40
0.5
100
AcDbArc
 50
90.0
 51
126.869898
  0
ARC
  5
40B
100
AcDbEntity
  8
M0
 62
     7
100
AcDbCircle
 10
91.569595
 20
332.428478
 40
0.5
100
AcDbArc
 50
270.0
 51
360.0
  0
ARC
  5
40C
100
AcDbEntity
  8
M0
 62
     7
100
AcDbCircle
 10
91.569595
 20
344.378478
 40
0.5
100
AcDbArc
 50
0.0
 51
90.0
  0
ARC
  5
40D
100
AcDbEntity
  8
M0
 62
     7
100
AcDbCircle
 10
53.769595
 20
332.428478
 40
0.5
100
AcDbArc
 50
180.0
 51
270.0
  0
LINE
  5
40E
100
AcDbEntity
  8
M0
 62
     7
100
AcDbLine
 10
74.719595
 20
322.928478
 11
74.719595
 21
323.928478
  0
LINE
  5
40F
100
AcDbEntity
  8
M0
 62
     7
100
AcDbLine
 10
80.719595
 20
323.928478
 11
80.719595
 21
322.928478
  0
LINE
  5
410
100
AcDbEntity
  8
M0
 62
     7
100
AcDbLine
 10
80.719595
 20
322.928478
 11
74.719595
 21
322.928478
  0
ARC
  5
411
100
AcDbEntity
  8
M0
 62
     7
100
AcDbCircle
 10
91.569595
 20
364.828478
 40
0.5
100
AcDbArc
 50
0.0
 51
90.0
  0
ARC
  5
412
100
AcDbEntity
  8
M0
 62
     7
100
AcDbCircle
 10
89.169595
 20
345.378478
 40
0.5
100
AcDbArc
 50
180.0
 51
270.0
  0
LINE
  5
413
100
AcDbEntity
  8
M0
 62
     7
100
AcDbLine
 10
83.919595
 20
379.528478
 11
89.669595
 21
379.528478
  0
LINE
  5
414
100
AcDbEntity
  8
M0
 62
     7
100
AcDbLine
 10
89.669595
 20
381.528478
 11
89.669595
 21
379.528478
  0
LINE
  5
415
100
AcDbEntity
  8
M0
 62
     7
100
AcDbLine
 10
78.069595
 20
379.528478
 11
81.619595
 21
379.528478
  0
LINE
  5
416
100
AcDbEntity
  8
M0
 62
     7
100
AcDbLine
 10
67.269595
 20
392.528478
 11
67.269595
 21
379.528478
  0
LINE
  5
417
100
AcDbEntity
  8
M0
 62
     7
100
AcDbLine
 10
63.719595
 20
379.528478
 11
67.269595
 21
379.528478
  0
LINE
  5
418
100
AcDbEntity
  8
M0
 62
     7
100
AcDbLine
 10
65.769595
 20
383.028478
 11
65.769595
 21
392.028478
  0
LINE
  5
419
100
AcDbEntity
  8
M0
 62
     7
100
AcDbLine
 10
79.569595
 20
392.028478
 11
79.569595
 21
383.028478
  0
LINE
  5
41A
100
AcDbEntity
  8
M0
 62
     7
100
AcDbLine
 10
67.269595
 20
383.028478
 11
55.669595
 21
383.028478
  0
LINE
  5
41B
100
AcDbEntity
  8
M0
 62
     7
100
AcDbLine
 10
67.269595
 20
381.528478
 11
55.669595
 21
381.528478
  0
LINE
  5
41C
100
AcDbEntity
  8
M0
 62
     7
100
AcDbLine
 10
55.669595
 20
379.528478
 11
61.419595
 21
379.528478
  0
LINE
  5
41D
100
AcDbEntity
  8
M0
 62
     7
100
AcDbLine
 10
78.069595
 20
379.528478
 11
78.069595
 21
392.528478
  0
LINE
  5
41E
100
AcDbEntity
  8
M0
 62
     7
100
AcDbLine
 10
89.669595
 20
383.028478
 11
89.669595
 21
381.528478
  0
LINE
  5
41F
100
AcDbEntity
  8
M0
 62
     7
100
AcDbLine
 10
89.669595
 20
381.528478
 11
78.069595
 21
381.528478
  0
LINE
  5
420
100
AcDbEntity
  8
M0
 62
     7
100
AcDbLine
 10
78.069595
 20
383.028478
 11
89.669595
 21
383.028478
  0
LINE
  5
421
100
AcDbEntity
  8
M0
 62
     7
100
AcDbLine
 10
87.069595
 20
391.528478
 11
79.569595
 21
391.528478
  0
ARC
  5
422
100
AcDbEntity
  8
M0
 62
     7
100
AcDbCircle
 10
78.219595
 20
353.928478
 40
0.5
100
AcDbArc
 50
180.0
 51
270.0
  0
ARC
  5
423
100
AcDbEntity
  8
M0
 62
     7
100
AcDbCircle
 10
67.119595
 20
353.928478
 40
0.5
100
AcDbArc
 50
270.0
 51
360.0
  0
ARC
  5
424
100
AcDbEntity
  8
M0
 62
     7
100
AcDbCircle
 10
78.919595
 20
359.628478
 40
1.2
100
AcDbArc
 50
90.0
 51
180.0
  0
ARC
  5
425
100
AcDbEntity
  8
M0
 62
     7
100
AcDbCircle
 10
66.419595
 20
359.628478
 40
1.2
100
AcDbArc
 50
0.0
 51
90.0
  0
ARC
  5
426
100
AcDbEntity
  8
M0
 62
     7
100
AcDbCircle
 10
64.469595
 20
359.828478
 40
1.0
100
AcDbArc
 50
90.0
 51
180.0
  0
ARC
  5
427
100
AcDbEntity
  8
M0
 62
     7
100
AcDbCircle
 10
80.869595
 20
359.828478
 40
1.0
100
AcDbArc
 50
0.0
 51
90.0
  0
ARC
  5
428
100
AcDbEntity
  8
M0
 62
     7
100
AcDbCircle
 10
80.869595
 20
338.628478
 40
1.0
100
AcDbArc
 50
270.0
 51
360.0
  0
ARC
  5
429
100
AcDbEntity
  8
M0
 62
     7
100
AcDbCircle
 10
64.469595
 20
341.128478
 40
1.0
100
AcDbArc
 50
90.0
 51
180.0
  0
ARC
  5
42A
100
AcDbEntity
  8
M0
 62
     7
100
AcDbCircle
 10
64.469595
 20
338.628478
 40
1.0
100
AcDbArc
 50
180.0
 51
270.0
  0
LINE
  5
42B
100
AcDbEntity
  8
M0
 62
     7
100
AcDbLine
 10
78.219595
 20
338.128478
 11
78.219595
 21
345.978478
  0
LINE
  5
42C
100
AcDbEntity
  8
M0
 62
     7
100
AcDbLine
 10
67.119595
 20
338.128478
 11
67.119595
 21
345.978478
  0
LINE
  5
42D
100
AcDbEntity
  8
M0
 62
     7
100
AcDbLine
 10
78.219595
 20
345.978478
 11
78.469595
 21
346.478478
  0
LINE
  5
42E
100
AcDbEntity
  8
M0
 62
     7
100
AcDbLine
 10
67.119595
 20
345.978478
 11
66.869595
 21
346.478478
  0
LINE
  5
42F
100
AcDbEntity
  8
M0
 62
     7
100
AcDbLine
 10
80.869595
 20
337.628478
 11
78.719595
 21
337.628478
  0
ARC
  5
430
100
AcDbEntity
  8
M0
 62
     7
100
AcDbCircle
 10
80.869595
 20
341.128478
 40
1.0
100
AcDbArc
 50
0.0
 51
90.0
  0
LINE
  5
431
100
AcDbEntity
  8
M0
 62
     7
100
AcDbLine
 10
81.869595
 20
341.128478
 11
81.869595
 21
338.628478
  0
LINE
  5
432
100
AcDbEntity
  8
M0
 62
     7
100
AcDbLine
 10
80.369595
 20
342.128478
 11
80.869595
 21
342.128478
  0
LINE
  5
433
100
AcDbEntity
  8
M0
 62
     7
100
AcDbLine
 10
63.469595
 20
341.128478
 11
63.469595
 21
338.628478
  0
LINE
  5
434
100
AcDbEntity
  8
M0
 62
     7
100
AcDbLine
 10
64.969595
 20
342.128478
 11
64.469595
 21
342.128478
  0
LINE
  5
435
100
AcDbEntity
  8
M0
 62
     7
100
AcDbLine
 10
90.819595
 20
323.978478
 11
90.819595
 21
322.928478
  0
LINE
  5
436
100
AcDbEntity
  8
M0
 62
     7
100
AcDbLine
 10
90.819595
 20
322.928478
 11
84.819595
 21
322.928478
  0
LINE
  5
437
100
AcDbEntity
  8
M0
 62
     7
100
AcDbLine
 10
64.619595
 20
322.928478
 11
64.619595
 21
323.978478
  0
LINE
  5
438
100
AcDbEntity
  8
M0
 62
     7
100
AcDbLine
 10
70.619595
 20
322.928478
 11
64.619595
 21
322.928478
  0
LINE
  5
439
100
AcDbEntity
  8
M0
 62
     7
100
AcDbLine
 10
70.619595
 20
323.928478
 11
70.619595
 21
322.928478
  0
LINE
  5
43A
100
AcDbEntity
  8
M0
 62
     7
100
AcDbLine
 10
84.819595
 20
322.928478
 11
84.819595
 21
323.978478
  0
LINE
  5
43B
100
AcDbEntity
  8
M0
 62
     7
100
AcDbLine
 10
74.719595
 20
373.278478
 11
74.719595
 21
374.328478
  0
LINE
  5
43C
100
AcDbEntity
  8
M0
 62
     7
100
AcDbLine
 10
64.469595
 20
360.828478
 11
66.419595
 21
360.828478
  0
LINE
  5
43D
100
AcDbEntity
  8
M0
 62
     7
100
AcDbLine
 10
80.719595
 20
374.328478
 11
80.719595
 21
373.278478
  0
LINE
  5
43E
100
AcDbEntity
  8
M0
 62
     7
100
AcDbLine
 10
79.719595
 20
360.828478
 11
79.719595
 21
360.928478
  0
LINE
  5
43F
100
AcDbEntity
  8
M0
 62
     7
100
AcDbLine
 10
74.719595
 20
374.328478
 11
80.719595
 21
374.328478
  0
LINE
  5
440
100
AcDbEntity
  8
M0
 62
     7
100
AcDbLine
 10
63.469595
 20
359.828478
 11
63.469595
 21
354.728478
  0
LINE
  5
441
100
AcDbEntity
  8
M0
 62
     7
100
AcDbLine
 10
81.869595
 20
359.828478
 11
81.869595
 21
354.728478
  0
LINE
  5
442
100
AcDbEntity
  8
M0
 62
     7
100
AcDbLine
 10
67.619595
 20
353.928478
 11
67.619595
 21
359.628478
  0
LINE
  5
443
100
AcDbEntity
  8
M0
 62
     7
100
AcDbLine
 10
60.519595
 20
374.328478
 11
60.519595
 21
373.278478
  0
LINE
  5
444
100
AcDbEntity
  8
M0
 62
     7
100
AcDbLine
 10
54.519595
 20
373.278478
 11
54.519595
 21
374.328478
  0
LINE
  5
445
100
AcDbEntity
  8
M0
 62
     7
100
AcDbLine
 10
78.919595
 20
360.828478
 11
80.869595
 21
360.828478
  0
LINE
  5
446
100
AcDbEntity
  8
M0
 62
     7
100
AcDbLine
 10
78.469595
 20
351.978478
 11
78.219595
 21
352.478478
  0
LINE
  5
447
100
AcDbEntity
  8
M0
 62
     7
100
AcDbLine
 10
64.969595
 20
353.228478
 11
64.969595
 21
342.128478
  0
LINE
  5
448
100
AcDbEntity
  8
M0
 62
     7
100
AcDbLine
 10
80.369595
 20
353.228478
 11
80.369595
 21
342.128478
  0
LINE
  5
449
100
AcDbEntity
  8
M0
 62
     7
100
AcDbLine
 10
66.869595
 20
346.478478
 11
66.869595
 21
351.978478
  0
LINE
  5
44A
100
AcDbEntity
  8
M0
 62
     7
100
AcDbLine
 10
78.469595
 20
346.478478
 11
78.469595
 21
351.978478
  0
LINE
  5
44B
100
AcDbEntity
  8
M0
 62
     7
100
AcDbLine
 10
63.469595
 20
354.728478
 11
64.969595
 21
353.228478
  0
LINE
  5
44C
100
AcDbEntity
  8
M0
 62
     7
100
AcDbLine
 10
81.869595
 20
354.728478
 11
80.369595
 21
353.228478
  0
LINE
  5
44D
100
AcDbEntity
  8
M0
 62
     7
100
AcDbLine
 10
77.719595
 20
353.928478
 11
77.719595
 21
359.628478
  0
LINE
  5
44E
100
AcDbEntity
  8
M0
 62
     7
100
AcDbLine
 10
66.869595
 20
351.978478
 11
67.119595
 21
352.478478
  0
LINE
  5
44F
100
AcDbEntity
  8
M0
 62
     7
100
AcDbLine
 10
67.119595
 20
352.478478
 11
67.119595
 21
353.428478
  0
LINE
  5
450
100
AcDbEntity
  8
M0
 62
     7
100
AcDbLine
 10
78.219595
 20
352.478478
 11
78.219595
 21
353.428478
  0
LINE
  5
451
100
AcDbEntity
  8
M0
 62
     7
100
AcDbLine
 10
92.069595
 20
332.428478
 11
92.069595
 21
344.378478
  0
LINE
  5
452
100
AcDbEntity
  8
M0
 62
     7
100
AcDbLine
 10
92.219595
 20
331.928478
 11
53.119595
 21
331.928478
  0
LINE
  5
453
100
AcDbEntity
  8
M0
 62
     7
100
AcDbLine
 10
89.169595
 20
344.878478
 11
91.569595
 21
344.878478
  0
LINE
  5
454
100
AcDbEntity
  8
M0
 62
     7
100
AcDbLine
 10
53.769595
 20
344.878478
 11
56.169595
 21
344.878478
  0
LINE
  5
455
100
AcDbEntity
  8
M0
 62
     7
100
AcDbLine
 10
53.269595
 20
332.428478
 11
53.269595
 21
344.378478
  0
LINE
  5
456
100
AcDbEntity
  8
M0
 62
     7
100
AcDbLine
 10
88.669595
 20
351.878478
 11
88.669595
 21
345.378478
  0
LINE
  5
457
100
AcDbEntity
  8
M0
 62
     7
100
AcDbLine
 10
91.569595
 20
365.328478
 11
91.719595
 21
365.328478
  0
LINE
  5
458
100
AcDbEntity
  8
M0
 62
     7
100
AcDbLine
 10
53.769595
 20
365.328478
 11
53.619595
 21
365.328478
  0
LINE
  5
459
100
AcDbEntity
  8
M0
 62
     7
100
AcDbLine
 10
75.669595
 20
362.228478
 11
69.669595
 21
362.228478
  0
LINE
  5
45A
100
AcDbEntity
  8
M0
 62
     7
100
AcDbLine
 10
69.669595
 20
362.228478
 11
69.669595
 21
360.628478
  0
LINE
  5
45B
100
AcDbEntity
  8
M0
 62
     7
100
AcDbLine
 10
75.669595
 20
360.628478
 11
75.669595
 21
362.228478
  0
ARC
  5
45C
100
AcDbEntity
  8
M0
 62
     7
100
AcDbCircle
 10
70.119595
 20
337.128478
 40
0.5
100
AcDbArc
 50
90.0
 51
126.869898
  0
LINE
  5
45D
100
AcDbEntity
  8
M0
 62
     7
100
AcDbLine
 10
63.369595
 20
338.528478
 11
63.369595
 21
359.928478
  0
ARC
  5
45E
100
AcDbEntity
  8
M0
 62
     7
100
AcDbCircle
 10
65.119595
 20
337.128478
 40
0.5
100
AcDbArc
 50
53.130102
 51
90.0
  0
LINE
  5
45F
100
AcDbEntity
  8
M0
 62
     7
100
AcDbLine
 10
91.569595
 20
352.378478
 11
89.169595
 21
352.378478
  0
LINE
  5
460
100
AcDbEntity
  8
M0
 62
     7
100
AcDbLine
 10
56.669595
 20
345.378478
 11
56.669595
 21
351.878478
  0
LINE
  5
461
100
AcDbEntity
  8
M0
 62
     7
100
AcDbLine
 10
92.069595
 20
364.828478
 11
92.069595
 21
352.878478
  0
LINE
  5
462
100
AcDbEntity
  8
M0
 62
     7
100
AcDbLine
 10
56.169595
 20
352.378478
 11
53.769595
 21
352.378478
  0
LINE
  5
463
100
AcDbEntity
  8
M0
 62
     7
100
AcDbLine
 10
69.669595
 20
360.628478
 11
75.669595
 21
360.628478
  0
LINE
  5
464
100
AcDbEntity
  8
M0
 62
     7
100
AcDbLine
 10
91.569595
 20
331.928478
 11
91.719595
 21
331.928478
  0
LINE
  5
465
100
AcDbEntity
  8
M0
 62
     7
100
AcDbLine
 10
53.769595
 20
331.928478
 11
53.619595
 21
331.928478
  0
LINE
  5
466
100
AcDbEntity
  8
M0
 62
     7
100
AcDbLine
 10
92.116963
 20
357.378478
 11
92.069595
 21
357.378478
  0
LINE
  5
467
100
AcDbEntity
  8
M0
 62
     7
100
AcDbLine
 10
53.222226
 20
357.378478
 11
53.269595
 21
357.378478
  0
LINE
  5
468
100
AcDbEntity
  8
M0
 62
     7
100
AcDbLine
 10
92.116963
 20
354.878478
 11
92.069595
 21
354.878478
  0
LINE
  5
469
100
AcDbEntity
  8
M0
 62
     7
100
AcDbLine
 10
53.222226
 20
354.878478
 11
53.269595
 21
354.878478
  0
LINE
  5
46A
100
AcDbEntity
  8
M0
 62
     7
100
AcDbLine
 10
60.519595
 20
322.928478
 11
54.519595
 21
322.928478
  0
LINE
  5
46B
100
AcDbEntity
  8
M0
 62
     7
100
AcDbLine
 10
54.519595
 20
322.928478
 11
54.519595
 21
323.978478
  0
LINE
  5
46C
100
AcDbEntity
  8
M0
 62
     7
100
AcDbLine
 10
60.519595
 20
323.978478
 11
60.519595
 21
322.928478
  0
LINE
  5
46D
100
AcDbEntity
  8
M0
 62
     7
100
AcDbLine
 10
65.619595
 20
360.928478
 11
65.619595
 21
360.828478
  0
LINE
  5
46E
100
AcDbEntity
  8
M0
 62
     7
100
AcDbLine
 10
64.619595
 20
373.278478
 11
64.619595
 21
374.328478
  0
LINE
  5
46F
100
AcDbEntity
  8
M0
 62
     7
100
AcDbLine
 10
64.619595
 20
374.328478
 11
70.619595
 21
374.328478
  0
LINE
  5
470
100
AcDbEntity
  8
M0
 62
     7
100
AcDbLine
 10
70.619595
 20
374.328478
 11
70.619595
 21
373.278478
  0
LINE
  5
471
100
AcDbEntity
  8
M0
 62
     7
100
AcDbLine
 10
84.819595
 20
373.328478
 11
84.819595
 21
374.328478
  0
LINE
  5
472
100
AcDbEntity
  8
M0
 62
     7
100
AcDbLine
 10
90.819595
 20
374.328478
 11
90.819595
 21
373.328478
  0
LINE
  5
473
100
AcDbEntity
  8
M0
 62
     7
100
AcDbLine
 10
84.819595
 20
374.328478
 11
90.819595
 21
374.328478
  0
LINE
  5
474
100
AcDbEntity
  8
M0
  6
DASHDOT
 62
     7
100
AcDbLine
 10
72.669595
 20
309.74838
 11
72.669595
 21
394.850486
  0
LINE
  5
475
100
AcDbEntity
  8
M0
  6
DASHDOT
 62
     7
100
AcDbLine
 10
83.919595
 20
322.528478
 11
92.419595
 21
322.528478
  0
LINE
  5
476
100
AcDbEntity
  8
M0
  6
DASHDOT
 62
     7
100
AcDbLine
 10
88.169595
 20
318.278478
 11
88.169595
 21
326.778478
  0
LINE
  5
477
100
AcDbEntity
  8
M0
  6
DASHDOT
 62
     7
100
AcDbLine
 10
67.119595
 20
316.128478
 11
68.119595
 21
316.128478
  0
LINE
  5
478
100
AcDbEntity
  8
M0
  6
DASHDOT
 62
     7
100
AcDbLine
 10
67.619595
 20
315.628478
 11
67.619595
 21
316.628478
  0
LINE
  5
479
100
AcDbEntity
  8
M0
  6
DASHDOT
 62
     7
100
AcDbLine
 10
67.119595
 20
327.728478
 11
68.119595
 21
327.728478
  0
LINE
  5
47A
100
AcDbEntity
  8
M0
  6
DASHDOT
 62
     7
100
AcDbLine
 10
67.619595
 20
327.228478
 11
67.619595
 21
328.228478
  0
LINE
  5
47B
100
AcDbEntity
  8
M0
  6
DASHDOT
 62
     7
100
AcDbLine
 10
77.219595
 20
327.728478
 11
78.219595
 21
327.728478
  0
LINE
  5
47C
100
AcDbEntity
  8
M0
  6
DASHDOT
 62
     7
100
AcDbLine
 10
77.719595
 20
327.228478
 11
77.719595
 21
328.228478
  0
LINE
  5
47D
100
AcDbEntity
  8
M0
  6
DASHDOT
 62
     7
100
AcDbLine
 10
87.319595
 20
327.728478
 11
88.319595
 21
327.728478
  0
LINE
  5
47E
100
AcDbEntity
  8
M0
  6
DASHDOT
 62
     7
100
AcDbLine
 10
87.819595
 20
327.228478
 11
87.819595
 21
328.228478
  0
LINE
  5
47F
100
AcDbEntity
  8
M0
  6
DASHDOT
 62
     7
100
AcDbLine
 10
87.319595
 20
369.528478
 11
88.319595
 21
369.528478
  0
LINE
  5
480
100
AcDbEntity
  8
M0
  6
DASHDOT
 62
     7
100
AcDbLine
 10
87.819595
 20
369.028478
 11
87.819595
 21
370.028478
  0
LINE
  5
481
100
AcDbEntity
  8
M0
  6
DASHDOT
 62
     7
100
AcDbLine
 10
77.219595
 20
369.528478
 11
78.219595
 21
369.528478
  0
LINE
  5
482
100
AcDbEntity
  8
M0
  6
DASHDOT
 62
     7
100
AcDbLine
 10
77.719595
 20
369.028478
 11
77.719595
 21
370.028478
  0
LINE
  5
483
100
AcDbEntity
  8
M0
  6
DASHDOT
 62
     7
100
AcDbLine
 10
67.119595
 20
369.528478
 11
68.119595
 21
369.528478
  0
LINE
  5
484
100
AcDbEntity
  8
M0
  6
DASHDOT
 62
     7
100
AcDbLine
 10
67.619595
 20
369.028478
 11
67.619595
 21
370.028478
  0
LINE
  5
485
100
AcDbEntity
  8
M0
  6
DASHDOT
 62
     7
100
AcDbLine
 10
57.019595
 20
369.528478
 11
58.019595
 21
369.528478
  0
LINE
  5
486
100
AcDbEntity
  8
M0
  6
DASHDOT
 62
     7
100
AcDbLine
 10
57.519595
 20
369.028478
 11
57.519595
 21
370.028478
  0
LINE
  5
487
100
AcDbEntity
  8
M0
  6
DASHDOT
 62
     7
100
AcDbLine
 10
61.269595
 20
387.128478
 11
62.269595
 21
387.128478
  0
LINE
  5
488
100
AcDbEntity
  8
M0
  6
DASHDOT
 62
     7
100
AcDbLine
 10
61.769595
 20
386.628478
 11
61.769595
 21
387.628478
  0
LINE
  5
489
100
AcDbEntity
  8
M0
  6
DASHDOT
 62
     7
100
AcDbLine
 10
83.069595
 20
387.128478
 11
84.069595
 21
387.128478
  0
LINE
  5
48A
100
AcDbEntity
  8
M0
  6
DASHDOT
 62
     7
100
AcDbLine
 10
83.569595
 20
386.628478
 11
83.569595
 21
387.628478
  0
LINE
  5
48B
100
AcDbEntity
  8
M0
  6
DASHDOT
 62
     7
100
AcDbLine
 10
57.019595
 20
327.728478
 11
58.019595
 21
327.728478
  0
LINE
  5
48C
100
AcDbEntity
  8
M0
  6
DASHDOT
 62
     7
100
AcDbLine
 10
57.519595
 20
327.228478
 11
57.519595
 21
328.228478
  0
LINE
  5
48D
100
AcDbEntity
  8
M0
  6
DASHDOT
 62
     7
100
AcDbLine
 10
72.169595
 20
386.728478
 11
73.169595
 21
386.728478
  0
LINE
  5
48E
100
AcDbEntity
  8
M0
 62
     7
100
AcDbLine
 10
72.219595
 20
385.528478
 11
73.119595
 21
385.528478
  0
LINE
  5
48F
100
AcDbEntity
  8
M0
 62
     7
100
AcDbLine
 10
72.219595
 20
386.278478
 11
72.219595
 21
385.528478
  0
LINE
  5
490
100
AcDbEntity
  8
M0
 62
     7
100
AcDbLine
 10
73.119595
 20
385.528478
 11
73.119595
 21
386.278478
  0
LINE
  5
491
100
AcDbEntity
  8
M0
  6
DASHDOT
 62
     7
100
AcDbLine
 10
72.169595
 20
386.728478
 11
73.169595
 21
386.728478
  0
LINE
  5
492
100
AcDbEntity
  8
M0
 62
     7
100
AcDbLine
 10
72.219595
 20
386.278478
 11
71.469595
 21
386.278478
  0
LINE
  5
493
100
AcDbEntity
  8
M0
 62
     7
100
AcDbLine
 10
71.469595
 20
387.178478
 11
72.219595
 21
387.178478
  0
LINE
  5
494
100
AcDbEntity
  8
M0
 62
     7
100
AcDbLine
 10
72.219595
 20
387.928478
 11
72.219595
 21
387.178478
  0
CIRCLE
  5
495
100
AcDbEntity
  8
M0
 62
     7
100
AcDbCircle
 10
72.669595
 20
386.728478
 40
2.85
  0
LINE
  5
496
100
AcDbEntity
  8
M0
 62
     7
100
AcDbLine
 10
73.119595
 20
387.928478
 11
72.219595
 21
387.928478
  0
LINE
  5
497
100
AcDbEntity
  8
M0
 62
     7
100
AcDbLine
 10
73.869595
 20
386.278478
 11
73.119595
 21
386.278478
  0
LINE
  5
498
100
AcDbEntity
  8
M0
 62
     7
100
AcDbLine
 10
73.119595
 20
387.178478
 11
73.119595
 21
387.928478
  0
LINE
  5
499
100
AcDbEntity
  8
M0
 62
     7
100
AcDbLine
 10
73.119595
 20
387.178478
 11
73.869595
 21
387.178478
  0
CIRCLE
  5
49A
100
AcDbEntity
  8
M0
 62
     7
100
AcDbCircle
 10
83.569595
 20
387.128478
 40
3.0
  0
CIRCLE
  5
49B
100
AcDbEntity
  8
M0
 62
     7
100
AcDbCircle
 10
87.819595
 20
369.528478
 40
3.0
  0
CIRCLE
  5
49C
100
AcDbEntity
  8
M0
 62
     7
100
AcDbCircle
 10
77.719595
 20
369.528478
 40
3.0
  0
CIRCLE
  5
49D
100
AcDbEntity
  8
M0
 62
     7
100
AcDbCircle
 10
67.619595
 20
369.528478
 40
3.0
  0
CIRCLE
  5
49E
100
AcDbEntity
  8
M0
 62
     7
100
AcDbCircle
 10
57.519595
 20
369.528478
 40
3.0
  0
CIRCLE
  5
49F
100
AcDbEntity
  8
M0
 62
     7
100
AcDbCircle
 10
77.719595
 20
327.728478
 40
3.0
  0
CIRCLE
  5
4A0
100
AcDbEntity
  8
M0
 62
     7
100
AcDbCircle
 10
57.519595
 20
327.728478
 40
3.0
  0
LINE
  5
4A1
100
AcDbEntity
  8
M0
 62
     7
100
AcDbLine
 10
145.069595
 20
332.428478
 11
145.069595
 21
344.378478
  0
LINE
  5
4A2
100
AcDbEntity
  8
M0
 62
     7
100
AcDbLine
 10
131.219595
 20
352.478478
 11
131.219595
 21
353.428478
  0
LINE
  5
4A3
100
AcDbEntity
  8
M0
 62
     7
100
AcDbLine
 10
142.169595
 20
344.878478
 11
144.569595
 21
344.878478
  0
LINE
  5
4A4
100
AcDbEntity
  8
M0
 62
     7
100
AcDbLine
 10
145.219595
 20
331.928478
 11
106.119595
 21
331.928478
  0
LINE
  5
4A5
100
AcDbEntity
  8
M0
 62
     7
100
AcDbLine
 10
106.769595
 20
344.878478
 11
109.169595
 21
344.878478
  0
LINE
  5
4A6
100
AcDbEntity
  8
M0
 62
     7
100
AcDbLine
 10
134.869595
 20
354.728478
 11
133.369595
 21
353.228478
  0
LINE
  5
4A7
100
AcDbEntity
  8
M0
 62
     7
100
AcDbLine
 10
116.469595
 20
354.728478
 11
117.969595
 21
353.228478
  0
LINE
  5
4A8
100
AcDbEntity
  8
M0
 62
     7
100
AcDbLine
 10
119.869595
 20
351.978478
 11
120.119595
 21
352.478478
  0
LINE
  5
4A9
100
AcDbEntity
  8
M0
 62
     7
100
AcDbLine
 10
130.719595
 20
353.928478
 11
130.719595
 21
359.628478
  0
LINE
  5
4AA
100
AcDbEntity
  8
M0
 62
     7
100
AcDbLine
 10
120.119595
 20
352.478478
 11
120.119595
 21
353.428478
  0
LINE
  5
4AB
100
AcDbEntity
  8
M0
 62
     7
100
AcDbLine
 10
128.669595
 20
360.628478
 11
128.669595
 21
362.228478
  0
LINE
  5
4AC
100
AcDbEntity
  8
M0
 62
     7
100
AcDbLine
 10
122.669595
 20
362.228478
 11
122.669595
 21
360.628478
  0
LINE
  5
4AD
100
AcDbEntity
  8
M0
 62
     7
100
AcDbLine
 10
144.569595
 20
352.378478
 11
142.169595
 21
352.378478
  0
LINE
  5
4AE
100
AcDbEntity
  8
M0
 62
     7
100
AcDbLine
 10
116.369595
 20
338.528478
 11
116.369595
 21
359.928478
  0
LINE
  5
4AF
100
AcDbEntity
  8
M0
 62
     7
100
AcDbLine
 10
109.669595
 20
345.378478
 11
109.669595
 21
351.878478
  0
LINE
  5
4B0
100
AcDbEntity
  8
M0
 62
     7
100
AcDbLine
 10
141.669595
 20
351.878478
 11
141.669595
 21
345.378478
  0
LINE
  5
4B1
100
AcDbEntity
  8
M0
 62
     7
100
AcDbLine
 10
106.269595
 20
332.428478
 11
106.269595
 21
344.378478
  0
LINE
  5
4B2
100
AcDbEntity
  8
M0
 62
     7
100
AcDbLine
 10
106.769595
 20
365.328478
 11
106.619595
 21
365.328478
  0
LINE
  5
4B3
100
AcDbEntity
  8
M0
 62
     7
100
AcDbLine
 10
144.569595
 20
365.328478
 11
144.719595
 21
365.328478
  0
LINE
  5
4B4
100
AcDbEntity
  8
M0
 62
     7
100
AcDbLine
 10
128.669595
 20
362.228478
 11
122.669595
 21
362.228478
  0
LINE
  5
4B5
100
AcDbEntity
  8
M0
 62
     7
100
AcDbLine
 10
133.719595
 20
374.328478
 11
133.719595
 21
373.278478
  0
LINE
  5
4B6
100
AcDbEntity
  8
M0
 62
     7
100
AcDbLine
 10
117.469595
 20
360.828478
 11
119.419595
 21
360.828478
  0
LINE
  5
4B7
100
AcDbEntity
  8
M0
 62
     7
100
AcDbLine
 10
127.719595
 20
374.328478
 11
133.719595
 21
374.328478
  0
LINE
  5
4B8
100
AcDbEntity
  8
M0
 62
     7
100
AcDbLine
 10
132.719595
 20
360.828478
 11
132.719595
 21
360.928478
  0
LINE
  5
4B9
100
AcDbEntity
  8
M0
 62
     7
100
AcDbLine
 10
116.469595
 20
359.828478
 11
116.469595
 21
354.728478
  0
LINE
  5
4BA
100
AcDbEntity
  8
M0
 62
     7
100
AcDbLine
 10
123.619595
 20
322.928478
 11
117.619595
 21
322.928478
  0
LINE
  5
4BB
100
AcDbEntity
  8
M0
 62
     7
100
AcDbLine
 10
117.619595
 20
322.928478
 11
117.619595
 21
323.978478
  0
LINE
  5
4BC
100
AcDbEntity
  8
M0
 62
     7
100
AcDbLine
 10
137.819595
 20
322.928478
 11
137.819595
 21
323.978478
  0
LINE
  5
4BD
100
AcDbEntity
  8
M0
 62
     7
100
AcDbLine
 10
123.619595
 20
323.928478
 11
123.619595
 21
322.928478
  0
LINE
  5
4BE
100
AcDbEntity
  8
M0
 62
     7
100
AcDbLine
 10
127.719595
 20
373.278478
 11
127.719595
 21
374.328478
  0
LINE
  5
4BF
100
AcDbEntity
  8
M0
 62
     7
100
AcDbLine
 10
117.969595
 20
353.228478
 11
117.969595
 21
342.128478
  0
LINE
  5
4C0
100
AcDbEntity
  8
M0
 62
     7
100
AcDbLine
 10
131.469595
 20
351.978478
 11
131.219595
 21
352.478478
  0
LINE
  5
4C1
100
AcDbEntity
  8
M0
 62
     7
100
AcDbLine
 10
119.869595
 20
346.478478
 11
119.869595
 21
351.978478
  0
LINE
  5
4C2
100
AcDbEntity
  8
M0
 62
     7
100
AcDbLine
 10
133.369595
 20
353.228478
 11
133.369595
 21
342.128478
  0
LINE
  5
4C3
100
AcDbEntity
  8
M0
 62
     7
100
AcDbLine
 10
131.469595
 20
346.478478
 11
131.469595
 21
351.978478
  0
LINE
  5
4C4
100
AcDbEntity
  8
M0
 62
     7
100
AcDbLine
 10
120.619595
 20
353.928478
 11
120.619595
 21
359.628478
  0
LINE
  5
4C5
100
AcDbEntity
  8
M0
 62
     7
100
AcDbLine
 10
134.869595
 20
359.828478
 11
134.869595
 21
354.728478
  0
LINE
  5
4C6
100
AcDbEntity
  8
M0
 62
     7
100
AcDbLine
 10
107.519595
 20
373.278478
 11
107.519595
 21
374.328478
  0
LINE
  5
4C7
100
AcDbEntity
  8
M0
 62
     7
100
AcDbLine
 10
113.519595
 20
374.328478
 11
113.519595
 21
373.278478
  0
LINE
  5
4C8
100
AcDbEntity
  8
M0
 62
     7
100
AcDbLine
 10
130.069595
 20
358.728478
 11
121.269595
 21
358.728478
  0
LINE
  5
4C9
100
AcDbEntity
  8
M0
 62
     7
100
AcDbLine
 10
119.769595
 20
360.928478
 11
117.369595
 21
360.928478
  0
LINE
  5
4CA
100
AcDbEntity
  8
M0
 62
     7
100
AcDbLine
 10
130.569595
 20
359.228478
 11
130.569595
 21
359.928478
  0
LINE
  5
4CB
100
AcDbEntity
  8
M0
 62
     7
100
AcDbLine
 10
131.569595
 20
360.928478
 11
133.969595
 21
360.928478
  0
LINE
  5
4CC
100
AcDbEntity
  8
M0
 62
     7
100
AcDbLine
 10
134.969595
 20
338.528478
 11
134.969595
 21
359.928478
  0
LINE
  5
4CD
100
AcDbEntity
  8
M0
 62
     7
100
AcDbLine
 10
133.969595
 20
337.528478
 11
117.369595
 21
337.528478
  0
LINE
  5
4CE
100
AcDbEntity
  8
M0
 62
     7
100
AcDbLine
 10
106.269595
 20
364.828478
 11
106.269595
 21
352.878478
  0
LINE
  5
4CF
100
AcDbEntity
  8
M0
 62
     7
100
AcDbLine
 10
129.969595
 20
391.528478
 11
131.069595
 21
391.528478
  0
LINE
  5
4D0
100
AcDbEntity
  8
M0
 62
     7
100
AcDbLine
 10
120.269595
 20
391.528478
 11
121.369595
 21
391.528478
  0
LINE
  5
4D1
100
AcDbEntity
  8
M0
 62
     7
100
AcDbLine
 10
120.769595
 20
359.228478
 11
120.769595
 21
359.928478
  0
LINE
  5
4D2
100
AcDbEntity
  8
M0
 62
     7
100
AcDbLine
 10
120.269595
 20
392.528478
 11
120.269595
 21
379.528478
  0
LINE
  5
4D3
100
AcDbEntity
  8
M0
 62
     7
100
AcDbLine
 10
131.069595
 20
379.528478
 11
134.619595
 21
379.528478
  0
LINE
  5
4D4
100
AcDbEntity
  8
M0
 62
     7
100
AcDbLine
 10
118.769595
 20
383.028478
 11
118.769595
 21
392.028478
  0
LINE
  5
4D5
100
AcDbEntity
  8
M0
 62
     7
100
AcDbLine
 10
116.719595
 20
379.528478
 11
120.269595
 21
379.528478
  0
LINE
  5
4D6
100
AcDbEntity
  8
M0
 62
     7
100
AcDbLine
 10
132.569595
 20
392.028478
 11
132.569595
 21
383.028478
  0
LINE
  5
4D7
100
AcDbEntity
  8
M0
 62
     7
100
AcDbLine
 10
133.719595
 20
323.928478
 11
133.719595
 21
322.928478
  0
LINE
  5
4D8
100
AcDbEntity
  8
M0
 62
     7
100
AcDbLine
 10
127.719595
 20
322.928478
 11
127.719595
 21
323.928478
  0
LINE
  5
4D9
100
AcDbEntity
  8
M0
 62
     7
100
AcDbLine
 10
136.919595
 20
379.528478
 11
142.669595
 21
379.528478
  0
LINE
  5
4DA
100
AcDbEntity
  8
M0
 62
     7
100
AcDbLine
 10
133.719595
 20
322.928478
 11
127.719595
 21
322.928478
  0
LINE
  5
4DB
100
AcDbEntity
  8
M0
 62
     7
100
AcDbLine
 10
142.669595
 20
381.528478
 11
142.669595
 21
379.528478
  0
LINE
  5
4DC
100
AcDbEntity
  8
M0
 62
     7
100
AcDbLine
 10
145.116963
 20
357.378478
 11
145.069595
 21
357.378478
  0
LINE
  5
4DD
100
AcDbEntity
  8
M0
 62
     7
100
AcDbLine
 10
106.769595
 20
331.928478
 11
106.619595
 21
331.928478
  0
LINE
  5
4DE
100
AcDbEntity
  8
M0
 62
     7
100
AcDbLine
 10
145.116963
 20
354.878478
 11
145.069595
 21
354.878478
  0
LINE
  5
4DF
100
AcDbEntity
  8
M0
 62
     7
100
AcDbLine
 10
106.222226
 20
357.378478
 11
106.269595
 21
357.378478
  0
LINE
  5
4E0
100
AcDbEntity
  8
M0
 62
     7
100
AcDbLine
 10
106.222226
 20
354.878478
 11
106.269595
 21
354.878478
  0
LINE
  5
4E1
100
AcDbEntity
  8
M0
 62
     7
100
AcDbLine
 10
145.069595
 20
364.828478
 11
145.069595
 21
352.878478
  0
LINE
  5
4E2
100
AcDbEntity
  8
M0
 62
     7
100
AcDbLine
 10
131.919595
 20
360.828478
 11
133.869595
 21
360.828478
  0
LINE
  5
4E3
100
AcDbEntity
  8
M0
 62
     7
100
AcDbLine
 10
122.669595
 20
360.628478
 11
128.669595
 21
360.628478
  0
LINE
  5
4E4
100
AcDbEntity
  8
M0
 62
     7
100
AcDbLine
 10
109.169595
 20
352.378478
 11
106.769595
 21
352.378478
  0
LINE
  5
4E5
100
AcDbEntity
  8
M0
 62
     7
100
AcDbLine
 10
144.569595
 20
331.928478
 11
144.719595
 21
331.928478
  0
ARC
  5
4E6
100
AcDbEntity
  8
M0
 62
     7
100
AcDbCircle
 10
117.469595
 20
338.628478
 40
1.0
100
AcDbArc
 50
180.0
 51
270.0
  0
ARC
  5
4E7
100
AcDbEntity
  8
M0
 62
     7
100
AcDbCircle
 10
117.469595
 20
341.128478
 40
1.0
100
AcDbArc
 50
90.0
 51
180.0
  0
ARC
  5
4E8
100
AcDbEntity
  8
M0
 62
     7
100
AcDbCircle
 10
123.119595
 20
337.128478
 40
0.5
100
AcDbArc
 50
90.0
 51
126.869898
  0
ARC
  5
4E9
100
AcDbEntity
  8
M0
 62
     7
100
AcDbCircle
 10
133.869595
 20
341.128478
 40
1.0
100
AcDbArc
 50
0.0
 51
90.0
  0
ARC
  5
4EA
100
AcDbEntity
  8
M0
 62
     7
100
AcDbCircle
 10
118.119595
 20
337.128478
 40
0.5
100
AcDbArc
 50
53.130102
 51
90.0
  0
LINE
  5
4EB
100
AcDbEntity
  8
M0
 62
     7
100
AcDbLine
 10
107.519595
 20
322.928478
 11
107.519595
 21
323.978478
  0
LINE
  5
4EC
100
AcDbEntity
  8
M0
 62
     7
100
AcDbLine
 10
113.519595
 20
322.928478
 11
107.519595
 21
322.928478
  0
ARC
  5
4ED
100
AcDbEntity
  8
M0
 62
     7
100
AcDbCircle
 10
133.869595
 20
359.828478
 40
1.0
100
AcDbArc
 50
0.0
 51
90.0
  0
LINE
  5
4EE
100
AcDbEntity
  8
M0
 62
     7
100
AcDbLine
 10
113.519595
 20
323.978478
 11
113.519595
 21
322.928478
  0
LINE
  5
4EF
100
AcDbEntity
  8
M0
 62
     7
100
AcDbLine
 10
124.519595
 20
346.528478
 11
124.519595
 21
346.028478
  0
LINE
  5
4F0
100
AcDbEntity
  8
M0
 62
     7
100
AcDbLine
 10
121.669595
 20
353.228478
 11
122.669595
 21
353.228478
  0
LINE
  5
4F1
100
AcDbEntity
  8
M0
 62
     7
100
AcDbLine
 10
126.819595
 20
346.528478
 11
126.819595
 21
346.028478
  0
LINE
  5
4F2
100
AcDbEntity
  8
M0
 62
     7
100
AcDbLine
 10
126.819595
 20
352.228478
 11
126.819595
 21
353.428478
  0
LINE
  5
4F3
100
AcDbEntity
  8
M0
 62
     7
100
AcDbLine
 10
124.519595
 20
350.528478
 11
124.519595
 21
352.728478
  0
LINE
  5
4F4
100
AcDbEntity
  8
M0
 62
     7
100
AcDbLine
 10
124.019595
 20
353.228478
 11
122.669595
 21
353.228478
  0
LINE
  5
4F5
100
AcDbEntity
  8
M0
 62
     7
100
AcDbLine
 10
127.319595
 20
353.228478
 11
128.669595
 21
353.228478
  0
LINE
  5
4F6
100
AcDbEntity
  8
M0
 62
     7
100
AcDbLine
 10
129.669595
 20
353.228478
 11
128.669595
 21
353.228478
  0
LINE
  5
4F7
100
AcDbEntity
  8
M0
 62
     7
100
AcDbLine
 10
126.819595
 20
345.528478
 11
126.819595
 21
346.028478
  0
LINE
  5
4F8
100
AcDbEntity
  8
M0
 62
     7
100
AcDbLine
 10
124.519595
 20
345.528478
 11
124.519595
 21
346.028478
  0
LINE
  5
4F9
100
AcDbEntity
  8
M0
 62
     7
100
AcDbLine
 10
127.719595
 20
323.928478
 11
126.819595
 21
323.928478
  0
LINE
  5
4FA
100
AcDbEntity
  8
M0
 62
     7
100
AcDbLine
 10
107.519595
 20
323.928478
 11
106.619595
 21
323.928478
  0
LINE
  5
4FB
100
AcDbEntity
  8
M0
 62
     7
100
AcDbLine
 10
116.719595
 20
379.428478
 11
124.519595
 21
379.428478
  0
LINE
  5
4FC
100
AcDbEntity
  8
M0
 62
     7
100
AcDbLine
 10
125.519595
 20
313.128478
 11
125.819595
 21
313.128478
  0
LINE
  5
4FD
100
AcDbEntity
  8
M0
 62
     7
100
AcDbLine
 10
115.419595
 20
313.128478
 11
115.719595
 21
313.128478
  0
LINE
  5
4FE
100
AcDbEntity
  8
M0
 62
     7
100
AcDbLine
 10
126.819595
 20
350.528478
 11
126.819595
 21
352.728478
  0
LINE
  5
4FF
100
AcDbEntity
  8
M0
 62
     7
100
AcDbLine
 10
125.019595
 20
347.028478
 11
126.319595
 21
347.028478
  0
LINE
  5
500
100
AcDbEntity
  8
M0
 62
     7
100
AcDbLine
 10
124.519595
 20
314.128478
 11
124.519595
 21
331.928478
  0
LINE
  5
501
100
AcDbEntity
  8
M0
 62
     7
100
AcDbLine
 10
114.419595
 20
323.928478
 11
113.519595
 21
323.928478
  0
LINE
  5
502
100
AcDbEntity
  8
M0
 62
     7
100
AcDbLine
 10
144.719595
 20
323.928478
 11
143.819595
 21
323.928478
  0
LINE
  5
503
100
AcDbEntity
  8
M0
 62
     7
100
AcDbLine
 10
127.419595
 20
346.028478
 11
127.419595
 21
352.728478
  0
LINE
  5
504
100
AcDbEntity
  8
M0
 62
     7
100
AcDbLine
 10
120.369595
 20
352.728478
 11
120.369595
 21
344.528478
  0
LINE
  5
505
100
AcDbEntity
  8
M0
 62
     7
100
AcDbLine
 10
123.919595
 20
346.028478
 11
123.919595
 21
352.728478
  0
LINE
  5
506
100
AcDbEntity
  8
M0
 62
     7
100
AcDbLine
 10
126.819595
 20
344.528478
 11
126.819595
 21
345.028478
  0
LINE
  5
507
100
AcDbEntity
  8
M0
 62
     7
100
AcDbLine
 10
130.469595
 20
344.028478
 11
127.319595
 21
344.028478
  0
ARC
  5
508
100
AcDbEntity
  8
M0
 62
     7
100
AcDbCircle
 10
105.619595
 20
376.428478
 40
1.0
100
AcDbArc
 50
0.0
 51
90.0
  0
ARC
  5
509
100
AcDbEntity
  8
M0
 62
     7
100
AcDbCircle
 10
146.169595
 20
376.428478
 40
1.0
100
AcDbArc
 50
0.0
 51
90.0
  0
LINE
  5
50A
100
AcDbEntity
  8
M0
 62
     7
100
AcDbLine
 10
126.819595
 20
345.528478
 11
126.919595
 21
345.528478
  0
ARC
  5
50B
100
AcDbEntity
  8
M0
 62
     7
100
AcDbCircle
 10
145.719595
 20
376.428478
 40
1.0
100
AcDbArc
 50
90.0
 51
180.0
  0
LINE
  5
50C
100
AcDbEntity
  8
M0
 62
     7
100
AcDbLine
 10
126.819595
 20
345.028478
 11
126.819595
 21
345.528478
  0
LINE
  5
50D
100
AcDbEntity
  8
M0
 62
     7
100
AcDbLine
 10
120.119595
 20
344.328478
 11
120.155452
 21
344.328478
  0
LINE
  5
50E
100
AcDbEntity
  8
M0
 62
     7
100
AcDbLine
 10
120.436582
 20
352.978478
 11
120.432631
 21
352.971493
  0
LINE
  5
50F
100
AcDbEntity
  8
M0
 62
     7
100
AcDbLine
 10
126.819595
 20
343.728478
 11
126.819595
 21
344.528478
  0
LINE
  5
510
100
AcDbEntity
  8
M0
 62
     7
100
AcDbLine
 10
125.019595
 20
350.028478
 11
126.319595
 21
350.028478
  0
LINE
  5
511
100
AcDbEntity
  8
M0
 62
     7
100
AcDbLine
 10
124.519595
 20
343.728478
 11
124.519595
 21
344.528478
  0
LINE
  5
512
100
AcDbEntity
  8
M0
 62
     7
100
AcDbLine
 10
120.869595
 20
344.028478
 11
124.019595
 21
344.028478
  0
LINE
  5
513
100
AcDbEntity
  8
M0
 62
     7
100
AcDbLine
 10
124.519595
 20
345.028478
 11
124.519595
 21
345.528478
  0
LINE
  5
514
100
AcDbEntity
  8
M0
 62
     7
100
AcDbLine
 10
124.519595
 20
352.228478
 11
124.519595
 21
353.428478
  0
LINE
  5
515
100
AcDbEntity
  8
M0
 62
     7
100
AcDbLine
 10
124.519595
 20
345.528478
 11
124.419595
 21
345.528478
  0
ARC
  5
516
100
AcDbEntity
  8
M0
 62
     7
100
AcDbCircle
 10
127.319595
 20
344.528478
 40
0.5
100
AcDbArc
 50
180.0
 51
270.0
  0
ARC
  5
517
100
AcDbEntity
  8
M0
 62
     7
100
AcDbCircle
 10
127.319595
 20
352.728478
 40
0.5
100
AcDbArc
 50
90.0
 51
180.0
  0
LINE
  5
518
100
AcDbEntity
  8
M0
 62
     7
100
AcDbLine
 10
131.219595
 20
338.128478
 11
131.219595
 21
345.978478
  0
ARC
  5
519
100
AcDbEntity
  8
M0
 62
     7
100
AcDbCircle
 10
120.827629
 20
344.489645
 40
0.44285
100
AcDbArc
 50
206.131697
 51
224.639687
  0
LINE
  5
51A
100
AcDbEntity
  8
M0
 62
     7
100
AcDbLine
 10
120.119595
 20
338.128478
 11
120.119595
 21
345.978478
  0
ARC
  5
51B
100
AcDbEntity
  8
M0
 62
     7
100
AcDbCircle
 10
125.019595
 20
346.528478
 40
0.5
100
AcDbArc
 50
90.0
 51
180.0
  0
ARC
  5
51C
100
AcDbEntity
  8
M0
 62
     7
100
AcDbCircle
 10
121.369595
 20
390.528478
 40
1.0
100
AcDbArc
 50
90.0
 51
180.0
  0
ARC
  5
51D
100
AcDbEntity
  8
M0
 62
     7
100
AcDbCircle
 10
126.319595
 20
346.528478
 40
0.5
100
AcDbArc
 50
0.0
 51
90.0
  0
ARC
  5
51E
100
AcDbEntity
  8
M0
 62
     7
100
AcDbCircle
 10
126.319595
 20
350.528478
 40
0.5
100
AcDbArc
 50
270.0
 51
360.0
  0
ARC
  5
51F
100
AcDbEntity
  8
M0
 62
     7
100
AcDbCircle
 10
124.019595
 20
352.728478
 40
0.5
100
AcDbArc
 50
0.0
 51
90.0
  0
LINE
  5
520
100
AcDbEntity
  8
M0
 62
     7
100
AcDbLine
 10
117.969595
 20
342.128478
 11
117.469595
 21
342.128478
  0
LINE
  5
521
100
AcDbEntity
  8
M0
 62
     7
100
AcDbLine
 10
116.469595
 20
341.128478
 11
116.469595
 21
338.628478
  0
LINE
  5
522
100
AcDbEntity
  8
M0
 62
     7
100
AcDbLine
 10
143.819595
 20
322.928478
 11
137.819595
 21
322.928478
  0
LINE
  5
523
100
AcDbEntity
  8
M0
 62
     7
100
AcDbLine
 10
143.819595
 20
323.978478
 11
143.819595
 21
322.928478
  0
ARC
  5
524
100
AcDbEntity
  8
M0
 62
     7
100
AcDbCircle
 10
133.869595
 20
338.628478
 40
1.0
100
AcDbArc
 50
270.0
 51
360.0
  0
LINE
  5
525
100
AcDbEntity
  8
M0
 62
     7
100
AcDbLine
 10
120.119595
 20
345.978478
 11
119.869595
 21
346.478478
  0
LINE
  5
526
100
AcDbEntity
  8
M0
 62
     7
100
AcDbLine
 10
131.219595
 20
345.978478
 11
131.469595
 21
346.478478
  0
LINE
  5
527
100
AcDbEntity
  8
M0
 62
     7
100
AcDbLine
 10
134.869595
 20
341.128478
 11
134.869595
 21
338.628478
  0
LINE
  5
528
100
AcDbEntity
  8
M0
 62
     7
100
AcDbLine
 10
133.869595
 20
337.628478
 11
131.719595
 21
337.628478
  0
LINE
  5
529
100
AcDbEntity
  8
M0
 62
     7
100
AcDbLine
 10
133.369595
 20
342.128478
 11
133.869595
 21
342.128478
  0
LINE
  5
52A
100
AcDbEntity
  8
M0
 62
     7
100
AcDbLine
 10
117.869595
 20
337.528478
 11
117.869595
 21
337.628478
  0
LINE
  5
52B
100
AcDbEntity
  8
M0
 62
     7
100
AcDbLine
 10
135.819595
 20
316.428478
 11
135.919595
 21
316.428478
  0
LINE
  5
52C
100
AcDbEntity
  8
M0
 62
     7
100
AcDbLine
 10
133.719595
 20
373.328478
 11
134.619595
 21
373.328478
  0
LINE
  5
52D
100
AcDbEntity
  8
M0
 62
     7
100
AcDbLine
 10
123.619595
 20
373.328478
 11
124.519595
 21
373.328478
  0
ARC
  5
52E
100
AcDbEntity
  8
M0
 62
     7
100
AcDbCircle
 10
122.519595
 20
317.628478
 40
2.0
100
AcDbArc
 50
0.0
 51
90.0
  0
LINE
  5
52F
100
AcDbEntity
  8
M0
 62
     7
100
AcDbLine
 10
114.419595
 20
314.128478
 11
114.419595
 21
331.928478
  0
LINE
  5
530
100
AcDbEntity
  8
M0
 62
     7
100
AcDbLine
 10
131.219595
 20
344.328478
 11
131.183737
 21
344.328478
  0
LINE
  5
531
100
AcDbEntity
  8
M0
 62
     7
100
AcDbLine
 10
126.819595
 20
331.928478
 11
126.819595
 21
314.128478
  0
LINE
  5
532
100
AcDbEntity
  8
M0
 62
     7
100
AcDbLine
 10
116.719595
 20
331.928478
 11
116.719595
 21
314.128478
  0
LINE
  5
533
100
AcDbEntity
  8
M0
 62
     7
100
AcDbLine
 10
133.469595
 20
337.628478
 11
133.469595
 21
337.528478
  0
ARC
  5
534
100
AcDbEntity
  8
M0
 62
     7
100
AcDbCircle
 10
123.419595
 20
352.728478
 40
0.5
100
AcDbArc
 50
0.0
 51
90.0
  0
ARC
  5
535
100
AcDbEntity
  8
M0
 62
     7
100
AcDbCircle
 10
127.919595
 20
352.728478
 40
0.5
100
AcDbArc
 50
90.0
 51
180.0
  0
ARC
  5
536
100
AcDbEntity
  8
M0
 62
     7
100
AcDbCircle
 10
129.969595
 20
390.528478
 40
1.0
100
AcDbArc
 50
0.0
 51
90.0
  0
ARC
  5
537
100
AcDbEntity
  8
M0
 62
     7
100
AcDbCircle
 10
130.469595
 20
352.728478
 40
0.5
100
AcDbArc
 50
0.0
 51
90.0
  0
ARC
  5
538
100
AcDbEntity
  8
M0
 62
     7
100
AcDbCircle
 10
120.869595
 20
352.728478
 40
0.5
100
AcDbArc
 50
90.0
 51
180.0
  0
ARC
  5
539
100
AcDbEntity
  8
M0
 62
     7
100
AcDbCircle
 10
115.719595
 20
314.128478
 40
1.0
100
AcDbArc
 50
270.0
 51
360.0
  0
ARC
  5
53A
100
AcDbEntity
  8
M0
 62
     7
100
AcDbCircle
 10
118.719595
 20
317.628478
 40
2.0
100
AcDbArc
 50
90.0
 51
180.0
  0
ARC
  5
53B
100
AcDbEntity
  8
M0
 62
     7
100
AcDbCircle
 10
115.419595
 20
314.128478
 40
1.0
100
AcDbArc
 50
180.0
 51
270.0
  0
ARC
  5
53C
100
AcDbEntity
  8
M0
 62
     7
100
AcDbCircle
 10
125.819595
 20
314.128478
 40
1.0
100
AcDbArc
 50
270.0
 51
360.0
  0
ARC
  5
53D
100
AcDbEntity
  8
M0
 62
     7
100
AcDbCircle
 10
125.519595
 20
314.128478
 40
1.0
100
AcDbArc
 50
180.0
 51
270.0
  0
LINE
  5
53E
100
AcDbEntity
  8
M0
 62
     7
100
AcDbLine
 10
117.619595
 20
373.278478
 11
117.619595
 21
374.328478
  0
LINE
  5
53F
100
AcDbEntity
  8
M0
 62
     7
100
AcDbLine
 10
118.619595
 20
360.928478
 11
118.619595
 21
360.828478
  0
LINE
  5
540
100
AcDbEntity
  8
M0
 62
     7
100
AcDbLine
 10
123.619595
 20
374.328478
 11
123.619595
 21
373.278478
  0
LINE
  5
541
100
AcDbEntity
  8
M0
 62
     7
100
AcDbLine
 10
117.619595
 20
374.328478
 11
123.619595
 21
374.328478
  0
LINE
  5
542
100
AcDbEntity
  8
M0
 62
     7
100
AcDbLine
 10
137.819595
 20
373.328478
 11
137.819595
 21
374.328478
  0
ARC
  5
543
100
AcDbEntity
  8
M0
 62
     7
100
AcDbCircle
 10
107.194595
 20
324.403478
 40
0.5
100
AcDbArc
 50
180.0
 51
270.0
  0
ARC
  5
544
100
AcDbEntity
  8
M0
 62
     7
100
AcDbCircle
 10
107.194595
 20
331.053478
 40
0.5
100
AcDbArc
 50
90.0
 51
180.0
  0
ARC
  5
545
100
AcDbEntity
  8
M0
 62
     7
100
AcDbCircle
 10
113.844595
 20
324.403478
 40
0.5
100
AcDbArc
 50
270.0
 51
360.0
  0
ARC
  5
546
100
AcDbEntity
  8
M0
 62
     7
100
AcDbCircle
 10
113.844595
 20
331.053478
 40
0.5
100
AcDbArc
 50
0.0
 51
90.0
  0
ARC
  5
547
100
AcDbEntity
  8
M0
 62
     7
100
AcDbCircle
 10
143.169595
 20
380.328478
 40
4.0
100
AcDbArc
 50
0.0
 51
97.180756
  0
LINE
  5
548
100
AcDbEntity
  8
M0
  6
DASHDOT
 62
     7
100
AcDbLine
 10
120.619595
 20
315.628478
 11
120.619595
 21
316.628478
  0
LINE
  5
549
100
AcDbEntity
  8
M0
  6
DASHDOT
 62
     7
100
AcDbLine
 10
120.119595
 20
316.128478
 11
121.119595
 21
316.128478
  0
LINE
  5
54A
100
AcDbEntity
  8
M0
  6
DASHDOT
 62
     7
100
AcDbLine
 10
120.119595
 20
327.728478
 11
121.119595
 21
327.728478
  0
LINE
  5
54B
100
AcDbEntity
  8
M0
 62
     7
100
AcDbLine
 10
137.819595
 20
374.328478
 11
143.819595
 21
374.328478
  0
LINE
  5
54C
100
AcDbEntity
  8
M0
 62
     7
100
AcDbLine
 10
143.819595
 20
374.328478
 11
143.819595
 21
373.328478
  0
LINE
  5
54D
100
AcDbEntity
  8
M0
  6
DASHDOT
 62
     7
100
AcDbLine
 10
125.669595
 20
309.74838
 11
125.669595
 21
394.850486
  0
CIRCLE
  5
54E
100
AcDbEntity
  8
M0
 62
     7
100
AcDbCircle
 10
120.619595
 20
316.128478
 40
2.65
  0
CIRCLE
  5
54F
100
AcDbEntity
  8
M0
 62
     7
100
AcDbCircle
 10
120.619595
 20
327.728478
 40
3.0
  0
ARC
  5
550
100
AcDbEntity
  8
M0
 62
     7
100
AcDbCircle
 10
137.494595
 20
331.053478
 40
0.5
100
AcDbArc
 50
90.0
 51
180.0
  0
CIRCLE
  5
551
100
AcDbEntity
  8
M0
 62
     7
100
AcDbCircle
 10
125.669595
 20
386.728478
 40
2.65
  0
ARC
  5
552
100
AcDbEntity
  8
M0
 62
     7
100
AcDbCircle
 10
137.494595
 20
324.403478
 40
0.5
100
AcDbArc
 50
180.0
 51
270.0
  0
LINE
  5
553
100
AcDbEntity
  8
M0
 62
     7
100
AcDbLine
 10
138.919595
 20
322.528478
 11
138.919595
 21
322.928478
  0
LINE
  5
554
100
AcDbEntity
  8
M0
 62
     7
100
AcDbLine
 10
132.869595
 20
315.828478
 11
131.369595
 21
315.828478
  0
LINE
  5
555
100
AcDbEntity
  8
M0
 62
     7
100
AcDbLine
 10
105.919595
 20
377.528478
 11
105.919595
 21
377.382417
  0
LINE
  5
556
100
AcDbEntity
  8
M0
 62
     7
100
AcDbLine
 10
111.419595
 20
318.128478
 11
111.419595
 21
314.328478
  0
CIRCLE
  5
557
100
AcDbEntity
  8
M0
 62
     7
100
AcDbCircle
 10
140.819595
 20
327.728478
 40
3.0
  0
ARC
  5
558
100
AcDbEntity
  8
M0
 62
     7
100
AcDbCircle
 10
117.294595
 20
331.053478
 40
0.5
100
AcDbArc
 50
90.0
 51
180.0
  0
ARC
  5
559
100
AcDbEntity
  8
M0
 62
     7
100
AcDbCircle
 10
134.044595
 20
324.403478
 40
0.5
100
AcDbArc
 50
270.0
 51
360.0
  0
ARC
  5
55A
100
AcDbEntity
  8
M0
 62
     7
100
AcDbCircle
 10
123.944595
 20
331.053478
 40
0.5
100
AcDbArc
 50
0.0
 51
90.0
  0
ARC
  5
55B
100
AcDbEntity
  8
M0
 62
     7
100
AcDbCircle
 10
117.294595
 20
324.403478
 40
0.5
100
AcDbArc
 50
180.0
 51
270.0
  0
ARC
  5
55C
100
AcDbEntity
  8
M0
 62
     7
100
AcDbCircle
 10
123.944595
 20
324.403478
 40
0.5
100
AcDbArc
 50
270.0
 51
360.0
  0
ARC
  5
55D
100
AcDbEntity
  8
M0
 62
     7
100
AcDbCircle
 10
144.144595
 20
324.403478
 40
0.5
100
AcDbArc
 50
270.0
 51
360.0
  0
ARC
  5
55E
100
AcDbEntity
  8
M0
 62
     7
100
AcDbCircle
 10
144.144595
 20
331.053478
 40
0.5
100
AcDbArc
 50
0.0
 51
90.0
  0
ARC
  5
55F
100
AcDbEntity
  8
M0
 62
     7
100
AcDbCircle
 10
127.394595
 20
324.403478
 40
0.5
100
AcDbArc
 50
180.0
 51
270.0
  0
ARC
  5
560
100
AcDbEntity
  8
M0
 62
     7
100
AcDbCircle
 10
127.394595
 20
331.053478
 40
0.5
100
AcDbArc
 50
90.0
 51
180.0
  0
LINE
  5
561
100
AcDbEntity
  8
M0
 62
     7
100
AcDbLine
 10
124.469595
 20
387.178478
 11
125.219595
 21
387.178478
  0
LINE
  5
562
100
AcDbEntity
  8
M0
 62
     7
100
AcDbLine
 10
125.219595
 20
386.278478
 11
124.469595
 21
386.278478
  0
LINE
  5
563
100
AcDbEntity
  8
M0
 62
     7
100
AcDbLine
 10
126.119595
 20
387.928478
 11
125.219595
 21
387.928478
  0
LINE
  5
564
100
AcDbEntity
  8
M0
 62
     7
100
AcDbLine
 10
125.219595
 20
387.928478
 11
125.219595
 21
387.178478
  0
LINE
  5
565
100
AcDbEntity
  8
M0
 62
     7
100
AcDbLine
 10
126.869595
 20
386.278478
 11
126.119595
 21
386.278478
  0
LINE
  5
566
100
AcDbEntity
  8
M0
 62
     7
100
AcDbLine
 10
125.219595
 20
385.528478
 11
126.119595
 21
385.528478
  0
LINE
  5
567
100
AcDbEntity
  8
M0
  6
DASHDOT
 62
     7
100
AcDbLine
 10
125.169595
 20
386.728478
 11
126.169595
 21
386.728478
  0
LINE
  5
568
100
AcDbEntity
  8
M0
 62
     7
100
AcDbLine
 10
126.119595
 20
385.528478
 11
126.119595
 21
386.278478
  0
LINE
  5
569
100
AcDbEntity
  8
M0
 62
     7
100
AcDbLine
 10
125.219595
 20
386.278478
 11
125.219595
 21
385.528478
  0
LINE
  5
56A
100
AcDbEntity
  8
M0
  6
DASHDOT
 62
     7
100
AcDbLine
 10
125.169595
 20
386.728478
 11
126.169595
 21
386.728478
  0
CIRCLE
  5
56B
100
AcDbEntity
  8
M0
 62
     7
100
AcDbCircle
 10
120.619595
 20
369.528478
 40
3.0
  0
CIRCLE
  5
56C
100
AcDbEntity
  8
M0
 62
     7
100
AcDbCircle
 10
130.719595
 20
369.528478
 40
3.0
  0
CIRCLE
  5
56D
100
AcDbEntity
  8
M0
 62
     7
100
AcDbCircle
 10
130.719595
 20
327.728478
 40
3.0
  0
CIRCLE
  5
56E
100
AcDbEntity
  8
M0
 62
     7
100
AcDbCircle
 10
110.519595
 20
369.528478
 40
3.0
  0
CIRCLE
  5
56F
100
AcDbEntity
  8
M0
 62
     7
100
AcDbCircle
 10
110.519595
 20
327.728478
 40
3.0
  0
LINE
  5
570
100
AcDbEntity
  8
M0
 62
     7
100
AcDbLine
 10
126.119595
 20
387.178478
 11
126.869595
 21
387.178478
  0
LINE
  5
571
100
AcDbEntity
  8
M0
 62
     7
100
AcDbLine
 10
126.119595
 20
387.178478
 11
126.119595
 21
387.928478
  0
CIRCLE
  5
572
100
AcDbEntity
  8
M0
 62
     7
100
AcDbCircle
 10
136.569595
 20
387.128478
 40
3.0
  0
CIRCLE
  5
573
100
AcDbEntity
  8
M0
 62
     7
100
AcDbCircle
 10
125.669595
 20
386.728478
 40
2.85
  0
CIRCLE
  5
574
100
AcDbEntity
  8
M0
 62
     7
100
AcDbCircle
 10
140.819595
 20
369.528478
 40
3.0
  0
LINE
  5
575
100
AcDbEntity
  8
M0
  6
DASHDOT
 62
     7
100
AcDbLine
 10
140.319595
 20
369.528478
 11
141.319595
 21
369.528478
  0
LINE
  5
576
100
AcDbEntity
  8
M0
  6
DASHDOT
 62
     7
100
AcDbLine
 10
140.819595
 20
327.228478
 11
140.819595
 21
328.228478
  0
LINE
  5
577
100
AcDbEntity
  8
M0
  6
DASHDOT
 62
     7
100
AcDbLine
 10
130.219595
 20
369.528478
 11
131.219595
 21
369.528478
  0
LINE
  5
578
100
AcDbEntity
  8
M0
  6
DASHDOT
 62
     7
100
AcDbLine
 10
140.819595
 20
369.028478
 11
140.819595
 21
370.028478
  0
LINE
  5
579
100
AcDbEntity
  8
M0
  6
DASHDOT
 62
     7
100
AcDbLine
 10
130.719595
 20
369.028478
 11
130.719595
 21
370.028478
  0
LINE
  5
57A
100
AcDbEntity
  8
M0
  6
DASHDOT
 62
     7
100
AcDbLine
 10
120.619595
 20
327.228478
 11
120.619595
 21
328.228478
  0
ARC
  5
57B
100
AcDbEntity
  8
M0
 62
     7
100
AcDbCircle
 10
134.044595
 20
331.053478
 40
0.5
100
AcDbArc
 50
0.0
 51
90.0
  0
LINE
  5
57C
100
AcDbEntity
  8
M0
  6
DASHDOT
 62
     7
100
AcDbLine
 10
130.719595
 20
327.228478
 11
130.719595
 21
328.228478
  0
LINE
  5
57D
100
AcDbEntity
  8
M0
  6
DASHDOT
 62
     7
100
AcDbLine
 10
130.219595
 20
327.728478
 11
131.219595
 21
327.728478
  0
LINE
  5
57E
100
AcDbEntity
  8
M0
  6
DASHDOT
 62
     7
100
AcDbLine
 10
140.319595
 20
327.728478
 11
141.319595
 21
327.728478
  0
LINE
  5
57F
100
AcDbEntity
  8
M0
  6
DASHDOT
 62
     7
100
AcDbLine
 10
136.069595
 20
387.128478
 11
137.069595
 21
387.128478
  0
LINE
  5
580
100
AcDbEntity
  8
M0
  6
DASHDOT
 62
     7
100
AcDbLine
 10
114.769595
 20
386.628478
 11
114.769595
 21
387.628478
  0
LINE
  5
581
100
AcDbEntity
  8
M0
  6
DASHDOT
 62
     7
100
AcDbLine
 10
110.019595
 20
327.728478
 11
111.019595
 21
327.728478
  0
LINE
  5
582
100
AcDbEntity
  8
M0
  6
DASHDOT
 62
     7
100
AcDbLine
 10
136.569595
 20
386.628478
 11
136.569595
 21
387.628478
  0
LINE
  5
583
100
AcDbEntity
  8
M0
  6
DASHDOT
 62
     7
100
AcDbLine
 10
110.519595
 20
327.228478
 11
110.519595
 21
328.228478
  0
LINE
  5
584
100
AcDbEntity
  8
M0
  6
DASHDOT
 62
     7
100
AcDbLine
 10
120.619595
 20
369.028478
 11
120.619595
 21
370.028478
  0
LINE
  5
585
100
AcDbEntity
  8
M0
  6
DASHDOT
 62
     7
100
AcDbLine
 10
120.119595
 20
369.528478
 11
121.119595
 21
369.528478
  0
LINE
  5
586
100
AcDbEntity
  8
M0
  6
DASHDOT
 62
     7
100
AcDbLine
 10
110.519595
 20
369.028478
 11
110.519595
 21
370.028478
  0
LINE
  5
587
100
AcDbEntity
  8
M0
  6
DASHDOT
 62
     7
100
AcDbLine
 10
110.019595
 20
369.528478
 11
111.019595
 21
369.528478
  0
ARC
  5
588
100
AcDbEntity
  8
M0
 62
     7
100
AcDbCircle
 10
106.769595
 20
352.878478
 40
0.5
100
AcDbArc
 50
180.0
 51
270.0
  0
ARC
  5
589
100
AcDbEntity
  8
M0
 62
     7
100
AcDbCircle
 10
144.569595
 20
352.878478
 40
0.5
100
AcDbArc
 50
270.0
 51
360.0
  0
ARC
  5
58A
100
AcDbEntity
  8
M0
 62
     7
100
AcDbCircle
 10
133.219595
 20
337.128478
 40
0.5
100
AcDbArc
 50
90.0
 51
126.869898
  0
ARC
  5
58B
100
AcDbEntity
  8
M0
 62
     7
100
AcDbCircle
 10
128.219595
 20
337.128478
 40
0.5
100
AcDbArc
 50
53.130102
 51
90.0
  0
ARC
  5
58C
100
AcDbEntity
  8
M0
 62
     7
100
AcDbCircle
 10
144.569595
 20
332.428478
 40
0.5
100
AcDbArc
 50
270.0
 51
360.0
  0
ARC
  5
58D
100
AcDbEntity
  8
M0
 62
     7
100
AcDbCircle
 10
109.169595
 20
345.378478
 40
0.5
100
AcDbArc
 50
270.0
 51
360.0
  0
ARC
  5
58E
100
AcDbEntity
  8
M0
 62
     7
100
AcDbCircle
 10
117.369595
 20
338.528478
 40
1.0
100
AcDbArc
 50
180.0
 51
270.0
  0
ARC
  5
58F
100
AcDbEntity
  8
M0
 62
     7
100
AcDbCircle
 10
142.169595
 20
351.878478
 40
0.5
100
AcDbArc
 50
90.0
 51
180.0
  0
ARC
  5
590
100
AcDbEntity
  8
M0
 62
     7
100
AcDbCircle
 10
106.769595
 20
344.378478
 40
0.5
100
AcDbArc
 50
90.0
 51
180.0
  0
ARC
  5
591
100
AcDbEntity
  8
M0
 62
     7
100
AcDbCircle
 10
109.169595
 20
351.878478
 40
0.5
100
AcDbArc
 50
0.0
 51
90.0
  0
ARC
  5
592
100
AcDbEntity
  8
M0
 62
     7
100
AcDbCircle
 10
131.919595
 20
359.628478
 40
1.2
100
AcDbArc
 50
90.0
 51
180.0
  0
ARC
  5
593
100
AcDbEntity
  8
M0
 62
     7
100
AcDbCircle
 10
120.119595
 20
353.928478
 40
0.5
100
AcDbArc
 50
270.0
 51
360.0
  0
ARC
  5
594
100
AcDbEntity
  8
M0
 62
     7
100
AcDbCircle
 10
117.469595
 20
359.828478
 40
1.0
100
AcDbArc
 50
90.0
 51
180.0
  0
ARC
  5
595
100
AcDbEntity
  8
M0
 62
     7
100
AcDbCircle
 10
119.419595
 20
359.628478
 40
1.2
100
AcDbArc
 50
0.0
 51
90.0
  0
LINE
  5
596
100
AcDbEntity
  8
M0
 62
     7
100
AcDbLine
 10
136.994595
 20
331.053478
 11
136.994595
 21
324.403478
  0
ARC
  5
597
100
AcDbEntity
  8
M0
 62
     7
100
AcDbCircle
 10
106.769595
 20
332.428478
 40
0.5
100
AcDbArc
 50
180.0
 51
270.0
  0
ARC
  5
598
100
AcDbEntity
  8
M0
 62
     7
100
AcDbCircle
 10
144.569595
 20
344.378478
 40
0.5
100
AcDbArc
 50
0.0
 51
90.0
  0
ARC
  5
599
100
AcDbEntity
  8
M0
 62
     7
100
AcDbCircle
 10
142.169595
 20
345.378478
 40
0.5
100
AcDbArc
 50
180.0
 51
270.0
  0
ARC
  5
59A
100
AcDbEntity
  8
M0
 62
     7
100
AcDbCircle
 10
144.569595
 20
364.828478
 40
0.5
100
AcDbArc
 50
0.0
 51
90.0
  0
ARC
  5
59B
100
AcDbEntity
  8
M0
 62
     7
100
AcDbCircle
 10
131.219595
 20
353.928478
 40
0.5
100
AcDbArc
 50
180.0
 51
270.0
  0
LINE
  5
59C
100
AcDbEntity
  8
M0
 62
     7
100
AcDbLine
 10
131.069595
 20
383.028478
 11
142.669595
 21
383.028478
  0
LINE
  5
59D
100
AcDbEntity
  8
M0
 62
     7
100
AcDbLine
 10
142.669595
 20
381.528478
 11
131.069595
 21
381.528478
  0
ARC
  5
59E
100
AcDbEntity
  8
M0
 62
     7
100
AcDbCircle
 10
117.369595
 20
359.928478
 40
1.0
100
AcDbArc
 50
90.0
 51
180.0
  0
LINE
  5
59F
100
AcDbEntity
  8
M0
 62
     7
100
AcDbLine
 10
140.069595
 20
391.528478
 11
132.569595
 21
391.528478
  0
ARC
  5
5A0
100
AcDbEntity
  8
M0
 62
     7
100
AcDbCircle
 10
119.769595
 20
359.928478
 40
1.0
100
AcDbArc
 50
0.0
 51
90.0
  0
LINE
  5
5A1
100
AcDbEntity
  8
M0
 62
     7
100
AcDbLine
 10
120.269595
 20
381.528478
 11
108.669595
 21
381.528478
  0
LINE
  5
5A2
100
AcDbEntity
  8
M0
 62
     7
100
AcDbLine
 10
120.269595
 20
383.028478
 11
108.669595
 21
383.028478
  0
LINE
  5
5A3
100
AcDbEntity
  8
M0
 62
     7
100
AcDbLine
 10
131.069595
 20
379.528478
 11
131.069595
 21
392.528478
  0
LINE
  5
5A4
100
AcDbEntity
  8
M0
 62
     7
100
AcDbLine
 10
108.669595
 20
379.528478
 11
114.419595
 21
379.528478
  0
LINE
  5
5A5
100
AcDbEntity
  8
M0
 62
     7
100
AcDbLine
 10
142.669595
 20
383.028478
 11
142.669595
 21
381.528478
  0
ARC
  5
5A6
100
AcDbEntity
  8
M0
 62
     7
100
AcDbCircle
 10
119.769595
 20
392.028478
 40
1.0
100
AcDbArc
 50
90.0
 51
180.0
  0
ARC
  5
5A7
100
AcDbEntity
  8
M0
 62
     7
100
AcDbCircle
 10
131.569595
 20
392.028478
 40
1.0
100
AcDbArc
 50
0.0
 51
90.0
  0
ARC
  5
5A8
100
AcDbEntity
  8
M0
 62
     7
100
AcDbCircle
 10
133.969595
 20
338.528478
 40
1.0
100
AcDbArc
 50
270.0
 51
360.0
  0
ARC
  5
5A9
100
AcDbEntity
  8
M0
 62
     7
100
AcDbCircle
 10
133.969595
 20
359.928478
 40
1.0
100
AcDbArc
 50
0.0
 51
90.0
  0
ARC
  5
5AA
100
AcDbEntity
  8
M0
 62
     7
100
AcDbCircle
 10
106.769595
 20
364.828478
 40
0.5
100
AcDbArc
 50
90.0
 51
180.0
  0
ARC
  5
5AB
100
AcDbEntity
  8
M0
 62
     7
100
AcDbCircle
 10
121.269595
 20
359.228478
 40
0.5
100
AcDbArc
 50
180.0
 51
270.0
  0
ARC
  5
5AC
100
AcDbEntity
  8
M0
 62
     7
100
AcDbCircle
 10
130.069595
 20
359.228478
 40
0.5
100
AcDbArc
 50
270.0
 51
360.0
  0
ARC
  5
5AD
100
AcDbEntity
  8
M0
 62
     7
100
AcDbCircle
 10
131.569595
 20
392.528478
 40
0.5
100
AcDbArc
 50
90.0
 51
180.0
  0
ARC
  5
5AE
100
AcDbEntity
  8
M0
 62
     7
100
AcDbCircle
 10
131.569595
 20
359.928478
 40
1.0
100
AcDbArc
 50
90.0
 51
180.0
  0
LINE
  5
5AF
100
AcDbEntity
  8
M0
 62
     7
100
AcDbLine
 10
124.469595
 20
386.278478
 11
124.469595
 21
387.178478
  0
LINE
  5
5B0
100
AcDbEntity
  8
M0
 62
     7
100
AcDbLine
 10
119.419595
 20
315.678478
 11
119.419595
 21
316.578478
  0
LINE
  5
5B1
100
AcDbEntity
  8
M0
 62
     7
100
AcDbLine
 10
138.019595
 20
319.328478
 11
136.919595
 21
319.328478
  0
LINE
  5
5B2
100
AcDbEntity
  8
M0
 62
     7
100
AcDbLine
 10
121.819595
 20
315.678478
 11
121.819595
 21
316.578478
  0
LINE
  5
5B3
100
AcDbEntity
  8
M0
 62
     7
100
AcDbLine
 10
138.019595
 20
314.328478
 11
138.019595
 21
319.328478
  0
LINE
  5
5B4
100
AcDbEntity
  8
M0
 62
     7
100
AcDbLine
 10
113.844595
 20
331.553478
 11
107.194595
 21
331.553478
  0
LINE
  5
5B5
100
AcDbEntity
  8
M0
 62
     7
100
AcDbLine
 10
107.194595
 20
323.903478
 11
113.844595
 21
323.903478
  0
LINE
  5
5B6
100
AcDbEntity
  8
M0
  6
DASHDOT
 62
     7
100
AcDbLine
 10
110.519595
 20
327.228478
 11
110.519595
 21
328.228478
  0
LINE
  5
5B7
100
AcDbEntity
  8
M0
  6
DASHDOT
 62
     7
100
AcDbLine
 10
110.019595
 20
327.728478
 11
111.019595
 21
327.728478
  0
LINE
  5
5B8
100
AcDbEntity
  8
M0
 62
     7
100
AcDbLine
 10
126.869595
 20
386.278478
 11
126.869595
 21
387.178478
  0
LINE
  5
5B9
100
AcDbEntity
  8
M0
 62
     7
100
AcDbLine
 10
134.519595
 20
317.628478
 11
134.519595
 21
314.328478
  0
LINE
  5
5BA
100
AcDbEntity
  8
M0
 62
     7
100
AcDbLine
 10
114.419595
 20
318.128478
 11
111.419595
 21
318.128478
  0
LINE
  5
5BB
100
AcDbEntity
  8
M0
 62
     7
100
AcDbLine
 10
132.869595
 20
315.828478
 11
132.869595
 21
317.628478
  0
LINE
  5
5BC
100
AcDbEntity
  8
M0
 62
     7
100
AcDbLine
 10
129.869595
 20
317.628478
 11
129.869595
 21
314.328478
  0
LINE
  5
5BD
100
AcDbEntity
  8
M0
  6
DASHDOT
 62
     7
100
AcDbLine
 10
114.269595
 20
387.128478
 11
115.269595
 21
387.128478
  0
LINE
  5
5BE
100
AcDbEntity
  8
M0
 62
     7
100
AcDbLine
 10
104.169595
 20
317.328478
 11
104.169595
 21
377.528478
  0
LINE
  5
5BF
100
AcDbEntity
  8
M0
 62
     7
100
AcDbLine
 10
147.169595
 20
380.328478
 11
147.169595
 21
352.128478
  0
LINE
  5
5C0
100
AcDbEntity
  8
M0
 62
     7
100
AcDbLine
 10
130.369595
 20
313.828478
 11
142.169595
 21
313.828478
  0
LINE
  5
5C1
100
AcDbEntity
  8
M0
 62
     7
100
AcDbLine
 10
143.419595
 20
322.928478
 11
143.419595
 21
322.528478
  0
LINE
  5
5C2
100
AcDbEntity
  8
M0
 62
     7
100
AcDbLine
 10
114.465655
 20
313.828478
 11
107.669595
 21
313.828478
  0
LINE
  5
5C3
100
AcDbEntity
  8
M0
 62
     7
100
AcDbLine
 10
126.894595
 20
331.053478
 11
126.894595
 21
324.403478
  0
LINE
  5
5C4
100
AcDbEntity
  8
M0
  6
DASHDOT
 62
     7
100
AcDbLine
 10
140.819595
 20
327.228478
 11
140.819595
 21
328.228478
  0
LINE
  5
5C5
100
AcDbEntity
  8
M0
 62
     7
100
AcDbLine
 10
127.394595
 20
323.903478
 11
134.044595
 21
323.903478
  0
LINE
  5
5C6
100
AcDbEntity
  8
M0
 62
     7
100
AcDbLine
 10
134.544595
 20
324.403478
 11
134.544595
 21
331.053478
  0
LINE
  5
5C7
100
AcDbEntity
  8
M0
 62
     7
100
AcDbLine
 10
134.044595
 20
331.553478
 11
127.394595
 21
331.553478
  0
LINE
  5
5C8
100
AcDbEntity
  8
M0
 62
     7
100
AcDbLine
 10
144.644595
 20
324.403478
 11
144.644595
 21
331.053478
  0
ARC
  5
5C9
100
AcDbEntity
  8
M0
 62
     7
100
AcDbCircle
 10
119.769595
 20
392.528478
 40
0.5
100
AcDbArc
 50
0.0
 51
90.0
  0
LINE
  5
5CA
100
AcDbEntity
  8
M0
 62
     7
100
AcDbLine
 10
144.144595
 20
331.553478
 11
137.494595
 21
331.553478
  0
LINE
  5
5CB
100
AcDbEntity
  8
M0
 62
     7
100
AcDbLine
 10
137.494595
 20
323.903478
 11
144.144595
 21
323.903478
  0
LINE
  5
5CC
100
AcDbEntity
  8
M0
  6
DASHDOT
 62
     7
100
AcDbLine
 10
140.319595
 20
327.728478
 11
141.319595
 21
327.728478
  0
LINE
  5
5CD
100
AcDbEntity
  8
M0
  6
DASHDOT
 62
     7
100
AcDbLine
 10
120.119595
 20
327.728478
 11
121.119595
 21
327.728478
  0
LINE
  5
5CE
100
AcDbEntity
  8
M0
 62
     7
100
AcDbLine
 10
123.944595
 20
331.553478
 11
117.294595
 21
331.553478
  0
LINE
  5
5CF
100
AcDbEntity
  8
M0
 62
     7
100
AcDbLine
 10
106.694595
 20
331.053478
 11
106.694595
 21
324.403478
  0
LINE
  5
5D0
100
AcDbEntity
  8
M0
  6
DASHDOT
 62
     7
100
AcDbLine
 10
120.619595
 20
327.228478
 11
120.619595
 21
328.228478
  0
LINE
  5
5D1
100
AcDbEntity
  8
M0
 62
     7
100
AcDbLine
 10
114.344595
 20
324.403478
 11
114.344595
 21
331.053478
  0
LINE
  5
5D2
100
AcDbEntity
  8
M0
  6
DASHDOT
 62
     7
100
AcDbLine
 10
130.719595
 20
327.228478
 11
130.719595
 21
328.228478
  0
LINE
  5
5D3
100
AcDbEntity
  8
M0
  6
DASHDOT
 62
     7
100
AcDbLine
 10
130.219595
 20
327.728478
 11
131.219595
 21
327.728478
  0
LINE
  5
5D4
100
AcDbEntity
  8
M0
 62
     7
100
AcDbLine
 10
124.444595
 20
324.403478
 11
124.444595
 21
331.053478
  0
LINE
  5
5D5
100
AcDbEntity
  8
M0
 62
     7
100
AcDbLine
 10
116.794595
 20
331.053478
 11
116.794595
 21
324.403478
  0
CIRCLE
  5
5D6
100
AcDbEntity
  8
M0
 62
     7
100
AcDbCircle
 10
120.619595
 20
316.128478
 40
2.85
  0
LINE
  5
5D7
100
AcDbEntity
  8
M0
 62
     7
100
AcDbLine
 10
145.116963
 20
354.728478
 11
145.116963
 21
357.528478
  0
ARC
  5
5D8
100
AcDbEntity
  8
M0
 62
     7
100
AcDbCircle
 10
130.369595
 20
314.328478
 40
0.5
100
AcDbArc
 50
180.0
 51
270.0
  0
ARC
  5
5D9
100
AcDbEntity
  8
M0
 62
     7
100
AcDbCircle
 10
143.169595
 20
380.328478
 40
2.25
100
AcDbArc
 50
257.160412
 51
462.839588
  0
ARC
  5
5DA
100
AcDbEntity
  8
M0
 62
     7
100
AcDbCircle
 10
134.019595
 20
314.328478
 40
0.5
100
AcDbArc
 50
270.0
 51
360.0
  0
LINE
  5
5DB
100
AcDbEntity
  8
M0
 62
     7
100
AcDbLine
 10
106.469595
 20
352.328478
 11
109.387539
 21
352.328478
  0
LINE
  5
5DC
100
AcDbEntity
  8
M0
 62
     7
100
AcDbLine
 10
105.169595
 20
344.928478
 11
105.169595
 21
352.328478
  0
LINE
  5
5DD
100
AcDbEntity
  8
M0
 62
     7
100
AcDbLine
 10
146.169595
 20
319.828478
 11
145.719595
 21
319.828478
  0
LINE
  5
5DE
100
AcDbEntity
  8
M0
 62
     7
100
AcDbLine
 10
144.719595
 20
320.828478
 11
144.719595
 21
331.928478
  0
LINE
  5
5DF
100
AcDbEntity
  8
M0
 62
     7
100
AcDbLine
 10
130.569595
 20
359.628478
 11
130.719595
 21
359.628478
  0
ARC
  5
5E0
100
AcDbEntity
  8
M0
 62
     7
100
AcDbCircle
 10
108.169595
 20
320.328478
 40
2.25
100
AcDbArc
 50
191.257189
 51
493.542219
  0
ARC
  5
5E1
100
AcDbEntity
  8
M0
 62
     7
100
AcDbCircle
 10
143.169595
 20
325.528478
 40
2.25
100
AcDbArc
 50
286.791447
 51
313.542219
  0
ARC
  5
5E2
100
AcDbEntity
  8
M0
 62
     7
100
AcDbCircle
 10
108.169595
 20
377.528478
 40
2.25
100
AcDbArc
 50
77.160412
 51
180.0
  0
ARC
  5
5E3
100
AcDbEntity
  8
M0
 62
     7
100
AcDbCircle
 10
141.169595
 20
322.528478
 40
2.25
100
AcDbArc
 50
180.0
 51
360.0
  0
ARC
  5
5E4
100
AcDbEntity
  8
M0
 62
     7
100
AcDbCircle
 10
109.169595
 20
377.528478
 40
5.0
100
AcDbArc
 50
95.73917
 51
180.0
  0
ARC
  5
5E5
100
AcDbEntity
  8
M0
 62
     7
100
AcDbCircle
 10
141.469595
 20
392.428478
 40
0.6
100
AcDbArc
 50
90.0
 51
180.0
  0
ARC
  5
5E6
100
AcDbEntity
  8
M0
 62
     7
100
AcDbCircle
 10
109.869595
 20
392.428478
 40
0.6
100
AcDbArc
 50
0.0
 51
90.0
  0
ARC
  5
5E7
100
AcDbEntity
  8
M0
 62
     7
100
AcDbCircle
 10
130.669595
 20
315.128478
 40
2.0
100
AcDbArc
 50
270.0
 51
319.458398
  0
ARC
  5
5E8
100
AcDbEntity
  8
M0
 62
     7
100
AcDbCircle
 10
109.269595
 20
392.428478
 40
0.6
100
AcDbArc
 50
90.0
 51
180.0
  0
ARC
  5
5E9
100
AcDbEntity
  8
M0
 62
     7
100
AcDbCircle
 10
142.069595
 20
392.428478
 40
0.6
100
AcDbArc
 50
0.0
 51
90.0
  0
LINE
  5
5EA
100
AcDbEntity
  8
M0
 62
     7
100
AcDbLine
 10
130.669595
 20
313.128478
 11
115.719595
 21
313.128478
  0
LINE
  5
5EB
100
AcDbEntity
  8
M0
 62
     7
100
AcDbLine
 10
109.269595
 20
393.028478
 11
109.869595
 21
393.028478
  0
LINE
  5
5EC
100
AcDbEntity
  8
M0
 62
     7
100
AcDbLine
 10
126.819595
 20
315.128478
 11
129.869595
 21
315.128478
  0
LINE
  5
5ED
100
AcDbEntity
  8
M0
 62
     7
100
AcDbLine
 10
142.669595
 20
390.028478
 11
142.669595
 21
383.128478
  0
LINE
  5
5EE
100
AcDbEntity
  8
M0
 62
     7
100
AcDbLine
 10
110.469595
 20
383.028478
 11
110.469595
 21
392.428478
  0
LINE
  5
5EF
100
AcDbEntity
  8
M0
 62
     7
100
AcDbLine
 10
120.169595
 20
315.678478
 11
120.169595
 21
314.928478
  0
LINE
  5
5F0
100
AcDbEntity
  8
M0
 62
     7
100
AcDbLine
 10
120.169595
 20
314.928478
 11
121.069595
 21
314.928478
  0
LINE
  5
5F1
100
AcDbEntity
  8
M0
 62
     7
100
AcDbLine
 10
142.669595
 20
390.028478
 11
142.669595
 21
392.428478
  0
LINE
  5
5F2
100
AcDbEntity
  8
M0
 62
     7
100
AcDbLine
 10
121.819595
 20
315.678478
 11
121.069595
 21
315.678478
  0
LINE
  5
5F3
100
AcDbEntity
  8
M0
 62
     7
100
AcDbLine
 10
141.469595
 20
393.028478
 11
142.069595
 21
393.028478
  0
LINE
  5
5F4
100
AcDbEntity
  8
M0
 62
     7
100
AcDbLine
 10
106.119595
 20
354.728478
 11
106.269595
 21
354.728478
  0
LINE
  5
5F5
100
AcDbEntity
  8
M0
 62
     7
100
AcDbLine
 10
109.387539
 20
344.928478
 11
106.469595
 21
344.928478
  0
LINE
  5
5F6
100
AcDbEntity
  8
M0
 62
     7
100
AcDbLine
 10
105.619595
 20
319.828478
 11
105.169595
 21
319.828478
  0
LINE
  5
5F7
100
AcDbEntity
  8
M0
 62
     7
100
AcDbLine
 10
106.269595
 20
357.528478
 11
106.119595
 21
357.528478
  0
LINE
  5
5F8
100
AcDbEntity
  8
M0
 62
     7
100
AcDbLine
 10
106.469595
 20
344.928478
 11
106.469595
 21
352.328478
  0
LINE
  5
5F9
100
AcDbEntity
  8
M0
 62
     7
100
AcDbLine
 10
109.469595
 20
352.278478
 11
109.469595
 21
351.028478
  0
LINE
  5
5FA
100
AcDbEntity
  8
M0
 62
     7
100
AcDbLine
 10
132.669595
 20
317.628478
 11
132.669595
 21
315.828478
  0
LINE
  5
5FB
100
AcDbEntity
  8
M0
 62
     7
100
AcDbLine
 10
109.469595
 20
346.028478
 11
109.469595
 21
344.978478
  0
LINE
  5
5FC
100
AcDbEntity
  8
M0
 62
     7
100
AcDbLine
 10
109.669595
 20
351.028478
 11
109.469595
 21
351.028478
  0
LINE
  5
5FD
100
AcDbEntity
  8
M0
  6
DASHDOT
 62
     7
100
AcDbLine
 10
130.719595
 20
369.028478
 11
130.719595
 21
370.028478
  0
LINE
  5
5FE
100
AcDbEntity
  8
M0
  6
DASHDOT
 62
     7
100
AcDbLine
 10
130.219595
 20
369.528478
 11
131.219595
 21
369.528478
  0
LINE
  5
5FF
100
AcDbEntity
  8
M0
 62
     7
100
AcDbLine
 10
118.594595
 20
383.803478
 11
118.594595
 21
390.453478
  0
LINE
  5
600
100
AcDbEntity
  8
M0
 62
     7
100
AcDbLine
 10
110.944595
 20
390.453478
 11
110.944595
 21
383.803478
  0
LINE
  5
601
100
AcDbEntity
  8
M0
 62
     7
100
AcDbLine
 10
111.444595
 20
383.303478
 11
118.094595
 21
383.303478
  0
LINE
  5
602
100
AcDbEntity
  8
M0
 62
     7
100
AcDbLine
 10
126.894595
 20
372.853478
 11
126.894595
 21
366.203478
  0
LINE
  5
603
100
AcDbEntity
  8
M0
  6
DASHDOT
 62
     7
100
AcDbLine
 10
120.619595
 20
369.028478
 11
120.619595
 21
370.028478
  0
LINE
  5
604
100
AcDbEntity
  8
M0
 62
     7
100
AcDbLine
 10
127.394595
 20
365.703478
 11
134.044595
 21
365.703478
  0
LINE
  5
605
100
AcDbEntity
  8
M0
 62
     7
100
AcDbLine
 10
134.544595
 20
366.203478
 11
134.544595
 21
372.853478
  0
LINE
  5
606
100
AcDbEntity
  8
M0
 62
     7
100
AcDbLine
 10
134.044595
 20
373.353478
 11
127.394595
 21
373.353478
  0
LINE
  5
607
100
AcDbEntity
  8
M0
 62
     7
100
AcDbLine
 10
113.844595
 20
373.353478
 11
107.194595
 21
373.353478
  0
LINE
  5
608
100
AcDbEntity
  8
M0
 62
     7
100
AcDbLine
 10
107.194595
 20
365.703478
 11
113.844595
 21
365.703478
  0
LINE
  5
609
100
AcDbEntity
  8
M0
  6
DASHDOT
 62
     7
100
AcDbLine
 10
110.519595
 20
369.028478
 11
110.519595
 21
370.028478
  0
LINE
  5
60A
100
AcDbEntity
  8
M0
  6
DASHDOT
 62
     7
100
AcDbLine
 10
110.019595
 20
369.528478
 11
111.019595
 21
369.528478
  0
LINE
  5
60B
100
AcDbEntity
  8
M0
 62
     7
100
AcDbLine
 10
132.744595
 20
390.453478
 11
132.744595
 21
383.803478
  0
LINE
  5
60C
100
AcDbEntity
  8
M0
  6
DASHDOT
 62
     7
100
AcDbLine
 10
114.269595
 20
387.128478
 11
115.269595
 21
387.128478
  0
LINE
  5
60D
100
AcDbEntity
  8
M0
 62
     7
100
AcDbLine
 10
118.094595
 20
390.953478
 11
111.444595
 21
390.953478
  0
LINE
  5
60E
100
AcDbEntity
  8
M0
 62
     7
100
AcDbLine
 10
106.694595
 20
372.853478
 11
106.694595
 21
366.203478
  0
LINE
  5
60F
100
AcDbEntity
  8
M0
  6
DASHDOT
 62
     7
100
AcDbLine
 10
114.769595
 20
386.628478
 11
114.769595
 21
387.628478
  0
LINE
  5
610
100
AcDbEntity
  8
M0
 62
     7
100
AcDbLine
 10
114.344595
 20
366.203478
 11
114.344595
 21
372.853478
  0
ARC
  5
611
100
AcDbEntity
  8
M0
 62
     7
100
AcDbCircle
 10
115.719595
 20
317.428478
 40
1.0
100
AcDbArc
 50
270.0
 51
360.0
  0
ARC
  5
612
100
AcDbEntity
  8
M0
 62
     7
100
AcDbCircle
 10
135.919595
 20
317.428478
 40
1.0
100
AcDbArc
 50
270.0
 51
360.0
  0
ARC
  5
613
100
AcDbEntity
  8
M0
 62
     7
100
AcDbCircle
 10
115.419595
 20
317.428478
 40
1.0
100
AcDbArc
 50
180.0
 51
270.0
  0
ARC
  5
614
100
AcDbEntity
  8
M0
 62
     7
100
AcDbCircle
 10
125.819595
 20
317.428478
 40
1.0
100
AcDbArc
 50
270.0
 51
360.0
  0
LINE
  5
615
100
AcDbEntity
  8
M0
 62
     7
100
AcDbLine
 10
136.994595
 20
372.853478
 11
136.994595
 21
366.203478
  0
ARC
  5
616
100
AcDbEntity
  8
M0
 62
     7
100
AcDbCircle
 10
138.519595
 20
314.328478
 40
0.5
100
AcDbArc
 50
180.0
 51
270.0
  0
LINE
  5
617
100
AcDbEntity
  8
M0
 62
     7
100
AcDbLine
 10
109.469595
 20
346.028478
 11
109.669595
 21
346.028478
  0
ARC
  5
618
100
AcDbEntity
  8
M0
 62
     7
100
AcDbCircle
 10
142.169595
 20
318.828478
 40
5.0
100
AcDbArc
 50
270.0
 51
360.0
  0
ARC
  5
619
100
AcDbEntity
  8
M0
 62
     7
100
AcDbCircle
 10
110.919595
 20
314.328478
 40
0.5
100
AcDbArc
 50
270.0
 51
360.0
  0
ARC
  5
61A
100
AcDbEntity
  8
M0
 62
     7
100
AcDbCircle
 10
107.669595
 20
317.328478
 40
3.5
100
AcDbArc
 50
180.0
 51
270.0
  0
LINE
  5
61B
100
AcDbEntity
  8
M0
 62
     7
100
AcDbLine
 10
124.444595
 20
366.203478
 11
124.444595
 21
372.853478
  0
LINE
  5
61C
100
AcDbEntity
  8
M0
 62
     7
100
AcDbLine
 10
116.794595
 20
372.853478
 11
116.794595
 21
366.203478
  0
LINE
  5
61D
100
AcDbEntity
  8
M0
 62
     7
100
AcDbLine
 10
123.944595
 20
373.353478
 11
117.294595
 21
373.353478
  0
LINE
  5
61E
100
AcDbEntity
  8
M0
 62
     7
100
AcDbLine
 10
117.294595
 20
365.703478
 11
123.944595
 21
365.703478
  0
LINE
  5
61F
100
AcDbEntity
  8
M0
  6
DASHDOT
 62
     7
100
AcDbLine
 10
120.119595
 20
369.528478
 11
121.119595
 21
369.528478
  0
LINE
  5
620
100
AcDbEntity
  8
M0
 62
     7
100
AcDbLine
 10
137.494595
 20
365.703478
 11
144.144595
 21
365.703478
  0
LINE
  5
621
100
AcDbEntity
  8
M0
 62
     7
100
AcDbLine
 10
144.644595
 20
366.203478
 11
144.644595
 21
372.853478
  0
LINE
  5
622
100
AcDbEntity
  8
M0
  6
DASHDOT
 62
     7
100
AcDbLine
 10
140.319595
 20
369.528478
 11
141.319595
 21
369.528478
  0
LINE
  5
623
100
AcDbEntity
  8
M0
 62
     7
100
AcDbLine
 10
144.144595
 20
373.353478
 11
137.494595
 21
373.353478
  0
LINE
  5
624
100
AcDbEntity
  8
M0
 62
     7
100
AcDbLine
 10
123.419595
 20
353.228478
 11
120.869595
 21
353.228478
  0
LINE
  5
625
100
AcDbEntity
  8
M0
 62
     7
100
AcDbLine
 10
127.919595
 20
353.228478
 11
130.469595
 21
353.228478
  0
LINE
  5
626
100
AcDbEntity
  8
M0
 62
     7
100
AcDbLine
 10
120.369595
 20
381.528478
 11
120.369595
 21
383.445145
  0
LINE
  5
627
100
AcDbEntity
  8
M0
 62
     7
100
AcDbLine
 10
121.369595
 20
383.028478
 11
129.969595
 21
383.028478
  0
LINE
  5
628
100
AcDbEntity
  8
M0
 62
     7
100
AcDbLine
 10
120.369595
 20
381.528478
 11
130.969595
 21
381.528478
  0
LINE
  5
629
100
AcDbEntity
  8
M0
 62
     7
100
AcDbLine
 10
121.369595
 20
391.528478
 11
129.969595
 21
391.528478
  0
LINE
  5
62A
100
AcDbEntity
  8
M0
 62
     7
100
AcDbLine
 10
114.419595
 20
379.428478
 11
108.669595
 21
379.428478
  0
LINE
  5
62B
100
AcDbEntity
  8
M0
 62
     7
100
AcDbLine
 10
124.519595
 20
344.528478
 11
124.519595
 21
345.028478
  0
LINE
  5
62C
100
AcDbEntity
  8
M0
 62
     7
100
AcDbLine
 10
108.669595
 20
392.428478
 11
108.669595
 21
374.328478
  0
LINE
  5
62D
100
AcDbEntity
  8
M0
 62
     7
100
AcDbLine
 10
130.969595
 20
352.728478
 11
130.969595
 21
344.528478
  0
LINE
  5
62E
100
AcDbEntity
  8
M0
 62
     7
100
AcDbLine
 10
130.969595
 20
379.428478
 11
130.969595
 21
381.528478
  0
LINE
  5
62F
100
AcDbEntity
  8
M0
 62
     7
100
AcDbLine
 10
120.369595
 20
381.528478
 11
120.369595
 21
379.428478
  0
ARC
  5
630
100
AcDbEntity
  8
M0
 62
     7
100
AcDbCircle
 10
105.169595
 20
343.928478
 40
1.0
100
AcDbArc
 50
90.0
 51
180.0
  0
LINE
  5
631
100
AcDbEntity
  8
M0
 62
     7
100
AcDbLine
 10
130.969595
 20
381.528478
 11
130.969595
 21
383.445145
  0
ARC
  5
632
100
AcDbEntity
  8
M0
 62
     7
100
AcDbCircle
 10
146.169595
 20
343.928478
 40
1.0
100
AcDbArc
 50
0.0
 51
90.0
  0
LINE
  5
633
100
AcDbEntity
  8
M0
 62
     7
100
AcDbLine
 10
134.619595
 20
317.628478
 11
126.819595
 21
317.628478
  0
LINE
  5
634
100
AcDbEntity
  8
M0
 62
     7
100
AcDbLine
 10
122.519595
 20
319.628478
 11
118.719595
 21
319.628478
  0
LINE
  5
635
100
AcDbEntity
  8
M0
 62
     7
100
AcDbLine
 10
142.669595
 20
379.428478
 11
136.919595
 21
379.428478
  0
LINE
  5
636
100
AcDbEntity
  8
M0
 62
     7
100
AcDbLine
 10
126.819595
 20
379.428478
 11
134.619595
 21
379.428478
  0
LINE
  5
637
100
AcDbEntity
  8
M0
 62
     7
100
AcDbLine
 10
142.669595
 20
374.328478
 11
142.669595
 21
379.428478
  0
LINE
  5
638
100
AcDbEntity
  8
M0
 62
     7
100
AcDbLine
 10
115.419595
 20
380.828478
 11
115.619595
 21
380.828478
  0
LINE
  5
639
100
AcDbEntity
  8
M0
 62
     7
100
AcDbLine
 10
124.519595
 20
365.328478
 11
124.519595
 21
379.828478
  0
LINE
  5
63A
100
AcDbEntity
  8
M0
 62
     7
100
AcDbLine
 10
145.719595
 20
377.428478
 11
146.169595
 21
377.428478
  0
LINE
  5
63B
100
AcDbEntity
  8
M0
 62
     7
100
AcDbLine
 10
116.719595
 20
379.828478
 11
116.719595
 21
376.828478
  0
LINE
  5
63C
100
AcDbEntity
  8
M0
 62
     7
100
AcDbLine
 10
106.619595
 20
376.428478
 11
106.619595
 21
372.428478
  0
LINE
  5
63D
100
AcDbEntity
  8
M0
 62
     7
100
AcDbLine
 10
106.619595
 20
331.928478
 11
106.619595
 21
324.828478
  0
LINE
  5
63E
100
AcDbEntity
  8
M0
 62
     7
100
AcDbLine
 10
107.519595
 20
374.328478
 11
113.519595
 21
374.328478
  0
LINE
  5
63F
100
AcDbEntity
  8
M0
 62
     7
100
AcDbLine
 10
135.719595
 20
380.828478
 11
135.919595
 21
380.828478
  0
LINE
  5
640
100
AcDbEntity
  8
M0
 62
     7
100
AcDbLine
 10
106.619595
 20
324.828478
 11
106.619595
 21
320.828478
  0
LINE
  5
641
100
AcDbEntity
  8
M0
 62
     7
100
AcDbLine
 10
135.619595
 20
380.828478
 11
135.719595
 21
380.828478
  0
LINE
  5
642
100
AcDbEntity
  8
M0
 62
     7
100
AcDbLine
 10
105.169595
 20
377.428478
 11
105.619595
 21
377.428478
  0
LINE
  5
643
100
AcDbEntity
  8
M0
 62
     7
100
AcDbLine
 10
106.619595
 20
372.428478
 11
106.619595
 21
365.328478
  0
LINE
  5
644
100
AcDbEntity
  8
M0
 62
     7
100
AcDbLine
 10
120.369595
 20
383.445145
 11
120.369595
 21
390.528478
  0
LINE
  5
645
100
AcDbEntity
  8
M0
 62
     7
100
AcDbLine
 10
131.719595
 20
337.628478
 11
119.619595
 21
337.628478
  0
LINE
  5
646
100
AcDbEntity
  8
M0
 62
     7
100
AcDbLine
 10
130.969595
 20
390.528478
 11
130.969595
 21
383.445145
  0
LINE
  5
647
100
AcDbEntity
  8
M0
 62
     7
100
AcDbLine
 10
131.219595
 20
342.328478
 11
120.119595
 21
342.328478
  0
LINE
  5
648
100
AcDbEntity
  8
M0
 62
     7
100
AcDbLine
 10
145.219595
 20
365.328478
 11
106.119595
 21
365.328478
  0
LINE
  5
649
100
AcDbEntity
  8
M0
 62
     7
100
AcDbLine
 10
120.119595
 20
343.728478
 11
131.219595
 21
343.728478
  0
LINE
  5
64A
100
AcDbEntity
  8
M0
 62
     7
100
AcDbLine
 10
120.119595
 20
339.128478
 11
131.219595
 21
339.128478
  0
LINE
  5
64B
100
AcDbEntity
  8
M0
 62
     7
100
AcDbLine
 10
108.669595
 20
379.528478
 11
108.669595
 21
379.428478
  0
LINE
  5
64C
100
AcDbEntity
  8
M0
 62
     7
100
AcDbLine
 10
140.069595
 20
391.528478
 11
140.869595
 21
391.528478
  0
LINE
  5
64D
100
AcDbEntity
  8
M0
 62
     7
100
AcDbLine
 10
142.669595
 20
379.428478
 11
142.669595
 21
379.528478
  0
LINE
  5
64E
100
AcDbEntity
  8
M0
 62
     7
100
AcDbLine
 10
108.669595
 20
383.128478
 11
108.669595
 21
383.028478
  0
LINE
  5
64F
100
AcDbEntity
  8
M0
 62
     7
100
AcDbLine
 10
142.669595
 20
383.028478
 11
142.669595
 21
383.128478
  0
ARC
  5
650
100
AcDbEntity
  8
M0
 62
     7
100
AcDbCircle
 10
125.519595
 20
379.828478
 40
1.0
100
AcDbArc
 50
90.0
 51
180.0
  0
ARC
  5
651
100
AcDbEntity
  8
M0
 62
     7
100
AcDbCircle
 10
105.619595
 20
320.828478
 40
1.0
100
AcDbArc
 50
270.0
 51
360.0
  0
LINE
  5
652
100
AcDbEntity
  8
M0
 62
     7
100
AcDbLine
 10
131.369595
 20
317.628478
 11
131.369595
 21
315.828478
  0
ARC
  5
653
100
AcDbEntity
  8
M0
 62
     7
100
AcDbCircle
 10
115.719595
 20
379.828478
 40
1.0
100
AcDbArc
 50
0.0
 51
90.0
  0
LINE
  5
654
100
AcDbEntity
  8
M0
 62
     7
100
AcDbLine
 10
110.469595
 20
391.528478
 11
118.769595
 21
391.528478
  0
LINE
  5
655
100
AcDbEntity
  8
M0
 62
     7
100
AcDbLine
 10
121.069595
 20
317.328478
 11
120.169595
 21
317.328478
  0
LINE
  5
656
100
AcDbEntity
  8
M0
 62
     7
100
AcDbLine
 10
121.069595
 20
316.578478
 11
121.819595
 21
316.578478
  0
LINE
  5
657
100
AcDbEntity
  8
M0
 62
     7
100
AcDbLine
 10
120.169595
 20
315.678478
 11
119.419595
 21
315.678478
  0
LINE
  5
658
100
AcDbEntity
  8
M0
 62
     7
100
AcDbLine
 10
121.069595
 20
314.928478
 11
121.069595
 21
315.678478
  0
LINE
  5
659
100
AcDbEntity
  8
M0
  6
DASHDOT
 62
     7
100
AcDbLine
 10
140.819595
 20
369.028478
 11
140.819595
 21
370.028478
  0
LINE
  5
65A
100
AcDbEntity
  8
M0
 62
     7
100
AcDbLine
 10
110.469595
 20
383.028478
 11
110.469595
 21
383.128478
  0
LINE
  5
65B
100
AcDbEntity
  8
M0
 62
     7
100
AcDbLine
 10
140.869595
 20
392.428478
 11
140.869595
 21
383.028478
  0
LINE
  5
65C
100
AcDbEntity
  8
M0
 62
     7
100
AcDbLine
 10
119.419595
 20
316.578478
 11
120.169595
 21
316.578478
  0
LINE
  5
65D
100
AcDbEntity
  8
M0
 62
     7
100
AcDbLine
 10
121.069595
 20
316.578478
 11
121.069595
 21
317.328478
  0
LINE
  5
65E
100
AcDbEntity
  8
M0
 62
     7
100
AcDbLine
 10
120.169595
 20
317.328478
 11
120.169595
 21
316.578478
  0
ARC
  5
65F
100
AcDbEntity
  8
M0
 62
     7
100
AcDbCircle
 10
119.619595
 20
338.128478
 40
0.5
100
AcDbArc
 50
270.0
 51
360.0
  0
ARC
  5
660
100
AcDbEntity
  8
M0
 62
     7
100
AcDbCircle
 10
131.719595
 20
338.128478
 40
0.5
100
AcDbArc
 50
180.0
 51
270.0
  0
ARC
  5
661
100
AcDbEntity
  8
M0
 62
     7
100
AcDbCircle
 10
134.119595
 20
361.328478
 40
0.5
100
AcDbArc
 50
270.0
 51
292.798407
  0
ARC
  5
662
100
AcDbEntity
  8
M0
 62
     7
100
AcDbCircle
 10
134.119595
 20
337.128478
 40
0.5
100
AcDbArc
 50
67.201593
 51
90.0
  0
ARC
  5
663
100
AcDbEntity
  8
M0
 62
     7
100
AcDbCircle
 10
117.219595
 20
337.128478
 40
0.5
100
AcDbArc
 50
90.0
 51
112.798407
  0
ARC
  5
664
100
AcDbEntity
  8
M0
 62
     7
100
AcDbCircle
 10
146.219595
 20
343.929729
 40
1.0
100
AcDbArc
 50
92.865984
 51
180.0
  0
LINE
  5
665
100
AcDbEntity
  8
M0
 62
     7
100
AcDbLine
 10
117.469595
 20
337.628478
 11
119.619595
 21
337.628478
  0
ARC
  5
666
100
AcDbEntity
  8
M0
 62
     7
100
AcDbCircle
 10
105.169595
 20
376.428478
 40
1.0
100
AcDbArc
 50
90.0
 51
180.0
  0
ARC
  5
667
100
AcDbEntity
  8
M0
 62
     7
100
AcDbCircle
 10
105.119595
 20
343.929729
 40
1.0
100
AcDbArc
 50
0.0
 51
87.134016
  0
ARC
  5
668
100
AcDbEntity
  8
M0
 62
     7
100
AcDbCircle
 10
105.119595
 20
353.327227
 40
1.0
100
AcDbArc
 50
272.865984
 51
360.0
  0
ARC
  5
669
100
AcDbEntity
  8
M0
 62
     7
100
AcDbCircle
 10
124.019595
 20
337.128478
 40
0.5
100
AcDbArc
 50
53.130102
 51
90.0
  0
ARC
  5
66A
100
AcDbEntity
  8
M0
 62
     7
100
AcDbCircle
 10
135.619595
 20
379.828478
 40
1.0
100
AcDbArc
 50
90.0
 51
180.0
  0
ARC
  5
66B
100
AcDbEntity
  8
M0
 62
     7
100
AcDbCircle
 10
146.169595
 20
320.828478
 40
1.0
100
AcDbArc
 50
270.0
 51
360.0
  0
ARC
  5
66C
100
AcDbEntity
  8
M0
 62
     7
100
AcDbCircle
 10
115.419595
 20
379.828478
 40
1.0
100
AcDbArc
 50
90.0
 51
180.0
  0
ARC
  5
66D
100
AcDbEntity
  8
M0
 62
     7
100
AcDbCircle
 10
127.319595
 20
337.128478
 40
0.5
100
AcDbArc
 50
90.0
 51
126.869898
  0
ARC
  5
66E
100
AcDbEntity
  8
M0
 62
     7
100
AcDbCircle
 10
117.219595
 20
361.328478
 40
0.5
100
AcDbArc
 50
247.201593
 51
270.0
  0
ARC
  5
66F
100
AcDbEntity
  8
M0
 62
     7
100
AcDbCircle
 10
105.169595
 20
320.828478
 40
1.0
100
AcDbArc
 50
180.0
 51
270.0
  0
ARC
  5
670
100
AcDbEntity
  8
M0
 62
     7
100
AcDbCircle
 10
135.919595
 20
379.828478
 40
1.0
100
AcDbArc
 50
0.0
 51
90.0
  0
ARC
  5
671
100
AcDbEntity
  8
M0
 62
     7
100
AcDbCircle
 10
145.719595
 20
320.828478
 40
1.0
100
AcDbArc
 50
180.0
 51
270.0
  0
ARC
  5
672
100
AcDbEntity
  8
M0
 62
     7
100
AcDbCircle
 10
125.819595
 20
379.828478
 40
1.0
100
AcDbArc
 50
0.0
 51
90.0
  0
LINE
  5
673
100
AcDbEntity
  8
M0
 62
     7
100
AcDbLine
 10
144.869595
 20
352.328478
 11
141.95165
 21
352.328478
  0
LINE
  5
674
100
AcDbEntity
  8
M0
 62
     7
100
AcDbLine
 10
106.222226
 20
354.728478
 11
106.222226
 21
357.528478
  0
LINE
  5
675
100
AcDbEntity
  8
M0
 62
     7
100
AcDbLine
 10
144.869595
 20
344.928478
 11
144.869595
 21
345.128478
  0
LINE
  5
676
100
AcDbEntity
  8
M0
 62
     7
100
AcDbLine
 10
141.95165
 20
344.928478
 11
144.869595
 21
344.928478
  0
LINE
  5
677
100
AcDbEntity
  8
M0
 62
     7
100
AcDbLine
 10
145.069595
 20
354.728478
 11
145.219595
 21
354.728478
  0
LINE
  5
678
100
AcDbEntity
  8
M0
 62
     7
100
AcDbLine
 10
114.419595
 20
376.828478
 11
114.419595
 21
379.828478
  0
LINE
  5
679
100
AcDbEntity
  8
M0
 62
     7
100
AcDbLine
 10
141.869595
 20
351.028478
 11
141.669595
 21
351.028478
  0
LINE
  5
67A
100
AcDbEntity
  8
M0
 62
     7
100
AcDbLine
 10
146.169595
 20
344.928478
 11
146.169595
 21
345.128478
  0
LINE
  5
67B
100
AcDbEntity
  8
M0
 62
     7
100
AcDbLine
 10
145.219595
 20
357.528478
 11
145.069595
 21
357.528478
  0
LINE
  5
67C
100
AcDbEntity
  8
M0
 62
     7
100
AcDbLine
 10
141.869595
 20
352.278478
 11
141.869595
 21
351.028478
  0
LINE
  5
67D
100
AcDbEntity
  8
M0
 62
     7
100
AcDbLine
 10
136.919595
 20
365.328478
 11
136.919595
 21
379.828478
  0
LINE
  5
67E
100
AcDbEntity
  8
M0
 62
     7
100
AcDbLine
 10
126.819595
 20
365.328478
 11
126.819595
 21
379.828478
  0
LINE
  5
67F
100
AcDbEntity
  8
M0
 62
     7
100
AcDbLine
 10
134.619595
 20
317.428478
 11
134.619595
 21
331.928478
  0
LINE
  5
680
100
AcDbEntity
  8
M0
 62
     7
100
AcDbLine
 10
125.519595
 20
330.428478
 11
125.819595
 21
330.428478
  0
LINE
  5
681
100
AcDbEntity
  8
M0
 62
     7
100
AcDbLine
 10
115.619595
 20
316.428478
 11
115.419595
 21
316.428478
  0
LINE
  5
682
100
AcDbEntity
  8
M0
 62
     7
100
AcDbLine
 10
125.719595
 20
316.428478
 11
125.619595
 21
316.428478
  0
LINE
  5
683
100
AcDbEntity
  8
M0
 62
     7
100
AcDbLine
 10
125.619595
 20
316.428478
 11
125.519595
 21
316.428478
  0
LINE
  5
684
100
AcDbEntity
  8
M0
 62
     7
100
AcDbLine
 10
125.819595
 20
316.428478
 11
125.719595
 21
316.428478
  0
LINE
  5
685
100
AcDbEntity
  8
M0
 62
     7
100
AcDbLine
 10
135.719595
 20
316.428478
 11
135.619595
 21
316.428478
  0
LINE
  5
686
100
AcDbEntity
  8
M0
 62
     7
100
AcDbLine
 10
135.919595
 20
316.428478
 11
135.719595
 21
316.428478
  0
ARC
  5
687
100
AcDbEntity
  8
M0
 62
     7
100
AcDbCircle
 10
125.519595
 20
351.128478
 40
0.5
100
AcDbArc
 50
180.0
 51
270.0
  0
ARC
  5
688
100
AcDbEntity
  8
M0
 62
     7
100
AcDbCircle
 10
125.519595
 20
346.128478
 40
0.5
100
AcDbArc
 50
90.0
 51
180.0
  0
ARC
  5
689
100
AcDbEntity
  8
M0
 62
     7
100
AcDbCircle
 10
115.419595
 20
314.628478
 40
1.0
100
AcDbArc
 50
180.0
 51
270.0
  0
ARC
  5
68A
100
AcDbEntity
  8
M0
 62
     7
100
AcDbCircle
 10
115.719595
 20
314.628478
 40
1.0
100
AcDbArc
 50
270.0
 51
360.0
  0
ARC
  5
68B
100
AcDbEntity
  8
M0
 62
     7
100
AcDbCircle
 10
120.869595
 20
344.528478
 40
0.5
100
AcDbArc
 50
180.0
 51
270.0
  0
ARC
  5
68C
100
AcDbEntity
  8
M0
 62
     7
100
AcDbCircle
 10
125.819595
 20
314.628478
 40
1.0
100
AcDbArc
 50
270.0
 51
360.0
  0
LINE
  5
68D
100
AcDbEntity
  8
M0
 62
     7
100
AcDbLine
 10
126.319595
 20
351.128478
 11
126.319595
 21
353.428478
  0
ARC
  5
68E
100
AcDbEntity
  8
M0
 62
     7
100
AcDbCircle
 10
125.819595
 20
346.128478
 40
0.5
100
AcDbArc
 50
0.0
 51
90.0
  0
ARC
  5
68F
100
AcDbEntity
  8
M0
 62
     7
100
AcDbCircle
 10
125.519595
 20
314.628478
 40
1.0
100
AcDbArc
 50
180.0
 51
270.0
  0
ARC
  5
690
100
AcDbEntity
  8
M0
 62
     7
100
AcDbCircle
 10
125.819595
 20
351.128478
 40
0.5
100
AcDbArc
 50
270.0
 51
360.0
  0
ELLIPSE
  5
691
100
AcDbEntity
  8
M0
 62
     7
100
AcDbEllipse
 10
121.369595
 20
383.445145
 11
1.0
 21
0.0
210
0.0
220
0.0
230
1.0
 40
0.416667
 41
3.141592653589793
 42
4.71238898038469
  0
ELLIPSE
  5
692
100
AcDbEntity
  8
M0
 62
     7
100
AcDbEllipse
 10
129.969595
 20
383.445145
 11
1.0
 21
0.0
210
0.0
220
0.0
230
1.0
 40
0.416667
 41
4.71238898038469
 42
6.283185307179586
  0
LINE
  5
693
100
AcDbEntity
  8
M0
 62
     7
100
AcDbLine
 10
141.669595
 20
346.028478
 11
141.869595
 21
346.028478
  0
LINE
  5
694
100
AcDbEntity
  8
M0
 62
     7
100
AcDbLine
 10
120.769595
 20
359.628478
 11
120.619595
 21
359.628478
  0
LINE
  5
695
100
AcDbEntity
  8
M0
 62
     7
100
AcDbLine
 10
141.869595
 20
346.028478
 11
141.869595
 21
344.978478
  0
ARC
  5
696
100
AcDbEntity
  8
M0
 62
     7
100
AcDbCircle
 10
124.019595
 20
344.528478
 40
0.5
100
AcDbArc
 50
270.0
 51
360.0
  0
ARC
  5
697
100
AcDbEntity
  8
M0
 62
     7
100
AcDbCircle
 10
130.469595
 20
344.528478
 40
0.5
100
AcDbArc
 50
270.0
 51
360.0
  0
ARC
  5
698
100
AcDbEntity
  8
M0
 62
     7
100
AcDbCircle
 10
124.419595
 20
346.028478
 40
0.5
100
AcDbArc
 50
180.0
 51
270.0
  0
ARC
  5
699
100
AcDbEntity
  8
M0
 62
     7
100
AcDbCircle
 10
126.919595
 20
346.028478
 40
0.5
100
AcDbArc
 50
270.0
 51
360.0
  0
ARC
  5
69A
100
AcDbEntity
  8
M0
 62
     7
100
AcDbCircle
 10
125.519595
 20
367.828478
 40
1.0
100
AcDbArc
 50
180.0
 51
270.0
  0
ARC
  5
69B
100
AcDbEntity
  8
M0
 62
     7
100
AcDbCircle
 10
125.819595
 20
367.828478
 40
1.0
100
AcDbArc
 50
270.0
 51
360.0
  0
ARC
  5
69C
100
AcDbEntity
  8
M0
 62
     7
100
AcDbCircle
 10
125.519595
 20
317.428478
 40
1.0
100
AcDbArc
 50
180.0
 51
270.0
  0
ARC
  5
69D
100
AcDbEntity
  8
M0
 62
     7
100
AcDbCircle
 10
135.619595
 20
367.828478
 40
1.0
100
AcDbArc
 50
180.0
 51
270.0
  0
ARC
  5
69E
100
AcDbEntity
  8
M0
 62
     7
100
AcDbCircle
 10
135.619595
 20
317.428478
 40
1.0
100
AcDbArc
 50
180.0
 51
270.0
  0
LINE
  5
69F
100
AcDbEntity
  8
M0
 62
     7
100
AcDbLine
 10
133.369595
 20
337.628478
 11
133.869595
 21
337.628478
  0
LINE
  5
6A0
100
AcDbEntity
  8
M0
 62
     7
100
AcDbLine
 10
130.719595
 20
358.628478
 11
120.619595
 21
358.628478
  0
ARC
  5
6A1
100
AcDbEntity
  8
M0
 62
     7
100
AcDbCircle
 10
115.719595
 20
329.428478
 40
1.0
100
AcDbArc
 50
0.0
 51
90.0
  0
ARC
  5
6A2
100
AcDbEntity
  8
M0
 62
     7
100
AcDbCircle
 10
125.819595
 20
329.428478
 40
1.0
100
AcDbArc
 50
0.0
 51
90.0
  0
ARC
  5
6A3
100
AcDbEntity
  8
M0
 62
     7
100
AcDbCircle
 10
115.419595
 20
367.828478
 40
1.0
100
AcDbArc
 50
180.0
 51
270.0
  0
ARC
  5
6A4
100
AcDbEntity
  8
M0
 62
     7
100
AcDbCircle
 10
105.169595
 20
353.328478
 40
1.0
100
AcDbArc
 50
180.0
 51
270.0
  0
ARC
  5
6A5
100
AcDbEntity
  8
M0
 62
     7
100
AcDbCircle
 10
115.719595
 20
367.828478
 40
1.0
100
AcDbArc
 50
270.0
 51
360.0
  0
ARC
  5
6A6
100
AcDbEntity
  8
M0
 62
     7
100
AcDbCircle
 10
146.169595
 20
353.328478
 40
1.0
100
AcDbArc
 50
270.0
 51
360.0
  0
ARC
  5
6A7
100
AcDbEntity
  8
M0
 62
     7
100
AcDbCircle
 10
146.219595
 20
353.327227
 40
1.0
100
AcDbArc
 50
180.0
 51
267.134016
  0
LINE
  5
6A8
100
AcDbEntity
  8
M0
 62
     7
100
AcDbLine
 10
117.294595
 20
323.903478
 11
123.944595
 21
323.903478
  0
ARC
  5
6A9
100
AcDbEntity
  8
M0
 62
     7
100
AcDbCircle
 10
135.919595
 20
329.428478
 40
1.0
100
AcDbArc
 50
0.0
 51
90.0
  0
ARC
  5
6AA
100
AcDbEntity
  8
M0
 62
     7
100
AcDbCircle
 10
135.619595
 20
329.428478
 40
1.0
100
AcDbArc
 50
90.0
 51
180.0
  0
ARC
  5
6AB
100
AcDbEntity
  8
M0
 62
     7
100
AcDbCircle
 10
135.919595
 20
367.828478
 40
1.0
100
AcDbArc
 50
270.0
 51
360.0
  0
ARC
  5
6AC
100
AcDbEntity
  8
M0
 62
     7
100
AcDbCircle
 10
115.419595
 20
329.428478
 40
1.0
100
AcDbArc
 50
90.0
 51
180.0
  0
ARC
  5
6AD
100
AcDbEntity
  8
M0
 62
     7
100
AcDbCircle
 10
125.519595
 20
329.428478
 40
1.0
100
AcDbArc
 50
90.0
 51
180.0
  0
LINE
  5
6AE
100
AcDbEntity
  8
M0
 62
     7
100
AcDbLine
 10
145.219595
 20
343.928478
 11
145.219595
 21
343.929729
  0
LINE
  5
6AF
100
AcDbEntity
  8
M0
 62
     7
100
AcDbLine
 10
134.619595
 20
379.828478
 11
134.619595
 21
365.328478
  0
LINE
  5
6B0
100
AcDbEntity
  8
M0
 62
     7
100
AcDbLine
 10
145.219595
 20
353.327227
 11
145.219595
 21
353.328478
  0
LINE
  5
6B1
100
AcDbEntity
  8
M0
 62
     7
100
AcDbLine
 10
106.119595
 20
343.929729
 11
106.119595
 21
343.928478
  0
LINE
  5
6B2
100
AcDbEntity
  8
M0
 62
     7
100
AcDbLine
 10
106.119595
 20
353.328478
 11
106.119595
 21
353.327227
  0
LINE
  5
6B3
100
AcDbEntity
  8
M0
 62
     7
100
AcDbLine
 10
115.719595
 20
316.428478
 11
115.619595
 21
316.428478
  0
ARC
  5
6B4
100
AcDbEntity
  8
M0
 62
     7
100
AcDbCircle
 10
125.019595
 20
350.528478
 40
0.5
100
AcDbArc
 50
180.0
 51
270.0
  0
LINE
  5
6B5
100
AcDbEntity
  8
M0
 62
     7
100
AcDbLine
 10
114.419595
 20
365.328478
 11
114.419595
 21
367.828478
  0
LINE
  5
6B6
100
AcDbEntity
  8
M0
 62
     7
100
AcDbLine
 10
136.919595
 20
331.928478
 11
136.919595
 21
317.428478
  0
LINE
  5
6B7
100
AcDbEntity
  8
M0
 62
     7
100
AcDbLine
 10
116.719595
 20
367.828478
 11
116.719595
 21
365.328478
  0
LINE
  5
6B8
100
AcDbEntity
  8
M0
 62
     7
100
AcDbLine
 10
116.469595
 20
341.128478
 11
116.469595
 21
354.728478
  0
LINE
  5
6B9
100
AcDbEntity
  8
M0
 62
     7
100
AcDbLine
 10
106.119595
 20
365.328478
 11
106.119595
 21
353.328478
  0
LINE
  5
6BA
100
AcDbEntity
  8
M0
 62
     7
100
AcDbLine
 10
131.219595
 20
353.428478
 11
120.119595
 21
353.428478
  0
LINE
  5
6BB
100
AcDbEntity
  8
M0
 62
     7
100
AcDbLine
 10
145.219595
 20
353.328478
 11
145.219595
 21
365.328478
  0
LINE
  5
6BC
100
AcDbEntity
  8
M0
 62
     7
100
AcDbLine
 10
133.369595
 20
360.828478
 11
133.869595
 21
360.828478
  0
LINE
  5
6BD
100
AcDbEntity
  8
M0
 62
     7
100
AcDbLine
 10
106.119595
 20
343.928478
 11
106.119595
 21
331.928478
  0
LINE
  5
6BE
100
AcDbEntity
  8
M0
 62
     7
100
AcDbLine
 10
145.219595
 20
331.928478
 11
145.219595
 21
343.928478
  0
LINE
  5
6BF
100
AcDbEntity
  8
M0
 62
     7
100
AcDbLine
 10
134.869595
 20
341.128478
 11
134.869595
 21
354.728478
  0
LINE
  5
6C0
100
AcDbEntity
  8
M0
 62
     7
100
AcDbLine
 10
117.469595
 20
360.828478
 11
117.969595
 21
360.828478
  0
ARC
  5
6C1
100
AcDbEntity
  8
M0
 62
     7
100
AcDbCircle
 10
133.244595
 20
390.453478
 40
0.5
100
AcDbArc
 50
90.0
 51
180.0
  0
ARC
  5
6C2
100
AcDbEntity
  8
M0
 62
     7
100
AcDbCircle
 10
113.844595
 20
366.203478
 40
0.5
100
AcDbArc
 50
270.0
 51
360.0
  0
ARC
  5
6C3
100
AcDbEntity
  8
M0
 62
     7
100
AcDbCircle
 10
139.894595
 20
390.453478
 40
0.5
100
AcDbArc
 50
0.0
 51
90.0
  0
ARC
  5
6C4
100
AcDbEntity
  8
M0
 62
     7
100
AcDbCircle
 10
133.244595
 20
383.803478
 40
0.5
100
AcDbArc
 50
180.0
 51
270.0
  0
ARC
  5
6C5
100
AcDbEntity
  8
M0
 62
     7
100
AcDbCircle
 10
139.894595
 20
383.803478
 40
0.5
100
AcDbArc
 50
270.0
 51
360.0
  0
ARC
  5
6C6
100
AcDbEntity
  8
M0
 62
     7
100
AcDbCircle
 10
118.094595
 20
383.803478
 40
0.5
100
AcDbArc
 50
270.0
 51
360.0
  0
ARC
  5
6C7
100
AcDbEntity
  8
M0
 62
     7
100
AcDbCircle
 10
118.094595
 20
390.453478
 40
0.5
100
AcDbArc
 50
0.0
 51
90.0
  0
ARC
  5
6C8
100
AcDbEntity
  8
M0
 62
     7
100
AcDbCircle
 10
107.194595
 20
366.203478
 40
0.5
100
AcDbArc
 50
180.0
 51
270.0
  0
ARC
  5
6C9
100
AcDbEntity
  8
M0
 62
     7
100
AcDbCircle
 10
107.194595
 20
372.853478
 40
0.5
100
AcDbArc
 50
90.0
 51
180.0
  0
ARC
  5
6CA
100
AcDbEntity
  8
M0
 62
     7
100
AcDbCircle
 10
113.844595
 20
372.853478
 40
0.5
100
AcDbArc
 50
0.0
 51
90.0
  0
LINE
  5
6CB
100
AcDbEntity
  8
M0
 62
     7
100
AcDbLine
 10
133.469595
 20
360.928478
 11
133.469595
 21
360.828478
  0
LINE
  5
6CC
100
AcDbEntity
  8
M0
 62
     7
100
AcDbLine
 10
134.619595
 20
323.928478
 11
133.719595
 21
323.928478
  0
LINE
  5
6CD
100
AcDbEntity
  8
M0
 62
     7
100
AcDbLine
 10
115.519595
 20
380.828478
 11
115.419595
 21
380.828478
  0
LINE
  5
6CE
100
AcDbEntity
  8
M0
 62
     7
100
AcDbLine
 10
135.919595
 20
380.828478
 11
135.819595
 21
380.828478
  0
LINE
  5
6CF
100
AcDbEntity
  8
M0
 62
     7
100
AcDbLine
 10
115.719595
 20
313.628478
 11
115.419595
 21
313.628478
  0
LINE
  5
6D0
100
AcDbEntity
  8
M0
 62
     7
100
AcDbLine
 10
117.619595
 20
323.928478
 11
116.719595
 21
323.928478
  0
LINE
  5
6D1
100
AcDbEntity
  8
M0
 62
     7
100
AcDbLine
 10
126.819595
 20
373.328478
 11
127.719595
 21
373.328478
  0
LINE
  5
6D2
100
AcDbEntity
  8
M0
 62
     7
100
AcDbLine
 10
124.519595
 20
323.928478
 11
123.619595
 21
323.928478
  0
LINE
  5
6D3
100
AcDbEntity
  8
M0
 62
     7
100
AcDbLine
 10
137.819595
 20
323.928478
 11
136.919595
 21
323.928478
  0
LINE
  5
6D4
100
AcDbEntity
  8
M0
 62
     7
100
AcDbLine
 10
127.969595
 20
337.528478
 11
127.969595
 21
337.628478
  0
ARC
  5
6D5
100
AcDbEntity
  8
M0
 62
     7
100
AcDbCircle
 10
137.494595
 20
372.853478
 40
0.5
100
AcDbArc
 50
90.0
 51
180.0
  0
CIRCLE
  5
6D6
100
AcDbEntity
  8
M0
 62
     7
100
AcDbCircle
 10
114.769595
 20
387.128478
 40
3.0
  0
ARC
  5
6D7
100
AcDbEntity
  8
M0
 62
     7
100
AcDbCircle
 10
144.144595
 20
372.853478
 40
0.5
100
AcDbArc
 50
0.0
 51
90.0
  0
ARC
  5
6D8
100
AcDbEntity
  8
M0
 62
     7
100
AcDbCircle
 10
137.494595
 20
366.203478
 40
0.5
100
AcDbArc
 50
180.0
 51
270.0
  0
ARC
  5
6D9
100
AcDbEntity
  8
M0
 62
     7
100
AcDbCircle
 10
144.144595
 20
366.203478
 40
0.5
100
AcDbArc
 50
270.0
 51
360.0
  0
LINE
  5
6DA
100
AcDbEntity
  8
M0
 62
     7
100
AcDbLine
 10
133.244595
 20
383.303478
 11
139.894595
 21
383.303478
  0
LINE
  5
6DB
100
AcDbEntity
  8
M0
 62
     7
100
AcDbLine
 10
140.394595
 20
383.803478
 11
140.394595
 21
390.453478
  0
LINE
  5
6DC
100
AcDbEntity
  8
M0
  6
DASHDOT
 62
     7
100
AcDbLine
 10
136.069595
 20
387.128478
 11
137.069595
 21
387.128478
  0
LINE
  5
6DD
100
AcDbEntity
  8
M0
 62
     7
100
AcDbLine
 10
139.894595
 20
390.953478
 11
133.244595
 21
390.953478
  0
LINE
  5
6DE
100
AcDbEntity
  8
M0
  6
DASHDOT
 62
     7
100
AcDbLine
 10
136.569595
 20
386.628478
 11
136.569595
 21
387.628478
  0
ARC
  5
6DF
100
AcDbEntity
  8
M0
 62
     7
100
AcDbCircle
 10
134.044595
 20
372.853478
 40
0.5
100
AcDbArc
 50
0.0
 51
90.0
  0
ARC
  5
6E0
100
AcDbEntity
  8
M0
 62
     7
100
AcDbCircle
 10
127.394595
 20
366.203478
 40
0.5
100
AcDbArc
 50
180.0
 51
270.0
  0
ARC
  5
6E1
100
AcDbEntity
  8
M0
 62
     7
100
AcDbCircle
 10
111.444595
 20
390.453478
 40
0.5
100
AcDbArc
 50
90.0
 51
180.0
  0
ARC
  5
6E2
100
AcDbEntity
  8
M0
 62
     7
100
AcDbCircle
 10
134.044595
 20
366.203478
 40
0.5
100
AcDbArc
 50
270.0
 51
360.0
  0
ARC
  5
6E3
100
AcDbEntity
  8
M0
 62
     7
100
AcDbCircle
 10
111.444595
 20
383.803478
 40
0.5
100
AcDbArc
 50
180.0
 51
270.0
  0
ARC
  5
6E4
100
AcDbEntity
  8
M0
 62
     7
100
AcDbCircle
 10
117.294595
 20
366.203478
 40
0.5
100
AcDbArc
 50
180.0
 51
270.0
  0
ARC
  5
6E5
100
AcDbEntity
  8
M0
 62
     7
100
AcDbCircle
 10
117.294595
 20
372.853478
 40
0.5
100
AcDbArc
 50
90.0
 51
180.0
  0
ARC
  5
6E6
100
AcDbEntity
  8
M0
 62
     7
100
AcDbCircle
 10
123.944595
 20
366.203478
 40
0.5
100
AcDbArc
 50
270.0
 51
360.0
  0
ARC
  5
6E7
100
AcDbEntity
  8
M0
 62
     7
100
AcDbCircle
 10
123.944595
 20
372.853478
 40
0.5
100
AcDbArc
 50
0.0
 51
90.0
  0
LINE
  5
6E8
100
AcDbEntity
  8
M0
 62
     7
100
AcDbLine
 10
144.719595
 20
376.428478
 11
144.719595
 21
365.328478
  0
LINE
  5
6E9
100
AcDbEntity
  8
M0
 62
     7
100
AcDbLine
 10
145.919595
 20
377.428478
 11
145.719595
 21
377.428478
  0
LINE
  5
6EA
100
AcDbEntity
  8
M0
 62
     7
100
AcDbLine
 10
144.719595
 20
321.828478
 11
144.719595
 21
320.828478
  0
LINE
  5
6EB
100
AcDbEntity
  8
M0
 62
     7
100
AcDbLine
 10
145.919595
 20
319.828478
 11
145.719595
 21
319.828478
  0
LINE
  5
6EC
100
AcDbEntity
  8
M0
 62
     7
100
AcDbLine
 10
106.619595
 20
320.828478
 11
106.619595
 21
321.828478
  0
LINE
  5
6ED
100
AcDbEntity
  8
M0
 62
     7
100
AcDbLine
 10
106.619595
 20
321.828478
 11
106.619595
 21
322.828478
  0
LINE
  5
6EE
100
AcDbEntity
  8
M0
 62
     7
100
AcDbLine
 10
116.719595
 20
322.828478
 11
116.719595
 21
321.828478
  0
LINE
  5
6EF
100
AcDbEntity
  8
M0
 62
     7
100
AcDbLine
 10
106.619595
 20
374.428478
 11
106.619595
 21
375.428478
  0
LINE
  5
6F0
100
AcDbEntity
  8
M0
 62
     7
100
AcDbLine
 10
144.719595
 20
322.828478
 11
144.719595
 21
321.828478
  0
LINE
  5
6F1
100
AcDbEntity
  8
M0
 62
     7
100
AcDbLine
 10
116.719595
 20
374.428478
 11
116.719595
 21
375.428478
  0
LINE
  5
6F2
100
AcDbEntity
  8
M0
 62
     7
100
AcDbLine
 10
125.019595
 20
346.128478
 11
125.019595
 21
343.728478
  0
LINE
  5
6F3
100
AcDbEntity
  8
M0
 62
     7
100
AcDbLine
 10
105.419595
 20
377.428478
 11
105.619595
 21
377.428478
  0
LINE
  5
6F4
100
AcDbEntity
  8
M0
 62
     7
100
AcDbLine
 10
125.519595
 20
346.628478
 11
125.819595
 21
346.628478
  0
LINE
  5
6F5
100
AcDbEntity
  8
M0
 62
     7
100
AcDbLine
 10
125.019595
 20
353.428478
 11
125.019595
 21
351.128478
  0
LINE
  5
6F6
100
AcDbEntity
  8
M0
 62
     7
100
AcDbLine
 10
117.969595
 20
337.628478
 11
117.469595
 21
337.628478
  0
LINE
  5
6F7
100
AcDbEntity
  8
M0
 62
     7
100
AcDbLine
 10
105.419595
 20
319.828478
 11
105.619595
 21
319.828478
  0
LINE
  5
6F8
100
AcDbEntity
  8
M0
 62
     7
100
AcDbLine
 10
106.619595
 20
375.428478
 11
106.619595
 21
376.428478
  0
LINE
  5
6F9
100
AcDbEntity
  8
M0
 62
     7
100
AcDbLine
 10
116.719595
 20
375.428478
 11
116.719595
 21
379.828478
  0
LINE
  5
6FA
100
AcDbEntity
  8
M0
 62
     7
100
AcDbLine
 10
125.519595
 20
350.628478
 11
125.819595
 21
350.628478
  0
LINE
  5
6FB
100
AcDbEntity
  8
M0
 62
     7
100
AcDbLine
 10
126.319595
 20
343.728478
 11
126.319595
 21
346.128478
  0
LINE
  5
6FC
100
AcDbEntity
  8
M0
 62
     7
100
AcDbLine
 10
116.719595
 20
373.328478
 11
117.619595
 21
373.328478
  0
LINE
  5
6FD
100
AcDbEntity
  8
M0
 62
     7
100
AcDbLine
 10
143.819595
 20
373.328478
 11
144.719595
 21
373.328478
  0
LINE
  5
6FE
100
AcDbEntity
  8
M0
 62
     7
100
AcDbLine
 10
113.519595
 20
373.328478
 11
114.419595
 21
373.328478
  0
LINE
  5
6FF
100
AcDbEntity
  8
M0
 62
     7
100
AcDbLine
 10
106.619595
 20
373.328478
 11
107.519595
 21
373.328478
  0
LINE
  5
700
100
AcDbEntity
  8
M0
 62
     7
100
AcDbLine
 10
116.719595
 20
376.828478
 11
116.719595
 21
367.828478
  0
LINE
  5
701
100
AcDbEntity
  8
M0
 62
     7
100
AcDbLine
 10
117.869595
 20
360.828478
 11
117.869595
 21
360.928478
  0
ARC
  5
702
100
AcDbEntity
  8
M0
 62
     7
100
AcDbCircle
 10
127.394595
 20
372.853478
 40
0.5
100
AcDbArc
 50
90.0
 51
180.0
  0
LINE
  5
703
100
AcDbEntity
  8
M0
 62
     7
100
AcDbLine
 10
136.919595
 20
373.328478
 11
137.819595
 21
373.328478
  0
LINE
  5
704
100
AcDbEntity
  8
M0
 62
     7
100
AcDbLine
 10
125.819595
 20
313.628478
 11
125.519595
 21
313.628478
  0
LINE
  5
705
100
AcDbEntity
  8
M0
 62
     7
100
AcDbLine
 10
123.369595
 20
337.628478
 11
123.369595
 21
337.528478
  0
LINE
  5
706
100
AcDbEntity
  8
M0
 62
     7
100
AcDbLine
 10
125.719595
 20
380.828478
 11
125.819595
 21
380.828478
  0
LINE
  5
707
100
AcDbEntity
  8
M0
 62
     7
100
AcDbLine
 10
115.719595
 20
366.828478
 11
115.419595
 21
366.828478
  0
LINE
  5
708
100
AcDbEntity
  8
M0
 62
     7
100
AcDbLine
 10
125.619595
 20
380.828478
 11
125.719595
 21
380.828478
  0
LINE
  5
709
100
AcDbEntity
  8
M0
 62
     7
100
AcDbLine
 10
114.419595
 20
367.828478
 11
114.419595
 21
376.828478
  0
LINE
  5
70A
100
AcDbEntity
  8
M0
 62
     7
100
AcDbLine
 10
115.619595
 20
380.828478
 11
115.719595
 21
380.828478
  0
LINE
  5
70B
100
AcDbEntity
  8
M0
 62
     7
100
AcDbLine
 10
135.619595
 20
330.428478
 11
135.919595
 21
330.428478
  0
LINE
  5
70C
100
AcDbEntity
  8
M0
 62
     7
100
AcDbLine
 10
125.519595
 20
380.828478
 11
125.619595
 21
380.828478
  0
LINE
  5
70D
100
AcDbEntity
  8
M0
 62
     7
100
AcDbLine
 10
135.919595
 20
366.828478
 11
135.619595
 21
366.828478
  0
LINE
  5
70E
100
AcDbEntity
  8
M0
 62
     7
100
AcDbLine
 10
115.419595
 20
330.428478
 11
115.719595
 21
330.428478
  0
LINE
  5
70F
100
AcDbEntity
  8
M0
 62
     7
100
AcDbLine
 10
125.819595
 20
366.828478
 11
125.519595
 21
366.828478
  0
LINE
  5
710
100
AcDbEntity
  8
M0
 62
     7
100
AcDbLine
 10
144.869595
 20
352.128478
 11
144.869595
 21
352.328478
  0
LINE
  5
711
100
AcDbEntity
  8
M0
 62
     7
100
AcDbLine
 10
146.169595
 20
352.128478
 11
146.169595
 21
352.328478
  0
LINE
  5
712
100
AcDbEntity
  8
M0
 62
     7
100
AcDbLine
 10
147.169595
 20
345.128478
 11
147.169595
 21
318.828478
  0
LINE
  5
713
100
AcDbEntity
  8
M0
 62
     7
100
AcDbLine
 10
53.469595
 20
352.128478
 11
53.469595
 21
352.328478
  0
LINE
  5
714
100
AcDbEntity
  8
M0
 62
     7
100
AcDbLine
 10
52.169595
 20
352.128478
 11
52.169595
 21
352.328478
  0
LINE
  5
715
100
AcDbEntity
  8
M0
 62
     7
100
AcDbLine
 10
51.169595
 20
352.128478
 11
51.169595
 21
377.528478
  0
LINE
  5
716
100
AcDbEntity
  8
M0
100
AcDbLine
 10
104.169595
 20
372.928478
 11
104.169595
 21
348.628478
  0
LINE
  5
717
100
AcDbEntity
  8
M0
100
AcDbLine
 10
104.169595
 20
366.028478
 11
99.169595
 21
366.028478
  0
LINE
  5
718
100
AcDbEntity
  8
M0
100
AcDbLine
 10
101.569595
 20
374.028479
 11
96.769595
 21
374.028479
  0
LINE
  5
719
100
AcDbEntity
  8
M0
100
AcDbLine
 10
94.169595
 20
366.028478
 11
99.169595
 21
366.028478
  0
LINE
  5
71A
100
AcDbEntity
  8
M0
100
AcDbLine
 10
104.169595
 20
370.128478
 11
99.169595
 21
370.128478
  0
LINE
  5
71B
100
AcDbEntity
  8
M0
100
AcDbLine
 10
94.169595
 20
331.228478
 11
99.169595
 21
331.228478
  0
ARC
  5
71C
100
AcDbEntity
  8
M0
100
AcDbCircle
 10
103.669595
 20
372.928478
 40
0.5
100
AcDbArc
 50
23.578178
 51
90.0
  0
LINE
  5
71D
100
AcDbEntity
  8
M0
100
AcDbLine
 10
101.569595
 20
323.228477
 11
96.769595
 21
323.228477
  0
ARC
  5
71E
100
AcDbEntity
  8
M0
100
AcDbCircle
 10
96.769595
 20
373.428478
 40
0.6
100
AcDbArc
 50
90.0
 51
180.0
  0
ARC
  5
71F
100
AcDbEntity
  8
M0
100
AcDbCircle
 10
94.669595
 20
372.928478
 40
0.5
100
AcDbArc
 50
90.0
 51
156.421822
  0
LINE
  5
720
100
AcDbEntity
  8
M0
100
AcDbLine
 10
94.169595
 20
348.628478
 11
94.169595
 21
324.328478
  0
ARC
  5
721
100
AcDbEntity
  8
M0
100
AcDbCircle
 10
101.569595
 20
373.428478
 40
0.6
100
AcDbArc
 50
0.0
 51
90.0
  0
LINE
  5
722
100
AcDbEntity
  8
M0
100
AcDbLine
 10
104.169595
 20
324.328478
 11
104.169595
 21
348.628478
  0
LINE
  5
723
100
AcDbEntity
  8
M0
100
AcDbLine
 10
104.169595
 20
327.128478
 11
99.169595
 21
327.128478
  0
ARC
  5
724
100
AcDbEntity
  8
M0
100
AcDbCircle
 10
101.569595
 20
323.828478
 40
0.6
100
AcDbArc
 50
270.0
 51
360.0
  0
LINE
  5
725
100
AcDbEntity
  8
M0
  6
DASHDOT
 62
     7
100
AcDbLine
 10
99.169595
 20
376.981676
 11
99.169595
 21
320.889318
  0
ARC
  5
726
100
AcDbEntity
  8
M0
100
AcDbCircle
 10
103.669595
 20
324.328478
 40
0.5
100
AcDbArc
 50
270.0
 51
336.421822
  0
LINE
  5
727
100
AcDbEntity
  8
M0
100
AcDbLine
 10
104.169595
 20
331.228478
 11
99.169595
 21
331.228478
  0
LINE
  5
728
100
AcDbEntity
  8
M0
100
AcDbLine
 10
94.169595
 20
370.128478
 11
99.169595
 21
370.128478
  0
ARC
  5
729
100
AcDbEntity
  8
M0
100
AcDbCircle
 10
94.669595
 20
324.328478
 40
0.5
100
AcDbArc
 50
203.578178
 51
270.0
  0
LINE
  5
72A
100
AcDbEntity
  8
M0
100
AcDbLine
 10
94.169595
 20
348.628478
 11
94.169595
 21
372.928478
  0
LINE
  5
72B
100
AcDbEntity
  8
M0
100
AcDbLine
 10
94.669595
 20
323.828479
 11
103.669595
 21
323.828479
  0
ARC
  5
72C
100
AcDbEntity
  8
M0
100
AcDbCircle
 10
96.769595
 20
323.828478
 40
0.6
100
AcDbArc
 50
180.0
 51
270.0
  0
LINE
  5
72D
100
AcDbEntity
  8
M0
100
AcDbLine
 10
94.669595
 20
373.428476
 11
103.669595
 21
373.428476
  0
LINE
  5
72E
100
AcDbEntity
  8
M0
100
AcDbLine
 10
94.169595
 20
327.128478
 11
99.169595
 21
327.128478
  0
LINE
  5
72F
100
AcDbEntity
  8
M0
 62
     7
100
AcDbLine
 10
271.916589
 20
379.128478
 11
273.416589
 21
379.128478
  0
LINE
  5
730
100
AcDbEntity
  8
M0
 62
     7
100
AcDbLine
 10
271.916589
 20
372.228478
 11
271.916589
 21
378.128478
  0
LINE
  5
731
100
AcDbEntity
  8
M0
 62
     7
100
AcDbLine
 10
270.416589
 20
372.228478
 11
270.416589
 21
378.128478
  0
LINE
  5
732
100
AcDbEntity
  8
M0
 62
     7
100
AcDbLine
 10
271.916589
 20
378.128478
 11
271.916589
 21
379.128478
  0
LINE
  5
733
100
AcDbEntity
  8
M0
 62
     7
100
AcDbLine
 10
262.916589
 20
372.228478
 11
262.916589
 21
378.128478
  0
LINE
  5
734
100
AcDbEntity
  8
M0
 62
     7
100
AcDbLine
 10
282.416589
 20
372.228478
 11
282.416589
 21
378.128478
  0
LINE
  5
735
100
AcDbEntity
  8
M0
 62
     7
100
AcDbLine
 10
270.416589
 20
372.228478
 11
271.916589
 21
372.228478
  0
LINE
  5
736
100
AcDbEntity
  8
M0
 62
     7
100
AcDbLine
 10
276.416589
 20
372.228478
 11
276.416589
 21
378.128478
  0
LINE
  5
737
100
AcDbEntity
  8
M0
 62
     7
100
AcDbLine
 10
306.716589
 20
361.228478
 11
306.716589
 21
336.028478
  0
LINE
  5
738
100
AcDbEntity
  8
M0
 62
     7
100
AcDbLine
 10
307.416589
 20
331.628478
 11
308.916589
 21
331.628478
  0
LINE
  5
739
100
AcDbEntity
  8
M0
 62
     7
100
AcDbLine
 10
310.916589
 20
376.778478
 11
311.216589
 21
376.778478
  0
LINE
  5
73A
100
AcDbEntity
  8
M0
 62
     7
100
AcDbLine
 10
285.416589
 20
372.228478
 11
285.416589
 21
378.128478
  0
LINE
  5
73B
100
AcDbEntity
  8
M0
 62
     7
100
AcDbLine
 10
270.916589
 20
330.91225
 11
270.916589
 21
330.628478
  0
LINE
  5
73C
100
AcDbEntity
  8
M0
 62
     7
100
AcDbLine
 10
270.916589
 20
335.028478
 11
270.916589
 21
334.389033
  0
LINE
  5
73D
100
AcDbEntity
  8
M0
 62
     7
100
AcDbLine
 10
255.116589
 20
334.089033
 11
270.616589
 21
334.089033
  0
LINE
  5
73E
100
AcDbEntity
  8
M0
 62
     7
100
AcDbLine
 10
267.416589
 20
372.228478
 11
267.416589
 21
378.128478
  0
LINE
  5
73F
100
AcDbEntity
  8
M0
 62
     7
100
AcDbLine
 10
274.916589
 20
372.228478
 11
274.916589
 21
378.128478
  0
LINE
  5
740
100
AcDbEntity
  8
M0
 62
     7
100
AcDbLine
 10
273.416589
 20
372.228478
 11
274.916589
 21
372.228478
  0
LINE
  5
741
100
AcDbEntity
  8
M0
 62
     7
100
AcDbLine
 10
261.416589
 20
372.228478
 11
262.916589
 21
372.228478
  0
LINE
  5
742
100
AcDbEntity
  8
M0
 62
     7
100
AcDbLine
 10
267.416589
 20
372.228478
 11
268.916589
 21
372.228478
  0
LINE
  5
743
100
AcDbEntity
  8
M0
 62
     7
100
AcDbLine
 10
268.916589
 20
379.128478
 11
270.416589
 21
379.128478
  0
LINE
  5
744
100
AcDbEntity
  8
M0
 62
     7
100
AcDbLine
 10
280.916589
 20
372.228478
 11
280.916589
 21
378.128478
  0
LINE
  5
745
100
AcDbEntity
  8
M0
 62
     7
100
AcDbLine
 10
285.416589
 20
372.228478
 11
286.916589
 21
372.228478
  0
LINE
  5
746
100
AcDbEntity
  8
M0
 62
     7
100
AcDbLine
 10
268.916589
 20
372.228478
 11
268.916589
 21
378.128478
  0
LINE
  5
747
100
AcDbEntity
  8
M0
 62
     7
100
AcDbLine
 10
279.416589
 20
372.228478
 11
279.416589
 21
378.128478
  0
LINE
  5
748
100
AcDbEntity
  8
M0
 62
     7
100
AcDbLine
 10
261.416589
 20
372.228478
 11
261.416589
 21
378.128478
  0
LINE
  5
749
100
AcDbEntity
  8
M0
 62
     7
100
AcDbLine
 10
265.916589
 20
372.228478
 11
265.916589
 21
378.128478
  0
LINE
  5
74A
100
AcDbEntity
  8
M0
 62
     7
100
AcDbLine
 10
283.916589
 20
372.228478
 11
283.916589
 21
378.128478
  0
LINE
  5
74B
100
AcDbEntity
  8
M0
 62
     7
100
AcDbLine
 10
276.416589
 20
372.228478
 11
277.916589
 21
372.228478
  0
LINE
  5
74C
100
AcDbEntity
  8
M0
 62
     7
100
AcDbLine
 10
286.916589
 20
372.228478
 11
286.916589
 21
378.128478
  0
LINE
  5
74D
100
AcDbEntity
  8
M0
 62
     7
100
AcDbLine
 10
264.416589
 20
372.228478
 11
265.916589
 21
372.228478
  0
LINE
  5
74E
100
AcDbEntity
  8
M0
 62
     7
100
AcDbLine
 10
270.916589
 20
366.628478
 11
270.916589
 21
366.344706
  0
LINE
  5
74F
100
AcDbEntity
  8
M0
 62
     7
100
AcDbLine
 10
270.916589
 20
330.628478
 11
310.416589
 21
330.628478
  0
LINE
  5
750
100
AcDbEntity
  8
M0
 62
     7
100
AcDbLine
 10
306.216589
 20
335.028478
 11
270.916589
 21
335.028478
  0
LINE
  5
751
100
AcDbEntity
  8
M0
 62
     7
100
AcDbLine
 10
251.616589
 20
367.928478
 11
252.116589
 21
367.928478
  0
LINE
  5
752
100
AcDbEntity
  8
M0
 62
     7
100
AcDbLine
 10
299.916589
 20
329.328478
 11
255.116589
 21
329.328478
  0
LINE
  5
753
100
AcDbEntity
  8
M0
 62
     7
100
AcDbLine
 10
310.916589
 20
330.128478
 11
310.916589
 21
314.328478
  0
LINE
  5
754
100
AcDbEntity
  8
M0
 62
     7
100
AcDbLine
 10
255.116589
 20
329.328478
 11
255.116589
 21
328.028478
  0
LINE
  5
755
100
AcDbEntity
  8
M0
 62
     7
100
AcDbLine
 10
306.916589
 20
313.628478
 11
306.916589
 21
313.828478
  0
LINE
  5
756
100
AcDbEntity
  8
M0
 62
     7
100
AcDbLine
 10
306.716589
 20
361.728478
 11
306.716589
 21
361.228478
  0
LINE
  5
757
100
AcDbEntity
  8
M0
 62
     7
100
AcDbLine
 10
255.116589
 20
366.044706
 11
255.116589
 21
363.167923
  0
LINE
  5
758
100
AcDbEntity
  8
M0
 62
     7
100
AcDbLine
 10
270.916589
 20
362.867923
 11
270.916589
 21
362.228478
  0
LINE
  5
759
100
AcDbEntity
  8
M0
 62
     7
100
AcDbLine
 10
306.716589
 20
336.028478
 11
306.716589
 21
335.528478
  0
LINE
  5
75A
100
AcDbEntity
  8
M0
 62
     7
100
AcDbLine
 10
252.116589
 20
367.928478
 11
300.050563
 21
367.928478
  0
LINE
  5
75B
100
AcDbEntity
  8
M0
 62
     7
100
AcDbLine
 10
310.416589
 20
366.628478
 11
270.916589
 21
366.628478
  0
LINE
  5
75C
100
AcDbEntity
  8
M0
 62
     7
100
AcDbLine
 10
255.116589
 20
334.089033
 11
255.116589
 21
331.21225
  0
ARC
  5
75D
100
AcDbEntity
  8
M0
 62
     7
100
AcDbCircle
 10
251.616589
 20
367.428478
 40
0.5
100
AcDbArc
 50
90.0
 51
180.0
  0
ARC
  5
75E
100
AcDbEntity
  8
M0
 62
     7
100
AcDbCircle
 10
254.116589
 20
328.028478
 40
1.0
100
AcDbArc
 50
270.0
 51
360.0
  0
ARC
  5
75F
100
AcDbEntity
  8
M0
 62
     7
100
AcDbCircle
 10
310.419095
 20
383.828478
 40
0.5
100
AcDbArc
 50
5.73917
 51
90.0
  0
ARC
  5
760
100
AcDbEntity
  8
M0
 62
     7
100
AcDbCircle
 10
310.416589
 20
330.128478
 40
0.5
100
AcDbArc
 50
0.0
 51
90.0
  0
LINE
  5
761
100
AcDbEntity
  8
M0
 62
     7
100
AcDbLine
 10
310.616589
 20
313.87022
 11
310.616589
 21
313.128478
  0
LINE
  5
762
100
AcDbEntity
  8
M0
 62
     7
100
AcDbLine
 10
273.416589
 20
372.228478
 11
273.416589
 21
378.128478
  0
LINE
  5
763
100
AcDbEntity
  8
M0
 62
     7
100
AcDbLine
 10
270.616589
 20
331.21225
 11
255.116589
 21
331.21225
  0
LINE
  5
764
100
AcDbEntity
  8
M0
 62
     7
100
AcDbLine
 10
310.916589
 20
318.978478
 11
311.216589
 21
318.978478
  0
LINE
  5
765
100
AcDbEntity
  8
M0
 62
     7
100
AcDbLine
 10
255.116589
 20
366.044706
 11
270.616589
 21
366.044706
  0
ARC
  5
766
100
AcDbEntity
  8
M0
 62
     7
100
AcDbCircle
 10
310.416589
 20
330.328478
 40
0.5
100
AcDbArc
 50
0.0
 51
90.0
  0
LINE
  5
767
100
AcDbEntity
  8
M0
 62
     7
100
AcDbLine
 10
299.916589
 20
318.828478
 11
299.916589
 21
329.328478
  0
LINE
  5
768
100
AcDbEntity
  8
M0
 62
     7
100
AcDbLine
 10
311.216589
 20
383.878478
 11
310.916589
 21
383.878478
  0
ARC
  5
769
100
AcDbEntity
  8
M0
 62
     7
100
AcDbCircle
 10
310.416589
 20
367.128478
 40
0.5
100
AcDbArc
 50
270.0
 51
360.0
  0
ARC
  5
76A
100
AcDbEntity
  8
M0
 62
     7
100
AcDbCircle
 10
306.216589
 20
335.528478
 40
0.5
100
AcDbArc
 50
270.0
 51
360.0
  0
ARC
  5
76B
100
AcDbEntity
  8
M0
 62
     7
100
AcDbCircle
 10
256.616589
 20
387.614264
 40
1.0
100
AcDbArc
 50
0.0
 51
45.0
  0
ARC
  5
76C
100
AcDbEntity
  8
M0
 62
     7
100
AcDbCircle
 10
306.216589
 20
361.728478
 40
0.5
100
AcDbArc
 50
0.0
 51
90.0
  0
LINE
  5
76D
100
AcDbEntity
  8
M0
 62
     7
100
AcDbLine
 10
243.716589
 20
314.128478
 11
243.716589
 21
317.628478
  0
LINE
  5
76E
100
AcDbEntity
  8
M0
 62
     7
100
AcDbLine
 10
254.216589
 20
313.128478
 11
243.716589
 21
313.128478
  0
LINE
  5
76F
100
AcDbEntity
  8
M0
 62
     7
100
AcDbLine
 10
254.116589
 20
327.028478
 11
251.116588
 21
327.028478
  0
LINE
  5
770
100
AcDbEntity
  8
M0
 62
     7
100
AcDbLine
 10
243.716589
 20
323.928479
 11
243.716589
 21
318.628478
  0
LINE
  5
771
100
AcDbEntity
  8
M0
 62
     7
100
AcDbLine
 10
243.716589
 20
314.128478
 11
243.716589
 21
313.128478
  0
LINE
  5
772
100
AcDbEntity
  8
M0
 62
     7
100
AcDbLine
 10
243.716589
 20
314.128478
 11
243.716589
 21
317.628478
  0
LINE
  5
773
100
AcDbEntity
  8
M0
 62
     7
100
AcDbLine
 10
243.716589
 20
318.628478
 11
243.716589
 21
323.928479
  0
LINE
  5
774
100
AcDbEntity
  8
M0
 62
     7
100
AcDbLine
 10
265.916589
 20
378.128478
 11
265.916589
 21
379.128478
  0
LINE
  5
775
100
AcDbEntity
  8
M0
 62
     7
100
AcDbLine
 10
267.416589
 20
379.128478
 11
267.416589
 21
378.128478
  0
LINE
  5
776
100
AcDbEntity
  8
M0
 62
     7
100
AcDbLine
 10
245.716589
 20
323.928479
 11
245.716589
 21
318.628478
  0
LINE
  5
777
100
AcDbEntity
  8
M0
 62
     7
100
AcDbLine
 10
243.716589
 20
313.128478
 11
243.716589
 21
314.128478
  0
LINE
  5
778
100
AcDbEntity
  8
M0
 62
     7
100
AcDbLine
 10
243.716589
 20
317.628478
 11
243.716589
 21
318.628478
  0
LINE
  5
779
100
AcDbEntity
  8
M0
 62
     7
100
AcDbLine
 10
264.416589
 20
379.128478
 11
264.416589
 21
378.128478
  0
ARC
  5
77A
100
AcDbEntity
  8
M0
 62
     7
100
AcDbCircle
 10
256.616589
 20
387.614264
 40
1.0
100
AcDbArc
 50
0.0
 51
45.0
  0
ARC
  5
77B
100
AcDbEntity
  8
M0
 62
     7
100
AcDbCircle
 10
253.702375
 20
390.528478
 40
1.0
100
AcDbArc
 50
45.0
 51
90.0
  0
ARC
  5
77C
100
AcDbEntity
  8
M0
 62
     7
100
AcDbCircle
 10
244.716589
 20
318.628478
 40
1.0
100
AcDbArc
 50
270.0
 51
360.0
  0
ARC
  5
77D
100
AcDbEntity
  8
M0
 62
     7
100
AcDbCircle
 10
252.202375
 20
392.028478
 40
1.0
100
AcDbArc
 50
45.0
 51
90.0
  0
ARC
  5
77E
100
AcDbEntity
  8
M0
 62
     7
100
AcDbCircle
 10
246.016589
 20
392.428478
 40
0.6
100
AcDbArc
 50
0.0
 51
90.0
  0
LINE
  5
77F
100
AcDbEntity
  8
M0
 62
     7
100
AcDbLine
 10
252.909482
 20
392.735585
 11
254.409482
 21
391.235585
  0
LINE
  5
780
100
AcDbEntity
  8
M0
 62
     7
100
AcDbLine
 10
246.016589
 20
393.028478
 11
252.202375
 21
393.028478
  0
LINE
  5
781
100
AcDbEntity
  8
M0
 62
     7
100
AcDbLine
 10
254.409482
 20
391.235585
 11
257.323696
 21
388.321371
  0
LINE
  5
782
100
AcDbEntity
  8
M0
 62
     7
100
AcDbLine
 10
246.616589
 20
391.528478
 11
253.702375
 21
391.528478
  0
LINE
  5
783
100
AcDbEntity
  8
M0
 62
     7
100
AcDbLine
 10
246.616589
 20
392.428478
 11
246.616589
 21
391.421468
  0
LINE
  5
784
100
AcDbEntity
  8
M0
 62
     7
100
AcDbLine
 10
311.216589
 20
318.978478
 11
311.216589
 21
316.778478
  0
LINE
  5
785
100
AcDbEntity
  8
M0
 62
     7
100
AcDbLine
 10
264.416589
 20
372.228478
 11
264.416589
 21
378.128478
  0
LINE
  5
786
100
AcDbEntity
  8
M0
 62
     7
100
AcDbLine
 10
310.916589
 20
376.778478
 11
310.916589
 21
376.328478
  0
LINE
  5
787
100
AcDbEntity
  8
M0
 62
     7
100
AcDbLine
 10
262.916589
 20
379.128478
 11
264.416589
 21
379.128478
  0
LINE
  5
788
100
AcDbEntity
  8
M0
 62
     7
100
AcDbLine
 10
310.916589
 20
375.028478
 11
310.916589
 21
374.528478
  0
ARC
  5
789
100
AcDbEntity
  8
M0
 62
     7
100
AcDbCircle
 10
258.002375
 20
318.628478
 40
1.0
100
AcDbArc
 50
270.0
 51
315.0
  0
LINE
  5
78A
100
AcDbEntity
  8
M0
 62
     7
100
AcDbLine
 10
282.416589
 20
372.228478
 11
283.916589
 21
372.228478
  0
LINE
  5
78B
100
AcDbEntity
  8
M0
 62
     7
100
AcDbLine
 10
310.916589
 20
318.828478
 11
310.916589
 21
318.978478
  0
LINE
  5
78C
100
AcDbEntity
  8
M0
 62
     7
100
AcDbLine
 10
307.716589
 20
332.628478
 11
307.716589
 21
331.628478
  0
LINE
  5
78D
100
AcDbEntity
  8
M0
 62
     7
100
AcDbLine
 10
307.716589
 20
333.128478
 11
308.416589
 21
333.128478
  0
LINE
  5
78E
100
AcDbEntity
  8
M0
 62
     7
100
AcDbLine
 10
257.616589
 20
379.128478
 11
261.416589
 21
379.128478
  0
LINE
  5
78F
100
AcDbEntity
  8
M0
 62
     7
100
AcDbLine
 10
270.416589
 20
379.128478
 11
270.416589
 21
378.128478
  0
LINE
  5
790
100
AcDbEntity
  8
M0
 62
     7
100
AcDbLine
 10
306.916589
 20
330.828478
 11
306.916589
 21
331.128478
  0
LINE
  5
791
100
AcDbEntity
  8
M0
 62
     7
100
AcDbLine
 10
310.442466
 20
330.826344
 11
308.856589
 21
332.628478
  0
LINE
  5
792
100
AcDbEntity
  8
M0
 62
     7
100
AcDbLine
 10
308.416589
 20
333.128478
 11
308.856589
 21
332.628478
  0
LINE
  5
793
100
AcDbEntity
  8
M0
 62
     7
100
AcDbLine
 10
265.916589
 20
379.128478
 11
267.416589
 21
379.128478
  0
LINE
  5
794
100
AcDbEntity
  8
M0
 62
     7
100
AcDbLine
 10
262.916589
 20
378.128478
 11
262.916589
 21
379.128478
  0
ARC
  5
795
100
AcDbEntity
  8
M0
 62
     7
100
AcDbCircle
 10
300.916589
 20
383.328478
 40
1.0
100
AcDbArc
 50
90.0
 51
180.0
  0
ARC
  5
796
100
AcDbEntity
  8
M0
 62
     7
100
AcDbCircle
 10
270.616589
 20
330.91225
 40
0.3
100
AcDbArc
 50
0.0
 51
90.0
  0
LINE
  5
797
100
AcDbEntity
  8
M0
 62
     7
100
AcDbLine
 10
261.416589
 20
379.128478
 11
261.416589
 21
378.128478
  0
LINE
  5
798
100
AcDbEntity
  8
M0
 62
     7
100
AcDbLine
 10
243.716589
 20
318.628478
 11
243.716589
 21
317.628478
  0
LINE
  5
799
100
AcDbEntity
  8
M0
 62
     7
100
AcDbLine
 10
307.716589
 20
332.628478
 11
307.716589
 21
333.128478
  0
LINE
  5
79A
100
AcDbEntity
  8
M0
 62
     7
100
AcDbLine
 10
268.916589
 20
378.128478
 11
268.916589
 21
379.128478
  0
ARC
  5
79B
100
AcDbEntity
  8
M0
 62
     7
100
AcDbCircle
 10
307.416589
 20
313.628478
 40
0.5
100
AcDbArc
 50
180.0
 51
270.0
  0
ARC
  5
79C
100
AcDbEntity
  8
M0
 62
     7
100
AcDbCircle
 10
267.316589
 20
313.928478
 40
0.5
100
AcDbArc
 50
180.0
 51
270.0
  0
ARC
  5
79D
100
AcDbEntity
  8
M0
 62
     7
100
AcDbCircle
 10
254.216589
 20
314.128478
 40
1.0
100
AcDbArc
 50
270.0
 51
360.0
  0
ARC
  5
79E
100
AcDbEntity
  8
M0
 62
     7
100
AcDbCircle
 10
307.416589
 20
331.128478
 40
0.5
100
AcDbArc
 50
90.0
 51
180.0
  0
ARC
  5
79F
100
AcDbEntity
  8
M0
 62
     7
100
AcDbCircle
 10
270.616589
 20
366.344706
 40
0.3
100
AcDbArc
 50
270.0
 51
360.0
  0
ARC
  5
7A0
100
AcDbEntity
  8
M0
 62
     7
100
AcDbCircle
 10
270.616589
 20
362.867923
 40
0.3
100
AcDbArc
 50
0.0
 51
90.0
  0
ARC
  5
7A1
100
AcDbEntity
  8
M0
 62
     7
100
AcDbCircle
 10
270.616589
 20
334.389033
 40
0.3
100
AcDbArc
 50
270.0
 51
360.0
  0
ARC
  5
7A2
100
AcDbEntity
  8
M0
 62
     7
100
AcDbCircle
 10
252.202375
 20
392.028478
 40
1.0
100
AcDbArc
 50
45.0
 51
90.0
  0
LINE
  5
7A3
100
AcDbEntity
  8
M0
 62
     7
100
AcDbLine
 10
282.416589
 20
379.128478
 11
283.916589
 21
379.128478
  0
LINE
  5
7A4
100
AcDbEntity
  8
M0
 62
     7
100
AcDbLine
 10
285.416589
 20
379.128478
 11
286.916589
 21
379.128478
  0
LINE
  5
7A5
100
AcDbEntity
  8
M0
 62
     7
100
AcDbLine
 10
273.416589
 20
374.328478
 11
274.916589
 21
374.328478
  0
LINE
  5
7A6
100
AcDbEntity
  8
M0
 62
     7
100
AcDbLine
 10
270.416589
 20
374.328478
 11
271.916589
 21
374.328478
  0
LINE
  5
7A7
100
AcDbEntity
  8
M0
 62
     7
100
AcDbLine
 10
276.416589
 20
379.128478
 11
277.916589
 21
379.128478
  0
LINE
  5
7A8
100
AcDbEntity
  8
M0
 62
     7
100
AcDbLine
 10
267.416589
 20
374.328478
 11
268.916589
 21
374.328478
  0
LINE
  5
7A9
100
AcDbEntity
  8
M0
 62
     7
100
AcDbLine
 10
279.416589
 20
372.228478
 11
280.916589
 21
372.228478
  0
ARC
  5
7AA
100
AcDbEntity
  8
M0
 62
     7
100
AcDbCircle
 10
307.478471
 20
328.685965
 40
2.316399
100
AcDbArc
 50
112.341791
 51
123.008287
  0
ARC
  5
7AB
100
AcDbEntity
  8
M0
 62
     7
100
AcDbCircle
 10
300.916589
 20
314.828478
 40
1.0
100
AcDbArc
 50
180.0
 51
270.0
  0
ARC
  5
7AC
100
AcDbEntity
  8
M0
 62
     7
100
AcDbCircle
 10
246.016589
 20
392.428478
 40
0.6
100
AcDbArc
 50
0.0
 51
90.0
  0
LINE
  5
7AD
100
AcDbEntity
  8
M0
 62
     7
100
AcDbLine
 10
279.416589
 20
374.328478
 11
280.916589
 21
374.328478
  0
LINE
  5
7AE
100
AcDbEntity
  8
M0
 62
     7
100
AcDbLine
 10
276.416589
 20
374.328478
 11
277.916589
 21
374.328478
  0
ARC
  5
7AF
100
AcDbEntity
  8
M0
 62
     7
100
AcDbCircle
 10
307.03675
 20
367.731515
 40
1.374538
100
AcDbArc
 50
233.367407
 51
251.438337
  0
ARC
  5
7B0
100
AcDbEntity
  8
M0
 62
     7
100
AcDbCircle
 10
235.116589
 20
390.028478
 40
3.0
100
AcDbArc
 50
90.0
 51
180.0
  0
LINE
  5
7B1
100
AcDbEntity
  8
M0
 62
     7
100
AcDbLine
 10
273.416589
 20
379.128478
 11
274.916589
 21
379.128478
  0
LINE
  5
7B2
100
AcDbEntity
  8
M0
 62
     7
100
AcDbLine
 10
283.916589
 20
377.628478
 11
282.416589
 21
377.628478
  0
LINE
  5
7B3
100
AcDbEntity
  8
M0
 62
     7
100
AcDbLine
 10
262.916589
 20
377.628478
 11
261.416589
 21
377.628478
  0
LINE
  5
7B4
100
AcDbEntity
  8
M0
 62
     7
100
AcDbLine
 10
265.916589
 20
377.628478
 11
264.416589
 21
377.628478
  0
LINE
  5
7B5
100
AcDbEntity
  8
M0
 62
     7
100
AcDbLine
 10
261.416589
 20
379.128478
 11
262.916589
 21
379.128478
  0
LINE
  5
7B6
100
AcDbEntity
  8
M0
 62
     7
100
AcDbLine
 10
274.916589
 20
377.628478
 11
273.416589
 21
377.628478
  0
LINE
  5
7B7
100
AcDbEntity
  8
M0
 62
     7
100
AcDbLine
 10
264.416589
 20
379.128478
 11
265.916589
 21
379.128478
  0
LINE
  5
7B8
100
AcDbEntity
  8
M0
 62
     7
100
AcDbLine
 10
266.816589
 20
313.928478
 11
266.816589
 21
318.928478
  0
LINE
  5
7B9
100
AcDbEntity
  8
M0
 62
     7
100
AcDbLine
 10
267.416589
 20
379.128478
 11
268.916589
 21
379.128478
  0
LINE
  5
7BA
100
AcDbEntity
  8
M0
 62
     7
100
AcDbLine
 10
268.916589
 20
377.628478
 11
267.416589
 21
377.628478
  0
LINE
  5
7BB
100
AcDbEntity
  8
M0
 62
     7
100
AcDbLine
 10
306.716589
 20
366.428478
 11
306.716589
 21
363.428478
  0
LINE
  5
7BC
100
AcDbEntity
  8
M0
 62
     7
100
AcDbLine
 10
277.916589
 20
377.628478
 11
276.416589
 21
377.628478
  0
LINE
  5
7BD
100
AcDbEntity
  8
M0
 62
     7
100
AcDbLine
 10
288.416589
 20
384.328478
 11
300.916589
 21
384.328478
  0
LINE
  5
7BE
100
AcDbEntity
  8
M0
 62
     7
100
AcDbLine
 10
271.916589
 20
377.628478
 11
270.416589
 21
377.628478
  0
LINE
  5
7BF
100
AcDbEntity
  8
M0
 62
     7
100
AcDbLine
 10
279.416589
 20
379.128478
 11
280.916589
 21
379.128478
  0
LINE
  5
7C0
100
AcDbEntity
  8
M0
 62
     7
100
AcDbLine
 10
280.916589
 20
377.628478
 11
279.416589
 21
377.628478
  0
LINE
  5
7C1
100
AcDbEntity
  8
M0
 62
     7
100
AcDbLine
 10
252.909482
 20
392.735585
 11
254.409482
 21
391.235585
  0
LINE
  5
7C2
100
AcDbEntity
  8
M0
 62
     7
100
AcDbLine
 10
279.416589
 20
379.128478
 11
277.916589
 21
379.128478
  0
LINE
  5
7C3
100
AcDbEntity
  8
M0
 62
     7
100
AcDbLine
 10
307.016589
 20
362.928478
 11
306.716589
 21
363.928478
  0
LINE
  5
7C4
100
AcDbEntity
  8
M0
 62
     7
100
AcDbLine
 10
307.016589
 20
362.928478
 11
307.016589
 21
362.428478
  0
LINE
  5
7C5
100
AcDbEntity
  8
M0
 62
     7
100
AcDbLine
 10
288.416589
 20
379.128478
 11
286.916589
 21
379.128478
  0
LINE
  5
7C6
100
AcDbEntity
  8
M0
 62
     7
100
AcDbLine
 10
311.216589
 20
376.644966
 11
310.916589
 21
376.644966
  0
LINE
  5
7C7
100
AcDbEntity
  8
M0
 62
     7
100
AcDbLine
 10
282.416589
 20
379.128478
 11
280.916589
 21
379.128478
  0
LINE
  5
7C8
100
AcDbEntity
  8
M0
 62
     7
100
AcDbLine
 10
285.416589
 20
379.128478
 11
283.916589
 21
379.128478
  0
LINE
  5
7C9
100
AcDbEntity
  8
M0
 62
     7
100
AcDbLine
 10
289.916589
 20
384.328478
 11
310.416589
 21
384.328478
  0
LINE
  5
7CA
100
AcDbEntity
  8
M0
 62
     7
100
AcDbLine
 10
232.116589
 20
383.128478
 11
232.116589
 21
390.028478
  0
LINE
  5
7CB
100
AcDbEntity
  8
M0
 62
     7
100
AcDbLine
 10
246.616589
 20
392.428478
 11
246.616589
 21
373.328479
  0
LINE
  5
7CC
100
AcDbEntity
  8
M0
 62
     7
100
AcDbLine
 10
276.416589
 20
379.128478
 11
274.916589
 21
379.128478
  0
LINE
  5
7CD
100
AcDbEntity
  8
M0
 62
     7
100
AcDbLine
 10
273.416589
 20
379.128478
 11
271.916589
 21
379.128478
  0
LINE
  5
7CE
100
AcDbEntity
  8
M0
 62
     7
100
AcDbLine
 10
231.616589
 20
383.028478
 11
231.616589
 21
390.528478
  0
LINE
  5
7CF
100
AcDbEntity
  8
M0
 62
     7
100
AcDbLine
 10
303.216589
 20
384.328478
 11
310.416589
 21
384.328478
  0
LINE
  5
7D0
100
AcDbEntity
  8
M0
 62
     7
100
AcDbLine
 10
265.216589
 20
375.828478
 11
265.916589
 21
375.128478
  0
LINE
  5
7D1
100
AcDbEntity
  8
M0
 62
     7
100
AcDbLine
 10
261.416589
 20
375.828478
 11
262.916589
 21
375.828478
  0
LINE
  5
7D2
100
AcDbEntity
  8
M0
 62
     7
100
AcDbLine
 10
266.816589
 20
318.928478
 11
266.816589
 21
315.428478
  0
ARC
  5
7D3
100
AcDbEntity
  8
M0
 62
     7
100
AcDbCircle
 10
232.616589
 20
390.528478
 40
1.0
100
AcDbArc
 50
95.798093
 51
180.0
  0
LINE
  5
7D4
100
AcDbEntity
  8
M0
 62
     7
100
AcDbLine
 10
286.916589
 20
377.628478
 11
285.416589
 21
377.628478
  0
LINE
  5
7D5
100
AcDbEntity
  8
M0
 62
     7
100
AcDbLine
 10
285.416589
 20
374.328478
 11
286.916589
 21
374.328478
  0
LINE
  5
7D6
100
AcDbEntity
  8
M0
 62
     7
100
AcDbLine
 10
282.416589
 20
374.328478
 11
283.916589
 21
374.328478
  0
LINE
  5
7D7
100
AcDbEntity
  8
M0
 62
     7
100
AcDbLine
 10
264.416589
 20
375.828478
 11
265.216589
 21
375.828478
  0
LINE
  5
7D8
100
AcDbEntity
  8
M0
 62
     7
100
AcDbLine
 10
266.816589
 20
317.628478
 11
243.716589
 21
317.628478
  0
LINE
  5
7D9
100
AcDbEntity
  8
M0
 62
     7
100
AcDbLine
 10
255.216589
 20
317.628478
 11
255.216589
 21
314.128478
  0
LINE
  5
7DA
100
AcDbEntity
  8
M0
 62
     7
100
AcDbLine
 10
299.916589
 20
317.628478
 11
278.916589
 21
317.628478
  0
LINE
  5
7DB
100
AcDbEntity
  8
M0
 62
     7
100
AcDbLine
 10
288.416589
 20
379.128478
 11
288.416589
 21
384.328478
  0
LINE
  5
7DC
100
AcDbEntity
  8
M0
 62
     7
100
AcDbLine
 10
311.216589
 20
369.978478
 11
310.916589
 21
369.978478
  0
LINE
  5
7DD
100
AcDbEntity
  8
M0
 62
     7
100
AcDbLine
 10
307.716589
 20
364.928478
 11
307.716589
 21
366.428478
  0
LINE
  5
7DE
100
AcDbEntity
  8
M0
 62
     7
100
AcDbLine
 10
270.416589
 20
379.128478
 11
271.916589
 21
379.128478
  0
LINE
  5
7DF
100
AcDbEntity
  8
M0
 62
     7
100
AcDbLine
 10
299.916589
 20
314.828478
 11
299.916589
 21
318.828478
  0
LINE
  5
7E0
100
AcDbEntity
  8
M0
 62
     7
100
AcDbLine
 10
311.216589
 20
329.078478
 11
310.916589
 21
329.078478
  0
LINE
  5
7E1
100
AcDbEntity
  8
M0
 62
     7
100
AcDbLine
 10
285.416589
 20
379.128478
 11
285.416589
 21
378.128478
  0
LINE
  5
7E2
100
AcDbEntity
  8
M0
 62
     7
100
AcDbLine
 10
310.916589
 20
375.028478
 11
310.916589
 21
376.328478
  0
LINE
  5
7E3
100
AcDbEntity
  8
M0
 62
     7
100
AcDbLine
 10
306.716589
 20
360.428478
 11
307.016589
 21
360.928478
  0
LINE
  5
7E4
100
AcDbEntity
  8
M0
 62
     7
100
AcDbLine
 10
283.916589
 20
378.128478
 11
283.916589
 21
379.128478
  0
ARC
  5
7E5
100
AcDbEntity
  8
M0
 62
     7
100
AcDbCircle
 10
310.416589
 20
314.328478
 40
0.5
100
AcDbArc
 50
270.0
 51
360.0
  0
ARC
  5
7E6
100
AcDbEntity
  8
M0
 62
     7
100
AcDbCircle
 10
310.416589
 20
366.928478
 40
0.5
100
AcDbArc
 50
270.0
 51
360.0
  0
LINE
  5
7E7
100
AcDbEntity
  8
M0
 62
     7
100
AcDbLine
 10
310.916589
 20
383.878478
 11
310.916589
 21
364.428478
  0
ARC
  5
7E8
100
AcDbEntity
  8
M0
 62
     7
100
AcDbCircle
 10
310.416589
 20
364.428478
 40
0.5
100
AcDbArc
 50
270.0
 51
360.0
  0
LINE
  5
7E9
100
AcDbEntity
  8
M0
 62
     7
100
AcDbLine
 10
266.316589
 20
329.328478
 11
255.116589
 21
329.328478
  0
LINE
  5
7EA
100
AcDbEntity
  8
M0
 62
     7
100
AcDbLine
 10
306.616589
 20
330.828478
 11
310.416589
 21
330.828478
  0
ARC
  5
7EB
100
AcDbEntity
  8
M0
 62
     7
100
AcDbCircle
 10
253.702375
 20
390.528478
 40
1.0
100
AcDbArc
 50
45.0
 51
90.0
  0
LINE
  5
7EC
100
AcDbEntity
  8
M0
 62
     7
100
AcDbLine
 10
254.409482
 20
391.235585
 11
257.323696
 21
388.321371
  0
LINE
  5
7ED
100
AcDbEntity
  8
M0
 62
     7
100
AcDbLine
 10
307.016589
 20
362.428478
 11
306.716589
 21
362.428478
  0
LINE
  5
7EE
100
AcDbEntity
  8
M0
 62
     7
100
AcDbLine
 10
308.916589
 20
331.628478
 11
308.916589
 21
331.128478
  0
LINE
  5
7EF
100
AcDbEntity
  8
M0
 62
     7
100
AcDbLine
 10
270.916589
 20
362.228478
 11
306.216589
 21
362.228478
  0
LINE
  5
7F0
100
AcDbEntity
  8
M0
 62
     7
100
AcDbLine
 10
270.616589
 20
363.167923
 11
255.116589
 21
363.167923
  0
LINE
  5
7F1
100
AcDbEntity
  8
M0
 62
     7
100
AcDbLine
 10
308.916589
 20
331.128478
 11
308.916589
 21
330.828478
  0
LINE
  5
7F2
100
AcDbEntity
  8
M0
 62
     7
100
AcDbLine
 10
251.116589
 20
363.728478
 11
251.116589
 21
367.428478
  0
LINE
  5
7F3
100
AcDbEntity
  8
M0
 62
     7
100
AcDbLine
 10
310.616589
 20
313.128478
 11
307.416589
 21
313.128478
  0
LINE
  5
7F4
100
AcDbEntity
  8
M0
 62
     7
100
AcDbLine
 10
299.916589
 20
318.928478
 11
278.916589
 21
318.928478
  0
LINE
  5
7F5
100
AcDbEntity
  8
M0
 62
     7
100
AcDbLine
 10
300.916589
 20
313.828478
 11
310.416589
 21
313.828478
  0
LINE
  5
7F6
100
AcDbEntity
  8
M0
 62
     7
100
AcDbLine
 10
311.216589
 20
383.878478
 11
311.216589
 21
369.978478
  0
LINE
  5
7F7
100
AcDbEntity
  8
M0
 62
     7
100
AcDbLine
 10
310.916589
 20
316.778478
 11
311.216589
 21
316.778478
  0
LINE
  5
7F8
100
AcDbEntity
  8
M0
 62
     7
100
AcDbLine
 10
299.916589
 20
367.928478
 11
299.916589
 21
383.328478
  0
LINE
  5
7F9
100
AcDbEntity
  8
M0
 62
     7
100
AcDbLine
 10
300.916589
 20
384.328478
 11
310.419095
 21
384.328478
  0
LINE
  5
7FA
100
AcDbEntity
  8
M0
 62
     7
100
AcDbLine
 10
286.916589
 20
379.128478
 11
299.916589
 21
379.128478
  0
LINE
  5
7FB
100
AcDbEntity
  8
M0
 62
     7
100
AcDbLine
 10
306.716589
 20
366.428478
 11
306.716589
 21
362.978868
  0
LINE
  5
7FC
100
AcDbEntity
  8
M0
 62
     7
100
AcDbLine
 10
274.916589
 20
378.128478
 11
274.916589
 21
379.128478
  0
LINE
  5
7FD
100
AcDbEntity
  8
M0
 62
     7
100
AcDbLine
 10
277.916589
 20
379.128478
 11
279.416589
 21
379.128478
  0
LINE
  5
7FE
100
AcDbEntity
  8
M0
 62
     7
100
AcDbLine
 10
306.716589
 20
362.978868
 11
306.716589
 21
361.728478
  0
LINE
  5
7FF
100
AcDbEntity
  8
M0
 62
     7
100
AcDbLine
 10
306.716589
 20
335.528478
 11
306.716589
 21
333.368245
  0
LINE
  5
800
100
AcDbEntity
  8
M0
 62
     7
100
AcDbLine
 10
310.416589
 20
366.428478
 11
306.616589
 21
366.428478
  0
LINE
  5
801
100
AcDbEntity
  8
M0
 62
     7
100
AcDbLine
 10
310.916589
 20
367.128478
 11
310.916589
 21
366.928478
  0
LINE
  5
802
100
AcDbEntity
  8
M0
 62
     7
100
AcDbLine
 10
282.416589
 20
379.128478
 11
282.416589
 21
378.128478
  0
LINE
  5
803
100
AcDbEntity
  8
M0
 62
     7
100
AcDbLine
 10
273.416589
 20
379.128478
 11
273.416589
 21
378.128478
  0
LINE
  5
804
100
AcDbEntity
  8
M0
 62
     7
100
AcDbLine
 10
278.416589
 20
313.428478
 11
267.316589
 21
313.428478
  0
LINE
  5
805
100
AcDbEntity
  8
M0
 62
     7
100
AcDbLine
 10
274.916589
 20
379.128478
 11
276.416589
 21
379.128478
  0
LINE
  5
806
100
AcDbEntity
  8
M0
 62
     7
100
AcDbLine
 10
286.916589
 20
378.128478
 11
286.916589
 21
379.128478
  0
LINE
  5
807
100
AcDbEntity
  8
M0
 62
     7
100
AcDbLine
 10
276.416589
 20
379.128478
 11
276.416589
 21
378.128478
  0
LINE
  5
808
100
AcDbEntity
  8
M0
 62
     7
100
AcDbLine
 10
283.916589
 20
379.128478
 11
285.416589
 21
379.128478
  0
LINE
  5
809
100
AcDbEntity
  8
M0
 62
     7
100
AcDbLine
 10
279.416589
 20
379.128478
 11
279.416589
 21
378.128478
  0
LINE
  5
80A
100
AcDbEntity
  8
M0
 62
     7
100
AcDbLine
 10
277.916589
 20
372.228478
 11
277.916589
 21
378.128478
  0
LINE
  5
80B
100
AcDbEntity
  8
M0
 62
     7
100
AcDbLine
 10
310.416589
 20
363.928478
 11
308.716589
 21
363.928478
  0
LINE
  5
80C
100
AcDbEntity
  8
M0
 62
     7
100
AcDbLine
 10
259.716589
 20
318.928478
 11
258.709482
 21
317.921371
  0
LINE
  5
80D
100
AcDbEntity
  8
M0
 62
     7
100
AcDbLine
 10
257.616589
 20
387.614264
 11
257.616589
 21
367.928478
  0
LINE
  5
80E
100
AcDbEntity
  8
M0
 62
     7
100
AcDbLine
 10
310.916589
 20
330.328478
 11
310.916589
 21
330.128478
  0
LINE
  5
80F
100
AcDbEntity
  8
M0
 62
     7
100
AcDbLine
 10
266.816589
 20
318.928478
 11
259.716589
 21
318.928478
  0
LINE
  5
810
100
AcDbEntity
  8
M0
 62
     7
100
AcDbLine
 10
308.716589
 20
363.928478
 11
308.216589
 21
364.428478
  0
LINE
  5
811
100
AcDbEntity
  8
M0
 62
     7
100
AcDbLine
 10
307.716589
 20
364.928478
 11
308.216589
 21
364.428478
  0
LINE
  5
812
100
AcDbEntity
  8
M0
 62
     7
100
AcDbLine
 10
277.916589
 20
378.128478
 11
277.916589
 21
379.128478
  0
LINE
  5
813
100
AcDbEntity
  8
M0
 62
     7
100
AcDbLine
 10
280.916589
 20
378.128478
 11
280.916589
 21
379.128478
  0
LINE
  5
814
100
AcDbEntity
  8
M0
 62
     7
100
AcDbLine
 10
251.116588
 20
367.928478
 11
253.616589
 21
367.928478
  0
LINE
  5
815
100
AcDbEntity
  8
M0
 62
     7
100
AcDbLine
 10
306.716589
 20
333.368245
 11
306.716589
 21
330.828478
  0
LINE
  5
816
100
AcDbEntity
  8
M0
 62
     7
100
AcDbLine
 10
311.216589
 20
322.332102
 11
311.216589
 21
318.978478
  0
LINE
  5
817
100
AcDbEntity
  8
M0
 62
     7
100
AcDbLine
 10
307.016589
 20
362.428478
 11
307.016589
 21
360.928478
  0
LINE
  5
818
100
AcDbEntity
  8
M0
 62
     7
100
AcDbLine
 10
280.916589
 20
379.128478
 11
282.416589
 21
379.128478
  0
LINE
  5
819
100
AcDbEntity
  8
M0
 62
     7
100
AcDbLine
 10
311.216589
 20
329.078478
 11
311.216589
 21
322.332102
  0
LINE
  5
81A
100
AcDbEntity
  8
M0
 62
     7
100
AcDbLine
 10
311.216589
 20
322.332102
 11
310.916589
 21
322.332102
  0
LINE
  5
81B
100
AcDbEntity
  8
M0
 62
     7
100
AcDbLine
 10
237.316589
 20
383.028478
 11
237.416589
 21
383.028478
  0
LINE
  5
81C
100
AcDbEntity
  8
M0
 62
     7
100
AcDbLine
 10
249.416589
 20
393.028478
 11
235.116589
 21
393.028478
  0
LINE
  5
81D
100
AcDbEntity
  8
M0
 62
     7
100
AcDbLine
 10
237.416589
 20
379.528478
 11
237.316589
 21
379.528478
  0
LINE
  5
81E
100
AcDbEntity
  8
M0
 62
     7
100
AcDbLine
 10
237.316589
 20
379.528478
 11
228.016589
 21
379.528478
  0
LINE
  5
81F
100
AcDbEntity
  8
M0
 62
     7
100
AcDbLine
 10
236.316589
 20
380.528478
 11
236.316589
 21
382.028478
  0
LINE
  5
820
100
AcDbEntity
  8
M0
 62
     7
100
AcDbLine
 10
228.016589
 20
381.528478
 11
228.016589
 21
379.528478
  0
LINE
  5
821
100
AcDbEntity
  8
M0
 62
     7
100
AcDbLine
 10
237.316589
 20
383.028478
 11
231.616589
 21
383.028478
  0
LINE
  5
822
100
AcDbEntity
  8
M0
 62
     7
100
AcDbLine
 10
231.816589
 20
382.028478
 11
229.016589
 21
380.861811
  0
LINE
  5
823
100
AcDbEntity
  8
M0
 62
     7
100
AcDbLine
 10
236.316589
 20
382.028478
 11
231.816589
 21
382.028478
  0
LINE
  5
824
100
AcDbEntity
  8
M0
 62
     7
100
AcDbLine
 10
237.316589
 20
379.528478
 11
237.316589
 21
383.028478
  0
LINE
  5
825
100
AcDbEntity
  8
M0
 62
     7
100
AcDbLine
 10
229.016589
 20
380.528478
 11
236.316589
 21
380.528478
  0
LINE
  5
826
100
AcDbEntity
  8
M0
 62
     7
100
AcDbLine
 10
197.816589
 20
338.128478
 11
197.816589
 21
360.328478
  0
LINE
  5
827
100
AcDbEntity
  8
M0
 62
     7
100
AcDbLine
 10
218.07954
 20
314.428478
 11
218.234708
 21
316.428478
  0
LINE
  5
828
100
AcDbEntity
  8
M0
 62
     7
100
AcDbLine
 10
228.016589
 20
379.428478
 11
228.016589
 21
379.528478
  0
LINE
  5
829
100
AcDbEntity
  8
M0
 62
     7
100
AcDbLine
 10
243.716589
 20
323.928479
 11
243.716589
 21
313.128478
  0
LINE
  5
82A
100
AcDbEntity
  8
M0
 62
     7
100
AcDbLine
 10
229.016589
 20
380.861811
 11
229.016589
 21
380.528478
  0
LINE
  5
82B
100
AcDbEntity
  8
M0
 62
     7
100
AcDbLine
 10
227.716589
 20
313.128478
 11
221.184603
 21
313.547195
  0
LINE
  5
82C
100
AcDbEntity
  8
M0
 62
     7
100
AcDbLine
 10
219.916589
 20
314.428478
 11
219.916589
 21
316.428478
  0
LINE
  5
82D
100
AcDbEntity
  8
M0
 62
     7
100
AcDbLine
 10
243.716589
 20
313.128478
 11
227.716589
 21
313.128478
  0
LINE
  5
82E
100
AcDbEntity
  8
M0
 62
     7
100
AcDbLine
 10
228.016589
 20
378.328478
 11
228.016589
 21
379.428478
  0
LINE
  5
82F
100
AcDbEntity
  8
M0
 62
     7
100
AcDbLine
 10
243.716589
 20
317.628478
 11
227.016589
 21
317.628478
  0
LINE
  5
830
100
AcDbEntity
  8
M0
 62
     7
100
AcDbLine
 10
207.116589
 20
377.428478
 11
219.874158
 21
377.428478
  0
LINE
  5
831
100
AcDbEntity
  8
M0
 62
     7
100
AcDbLine
 10
219.916589
 20
377.428478
 11
219.916589
 21
379.828478
  0
LINE
  5
832
100
AcDbEntity
  8
M0
 62
     7
100
AcDbLine
 10
219.874161
 20
319.828478
 11
207.116589
 21
319.828478
  0
LINE
  5
833
100
AcDbEntity
  8
M0
 62
     7
100
AcDbLine
 10
243.716589
 20
313.128478
 11
243.716589
 21
314.128478
  0
LINE
  5
834
100
AcDbEntity
  8
M0
 62
     7
100
AcDbLine
 10
219.916589
 20
317.428478
 11
219.916589
 21
319.828478
  0
LINE
  5
835
100
AcDbEntity
  8
M0
 62
     7
100
AcDbLine
 10
224.916589
 20
379.428478
 11
228.016589
 21
379.428478
  0
LINE
  5
836
100
AcDbEntity
  8
M0
 62
     7
100
AcDbLine
 10
225.816589
 20
316.428478
 11
208.116589
 21
316.428478
  0
LINE
  5
837
100
AcDbEntity
  8
M0
 62
     7
100
AcDbLine
 10
202.116589
 20
324.828478
 11
202.116589
 21
372.428478
  0
LINE
  5
838
100
AcDbEntity
  8
M0
 62
     7
100
AcDbLine
 10
231.616589
 20
383.028478
 11
228.016589
 21
381.528478
  0
ARC
  5
839
100
AcDbEntity
  8
M0
 62
     7
100
AcDbCircle
 10
208.116589
 20
320.428478
 40
4.0
100
AcDbArc
 50
180.0
 51
270.0
  0
ARC
  5
83A
100
AcDbEntity
  8
M0
 62
     7
100
AcDbCircle
 10
198.316589
 20
338.128478
 40
0.5
100
AcDbArc
 50
180.0
 51
270.0
  0
ARC
  5
83B
100
AcDbEntity
  8
M0
 62
     7
100
AcDbCircle
 10
208.116589
 20
376.828478
 40
4.0
100
AcDbArc
 50
90.0
 51
180.0
  0
ARC
  5
83C
100
AcDbEntity
  8
M0
 62
     7
100
AcDbCircle
 10
198.316589
 20
341.628478
 40
0.5
100
AcDbArc
 50
90.0
 51
180.0
  0
LINE
  5
83D
100
AcDbEntity
  8
M0
  6
DIVIDE
 62
     7
100
AcDbLine
 10
314.216589
 20
362.128478
 11
307.716589
 21
362.128478
  0
LINE
  5
83E
100
AcDbEntity
  8
M0
  6
DIVIDE
 62
     7
100
AcDbLine
 10
314.216589
 20
335.128478
 11
314.216589
 21
362.128478
  0
LINE
  5
83F
100
AcDbEntity
  8
M0
  6
DIVIDE
 62
     7
100
AcDbLine
 10
313.216589
 20
361.128478
 11
306.716589
 21
361.128478
  0
LINE
  5
840
100
AcDbEntity
  8
M0
  6
DIVIDE
 62
     7
100
AcDbLine
 10
307.716589
 20
366.128478
 11
306.716589
 21
366.128478
  0
LINE
  5
841
100
AcDbEntity
  8
M0
  6
DIVIDE
 62
     7
100
AcDbLine
 10
307.716589
 20
366.128478
 11
307.716589
 21
362.128478
  0
LINE
  5
842
100
AcDbEntity
  8
M0
  6
DIVIDE
 62
     7
100
AcDbLine
 10
307.716589
 20
335.128478
 11
307.716589
 21
331.128478
  0
LINE
  5
843
100
AcDbEntity
  8
M0
  6
DIVIDE
 62
     7
100
AcDbLine
 10
314.216589
 20
335.128478
 11
307.716589
 21
335.128478
  0
LINE
  5
844
100
AcDbEntity
  8
M0
  6
DIVIDE
 62
     7
100
AcDbLine
 10
313.216589
 20
361.128478
 11
313.216589
 21
336.128478
  0
LINE
  5
845
100
AcDbEntity
  8
M0
  6
DIVIDE
 62
     7
100
AcDbLine
 10
313.216589
 20
336.128478
 11
306.716589
 21
336.128478
  0
LINE
  5
846
100
AcDbEntity
  8
M0
  6
DIVIDE
 62
     7
100
AcDbLine
 10
306.716589
 20
331.128478
 11
307.716589
 21
331.128478
  0
ELLIPSE
  5
847
100
AcDbEntity
  8
M0
 62
     7
100
AcDbEllipse
 10
198.316589
 20
353.435585
 11
0.5
 21
0.0
210
0.0
220
0.0
230
1.0
 40
0.414214
 41
3.141592653589793
 42
4.71238898038469
  0
ELLIPSE
  5
848
100
AcDbEntity
  8
M0
 62
     7
100
AcDbEllipse
 10
198.316589
 20
354.935585
 11
0.5
 21
0.0
210
0.0
220
0.0
230
1.0
 40
0.414214
 41
3.141592653589793
 42
4.71238898038469
  0
LINE
  5
849
100
AcDbEntity
  8
M0
 62
     7
100
AcDbLine
 10
233.216589
 20
313.128478
 11
227.716589
 21
313.128478
  0
LINE
  5
84A
100
AcDbEntity
  8
M0
 62
     7
100
AcDbLine
 10
198.316589
 20
337.628478
 11
199.316589
 21
337.628478
  0
ARC
  5
84B
100
AcDbEntity
  8
M0
 62
     7
100
AcDbCircle
 10
198.316589
 20
360.328478
 40
0.5
100
AcDbArc
 50
90.0
 51
180.0
  0
LINE
  5
84C
100
AcDbEntity
  8
M0
 62
     7
100
AcDbLine
 10
238.316589
 20
376.41939
 11
238.316589
 21
379.528478
  0
LINE
  5
84D
100
AcDbEntity
  8
M0
 62
     7
100
AcDbLine
 10
246.070339
 20
393.028478
 11
246.216589
 21
393.028478
  0
ARC
  5
84E
100
AcDbEntity
  8
M0
 62
     7
100
AcDbCircle
 10
221.216589
 20
314.046171
 40
0.5
100
AcDbArc
 50
180.0
 51
266.332212
  0
LINE
  5
84F
100
AcDbEntity
  8
M0
 62
     7
100
AcDbLine
 10
238.316589
 20
379.528478
 11
237.416589
 21
379.528478
  0
LINE
  5
850
100
AcDbEntity
  8
M0
 62
     7
100
AcDbLine
 10
231.816589
 20
383.128478
 11
237.416589
 21
383.128478
  0
LINE
  5
851
100
AcDbEntity
  8
M0
 62
     7
100
AcDbLine
 10
237.416589
 20
379.528478
 11
237.416589
 21
383.128478
  0
ARC
  5
852
100
AcDbEntity
  8
M0
 62
     7
100
AcDbCircle
 10
215.119295
 20
314.128478
 40
1.0
100
AcDbArc
 50
270.0
 51
331.699244
  0
LINE
  5
853
100
AcDbEntity
  8
M0
 62
     7
100
AcDbLine
 10
247.216589
 20
391.528478
 11
250.502375
 21
391.528478
  0
LINE
  5
854
100
AcDbEntity
  8
M0
 62
     7
100
AcDbLine
 10
231.816589
 20
383.128478
 11
231.616589
 21
383.128478
  0
LINE
  5
855
100
AcDbEntity
  8
M0
 62
     7
100
AcDbLine
 10
220.716589
 20
314.428478
 11
216.416589
 21
314.428478
  0
LINE
  5
856
100
AcDbEntity
  8
M0
 62
     7
100
AcDbLine
 10
227.716589
 20
313.128478
 11
221.184603
 21
313.547195
  0
LINE
  5
857
100
AcDbEntity
  8
M0
 62
     7
100
AcDbLine
 10
216.25505
 20
314.128478
 11
215.999766
 21
313.654378
  0
LINE
  5
858
100
AcDbEntity
  8
M0
 62
     7
100
AcDbLine
 10
214.152303
 20
313.128478
 11
210.616589
 21
316.428478
  0
LINE
  5
859
100
AcDbEntity
  8
M0
 62
     7
100
AcDbLine
 10
220.716589
 20
314.046171
 11
220.716589
 21
314.428478
  0
LINE
  5
85A
100
AcDbEntity
  8
M0
 62
     7
100
AcDbLine
 10
216.416589
 20
314.428478
 11
216.25505
 21
314.128478
  0
LINE
  5
85B
100
AcDbEntity
  8
M0
 62
     7
100
AcDbLine
 10
219.916589
 20
316.428478
 11
219.916589
 21
317.428478
  0
LINE
  5
85C
100
AcDbEntity
  8
M0
 62
     7
100
AcDbLine
 10
218.124384
 20
317.428478
 11
218.017891
 21
316.428478
  0
LINE
  5
85D
100
AcDbEntity
  8
M0
 62
     7
100
AcDbLine
 10
192.816589
 20
374.428478
 11
192.816589
 21
392.628478
  0
LINE
  5
85E
100
AcDbEntity
  8
M0
 62
     7
100
AcDbLine
 10
215.119295
 20
313.128478
 11
214.152303
 21
313.128478
  0
LINE
  5
85F
100
AcDbEntity
  8
M0
 62
     7
100
AcDbLine
 10
218.124384
 20
317.428478
 11
218.017891
 21
316.428478
  0
LINE
  5
860
100
AcDbEntity
  8
M0
 62
     7
100
AcDbLine
 10
204.116589
 20
376.428478
 11
204.116589
 21
376.828478
  0
LINE
  5
861
100
AcDbEntity
  8
M0
 62
     7
100
AcDbLine
 10
218.379967
 20
377.428478
 11
218.124384
 21
379.828478
  0
LINE
  5
862
100
AcDbEntity
  8
M0
 62
     7
100
AcDbLine
 10
218.017891
 20
380.828478
 11
218.124384
 21
379.828478
  0
LINE
  5
863
100
AcDbEntity
  8
M0
 62
     7
100
AcDbLine
 10
223.516589
 20
380.828478
 11
224.916589
 21
379.428478
  0
LINE
  5
864
100
AcDbEntity
  8
M0
 62
     7
100
AcDbLine
 10
218.017891
 20
380.828478
 11
219.916589
 21
380.828478
  0
LINE
  5
865
100
AcDbEntity
  8
M0
 62
     7
100
AcDbLine
 10
218.124384
 20
317.428478
 11
218.379967
 21
319.828478
  0
ARC
  5
866
100
AcDbEntity
  8
M0
 62
     7
100
AcDbCircle
 10
207.116589
 20
324.828478
 40
5.0
100
AcDbArc
 50
180.0
 51
270.0
  0
ARC
  5
867
100
AcDbEntity
  8
M0
 62
     7
100
AcDbCircle
 10
207.116589
 20
372.428478
 40
5.0
100
AcDbArc
 50
90.0
 51
180.0
  0
LINE
  5
868
100
AcDbEntity
  8
M0
 62
     7
100
AcDbLine
 10
204.116589
 20
320.428478
 11
204.116589
 21
320.828478
  0
LINE
  5
869
100
AcDbEntity
  8
M0
 62
     7
100
AcDbLine
 10
231.616589
 20
383.028478
 11
231.616589
 21
383.128478
  0
LINE
  5
86A
100
AcDbEntity
  8
M0
 62
     7
100
AcDbLine
 10
219.916589
 20
379.828478
 11
219.916589
 21
380.828478
  0
LINE
  5
86B
100
AcDbEntity
  8
M0
 62
     7
100
AcDbLine
 10
202.116589
 20
337.628478
 11
198.316589
 21
337.628478
  0
LINE
  5
86C
100
AcDbEntity
  8
M0
 62
     7
100
AcDbLine
 10
199.816589
 20
360.828478
 11
199.816589
 21
353.228478
  0
LINE
  5
86D
100
AcDbEntity
  8
M0
 62
     7
100
AcDbLine
 10
199.816589
 20
342.128478
 11
199.816589
 21
337.628478
  0
LINE
  5
86E
100
AcDbEntity
  8
M0
 62
     7
100
AcDbLine
 10
199.816589
 20
354.728478
 11
198.316589
 21
354.728478
  0
LINE
  5
86F
100
AcDbEntity
  8
M0
 62
     7
100
AcDbLine
 10
198.316589
 20
353.228478
 11
199.816589
 21
353.228478
  0
LINE
  5
870
100
AcDbEntity
  8
M0
 62
     7
100
AcDbLine
 10
227.016589
 20
317.628478
 11
225.816589
 21
316.428478
  0
LINE
  5
871
100
AcDbEntity
  8
M0
 62
     7
100
AcDbLine
 10
219.916589
 20
380.828478
 11
223.516589
 21
380.828478
  0
LINE
  5
872
100
AcDbEntity
  8
M0
 62
     7
100
AcDbLine
 10
219.916589
 20
316.428478
 11
219.916589
 21
317.428478
  0
LINE
  5
873
100
AcDbEntity
  8
M0
 62
     7
100
AcDbLine
 10
198.316589
 20
360.828478
 11
202.116589
 21
360.828478
  0
LINE
  5
874
100
AcDbEntity
  8
M0
 62
     7
100
AcDbLine
 10
198.316589
 20
342.128478
 11
199.816589
 21
342.128478
  0
LINE
  5
875
100
AcDbEntity
  8
M0
 62
     7
100
AcDbLine
 10
208.116589
 20
380.828478
 11
218.017891
 21
380.828478
  0
LINE
  5
876
100
AcDbEntity
  8
M0
 62
     7
100
AcDbLine
 10
278.916589
 20
318.928478
 11
278.916589
 21
313.928478
  0
ARC
  5
877
100
AcDbEntity
  8
M0
 62
     7
100
AcDbCircle
 10
278.416589
 20
313.928478
 40
0.5
100
AcDbArc
 50
270.0
 51
360.0
  0
ARC
  5
878
100
AcDbEntity
  8
M0
100
AcDbCircle
 10
218.016588
 20
325.52848
 40
3.0
100
AcDbArc
 50
0.0
 51
90.0
  0
ARC
  5
879
100
AcDbEntity
  8
M0
100
AcDbCircle
 10
205.116588
 20
331.52848
 40
3.0
100
AcDbArc
 50
180.0
 51
270.0
  0
LINE
  5
87A
100
AcDbEntity
  8
M0
100
AcDbLine
 10
221.016588
 20
323.928479
 11
221.016588
 21
325.52848
  0
LINE
  5
87B
100
AcDbEntity
  8
M0
100
AcDbLine
 10
250.116589
 20
323.928479
 11
239.216588
 21
323.928479
  0
ARC
  5
87C
100
AcDbEntity
  8
M0
100
AcDbCircle
 10
250.116588
 20
324.92848
 40
1.0
100
AcDbArc
 50
270.0
 51
360.0
  0
ARC
  5
87D
100
AcDbEntity
  8
M0
100
AcDbCircle
 10
234.973948
 20
323.92848
 40
3.0
100
AcDbArc
 50
270.0
 51
315.0
  0
LINE
  5
87E
100
AcDbEntity
  8
M0
100
AcDbLine
 10
234.216588
 20
319.92848
 11
234.216588
 21
320.92848
  0
LINE
  5
87F
100
AcDbEntity
  8
M0
100
AcDbLine
 10
241.716589
 20
323.928479
 11
237.074787
 21
319.70866
  0
LINE
  5
880
100
AcDbEntity
  8
M0
100
AcDbLine
 10
235.056768
 20
318.92848
 11
222.016588
 21
318.92848
  0
LINE
  5
881
100
AcDbEntity
  8
M0
100
AcDbLine
 10
234.973948
 20
376.328481
 11
224.016588
 21
376.328481
  0
LINE
  5
882
100
AcDbEntity
  8
M0
100
AcDbLine
 10
239.216588
 20
323.928479
 11
237.095268
 21
321.807159
  0
ARC
  5
883
100
AcDbEntity
  8
M0
100
AcDbCircle
 10
224.016588
 20
323.92848
 40
3.0
100
AcDbArc
 50
180.0
 51
270.0
  0
LINE
  5
884
100
AcDbEntity
  8
M0
100
AcDbLine
 10
251.116588
 20
372.328479
 11
251.116588
 21
324.928479
  0
LINE
  5
885
100
AcDbEntity
  8
M0
100
AcDbLine
 10
234.973948
 20
320.92848
 11
224.016588
 21
320.92848
  0
LINE
  5
886
100
AcDbEntity
  8
M0
100
AcDbLine
 10
239.216588
 20
373.328479
 11
237.095268
 21
375.449801
  0
LINE
  5
887
100
AcDbEntity
  8
M0
100
AcDbLine
 10
250.116589
 20
373.328479
 11
239.216588
 21
373.328479
  0
ARC
  5
888
100
AcDbEntity
  8
M0
100
AcDbCircle
 10
235.056768
 20
321.92848
 40
3.0
100
AcDbArc
 50
270.0
 51
312.273689
  0
ARC
  5
889
100
AcDbEntity
  8
M0
100
AcDbCircle
 10
224.016588
 20
373.32848
 40
3.0
100
AcDbArc
 50
90.0
 51
180.0
  0
LINE
  5
88A
100
AcDbEntity
  8
M0
100
AcDbLine
 10
218.016588
 20
328.528479
 11
205.116588
 21
328.528479
  0
LINE
  5
88B
100
AcDbEntity
  8
M0
100
AcDbLine
 10
234.216588
 20
318.92848
 11
234.216588
 21
319.92848
  0
LINE
  5
88C
100
AcDbEntity
  8
M0
100
AcDbLine
 10
221.016588
 20
373.328479
 11
221.016588
 21
371.72848
  0
ARC
  5
88D
100
AcDbEntity
  8
M0
100
AcDbCircle
 10
205.116588
 20
365.72848
 40
3.0
100
AcDbArc
 50
90.0
 51
180.0
  0
ARC
  5
88E
100
AcDbEntity
  8
M0
100
AcDbCircle
 10
252.616588
 20
368.02848
 40
0.5
100
AcDbArc
 50
0.0
 51
90.0
  0
ARC
  5
88F
100
AcDbEntity
  8
M0
100
AcDbCircle
 10
218.016588
 20
371.72848
 40
3.0
100
AcDbArc
 50
270.0
 51
360.0
  0
LINE
  5
890
100
AcDbEntity
  8
M0
100
AcDbLine
 10
218.016588
 20
368.728479
 11
205.116588
 21
368.728479
  0
ARC
  5
891
100
AcDbEntity
  8
M0
100
AcDbCircle
 10
234.973948
 20
373.32848
 40
3.0
100
AcDbArc
 50
45.0
 51
90.0
  0
LINE
  5
892
100
AcDbEntity
  8
M0
100
AcDbLine
 10
212.376589
 20
328.528479
 11
211.816588
 21
326.52848
  0
LINE
  5
893
100
AcDbEntity
  8
M0
100
AcDbLine
 10
232.276588
 20
376.328481
 11
231.716588
 21
378.328478
  0
LINE
  5
894
100
AcDbEntity
  8
M0
100
AcDbLine
 10
235.056768
 20
378.328478
 11
222.016589
 21
378.328478
  0
LINE
  5
895
100
AcDbEntity
  8
M0
100
AcDbLine
 10
251.116588
 20
325.42848
 11
251.116588
 21
326.07848
  0
LINE
  5
896
100
AcDbEntity
  8
M0
100
AcDbLine
 10
216.016588
 20
326.52848
 11
205.116588
 21
326.52848
  0
LINE
  5
897
100
AcDbEntity
  8
M0
100
AcDbLine
 10
219.016588
 20
321.928479
 11
219.016588
 21
323.52848
  0
LINE
  5
898
100
AcDbEntity
  8
M0
100
AcDbLine
 10
232.276588
 20
320.92848
 11
231.996588
 21
319.92848
  0
LINE
  5
899
100
AcDbEntity
  8
M0
100
AcDbLine
 10
251.116588
 20
368.52848
 11
252.616589
 21
368.52848
  0
LINE
  5
89A
100
AcDbEntity
  8
M0
100
AcDbLine
 10
251.116588
 20
371.82848
 11
251.116588
 21
371.07848
  0
LINE
  5
89B
100
AcDbEntity
  8
M0
100
AcDbLine
 10
214.316589
 20
326.52848
 11
214.316589
 21
328.528479
  0
LINE
  5
89C
100
AcDbEntity
  8
M0
100
AcDbLine
 10
253.116588
 20
368.028479
 11
253.116588
 21
367.728478
  0
ARC
  5
89D
100
AcDbEntity
  8
M0
100
AcDbCircle
 10
222.016588
 20
375.32848
 40
3.0
100
AcDbArc
 50
90.0
 51
180.0
  0
ARC
  5
89E
100
AcDbEntity
  8
M0
100
AcDbCircle
 10
216.016588
 20
373.72848
 40
3.0
100
AcDbArc
 50
270.0
 51
360.0
  0
ARC
  5
89F
100
AcDbEntity
  8
M0
100
AcDbCircle
 10
222.016588
 20
321.92848
 40
3.0
100
AcDbArc
 50
180.0
 51
270.0
  0
ARC
  5
8A0
100
AcDbEntity
  8
M0
100
AcDbCircle
 10
235.056768
 20
375.32848
 40
3.0
100
AcDbArc
 50
47.726311
 51
90.0
  0
LINE
  5
8A1
100
AcDbEntity
  8
M0
100
AcDbLine
 10
241.716589
 20
373.328479
 11
237.074787
 21
377.548302
  0
ARC
  5
8A2
100
AcDbEntity
  8
M0
100
AcDbCircle
 10
250.116588
 20
372.32848
 40
1.0
100
AcDbArc
 50
0.0
 51
90.0
  0
ARC
  5
8A3
100
AcDbEntity
  8
M0
100
AcDbCircle
 10
205.116588
 20
367.72848
 40
3.0
100
AcDbArc
 50
90.0
 51
180.0
  0
LINE
  5
8A4
100
AcDbEntity
  8
M0
100
AcDbLine
 10
202.116589
 20
367.728479
 11
202.116589
 21
329.52848
  0
LINE
  5
8A5
100
AcDbEntity
  8
M0
100
AcDbLine
 10
212.376589
 20
368.728479
 11
211.816588
 21
370.72848
  0
LINE
  5
8A6
100
AcDbEntity
  8
M0
100
AcDbLine
 10
216.016588
 20
370.72848
 11
205.116588
 21
370.72848
  0
LINE
  5
8A7
100
AcDbEntity
  8
M0
100
AcDbLine
 10
219.016588
 20
375.328479
 11
219.016588
 21
373.72848
  0
ARC
  5
8A8
100
AcDbEntity
  8
M0
100
AcDbCircle
 10
205.116588
 20
329.52848
 40
3.0
100
AcDbArc
 50
180.0
 51
270.0
  0
LINE
  5
8A9
100
AcDbEntity
  8
M0
100
AcDbLine
 10
234.216588
 20
378.328478
 11
234.216588
 21
376.328481
  0
LINE
  5
8AA
100
AcDbEntity
  8
M0
100
AcDbLine
 10
214.316589
 20
370.72848
 11
214.316589
 21
368.728479
  0
ARC
  5
8AB
100
AcDbEntity
  8
M0
100
AcDbCircle
 10
216.016588
 20
323.52848
 40
3.0
100
AcDbArc
 50
0.0
 51
90.0
  0
LINE
  5
8AC
100
AcDbEntity
  8
M0
100
AcDbLine
 10
231.996588
 20
319.92848
 11
231.947967
 21
319.754831
  0
LINE
  5
8AD
100
AcDbEntity
  8
M0
100
AcDbLine
 10
231.947967
 20
319.754831
 11
231.900823
 21
319.58646
  0
LINE
  5
8AE
100
AcDbEntity
  8
M0
100
AcDbLine
 10
231.900823
 20
319.58646
 11
231.856588
 21
319.428479
  0
LINE
  5
8AF
100
AcDbEntity
  8
M0
100
AcDbLine
 10
231.856588
 20
319.428479
 11
231.816608
 21
319.285693
  0
LINE
  5
8B0
100
AcDbEntity
  8
M0
100
AcDbLine
 10
231.816608
 20
319.285693
 11
231.782096
 21
319.162436
  0
LINE
  5
8B1
100
AcDbEntity
  8
M0
100
AcDbLine
 10
231.782096
 20
319.162436
 11
231.754101
 21
319.062455
  0
LINE
  5
8B2
100
AcDbEntity
  8
M0
100
AcDbLine
 10
231.754101
 20
319.062455
 11
231.733475
 21
318.988787
  0
LINE
  5
8B3
100
AcDbEntity
  8
M0
100
AcDbLine
 10
231.733475
 20
318.988787
 11
231.720842
 21
318.943672
  0
LINE
  5
8B4
100
AcDbEntity
  8
M0
100
AcDbLine
 10
231.720842
 20
318.943672
 11
231.716588
 21
318.92848
  0
LINE
  5
8B5
100
AcDbEntity
  8
M0
100
AcDbLine
 10
231.996588
 20
377.32848
 11
231.947967
 21
377.502127
  0
HATCH
  5
8B6
100
AcDbEntity
  8
M0
 62
     7
100
AcDbHatch
 10
0.0
 20
0.0
210
0.0
220
0.0
230
1.0
  2
SOLID
 70
     1
 71
     0
 91
        1
 92
        1
 93
        4
 72
     1
 10
192.816589
 20
392.628478
 11
190.816589
 21
392.628478
 72
     1
 10
190.816589
 20
392.628478
 11
190.816589
 21
374.428478
 72
     1
 10
190.816589
 20
374.428478
 11
192.816589
 21
374.428478
 72
     1
 10
192.816589
 20
374.428478
 11
192.816589
 21
392.628478
 97
        0
 75
     0
 76
     1
 98
        1
 10
0.0
 20
0.0
  0
CIRCLE
  5
8B9
100
AcDbEntity
  8
M0
100
AcDbCircle
 10
88.169631
 20
162.428077
 40
2.0
  0
CIRCLE
  5
8BA
100
AcDbEntity
  8
M0
100
AcDbCircle
 10
55.169631
 20
217.428077
 40
1.7
  0
LINE
  5
8BB
100
AcDbEntity
  8
M0
  6
DASHDOT
100
AcDbLine
 10
141.169631
 20
158.428077
 11
141.169631
 21
166.428077
  0
CIRCLE
  5
8BC
100
AcDbEntity
  8
M0
100
AcDbCircle
 10
55.169631
 20
217.428077
 40
2.0
  0
LINE
  5
8BD
100
AcDbEntity
  8
M0
  6
DASHDOT
100
AcDbLine
 10
137.169631
 20
162.428077
 11
145.169631
 21
162.428077
  0
CIRCLE
  5
8BE
100
AcDbEntity
  8
M0
100
AcDbCircle
 10
141.169631
 20
162.428077
 40
2.0
  0
CIRCLE
  5
8BF
100
AcDbEntity
  8
M0
100
AcDbCircle
 10
141.169631
 20
162.428077
 40
1.7
  0
CIRCLE
  5
8C0
100
AcDbEntity
  8
M0
100
AcDbCircle
 10
108.169631
 20
217.428077
 40
2.0
  0
CIRCLE
  5
8C1
100
AcDbEntity
  8
M0
100
AcDbCircle
 10
108.169631
 20
217.428077
 40
1.7
  0
CIRCLE
  5
8C2
100
AcDbEntity
  8
M0
100
AcDbCircle
 10
88.169631
 20
162.428077
 40
1.7
  0
LINE
  5
8C3
100
AcDbEntity
  8
M0
  6
DIVIDE
100
AcDbLine
 10
159.669631
 20
224.228077
 11
142.669631
 21
224.228077
  0
LINE
  5
8C4
100
AcDbEntity
  8
M0
  6
DASHDOT
100
AcDbLine
 10
51.169631
 20
217.428077
 11
59.169631
 21
217.428077
  0
LINE
  5
8C5
100
AcDbEntity
  8
M0
  6
DIVIDE
100
AcDbLine
 10
94.169631
 20
224.228077
 11
89.669631
 21
224.228077
  0
LINE
  5
8C6
100
AcDbEntity
  8
M0
  6
DIVIDE
100
AcDbLine
 10
104.169631
 20
224.228077
 11
108.669631
 21
224.228077
  0
LINE
  5
8C7
100
AcDbEntity
  8
M0
  6
DIVIDE
100
AcDbLine
 10
38.669631
 20
224.228077
 11
55.669631
 21
224.228077
  0
LINE
  5
8C8
100
AcDbEntity
  8
M0
  6
DASHDOT
100
AcDbLine
 10
104.169631
 20
217.428077
 11
112.169631
 21
217.428077
  0
LINE
  5
8C9
100
AcDbEntity
  8
M0
  6
DASHDOT
100
AcDbLine
 10
108.169631
 20
213.428077
 11
108.169631
 21
221.428077
  0
LINE
  5
8CA
100
AcDbEntity
  8
M0
  6
DASHDOT
100
AcDbLine
 10
84.169631
 20
162.428077
 11
92.169631
 21
162.428077
  0
LINE
  5
8CB
100
AcDbEntity
  8
M0
  6
DASHDOT
100
AcDbLine
 10
88.169631
 20
158.428077
 11
88.169631
 21
166.428077
  0
LINE
  5
8CC
100
AcDbEntity
  8
M0
  6
DASHDOT
100
AcDbLine
 10
55.169631
 20
213.428077
 11
55.169631
 21
221.428077
  0
LINE
  5
8CD
100
AcDbEntity
  8
M0
  6
DIVIDE
100
AcDbLine
 10
38.669631
 20
153.028077
 11
38.669631
 21
224.228077
  0
LINE
  5
8CE
100
AcDbEntity
  8
M0
  6
DIVIDE
100
AcDbLine
 10
159.669631
 20
153.028077
 11
159.669631
 21
224.228077
  0
LINE
  5
8CF
100
AcDbEntity
  8
M0
  6
DIVIDE
100
AcDbLine
 10
104.169631
 20
213.928078
 11
94.169631
 21
213.928078
  0
LINE
  5
8D0
100
AcDbEntity
  8
M0
  6
DIVIDE
100
AcDbLine
 10
104.169631
 20
163.128076
 11
94.169631
 21
163.128076
  0
LINE
  5
8D1
100
AcDbEntity
  8
M0
  6
DIVIDE
100
AcDbLine
 10
104.169631
 20
224.228077
 11
104.169631
 21
213.928078
  0
LINE
  5
8D2
100
AcDbEntity
  8
M0
  6
DIVIDE
100
AcDbLine
 10
142.669631
 20
232.928077
 11
108.669631
 21
232.928077
  0
LINE
  5
8D3
100
AcDbEntity
  8
M0
  6
DIVIDE
100
AcDbLine
 10
104.169631
 20
153.028077
 11
159.669631
 21
153.028077
  0
LINE
  5
8D4
100
AcDbEntity
  8
M0
  6
DIVIDE
100
AcDbLine
 10
108.669631
 20
232.928077
 11
108.669631
 21
224.196704
  0
LINE
  5
8D5
100
AcDbEntity
  8
M0
  6
DIVIDE
100
AcDbLine
 10
142.669631
 20
232.928077
 11
142.669631
 21
224.228077
  0
LINE
  5
8D6
100
AcDbEntity
  8
M0
  6
DIVIDE
100
AcDbLine
 10
104.169631
 20
163.128076
 11
104.169631
 21
153.028077
  0
LINE
  5
8D7
100
AcDbEntity
  8
M0
  6
DIVIDE
100
AcDbLine
 10
94.169631
 20
224.228077
 11
94.169631
 21
213.928078
  0
LINE
  5
8D8
100
AcDbEntity
  8
M0
  6
DIVIDE
100
AcDbLine
 10
55.669631
 20
232.928077
 11
89.669631
 21
232.928077
  0
LINE
  5
8D9
100
AcDbEntity
  8
M0
  6
DIVIDE
100
AcDbLine
 10
94.169631
 20
153.028077
 11
38.669631
 21
153.028077
  0
LINE
  5
8DA
100
AcDbEntity
  8
M0
  6
DIVIDE
100
AcDbLine
 10
89.669631
 20
232.928077
 11
89.669631
 21
224.196704
  0
LINE
  5
8DB
100
AcDbEntity
  8
M0
  6
DIVIDE
100
AcDbLine
 10
55.669631
 20
232.928077
 11
55.669631
 21
224.228077
  0
LINE
  5
8DC
100
AcDbEntity
  8
M0
  6
DIVIDE
100
AcDbLine
 10
94.169631
 20
163.128076
 11
94.169631
 21
153.028077
  0
LINE
  5
8DD
100
AcDbEntity
  8
M1
 62
     2
100
AcDbLine
 10
16.666666
 20
16.666666
 11
16.666666
 21
474.999981
  0
LINE
  5
8DE
100
AcDbEntity
  8
M1
 62
     2
100
AcDbLine
 10
16.666666
 20
474.999981
 11
333.33332
 21
474.999981
  0
LINE
  5
8DF
100
AcDbEntity
  8
M1
 62
     2
100
AcDbLine
 10
333.33332
 20
474.999981
 11
333.33332
 21
16.666666
  0
LINE
  5
8E0
100
AcDbEntity
  8
M1
 62
     2
100
AcDbLine
 10
333.33332
 20
16.666666
 11
16.666666
 21
16.666666
  0
LINE
  5
8E1
100
AcDbEntity
  8
M1
 62
     2
100
AcDbLine
 10
333.33332
 20
33.333332
 11
166.66666
 21
33.333332
  0
LINE
  5
8E2
100
AcDbEntity
  8
M1
 62
     2
100
AcDbLine
 10
333.33332
 20
49.999998
 11
166.66666
 21
49.999998
  0
LINE
  5
8E3
100
AcDbEntity
  8
M1
 62
     2
100
AcDbLine
 10
333.33332
 20
66.666664
 11
166.66666
 21
66.666664
  0
LINE
  5
8E4
100
AcDbEntity
  8
M1
 62
     2
100
AcDbLine
 10
166.66666
 20
16.666666
 11
166.66666
 21
66.666664
  0
TEXT
  5
8E5
100
AcDbEntity
  8
M1
 62
     2
100
AcDbText
 10
170.833327
 20
20.833333
 40
8.333333
  1
適　用；
 41
1.0
  7
STANDARD
100
AcDbText
  0
TEXT
  5
8E6
100
AcDbEntity
  8
M1
 62
     2
100
AcDbText
 10
170.833327
 20
54.166665
 40
8.333333
  1
登録名：
 41
1.0
  7
STANDARD
100
AcDbText
  0
TEXT
  5
8E7
100
AcDbEntity
  8
M1
 62
     2
100
AcDbText
 10
210.833325
 20
54.166665
 40
8.333333
  1
ＤＭＨＳ１０ＲＧＲ００
 41
0.5
  7
STANDARD
100
AcDbText
  0
TEXT
  5
8E8
100
AcDbEntity
  8
M1
 62
     2
100
AcDbText
 10
170.833327
 20
37.499999
 40
8.333333
  1
形　式；
 41
1.0
  7
STANDARD
100
AcDbText
  0
TEXT
  5
8E9
100
AcDbEntity
  8
M1
 62
     2
100
AcDbText
 10
210.833325
 20
37.499999
 40
8.333333
  1
ＨＳ１０－ＲＧ
 41
0.5
  7
STANDARD
100
AcDbText
  0
LINE
  5
8EA
100
AcDbEntity
  8
DN0
100
AcDbLine
 10
244.642975
 20
286.066314
 11
271.692975
 21
286.066314
  0
TEXT
  5
8EB
100
AcDbEntity
  8
DN0
100
AcDbText
 10
245.390198
 20
286.73298
 40
6.666666
  1
取付状態
 41
0.833333
  7
STANDARD
100
AcDbText
  0
LINE
  5
8EC
100
AcDbEntity
  8
DN0
100
AcDbLine
 10
86.890131
 20
121.240855
 11
113.94013
 21
121.240855
  0
TEXT
  5
8ED
100
AcDbEntity
  8
DN0
100
AcDbText
 10
87.637353
 20
121.907522
 40
6.666666
  1
せん孔図
 41
0.833333
  7
STANDARD
100
AcDbText
  0
ENDSEC
  0
SECTION
  2
OBJECTS
  0
DICTIONARY
  5
C
100
AcDbDictionary
  3
ACAD_GROUP
350
D
  3
ACAD_MLINESTYLE
350
E
  3
ACDBVARIABLEDICTIONARY
350
8B7
  0
DICTIONARY
  5
D
102
{ACAD_REACTORS
330
C
102
}
100
AcDbDictionary
  0
DICTIONARY
  5
E
102
{ACAD_REACTORS
330
C
102
}
100
AcDbDictionary
  3
STANDARD
350
13
  0
DICTIONARY
  5
8B7
102
{ACAD_REACTORS
330
C
102
}
100
AcDbDictionary
  3
SORTENTS
350
8B8
  0
MLINESTYLE
  5
13
102
{ACAD_REACTORS
330
E
102
}
100
AcDbMlineStyle
  2
STANDARD
 70
     0
  3

 62
     0
 51
90.0
 52
90.0
 71
     2
 49
0.5
 62
   256
  6
BYLAYER
 49
-0.5
 62
   256
  6
BYLAYER
  0
DICTIONARYVAR
  5
8B8
102
{ACAD_REACTORS
330
8B7
102
}
100
DictionaryVariables
280
     0
  1
96
  0
ENDSEC
  0
EOF
