  0
SECTION
  2
HEADER
  9
$ACADVER
  1
AC1014
  9
$INSBASE
 10
0.000000
 20
0.000000
 30
0.0
  9
$VIEWCTR
 10
7.531722
 20
4.5
  9
$VIEWSIZE
 40
9.0
  9
$SNAPMODE
 70
     0
  9
$SNAPUNIT
 10
1.0
 20
1.0
  9
$SNAPBASE
 10
0.0
 20
0.0
  9
$SNAPANG
 50
0.0
  9
$SNAPSTYLE
 70
     0
  9
$SNAPISOPAIR
 70
     0
  9
$GRIDMODE
 70
     0
  9
$GRIDUNIT
 10
0.0
 20
0.0
  9
$ORTHOMODE
 70
     0
  9
$REGENMODE
 70
     1
  9
$FILLMODE
 70
     1
  9
$QTEXTMODE
 70
     0
  9
$DRAGMODE
 70
     2
  9
$LTSCALE
  40
     1.000000
  9
$OSMODE
 70
     0
  9
$ATTMODE
 70
     1
  9
$TEXTSIZE
 40
0.2
  9
$TRACEWID
 40
0.05
  9
$TEXTSTYLE
  7
STANDARD
  9
$CELTYPE
  6
BYLAYER
  9
$CECOLOR
 62
   256
  9
$DIMSCALE
 40
1.0
  9
$DIMASZ
 40
0.18
  9
$DIMEXO
 40
0.0625
  9
$DIMDLI
 40
0.38
  9
$DIMRND
 40
0.0
  9
$DIMDLE
 40
0.0
  9
$DIMEXE
 40
0.18
  9
$DIMTP
 40
0.0
  9
$DIMTM
 40
0.0
  9
$DIMTXT
 40
0.18
  9
$DIMCEN
 40
0.09
  9
$DIMTSZ
 40
0.0
  9
$DIMTOL
 70
     0
  9
$DIMLIM
 70
     0
  9
$DIMTIH
 70
     1
  9
$DIMTOH
 70
     1
  9
$DIMSE1
 70
     0
  9
$DIMSE2
 70
     0
  9
$DIMTAD
 70
     0
  9
$DIMZIN
 70
     0
  9
$DIMBLK
  1

  9
$LUNITS
 70
     2
  9
$LUPREC
 70
     4
  9
$AXISMODE
 70
     0
  9
$AXISUNIT
 10
0.0
 20
0.0
  9
$SKETCHINC
 40
0.1
  9
$FILLETRAD
 40
0.0
  9
$AUNITS
 70
     0
  9
$AUPREC
 70
     0
  9
$MENU
  1
ACAD
  9
$ELEVATION
 40
0.0
  9
$THICKNESS
 40
0.0
  9
$VIEWDIR
 10
0.0
 20
0.0
 30
1.0
  9
$LIMCHECK
 70
     0
  9
$BLIPMODE
 70
     1
  9
$CHAMFERA
 40
0.0
  9
$CHAMFERB
 40
0.0
  9
$FASTZOOM
 70
     1
  9
$SKPOLY
 70
     0
  9
$TDCREATE
 40
0000000.0000000000
  9
$TDUPDATE
 40
0000000.0000000000
  9
$TDINDWG
 40
0.0000000000
  9
$TDUSRTIMER
 40
0.0000000000
  9
$USRTIMER
 70
     1
  9
$ANGBASE
 50
0.0
  9
$ANGDIR
 70
     0
  9
$PDMODE
 70
     0
  9
$PDSIZE
 40
0.0
  9
$PLINEWID
 40
0.0
  9
$COORDS
 70
     0
  9
$USERI1
 70
     0
  9
$USERI2
 70
     0
  9
$USERI3
 70
     0
  9
$USERI4
 70
     0
  9
$USERI5
 70
     0
  9
$USERR1
 40
0.0
  9
$USERR2
 40
0.0
  9
$USERR3
 40
0.0
  9
$USERR4
 40
0.0
  9
$USERR5
 40
0.0
  9
$CLAYER
  8
M0
  9
$EXTMIN
 10
16.666666
 20
16.666666
  9
$EXTMAX
 10
333.33332
 20
474.999981
  9
$LIMMIN
 10
0.0
 20
0.0
  9
$LIMMAX
 10
210.0
 20
297.0
  9
$HANDSEED
  5
896
  0
ENDSEC
  0
SECTION
  2
CLASSES
  0
CLASS
  1
DICTIONARYVAR
  2
AcDbDictionaryVar
  3
"AutoCAD"
 90
        0
280
     0
281
     0
  0
CLASS
  1
HATCH
  2
AcDbHatch
  3
"ACAD_SEDONA"
 90
        0
280
     0
281
     1
  0
ENDSEC
  0
SECTION
  2
TABLES
  0
TABLE
  2
VPORT
  5
8
100
AcDbSymbolTable
 70
     2
  0
VPORT
  5
14
100
AcDbSymbolTableRecord
100
AcDbViewportTableRecord
  2
*ACTIVE
 70
     0
 10
0.0
 20
0.0
 11
1.0
 21
1.0
 12
484.0
 22
297.0
 13
0.0
 23
0.0
 14
1.0
 24
1.0
 15
0.0
 25
0.0
 16
0.0
 26
0.0
 36
1.0
 17
0.0
 27
0.0
 37
0.0
 40
594.0
 41
2.0
 42
50.0
 43
0.0
 44
0.0
 50
0.0
 51
0.0
 71
     0
 72
   100
 73
     1
 74
     1
 75
     0
 76
     0
 77
     0
 78
     0
  0
ENDTAB
  0
TABLE
  2
LTYPE
  5
5
100
AcDbSymbolTable
 70
     5
  0
LTYPE
  5
15
100
AcDbSymbolTableRecord
100
AcDbLinetypeTableRecord
  2
BYBLOCK
 70
     0
  3

 72
    65
 73
     0
 40
0.0
  0
LTYPE
  5
16
100
AcDbSymbolTableRecord
100
AcDbLinetypeTableRecord
  2
BYLAYER
 70
     0
  3

 72
    65
 73
     0
 40
0.0
  0
LTYPE
  5
17
100
AcDbSymbolTableRecord
100
AcDbLinetypeTableRecord
  2
CONTINUOUS
 70
    64
  3
Solid line
 72
    65
 73
     0
 40
0.0
  0
LTYPE
  5
18
100
AcDbSymbolTableRecord
100
AcDbLinetypeTableRecord
  2
DASHED
 70
    64
  3
__ __ __ __ __ __ __ __ __ __ __ __ __ __ __ __
 72
    65
 73
     2
 40
0.75
 49
0.5
 74
     0
 49
-0.25
 74
     0
  0
LTYPE
  5
19
100
AcDbSymbolTableRecord
100
AcDbLinetypeTableRecord
  2
DASHDOT
 70
    64
  3
__ . __ . __ . __ . __ . __ . __ . __ . __ . __
 72
    65
 73
     4
 40
1.0
 49
0.5
 74
     0
 49
-0.25
 74
     0
 49
0.0
 74
     0
 49
-0.25
 74
     0
  0
LTYPE
  5
1A
100
AcDbSymbolTableRecord
100
AcDbLinetypeTableRecord
  2
DIVIDE
 70
    64
  3
____ . . ____ . . ____ . . ____ . . ____ . . __
 72
    65
 73
     6
 40
1.25
 49
0.5
 74
     0
 49
-0.25
 74
     0
 49
0.0
 74
     0
 49
-0.25
 74
     0
 49
0.0
 74
     0
 49
-0.25
 74
     0
  0
LTYPE
  5
1B
100
AcDbSymbolTableRecord
100
AcDbLinetypeTableRecord
  2
DOT
 70
    64
  3
. . . . . . . . . . . . . . . . . . . . . . . .
 72
    65
 73
     2
 40
0.25
 49
0.0
 74
     0
 49
-0.25
 74
     0
  0
ENDTAB
  0
TABLE
  2
LAYER
  5
2
100
AcDbSymbolTable
 70
   102
  0
LAYER
  5
F
100
AcDbSymbolTableRecord
100
AcDbLayerTableRecord
  2
0
 70
     0
 62
     7
  6
CONTINUOUS
  0
LAYER
  5
1C
100
AcDbSymbolTableRecord
100
AcDbLayerTableRecord
  2
DEFPOINTS
 70
     0
 62
     7
  6
CONTINUOUS
  0
LAYER
  5
1D
100
AcDbSymbolTableRecord
100
AcDbLayerTableRecord
  2
M0
 70
     0
 62
     3
  6
CONTINUOUS
  0
LAYER
  5
1E
100
AcDbSymbolTableRecord
100
AcDbLayerTableRecord
  2
M1
 70
     0
 62
     3
  6
CONTINUOUS
  0
LAYER
  5
1F
100
AcDbSymbolTableRecord
100
AcDbLayerTableRecord
  2
DD0
 70
     0
 62
     4
  6
CONTINUOUS
  0
LAYER
  5
20
100
AcDbSymbolTableRecord
100
AcDbLayerTableRecord
  2
DN0
 70
     0
 62
     2
  6
CONTINUOUS
  0
ENDTAB
  0
TABLE
  2
STYLE
  5
3
100
AcDbSymbolTable
 70
     2
  0
STYLE
  5
10
100
AcDbSymbolTableRecord
100
AcDbTextStyleTableRecord
  2
STANDARD
 70
     0
 40
0.0
 41
1.0
 50
0.0
 71
     0
 42
0.2
  3
txt
  4
BIGFONT
  0
ENDTAB
  0
TABLE
  2
VIEW
  5
6
100
AcDbSymbolTable
 70
     0
  0
ENDTAB
  0
TABLE
  2
UCS
  5
7
100
AcDbSymbolTable
 70
     0
  0
ENDTAB
  0
TABLE
  2
APPID
  5
9
100
AcDbSymbolTable
 70
     1
  0
APPID
  5
11
100
AcDbSymbolTableRecord
100
AcDbRegAppTableRecord
  2
ACAD
 70
     0
  0
ENDTAB
  0
TABLE
  2
DIMSTYLE
  5
A
100
AcDbSymbolTable
 70
     2
  0
DIMSTYLE
105
27
100
AcDbSymbolTableRecord
100
AcDbDimStyleTableRecord
  2
STANDARD
 70
     0
  3

  4

  5

  6
_OPEN
  7
_OPEN
 40
1.0
 41
5.0
 42
1.0
 43
8.0
 44
1.0
 45
0.0
 46
0.0
 47
0.0
 48
0.0
140
5.25
141
0.09
142
0.0
143
0.03937
144
1.0
145
0.0
146
1.0
147
0.6
 71
     0
 72
     0
 73
     1
 74
     1
 75
     0
 76
     0
 77
     3
 78
     8
170
     0
171
     2
172
     0
173
     1
174
     0
175
     0
176
     0
177
     0
178
     0
270
     2
271
     2
272
     4
273
     2
274
     2
340
10
275
     0
280
     0
281
     0
282
     0
283
     1
284
     0
285
     0
286
     0
287
     3
288
     0
  0
DIMSTYLE
105
28
100
AcDbSymbolTableRecord
100
AcDbDimStyleTableRecord
  2
LEADSTYL
 70
     0
  3

  4

  5

  6
_OPEN
  7
_OPEN
 40
1.0
 41
5.0
 42
0.0625
 43
0.38
 44
0.18
 45
0.0
 46
0.0
 47
0.0
 48
0.0
140
5.25
141
0.09
142
0.0
143
25.4
144
1.0
145
0.0
146
1.0
147
0.6
 71
     0
 72
     0
 73
     1
 74
     1
 75
     0
 76
     0
 77
     0
 78
     0
170
     0
171
     2
172
     0
173
     1
174
     0
175
     0
176
     0
177
     0
178
     0
270
     2
271
     4
272
     4
273
     2
274
     2
340
10
275
     0
280
     0
281
     0
282
     0
283
     1
284
     0
285
     0
286
     0
287
     3
288
     0
  0
ENDTAB
  0
TABLE
  2
BLOCK_RECORD
  5
1
100
AcDbSymbolTable
 70
    23
  0
BLOCK_RECORD
  5
21
100
AcDbSymbolTableRecord
100
AcDbBlockTableRecord
  2
*MODEL_SPACE
  0
BLOCK_RECORD
  5
24
100
AcDbSymbolTableRecord
100
AcDbBlockTableRecord
  2
*PAPER_SPACE
  0
BLOCK_RECORD
  5
29
100
AcDbSymbolTableRecord
100
AcDbBlockTableRecord
  2
_NONE
  0
BLOCK_RECORD
  5
2D
100
AcDbSymbolTableRecord
100
AcDbBlockTableRecord
  2
_OPEN
  0
BLOCK_RECORD
  5
33
100
AcDbSymbolTableRecord
100
AcDbBlockTableRecord
  2
_CLOSED
  0
BLOCK_RECORD
  5
3A
100
AcDbSymbolTableRecord
100
AcDbBlockTableRecord
  2
_ORIGIN
  0
BLOCK_RECORD
  5
3F
100
AcDbSymbolTableRecord
100
AcDbBlockTableRecord
  2
_DOT
  0
BLOCK_RECORD
  5
47
100
AcDbSymbolTableRecord
100
AcDbBlockTableRecord
  2
_OBLIQUE
  0
BLOCK_RECORD
  5
4B
100
AcDbSymbolTableRecord
100
AcDbBlockTableRecord
  2
DIMS0
  0
BLOCK_RECORD
  5
57
100
AcDbSymbolTableRecord
100
AcDbBlockTableRecord
  2
DIMS1
  0
BLOCK_RECORD
  5
63
100
AcDbSymbolTableRecord
100
AcDbBlockTableRecord
  2
DIMS2
  0
BLOCK_RECORD
  5
68
100
AcDbSymbolTableRecord
100
AcDbBlockTableRecord
  2
DIMS3
  0
BLOCK_RECORD
  5
74
100
AcDbSymbolTableRecord
100
AcDbBlockTableRecord
  2
DIMS4
  0
BLOCK_RECORD
  5
80
100
AcDbSymbolTableRecord
100
AcDbBlockTableRecord
  2
DIMS5
  0
BLOCK_RECORD
  5
8C
100
AcDbSymbolTableRecord
100
AcDbBlockTableRecord
  2
DIMS6
  0
BLOCK_RECORD
  5
98
100
AcDbSymbolTableRecord
100
AcDbBlockTableRecord
  2
DIMS7
  0
BLOCK_RECORD
  5
A3
100
AcDbSymbolTableRecord
100
AcDbBlockTableRecord
  2
DIMS8
  0
BLOCK_RECORD
  5
AF
100
AcDbSymbolTableRecord
100
AcDbBlockTableRecord
  2
DIMS9
  0
BLOCK_RECORD
  5
BB
100
AcDbSymbolTableRecord
100
AcDbBlockTableRecord
  2
DIMS10
  0
BLOCK_RECORD
  5
C7
100
AcDbSymbolTableRecord
100
AcDbBlockTableRecord
  2
DIMS11
  0
BLOCK_RECORD
  5
D3
100
AcDbSymbolTableRecord
100
AcDbBlockTableRecord
  2
DIMS12
  0
BLOCK_RECORD
  5
DC
100
AcDbSymbolTableRecord
100
AcDbBlockTableRecord
  2
DIMS13
  0
BLOCK_RECORD
  5
E8
100
AcDbSymbolTableRecord
100
AcDbBlockTableRecord
  2
DIMS14
  0
BLOCK_RECORD
  5
F4
100
AcDbSymbolTableRecord
100
AcDbBlockTableRecord
  2
DIMS15
  0
BLOCK_RECORD
  5
100
100
AcDbSymbolTableRecord
100
AcDbBlockTableRecord
  2
DIMS16
  0
ENDTAB
  0
ENDSEC
  0
SECTION
  2
BLOCKS
  0
BLOCK
  5
22
100
AcDbEntity
  8
0
100
AcDbBlockBegin
  2
*MODEL_SPACE
 70
     0
 10
0.0
 20
0.0
 30
0.0
  3
*MODEL_SPACE
  1

  0
ENDBLK
  5
23
100
AcDbEntity
  8
0
100
AcDbBlockEnd
  0
BLOCK
  5
25
100
AcDbEntity
 67
     1
  8
0
100
AcDbBlockBegin
  2
*PAPER_SPACE
 70
     0
 10
0.0
 20
0.0
 30
0.0
  3
*PAPER_SPACE
  1

  0
ENDBLK
  5
26
100
AcDbEntity
 67
     1
  8
0
100
AcDbBlockEnd
  0
BLOCK
  5
2A
100
AcDbEntity
  8
0
100
AcDbBlockBegin
  2
_NONE
 70
     0
 10
0.0
 20
0.0
  0
CIRCLE
  5
2B
100
AcDbEntity
  8
0
 62
     0
100
AcDbCircle
 10
0.0
 20
0.0
 40
0.25
  0
ENDBLK
  5
2C
100
AcDbEntity
  8
0
100
AcDbBlockEnd
  0
BLOCK
  5
2E
100
AcDbEntity
  8
0
100
AcDbBlockBegin
  2
_OPEN
 70
     0
 10
0.0
 20
0.0
  0
LINE
  5
2F
100
AcDbEntity
  8
0
 62
     0
100
AcDbLine
 10
-0.965926
 20
0.258819
 11
0.0
 21
0.0
  0
LINE
  5
30
100
AcDbEntity
  8
0
 62
     0
100
AcDbLine
 10
0.0
 20
0.0
 11
-0.965926
 21
-0.258819
  0
LINE
  5
31
100
AcDbEntity
  8
0
 62
     0
100
AcDbLine
 10
0.0
 20
0.0
 11
-1.0
 21
0.0
  0
ENDBLK
  5
32
100
AcDbEntity
  8
0
100
AcDbBlockEnd
  0
BLOCK
  5
34
100
AcDbEntity
  8
0
100
AcDbBlockBegin
  2
_CLOSED
 70
     0
 10
0.0
 20
0.0
  0
LINE
  5
35
100
AcDbEntity
  8
0
 62
     0
100
AcDbLine
 10
-0.965926
 20
0.258819
 11
0.0
 21
0.0
  0
LINE
  5
36
100
AcDbEntity
  8
0
 62
     0
100
AcDbLine
 10
0.0
 20
0.0
 11
-0.965926
 21
-0.258819
  0
LINE
  5
37
100
AcDbEntity
  8
0
 62
     0
100
AcDbLine
 10
-0.965926
 20
0.258819
 11
-0.965926
 21
-0.258819
  0
LINE
  5
38
100
AcDbEntity
  8
0
 62
     0
100
AcDbLine
 10
0.0
 20
0.0
 11
-1.0
 21
0.0
  0
ENDBLK
  5
39
100
AcDbEntity
  8
0
100
AcDbBlockEnd
  0
BLOCK
  5
3B
100
AcDbEntity
  8
0
100
AcDbBlockBegin
  2
_ORIGIN
 70
     0
 10
0.0
 20
0.0
  0
CIRCLE
  5
3C
100
AcDbEntity
  8
0
 62
     0
100
AcDbCircle
 10
0.0
 20
0.0
 40
0.5
  0
LINE
  5
3D
100
AcDbEntity
  8
0
 62
     0
100
AcDbLine
 10
0.0
 20
0.0
 11
-1.0
 21
0.0
  0
ENDBLK
  5
3E
100
AcDbEntity
  8
0
100
AcDbBlockEnd
  0
BLOCK
  5
40
100
AcDbEntity
  8
0
100
AcDbBlockBegin
  2
_DOT
 70
     0
 10
0.0
 20
0.0
  0
POLYLINE
  5
41
100
AcDbEntity
  8
0
 62
     0
100
AcDb2dPolyline
 66
     1
 70
     1
 40
0.5
 41
0.5
  0
VERTEX
  5
42
100
AcDbEntity
  8
0
 62
     0
100
AcDbVertex
100
AcDb2dVertex
 10
-0.25
 20
0.0
 42
1.0
  0
VERTEX
  5
43
100
AcDbEntity
  8
0
 62
     0
100
AcDbVertex
100
AcDb2dVertex
 10
0.25
 20
0.0
 42
1.0
  0
SEQEND
  5
44
100
AcDbEntity
  8
0
 62
     0
  0
LINE
  5
45
100
AcDbEntity
  8
0
 62
     0
100
AcDbLine
 10
-0.5
 20
0.0
 11
-1.0
 21
0.0
  0
ENDBLK
  5
46
100
AcDbEntity
  8
0
100
AcDbBlockEnd
  0
BLOCK
  5
48
100
AcDbEntity
  8
0
100
AcDbBlockBegin
  2
_OBLIQUE
 70
     0
 10
0.0
 20
0.0
  0
LINE
  5
49
100
AcDbEntity
  8
0
 62
     0
100
AcDbLine
 10
-0.353553
 20
-0.353553
 11
0.353553
 21
0.353553
  0
ENDBLK
  5
4A
100
AcDbEntity
  8
0
100
AcDbBlockEnd
  0
BLOCK
  5
4C
100
AcDbEntity
  8
DD0
100
AcDbBlockBegin
  2
DIMS0
 70
     0
 10
0.0
 20
0.0
  0
LINE
  5
4D
100
AcDbEntity
  8
DD0
100
AcDbLine
 10
319.979388
 20
397.06048
 11
319.979388
 21
429.407789
  0
LINE
  5
4E
100
AcDbEntity
  8
DD0
100
AcDbLine
 10
190.179385
 20
378.810461
 11
190.179385
 21
429.407789
  0
LINE
  5
4F
100
AcDbEntity
  8
DD0
100
AcDbLine
 10
315.149759
 20
426.447028
 11
319.979388
 21
427.741123
  0
LINE
  5
50
100
AcDbEntity
  8
DD0
100
AcDbLine
 10
319.979388
 20
427.741123
 11
315.149759
 21
429.035218
  0
LINE
  5
51
100
AcDbEntity
  8
DD0
100
AcDbLine
 10
195.009014
 20
429.035218
 11
190.179385
 21
427.741123
  0
LINE
  5
52
100
AcDbEntity
  8
DD0
100
AcDbLine
 10
190.179385
 20
427.741123
 11
195.009014
 21
426.447028
  0
LINE
  5
53
100
AcDbEntity
  8
DD0
100
AcDbLine
 10
319.979388
 20
427.741123
 11
190.179385
 21
427.741123
  0
TEXT
  5
54
100
AcDbEntity
  8
DD0
100
AcDbText
 10
250.365488
 20
428.741133
 40
4.166667
  1
１３０
 41
0.666667
  7
STANDARD
100
AcDbText
  0
ENDBLK
  5
55
100
AcDbEntity
  8
DD0
100
AcDbBlockEnd
  0
BLOCK
  5
58
100
AcDbEntity
  8
DD0
100
AcDbBlockBegin
  2
DIMS1
 70
     0
 10
0.0
 20
0.0
  0
LINE
  5
59
100
AcDbEntity
  8
DD0
100
AcDbLine
 10
190.179385
 20
378.810461
 11
190.179385
 21
429.407789
  0
LINE
  5
5A
100
AcDbEntity
  8
DD0
100
AcDbLine
 10
185.179385
 20
378.810461
 11
185.179385
 21
429.407789
  0
LINE
  5
5B
100
AcDbEntity
  8
DD0
100
AcDbLine
 10
195.009014
 20
429.035218
 11
190.179385
 21
427.741123
  0
LINE
  5
5C
100
AcDbEntity
  8
DD0
100
AcDbLine
 10
190.179385
 20
427.741123
 11
195.009014
 21
426.447028
  0
LINE
  5
5D
100
AcDbEntity
  8
DD0
100
AcDbLine
 10
180.349756
 20
426.447028
 11
185.179385
 21
427.741123
  0
LINE
  5
5E
100
AcDbEntity
  8
DD0
100
AcDbLine
 10
185.179385
 20
427.741123
 11
180.349756
 21
429.035218
  0
LINE
  5
5F
100
AcDbEntity
  8
DD0
100
AcDbLine
 10
195.679385
 20
427.741123
 11
174.679385
 21
427.741123
  0
TEXT
  5
60
100
AcDbEntity
  8
DD0
100
AcDbText
 10
176.148826
 20
428.741133
 40
4.166667
  1
５
 41
0.666667
  7
STANDARD
100
AcDbText
  0
ENDBLK
  5
61
100
AcDbEntity
  8
DD0
100
AcDbBlockEnd
  0
BLOCK
  5
64
100
AcDbEntity
  8
DD0
100
AcDbBlockBegin
  2
DIMS2
 70
     0
 10
0.0
 20
0.0
  0
TEXT
  5
65
100
AcDbEntity
  8
DD0
100
AcDbText
 10
150.141699
 20
411.570964
 40
4.166667
  1
　
 50
44.455318
 41
0.666667
  7
STANDARD
100
AcDbText
  0
ENDBLK
  5
66
100
AcDbEntity
  8
DD0
100
AcDbBlockEnd
  0
BLOCK
  5
69
100
AcDbEntity
  8
DD0
100
AcDbBlockBegin
  2
DIMS3
 70
     0
 10
0.0
 20
0.0
  0
LINE
  5
6A
100
AcDbEntity
  8
DD0
100
AcDbLine
 10
70.71594
 20
408.03249
 11
70.71594
 21
418.960097
  0
LINE
  5
6B
100
AcDbEntity
  8
DD0
100
AcDbLine
 10
123.715943
 20
408.03249
 11
123.715943
 21
418.960097
  0
LINE
  5
6C
100
AcDbEntity
  8
DD0
100
AcDbLine
 10
75.545569
 20
418.587525
 11
70.71594
 21
417.29343
  0
LINE
  5
6D
100
AcDbEntity
  8
DD0
100
AcDbLine
 10
70.71594
 20
417.29343
 11
75.545569
 21
415.999335
  0
LINE
  5
6E
100
AcDbEntity
  8
DD0
100
AcDbLine
 10
118.886314
 20
415.999335
 11
123.715943
 21
417.29343
  0
LINE
  5
6F
100
AcDbEntity
  8
DD0
100
AcDbLine
 10
123.715943
 20
417.29343
 11
118.886314
 21
418.587525
  0
LINE
  5
70
100
AcDbEntity
  8
DD0
100
AcDbLine
 10
70.71594
 20
417.29343
 11
123.715943
 21
417.29343
  0
TEXT
  5
71
100
AcDbEntity
  8
DD0
100
AcDbText
 10
94.168722
 20
418.29344
 40
4.166667
  1
５３
 41
0.666667
  7
STANDARD
100
AcDbText
  0
ENDBLK
  5
72
100
AcDbEntity
  8
DD0
100
AcDbBlockEnd
  0
BLOCK
  5
75
100
AcDbEntity
  8
DD0
100
AcDbBlockBegin
  2
DIMS4
 70
     0
 10
0.0
 20
0.0
  0
LINE
  5
76
100
AcDbEntity
  8
DD0
100
AcDbLine
 10
55.56594
 20
337.07714
 11
55.56594
 21
314.602242
  0
LINE
  5
77
100
AcDbEntity
  8
DD0
100
AcDbLine
 10
65.665942
 20
337.07714
 11
65.665942
 21
314.602242
  0
LINE
  5
78
100
AcDbEntity
  8
DD0
100
AcDbLine
 10
50.736311
 20
314.974813
 11
55.56594
 21
316.268908
  0
LINE
  5
79
100
AcDbEntity
  8
DD0
100
AcDbLine
 10
55.56594
 20
316.268908
 11
50.736311
 21
317.563004
  0
LINE
  5
7A
100
AcDbEntity
  8
DD0
100
AcDbLine
 10
70.495571
 20
317.563004
 11
65.665942
 21
316.268908
  0
LINE
  5
7B
100
AcDbEntity
  8
DD0
100
AcDbLine
 10
65.665942
 20
316.268908
 11
70.495571
 21
314.974813
  0
LINE
  5
7C
100
AcDbEntity
  8
DD0
100
AcDbLine
 10
50.06594
 20
316.268908
 11
71.165942
 21
316.268908
  0
TEXT
  5
7D
100
AcDbEntity
  8
DD0
100
AcDbText
 10
57.568725
 20
317.268918
 40
4.166667
  1
１０
 41
0.666667
  7
STANDARD
100
AcDbText
  0
ENDBLK
  5
7E
100
AcDbEntity
  8
DD0
100
AcDbBlockEnd
  0
BLOCK
  5
81
100
AcDbEntity
  8
DD0
100
AcDbBlockBegin
  2
DIMS5
 70
     0
 10
0.0
 20
0.0
  0
LINE
  5
82
100
AcDbEntity
  8
DD0
100
AcDbLine
 10
141.782602
 20
404.543797
 11
170.086879
 21
404.543797
  0
LINE
  5
83
100
AcDbEntity
  8
DD0
100
AcDbLine
 10
130.382609
 20
324.643796
 11
170.086879
 21
324.643796
  0
LINE
  5
84
100
AcDbEntity
  8
DD0
100
AcDbLine
 10
169.714308
 20
399.714168
 11
168.420213
 21
404.543797
  0
LINE
  5
85
100
AcDbEntity
  8
DD0
100
AcDbLine
 10
168.420213
 20
404.543797
 11
167.126118
 21
399.714168
  0
LINE
  5
86
100
AcDbEntity
  8
DD0
100
AcDbLine
 10
167.126118
 20
329.473425
 11
168.420213
 21
324.643796
  0
LINE
  5
87
100
AcDbEntity
  8
DD0
100
AcDbLine
 10
168.420213
 20
324.643796
 11
169.714308
 21
329.473425
  0
LINE
  5
88
100
AcDbEntity
  8
DD0
100
AcDbLine
 10
168.420213
 20
404.543797
 11
168.420213
 21
324.643796
  0
TEXT
  5
89
100
AcDbEntity
  8
DD0
100
AcDbText
 10
167.420215
 20
361.546564
 40
4.166667
  1
８０
 50
90.000003
 41
0.666667
  7
STANDARD
100
AcDbText
  0
ENDBLK
  5
8A
100
AcDbEntity
  8
DD0
100
AcDbBlockEnd
  0
BLOCK
  5
8D
100
AcDbEntity
  8
DD0
100
AcDbBlockBegin
  2
DIMS6
 70
     0
 10
0.0
 20
0.0
  0
LINE
  5
8E
100
AcDbEntity
  8
DD0
100
AcDbLine
 10
36.715942
 20
388.460474
 11
36.715942
 21
429.407789
  0
LINE
  5
8F
100
AcDbEntity
  8
DD0
100
AcDbLine
 10
157.715944
 20
388.460474
 11
157.715944
 21
429.407789
  0
LINE
  5
90
100
AcDbEntity
  8
DD0
100
AcDbLine
 10
41.54557
 20
429.035218
 11
36.715942
 21
427.741123
  0
LINE
  5
91
100
AcDbEntity
  8
DD0
100
AcDbLine
 10
36.715942
 20
427.741123
 11
41.54557
 21
426.447028
  0
LINE
  5
92
100
AcDbEntity
  8
DD0
100
AcDbLine
 10
152.886315
 20
426.447028
 11
157.715944
 21
427.741123
  0
LINE
  5
93
100
AcDbEntity
  8
DD0
100
AcDbLine
 10
157.715944
 20
427.741123
 11
152.886315
 21
429.035218
  0
LINE
  5
94
100
AcDbEntity
  8
DD0
100
AcDbLine
 10
36.715942
 20
427.741123
 11
157.715944
 21
427.741123
  0
TEXT
  5
95
100
AcDbEntity
  8
DD0
100
AcDbText
 10
92.502055
 20
428.741133
 40
4.166667
  1
１２１
 41
0.666667
  7
STANDARD
100
AcDbText
  0
ENDBLK
  5
96
100
AcDbEntity
  8
DD0
100
AcDbBlockEnd
  0
BLOCK
  5
99
100
AcDbEntity
  8
DD0
100
AcDbBlockBegin
  2
DIMS7
 70
     0
 10
0.0
 20
0.0
  0
LINE
  5
9A
100
AcDbEntity
  8
DD0
100
AcDbLine
 10
308.979378
 20
395.710484
 11
308.979378
 21
418.960097
  0
LINE
  5
9B
100
AcDbEntity
  8
DD0
100
AcDbLine
 10
324.809017
 20
418.587525
 11
319.979388
 21
417.29343
  0
LINE
  5
9C
100
AcDbEntity
  8
DD0
100
AcDbLine
 10
319.979388
 20
417.29343
 11
324.809017
 21
415.999335
  0
LINE
  5
9D
100
AcDbEntity
  8
DD0
100
AcDbLine
 10
304.149749
 20
415.999335
 11
308.979378
 21
417.29343
  0
LINE
  5
9E
100
AcDbEntity
  8
DD0
100
AcDbLine
 10
308.979378
 20
417.29343
 11
304.149749
 21
418.587525
  0
LINE
  5
9F
100
AcDbEntity
  8
DD0
100
AcDbLine
 10
325.479388
 20
417.29343
 11
303.479378
 21
417.29343
  0
TEXT
  5
A0
100
AcDbEntity
  8
DD0
100
AcDbText
 10
311.432151
 20
418.29344
 40
4.166667
  1
１１
 41
0.666667
  7
STANDARD
100
AcDbText
  0
ENDBLK
  5
A1
100
AcDbEntity
  8
DD0
100
AcDbBlockEnd
  0
BLOCK
  5
A4
100
AcDbEntity
  8
DD0
100
AcDbBlockBegin
  2
DIMS8
 70
     0
 10
0.0
 20
0.0
  0
LINE
  5
A5
100
AcDbEntity
  8
DD0
100
AcDbLine
 10
53.21594
 20
234.157019
 11
53.21594
 21
261.630035
  0
LINE
  5
A6
100
AcDbEntity
  8
DD0
100
AcDbLine
 10
36.715942
 20
236.957007
 11
36.715942
 21
261.630035
  0
LINE
  5
A7
100
AcDbEntity
  8
DD0
100
AcDbLine
 10
48.386311
 20
258.669273
 11
53.21594
 21
259.963369
  0
LINE
  5
A8
100
AcDbEntity
  8
DD0
100
AcDbLine
 10
53.21594
 20
259.963369
 11
48.386311
 21
261.257464
  0
LINE
  5
A9
100
AcDbEntity
  8
DD0
100
AcDbLine
 10
41.54557
 20
261.257464
 11
36.715942
 21
259.963369
  0
LINE
  5
AA
100
AcDbEntity
  8
DD0
100
AcDbLine
 10
36.715942
 20
259.963369
 11
41.54557
 21
258.669273
  0
LINE
  5
AB
100
AcDbEntity
  8
DD0
100
AcDbLine
 10
53.21594
 20
259.963369
 11
36.715942
 21
259.963369
  0
TEXT
  5
AC
100
AcDbEntity
  8
DD0
100
AcDbText
 10
38.585383
 20
260.963379
 40
4.166667
  1
１６．５
 41
0.666667
  7
STANDARD
100
AcDbText
  0
ENDBLK
  5
AD
100
AcDbEntity
  8
DD0
100
AcDbBlockEnd
  0
BLOCK
  5
B0
100
AcDbEntity
  8
DD0
100
AcDbBlockBegin
  2
DIMS9
 70
     0
 10
0.0
 20
0.0
  0
LINE
  5
B1
100
AcDbEntity
  8
DD0
100
AcDbLine
 10
142.382603
 20
243.990342
 11
170.086892
 21
243.990342
  0
LINE
  5
B2
100
AcDbEntity
  8
DD0
100
AcDbLine
 10
58.882609
 20
228.490337
 11
170.086892
 21
228.490337
  0
LINE
  5
B3
100
AcDbEntity
  8
DD0
100
AcDbLine
 10
169.714321
 20
239.160713
 11
168.420225
 21
243.990342
  0
LINE
  5
B4
100
AcDbEntity
  8
DD0
100
AcDbLine
 10
168.420225
 20
243.990342
 11
167.12613
 21
239.160713
  0
LINE
  5
B5
100
AcDbEntity
  8
DD0
100
AcDbLine
 10
167.12613
 20
233.319966
 11
168.420225
 21
228.490337
  0
LINE
  5
B6
100
AcDbEntity
  8
DD0
100
AcDbLine
 10
168.420225
 20
228.490337
 11
169.714321
 21
233.319966
  0
LINE
  5
B7
100
AcDbEntity
  8
DD0
100
AcDbLine
 10
168.420225
 20
262.761347
 11
168.420225
 21
228.490337
  0
TEXT
  5
B8
100
AcDbEntity
  8
DD0
100
AcDbText
 10
167.420228
 20
248.047449
 40
4.166667
  1
１５．５
 50
90.000003
 41
0.666667
  7
STANDARD
100
AcDbText
  0
ENDBLK
  5
B9
100
AcDbEntity
  8
DD0
100
AcDbBlockEnd
  0
BLOCK
  5
BC
100
AcDbEntity
  8
DD0
100
AcDbBlockBegin
  2
DIMS10
 70
     0
 10
0.0
 20
0.0
  0
LINE
  5
BD
100
AcDbEntity
  8
DD0
100
AcDbLine
 10
58.882609
 20
228.490337
 11
170.086892
 21
228.490337
  0
LINE
  5
BE
100
AcDbEntity
  8
DD0
100
AcDbLine
 10
91.882607
 20
173.490352
 11
170.086892
 21
173.490352
  0
LINE
  5
BF
100
AcDbEntity
  8
DD0
100
AcDbLine
 10
169.714321
 20
223.660708
 11
168.420225
 21
228.490337
  0
LINE
  5
C0
100
AcDbEntity
  8
DD0
100
AcDbLine
 10
168.420225
 20
228.490337
 11
167.12613
 21
223.660708
  0
LINE
  5
C1
100
AcDbEntity
  8
DD0
100
AcDbLine
 10
167.12613
 20
178.319981
 11
168.420225
 21
173.490352
  0
LINE
  5
C2
100
AcDbEntity
  8
DD0
100
AcDbLine
 10
168.420225
 20
173.490352
 11
169.714321
 21
178.319981
  0
LINE
  5
C3
100
AcDbEntity
  8
DD0
100
AcDbLine
 10
168.420225
 20
228.490337
 11
168.420225
 21
173.490352
  0
TEXT
  5
C4
100
AcDbEntity
  8
DD0
100
AcDbText
 10
167.420228
 20
197.943119
 40
4.166667
  1
５５
 50
90.000003
 41
0.666667
  7
STANDARD
100
AcDbText
  0
ENDBLK
  5
C5
100
AcDbEntity
  8
DD0
100
AcDbBlockEnd
  0
BLOCK
  5
C8
100
AcDbEntity
  8
DD0
100
AcDbBlockBegin
  2
DIMS11
 70
     0
 10
0.0
 20
0.0
  0
LINE
  5
C9
100
AcDbEntity
  8
DD0
100
AcDbLine
 10
106.215943
 20
234.157019
 11
106.215943
 21
261.630035
  0
LINE
  5
CA
100
AcDbEntity
  8
DD0
100
AcDbLine
 10
139.215947
 20
179.157008
 11
139.215947
 21
261.630035
  0
LINE
  5
CB
100
AcDbEntity
  8
DD0
100
AcDbLine
 10
111.045572
 20
261.257464
 11
106.215943
 21
259.963369
  0
LINE
  5
CC
100
AcDbEntity
  8
DD0
100
AcDbLine
 10
106.215943
 20
259.963369
 11
111.045572
 21
258.669273
  0
LINE
  5
CD
100
AcDbEntity
  8
DD0
100
AcDbLine
 10
134.386318
 20
258.669273
 11
139.215947
 21
259.963369
  0
LINE
  5
CE
100
AcDbEntity
  8
DD0
100
AcDbLine
 10
139.215947
 20
259.963369
 11
134.386318
 21
261.257464
  0
LINE
  5
CF
100
AcDbEntity
  8
DD0
100
AcDbLine
 10
106.215943
 20
259.963369
 11
139.215947
 21
259.963369
  0
TEXT
  5
D0
100
AcDbEntity
  8
DD0
100
AcDbText
 10
119.668726
 20
260.963379
 40
4.166667
  1
３３
 41
0.666667
  7
STANDARD
100
AcDbText
  0
ENDBLK
  5
D1
100
AcDbEntity
  8
DD0
100
AcDbBlockEnd
  0
BLOCK
  5
D4
100
AcDbEntity
  8
DD0
100
AcDbBlockBegin
  2
DIMS12
 70
     0
 10
0.0
 20
0.0
  0
TEXT
  5
D5
100
AcDbEntity
  8
DD0
100
AcDbText
 10
153.925507
 20
147.398917
 40
4.166667
  1
４－Ｍ４ねじ穴
 41
0.666667
  7
STANDARD
100
AcDbText
  0
LINE
  5
D6
100
AcDbEntity
  8
DD0
100
AcDbLine
 10
142.921769
 20
167.552029
 11
140.252871
 21
171.780147
  0
LINE
  5
D7
100
AcDbEntity
  8
DD0
100
AcDbLine
 10
140.252871
 20
171.780147
 11
140.450146
 21
166.784041
  0
LINE
  5
D8
100
AcDbEntity
  8
DD0
100
AcDbLine
 10
140.252871
 20
171.780147
 11
148.139388
 21
146.39892
  0
LINE
  5
D9
100
AcDbEntity
  8
DD0
100
AcDbLine
 10
148.139388
 20
146.39892
 11
182.47273
 21
146.39892
  0
ENDBLK
  5
DA
100
AcDbEntity
  8
DD0
100
AcDbBlockEnd
  0
BLOCK
  5
DD
100
AcDbEntity
  8
DD0
100
AcDbBlockBegin
  2
DIMS13
 70
     0
 10
0.0
 20
0.0
  0
LINE
  5
DE
100
AcDbEntity
  8
DD0
100
AcDbLine
 10
86.215944
 20
179.157008
 11
86.215944
 21
261.630035
  0
LINE
  5
DF
100
AcDbEntity
  8
DD0
100
AcDbLine
 10
106.215943
 20
234.157019
 11
106.215943
 21
261.630035
  0
LINE
  5
E0
100
AcDbEntity
  8
DD0
100
AcDbLine
 10
91.045573
 20
261.257464
 11
86.215944
 21
259.963369
  0
LINE
  5
E1
100
AcDbEntity
  8
DD0
100
AcDbLine
 10
86.215944
 20
259.963369
 11
91.045573
 21
258.669273
  0
LINE
  5
E2
100
AcDbEntity
  8
DD0
100
AcDbLine
 10
101.386314
 20
258.669273
 11
106.215943
 21
259.963369
  0
LINE
  5
E3
100
AcDbEntity
  8
DD0
100
AcDbLine
 10
106.215943
 20
259.963369
 11
101.386314
 21
261.257464
  0
LINE
  5
E4
100
AcDbEntity
  8
DD0
100
AcDbLine
 10
86.215944
 20
259.963369
 11
106.215943
 21
259.963369
  0
TEXT
  5
E5
100
AcDbEntity
  8
DD0
100
AcDbText
 10
93.168724
 20
260.963379
 40
4.166667
  1
２０
 41
0.666667
  7
STANDARD
100
AcDbText
  0
ENDBLK
  5
E6
100
AcDbEntity
  8
DD0
100
AcDbBlockEnd
  0
BLOCK
  5
E9
100
AcDbEntity
  8
DD0
100
AcDbBlockBegin
  2
DIMS14
 70
     0
 10
0.0
 20
0.0
  0
LINE
  5
EA
100
AcDbEntity
  8
DD0
100
AcDbLine
 10
53.21594
 20
234.157019
 11
53.21594
 21
261.630035
  0
LINE
  5
EB
100
AcDbEntity
  8
DD0
100
AcDbLine
 10
86.215944
 20
179.157008
 11
86.215944
 21
261.630035
  0
LINE
  5
EC
100
AcDbEntity
  8
DD0
100
AcDbLine
 10
58.045569
 20
261.257464
 11
53.21594
 21
259.963369
  0
LINE
  5
ED
100
AcDbEntity
  8
DD0
100
AcDbLine
 10
53.21594
 20
259.963369
 11
58.045569
 21
258.669273
  0
LINE
  5
EE
100
AcDbEntity
  8
DD0
100
AcDbLine
 10
81.386315
 20
258.669273
 11
86.215944
 21
259.963369
  0
LINE
  5
EF
100
AcDbEntity
  8
DD0
100
AcDbLine
 10
86.215944
 20
259.963369
 11
81.386315
 21
261.257464
  0
LINE
  5
F0
100
AcDbEntity
  8
DD0
100
AcDbLine
 10
53.21594
 20
259.963369
 11
86.215944
 21
259.963369
  0
TEXT
  5
F1
100
AcDbEntity
  8
DD0
100
AcDbText
 10
66.668723
 20
260.963379
 40
4.166667
  1
３３
 41
0.666667
  7
STANDARD
100
AcDbText
  0
ENDBLK
  5
F2
100
AcDbEntity
  8
DD0
100
AcDbBlockEnd
  0
BLOCK
  5
F5
100
AcDbEntity
  8
DD0
100
AcDbBlockBegin
  2
DIMS15
 70
     0
 10
0.0
 20
0.0
  0
LINE
  5
F6
100
AcDbEntity
  8
DD0
100
AcDbLine
 10
52.649273
 20
404.543797
 11
26.603582
 21
404.543797
  0
LINE
  5
F7
100
AcDbEntity
  8
DD0
100
AcDbLine
 10
53.899273
 20
381.043813
 11
26.603582
 21
381.043813
  0
LINE
  5
F8
100
AcDbEntity
  8
DD0
100
AcDbLine
 10
29.564342
 20
399.714168
 11
28.270247
 21
404.543797
  0
LINE
  5
F9
100
AcDbEntity
  8
DD0
100
AcDbLine
 10
28.270247
 20
404.543797
 11
26.976151
 21
399.714168
  0
LINE
  5
FA
100
AcDbEntity
  8
DD0
100
AcDbLine
 10
26.976151
 20
385.873442
 11
28.270247
 21
381.043813
  0
LINE
  5
FB
100
AcDbEntity
  8
DD0
100
AcDbLine
 10
28.270247
 20
381.043813
 11
29.564342
 21
385.873442
  0
LINE
  5
FC
100
AcDbEntity
  8
DD0
100
AcDbLine
 10
28.270247
 20
404.543797
 11
28.270247
 21
381.043813
  0
TEXT
  5
FD
100
AcDbEntity
  8
DD0
100
AcDbText
 10
27.270246
 20
386.413252
 40
4.166667
  1
２３．５
 50
90.000003
 41
0.666667
  7
STANDARD
100
AcDbText
  0
ENDBLK
  5
FE
100
AcDbEntity
  8
DD0
100
AcDbBlockEnd
  0
BLOCK
  5
101
100
AcDbEntity
  8
DD0
100
AcDbBlockBegin
  2
DIMS16
 70
     0
 10
0.0
 20
0.0
  0
LINE
  5
102
100
AcDbEntity
  8
DD0
100
AcDbLine
 10
53.899273
 20
381.043813
 11
26.603582
 21
381.043813
  0
LINE
  5
103
100
AcDbEntity
  8
DD0
100
AcDbLine
 10
53.899273
 20
339.243812
 11
26.603582
 21
339.243812
  0
LINE
  5
104
100
AcDbEntity
  8
DD0
100
AcDbLine
 10
29.564342
 20
376.214184
 11
28.270247
 21
381.043813
  0
LINE
  5
105
100
AcDbEntity
  8
DD0
100
AcDbLine
 10
28.270247
 20
381.043813
 11
26.976151
 21
376.214184
  0
LINE
  5
106
100
AcDbEntity
  8
DD0
100
AcDbLine
 10
26.976151
 20
344.073441
 11
28.270247
 21
339.243812
  0
LINE
  5
107
100
AcDbEntity
  8
DD0
100
AcDbLine
 10
28.270247
 20
339.243812
 11
29.564342
 21
344.073441
  0
LINE
  5
108
100
AcDbEntity
  8
DD0
100
AcDbLine
 10
28.270247
 20
381.043813
 11
28.270247
 21
339.243812
  0
TEXT
  5
109
100
AcDbEntity
  8
DD0
100
AcDbText
 10
27.270246
 20
357.096593
 40
4.166667
  1
４２
 50
90.000003
 41
0.666667
  7
STANDARD
100
AcDbText
  0
ENDBLK
  5
10A
100
AcDbEntity
  8
DD0
100
AcDbBlockEnd
  0
ENDSEC
  0
SECTION
  2
ENTITIES
  0
INSERT
  5
56
100
AcDbEntity
  8
DD0
100
AcDbBlockReference
  2
DIMS0
 10
0.0
 20
0.0
  0
INSERT
  5
62
100
AcDbEntity
  8
DD0
100
AcDbBlockReference
  2
DIMS1
 10
0.0
 20
0.0
  0
INSERT
  5
67
100
AcDbEntity
  8
DD0
100
AcDbBlockReference
  2
DIMS2
 10
0.0
 20
0.0
  0
INSERT
  5
73
100
AcDbEntity
  8
DD0
100
AcDbBlockReference
  2
DIMS3
 10
0.0
 20
0.0
  0
INSERT
  5
7F
100
AcDbEntity
  8
DD0
100
AcDbBlockReference
  2
DIMS4
 10
0.0
 20
0.0
  0
INSERT
  5
8B
100
AcDbEntity
  8
DD0
100
AcDbBlockReference
  2
DIMS5
 10
0.0
 20
0.0
  0
INSERT
  5
97
100
AcDbEntity
  8
DD0
100
AcDbBlockReference
  2
DIMS6
 10
0.0
 20
0.0
  0
INSERT
  5
A2
100
AcDbEntity
  8
DD0
100
AcDbBlockReference
  2
DIMS7
 10
0.0
 20
0.0
  0
INSERT
  5
AE
100
AcDbEntity
  8
DD0
100
AcDbBlockReference
  2
DIMS8
 10
0.0
 20
0.0
  0
INSERT
  5
BA
100
AcDbEntity
  8
DD0
100
AcDbBlockReference
  2
DIMS9
 10
0.0
 20
0.0
  0
INSERT
  5
C6
100
AcDbEntity
  8
DD0
100
AcDbBlockReference
  2
DIMS10
 10
0.0
 20
0.0
  0
INSERT
  5
D2
100
AcDbEntity
  8
DD0
100
AcDbBlockReference
  2
DIMS11
 10
0.0
 20
0.0
  0
INSERT
  5
DB
100
AcDbEntity
  8
DD0
100
AcDbBlockReference
  2
DIMS12
 10
0.0
 20
0.0
  0
INSERT
  5
E7
100
AcDbEntity
  8
DD0
100
AcDbBlockReference
  2
DIMS13
 10
0.0
 20
0.0
  0
INSERT
  5
F3
100
AcDbEntity
  8
DD0
100
AcDbBlockReference
  2
DIMS14
 10
0.0
 20
0.0
  0
INSERT
  5
FF
100
AcDbEntity
  8
DD0
100
AcDbBlockReference
  2
DIMS15
 10
0.0
 20
0.0
  0
INSERT
  5
10B
100
AcDbEntity
  8
DD0
100
AcDbBlockReference
  2
DIMS16
 10
0.0
 20
0.0
  0
LINE
  5
10C
100
AcDbEntity
  8
M0
 62
     1
100
AcDbLine
 10
114.229767
 20
398.997496
 11
112.462189
 21
397.229918
  0
LINE
  5
10D
100
AcDbEntity
  8
M0
 62
     1
100
AcDbLine
 10
120.256525
 20
379.45316
 11
117.074884
 21
382.634923
  0
LINE
  5
10E
100
AcDbEntity
  8
M0
 62
     1
100
AcDbLine
 10
61.229767
 20
398.997496
 11
59.462189
 21
397.229918
  0
LINE
  5
10F
100
AcDbEntity
  8
M0
 62
     1
100
AcDbLine
 10
119.01922
 20
382.458165
 11
117.251642
 21
380.690465
  0
LINE
  5
110
100
AcDbEntity
  8
M0
 62
     1
100
AcDbLine
 10
86.21922
 20
340.658165
 11
84.451642
 21
338.890465
  0
LINE
  5
111
100
AcDbEntity
  8
M0
 62
     1
100
AcDbLine
 10
86.21922
 20
382.458165
 11
84.451642
 21
380.690465
  0
LINE
  5
112
100
AcDbEntity
  8
M0
 62
     1
100
AcDbLine
 10
109.979767
 20
381.397496
 11
108.212189
 21
379.629918
  0
LINE
  5
113
100
AcDbEntity
  8
M0
 62
     1
100
AcDbLine
 10
136.206525
 20
397.05316
 11
133.024884
 21
400.234923
  0
LINE
  5
114
100
AcDbEntity
  8
M0
 62
     1
100
AcDbLine
 10
60.16922
 20
400.058165
 11
58.401642
 21
398.290465
  0
LINE
  5
115
100
AcDbEntity
  8
M0
 62
     1
100
AcDbLine
 10
108.91922
 20
382.458165
 11
107.151642
 21
380.690465
  0
LINE
  5
116
100
AcDbEntity
  8
M0
 62
     1
100
AcDbLine
 10
136.029767
 20
398.997496
 11
134.262189
 21
397.229918
  0
LINE
  5
117
100
AcDbEntity
  8
M0
 62
     1
100
AcDbLine
 10
61.406525
 20
397.05316
 11
58.224884
 21
400.234923
  0
LINE
  5
118
100
AcDbEntity
  8
M0
 62
     1
100
AcDbLine
 10
87.279767
 20
381.397496
 11
85.512189
 21
379.629918
  0
LINE
  5
119
100
AcDbEntity
  8
M0
 62
     1
100
AcDbLine
 10
81.96922
 20
400.058165
 11
80.201642
 21
398.290465
  0
LINE
  5
11A
100
AcDbEntity
  8
M0
 62
     1
100
AcDbLine
 10
83.206525
 20
397.05316
 11
80.024884
 21
400.234923
  0
LINE
  5
11B
100
AcDbEntity
  8
M0
 62
     1
100
AcDbLine
 10
57.156525
 20
379.45316
 11
53.974884
 21
382.634923
  0
LINE
  5
11C
100
AcDbEntity
  8
M0
 62
     1
100
AcDbLine
 10
76.11922
 20
382.458165
 11
74.351642
 21
380.690465
  0
LINE
  5
11D
100
AcDbEntity
  8
M0
 62
     1
100
AcDbLine
 10
66.01922
 20
382.458165
 11
64.251642
 21
380.690465
  0
LINE
  5
11E
100
AcDbEntity
  8
M0
 62
     1
100
AcDbLine
 10
55.91922
 20
382.458165
 11
54.151642
 21
380.690465
  0
LINE
  5
11F
100
AcDbEntity
  8
M0
 62
     1
100
AcDbLine
 10
67.079767
 20
381.397496
 11
65.312189
 21
379.629918
  0
LINE
  5
120
100
AcDbEntity
  8
M0
 62
     1
100
AcDbLine
 10
83.029767
 20
398.997496
 11
81.262189
 21
397.229918
  0
LINE
  5
121
100
AcDbEntity
  8
M0
 62
     1
100
AcDbLine
 10
77.356525
 20
379.45316
 11
74.174884
 21
382.634923
  0
LINE
  5
122
100
AcDbEntity
  8
M0
 62
     1
100
AcDbLine
 10
109.979767
 20
339.597496
 11
108.212189
 21
337.829918
  0
LINE
  5
123
100
AcDbEntity
  8
M0
 62
     1
100
AcDbLine
 10
87.279767
 20
339.597496
 11
85.512189
 21
337.829918
  0
LINE
  5
124
100
AcDbEntity
  8
M0
 62
     1
100
AcDbLine
 10
87.456525
 20
379.45316
 11
84.274884
 21
382.634923
  0
LINE
  5
125
100
AcDbEntity
  8
M0
 62
     1
100
AcDbLine
 10
76.11922
 20
340.658165
 11
74.351642
 21
338.890465
  0
LINE
  5
126
100
AcDbEntity
  8
M0
 62
     1
100
AcDbLine
 10
56.979767
 20
381.397496
 11
55.212189
 21
379.629918
  0
LINE
  5
127
100
AcDbEntity
  8
M0
 62
     1
100
AcDbLine
 10
67.256525
 20
379.45316
 11
64.074884
 21
382.634923
  0
LINE
  5
128
100
AcDbEntity
  8
M0
 62
     1
100
AcDbLine
 10
87.456525
 20
337.65316
 11
84.274884
 21
340.834923
  0
LINE
  5
129
100
AcDbEntity
  8
M0
 62
     1
100
AcDbLine
 10
77.179767
 20
381.397496
 11
75.412189
 21
379.629918
  0
LINE
  5
12A
100
AcDbEntity
  8
M0
 62
     1
100
AcDbLine
 10
67.079767
 20
339.597496
 11
65.312189
 21
337.829918
  0
LINE
  5
12B
100
AcDbEntity
  8
M0
 62
     1
100
AcDbLine
 10
67.256525
 20
337.65316
 11
64.074884
 21
340.834923
  0
LINE
  5
12C
100
AcDbEntity
  8
M0
 62
     1
100
AcDbLine
 10
108.91922
 20
340.658165
 11
107.151642
 21
338.890465
  0
LINE
  5
12D
100
AcDbEntity
  8
M0
 62
     1
100
AcDbLine
 10
140.279767
 20
339.597496
 11
138.512189
 21
337.829918
  0
LINE
  5
12E
100
AcDbEntity
  8
M0
 62
     1
100
AcDbLine
 10
57.156525
 20
337.65316
 11
53.974884
 21
340.834923
  0
LINE
  5
12F
100
AcDbEntity
  8
M0
 62
     1
100
AcDbLine
 10
140.456525
 20
337.65316
 11
137.274884
 21
340.834923
  0
LINE
  5
130
100
AcDbEntity
  8
M0
 62
     1
100
AcDbLine
 10
77.356525
 20
337.65316
 11
74.174884
 21
340.834923
  0
LINE
  5
131
100
AcDbEntity
  8
M0
 62
     1
100
AcDbLine
 10
130.179767
 20
339.597496
 11
128.412189
 21
337.829918
  0
LINE
  5
132
100
AcDbEntity
  8
M0
 62
     1
100
AcDbLine
 10
129.11922
 20
340.658165
 11
127.351642
 21
338.890465
  0
LINE
  5
133
100
AcDbEntity
  8
M0
 62
     1
100
AcDbLine
 10
140.456525
 20
379.45316
 11
137.274884
 21
382.634923
  0
LINE
  5
134
100
AcDbEntity
  8
M0
 62
     1
100
AcDbLine
 10
139.21922
 20
382.458165
 11
137.451642
 21
380.690465
  0
LINE
  5
135
100
AcDbEntity
  8
M0
 62
     1
100
AcDbLine
 10
139.21922
 20
340.658165
 11
137.451642
 21
338.890465
  0
LINE
  5
136
100
AcDbEntity
  8
M0
 62
     1
100
AcDbLine
 10
66.01922
 20
340.658165
 11
64.251642
 21
338.890465
  0
LINE
  5
137
100
AcDbEntity
  8
M0
 62
     1
100
AcDbLine
 10
120.256525
 20
337.65316
 11
117.074884
 21
340.834923
  0
LINE
  5
138
100
AcDbEntity
  8
M0
 62
     1
100
AcDbLine
 10
110.156525
 20
337.65316
 11
106.974884
 21
340.834923
  0
LINE
  5
139
100
AcDbEntity
  8
M0
 62
     1
100
AcDbLine
 10
114.406525
 20
397.05316
 11
111.224884
 21
400.234923
  0
LINE
  5
13A
100
AcDbEntity
  8
M0
 62
     1
100
AcDbLine
 10
120.079767
 20
339.597496
 11
118.312189
 21
337.829918
  0
LINE
  5
13B
100
AcDbEntity
  8
M0
 62
     1
100
AcDbLine
 10
130.179767
 20
381.397496
 11
128.412189
 21
379.629918
  0
LINE
  5
13C
100
AcDbEntity
  8
M0
 62
     1
100
AcDbLine
 10
130.356525
 20
379.45316
 11
127.174884
 21
382.634923
  0
LINE
  5
13D
100
AcDbEntity
  8
M0
 62
     1
100
AcDbLine
 10
140.279767
 20
381.397496
 11
138.512189
 21
379.629918
  0
LINE
  5
13E
100
AcDbEntity
  8
M0
 62
     1
100
AcDbLine
 10
110.156525
 20
379.45316
 11
106.974884
 21
382.634923
  0
LINE
  5
13F
100
AcDbEntity
  8
M0
 62
     1
100
AcDbLine
 10
119.01922
 20
340.658165
 11
117.251642
 21
338.890465
  0
LINE
  5
140
100
AcDbEntity
  8
M0
 62
     1
100
AcDbLine
 10
77.179767
 20
339.597496
 11
75.412189
 21
337.829918
  0
LINE
  5
141
100
AcDbEntity
  8
M0
 62
     1
100
AcDbLine
 10
129.11922
 20
382.458165
 11
127.351642
 21
380.690465
  0
LINE
  5
142
100
AcDbEntity
  8
M0
 62
     1
100
AcDbLine
 10
55.91922
 20
340.658165
 11
54.151642
 21
338.890465
  0
LINE
  5
143
100
AcDbEntity
  8
M0
 62
     1
100
AcDbLine
 10
56.979767
 20
339.597496
 11
55.212189
 21
337.829918
  0
LINE
  5
144
100
AcDbEntity
  8
M0
 62
     1
100
AcDbLine
 10
134.96922
 20
400.058165
 11
133.201642
 21
398.290465
  0
LINE
  5
145
100
AcDbEntity
  8
M0
 62
     1
100
AcDbLine
 10
130.356525
 20
337.65316
 11
127.174884
 21
340.834923
  0
LINE
  5
146
100
AcDbEntity
  8
M0
 62
     1
100
AcDbLine
 10
120.079767
 20
381.397496
 11
118.312189
 21
379.629918
  0
LINE
  5
147
100
AcDbEntity
  8
M0
 62
     1
100
AcDbLine
 10
113.16922
 20
400.058165
 11
111.401642
 21
398.290465
  0
LINE
  5
148
100
AcDbEntity
  8
M0
  6
DASHED
100
AcDbLine
 10
196.279382
 20
351.268807
 11
196.279382
 21
348.418807
  0
LINE
  5
149
100
AcDbEntity
  8
M0
  6
DASHED
100
AcDbLine
 10
196.279382
 20
375.668805
 11
196.279382
 21
372.818805
  0
LINE
  5
14A
100
AcDbEntity
  8
M0
100
AcDbLine
 10
195.879382
 20
364.933703
 11
195.879382
 21
365.143805
  0
LINE
  5
14B
100
AcDbEntity
  8
M0
100
AcDbLine
 10
192.179383
 20
361.193805
 11
191.679382
 21
361.193805
  0
LINE
  5
14C
100
AcDbEntity
  8
M0
100
AcDbLine
 10
190.179382
 20
343.143805
 11
190.179382
 21
377.143805
  0
LINE
  5
14D
100
AcDbEntity
  8
M0
100
AcDbLine
 10
192.349561
 20
365.143805
 11
192.349561
 21
364.819594
  0
LINE
  5
14E
100
AcDbEntity
  8
M0
100
AcDbLine
 10
241.179382
 20
377.143805
 11
241.179382
 21
378.143805
  0
LINE
  5
14F
100
AcDbEntity
  8
M0
100
AcDbLine
 10
241.179382
 20
378.143805
 11
242.179382
 21
378.143805
  0
LINE
  5
150
100
AcDbEntity
  8
M0
100
AcDbLine
 10
241.179382
 20
373.243805
 11
241.179382
 21
377.143805
  0
LINE
  5
151
100
AcDbEntity
  8
M0
100
AcDbLine
 10
243.179382
 20
374.643805
 11
242.179382
 21
378.143805
  0
LINE
  5
152
100
AcDbEntity
  8
M0
100
AcDbLine
 10
238.882107
 20
364.143805
 11
238.882107
 21
360.143806
  0
LINE
  5
153
100
AcDbEntity
  8
M0
100
AcDbLine
 10
241.623123
 20
373.243805
 11
242.179382
 21
373.243805
  0
LINE
  5
154
100
AcDbEntity
  8
M0
100
AcDbLine
 10
237.179382
 20
378.143805
 11
237.875035
 21
378.143805
  0
LINE
  5
155
100
AcDbEntity
  8
M0
100
AcDbLine
 10
243.179382
 20
364.143805
 11
238.882107
 21
364.143805
  0
LINE
  5
156
100
AcDbEntity
  8
M0
100
AcDbLine
 10
238.879382
 20
377.401991
 11
238.879382
 21
373.243805
  0
LINE
  5
157
100
AcDbEntity
  8
M0
100
AcDbLine
 10
241.929382
 20
373.243805
 11
238.879382
 21
373.243805
  0
LINE
  5
158
100
AcDbEntity
  8
M0
100
AcDbLine
 10
238.879382
 20
373.243805
 11
241.623123
 21
373.243805
  0
LINE
  5
159
100
AcDbEntity
  8
M0
100
AcDbLine
 10
238.679382
 20
377.143805
 11
238.679382
 21
343.143805
  0
LINE
  5
15A
100
AcDbEntity
  8
M0
100
AcDbLine
 10
193.179381
 20
364.943805
 11
192.67938
 21
364.943805
  0
LINE
  5
15B
100
AcDbEntity
  8
M0
100
AcDbLine
 10
192.179383
 20
355.843806
 11
192.179383
 21
364.443805
  0
LINE
  5
15C
100
AcDbEntity
  8
M0
100
AcDbLine
 10
241.829382
 20
360.143806
 11
241.829382
 21
364.143805
  0
LINE
  5
15D
100
AcDbEntity
  8
M0
100
AcDbLine
 10
192.67938
 20
355.343805
 11
193.179381
 21
355.343805
  0
ARC
  5
15E
100
AcDbEntity
  8
M0
100
AcDbCircle
 10
192.679382
 20
355.843805
 40
0.5
100
AcDbArc
 50
180.0
 51
270.0
  0
ARC
  5
15F
100
AcDbEntity
  8
M0
100
AcDbCircle
 10
192.679382
 20
364.443805
 40
0.5
100
AcDbArc
 50
90.0
 51
180.0
  0
LINE
  5
160
100
AcDbEntity
  8
M0
100
AcDbLine
 10
195.77938
 20
355.343805
 11
193.179381
 21
355.343805
  0
ARC
  5
161
100
AcDbEntity
  8
M0
100
AcDbCircle
 10
238.379382
 20
377.401991
 40
0.5
100
AcDbArc
 50
0.0
 51
44.92732
  0
ARC
  5
162
100
AcDbEntity
  8
M0
100
AcDbCircle
 10
197.279382
 20
377.143805
 40
1.0
100
AcDbArc
 50
90.0
 51
180.0
  0
ARC
  5
163
100
AcDbEntity
  8
M0
100
AcDbCircle
 10
238.179382
 20
377.643805
 40
0.5
100
AcDbArc
 50
0.0
 51
90.0
  0
ARC
  5
164
100
AcDbEntity
  8
M0
100
AcDbCircle
 10
191.179382
 20
366.343805
 40
1.0
100
AcDbArc
 50
90.0
 51
180.0
  0
LINE
  5
165
100
AcDbEntity
  8
M0
100
AcDbLine
 10
241.829382
 20
356.143805
 11
241.829382
 21
360.143806
  0
LINE
  5
166
100
AcDbEntity
  8
M0
100
AcDbLine
 10
238.731141
 20
377.751741
 11
238.640031
 21
377.837594
  0
ARC
  5
167
100
AcDbEntity
  8
M0
100
AcDbCircle
 10
242.179382
 20
372.243805
 40
1.0
100
AcDbArc
 50
0.0
 51
90.0
  0
ARC
  5
168
100
AcDbEntity
  8
M0
100
AcDbCircle
 10
191.179382
 20
377.143805
 40
1.0
100
AcDbArc
 50
90.0
 51
180.0
  0
LINE
  5
169
100
AcDbEntity
  8
M0
100
AcDbLine
 10
191.679382
 20
365.143805
 11
191.679382
 21
355.143805
  0
LINE
  5
16A
100
AcDbEntity
  8
M0
100
AcDbLine
 10
238.879382
 20
347.043806
 11
238.879382
 21
343.143805
  0
LINE
  5
16B
100
AcDbEntity
  8
M0
100
AcDbLine
 10
241.623123
 20
347.043806
 11
238.879382
 21
347.043806
  0
LINE
  5
16C
100
AcDbEntity
  8
M0
100
AcDbLine
 10
197.279383
 20
342.143807
 11
191.179381
 21
342.143807
  0
LINE
  5
16D
100
AcDbEntity
  8
M0
100
AcDbLine
 10
195.879382
 20
355.353908
 11
195.879382
 21
355.143805
  0
LINE
  5
16E
100
AcDbEntity
  8
M0
100
AcDbLine
 10
191.679382
 20
361.143804
 11
192.179383
 21
361.143804
  0
LINE
  5
16F
100
AcDbEntity
  8
M0
100
AcDbLine
 10
197.779381
 20
342.143807
 11
191.179381
 21
342.143807
  0
LINE
  5
170
100
AcDbEntity
  8
M0
100
AcDbLine
 10
192.349561
 20
355.143805
 11
192.349561
 21
355.468015
  0
LINE
  5
171
100
AcDbEntity
  8
M0
100
AcDbLine
 10
196.279381
 20
343.143805
 11
196.279381
 21
352.943805
  0
LINE
  5
172
100
AcDbEntity
  8
M0
100
AcDbLine
 10
196.279381
 20
355.143805
 11
196.279381
 21
365.143805
  0
LINE
  5
173
100
AcDbEntity
  8
M0
100
AcDbLine
 10
191.179382
 20
355.143805
 11
196.279381
 21
355.143805
  0
LINE
  5
174
100
AcDbEntity
  8
M0
100
AcDbLine
 10
196.279381
 20
352.943805
 11
191.179382
 21
352.943805
  0
LINE
  5
175
100
AcDbEntity
  8
M0
100
AcDbLine
 10
242.179382
 20
347.043806
 11
241.623123
 21
347.043806
  0
LINE
  5
176
100
AcDbEntity
  8
M0
100
AcDbLine
 10
243.179382
 20
374.643805
 11
243.179382
 21
348.043806
  0
LINE
  5
177
100
AcDbEntity
  8
M0
100
AcDbLine
 10
238.879382
 20
360.143806
 11
238.879382
 21
356.143805
  0
LINE
  5
178
100
AcDbEntity
  8
M0
100
AcDbLine
 10
243.179382
 20
356.143805
 11
238.879382
 21
356.143805
  0
LINE
  5
179
100
AcDbEntity
  8
M0
100
AcDbLine
 10
193.179381
 20
364.943805
 11
195.77938
 21
364.943805
  0
ARC
  5
17A
100
AcDbEntity
  8
M0
100
AcDbCircle
 10
191.179382
 20
343.143805
 40
1.0
100
AcDbArc
 50
180.0
 51
270.0
  0
ARC
  5
17B
100
AcDbEntity
  8
M0
100
AcDbCircle
 10
191.179382
 20
366.143805
 40
1.0
100
AcDbArc
 50
180.0
 51
270.0
  0
ARC
  5
17C
100
AcDbEntity
  8
M0
100
AcDbCircle
 10
242.179382
 20
348.043805
 40
1.0
100
AcDbArc
 50
270.0
 51
360.0
  0
ARC
  5
17D
100
AcDbEntity
  8
M0
100
AcDbCircle
 10
237.879388
 20
343.1438
 40
0.999994
100
AcDbArc
 50
270.0
 51
360.0
  0
LINE
  5
17E
100
AcDbEntity
  8
M0
100
AcDbLine
 10
238.679382
 20
377.143805
 11
238.679382
 21
377.643805
  0
LINE
  5
17F
100
AcDbEntity
  8
M0
100
AcDbLine
 10
191.179382
 20
378.143805
 11
238.179382
 21
378.143805
  0
LINE
  5
180
100
AcDbEntity
  8
M0
100
AcDbLine
 10
191.179381
 20
367.343805
 11
196.279381
 21
367.343805
  0
LINE
  5
181
100
AcDbEntity
  8
M0
100
AcDbLine
 10
196.279381
 20
367.343805
 11
196.279381
 21
377.143805
  0
ARC
  5
182
100
AcDbEntity
  8
M0
100
AcDbCircle
 10
195.779382
 20
364.443805
 40
0.5
100
AcDbArc
 50
0.0
 51
90.0
  0
ARC
  5
183
100
AcDbEntity
  8
M0
100
AcDbCircle
 10
195.779382
 20
355.843805
 40
0.5
100
AcDbArc
 50
270.0
 51
360.0
  0
LINE
  5
184
100
AcDbEntity
  8
M0
100
AcDbLine
 10
237.679382
 20
342.143807
 11
191.179381
 21
342.143807
  0
LINE
  5
185
100
AcDbEntity
  8
M0
100
AcDbLine
 10
196.279381
 20
365.143805
 11
191.179381
 21
365.143805
  0
ARC
  5
186
100
AcDbEntity
  8
M0
100
AcDbCircle
 10
197.279382
 20
343.143805
 40
1.0
100
AcDbArc
 50
180.0
 51
270.0
  0
ARC
  5
187
100
AcDbEntity
  8
M0
100
AcDbCircle
 10
237.679382
 20
343.143805
 40
1.0
100
AcDbArc
 50
270.0
 51
360.0
  0
ARC
  5
188
100
AcDbEntity
  8
M0
100
AcDbCircle
 10
191.179382
 20
354.143805
 40
1.0
100
AcDbArc
 50
90.0
 51
180.0
  0
ARC
  5
189
100
AcDbEntity
  8
M0
100
AcDbCircle
 10
191.179382
 20
353.943805
 40
1.0
100
AcDbArc
 50
180.0
 51
270.0
  0
LINE
  5
18A
100
AcDbEntity
  8
M0
100
AcDbLine
 10
197.97938
 20
342.143807
 11
191.179381
 21
342.143807
  0
LINE
  5
18B
100
AcDbEntity
  8
M0
 62
     7
100
AcDbLine
 10
185.179382
 20
377.143805
 11
185.179382
 21
343.143805
  0
HATCH
  5
18C
100
AcDbEntity
  8
M0
 62
     7
100
AcDbHatch
 10
0.0
 20
0.0
210
0.0
220
0.0
230
1.0
  2
SOLID
 70
     1
 71
     0
 91
        1
 92
        1
 93
        4
 72
     1
 10
185.179382
 20
377.143805
 11
183.179382
 21
377.143805
 72
     1
 10
183.179382
 20
377.143805
 11
183.179382
 21
343.143805
 72
     1
 10
183.179382
 20
343.143805
 11
185.179382
 21
343.143805
 72
     1
 10
185.179382
 20
343.143805
 11
185.179382
 21
377.143805
 97
        0
 75
     0
 76
     1
 98
        1
 10
0.0
 20
0.0
  0
HATCH
  5
18F
100
AcDbEntity
  8
M0
 62
     7
100
AcDbHatch
 10
0.0
 20
0.0
210
0.0
220
0.0
230
1.0
  2
SOLID
 70
     1
 71
     0
 91
        2
 92
        1
 93
        8
 72
     1
 10
112.640773
 20
362.469984
 11
114.015532
 21
362.469984
 72
     1
 10
114.015532
 20
362.469984
 11
114.255835
 21
361.874606
 72
     1
 10
114.255835
 20
361.874606
 11
115.072748
 21
361.874606
 72
     1
 10
115.072748
 20
361.874606
 11
113.778147
 21
364.643806
 72
     1
 10
113.778147
 20
364.643806
 11
112.878158
 21
364.643806
 72
     1
 10
112.878158
 20
364.643806
 11
111.583557
 21
361.874606
 72
     1
 10
111.583557
 20
361.874606
 11
112.40047
 21
361.874606
 72
     1
 10
112.40047
 20
361.874606
 11
112.640773
 21
362.469984
 97
        0
 92
       16
 93
        3
 72
     1
 10
113.328153
 20
364.173042
 11
112.819604
 21
362.913056
 72
     1
 10
112.819604
 20
362.913056
 11
113.836701
 21
362.913056
 72
     1
 10
113.836701
 20
362.913056
 11
113.328153
 21
364.173042
 97
        0
 75
     0
 76
     1
 98
        1
 10
0.0
 20
0.0
  0
HATCH
  5
190
100
AcDbEntity
  8
M0
 62
     7
100
AcDbHatch
 10
0.0
 20
0.0
210
0.0
220
0.0
230
1.0
  2
SOLID
 70
     1
 71
     0
 91
        1
 92
        1
 93
       12
 72
     1
 10
119.185011
 20
361.874606
 11
119.185011
 21
363.093054
 72
     1
 10
119.185011
 20
363.093054
 11
120.666533
 21
363.093054
 72
     1
 10
120.666533
 20
363.093054
 11
120.666533
 21
361.874606
 72
     1
 10
120.666533
 20
361.874606
 11
121.40037
 21
361.874606
 72
     1
 10
121.40037
 20
361.874606
 11
121.40037
 21
364.643806
 72
     1
 10
121.40037
 20
364.643806
 11
120.666533
 21
364.643806
 72
     1
 10
120.666533
 20
364.643806
 11
120.666533
 21
363.536126
 72
     1
 10
120.666533
 20
363.536126
 11
119.185011
 21
363.536126
 72
     1
 10
119.185011
 20
363.536126
 11
119.185011
 21
364.643806
 72
     1
 10
119.185011
 20
364.643806
 11
118.451173
 21
364.643806
 72
     1
 10
118.451173
 20
364.643806
 11
118.451173
 21
361.874606
 72
     1
 10
118.451173
 20
361.874606
 11
119.185011
 21
361.874606
 97
        0
 75
     0
 76
     1
 98
        1
 10
0.0
 20
0.0
  0
HATCH
  5
191
100
AcDbEntity
  8
M0
 62
     7
100
AcDbHatch
 10
0.0
 20
0.0
210
0.0
220
0.0
230
1.0
  2
SOLID
 70
     1
 71
     0
 91
        1
 92
        1
 93
        8
 72
     1
 10
111.098946
 20
361.874606
 11
111.098946
 21
364.173042
 72
     1
 10
111.098946
 20
364.173042
 11
112.220473
 21
364.173042
 72
     1
 10
112.220473
 20
364.173042
 11
112.220473
 21
364.643806
 72
     1
 10
112.220473
 20
364.643806
 11
109.243583
 21
364.643806
 72
     1
 10
109.243583
 20
364.643806
 11
109.243583
 21
364.173042
 72
     1
 10
109.243583
 20
364.173042
 11
110.365108
 21
364.173042
 72
     1
 10
110.365108
 20
364.173042
 11
110.365108
 21
361.874606
 72
     1
 10
110.365108
 20
361.874606
 11
111.098946
 21
361.874606
 97
        0
 75
     0
 76
     1
 98
        1
 10
0.0
 20
0.0
  0
HATCH
  5
192
100
AcDbEntity
  8
M0
 62
     7
100
AcDbHatch
 10
0.0
 20
0.0
210
0.0
220
0.0
230
1.0
  2
SOLID
 70
     1
 71
     0
 91
        1
 92
        1
 93
       12
 72
     1
 10
105.449779
 20
361.874606
 11
105.449779
 21
363.093054
 72
     1
 10
105.449779
 20
363.093054
 11
106.931301
 21
363.093054
 72
     1
 10
106.931301
 20
363.093054
 11
106.931301
 21
361.874606
 72
     1
 10
106.931301
 20
361.874606
 11
107.665139
 21
361.874606
 72
     1
 10
107.665139
 20
361.874606
 11
107.665139
 21
364.643806
 72
     1
 10
107.665139
 20
364.643806
 11
106.931301
 21
364.643806
 72
     1
 10
106.931301
 20
364.643806
 11
106.931301
 21
363.536126
 72
     1
 10
106.931301
 20
363.536126
 11
105.449779
 21
363.536126
 72
     1
 10
105.449779
 20
363.536126
 11
105.449779
 21
364.643806
 72
     1
 10
105.449779
 20
364.643806
 11
104.715941
 21
364.643806
 72
     1
 10
104.715941
 20
364.643806
 11
104.715941
 21
361.874606
 72
     1
 10
104.715941
 20
361.874606
 11
105.449779
 21
361.874606
 97
        0
 75
     0
 76
     1
 98
        1
 10
0.0
 20
0.0
  0
HATCH
  5
193
100
AcDbEntity
  8
M0
 62
     7
100
AcDbHatch
 10
0.0
 20
0.0
210
0.0
220
0.0
230
1.0
  2
SOLID
 70
     1
 71
     0
 91
        1
 92
        1
 93
        4
 72
     1
 10
108.980508
 20
361.874606
 11
108.980508
 21
364.643806
 72
     1
 10
108.980508
 20
364.643806
 11
108.246671
 21
364.643806
 72
     1
 10
108.246671
 20
364.643806
 11
108.246671
 21
361.874606
 72
     1
 10
108.246671
 20
361.874606
 11
108.980508
 21
361.874606
 97
        0
 75
     0
 76
     1
 98
        1
 10
0.0
 20
0.0
  0
HATCH
  5
194
100
AcDbEntity
  8
M0
 62
     7
100
AcDbHatch
 10
0.0
 20
0.0
210
0.0
220
0.0
230
1.0
  2
SOLID
 70
     1
 71
     0
 91
        1
 92
        1
 93
        4
 72
     1
 10
122.715741
 20
361.874606
 11
122.715741
 21
364.643806
 72
     1
 10
122.715741
 20
364.643806
 11
121.981902
 21
364.643806
 72
     1
 10
121.981902
 20
364.643806
 11
121.981902
 21
361.874606
 72
     1
 10
121.981902
 20
361.874606
 11
122.715741
 21
361.874606
 97
        0
 75
     0
 76
     1
 98
        1
 10
0.0
 20
0.0
  0
HATCH
  5
195
100
AcDbEntity
  8
M0
 62
     7
100
AcDbHatch
 10
0.0
 20
0.0
210
0.0
220
0.0
230
1.0
  2
SOLID
 70
     1
 71
     0
 91
        1
 92
        1
 93
       20
 72
     2
 10
116.581963
 20
364.242272
 40
2.436895
 50
252.447306
 51
292.422669
 73
     1
 72
     2
 10
117.173476
 20
362.808764
 40
0.886144
 50
292.422669
 51
346.150662
 73
     1
 72
     2
 10
116.581963
 20
362.954594
 40
1.495367
 50
346.150662
 51
356.81526
 73
     1
 72
     1
 10
118.075021
 20
362.871518
 11
117.301955
 21
362.871518
 72
     2
 10
116.581963
 20
362.871518
 40
0.719992
 50
0.0
 51
25.643738
 73
     0
 72
     2
 10
116.756714
 20
362.787628
 40
0.526148
 50
25.643738
 51
72.512342
 73
     0
 72
     2
 10
116.581963
 20
363.342282
 40
1.10768
 50
72.512342
 51
111.534322
 73
     0
 72
     2
 10
116.414248
 20
362.917258
 40
0.650762
 50
111.534322
 51
163.518484
 73
     0
 72
     2
 10
117.476414
 20
363.231513
 40
1.758441
 50
163.518484
 51
199.911347
 73
     0
 72
     2
 10
116.434951
 20
363.608751
 40
0.650762
 50
199.911347
 51
251.231339
 73
     0
 72
     2
 10
116.581963
 20
363.176129
 40
1.10768
 50
251.231339
 51
287.055921
 73
     0
 72
     2
 10
116.752529
 20
363.732085
 40
0.526148
 50
287.055921
 51
341.370551
 73
     0
 72
     2
 10
116.581963
 20
363.674585
 40
0.706146
 50
341.370551
 51
357.752539
 73
     0
 72
     1
 10
117.287566
 20
363.702277
 11
118.058234
 21
363.702277
 72
     2
 10
116.581963
 20
363.577663
 40
1.481521
 50
4.824977
 51
11.570993
 73
     1
 72
     2
 10
117.151676
 20
363.694308
 40
0.89999
 50
11.570993
 51
66.454336
 73
     1
 72
     2
 10
116.581963
 20
362.386908
 40
2.326127
 50
66.454336
 51
109.456965
 73
     1
 72
     2
 10
116.222221
 20
363.405219
 40
1.246139
 50
109.456965
 51
161.721239
 73
     1
 72
     2
 10
116.748115
 20
363.231513
 40
1.799979
 50
161.721239
 51
190.751611
 73
     1
 72
     2
 10
116.231203
 20
363.133359
 40
1.273831
 50
190.751611
 51
252.447306
 73
     1
 97
        0
 75
     0
 76
     1
 98
        1
 10
0.0
 20
0.0
  0
HATCH
  5
196
100
AcDbEntity
  8
M0
 62
     7
100
AcDbHatch
 10
0.0
 20
0.0
210
0.0
220
0.0
230
1.0
  2
SOLID
 70
     1
 71
     0
 91
        1
 92
        1
 93
        7
 72
     1
 10
133.715941
 20
359.035719
 11
130.715941
 21
357.943808
 72
     1
 10
130.715941
 20
357.943808
 11
133.715941
 21
356.851898
 72
     1
 10
133.715941
 20
356.851898
 11
133.715941
 21
357.443808
 72
     1
 10
133.715941
 20
357.443808
 11
139.715941
 21
357.443808
 72
     1
 10
139.715941
 20
357.443808
 11
139.715941
 21
358.443808
 72
     1
 10
139.715941
 20
358.443808
 11
133.715941
 21
358.443808
 72
     1
 10
133.715941
 20
358.443808
 11
133.715941
 21
359.035719
 97
        0
 75
     0
 76
     1
 98
        1
 10
0.0
 20
0.0
  0
LINE
  5
197
100
AcDbEntity
  8
M0
100
AcDbLine
 10
113.778147
 20
364.643806
 11
115.072748
 21
361.874606
  0
LINE
  5
198
100
AcDbEntity
  8
M0
100
AcDbLine
 10
110.365108
 20
361.874606
 11
111.098946
 21
361.874606
  0
LINE
  5
199
100
AcDbEntity
  8
M0
100
AcDbLine
 10
122.715741
 20
364.643806
 11
121.981902
 21
364.643806
  0
LINE
  5
19A
100
AcDbEntity
  8
M0
100
AcDbLine
 10
114.255835
 20
361.874606
 11
115.072748
 21
361.874606
  0
LINE
  5
19B
100
AcDbEntity
  8
M0
100
AcDbLine
 10
112.40047
 20
361.874606
 11
112.640773
 21
362.469984
  0
LINE
  5
19C
100
AcDbEntity
  8
M0
100
AcDbLine
 10
108.246671
 20
364.643806
 11
108.246671
 21
361.874606
  0
LINE
  5
19D
100
AcDbEntity
  8
M0
100
AcDbLine
 10
139.715941
 20
357.443808
 11
133.715941
 21
357.443808
  0
LINE
  5
19E
100
AcDbEntity
  8
M0
100
AcDbLine
 10
121.40037
 20
364.643806
 11
120.666533
 21
364.643806
  0
TEXT
  5
19F
100
AcDbEntity
  8
M0
100
AcDbText
 10
126.840941
 20
352.643809
 40
2.0
  1
５６
 41
0.625
  7
STANDARD
100
AcDbText
  0
LINE
  5
1A0
100
AcDbEntity
  8
M0
100
AcDbLine
 10
120.666533
 20
363.536126
 11
119.185011
 21
363.536126
  0
TEXT
  5
1A1
100
AcDbEntity
  8
M0
100
AcDbText
 10
104.840934
 20
358.643809
 40
2.0
  1
ＬＡＴＣＨＥＤ
 41
0.625
  7
STANDARD
100
AcDbText
  0
LINE
  5
1A2
100
AcDbEntity
  8
M0
100
AcDbLine
 10
120.666533
 20
363.536126
 11
120.666533
 21
364.643806
  0
LINE
  5
1A3
100
AcDbEntity
  8
M0
100
AcDbLine
 10
118.075021
 20
362.871518
 11
117.301954
 21
362.871518
  0
TEXT
  5
1A4
100
AcDbEntity
  8
M0
100
AcDbText
 10
126.840941
 20
365.643807
 40
2.0
  1
５５
 41
0.625
  7
STANDARD
100
AcDbText
  0
LINE
  5
1A5
100
AcDbEntity
  8
M0
100
AcDbLine
 10
130.715941
 20
357.943808
 11
133.715941
 21
356.851898
  0
LINE
  5
1A6
100
AcDbEntity
  8
M0
100
AcDbLine
 10
112.220473
 20
364.643806
 11
109.243583
 21
364.643806
  0
LINE
  5
1A7
100
AcDbEntity
  8
M0
100
AcDbLine
 10
139.715941
 20
358.443808
 11
133.715941
 21
358.443808
  0
LINE
  5
1A8
100
AcDbEntity
  8
M0
100
AcDbLine
 10
112.878158
 20
364.643806
 11
111.583557
 21
361.874606
  0
LINE
  5
1A9
100
AcDbEntity
  8
M0
100
AcDbLine
 10
133.715941
 20
356.851898
 11
133.715941
 21
357.443808
  0
LINE
  5
1AA
100
AcDbEntity
  8
M0
100
AcDbLine
 10
110.365108
 20
364.173042
 11
110.365108
 21
361.874606
  0
LINE
  5
1AB
100
AcDbEntity
  8
M0
100
AcDbLine
 10
133.715941
 20
358.443808
 11
133.715941
 21
359.035719
  0
LINE
  5
1AC
100
AcDbEntity
  8
M0
100
AcDbLine
 10
130.715941
 20
357.943808
 11
133.715941
 21
359.035719
  0
LINE
  5
1AD
100
AcDbEntity
  8
M0
100
AcDbLine
 10
112.640773
 20
362.469984
 11
114.015532
 21
362.469984
  0
LINE
  5
1AE
100
AcDbEntity
  8
M0
100
AcDbLine
 10
113.836701
 20
362.913056
 11
113.328153
 21
364.173042
  0
LINE
  5
1AF
100
AcDbEntity
  8
M0
100
AcDbLine
 10
105.449779
 20
364.643806
 11
104.715941
 21
364.643806
  0
LINE
  5
1B0
100
AcDbEntity
  8
M0
100
AcDbLine
 10
107.665139
 20
364.643806
 11
106.931301
 21
364.643806
  0
LINE
  5
1B1
100
AcDbEntity
  8
M0
100
AcDbLine
 10
106.931301
 20
361.874606
 11
107.665139
 21
361.874606
  0
LINE
  5
1B2
100
AcDbEntity
  8
M0
100
AcDbLine
 10
139.715941
 20
357.443808
 11
139.715941
 21
358.443808
  0
ARC
  5
1B3
100
AcDbEntity
  8
M0
100
AcDbCircle
 10
147.1789
 20
355.843805
 40
0.5
100
AcDbArc
 50
270.0
 51
360.0
  0
ARC
  5
1B4
100
AcDbEntity
  8
M0
100
AcDbCircle
 10
147.1789
 20
364.443805
 40
0.5
100
AcDbArc
 50
0.0
 51
90.0
  0
LINE
  5
1B5
100
AcDbEntity
  8
M0
100
AcDbLine
 10
147.678899
 20
364.443805
 11
147.678899
 21
355.843806
  0
LINE
  5
1B6
100
AcDbEntity
  8
M0
100
AcDbLine
 10
119.185011
 20
361.874606
 11
119.185011
 21
363.093054
  0
LINE
  5
1B7
100
AcDbEntity
  8
M0
100
AcDbLine
 10
109.243583
 20
364.173042
 11
110.365108
 21
364.173042
  0
LINE
  5
1B8
100
AcDbEntity
  8
M0
100
AcDbLine
 10
142.81594
 20
364.943805
 11
147.1789
 21
364.943805
  0
LINE
  5
1B9
100
AcDbEntity
  8
M0
100
AcDbLine
 10
109.243583
 20
364.643806
 11
109.243583
 21
364.173042
  0
LINE
  5
1BA
100
AcDbEntity
  8
M0
100
AcDbLine
 10
132.115941
 20
344.943806
 11
139.915942
 21
344.943806
  0
LINE
  5
1BB
100
AcDbEntity
  8
M0
100
AcDbLine
 10
116.915941
 20
343.643806
 11
116.915941
 21
342.143807
  0
ARC
  5
1BC
100
AcDbEntity
  8
M0
100
AcDbCircle
 10
126.115941
 20
344.543805
 40
0.5
100
AcDbArc
 50
270.0
 51
360.0
  0
LINE
  5
1BD
100
AcDbEntity
  8
M0
100
AcDbLine
 10
109.315941
 20
343.143805
 11
109.215942
 21
343.143805
  0
LINE
  5
1BE
100
AcDbEntity
  8
M0
100
AcDbLine
 10
117.015941
 20
343.643806
 11
116.915941
 21
343.643806
  0
ARC
  5
1BF
100
AcDbEntity
  8
M0
100
AcDbCircle
 10
126.115941
 20
347.443805
 40
0.5
100
AcDbArc
 50
0.0
 51
90.0
  0
LINE
  5
1C0
100
AcDbEntity
  8
M0
100
AcDbLine
 10
109.315941
 20
342.143807
 11
109.315941
 21
343.143805
  0
LINE
  5
1C1
100
AcDbEntity
  8
M0
100
AcDbLine
 10
119.185011
 20
363.093054
 11
120.666533
 21
363.093054
  0
LINE
  5
1C2
100
AcDbEntity
  8
M0
100
AcDbLine
 10
119.185011
 20
364.643806
 11
118.451173
 21
364.643806
  0
LINE
  5
1C3
100
AcDbEntity
  8
M0
100
AcDbLine
 10
111.098946
 20
364.173042
 11
111.098946
 21
361.874606
  0
LINE
  5
1C4
100
AcDbEntity
  8
M0
100
AcDbLine
 10
121.981902
 20
361.874606
 11
122.715741
 21
361.874606
  0
LINE
  5
1C5
100
AcDbEntity
  8
M0
100
AcDbLine
 10
111.098946
 20
364.173042
 11
112.220473
 21
364.173042
  0
LINE
  5
1C6
100
AcDbEntity
  8
M0
100
AcDbLine
 10
104.715941
 20
361.874606
 11
105.449779
 21
361.874606
  0
LINE
  5
1C7
100
AcDbEntity
  8
M0
100
AcDbLine
 10
113.836701
 20
362.913056
 11
112.819604
 21
362.913056
  0
LINE
  5
1C8
100
AcDbEntity
  8
M0
100
AcDbLine
 10
121.40037
 20
361.874606
 11
121.40037
 21
364.643806
  0
LINE
  5
1C9
100
AcDbEntity
  8
M0
100
AcDbLine
 10
118.451173
 20
364.643806
 11
118.451173
 21
361.874606
  0
LINE
  5
1CA
100
AcDbEntity
  8
M0
100
AcDbLine
 10
108.980508
 20
364.643806
 11
108.980508
 21
361.874606
  0
LINE
  5
1CB
100
AcDbEntity
  8
M0
100
AcDbLine
 10
112.220473
 20
364.643806
 11
112.220473
 21
364.173042
  0
LINE
  5
1CC
100
AcDbEntity
  8
M0
100
AcDbLine
 10
120.666533
 20
361.874606
 11
120.666533
 21
363.093054
  0
LINE
  5
1CD
100
AcDbEntity
  8
M0
100
AcDbLine
 10
119.185011
 20
363.536126
 11
119.185011
 21
364.643806
  0
LINE
  5
1CE
100
AcDbEntity
  8
M0
100
AcDbLine
 10
113.46922
 20
347.458168
 11
111.701642
 21
345.690468
  0
LINE
  5
1CF
100
AcDbEntity
  8
M0
100
AcDbLine
 10
137.429767
 20
350.197499
 11
135.662189
 21
348.429921
  0
LINE
  5
1D0
100
AcDbEntity
  8
M0
100
AcDbLine
 10
114.706525
 20
344.453164
 11
111.524884
 21
347.634926
  0
LINE
  5
1D1
100
AcDbEntity
  8
M0
100
AcDbLine
 10
137.606525
 20
348.253163
 11
134.424884
 21
351.434926
  0
CIRCLE
  5
1D2
100
AcDbEntity
  8
M0
100
AcDbCircle
 10
136.015941
 20
370.443805
 40
3.0
  0
LINE
  5
1D3
100
AcDbEntity
  8
M0
100
AcDbLine
 10
114.529767
 20
346.3975
 11
112.762189
 21
344.629921
  0
LINE
  5
1D4
100
AcDbEntity
  8
M0
100
AcDbLine
 10
136.36922
 20
351.258168
 11
134.601642
 21
349.490468
  0
LINE
  5
1D5
100
AcDbEntity
  8
M0
100
AcDbLine
 10
136.36922
 20
371.858168
 11
134.601642
 21
370.090468
  0
LINE
  5
1D6
100
AcDbEntity
  8
M0
100
AcDbLine
 10
137.429767
 20
370.797499
 11
135.662189
 21
369.029921
  0
LINE
  5
1D7
100
AcDbEntity
  8
M0
100
AcDbLine
 10
102.715941
 20
363.343805
 11
102.715941
 21
360.143806
  0
LINE
  5
1D8
100
AcDbEntity
  8
M0
100
AcDbLine
 10
114.706525
 20
372.653163
 11
111.524884
 21
375.834926
  0
LINE
  5
1D9
100
AcDbEntity
  8
M0
100
AcDbLine
 10
114.529767
 20
374.597499
 11
112.762189
 21
372.829921
  0
LINE
  5
1DA
100
AcDbEntity
  8
M0
100
AcDbLine
 10
137.606525
 20
368.853163
 11
134.424884
 21
372.034926
  0
LINE
  5
1DB
100
AcDbEntity
  8
M0
100
AcDbLine
 10
113.46922
 20
375.658168
 11
111.701642
 21
373.890468
  0
ARC
  5
1DC
100
AcDbEntity
  8
M0
100
AcDbCircle
 10
116.581963
 20
363.674585
 40
0.706146
100
AcDbArc
 50
2.247463
 51
18.629353
  0
ARC
  5
1DD
100
AcDbEntity
  8
M0
100
AcDbCircle
 10
117.151676
 20
363.694308
 40
0.89999
100
AcDbArc
 50
11.57091
 51
66.454309
  0
ARC
  5
1DE
100
AcDbEntity
  8
M0
100
AcDbCircle
 10
116.581963
 20
363.342282
 40
1.10768
100
AcDbArc
 50
248.465704
 51
287.487613
  0
ARC
  5
1DF
100
AcDbEntity
  8
M0
100
AcDbCircle
 10
116.581963
 20
363.176129
 40
1.10768
100
AcDbArc
 50
72.944058
 51
108.768683
  0
ARC
  5
1E0
100
AcDbEntity
  8
M0
100
AcDbCircle
 10
117.476414
 20
363.231513
 40
1.758441
100
AcDbArc
 50
160.088603
 51
196.481482
  0
ARC
  5
1E1
100
AcDbEntity
  8
M0
100
AcDbCircle
 10
116.581963
 20
362.871518
 40
0.719992
100
AcDbArc
 50
334.356275
 51
360.0
  0
ARC
  5
1E2
100
AcDbEntity
  8
M0
100
AcDbCircle
 10
116.414248
 20
362.917258
 40
0.650762
100
AcDbArc
 50
196.481517
 51
248.465722
  0
CIRCLE
  5
1E3
100
AcDbEntity
  8
M0
100
AcDbCircle
 10
136.015941
 20
349.843805
 40
3.0
  0
ARC
  5
1E4
100
AcDbEntity
  8
M0
100
AcDbCircle
 10
116.752529
 20
363.732085
 40
0.526148
100
AcDbArc
 50
18.629246
 51
72.943922
  0
CIRCLE
  5
1E5
100
AcDbEntity
  8
M0
100
AcDbCircle
 10
113.115941
 20
374.243805
 40
3.0
  0
ARC
  5
1E6
100
AcDbEntity
  8
M0
100
AcDbCircle
 10
116.434951
 20
363.608751
 40
0.650762
100
AcDbArc
 50
108.768698
 51
160.088638
  0
ARC
  5
1E7
100
AcDbEntity
  8
M0
100
AcDbCircle
 10
117.173476
 20
362.808764
 40
0.886144
100
AcDbArc
 50
292.42259
 51
346.150643
  0
CIRCLE
  5
1E8
100
AcDbEntity
  8
M0
100
AcDbCircle
 10
113.115941
 20
346.043806
 40
3.0
  0
ARC
  5
1E9
100
AcDbEntity
  8
M0
100
AcDbCircle
 10
116.581963
 20
363.577663
 40
1.481521
100
AcDbArc
 50
4.824937
 51
11.570943
  0
LINE
  5
1EA
100
AcDbEntity
  8
M0
100
AcDbLine
 10
105.449779
 20
363.093054
 11
106.931301
 21
363.093054
  0
LINE
  5
1EB
100
AcDbEntity
  8
M0
100
AcDbLine
 10
114.255835
 20
361.874606
 11
114.015532
 21
362.469984
  0
LINE
  5
1EC
100
AcDbEntity
  8
M0
100
AcDbLine
 10
108.246671
 20
361.874606
 11
108.980508
 21
361.874606
  0
ARC
  5
1ED
100
AcDbEntity
  8
M0
100
AcDbCircle
 10
116.748115
 20
363.231513
 40
1.799979
100
AcDbArc
 50
161.72132
 51
190.751551
  0
ARC
  5
1EE
100
AcDbEntity
  8
M0
100
AcDbCircle
 10
116.222221
 20
363.405219
 40
1.246139
100
AcDbArc
 50
109.456972
 51
161.721309
  0
LINE
  5
1EF
100
AcDbEntity
  8
M0
100
AcDbLine
 10
118.058235
 20
363.702277
 11
117.287565
 21
363.702277
  0
LINE
  5
1F0
100
AcDbEntity
  8
M0
100
AcDbLine
 10
106.931301
 20
364.643806
 11
106.931301
 21
363.536126
  0
LINE
  5
1F1
100
AcDbEntity
  8
M0
100
AcDbLine
 10
113.778147
 20
364.643806
 11
112.878158
 21
364.643806
  0
LINE
  5
1F2
100
AcDbEntity
  8
M0
100
AcDbLine
 10
105.449779
 20
364.643806
 11
105.449779
 21
363.536126
  0
LINE
  5
1F3
100
AcDbEntity
  8
M0
100
AcDbLine
 10
112.819604
 20
362.913056
 11
113.328153
 21
364.173042
  0
LINE
  5
1F4
100
AcDbEntity
  8
M0
100
AcDbLine
 10
107.665139
 20
364.643806
 11
107.665139
 21
361.874606
  0
LINE
  5
1F5
100
AcDbEntity
  8
M0
100
AcDbLine
 10
111.583557
 20
361.874606
 11
112.40047
 21
361.874606
  0
LINE
  5
1F6
100
AcDbEntity
  8
M0
100
AcDbLine
 10
105.449779
 20
363.093054
 11
105.449779
 21
361.874606
  0
LINE
  5
1F7
100
AcDbEntity
  8
M0
100
AcDbLine
 10
118.451173
 20
361.874606
 11
119.185011
 21
361.874606
  0
LINE
  5
1F8
100
AcDbEntity
  8
M0
100
AcDbLine
 10
120.666533
 20
361.874606
 11
121.40037
 21
361.874606
  0
LINE
  5
1F9
100
AcDbEntity
  8
M0
100
AcDbLine
 10
106.931301
 20
363.093054
 11
106.931301
 21
361.874606
  0
TEXT
  5
1FA
100
AcDbEntity
  8
M0
100
AcDbText
 10
133.240935
 20
360.843806
 40
2.0
  1
ＯＦＦ
 41
0.625
  7
STANDARD
100
AcDbText
  0
LINE
  5
1FB
100
AcDbEntity
  8
M0
100
AcDbLine
 10
108.980508
 20
364.643806
 11
108.246671
 21
364.643806
  0
LINE
  5
1FC
100
AcDbEntity
  8
M0
100
AcDbLine
 10
106.931301
 20
363.536126
 11
105.449779
 21
363.536126
  0
TEXT
  5
1FD
100
AcDbEntity
  8
M0
100
AcDbText
 10
111.740935
 20
352.643809
 40
2.0
  1
Ｅ２
 41
0.625
  7
STANDARD
100
AcDbText
  0
LINE
  5
1FE
100
AcDbEntity
  8
M0
100
AcDbLine
 10
121.981902
 20
361.874606
 11
121.981902
 21
364.643806
  0
ARC
  5
1FF
100
AcDbEntity
  8
M0
100
AcDbCircle
 10
116.756714
 20
362.787628
 40
0.526148
100
AcDbArc
 50
287.487588
 51
334.356243
  0
ARC
  5
200
100
AcDbEntity
  8
M0
100
AcDbCircle
 10
116.231203
 20
363.133359
 40
1.273831
100
AcDbArc
 50
190.75155
 51
252.447271
  0
ARC
  5
201
100
AcDbEntity
  8
M0
100
AcDbCircle
 10
116.581963
 20
362.954594
 40
1.495367
100
AcDbArc
 50
346.150651
 51
356.815254
  0
TEXT
  5
202
100
AcDbEntity
  8
M0
100
AcDbText
 10
104.840934
 20
356.143809
 40
2.0
  1
ＣＯＮＴＡＣＴＯＲ
 41
0.625
  7
STANDARD
100
AcDbText
  0
TEXT
  5
203
100
AcDbEntity
  8
M0
100
AcDbText
 10
111.740935
 20
365.643807
 40
2.0
  1
Ｅ１
 41
0.625
  7
STANDARD
100
AcDbText
  0
ARC
  5
204
100
AcDbEntity
  8
M0
100
AcDbCircle
 10
116.581963
 20
364.242272
 40
2.436895
100
AcDbArc
 50
252.447278
 51
292.42262
  0
LINE
  5
205
100
AcDbEntity
  8
M0
100
AcDbLine
 10
143.215942
 20
377.143805
 11
143.215942
 21
367.343805
  0
LINE
  5
206
100
AcDbEntity
  8
M0
100
AcDbLine
 10
139.915942
 20
366.343805
 11
139.915942
 21
377.143805
  0
LINE
  5
207
100
AcDbEntity
  8
M0
100
AcDbLine
 10
143.215942
 20
367.343805
 11
145.715941
 21
367.343805
  0
LINE
  5
208
100
AcDbEntity
  8
M0
100
AcDbLine
 10
132.115941
 20
377.143805
 11
132.115941
 21
366.343805
  0
LINE
  5
209
100
AcDbEntity
  8
M0
100
AcDbLine
 10
109.215942
 20
370.143805
 11
117.015941
 21
370.143805
  0
LINE
  5
20A
100
AcDbEntity
  8
M0
100
AcDbLine
 10
145.715941
 20
365.143805
 11
143.215942
 21
365.143805
  0
LINE
  5
20B
100
AcDbEntity
  8
M0
100
AcDbLine
 10
132.115941
 20
366.343805
 11
139.915942
 21
366.343805
  0
LINE
  5
20C
100
AcDbEntity
  8
M0
100
AcDbLine
 10
109.215942
 20
378.143805
 11
109.215942
 21
377.143805
  0
LINE
  5
20D
100
AcDbEntity
  8
M0
100
AcDbLine
 10
117.015941
 20
377.143805
 11
117.015941
 21
378.143805
  0
LINE
  5
20E
100
AcDbEntity
  8
M0
100
AcDbLine
 10
124.715941
 20
348.043806
 11
124.715941
 21
347.943804
  0
LINE
  5
20F
100
AcDbEntity
  8
M0
100
AcDbLine
 10
147.715941
 20
366.343805
 11
147.715941
 21
366.143805
  0
LINE
  5
210
100
AcDbEntity
  8
M0
100
AcDbLine
 10
145.715941
 20
367.343805
 11
146.715941
 21
367.343805
  0
LINE
  5
211
100
AcDbEntity
  8
M0
100
AcDbLine
 10
126.615941
 20
348.043806
 11
126.615941
 21
347.943804
  0
LINE
  5
212
100
AcDbEntity
  8
M0
100
AcDbLine
 10
146.715941
 20
365.143805
 11
145.715941
 21
365.143805
  0
ARC
  5
213
100
AcDbEntity
  8
M0
100
AcDbCircle
 10
121.515941
 20
347.443805
 40
0.5
100
AcDbArc
 50
90.0
 51
180.0
  0
ARC
  5
214
100
AcDbEntity
  8
M0
100
AcDbCircle
 10
146.715941
 20
366.143805
 40
1.0
100
AcDbArc
 50
270.0
 51
360.0
  0
LINE
  5
215
100
AcDbEntity
  8
M0
100
AcDbLine
 10
139.765941
 20
373.693805
 11
139.765941
 21
367.193805
  0
ARC
  5
216
100
AcDbEntity
  8
M0
100
AcDbCircle
 10
142.215941
 20
377.143805
 40
1.0
100
AcDbArc
 50
0.0
 51
90.0
  0
ARC
  5
217
100
AcDbEntity
  8
M0
100
AcDbCircle
 10
143.215941
 20
364.643805
 40
0.5
100
AcDbArc
 50
90.0
 51
180.0
  0
ARC
  5
218
100
AcDbEntity
  8
M0
100
AcDbCircle
 10
121.515941
 20
344.543805
 40
0.5
100
AcDbArc
 50
180.0
 51
270.0
  0
ARC
  5
219
100
AcDbEntity
  8
M0
100
AcDbCircle
 10
146.715941
 20
366.343805
 40
1.0
100
AcDbArc
 50
0.0
 51
90.0
  0
LINE
  5
21A
100
AcDbEntity
  8
M0
100
AcDbLine
 10
100.715941
 20
378.143805
 11
146.715941
 21
378.143805
  0
LINE
  5
21B
100
AcDbEntity
  8
M0
100
AcDbLine
 10
100.715941
 20
363.343805
 11
100.215942
 21
363.343805
  0
LINE
  5
21C
100
AcDbEntity
  8
M0
100
AcDbLine
 10
117.015941
 20
370.143805
 11
117.015941
 21
377.143805
  0
LINE
  5
21D
100
AcDbEntity
  8
M0
100
AcDbLine
 10
132.765941
 20
374.193805
 11
139.265941
 21
374.193805
  0
LINE
  5
21E
100
AcDbEntity
  8
M0
100
AcDbLine
 10
139.265941
 20
366.693805
 11
132.765941
 21
366.693805
  0
LINE
  5
21F
100
AcDbEntity
  8
M0
100
AcDbLine
 10
109.215942
 20
377.143805
 11
109.215942
 21
370.143805
  0
LINE
  5
220
100
AcDbEntity
  8
M0
100
AcDbLine
 10
147.715941
 20
360.143806
 11
147.678899
 21
360.143806
  0
LINE
  5
221
100
AcDbEntity
  8
M0
100
AcDbLine
 10
109.865941
 20
377.993805
 11
116.365941
 21
377.993805
  0
ARC
  5
222
100
AcDbEntity
  8
M0
100
AcDbCircle
 10
132.765941
 20
346.593805
 40
0.5
100
AcDbArc
 50
180.0
 51
270.0
  0
LINE
  5
223
100
AcDbEntity
  8
M0
100
AcDbLine
 10
116.365941
 20
342.293805
 11
109.865941
 21
342.293805
  0
ARC
  5
224
100
AcDbEntity
  8
M0
100
AcDbCircle
 10
116.365941
 20
349.293805
 40
0.5
100
AcDbArc
 50
0.0
 51
90.0
  0
ARC
  5
225
100
AcDbEntity
  8
M0
100
AcDbCircle
 10
116.365941
 20
342.793805
 40
0.5
100
AcDbArc
 50
270.0
 51
360.0
  0
LINE
  5
226
100
AcDbEntity
  8
M0
100
AcDbLine
 10
109.365941
 20
342.793805
 11
109.365941
 21
349.293805
  0
ARC
  5
227
100
AcDbEntity
  8
M0
100
AcDbCircle
 10
132.765941
 20
353.093805
 40
0.5
100
AcDbArc
 50
90.0
 51
180.0
  0
LINE
  5
228
100
AcDbEntity
  8
M0
100
AcDbLine
 10
109.365941
 20
370.993805
 11
109.365941
 21
377.493805
  0
ARC
  5
229
100
AcDbEntity
  8
M0
100
AcDbCircle
 10
109.865941
 20
377.493805
 40
0.5
100
AcDbArc
 50
90.0
 51
180.0
  0
LINE
  5
22A
100
AcDbEntity
  8
M0
100
AcDbLine
 10
116.865941
 20
377.493805
 11
116.865941
 21
370.993805
  0
LINE
  5
22B
100
AcDbEntity
  8
M0
100
AcDbLine
 10
109.865941
 20
349.793806
 11
116.365941
 21
349.793806
  0
LINE
  5
22C
100
AcDbEntity
  8
M0
100
AcDbLine
 10
116.865941
 20
349.293805
 11
116.865941
 21
342.793806
  0
LINE
  5
22D
100
AcDbEntity
  8
M0
100
AcDbLine
 10
116.365941
 20
370.493805
 11
109.865941
 21
370.493805
  0
ARC
  5
22E
100
AcDbEntity
  8
M0
100
AcDbCircle
 10
109.865941
 20
370.993805
 40
0.5
100
AcDbArc
 50
180.0
 51
270.0
  0
ARC
  5
22F
100
AcDbEntity
  8
M0
100
AcDbCircle
 10
132.765941
 20
373.693805
 40
0.5
100
AcDbArc
 50
90.0
 51
180.0
  0
ARC
  5
230
100
AcDbEntity
  8
M0
100
AcDbCircle
 10
132.765941
 20
367.193805
 40
0.5
100
AcDbArc
 50
180.0
 51
270.0
  0
LINE
  5
231
100
AcDbEntity
  8
M0
100
AcDbLine
 10
139.265941
 20
346.093806
 11
132.765942
 21
346.093806
  0
ARC
  5
232
100
AcDbEntity
  8
M0
100
AcDbCircle
 10
139.265941
 20
346.593805
 40
0.5
100
AcDbArc
 50
270.0
 51
360.0
  0
LINE
  5
233
100
AcDbEntity
  8
M0
100
AcDbLine
 10
126.615941
 20
347.943804
 11
126.615941
 21
346.143804
  0
LINE
  5
234
100
AcDbEntity
  8
M0
100
AcDbLine
 10
132.265942
 20
346.593804
 11
132.265942
 21
353.093805
  0
ARC
  5
235
100
AcDbEntity
  8
M0
100
AcDbCircle
 10
139.265941
 20
353.093805
 40
0.5
100
AcDbArc
 50
0.0
 51
90.0
  0
ARC
  5
236
100
AcDbEntity
  8
M0
100
AcDbCircle
 10
116.365941
 20
370.993805
 40
0.5
100
AcDbArc
 50
270.0
 51
360.0
  0
ARC
  5
237
100
AcDbEntity
  8
M0
100
AcDbCircle
 10
116.365941
 20
377.493805
 40
0.5
100
AcDbArc
 50
0.0
 51
90.0
  0
ARC
  5
238
100
AcDbEntity
  8
M0
100
AcDbCircle
 10
109.865941
 20
349.293805
 40
0.5
100
AcDbArc
 50
90.0
 51
180.0
  0
LINE
  5
239
100
AcDbEntity
  8
M0
100
AcDbLine
 10
139.765941
 20
353.093805
 11
139.765941
 21
346.593804
  0
LINE
  5
23A
100
AcDbEntity
  8
M0
100
AcDbLine
 10
132.765941
 20
353.593805
 11
139.265941
 21
353.593805
  0
ARC
  5
23B
100
AcDbEntity
  8
M0
100
AcDbCircle
 10
109.865941
 20
342.793805
 40
0.5
100
AcDbArc
 50
180.0
 51
270.0
  0
LINE
  5
23C
100
AcDbEntity
  8
M0
100
AcDbLine
 10
139.915942
 20
375.343805
 11
132.115941
 21
375.343805
  0
LINE
  5
23D
100
AcDbEntity
  8
M0
100
AcDbLine
 10
126.615941
 20
344.543806
 11
126.615941
 21
345.043804
  0
LINE
  5
23E
100
AcDbEntity
  8
M0
100
AcDbLine
 10
99.715941
 20
343.143805
 11
99.715941
 21
349.643805
  0
LINE
  5
23F
100
AcDbEntity
  8
M0
100
AcDbLine
 10
121.515941
 20
347.943804
 11
126.115941
 21
347.943804
  0
LINE
  5
240
100
AcDbEntity
  8
M0
100
AcDbLine
 10
126.115941
 20
344.043805
 11
121.515941
 21
344.043805
  0
LINE
  5
241
100
AcDbEntity
  8
M0
100
AcDbLine
 10
126.915941
 20
347.843804
 11
126.915941
 21
346.143804
  0
LINE
  5
242
100
AcDbEntity
  8
M0
100
AcDbLine
 10
126.615941
 20
347.443805
 11
126.615941
 21
345.043804
  0
LINE
  5
243
100
AcDbEntity
  8
M0
100
AcDbLine
 10
100.215942
 20
356.943806
 11
100.715941
 21
356.943806
  0
LINE
  5
244
100
AcDbEntity
  8
M0
100
AcDbLine
 10
147.715941
 20
377.143805
 11
147.715941
 21
343.143805
  0
LINE
  5
245
100
AcDbEntity
  8
M0
100
AcDbLine
 10
100.715941
 20
356.943806
 11
100.715941
 21
363.343805
  0
LINE
  5
246
100
AcDbEntity
  8
M0
100
AcDbLine
 10
126.915941
 20
343.643806
 11
121.015941
 21
343.643806
  0
LINE
  5
247
100
AcDbEntity
  8
M0
100
AcDbLine
 10
103.215941
 20
342.143807
 11
100.715941
 21
342.143807
  0
LINE
  5
248
100
AcDbEntity
  8
M0
100
AcDbLine
 10
99.715941
 20
343.143805
 11
99.715941
 21
377.143805
  0
LINE
  5
249
100
AcDbEntity
  8
M0
100
AcDbLine
 10
147.678899
 20
360.143806
 11
147.715941
 21
360.143806
  0
ARC
  5
24A
100
AcDbEntity
  8
M0
100
AcDbCircle
 10
108.215941
 20
343.143805
 40
1.0
100
AcDbArc
 50
270.0
 51
360.0
  0
ARC
  5
24B
100
AcDbEntity
  8
M0
100
AcDbCircle
 10
100.715941
 20
343.143805
 40
1.0
100
AcDbArc
 50
180.0
 51
270.0
  0
ARC
  5
24C
100
AcDbEntity
  8
M0
100
AcDbCircle
 10
120.015941
 20
343.143805
 40
1.0
100
AcDbArc
 50
270.0
 51
360.0
  0
ARC
  5
24D
100
AcDbEntity
  8
M0
100
AcDbCircle
 10
146.715941
 20
343.143805
 40
1.0
100
AcDbArc
 50
270.0
 51
360.0
  0
ARC
  5
24E
100
AcDbEntity
  8
M0
100
AcDbCircle
 10
116.581963
 20
362.386908
 40
2.326127
100
AcDbArc
 50
66.454301
 51
109.456969
  0
ARC
  5
24F
100
AcDbEntity
  8
M0
100
AcDbCircle
 10
118.015941
 20
343.143805
 40
1.0
100
AcDbArc
 50
180.0
 51
270.0
  0
ARC
  5
250
100
AcDbEntity
  8
M0
100
AcDbCircle
 10
100.215941
 20
356.443805
 40
0.5
100
AcDbArc
 50
90.0
 51
180.0
  0
ARC
  5
251
100
AcDbEntity
  8
M0
100
AcDbCircle
 10
143.215941
 20
355.643805
 40
0.5
100
AcDbArc
 50
180.0
 51
270.0
  0
ARC
  5
252
100
AcDbEntity
  8
M0
100
AcDbCircle
 10
142.215941
 20
343.143805
 40
1.0
100
AcDbArc
 50
270.0
 51
360.0
  0
ARC
  5
253
100
AcDbEntity
  8
M0
100
AcDbCircle
 10
146.715941
 20
354.143805
 40
1.0
100
AcDbArc
 50
0.0
 51
90.0
  0
ARC
  5
254
100
AcDbEntity
  8
M0
100
AcDbCircle
 10
131.115941
 20
343.143805
 40
1.0
100
AcDbArc
 50
270.0
 51
360.0
  0
ARC
  5
255
100
AcDbEntity
  8
M0
100
AcDbCircle
 10
127.915941
 20
343.143805
 40
1.0
100
AcDbArc
 50
180.0
 51
270.0
  0
ARC
  5
256
100
AcDbEntity
  8
M0
100
AcDbCircle
 10
146.715941
 20
353.943805
 40
1.0
100
AcDbArc
 50
270.0
 51
360.0
  0
ARC
  5
257
100
AcDbEntity
  8
M0
100
AcDbCircle
 10
140.915941
 20
343.143805
 40
1.0
100
AcDbArc
 50
180.0
 51
270.0
  0
ARC
  5
258
100
AcDbEntity
  8
M0
100
AcDbCircle
 10
139.265941
 20
367.193805
 40
0.5
100
AcDbArc
 50
270.0
 51
360.0
  0
LINE
  5
259
100
AcDbEntity
  8
M0
100
AcDbLine
 10
147.1789
 20
355.343805
 11
142.81594
 21
355.343805
  0
ARC
  5
25A
100
AcDbEntity
  8
M0
100
AcDbCircle
 10
146.715941
 20
377.143805
 40
1.0
100
AcDbArc
 50
0.0
 51
90.0
  0
LINE
  5
25B
100
AcDbEntity
  8
M0
100
AcDbLine
 10
145.715941
 20
352.943805
 11
146.715941
 21
352.943805
  0
LINE
  5
25C
100
AcDbEntity
  8
M0
100
AcDbLine
 10
147.715941
 20
354.143805
 11
147.715941
 21
353.943805
  0
ARC
  5
25D
100
AcDbEntity
  8
M0
100
AcDbCircle
 10
139.265941
 20
373.693805
 40
0.5
100
AcDbArc
 50
0.0
 51
90.0
  0
LINE
  5
25E
100
AcDbEntity
  8
M0
100
AcDbLine
 10
145.715941
 20
355.143805
 11
146.715941
 21
355.143805
  0
ARC
  5
25F
100
AcDbEntity
  8
M0
100
AcDbCircle
 10
131.115941
 20
377.143805
 40
1.0
100
AcDbArc
 50
0.0
 51
90.0
  0
ARC
  5
260
100
AcDbEntity
  8
M0
100
AcDbCircle
 10
118.015941
 20
377.143805
 40
1.0
100
AcDbArc
 50
90.0
 51
180.0
  0
LINE
  5
261
100
AcDbEntity
  8
M0
100
AcDbLine
 10
132.265942
 20
367.193805
 11
132.265942
 21
373.693805
  0
ARC
  5
262
100
AcDbEntity
  8
M0
100
AcDbCircle
 10
100.715941
 20
377.143805
 40
1.0
100
AcDbArc
 50
90.0
 51
180.0
  0
ARC
  5
263
100
AcDbEntity
  8
M0
100
AcDbCircle
 10
100.215941
 20
363.843805
 40
0.5
100
AcDbArc
 50
180.0
 51
270.0
  0
ARC
  5
264
100
AcDbEntity
  8
M0
100
AcDbCircle
 10
140.915941
 20
377.143805
 40
1.0
100
AcDbArc
 50
90.0
 51
180.0
  0
ARC
  5
265
100
AcDbEntity
  8
M0
100
AcDbCircle
 10
108.215941
 20
377.143805
 40
1.0
100
AcDbArc
 50
0.0
 51
90.0
  0
LINE
  5
266
100
AcDbEntity
  8
M0
100
AcDbLine
 10
121.015941
 20
348.043806
 11
121.015941
 21
343.143805
  0
LINE
  5
267
100
AcDbEntity
  8
M0
100
AcDbLine
 10
117.015941
 20
343.143805
 11
117.015941
 21
350.143804
  0
LINE
  5
268
100
AcDbEntity
  8
M0
100
AcDbLine
 10
126.915941
 20
343.143805
 11
126.915941
 21
348.043806
  0
LINE
  5
269
100
AcDbEntity
  8
M0
100
AcDbLine
 10
109.215942
 20
350.143804
 11
109.215942
 21
343.143805
  0
LINE
  5
26A
100
AcDbEntity
  8
M0
100
AcDbLine
 10
146.715941
 20
342.143807
 11
100.715941
 21
342.143807
  0
LINE
  5
26B
100
AcDbEntity
  8
M0
100
AcDbLine
 10
126.915941
 20
348.043806
 11
121.015941
 21
348.043806
  0
LINE
  5
26C
100
AcDbEntity
  8
M0
100
AcDbLine
 10
117.015941
 20
350.143804
 11
109.215942
 21
350.143804
  0
LINE
  5
26D
100
AcDbEntity
  8
M0
100
AcDbLine
 10
143.215942
 20
352.943805
 11
143.215942
 21
343.143805
  0
LINE
  5
26E
100
AcDbEntity
  8
M0
100
AcDbLine
 10
142.715941
 20
364.643805
 11
142.715941
 21
355.643804
  0
LINE
  5
26F
100
AcDbEntity
  8
M0
100
AcDbLine
 10
145.715941
 20
352.943805
 11
143.215942
 21
352.943805
  0
LINE
  5
270
100
AcDbEntity
  8
M0
100
AcDbLine
 10
139.915942
 20
353.943805
 11
132.115941
 21
353.943805
  0
LINE
  5
271
100
AcDbEntity
  8
M0
100
AcDbLine
 10
132.115941
 20
353.943805
 11
132.115941
 21
343.143805
  0
LINE
  5
272
100
AcDbEntity
  8
M0
100
AcDbLine
 10
143.215942
 20
355.143805
 11
145.715941
 21
355.143805
  0
LINE
  5
273
100
AcDbEntity
  8
M0
100
AcDbLine
 10
139.915942
 20
343.143805
 11
139.915942
 21
353.943805
  0
LINE
  5
274
100
AcDbEntity
  8
M0
100
AcDbLine
 10
103.215941
 20
368.643806
 11
130.215941
 21
368.643806
  0
LINE
  5
275
100
AcDbEntity
  8
M0
100
AcDbLine
 10
102.715941
 20
368.143806
 11
102.715941
 21
352.143806
  0
LINE
  5
276
100
AcDbEntity
  8
M0
100
AcDbLine
 10
103.215941
 20
351.643806
 11
130.215941
 21
351.643806
  0
LINE
  5
277
100
AcDbEntity
  8
M0
100
AcDbLine
 10
140.715941
 20
356.143806
 11
140.715941
 21
364.143806
  0
LINE
  5
278
100
AcDbEntity
  8
M0
100
AcDbLine
 10
140.215941
 20
355.643806
 11
131.215941
 21
355.643806
  0
LINE
  5
279
100
AcDbEntity
  8
M0
100
AcDbLine
 10
140.215941
 20
364.643806
 11
131.215941
 21
364.643806
  0
LINE
  5
27A
100
AcDbEntity
  8
M0
100
AcDbLine
 10
130.715941
 20
352.143806
 11
130.715941
 21
355.143806
  0
LINE
  5
27B
100
AcDbEntity
  8
M0
100
AcDbLine
 10
130.715941
 20
365.143806
 11
130.715941
 21
368.143806
  0
ARC
  5
27C
100
AcDbEntity
  8
M0
100
AcDbCircle
 10
103.215941
 20
368.143806
 40
0.5
100
AcDbArc
 50
90.0
 51
180.0
  0
ARC
  5
27D
100
AcDbEntity
  8
M0
100
AcDbCircle
 10
130.215941
 20
368.143806
 40
0.5
100
AcDbArc
 50
0.0
 51
90.0
  0
ARC
  5
27E
100
AcDbEntity
  8
M0
100
AcDbCircle
 10
131.215941
 20
365.143806
 40
0.5
100
AcDbArc
 50
180.0
 51
270.0
  0
ARC
  5
27F
100
AcDbEntity
  8
M0
100
AcDbCircle
 10
140.215941
 20
364.143806
 40
0.5
100
AcDbArc
 50
0.0
 51
90.0
  0
ARC
  5
280
100
AcDbEntity
  8
M0
100
AcDbCircle
 10
140.215941
 20
356.143806
 40
0.5
100
AcDbArc
 50
270.0
 51
360.0
  0
ARC
  5
281
100
AcDbEntity
  8
M0
100
AcDbCircle
 10
131.215941
 20
355.143806
 40
0.5
100
AcDbArc
 50
90.0
 51
180.0
  0
ARC
  5
282
100
AcDbEntity
  8
M0
100
AcDbCircle
 10
130.215941
 20
352.143806
 40
0.5
100
AcDbArc
 50
270.0
 51
360.0
  0
ARC
  5
283
100
AcDbEntity
  8
M0
100
AcDbCircle
 10
103.215941
 20
352.143806
 40
0.5
100
AcDbArc
 50
180.0
 51
270.0
  0
HATCH
  5
284
100
AcDbEntity
  8
M0
 62
     7
100
AcDbHatch
 10
0.0
 20
0.0
210
0.0
220
0.0
230
1.0
  2
SOLID
 70
     1
 71
     0
 91
        1
 92
        1
 93
       12
 72
     1
 10
66.185011
 20
361.874606
 11
66.185011
 21
363.093054
 72
     1
 10
66.185011
 20
363.093054
 11
67.666533
 21
363.093054
 72
     1
 10
67.666533
 20
363.093054
 11
67.666533
 21
361.874606
 72
     1
 10
67.666533
 20
361.874606
 11
68.40037
 21
361.874606
 72
     1
 10
68.40037
 20
361.874606
 11
68.40037
 21
364.643806
 72
     1
 10
68.40037
 20
364.643806
 11
67.666533
 21
364.643806
 72
     1
 10
67.666533
 20
364.643806
 11
67.666533
 21
363.536126
 72
     1
 10
67.666533
 20
363.536126
 11
66.185011
 21
363.536126
 72
     1
 10
66.185011
 20
363.536126
 11
66.185011
 21
364.643806
 72
     1
 10
66.185011
 20
364.643806
 11
65.451173
 21
364.643806
 72
     1
 10
65.451173
 20
364.643806
 11
65.451173
 21
361.874606
 72
     1
 10
65.451173
 20
361.874606
 11
66.185011
 21
361.874606
 97
        0
 75
     0
 76
     1
 98
        1
 10
0.0
 20
0.0
  0
HATCH
  5
285
100
AcDbEntity
  8
M0
 62
     7
100
AcDbHatch
 10
0.0
 20
0.0
210
0.0
220
0.0
230
1.0
  2
SOLID
 70
     1
 71
     0
 91
        1
 92
        1
 93
       12
 72
     1
 10
52.449779
 20
361.874606
 11
52.449779
 21
363.093054
 72
     1
 10
52.449779
 20
363.093054
 11
53.931301
 21
363.093054
 72
     1
 10
53.931301
 20
363.093054
 11
53.931301
 21
361.874606
 72
     1
 10
53.931301
 20
361.874606
 11
54.665139
 21
361.874606
 72
     1
 10
54.665139
 20
361.874606
 11
54.665139
 21
364.643806
 72
     1
 10
54.665139
 20
364.643806
 11
53.931301
 21
364.643806
 72
     1
 10
53.931301
 20
364.643806
 11
53.931301
 21
363.536126
 72
     1
 10
53.931301
 20
363.536126
 11
52.449779
 21
363.536126
 72
     1
 10
52.449779
 20
363.536126
 11
52.449779
 21
364.643806
 72
     1
 10
52.449779
 20
364.643806
 11
51.715941
 21
364.643806
 72
     1
 10
51.715941
 20
364.643806
 11
51.715941
 21
361.874606
 72
     1
 10
51.715941
 20
361.874606
 11
52.449779
 21
361.874606
 97
        0
 75
     0
 76
     1
 98
        1
 10
0.0
 20
0.0
  0
HATCH
  5
286
100
AcDbEntity
  8
M0
 62
     7
100
AcDbHatch
 10
0.0
 20
0.0
210
0.0
220
0.0
230
1.0
  2
SOLID
 70
     1
 71
     0
 91
        1
 92
        1
 93
        8
 72
     1
 10
58.098946
 20
361.874606
 11
58.098946
 21
364.173042
 72
     1
 10
58.098946
 20
364.173042
 11
59.220473
 21
364.173042
 72
     1
 10
59.220473
 20
364.173042
 11
59.220473
 21
364.643806
 72
     1
 10
59.220473
 20
364.643806
 11
56.243583
 21
364.643806
 72
     1
 10
56.243583
 20
364.643806
 11
56.243583
 21
364.173042
 72
     1
 10
56.243583
 20
364.173042
 11
57.365108
 21
364.173042
 72
     1
 10
57.365108
 20
364.173042
 11
57.365108
 21
361.874606
 72
     1
 10
57.365108
 20
361.874606
 11
58.098946
 21
361.874606
 97
        0
 75
     0
 76
     1
 98
        1
 10
0.0
 20
0.0
  0
HATCH
  5
287
100
AcDbEntity
  8
M0
 62
     7
100
AcDbHatch
 10
0.0
 20
0.0
210
0.0
220
0.0
230
1.0
  2
SOLID
 70
     1
 71
     0
 91
        1
 92
        1
 93
        4
 72
     1
 10
69.715741
 20
361.874606
 11
69.715741
 21
364.643806
 72
     1
 10
69.715741
 20
364.643806
 11
68.981902
 21
364.643806
 72
     1
 10
68.981902
 20
364.643806
 11
68.981902
 21
361.874606
 72
     1
 10
68.981902
 20
361.874606
 11
69.715741
 21
361.874606
 97
        0
 75
     0
 76
     1
 98
        1
 10
0.0
 20
0.0
  0
HATCH
  5
288
100
AcDbEntity
  8
M0
 62
     7
100
AcDbHatch
 10
0.0
 20
0.0
210
0.0
220
0.0
230
1.0
  2
SOLID
 70
     1
 71
     0
 91
        1
 92
        1
 93
        4
 72
     1
 10
55.980508
 20
361.874606
 11
55.980508
 21
364.643806
 72
     1
 10
55.980508
 20
364.643806
 11
55.246671
 21
364.643806
 72
     1
 10
55.246671
 20
364.643806
 11
55.246671
 21
361.874606
 72
     1
 10
55.246671
 20
361.874606
 11
55.980508
 21
361.874606
 97
        0
 75
     0
 76
     1
 98
        1
 10
0.0
 20
0.0
  0
LINE
  5
289
100
AcDbEntity
  8
M0
 62
     1
100
AcDbLine
 10
102.215941
 20
384.443805
 11
102.215941
 21
378.143805
  0
LINE
  5
28A
100
AcDbEntity
  8
M0
 62
     1
100
AcDbLine
 10
99.799426
 20
377.543805
 11
97.215941
 21
377.543805
  0
LINE
  5
28B
100
AcDbEntity
  8
M0
 62
     1
100
AcDbLine
 10
99.615941
 20
385.543806
 11
94.815941
 21
385.543806
  0
LINE
  5
28C
100
AcDbEntity
  8
M0
 62
     1
100
AcDbLine
 10
94.632456
 20
377.543805
 11
97.215941
 21
377.543805
  0
LINE
  5
28D
100
AcDbEntity
  8
M0
 62
     1
100
AcDbLine
 10
102.215941
 20
381.643805
 11
97.215941
 21
381.643805
  0
LINE
  5
28E
100
AcDbEntity
  8
M0
 62
     1
100
AcDbLine
 10
94.715941
 20
342.743805
 11
97.215941
 21
342.743805
  0
ARC
  5
28F
100
AcDbEntity
  8
M0
 62
     1
100
AcDbCircle
 10
101.715941
 20
384.443805
 40
0.5
100
AcDbArc
 50
23.578178
 51
90.0
  0
LINE
  5
290
100
AcDbEntity
  8
M0
 62
     1
100
AcDbLine
 10
99.615941
 20
334.743804
 11
94.815941
 21
334.743804
  0
ARC
  5
291
100
AcDbEntity
  8
M0
 62
     1
100
AcDbCircle
 10
94.815941
 20
384.943805
 40
0.6
100
AcDbArc
 50
90.0
 51
180.0
  0
ARC
  5
292
100
AcDbEntity
  8
M0
 62
     1
100
AcDbCircle
 10
92.715941
 20
384.443805
 40
0.5
100
AcDbArc
 50
90.0
 51
156.421822
  0
LINE
  5
293
100
AcDbEntity
  8
M0
 62
     1
100
AcDbLine
 10
92.215941
 20
342.143807
 11
92.215941
 21
335.843805
  0
ARC
  5
294
100
AcDbEntity
  8
M0
 62
     1
100
AcDbCircle
 10
99.615941
 20
384.943805
 40
0.6
100
AcDbArc
 50
0.0
 51
90.0
  0
LINE
  5
295
100
AcDbEntity
  8
M0
 62
     1
100
AcDbLine
 10
102.215941
 20
335.843805
 11
102.215941
 21
342.143807
  0
LINE
  5
296
100
AcDbEntity
  8
M0
 62
     1
100
AcDbLine
 10
102.215941
 20
338.643805
 11
97.215941
 21
338.643805
  0
ARC
  5
297
100
AcDbEntity
  8
M0
 62
     1
100
AcDbCircle
 10
99.615941
 20
335.343805
 40
0.6
100
AcDbArc
 50
270.0
 51
360.0
  0
LINE
  5
298
100
AcDbEntity
  8
M0
  6
DASHDOT
 62
     1
100
AcDbLine
 10
97.215941
 20
388.497003
 11
97.215941
 21
332.404645
  0
ARC
  5
299
100
AcDbEntity
  8
M0
 62
     1
100
AcDbCircle
 10
101.715941
 20
335.843805
 40
0.5
100
AcDbArc
 50
270.0
 51
336.421822
  0
LINE
  5
29A
100
AcDbEntity
  8
M0
 62
     1
100
AcDbLine
 10
99.799426
 20
342.743805
 11
97.215941
 21
342.743805
  0
LINE
  5
29B
100
AcDbEntity
  8
M0
 62
     1
100
AcDbLine
 10
92.215941
 20
381.643805
 11
97.215941
 21
381.643805
  0
ARC
  5
29C
100
AcDbEntity
  8
M0
 62
     1
100
AcDbCircle
 10
92.715941
 20
335.843805
 40
0.5
100
AcDbArc
 50
203.578178
 51
270.0
  0
LINE
  5
29D
100
AcDbEntity
  8
M0
 62
     1
100
AcDbLine
 10
92.215941
 20
378.143805
 11
92.215941
 21
384.443805
  0
LINE
  5
29E
100
AcDbEntity
  8
M0
 62
     1
100
AcDbLine
 10
92.715941
 20
335.343807
 11
101.715941
 21
335.343807
  0
ARC
  5
29F
100
AcDbEntity
  8
M0
 62
     1
100
AcDbCircle
 10
94.815941
 20
335.343805
 40
0.6
100
AcDbArc
 50
180.0
 51
270.0
  0
LINE
  5
2A0
100
AcDbEntity
  8
M0
 62
     1
100
AcDbLine
 10
92.715941
 20
384.943804
 11
101.715941
 21
384.943804
  0
LINE
  5
2A1
100
AcDbEntity
  8
M0
 62
     1
100
AcDbLine
 10
92.215941
 20
338.643805
 11
97.215941
 21
338.643805
  0
ARC
  5
2A2
100
AcDbEntity
  8
M0
100
AcDbCircle
 10
259.079381
 20
337.043807
 40
3.0
100
AcDbArc
 50
0.0
 51
90.0
  0
ARC
  5
2A3
100
AcDbEntity
  8
M0
100
AcDbCircle
 10
246.179381
 20
343.043807
 40
3.0
100
AcDbArc
 50
180.0
 51
270.0
  0
LINE
  5
2A4
100
AcDbEntity
  8
M0
100
AcDbLine
 10
262.079381
 20
335.443806
 11
262.079381
 21
337.043807
  0
LINE
  5
2A5
100
AcDbEntity
  8
M0
100
AcDbLine
 10
291.179382
 20
335.443806
 11
280.279381
 21
335.443806
  0
ARC
  5
2A6
100
AcDbEntity
  8
M0
100
AcDbCircle
 10
291.179381
 20
336.443807
 40
1.0
100
AcDbArc
 50
270.0
 51
360.0
  0
ARC
  5
2A7
100
AcDbEntity
  8
M0
100
AcDbCircle
 10
276.036741
 20
335.443807
 40
3.0
100
AcDbArc
 50
270.0
 51
315.0
  0
LINE
  5
2A8
100
AcDbEntity
  8
M0
100
AcDbLine
 10
275.279381
 20
331.443807
 11
275.279381
 21
332.443808
  0
LINE
  5
2A9
100
AcDbEntity
  8
M0
100
AcDbLine
 10
282.779382
 20
335.443806
 11
278.13758
 21
331.223987
  0
LINE
  5
2AA
100
AcDbEntity
  8
M0
100
AcDbLine
 10
276.119561
 20
330.443807
 11
263.079381
 21
330.443807
  0
LINE
  5
2AB
100
AcDbEntity
  8
M0
100
AcDbLine
 10
276.036741
 20
387.843808
 11
265.079381
 21
387.843808
  0
LINE
  5
2AC
100
AcDbEntity
  8
M0
100
AcDbLine
 10
280.279381
 20
335.443806
 11
278.158061
 21
333.322486
  0
ARC
  5
2AD
100
AcDbEntity
  8
M0
100
AcDbCircle
 10
265.079381
 20
335.443807
 40
3.0
100
AcDbArc
 50
180.0
 51
270.0
  0
LINE
  5
2AE
100
AcDbEntity
  8
M0
100
AcDbLine
 10
292.179381
 20
383.843806
 11
292.179381
 21
336.443806
  0
LINE
  5
2AF
100
AcDbEntity
  8
M0
100
AcDbLine
 10
276.036741
 20
332.443808
 11
265.079381
 21
332.443808
  0
LINE
  5
2B0
100
AcDbEntity
  8
M0
100
AcDbLine
 10
280.279381
 20
384.843806
 11
278.158061
 21
386.965128
  0
LINE
  5
2B1
100
AcDbEntity
  8
M0
100
AcDbLine
 10
291.179382
 20
384.843806
 11
280.279381
 21
384.843806
  0
ARC
  5
2B2
100
AcDbEntity
  8
M0
100
AcDbCircle
 10
276.119561
 20
333.443807
 40
3.0
100
AcDbArc
 50
270.0
 51
312.273689
  0
ARC
  5
2B3
100
AcDbEntity
  8
M0
100
AcDbCircle
 10
265.079381
 20
384.843807
 40
3.0
100
AcDbArc
 50
90.0
 51
180.0
  0
LINE
  5
2B4
100
AcDbEntity
  8
M0
100
AcDbLine
 10
259.079381
 20
340.043806
 11
246.179381
 21
340.043806
  0
LINE
  5
2B5
100
AcDbEntity
  8
M0
100
AcDbLine
 10
275.279381
 20
330.443807
 11
275.279381
 21
331.443807
  0
LINE
  5
2B6
100
AcDbEntity
  8
M0
100
AcDbLine
 10
262.079381
 20
384.843806
 11
262.079381
 21
383.243807
  0
ARC
  5
2B7
100
AcDbEntity
  8
M0
100
AcDbCircle
 10
246.179381
 20
377.243807
 40
3.0
100
AcDbArc
 50
90.0
 51
180.0
  0
ARC
  5
2B8
100
AcDbEntity
  8
M0
100
AcDbCircle
 10
293.679381
 20
379.543807
 40
0.5
100
AcDbArc
 50
0.0
 51
90.0
  0
ARC
  5
2B9
100
AcDbEntity
  8
M0
100
AcDbCircle
 10
259.079381
 20
383.243807
 40
3.0
100
AcDbArc
 50
270.0
 51
360.0
  0
LINE
  5
2BA
100
AcDbEntity
  8
M0
100
AcDbLine
 10
259.079381
 20
380.243806
 11
246.179381
 21
380.243806
  0
ARC
  5
2BB
100
AcDbEntity
  8
M0
100
AcDbCircle
 10
276.036741
 20
384.843807
 40
3.0
100
AcDbArc
 50
45.0
 51
90.0
  0
LINE
  5
2BC
100
AcDbEntity
  8
M0
100
AcDbLine
 10
253.439382
 20
340.043806
 11
252.879381
 21
338.043807
  0
LINE
  5
2BD
100
AcDbEntity
  8
M0
100
AcDbLine
 10
273.339381
 20
387.843808
 11
272.779381
 21
389.843805
  0
LINE
  5
2BE
100
AcDbEntity
  8
M0
100
AcDbLine
 10
276.119561
 20
389.843805
 11
263.079382
 21
389.843805
  0
LINE
  5
2BF
100
AcDbEntity
  8
M0
100
AcDbLine
 10
292.179381
 20
336.943807
 11
292.179381
 21
337.593807
  0
LINE
  5
2C0
100
AcDbEntity
  8
M0
100
AcDbLine
 10
257.079381
 20
338.043807
 11
246.179381
 21
338.043807
  0
LINE
  5
2C1
100
AcDbEntity
  8
M0
100
AcDbLine
 10
260.079381
 20
333.443806
 11
260.079381
 21
335.043807
  0
LINE
  5
2C2
100
AcDbEntity
  8
M0
100
AcDbLine
 10
273.339381
 20
332.443808
 11
273.059381
 21
331.443807
  0
LINE
  5
2C3
100
AcDbEntity
  8
M0
100
AcDbLine
 10
292.179381
 20
380.043807
 11
293.679382
 21
380.043807
  0
LINE
  5
2C4
100
AcDbEntity
  8
M0
100
AcDbLine
 10
292.179381
 20
383.343807
 11
292.179381
 21
382.593807
  0
LINE
  5
2C5
100
AcDbEntity
  8
M0
100
AcDbLine
 10
255.379382
 20
338.043807
 11
255.379382
 21
340.043806
  0
LINE
  5
2C6
100
AcDbEntity
  8
M0
100
AcDbLine
 10
294.179381
 20
379.543806
 11
294.179381
 21
379.243805
  0
ARC
  5
2C7
100
AcDbEntity
  8
M0
100
AcDbCircle
 10
263.079381
 20
386.843807
 40
3.0
100
AcDbArc
 50
90.0
 51
180.0
  0
ARC
  5
2C8
100
AcDbEntity
  8
M0
100
AcDbCircle
 10
257.079381
 20
385.243807
 40
3.0
100
AcDbArc
 50
270.0
 51
360.0
  0
ARC
  5
2C9
100
AcDbEntity
  8
M0
100
AcDbCircle
 10
263.079381
 20
333.443807
 40
3.0
100
AcDbArc
 50
180.0
 51
270.0
  0
ARC
  5
2CA
100
AcDbEntity
  8
M0
100
AcDbCircle
 10
276.119561
 20
386.843807
 40
3.0
100
AcDbArc
 50
47.726311
 51
90.0
  0
LINE
  5
2CB
100
AcDbEntity
  8
M0
100
AcDbLine
 10
282.779382
 20
384.843806
 11
278.13758
 21
389.063629
  0
ARC
  5
2CC
100
AcDbEntity
  8
M0
100
AcDbCircle
 10
291.179381
 20
383.843807
 40
1.0
100
AcDbArc
 50
0.0
 51
90.0
  0
ARC
  5
2CD
100
AcDbEntity
  8
M0
100
AcDbCircle
 10
246.179381
 20
379.243807
 40
3.0
100
AcDbArc
 50
90.0
 51
180.0
  0
LINE
  5
2CE
100
AcDbEntity
  8
M0
100
AcDbLine
 10
243.179382
 20
379.243806
 11
243.179382
 21
341.043807
  0
LINE
  5
2CF
100
AcDbEntity
  8
M0
100
AcDbLine
 10
253.439382
 20
380.243806
 11
252.879381
 21
382.243807
  0
LINE
  5
2D0
100
AcDbEntity
  8
M0
100
AcDbLine
 10
257.079381
 20
382.243807
 11
246.179381
 21
382.243807
  0
LINE
  5
2D1
100
AcDbEntity
  8
M0
100
AcDbLine
 10
260.079381
 20
386.843806
 11
260.079381
 21
385.243807
  0
ARC
  5
2D2
100
AcDbEntity
  8
M0
100
AcDbCircle
 10
246.179381
 20
341.043807
 40
3.0
100
AcDbArc
 50
180.0
 51
270.0
  0
LINE
  5
2D3
100
AcDbEntity
  8
M0
100
AcDbLine
 10
275.279381
 20
389.843805
 11
275.279381
 21
387.843808
  0
LINE
  5
2D4
100
AcDbEntity
  8
M0
100
AcDbLine
 10
255.379382
 20
382.243807
 11
255.379382
 21
380.243806
  0
ARC
  5
2D5
100
AcDbEntity
  8
M0
100
AcDbCircle
 10
257.079381
 20
335.043807
 40
3.0
100
AcDbArc
 50
0.0
 51
90.0
  0
LINE
  5
2D6
100
AcDbEntity
  8
M0
100
AcDbLine
 10
273.059381
 20
331.443807
 11
273.01076
 21
331.270159
  0
LINE
  5
2D7
100
AcDbEntity
  8
M0
100
AcDbLine
 10
273.01076
 20
331.270159
 11
272.963616
 21
331.101787
  0
LINE
  5
2D8
100
AcDbEntity
  8
M0
100
AcDbLine
 10
272.963616
 20
331.101787
 11
272.919381
 21
330.943806
  0
LINE
  5
2D9
100
AcDbEntity
  8
M0
100
AcDbLine
 10
272.919381
 20
330.943806
 11
272.879401
 21
330.80102
  0
LINE
  5
2DA
100
AcDbEntity
  8
M0
100
AcDbLine
 10
272.879401
 20
330.80102
 11
272.844889
 21
330.677763
  0
LINE
  5
2DB
100
AcDbEntity
  8
M0
100
AcDbLine
 10
272.844889
 20
330.677763
 11
272.816894
 21
330.577782
  0
LINE
  5
2DC
100
AcDbEntity
  8
M0
100
AcDbLine
 10
272.816894
 20
330.577782
 11
272.796268
 21
330.504114
  0
LINE
  5
2DD
100
AcDbEntity
  8
M0
100
AcDbLine
 10
272.796268
 20
330.504114
 11
272.783635
 21
330.458999
  0
LINE
  5
2DE
100
AcDbEntity
  8
M0
100
AcDbLine
 10
272.783635
 20
330.458999
 11
272.779381
 21
330.443807
  0
LINE
  5
2DF
100
AcDbEntity
  8
M0
100
AcDbLine
 10
273.059381
 20
388.843807
 11
273.01076
 21
389.017454
  0
HATCH
  5
2E0
100
AcDbEntity
  8
M0
 62
     7
100
AcDbHatch
 10
0.0
 20
0.0
210
0.0
220
0.0
230
1.0
  2
SOLID
 70
     1
 71
     0
 91
        1
 92
        1
 93
        7
 72
     1
 10
80.715941
 20
359.035719
 11
77.715941
 21
357.943808
 72
     1
 10
77.715941
 20
357.943808
 11
80.715941
 21
356.851898
 72
     1
 10
80.715941
 20
356.851898
 11
80.715941
 21
357.443808
 72
     1
 10
80.715941
 20
357.443808
 11
86.715941
 21
357.443808
 72
     1
 10
86.715941
 20
357.443808
 11
86.715941
 21
358.443808
 72
     1
 10
86.715941
 20
358.443808
 11
80.715941
 21
358.443808
 72
     1
 10
80.715941
 20
358.443808
 11
80.715941
 21
359.035719
 97
        0
 75
     0
 76
     1
 98
        1
 10
0.0
 20
0.0
  0
ARC
  5
2E1
100
AcDbEntity
  8
M0
 62
     1
100
AcDbCircle
 10
82.540941
 20
384.368805
 40
0.5
100
AcDbArc
 50
90.0
 51
180.0
  0
ARC
  5
2E2
100
AcDbEntity
  8
M0
 62
     1
100
AcDbCircle
 10
89.190941
 20
384.368805
 40
0.5
100
AcDbArc
 50
0.0
 51
90.0
  0
LINE
  5
2E3
100
AcDbEntity
  8
M0
 62
     1
100
AcDbLine
 10
82.040941
 20
384.368805
 11
82.040941
 21
378.143805
  0
LINE
  5
2E4
100
AcDbEntity
  8
M0
 62
     1
100
AcDbLine
 10
89.690941
 20
378.143805
 11
89.690941
 21
384.368805
  0
LINE
  5
2E5
100
AcDbEntity
  8
M0
 62
     1
100
AcDbLine
 10
89.190941
 20
384.868805
 11
82.540941
 21
384.868805
  0
LINE
  5
2E6
100
AcDbEntity
  8
M0
  6
DASHDOT
 62
     1
100
AcDbLine
 10
85.365941
 20
381.043805
 11
86.365941
 21
381.043805
  0
LINE
  5
2E7
100
AcDbEntity
  8
M0
  6
DASHDOT
 62
     1
100
AcDbLine
 10
85.865941
 20
380.543805
 11
85.865941
 21
381.543805
  0
ARC
  5
2E8
100
AcDbEntity
  8
M0
 62
     1
100
AcDbCircle
 10
62.340941
 20
384.368805
 40
0.5
100
AcDbArc
 50
90.0
 51
180.0
  0
ARC
  5
2E9
100
AcDbEntity
  8
M0
 62
     1
100
AcDbCircle
 10
68.990941
 20
384.368805
 40
0.5
100
AcDbArc
 50
0.0
 51
90.0
  0
LINE
  5
2EA
100
AcDbEntity
  8
M0
 62
     1
100
AcDbLine
 10
61.840941
 20
384.368805
 11
61.840941
 21
378.143805
  0
LINE
  5
2EB
100
AcDbEntity
  8
M0
 62
     1
100
AcDbLine
 10
69.490941
 20
378.143805
 11
69.490941
 21
384.368805
  0
LINE
  5
2EC
100
AcDbEntity
  8
M0
 62
     1
100
AcDbLine
 10
68.990941
 20
384.868805
 11
62.340941
 21
384.868805
  0
LINE
  5
2ED
100
AcDbEntity
  8
M0
  6
DASHDOT
 62
     1
100
AcDbLine
 10
65.165941
 20
381.043805
 11
66.165941
 21
381.043805
  0
LINE
  5
2EE
100
AcDbEntity
  8
M0
  6
DASHDOT
 62
     1
100
AcDbLine
 10
65.665941
 20
380.543805
 11
65.665941
 21
381.543805
  0
ARC
  5
2EF
100
AcDbEntity
  8
M0
 62
     1
100
AcDbCircle
 10
72.440941
 20
384.368805
 40
0.5
100
AcDbArc
 50
90.0
 51
180.0
  0
ARC
  5
2F0
100
AcDbEntity
  8
M0
 62
     1
100
AcDbCircle
 10
79.090941
 20
384.368805
 40
0.5
100
AcDbArc
 50
0.0
 51
90.0
  0
LINE
  5
2F1
100
AcDbEntity
  8
M0
 62
     1
100
AcDbLine
 10
71.940941
 20
384.368805
 11
71.940941
 21
378.143805
  0
LINE
  5
2F2
100
AcDbEntity
  8
M0
 62
     1
100
AcDbLine
 10
79.590941
 20
378.143805
 11
79.590941
 21
384.368805
  0
LINE
  5
2F3
100
AcDbEntity
  8
M0
 62
     1
100
AcDbLine
 10
79.090941
 20
384.868805
 11
72.440941
 21
384.868805
  0
LINE
  5
2F4
100
AcDbEntity
  8
M0
  6
DASHDOT
 62
     1
100
AcDbLine
 10
75.265941
 20
381.043805
 11
76.265941
 21
381.043805
  0
LINE
  5
2F5
100
AcDbEntity
  8
M0
  6
DASHDOT
 62
     1
100
AcDbLine
 10
75.765941
 20
380.543805
 11
75.765941
 21
381.543805
  0
ARC
  5
2F6
100
AcDbEntity
  8
M0
 62
     1
100
AcDbCircle
 10
56.490941
 20
401.968805
 40
0.5
100
AcDbArc
 50
90.0
 51
180.0
  0
ARC
  5
2F7
100
AcDbEntity
  8
M0
 62
     1
100
AcDbCircle
 10
56.490941
 20
395.318805
 40
0.5
100
AcDbArc
 50
180.0
 51
270.0
  0
ARC
  5
2F8
100
AcDbEntity
  8
M0
 62
     1
100
AcDbCircle
 10
63.140941
 20
401.968805
 40
0.5
100
AcDbArc
 50
0.0
 51
90.0
  0
ARC
  5
2F9
100
AcDbEntity
  8
M0
 62
     1
100
AcDbCircle
 10
63.140941
 20
395.318805
 40
0.5
100
AcDbArc
 50
270.0
 51
360.0
  0
CIRCLE
  5
2FA
100
AcDbEntity
  8
M0
 62
     1
100
AcDbCircle
 10
59.815941
 20
398.643805
 40
3.0
  0
LINE
  5
2FB
100
AcDbEntity
  8
M0
 62
     1
100
AcDbLine
 10
55.990941
 20
401.968805
 11
55.990941
 21
395.318805
  0
LINE
  5
2FC
100
AcDbEntity
  8
M0
 62
     1
100
AcDbLine
 10
63.640941
 20
395.318805
 11
63.640941
 21
401.968805
  0
LINE
  5
2FD
100
AcDbEntity
  8
M0
 62
     1
100
AcDbLine
 10
56.490941
 20
394.818805
 11
63.140941
 21
394.818805
  0
LINE
  5
2FE
100
AcDbEntity
  8
M0
 62
     1
100
AcDbLine
 10
63.140941
 20
402.468805
 11
56.490941
 21
402.468805
  0
LINE
  5
2FF
100
AcDbEntity
  8
M0
  6
DASHDOT
 62
     1
100
AcDbLine
 10
59.315941
 20
398.643805
 11
60.315941
 21
398.643805
  0
LINE
  5
300
100
AcDbEntity
  8
M0
  6
DASHDOT
 62
     1
100
AcDbLine
 10
59.815941
 20
398.143805
 11
59.815941
 21
399.143805
  0
ARC
  5
301
100
AcDbEntity
  8
M0
 62
     1
100
AcDbCircle
 10
52.240941
 20
384.368805
 40
0.5
100
AcDbArc
 50
90.0
 51
180.0
  0
ARC
  5
302
100
AcDbEntity
  8
M0
 62
     1
100
AcDbCircle
 10
58.890941
 20
384.368805
 40
0.5
100
AcDbArc
 50
0.0
 51
90.0
  0
LINE
  5
303
100
AcDbEntity
  8
M0
 62
     1
100
AcDbLine
 10
51.740941
 20
384.368805
 11
51.740941
 21
378.143805
  0
LINE
  5
304
100
AcDbEntity
  8
M0
 62
     1
100
AcDbLine
 10
59.390941
 20
378.143805
 11
59.390941
 21
384.368805
  0
LINE
  5
305
100
AcDbEntity
  8
M0
 62
     1
100
AcDbLine
 10
58.890941
 20
384.868805
 11
52.240941
 21
384.868805
  0
LINE
  5
306
100
AcDbEntity
  8
M0
  6
DASHDOT
 62
     1
100
AcDbLine
 10
55.065941
 20
381.043805
 11
56.065941
 21
381.043805
  0
LINE
  5
307
100
AcDbEntity
  8
M0
  6
DASHDOT
 62
     1
100
AcDbLine
 10
55.565941
 20
380.543805
 11
55.565941
 21
381.543805
  0
ARC
  5
308
100
AcDbEntity
  8
M0
 62
     1
100
AcDbCircle
 10
78.290941
 20
401.968805
 40
0.5
100
AcDbArc
 50
90.0
 51
180.0
  0
ARC
  5
309
100
AcDbEntity
  8
M0
 62
     1
100
AcDbCircle
 10
78.290941
 20
395.318805
 40
0.5
100
AcDbArc
 50
180.0
 51
270.0
  0
ARC
  5
30A
100
AcDbEntity
  8
M0
 62
     1
100
AcDbCircle
 10
84.940941
 20
401.968805
 40
0.5
100
AcDbArc
 50
0.0
 51
90.0
  0
ARC
  5
30B
100
AcDbEntity
  8
M0
 62
     1
100
AcDbCircle
 10
84.940941
 20
395.318805
 40
0.5
100
AcDbArc
 50
270.0
 51
360.0
  0
LINE
  5
30C
100
AcDbEntity
  8
M0
 62
     1
100
AcDbLine
 10
77.790941
 20
401.968805
 11
77.790941
 21
395.318805
  0
LINE
  5
30D
100
AcDbEntity
  8
M0
 62
     1
100
AcDbLine
 10
85.440941
 20
395.318805
 11
85.440941
 21
401.968805
  0
LINE
  5
30E
100
AcDbEntity
  8
M0
 62
     1
100
AcDbLine
 10
78.290941
 20
394.818805
 11
84.940941
 21
394.818805
  0
LINE
  5
30F
100
AcDbEntity
  8
M0
 62
     1
100
AcDbLine
 10
84.940941
 20
402.468805
 11
78.290941
 21
402.468805
  0
LINE
  5
310
100
AcDbEntity
  8
M0
  6
DASHDOT
 62
     1
100
AcDbLine
 10
81.115941
 20
398.643805
 11
82.115941
 21
398.643805
  0
LINE
  5
311
100
AcDbEntity
  8
M0
  6
DASHDOT
 62
     1
100
AcDbLine
 10
81.615941
 20
398.143805
 11
81.615941
 21
399.143805
  0
ARC
  5
312
100
AcDbEntity
  8
M0
 62
     1
100
AcDbCircle
 10
82.540941
 20
335.918805
 40
0.5
100
AcDbArc
 50
180.0
 51
270.0
  0
ARC
  5
313
100
AcDbEntity
  8
M0
 62
     1
100
AcDbCircle
 10
89.190941
 20
335.918805
 40
0.5
100
AcDbArc
 50
270.0
 51
360.0
  0
LINE
  5
314
100
AcDbEntity
  8
M0
 62
     1
100
AcDbLine
 10
82.040941
 20
342.143807
 11
82.040941
 21
335.918805
  0
LINE
  5
315
100
AcDbEntity
  8
M0
 62
     1
100
AcDbLine
 10
89.690941
 20
335.918805
 11
89.690941
 21
342.143807
  0
LINE
  5
316
100
AcDbEntity
  8
M0
 62
     1
100
AcDbLine
 10
82.540941
 20
335.418805
 11
89.190941
 21
335.418805
  0
LINE
  5
317
100
AcDbEntity
  8
M0
  6
DASHDOT
 62
     1
100
AcDbLine
 10
85.365941
 20
339.243805
 11
86.365941
 21
339.243805
  0
LINE
  5
318
100
AcDbEntity
  8
M0
  6
DASHDOT
 62
     1
100
AcDbLine
 10
85.865941
 20
338.743805
 11
85.865941
 21
339.743805
  0
ARC
  5
319
100
AcDbEntity
  8
M0
 62
     1
100
AcDbCircle
 10
72.440941
 20
335.918805
 40
0.5
100
AcDbArc
 50
180.0
 51
270.0
  0
ARC
  5
31A
100
AcDbEntity
  8
M0
 62
     1
100
AcDbCircle
 10
79.090941
 20
335.918805
 40
0.5
100
AcDbArc
 50
270.0
 51
360.0
  0
LINE
  5
31B
100
AcDbEntity
  8
M0
 62
     1
100
AcDbLine
 10
71.940941
 20
342.143807
 11
71.940941
 21
335.918805
  0
LINE
  5
31C
100
AcDbEntity
  8
M0
 62
     1
100
AcDbLine
 10
79.590941
 20
335.918805
 11
79.590941
 21
342.143807
  0
LINE
  5
31D
100
AcDbEntity
  8
M0
 62
     1
100
AcDbLine
 10
72.440941
 20
335.418805
 11
79.090941
 21
335.418805
  0
LINE
  5
31E
100
AcDbEntity
  8
M0
  6
DASHDOT
 62
     1
100
AcDbLine
 10
75.265941
 20
339.243805
 11
76.265941
 21
339.243805
  0
LINE
  5
31F
100
AcDbEntity
  8
M0
  6
DASHDOT
 62
     1
100
AcDbLine
 10
75.765941
 20
338.743805
 11
75.765941
 21
339.743805
  0
ARC
  5
320
100
AcDbEntity
  8
M0
 62
     1
100
AcDbCircle
 10
62.340941
 20
335.918805
 40
0.5
100
AcDbArc
 50
180.0
 51
270.0
  0
ARC
  5
321
100
AcDbEntity
  8
M0
 62
     1
100
AcDbCircle
 10
68.990941
 20
335.918805
 40
0.5
100
AcDbArc
 50
270.0
 51
360.0
  0
LINE
  5
322
100
AcDbEntity
  8
M0
 62
     1
100
AcDbLine
 10
61.840941
 20
342.143807
 11
61.840941
 21
335.918805
  0
LINE
  5
323
100
AcDbEntity
  8
M0
 62
     1
100
AcDbLine
 10
69.490941
 20
335.918805
 11
69.490941
 21
342.143807
  0
LINE
  5
324
100
AcDbEntity
  8
M0
 62
     1
100
AcDbLine
 10
62.340941
 20
335.418805
 11
68.990941
 21
335.418805
  0
LINE
  5
325
100
AcDbEntity
  8
M0
  6
DASHDOT
 62
     1
100
AcDbLine
 10
65.165941
 20
339.243805
 11
66.165941
 21
339.243805
  0
LINE
  5
326
100
AcDbEntity
  8
M0
  6
DASHDOT
 62
     1
100
AcDbLine
 10
65.665941
 20
338.743805
 11
65.665941
 21
339.743805
  0
ARC
  5
327
100
AcDbEntity
  8
M0
 62
     1
100
AcDbCircle
 10
52.240941
 20
335.918805
 40
0.5
100
AcDbArc
 50
180.0
 51
270.0
  0
ARC
  5
328
100
AcDbEntity
  8
M0
 62
     1
100
AcDbCircle
 10
58.890941
 20
335.918805
 40
0.5
100
AcDbArc
 50
270.0
 51
360.0
  0
LINE
  5
329
100
AcDbEntity
  8
M0
 62
     1
100
AcDbLine
 10
51.740941
 20
342.143807
 11
51.740941
 21
335.918805
  0
LINE
  5
32A
100
AcDbEntity
  8
M0
 62
     1
100
AcDbLine
 10
59.390941
 20
335.918805
 11
59.390941
 21
342.143807
  0
LINE
  5
32B
100
AcDbEntity
  8
M0
 62
     1
100
AcDbLine
 10
52.240941
 20
335.418805
 11
58.890941
 21
335.418805
  0
LINE
  5
32C
100
AcDbEntity
  8
M0
  6
DASHDOT
 62
     1
100
AcDbLine
 10
55.065941
 20
339.243805
 11
56.065941
 21
339.243805
  0
LINE
  5
32D
100
AcDbEntity
  8
M0
  6
DASHDOT
 62
     1
100
AcDbLine
 10
55.565941
 20
338.743805
 11
55.565941
 21
339.743805
  0
CIRCLE
  5
32E
100
AcDbEntity
  8
M0
 62
     1
100
AcDbCircle
 10
65.665941
 20
327.643805
 40
2.65
  0
CIRCLE
  5
32F
100
AcDbEntity
  8
M0
 62
     1
100
AcDbCircle
 10
70.715941
 20
398.243805
 40
2.65
  0
LINE
  5
330
100
AcDbEntity
  8
M0
 62
     1
100
AcDbLine
 10
71.915941
 20
397.793805
 11
71.915941
 21
398.693805
  0
LINE
  5
331
100
AcDbEntity
  8
M0
 62
     1
100
AcDbLine
 10
64.465941
 20
327.193805
 11
64.465941
 21
328.093805
  0
LINE
  5
332
100
AcDbEntity
  8
M0
 62
     1
100
AcDbLine
 10
69.515941
 20
397.793805
 11
69.515941
 21
398.693805
  0
LINE
  5
333
100
AcDbEntity
  8
M0
 62
     1
100
AcDbLine
 10
66.865941
 20
327.193805
 11
66.865941
 21
328.093805
  0
LINE
  5
334
100
AcDbEntity
  8
M0
 62
     1
100
AcDbLine
 10
83.065941
 20
330.843805
 11
81.965941
 21
330.843805
  0
LINE
  5
335
100
AcDbEntity
  8
M0
 62
     1
100
AcDbLine
 10
83.065941
 20
325.843805
 11
83.065941
 21
330.843805
  0
LINE
  5
336
100
AcDbEntity
  8
M0
 62
     1
100
AcDbLine
 10
92.215941
 20
391.843805
 11
92.215941
 21
378.143805
  0
LINE
  5
337
100
AcDbEntity
  8
M0
 62
     1
100
AcDbLine
 10
49.215941
 20
328.843805
 11
49.215941
 21
342.143807
  0
LINE
  5
338
100
AcDbEntity
  8
M0
 62
     1
100
AcDbLine
 10
88.465941
 20
334.443805
 11
88.465941
 21
334.043805
  0
LINE
  5
339
100
AcDbEntity
  8
M0
 62
     1
100
AcDbLine
 10
75.415941
 20
325.343805
 11
87.215941
 21
325.343805
  0
LINE
  5
33A
100
AcDbEntity
  8
M0
 62
     1
100
AcDbLine
 10
59.512002
 20
325.343805
 11
52.715941
 21
325.343805
  0
LINE
  5
33B
100
AcDbEntity
  8
M0
 62
     1
100
AcDbLine
 10
59.465941
 20
329.643805
 11
56.465941
 21
329.643805
  0
LINE
  5
33C
100
AcDbEntity
  8
M0
 62
     1
100
AcDbLine
 10
79.565941
 20
329.143805
 11
79.565941
 21
325.843805
  0
LINE
  5
33D
100
AcDbEntity
  8
M0
 62
     1
100
AcDbLine
 10
74.915941
 20
329.143805
 11
74.915941
 21
325.843805
  0
LINE
  5
33E
100
AcDbEntity
  8
M0
 62
     1
100
AcDbLine
 10
77.915941
 20
327.343805
 11
77.915941
 21
329.143805
  0
LINE
  5
33F
100
AcDbEntity
  8
M0
 62
     1
100
AcDbLine
 10
77.915941
 20
327.343805
 11
76.415941
 21
327.343805
  0
LINE
  5
340
100
AcDbEntity
  8
M0
 62
     1
100
AcDbLine
 10
83.965941
 20
334.043805
 11
83.965941
 21
334.443805
  0
LINE
  5
341
100
AcDbEntity
  8
M0
 62
     1
100
AcDbLine
 10
56.465941
 20
329.643805
 11
56.465941
 21
325.843805
  0
LINE
  5
342
100
AcDbEntity
  8
M0
 62
     1
100
AcDbLine
 10
50.965941
 20
389.043805
 11
50.965941
 21
388.897744
  0
ARC
  5
343
100
AcDbEntity
  8
M0
 62
     1
100
AcDbCircle
 10
88.215941
 20
391.843805
 40
4.0
100
AcDbArc
 50
0.0
 51
97.180756
  0
ARC
  5
344
100
AcDbEntity
  8
M0
 62
     1
100
AcDbCircle
 10
88.215941
 20
391.843805
 40
2.25
100
AcDbArc
 50
257.160412
 51
462.839588
  0
ARC
  5
345
100
AcDbEntity
  8
M0
 62
     1
100
AcDbCircle
 10
75.415941
 20
325.843805
 40
0.5
100
AcDbArc
 50
180.0
 51
270.0
  0
ARC
  5
346
100
AcDbEntity
  8
M0
 62
     1
100
AcDbCircle
 10
79.065941
 20
325.843805
 40
0.5
100
AcDbArc
 50
270.0
 51
360.0
  0
LINE
  5
347
100
AcDbEntity
  8
M0
 62
     1
100
AcDbLine
 10
76.415941
 20
329.143805
 11
76.415941
 21
327.343805
  0
LINE
  5
348
100
AcDbEntity
  8
M0
 62
     1
100
AcDbLine
 10
55.515941
 20
403.043805
 11
63.815941
 21
403.043805
  0
LINE
  5
349
100
AcDbEntity
  8
M0
 62
     1
100
AcDbLine
 10
85.115941
 20
403.043805
 11
85.915941
 21
403.043805
  0
LINE
  5
34A
100
AcDbEntity
  8
M0
 62
     1
100
AcDbLine
 10
53.715941
 20
391.043805
 11
53.715941
 21
390.943805
  0
CIRCLE
  5
34B
100
AcDbEntity
  8
M0
 62
     1
100
AcDbCircle
 10
65.665941
 20
327.643805
 40
2.85
  0
LINE
  5
34C
100
AcDbEntity
  8
M0
 62
     1
100
AcDbLine
 10
53.715941
 20
394.643805
 11
53.715941
 21
394.543805
  0
LINE
  5
34D
100
AcDbEntity
  8
M0
 62
     1
100
AcDbLine
 10
87.715941
 20
390.943805
 11
87.715941
 21
391.043805
  0
LINE
  5
34E
100
AcDbEntity
  8
M0
 62
     1
100
AcDbLine
 10
87.715941
 20
394.543805
 11
87.715941
 21
394.643805
  0
LINE
  5
34F
100
AcDbEntity
  8
M0
 62
     1
100
AcDbLine
 10
85.915941
 20
403.943805
 11
85.915941
 21
394.543805
  0
LINE
  5
350
100
AcDbEntity
  8
M0
 62
     1
100
AcDbLine
 10
55.515941
 20
394.543805
 11
55.515941
 21
394.643805
  0
LINE
  5
351
100
AcDbEntity
  8
M0
 62
     1
100
AcDbLine
 10
66.115941
 20
328.093805
 11
66.115941
 21
328.843805
  0
ARC
  5
352
100
AcDbEntity
  8
M0
 62
     1
100
AcDbCircle
 10
54.915941
 20
403.943805
 40
0.6
100
AcDbArc
 50
0.0
 51
90.0
  0
LINE
  5
353
100
AcDbEntity
  8
M0
 62
     1
100
AcDbLine
 10
64.465941
 20
328.093805
 11
65.215941
 21
328.093805
  0
LINE
  5
354
100
AcDbEntity
  8
M0
 62
     1
100
AcDbLine
 10
65.215941
 20
328.843805
 11
65.215941
 21
328.093805
  0
LINE
  5
355
100
AcDbEntity
  8
M0
 62
     1
100
AcDbLine
 10
66.115941
 20
328.093805
 11
66.865941
 21
328.093805
  0
ARC
  5
356
100
AcDbEntity
  8
M0
 62
     1
100
AcDbCircle
 10
86.515941
 20
403.943805
 40
0.6
100
AcDbArc
 50
90.0
 51
180.0
  0
LINE
  5
357
100
AcDbEntity
  8
M0
 62
     1
100
AcDbLine
 10
66.115941
 20
328.843805
 11
65.215941
 21
328.843805
  0
ARC
  5
358
100
AcDbEntity
  8
M0
 62
     1
100
AcDbCircle
 10
54.315941
 20
403.943805
 40
0.6
100
AcDbArc
 50
90.0
 51
180.0
  0
ARC
  5
359
100
AcDbEntity
  8
M0
 62
     1
100
AcDbCircle
 10
75.715941
 20
326.643805
 40
2.0
100
AcDbArc
 50
270.0
 51
319.458398
  0
ARC
  5
35A
100
AcDbEntity
  8
M0
 62
     1
100
AcDbCircle
 10
87.115941
 20
403.943805
 40
0.6
100
AcDbArc
 50
0.0
 51
90.0
  0
LINE
  5
35B
100
AcDbEntity
  8
M0
 62
     1
100
AcDbLine
 10
66.115941
 20
326.443805
 11
66.115941
 21
327.193805
  0
LINE
  5
35C
100
AcDbEntity
  8
M0
 62
     1
100
AcDbLine
 10
65.215941
 20
327.193805
 11
64.465941
 21
327.193805
  0
LINE
  5
35D
100
AcDbEntity
  8
M0
 62
     1
100
AcDbLine
 10
65.215941
 20
326.443805
 11
66.115941
 21
326.443805
  0
LINE
  5
35E
100
AcDbEntity
  8
M0
 62
     1
100
AcDbLine
 10
65.215941
 20
327.193805
 11
65.215941
 21
326.443805
  0
ARC
  5
35F
100
AcDbEntity
  8
M0
 62
     1
100
AcDbCircle
 10
88.215941
 20
337.043805
 40
2.25
100
AcDbArc
 50
286.791447
 51
313.542219
  0
ARC
  5
360
100
AcDbEntity
  8
M0
 62
     1
100
AcDbCircle
 10
53.215941
 20
331.843805
 40
2.25
100
AcDbArc
 50
191.257189
 51
493.542219
  0
ARC
  5
361
100
AcDbEntity
  8
M0
 62
     1
100
AcDbCircle
 10
86.215941
 20
334.043805
 40
2.25
100
AcDbArc
 50
180.0
 51
360.0
  0
ARC
  5
362
100
AcDbEntity
  8
M0
 62
     1
100
AcDbCircle
 10
53.215941
 20
389.043805
 40
2.25
100
AcDbArc
 50
77.160412
 51
180.0
  0
ARC
  5
363
100
AcDbEntity
  8
M0
 62
     1
100
AcDbCircle
 10
54.215941
 20
389.043805
 40
5.0
100
AcDbArc
 50
95.73917
 51
180.0
  0
ARC
  5
364
100
AcDbEntity
  8
M0
 62
     1
100
AcDbCircle
 10
83.565941
 20
325.843805
 40
0.5
100
AcDbArc
 50
180.0
 51
270.0
  0
LINE
  5
365
100
AcDbEntity
  8
M0
 62
     1
100
AcDbLine
 10
66.865941
 20
327.193805
 11
66.115941
 21
327.193805
  0
ARC
  5
366
100
AcDbEntity
  8
M0
 62
     1
100
AcDbCircle
 10
55.965941
 20
325.843805
 40
0.5
100
AcDbArc
 50
270.0
 51
360.0
  0
ARC
  5
367
100
AcDbEntity
  8
M0
 62
     1
100
AcDbCircle
 10
87.215941
 20
330.343805
 40
5.0
100
AcDbArc
 50
270.0
 51
360.0
  0
ARC
  5
368
100
AcDbEntity
  8
M0
 62
     1
100
AcDbCircle
 10
52.715941
 20
328.843805
 40
3.5
100
AcDbArc
 50
180.0
 51
270.0
  0
LINE
  5
369
100
AcDbEntity
  8
M0
 62
     1
100
AcDbLine
 10
87.715941
 20
401.543805
 11
87.715941
 21
403.943805
  0
LINE
  5
36A
100
AcDbEntity
  8
M0
 62
     1
100
AcDbLine
 10
86.515941
 20
404.543805
 11
87.115941
 21
404.543805
  0
LINE
  5
36B
100
AcDbEntity
  8
M0
 62
     1
100
AcDbLine
 10
54.315941
 20
404.543805
 11
54.915941
 21
404.543805
  0
LINE
  5
36C
100
AcDbEntity
  8
M0
 62
     1
100
AcDbLine
 10
75.715941
 20
324.643805
 11
60.765941
 21
324.643805
  0
LINE
  5
36D
100
AcDbEntity
  8
M0
 62
     1
100
AcDbLine
 10
87.715941
 20
401.543805
 11
87.715941
 21
394.643805
  0
LINE
  5
36E
100
AcDbEntity
  8
M0
 62
     1
100
AcDbLine
 10
71.865941
 20
326.643805
 11
74.915941
 21
326.643805
  0
LINE
  5
36F
100
AcDbEntity
  8
M0
 62
     1
100
AcDbLine
 10
55.515941
 20
394.543805
 11
55.515941
 21
403.943805
  0
LINE
  5
370
100
AcDbEntity
  8
M0
 62
     1
100
AcDbLine
 10
77.715941
 20
329.143805
 11
77.715941
 21
327.343805
  0
LINE
  5
371
100
AcDbEntity
  8
M0
 62
     1
100
AcDbLine
 10
54.515941
 20
363.793805
 11
54.515941
 21
362.543805
  0
LINE
  5
372
100
AcDbEntity
  8
M0
 62
     1
100
AcDbLine
 10
54.715941
 20
362.543805
 11
54.515941
 21
362.543805
  0
LINE
  5
373
100
AcDbEntity
  8
M0
 62
     1
100
AcDbLine
 10
50.665941
 20
331.343805
 11
50.215941
 21
331.343805
  0
ARC
  5
374
100
AcDbEntity
  8
M0
 62
     1
100
AcDbCircle
 10
80.965941
 20
328.943805
 40
1.0
100
AcDbArc
 50
270.0
 51
360.0
  0
ARC
  5
375
100
AcDbEntity
  8
M0
 62
     1
100
AcDbCircle
 10
60.765941
 20
328.943805
 40
1.0
100
AcDbArc
 50
270.0
 51
360.0
  0
ARC
  5
376
100
AcDbEntity
  8
M0
 62
     1
100
AcDbCircle
 10
70.865941
 20
328.943805
 40
1.0
100
AcDbArc
 50
270.0
 51
360.0
  0
ARC
  5
377
100
AcDbEntity
  8
M0
 62
     1
100
AcDbCircle
 10
60.465941
 20
328.943805
 40
1.0
100
AcDbArc
 50
180.0
 51
270.0
  0
LINE
  5
378
100
AcDbEntity
  8
M0
 62
     1
100
AcDbLine
 10
89.765941
 20
332.343805
 11
89.765941
 21
342.143807
  0
LINE
  5
379
100
AcDbEntity
  8
M0
 62
     1
100
AcDbLine
 10
91.215941
 20
331.343805
 11
90.765941
 21
331.343805
  0
LINE
  5
37A
100
AcDbEntity
  8
M0
 62
     1
100
AcDbLine
 10
59.465941
 20
388.343805
 11
59.465941
 21
391.343805
  0
LINE
  5
37B
100
AcDbEntity
  8
M0
 62
     1
100
AcDbLine
 10
70.665941
 20
327.943805
 11
70.565941
 21
327.943805
  0
LINE
  5
37C
100
AcDbEntity
  8
M0
 62
     1
100
AcDbLine
 10
70.765941
 20
327.943805
 11
70.665941
 21
327.943805
  0
LINE
  5
37D
100
AcDbEntity
  8
M0
 62
     1
100
AcDbLine
 10
80.765941
 20
327.943805
 11
80.665941
 21
327.943805
  0
LINE
  5
37E
100
AcDbEntity
  8
M0
 62
     1
100
AcDbLine
 10
70.865941
 20
327.943805
 11
70.765941
 21
327.943805
  0
LINE
  5
37F
100
AcDbEntity
  8
M0
 62
     1
100
AcDbLine
 10
80.965941
 20
327.943805
 11
80.765941
 21
327.943805
  0
LINE
  5
380
100
AcDbEntity
  8
M0
 62
     1
100
AcDbLine
 10
71.865941
 20
378.143805
 11
71.865941
 21
391.343805
  0
LINE
  5
381
100
AcDbEntity
  8
M0
 62
     1
100
AcDbLine
 10
81.965941
 20
378.143805
 11
81.965941
 21
391.343805
  0
LINE
  5
382
100
AcDbEntity
  8
M0
 62
     1
100
AcDbLine
 10
70.565941
 20
341.943805
 11
70.865941
 21
341.943805
  0
LINE
  5
383
100
AcDbEntity
  8
M0
 62
     1
100
AcDbLine
 10
79.665941
 20
328.943805
 11
79.665941
 21
342.143807
  0
LINE
  5
384
100
AcDbEntity
  8
M0
 62
     1
100
AcDbLine
 10
60.665941
 20
327.943805
 11
60.465941
 21
327.943805
  0
LINE
  5
385
100
AcDbEntity
  8
M0
 62
     1
100
AcDbLine
 10
60.765941
 20
327.943805
 11
60.665941
 21
327.943805
  0
LINE
  5
386
100
AcDbEntity
  8
M0
 62
     1
100
AcDbLine
 10
81.965941
 20
342.143807
 11
81.965941
 21
328.943805
  0
ARC
  5
387
100
AcDbEntity
  8
M0
 62
     1
100
AcDbCircle
 10
70.865941
 20
340.943805
 40
1.0
100
AcDbArc
 50
0.0
 51
90.0
  0
ARC
  5
388
100
AcDbEntity
  8
M0
 62
     1
100
AcDbCircle
 10
60.765941
 20
340.943805
 40
1.0
100
AcDbArc
 50
0.0
 51
90.0
  0
ARC
  5
389
100
AcDbEntity
  8
M0
 62
     1
100
AcDbCircle
 10
60.465941
 20
379.343805
 40
1.0
100
AcDbArc
 50
180.0
 51
270.0
  0
ARC
  5
38A
100
AcDbEntity
  8
M0
 62
     1
100
AcDbCircle
 10
70.865941
 20
379.343805
 40
1.0
100
AcDbArc
 50
270.0
 51
360.0
  0
ARC
  5
38B
100
AcDbEntity
  8
M0
 62
     1
100
AcDbCircle
 10
70.565941
 20
379.343805
 40
1.0
100
AcDbArc
 50
180.0
 51
270.0
  0
ARC
  5
38C
100
AcDbEntity
  8
M0
 62
     1
100
AcDbCircle
 10
80.665941
 20
379.343805
 40
1.0
100
AcDbArc
 50
180.0
 51
270.0
  0
ARC
  5
38D
100
AcDbEntity
  8
M0
 62
     1
100
AcDbCircle
 10
70.565941
 20
328.943805
 40
1.0
100
AcDbArc
 50
180.0
 51
270.0
  0
ARC
  5
38E
100
AcDbEntity
  8
M0
 62
     1
100
AcDbCircle
 10
80.665941
 20
328.943805
 40
1.0
100
AcDbArc
 50
180.0
 51
270.0
  0
ARC
  5
38F
100
AcDbEntity
  8
M0
 62
     1
100
AcDbCircle
 10
80.665941
 20
340.943805
 40
1.0
100
AcDbArc
 50
90.0
 51
180.0
  0
ARC
  5
390
100
AcDbEntity
  8
M0
 62
     1
100
AcDbCircle
 10
80.965941
 20
340.943805
 40
1.0
100
AcDbArc
 50
0.0
 51
90.0
  0
ARC
  5
391
100
AcDbEntity
  8
M0
 62
     1
100
AcDbCircle
 10
60.465941
 20
340.943805
 40
1.0
100
AcDbArc
 50
90.0
 51
180.0
  0
LINE
  5
392
100
AcDbEntity
  8
M0
 62
     1
100
AcDbLine
 10
59.465941
 20
378.143805
 11
59.465941
 21
379.343805
  0
LINE
  5
393
100
AcDbEntity
  8
M0
 62
     1
100
AcDbLine
 10
61.765941
 20
379.343805
 11
61.765941
 21
378.143805
  0
LINE
  5
394
100
AcDbEntity
  8
M0
 62
     1
100
AcDbLine
 10
79.665941
 20
391.343805
 11
79.665941
 21
378.143805
  0
ARC
  5
395
100
AcDbEntity
  8
M0
 62
     1
100
AcDbCircle
 10
80.965941
 20
379.343805
 40
1.0
100
AcDbArc
 50
270.0
 51
360.0
  0
ARC
  5
396
100
AcDbEntity
  8
M0
 62
     1
100
AcDbCircle
 10
70.565941
 20
340.943805
 40
1.0
100
AcDbArc
 50
90.0
 51
180.0
  0
ARC
  5
397
100
AcDbEntity
  8
M0
 62
     1
100
AcDbCircle
 10
60.765941
 20
379.343805
 40
1.0
100
AcDbArc
 50
270.0
 51
360.0
  0
LINE
  5
398
100
AcDbEntity
  8
M0
 62
     1
100
AcDbLine
 10
90.265941
 20
355.443805
 11
90.265941
 21
355.445056
  0
LINE
  5
399
100
AcDbEntity
  8
M0
 62
     1
100
AcDbLine
 10
90.265941
 20
364.842554
 11
90.265941
 21
364.843805
  0
LINE
  5
39A
100
AcDbEntity
  8
M0
 62
     1
100
AcDbLine
 10
51.165941
 20
364.843805
 11
51.165941
 21
364.842554
  0
ARC
  5
39B
100
AcDbEntity
  8
M0
 62
     1
100
AcDbCircle
 10
91.215941
 20
387.943805
 40
1.0
100
AcDbArc
 50
0.0
 51
90.0
  0
ARC
  5
39C
100
AcDbEntity
  8
M0
 62
     1
100
AcDbCircle
 10
50.665941
 20
387.943805
 40
1.0
100
AcDbArc
 50
0.0
 51
90.0
  0
ARC
  5
39D
100
AcDbEntity
  8
M0
 62
     1
100
AcDbCircle
 10
90.765941
 20
387.943805
 40
1.0
100
AcDbArc
 50
90.0
 51
180.0
  0
LINE
  5
39E
100
AcDbEntity
  8
M0
 62
     1
100
AcDbLine
 10
52.565941
 20
385.843805
 11
58.565941
 21
385.843805
  0
LINE
  5
39F
100
AcDbEntity
  8
M0
 62
     1
100
AcDbLine
 10
51.665941
 20
342.143807
 11
51.665941
 21
336.343805
  0
ARC
  5
3A0
100
AcDbEntity
  8
M0
 62
     1
100
AcDbCircle
 10
50.215941
 20
387.943805
 40
1.0
100
AcDbArc
 50
90.0
 51
180.0
  0
LINE
  5
3A1
100
AcDbEntity
  8
M0
 62
     1
100
AcDbLine
 10
51.665941
 20
336.343805
 11
51.665941
 21
332.343805
  0
ARC
  5
3A2
100
AcDbEntity
  8
M0
 62
     1
100
AcDbCircle
 10
50.215941
 20
332.343805
 40
1.0
100
AcDbArc
 50
180.0
 51
270.0
  0
ARC
  5
3A3
100
AcDbEntity
  8
M0
 62
     1
100
AcDbCircle
 10
90.765941
 20
332.343805
 40
1.0
100
AcDbArc
 50
180.0
 51
270.0
  0
ARC
  5
3A4
100
AcDbEntity
  8
M0
 62
     1
100
AcDbCircle
 10
80.965941
 20
391.343805
 40
1.0
100
AcDbArc
 50
0.0
 51
90.0
  0
ARC
  5
3A5
100
AcDbEntity
  8
M0
 62
     1
100
AcDbCircle
 10
70.865941
 20
391.343805
 40
1.0
100
AcDbArc
 50
0.0
 51
90.0
  0
ARC
  5
3A6
100
AcDbEntity
  8
M0
 62
     1
100
AcDbCircle
 10
80.665941
 20
391.343805
 40
1.0
100
AcDbArc
 50
90.0
 51
180.0
  0
ARC
  5
3A7
100
AcDbEntity
  8
M0
 62
     1
100
AcDbCircle
 10
60.465941
 20
391.343805
 40
1.0
100
AcDbArc
 50
90.0
 51
180.0
  0
LINE
  5
3A8
100
AcDbEntity
  8
M0
 62
     1
100
AcDbLine
 10
80.765941
 20
392.343805
 11
80.965941
 21
392.343805
  0
LINE
  5
3A9
100
AcDbEntity
  8
M0
 62
     1
100
AcDbLine
 10
80.665941
 20
392.343805
 11
80.765941
 21
392.343805
  0
ARC
  5
3AA
100
AcDbEntity
  8
M0
 62
     1
100
AcDbCircle
 10
91.215941
 20
332.343805
 40
1.0
100
AcDbArc
 50
270.0
 51
360.0
  0
ARC
  5
3AB
100
AcDbEntity
  8
M0
 62
     1
100
AcDbCircle
 10
50.665941
 20
332.343805
 40
1.0
100
AcDbArc
 50
270.0
 51
360.0
  0
LINE
  5
3AC
100
AcDbEntity
  8
M0
 62
     1
100
AcDbLine
 10
69.565941
 20
378.143805
 11
69.565941
 21
391.343805
  0
LINE
  5
3AD
100
AcDbEntity
  8
M0
 62
     1
100
AcDbLine
 10
60.465941
 20
392.343805
 11
60.665941
 21
392.343805
  0
LINE
  5
3AE
100
AcDbEntity
  8
M0
 62
     1
100
AcDbLine
 10
61.765941
 20
391.343805
 11
61.765941
 21
388.343805
  0
LINE
  5
3AF
100
AcDbEntity
  8
M0
 62
     1
100
AcDbLine
 10
90.765941
 20
388.943805
 11
91.215941
 21
388.943805
  0
LINE
  5
3B0
100
AcDbEntity
  8
M0
 62
     1
100
AcDbLine
 10
51.665941
 20
387.943805
 11
51.665941
 21
383.943805
  0
ARC
  5
3B1
100
AcDbEntity
  8
M0
 62
     1
100
AcDbCircle
 10
70.565941
 20
391.343805
 40
1.0
100
AcDbArc
 50
90.0
 51
180.0
  0
ARC
  5
3B2
100
AcDbEntity
  8
M0
 62
     1
100
AcDbCircle
 10
60.765941
 20
391.343805
 40
1.0
100
AcDbArc
 50
0.0
 51
90.0
  0
LINE
  5
3B3
100
AcDbEntity
  8
M0
 62
     1
100
AcDbLine
 10
51.665941
 20
383.943805
 11
51.665941
 21
378.143805
  0
LINE
  5
3B4
100
AcDbEntity
  8
M0
 62
     1
100
AcDbLine
 10
50.215941
 20
388.943805
 11
50.665941
 21
388.943805
  0
LINE
  5
3B5
100
AcDbEntity
  8
M0
 62
     1
100
AcDbLine
 10
65.415941
 20
394.960472
 11
65.415941
 21
402.043805
  0
LINE
  5
3B6
100
AcDbEntity
  8
M0
 62
     1
100
AcDbLine
 10
76.015941
 20
402.043805
 11
76.015941
 21
394.960472
  0
LINE
  5
3B7
100
AcDbEntity
  8
M0
 62
     1
100
AcDbLine
 10
59.465941
 20
390.943805
 11
53.715941
 21
390.943805
  0
LINE
  5
3B8
100
AcDbEntity
  8
M0
 62
     1
100
AcDbLine
 10
66.415941
 20
403.043805
 11
75.015941
 21
403.043805
  0
LINE
  5
3B9
100
AcDbEntity
  8
M0
 62
     1
100
AcDbLine
 10
53.715941
 20
403.943805
 11
53.715941
 21
385.843805
  0
LINE
  5
3BA
100
AcDbEntity
  8
M0
 62
     1
100
AcDbLine
 10
66.415941
 20
394.543805
 11
75.015941
 21
394.543805
  0
LINE
  5
3BB
100
AcDbEntity
  8
M0
 62
     1
100
AcDbLine
 10
65.415941
 20
393.043805
 11
65.415941
 21
394.960472
  0
LINE
  5
3BC
100
AcDbEntity
  8
M0
 62
     1
100
AcDbLine
 10
65.415941
 20
393.043805
 11
76.015941
 21
393.043805
  0
LINE
  5
3BD
100
AcDbEntity
  8
M0
 62
     1
100
AcDbLine
 10
67.565941
 20
331.143805
 11
63.765941
 21
331.143805
  0
LINE
  5
3BE
100
AcDbEntity
  8
M0
 62
     1
100
AcDbLine
 10
79.665941
 20
329.143805
 11
71.865941
 21
329.143805
  0
LINE
  5
3BF
100
AcDbEntity
  8
M0
 62
     1
100
AcDbLine
 10
71.865941
 20
390.943805
 11
79.665941
 21
390.943805
  0
LINE
  5
3C0
100
AcDbEntity
  8
M0
 62
     1
100
AcDbLine
 10
87.715941
 20
390.943805
 11
81.965941
 21
390.943805
  0
LINE
  5
3C1
100
AcDbEntity
  8
M0
 62
     1
100
AcDbLine
 10
87.715941
 20
385.843805
 11
87.715941
 21
390.943805
  0
LINE
  5
3C2
100
AcDbEntity
  8
M0
 62
     1
100
AcDbLine
 10
65.415941
 20
393.043805
 11
65.415941
 21
390.943805
  0
LINE
  5
3C3
100
AcDbEntity
  8
M0
 62
     1
100
AcDbLine
 10
76.015941
 20
390.943805
 11
76.015941
 21
393.043805
  0
LINE
  5
3C4
100
AcDbEntity
  8
M0
 62
     1
100
AcDbLine
 10
76.015941
 20
393.043805
 11
76.015941
 21
394.960472
  0
ARC
  5
3C5
100
AcDbEntity
  8
M0
 62
     1
100
AcDbCircle
 10
67.565941
 20
329.143805
 40
2.0
100
AcDbArc
 50
0.0
 51
90.0
  0
ARC
  5
3C6
100
AcDbEntity
  8
M0
 62
     1
100
AcDbCircle
 10
63.765941
 20
329.143805
 40
2.0
100
AcDbArc
 50
90.0
 51
180.0
  0
ARC
  5
3C7
100
AcDbEntity
  8
M0
 62
     1
100
AcDbCircle
 10
60.765941
 20
325.643805
 40
1.0
100
AcDbArc
 50
270.0
 51
360.0
  0
ARC
  5
3C8
100
AcDbEntity
  8
M0
 62
     1
100
AcDbCircle
 10
70.865941
 20
325.643805
 40
1.0
100
AcDbArc
 50
270.0
 51
360.0
  0
ARC
  5
3C9
100
AcDbEntity
  8
M0
 62
     1
100
AcDbCircle
 10
60.465941
 20
325.643805
 40
1.0
100
AcDbArc
 50
180.0
 51
270.0
  0
ARC
  5
3CA
100
AcDbEntity
  8
M0
 62
     1
100
AcDbCircle
 10
70.565941
 20
325.643805
 40
1.0
100
AcDbArc
 50
180.0
 51
270.0
  0
ARC
  5
3CB
100
AcDbEntity
  8
M0
 62
     1
100
AcDbCircle
 10
75.015941
 20
402.043805
 40
1.0
100
AcDbArc
 50
0.0
 51
90.0
  0
ARC
  5
3CC
100
AcDbEntity
  8
M0
 62
     1
100
AcDbCircle
 10
66.415941
 20
402.043805
 40
1.0
100
AcDbArc
 50
90.0
 51
180.0
  0
LINE
  5
3CD
100
AcDbEntity
  8
M0
 62
     1
100
AcDbLine
 10
59.465941
 20
335.443805
 11
58.565941
 21
335.443805
  0
LINE
  5
3CE
100
AcDbEntity
  8
M0
 62
     1
100
AcDbLine
 10
69.565941
 20
325.643805
 11
69.565941
 21
342.143807
  0
LINE
  5
3CF
100
AcDbEntity
  8
M0
 62
     1
100
AcDbLine
 10
89.765941
 20
335.443805
 11
88.865941
 21
335.443805
  0
LINE
  5
3D0
100
AcDbEntity
  8
M0
 62
     1
100
AcDbLine
 10
52.565941
 20
335.443805
 11
51.665941
 21
335.443805
  0
LINE
  5
3D1
100
AcDbEntity
  8
M0
 62
     1
100
AcDbLine
 10
72.765941
 20
335.443805
 11
71.865941
 21
335.443805
  0
LINE
  5
3D2
100
AcDbEntity
  8
M0
 62
     1
100
AcDbLine
 10
70.565941
 20
324.643805
 11
70.865941
 21
324.643805
  0
LINE
  5
3D3
100
AcDbEntity
  8
M0
 62
     1
100
AcDbLine
 10
61.765941
 20
390.943805
 11
69.565941
 21
390.943805
  0
LINE
  5
3D4
100
AcDbEntity
  8
M0
 62
     1
100
AcDbLine
 10
60.465941
 20
324.643805
 11
60.765941
 21
324.643805
  0
LINE
  5
3D5
100
AcDbEntity
  8
M0
 62
     1
100
AcDbLine
 10
59.465941
 20
325.643805
 11
59.465941
 21
342.143807
  0
LINE
  5
3D6
100
AcDbEntity
  8
M0
 62
     1
100
AcDbLine
 10
61.765941
 20
342.143807
 11
61.765941
 21
325.643805
  0
LINE
  5
3D7
100
AcDbEntity
  8
M0
 62
     1
100
AcDbLine
 10
71.865941
 20
342.143807
 11
71.865941
 21
325.643805
  0
LINE
  5
3D8
100
AcDbEntity
  8
M0
 62
     1
100
AcDbLine
 10
80.865941
 20
327.943805
 11
80.965941
 21
327.943805
  0
LINE
  5
3D9
100
AcDbEntity
  8
M0
 62
     1
100
AcDbLine
 10
68.665941
 20
384.843805
 11
69.565941
 21
384.843805
  0
LINE
  5
3DA
100
AcDbEntity
  8
M0
 62
     1
100
AcDbLine
 10
78.765941
 20
384.843805
 11
79.665941
 21
384.843805
  0
LINE
  5
3DB
100
AcDbEntity
  8
M0
 62
     1
100
AcDbLine
 10
71.865941
 20
384.843805
 11
72.765941
 21
384.843805
  0
LINE
  5
3DC
100
AcDbEntity
  8
M0
 62
     1
100
AcDbLine
 10
62.665941
 20
335.443805
 11
61.765941
 21
335.443805
  0
LINE
  5
3DD
100
AcDbEntity
  8
M0
 62
     1
100
AcDbLine
 10
82.865941
 20
335.443805
 11
81.965941
 21
335.443805
  0
LINE
  5
3DE
100
AcDbEntity
  8
M0
 62
     1
100
AcDbLine
 10
69.565941
 20
335.443805
 11
68.665941
 21
335.443805
  0
LINE
  5
3DF
100
AcDbEntity
  8
M0
 62
     1
100
AcDbLine
 10
79.665941
 20
335.443805
 11
78.765941
 21
335.443805
  0
LINE
  5
3E0
100
AcDbEntity
  8
M0
 62
     1
100
AcDbLine
 10
80.965941
 20
392.343805
 11
80.865941
 21
392.343805
  0
LINE
  5
3E1
100
AcDbEntity
  8
M0
 62
     1
100
AcDbLine
 10
60.565941
 20
392.343805
 11
60.465941
 21
392.343805
  0
LINE
  5
3E2
100
AcDbEntity
  8
M0
 62
     1
100
AcDbLine
 10
60.765941
 20
325.143805
 11
60.465941
 21
325.143805
  0
LINE
  5
3E3
100
AcDbEntity
  8
M0
 62
     1
100
AcDbLine
 10
70.865941
 20
325.143805
 11
70.565941
 21
325.143805
  0
LINE
  5
3E4
100
AcDbEntity
  8
M0
 62
     1
100
AcDbLine
 10
81.965941
 20
384.843805
 11
82.865941
 21
384.843805
  0
LINE
  5
3E5
100
AcDbEntity
  8
M0
 62
     1
100
AcDbLine
 10
88.865941
 20
384.843805
 11
89.765941
 21
384.843805
  0
LINE
  5
3E6
100
AcDbEntity
  8
M0
 62
     1
100
AcDbLine
 10
61.765941
 20
384.843805
 11
62.665941
 21
384.843805
  0
LINE
  5
3E7
100
AcDbEntity
  8
M0
 62
     1
100
AcDbLine
 10
51.665941
 20
384.843805
 11
52.565941
 21
384.843805
  0
LINE
  5
3E8
100
AcDbEntity
  8
M0
 62
     1
100
AcDbLine
 10
58.565941
 20
384.843805
 11
59.465941
 21
384.843805
  0
LINE
  5
3E9
100
AcDbEntity
  8
M0
 62
     1
100
AcDbLine
 10
61.765941
 20
388.343805
 11
61.765941
 21
379.343805
  0
LINE
  5
3EA
100
AcDbEntity
  8
M0
 62
     1
100
AcDbLine
 10
70.565941
 20
392.343805
 11
70.665941
 21
392.343805
  0
LINE
  5
3EB
100
AcDbEntity
  8
M0
 62
     1
100
AcDbLine
 10
80.665941
 20
341.943805
 11
80.965941
 21
341.943805
  0
LINE
  5
3EC
100
AcDbEntity
  8
M0
 62
     1
100
AcDbLine
 10
60.465941
 20
341.943805
 11
60.765941
 21
341.943805
  0
LINE
  5
3ED
100
AcDbEntity
  8
M0
 62
     1
100
AcDbLine
 10
80.965941
 20
378.343805
 11
80.665941
 21
378.343805
  0
LINE
  5
3EE
100
AcDbEntity
  8
M0
 62
     1
100
AcDbLine
 10
70.865941
 20
378.343805
 11
70.565941
 21
378.343805
  0
LINE
  5
3EF
100
AcDbEntity
  8
M0
 62
     1
100
AcDbLine
 10
60.765941
 20
378.343805
 11
60.465941
 21
378.343805
  0
ARC
  5
3F0
100
AcDbEntity
  8
M0
 62
     1
100
AcDbCircle
 10
70.865941
 20
326.143805
 40
1.0
100
AcDbArc
 50
270.0
 51
360.0
  0
ARC
  5
3F1
100
AcDbEntity
  8
M0
 62
     1
100
AcDbCircle
 10
70.565941
 20
326.143805
 40
1.0
100
AcDbArc
 50
180.0
 51
270.0
  0
LINE
  5
3F2
100
AcDbEntity
  8
M0
 62
     1
100
AcDbLine
 10
70.765941
 20
392.343805
 11
70.865941
 21
392.343805
  0
LINE
  5
3F3
100
AcDbEntity
  8
M0
 62
     1
100
AcDbLine
 10
59.465941
 20
379.343805
 11
59.465941
 21
388.343805
  0
LINE
  5
3F4
100
AcDbEntity
  8
M0
 62
     1
100
AcDbLine
 10
70.665941
 20
392.343805
 11
70.765941
 21
392.343805
  0
ARC
  5
3F5
100
AcDbEntity
  8
M0
 62
     1
100
AcDbCircle
 10
60.765941
 20
326.143805
 40
1.0
100
AcDbArc
 50
270.0
 51
360.0
  0
LINE
  5
3F6
100
AcDbEntity
  8
M0
 62
     1
100
AcDbLine
 10
60.665941
 20
392.343805
 11
60.765941
 21
392.343805
  0
ARC
  5
3F7
100
AcDbEntity
  8
M0
 62
     1
100
AcDbCircle
 10
60.465941
 20
326.143805
 40
1.0
100
AcDbArc
 50
180.0
 51
270.0
  0
LINE
  5
3F8
100
AcDbEntity
  8
M0
 62
     1
100
AcDbLine
 10
61.765941
 20
334.343805
 11
61.765941
 21
333.343805
  0
LINE
  5
3F9
100
AcDbEntity
  8
M0
 62
     1
100
AcDbLine
 10
51.665941
 20
333.343805
 11
51.665941
 21
334.343805
  0
LINE
  5
3FA
100
AcDbEntity
  8
M0
 62
     1
100
AcDbLine
 10
89.765941
 20
334.343805
 11
89.765941
 21
333.343805
  0
LINE
  5
3FB
100
AcDbEntity
  8
M0
 62
     1
100
AcDbLine
 10
51.665941
 20
385.943805
 11
51.665941
 21
386.943805
  0
ELLIPSE
  5
3FC
100
AcDbEntity
  8
M0
 62
     1
100
AcDbEllipse
 10
75.015941
 20
394.960472
 11
1.0
 21
0.0
210
0.0
220
0.0
230
1.0
 40
0.416667
 41
4.71238898038469
 42
6.283185307179586
  0
LINE
  5
3FD
100
AcDbEntity
  8
M0
 62
     1
100
AcDbLine
 10
61.765941
 20
385.943805
 11
61.765941
 21
386.943805
  0
ELLIPSE
  5
3FE
100
AcDbEntity
  8
M0
 62
     1
100
AcDbEllipse
 10
66.415941
 20
394.960472
 11
1.0
 21
0.0
210
0.0
220
0.0
230
1.0
 40
0.416667
 41
3.141592653589793
 42
4.71238898038469
  0
LINE
  5
3FF
100
AcDbEntity
  8
M0
 62
     1
100
AcDbLine
 10
90.965941
 20
388.943805
 11
90.765941
 21
388.943805
  0
LINE
  5
400
100
AcDbEntity
  8
M0
 62
     1
100
AcDbLine
 10
89.765941
 20
387.943805
 11
89.765941
 21
378.143805
  0
LINE
  5
401
100
AcDbEntity
  8
M0
 62
     1
100
AcDbLine
 10
90.965941
 20
331.343805
 11
90.765941
 21
331.343805
  0
LINE
  5
402
100
AcDbEntity
  8
M0
 62
     1
100
AcDbLine
 10
89.765941
 20
333.343805
 11
89.765941
 21
332.343805
  0
LINE
  5
403
100
AcDbEntity
  8
M0
 62
     1
100
AcDbLine
 10
51.665941
 20
332.343805
 11
51.665941
 21
333.343805
  0
LINE
  5
404
100
AcDbEntity
  8
M0
 62
     1
100
AcDbLine
 10
51.665941
 20
386.943805
 11
51.665941
 21
387.943805
  0
LINE
  5
405
100
AcDbEntity
  8
M0
 62
     1
100
AcDbLine
 10
50.465941
 20
331.343805
 11
50.665941
 21
331.343805
  0
LINE
  5
406
100
AcDbEntity
  8
M0
 62
     1
100
AcDbLine
 10
61.765941
 20
386.943805
 11
61.765941
 21
391.343805
  0
LINE
  5
407
100
AcDbEntity
  8
M0
 62
     1
100
AcDbLine
 10
50.465941
 20
388.943805
 11
50.665941
 21
388.943805
  0
LINE
  5
408
100
AcDbEntity
  8
M0
 62
     1
100
AcDbLine
 10
65.315941
 20
403.043805
 11
66.415941
 21
403.043805
  0
LINE
  5
409
100
AcDbEntity
  8
M0
 62
     1
100
AcDbLine
 10
75.015941
 20
403.043805
 11
76.115941
 21
403.043805
  0
ARC
  5
40A
100
AcDbEntity
  8
M0
 62
     1
100
AcDbCircle
 10
76.615941
 20
404.043805
 40
0.5
100
AcDbArc
 50
90.0
 51
180.0
  0
ARC
  5
40B
100
AcDbEntity
  8
M0
 62
     1
100
AcDbCircle
 10
64.815941
 20
404.043805
 40
0.5
100
AcDbArc
 50
0.0
 51
90.0
  0
ARC
  5
40C
100
AcDbEntity
  8
M0
 62
     1
100
AcDbCircle
 10
76.615941
 20
403.543805
 40
1.0
100
AcDbArc
 50
0.0
 51
90.0
  0
ARC
  5
40D
100
AcDbEntity
  8
M0
 62
     1
100
AcDbCircle
 10
64.815941
 20
403.543805
 40
1.0
100
AcDbArc
 50
90.0
 51
180.0
  0
LINE
  5
40E
100
AcDbEntity
  8
M0
 62
     1
100
AcDbLine
 10
72.765941
 20
334.443805
 11
72.765941
 21
335.443805
  0
LINE
  5
40F
100
AcDbEntity
  8
M0
 62
     1
100
AcDbLine
 10
78.765941
 20
335.443805
 11
78.765941
 21
334.443805
  0
LINE
  5
410
100
AcDbEntity
  8
M0
 62
     1
100
AcDbLine
 10
78.765941
 20
334.443805
 11
72.765941
 21
334.443805
  0
LINE
  5
411
100
AcDbEntity
  8
M0
 62
     1
100
AcDbLine
 10
81.965941
 20
391.043805
 11
87.715941
 21
391.043805
  0
LINE
  5
412
100
AcDbEntity
  8
M0
 62
     1
100
AcDbLine
 10
87.715941
 20
393.043805
 11
87.715941
 21
391.043805
  0
LINE
  5
413
100
AcDbEntity
  8
M0
 62
     1
100
AcDbLine
 10
76.115941
 20
391.043805
 11
79.665941
 21
391.043805
  0
LINE
  5
414
100
AcDbEntity
  8
M0
 62
     1
100
AcDbLine
 10
65.315941
 20
404.043805
 11
65.315941
 21
391.043805
  0
LINE
  5
415
100
AcDbEntity
  8
M0
 62
     1
100
AcDbLine
 10
61.765941
 20
391.043805
 11
65.315941
 21
391.043805
  0
LINE
  5
416
100
AcDbEntity
  8
M0
 62
     1
100
AcDbLine
 10
63.815941
 20
394.543805
 11
63.815941
 21
403.543805
  0
LINE
  5
417
100
AcDbEntity
  8
M0
 62
     1
100
AcDbLine
 10
77.615941
 20
403.543805
 11
77.615941
 21
394.543805
  0
LINE
  5
418
100
AcDbEntity
  8
M0
 62
     1
100
AcDbLine
 10
65.315941
 20
394.543805
 11
53.715941
 21
394.543805
  0
LINE
  5
419
100
AcDbEntity
  8
M0
 62
     1
100
AcDbLine
 10
65.315941
 20
393.043805
 11
53.715941
 21
393.043805
  0
LINE
  5
41A
100
AcDbEntity
  8
M0
 62
     1
100
AcDbLine
 10
53.715941
 20
391.043805
 11
59.465941
 21
391.043805
  0
LINE
  5
41B
100
AcDbEntity
  8
M0
 62
     1
100
AcDbLine
 10
76.115941
 20
391.043805
 11
76.115941
 21
404.043805
  0
LINE
  5
41C
100
AcDbEntity
  8
M0
 62
     1
100
AcDbLine
 10
87.715941
 20
394.543805
 11
87.715941
 21
393.043805
  0
LINE
  5
41D
100
AcDbEntity
  8
M0
 62
     1
100
AcDbLine
 10
87.715941
 20
393.043805
 11
76.115941
 21
393.043805
  0
LINE
  5
41E
100
AcDbEntity
  8
M0
 62
     1
100
AcDbLine
 10
76.115941
 20
394.543805
 11
87.715941
 21
394.543805
  0
LINE
  5
41F
100
AcDbEntity
  8
M0
 62
     1
100
AcDbLine
 10
85.115941
 20
403.043805
 11
77.615941
 21
403.043805
  0
LINE
  5
420
100
AcDbEntity
  8
M0
 62
     1
100
AcDbLine
 10
88.865941
 20
335.493805
 11
88.865941
 21
334.443805
  0
LINE
  5
421
100
AcDbEntity
  8
M0
 62
     1
100
AcDbLine
 10
88.865941
 20
334.443805
 11
82.865941
 21
334.443805
  0
LINE
  5
422
100
AcDbEntity
  8
M0
 62
     1
100
AcDbLine
 10
62.665941
 20
334.443805
 11
62.665941
 21
335.493805
  0
LINE
  5
423
100
AcDbEntity
  8
M0
 62
     1
100
AcDbLine
 10
68.665941
 20
334.443805
 11
62.665941
 21
334.443805
  0
LINE
  5
424
100
AcDbEntity
  8
M0
 62
     1
100
AcDbLine
 10
68.665941
 20
335.443805
 11
68.665941
 21
334.443805
  0
LINE
  5
425
100
AcDbEntity
  8
M0
 62
     1
100
AcDbLine
 10
82.865941
 20
334.443805
 11
82.865941
 21
335.493805
  0
LINE
  5
426
100
AcDbEntity
  8
M0
 62
     1
100
AcDbLine
 10
72.765941
 20
384.793805
 11
72.765941
 21
385.843805
  0
LINE
  5
427
100
AcDbEntity
  8
M0
 62
     1
100
AcDbLine
 10
78.765941
 20
385.843805
 11
78.765941
 21
384.793805
  0
LINE
  5
428
100
AcDbEntity
  8
M0
 62
     1
100
AcDbLine
 10
72.765941
 20
385.843805
 11
78.765941
 21
385.843805
  0
LINE
  5
429
100
AcDbEntity
  8
M0
 62
     1
100
AcDbLine
 10
58.565941
 20
385.843805
 11
58.565941
 21
384.793805
  0
LINE
  5
42A
100
AcDbEntity
  8
M0
 62
     1
100
AcDbLine
 10
52.565941
 20
384.793805
 11
52.565941
 21
385.843805
  0
LINE
  5
42B
100
AcDbEntity
  8
M0
 62
     1
100
AcDbLine
 10
58.565941
 20
334.443805
 11
52.565941
 21
334.443805
  0
LINE
  5
42C
100
AcDbEntity
  8
M0
 62
     1
100
AcDbLine
 10
52.565941
 20
334.443805
 11
52.565941
 21
335.493805
  0
LINE
  5
42D
100
AcDbEntity
  8
M0
 62
     1
100
AcDbLine
 10
58.565941
 20
335.493805
 11
58.565941
 21
334.443805
  0
LINE
  5
42E
100
AcDbEntity
  8
M0
 62
     1
100
AcDbLine
 10
62.665941
 20
384.793805
 11
62.665941
 21
385.843805
  0
LINE
  5
42F
100
AcDbEntity
  8
M0
 62
     1
100
AcDbLine
 10
62.665941
 20
385.843805
 11
68.665941
 21
385.843805
  0
LINE
  5
430
100
AcDbEntity
  8
M0
 62
     1
100
AcDbLine
 10
68.665941
 20
385.843805
 11
68.665941
 21
384.793805
  0
LINE
  5
431
100
AcDbEntity
  8
M0
 62
     1
100
AcDbLine
 10
82.865941
 20
384.843805
 11
82.865941
 21
385.843805
  0
LINE
  5
432
100
AcDbEntity
  8
M0
 62
     1
100
AcDbLine
 10
88.865941
 20
385.843805
 11
88.865941
 21
384.843805
  0
LINE
  5
433
100
AcDbEntity
  8
M0
 62
     1
100
AcDbLine
 10
82.865941
 20
385.843805
 11
88.865941
 21
385.843805
  0
LINE
  5
434
100
AcDbEntity
  8
M0
  6
DASHDOT
 62
     1
100
AcDbLine
 10
70.715941
 20
321.263707
 11
70.715941
 21
406.365814
  0
LINE
  5
435
100
AcDbEntity
  8
M0
  6
DASHDOT
 62
     1
100
AcDbLine
 10
81.965941
 20
334.043805
 11
90.465941
 21
334.043805
  0
LINE
  5
436
100
AcDbEntity
  8
M0
  6
DASHDOT
 62
     1
100
AcDbLine
 10
86.215941
 20
329.793805
 11
86.215941
 21
338.293805
  0
LINE
  5
437
100
AcDbEntity
  8
M0
  6
DASHDOT
 62
     1
100
AcDbLine
 10
65.165941
 20
327.643805
 11
66.165941
 21
327.643805
  0
LINE
  5
438
100
AcDbEntity
  8
M0
  6
DASHDOT
 62
     1
100
AcDbLine
 10
65.665941
 20
327.143805
 11
65.665941
 21
328.143805
  0
LINE
  5
439
100
AcDbEntity
  8
M0
  6
DASHDOT
 62
     1
100
AcDbLine
 10
65.165941
 20
339.243805
 11
66.165941
 21
339.243805
  0
LINE
  5
43A
100
AcDbEntity
  8
M0
  6
DASHDOT
 62
     1
100
AcDbLine
 10
65.665941
 20
338.743805
 11
65.665941
 21
339.743805
  0
LINE
  5
43B
100
AcDbEntity
  8
M0
  6
DASHDOT
 62
     1
100
AcDbLine
 10
75.265941
 20
339.243805
 11
76.265941
 21
339.243805
  0
LINE
  5
43C
100
AcDbEntity
  8
M0
  6
DASHDOT
 62
     1
100
AcDbLine
 10
75.765941
 20
338.743805
 11
75.765941
 21
339.743805
  0
LINE
  5
43D
100
AcDbEntity
  8
M0
  6
DASHDOT
 62
     1
100
AcDbLine
 10
85.365941
 20
339.243805
 11
86.365941
 21
339.243805
  0
LINE
  5
43E
100
AcDbEntity
  8
M0
  6
DASHDOT
 62
     1
100
AcDbLine
 10
85.865941
 20
338.743805
 11
85.865941
 21
339.743805
  0
LINE
  5
43F
100
AcDbEntity
  8
M0
  6
DASHDOT
 62
     1
100
AcDbLine
 10
85.365941
 20
381.043805
 11
86.365941
 21
381.043805
  0
LINE
  5
440
100
AcDbEntity
  8
M0
  6
DASHDOT
 62
     1
100
AcDbLine
 10
85.865941
 20
380.543805
 11
85.865941
 21
381.543805
  0
LINE
  5
441
100
AcDbEntity
  8
M0
  6
DASHDOT
 62
     1
100
AcDbLine
 10
75.265941
 20
381.043805
 11
76.265941
 21
381.043805
  0
LINE
  5
442
100
AcDbEntity
  8
M0
  6
DASHDOT
 62
     1
100
AcDbLine
 10
75.765941
 20
380.543805
 11
75.765941
 21
381.543805
  0
LINE
  5
443
100
AcDbEntity
  8
M0
  6
DASHDOT
 62
     1
100
AcDbLine
 10
65.165941
 20
381.043805
 11
66.165941
 21
381.043805
  0
LINE
  5
444
100
AcDbEntity
  8
M0
  6
DASHDOT
 62
     1
100
AcDbLine
 10
65.665941
 20
380.543805
 11
65.665941
 21
381.543805
  0
LINE
  5
445
100
AcDbEntity
  8
M0
  6
DASHDOT
 62
     1
100
AcDbLine
 10
55.065941
 20
381.043805
 11
56.065941
 21
381.043805
  0
LINE
  5
446
100
AcDbEntity
  8
M0
  6
DASHDOT
 62
     1
100
AcDbLine
 10
55.565941
 20
380.543805
 11
55.565941
 21
381.543805
  0
LINE
  5
447
100
AcDbEntity
  8
M0
  6
DASHDOT
 62
     1
100
AcDbLine
 10
59.315941
 20
398.643805
 11
60.315941
 21
398.643805
  0
LINE
  5
448
100
AcDbEntity
  8
M0
  6
DASHDOT
 62
     1
100
AcDbLine
 10
59.815941
 20
398.143805
 11
59.815941
 21
399.143805
  0
LINE
  5
449
100
AcDbEntity
  8
M0
  6
DASHDOT
 62
     1
100
AcDbLine
 10
81.115941
 20
398.643805
 11
82.115941
 21
398.643805
  0
LINE
  5
44A
100
AcDbEntity
  8
M0
  6
DASHDOT
 62
     1
100
AcDbLine
 10
81.615941
 20
398.143805
 11
81.615941
 21
399.143805
  0
LINE
  5
44B
100
AcDbEntity
  8
M0
  6
DASHDOT
 62
     1
100
AcDbLine
 10
55.065941
 20
339.243805
 11
56.065941
 21
339.243805
  0
LINE
  5
44C
100
AcDbEntity
  8
M0
  6
DASHDOT
 62
     1
100
AcDbLine
 10
55.565941
 20
338.743805
 11
55.565941
 21
339.743805
  0
LINE
  5
44D
100
AcDbEntity
  8
M0
  6
DASHDOT
 62
     1
100
AcDbLine
 10
70.215941
 20
398.243805
 11
71.215941
 21
398.243805
  0
LINE
  5
44E
100
AcDbEntity
  8
M0
 62
     1
100
AcDbLine
 10
70.265941
 20
397.043805
 11
71.165941
 21
397.043805
  0
LINE
  5
44F
100
AcDbEntity
  8
M0
 62
     1
100
AcDbLine
 10
70.265941
 20
397.793805
 11
70.265941
 21
397.043805
  0
LINE
  5
450
100
AcDbEntity
  8
M0
 62
     1
100
AcDbLine
 10
71.165941
 20
397.043805
 11
71.165941
 21
397.793805
  0
LINE
  5
451
100
AcDbEntity
  8
M0
  6
DASHDOT
 62
     1
100
AcDbLine
 10
70.215941
 20
398.243805
 11
71.215941
 21
398.243805
  0
LINE
  5
452
100
AcDbEntity
  8
M0
 62
     1
100
AcDbLine
 10
70.265941
 20
397.793805
 11
69.515941
 21
397.793805
  0
LINE
  5
453
100
AcDbEntity
  8
M0
 62
     1
100
AcDbLine
 10
69.515941
 20
398.693805
 11
70.265941
 21
398.693805
  0
LINE
  5
454
100
AcDbEntity
  8
M0
 62
     1
100
AcDbLine
 10
70.265941
 20
399.443805
 11
70.265941
 21
398.693805
  0
CIRCLE
  5
455
100
AcDbEntity
  8
M0
 62
     1
100
AcDbCircle
 10
70.715941
 20
398.243805
 40
2.85
  0
LINE
  5
456
100
AcDbEntity
  8
M0
 62
     1
100
AcDbLine
 10
71.165941
 20
399.443805
 11
70.265941
 21
399.443805
  0
LINE
  5
457
100
AcDbEntity
  8
M0
 62
     1
100
AcDbLine
 10
71.915941
 20
397.793805
 11
71.165941
 21
397.793805
  0
LINE
  5
458
100
AcDbEntity
  8
M0
 62
     1
100
AcDbLine
 10
71.165941
 20
398.693805
 11
71.165941
 21
399.443805
  0
LINE
  5
459
100
AcDbEntity
  8
M0
 62
     1
100
AcDbLine
 10
71.165941
 20
398.693805
 11
71.915941
 21
398.693805
  0
CIRCLE
  5
45A
100
AcDbEntity
  8
M0
 62
     1
100
AcDbCircle
 10
81.615941
 20
398.643805
 40
3.0
  0
LINE
  5
45B
100
AcDbEntity
  8
M0
 62
     1
100
AcDbLine
 10
131.765941
 20
385.843805
 11
131.765941
 21
384.793805
  0
LINE
  5
45C
100
AcDbEntity
  8
M0
 62
     1
100
AcDbLine
 10
125.765941
 20
385.843805
 11
131.765941
 21
385.843805
  0
LINE
  5
45D
100
AcDbEntity
  8
M0
 62
     1
100
AcDbLine
 10
121.665941
 20
334.443805
 11
115.665941
 21
334.443805
  0
LINE
  5
45E
100
AcDbEntity
  8
M0
 62
     1
100
AcDbLine
 10
115.665941
 20
334.443805
 11
115.665941
 21
335.493805
  0
LINE
  5
45F
100
AcDbEntity
  8
M0
 62
     1
100
AcDbLine
 10
135.865941
 20
334.443805
 11
135.865941
 21
335.493805
  0
LINE
  5
460
100
AcDbEntity
  8
M0
 62
     1
100
AcDbLine
 10
121.665941
 20
335.443805
 11
121.665941
 21
334.443805
  0
LINE
  5
461
100
AcDbEntity
  8
M0
 62
     1
100
AcDbLine
 10
125.765941
 20
384.793805
 11
125.765941
 21
385.843805
  0
LINE
  5
462
100
AcDbEntity
  8
M0
 62
     1
100
AcDbLine
 10
105.565941
 20
384.793805
 11
105.565941
 21
385.843805
  0
LINE
  5
463
100
AcDbEntity
  8
M0
 62
     1
100
AcDbLine
 10
111.565941
 20
385.843805
 11
111.565941
 21
384.793805
  0
LINE
  5
464
100
AcDbEntity
  8
M0
 62
     1
100
AcDbLine
 10
128.015941
 20
403.043805
 11
129.115941
 21
403.043805
  0
LINE
  5
465
100
AcDbEntity
  8
M0
 62
     1
100
AcDbLine
 10
118.315941
 20
403.043805
 11
119.415941
 21
403.043805
  0
LINE
  5
466
100
AcDbEntity
  8
M0
 62
     1
100
AcDbLine
 10
118.315941
 20
404.043805
 11
118.315941
 21
391.043805
  0
LINE
  5
467
100
AcDbEntity
  8
M0
 62
     1
100
AcDbLine
 10
129.115941
 20
391.043805
 11
132.665941
 21
391.043805
  0
LINE
  5
468
100
AcDbEntity
  8
M0
 62
     1
100
AcDbLine
 10
116.815941
 20
394.543805
 11
116.815941
 21
403.543805
  0
LINE
  5
469
100
AcDbEntity
  8
M0
 62
     1
100
AcDbLine
 10
114.765941
 20
391.043805
 11
118.315941
 21
391.043805
  0
LINE
  5
46A
100
AcDbEntity
  8
M0
 62
     1
100
AcDbLine
 10
130.615941
 20
403.543805
 11
130.615941
 21
394.543805
  0
LINE
  5
46B
100
AcDbEntity
  8
M0
 62
     1
100
AcDbLine
 10
131.765941
 20
335.443805
 11
131.765941
 21
334.443805
  0
LINE
  5
46C
100
AcDbEntity
  8
M0
 62
     1
100
AcDbLine
 10
125.765941
 20
334.443805
 11
125.765941
 21
335.443805
  0
LINE
  5
46D
100
AcDbEntity
  8
M0
 62
     1
100
AcDbLine
 10
134.965941
 20
391.043805
 11
140.715941
 21
391.043805
  0
LINE
  5
46E
100
AcDbEntity
  8
M0
 62
     1
100
AcDbLine
 10
131.765941
 20
334.443805
 11
125.765941
 21
334.443805
  0
LINE
  5
46F
100
AcDbEntity
  8
M0
 62
     1
100
AcDbLine
 10
140.715941
 20
393.043805
 11
140.715941
 21
391.043805
  0
LINE
  5
470
100
AcDbEntity
  8
M0
 62
     1
100
AcDbLine
 10
105.565941
 20
334.443805
 11
105.565941
 21
335.493805
  0
LINE
  5
471
100
AcDbEntity
  8
M0
 62
     1
100
AcDbLine
 10
111.565941
 20
334.443805
 11
105.565941
 21
334.443805
  0
LINE
  5
472
100
AcDbEntity
  8
M0
 62
     1
100
AcDbLine
 10
111.565941
 20
335.493805
 11
111.565941
 21
334.443805
  0
LINE
  5
473
100
AcDbEntity
  8
M0
 62
     1
100
AcDbLine
 10
125.765941
 20
335.443805
 11
124.865941
 21
335.443805
  0
LINE
  5
474
100
AcDbEntity
  8
M0
 62
     1
100
AcDbLine
 10
105.565941
 20
335.443805
 11
104.665941
 21
335.443805
  0
LINE
  5
475
100
AcDbEntity
  8
M0
 62
     1
100
AcDbLine
 10
114.765941
 20
390.943805
 11
122.565941
 21
390.943805
  0
LINE
  5
476
100
AcDbEntity
  8
M0
 62
     1
100
AcDbLine
 10
123.565941
 20
324.643805
 11
123.865941
 21
324.643805
  0
LINE
  5
477
100
AcDbEntity
  8
M0
 62
     1
100
AcDbLine
 10
113.465941
 20
324.643805
 11
113.765941
 21
324.643805
  0
LINE
  5
478
100
AcDbEntity
  8
M0
 62
     1
100
AcDbLine
 10
122.565941
 20
325.643805
 11
122.565941
 21
342.143807
  0
LINE
  5
479
100
AcDbEntity
  8
M0
 62
     1
100
AcDbLine
 10
112.465941
 20
335.443805
 11
111.565941
 21
335.443805
  0
LINE
  5
47A
100
AcDbEntity
  8
M0
 62
     1
100
AcDbLine
 10
142.765941
 20
335.443805
 11
141.865941
 21
335.443805
  0
ARC
  5
47B
100
AcDbEntity
  8
M0
 62
     1
100
AcDbCircle
 10
103.665941
 20
387.943805
 40
1.0
100
AcDbArc
 50
0.0
 51
90.0
  0
ARC
  5
47C
100
AcDbEntity
  8
M0
 62
     1
100
AcDbCircle
 10
144.215941
 20
387.943805
 40
1.0
100
AcDbArc
 50
0.0
 51
90.0
  0
ARC
  5
47D
100
AcDbEntity
  8
M0
 62
     1
100
AcDbCircle
 10
143.765941
 20
387.943805
 40
1.0
100
AcDbArc
 50
90.0
 51
180.0
  0
ARC
  5
47E
100
AcDbEntity
  8
M0
 62
     1
100
AcDbCircle
 10
119.415941
 20
402.043805
 40
1.0
100
AcDbArc
 50
90.0
 51
180.0
  0
LINE
  5
47F
100
AcDbEntity
  8
M0
 62
     1
100
AcDbLine
 10
141.865941
 20
334.443805
 11
135.865941
 21
334.443805
  0
LINE
  5
480
100
AcDbEntity
  8
M0
 62
     1
100
AcDbLine
 10
141.865941
 20
335.493805
 11
141.865941
 21
334.443805
  0
LINE
  5
481
100
AcDbEntity
  8
M0
 62
     1
100
AcDbLine
 10
133.865941
 20
327.943805
 11
133.965941
 21
327.943805
  0
LINE
  5
482
100
AcDbEntity
  8
M0
 62
     1
100
AcDbLine
 10
131.765941
 20
384.843805
 11
132.665941
 21
384.843805
  0
LINE
  5
483
100
AcDbEntity
  8
M0
 62
     1
100
AcDbLine
 10
121.665941
 20
384.843805
 11
122.565941
 21
384.843805
  0
ARC
  5
484
100
AcDbEntity
  8
M0
 62
     1
100
AcDbCircle
 10
120.565941
 20
329.143805
 40
2.0
100
AcDbArc
 50
0.0
 51
90.0
  0
LINE
  5
485
100
AcDbEntity
  8
M0
 62
     1
100
AcDbLine
 10
112.465941
 20
325.643805
 11
112.465941
 21
342.143807
  0
LINE
  5
486
100
AcDbEntity
  8
M0
 62
     1
100
AcDbLine
 10
124.865941
 20
342.143807
 11
124.865941
 21
325.643805
  0
LINE
  5
487
100
AcDbEntity
  8
M0
 62
     1
100
AcDbLine
 10
114.765941
 20
342.143807
 11
114.765941
 21
325.643805
  0
ARC
  5
488
100
AcDbEntity
  8
M0
 62
     1
100
AcDbCircle
 10
128.015941
 20
402.043805
 40
1.0
100
AcDbArc
 50
0.0
 51
90.0
  0
ARC
  5
489
100
AcDbEntity
  8
M0
 62
     1
100
AcDbCircle
 10
113.765941
 20
325.643805
 40
1.0
100
AcDbArc
 50
270.0
 51
360.0
  0
ARC
  5
48A
100
AcDbEntity
  8
M0
 62
     1
100
AcDbCircle
 10
116.765941
 20
329.143805
 40
2.0
100
AcDbArc
 50
90.0
 51
180.0
  0
ARC
  5
48B
100
AcDbEntity
  8
M0
 62
     1
100
AcDbCircle
 10
113.465941
 20
325.643805
 40
1.0
100
AcDbArc
 50
180.0
 51
270.0
  0
ARC
  5
48C
100
AcDbEntity
  8
M0
 62
     1
100
AcDbCircle
 10
123.865941
 20
325.643805
 40
1.0
100
AcDbArc
 50
270.0
 51
360.0
  0
ARC
  5
48D
100
AcDbEntity
  8
M0
 62
     1
100
AcDbCircle
 10
123.565941
 20
325.643805
 40
1.0
100
AcDbArc
 50
180.0
 51
270.0
  0
LINE
  5
48E
100
AcDbEntity
  8
M0
 62
     1
100
AcDbLine
 10
115.665941
 20
384.793805
 11
115.665941
 21
385.843805
  0
LINE
  5
48F
100
AcDbEntity
  8
M0
 62
     1
100
AcDbLine
 10
121.665941
 20
385.843805
 11
121.665941
 21
384.793805
  0
LINE
  5
490
100
AcDbEntity
  8
M0
 62
     1
100
AcDbLine
 10
115.665941
 20
385.843805
 11
121.665941
 21
385.843805
  0
LINE
  5
491
100
AcDbEntity
  8
M0
 62
     1
100
AcDbLine
 10
135.865941
 20
384.843805
 11
135.865941
 21
385.843805
  0
ARC
  5
492
100
AcDbEntity
  8
M0
 62
     1
100
AcDbCircle
 10
105.240941
 20
335.918805
 40
0.5
100
AcDbArc
 50
180.0
 51
270.0
  0
ARC
  5
493
100
AcDbEntity
  8
M0
 62
     1
100
AcDbCircle
 10
111.890941
 20
335.918805
 40
0.5
100
AcDbArc
 50
270.0
 51
360.0
  0
ARC
  5
494
100
AcDbEntity
  8
M0
 62
     1
100
AcDbCircle
 10
141.215941
 20
391.843805
 40
4.0
100
AcDbArc
 50
0.0
 51
97.180756
  0
LINE
  5
495
100
AcDbEntity
  8
M0
  6
DASHDOT
 62
     1
100
AcDbLine
 10
118.665941
 20
327.143805
 11
118.665941
 21
328.143805
  0
LINE
  5
496
100
AcDbEntity
  8
M0
  6
DASHDOT
 62
     1
100
AcDbLine
 10
118.165941
 20
327.643805
 11
119.165941
 21
327.643805
  0
LINE
  5
497
100
AcDbEntity
  8
M0
  6
DASHDOT
 62
     1
100
AcDbLine
 10
118.165941
 20
339.243805
 11
119.165941
 21
339.243805
  0
LINE
  5
498
100
AcDbEntity
  8
M0
 62
     1
100
AcDbLine
 10
135.865941
 20
385.843805
 11
141.865941
 21
385.843805
  0
LINE
  5
499
100
AcDbEntity
  8
M0
 62
     1
100
AcDbLine
 10
141.865941
 20
385.843805
 11
141.865941
 21
384.843805
  0
LINE
  5
49A
100
AcDbEntity
  8
M0
  6
DASHDOT
 62
     1
100
AcDbLine
 10
123.715941
 20
321.263707
 11
123.715941
 21
406.365814
  0
CIRCLE
  5
49B
100
AcDbEntity
  8
M0
 62
     1
100
AcDbCircle
 10
118.665941
 20
327.643805
 40
2.65
  0
CIRCLE
  5
49C
100
AcDbEntity
  8
M0
 62
     1
100
AcDbCircle
 10
123.715941
 20
398.243805
 40
2.65
  0
ARC
  5
49D
100
AcDbEntity
  8
M0
 62
     1
100
AcDbCircle
 10
135.540941
 20
335.918805
 40
0.5
100
AcDbArc
 50
180.0
 51
270.0
  0
LINE
  5
49E
100
AcDbEntity
  8
M0
 62
     1
100
AcDbLine
 10
136.965941
 20
334.043805
 11
136.965941
 21
334.443805
  0
LINE
  5
49F
100
AcDbEntity
  8
M0
 62
     1
100
AcDbLine
 10
130.915941
 20
327.343805
 11
129.415941
 21
327.343805
  0
LINE
  5
4A0
100
AcDbEntity
  8
M0
 62
     1
100
AcDbLine
 10
103.965941
 20
389.043805
 11
103.965941
 21
388.897744
  0
LINE
  5
4A1
100
AcDbEntity
  8
M0
 62
     1
100
AcDbLine
 10
109.465941
 20
329.643805
 11
109.465941
 21
325.843805
  0
ARC
  5
4A2
100
AcDbEntity
  8
M0
 62
     1
100
AcDbCircle
 10
132.090941
 20
335.918805
 40
0.5
100
AcDbArc
 50
270.0
 51
360.0
  0
ARC
  5
4A3
100
AcDbEntity
  8
M0
 62
     1
100
AcDbCircle
 10
115.340941
 20
335.918805
 40
0.5
100
AcDbArc
 50
180.0
 51
270.0
  0
ARC
  5
4A4
100
AcDbEntity
  8
M0
 62
     1
100
AcDbCircle
 10
121.990941
 20
335.918805
 40
0.5
100
AcDbArc
 50
270.0
 51
360.0
  0
ARC
  5
4A5
100
AcDbEntity
  8
M0
 62
     1
100
AcDbCircle
 10
142.190941
 20
335.918805
 40
0.5
100
AcDbArc
 50
270.0
 51
360.0
  0
ARC
  5
4A6
100
AcDbEntity
  8
M0
 62
     1
100
AcDbCircle
 10
125.440941
 20
335.918805
 40
0.5
100
AcDbArc
 50
180.0
 51
270.0
  0
LINE
  5
4A7
100
AcDbEntity
  8
M0
 62
     1
100
AcDbLine
 10
122.515941
 20
398.693805
 11
123.265941
 21
398.693805
  0
LINE
  5
4A8
100
AcDbEntity
  8
M0
 62
     1
100
AcDbLine
 10
123.265941
 20
397.793805
 11
122.515941
 21
397.793805
  0
LINE
  5
4A9
100
AcDbEntity
  8
M0
 62
     1
100
AcDbLine
 10
124.165941
 20
399.443805
 11
123.265941
 21
399.443805
  0
LINE
  5
4AA
100
AcDbEntity
  8
M0
 62
     1
100
AcDbLine
 10
123.265941
 20
399.443805
 11
123.265941
 21
398.693805
  0
LINE
  5
4AB
100
AcDbEntity
  8
M0
 62
     1
100
AcDbLine
 10
124.915941
 20
397.793805
 11
124.165941
 21
397.793805
  0
LINE
  5
4AC
100
AcDbEntity
  8
M0
 62
     1
100
AcDbLine
 10
123.265941
 20
397.043805
 11
124.165941
 21
397.043805
  0
LINE
  5
4AD
100
AcDbEntity
  8
M0
  6
DASHDOT
 62
     1
100
AcDbLine
 10
123.215941
 20
398.243805
 11
124.215941
 21
398.243805
  0
LINE
  5
4AE
100
AcDbEntity
  8
M0
 62
     1
100
AcDbLine
 10
124.165941
 20
397.043805
 11
124.165941
 21
397.793805
  0
LINE
  5
4AF
100
AcDbEntity
  8
M0
 62
     1
100
AcDbLine
 10
123.265941
 20
397.793805
 11
123.265941
 21
397.043805
  0
LINE
  5
4B0
100
AcDbEntity
  8
M0
  6
DASHDOT
 62
     1
100
AcDbLine
 10
123.215941
 20
398.243805
 11
124.215941
 21
398.243805
  0
LINE
  5
4B1
100
AcDbEntity
  8
M0
 62
     1
100
AcDbLine
 10
124.165941
 20
398.693805
 11
124.915941
 21
398.693805
  0
LINE
  5
4B2
100
AcDbEntity
  8
M0
 62
     1
100
AcDbLine
 10
124.165941
 20
398.693805
 11
124.165941
 21
399.443805
  0
CIRCLE
  5
4B3
100
AcDbEntity
  8
M0
 62
     1
100
AcDbCircle
 10
134.615941
 20
398.643805
 40
3.0
  0
CIRCLE
  5
4B4
100
AcDbEntity
  8
M0
 62
     1
100
AcDbCircle
 10
123.715941
 20
398.243805
 40
2.85
  0
LINE
  5
4B5
100
AcDbEntity
  8
M0
  6
DASHDOT
 62
     1
100
AcDbLine
 10
138.365941
 20
381.043805
 11
139.365941
 21
381.043805
  0
LINE
  5
4B6
100
AcDbEntity
  8
M0
  6
DASHDOT
 62
     1
100
AcDbLine
 10
138.865941
 20
338.743805
 11
138.865941
 21
339.743805
  0
LINE
  5
4B7
100
AcDbEntity
  8
M0
  6
DASHDOT
 62
     1
100
AcDbLine
 10
128.265941
 20
381.043805
 11
129.265941
 21
381.043805
  0
LINE
  5
4B8
100
AcDbEntity
  8
M0
  6
DASHDOT
 62
     1
100
AcDbLine
 10
138.865941
 20
380.543805
 11
138.865941
 21
381.543805
  0
LINE
  5
4B9
100
AcDbEntity
  8
M0
  6
DASHDOT
 62
     1
100
AcDbLine
 10
128.765941
 20
380.543805
 11
128.765941
 21
381.543805
  0
LINE
  5
4BA
100
AcDbEntity
  8
M0
  6
DASHDOT
 62
     1
100
AcDbLine
 10
118.665941
 20
338.743805
 11
118.665941
 21
339.743805
  0
LINE
  5
4BB
100
AcDbEntity
  8
M0
  6
DASHDOT
 62
     1
100
AcDbLine
 10
128.765941
 20
338.743805
 11
128.765941
 21
339.743805
  0
LINE
  5
4BC
100
AcDbEntity
  8
M0
  6
DASHDOT
 62
     1
100
AcDbLine
 10
128.265941
 20
339.243805
 11
129.265941
 21
339.243805
  0
LINE
  5
4BD
100
AcDbEntity
  8
M0
  6
DASHDOT
 62
     1
100
AcDbLine
 10
138.365941
 20
339.243805
 11
139.365941
 21
339.243805
  0
LINE
  5
4BE
100
AcDbEntity
  8
M0
  6
DASHDOT
 62
     1
100
AcDbLine
 10
134.115941
 20
398.643805
 11
135.115941
 21
398.643805
  0
LINE
  5
4BF
100
AcDbEntity
  8
M0
  6
DASHDOT
 62
     1
100
AcDbLine
 10
112.815941
 20
398.143805
 11
112.815941
 21
399.143805
  0
LINE
  5
4C0
100
AcDbEntity
  8
M0
  6
DASHDOT
 62
     1
100
AcDbLine
 10
108.065941
 20
339.243805
 11
109.065941
 21
339.243805
  0
LINE
  5
4C1
100
AcDbEntity
  8
M0
  6
DASHDOT
 62
     1
100
AcDbLine
 10
134.615941
 20
398.143805
 11
134.615941
 21
399.143805
  0
LINE
  5
4C2
100
AcDbEntity
  8
M0
  6
DASHDOT
 62
     1
100
AcDbLine
 10
108.565941
 20
338.743805
 11
108.565941
 21
339.743805
  0
LINE
  5
4C3
100
AcDbEntity
  8
M0
  6
DASHDOT
 62
     1
100
AcDbLine
 10
118.665941
 20
380.543805
 11
118.665941
 21
381.543805
  0
LINE
  5
4C4
100
AcDbEntity
  8
M0
  6
DASHDOT
 62
     1
100
AcDbLine
 10
118.165941
 20
381.043805
 11
119.165941
 21
381.043805
  0
LINE
  5
4C5
100
AcDbEntity
  8
M0
  6
DASHDOT
 62
     1
100
AcDbLine
 10
108.565941
 20
380.543805
 11
108.565941
 21
381.543805
  0
LINE
  5
4C6
100
AcDbEntity
  8
M0
  6
DASHDOT
 62
     1
100
AcDbLine
 10
108.065941
 20
381.043805
 11
109.065941
 21
381.043805
  0
ARC
  5
4C7
100
AcDbEntity
  8
M0
 62
     1
100
AcDbCircle
 10
107.215941
 20
363.393805
 40
0.5
100
AcDbArc
 50
0.0
 51
90.0
  0
LINE
  5
4C8
100
AcDbEntity
  8
M0
 62
     1
100
AcDbLine
 10
135.040941
 20
342.143807
 11
135.040941
 21
335.918805
  0
LINE
  5
4C9
100
AcDbEntity
  8
M0
 62
     1
100
AcDbLine
 10
129.115941
 20
394.543805
 11
140.715941
 21
394.543805
  0
LINE
  5
4CA
100
AcDbEntity
  8
M0
 62
     1
100
AcDbLine
 10
140.715941
 20
393.043805
 11
129.115941
 21
393.043805
  0
LINE
  5
4CB
100
AcDbEntity
  8
M0
 62
     1
100
AcDbLine
 10
138.115941
 20
403.043805
 11
130.615941
 21
403.043805
  0
LINE
  5
4CC
100
AcDbEntity
  8
M0
 62
     1
100
AcDbLine
 10
118.315941
 20
393.043805
 11
106.715941
 21
393.043805
  0
LINE
  5
4CD
100
AcDbEntity
  8
M0
 62
     1
100
AcDbLine
 10
118.315941
 20
394.543805
 11
106.715941
 21
394.543805
  0
LINE
  5
4CE
100
AcDbEntity
  8
M0
 62
     1
100
AcDbLine
 10
129.115941
 20
391.043805
 11
129.115941
 21
404.043805
  0
LINE
  5
4CF
100
AcDbEntity
  8
M0
 62
     1
100
AcDbLine
 10
106.715941
 20
391.043805
 11
112.465941
 21
391.043805
  0
LINE
  5
4D0
100
AcDbEntity
  8
M0
 62
     1
100
AcDbLine
 10
140.715941
 20
394.543805
 11
140.715941
 21
393.043805
  0
ARC
  5
4D1
100
AcDbEntity
  8
M0
 62
     1
100
AcDbCircle
 10
117.815941
 20
403.543805
 40
1.0
100
AcDbArc
 50
90.0
 51
180.0
  0
ARC
  5
4D2
100
AcDbEntity
  8
M0
 62
     1
100
AcDbCircle
 10
129.615941
 20
403.543805
 40
1.0
100
AcDbArc
 50
0.0
 51
90.0
  0
ARC
  5
4D3
100
AcDbEntity
  8
M0
 62
     1
100
AcDbCircle
 10
129.615941
 20
404.043805
 40
0.5
100
AcDbArc
 50
90.0
 51
180.0
  0
LINE
  5
4D4
100
AcDbEntity
  8
M0
 62
     1
100
AcDbLine
 10
122.515941
 20
397.793805
 11
122.515941
 21
398.693805
  0
LINE
  5
4D5
100
AcDbEntity
  8
M0
 62
     1
100
AcDbLine
 10
117.465941
 20
327.193805
 11
117.465941
 21
328.093805
  0
LINE
  5
4D6
100
AcDbEntity
  8
M0
 62
     1
100
AcDbLine
 10
136.065941
 20
330.843805
 11
134.965941
 21
330.843805
  0
LINE
  5
4D7
100
AcDbEntity
  8
M0
 62
     1
100
AcDbLine
 10
119.865941
 20
327.193805
 11
119.865941
 21
328.093805
  0
LINE
  5
4D8
100
AcDbEntity
  8
M0
 62
     1
100
AcDbLine
 10
136.065941
 20
325.843805
 11
136.065941
 21
330.843805
  0
LINE
  5
4D9
100
AcDbEntity
  8
M0
 62
     1
100
AcDbLine
 10
105.240941
 20
335.418805
 11
111.890941
 21
335.418805
  0
LINE
  5
4DA
100
AcDbEntity
  8
M0
  6
DASHDOT
 62
     1
100
AcDbLine
 10
108.565941
 20
338.743805
 11
108.565941
 21
339.743805
  0
LINE
  5
4DB
100
AcDbEntity
  8
M0
  6
DASHDOT
 62
     1
100
AcDbLine
 10
108.065941
 20
339.243805
 11
109.065941
 21
339.243805
  0
LINE
  5
4DC
100
AcDbEntity
  8
M0
 62
     1
100
AcDbLine
 10
124.915941
 20
397.793805
 11
124.915941
 21
398.693805
  0
LINE
  5
4DD
100
AcDbEntity
  8
M0
 62
     1
100
AcDbLine
 10
132.565941
 20
329.143805
 11
132.565941
 21
325.843805
  0
LINE
  5
4DE
100
AcDbEntity
  8
M0
 62
     1
100
AcDbLine
 10
112.465941
 20
329.643805
 11
109.465941
 21
329.643805
  0
LINE
  5
4DF
100
AcDbEntity
  8
M0
 62
     1
100
AcDbLine
 10
130.915941
 20
327.343805
 11
130.915941
 21
329.143805
  0
LINE
  5
4E0
100
AcDbEntity
  8
M0
 62
     1
100
AcDbLine
 10
127.915941
 20
329.143805
 11
127.915941
 21
325.843805
  0
LINE
  5
4E1
100
AcDbEntity
  8
M0
  6
DASHDOT
 62
     1
100
AcDbLine
 10
112.315941
 20
398.643805
 11
113.315941
 21
398.643805
  0
LINE
  5
4E2
100
AcDbEntity
  8
M0
 62
     1
100
AcDbLine
 10
102.215941
 20
328.843805
 11
102.215941
 21
342.143807
  0
LINE
  5
4E3
100
AcDbEntity
  8
M0
 62
     1
100
AcDbLine
 10
128.415941
 20
325.343805
 11
140.215941
 21
325.343805
  0
LINE
  5
4E4
100
AcDbEntity
  8
M0
 62
     1
100
AcDbLine
 10
141.465941
 20
334.443805
 11
141.465941
 21
334.043805
  0
LINE
  5
4E5
100
AcDbEntity
  8
M0
 62
     1
100
AcDbLine
 10
112.512002
 20
325.343805
 11
105.715941
 21
325.343805
  0
LINE
  5
4E6
100
AcDbEntity
  8
M0
 62
     1
100
AcDbLine
 10
124.940941
 20
342.143807
 11
124.940941
 21
335.918805
  0
LINE
  5
4E7
100
AcDbEntity
  8
M0
  6
DASHDOT
 62
     1
100
AcDbLine
 10
138.865941
 20
338.743805
 11
138.865941
 21
339.743805
  0
LINE
  5
4E8
100
AcDbEntity
  8
M0
 62
     1
100
AcDbLine
 10
125.440941
 20
335.418805
 11
132.090941
 21
335.418805
  0
LINE
  5
4E9
100
AcDbEntity
  8
M0
 62
     1
100
AcDbLine
 10
132.590941
 20
335.918805
 11
132.590941
 21
342.143807
  0
LINE
  5
4EA
100
AcDbEntity
  8
M0
 62
     1
100
AcDbLine
 10
142.690941
 20
335.918805
 11
142.690941
 21
342.143807
  0
ARC
  5
4EB
100
AcDbEntity
  8
M0
 62
     1
100
AcDbCircle
 10
117.815941
 20
404.043805
 40
0.5
100
AcDbArc
 50
0.0
 51
90.0
  0
LINE
  5
4EC
100
AcDbEntity
  8
M0
 62
     1
100
AcDbLine
 10
135.540941
 20
335.418805
 11
142.190941
 21
335.418805
  0
LINE
  5
4ED
100
AcDbEntity
  8
M0
  6
DASHDOT
 62
     1
100
AcDbLine
 10
138.365941
 20
339.243805
 11
139.365941
 21
339.243805
  0
LINE
  5
4EE
100
AcDbEntity
  8
M0
  6
DASHDOT
 62
     1
100
AcDbLine
 10
118.165941
 20
339.243805
 11
119.165941
 21
339.243805
  0
LINE
  5
4EF
100
AcDbEntity
  8
M0
 62
     1
100
AcDbLine
 10
104.740941
 20
342.143807
 11
104.740941
 21
335.918805
  0
LINE
  5
4F0
100
AcDbEntity
  8
M0
  6
DASHDOT
 62
     1
100
AcDbLine
 10
118.665941
 20
338.743805
 11
118.665941
 21
339.743805
  0
LINE
  5
4F1
100
AcDbEntity
  8
M0
 62
     1
100
AcDbLine
 10
112.390941
 20
335.918805
 11
112.390941
 21
342.143807
  0
LINE
  5
4F2
100
AcDbEntity
  8
M0
  6
DASHDOT
 62
     1
100
AcDbLine
 10
128.765941
 20
338.743805
 11
128.765941
 21
339.743805
  0
LINE
  5
4F3
100
AcDbEntity
  8
M0
  6
DASHDOT
 62
     1
100
AcDbLine
 10
128.265941
 20
339.243805
 11
129.265941
 21
339.243805
  0
LINE
  5
4F4
100
AcDbEntity
  8
M0
 62
     1
100
AcDbLine
 10
122.490941
 20
335.918805
 11
122.490941
 21
342.143807
  0
LINE
  5
4F5
100
AcDbEntity
  8
M0
 62
     1
100
AcDbLine
 10
114.840941
 20
342.143807
 11
114.840941
 21
335.918805
  0
CIRCLE
  5
4F6
100
AcDbEntity
  8
M0
 62
     1
100
AcDbCircle
 10
118.665941
 20
327.643805
 40
2.85
  0
ARC
  5
4F7
100
AcDbEntity
  8
M0
 62
     1
100
AcDbCircle
 10
128.415941
 20
325.843805
 40
0.5
100
AcDbArc
 50
180.0
 51
270.0
  0
ARC
  5
4F8
100
AcDbEntity
  8
M0
 62
     1
100
AcDbCircle
 10
141.215941
 20
391.843805
 40
2.25
100
AcDbArc
 50
257.160412
 51
462.839588
  0
ARC
  5
4F9
100
AcDbEntity
  8
M0
 62
     1
100
AcDbCircle
 10
132.065941
 20
325.843805
 40
0.5
100
AcDbArc
 50
270.0
 51
360.0
  0
LINE
  5
4FA
100
AcDbEntity
  8
M0
 62
     1
100
AcDbLine
 10
144.215941
 20
331.343805
 11
143.765941
 21
331.343805
  0
LINE
  5
4FB
100
AcDbEntity
  8
M0
 62
     1
100
AcDbLine
 10
142.765941
 20
332.343805
 11
142.765941
 21
342.143807
  0
ARC
  5
4FC
100
AcDbEntity
  8
M0
 62
     1
100
AcDbCircle
 10
106.215941
 20
331.843805
 40
2.25
100
AcDbArc
 50
191.257189
 51
493.542219
  0
ARC
  5
4FD
100
AcDbEntity
  8
M0
 62
     1
100
AcDbCircle
 10
141.215941
 20
337.043805
 40
2.25
100
AcDbArc
 50
286.791447
 51
313.542219
  0
ARC
  5
4FE
100
AcDbEntity
  8
M0
 62
     1
100
AcDbCircle
 10
106.215941
 20
389.043805
 40
2.25
100
AcDbArc
 50
77.160412
 51
180.0
  0
ARC
  5
4FF
100
AcDbEntity
  8
M0
 62
     1
100
AcDbCircle
 10
139.215941
 20
334.043805
 40
2.25
100
AcDbArc
 50
180.0
 51
360.0
  0
ARC
  5
500
100
AcDbEntity
  8
M0
 62
     1
100
AcDbCircle
 10
107.215941
 20
389.043805
 40
5.0
100
AcDbArc
 50
95.73917
 51
180.0
  0
ARC
  5
501
100
AcDbEntity
  8
M0
 62
     1
100
AcDbCircle
 10
139.515941
 20
403.943805
 40
0.6
100
AcDbArc
 50
90.0
 51
180.0
  0
ARC
  5
502
100
AcDbEntity
  8
M0
 62
     1
100
AcDbCircle
 10
107.915941
 20
403.943805
 40
0.6
100
AcDbArc
 50
0.0
 51
90.0
  0
ARC
  5
503
100
AcDbEntity
  8
M0
 62
     1
100
AcDbCircle
 10
128.715941
 20
326.643805
 40
2.0
100
AcDbArc
 50
270.0
 51
319.458398
  0
ARC
  5
504
100
AcDbEntity
  8
M0
 62
     1
100
AcDbCircle
 10
107.315941
 20
403.943805
 40
0.6
100
AcDbArc
 50
90.0
 51
180.0
  0
ARC
  5
505
100
AcDbEntity
  8
M0
 62
     1
100
AcDbCircle
 10
140.115941
 20
403.943805
 40
0.6
100
AcDbArc
 50
0.0
 51
90.0
  0
LINE
  5
506
100
AcDbEntity
  8
M0
 62
     1
100
AcDbLine
 10
128.715941
 20
324.643805
 11
113.765941
 21
324.643805
  0
LINE
  5
507
100
AcDbEntity
  8
M0
 62
     1
100
AcDbLine
 10
107.315941
 20
404.543805
 11
107.915941
 21
404.543805
  0
LINE
  5
508
100
AcDbEntity
  8
M0
 62
     1
100
AcDbLine
 10
124.865941
 20
326.643805
 11
127.915941
 21
326.643805
  0
LINE
  5
509
100
AcDbEntity
  8
M0
 62
     1
100
AcDbLine
 10
140.715941
 20
401.543805
 11
140.715941
 21
394.643805
  0
LINE
  5
50A
100
AcDbEntity
  8
M0
 62
     1
100
AcDbLine
 10
108.515941
 20
394.543805
 11
108.515941
 21
403.943805
  0
LINE
  5
50B
100
AcDbEntity
  8
M0
 62
     1
100
AcDbLine
 10
118.215941
 20
327.193805
 11
118.215941
 21
326.443805
  0
LINE
  5
50C
100
AcDbEntity
  8
M0
 62
     1
100
AcDbLine
 10
118.215941
 20
326.443805
 11
119.115941
 21
326.443805
  0
LINE
  5
50D
100
AcDbEntity
  8
M0
 62
     1
100
AcDbLine
 10
140.715941
 20
401.543805
 11
140.715941
 21
403.943805
  0
LINE
  5
50E
100
AcDbEntity
  8
M0
 62
     1
100
AcDbLine
 10
119.865941
 20
327.193805
 11
119.115941
 21
327.193805
  0
LINE
  5
50F
100
AcDbEntity
  8
M0
 62
     1
100
AcDbLine
 10
139.515941
 20
404.543805
 11
140.115941
 21
404.543805
  0
LINE
  5
510
100
AcDbEntity
  8
M0
 62
     1
100
AcDbLine
 10
103.665941
 20
331.343805
 11
103.215941
 21
331.343805
  0
LINE
  5
511
100
AcDbEntity
  8
M0
 62
     1
100
AcDbLine
 10
107.515941
 20
363.793805
 11
107.515941
 21
362.543805
  0
LINE
  5
512
100
AcDbEntity
  8
M0
 62
     1
100
AcDbLine
 10
130.715941
 20
329.143805
 11
130.715941
 21
327.343805
  0
LINE
  5
513
100
AcDbEntity
  8
M0
 62
     1
100
AcDbLine
 10
107.715941
 20
362.543805
 11
107.515941
 21
362.543805
  0
LINE
  5
514
100
AcDbEntity
  8
M0
  6
DASHDOT
 62
     1
100
AcDbLine
 10
128.765941
 20
380.543805
 11
128.765941
 21
381.543805
  0
LINE
  5
515
100
AcDbEntity
  8
M0
  6
DASHDOT
 62
     1
100
AcDbLine
 10
128.265941
 20
381.043805
 11
129.265941
 21
381.043805
  0
LINE
  5
516
100
AcDbEntity
  8
M0
 62
     1
100
AcDbLine
 10
116.640941
 20
395.318805
 11
116.640941
 21
401.968805
  0
LINE
  5
517
100
AcDbEntity
  8
M0
 62
     1
100
AcDbLine
 10
108.990941
 20
401.968805
 11
108.990941
 21
395.318805
  0
LINE
  5
518
100
AcDbEntity
  8
M0
 62
     1
100
AcDbLine
 10
109.490941
 20
394.818805
 11
116.140941
 21
394.818805
  0
LINE
  5
519
100
AcDbEntity
  8
M0
 62
     1
100
AcDbLine
 10
124.940941
 20
384.368805
 11
124.940941
 21
378.143805
  0
LINE
  5
51A
100
AcDbEntity
  8
M0
  6
DASHDOT
 62
     1
100
AcDbLine
 10
118.665941
 20
380.543805
 11
118.665941
 21
381.543805
  0
LINE
  5
51B
100
AcDbEntity
  8
M0
 62
     1
100
AcDbLine
 10
132.590941
 20
378.143805
 11
132.590941
 21
384.368805
  0
LINE
  5
51C
100
AcDbEntity
  8
M0
 62
     1
100
AcDbLine
 10
132.090941
 20
384.868805
 11
125.440941
 21
384.868805
  0
LINE
  5
51D
100
AcDbEntity
  8
M0
 62
     1
100
AcDbLine
 10
111.890941
 20
384.868805
 11
105.240941
 21
384.868805
  0
LINE
  5
51E
100
AcDbEntity
  8
M0
  6
DASHDOT
 62
     1
100
AcDbLine
 10
108.565941
 20
380.543805
 11
108.565941
 21
381.543805
  0
LINE
  5
51F
100
AcDbEntity
  8
M0
  6
DASHDOT
 62
     1
100
AcDbLine
 10
108.065941
 20
381.043805
 11
109.065941
 21
381.043805
  0
LINE
  5
520
100
AcDbEntity
  8
M0
 62
     1
100
AcDbLine
 10
130.790941
 20
401.968805
 11
130.790941
 21
395.318805
  0
LINE
  5
521
100
AcDbEntity
  8
M0
  6
DASHDOT
 62
     1
100
AcDbLine
 10
112.315941
 20
398.643805
 11
113.315941
 21
398.643805
  0
LINE
  5
522
100
AcDbEntity
  8
M0
 62
     1
100
AcDbLine
 10
116.140941
 20
402.468805
 11
109.490941
 21
402.468805
  0
LINE
  5
523
100
AcDbEntity
  8
M0
 62
     1
100
AcDbLine
 10
104.740941
 20
384.368805
 11
104.740941
 21
378.143805
  0
LINE
  5
524
100
AcDbEntity
  8
M0
  6
DASHDOT
 62
     1
100
AcDbLine
 10
112.815941
 20
398.143805
 11
112.815941
 21
399.143805
  0
LINE
  5
525
100
AcDbEntity
  8
M0
 62
     1
100
AcDbLine
 10
112.390941
 20
378.143805
 11
112.390941
 21
384.368805
  0
ARC
  5
526
100
AcDbEntity
  8
M0
 62
     1
100
AcDbCircle
 10
113.765941
 20
328.943805
 40
1.0
100
AcDbArc
 50
270.0
 51
360.0
  0
ARC
  5
527
100
AcDbEntity
  8
M0
 62
     1
100
AcDbCircle
 10
133.965941
 20
328.943805
 40
1.0
100
AcDbArc
 50
270.0
 51
360.0
  0
ARC
  5
528
100
AcDbEntity
  8
M0
 62
     1
100
AcDbCircle
 10
113.465941
 20
328.943805
 40
1.0
100
AcDbArc
 50
180.0
 51
270.0
  0
ARC
  5
529
100
AcDbEntity
  8
M0
 62
     1
100
AcDbCircle
 10
123.865941
 20
328.943805
 40
1.0
100
AcDbArc
 50
270.0
 51
360.0
  0
LINE
  5
52A
100
AcDbEntity
  8
M0
 62
     1
100
AcDbLine
 10
135.040941
 20
384.368805
 11
135.040941
 21
378.143805
  0
ARC
  5
52B
100
AcDbEntity
  8
M0
 62
     1
100
AcDbCircle
 10
136.565941
 20
325.843805
 40
0.5
100
AcDbArc
 50
180.0
 51
270.0
  0
ARC
  5
52C
100
AcDbEntity
  8
M0
 62
     1
100
AcDbCircle
 10
140.215941
 20
330.343805
 40
5.0
100
AcDbArc
 50
270.0
 51
360.0
  0
ARC
  5
52D
100
AcDbEntity
  8
M0
 62
     1
100
AcDbCircle
 10
108.965941
 20
325.843805
 40
0.5
100
AcDbArc
 50
270.0
 51
360.0
  0
ARC
  5
52E
100
AcDbEntity
  8
M0
 62
     1
100
AcDbCircle
 10
105.715941
 20
328.843805
 40
3.5
100
AcDbArc
 50
180.0
 51
270.0
  0
LINE
  5
52F
100
AcDbEntity
  8
M0
 62
     1
100
AcDbLine
 10
122.490941
 20
378.143805
 11
122.490941
 21
384.368805
  0
LINE
  5
530
100
AcDbEntity
  8
M0
 62
     1
100
AcDbLine
 10
114.840941
 20
384.368805
 11
114.840941
 21
378.143805
  0
LINE
  5
531
100
AcDbEntity
  8
M0
 62
     1
100
AcDbLine
 10
121.990941
 20
384.868805
 11
115.340941
 21
384.868805
  0
LINE
  5
532
100
AcDbEntity
  8
M0
  6
DASHDOT
 62
     1
100
AcDbLine
 10
118.165941
 20
381.043805
 11
119.165941
 21
381.043805
  0
LINE
  5
533
100
AcDbEntity
  8
M0
 62
     1
100
AcDbLine
 10
142.690941
 20
378.143805
 11
142.690941
 21
384.368805
  0
LINE
  5
534
100
AcDbEntity
  8
M0
  6
DASHDOT
 62
     1
100
AcDbLine
 10
138.365941
 20
381.043805
 11
139.365941
 21
381.043805
  0
LINE
  5
535
100
AcDbEntity
  8
M0
 62
     1
100
AcDbLine
 10
142.190941
 20
384.868805
 11
135.540941
 21
384.868805
  0
LINE
  5
536
100
AcDbEntity
  8
M0
 62
     1
100
AcDbLine
 10
118.415941
 20
393.043805
 11
118.415941
 21
394.960472
  0
LINE
  5
537
100
AcDbEntity
  8
M0
 62
     1
100
AcDbLine
 10
119.415941
 20
394.543805
 11
128.015941
 21
394.543805
  0
LINE
  5
538
100
AcDbEntity
  8
M0
 62
     1
100
AcDbLine
 10
118.415941
 20
393.043805
 11
129.015941
 21
393.043805
  0
LINE
  5
539
100
AcDbEntity
  8
M0
 62
     1
100
AcDbLine
 10
119.415941
 20
403.043805
 11
128.015941
 21
403.043805
  0
LINE
  5
53A
100
AcDbEntity
  8
M0
 62
     1
100
AcDbLine
 10
112.465941
 20
390.943805
 11
106.715941
 21
390.943805
  0
LINE
  5
53B
100
AcDbEntity
  8
M0
 62
     1
100
AcDbLine
 10
106.715941
 20
403.943805
 11
106.715941
 21
385.843805
  0
LINE
  5
53C
100
AcDbEntity
  8
M0
 62
     1
100
AcDbLine
 10
129.015941
 20
390.943805
 11
129.015941
 21
393.043805
  0
LINE
  5
53D
100
AcDbEntity
  8
M0
 62
     1
100
AcDbLine
 10
118.415941
 20
393.043805
 11
118.415941
 21
390.943805
  0
LINE
  5
53E
100
AcDbEntity
  8
M0
 62
     1
100
AcDbLine
 10
129.015941
 20
393.043805
 11
129.015941
 21
394.960472
  0
LINE
  5
53F
100
AcDbEntity
  8
M0
 62
     1
100
AcDbLine
 10
132.665941
 20
329.143805
 11
124.865941
 21
329.143805
  0
LINE
  5
540
100
AcDbEntity
  8
M0
 62
     1
100
AcDbLine
 10
120.565941
 20
331.143805
 11
116.765941
 21
331.143805
  0
LINE
  5
541
100
AcDbEntity
  8
M0
 62
     1
100
AcDbLine
 10
140.715941
 20
390.943805
 11
134.965941
 21
390.943805
  0
LINE
  5
542
100
AcDbEntity
  8
M0
 62
     1
100
AcDbLine
 10
124.865941
 20
390.943805
 11
132.665941
 21
390.943805
  0
LINE
  5
543
100
AcDbEntity
  8
M0
 62
     1
100
AcDbLine
 10
140.715941
 20
385.843805
 11
140.715941
 21
390.943805
  0
LINE
  5
544
100
AcDbEntity
  8
M0
 62
     1
100
AcDbLine
 10
113.465941
 20
392.343805
 11
113.665941
 21
392.343805
  0
LINE
  5
545
100
AcDbEntity
  8
M0
 62
     1
100
AcDbLine
 10
122.565941
 20
378.143805
 11
122.565941
 21
391.343805
  0
LINE
  5
546
100
AcDbEntity
  8
M0
 62
     1
100
AcDbLine
 10
143.765941
 20
388.943805
 11
144.215941
 21
388.943805
  0
LINE
  5
547
100
AcDbEntity
  8
M0
 62
     1
100
AcDbLine
 10
114.765941
 20
391.343805
 11
114.765941
 21
388.343805
  0
LINE
  5
548
100
AcDbEntity
  8
M0
 62
     1
100
AcDbLine
 10
104.665941
 20
387.943805
 11
104.665941
 21
383.943805
  0
LINE
  5
549
100
AcDbEntity
  8
M0
 62
     1
100
AcDbLine
 10
104.665941
 20
342.143807
 11
104.665941
 21
336.343805
  0
LINE
  5
54A
100
AcDbEntity
  8
M0
 62
     1
100
AcDbLine
 10
105.565941
 20
385.843805
 11
111.565941
 21
385.843805
  0
LINE
  5
54B
100
AcDbEntity
  8
M0
 62
     1
100
AcDbLine
 10
133.765941
 20
392.343805
 11
133.965941
 21
392.343805
  0
LINE
  5
54C
100
AcDbEntity
  8
M0
 62
     1
100
AcDbLine
 10
104.665941
 20
336.343805
 11
104.665941
 21
332.343805
  0
LINE
  5
54D
100
AcDbEntity
  8
M0
 62
     1
100
AcDbLine
 10
133.665941
 20
392.343805
 11
133.765941
 21
392.343805
  0
LINE
  5
54E
100
AcDbEntity
  8
M0
 62
     1
100
AcDbLine
 10
103.215941
 20
388.943805
 11
103.665941
 21
388.943805
  0
LINE
  5
54F
100
AcDbEntity
  8
M0
 62
     1
100
AcDbLine
 10
104.665941
 20
383.943805
 11
104.665941
 21
378.143805
  0
LINE
  5
550
100
AcDbEntity
  8
M0
 62
     1
100
AcDbLine
 10
118.415941
 20
394.960472
 11
118.415941
 21
402.043805
  0
LINE
  5
551
100
AcDbEntity
  8
M0
 62
     1
100
AcDbLine
 10
129.015941
 20
402.043805
 11
129.015941
 21
394.960472
  0
LINE
  5
552
100
AcDbEntity
  8
M0
 62
     1
100
AcDbLine
 10
106.715941
 20
391.043805
 11
106.715941
 21
390.943805
  0
LINE
  5
553
100
AcDbEntity
  8
M0
 62
     1
100
AcDbLine
 10
138.115941
 20
403.043805
 11
138.915941
 21
403.043805
  0
LINE
  5
554
100
AcDbEntity
  8
M0
 62
     1
100
AcDbLine
 10
140.715941
 20
390.943805
 11
140.715941
 21
391.043805
  0
LINE
  5
555
100
AcDbEntity
  8
M0
 62
     1
100
AcDbLine
 10
106.715941
 20
394.643805
 11
106.715941
 21
394.543805
  0
LINE
  5
556
100
AcDbEntity
  8
M0
 62
     1
100
AcDbLine
 10
140.715941
 20
394.543805
 11
140.715941
 21
394.643805
  0
ARC
  5
557
100
AcDbEntity
  8
M0
 62
     1
100
AcDbCircle
 10
123.565941
 20
391.343805
 40
1.0
100
AcDbArc
 50
90.0
 51
180.0
  0
ARC
  5
558
100
AcDbEntity
  8
M0
 62
     1
100
AcDbCircle
 10
103.665941
 20
332.343805
 40
1.0
100
AcDbArc
 50
270.0
 51
360.0
  0
LINE
  5
559
100
AcDbEntity
  8
M0
 62
     1
100
AcDbLine
 10
129.415941
 20
329.143805
 11
129.415941
 21
327.343805
  0
ARC
  5
55A
100
AcDbEntity
  8
M0
 62
     1
100
AcDbCircle
 10
113.765941
 20
391.343805
 40
1.0
100
AcDbArc
 50
0.0
 51
90.0
  0
LINE
  5
55B
100
AcDbEntity
  8
M0
 62
     1
100
AcDbLine
 10
108.515941
 20
403.043805
 11
116.815941
 21
403.043805
  0
LINE
  5
55C
100
AcDbEntity
  8
M0
 62
     1
100
AcDbLine
 10
119.115941
 20
328.843805
 11
118.215941
 21
328.843805
  0
LINE
  5
55D
100
AcDbEntity
  8
M0
 62
     1
100
AcDbLine
 10
119.115941
 20
328.093805
 11
119.865941
 21
328.093805
  0
LINE
  5
55E
100
AcDbEntity
  8
M0
 62
     1
100
AcDbLine
 10
118.215941
 20
327.193805
 11
117.465941
 21
327.193805
  0
LINE
  5
55F
100
AcDbEntity
  8
M0
 62
     1
100
AcDbLine
 10
119.115941
 20
326.443805
 11
119.115941
 21
327.193805
  0
LINE
  5
560
100
AcDbEntity
  8
M0
  6
DASHDOT
 62
     1
100
AcDbLine
 10
138.865941
 20
380.543805
 11
138.865941
 21
381.543805
  0
LINE
  5
561
100
AcDbEntity
  8
M0
 62
     1
100
AcDbLine
 10
108.515941
 20
394.543805
 11
108.515941
 21
394.643805
  0
LINE
  5
562
100
AcDbEntity
  8
M0
 62
     1
100
AcDbLine
 10
138.915941
 20
403.943805
 11
138.915941
 21
394.543805
  0
LINE
  5
563
100
AcDbEntity
  8
M0
 62
     1
100
AcDbLine
 10
117.465941
 20
328.093805
 11
118.215941
 21
328.093805
  0
LINE
  5
564
100
AcDbEntity
  8
M0
 62
     1
100
AcDbLine
 10
119.115941
 20
328.093805
 11
119.115941
 21
328.843805
  0
LINE
  5
565
100
AcDbEntity
  8
M0
 62
     1
100
AcDbLine
 10
118.215941
 20
328.843805
 11
118.215941
 21
328.093805
  0
ARC
  5
566
100
AcDbEntity
  8
M0
 62
     1
100
AcDbCircle
 10
103.215941
 20
387.943805
 40
1.0
100
AcDbArc
 50
90.0
 51
180.0
  0
ARC
  5
567
100
AcDbEntity
  8
M0
 62
     1
100
AcDbCircle
 10
133.665941
 20
391.343805
 40
1.0
100
AcDbArc
 50
90.0
 51
180.0
  0
ARC
  5
568
100
AcDbEntity
  8
M0
 62
     1
100
AcDbCircle
 10
144.215941
 20
332.343805
 40
1.0
100
AcDbArc
 50
270.0
 51
360.0
  0
ARC
  5
569
100
AcDbEntity
  8
M0
 62
     1
100
AcDbCircle
 10
113.465941
 20
391.343805
 40
1.0
100
AcDbArc
 50
90.0
 51
180.0
  0
ARC
  5
56A
100
AcDbEntity
  8
M0
 62
     1
100
AcDbCircle
 10
103.215941
 20
332.343805
 40
1.0
100
AcDbArc
 50
180.0
 51
270.0
  0
ARC
  5
56B
100
AcDbEntity
  8
M0
 62
     1
100
AcDbCircle
 10
133.965941
 20
391.343805
 40
1.0
100
AcDbArc
 50
0.0
 51
90.0
  0
ARC
  5
56C
100
AcDbEntity
  8
M0
 62
     1
100
AcDbCircle
 10
143.765941
 20
332.343805
 40
1.0
100
AcDbArc
 50
180.0
 51
270.0
  0
ARC
  5
56D
100
AcDbEntity
  8
M0
 62
     1
100
AcDbCircle
 10
123.865941
 20
391.343805
 40
1.0
100
AcDbArc
 50
0.0
 51
90.0
  0
LINE
  5
56E
100
AcDbEntity
  8
M0
 62
     1
100
AcDbLine
 10
112.465941
 20
388.343805
 11
112.465941
 21
391.343805
  0
LINE
  5
56F
100
AcDbEntity
  8
M0
 62
     1
100
AcDbLine
 10
134.965941
 20
378.143805
 11
134.965941
 21
391.343805
  0
LINE
  5
570
100
AcDbEntity
  8
M0
 62
     1
100
AcDbLine
 10
124.865941
 20
378.143805
 11
124.865941
 21
391.343805
  0
LINE
  5
571
100
AcDbEntity
  8
M0
 62
     1
100
AcDbLine
 10
132.665941
 20
328.943805
 11
132.665941
 21
342.143807
  0
LINE
  5
572
100
AcDbEntity
  8
M0
 62
     1
100
AcDbLine
 10
123.565941
 20
341.943805
 11
123.865941
 21
341.943805
  0
LINE
  5
573
100
AcDbEntity
  8
M0
 62
     1
100
AcDbLine
 10
113.665941
 20
327.943805
 11
113.465941
 21
327.943805
  0
LINE
  5
574
100
AcDbEntity
  8
M0
 62
     1
100
AcDbLine
 10
123.765941
 20
327.943805
 11
123.665941
 21
327.943805
  0
LINE
  5
575
100
AcDbEntity
  8
M0
 62
     1
100
AcDbLine
 10
123.665941
 20
327.943805
 11
123.565941
 21
327.943805
  0
LINE
  5
576
100
AcDbEntity
  8
M0
 62
     1
100
AcDbLine
 10
123.865941
 20
327.943805
 11
123.765941
 21
327.943805
  0
LINE
  5
577
100
AcDbEntity
  8
M0
 62
     1
100
AcDbLine
 10
133.765941
 20
327.943805
 11
133.665941
 21
327.943805
  0
LINE
  5
578
100
AcDbEntity
  8
M0
 62
     1
100
AcDbLine
 10
133.965941
 20
327.943805
 11
133.765941
 21
327.943805
  0
ARC
  5
579
100
AcDbEntity
  8
M0
 62
     1
100
AcDbCircle
 10
113.465941
 20
326.143805
 40
1.0
100
AcDbArc
 50
180.0
 51
270.0
  0
ARC
  5
57A
100
AcDbEntity
  8
M0
 62
     1
100
AcDbCircle
 10
113.765941
 20
326.143805
 40
1.0
100
AcDbArc
 50
270.0
 51
360.0
  0
ARC
  5
57B
100
AcDbEntity
  8
M0
 62
     1
100
AcDbCircle
 10
123.865941
 20
326.143805
 40
1.0
100
AcDbArc
 50
270.0
 51
360.0
  0
ARC
  5
57C
100
AcDbEntity
  8
M0
 62
     1
100
AcDbCircle
 10
123.565941
 20
326.143805
 40
1.0
100
AcDbArc
 50
180.0
 51
270.0
  0
ELLIPSE
  5
57D
100
AcDbEntity
  8
M0
 62
     1
100
AcDbEllipse
 10
119.415941
 20
394.960472
 11
1.0
 21
0.0
210
0.0
220
0.0
230
1.0
 40
0.416667
 41
3.141592653589793
 42
4.71238898038469
  0
ELLIPSE
  5
57E
100
AcDbEntity
  8
M0
 62
     1
100
AcDbEllipse
 10
128.015941
 20
394.960472
 11
1.0
 21
0.0
210
0.0
220
0.0
230
1.0
 40
0.416667
 41
4.71238898038469
 42
6.283185307179586
  0
ARC
  5
57F
100
AcDbEntity
  8
M0
 62
     1
100
AcDbCircle
 10
123.565941
 20
379.343805
 40
1.0
100
AcDbArc
 50
180.0
 51
270.0
  0
ARC
  5
580
100
AcDbEntity
  8
M0
 62
     1
100
AcDbCircle
 10
123.865941
 20
379.343805
 40
1.0
100
AcDbArc
 50
270.0
 51
360.0
  0
ARC
  5
581
100
AcDbEntity
  8
M0
 62
     1
100
AcDbCircle
 10
123.565941
 20
328.943805
 40
1.0
100
AcDbArc
 50
180.0
 51
270.0
  0
ARC
  5
582
100
AcDbEntity
  8
M0
 62
     1
100
AcDbCircle
 10
133.665941
 20
379.343805
 40
1.0
100
AcDbArc
 50
180.0
 51
270.0
  0
ARC
  5
583
100
AcDbEntity
  8
M0
 62
     1
100
AcDbCircle
 10
133.665941
 20
328.943805
 40
1.0
100
AcDbArc
 50
180.0
 51
270.0
  0
ARC
  5
584
100
AcDbEntity
  8
M0
 62
     1
100
AcDbCircle
 10
113.765941
 20
340.943805
 40
1.0
100
AcDbArc
 50
0.0
 51
90.0
  0
ARC
  5
585
100
AcDbEntity
  8
M0
 62
     1
100
AcDbCircle
 10
123.865941
 20
340.943805
 40
1.0
100
AcDbArc
 50
0.0
 51
90.0
  0
ARC
  5
586
100
AcDbEntity
  8
M0
 62
     1
100
AcDbCircle
 10
113.465941
 20
379.343805
 40
1.0
100
AcDbArc
 50
180.0
 51
270.0
  0
ARC
  5
587
100
AcDbEntity
  8
M0
 62
     1
100
AcDbCircle
 10
113.765941
 20
379.343805
 40
1.0
100
AcDbArc
 50
270.0
 51
360.0
  0
LINE
  5
588
100
AcDbEntity
  8
M0
 62
     1
100
AcDbLine
 10
115.340941
 20
335.418805
 11
121.990941
 21
335.418805
  0
ARC
  5
589
100
AcDbEntity
  8
M0
 62
     1
100
AcDbCircle
 10
133.965941
 20
340.943805
 40
1.0
100
AcDbArc
 50
0.0
 51
90.0
  0
ARC
  5
58A
100
AcDbEntity
  8
M0
 62
     1
100
AcDbCircle
 10
133.665941
 20
340.943805
 40
1.0
100
AcDbArc
 50
90.0
 51
180.0
  0
ARC
  5
58B
100
AcDbEntity
  8
M0
 62
     1
100
AcDbCircle
 10
133.965941
 20
379.343805
 40
1.0
100
AcDbArc
 50
270.0
 51
360.0
  0
ARC
  5
58C
100
AcDbEntity
  8
M0
 62
     1
100
AcDbCircle
 10
113.465941
 20
340.943805
 40
1.0
100
AcDbArc
 50
90.0
 51
180.0
  0
ARC
  5
58D
100
AcDbEntity
  8
M0
 62
     1
100
AcDbCircle
 10
123.565941
 20
340.943805
 40
1.0
100
AcDbArc
 50
90.0
 51
180.0
  0
LINE
  5
58E
100
AcDbEntity
  8
M0
 62
     1
100
AcDbLine
 10
143.265941
 20
355.443805
 11
143.265941
 21
355.445056
  0
LINE
  5
58F
100
AcDbEntity
  8
M0
 62
     1
100
AcDbLine
 10
132.665941
 20
391.343805
 11
132.665941
 21
378.143805
  0
LINE
  5
590
100
AcDbEntity
  8
M0
 62
     1
100
AcDbLine
 10
143.265941
 20
364.842554
 11
143.265941
 21
364.843805
  0
LINE
  5
591
100
AcDbEntity
  8
M0
 62
     1
100
AcDbLine
 10
104.165941
 20
364.843805
 11
104.165941
 21
364.842554
  0
LINE
  5
592
100
AcDbEntity
  8
M0
 62
     1
100
AcDbLine
 10
113.765941
 20
327.943805
 11
113.665941
 21
327.943805
  0
LINE
  5
593
100
AcDbEntity
  8
M0
 62
     1
100
AcDbLine
 10
112.465941
 20
378.143805
 11
112.465941
 21
379.343805
  0
LINE
  5
594
100
AcDbEntity
  8
M0
 62
     1
100
AcDbLine
 10
134.965941
 20
342.143807
 11
134.965941
 21
328.943805
  0
LINE
  5
595
100
AcDbEntity
  8
M0
 62
     1
100
AcDbLine
 10
114.765941
 20
379.343805
 11
114.765941
 21
378.143805
  0
ARC
  5
596
100
AcDbEntity
  8
M0
 62
     1
100
AcDbCircle
 10
131.290941
 20
401.968805
 40
0.5
100
AcDbArc
 50
90.0
 51
180.0
  0
ARC
  5
597
100
AcDbEntity
  8
M0
 62
     1
100
AcDbCircle
 10
137.940941
 20
401.968805
 40
0.5
100
AcDbArc
 50
0.0
 51
90.0
  0
ARC
  5
598
100
AcDbEntity
  8
M0
 62
     1
100
AcDbCircle
 10
131.290941
 20
395.318805
 40
0.5
100
AcDbArc
 50
180.0
 51
270.0
  0
ARC
  5
599
100
AcDbEntity
  8
M0
 62
     1
100
AcDbCircle
 10
137.940941
 20
395.318805
 40
0.5
100
AcDbArc
 50
270.0
 51
360.0
  0
ARC
  5
59A
100
AcDbEntity
  8
M0
 62
     1
100
AcDbCircle
 10
116.140941
 20
395.318805
 40
0.5
100
AcDbArc
 50
270.0
 51
360.0
  0
ARC
  5
59B
100
AcDbEntity
  8
M0
 62
     1
100
AcDbCircle
 10
116.140941
 20
401.968805
 40
0.5
100
AcDbArc
 50
0.0
 51
90.0
  0
ARC
  5
59C
100
AcDbEntity
  8
M0
 62
     1
100
AcDbCircle
 10
105.240941
 20
384.368805
 40
0.5
100
AcDbArc
 50
90.0
 51
180.0
  0
ARC
  5
59D
100
AcDbEntity
  8
M0
 62
     1
100
AcDbCircle
 10
111.890941
 20
384.368805
 40
0.5
100
AcDbArc
 50
0.0
 51
90.0
  0
LINE
  5
59E
100
AcDbEntity
  8
M0
 62
     1
100
AcDbLine
 10
132.665941
 20
335.443805
 11
131.765941
 21
335.443805
  0
LINE
  5
59F
100
AcDbEntity
  8
M0
 62
     1
100
AcDbLine
 10
113.565941
 20
392.343805
 11
113.465941
 21
392.343805
  0
LINE
  5
5A0
100
AcDbEntity
  8
M0
 62
     1
100
AcDbLine
 10
133.965941
 20
392.343805
 11
133.865941
 21
392.343805
  0
LINE
  5
5A1
100
AcDbEntity
  8
M0
 62
     1
100
AcDbLine
 10
113.765941
 20
325.143805
 11
113.465941
 21
325.143805
  0
LINE
  5
5A2
100
AcDbEntity
  8
M0
 62
     1
100
AcDbLine
 10
115.665941
 20
335.443805
 11
114.765941
 21
335.443805
  0
LINE
  5
5A3
100
AcDbEntity
  8
M0
 62
     1
100
AcDbLine
 10
124.865941
 20
384.843805
 11
125.765941
 21
384.843805
  0
LINE
  5
5A4
100
AcDbEntity
  8
M0
 62
     1
100
AcDbLine
 10
122.565941
 20
335.443805
 11
121.665941
 21
335.443805
  0
LINE
  5
5A5
100
AcDbEntity
  8
M0
 62
     1
100
AcDbLine
 10
135.865941
 20
335.443805
 11
134.965941
 21
335.443805
  0
ARC
  5
5A6
100
AcDbEntity
  8
M0
 62
     1
100
AcDbCircle
 10
135.540941
 20
384.368805
 40
0.5
100
AcDbArc
 50
90.0
 51
180.0
  0
CIRCLE
  5
5A7
100
AcDbEntity
  8
M0
 62
     1
100
AcDbCircle
 10
112.815941
 20
398.643805
 40
3.0
  0
ARC
  5
5A8
100
AcDbEntity
  8
M0
 62
     1
100
AcDbCircle
 10
142.190941
 20
384.368805
 40
0.5
100
AcDbArc
 50
0.0
 51
90.0
  0
LINE
  5
5A9
100
AcDbEntity
  8
M0
 62
     1
100
AcDbLine
 10
131.290941
 20
394.818805
 11
137.940941
 21
394.818805
  0
LINE
  5
5AA
100
AcDbEntity
  8
M0
 62
     1
100
AcDbLine
 10
138.440941
 20
395.318805
 11
138.440941
 21
401.968805
  0
LINE
  5
5AB
100
AcDbEntity
  8
M0
  6
DASHDOT
 62
     1
100
AcDbLine
 10
134.115941
 20
398.643805
 11
135.115941
 21
398.643805
  0
LINE
  5
5AC
100
AcDbEntity
  8
M0
 62
     1
100
AcDbLine
 10
137.940941
 20
402.468805
 11
131.290941
 21
402.468805
  0
LINE
  5
5AD
100
AcDbEntity
  8
M0
  6
DASHDOT
 62
     1
100
AcDbLine
 10
134.615941
 20
398.143805
 11
134.615941
 21
399.143805
  0
ARC
  5
5AE
100
AcDbEntity
  8
M0
 62
     1
100
AcDbCircle
 10
132.090941
 20
384.368805
 40
0.5
100
AcDbArc
 50
0.0
 51
90.0
  0
ARC
  5
5AF
100
AcDbEntity
  8
M0
 62
     1
100
AcDbCircle
 10
109.490941
 20
401.968805
 40
0.5
100
AcDbArc
 50
90.0
 51
180.0
  0
ARC
  5
5B0
100
AcDbEntity
  8
M0
 62
     1
100
AcDbCircle
 10
109.490941
 20
395.318805
 40
0.5
100
AcDbArc
 50
180.0
 51
270.0
  0
ARC
  5
5B1
100
AcDbEntity
  8
M0
 62
     1
100
AcDbCircle
 10
115.340941
 20
384.368805
 40
0.5
100
AcDbArc
 50
90.0
 51
180.0
  0
ARC
  5
5B2
100
AcDbEntity
  8
M0
 62
     1
100
AcDbCircle
 10
121.990941
 20
384.368805
 40
0.5
100
AcDbArc
 50
0.0
 51
90.0
  0
LINE
  5
5B3
100
AcDbEntity
  8
M0
 62
     1
100
AcDbLine
 10
142.765941
 20
387.943805
 11
142.765941
 21
378.143805
  0
LINE
  5
5B4
100
AcDbEntity
  8
M0
 62
     1
100
AcDbLine
 10
143.965941
 20
388.943805
 11
143.765941
 21
388.943805
  0
LINE
  5
5B5
100
AcDbEntity
  8
M0
 62
     1
100
AcDbLine
 10
142.765941
 20
333.343805
 11
142.765941
 21
332.343805
  0
LINE
  5
5B6
100
AcDbEntity
  8
M0
 62
     1
100
AcDbLine
 10
143.965941
 20
331.343805
 11
143.765941
 21
331.343805
  0
LINE
  5
5B7
100
AcDbEntity
  8
M0
 62
     1
100
AcDbLine
 10
104.665941
 20
332.343805
 11
104.665941
 21
333.343805
  0
LINE
  5
5B8
100
AcDbEntity
  8
M0
 62
     1
100
AcDbLine
 10
104.665941
 20
333.343805
 11
104.665941
 21
334.343805
  0
LINE
  5
5B9
100
AcDbEntity
  8
M0
 62
     1
100
AcDbLine
 10
114.765941
 20
334.343805
 11
114.765941
 21
333.343805
  0
LINE
  5
5BA
100
AcDbEntity
  8
M0
 62
     1
100
AcDbLine
 10
104.665941
 20
385.943805
 11
104.665941
 21
386.943805
  0
LINE
  5
5BB
100
AcDbEntity
  8
M0
 62
     1
100
AcDbLine
 10
142.765941
 20
334.343805
 11
142.765941
 21
333.343805
  0
LINE
  5
5BC
100
AcDbEntity
  8
M0
 62
     1
100
AcDbLine
 10
114.765941
 20
385.943805
 11
114.765941
 21
386.943805
  0
LINE
  5
5BD
100
AcDbEntity
  8
M0
 62
     1
100
AcDbLine
 10
103.465941
 20
388.943805
 11
103.665941
 21
388.943805
  0
LINE
  5
5BE
100
AcDbEntity
  8
M0
 62
     1
100
AcDbLine
 10
103.465941
 20
331.343805
 11
103.665941
 21
331.343805
  0
LINE
  5
5BF
100
AcDbEntity
  8
M0
 62
     1
100
AcDbLine
 10
104.665941
 20
386.943805
 11
104.665941
 21
387.943805
  0
LINE
  5
5C0
100
AcDbEntity
  8
M0
 62
     1
100
AcDbLine
 10
114.765941
 20
386.943805
 11
114.765941
 21
391.343805
  0
LINE
  5
5C1
100
AcDbEntity
  8
M0
 62
     1
100
AcDbLine
 10
114.765941
 20
384.843805
 11
115.665941
 21
384.843805
  0
LINE
  5
5C2
100
AcDbEntity
  8
M0
 62
     1
100
AcDbLine
 10
141.865941
 20
384.843805
 11
142.765941
 21
384.843805
  0
LINE
  5
5C3
100
AcDbEntity
  8
M0
 62
     1
100
AcDbLine
 10
111.565941
 20
384.843805
 11
112.465941
 21
384.843805
  0
LINE
  5
5C4
100
AcDbEntity
  8
M0
 62
     1
100
AcDbLine
 10
104.665941
 20
384.843805
 11
105.565941
 21
384.843805
  0
LINE
  5
5C5
100
AcDbEntity
  8
M0
 62
     1
100
AcDbLine
 10
114.765941
 20
388.343805
 11
114.765941
 21
379.343805
  0
ARC
  5
5C6
100
AcDbEntity
  8
M0
 62
     1
100
AcDbCircle
 10
125.440941
 20
384.368805
 40
0.5
100
AcDbArc
 50
90.0
 51
180.0
  0
LINE
  5
5C7
100
AcDbEntity
  8
M0
 62
     1
100
AcDbLine
 10
134.965941
 20
384.843805
 11
135.865941
 21
384.843805
  0
LINE
  5
5C8
100
AcDbEntity
  8
M0
 62
     1
100
AcDbLine
 10
123.865941
 20
325.143805
 11
123.565941
 21
325.143805
  0
LINE
  5
5C9
100
AcDbEntity
  8
M0
 62
     1
100
AcDbLine
 10
123.765941
 20
392.343805
 11
123.865941
 21
392.343805
  0
LINE
  5
5CA
100
AcDbEntity
  8
M0
 62
     1
100
AcDbLine
 10
113.765941
 20
378.343805
 11
113.465941
 21
378.343805
  0
LINE
  5
5CB
100
AcDbEntity
  8
M0
 62
     1
100
AcDbLine
 10
123.665941
 20
392.343805
 11
123.765941
 21
392.343805
  0
LINE
  5
5CC
100
AcDbEntity
  8
M0
 62
     1
100
AcDbLine
 10
112.465941
 20
379.343805
 11
112.465941
 21
388.343805
  0
LINE
  5
5CD
100
AcDbEntity
  8
M0
 62
     1
100
AcDbLine
 10
113.665941
 20
392.343805
 11
113.765941
 21
392.343805
  0
LINE
  5
5CE
100
AcDbEntity
  8
M0
 62
     1
100
AcDbLine
 10
133.665941
 20
341.943805
 11
133.965941
 21
341.943805
  0
LINE
  5
5CF
100
AcDbEntity
  8
M0
 62
     1
100
AcDbLine
 10
123.565941
 20
392.343805
 11
123.665941
 21
392.343805
  0
LINE
  5
5D0
100
AcDbEntity
  8
M0
 62
     1
100
AcDbLine
 10
133.965941
 20
378.343805
 11
133.665941
 21
378.343805
  0
LINE
  5
5D1
100
AcDbEntity
  8
M0
 62
     1
100
AcDbLine
 10
113.465941
 20
341.943805
 11
113.765941
 21
341.943805
  0
LINE
  5
5D2
100
AcDbEntity
  8
M0
 62
     1
100
AcDbLine
 10
123.865941
 20
378.343805
 11
123.565941
 21
378.343805
  0
LINE
  5
5D3
100
AcDbEntity
  8
M0
 62
     1
100
AcDbLine
 10
145.215941
 20
342.143807
 11
145.215941
 21
330.343805
  0
LINE
  5
5D4
100
AcDbEntity
  8
M0
 62
     1
100
AcDbLine
 10
49.215941
 20
378.143805
 11
49.215941
 21
389.043805
  0
LINE
  5
5D5
100
AcDbEntity
  8
M0
 62
     1
100
AcDbLine
 10
92.215941
 20
342.143807
 11
92.215941
 21
330.343805
  0
ARC
  5
5D6
100
AcDbEntity
  8
M0
 62
     1
100
AcDbCircle
 10
85.865941
 20
339.243805
 40
3.0
100
AcDbArc
 50
104.834996
 51
435.165004
  0
ARC
  5
5D7
100
AcDbEntity
  8
M0
 62
     1
100
AcDbCircle
 10
75.765941
 20
339.243805
 40
3.0
100
AcDbArc
 50
104.834996
 51
435.165004
  0
ARC
  5
5D8
100
AcDbEntity
  8
M0
 62
     1
100
AcDbCircle
 10
65.665941
 20
339.243805
 40
3.0
100
AcDbArc
 50
104.834996
 51
435.165004
  0
ARC
  5
5D9
100
AcDbEntity
  8
M0
 62
     1
100
AcDbCircle
 10
55.565941
 20
339.243805
 40
3.0
100
AcDbArc
 50
104.834996
 51
435.165004
  0
ARC
  5
5DA
100
AcDbEntity
  8
M0
 62
     1
100
AcDbCircle
 10
55.565941
 20
381.043805
 40
3.0
100
AcDbArc
 50
284.835112
 51
615.164888
  0
ARC
  5
5DB
100
AcDbEntity
  8
M0
 62
     1
100
AcDbCircle
 10
65.665941
 20
381.043805
 40
3.0
100
AcDbArc
 50
284.835112
 51
615.164888
  0
ARC
  5
5DC
100
AcDbEntity
  8
M0
 62
     1
100
AcDbCircle
 10
75.765941
 20
381.043805
 40
3.0
100
AcDbArc
 50
284.835112
 51
615.164888
  0
ARC
  5
5DD
100
AcDbEntity
  8
M0
 62
     1
100
AcDbCircle
 10
85.865941
 20
381.043805
 40
3.0
100
AcDbArc
 50
284.835112
 51
615.164888
  0
LINE
  5
5DE
100
AcDbEntity
  8
M0
 62
     1
100
AcDbLine
 10
104.165941
 20
364.843805
 11
104.165941
 21
364.842554
  0
LINE
  5
5DF
100
AcDbEntity
  8
M0
 62
     1
100
AcDbLine
 10
107.515941
 20
363.793805
 11
107.515941
 21
362.543805
  0
LINE
  5
5E0
100
AcDbEntity
  8
M0
 62
     1
100
AcDbLine
 10
107.715941
 20
362.543805
 11
107.515941
 21
362.543805
  0
ARC
  5
5E1
100
AcDbEntity
  8
M0
 62
     1
100
AcDbCircle
 10
138.865941
 20
381.043805
 40
3.0
100
AcDbArc
 50
284.835112
 51
615.164888
  0
ARC
  5
5E2
100
AcDbEntity
  8
M0
 62
     1
100
AcDbCircle
 10
128.765941
 20
381.043805
 40
3.0
100
AcDbArc
 50
284.835112
 51
615.164888
  0
ARC
  5
5E3
100
AcDbEntity
  8
M0
 62
     1
100
AcDbCircle
 10
118.665941
 20
381.043805
 40
3.0
100
AcDbArc
 50
284.835112
 51
615.164888
  0
ARC
  5
5E4
100
AcDbEntity
  8
M0
 62
     1
100
AcDbCircle
 10
108.565941
 20
381.043805
 40
3.0
100
AcDbArc
 50
284.835112
 51
615.164888
  0
LINE
  5
5E5
100
AcDbEntity
  8
M0
 62
     1
100
AcDbLine
 10
102.215941
 20
378.143805
 11
102.215941
 21
389.043805
  0
ARC
  5
5E6
100
AcDbEntity
  8
M0
 62
     1
100
AcDbCircle
 10
108.565941
 20
339.243805
 40
3.0
100
AcDbArc
 50
104.834996
 51
435.165004
  0
ARC
  5
5E7
100
AcDbEntity
  8
M0
 62
     1
100
AcDbCircle
 10
118.665941
 20
339.243805
 40
3.0
100
AcDbArc
 50
104.834996
 51
435.165004
  0
ARC
  5
5E8
100
AcDbEntity
  8
M0
 62
     1
100
AcDbCircle
 10
128.765941
 20
339.243805
 40
3.0
100
AcDbArc
 50
104.834996
 51
435.165004
  0
ARC
  5
5E9
100
AcDbEntity
  8
M0
 62
     1
100
AcDbCircle
 10
138.865941
 20
339.243805
 40
3.0
100
AcDbArc
 50
104.834996
 51
435.165004
  0
LINE
  5
5EA
100
AcDbEntity
  8
M0
 62
     1
100
AcDbLine
 10
154.715941
 20
385.793806
 11
148.715941
 21
385.793806
  0
LINE
  5
5EB
100
AcDbEntity
  8
M0
  6
DASHDOT
 62
     1
100
AcDbLine
 10
151.715941
 20
373.893805
 11
151.715941
 21
372.893805
  0
LINE
  5
5EC
100
AcDbEntity
  8
M0
 62
     1
100
AcDbLine
 10
154.715941
 20
384.743805
 11
154.715941
 21
385.793806
  0
LINE
  5
5ED
100
AcDbEntity
  8
M0
 62
     1
100
AcDbLine
 10
148.715941
 20
385.793806
 11
148.715941
 21
384.743805
  0
LINE
  5
5EE
100
AcDbEntity
  8
M0
 62
     1
100
AcDbLine
 10
146.715941
 20
389.793805
 11
146.215941
 21
389.793805
  0
LINE
  5
5EF
100
AcDbEntity
  8
M0
  6
DASHDOT
 62
     1
100
AcDbLine
 10
151.715941
 20
381.493805
 11
151.715941
 21
380.493805
  0
LINE
  5
5F0
100
AcDbEntity
  8
M0
  6
DASHDOT
 62
     1
100
AcDbLine
 10
152.215941
 20
380.993805
 11
151.215941
 21
380.993805
  0
LINE
  5
5F1
100
AcDbEntity
  8
M0
 62
     1
100
AcDbLine
 10
147.715941
 20
367.343805
 11
147.715941
 21
360.143805
  0
ARC
  5
5F2
100
AcDbEntity
  8
M0
 62
     1
100
AcDbCircle
 10
146.215941
 20
339.093805
 40
1.0
100
AcDbArc
 50
180.0
 51
270.0
  0
ARC
  5
5F3
100
AcDbEntity
  8
M0
 62
     1
100
AcDbCircle
 10
156.715941
 20
341.093805
 40
1.0
100
AcDbArc
 50
270.0
 51
360.0
  0
ARC
  5
5F4
100
AcDbEntity
  8
M0
 62
     1
100
AcDbCircle
 10
146.715941
 20
339.093805
 40
1.0
100
AcDbArc
 50
270.0
 51
360.0
  0
ARC
  5
5F5
100
AcDbEntity
  8
M0
 62
     1
100
AcDbCircle
 10
156.715941
 20
341.093805
 40
1.0
100
AcDbArc
 50
180.0
 51
270.0
  0
LINE
  5
5F6
100
AcDbEntity
  8
M0
 62
     1
100
AcDbLine
 10
147.715941
 20
367.343805
 11
147.715941
 21
367.393805
  0
LINE
  5
5F7
100
AcDbEntity
  8
M0
  6
DASHDOT
 62
     1
100
AcDbLine
 10
152.215941
 20
373.393805
 11
151.215941
 21
373.393805
  0
LINE
  5
5F8
100
AcDbEntity
  8
M0
 62
     1
100
AcDbLine
 10
147.715941
 20
367.393805
 11
155.715941
 21
367.393805
  0
LINE
  5
5F9
100
AcDbEntity
  8
M0
 62
     1
100
AcDbLine
 10
145.215941
 20
388.793804
 11
145.215941
 21
378.143805
  0
LINE
  5
5FA
100
AcDbEntity
  8
M0
 62
     1
100
AcDbLine
 10
155.715941
 20
369.393805
 11
147.715941
 21
369.393805
  0
LINE
  5
5FB
100
AcDbEntity
  8
M0
  6
DASHDOT
 62
     1
100
AcDbLine
 10
152.215941
 20
346.893805
 11
151.215941
 21
346.893805
  0
ARC
  5
5FC
100
AcDbEntity
  8
M0
 62
     1
100
AcDbCircle
 10
146.215941
 20
381.193805
 40
1.0
100
AcDbArc
 50
90.0
 51
180.0
  0
LINE
  5
5FD
100
AcDbEntity
  8
M0
 62
     1
100
AcDbLine
 10
147.715941
 20
351.893805
 11
147.715941
 21
331.493805
  0
LINE
  5
5FE
100
AcDbEntity
  8
M0
 62
     1
100
AcDbLine
 10
154.615941
 20
360.143805
 11
154.615941
 21
352.943805
  0
LINE
  5
5FF
100
AcDbEntity
  8
M0
 62
     1
100
AcDbLine
 10
148.715941
 20
360.143805
 11
148.715941
 21
352.943805
  0
ARC
  5
600
100
AcDbEntity
  8
M0
 62
     1
100
AcDbCircle
 10
156.715941
 20
386.793805
 40
1.0
100
AcDbArc
 50
90.0
 51
180.0
  0
ARC
  5
601
100
AcDbEntity
  8
M0
 62
     1
100
AcDbCircle
 10
156.715941
 20
386.793805
 40
1.0
100
AcDbArc
 50
-3.240075E-012
 51
90.0
  0
ARC
  5
602
100
AcDbEntity
  8
M0
 62
     1
100
AcDbCircle
 10
146.215941
 20
388.793805
 40
1.0
100
AcDbArc
 50
90.0
 51
180.0
  0
LINE
  5
603
100
AcDbEntity
  8
M0
 62
     1
100
AcDbLine
 10
147.715941
 20
368.393805
 11
147.715941
 21
388.793805
  0
LINE
  5
604
100
AcDbEntity
  8
M0
 62
     1
100
AcDbLine
 10
148.715941
 20
360.143805
 11
148.715941
 21
367.343805
  0
LINE
  5
605
100
AcDbEntity
  8
M0
 62
     1
100
AcDbLine
 10
154.615941
 20
360.143805
 11
154.615941
 21
367.343805
  0
LINE
  5
606
100
AcDbEntity
  8
M0
 62
     1
100
AcDbLine
 10
153.615941
 20
367.343805
 11
153.615941
 21
360.143805
  0
ARC
  5
607
100
AcDbEntity
  8
M0
 62
     1
100
AcDbCircle
 10
146.715941
 20
388.793805
 40
1.0
100
AcDbArc
 50
-6.536993E-012
 51
90.0
  0
LINE
  5
608
100
AcDbEntity
  8
M0
 62
     1
100
AcDbLine
 10
153.615941
 20
352.943805
 11
153.615941
 21
360.143805
  0
LINE
  5
609
100
AcDbEntity
  8
M0
 62
     1
100
AcDbLine
 10
146.715941
 20
382.193804
 11
146.215941
 21
382.193804
  0
LINE
  5
60A
100
AcDbEntity
  8
M0
  6
DASHDOT
 62
     1
100
AcDbLine
 10
152.215941
 20
339.293805
 11
151.215941
 21
339.293805
  0
LINE
  5
60B
100
AcDbEntity
  8
M0
  6
DASHDOT
 62
     1
100
AcDbLine
 10
151.715941
 20
338.793805
 11
151.715941
 21
339.793805
  0
LINE
  5
60C
100
AcDbEntity
  8
M0
  6
DASHDOT
 62
     1
100
AcDbLine
 10
151.715941
 20
346.393805
 11
151.715941
 21
347.393805
  0
ARC
  5
60D
100
AcDbEntity
  8
M0
 62
     1
100
AcDbCircle
 10
146.715941
 20
381.193805
 40
1.0
100
AcDbArc
 50
-3.240075E-012
 51
90.0
  0
LINE
  5
60E
100
AcDbEntity
  8
M0
 62
     1
100
AcDbLine
 10
146.715941
 20
338.093806
 11
146.215941
 21
338.093806
  0
LINE
  5
60F
100
AcDbEntity
  8
M0
 62
     1
100
AcDbLine
 10
157.715941
 20
360.143805
 11
157.715941
 21
333.493804
  0
LINE
  5
610
100
AcDbEntity
  8
M0
 62
     1
100
AcDbLine
 10
147.715941
 20
377.193805
 11
155.715941
 21
377.193805
  0
LINE
  5
611
100
AcDbEntity
  8
M0
 62
     1
100
AcDbLine
 10
155.715941
 20
386.793805
 11
155.715941
 21
360.143805
  0
LINE
  5
612
100
AcDbEntity
  8
M0
  6
DASHDOT
 62
     1
100
AcDbLine
 10
34.715941
 20
360.143805
 11
159.715941
 21
360.143805
  0
ARC
  5
613
100
AcDbEntity
  8
M0
 62
     1
100
AcDbCircle
 10
156.715941
 20
379.193805
 40
1.0
100
AcDbArc
 50
0.0
 51
90.0
  0
LINE
  5
614
100
AcDbEntity
  8
M0
 62
     1
100
AcDbLine
 10
147.715941
 20
352.943805
 11
147.715941
 21
360.143805
  0
LINE
  5
615
100
AcDbEntity
  8
M0
 62
     1
100
AcDbLine
 10
148.715941
 20
384.793806
 11
147.715941
 21
384.793806
  0
ARC
  5
616
100
AcDbEntity
  8
M0
 62
     1
100
AcDbCircle
 10
156.715941
 20
379.193805
 40
1.0
100
AcDbArc
 50
90.0
 51
180.0
  0
LINE
  5
617
100
AcDbEntity
  8
M0
 62
     1
100
AcDbLine
 10
155.715941
 20
384.793806
 11
154.715941
 21
384.793806
  0
LINE
  5
618
100
AcDbEntity
  8
M0
 62
     1
100
AcDbLine
 10
147.715941
 20
352.943805
 11
147.715941
 21
352.893805
  0
ARC
  5
619
100
AcDbEntity
  8
M0
 62
     1
100
AcDbCircle
 10
146.215941
 20
331.493805
 40
1.0
100
AcDbArc
 50
180.0
 51
270.0
  0
LINE
  5
61A
100
AcDbEntity
  8
M0
 62
     1
100
AcDbLine
 10
155.715941
 20
350.893805
 11
147.715941
 21
350.893805
  0
LINE
  5
61B
100
AcDbEntity
  8
M0
 62
     1
100
AcDbLine
 10
145.215941
 20
331.493806
 11
145.215941
 21
342.143807
  0
LINE
  5
61C
100
AcDbEntity
  8
M0
 62
     1
100
AcDbLine
 10
147.715941
 20
352.893805
 11
155.715941
 21
352.893805
  0
LINE
  5
61D
100
AcDbEntity
  8
M0
 62
     1
100
AcDbLine
 10
155.715941
 20
335.493805
 11
154.715941
 21
335.493805
  0
ARC
  5
61E
100
AcDbEntity
  8
M0
 62
     1
100
AcDbCircle
 10
156.715941
 20
333.493805
 40
1.0
100
AcDbArc
 50
270.0
 51
360.0
  0
LINE
  5
61F
100
AcDbEntity
  8
M0
 62
     1
100
AcDbLine
 10
157.715941
 20
360.143805
 11
157.715941
 21
386.793806
  0
ARC
  5
620
100
AcDbEntity
  8
M0
 62
     1
100
AcDbCircle
 10
156.715941
 20
333.493805
 40
1.0
100
AcDbArc
 50
180.0
 51
270.0
  0
LINE
  5
621
100
AcDbEntity
  8
M0
 62
     1
100
AcDbLine
 10
155.715941
 20
333.493805
 11
155.715941
 21
360.143805
  0
LINE
  5
622
100
AcDbEntity
  8
M0
 62
     1
100
AcDbLine
 10
147.715941
 20
343.093805
 11
155.715941
 21
343.093805
  0
LINE
  5
623
100
AcDbEntity
  8
M0
 62
     1
100
AcDbLine
 10
148.715941
 20
335.493805
 11
147.715941
 21
335.493805
  0
LINE
  5
624
100
AcDbEntity
  8
M0
 62
     1
100
AcDbLine
 10
154.715941
 20
335.543805
 11
154.715941
 21
334.493804
  0
ARC
  5
625
100
AcDbEntity
  8
M0
 62
     1
100
AcDbCircle
 10
146.715941
 20
331.493805
 40
1.0
100
AcDbArc
 50
270.0
 51
360.0
  0
LINE
  5
626
100
AcDbEntity
  8
M0
 62
     1
100
AcDbLine
 10
154.715941
 20
334.493804
 11
148.715941
 21
334.493804
  0
LINE
  5
627
100
AcDbEntity
  8
M0
 62
     1
100
AcDbLine
 10
146.715941
 20
330.493806
 11
146.215941
 21
330.493806
  0
LINE
  5
628
100
AcDbEntity
  8
M0
 62
     1
100
AcDbLine
 10
148.715941
 20
334.493804
 11
148.715941
 21
335.543805
  0
CIRCLE
  5
629
100
AcDbEntity
  8
M0
 62
     1
100
AcDbCircle
 10
151.715941
 20
346.893805
 40
3.0
  0
LINE
  5
62A
100
AcDbEntity
  8
M0
 62
     1
100
AcDbLine
 10
147.890941
 20
350.218805
 11
147.890941
 21
343.568805
  0
ARC
  5
62B
100
AcDbEntity
  8
M0
 62
     1
100
AcDbCircle
 10
155.040941
 20
350.218805
 40
0.5
100
AcDbArc
 50
0.0
 51
90.0
  0
ARC
  5
62C
100
AcDbEntity
  8
M0
 62
     1
100
AcDbCircle
 10
148.390941
 20
343.568805
 40
0.5
100
AcDbArc
 50
180.0
 51
270.0
  0
ARC
  5
62D
100
AcDbEntity
  8
M0
 62
     1
100
AcDbCircle
 10
155.040941
 20
343.568805
 40
0.5
100
AcDbArc
 50
270.0
 51
360.0
  0
ARC
  5
62E
100
AcDbEntity
  8
M0
 62
     1
100
AcDbCircle
 10
148.390941
 20
350.218805
 40
0.5
100
AcDbArc
 50
90.0
 51
180.0
  0
LINE
  5
62F
100
AcDbEntity
  8
M0
 62
     1
100
AcDbLine
 10
151.362662
 20
345.479445
 11
153.13024
 21
347.247145
  0
LINE
  5
630
100
AcDbEntity
  8
M0
 62
     1
100
AcDbLine
 10
150.125357
 20
348.48445
 11
153.306998
 21
345.302687
  0
LINE
  5
631
100
AcDbEntity
  8
M0
 62
     1
100
AcDbLine
 10
150.302115
 20
346.540114
 11
152.069693
 21
348.307692
  0
LINE
  5
632
100
AcDbEntity
  8
M0
 62
     1
100
AcDbLine
 10
155.540941
 20
343.568805
 11
155.540941
 21
350.218805
  0
LINE
  5
633
100
AcDbEntity
  8
M0
 62
     1
100
AcDbLine
 10
155.040941
 20
350.718805
 11
148.390941
 21
350.718805
  0
LINE
  5
634
100
AcDbEntity
  8
M0
 62
     1
100
AcDbLine
 10
148.390941
 20
343.068805
 11
155.040941
 21
343.068805
  0
CIRCLE
  5
635
100
AcDbEntity
  8
M0
 62
     1
100
AcDbCircle
 10
151.715941
 20
380.993805
 40
3.0
  0
LINE
  5
636
100
AcDbEntity
  8
M0
 62
     1
100
AcDbLine
 10
147.890941
 20
384.318805
 11
147.890941
 21
377.668805
  0
ARC
  5
637
100
AcDbEntity
  8
M0
 62
     1
100
AcDbCircle
 10
155.040941
 20
384.318805
 40
0.5
100
AcDbArc
 50
0.0
 51
90.0
  0
ARC
  5
638
100
AcDbEntity
  8
M0
 62
     1
100
AcDbCircle
 10
148.390941
 20
377.668805
 40
0.5
100
AcDbArc
 50
180.0
 51
270.0
  0
ARC
  5
639
100
AcDbEntity
  8
M0
 62
     1
100
AcDbCircle
 10
155.040941
 20
377.668805
 40
0.5
100
AcDbArc
 50
270.0
 51
360.0
  0
ARC
  5
63A
100
AcDbEntity
  8
M0
 62
     1
100
AcDbCircle
 10
148.390941
 20
384.318805
 40
0.5
100
AcDbArc
 50
90.0
 51
180.0
  0
LINE
  5
63B
100
AcDbEntity
  8
M0
 62
     1
100
AcDbLine
 10
151.362662
 20
379.579445
 11
153.13024
 21
381.347145
  0
LINE
  5
63C
100
AcDbEntity
  8
M0
 62
     1
100
AcDbLine
 10
150.125357
 20
382.58445
 11
153.306998
 21
379.402687
  0
LINE
  5
63D
100
AcDbEntity
  8
M0
 62
     1
100
AcDbLine
 10
150.302115
 20
380.640114
 11
152.069693
 21
382.407692
  0
LINE
  5
63E
100
AcDbEntity
  8
M0
 62
     1
100
AcDbLine
 10
155.540941
 20
377.668805
 11
155.540941
 21
384.318805
  0
LINE
  5
63F
100
AcDbEntity
  8
M0
 62
     1
100
AcDbLine
 10
155.040941
 20
384.818805
 11
148.390941
 21
384.818805
  0
LINE
  5
640
100
AcDbEntity
  8
M0
 62
     1
100
AcDbLine
 10
148.390941
 20
377.168805
 11
155.040941
 21
377.168805
  0
CIRCLE
  5
641
100
AcDbEntity
  8
M0
 62
     1
100
AcDbCircle
 10
151.715941
 20
339.293805
 40
3.0
  0
LINE
  5
642
100
AcDbEntity
  8
M0
 62
     1
100
AcDbLine
 10
147.890941
 20
342.618805
 11
147.890941
 21
335.968805
  0
ARC
  5
643
100
AcDbEntity
  8
M0
 62
     1
100
AcDbCircle
 10
155.040941
 20
342.618805
 40
0.5
100
AcDbArc
 50
0.0
 51
90.0
  0
ARC
  5
644
100
AcDbEntity
  8
M0
 62
     1
100
AcDbCircle
 10
148.390941
 20
335.968805
 40
0.5
100
AcDbArc
 50
180.0
 51
270.0
  0
ARC
  5
645
100
AcDbEntity
  8
M0
 62
     1
100
AcDbCircle
 10
155.040941
 20
335.968805
 40
0.5
100
AcDbArc
 50
270.0
 51
360.0
  0
ARC
  5
646
100
AcDbEntity
  8
M0
 62
     1
100
AcDbCircle
 10
148.390941
 20
342.618805
 40
0.5
100
AcDbArc
 50
90.0
 51
180.0
  0
LINE
  5
647
100
AcDbEntity
  8
M0
 62
     1
100
AcDbLine
 10
151.362662
 20
337.879445
 11
153.13024
 21
339.647145
  0
LINE
  5
648
100
AcDbEntity
  8
M0
 62
     1
100
AcDbLine
 10
150.125357
 20
340.88445
 11
153.306998
 21
337.702687
  0
LINE
  5
649
100
AcDbEntity
  8
M0
 62
     1
100
AcDbLine
 10
150.302115
 20
338.940114
 11
152.069693
 21
340.707692
  0
LINE
  5
64A
100
AcDbEntity
  8
M0
 62
     1
100
AcDbLine
 10
155.540941
 20
335.968805
 11
155.540941
 21
342.618805
  0
LINE
  5
64B
100
AcDbEntity
  8
M0
 62
     1
100
AcDbLine
 10
155.040941
 20
343.118805
 11
148.390941
 21
343.118805
  0
LINE
  5
64C
100
AcDbEntity
  8
M0
 62
     1
100
AcDbLine
 10
148.390941
 20
335.468805
 11
155.040941
 21
335.468805
  0
CIRCLE
  5
64D
100
AcDbEntity
  8
M0
 62
     1
100
AcDbCircle
 10
151.715941
 20
373.393805
 40
3.0
  0
LINE
  5
64E
100
AcDbEntity
  8
M0
 62
     1
100
AcDbLine
 10
147.890941
 20
376.718805
 11
147.890941
 21
370.068805
  0
ARC
  5
64F
100
AcDbEntity
  8
M0
 62
     1
100
AcDbCircle
 10
155.040941
 20
376.718805
 40
0.5
100
AcDbArc
 50
0.0
 51
90.0
  0
ARC
  5
650
100
AcDbEntity
  8
M0
 62
     1
100
AcDbCircle
 10
148.390941
 20
370.068805
 40
0.5
100
AcDbArc
 50
180.0
 51
270.0
  0
ARC
  5
651
100
AcDbEntity
  8
M0
 62
     1
100
AcDbCircle
 10
155.040941
 20
370.068805
 40
0.5
100
AcDbArc
 50
270.0
 51
360.0
  0
ARC
  5
652
100
AcDbEntity
  8
M0
 62
     1
100
AcDbCircle
 10
148.390941
 20
376.718805
 40
0.5
100
AcDbArc
 50
90.0
 51
180.0
  0
LINE
  5
653
100
AcDbEntity
  8
M0
 62
     1
100
AcDbLine
 10
151.362662
 20
371.979445
 11
153.13024
 21
373.747145
  0
LINE
  5
654
100
AcDbEntity
  8
M0
 62
     1
100
AcDbLine
 10
150.125357
 20
374.98445
 11
153.306998
 21
371.802687
  0
LINE
  5
655
100
AcDbEntity
  8
M0
 62
     1
100
AcDbLine
 10
150.302115
 20
373.040114
 11
152.069693
 21
374.807692
  0
LINE
  5
656
100
AcDbEntity
  8
M0
 62
     1
100
AcDbLine
 10
155.540941
 20
370.068805
 11
155.540941
 21
376.718805
  0
LINE
  5
657
100
AcDbEntity
  8
M0
 62
     1
100
AcDbLine
 10
155.040941
 20
377.218805
 11
148.390941
 21
377.218805
  0
LINE
  5
658
100
AcDbEntity
  8
M0
 62
     1
100
AcDbLine
 10
148.390941
 20
369.568805
 11
155.040941
 21
369.568805
  0
LINE
  5
659
100
AcDbEntity
  8
M0
  6
DIVIDE
 62
     6
100
AcDbLine
 10
322.979382
 20
373.643805
 11
316.479382
 21
373.643805
  0
LINE
  5
65A
100
AcDbEntity
  8
M0
  6
DIVIDE
 62
     6
100
AcDbLine
 10
322.979382
 20
346.643805
 11
316.479382
 21
346.643805
  0
LINE
  5
65B
100
AcDbEntity
  8
M0
  6
DIVIDE
 62
     6
100
AcDbLine
 10
321.979382
 20
372.643805
 11
315.479382
 21
372.643805
  0
LINE
  5
65C
100
AcDbEntity
  8
M0
  6
DIVIDE
 62
     6
100
AcDbLine
 10
316.479382
 20
346.643805
 11
316.479382
 21
342.643805
  0
LINE
  5
65D
100
AcDbEntity
  8
M0
  6
DIVIDE
 62
     6
100
AcDbLine
 10
321.979382
 20
347.643805
 11
315.479382
 21
347.643805
  0
LINE
  5
65E
100
AcDbEntity
  8
M0
  6
DIVIDE
 62
     6
100
AcDbLine
 10
315.479382
 20
347.643805
 11
315.479382
 21
342.643805
  0
LINE
  5
65F
100
AcDbEntity
  8
M0
  6
DIVIDE
 62
     6
100
AcDbLine
 10
316.479382
 20
377.643805
 11
315.479382
 21
377.643805
  0
LINE
  5
660
100
AcDbEntity
  8
M0
  6
DIVIDE
 62
     6
100
AcDbLine
 10
322.979382
 20
346.643805
 11
322.979382
 21
373.643805
  0
LINE
  5
661
100
AcDbEntity
  8
M0
  6
DIVIDE
 62
     6
100
AcDbLine
 10
315.479382
 20
377.643805
 11
315.479382
 21
372.643805
  0
LINE
  5
662
100
AcDbEntity
  8
M0
  6
DIVIDE
 62
     6
100
AcDbLine
 10
316.479382
 20
377.643805
 11
316.479382
 21
373.643805
  0
LINE
  5
663
100
AcDbEntity
  8
M0
  6
DIVIDE
 62
     6
100
AcDbLine
 10
315.479382
 20
342.643805
 11
316.479382
 21
342.643805
  0
LINE
  5
664
100
AcDbEntity
  8
M0
  6
DIVIDE
 62
     6
100
AcDbLine
 10
321.979382
 20
372.643805
 11
321.979382
 21
347.643805
  0
LINE
  5
665
100
AcDbEntity
  8
M0
 62
     7
100
AcDbLine
 10
309.479382
 20
395.843805
 11
319.181888
 21
395.843805
  0
LINE
  5
666
100
AcDbEntity
  8
M0
 62
     7
100
AcDbLine
 10
316.479382
 20
376.443805
 11
317.479382
 21
375.443805
  0
LINE
  5
667
100
AcDbEntity
  8
M0
 62
     7
100
AcDbLine
 10
316.479382
 20
377.943805
 11
316.479382
 21
376.443805
  0
LINE
  5
668
100
AcDbEntity
  8
M0
 62
     7
100
AcDbLine
 10
319.679382
 20
395.393805
 11
319.679382
 21
375.943805
  0
LINE
  5
669
100
AcDbEntity
  8
M0
 62
     7
100
AcDbLine
 10
315.779382
 20
374.443805
 11
315.779382
 21
372.443805
  0
LINE
  5
66A
100
AcDbEntity
  8
M0
 62
     7
100
AcDbLine
 10
315.479382
 20
371.943805
 11
315.779382
 21
372.443805
  0
LINE
  5
66B
100
AcDbEntity
  8
M0
 62
     7
100
AcDbLine
 10
315.779382
 20
374.443805
 11
315.479382
 21
374.443805
  0
LINE
  5
66C
100
AcDbEntity
  8
M0
 62
     7
100
AcDbLine
 10
295.479382
 20
399.129592
 11
295.479382
 21
379.243805
  0
LINE
  5
66D
100
AcDbEntity
  8
M0
 62
     7
100
AcDbLine
 10
292.272275
 20
402.750912
 11
295.186489
 21
399.836698
  0
LINE
  5
66E
100
AcDbEntity
  8
M0
 62
     7
100
AcDbLine
 10
319.679382
 20
341.843805
 11
319.679382
 21
325.843805
  0
LINE
  5
66F
100
AcDbEntity
  8
M0
 62
     7
100
AcDbLine
 10
279.379382
 20
387.934717
 11
279.379382
 21
391.043805
  0
LINE
  5
670
100
AcDbEntity
  8
M0
 62
     7
100
AcDbLine
 10
287.133132
 20
404.543805
 11
287.279382
 21
404.543805
  0
LINE
  5
671
100
AcDbEntity
  8
M0
 62
     7
100
AcDbLine
 10
272.879382
 20
394.643805
 11
278.479382
 21
394.643805
  0
LINE
  5
672
100
AcDbEntity
  8
M0
 62
     7
100
AcDbLine
 10
279.379382
 20
391.043805
 11
278.479382
 21
391.043805
  0
LINE
  5
673
100
AcDbEntity
  8
M0
 62
     7
100
AcDbLine
 10
278.479382
 20
391.043805
 11
278.479382
 21
394.643805
  0
LINE
  5
674
100
AcDbEntity
  8
M0
 62
     7
100
AcDbLine
 10
288.279382
 20
403.543805
 11
288.279382
 21
403.043805
  0
LINE
  5
675
100
AcDbEntity
  8
M0
 62
     7
100
AcDbLine
 10
317.479382
 20
375.443805
 11
319.179382
 21
375.443805
  0
LINE
  5
676
100
AcDbEntity
  8
M0
 62
     7
100
AcDbLine
 10
288.279382
 20
403.043805
 11
291.565168
 21
403.043805
  0
LINE
  5
677
100
AcDbEntity
  8
M0
 62
     7
100
AcDbLine
 10
272.279382
 20
394.643805
 11
272.279382
 21
401.543805
  0
LINE
  5
678
100
AcDbEntity
  8
M0
 62
     7
100
AcDbLine
 10
272.879382
 20
394.643805
 11
272.279382
 21
394.643805
  0
ARC
  5
679
100
AcDbEntity
  8
M0
 62
     7
100
AcDbCircle
 10
291.565168
 20
402.043805
 40
1.0
100
AcDbArc
 50
45.0
 51
90.0
  0
ARC
  5
67A
100
AcDbEntity
  8
M0
 62
     7
100
AcDbCircle
 10
294.479382
 20
399.129592
 40
1.0
100
AcDbArc
 50
0.0
 51
45.0
  0
ARC
  5
67B
100
AcDbEntity
  8
M0
 62
     7
100
AcDbCircle
 10
319.179382
 20
375.943805
 40
0.5
100
AcDbArc
 50
270.0
 51
360.0
  0
LINE
  5
67C
100
AcDbEntity
  8
M0
 62
     7
100
AcDbLine
 10
298.779382
 20
341.043805
 11
298.779382
 21
331.843805
  0
ELLIPSE
  5
67D
100
AcDbEntity
  8
M0
 62
     7
100
AcDbEllipse
 10
287.133132
 20
403.943805
 11
0.0
 21
0.6
210
0.0
220
0.0
230
1.0
 40
0.243749
 41
4.71238898038469
 42
6.283185307179586
  0
ARC
  5
67E
100
AcDbEntity
  8
M0
 62
     7
100
AcDbCircle
 10
287.279382
 20
403.543805
 40
1.0
100
AcDbArc
 50
0.0
 51
90.0
  0
ARC
  5
67F
100
AcDbEntity
  8
M0
 62
     7
100
AcDbCircle
 10
275.279382
 20
401.543805
 40
3.0
100
AcDbArc
 50
90.0
 51
180.0
  0
ARC
  5
680
100
AcDbEntity
  8
M0
 62
     7
100
AcDbCircle
 10
273.679382
 20
403.543805
 40
1.0
100
AcDbArc
 50
90.0
 51
180.0
  0
ARC
  5
681
100
AcDbEntity
  8
M0
 62
     7
100
AcDbCircle
 10
291.879382
 20
325.643805
 40
1.0
100
AcDbArc
 50
270.0
 51
360.0
  0
ARC
  5
682
100
AcDbEntity
  8
M0
 62
     7
100
AcDbCircle
 10
290.065168
 20
403.543805
 40
1.0
100
AcDbArc
 50
45.0
 51
90.0
  0
LINE
  5
683
100
AcDbEntity
  8
M0
 62
     7
100
AcDbLine
 10
272.679382
 20
403.040468
 11
272.679382
 21
403.543805
  0
LINE
  5
684
100
AcDbEntity
  8
M0
 62
     7
100
AcDbLine
 10
272.679382
 20
394.543805
 11
272.679382
 21
394.643805
  0
ARC
  5
685
100
AcDbEntity
  8
M0
 62
     7
100
AcDbCircle
 10
308.379382
 20
326.343805
 40
1.0
100
AcDbArc
 50
180.0
 51
270.0
  0
ELLIPSE
  5
686
100
AcDbEntity
  8
M0
 62
     7
100
AcDbEllipse
 10
299.665168
 20
390.043805
 11
0.0
 21
1.0
210
0.0
220
0.0
230
1.0
 40
0.414214
 41
4.71238898038469
 42
6.283185307179586
  0
ARC
  5
687
100
AcDbEntity
  8
M0
 62
     7
100
AcDbCircle
 10
298.279382
 20
329.643805
 40
0.5
100
AcDbArc
 50
270.0
 51
360.0
  0
LINE
  5
688
100
AcDbEntity
  8
M0
 62
     7
100
AcDbLine
 10
287.279382
 20
384.843806
 11
287.279382
 21
403.943805
  0
LINE
  5
689
100
AcDbEntity
  8
M0
 62
     7
100
AcDbLine
 10
315.479382
 20
377.943805
 11
315.479382
 21
342.343805
  0
LINE
  5
68A
100
AcDbEntity
  8
M0
 62
     7
100
AcDbLine
 10
319.979382
 20
395.393805
 11
319.979382
 21
381.493805
  0
LINE
  5
68B
100
AcDbEntity
  8
M0
 62
     7
100
AcDbLine
 10
319.979382
 20
340.593805
 11
319.679382
 21
340.593805
  0
ARC
  5
68C
100
AcDbEntity
  8
M0
 62
     7
100
AcDbCircle
 10
293.179382
 20
378.243805
 40
1.0
100
AcDbArc
 50
90.0
 51
180.0
  0
ARC
  5
68D
100
AcDbEntity
  8
M0
 62
     7
100
AcDbCircle
 10
294.479382
 20
339.743805
 40
1.0
100
AcDbArc
 50
270.0
 51
360.0
  0
ARC
  5
68E
100
AcDbEntity
  8
M0
 62
     7
100
AcDbCircle
 10
309.479382
 20
325.843805
 40
0.5
100
AcDbArc
 50
180.0
 51
270.0
  0
LINE
  5
68F
100
AcDbEntity
  8
M0
 62
     7
100
AcDbLine
 10
319.979382
 20
395.393805
 11
319.679382
 21
395.393805
  0
LINE
  5
690
100
AcDbEntity
  8
M0
 62
     7
100
AcDbLine
 10
312.179382
 20
342.727577
 11
296.679382
 21
342.727577
  0
LINE
  5
691
100
AcDbEntity
  8
M0
 62
     7
100
AcDbLine
 10
312.179382
 20
374.68325
 11
296.679382
 21
374.68325
  0
LINE
  5
692
100
AcDbEntity
  8
M0
 62
     7
100
AcDbLine
 10
296.679382
 20
377.560033
 11
312.179382
 21
377.560033
  0
ARC
  5
693
100
AcDbEntity
  8
M0
 62
     7
100
AcDbCircle
 10
319.179382
 20
325.843805
 40
0.5
100
AcDbArc
 50
270.0
 51
360.0
  0
ARC
  5
694
100
AcDbEntity
  8
M0
 62
     7
100
AcDbCircle
 10
319.179382
 20
378.443805
 40
0.5
100
AcDbArc
 50
270.0
 51
360.0
  0
LINE
  5
695
100
AcDbEntity
  8
M0
 62
     7
100
AcDbLine
 10
296.679382
 20
345.60436
 11
312.179382
 21
345.60436
  0
ARC
  5
696
100
AcDbEntity
  8
M0
 62
     7
100
AcDbCircle
 10
314.979382
 20
346.843805
 40
0.5
100
AcDbArc
 50
270.0
 51
360.0
  0
ARC
  5
697
100
AcDbEntity
  8
M0
 62
     7
100
AcDbCircle
 10
314.979382
 20
373.443805
 40
0.5
100
AcDbArc
 50
0.0
 51
90.0
  0
ARC
  5
698
100
AcDbEntity
  8
M0
 62
     7
100
AcDbCircle
 10
319.181888
 20
395.343805
 40
0.5
100
AcDbArc
 50
5.73917
 51
90.0
  0
ARC
  5
699
100
AcDbEntity
  8
M0
 62
     7
100
AcDbCircle
 10
312.179382
 20
377.860033
 40
0.3
100
AcDbArc
 50
270.0
 51
360.0
  0
LINE
  5
69A
100
AcDbEntity
  8
M0
 62
     7
100
AcDbLine
 10
317.179382
 20
344.643805
 11
317.619382
 21
344.143805
  0
LINE
  5
69B
100
AcDbEntity
  8
M0
 62
     7
100
AcDbLine
 10
316.479382
 20
344.643805
 11
317.179382
 21
344.643805
  0
LINE
  5
69C
100
AcDbEntity
  8
M0
 62
     7
100
AcDbLine
 10
316.479382
 20
344.143805
 11
316.479382
 21
344.643805
  0
LINE
  5
69D
100
AcDbEntity
  8
M0
 62
     7
100
AcDbLine
 10
319.203912
 20
342.343203
 11
317.619382
 21
344.143805
  0
ARC
  5
69E
100
AcDbEntity
  8
M0
 62
     7
100
AcDbCircle
 10
316.179382
 20
325.143805
 40
0.5
100
AcDbArc
 50
180.0
 51
270.0
  0
ARC
  5
69F
100
AcDbEntity
  8
M0
 62
     7
100
AcDbCircle
 10
316.179382
 20
342.643805
 40
0.5
100
AcDbArc
 50
90.0
 51
180.0
  0
ARC
  5
6A0
100
AcDbEntity
  8
M0
 62
     7
100
AcDbCircle
 10
312.179382
 20
342.427577
 40
0.3
100
AcDbArc
 50
0.0
 51
90.0
  0
ARC
  5
6A1
100
AcDbEntity
  8
M0
 62
     7
100
AcDbCircle
 10
312.179382
 20
374.38325
 40
0.3
100
AcDbArc
 50
0.0
 51
90.0
  0
ARC
  5
6A2
100
AcDbEntity
  8
M0
 62
     7
100
AcDbCircle
 10
309.479382
 20
395.343805
 40
0.5
100
AcDbArc
 50
90.0
 51
180.0
  0
LINE
  5
6A3
100
AcDbEntity
  8
M0
 62
     7
100
AcDbLine
 10
319.379382
 20
325.385548
 11
319.379382
 21
324.643805
  0
LINE
  5
6A4
100
AcDbEntity
  8
M0
 62
     7
100
AcDbLine
 10
315.679382
 20
325.143805
 11
315.679382
 21
325.343805
  0
LINE
  5
6A5
100
AcDbEntity
  8
M0
 62
     7
100
AcDbLine
 10
319.379382
 20
324.643805
 11
316.179382
 21
324.643805
  0
LINE
  5
6A6
100
AcDbEntity
  8
M0
 62
     7
100
AcDbLine
 10
319.679382
 20
328.293805
 11
319.979382
 21
328.293805
  0
ARC
  5
6A7
100
AcDbEntity
  8
M0
 62
     7
100
AcDbCircle
 10
319.179382
 20
341.843805
 40
0.5
100
AcDbArc
 50
0.0
 51
90.0
  0
LINE
  5
6A8
100
AcDbEntity
  8
M0
 62
     7
100
AcDbLine
 10
316.479382
 20
344.143805
 11
316.479382
 21
343.143805
  0
ARC
  5
6A9
100
AcDbEntity
  8
M0
 62
     7
100
AcDbCircle
 10
312.179382
 20
345.90436
 40
0.3
100
AcDbArc
 50
270.0
 51
360.0
  0
LINE
  5
6AA
100
AcDbEntity
  8
M0
 62
     7
100
AcDbLine
 10
317.679382
 20
342.643805
 11
317.679382
 21
342.343805
  0
LINE
  5
6AB
100
AcDbEntity
  8
M0
 62
     7
100
AcDbLine
 10
317.679382
 20
343.143805
 11
317.679382
 21
342.643805
  0
LINE
  5
6AC
100
AcDbEntity
  8
M0
 62
     7
100
AcDbLine
 10
315.679382
 20
342.343805
 11
315.679382
 21
342.643805
  0
LINE
  5
6AD
100
AcDbEntity
  8
M0
 62
     7
100
AcDbLine
 10
319.179382
 20
377.943805
 11
312.479382
 21
377.943805
  0
LINE
  5
6AE
100
AcDbEntity
  8
M0
 62
     7
100
AcDbLine
 10
319.179382
 20
325.343805
 11
309.479382
 21
325.343805
  0
LINE
  5
6AF
100
AcDbEntity
  8
M0
 62
     7
100
AcDbLine
 10
296.679382
 20
345.60436
 11
296.679382
 21
342.727577
  0
LINE
  5
6B0
100
AcDbEntity
  8
M0
 62
     7
100
AcDbLine
 10
296.679382
 20
377.560033
 11
296.679382
 21
374.68325
  0
LINE
  5
6B1
100
AcDbEntity
  8
M0
 62
     7
100
AcDbLine
 10
312.479382
 20
342.343805
 11
319.179382
 21
342.343805
  0
LINE
  5
6B2
100
AcDbEntity
  8
M0
 62
     7
100
AcDbLine
 10
308.979382
 20
341.043805
 11
295.479382
 21
341.043805
  0
LINE
  5
6B3
100
AcDbEntity
  8
M0
 62
     7
100
AcDbLine
 10
308.979382
 20
325.843805
 11
308.979382
 21
341.043805
  0
LINE
  5
6B4
100
AcDbEntity
  8
M0
 62
     7
100
AcDbLine
 10
292.179381
 20
379.243805
 11
308.979382
 21
379.243805
  0
LINE
  5
6B5
100
AcDbEntity
  8
M0
 62
     7
100
AcDbLine
 10
316.179382
 20
343.143805
 11
317.679382
 21
343.143805
  0
LINE
  5
6B6
100
AcDbEntity
  8
M0
 62
     7
100
AcDbLine
 10
295.479382
 20
341.043805
 11
295.479382
 21
339.743805
  0
LINE
  5
6B7
100
AcDbEntity
  8
M0
 62
     7
100
AcDbLine
 10
312.479382
 20
374.38325
 11
312.479382
 21
373.943805
  0
LINE
  5
6B8
100
AcDbEntity
  8
M0
 62
     7
100
AcDbLine
 10
312.479382
 20
373.943805
 11
314.979382
 21
373.943805
  0
LINE
  5
6B9
100
AcDbEntity
  8
M0
 62
     7
100
AcDbLine
 10
314.979382
 20
346.343805
 11
312.479382
 21
346.343805
  0
LINE
  5
6BA
100
AcDbEntity
  8
M0
 62
     7
100
AcDbLine
 10
293.179382
 20
379.243805
 11
295.179382
 21
379.243805
  0
LINE
  5
6BB
100
AcDbEntity
  8
M0
 62
     7
100
AcDbLine
 10
294.479382
 20
338.743805
 11
292.179381
 21
338.743805
  0
LINE
  5
6BC
100
AcDbEntity
  8
M0
 62
     7
100
AcDbLine
 10
308.979382
 20
379.243805
 11
308.979382
 21
395.343805
  0
LINE
  5
6BD
100
AcDbEntity
  8
M0
 62
     7
100
AcDbLine
 10
312.479382
 20
346.343805
 11
312.479382
 21
345.90436
  0
ARC
  5
6BE
100
AcDbEntity
  8
M0
 62
     7
100
AcDbCircle
 10
248.179382
 20
336.343805
 40
5.0
100
AcDbArc
 50
180.0
 51
270.0
  0
LINE
  5
6BF
100
AcDbEntity
  8
M0
 62
     7
100
AcDbLine
 10
260.979382
 20
391.343805
 11
260.979382
 21
392.343805
  0
LINE
  5
6C0
100
AcDbEntity
  8
M0
 62
     7
100
AcDbLine
 10
260.979382
 20
392.343805
 11
264.579382
 21
392.343805
  0
LINE
  5
6C1
100
AcDbEntity
  8
M0
 62
     7
100
AcDbLine
 10
268.079382
 20
329.143805
 11
266.879382
 21
327.943805
  0
LINE
  5
6C2
100
AcDbEntity
  8
M0
 62
     7
100
AcDbLine
 10
260.979382
 20
327.943805
 11
260.979382
 21
328.943805
  0
ARC
  5
6C3
100
AcDbEntity
  8
M0
 62
     7
100
AcDbCircle
 10
248.179382
 20
383.943805
 40
5.0
100
AcDbArc
 50
90.0
 51
180.0
  0
LINE
  5
6C4
100
AcDbEntity
  8
M0
 62
     7
100
AcDbLine
 10
249.179382
 20
392.343805
 11
259.080684
 21
392.343805
  0
LINE
  5
6C5
100
AcDbEntity
  8
M0
 62
     7
100
AcDbLine
 10
259.080684
 20
392.343805
 11
259.187177
 21
391.343805
  0
LINE
  5
6C6
100
AcDbEntity
  8
M0
 62
     7
100
AcDbLine
 10
259.44276
 20
388.943805
 11
259.187177
 21
391.343805
  0
LINE
  5
6C7
100
AcDbEntity
  8
M0
 62
     7
100
AcDbLine
 10
264.579382
 20
392.343805
 11
265.979382
 21
390.943805
  0
LINE
  5
6C8
100
AcDbEntity
  8
M0
 62
     7
100
AcDbLine
 10
259.187177
 20
328.943805
 11
259.44276
 21
331.343805
  0
LINE
  5
6C9
100
AcDbEntity
  8
M0
 62
     7
100
AcDbLine
 10
259.080684
 20
392.343805
 11
260.979382
 21
392.343805
  0
LINE
  5
6CA
100
AcDbEntity
  8
M0
 62
     7
100
AcDbLine
 10
245.179382
 20
387.943805
 11
245.179382
 21
388.343805
  0
LINE
  5
6CB
100
AcDbEntity
  8
M0
 62
     7
100
AcDbLine
 10
259.187177
 20
328.943805
 11
259.080684
 21
327.943805
  0
LINE
  5
6CC
100
AcDbEntity
  8
M0
 62
     7
100
AcDbLine
 10
245.179382
 20
331.943805
 11
245.179382
 21
332.343805
  0
LINE
  5
6CD
100
AcDbEntity
  8
M0
 62
     7
100
AcDbLine
 10
248.179382
 20
388.943805
 11
260.936951
 21
388.943805
  0
LINE
  5
6CE
100
AcDbEntity
  8
M0
 62
     7
100
AcDbLine
 10
307.379382
 20
329.143805
 11
268.079382
 21
329.143805
  0
LINE
  5
6CF
100
AcDbEntity
  8
M0
 62
     7
100
AcDbLine
 10
269.079382
 20
389.843805
 11
269.079382
 21
390.943805
  0
LINE
  5
6D0
100
AcDbEntity
  8
M0
 62
     7
100
AcDbLine
 10
260.979382
 20
388.943805
 11
260.979382
 21
391.343805
  0
LINE
  5
6D1
100
AcDbEntity
  8
M0
 62
     7
100
AcDbLine
 10
266.879382
 20
327.943805
 11
249.179382
 21
327.943805
  0
LINE
  5
6D2
100
AcDbEntity
  8
M0
 62
     7
100
AcDbLine
 10
265.979382
 20
390.943805
 11
269.079382
 21
390.943805
  0
LINE
  5
6D3
100
AcDbEntity
  8
M0
 62
     7
100
AcDbLine
 10
243.179382
 20
336.343805
 11
243.179382
 21
383.943805
  0
LINE
  5
6D4
100
AcDbEntity
  8
M0
 62
     7
100
AcDbLine
 10
260.936954
 20
331.343805
 11
248.179382
 21
331.343805
  0
LINE
  5
6D5
100
AcDbEntity
  8
M0
 62
     7
100
AcDbLine
 10
260.979382
 20
328.943805
 11
260.979382
 21
331.343805
  0
LINE
  5
6D6
100
AcDbEntity
  8
M0
 62
     7
100
AcDbLine
 10
292.879382
 20
329.143805
 11
292.879382
 21
325.643805
  0
LINE
  5
6D7
100
AcDbEntity
  8
M0
 62
     7
100
AcDbLine
 10
295.479382
 20
396.943805
 11
295.479382
 21
399.129592
  0
LINE
  5
6D8
100
AcDbEntity
  8
M0
 62
     7
100
AcDbLine
 10
303.079382
 20
394.043805
 11
308.979382
 21
394.043805
  0
LINE
  5
6D9
100
AcDbEntity
  8
M0
 62
     7
100
AcDbLine
 10
295.379382
 20
329.143805
 11
293.379382
 21
329.143805
  0
LINE
  5
6DA
100
AcDbEntity
  8
M0
 62
     7
100
AcDbLine
 10
295.879382
 20
329.143805
 11
295.379382
 21
329.143805
  0
LINE
  5
6DB
100
AcDbEntity
  8
M0
 62
     7
100
AcDbLine
 10
295.479382
 20
394.643805
 11
295.479382
 21
391.043805
  0
LINE
  5
6DC
100
AcDbEntity
  8
M0
 62
     7
100
AcDbLine
 10
307.379382
 20
326.343805
 11
307.379382
 21
341.043805
  0
LINE
  5
6DD
100
AcDbEntity
  8
M0
 62
     7
100
AcDbLine
 10
290.772275
 20
404.250912
 11
292.272275
 21
402.750912
  0
LINE
  5
6DE
100
AcDbEntity
  8
M0
 62
     7
100
AcDbLine
 10
311.479382
 20
325.343805
 11
308.379382
 21
325.343805
  0
LINE
  5
6DF
100
AcDbEntity
  8
M0
 62
     7
100
AcDbLine
 10
307.379382
 20
330.843805
 11
308.979382
 21
330.843805
  0
LINE
  5
6E0
100
AcDbEntity
  8
M0
 62
     7
100
AcDbLine
 10
303.079382
 20
394.043805
 11
303.079382
 21
391.043805
  0
LINE
  5
6E1
100
AcDbEntity
  8
M0
 62
     7
100
AcDbLine
 10
284.779382
 20
324.643805
 11
284.779382
 21
325.643805
  0
LINE
  5
6E2
100
AcDbEntity
  8
M0
 62
     7
100
AcDbLine
 10
315.779382
 20
374.443805
 11
315.479382
 21
375.443805
  0
LINE
  5
6E3
100
AcDbEntity
  8
M0
 62
     7
100
AcDbLine
 10
272.679382
 20
394.543805
 11
269.079382
 21
393.043805
  0
LINE
  5
6E4
100
AcDbEntity
  8
M0
 62
     7
100
AcDbLine
 10
278.379382
 20
394.543805
 11
272.679382
 21
394.543805
  0
LINE
  5
6E5
100
AcDbEntity
  8
M0
 62
     7
100
AcDbLine
 10
269.079382
 20
393.043805
 11
269.079382
 21
391.043805
  0
LINE
  5
6E6
100
AcDbEntity
  8
M0
 62
     7
100
AcDbLine
 10
272.879382
 20
393.543805
 11
270.079382
 21
392.377138
  0
LINE
  5
6E7
100
AcDbEntity
  8
M0
 62
     7
100
AcDbLine
 10
278.379382
 20
391.043805
 11
278.379382
 21
394.543805
  0
LINE
  5
6E8
100
AcDbEntity
  8
M0
 62
     7
100
AcDbLine
 10
277.379382
 20
393.543805
 11
272.879382
 21
393.543805
  0
LINE
  5
6E9
100
AcDbEntity
  8
M0
 62
     7
100
AcDbLine
 10
290.479382
 20
404.543805
 11
273.679382
 21
404.543805
  0
LINE
  5
6EA
100
AcDbEntity
  8
M0
 62
     7
100
AcDbLine
 10
278.379382
 20
394.543805
 11
278.479382
 21
394.543805
  0
LINE
  5
6EB
100
AcDbEntity
  8
M0
 62
     7
100
AcDbLine
 10
278.479382
 20
391.043805
 11
278.379382
 21
391.043805
  0
LINE
  5
6EC
100
AcDbEntity
  8
M0
 62
     7
100
AcDbLine
 10
319.979382
 20
381.493805
 11
319.679382
 21
381.493805
  0
LINE
  5
6ED
100
AcDbEntity
  8
M0
 62
     7
100
AcDbLine
 10
277.379382
 20
392.043805
 11
277.379382
 21
393.543805
  0
LINE
  5
6EE
100
AcDbEntity
  8
M0
 62
     7
100
AcDbLine
 10
278.379382
 20
391.043805
 11
269.079382
 21
391.043805
  0
LINE
  5
6EF
100
AcDbEntity
  8
M0
 62
     7
100
AcDbLine
 10
270.079382
 20
392.043805
 11
277.379382
 21
392.043805
  0
LINE
  5
6F0
100
AcDbEntity
  8
M0
 62
     7
100
AcDbLine
 10
270.079382
 20
392.377138
 11
270.079382
 21
392.043805
  0
LINE
  5
6F1
100
AcDbEntity
  8
M0
 62
     7
100
AcDbLine
 10
284.779382
 20
335.443806
 11
284.779382
 21
324.643805
  0
LINE
  5
6F2
100
AcDbEntity
  8
M0
 62
     7
100
AcDbLine
 10
268.779382
 20
324.643805
 11
260.979382
 21
325.143805
  0
LINE
  5
6F3
100
AcDbEntity
  8
M0
 62
     7
100
AcDbLine
 10
291.879382
 20
324.643805
 11
268.779382
 21
324.643805
  0
LINE
  5
6F4
100
AcDbEntity
  8
M0
 62
     7
100
AcDbLine
 10
260.979382
 20
326.145858
 11
260.979382
 21
327.943805
  0
LINE
  5
6F5
100
AcDbEntity
  8
M0
 62
     7
100
AcDbLine
 10
254.391227
 20
325.41275
 11
251.679382
 21
327.943805
  0
LINE
  5
6F6
100
AcDbEntity
  8
M0
 62
     7
100
AcDbLine
 10
260.979382
 20
325.143805
 11
259.080266
 21
325.143805
  0
LINE
  5
6F7
100
AcDbEntity
  8
M0
 62
     7
100
AcDbLine
 10
259.15785
 20
326.143805
 11
259.080266
 21
325.143805
  0
LINE
  5
6F8
100
AcDbEntity
  8
M0
 62
     7
100
AcDbLine
 10
259.15785
 20
326.143805
 11
259.297501
 21
327.943805
  0
LINE
  5
6F9
100
AcDbEntity
  8
M0
 62
     7
100
AcDbLine
 10
259.080266
 20
325.143805
 11
255.073545
 21
325.143805
  0
LINE
  5
6FA
100
AcDbEntity
  8
M0
 62
     7
100
AcDbLine
 10
260.979382
 20
325.143805
 11
260.979382
 21
326.145858
  0
LINE
  5
6FB
100
AcDbEntity
  8
M0
 62
     7
100
AcDbLine
 10
269.079382
 20
390.943805
 11
269.079382
 21
391.043805
  0
ARC
  5
6FC
100
AcDbEntity
  8
M0
 62
     7
100
AcDbCircle
 10
255.073545
 20
326.143805
 40
1.0
100
AcDbArc
 50
226.974934
 51
270.0
  0
LINE
  5
6FD
100
AcDbEntity
  8
M0
 62
     7
100
AcDbLine
 10
319.979382
 20
340.593805
 11
319.979382
 21
328.293805
  0
LINE
  5
6FE
100
AcDbEntity
  8
M0
 62
     7
100
AcDbLine
 10
298.279382
 20
329.143805
 11
298.185608
 21
329.143805
  0
LINE
  5
6FF
100
AcDbEntity
  8
M0
 62
     7
100
AcDbLine
 10
295.479382
 20
391.043805
 11
308.979382
 21
391.043805
  0
LINE
  5
700
100
AcDbEntity
  8
M0
 62
     7
100
AcDbLine
 10
300.079382
 20
379.243805
 11
300.079382
 21
390.043805
  0
LINE
  5
701
100
AcDbEntity
  8
M0
 62
     7
100
AcDbLine
 10
274.279382
 20
324.643805
 11
268.779382
 21
324.643805
  0
LINE
  5
702
100
AcDbEntity
  8
M0
 62
     7
100
AcDbLine
 10
298.779382
 20
331.843805
 11
298.779382
 21
329.643805
  0
ARC
  5
703
100
AcDbEntity
  8
M0
 62
     7
100
AcDbCircle
 10
249.179382
 20
388.343805
 40
4.0
100
AcDbArc
 50
90.0
 51
180.0
  0
ARC
  5
704
100
AcDbEntity
  8
M0
 62
     7
100
AcDbCircle
 10
249.179382
 20
331.943805
 40
4.0
100
AcDbArc
 50
180.0
 51
270.0
  0
LINE
  5
705
100
AcDbEntity
  8
M0
 62
     1
100
AcDbLine
 10
39.715941
 20
385.793806
 11
45.715941
 21
385.793806
  0
LINE
  5
706
100
AcDbEntity
  8
M0
  6
DASHDOT
 62
     1
100
AcDbLine
 10
42.715941
 20
373.893805
 11
42.715941
 21
372.893805
  0
LINE
  5
707
100
AcDbEntity
  8
M0
 62
     1
100
AcDbLine
 10
39.715941
 20
384.743805
 11
39.715941
 21
385.793806
  0
LINE
  5
708
100
AcDbEntity
  8
M0
 62
     1
100
AcDbLine
 10
45.715941
 20
385.793806
 11
45.715941
 21
384.743805
  0
LINE
  5
709
100
AcDbEntity
  8
M0
 62
     1
100
AcDbLine
 10
47.715941
 20
389.793805
 11
48.215941
 21
389.793805
  0
LINE
  5
70A
100
AcDbEntity
  8
M0
  6
DASHDOT
 62
     1
100
AcDbLine
 10
42.715941
 20
381.493805
 11
42.715941
 21
380.493805
  0
LINE
  5
70B
100
AcDbEntity
  8
M0
  6
DASHDOT
 62
     1
100
AcDbLine
 10
42.215941
 20
380.993805
 11
43.215941
 21
380.993805
  0
LINE
  5
70C
100
AcDbEntity
  8
M0
 62
     1
100
AcDbLine
 10
46.715941
 20
367.343805
 11
46.715941
 21
360.143805
  0
ARC
  5
70D
100
AcDbEntity
  8
M0
 62
     1
100
AcDbCircle
 10
48.215941
 20
339.093805
 40
1.0
100
AcDbArc
 50
-90.0
 51
0.0
  0
ARC
  5
70E
100
AcDbEntity
  8
M0
 62
     1
100
AcDbCircle
 10
37.715941
 20
341.093805
 40
1.0
100
AcDbArc
 50
180.0
 51
270.0
  0
ARC
  5
70F
100
AcDbEntity
  8
M0
 62
     1
100
AcDbCircle
 10
47.715941
 20
339.093805
 40
1.0
100
AcDbArc
 50
180.0
 51
270.0
  0
ARC
  5
710
100
AcDbEntity
  8
M0
 62
     1
100
AcDbCircle
 10
37.715941
 20
341.093805
 40
1.0
100
AcDbArc
 50
-90.0
 51
0.0
  0
LINE
  5
711
100
AcDbEntity
  8
M0
 62
     1
100
AcDbLine
 10
46.715941
 20
367.343805
 11
46.715941
 21
367.393805
  0
LINE
  5
712
100
AcDbEntity
  8
M0
  6
DASHDOT
 62
     1
100
AcDbLine
 10
42.215941
 20
373.393805
 11
43.215941
 21
373.393805
  0
LINE
  5
713
100
AcDbEntity
  8
M0
 62
     1
100
AcDbLine
 10
46.715941
 20
367.393805
 11
38.715941
 21
367.393805
  0
LINE
  5
714
100
AcDbEntity
  8
M0
 62
     1
100
AcDbLine
 10
49.215941
 20
388.793804
 11
49.215941
 21
378.143805
  0
LINE
  5
715
100
AcDbEntity
  8
M0
 62
     1
100
AcDbLine
 10
38.715941
 20
369.393805
 11
46.715941
 21
369.393805
  0
LINE
  5
716
100
AcDbEntity
  8
M0
  6
DASHDOT
 62
     1
100
AcDbLine
 10
42.215941
 20
346.893805
 11
43.215941
 21
346.893805
  0
ARC
  5
717
100
AcDbEntity
  8
M0
 62
     1
100
AcDbCircle
 10
48.215941
 20
381.193805
 40
1.0
100
AcDbArc
 50
3.256888E-012
 51
90.0
  0
LINE
  5
718
100
AcDbEntity
  8
M0
 62
     1
100
AcDbLine
 10
46.715941
 20
351.893805
 11
46.715941
 21
331.493805
  0
LINE
  5
719
100
AcDbEntity
  8
M0
 62
     1
100
AcDbLine
 10
39.815941
 20
360.143805
 11
39.815941
 21
352.943805
  0
LINE
  5
71A
100
AcDbEntity
  8
M0
 62
     1
100
AcDbLine
 10
45.715941
 20
360.143805
 11
45.715941
 21
352.943805
  0
ARC
  5
71B
100
AcDbEntity
  8
M0
 62
     1
100
AcDbCircle
 10
37.715941
 20
386.793805
 40
1.0
100
AcDbArc
 50
0.0
 51
90.0
  0
ARC
  5
71C
100
AcDbEntity
  8
M0
 62
     1
100
AcDbCircle
 10
37.715941
 20
386.793805
 40
1.0
100
AcDbArc
 50
90.0
 51
180.0
  0
ARC
  5
71D
100
AcDbEntity
  8
M0
 62
     1
100
AcDbCircle
 10
48.215941
 20
388.793805
 40
1.0
100
AcDbArc
 50
0.0
 51
90.0
  0
LINE
  5
71E
100
AcDbEntity
  8
M0
 62
     1
100
AcDbLine
 10
46.715941
 20
368.393805
 11
46.715941
 21
388.793805
  0
LINE
  5
71F
100
AcDbEntity
  8
M0
 62
     1
100
AcDbLine
 10
45.715941
 20
360.143805
 11
45.715941
 21
367.343805
  0
LINE
  5
720
100
AcDbEntity
  8
M0
 62
     1
100
AcDbLine
 10
39.815941
 20
360.143805
 11
39.815941
 21
367.343805
  0
LINE
  5
721
100
AcDbEntity
  8
M0
 62
     1
100
AcDbLine
 10
40.815941
 20
367.343805
 11
40.815941
 21
360.143805
  0
ARC
  5
722
100
AcDbEntity
  8
M0
 62
     1
100
AcDbCircle
 10
47.715941
 20
388.793805
 40
1.0
100
AcDbArc
 50
90.0
 51
180.0
  0
LINE
  5
723
100
AcDbEntity
  8
M0
 62
     1
100
AcDbLine
 10
40.815941
 20
352.943805
 11
40.815941
 21
360.143805
  0
LINE
  5
724
100
AcDbEntity
  8
M0
 62
     1
100
AcDbLine
 10
47.715941
 20
382.193804
 11
48.215941
 21
382.193804
  0
LINE
  5
725
100
AcDbEntity
  8
M0
  6
DASHDOT
 62
     1
100
AcDbLine
 10
42.215941
 20
339.293805
 11
43.215941
 21
339.293805
  0
LINE
  5
726
100
AcDbEntity
  8
M0
  6
DASHDOT
 62
     1
100
AcDbLine
 10
42.715941
 20
338.793805
 11
42.715941
 21
339.793805
  0
LINE
  5
727
100
AcDbEntity
  8
M0
  6
DASHDOT
 62
     1
100
AcDbLine
 10
42.715941
 20
346.393805
 11
42.715941
 21
347.393805
  0
ARC
  5
728
100
AcDbEntity
  8
M0
 62
     1
100
AcDbCircle
 10
47.715941
 20
381.193805
 40
1.0
100
AcDbArc
 50
90.0
 51
180.0
  0
LINE
  5
729
100
AcDbEntity
  8
M0
 62
     1
100
AcDbLine
 10
47.715941
 20
338.093806
 11
48.215941
 21
338.093806
  0
LINE
  5
72A
100
AcDbEntity
  8
M0
 62
     1
100
AcDbLine
 10
36.715941
 20
360.143805
 11
36.715941
 21
333.493804
  0
LINE
  5
72B
100
AcDbEntity
  8
M0
 62
     1
100
AcDbLine
 10
46.715941
 20
377.193805
 11
38.715941
 21
377.193805
  0
LINE
  5
72C
100
AcDbEntity
  8
M0
 62
     1
100
AcDbLine
 10
38.715941
 20
386.793805
 11
38.715941
 21
360.143805
  0
ARC
  5
72D
100
AcDbEntity
  8
M0
 62
     1
100
AcDbCircle
 10
37.715941
 20
379.193805
 40
1.0
100
AcDbArc
 50
90.0
 51
180.0
  0
LINE
  5
72E
100
AcDbEntity
  8
M0
 62
     1
100
AcDbLine
 10
46.715941
 20
352.943805
 11
46.715941
 21
360.143805
  0
LINE
  5
72F
100
AcDbEntity
  8
M0
 62
     1
100
AcDbLine
 10
45.715941
 20
384.793806
 11
46.715941
 21
384.793806
  0
ARC
  5
730
100
AcDbEntity
  8
M0
 62
     1
100
AcDbCircle
 10
37.715941
 20
379.193805
 40
1.0
100
AcDbArc
 50
6.513776E-012
 51
90.0
  0
LINE
  5
731
100
AcDbEntity
  8
M0
 62
     1
100
AcDbLine
 10
38.715941
 20
384.793806
 11
39.715941
 21
384.793806
  0
LINE
  5
732
100
AcDbEntity
  8
M0
 62
     1
100
AcDbLine
 10
46.715941
 20
352.943805
 11
46.715941
 21
352.893805
  0
ARC
  5
733
100
AcDbEntity
  8
M0
 62
     1
100
AcDbCircle
 10
48.215941
 20
331.493805
 40
1.0
100
AcDbArc
 50
-90.0
 51
0.0
  0
LINE
  5
734
100
AcDbEntity
  8
M0
 62
     1
100
AcDbLine
 10
38.715941
 20
350.893805
 11
46.715941
 21
350.893805
  0
LINE
  5
735
100
AcDbEntity
  8
M0
 62
     1
100
AcDbLine
 10
49.215941
 20
331.493806
 11
49.215941
 21
342.143807
  0
LINE
  5
736
100
AcDbEntity
  8
M0
 62
     1
100
AcDbLine
 10
46.715941
 20
352.893805
 11
38.715941
 21
352.893805
  0
LINE
  5
737
100
AcDbEntity
  8
M0
 62
     1
100
AcDbLine
 10
38.715941
 20
335.493805
 11
39.715941
 21
335.493805
  0
ARC
  5
738
100
AcDbEntity
  8
M0
 62
     1
100
AcDbCircle
 10
37.715941
 20
333.493805
 40
1.0
100
AcDbArc
 50
180.0
 51
270.0
  0
LINE
  5
739
100
AcDbEntity
  8
M0
 62
     1
100
AcDbLine
 10
36.715941
 20
360.143805
 11
36.715941
 21
386.793806
  0
ARC
  5
73A
100
AcDbEntity
  8
M0
 62
     1
100
AcDbCircle
 10
37.715941
 20
333.493805
 40
1.0
100
AcDbArc
 50
-90.0
 51
0.0
  0
LINE
  5
73B
100
AcDbEntity
  8
M0
 62
     1
100
AcDbLine
 10
38.715941
 20
333.493805
 11
38.715941
 21
360.143805
  0
LINE
  5
73C
100
AcDbEntity
  8
M0
 62
     1
100
AcDbLine
 10
46.715941
 20
343.093805
 11
38.715941
 21
343.093805
  0
LINE
  5
73D
100
AcDbEntity
  8
M0
 62
     1
100
AcDbLine
 10
45.715941
 20
335.493805
 11
46.715941
 21
335.493805
  0
LINE
  5
73E
100
AcDbEntity
  8
M0
 62
     1
100
AcDbLine
 10
39.715941
 20
335.543805
 11
39.715941
 21
334.493804
  0
ARC
  5
73F
100
AcDbEntity
  8
M0
 62
     1
100
AcDbCircle
 10
47.715941
 20
331.493805
 40
1.0
100
AcDbArc
 50
180.0
 51
270.0
  0
LINE
  5
740
100
AcDbEntity
  8
M0
 62
     1
100
AcDbLine
 10
39.715941
 20
334.493804
 11
45.715941
 21
334.493804
  0
LINE
  5
741
100
AcDbEntity
  8
M0
 62
     1
100
AcDbLine
 10
47.715941
 20
330.493806
 11
48.215941
 21
330.493806
  0
LINE
  5
742
100
AcDbEntity
  8
M0
 62
     1
100
AcDbLine
 10
45.715941
 20
334.493804
 11
45.715941
 21
335.543805
  0
CIRCLE
  5
743
100
AcDbEntity
  8
M0
 62
     1
100
AcDbCircle
 10
42.715941
 20
346.893805
 40
3.0
  0
LINE
  5
744
100
AcDbEntity
  8
M0
 62
     1
100
AcDbLine
 10
46.540941
 20
350.218805
 11
46.540941
 21
343.568805
  0
ARC
  5
745
100
AcDbEntity
  8
M0
 62
     1
100
AcDbCircle
 10
39.390941
 20
350.218805
 40
0.5
100
AcDbArc
 50
90.0
 51
180.0
  0
ARC
  5
746
100
AcDbEntity
  8
M0
 62
     1
100
AcDbCircle
 10
46.040941
 20
343.568805
 40
0.5
100
AcDbArc
 50
-90.0
 51
0.0
  0
ARC
  5
747
100
AcDbEntity
  8
M0
 62
     1
100
AcDbCircle
 10
39.390941
 20
343.568805
 40
0.5
100
AcDbArc
 50
180.0
 51
270.0
  0
ARC
  5
748
100
AcDbEntity
  8
M0
 62
     1
100
AcDbCircle
 10
46.040941
 20
350.218805
 40
0.5
100
AcDbArc
 50
0.0
 51
90.0
  0
LINE
  5
749
100
AcDbEntity
  8
M0
 62
     1
100
AcDbLine
 10
43.06922
 20
345.479445
 11
41.301642
 21
347.247145
  0
LINE
  5
74A
100
AcDbEntity
  8
M0
 62
     1
100
AcDbLine
 10
44.306525
 20
348.48445
 11
41.124884
 21
345.302687
  0
LINE
  5
74B
100
AcDbEntity
  8
M0
 62
     1
100
AcDbLine
 10
44.129767
 20
346.540114
 11
42.362189
 21
348.307692
  0
LINE
  5
74C
100
AcDbEntity
  8
M0
 62
     1
100
AcDbLine
 10
38.890941
 20
343.568805
 11
38.890941
 21
350.218805
  0
LINE
  5
74D
100
AcDbEntity
  8
M0
 62
     1
100
AcDbLine
 10
39.390941
 20
350.718805
 11
46.040941
 21
350.718805
  0
LINE
  5
74E
100
AcDbEntity
  8
M0
 62
     1
100
AcDbLine
 10
46.040941
 20
343.068805
 11
39.390941
 21
343.068805
  0
CIRCLE
  5
74F
100
AcDbEntity
  8
M0
 62
     1
100
AcDbCircle
 10
42.715941
 20
380.993805
 40
3.0
  0
LINE
  5
750
100
AcDbEntity
  8
M0
 62
     1
100
AcDbLine
 10
46.540941
 20
384.318805
 11
46.540941
 21
377.668805
  0
ARC
  5
751
100
AcDbEntity
  8
M0
 62
     1
100
AcDbCircle
 10
39.390941
 20
384.318805
 40
0.5
100
AcDbArc
 50
90.0
 51
180.0
  0
ARC
  5
752
100
AcDbEntity
  8
M0
 62
     1
100
AcDbCircle
 10
46.040941
 20
377.668805
 40
0.5
100
AcDbArc
 50
-90.0
 51
0.0
  0
ARC
  5
753
100
AcDbEntity
  8
M0
 62
     1
100
AcDbCircle
 10
39.390941
 20
377.668805
 40
0.5
100
AcDbArc
 50
180.0
 51
270.0
  0
ARC
  5
754
100
AcDbEntity
  8
M0
 62
     1
100
AcDbCircle
 10
46.040941
 20
384.318805
 40
0.5
100
AcDbArc
 50
0.0
 51
90.0
  0
LINE
  5
755
100
AcDbEntity
  8
M0
 62
     1
100
AcDbLine
 10
43.06922
 20
379.579445
 11
41.301642
 21
381.347145
  0
LINE
  5
756
100
AcDbEntity
  8
M0
 62
     1
100
AcDbLine
 10
44.306525
 20
382.58445
 11
41.124884
 21
379.402687
  0
LINE
  5
757
100
AcDbEntity
  8
M0
 62
     1
100
AcDbLine
 10
44.129767
 20
380.640114
 11
42.362189
 21
382.407692
  0
LINE
  5
758
100
AcDbEntity
  8
M0
 62
     1
100
AcDbLine
 10
38.890941
 20
377.668805
 11
38.890941
 21
384.318805
  0
LINE
  5
759
100
AcDbEntity
  8
M0
 62
     1
100
AcDbLine
 10
39.390941
 20
384.818805
 11
46.040941
 21
384.818805
  0
LINE
  5
75A
100
AcDbEntity
  8
M0
 62
     1
100
AcDbLine
 10
46.040941
 20
377.168805
 11
39.390941
 21
377.168805
  0
CIRCLE
  5
75B
100
AcDbEntity
  8
M0
 62
     1
100
AcDbCircle
 10
42.715941
 20
339.293805
 40
3.0
  0
LINE
  5
75C
100
AcDbEntity
  8
M0
 62
     1
100
AcDbLine
 10
46.540941
 20
342.618805
 11
46.540941
 21
335.968805
  0
ARC
  5
75D
100
AcDbEntity
  8
M0
 62
     1
100
AcDbCircle
 10
39.390941
 20
342.618805
 40
0.5
100
AcDbArc
 50
90.0
 51
180.0
  0
ARC
  5
75E
100
AcDbEntity
  8
M0
 62
     1
100
AcDbCircle
 10
46.040941
 20
335.968805
 40
0.5
100
AcDbArc
 50
-90.0
 51
0.0
  0
ARC
  5
75F
100
AcDbEntity
  8
M0
 62
     1
100
AcDbCircle
 10
39.390941
 20
335.968805
 40
0.5
100
AcDbArc
 50
180.0
 51
270.0
  0
ARC
  5
760
100
AcDbEntity
  8
M0
 62
     1
100
AcDbCircle
 10
46.040941
 20
342.618805
 40
0.5
100
AcDbArc
 50
0.0
 51
90.0
  0
LINE
  5
761
100
AcDbEntity
  8
M0
 62
     1
100
AcDbLine
 10
43.06922
 20
337.879445
 11
41.301642
 21
339.647145
  0
LINE
  5
762
100
AcDbEntity
  8
M0
 62
     1
100
AcDbLine
 10
44.306525
 20
340.88445
 11
41.124884
 21
337.702687
  0
LINE
  5
763
100
AcDbEntity
  8
M0
 62
     1
100
AcDbLine
 10
44.129767
 20
338.940114
 11
42.362189
 21
340.707692
  0
LINE
  5
764
100
AcDbEntity
  8
M0
 62
     1
100
AcDbLine
 10
38.890941
 20
335.968805
 11
38.890941
 21
342.618805
  0
LINE
  5
765
100
AcDbEntity
  8
M0
 62
     1
100
AcDbLine
 10
39.390941
 20
343.118805
 11
46.040941
 21
343.118805
  0
LINE
  5
766
100
AcDbEntity
  8
M0
 62
     1
100
AcDbLine
 10
46.040941
 20
335.468805
 11
39.390941
 21
335.468805
  0
CIRCLE
  5
767
100
AcDbEntity
  8
M0
 62
     1
100
AcDbCircle
 10
42.715941
 20
373.393805
 40
3.0
  0
LINE
  5
768
100
AcDbEntity
  8
M0
 62
     1
100
AcDbLine
 10
46.540941
 20
376.718805
 11
46.540941
 21
370.068805
  0
ARC
  5
769
100
AcDbEntity
  8
M0
 62
     1
100
AcDbCircle
 10
39.390941
 20
376.718805
 40
0.5
100
AcDbArc
 50
90.0
 51
180.0
  0
ARC
  5
76A
100
AcDbEntity
  8
M0
 62
     1
100
AcDbCircle
 10
46.040941
 20
370.068805
 40
0.5
100
AcDbArc
 50
-90.0
 51
0.0
  0
ARC
  5
76B
100
AcDbEntity
  8
M0
 62
     1
100
AcDbCircle
 10
39.390941
 20
370.068805
 40
0.5
100
AcDbArc
 50
180.0
 51
270.0
  0
ARC
  5
76C
100
AcDbEntity
  8
M0
 62
     1
100
AcDbCircle
 10
46.040941
 20
376.718805
 40
0.5
100
AcDbArc
 50
0.0
 51
90.0
  0
LINE
  5
76D
100
AcDbEntity
  8
M0
 62
     1
100
AcDbLine
 10
43.06922
 20
371.979445
 11
41.301642
 21
373.747145
  0
LINE
  5
76E
100
AcDbEntity
  8
M0
 62
     1
100
AcDbLine
 10
44.306525
 20
374.98445
 11
41.124884
 21
371.802687
  0
LINE
  5
76F
100
AcDbEntity
  8
M0
 62
     1
100
AcDbLine
 10
44.129767
 20
373.040114
 11
42.362189
 21
374.807692
  0
LINE
  5
770
100
AcDbEntity
  8
M0
 62
     1
100
AcDbLine
 10
38.890941
 20
370.068805
 11
38.890941
 21
376.718805
  0
LINE
  5
771
100
AcDbEntity
  8
M0
 62
     1
100
AcDbLine
 10
39.390941
 20
377.218805
 11
46.040941
 21
377.218805
  0
LINE
  5
772
100
AcDbEntity
  8
M0
 62
     1
100
AcDbLine
 10
46.040941
 20
369.568805
 11
39.390941
 21
369.568805
  0
LINE
  5
773
100
AcDbEntity
  8
M0
100
AcDbLine
 10
60.778147
 20
364.643806
 11
62.072748
 21
361.874606
  0
LINE
  5
774
100
AcDbEntity
  8
M0
100
AcDbLine
 10
57.365108
 20
361.874606
 11
58.098946
 21
361.874606
  0
LINE
  5
775
100
AcDbEntity
  8
M0
100
AcDbLine
 10
69.715741
 20
364.643806
 11
68.981902
 21
364.643806
  0
LINE
  5
776
100
AcDbEntity
  8
M0
100
AcDbLine
 10
61.255835
 20
361.874606
 11
62.072748
 21
361.874606
  0
LINE
  5
777
100
AcDbEntity
  8
M0
100
AcDbLine
 10
59.40047
 20
361.874606
 11
59.640773
 21
362.469984
  0
LINE
  5
778
100
AcDbEntity
  8
M0
100
AcDbLine
 10
55.246671
 20
364.643806
 11
55.246671
 21
361.874606
  0
LINE
  5
779
100
AcDbEntity
  8
M0
100
AcDbLine
 10
86.715941
 20
357.443808
 11
80.715941
 21
357.443808
  0
LINE
  5
77A
100
AcDbEntity
  8
M0
100
AcDbLine
 10
68.40037
 20
364.643806
 11
67.666533
 21
364.643806
  0
TEXT
  5
77B
100
AcDbEntity
  8
M0
100
AcDbText
 10
73.840941
 20
352.643809
 40
2.0
  1
５６
 41
0.625
  7
STANDARD
100
AcDbText
  0
LINE
  5
77C
100
AcDbEntity
  8
M0
100
AcDbLine
 10
67.666533
 20
363.536126
 11
66.185011
 21
363.536126
  0
TEXT
  5
77D
100
AcDbEntity
  8
M0
100
AcDbText
 10
51.840934
 20
358.643809
 40
2.0
  1
ＬＡＴＣＨＥＤ
 41
0.625
  7
STANDARD
100
AcDbText
  0
LINE
  5
77E
100
AcDbEntity
  8
M0
100
AcDbLine
 10
67.666533
 20
363.536126
 11
67.666533
 21
364.643806
  0
LINE
  5
77F
100
AcDbEntity
  8
M0
100
AcDbLine
 10
65.075021
 20
362.871518
 11
64.301954
 21
362.871518
  0
TEXT
  5
780
100
AcDbEntity
  8
M0
100
AcDbText
 10
73.840941
 20
365.643807
 40
2.0
  1
５５
 41
0.625
  7
STANDARD
100
AcDbText
  0
LINE
  5
781
100
AcDbEntity
  8
M0
100
AcDbLine
 10
77.715941
 20
357.943808
 11
80.715941
 21
356.851898
  0
LINE
  5
782
100
AcDbEntity
  8
M0
100
AcDbLine
 10
59.220473
 20
364.643806
 11
56.243583
 21
364.643806
  0
LINE
  5
783
100
AcDbEntity
  8
M0
100
AcDbLine
 10
86.715941
 20
358.443808
 11
80.715941
 21
358.443808
  0
LINE
  5
784
100
AcDbEntity
  8
M0
100
AcDbLine
 10
59.878158
 20
364.643806
 11
58.583557
 21
361.874606
  0
LINE
  5
785
100
AcDbEntity
  8
M0
100
AcDbLine
 10
80.715941
 20
356.851898
 11
80.715941
 21
357.443808
  0
LINE
  5
786
100
AcDbEntity
  8
M0
100
AcDbLine
 10
57.365108
 20
364.173042
 11
57.365108
 21
361.874606
  0
LINE
  5
787
100
AcDbEntity
  8
M0
100
AcDbLine
 10
80.715941
 20
358.443808
 11
80.715941
 21
359.035719
  0
LINE
  5
788
100
AcDbEntity
  8
M0
100
AcDbLine
 10
77.715941
 20
357.943808
 11
80.715941
 21
359.035719
  0
LINE
  5
789
100
AcDbEntity
  8
M0
100
AcDbLine
 10
59.640773
 20
362.469984
 11
61.015532
 21
362.469984
  0
LINE
  5
78A
100
AcDbEntity
  8
M0
100
AcDbLine
 10
60.836701
 20
362.913056
 11
60.328153
 21
364.173042
  0
LINE
  5
78B
100
AcDbEntity
  8
M0
100
AcDbLine
 10
52.449779
 20
364.643806
 11
51.715941
 21
364.643806
  0
LINE
  5
78C
100
AcDbEntity
  8
M0
100
AcDbLine
 10
54.665139
 20
364.643806
 11
53.931301
 21
364.643806
  0
LINE
  5
78D
100
AcDbEntity
  8
M0
100
AcDbLine
 10
53.931301
 20
361.874606
 11
54.665139
 21
361.874606
  0
LINE
  5
78E
100
AcDbEntity
  8
M0
100
AcDbLine
 10
86.715941
 20
357.443808
 11
86.715941
 21
358.443808
  0
ARC
  5
78F
100
AcDbEntity
  8
M0
100
AcDbCircle
 10
94.1789
 20
355.843805
 40
0.5
100
AcDbArc
 50
270.0
 51
360.0
  0
ARC
  5
790
100
AcDbEntity
  8
M0
100
AcDbCircle
 10
94.1789
 20
364.443805
 40
0.5
100
AcDbArc
 50
0.0
 51
90.0
  0
LINE
  5
791
100
AcDbEntity
  8
M0
100
AcDbLine
 10
94.678899
 20
364.443805
 11
94.678899
 21
355.843806
  0
LINE
  5
792
100
AcDbEntity
  8
M0
100
AcDbLine
 10
66.185011
 20
361.874606
 11
66.185011
 21
363.093054
  0
LINE
  5
793
100
AcDbEntity
  8
M0
100
AcDbLine
 10
56.243583
 20
364.173042
 11
57.365108
 21
364.173042
  0
LINE
  5
794
100
AcDbEntity
  8
M0
100
AcDbLine
 10
89.81594
 20
364.943805
 11
94.1789
 21
364.943805
  0
LINE
  5
795
100
AcDbEntity
  8
M0
100
AcDbLine
 10
56.243583
 20
364.643806
 11
56.243583
 21
364.173042
  0
LINE
  5
796
100
AcDbEntity
  8
M0
100
AcDbLine
 10
79.115941
 20
344.943806
 11
86.915942
 21
344.943806
  0
LINE
  5
797
100
AcDbEntity
  8
M0
100
AcDbLine
 10
63.915941
 20
343.643806
 11
63.915941
 21
342.143807
  0
ARC
  5
798
100
AcDbEntity
  8
M0
100
AcDbCircle
 10
73.115941
 20
344.543805
 40
0.5
100
AcDbArc
 50
270.0
 51
360.0
  0
LINE
  5
799
100
AcDbEntity
  8
M0
100
AcDbLine
 10
56.315941
 20
343.143805
 11
56.215942
 21
343.143805
  0
LINE
  5
79A
100
AcDbEntity
  8
M0
100
AcDbLine
 10
64.015941
 20
343.643806
 11
63.915941
 21
343.643806
  0
ARC
  5
79B
100
AcDbEntity
  8
M0
100
AcDbCircle
 10
73.115941
 20
347.443805
 40
0.5
100
AcDbArc
 50
0.0
 51
90.0
  0
LINE
  5
79C
100
AcDbEntity
  8
M0
100
AcDbLine
 10
56.315941
 20
342.143807
 11
56.315941
 21
343.143805
  0
LINE
  5
79D
100
AcDbEntity
  8
M0
100
AcDbLine
 10
66.185011
 20
363.093054
 11
67.666533
 21
363.093054
  0
LINE
  5
79E
100
AcDbEntity
  8
M0
100
AcDbLine
 10
66.185011
 20
364.643806
 11
65.451173
 21
364.643806
  0
LINE
  5
79F
100
AcDbEntity
  8
M0
100
AcDbLine
 10
58.098946
 20
364.173042
 11
58.098946
 21
361.874606
  0
LINE
  5
7A0
100
AcDbEntity
  8
M0
100
AcDbLine
 10
68.981902
 20
361.874606
 11
69.715741
 21
361.874606
  0
LINE
  5
7A1
100
AcDbEntity
  8
M0
100
AcDbLine
 10
58.098946
 20
364.173042
 11
59.220473
 21
364.173042
  0
LINE
  5
7A2
100
AcDbEntity
  8
M0
100
AcDbLine
 10
51.715941
 20
361.874606
 11
52.449779
 21
361.874606
  0
LINE
  5
7A3
100
AcDbEntity
  8
M0
100
AcDbLine
 10
60.836701
 20
362.913056
 11
59.819604
 21
362.913056
  0
LINE
  5
7A4
100
AcDbEntity
  8
M0
100
AcDbLine
 10
68.40037
 20
361.874606
 11
68.40037
 21
364.643806
  0
LINE
  5
7A5
100
AcDbEntity
  8
M0
100
AcDbLine
 10
65.451173
 20
364.643806
 11
65.451173
 21
361.874606
  0
LINE
  5
7A6
100
AcDbEntity
  8
M0
100
AcDbLine
 10
55.980508
 20
364.643806
 11
55.980508
 21
361.874606
  0
LINE
  5
7A7
100
AcDbEntity
  8
M0
100
AcDbLine
 10
59.220473
 20
364.643806
 11
59.220473
 21
364.173042
  0
LINE
  5
7A8
100
AcDbEntity
  8
M0
100
AcDbLine
 10
67.666533
 20
361.874606
 11
67.666533
 21
363.093054
  0
LINE
  5
7A9
100
AcDbEntity
  8
M0
100
AcDbLine
 10
66.185011
 20
363.536126
 11
66.185011
 21
364.643806
  0
LINE
  5
7AA
100
AcDbEntity
  8
M0
100
AcDbLine
 10
60.46922
 20
347.458168
 11
58.701642
 21
345.690468
  0
LINE
  5
7AB
100
AcDbEntity
  8
M0
100
AcDbLine
 10
84.429767
 20
350.197499
 11
82.662189
 21
348.429921
  0
LINE
  5
7AC
100
AcDbEntity
  8
M0
100
AcDbLine
 10
61.706525
 20
344.453164
 11
58.524884
 21
347.634926
  0
LINE
  5
7AD
100
AcDbEntity
  8
M0
100
AcDbLine
 10
84.606525
 20
348.253163
 11
81.424884
 21
351.434926
  0
CIRCLE
  5
7AE
100
AcDbEntity
  8
M0
100
AcDbCircle
 10
83.015941
 20
370.443805
 40
3.0
  0
LINE
  5
7AF
100
AcDbEntity
  8
M0
100
AcDbLine
 10
61.529767
 20
346.3975
 11
59.762189
 21
344.629921
  0
LINE
  5
7B0
100
AcDbEntity
  8
M0
100
AcDbLine
 10
83.36922
 20
351.258168
 11
81.601642
 21
349.490468
  0
LINE
  5
7B1
100
AcDbEntity
  8
M0
100
AcDbLine
 10
83.36922
 20
371.858168
 11
81.601642
 21
370.090468
  0
LINE
  5
7B2
100
AcDbEntity
  8
M0
100
AcDbLine
 10
84.429767
 20
370.797499
 11
82.662189
 21
369.029921
  0
LINE
  5
7B3
100
AcDbEntity
  8
M0
100
AcDbLine
 10
49.715941
 20
363.343805
 11
49.715941
 21
360.143806
  0
LINE
  5
7B4
100
AcDbEntity
  8
M0
100
AcDbLine
 10
61.706525
 20
372.653163
 11
58.524884
 21
375.834926
  0
LINE
  5
7B5
100
AcDbEntity
  8
M0
100
AcDbLine
 10
61.529767
 20
374.597499
 11
59.762189
 21
372.829921
  0
LINE
  5
7B6
100
AcDbEntity
  8
M0
100
AcDbLine
 10
84.606525
 20
368.853163
 11
81.424884
 21
372.034926
  0
LINE
  5
7B7
100
AcDbEntity
  8
M0
100
AcDbLine
 10
60.46922
 20
375.658168
 11
58.701642
 21
373.890468
  0
ARC
  5
7B8
100
AcDbEntity
  8
M0
100
AcDbCircle
 10
63.581963
 20
363.674585
 40
0.706146
100
AcDbArc
 50
2.247463
 51
18.629353
  0
ARC
  5
7B9
100
AcDbEntity
  8
M0
100
AcDbCircle
 10
64.151676
 20
363.694308
 40
0.89999
100
AcDbArc
 50
11.57091
 51
66.454309
  0
ARC
  5
7BA
100
AcDbEntity
  8
M0
100
AcDbCircle
 10
63.581963
 20
363.342282
 40
1.10768
100
AcDbArc
 50
248.465704
 51
287.487613
  0
ARC
  5
7BB
100
AcDbEntity
  8
M0
100
AcDbCircle
 10
63.581963
 20
363.176129
 40
1.10768
100
AcDbArc
 50
72.944058
 51
108.768683
  0
ARC
  5
7BC
100
AcDbEntity
  8
M0
100
AcDbCircle
 10
64.476414
 20
363.231513
 40
1.758441
100
AcDbArc
 50
160.088603
 51
196.481482
  0
ARC
  5
7BD
100
AcDbEntity
  8
M0
100
AcDbCircle
 10
63.581963
 20
362.871518
 40
0.719992
100
AcDbArc
 50
334.356275
 51
360.0
  0
ARC
  5
7BE
100
AcDbEntity
  8
M0
100
AcDbCircle
 10
63.414248
 20
362.917258
 40
0.650762
100
AcDbArc
 50
196.481517
 51
248.465722
  0
CIRCLE
  5
7BF
100
AcDbEntity
  8
M0
100
AcDbCircle
 10
83.015941
 20
349.843805
 40
3.0
  0
ARC
  5
7C0
100
AcDbEntity
  8
M0
100
AcDbCircle
 10
63.752529
 20
363.732085
 40
0.526148
100
AcDbArc
 50
18.629246
 51
72.943922
  0
CIRCLE
  5
7C1
100
AcDbEntity
  8
M0
100
AcDbCircle
 10
60.115941
 20
374.243805
 40
3.0
  0
ARC
  5
7C2
100
AcDbEntity
  8
M0
100
AcDbCircle
 10
63.434951
 20
363.608751
 40
0.650762
100
AcDbArc
 50
108.768698
 51
160.088638
  0
ARC
  5
7C3
100
AcDbEntity
  8
M0
100
AcDbCircle
 10
64.173476
 20
362.808764
 40
0.886144
100
AcDbArc
 50
292.42259
 51
346.150643
  0
CIRCLE
  5
7C4
100
AcDbEntity
  8
M0
100
AcDbCircle
 10
60.115941
 20
346.043806
 40
3.0
  0
ARC
  5
7C5
100
AcDbEntity
  8
M0
100
AcDbCircle
 10
63.581963
 20
363.577663
 40
1.481521
100
AcDbArc
 50
4.824937
 51
11.570943
  0
LINE
  5
7C6
100
AcDbEntity
  8
M0
100
AcDbLine
 10
52.449779
 20
363.093054
 11
53.931301
 21
363.093054
  0
LINE
  5
7C7
100
AcDbEntity
  8
M0
100
AcDbLine
 10
61.255835
 20
361.874606
 11
61.015532
 21
362.469984
  0
LINE
  5
7C8
100
AcDbEntity
  8
M0
100
AcDbLine
 10
55.246671
 20
361.874606
 11
55.980508
 21
361.874606
  0
ARC
  5
7C9
100
AcDbEntity
  8
M0
100
AcDbCircle
 10
63.748115
 20
363.231513
 40
1.799979
100
AcDbArc
 50
161.72132
 51
190.751551
  0
ARC
  5
7CA
100
AcDbEntity
  8
M0
100
AcDbCircle
 10
63.222221
 20
363.405219
 40
1.246139
100
AcDbArc
 50
109.456972
 51
161.721309
  0
LINE
  5
7CB
100
AcDbEntity
  8
M0
100
AcDbLine
 10
65.058235
 20
363.702277
 11
64.287565
 21
363.702277
  0
LINE
  5
7CC
100
AcDbEntity
  8
M0
100
AcDbLine
 10
53.931301
 20
364.643806
 11
53.931301
 21
363.536126
  0
LINE
  5
7CD
100
AcDbEntity
  8
M0
100
AcDbLine
 10
60.778147
 20
364.643806
 11
59.878158
 21
364.643806
  0
LINE
  5
7CE
100
AcDbEntity
  8
M0
100
AcDbLine
 10
52.449779
 20
364.643806
 11
52.449779
 21
363.536126
  0
LINE
  5
7CF
100
AcDbEntity
  8
M0
100
AcDbLine
 10
59.819604
 20
362.913056
 11
60.328153
 21
364.173042
  0
LINE
  5
7D0
100
AcDbEntity
  8
M0
100
AcDbLine
 10
54.665139
 20
364.643806
 11
54.665139
 21
361.874606
  0
LINE
  5
7D1
100
AcDbEntity
  8
M0
100
AcDbLine
 10
58.583557
 20
361.874606
 11
59.40047
 21
361.874606
  0
LINE
  5
7D2
100
AcDbEntity
  8
M0
100
AcDbLine
 10
52.449779
 20
363.093054
 11
52.449779
 21
361.874606
  0
LINE
  5
7D3
100
AcDbEntity
  8
M0
100
AcDbLine
 10
65.451173
 20
361.874606
 11
66.185011
 21
361.874606
  0
LINE
  5
7D4
100
AcDbEntity
  8
M0
100
AcDbLine
 10
67.666533
 20
361.874606
 11
68.40037
 21
361.874606
  0
LINE
  5
7D5
100
AcDbEntity
  8
M0
100
AcDbLine
 10
53.931301
 20
363.093054
 11
53.931301
 21
361.874606
  0
TEXT
  5
7D6
100
AcDbEntity
  8
M0
100
AcDbText
 10
80.240935
 20
360.843806
 40
2.0
  1
ＯＦＦ
 41
0.625
  7
STANDARD
100
AcDbText
  0
LINE
  5
7D7
100
AcDbEntity
  8
M0
100
AcDbLine
 10
55.980508
 20
364.643806
 11
55.246671
 21
364.643806
  0
LINE
  5
7D8
100
AcDbEntity
  8
M0
100
AcDbLine
 10
53.931301
 20
363.536126
 11
52.449779
 21
363.536126
  0
TEXT
  5
7D9
100
AcDbEntity
  8
M0
100
AcDbText
 10
58.740935
 20
352.643809
 40
2.0
  1
Ｅ２
 41
0.625
  7
STANDARD
100
AcDbText
  0
LINE
  5
7DA
100
AcDbEntity
  8
M0
100
AcDbLine
 10
68.981902
 20
361.874606
 11
68.981902
 21
364.643806
  0
ARC
  5
7DB
100
AcDbEntity
  8
M0
100
AcDbCircle
 10
63.756714
 20
362.787628
 40
0.526148
100
AcDbArc
 50
287.487588
 51
334.356243
  0
ARC
  5
7DC
100
AcDbEntity
  8
M0
100
AcDbCircle
 10
63.231203
 20
363.133359
 40
1.273831
100
AcDbArc
 50
190.75155
 51
252.447271
  0
ARC
  5
7DD
100
AcDbEntity
  8
M0
100
AcDbCircle
 10
63.581963
 20
362.954594
 40
1.495367
100
AcDbArc
 50
346.150651
 51
356.815254
  0
TEXT
  5
7DE
100
AcDbEntity
  8
M0
100
AcDbText
 10
51.840934
 20
356.143809
 40
2.0
  1
ＣＯＮＴＡＣＴＯＲ
 41
0.625
  7
STANDARD
100
AcDbText
  0
TEXT
  5
7DF
100
AcDbEntity
  8
M0
100
AcDbText
 10
58.740935
 20
365.643807
 40
2.0
  1
Ｅ１
 41
0.625
  7
STANDARD
100
AcDbText
  0
ARC
  5
7E0
100
AcDbEntity
  8
M0
100
AcDbCircle
 10
63.581963
 20
364.242272
 40
2.436895
100
AcDbArc
 50
252.447278
 51
292.42262
  0
LINE
  5
7E1
100
AcDbEntity
  8
M0
100
AcDbLine
 10
90.215942
 20
377.143805
 11
90.215942
 21
367.343805
  0
LINE
  5
7E2
100
AcDbEntity
  8
M0
100
AcDbLine
 10
86.915942
 20
366.343805
 11
86.915942
 21
377.143805
  0
LINE
  5
7E3
100
AcDbEntity
  8
M0
100
AcDbLine
 10
90.215942
 20
367.343805
 11
92.715941
 21
367.343805
  0
LINE
  5
7E4
100
AcDbEntity
  8
M0
100
AcDbLine
 10
79.115941
 20
377.143805
 11
79.115941
 21
366.343805
  0
LINE
  5
7E5
100
AcDbEntity
  8
M0
100
AcDbLine
 10
56.215942
 20
370.143805
 11
64.015941
 21
370.143805
  0
LINE
  5
7E6
100
AcDbEntity
  8
M0
100
AcDbLine
 10
92.715941
 20
365.143805
 11
90.215942
 21
365.143805
  0
LINE
  5
7E7
100
AcDbEntity
  8
M0
100
AcDbLine
 10
79.115941
 20
366.343805
 11
86.915942
 21
366.343805
  0
LINE
  5
7E8
100
AcDbEntity
  8
M0
100
AcDbLine
 10
56.215942
 20
378.143805
 11
56.215942
 21
377.143805
  0
LINE
  5
7E9
100
AcDbEntity
  8
M0
100
AcDbLine
 10
64.015941
 20
377.143805
 11
64.015941
 21
378.143805
  0
LINE
  5
7EA
100
AcDbEntity
  8
M0
100
AcDbLine
 10
71.715941
 20
348.043806
 11
71.715941
 21
347.943804
  0
LINE
  5
7EB
100
AcDbEntity
  8
M0
100
AcDbLine
 10
94.715941
 20
366.343805
 11
94.715941
 21
366.143805
  0
LINE
  5
7EC
100
AcDbEntity
  8
M0
100
AcDbLine
 10
92.715941
 20
367.343805
 11
93.715941
 21
367.343805
  0
LINE
  5
7ED
100
AcDbEntity
  8
M0
100
AcDbLine
 10
73.615941
 20
348.043806
 11
73.615941
 21
347.943804
  0
LINE
  5
7EE
100
AcDbEntity
  8
M0
100
AcDbLine
 10
93.715941
 20
365.143805
 11
92.715941
 21
365.143805
  0
ARC
  5
7EF
100
AcDbEntity
  8
M0
100
AcDbCircle
 10
68.515941
 20
347.443805
 40
0.5
100
AcDbArc
 50
90.0
 51
180.0
  0
ARC
  5
7F0
100
AcDbEntity
  8
M0
100
AcDbCircle
 10
93.715941
 20
366.143805
 40
1.0
100
AcDbArc
 50
270.0
 51
360.0
  0
LINE
  5
7F1
100
AcDbEntity
  8
M0
100
AcDbLine
 10
86.765941
 20
373.693805
 11
86.765941
 21
367.193805
  0
ARC
  5
7F2
100
AcDbEntity
  8
M0
100
AcDbCircle
 10
89.215941
 20
377.143805
 40
1.0
100
AcDbArc
 50
0.0
 51
90.0
  0
ARC
  5
7F3
100
AcDbEntity
  8
M0
100
AcDbCircle
 10
90.215941
 20
364.643805
 40
0.5
100
AcDbArc
 50
90.0
 51
180.0
  0
ARC
  5
7F4
100
AcDbEntity
  8
M0
100
AcDbCircle
 10
68.515941
 20
344.543805
 40
0.5
100
AcDbArc
 50
180.0
 51
270.0
  0
ARC
  5
7F5
100
AcDbEntity
  8
M0
100
AcDbCircle
 10
93.715941
 20
366.343805
 40
1.0
100
AcDbArc
 50
0.0
 51
90.0
  0
LINE
  5
7F6
100
AcDbEntity
  8
M0
100
AcDbLine
 10
47.715941
 20
378.143805
 11
93.715941
 21
378.143805
  0
LINE
  5
7F7
100
AcDbEntity
  8
M0
100
AcDbLine
 10
47.715941
 20
363.343805
 11
47.215942
 21
363.343805
  0
LINE
  5
7F8
100
AcDbEntity
  8
M0
100
AcDbLine
 10
64.015941
 20
370.143805
 11
64.015941
 21
377.143805
  0
LINE
  5
7F9
100
AcDbEntity
  8
M0
100
AcDbLine
 10
79.765941
 20
374.193805
 11
86.265941
 21
374.193805
  0
LINE
  5
7FA
100
AcDbEntity
  8
M0
100
AcDbLine
 10
86.265941
 20
366.693805
 11
79.765941
 21
366.693805
  0
LINE
  5
7FB
100
AcDbEntity
  8
M0
100
AcDbLine
 10
56.215942
 20
377.143805
 11
56.215942
 21
370.143805
  0
LINE
  5
7FC
100
AcDbEntity
  8
M0
100
AcDbLine
 10
94.715941
 20
360.143806
 11
94.678899
 21
360.143806
  0
LINE
  5
7FD
100
AcDbEntity
  8
M0
100
AcDbLine
 10
56.865941
 20
377.993805
 11
63.365941
 21
377.993805
  0
ARC
  5
7FE
100
AcDbEntity
  8
M0
100
AcDbCircle
 10
79.765941
 20
346.593805
 40
0.5
100
AcDbArc
 50
180.0
 51
270.0
  0
LINE
  5
7FF
100
AcDbEntity
  8
M0
100
AcDbLine
 10
63.365941
 20
342.293805
 11
56.865941
 21
342.293805
  0
ARC
  5
800
100
AcDbEntity
  8
M0
100
AcDbCircle
 10
63.365941
 20
349.293805
 40
0.5
100
AcDbArc
 50
0.0
 51
90.0
  0
ARC
  5
801
100
AcDbEntity
  8
M0
100
AcDbCircle
 10
63.365941
 20
342.793805
 40
0.5
100
AcDbArc
 50
270.0
 51
360.0
  0
LINE
  5
802
100
AcDbEntity
  8
M0
100
AcDbLine
 10
56.365941
 20
342.793805
 11
56.365941
 21
349.293805
  0
ARC
  5
803
100
AcDbEntity
  8
M0
100
AcDbCircle
 10
79.765941
 20
353.093805
 40
0.5
100
AcDbArc
 50
90.0
 51
180.0
  0
LINE
  5
804
100
AcDbEntity
  8
M0
100
AcDbLine
 10
56.365941
 20
370.993805
 11
56.365941
 21
377.493805
  0
ARC
  5
805
100
AcDbEntity
  8
M0
100
AcDbCircle
 10
56.865941
 20
377.493805
 40
0.5
100
AcDbArc
 50
90.0
 51
180.0
  0
LINE
  5
806
100
AcDbEntity
  8
M0
100
AcDbLine
 10
63.865941
 20
377.493805
 11
63.865941
 21
370.993805
  0
LINE
  5
807
100
AcDbEntity
  8
M0
100
AcDbLine
 10
56.865941
 20
349.793806
 11
63.365941
 21
349.793806
  0
LINE
  5
808
100
AcDbEntity
  8
M0
100
AcDbLine
 10
63.865941
 20
349.293805
 11
63.865941
 21
342.793806
  0
LINE
  5
809
100
AcDbEntity
  8
M0
100
AcDbLine
 10
63.365941
 20
370.493805
 11
56.865941
 21
370.493805
  0
ARC
  5
80A
100
AcDbEntity
  8
M0
100
AcDbCircle
 10
56.865941
 20
370.993805
 40
0.5
100
AcDbArc
 50
180.0
 51
270.0
  0
ARC
  5
80B
100
AcDbEntity
  8
M0
100
AcDbCircle
 10
79.765941
 20
373.693805
 40
0.5
100
AcDbArc
 50
90.0
 51
180.0
  0
ARC
  5
80C
100
AcDbEntity
  8
M0
100
AcDbCircle
 10
79.765941
 20
367.193805
 40
0.5
100
AcDbArc
 50
180.0
 51
270.0
  0
LINE
  5
80D
100
AcDbEntity
  8
M0
100
AcDbLine
 10
86.265941
 20
346.093806
 11
79.765942
 21
346.093806
  0
ARC
  5
80E
100
AcDbEntity
  8
M0
100
AcDbCircle
 10
86.265941
 20
346.593805
 40
0.5
100
AcDbArc
 50
270.0
 51
360.0
  0
LINE
  5
80F
100
AcDbEntity
  8
M0
100
AcDbLine
 10
73.615941
 20
347.943804
 11
73.615941
 21
346.143804
  0
LINE
  5
810
100
AcDbEntity
  8
M0
100
AcDbLine
 10
79.265942
 20
346.593804
 11
79.265942
 21
353.093805
  0
ARC
  5
811
100
AcDbEntity
  8
M0
100
AcDbCircle
 10
86.265941
 20
353.093805
 40
0.5
100
AcDbArc
 50
0.0
 51
90.0
  0
ARC
  5
812
100
AcDbEntity
  8
M0
100
AcDbCircle
 10
63.365941
 20
370.993805
 40
0.5
100
AcDbArc
 50
270.0
 51
360.0
  0
ARC
  5
813
100
AcDbEntity
  8
M0
100
AcDbCircle
 10
63.365941
 20
377.493805
 40
0.5
100
AcDbArc
 50
0.0
 51
90.0
  0
ARC
  5
814
100
AcDbEntity
  8
M0
100
AcDbCircle
 10
56.865941
 20
349.293805
 40
0.5
100
AcDbArc
 50
90.0
 51
180.0
  0
LINE
  5
815
100
AcDbEntity
  8
M0
100
AcDbLine
 10
86.765941
 20
353.093805
 11
86.765941
 21
346.593804
  0
LINE
  5
816
100
AcDbEntity
  8
M0
100
AcDbLine
 10
79.765941
 20
353.593805
 11
86.265941
 21
353.593805
  0
ARC
  5
817
100
AcDbEntity
  8
M0
100
AcDbCircle
 10
56.865941
 20
342.793805
 40
0.5
100
AcDbArc
 50
180.0
 51
270.0
  0
LINE
  5
818
100
AcDbEntity
  8
M0
100
AcDbLine
 10
86.915942
 20
375.343805
 11
79.115941
 21
375.343805
  0
LINE
  5
819
100
AcDbEntity
  8
M0
100
AcDbLine
 10
73.615941
 20
344.543806
 11
73.615941
 21
345.043804
  0
LINE
  5
81A
100
AcDbEntity
  8
M0
100
AcDbLine
 10
46.715941
 20
343.143805
 11
46.715941
 21
349.643805
  0
LINE
  5
81B
100
AcDbEntity
  8
M0
100
AcDbLine
 10
68.515941
 20
347.943804
 11
73.115941
 21
347.943804
  0
LINE
  5
81C
100
AcDbEntity
  8
M0
100
AcDbLine
 10
73.115941
 20
344.043805
 11
68.515941
 21
344.043805
  0
LINE
  5
81D
100
AcDbEntity
  8
M0
100
AcDbLine
 10
73.915941
 20
347.843804
 11
73.915941
 21
346.143804
  0
LINE
  5
81E
100
AcDbEntity
  8
M0
100
AcDbLine
 10
73.615941
 20
347.443805
 11
73.615941
 21
345.043804
  0
LINE
  5
81F
100
AcDbEntity
  8
M0
100
AcDbLine
 10
47.215942
 20
356.943806
 11
47.715941
 21
356.943806
  0
LINE
  5
820
100
AcDbEntity
  8
M0
100
AcDbLine
 10
94.715941
 20
377.143805
 11
94.715941
 21
343.143805
  0
LINE
  5
821
100
AcDbEntity
  8
M0
100
AcDbLine
 10
47.715941
 20
356.943806
 11
47.715941
 21
363.343805
  0
LINE
  5
822
100
AcDbEntity
  8
M0
100
AcDbLine
 10
73.915941
 20
343.643806
 11
68.015941
 21
343.643806
  0
LINE
  5
823
100
AcDbEntity
  8
M0
100
AcDbLine
 10
50.215941
 20
342.143807
 11
47.715941
 21
342.143807
  0
LINE
  5
824
100
AcDbEntity
  8
M0
100
AcDbLine
 10
46.715941
 20
343.143805
 11
46.715941
 21
377.143805
  0
LINE
  5
825
100
AcDbEntity
  8
M0
100
AcDbLine
 10
94.678899
 20
360.143806
 11
94.715941
 21
360.143806
  0
ARC
  5
826
100
AcDbEntity
  8
M0
100
AcDbCircle
 10
55.215941
 20
343.143805
 40
1.0
100
AcDbArc
 50
270.0
 51
360.0
  0
ARC
  5
827
100
AcDbEntity
  8
M0
100
AcDbCircle
 10
47.715941
 20
343.143805
 40
1.0
100
AcDbArc
 50
180.0
 51
270.0
  0
ARC
  5
828
100
AcDbEntity
  8
M0
100
AcDbCircle
 10
67.015941
 20
343.143805
 40
1.0
100
AcDbArc
 50
270.0
 51
360.0
  0
ARC
  5
829
100
AcDbEntity
  8
M0
100
AcDbCircle
 10
93.715941
 20
343.143805
 40
1.0
100
AcDbArc
 50
270.0
 51
360.0
  0
ARC
  5
82A
100
AcDbEntity
  8
M0
100
AcDbCircle
 10
63.581963
 20
362.386908
 40
2.326127
100
AcDbArc
 50
66.454301
 51
109.456969
  0
ARC
  5
82B
100
AcDbEntity
  8
M0
100
AcDbCircle
 10
65.015941
 20
343.143805
 40
1.0
100
AcDbArc
 50
180.0
 51
270.0
  0
ARC
  5
82C
100
AcDbEntity
  8
M0
100
AcDbCircle
 10
47.215941
 20
356.443805
 40
0.5
100
AcDbArc
 50
90.0
 51
180.0
  0
ARC
  5
82D
100
AcDbEntity
  8
M0
100
AcDbCircle
 10
90.215941
 20
355.643805
 40
0.5
100
AcDbArc
 50
180.0
 51
270.0
  0
ARC
  5
82E
100
AcDbEntity
  8
M0
100
AcDbCircle
 10
89.215941
 20
343.143805
 40
1.0
100
AcDbArc
 50
270.0
 51
360.0
  0
ARC
  5
82F
100
AcDbEntity
  8
M0
100
AcDbCircle
 10
93.715941
 20
354.143805
 40
1.0
100
AcDbArc
 50
0.0
 51
90.0
  0
ARC
  5
830
100
AcDbEntity
  8
M0
100
AcDbCircle
 10
78.115941
 20
343.143805
 40
1.0
100
AcDbArc
 50
270.0
 51
360.0
  0
ARC
  5
831
100
AcDbEntity
  8
M0
100
AcDbCircle
 10
74.915941
 20
343.143805
 40
1.0
100
AcDbArc
 50
180.0
 51
270.0
  0
ARC
  5
832
100
AcDbEntity
  8
M0
100
AcDbCircle
 10
93.715941
 20
353.943805
 40
1.0
100
AcDbArc
 50
270.0
 51
360.0
  0
ARC
  5
833
100
AcDbEntity
  8
M0
100
AcDbCircle
 10
87.915941
 20
343.143805
 40
1.0
100
AcDbArc
 50
180.0
 51
270.0
  0
ARC
  5
834
100
AcDbEntity
  8
M0
100
AcDbCircle
 10
86.265941
 20
367.193805
 40
0.5
100
AcDbArc
 50
270.0
 51
360.0
  0
LINE
  5
835
100
AcDbEntity
  8
M0
100
AcDbLine
 10
94.1789
 20
355.343805
 11
89.81594
 21
355.343805
  0
ARC
  5
836
100
AcDbEntity
  8
M0
100
AcDbCircle
 10
93.715941
 20
377.143805
 40
1.0
100
AcDbArc
 50
0.0
 51
90.0
  0
LINE
  5
837
100
AcDbEntity
  8
M0
100
AcDbLine
 10
92.715941
 20
352.943805
 11
93.715941
 21
352.943805
  0
LINE
  5
838
100
AcDbEntity
  8
M0
100
AcDbLine
 10
94.715941
 20
354.143805
 11
94.715941
 21
353.943805
  0
ARC
  5
839
100
AcDbEntity
  8
M0
100
AcDbCircle
 10
86.265941
 20
373.693805
 40
0.5
100
AcDbArc
 50
0.0
 51
90.0
  0
LINE
  5
83A
100
AcDbEntity
  8
M0
100
AcDbLine
 10
92.715941
 20
355.143805
 11
93.715941
 21
355.143805
  0
ARC
  5
83B
100
AcDbEntity
  8
M0
100
AcDbCircle
 10
78.115941
 20
377.143805
 40
1.0
100
AcDbArc
 50
0.0
 51
90.0
  0
ARC
  5
83C
100
AcDbEntity
  8
M0
100
AcDbCircle
 10
65.015941
 20
377.143805
 40
1.0
100
AcDbArc
 50
90.0
 51
180.0
  0
LINE
  5
83D
100
AcDbEntity
  8
M0
100
AcDbLine
 10
79.265942
 20
367.193805
 11
79.265942
 21
373.693805
  0
ARC
  5
83E
100
AcDbEntity
  8
M0
100
AcDbCircle
 10
47.715941
 20
377.143805
 40
1.0
100
AcDbArc
 50
90.0
 51
180.0
  0
ARC
  5
83F
100
AcDbEntity
  8
M0
100
AcDbCircle
 10
47.215941
 20
363.843805
 40
0.5
100
AcDbArc
 50
180.0
 51
270.0
  0
ARC
  5
840
100
AcDbEntity
  8
M0
100
AcDbCircle
 10
87.915941
 20
377.143805
 40
1.0
100
AcDbArc
 50
90.0
 51
180.0
  0
ARC
  5
841
100
AcDbEntity
  8
M0
100
AcDbCircle
 10
55.215941
 20
377.143805
 40
1.0
100
AcDbArc
 50
0.0
 51
90.0
  0
LINE
  5
842
100
AcDbEntity
  8
M0
100
AcDbLine
 10
68.015941
 20
348.043806
 11
68.015941
 21
343.143805
  0
LINE
  5
843
100
AcDbEntity
  8
M0
100
AcDbLine
 10
64.015941
 20
343.143805
 11
64.015941
 21
350.143804
  0
LINE
  5
844
100
AcDbEntity
  8
M0
100
AcDbLine
 10
73.915941
 20
343.143805
 11
73.915941
 21
348.043806
  0
LINE
  5
845
100
AcDbEntity
  8
M0
100
AcDbLine
 10
56.215942
 20
350.143804
 11
56.215942
 21
343.143805
  0
LINE
  5
846
100
AcDbEntity
  8
M0
100
AcDbLine
 10
93.715941
 20
342.143807
 11
47.715941
 21
342.143807
  0
LINE
  5
847
100
AcDbEntity
  8
M0
100
AcDbLine
 10
73.915941
 20
348.043806
 11
68.015941
 21
348.043806
  0
LINE
  5
848
100
AcDbEntity
  8
M0
100
AcDbLine
 10
64.015941
 20
350.143804
 11
56.215942
 21
350.143804
  0
LINE
  5
849
100
AcDbEntity
  8
M0
100
AcDbLine
 10
90.215942
 20
352.943805
 11
90.215942
 21
343.143805
  0
LINE
  5
84A
100
AcDbEntity
  8
M0
100
AcDbLine
 10
89.715941
 20
364.643805
 11
89.715941
 21
355.643804
  0
LINE
  5
84B
100
AcDbEntity
  8
M0
100
AcDbLine
 10
92.715941
 20
352.943805
 11
90.215942
 21
352.943805
  0
LINE
  5
84C
100
AcDbEntity
  8
M0
100
AcDbLine
 10
86.915942
 20
353.943805
 11
79.115941
 21
353.943805
  0
LINE
  5
84D
100
AcDbEntity
  8
M0
100
AcDbLine
 10
79.115941
 20
353.943805
 11
79.115941
 21
343.143805
  0
LINE
  5
84E
100
AcDbEntity
  8
M0
100
AcDbLine
 10
90.215942
 20
355.143805
 11
92.715941
 21
355.143805
  0
LINE
  5
84F
100
AcDbEntity
  8
M0
100
AcDbLine
 10
86.915942
 20
343.143805
 11
86.915942
 21
353.943805
  0
LINE
  5
850
100
AcDbEntity
  8
M0
100
AcDbLine
 10
50.215941
 20
368.643806
 11
77.215941
 21
368.643806
  0
LINE
  5
851
100
AcDbEntity
  8
M0
100
AcDbLine
 10
49.715941
 20
368.143806
 11
49.715941
 21
352.143806
  0
LINE
  5
852
100
AcDbEntity
  8
M0
100
AcDbLine
 10
50.215941
 20
351.643806
 11
77.215941
 21
351.643806
  0
LINE
  5
853
100
AcDbEntity
  8
M0
100
AcDbLine
 10
87.715941
 20
356.143806
 11
87.715941
 21
364.143806
  0
LINE
  5
854
100
AcDbEntity
  8
M0
100
AcDbLine
 10
87.215941
 20
355.643806
 11
78.215941
 21
355.643806
  0
LINE
  5
855
100
AcDbEntity
  8
M0
100
AcDbLine
 10
87.215941
 20
364.643806
 11
78.215941
 21
364.643806
  0
LINE
  5
856
100
AcDbEntity
  8
M0
100
AcDbLine
 10
77.715941
 20
352.143806
 11
77.715941
 21
355.143806
  0
LINE
  5
857
100
AcDbEntity
  8
M0
100
AcDbLine
 10
77.715941
 20
365.143806
 11
77.715941
 21
368.143806
  0
ARC
  5
858
100
AcDbEntity
  8
M0
100
AcDbCircle
 10
50.215941
 20
368.143806
 40
0.5
100
AcDbArc
 50
90.0
 51
180.0
  0
ARC
  5
859
100
AcDbEntity
  8
M0
100
AcDbCircle
 10
77.215941
 20
368.143806
 40
0.5
100
AcDbArc
 50
0.0
 51
90.0
  0
ARC
  5
85A
100
AcDbEntity
  8
M0
100
AcDbCircle
 10
78.215941
 20
365.143806
 40
0.5
100
AcDbArc
 50
180.0
 51
270.0
  0
ARC
  5
85B
100
AcDbEntity
  8
M0
100
AcDbCircle
 10
87.215941
 20
364.143806
 40
0.5
100
AcDbArc
 50
0.0
 51
90.0
  0
ARC
  5
85C
100
AcDbEntity
  8
M0
100
AcDbCircle
 10
87.215941
 20
356.143806
 40
0.5
100
AcDbArc
 50
270.0
 51
360.0
  0
ARC
  5
85D
100
AcDbEntity
  8
M0
100
AcDbCircle
 10
78.215941
 20
355.143806
 40
0.5
100
AcDbArc
 50
90.0
 51
180.0
  0
ARC
  5
85E
100
AcDbEntity
  8
M0
100
AcDbCircle
 10
77.215941
 20
352.143806
 40
0.5
100
AcDbArc
 50
270.0
 51
360.0
  0
ARC
  5
85F
100
AcDbEntity
  8
M0
100
AcDbCircle
 10
50.215941
 20
352.143806
 40
0.5
100
AcDbArc
 50
180.0
 51
270.0
  0
HATCH
  5
860
100
AcDbEntity
  8
M0
 62
     7
100
AcDbHatch
 10
0.0
 20
0.0
210
0.0
220
0.0
230
1.0
  2
SOLID
 70
     1
 71
     0
 91
        1
 92
        1
 93
       20
 72
     2
 10
63.581963
 20
364.242272
 40
2.436895
 50
252.447306
 51
292.422669
 73
     1
 72
     2
 10
64.173476
 20
362.808764
 40
0.886144
 50
292.422669
 51
346.150662
 73
     1
 72
     2
 10
63.581963
 20
362.954594
 40
1.495367
 50
346.150662
 51
356.81526
 73
     1
 72
     1
 10
65.075021
 20
362.871518
 11
64.301955
 21
362.871518
 72
     2
 10
63.581963
 20
362.871518
 40
0.719992
 50
0.0
 51
25.643738
 73
     0
 72
     2
 10
63.756714
 20
362.787628
 40
0.526148
 50
25.643738
 51
72.512342
 73
     0
 72
     2
 10
63.581963
 20
363.342282
 40
1.10768
 50
72.512342
 51
111.534322
 73
     0
 72
     2
 10
63.414248
 20
362.917258
 40
0.650762
 50
111.534322
 51
163.518484
 73
     0
 72
     2
 10
64.476414
 20
363.231513
 40
1.758441
 50
163.518484
 51
199.911347
 73
     0
 72
     2
 10
63.434951
 20
363.608751
 40
0.650762
 50
199.911347
 51
251.231339
 73
     0
 72
     2
 10
63.581963
 20
363.176129
 40
1.10768
 50
251.231339
 51
287.055921
 73
     0
 72
     2
 10
63.752529
 20
363.732085
 40
0.526148
 50
287.055921
 51
341.370551
 73
     0
 72
     2
 10
63.581963
 20
363.674585
 40
0.706146
 50
341.370551
 51
357.752539
 73
     0
 72
     1
 10
64.287566
 20
363.702277
 11
65.058234
 21
363.702277
 72
     2
 10
63.581963
 20
363.577663
 40
1.481521
 50
4.824977
 51
11.570993
 73
     1
 72
     2
 10
64.151676
 20
363.694308
 40
0.89999
 50
11.570993
 51
66.454336
 73
     1
 72
     2
 10
63.581963
 20
362.386908
 40
2.326127
 50
66.454336
 51
109.456965
 73
     1
 72
     2
 10
63.222221
 20
363.405219
 40
1.246139
 50
109.456965
 51
161.721239
 73
     1
 72
     2
 10
63.748115
 20
363.231513
 40
1.799979
 50
161.721239
 51
190.751611
 73
     1
 72
     2
 10
63.231203
 20
363.133359
 40
1.273831
 50
190.751611
 51
252.447306
 73
     1
 97
        0
 75
     0
 76
     1
 98
        1
 10
0.0
 20
0.0
  0
HATCH
  5
861
100
AcDbEntity
  8
M0
 62
     7
100
AcDbHatch
 10
0.0
 20
0.0
210
0.0
220
0.0
230
1.0
  2
SOLID
 70
     1
 71
     0
 91
        2
 92
        1
 93
        8
 72
     1
 10
59.640773
 20
362.469984
 11
61.015532
 21
362.469984
 72
     1
 10
61.015532
 20
362.469984
 11
61.255835
 21
361.874606
 72
     1
 10
61.255835
 20
361.874606
 11
62.072748
 21
361.874606
 72
     1
 10
62.072748
 20
361.874606
 11
60.778147
 21
364.643806
 72
     1
 10
60.778147
 20
364.643806
 11
59.878158
 21
364.643806
 72
     1
 10
59.878158
 20
364.643806
 11
58.583557
 21
361.874606
 72
     1
 10
58.583557
 20
361.874606
 11
59.40047
 21
361.874606
 72
     1
 10
59.40047
 20
361.874606
 11
59.640773
 21
362.469984
 97
        0
 92
       16
 93
        3
 72
     1
 10
60.328153
 20
364.173042
 11
59.819604
 21
362.913056
 72
     1
 10
59.819604
 20
362.913056
 11
60.836701
 21
362.913056
 72
     1
 10
60.836701
 20
362.913056
 11
60.328153
 21
364.173042
 97
        0
 75
     0
 76
     1
 98
        1
 10
0.0
 20
0.0
  0
LINE
  5
862
100
AcDbEntity
  8
M0
  6
DIVIDE
100
AcDbLine
 10
36.715941
 20
164.090348
 11
36.715941
 21
235.290348
  0
LINE
  5
863
100
AcDbEntity
  8
M0
  6
DIVIDE
100
AcDbLine
 10
102.215941
 20
224.990349
 11
92.215941
 21
224.990349
  0
LINE
  5
864
100
AcDbEntity
  8
M0
  6
DIVIDE
100
AcDbLine
 10
102.215941
 20
174.190346
 11
92.215941
 21
174.190346
  0
LINE
  5
865
100
AcDbEntity
  8
M0
  6
DIVIDE
100
AcDbLine
 10
157.715941
 20
164.090348
 11
157.715941
 21
235.290348
  0
LINE
  5
866
100
AcDbEntity
  8
M0
  6
DIVIDE
100
AcDbLine
 10
102.215941
 20
235.290348
 11
102.215941
 21
224.990349
  0
LINE
  5
867
100
AcDbEntity
  8
M0
  6
DIVIDE
100
AcDbLine
 10
140.715941
 20
243.990348
 11
106.715941
 21
243.990348
  0
LINE
  5
868
100
AcDbEntity
  8
M0
  6
DIVIDE
100
AcDbLine
 10
102.215941
 20
164.090348
 11
157.715941
 21
164.090348
  0
LINE
  5
869
100
AcDbEntity
  8
M0
  6
DIVIDE
100
AcDbLine
 10
106.715941
 20
243.990348
 11
106.715941
 21
235.258975
  0
LINE
  5
86A
100
AcDbEntity
  8
M0
  6
DIVIDE
100
AcDbLine
 10
140.715941
 20
243.990348
 11
140.715941
 21
235.290348
  0
LINE
  5
86B
100
AcDbEntity
  8
M0
  6
DIVIDE
100
AcDbLine
 10
102.215941
 20
174.190346
 11
102.215941
 21
164.090348
  0
LINE
  5
86C
100
AcDbEntity
  8
M0
  6
DIVIDE
100
AcDbLine
 10
92.215941
 20
235.290348
 11
92.215941
 21
224.990349
  0
LINE
  5
86D
100
AcDbEntity
  8
M0
  6
DIVIDE
100
AcDbLine
 10
53.715941
 20
243.990348
 11
87.715941
 21
243.990348
  0
LINE
  5
86E
100
AcDbEntity
  8
M0
  6
DIVIDE
100
AcDbLine
 10
92.215941
 20
164.090348
 11
36.715941
 21
164.090348
  0
LINE
  5
86F
100
AcDbEntity
  8
M0
  6
DIVIDE
100
AcDbLine
 10
87.715941
 20
243.990348
 11
87.715941
 21
235.258975
  0
LINE
  5
870
100
AcDbEntity
  8
M0
  6
DIVIDE
100
AcDbLine
 10
53.715941
 20
243.990348
 11
53.715941
 21
235.290348
  0
LINE
  5
871
100
AcDbEntity
  8
M0
  6
DIVIDE
100
AcDbLine
 10
92.215941
 20
174.190346
 11
92.215941
 21
164.090348
  0
CIRCLE
  5
872
100
AcDbEntity
  8
M0
100
AcDbCircle
 10
86.215941
 20
173.490348
 40
2.0
  0
CIRCLE
  5
873
100
AcDbEntity
  8
M0
100
AcDbCircle
 10
53.215941
 20
228.490348
 40
1.7
  0
LINE
  5
874
100
AcDbEntity
  8
M0
  6
DASHDOT
100
AcDbLine
 10
139.215941
 20
169.490348
 11
139.215941
 21
177.490348
  0
CIRCLE
  5
875
100
AcDbEntity
  8
M0
100
AcDbCircle
 10
53.215941
 20
228.490348
 40
2.0
  0
LINE
  5
876
100
AcDbEntity
  8
M0
  6
DASHDOT
100
AcDbLine
 10
135.215941
 20
173.490348
 11
143.215941
 21
173.490348
  0
CIRCLE
  5
877
100
AcDbEntity
  8
M0
100
AcDbCircle
 10
139.215941
 20
173.490348
 40
2.0
  0
CIRCLE
  5
878
100
AcDbEntity
  8
M0
100
AcDbCircle
 10
139.215941
 20
173.490348
 40
1.7
  0
CIRCLE
  5
879
100
AcDbEntity
  8
M0
100
AcDbCircle
 10
106.215941
 20
228.490348
 40
2.0
  0
CIRCLE
  5
87A
100
AcDbEntity
  8
M0
100
AcDbCircle
 10
106.215941
 20
228.490348
 40
1.7
  0
CIRCLE
  5
87B
100
AcDbEntity
  8
M0
100
AcDbCircle
 10
86.215941
 20
173.490348
 40
1.7
  0
LINE
  5
87C
100
AcDbEntity
  8
M0
  6
DIVIDE
100
AcDbLine
 10
157.715941
 20
235.290348
 11
140.715941
 21
235.290348
  0
LINE
  5
87D
100
AcDbEntity
  8
M0
  6
DASHDOT
100
AcDbLine
 10
49.215941
 20
228.490348
 11
57.215941
 21
228.490348
  0
LINE
  5
87E
100
AcDbEntity
  8
M0
  6
DIVIDE
100
AcDbLine
 10
92.215941
 20
235.290348
 11
87.715941
 21
235.290348
  0
LINE
  5
87F
100
AcDbEntity
  8
M0
  6
DIVIDE
100
AcDbLine
 10
102.215941
 20
235.290348
 11
106.715941
 21
235.290348
  0
LINE
  5
880
100
AcDbEntity
  8
M0
  6
DIVIDE
100
AcDbLine
 10
36.715941
 20
235.290348
 11
53.715941
 21
235.290348
  0
LINE
  5
881
100
AcDbEntity
  8
M0
  6
DASHDOT
100
AcDbLine
 10
102.215941
 20
228.490348
 11
110.215941
 21
228.490348
  0
LINE
  5
882
100
AcDbEntity
  8
M0
  6
DASHDOT
100
AcDbLine
 10
106.215941
 20
224.490348
 11
106.215941
 21
232.490348
  0
LINE
  5
883
100
AcDbEntity
  8
M0
  6
DASHDOT
100
AcDbLine
 10
82.215941
 20
173.490348
 11
90.215941
 21
173.490348
  0
LINE
  5
884
100
AcDbEntity
  8
M0
  6
DASHDOT
100
AcDbLine
 10
86.215941
 20
169.490348
 11
86.215941
 21
177.490348
  0
LINE
  5
885
100
AcDbEntity
  8
M0
  6
DASHDOT
100
AcDbLine
 10
53.215941
 20
224.490348
 11
53.215941
 21
232.490348
  0
LINE
  5
886
100
AcDbEntity
  8
M1
 62
     2
100
AcDbLine
 10
16.666666
 20
16.666666
 11
16.666666
 21
474.999981
  0
LINE
  5
887
100
AcDbEntity
  8
M1
 62
     2
100
AcDbLine
 10
16.666666
 20
474.999981
 11
333.33332
 21
474.999981
  0
LINE
  5
888
100
AcDbEntity
  8
M1
 62
     2
100
AcDbLine
 10
333.33332
 20
474.999981
 11
333.33332
 21
16.666666
  0
LINE
  5
889
100
AcDbEntity
  8
M1
 62
     2
100
AcDbLine
 10
333.33332
 20
16.666666
 11
16.666666
 21
16.666666
  0
LINE
  5
88A
100
AcDbEntity
  8
M1
 62
     2
100
AcDbLine
 10
333.33332
 20
33.333332
 11
166.66666
 21
33.333332
  0
LINE
  5
88B
100
AcDbEntity
  8
M1
 62
     2
100
AcDbLine
 10
333.33332
 20
49.999998
 11
166.66666
 21
49.999998
  0
LINE
  5
88C
100
AcDbEntity
  8
M1
 62
     2
100
AcDbLine
 10
333.33332
 20
66.666664
 11
166.66666
 21
66.666664
  0
LINE
  5
88D
100
AcDbEntity
  8
M1
 62
     2
100
AcDbLine
 10
166.66666
 20
16.666666
 11
166.66666
 21
66.666664
  0
TEXT
  5
88E
100
AcDbEntity
  8
M1
 62
     2
100
AcDbText
 10
170.833327
 20
20.833333
 40
8.333333
  1
適　用；
 41
1.0
  7
STANDARD
100
AcDbText
  0
TEXT
  5
88F
100
AcDbEntity
  8
M1
 62
     2
100
AcDbText
 10
170.833327
 20
54.166665
 40
8.333333
  1
登録名：
 41
1.0
  7
STANDARD
100
AcDbText
  0
TEXT
  5
890
100
AcDbEntity
  8
M1
 62
     2
100
AcDbText
 10
210.833325
 20
54.166665
 40
8.333333
  1
ＤＭＨＳ１０ＲＬＲ００
 41
0.5
  7
STANDARD
100
AcDbText
  0
TEXT
  5
891
100
AcDbEntity
  8
M1
 62
     2
100
AcDbText
 10
170.833327
 20
37.499999
 40
8.333333
  1
形　式；
 41
1.0
  7
STANDARD
100
AcDbText
  0
TEXT
  5
892
100
AcDbEntity
  8
M1
 62
     2
100
AcDbText
 10
210.833325
 20
37.499999
 40
8.333333
  1
ＨＳ１０－ＲＬ
 41
0.5
  7
STANDARD
100
AcDbText
  0
LINE
  5
893
100
AcDbEntity
  8
DN0
100
AcDbLine
 10
74.921226
 20
140.438306
 11
101.971226
 21
140.438306
  0
TEXT
  5
894
100
AcDbEntity
  8
DN0
100
AcDbText
 10
75.668448
 20
141.104972
 40
6.666666
  1
せん孔図
 41
0.833333
  7
STANDARD
100
AcDbText
  0
ENDSEC
  0
SECTION
  2
OBJECTS
  0
DICTIONARY
  5
C
100
AcDbDictionary
  3
ACAD_GROUP
350
D
  3
ACAD_MLINESTYLE
350
E
  3
ACDBVARIABLEDICTIONARY
350
18D
  0
DICTIONARY
  5
D
102
{ACAD_REACTORS
330
C
102
}
100
AcDbDictionary
  0
DICTIONARY
  5
E
102
{ACAD_REACTORS
330
C
102
}
100
AcDbDictionary
  3
STANDARD
350
13
  0
DICTIONARY
  5
18D
102
{ACAD_REACTORS
330
C
102
}
100
AcDbDictionary
  3
SORTENTS
350
18E
  0
MLINESTYLE
  5
13
102
{ACAD_REACTORS
330
E
102
}
100
AcDbMlineStyle
  2
STANDARD
 70
     0
  3

 62
     0
 51
90.0
 52
90.0
 71
     2
 49
0.5
 62
   256
  6
BYLAYER
 49
-0.5
 62
   256
  6
BYLAYER
  0
DICTIONARYVAR
  5
18E
102
{ACAD_REACTORS
330
18D
102
}
100
DictionaryVariables
280
     0
  1
96
  0
ENDSEC
  0
EOF
