  0
SECTION
  2
HEADER
  9
$ACADVER
  1
AC1014
  9
$INSBASE
 10
0.000000
 20
0.000000
 30
0.0
  9
$VIEWCTR
 10
7.531722
 20
4.5
  9
$VIEWSIZE
 40
9.0
  9
$SNAPMODE
 70
     0
  9
$SNAPUNIT
 10
1.0
 20
1.0
  9
$SNAPBASE
 10
0.0
 20
0.0
  9
$SNAPANG
 50
0.0
  9
$SNAPSTYLE
 70
     0
  9
$SNAPISOPAIR
 70
     0
  9
$GRIDMODE
 70
     0
  9
$GRIDUNIT
 10
0.0
 20
0.0
  9
$ORTHOMODE
 70
     0
  9
$REGENMODE
 70
     1
  9
$FILLMODE
 70
     1
  9
$QTEXTMODE
 70
     0
  9
$DRAGMODE
 70
     2
  9
$LTSCALE
  40
     1.000000
  9
$OSMODE
 70
     0
  9
$ATTMODE
 70
     1
  9
$TEXTSIZE
 40
0.2
  9
$TRACEWID
 40
0.05
  9
$TEXTSTYLE
  7
STANDARD
  9
$CELTYPE
  6
BYLAYER
  9
$CECOLOR
 62
   256
  9
$DIMSCALE
 40
1.0
  9
$DIMASZ
 40
0.18
  9
$DIMEXO
 40
0.0625
  9
$DIMDLI
 40
0.38
  9
$DIMRND
 40
0.0
  9
$DIMDLE
 40
0.0
  9
$DIMEXE
 40
0.18
  9
$DIMTP
 40
0.0
  9
$DIMTM
 40
0.0
  9
$DIMTXT
 40
0.18
  9
$DIMCEN
 40
0.09
  9
$DIMTSZ
 40
0.0
  9
$DIMTOL
 70
     0
  9
$DIMLIM
 70
     0
  9
$DIMTIH
 70
     1
  9
$DIMTOH
 70
     1
  9
$DIMSE1
 70
     0
  9
$DIMSE2
 70
     0
  9
$DIMTAD
 70
     0
  9
$DIMZIN
 70
     0
  9
$DIMBLK
  1

  9
$LUNITS
 70
     2
  9
$LUPREC
 70
     4
  9
$AXISMODE
 70
     0
  9
$AXISUNIT
 10
0.0
 20
0.0
  9
$SKETCHINC
 40
0.1
  9
$FILLETRAD
 40
0.0
  9
$AUNITS
 70
     0
  9
$AUPREC
 70
     0
  9
$MENU
  1
ACAD
  9
$ELEVATION
 40
0.0
  9
$THICKNESS
 40
0.0
  9
$VIEWDIR
 10
0.0
 20
0.0
 30
1.0
  9
$LIMCHECK
 70
     0
  9
$BLIPMODE
 70
     1
  9
$CHAMFERA
 40
0.0
  9
$CHAMFERB
 40
0.0
  9
$FASTZOOM
 70
     1
  9
$SKPOLY
 70
     0
  9
$TDCREATE
 40
0000000.0000000000
  9
$TDUPDATE
 40
0000000.0000000000
  9
$TDINDWG
 40
0.0000000000
  9
$TDUSRTIMER
 40
0.0000000000
  9
$USRTIMER
 70
     1
  9
$ANGBASE
 50
0.0
  9
$ANGDIR
 70
     0
  9
$PDMODE
 70
     0
  9
$PDSIZE
 40
0.0
  9
$PLINEWID
 40
0.0
  9
$COORDS
 70
     0
  9
$USERI1
 70
     0
  9
$USERI2
 70
     0
  9
$USERI3
 70
     0
  9
$USERI4
 70
     0
  9
$USERI5
 70
     0
  9
$USERR1
 40
0.0
  9
$USERR2
 40
0.0
  9
$USERR3
 40
0.0
  9
$USERR4
 40
0.0
  9
$USERR5
 40
0.0
  9
$CLAYER
  8
M2
  9
$EXTMIN
 10
-1.776357E-015
 20
-1.776357E-015
  9
$EXTMAX
 10
285.285281
 20
412.912907
  9
$LIMMIN
 10
0.0
 20
0.0
  9
$LIMMAX
 10
841.0
 20
594.0
  9
$HANDSEED
  5
A8A
  0
ENDSEC
  0
SECTION
  2
CLASSES
  0
CLASS
  1
DICTIONARYVAR
  2
AcDbDictionaryVar
  3
"AutoCAD"
 90
        0
280
     0
281
     0
  0
CLASS
  1
HATCH
  2
AcDbHatch
  3
"ACAD_SEDONA"
 90
        0
280
     0
281
     1
  0
ENDSEC
  0
SECTION
  2
TABLES
  0
TABLE
  2
VPORT
  5
8
100
AcDbSymbolTable
 70
     2
  0
VPORT
  5
14
100
AcDbSymbolTableRecord
100
AcDbViewportTableRecord
  2
*ACTIVE
 70
     0
 10
0.0
 20
0.0
 11
1.0
 21
1.0
 12
484.0
 22
297.0
 13
0.0
 23
0.0
 14
1.0
 24
1.0
 15
0.0
 25
0.0
 16
0.0
 26
0.0
 36
1.0
 17
0.0
 27
0.0
 37
0.0
 40
594.0
 41
2.0
 42
50.0
 43
0.0
 44
0.0
 50
0.0
 51
0.0
 71
     0
 72
   100
 73
     1
 74
     1
 75
     0
 76
     0
 77
     0
 78
     0
  0
ENDTAB
  0
TABLE
  2
LTYPE
  5
5
100
AcDbSymbolTable
 70
     5
  0
LTYPE
  5
15
100
AcDbSymbolTableRecord
100
AcDbLinetypeTableRecord
  2
BYBLOCK
 70
     0
  3

 72
    65
 73
     0
 40
0.0
  0
LTYPE
  5
16
100
AcDbSymbolTableRecord
100
AcDbLinetypeTableRecord
  2
BYLAYER
 70
     0
  3

 72
    65
 73
     0
 40
0.0
  0
LTYPE
  5
17
100
AcDbSymbolTableRecord
100
AcDbLinetypeTableRecord
  2
CONTINUOUS
 70
    64
  3
Solid line
 72
    65
 73
     0
 40
0.0
  0
LTYPE
  5
18
100
AcDbSymbolTableRecord
100
AcDbLinetypeTableRecord
  2
DASHED
 70
    64
  3
__ __ __ __ __ __ __ __ __ __ __ __ __ __ __ __
 72
    65
 73
     2
 40
0.75
 49
0.5
 74
     0
 49
-0.25
 74
     0
  0
LTYPE
  5
19
100
AcDbSymbolTableRecord
100
AcDbLinetypeTableRecord
  2
DASHDOT
 70
    64
  3
__ . __ . __ . __ . __ . __ . __ . __ . __ . __
 72
    65
 73
     4
 40
1.0
 49
0.5
 74
     0
 49
-0.25
 74
     0
 49
0.0
 74
     0
 49
-0.25
 74
     0
  0
LTYPE
  5
1A
100
AcDbSymbolTableRecord
100
AcDbLinetypeTableRecord
  2
DIVIDE
 70
    64
  3
____ . . ____ . . ____ . . ____ . . ____ . . __
 72
    65
 73
     6
 40
1.25
 49
0.5
 74
     0
 49
-0.25
 74
     0
 49
0.0
 74
     0
 49
-0.25
 74
     0
 49
0.0
 74
     0
 49
-0.25
 74
     0
  0
LTYPE
  5
1B
100
AcDbSymbolTableRecord
100
AcDbLinetypeTableRecord
  2
DOT
 70
    64
  3
. . . . . . . . . . . . . . . . . . . . . . . .
 72
    65
 73
     2
 40
0.25
 49
0.0
 74
     0
 49
-0.25
 74
     0
  0
ENDTAB
  0
TABLE
  2
LAYER
  5
2
100
AcDbSymbolTable
 70
   102
  0
LAYER
  5
F
100
AcDbSymbolTableRecord
100
AcDbLayerTableRecord
  2
0
 70
     0
 62
     7
  6
CONTINUOUS
  0
LAYER
  5
1C
100
AcDbSymbolTableRecord
100
AcDbLayerTableRecord
  2
DEFPOINTS
 70
     0
 62
     7
  6
CONTINUOUS
  0
LAYER
  5
1D
100
AcDbSymbolTableRecord
100
AcDbLayerTableRecord
  2
M2
 70
     0
 62
     3
  6
CONTINUOUS
  0
LAYER
  5
1E
100
AcDbSymbolTableRecord
100
AcDbLayerTableRecord
  2
M3
 70
     0
 62
     3
  6
CONTINUOUS
  0
LAYER
  5
1F
100
AcDbSymbolTableRecord
100
AcDbLayerTableRecord
  2
M4
 70
     0
 62
     4
  6
CONTINUOUS
  0
LAYER
  5
20
100
AcDbSymbolTableRecord
100
AcDbLayerTableRecord
  2
M5
 70
     0
 62
     2
  6
CONTINUOUS
  0
ENDTAB
  0
TABLE
  2
STYLE
  5
3
100
AcDbSymbolTable
 70
     2
  0
STYLE
  5
10
100
AcDbSymbolTableRecord
100
AcDbTextStyleTableRecord
  2
STANDARD
 70
     0
 40
0.0
 41
1.0
 50
0.0
 71
     0
 42
0.2
  3
txt
  4
BIGFONT
  0
ENDTAB
  0
TABLE
  2
VIEW
  5
6
100
AcDbSymbolTable
 70
     0
  0
ENDTAB
  0
TABLE
  2
UCS
  5
7
100
AcDbSymbolTable
 70
     0
  0
ENDTAB
  0
TABLE
  2
APPID
  5
9
100
AcDbSymbolTable
 70
     1
  0
APPID
  5
11
100
AcDbSymbolTableRecord
100
AcDbRegAppTableRecord
  2
ACAD
 70
     0
  0
ENDTAB
  0
TABLE
  2
DIMSTYLE
  5
A
100
AcDbSymbolTable
 70
     2
  0
DIMSTYLE
105
27
100
AcDbSymbolTableRecord
100
AcDbDimStyleTableRecord
  2
STANDARD
 70
     0
  3

  4

  5

  6
_OPEN
  7
_OPEN
 40
1.0
 41
3.0
 42
1.0
 43
8.0
 44
1.0
 45
0.0
 46
0.0
 47
0.0
 48
0.0
140
3.15
141
0.09
142
0.0
143
0.03937
144
1.0
145
0.0
146
1.0
147
0.6
 71
     0
 72
     0
 73
     1
 74
     1
 75
     0
 76
     0
 77
     3
 78
     8
170
     0
171
     2
172
     0
173
     1
174
     0
175
     0
176
     0
177
     0
178
     0
270
     2
271
     2
272
     4
273
     2
274
     2
340
10
275
     0
280
     0
281
     0
282
     0
283
     1
284
     0
285
     0
286
     0
287
     3
288
     0
  0
DIMSTYLE
105
28
100
AcDbSymbolTableRecord
100
AcDbDimStyleTableRecord
  2
LEADSTYL
 70
     0
  3

  4

  5

  6
_OPEN
  7
_OPEN
 40
1.0
 41
3.0
 42
0.0625
 43
0.38
 44
0.18
 45
0.0
 46
0.0
 47
0.0
 48
0.0
140
3.15
141
0.09
142
0.0
143
25.4
144
1.0
145
0.0
146
1.0
147
0.6
 71
     0
 72
     0
 73
     1
 74
     1
 75
     0
 76
     0
 77
     0
 78
     0
170
     0
171
     2
172
     0
173
     1
174
     0
175
     0
176
     0
177
     0
178
     0
270
     2
271
     4
272
     4
273
     2
274
     2
340
10
275
     0
280
     0
281
     0
282
     0
283
     1
284
     0
285
     0
286
     0
287
     3
288
     0
  0
ENDTAB
  0
TABLE
  2
BLOCK_RECORD
  5
1
100
AcDbSymbolTable
 70
     6
  0
BLOCK_RECORD
  5
21
100
AcDbSymbolTableRecord
100
AcDbBlockTableRecord
  2
*MODEL_SPACE
  0
BLOCK_RECORD
  5
24
100
AcDbSymbolTableRecord
100
AcDbBlockTableRecord
  2
*PAPER_SPACE
  0
BLOCK_RECORD
  5
29
100
AcDbSymbolTableRecord
100
AcDbBlockTableRecord
  2
_NONE
  0
BLOCK_RECORD
  5
2D
100
AcDbSymbolTableRecord
100
AcDbBlockTableRecord
  2
_OPEN
  0
BLOCK_RECORD
  5
33
100
AcDbSymbolTableRecord
100
AcDbBlockTableRecord
  2
_CLOSED
  0
BLOCK_RECORD
  5
3A
100
AcDbSymbolTableRecord
100
AcDbBlockTableRecord
  2
_ORIGIN
  0
BLOCK_RECORD
  5
3F
100
AcDbSymbolTableRecord
100
AcDbBlockTableRecord
  2
_DOT
  0
BLOCK_RECORD
  5
47
100
AcDbSymbolTableRecord
100
AcDbBlockTableRecord
  2
_OBLIQUE
  0
ENDTAB
  0
ENDSEC
  0
SECTION
  2
BLOCKS
  0
BLOCK
  5
22
100
AcDbEntity
  8
0
100
AcDbBlockBegin
  2
*MODEL_SPACE
 70
     0
 10
0.0
 20
0.0
 30
0.0
  3
*MODEL_SPACE
  1

  0
ENDBLK
  5
23
100
AcDbEntity
  8
0
100
AcDbBlockEnd
  0
BLOCK
  5
25
100
AcDbEntity
 67
     1
  8
0
100
AcDbBlockBegin
  2
*PAPER_SPACE
 70
     0
 10
0.0
 20
0.0
 30
0.0
  3
*PAPER_SPACE
  1

  0
ENDBLK
  5
26
100
AcDbEntity
 67
     1
  8
0
100
AcDbBlockEnd
  0
BLOCK
  5
2A
100
AcDbEntity
  8
0
100
AcDbBlockBegin
  2
_NONE
 70
     0
 10
0.0
 20
0.0
  0
CIRCLE
  5
2B
100
AcDbEntity
  8
0
 62
     0
100
AcDbCircle
 10
0.0
 20
0.0
 40
0.25
  0
ENDBLK
  5
2C
100
AcDbEntity
  8
0
100
AcDbBlockEnd
  0
BLOCK
  5
2E
100
AcDbEntity
  8
0
100
AcDbBlockBegin
  2
_OPEN
 70
     0
 10
0.0
 20
0.0
  0
LINE
  5
2F
100
AcDbEntity
  8
0
 62
     0
100
AcDbLine
 10
-0.965926
 20
0.258819
 11
0.0
 21
0.0
  0
LINE
  5
30
100
AcDbEntity
  8
0
 62
     0
100
AcDbLine
 10
0.0
 20
0.0
 11
-0.965926
 21
-0.258819
  0
LINE
  5
31
100
AcDbEntity
  8
0
 62
     0
100
AcDbLine
 10
0.0
 20
0.0
 11
-1.0
 21
0.0
  0
ENDBLK
  5
32
100
AcDbEntity
  8
0
100
AcDbBlockEnd
  0
BLOCK
  5
34
100
AcDbEntity
  8
0
100
AcDbBlockBegin
  2
_CLOSED
 70
     0
 10
0.0
 20
0.0
  0
LINE
  5
35
100
AcDbEntity
  8
0
 62
     0
100
AcDbLine
 10
-0.965926
 20
0.258819
 11
0.0
 21
0.0
  0
LINE
  5
36
100
AcDbEntity
  8
0
 62
     0
100
AcDbLine
 10
0.0
 20
0.0
 11
-0.965926
 21
-0.258819
  0
LINE
  5
37
100
AcDbEntity
  8
0
 62
     0
100
AcDbLine
 10
-0.965926
 20
0.258819
 11
-0.965926
 21
-0.258819
  0
LINE
  5
38
100
AcDbEntity
  8
0
 62
     0
100
AcDbLine
 10
0.0
 20
0.0
 11
-1.0
 21
0.0
  0
ENDBLK
  5
39
100
AcDbEntity
  8
0
100
AcDbBlockEnd
  0
BLOCK
  5
3B
100
AcDbEntity
  8
0
100
AcDbBlockBegin
  2
_ORIGIN
 70
     0
 10
0.0
 20
0.0
  0
CIRCLE
  5
3C
100
AcDbEntity
  8
0
 62
     0
100
AcDbCircle
 10
0.0
 20
0.0
 40
0.5
  0
LINE
  5
3D
100
AcDbEntity
  8
0
 62
     0
100
AcDbLine
 10
0.0
 20
0.0
 11
-1.0
 21
0.0
  0
ENDBLK
  5
3E
100
AcDbEntity
  8
0
100
AcDbBlockEnd
  0
BLOCK
  5
40
100
AcDbEntity
  8
0
100
AcDbBlockBegin
  2
_DOT
 70
     0
 10
0.0
 20
0.0
  0
POLYLINE
  5
41
100
AcDbEntity
  8
0
 62
     0
100
AcDb2dPolyline
 66
     1
 70
     1
 40
0.5
 41
0.5
  0
VERTEX
  5
42
100
AcDbEntity
  8
0
 62
     0
100
AcDbVertex
100
AcDb2dVertex
 10
-0.25
 20
0.0
 42
1.0
  0
VERTEX
  5
43
100
AcDbEntity
  8
0
 62
     0
100
AcDbVertex
100
AcDb2dVertex
 10
0.25
 20
0.0
 42
1.0
  0
SEQEND
  5
44
100
AcDbEntity
  8
0
 62
     0
  0
LINE
  5
45
100
AcDbEntity
  8
0
 62
     0
100
AcDbLine
 10
-0.5
 20
0.0
 11
-1.0
 21
0.0
  0
ENDBLK
  5
46
100
AcDbEntity
  8
0
100
AcDbBlockEnd
  0
BLOCK
  5
48
100
AcDbEntity
  8
0
100
AcDbBlockBegin
  2
_OBLIQUE
 70
     0
 10
0.0
 20
0.0
  0
LINE
  5
49
100
AcDbEntity
  8
0
 62
     0
100
AcDbLine
 10
-0.353553
 20
-0.353553
 11
0.353553
 21
0.353553
  0
ENDBLK
  5
4A
100
AcDbEntity
  8
0
100
AcDbBlockEnd
  0
ENDSEC
  0
SECTION
  2
ENTITIES
  0
LINE
  5
4B
100
AcDbEntity
  8
M2
100
AcDbLine
 10
51.34719
 20
239.727215
 11
49.07923
 21
239.727215
  0
LINE
  5
4C
100
AcDbEntity
  8
M2
100
AcDbLine
 10
61.347175
 20
239.727215
 11
59.07923
 21
239.727215
  0
LINE
  5
4D
100
AcDbEntity
  8
M2
100
AcDbLine
 10
71.347163
 20
239.727215
 11
69.079214
 21
239.727215
  0
ARC
  5
4E
100
AcDbEntity
  8
M2
100
AcDbCircle
 10
66.213204
 20
247.727198
 40
7.0
100
AcDbArc
 50
295.376814
 51
330.940685
  0
LINE
  5
4F
100
AcDbEntity
  8
M2
100
AcDbLine
 10
69.213189
 20
240.227215
 11
69.213189
 21
241.402647
  0
LINE
  5
50
100
AcDbEntity
  8
M2
100
AcDbLine
 10
81.213187
 20
244.327196
 11
72.332025
 21
244.327196
  0
LINE
  5
51
100
AcDbEntity
  8
M2
100
AcDbLine
 10
69.213189
 20
227.727215
 11
61.213202
 21
227.727215
  0
LINE
  5
52
100
AcDbEntity
  8
M2
100
AcDbLine
 10
59.213202
 20
227.727215
 11
51.213202
 21
227.727215
  0
LINE
  5
53
100
AcDbEntity
  8
M2
100
AcDbLine
 10
49.213202
 20
227.727215
 11
36.713218
 21
227.727215
  0
LINE
  5
54
100
AcDbEntity
  8
M2
100
AcDbLine
 10
81.213187
 20
227.727215
 11
71.213189
 21
227.727215
  0
LINE
  5
55
100
AcDbEntity
  8
M2
100
AcDbLine
 10
56.213233
 20
213.227215
 11
48.213233
 21
213.227215
  0
ARC
  5
56
100
AcDbEntity
  8
M2
100
AcDbCircle
 10
37.713233
 20
213.727215
 40
0.5
100
AcDbArc
 50
270.0
 51
360.0
  0
ARC
  5
57
100
AcDbEntity
  8
M2
100
AcDbCircle
 10
58.013236
 20
218.427227
 40
0.2
100
AcDbArc
 50
270.0
 51
360.0
  0
ARC
  5
58
100
AcDbEntity
  8
M2
100
AcDbCircle
 10
48.013236
 20
218.427227
 40
0.2
100
AcDbArc
 50
270.0
 51
360.0
  0
LINE
  5
59
100
AcDbEntity
  8
M2
100
AcDbLine
 10
58.013236
 20
218.227215
 11
56.413245
 21
218.227215
  0
LINE
  5
5A
100
AcDbEntity
  8
M2
100
AcDbLine
 10
48.013236
 20
218.227215
 11
46.413245
 21
218.227215
  0
LINE
  5
5B
100
AcDbEntity
  8
M2
100
AcDbLine
 10
66.21322
 20
213.227215
 11
58.213233
 21
213.227215
  0
LINE
  5
5C
100
AcDbEntity
  8
M2
100
AcDbLine
 10
70.713233
 20
224.227215
 11
76.713233
 21
224.227215
  0
LINE
  5
5D
100
AcDbEntity
  8
M2
100
AcDbLine
 10
59.213233
 20
224.227215
 11
65.213233
 21
224.227215
  0
LINE
  5
5E
100
AcDbEntity
  8
M2
100
AcDbLine
 10
49.213233
 20
224.227215
 11
55.213233
 21
224.227215
  0
LINE
  5
5F
100
AcDbEntity
  8
M2
100
AcDbLine
 10
39.213233
 20
224.227215
 11
45.213233
 21
224.227215
  0
ARC
  5
60
100
AcDbEntity
  8
M2
100
AcDbCircle
 10
77.142023
 20
238.727215
 40
1.5
100
AcDbArc
 50
14.036703
 51
90.0
  0
LINE
  5
61
100
AcDbEntity
  8
M2
100
AcDbLine
 10
79.213187
 20
236.627209
 11
78.597237
 21
239.09103
  0
LINE
  5
62
100
AcDbEntity
  8
M2
100
AcDbLine
 10
79.213187
 20
216.527218
 11
77.118053
 21
216.527218
  0
ARC
  5
63
100
AcDbEntity
  8
M2
100
AcDbCircle
 10
79.147
 20
257.927198
 40
1.0
100
AcDbArc
 50
30.9637
 51
90.0
  0
LINE
  5
64
100
AcDbEntity
  8
M2
100
AcDbLine
 10
80.433189
 20
257.727198
 11
80.004493
 21
258.441693
  0
LINE
  5
65
100
AcDbEntity
  8
M2
100
AcDbLine
 10
81.213187
 20
240.227215
 11
62.213202
 21
240.227215
  0
ARC
  5
66
100
AcDbEntity
  8
M2
100
AcDbCircle
 10
80.713187
 20
229.727215
 40
0.5
100
AcDbArc
 50
270.0
 51
360.0
  0
ARC
  5
67
100
AcDbEntity
  8
M2
100
AcDbCircle
 10
79.713187
 20
229.727215
 40
0.5
100
AcDbArc
 50
180.0
 51
270.0
  0
LINE
  5
68
100
AcDbEntity
  8
M2
100
AcDbLine
 10
80.713187
 20
229.227215
 11
79.713187
 21
229.227215
  0
LINE
  5
69
100
AcDbEntity
  8
M2
100
AcDbLine
 10
41.213202
 20
240.227215
 11
41.213202
 21
230.227215
  0
LINE
  5
6A
100
AcDbEntity
  8
M2
100
AcDbLine
 10
49.213202
 20
239.227215
 11
49.213202
 21
227.727215
  0
LINE
  5
6B
100
AcDbEntity
  8
M2
100
AcDbLine
 10
51.213202
 20
239.227215
 11
51.213202
 21
227.727215
  0
LINE
  5
6C
100
AcDbEntity
  8
M2
100
AcDbLine
 10
59.213202
 20
239.227215
 11
59.213202
 21
227.727215
  0
LINE
  5
6D
100
AcDbEntity
  8
M2
100
AcDbLine
 10
61.213202
 20
227.727215
 11
61.213202
 21
239.227215
  0
LINE
  5
6E
100
AcDbEntity
  8
M2
100
AcDbLine
 10
69.213189
 20
227.727215
 11
69.213189
 21
239.227215
  0
LINE
  5
6F
100
AcDbEntity
  8
M2
100
AcDbLine
 10
67.713214
 20
210.727199
 11
66.71322
 21
210.727199
  0
ARC
  5
70
100
AcDbEntity
  8
M2
100
AcDbCircle
 10
80.713187
 20
213.727199
 40
0.5
100
AcDbArc
 50
270.0
 51
360.0
  0
ARC
  5
71
100
AcDbEntity
  8
M2
100
AcDbCircle
 10
79.713187
 20
213.727199
 40
0.5
100
AcDbArc
 50
180.0
 51
270.0
  0
LINE
  5
72
100
AcDbEntity
  8
M2
100
AcDbLine
 10
80.713187
 20
213.227199
 11
79.713187
 21
213.227199
  0
LINE
  5
73
100
AcDbEntity
  8
M2
100
AcDbLine
 10
71.213189
 20
239.227215
 11
71.213189
 21
227.727215
  0
LINE
  5
74
100
AcDbEntity
  8
M2
100
AcDbLine
 10
59.713233
 20
247.727198
 11
58.213233
 21
249.227198
  0
LINE
  5
75
100
AcDbEntity
  8
M2
100
AcDbLine
 10
57.213218
 20
249.227198
 11
58.213233
 21
249.227198
  0
LINE
  5
76
100
AcDbEntity
  8
M2
100
AcDbLine
 10
57.213218
 20
246.227198
 11
58.213233
 21
246.227198
  0
LINE
  5
77
100
AcDbEntity
  8
M2
100
AcDbLine
 10
59.713233
 20
247.727198
 11
58.213233
 21
246.227198
  0
LINE
  5
78
100
AcDbEntity
  8
M2
100
AcDbLine
 10
57.213218
 20
249.227198
 11
57.213218
 21
246.227198
  0
LINE
  5
79
100
AcDbEntity
  8
M2
100
AcDbLine
 10
61.017066
 20
244.727198
 11
59.213218
 21
243.68574
  0
LINE
  5
7A
100
AcDbEntity
  8
M2
100
AcDbLine
 10
59.213218
 20
240.227215
 11
59.213218
 21
243.68574
  0
ARC
  5
7B
100
AcDbEntity
  8
M2
100
AcDbCircle
 10
47.213218
 20
252.827189
 40
0.5
100
AcDbArc
 50
180.0
 51
270.0
  0
LINE
  5
7C
100
AcDbEntity
  8
M2
100
AcDbLine
 10
46.713218
 20
255.227198
 11
36.213218
 21
255.227198
  0
LINE
  5
7D
100
AcDbEntity
  8
M2
100
AcDbLine
 10
46.713218
 20
252.827189
 11
46.713218
 21
255.227198
  0
LINE
  5
7E
100
AcDbEntity
  8
M2
100
AcDbLine
 10
47.213218
 20
252.327189
 11
51.213218
 21
252.327189
  0
LINE
  5
7F
100
AcDbEntity
  8
M2
100
AcDbLine
 10
41.213218
 20
240.227215
 11
41.213218
 21
255.227198
  0
LINE
  5
80
100
AcDbEntity
  8
M2
100
AcDbLine
 10
72.213313
 20
255.227198
 11
55.713218
 21
255.227198
  0
LINE
  5
81
100
AcDbEntity
  8
M2
100
AcDbLine
 10
46.213233
 20
213.227215
 11
36.713218
 21
213.227215
  0
ARC
  5
82
100
AcDbEntity
  8
M2
100
AcDbCircle
 10
57.713233
 20
211.227199
 40
0.5
100
AcDbArc
 50
270.0
 51
360.0
  0
ARC
  5
83
100
AcDbEntity
  8
M2
100
AcDbCircle
 10
56.713233
 20
211.227199
 40
0.5
100
AcDbArc
 50
180.0
 51
270.0
  0
ARC
  5
84
100
AcDbEntity
  8
M2
100
AcDbCircle
 10
47.713233
 20
211.227199
 40
0.5
100
AcDbArc
 50
270.0
 51
360.0
  0
ARC
  5
85
100
AcDbEntity
  8
M2
100
AcDbCircle
 10
46.713233
 20
211.227199
 40
0.5
100
AcDbArc
 50
180.0
 51
270.0
  0
LINE
  5
86
100
AcDbEntity
  8
M2
100
AcDbLine
 10
60.713202
 20
227.227215
 11
59.713202
 21
227.227215
  0
LINE
  5
87
100
AcDbEntity
  8
M2
100
AcDbLine
 10
50.713202
 20
227.227215
 11
49.713202
 21
227.227215
  0
LINE
  5
88
100
AcDbEntity
  8
M2
100
AcDbLine
 10
70.713189
 20
227.227215
 11
69.713189
 21
227.227215
  0
LINE
  5
89
100
AcDbEntity
  8
M2
100
AcDbLine
 10
47.713233
 20
210.727199
 11
46.713233
 21
210.727199
  0
LINE
  5
8A
100
AcDbEntity
  8
M2
100
AcDbLine
 10
57.713233
 20
210.727199
 11
56.713233
 21
210.727199
  0
LINE
  5
8B
100
AcDbEntity
  8
M2
100
AcDbLine
 10
66.21322
 20
211.227199
 11
66.21322
 21
223.232382
  0
LINE
  5
8C
100
AcDbEntity
  8
M2
100
AcDbLine
 10
68.213214
 20
211.227199
 11
68.213214
 21
216.527218
  0
LINE
  5
8D
100
AcDbEntity
  8
M2
100
AcDbLine
 10
58.213233
 20
211.227199
 11
58.213233
 21
226.227215
  0
LINE
  5
8E
100
AcDbEntity
  8
M2
100
AcDbLine
 10
56.213233
 20
211.227199
 11
56.213233
 21
226.227215
  0
LINE
  5
8F
100
AcDbEntity
  8
M2
100
AcDbLine
 10
48.213233
 20
211.227199
 11
48.213233
 21
226.227215
  0
LINE
  5
90
100
AcDbEntity
  8
M2
100
AcDbLine
 10
46.213233
 20
211.227199
 11
46.213233
 21
226.227215
  0
LINE
  5
91
100
AcDbEntity
  8
M2
100
AcDbLine
 10
38.213233
 20
213.727215
 11
38.213233
 21
223.227215
  0
ARC
  5
92
100
AcDbEntity
  8
M2
100
AcDbCircle
 10
37.213218
 20
230.227215
 40
1.0
100
AcDbArc
 50
180.0
 51
270.0
  0
ARC
  5
93
100
AcDbEntity
  8
M2
100
AcDbCircle
 10
40.213202
 20
230.227215
 40
1.0
100
AcDbArc
 50
270.0
 51
360.0
  0
LINE
  5
94
100
AcDbEntity
  8
M2
100
AcDbLine
 10
37.213218
 20
229.227215
 11
40.213202
 21
229.227215
  0
ARC
  5
95
100
AcDbEntity
  8
M2
100
AcDbCircle
 10
42.893989
 20
239.227215
 40
1.0
100
AcDbArc
 50
89.999126
 51
165.962696
  0
LINE
  5
96
100
AcDbEntity
  8
M2
100
AcDbLine
 10
41.213202
 20
236.627209
 11
41.92385
 21
239.469753
  0
ARC
  5
97
100
AcDbEntity
  8
M2
100
AcDbCircle
 10
48.213202
 20
239.227215
 40
1.0
100
AcDbArc
 50
0.0
 51
89.999126
  0
ARC
  5
98
100
AcDbEntity
  8
M2
100
AcDbCircle
 10
52.213202
 20
239.227215
 40
1.0
100
AcDbArc
 50
89.999126
 51
180.0
  0
ARC
  5
99
100
AcDbEntity
  8
M2
100
AcDbCircle
 10
58.213202
 20
239.227215
 40
1.0
100
AcDbArc
 50
0.0
 51
89.999126
  0
ARC
  5
9A
100
AcDbEntity
  8
M2
100
AcDbCircle
 10
62.213202
 20
239.227215
 40
1.0
100
AcDbArc
 50
89.999126
 51
180.0
  0
ARC
  5
9B
100
AcDbEntity
  8
M2
100
AcDbCircle
 10
68.213189
 20
239.227215
 40
1.0
100
AcDbArc
 50
0.0
 51
90.0
  0
LINE
  5
9C
100
AcDbEntity
  8
M2
100
AcDbLine
 10
79.213187
 20
236.627209
 11
79.213187
 21
229.727215
  0
LINE
  5
9D
100
AcDbEntity
  8
M2
100
AcDbLine
 10
36.213218
 20
213.727215
 11
36.213218
 21
259.227182
  0
ARC
  5
9E
100
AcDbEntity
  8
M2
100
AcDbCircle
 10
72.213189
 20
239.227215
 40
1.0
100
AcDbArc
 50
90.0
 51
180.0
  0
LINE
  5
9F
100
AcDbEntity
  8
M2
100
AcDbLine
 10
81.213187
 20
246.927195
 11
73.213192
 21
246.927195
  0
LINE
  5
A0
100
AcDbEntity
  8
M2
100
AcDbLine
 10
81.213187
 20
213.727199
 11
81.213187
 21
256.288708
  0
ARC
  5
A1
100
AcDbEntity
  8
M2
100
AcDbCircle
 10
36.713218
 20
228.227215
 40
0.5
100
AcDbArc
 50
180.0
 51
270.0
  0
LINE
  5
A2
100
AcDbEntity
  8
M2
100
AcDbLine
 10
71.713192
 20
258.727198
 11
71.713192
 21
258.927198
  0
LINE
  5
A3
100
AcDbEntity
  8
M2
100
AcDbLine
 10
77.713192
 20
257.727198
 11
77.713192
 21
258.927198
  0
ARC
  5
A4
100
AcDbEntity
  8
M2
100
AcDbCircle
 10
73.213192
 20
247.427195
 40
0.5
100
AcDbArc
 50
180.0
 51
270.0
  0
LINE
  5
A5
100
AcDbEntity
  8
M2
100
AcDbLine
 10
72.713192
 20
247.427195
 11
72.713192
 21
253.127199
  0
LINE
  5
A6
100
AcDbEntity
  8
M2
100
AcDbLine
 10
72.713192
 20
253.127199
 11
70.513195
 21
253.127199
  0
LINE
  5
A7
100
AcDbEntity
  8
M2
100
AcDbLine
 10
70.513195
 20
253.127199
 11
70.513195
 21
255.227198
  0
LINE
  5
A8
100
AcDbEntity
  8
M2
100
AcDbLine
 10
79.147
 20
258.927198
 11
71.513297
 21
258.927198
  0
LINE
  5
A9
100
AcDbEntity
  8
M2
100
AcDbLine
 10
61.813224
 20
258.727198
 11
59.613227
 21
258.727198
  0
LINE
  5
AA
100
AcDbEntity
  8
M2
100
AcDbLine
 10
39.213218
 20
255.227198
 11
39.213218
 21
252.727198
  0
LINE
  5
AB
100
AcDbEntity
  8
M2
100
AcDbLine
 10
38.713218
 20
252.727198
 11
39.213218
 21
252.727198
  0
LINE
  5
AC
100
AcDbEntity
  8
M2
100
AcDbLine
 10
38.713218
 20
229.227215
 11
38.713218
 21
252.727198
  0
LINE
  5
AD
100
AcDbEntity
  8
M2
100
AcDbLine
 10
41.713218
 20
240.227215
 11
41.713218
 21
244.227198
  0
LINE
  5
AE
100
AcDbEntity
  8
M2
100
AcDbLine
 10
41.713218
 20
244.227198
 11
41.213218
 21
244.227198
  0
LINE
  5
AF
100
AcDbEntity
  8
M2
100
AcDbLine
 10
80.513187
 20
244.327196
 11
80.513187
 21
240.227215
  0
LINE
  5
B0
100
AcDbEntity
  8
M2
100
AcDbLine
 10
80.013187
 20
244.327196
 11
80.013187
 21
240.227215
  0
ARC
  5
B1
100
AcDbEntity
  8
M2
100
AcDbCircle
 10
36.713218
 20
213.727215
 40
0.5
100
AcDbArc
 50
180.0
 51
270.0
  0
ARC
  5
B2
100
AcDbEntity
  8
M2
100
AcDbCircle
 10
56.413245
 20
218.427227
 40
0.2
100
AcDbArc
 50
180.0
 51
270.0
  0
ARC
  5
B3
100
AcDbEntity
  8
M2
100
AcDbCircle
 10
46.413245
 20
218.427227
 40
0.2
100
AcDbArc
 50
180.0
 51
270.0
  0
ARC
  5
B4
100
AcDbEntity
  8
M2
100
AcDbCircle
 10
50.713202
 20
227.727215
 40
0.5
100
AcDbArc
 50
270.0
 51
360.0
  0
ARC
  5
B5
100
AcDbEntity
  8
M2
100
AcDbCircle
 10
49.713202
 20
227.727215
 40
0.5
100
AcDbArc
 50
180.0
 51
270.0
  0
ARC
  5
B6
100
AcDbEntity
  8
M2
100
AcDbCircle
 10
60.713202
 20
227.727215
 40
0.5
100
AcDbArc
 50
270.0
 51
360.0
  0
ARC
  5
B7
100
AcDbEntity
  8
M2
100
AcDbCircle
 10
59.713202
 20
227.727215
 40
0.5
100
AcDbArc
 50
180.0
 51
270.0
  0
ARC
  5
B8
100
AcDbEntity
  8
M2
100
AcDbCircle
 10
70.713189
 20
227.727215
 40
0.5
100
AcDbArc
 50
270.0
 51
360.0
  0
ARC
  5
B9
100
AcDbEntity
  8
M2
100
AcDbCircle
 10
69.713189
 20
227.727215
 40
0.5
100
AcDbArc
 50
180.0
 51
270.0
  0
ARC
  5
BA
100
AcDbEntity
  8
M2
100
AcDbCircle
 10
67.713214
 20
211.227199
 40
0.5
100
AcDbArc
 50
270.0
 51
360.0
  0
ARC
  5
BB
100
AcDbEntity
  8
M2
100
AcDbCircle
 10
66.71322
 20
211.227199
 40
0.5
100
AcDbArc
 50
180.0
 51
270.0
  0
LINE
  5
BC
100
AcDbEntity
  8
M2
100
AcDbLine
 10
59.213218
 20
240.227215
 11
41.213218
 21
240.227215
  0
LINE
  5
BD
100
AcDbEntity
  8
M2
100
AcDbLine
 10
79.213187
 20
216.527218
 11
79.213187
 21
213.727199
  0
ARC
  5
BE
100
AcDbEntity
  8
M2
100
AcDbCircle
 10
45.213233
 20
223.227215
 40
1.0
100
AcDbArc
 50
0.0
 51
89.999126
  0
ARC
  5
BF
100
AcDbEntity
  8
M2
100
AcDbCircle
 10
49.213233
 20
223.227215
 40
1.0
100
AcDbArc
 50
89.999126
 51
180.0
  0
ARC
  5
C0
100
AcDbEntity
  8
M2
100
AcDbCircle
 10
55.213233
 20
223.227215
 40
1.0
100
AcDbArc
 50
0.0
 51
89.999126
  0
LINE
  5
C1
100
AcDbEntity
  8
M2
100
AcDbLine
 10
69.713192
 20
216.527218
 11
69.713192
 21
223.32716
  0
LINE
  5
C2
100
AcDbEntity
  8
M2
100
AcDbLine
 10
77.713192
 20
216.527218
 11
77.713192
 21
223.236271
  0
ARC
  5
C3
100
AcDbEntity
  8
M2
100
AcDbCircle
 10
39.213233
 20
223.227215
 40
1.0
100
AcDbArc
 50
89.999126
 51
180.0
  0
LINE
  5
C4
100
AcDbEntity
  8
M2
100
AcDbLine
 10
70.308023
 20
216.527218
 11
68.213214
 21
216.527218
  0
ARC
  5
C5
100
AcDbEntity
  8
M2
100
AcDbCircle
 10
59.213233
 20
223.227215
 40
1.0
100
AcDbArc
 50
89.999126
 51
180.0
  0
ARC
  5
C6
100
AcDbEntity
  8
M2
100
AcDbCircle
 10
65.213233
 20
223.227215
 40
1.0
100
AcDbArc
 50
0.0
 51
89.999126
  0
ARC
  5
C7
100
AcDbEntity
  8
M2
100
AcDbCircle
 10
70.713233
 20
223.227215
 40
1.0
100
AcDbArc
 50
89.999126
 51
180.0
  0
ARC
  5
C8
100
AcDbEntity
  8
M2
100
AcDbCircle
 10
76.713233
 20
223.227215
 40
1.0
100
AcDbArc
 50
0.0
 51
89.999126
  0
LINE
  5
C9
100
AcDbEntity
  8
M2
 62
     6
100
AcDbLine
 10
71.513297
 20
258.727198
 11
71.513297
 21
261.102199
  0
LINE
  5
CA
100
AcDbEntity
  8
M2
 62
     6
100
AcDbLine
 10
70.663306
 20
264.302215
 11
70.663306
 21
271.827296
  0
LINE
  5
CB
100
AcDbEntity
  8
M2
 62
     6
100
AcDbLine
 10
68.513297
 20
264.439606
 11
68.513297
 21
269.152744
  0
LINE
  5
CC
100
AcDbEntity
  8
M2
 62
     6
100
AcDbLine
 10
63.513297
 20
264.302199
 11
63.513297
 21
271.827296
  0
LINE
  5
CD
100
AcDbEntity
  8
M2
 62
     6
100
AcDbLine
 10
46.513297
 20
261.027247
 11
46.513297
 21
261.742596
  0
LINE
  5
CE
100
AcDbEntity
  8
M2
 62
     6
100
AcDbLine
 10
43.513297
 20
261.027247
 11
43.513297
 21
270.527247
  0
LINE
  5
CF
100
AcDbEntity
  8
M2
 62
     6
100
AcDbLine
 10
36.213218
 20
255.227198
 11
72.213324
 21
255.227214
  0
LINE
  5
D0
100
AcDbEntity
  8
M2
 62
     6
100
AcDbLine
 10
63.513297
 20
271.827205
 11
63.713718
 21
271.827206
  0
LINE
  5
D1
100
AcDbEntity
  8
M2
 62
     6
100
AcDbLine
 10
69.288718
 20
271.827225
 11
70.663306
 21
271.827235
  0
LINE
  5
D2
100
AcDbEntity
  8
M2
 62
     6
100
AcDbLine
 10
43.213294
 20
266.327205
 11
38.213294
 21
266.327205
  0
LINE
  5
D3
100
AcDbEntity
  8
M2
 62
     6
100
AcDbLine
 10
53.213309
 20
266.327205
 11
48.213309
 21
266.327205
  0
LINE
  5
D4
100
AcDbEntity
  8
M2
 62
     6
100
AcDbLine
 10
58.213309
 20
266.32722
 11
61.513312
 21
266.32722
  0
LINE
  5
D5
100
AcDbEntity
  8
M2
 62
     6
100
AcDbLine
 10
36.213218
 20
261.027217
 11
70.713294
 21
261.027217
  0
LINE
  5
D6
100
AcDbEntity
  8
M2
 62
     6
100
AcDbLine
 10
36.213218
 20
261.027217
 11
36.213218
 21
255.227214
  0
LINE
  5
D7
100
AcDbEntity
  8
M2
 62
     6
100
AcDbLine
 10
70.713294
 20
261.027217
 11
70.713294
 21
258.727198
  0
LINE
  5
D8
100
AcDbEntity
  8
M2
 62
     6
100
AcDbLine
 10
61.513312
 20
266.32722
 11
61.513312
 21
261.027201
  0
LINE
  5
D9
100
AcDbEntity
  8
M2
 62
     6
100
AcDbLine
 10
58.213309
 20
266.32722
 11
58.213309
 21
261.027217
  0
LINE
  5
DA
100
AcDbEntity
  8
M2
 62
     6
100
AcDbLine
 10
53.213309
 20
266.327205
 11
53.213309
 21
261.027217
  0
LINE
  5
DB
100
AcDbEntity
  8
M2
 62
     6
100
AcDbLine
 10
48.213309
 20
266.327205
 11
48.213309
 21
261.027217
  0
LINE
  5
DC
100
AcDbEntity
  8
M2
 62
     6
100
AcDbLine
 10
43.213294
 20
266.327205
 11
43.213294
 21
261.027217
  0
LINE
  5
DD
100
AcDbEntity
  8
M2
 62
     6
100
AcDbLine
 10
38.213294
 20
266.327205
 11
38.213294
 21
261.027217
  0
LINE
  5
DE
100
AcDbEntity
  8
M2
 62
     6
100
AcDbLine
 10
70.413321
 20
266.32722
 11
68.763297
 21
266.327205
  0
LINE
  5
DF
100
AcDbEntity
  8
M2
 62
     6
100
AcDbLine
 10
56.713294
 20
260.427211
 11
56.713294
 21
256.227198
  0
LINE
  5
E0
100
AcDbEntity
  8
M2
 62
     6
100
AcDbLine
 10
55.213294
 20
257.227229
 11
55.213294
 21
256.227198
  0
LINE
  5
E1
100
AcDbEntity
  8
M2
 62
     6
100
AcDbLine
 10
53.713294
 20
260.427211
 11
53.713294
 21
259.427211
  0
LINE
  5
E2
100
AcDbEntity
  8
M2
 62
     6
100
AcDbLine
 10
46.213294
 20
260.227198
 11
46.213294
 21
257.227229
  0
LINE
  5
E3
100
AcDbEntity
  8
M2
 62
     6
100
AcDbLine
 10
56.713294
 20
260.427211
 11
53.713294
 21
260.427211
  0
LINE
  5
E4
100
AcDbEntity
  8
M2
 62
     6
100
AcDbLine
 10
53.713294
 20
260.227198
 11
46.213294
 21
260.227198
  0
LINE
  5
E5
100
AcDbEntity
  8
M2
 62
     6
100
AcDbLine
 10
53.713294
 20
259.427211
 11
46.213294
 21
259.427211
  0
LINE
  5
E6
100
AcDbEntity
  8
M2
 62
     6
100
AcDbLine
 10
46.213294
 20
257.327205
 11
39.513221
 21
257.327205
  0
LINE
  5
E7
100
AcDbEntity
  8
M2
 62
     6
100
AcDbLine
 10
41.213202
 20
257.227214
 11
55.213294
 21
257.227229
  0
LINE
  5
E8
100
AcDbEntity
  8
M2
 62
     6
100
AcDbLine
 10
41.213202
 20
257.227214
 11
41.213202
 21
255.227198
  0
LINE
  5
E9
100
AcDbEntity
  8
M2
 62
     6
100
AcDbLine
 10
70.313193
 20
257.227214
 11
70.313193
 21
255.227183
  0
LINE
  5
EA
100
AcDbEntity
  8
M2
 62
     6
100
AcDbLine
 10
39.513221
 20
257.327205
 11
39.513221
 21
255.227198
  0
LINE
  5
EB
100
AcDbEntity
  8
M2
 62
     6
100
AcDbLine
 10
55.213294
 20
256.827205
 11
52.213294
 21
256.827205
  0
LINE
  5
EC
100
AcDbEntity
  8
M2
 62
     6
100
AcDbLine
 10
56.713263
 20
256.827205
 11
59.713263
 21
256.827205
  0
LINE
  5
ED
100
AcDbEntity
  8
M2
 62
     6
100
AcDbLine
 10
59.713263
 20
257.227229
 11
70.313193
 21
257.227214
  0
LINE
  5
EE
100
AcDbEntity
  8
M2
 62
     6
100
AcDbLine
 10
72.813315
 20
258.727198
 11
56.713294
 21
258.727198
  0
LINE
  5
EF
100
AcDbEntity
  8
M2
 62
     6
100
AcDbLine
 10
72.813315
 20
258.727198
 11
72.813315
 21
256.727229
  0
LINE
  5
F0
100
AcDbEntity
  8
M2
 62
     6
100
AcDbLine
 10
56.713294
 20
256.227198
 11
55.213294
 21
256.227198
  0
LINE
  5
F1
100
AcDbEntity
  8
M2
 62
     6
100
AcDbLine
 10
52.213294
 20
256.827205
 11
52.213294
 21
257.227229
  0
LINE
  5
F2
100
AcDbEntity
  8
M2
 62
     6
100
AcDbLine
 10
59.713263
 20
256.827205
 11
59.713263
 21
258.227214
  0
LINE
  5
F3
100
AcDbEntity
  8
M2
 62
     6
100
AcDbLine
 10
59.713263
 20
258.227214
 11
56.713263
 21
258.227214
  0
LINE
  5
F4
100
AcDbEntity
  8
M2
 62
     6
100
AcDbLine
 10
70.313193
 20
256.727214
 11
81.213279
 21
256.727229
  0
LINE
  5
F5
100
AcDbEntity
  8
M2
 62
     6
100
AcDbLine
 10
81.213279
 20
257.727198
 11
81.213279
 21
246.427211
  0
LINE
  5
F6
100
AcDbEntity
  8
M2
 62
     6
100
AcDbLine
 10
80.713279
 20
246.927211
 11
80.213279
 21
246.927211
  0
LINE
  5
F7
100
AcDbEntity
  8
M2
 62
     6
100
AcDbLine
 10
80.213279
 20
246.927211
 11
80.213279
 21
251.227198
  0
LINE
  5
F8
100
AcDbEntity
  8
M2
 62
     6
100
AcDbLine
 10
81.213279
 20
257.727198
 11
72.813315
 21
257.727198
  0
LINE
  5
F9
100
AcDbEntity
  8
M2
 62
     6
100
AcDbLine
 10
72.213309
 20
255.227214
 11
73.285102
 21
251.227198
  0
LINE
  5
FA
100
AcDbEntity
  8
M2
 62
     6
100
AcDbLine
 10
81.213279
 20
253.227214
 11
73.784491
 21
253.227214
  0
LINE
  5
FB
100
AcDbEntity
  8
M2
 62
     6
100
AcDbLine
 10
72.846671
 20
256.727229
 11
73.784491
 21
253.227214
  0
LINE
  5
FC
100
AcDbEntity
  8
M2
 62
     6
100
AcDbLine
 10
81.213279
 20
253.227214
 11
73.784491
 21
253.227214
  0
LINE
  5
FD
100
AcDbEntity
  8
M2
 62
     6
100
AcDbLine
 10
80.213279
 20
251.227198
 11
73.285102
 21
251.227198
  0
CIRCLE
  5
FE
100
AcDbEntity
  8
M2
 62
     4
100
AcDbCircle
 10
75.213212
 20
235.527131
 40
2.999997
  0
LINE
  5
FF
100
AcDbEntity
  8
M2
 62
     4
100
AcDbLine
 10
72.254227
 20
239.474473
 11
71.438065
 21
236.82718
  0
LINE
  5
100
100
AcDbEntity
  8
M2
 62
     4
100
AcDbLine
 10
72.254227
 20
231.579881
 11
71.438065
 21
234.227205
  0
LINE
  5
101
100
AcDbEntity
  8
M2
 62
     4
100
AcDbLine
 10
78.171708
 20
239.474489
 11
78.988114
 21
236.82718
  0
LINE
  5
102
100
AcDbEntity
  8
M2
 62
     4
100
AcDbLine
 10
78.171708
 20
231.579866
 11
78.988114
 21
234.227205
  0
LINE
  5
103
100
AcDbEntity
  8
M2
 62
     4
100
AcDbLine
 10
72.732255
 20
231.227205
 11
77.693925
 21
231.227205
  0
LINE
  5
104
100
AcDbEntity
  8
M2
 62
     4
100
AcDbLine
 10
78.988114
 20
234.227205
 11
78.988114
 21
236.82718
  0
LINE
  5
105
100
AcDbEntity
  8
M2
 62
     4
100
AcDbLine
 10
77.693925
 20
239.82718
 11
72.732255
 21
239.827165
  0
LINE
  5
106
100
AcDbEntity
  8
M2
 62
     4
100
AcDbLine
 10
71.438065
 20
236.82718
 11
71.438065
 21
234.227205
  0
LINE
  5
107
100
AcDbEntity
  8
M2
 62
     4
100
AcDbLine
 10
76.803788
 20
233.936311
 11
73.622147
 21
237.118074
  0
LINE
  5
108
100
AcDbEntity
  8
M2
 62
     4
100
AcDbLine
 10
75.566483
 20
236.941316
 11
73.798905
 21
235.173616
  0
LINE
  5
109
100
AcDbEntity
  8
M2
 62
     4
100
AcDbLine
 10
76.62703
 20
235.880647
 11
74.859452
 21
234.113069
  0
ARC
  5
10A
100
AcDbEntity
  8
M2
 62
     4
100
AcDbCircle
 10
72.732255
 20
239.327165
 40
0.5
100
AcDbArc
 50
89.998251
 51
162.874002
  0
ARC
  5
10B
100
AcDbEntity
  8
M2
 62
     4
100
AcDbCircle
 10
72.732255
 20
231.727205
 40
0.5
100
AcDbArc
 50
197.129131
 51
270.0
  0
ARC
  5
10C
100
AcDbEntity
  8
M2
 62
     4
100
AcDbCircle
 10
77.693925
 20
231.727205
 40
0.5
100
AcDbArc
 50
270.0
 51
342.861236
  0
ARC
  5
10D
100
AcDbEntity
  8
M2
 62
     4
100
AcDbCircle
 10
77.693925
 20
239.327165
 40
0.5
100
AcDbArc
 50
17.136442
 51
90.0
  0
LINE
  5
10E
100
AcDbEntity
  8
M2
  6
DASHDOT
 62
     4
100
AcDbLine
 10
74.713212
 20
235.527131
 11
75.713212
 21
235.527131
  0
LINE
  5
10F
100
AcDbEntity
  8
M2
  6
DASHDOT
 62
     4
100
AcDbLine
 10
75.213212
 20
235.027131
 11
75.213212
 21
236.027131
  0
LINE
  5
110
100
AcDbEntity
  8
M2
 62
     7
100
AcDbLine
 10
101.552544
 20
340.18089
 11
99.784966
 21
338.413312
  0
LINE
  5
111
100
AcDbEntity
  8
M2
 62
     7
100
AcDbLine
 10
107.579301
 20
320.636555
 11
104.397661
 21
323.818317
  0
LINE
  5
112
100
AcDbEntity
  8
M2
 62
     7
100
AcDbLine
 10
48.552544
 20
340.18089
 11
46.784966
 21
338.413312
  0
LINE
  5
113
100
AcDbEntity
  8
M2
 62
     7
100
AcDbLine
 10
106.341997
 20
323.641559
 11
104.574419
 21
321.873859
  0
LINE
  5
114
100
AcDbEntity
  8
M2
 62
     7
100
AcDbLine
 10
73.541997
 20
281.841559
 11
71.774419
 21
280.073859
  0
LINE
  5
115
100
AcDbEntity
  8
M2
 62
     7
100
AcDbLine
 10
73.541997
 20
323.641559
 11
71.774419
 21
321.873859
  0
LINE
  5
116
100
AcDbEntity
  8
M2
 62
     7
100
AcDbLine
 10
97.302544
 20
322.58089
 11
95.534966
 21
320.813312
  0
LINE
  5
117
100
AcDbEntity
  8
M2
 62
     7
100
AcDbLine
 10
123.529301
 20
338.236555
 11
120.347661
 21
341.418317
  0
LINE
  5
118
100
AcDbEntity
  8
M2
 62
     7
100
AcDbLine
 10
47.491997
 20
341.241559
 11
45.724419
 21
339.473859
  0
LINE
  5
119
100
AcDbEntity
  8
M2
 62
     7
100
AcDbLine
 10
96.241997
 20
323.641559
 11
94.474419
 21
321.873859
  0
LINE
  5
11A
100
AcDbEntity
  8
M2
 62
     7
100
AcDbLine
 10
123.352544
 20
340.18089
 11
121.584966
 21
338.413312
  0
LINE
  5
11B
100
AcDbEntity
  8
M2
 62
     7
100
AcDbLine
 10
48.729301
 20
338.236555
 11
45.547661
 21
341.418317
  0
LINE
  5
11C
100
AcDbEntity
  8
M2
 62
     7
100
AcDbLine
 10
74.602544
 20
322.58089
 11
72.834966
 21
320.813312
  0
LINE
  5
11D
100
AcDbEntity
  8
M2
 62
     7
100
AcDbLine
 10
69.291997
 20
341.241559
 11
67.524419
 21
339.473859
  0
LINE
  5
11E
100
AcDbEntity
  8
M2
 62
     7
100
AcDbLine
 10
70.529301
 20
338.236555
 11
67.347661
 21
341.418317
  0
LINE
  5
11F
100
AcDbEntity
  8
M2
 62
     7
100
AcDbLine
 10
44.479301
 20
320.636555
 11
41.297661
 21
323.818317
  0
LINE
  5
120
100
AcDbEntity
  8
M2
 62
     7
100
AcDbLine
 10
63.441997
 20
323.641559
 11
61.674419
 21
321.873859
  0
LINE
  5
121
100
AcDbEntity
  8
M2
 62
     7
100
AcDbLine
 10
53.341997
 20
323.641559
 11
51.574419
 21
321.873859
  0
LINE
  5
122
100
AcDbEntity
  8
M2
 62
     7
100
AcDbLine
 10
43.241997
 20
323.641559
 11
41.474419
 21
321.873859
  0
LINE
  5
123
100
AcDbEntity
  8
M2
 62
     7
100
AcDbLine
 10
54.402544
 20
322.58089
 11
52.634966
 21
320.813312
  0
LINE
  5
124
100
AcDbEntity
  8
M2
 62
     7
100
AcDbLine
 10
70.352544
 20
340.18089
 11
68.584966
 21
338.413312
  0
LINE
  5
125
100
AcDbEntity
  8
M2
 62
     7
100
AcDbLine
 10
64.679301
 20
320.636555
 11
61.497661
 21
323.818317
  0
LINE
  5
126
100
AcDbEntity
  8
M2
 62
     7
100
AcDbLine
 10
97.302544
 20
280.78089
 11
95.534966
 21
279.013312
  0
LINE
  5
127
100
AcDbEntity
  8
M2
 62
     7
100
AcDbLine
 10
74.602544
 20
280.78089
 11
72.834966
 21
279.013312
  0
LINE
  5
128
100
AcDbEntity
  8
M2
 62
     7
100
AcDbLine
 10
74.779301
 20
320.636555
 11
71.597661
 21
323.818317
  0
LINE
  5
129
100
AcDbEntity
  8
M2
 62
     7
100
AcDbLine
 10
63.441997
 20
281.841559
 11
61.674419
 21
280.073859
  0
LINE
  5
12A
100
AcDbEntity
  8
M2
 62
     7
100
AcDbLine
 10
44.302544
 20
322.58089
 11
42.534966
 21
320.813312
  0
LINE
  5
12B
100
AcDbEntity
  8
M2
 62
     7
100
AcDbLine
 10
54.579301
 20
320.636555
 11
51.397661
 21
323.818317
  0
LINE
  5
12C
100
AcDbEntity
  8
M2
 62
     7
100
AcDbLine
 10
74.779301
 20
278.836555
 11
71.597661
 21
282.018317
  0
LINE
  5
12D
100
AcDbEntity
  8
M2
 62
     7
100
AcDbLine
 10
64.502544
 20
322.58089
 11
62.734966
 21
320.813312
  0
LINE
  5
12E
100
AcDbEntity
  8
M2
 62
     7
100
AcDbLine
 10
54.402544
 20
280.78089
 11
52.634966
 21
279.013312
  0
LINE
  5
12F
100
AcDbEntity
  8
M2
 62
     7
100
AcDbLine
 10
54.579301
 20
278.836555
 11
51.397661
 21
282.018317
  0
LINE
  5
130
100
AcDbEntity
  8
M2
 62
     7
100
AcDbLine
 10
96.241997
 20
281.841559
 11
94.474419
 21
280.073859
  0
LINE
  5
131
100
AcDbEntity
  8
M2
 62
     7
100
AcDbLine
 10
127.602544
 20
280.78089
 11
125.834966
 21
279.013312
  0
LINE
  5
132
100
AcDbEntity
  8
M2
 62
     7
100
AcDbLine
 10
44.479301
 20
278.836555
 11
41.297661
 21
282.018317
  0
LINE
  5
133
100
AcDbEntity
  8
M2
 62
     7
100
AcDbLine
 10
127.779301
 20
278.836555
 11
124.597661
 21
282.018317
  0
LINE
  5
134
100
AcDbEntity
  8
M2
 62
     7
100
AcDbLine
 10
64.679301
 20
278.836555
 11
61.497661
 21
282.018317
  0
LINE
  5
135
100
AcDbEntity
  8
M2
 62
     7
100
AcDbLine
 10
117.502544
 20
280.78089
 11
115.734966
 21
279.013312
  0
LINE
  5
136
100
AcDbEntity
  8
M2
 62
     7
100
AcDbLine
 10
116.441997
 20
281.841559
 11
114.674419
 21
280.073859
  0
LINE
  5
137
100
AcDbEntity
  8
M2
 62
     7
100
AcDbLine
 10
127.779301
 20
320.636555
 11
124.597661
 21
323.818317
  0
LINE
  5
138
100
AcDbEntity
  8
M2
 62
     7
100
AcDbLine
 10
126.541997
 20
323.641559
 11
124.774419
 21
321.873859
  0
LINE
  5
139
100
AcDbEntity
  8
M2
 62
     7
100
AcDbLine
 10
126.541997
 20
281.841559
 11
124.774419
 21
280.073859
  0
LINE
  5
13A
100
AcDbEntity
  8
M2
 62
     7
100
AcDbLine
 10
53.341997
 20
281.841559
 11
51.574419
 21
280.073859
  0
LINE
  5
13B
100
AcDbEntity
  8
M2
 62
     7
100
AcDbLine
 10
107.579301
 20
278.836555
 11
104.397661
 21
282.018317
  0
LINE
  5
13C
100
AcDbEntity
  8
M2
 62
     7
100
AcDbLine
 10
97.479301
 20
278.836555
 11
94.297661
 21
282.018317
  0
LINE
  5
13D
100
AcDbEntity
  8
M2
 62
     7
100
AcDbLine
 10
101.729301
 20
338.236555
 11
98.547661
 21
341.418317
  0
LINE
  5
13E
100
AcDbEntity
  8
M2
 62
     7
100
AcDbLine
 10
107.402544
 20
280.78089
 11
105.634966
 21
279.013312
  0
LINE
  5
13F
100
AcDbEntity
  8
M2
 62
     7
100
AcDbLine
 10
117.502544
 20
322.58089
 11
115.734966
 21
320.813312
  0
LINE
  5
140
100
AcDbEntity
  8
M2
 62
     7
100
AcDbLine
 10
117.679301
 20
320.636555
 11
114.497661
 21
323.818317
  0
LINE
  5
141
100
AcDbEntity
  8
M2
 62
     7
100
AcDbLine
 10
127.602544
 20
322.58089
 11
125.834966
 21
320.813312
  0
LINE
  5
142
100
AcDbEntity
  8
M2
 62
     7
100
AcDbLine
 10
97.479301
 20
320.636555
 11
94.297661
 21
323.818317
  0
LINE
  5
143
100
AcDbEntity
  8
M2
 62
     7
100
AcDbLine
 10
106.341997
 20
281.841559
 11
104.574419
 21
280.073859
  0
LINE
  5
144
100
AcDbEntity
  8
M2
 62
     7
100
AcDbLine
 10
64.502544
 20
280.78089
 11
62.734966
 21
279.013312
  0
LINE
  5
145
100
AcDbEntity
  8
M2
 62
     7
100
AcDbLine
 10
116.441997
 20
323.641559
 11
114.674419
 21
321.873859
  0
LINE
  5
146
100
AcDbEntity
  8
M2
 62
     7
100
AcDbLine
 10
43.241997
 20
281.841559
 11
41.474419
 21
280.073859
  0
LINE
  5
147
100
AcDbEntity
  8
M2
 62
     7
100
AcDbLine
 10
44.302544
 20
280.78089
 11
42.534966
 21
279.013312
  0
LINE
  5
148
100
AcDbEntity
  8
M2
 62
     7
100
AcDbLine
 10
122.291997
 20
341.241559
 11
120.524419
 21
339.473859
  0
LINE
  5
149
100
AcDbEntity
  8
M2
 62
     7
100
AcDbLine
 10
117.679301
 20
278.836555
 11
114.497661
 21
282.018317
  0
LINE
  5
14A
100
AcDbEntity
  8
M2
 62
     7
100
AcDbLine
 10
107.402544
 20
322.58089
 11
105.634966
 21
320.813312
  0
LINE
  5
14B
100
AcDbEntity
  8
M2
 62
     7
100
AcDbLine
 10
100.491997
 20
341.241559
 11
98.724419
 21
339.473859
  0
LINE
  5
14C
100
AcDbEntity
  8
M2
  6
DASHED
100
AcDbLine
 10
207.726552
 20
327.027199
 11
210.226552
 21
327.027199
  0
LINE
  5
14D
100
AcDbEntity
  8
M2
  6
DASHED
100
AcDbLine
 10
207.226552
 20
306.427199
 11
207.226552
 21
319.077199
  0
LINE
  5
14E
100
AcDbEntity
  8
M2
  6
DASHED
100
AcDbLine
 10
206.226552
 20
306.427199
 11
207.226552
 21
306.427199
  0
ARC
  5
14F
100
AcDbEntity
  8
M2
  6
DASHED
100
AcDbCircle
 10
207.726552
 20
325.527199
 40
1.5
100
AcDbArc
 50
90.0
 51
180.0
  0
ARC
  5
150
100
AcDbEntity
  8
M2
  6
DASHED
100
AcDbCircle
 10
207.726552
 20
325.527199
 40
0.5
100
AcDbArc
 50
90.0
 51
180.0
  0
LINE
  5
151
100
AcDbEntity
  8
M2
  6
DASHED
100
AcDbLine
 10
206.226552
 20
306.427199
 11
206.226552
 21
325.527199
  0
LINE
  5
152
100
AcDbEntity
  8
M2
 62
     7
100
AcDbLine
 10
180.126552
 20
327.127199
 11
180.126552
 21
345.327199
  0
LINE
  5
153
100
AcDbEntity
  8
M2
  6
DASHED
100
AcDbLine
 10
207.726552
 20
326.027199
 11
210.226552
 21
326.027199
  0
LINE
  5
154
100
AcDbEntity
  8
M2
  6
DASHED
100
AcDbLine
 10
207.226552
 20
324.377199
 11
207.226552
 21
325.527199
  0
LINE
  5
155
100
AcDbEntity
  8
M2
  6
DASHED
100
AcDbLine
 10
207.226552
 20
319.077199
 11
207.226552
 21
324.377199
  0
LINE
  5
156
100
AcDbEntity
  8
M2
  6
DASHED
100
AcDbLine
 10
210.226552
 20
327.027199
 11
210.226552
 21
326.027199
  0
LINE
  5
157
100
AcDbEntity
  8
M2
 62
    34
100
AcDbLine
 10
209.426552
 20
333.527199
 11
209.426552
 21
344.127199
  0
LINE
  5
158
100
AcDbEntity
  8
M2
 62
    34
100
AcDbLine
 10
206.226552
 20
344.127199
 11
206.226552
 21
333.527199
  0
ARC
  5
159
100
AcDbEntity
  8
M2
 62
    34
100
AcDbCircle
 10
207.826552
 20
344.127199
 40
1.6
100
AcDbArc
 50
0.0
 51
90.0
  0
ARC
  5
15A
100
AcDbEntity
  8
M2
 62
    34
100
AcDbCircle
 10
207.826552
 20
344.127199
 40
1.6
100
AcDbArc
 50
90.0
 51
180.0
  0
LINE
  5
15B
100
AcDbEntity
  8
M2
 62
    34
100
AcDbLine
 10
212.581123
 20
343.081615
 11
210.254497
 21
333.527199
  0
LINE
  5
15C
100
AcDbEntity
  8
M2
 62
    34
100
AcDbLine
 10
215.562576
 20
341.992223
 11
211.18487
 21
333.527199
  0
ARC
  5
15D
100
AcDbEntity
  8
M2
 62
    34
100
AcDbCircle
 10
211.026552
 20
343.460174
 40
1.6
100
AcDbArc
 50
346.314088
 51
540.0
  0
ARC
  5
15E
100
AcDbEntity
  8
M2
 62
    34
100
AcDbCircle
 10
214.141377
 20
342.727199
 40
1.6
100
AcDbArc
 50
332.654148
 51
527.202283
  0
ARC
  5
15F
100
AcDbEntity
  8
M2
 62
    34
100
AcDbCircle
 10
231.955536
 20
260.721537
 40
1.6
100
AcDbArc
 50
247.714428
 51
427.714428
  0
LINE
  5
160
100
AcDbEntity
  8
M2
 62
    34
100
AcDbLine
 10
231.348778
 20
259.241048
 11
207.226552
 21
269.127199
  0
LINE
  5
161
100
AcDbEntity
  8
M2
 62
    34
100
AcDbLine
 10
232.562293
 20
262.202025
 11
213.86443
 21
269.865078
  0
ARC
  5
162
100
AcDbEntity
  8
M2
 62
    34
100
AcDbCircle
 10
111.088718
 20
326.059953
 40
3.0
100
AcDbArc
 50
359.851917
 51
360.0
  0
LINE
  5
163
100
AcDbEntity
  8
M2
 62
    34
100
AcDbLine
 10
118.088718
 20
333.327199
 11
114.088718
 21
333.327199
  0
LINE
  5
164
100
AcDbEntity
  8
M2
 62
    34
100
AcDbLine
 10
118.088718
 20
328.527199
 11
114.088718
 21
328.527199
  0
LINE
  5
165
100
AcDbEntity
  8
M2
 62
    34
100
AcDbLine
 10
114.088718
 20
333.327199
 11
114.088718
 21
326.059953
  0
ARC
  5
166
100
AcDbEntity
  8
M2
 62
    34
100
AcDbCircle
 10
121.088718
 20
326.059953
 40
3.0
100
AcDbArc
 50
180.0
 51
180.148083
  0
LINE
  5
167
100
AcDbEntity
  8
M2
 62
    34
100
AcDbLine
 10
118.088718
 20
333.327199
 11
118.088718
 21
326.059953
  0
LINE
  5
168
100
AcDbEntity
  8
M2
 62
    34
100
AcDbLine
 10
94.288718
 20
333.327199
 11
94.288718
 21
340.127199
  0
LINE
  5
169
100
AcDbEntity
  8
M2
 62
    34
100
AcDbLine
 10
61.488718
 20
333.327199
 11
61.488718
 21
340.127199
  0
LINE
  5
16A
100
AcDbEntity
  8
M2
 62
    34
100
AcDbLine
 10
64.688718
 20
333.327199
 11
64.688718
 21
340.127199
  0
LINE
  5
16B
100
AcDbEntity
  8
M2
 62
    34
100
AcDbLine
 10
97.488718
 20
333.327199
 11
97.488718
 21
340.127199
  0
ARC
  5
16C
100
AcDbEntity
  8
M2
 62
    34
100
AcDbCircle
 10
46.888718
 20
340.127199
 40
5.6
100
AcDbArc
 50
90.0
 51
180.0
  0
ARC
  5
16D
100
AcDbEntity
  8
M2
 62
    34
100
AcDbCircle
 10
112.088718
 20
340.127199
 40
2.4
100
AcDbArc
 50
0.0
 51
90.0
  0
ARC
  5
16E
100
AcDbEntity
  8
M2
 62
    34
100
AcDbCircle
 10
46.888718
 20
340.127199
 40
2.4
100
AcDbArc
 50
90.0
 51
180.0
  0
ARC
  5
16F
100
AcDbEntity
  8
M2
 62
    34
100
AcDbCircle
 10
112.088718
 20
340.127199
 40
5.6
100
AcDbArc
 50
0.0
 51
90.0
  0
LINE
  5
170
100
AcDbEntity
  8
M2
 62
    34
100
AcDbLine
 10
114.488718
 20
333.327199
 11
114.488718
 21
340.127199
  0
LINE
  5
171
100
AcDbEntity
  8
M2
 62
    34
100
AcDbLine
 10
44.488718
 20
333.327199
 11
44.488718
 21
340.127199
  0
LINE
  5
172
100
AcDbEntity
  8
M2
 62
    34
100
AcDbLine
 10
41.288718
 20
333.327199
 11
41.288718
 21
340.127199
  0
LINE
  5
173
100
AcDbEntity
  8
M2
 62
    34
100
AcDbLine
 10
117.688718
 20
333.327199
 11
117.688718
 21
340.127199
  0
LINE
  5
174
100
AcDbEntity
  8
M2
 62
    34
100
AcDbLine
 10
104.388718
 20
333.327199
 11
104.388718
 21
340.127199
  0
LINE
  5
175
100
AcDbEntity
  8
M2
 62
    34
100
AcDbLine
 10
51.388718
 20
333.327199
 11
51.388718
 21
340.127199
  0
LINE
  5
176
100
AcDbEntity
  8
M2
 62
    34
100
AcDbLine
 10
107.588718
 20
333.327199
 11
107.588718
 21
340.127199
  0
LINE
  5
177
100
AcDbEntity
  8
M2
 62
    34
100
AcDbLine
 10
54.588718
 20
333.327199
 11
54.588718
 21
340.127199
  0
LINE
  5
178
100
AcDbEntity
  8
M2
 62
    34
100
AcDbLine
 10
112.088718
 20
345.727199
 11
46.888718
 21
345.727199
  0
LINE
  5
179
100
AcDbEntity
  8
M2
 62
    34
100
AcDbLine
 10
101.988718
 20
342.527199
 11
96.948362
 21
342.527199
  0
LINE
  5
17A
100
AcDbEntity
  8
M2
 62
    34
100
AcDbLine
 10
112.088718
 20
342.527199
 11
107.048362
 21
342.527199
  0
LINE
  5
17B
100
AcDbEntity
  8
M2
 62
    34
100
AcDbLine
 10
101.988718
 20
342.527199
 11
96.948362
 21
342.527199
  0
LINE
  5
17C
100
AcDbEntity
  8
M2
 62
    34
100
AcDbLine
 10
91.888718
 20
342.527199
 11
46.888718
 21
342.527199
  0
ARC
  5
17D
100
AcDbEntity
  8
M2
 62
    34
100
AcDbCircle
 10
101.988718
 20
340.127199
 40
2.4
100
AcDbArc
 50
0.0
 51
90.0
  0
ARC
  5
17E
100
AcDbEntity
  8
M2
 62
    34
100
AcDbCircle
 10
91.888718
 20
340.127199
 40
2.4
100
AcDbArc
 50
0.0
 51
90.0
  0
ARC
  5
17F
100
AcDbEntity
  8
M2
 62
    34
100
AcDbCircle
 10
67.088718
 20
340.127199
 40
2.4
100
AcDbArc
 50
90.0
 51
180.0
  0
ARC
  5
180
100
AcDbEntity
  8
M2
 62
    34
100
AcDbCircle
 10
56.988718
 20
340.127199
 40
2.4
100
AcDbArc
 50
90.0
 51
180.0
  0
ARC
  5
181
100
AcDbEntity
  8
M2
 62
    34
100
AcDbCircle
 10
101.988718
 20
340.127199
 40
5.6
100
AcDbArc
 50
0.0
 51
90.0
  0
ARC
  5
182
100
AcDbEntity
  8
M2
 62
    34
100
AcDbCircle
 10
91.888718
 20
340.127199
 40
5.6
100
AcDbArc
 50
0.0
 51
90.0
  0
ARC
  5
183
100
AcDbEntity
  8
M2
 62
    34
100
AcDbCircle
 10
67.088718
 20
340.127199
 40
5.6
100
AcDbArc
 50
154.623066
 51
180.0
  0
ARC
  5
184
100
AcDbEntity
  8
M2
 62
    34
100
AcDbCircle
 10
56.988718
 20
340.127199
 40
5.6
100
AcDbArc
 50
154.623066
 51
180.0
  0
ARC
  5
185
100
AcDbEntity
  8
M2
 62
    34
100
AcDbCircle
 10
100.988718
 20
326.059953
 40
3.0
100
AcDbArc
 50
359.851917
 51
360.0
  0
LINE
  5
186
100
AcDbEntity
  8
M2
 62
    34
100
AcDbLine
 10
107.988718
 20
333.327199
 11
103.988718
 21
333.327199
  0
LINE
  5
187
100
AcDbEntity
  8
M2
 62
    34
100
AcDbLine
 10
107.988718
 20
328.527199
 11
103.988718
 21
328.527199
  0
LINE
  5
188
100
AcDbEntity
  8
M2
 62
    34
100
AcDbLine
 10
103.988718
 20
333.327199
 11
103.988718
 21
326.059953
  0
ARC
  5
189
100
AcDbEntity
  8
M2
 62
    34
100
AcDbCircle
 10
110.988718
 20
326.059953
 40
3.0
100
AcDbArc
 50
180.0
 51
180.148083
  0
LINE
  5
18A
100
AcDbEntity
  8
M2
 62
    34
100
AcDbLine
 10
107.988718
 20
333.327199
 11
107.988718
 21
326.059953
  0
ARC
  5
18B
100
AcDbEntity
  8
M2
 62
    34
100
AcDbCircle
 10
90.888718
 20
326.059953
 40
3.0
100
AcDbArc
 50
359.851917
 51
360.0
  0
LINE
  5
18C
100
AcDbEntity
  8
M2
 62
    34
100
AcDbLine
 10
97.888718
 20
333.327199
 11
93.888718
 21
333.327199
  0
LINE
  5
18D
100
AcDbEntity
  8
M2
 62
    34
100
AcDbLine
 10
97.888718
 20
328.527199
 11
93.888718
 21
328.527199
  0
LINE
  5
18E
100
AcDbEntity
  8
M2
 62
    34
100
AcDbLine
 10
93.888718
 20
333.327199
 11
93.888718
 21
326.059953
  0
ARC
  5
18F
100
AcDbEntity
  8
M2
 62
    34
100
AcDbCircle
 10
100.888718
 20
326.059953
 40
3.0
100
AcDbArc
 50
180.0
 51
180.148083
  0
LINE
  5
190
100
AcDbEntity
  8
M2
 62
    34
100
AcDbLine
 10
97.888718
 20
333.327199
 11
97.888718
 21
326.059953
  0
ARC
  5
191
100
AcDbEntity
  8
M2
 62
    34
100
AcDbCircle
 10
58.088718
 20
326.059953
 40
3.0
100
AcDbArc
 50
359.851917
 51
360.0
  0
LINE
  5
192
100
AcDbEntity
  8
M2
 62
    34
100
AcDbLine
 10
65.088718
 20
333.327199
 11
61.088718
 21
333.327199
  0
LINE
  5
193
100
AcDbEntity
  8
M2
 62
    34
100
AcDbLine
 10
65.088718
 20
328.527199
 11
61.088718
 21
328.527199
  0
LINE
  5
194
100
AcDbEntity
  8
M2
 62
    34
100
AcDbLine
 10
61.088718
 20
333.327199
 11
61.088718
 21
326.059953
  0
ARC
  5
195
100
AcDbEntity
  8
M2
 62
    34
100
AcDbCircle
 10
68.088718
 20
326.059953
 40
3.0
100
AcDbArc
 50
180.0
 51
180.148083
  0
LINE
  5
196
100
AcDbEntity
  8
M2
 62
    34
100
AcDbLine
 10
65.088718
 20
333.327199
 11
65.088718
 21
326.059953
  0
ARC
  5
197
100
AcDbEntity
  8
M2
 62
    34
100
AcDbCircle
 10
47.988718
 20
326.059953
 40
3.0
100
AcDbArc
 50
359.851917
 51
360.0
  0
LINE
  5
198
100
AcDbEntity
  8
M2
 62
    34
100
AcDbLine
 10
54.988718
 20
333.327199
 11
50.988718
 21
333.327199
  0
LINE
  5
199
100
AcDbEntity
  8
M2
 62
    34
100
AcDbLine
 10
54.988718
 20
328.527199
 11
50.988718
 21
328.527199
  0
LINE
  5
19A
100
AcDbEntity
  8
M2
 62
    34
100
AcDbLine
 10
50.988718
 20
333.327199
 11
50.988718
 21
326.059953
  0
ARC
  5
19B
100
AcDbEntity
  8
M2
 62
    34
100
AcDbCircle
 10
57.988718
 20
326.059953
 40
3.0
100
AcDbArc
 50
180.0
 51
180.148083
  0
LINE
  5
19C
100
AcDbEntity
  8
M2
 62
    34
100
AcDbLine
 10
54.988718
 20
333.327199
 11
54.988718
 21
326.059953
  0
ARC
  5
19D
100
AcDbEntity
  8
M2
 62
    34
100
AcDbCircle
 10
37.888718
 20
326.059953
 40
3.0
100
AcDbArc
 50
359.851917
 51
360.0
  0
LINE
  5
19E
100
AcDbEntity
  8
M2
 62
    34
100
AcDbLine
 10
44.888718
 20
333.327199
 11
40.888718
 21
333.327199
  0
LINE
  5
19F
100
AcDbEntity
  8
M2
 62
    34
100
AcDbLine
 10
44.888718
 20
328.527199
 11
40.888718
 21
328.527199
  0
LINE
  5
1A0
100
AcDbEntity
  8
M2
 62
    34
100
AcDbLine
 10
40.888718
 20
333.327199
 11
40.888718
 21
326.059953
  0
ARC
  5
1A1
100
AcDbEntity
  8
M2
 62
    34
100
AcDbCircle
 10
47.888718
 20
326.059953
 40
3.0
100
AcDbArc
 50
180.0
 51
180.148083
  0
LINE
  5
1A2
100
AcDbEntity
  8
M2
 62
    34
100
AcDbLine
 10
44.888718
 20
333.327199
 11
44.888718
 21
326.059953
  0
CIRCLE
  5
1A3
100
AcDbEntity
  8
M2
 62
   253
100
AcDbCircle
 10
62.213212
 20
219.027131
 40
2.999997
  0
LINE
  5
1A4
100
AcDbEntity
  8
M2
 62
   253
100
AcDbLine
 10
59.254227
 20
222.974473
 11
58.438065
 21
220.32718
  0
LINE
  5
1A5
100
AcDbEntity
  8
M2
 62
   253
100
AcDbLine
 10
59.254227
 20
215.079881
 11
58.438065
 21
217.727205
  0
LINE
  5
1A6
100
AcDbEntity
  8
M2
 62
   253
100
AcDbLine
 10
65.171708
 20
222.974489
 11
65.988114
 21
220.32718
  0
LINE
  5
1A7
100
AcDbEntity
  8
M2
 62
   253
100
AcDbLine
 10
65.171708
 20
215.079866
 11
65.988114
 21
217.727205
  0
LINE
  5
1A8
100
AcDbEntity
  8
M2
 62
   253
100
AcDbLine
 10
59.732255
 20
214.727205
 11
64.693925
 21
214.727205
  0
LINE
  5
1A9
100
AcDbEntity
  8
M2
 62
   253
100
AcDbLine
 10
65.988114
 20
217.727205
 11
65.988114
 21
220.32718
  0
LINE
  5
1AA
100
AcDbEntity
  8
M2
 62
   253
100
AcDbLine
 10
64.693925
 20
223.32718
 11
59.732255
 21
223.327165
  0
LINE
  5
1AB
100
AcDbEntity
  8
M2
 62
   253
100
AcDbLine
 10
58.438065
 20
220.32718
 11
58.438065
 21
217.727205
  0
LINE
  5
1AC
100
AcDbEntity
  8
M2
 62
   253
100
AcDbLine
 10
63.803788
 20
217.436311
 11
60.622147
 21
220.618074
  0
LINE
  5
1AD
100
AcDbEntity
  8
M2
 62
   253
100
AcDbLine
 10
62.566483
 20
220.441316
 11
60.798905
 21
218.673616
  0
LINE
  5
1AE
100
AcDbEntity
  8
M2
 62
   253
100
AcDbLine
 10
63.62703
 20
219.380647
 11
61.859452
 21
217.613069
  0
ARC
  5
1AF
100
AcDbEntity
  8
M2
 62
   253
100
AcDbCircle
 10
59.732255
 20
222.827165
 40
0.5
100
AcDbArc
 50
89.998251
 51
162.874002
  0
ARC
  5
1B0
100
AcDbEntity
  8
M2
 62
   253
100
AcDbCircle
 10
59.732255
 20
215.227205
 40
0.5
100
AcDbArc
 50
197.129131
 51
270.0
  0
ARC
  5
1B1
100
AcDbEntity
  8
M2
 62
   253
100
AcDbCircle
 10
64.693925
 20
215.227205
 40
0.5
100
AcDbArc
 50
270.0
 51
342.861236
  0
ARC
  5
1B2
100
AcDbEntity
  8
M2
 62
   253
100
AcDbCircle
 10
64.693925
 20
222.827165
 40
0.5
100
AcDbArc
 50
17.136442
 51
90.0
  0
ARC
  5
1B3
100
AcDbEntity
  8
M2
 62
   253
100
AcDbCircle
 10
76.193925
 20
215.227205
 40
0.5
100
AcDbArc
 50
270.0
 51
342.861236
  0
LINE
  5
1B4
100
AcDbEntity
  8
M2
 62
   253
100
AcDbLine
 10
71.232255
 20
214.727205
 11
76.193925
 21
214.727205
  0
ARC
  5
1B5
100
AcDbEntity
  8
M2
 62
   253
100
AcDbCircle
 10
71.232255
 20
215.227205
 40
0.5
100
AcDbArc
 50
197.129131
 51
270.0
  0
LINE
  5
1B6
100
AcDbEntity
  8
M2
  6
DASHDOT
 62
   253
100
AcDbLine
 10
61.713212
 20
219.027131
 11
62.713212
 21
219.027131
  0
LINE
  5
1B7
100
AcDbEntity
  8
M2
  6
DASHDOT
 62
   253
100
AcDbLine
 10
62.213212
 20
218.527131
 11
62.213212
 21
219.527131
  0
CIRCLE
  5
1B8
100
AcDbEntity
  8
M2
 62
   234
100
AcDbCircle
 10
49.213218
 20
247.527186
 40
3.0
  0
LINE
  5
1B9
100
AcDbEntity
  8
M2
 62
   234
100
AcDbLine
 10
49.847192
 20
244.594939
 11
49.847192
 21
250.459433
  0
LINE
  5
1BA
100
AcDbEntity
  8
M2
 62
   234
100
AcDbLine
 10
48.579243
 20
244.594939
 11
48.579243
 21
250.459433
  0
LINE
  5
1BB
100
AcDbEntity
  8
M2
 62
   234
100
AcDbLine
 10
49.963218
 20
250.431923
 11
49.963218
 21
251.252437
  0
LINE
  5
1BC
100
AcDbEntity
  8
M2
 62
   234
100
AcDbLine
 10
48.463218
 20
250.431923
 11
48.463218
 21
251.252437
  0
ARC
  5
1BD
100
AcDbEntity
  8
M2
 62
   234
100
AcDbCircle
 10
49.213218
 20
247.527186
 40
3.799999
100
AcDbArc
 50
78.616869
 51
101.383087
  0
LINE
  5
1BE
100
AcDbEntity
  8
M2
  6
DASHDOT
 62
   234
100
AcDbLine
 10
44.213218
 20
247.527186
 11
54.213218
 21
247.527186
  0
LINE
  5
1BF
100
AcDbEntity
  8
M2
  6
DASHDOT
 62
   234
100
AcDbLine
 10
49.213218
 20
242.527186
 11
49.213218
 21
252.527186
  0
LINE
  5
1C0
100
AcDbEntity
  8
M2
100
AcDbLine
 10
51.213218
 20
252.327189
 11
51.213218
 21
255.227198
  0
TEXT
  5
1C1
100
AcDbEntity
  8
M2
100
AcDbText
 10
43.26873
 20
240.427234
 40
2.0
  1
９８
 41
0.833333
  7
STANDARD
100
AcDbText
  0
TEXT
  5
1C2
100
AcDbEntity
  8
M2
100
AcDbText
 10
53.268745
 20
240.427234
 40
2.0
  1
９７
 41
0.833333
  7
STANDARD
100
AcDbText
  0
TEXT
  5
1C3
100
AcDbEntity
  8
M2
100
AcDbText
 10
60.268745
 20
240.427234
 40
2.0
  1
９５
 41
0.833333
  7
STANDARD
100
AcDbText
  0
TEXT
  5
1C4
100
AcDbEntity
  8
M2
100
AcDbText
 10
73.268745
 20
240.427234
 40
2.0
  1
９６
 41
0.833333
  7
STANDARD
100
AcDbText
  0
TEXT
  5
1C5
100
AcDbEntity
  8
M2
100
AcDbText
 10
71.282669
 20
224.627216
 40
3.0
  1
Ｃ２
 41
0.694444
  7
STANDARD
100
AcDbText
  0
TEXT
  5
1C6
100
AcDbEntity
  8
M2
100
AcDbText
 10
60.088219
 20
224.627216
 40
3.0
  1
６
 41
1.25
  7
STANDARD
100
AcDbText
  0
TEXT
  5
1C7
100
AcDbEntity
  8
M2
100
AcDbText
 10
50.088219
 20
224.627216
 40
3.0
  1
４
 41
1.25
  7
STANDARD
100
AcDbText
  0
TEXT
  5
1C8
100
AcDbEntity
  8
M2
100
AcDbText
 10
40.796539
 20
224.627216
 40
3.0
  1
２
 41
0.833333
  7
STANDARD
100
AcDbText
  0
CIRCLE
  5
1C9
100
AcDbEntity
  8
M2
 62
   253
100
AcDbCircle
 10
52.213212
 20
219.027131
 40
2.999997
  0
LINE
  5
1CA
100
AcDbEntity
  8
M2
 62
   253
100
AcDbLine
 10
49.254227
 20
222.974473
 11
48.438065
 21
220.32718
  0
LINE
  5
1CB
100
AcDbEntity
  8
M2
 62
   253
100
AcDbLine
 10
49.254227
 20
215.079881
 11
48.438065
 21
217.727205
  0
LINE
  5
1CC
100
AcDbEntity
  8
M2
 62
   253
100
AcDbLine
 10
55.171708
 20
222.974489
 11
55.988114
 21
220.32718
  0
LINE
  5
1CD
100
AcDbEntity
  8
M2
 62
   253
100
AcDbLine
 10
55.171708
 20
215.079866
 11
55.988114
 21
217.727205
  0
LINE
  5
1CE
100
AcDbEntity
  8
M2
 62
   253
100
AcDbLine
 10
49.732255
 20
214.727205
 11
54.693925
 21
214.727205
  0
LINE
  5
1CF
100
AcDbEntity
  8
M2
 62
   253
100
AcDbLine
 10
55.988114
 20
217.727205
 11
55.988114
 21
220.32718
  0
LINE
  5
1D0
100
AcDbEntity
  8
M2
 62
   253
100
AcDbLine
 10
54.693925
 20
223.32718
 11
49.732255
 21
223.327165
  0
LINE
  5
1D1
100
AcDbEntity
  8
M2
 62
   253
100
AcDbLine
 10
48.438065
 20
220.32718
 11
48.438065
 21
217.727205
  0
LINE
  5
1D2
100
AcDbEntity
  8
M2
 62
   253
100
AcDbLine
 10
53.803788
 20
217.436311
 11
50.622147
 21
220.618074
  0
LINE
  5
1D3
100
AcDbEntity
  8
M2
 62
   253
100
AcDbLine
 10
52.566483
 20
220.441316
 11
50.798905
 21
218.673616
  0
LINE
  5
1D4
100
AcDbEntity
  8
M2
 62
   253
100
AcDbLine
 10
53.62703
 20
219.380647
 11
51.859452
 21
217.613069
  0
ARC
  5
1D5
100
AcDbEntity
  8
M2
 62
   253
100
AcDbCircle
 10
49.732255
 20
222.827165
 40
0.5
100
AcDbArc
 50
89.998251
 51
162.874002
  0
ARC
  5
1D6
100
AcDbEntity
  8
M2
 62
   253
100
AcDbCircle
 10
49.732255
 20
215.227205
 40
0.5
100
AcDbArc
 50
197.129131
 51
270.0
  0
ARC
  5
1D7
100
AcDbEntity
  8
M2
 62
   253
100
AcDbCircle
 10
54.693925
 20
215.227205
 40
0.5
100
AcDbArc
 50
270.0
 51
342.861236
  0
ARC
  5
1D8
100
AcDbEntity
  8
M2
 62
   253
100
AcDbCircle
 10
54.693925
 20
222.827165
 40
0.5
100
AcDbArc
 50
17.136442
 51
90.0
  0
LINE
  5
1D9
100
AcDbEntity
  8
M2
 62
   253
100
AcDbLine
 10
39.732255
 20
214.727205
 11
44.693925
 21
214.727205
  0
LINE
  5
1DA
100
AcDbEntity
  8
M2
  6
DASHDOT
 62
   253
100
AcDbLine
 10
51.713212
 20
219.027131
 11
52.713212
 21
219.027131
  0
LINE
  5
1DB
100
AcDbEntity
  8
M2
  6
DASHDOT
 62
   253
100
AcDbLine
 10
52.213212
 20
218.527131
 11
52.213212
 21
219.527131
  0
CIRCLE
  5
1DC
100
AcDbEntity
  8
M2
 62
   253
100
AcDbCircle
 10
73.713212
 20
219.027131
 40
2.999997
  0
LINE
  5
1DD
100
AcDbEntity
  8
M2
 62
   253
100
AcDbLine
 10
70.754227
 20
222.974473
 11
69.938065
 21
220.32718
  0
LINE
  5
1DE
100
AcDbEntity
  8
M2
 62
   253
100
AcDbLine
 10
70.708833
 20
215.227159
 11
69.938065
 21
217.727205
  0
LINE
  5
1DF
100
AcDbEntity
  8
M2
 62
   253
100
AcDbLine
 10
76.671708
 20
222.974489
 11
77.488114
 21
220.32718
  0
LINE
  5
1E0
100
AcDbEntity
  8
M2
 62
   253
100
AcDbLine
 10
76.670599
 20
215.07627
 11
77.488114
 21
217.727205
  0
LINE
  5
1E1
100
AcDbEntity
  8
M2
 62
   253
100
AcDbLine
 10
77.488114
 20
217.727205
 11
77.488114
 21
220.32718
  0
LINE
  5
1E2
100
AcDbEntity
  8
M2
 62
   253
100
AcDbLine
 10
76.193925
 20
223.32718
 11
71.232255
 21
223.327165
  0
LINE
  5
1E3
100
AcDbEntity
  8
M2
 62
   253
100
AcDbLine
 10
69.938065
 20
220.32718
 11
69.938065
 21
217.727205
  0
LINE
  5
1E4
100
AcDbEntity
  8
M2
 62
   253
100
AcDbLine
 10
75.303788
 20
217.436311
 11
72.122147
 21
220.618074
  0
LINE
  5
1E5
100
AcDbEntity
  8
M2
 62
   253
100
AcDbLine
 10
74.066483
 20
220.441316
 11
72.298905
 21
218.673616
  0
LINE
  5
1E6
100
AcDbEntity
  8
M2
 62
   253
100
AcDbLine
 10
75.12703
 20
219.380647
 11
73.359452
 21
217.613069
  0
ARC
  5
1E7
100
AcDbEntity
  8
M2
 62
   253
100
AcDbCircle
 10
71.232255
 20
222.827165
 40
0.5
100
AcDbArc
 50
89.998251
 51
162.874002
  0
ARC
  5
1E8
100
AcDbEntity
  8
M2
 62
   253
100
AcDbCircle
 10
76.193925
 20
222.827165
 40
0.5
100
AcDbArc
 50
17.136442
 51
90.0
  0
LINE
  5
1E9
100
AcDbEntity
  8
M2
  6
DASHDOT
 62
   253
100
AcDbLine
 10
73.213212
 20
219.027131
 11
74.213212
 21
219.027131
  0
LINE
  5
1EA
100
AcDbEntity
  8
M2
  6
DASHDOT
 62
   253
100
AcDbLine
 10
73.713212
 20
218.527131
 11
73.713212
 21
219.527131
  0
CIRCLE
  5
1EB
100
AcDbEntity
  8
M2
 62
   253
100
AcDbCircle
 10
42.213212
 20
219.027131
 40
2.999997
  0
LINE
  5
1EC
100
AcDbEntity
  8
M2
 62
   253
100
AcDbLine
 10
39.254227
 20
222.974473
 11
38.438065
 21
220.32718
  0
LINE
  5
1ED
100
AcDbEntity
  8
M2
 62
   253
100
AcDbLine
 10
39.254227
 20
215.079881
 11
38.438065
 21
217.727205
  0
LINE
  5
1EE
100
AcDbEntity
  8
M2
 62
   253
100
AcDbLine
 10
45.171708
 20
222.974489
 11
45.988114
 21
220.32718
  0
LINE
  5
1EF
100
AcDbEntity
  8
M2
 62
   253
100
AcDbLine
 10
45.171708
 20
215.079866
 11
45.988114
 21
217.727205
  0
LINE
  5
1F0
100
AcDbEntity
  8
M2
 62
   253
100
AcDbLine
 10
45.988114
 20
217.727205
 11
45.988114
 21
220.32718
  0
LINE
  5
1F1
100
AcDbEntity
  8
M2
 62
   253
100
AcDbLine
 10
44.693925
 20
223.32718
 11
39.732255
 21
223.327165
  0
LINE
  5
1F2
100
AcDbEntity
  8
M2
 62
   253
100
AcDbLine
 10
38.438065
 20
220.32718
 11
38.438065
 21
217.727205
  0
LINE
  5
1F3
100
AcDbEntity
  8
M2
 62
   253
100
AcDbLine
 10
43.803788
 20
217.436311
 11
40.622147
 21
220.618074
  0
LINE
  5
1F4
100
AcDbEntity
  8
M2
 62
   253
100
AcDbLine
 10
42.566483
 20
220.441316
 11
40.798905
 21
218.673616
  0
LINE
  5
1F5
100
AcDbEntity
  8
M2
 62
   253
100
AcDbLine
 10
43.62703
 20
219.380647
 11
41.859452
 21
217.613069
  0
ARC
  5
1F6
100
AcDbEntity
  8
M2
 62
   253
100
AcDbCircle
 10
39.732255
 20
222.827165
 40
0.5
100
AcDbArc
 50
89.998251
 51
162.874002
  0
ARC
  5
1F7
100
AcDbEntity
  8
M2
 62
   253
100
AcDbCircle
 10
39.732255
 20
215.227205
 40
0.5
100
AcDbArc
 50
197.129131
 51
270.0
  0
ARC
  5
1F8
100
AcDbEntity
  8
M2
 62
   253
100
AcDbCircle
 10
44.693925
 20
215.227205
 40
0.5
100
AcDbArc
 50
270.0
 51
342.861236
  0
ARC
  5
1F9
100
AcDbEntity
  8
M2
 62
   253
100
AcDbCircle
 10
44.693925
 20
222.827165
 40
0.5
100
AcDbArc
 50
17.136442
 51
90.0
  0
LINE
  5
1FA
100
AcDbEntity
  8
M2
  6
DASHDOT
 62
   253
100
AcDbLine
 10
41.713212
 20
219.027131
 11
42.713212
 21
219.027131
  0
LINE
  5
1FB
100
AcDbEntity
  8
M2
  6
DASHDOT
 62
   253
100
AcDbLine
 10
42.213212
 20
218.527131
 11
42.213212
 21
219.527131
  0
CIRCLE
  5
1FC
100
AcDbEntity
  8
M2
 62
     4
100
AcDbCircle
 10
55.213212
 20
235.527131
 40
2.999997
  0
LINE
  5
1FD
100
AcDbEntity
  8
M2
 62
     4
100
AcDbLine
 10
52.254227
 20
239.474473
 11
51.438065
 21
236.82718
  0
LINE
  5
1FE
100
AcDbEntity
  8
M2
 62
     4
100
AcDbLine
 10
52.254227
 20
231.579881
 11
51.438065
 21
234.227205
  0
LINE
  5
1FF
100
AcDbEntity
  8
M2
 62
     4
100
AcDbLine
 10
58.171708
 20
239.474489
 11
58.988114
 21
236.82718
  0
LINE
  5
200
100
AcDbEntity
  8
M2
 62
     4
100
AcDbLine
 10
58.171708
 20
231.579866
 11
58.988114
 21
234.227205
  0
LINE
  5
201
100
AcDbEntity
  8
M2
 62
     4
100
AcDbLine
 10
52.732255
 20
231.227205
 11
57.693925
 21
231.227205
  0
LINE
  5
202
100
AcDbEntity
  8
M2
 62
     4
100
AcDbLine
 10
58.988114
 20
234.227205
 11
58.988114
 21
236.82718
  0
LINE
  5
203
100
AcDbEntity
  8
M2
 62
     4
100
AcDbLine
 10
57.693925
 20
239.82718
 11
52.732255
 21
239.827165
  0
LINE
  5
204
100
AcDbEntity
  8
M2
 62
     4
100
AcDbLine
 10
51.438065
 20
236.82718
 11
51.438065
 21
234.227205
  0
LINE
  5
205
100
AcDbEntity
  8
M2
 62
     4
100
AcDbLine
 10
56.803788
 20
233.936311
 11
53.622147
 21
237.118074
  0
LINE
  5
206
100
AcDbEntity
  8
M2
 62
     4
100
AcDbLine
 10
55.566483
 20
236.941316
 11
53.798905
 21
235.173616
  0
LINE
  5
207
100
AcDbEntity
  8
M2
 62
     4
100
AcDbLine
 10
56.62703
 20
235.880647
 11
54.859452
 21
234.113069
  0
ARC
  5
208
100
AcDbEntity
  8
M2
 62
     4
100
AcDbCircle
 10
52.732255
 20
239.327165
 40
0.5
100
AcDbArc
 50
89.998251
 51
162.874002
  0
ARC
  5
209
100
AcDbEntity
  8
M2
 62
     4
100
AcDbCircle
 10
52.732255
 20
231.727205
 40
0.5
100
AcDbArc
 50
197.129131
 51
270.0
  0
ARC
  5
20A
100
AcDbEntity
  8
M2
 62
     4
100
AcDbCircle
 10
57.693925
 20
231.727205
 40
0.5
100
AcDbArc
 50
270.0
 51
342.861236
  0
ARC
  5
20B
100
AcDbEntity
  8
M2
 62
     4
100
AcDbCircle
 10
57.693925
 20
239.327165
 40
0.5
100
AcDbArc
 50
17.136442
 51
90.0
  0
LINE
  5
20C
100
AcDbEntity
  8
M2
  6
DASHDOT
 62
     4
100
AcDbLine
 10
54.713212
 20
235.527131
 11
55.713212
 21
235.527131
  0
LINE
  5
20D
100
AcDbEntity
  8
M2
  6
DASHDOT
 62
     4
100
AcDbLine
 10
55.213212
 20
235.027131
 11
55.213212
 21
236.027131
  0
CIRCLE
  5
20E
100
AcDbEntity
  8
M2
 62
     4
100
AcDbCircle
 10
45.213212
 20
235.527131
 40
2.999997
  0
LINE
  5
20F
100
AcDbEntity
  8
M2
 62
     4
100
AcDbLine
 10
42.254227
 20
239.474473
 11
41.438065
 21
236.82718
  0
LINE
  5
210
100
AcDbEntity
  8
M2
 62
     4
100
AcDbLine
 10
42.254227
 20
231.579881
 11
41.438065
 21
234.227205
  0
LINE
  5
211
100
AcDbEntity
  8
M2
 62
     4
100
AcDbLine
 10
48.171708
 20
239.474489
 11
48.988114
 21
236.82718
  0
LINE
  5
212
100
AcDbEntity
  8
M2
 62
     4
100
AcDbLine
 10
48.171708
 20
231.579866
 11
48.988114
 21
234.227205
  0
LINE
  5
213
100
AcDbEntity
  8
M2
 62
     4
100
AcDbLine
 10
42.732255
 20
231.227205
 11
47.693925
 21
231.227205
  0
LINE
  5
214
100
AcDbEntity
  8
M2
 62
     4
100
AcDbLine
 10
48.988114
 20
234.227205
 11
48.988114
 21
236.82718
  0
LINE
  5
215
100
AcDbEntity
  8
M2
 62
     4
100
AcDbLine
 10
47.693925
 20
239.82718
 11
42.732255
 21
239.827165
  0
LINE
  5
216
100
AcDbEntity
  8
M2
 62
     4
100
AcDbLine
 10
41.438065
 20
236.82718
 11
41.438065
 21
234.227205
  0
LINE
  5
217
100
AcDbEntity
  8
M2
 62
     4
100
AcDbLine
 10
46.803788
 20
233.936311
 11
43.622147
 21
237.118074
  0
LINE
  5
218
100
AcDbEntity
  8
M2
 62
     4
100
AcDbLine
 10
45.566483
 20
236.941316
 11
43.798905
 21
235.173616
  0
LINE
  5
219
100
AcDbEntity
  8
M2
 62
     4
100
AcDbLine
 10
46.62703
 20
235.880647
 11
44.859452
 21
234.113069
  0
ARC
  5
21A
100
AcDbEntity
  8
M2
 62
     4
100
AcDbCircle
 10
42.732255
 20
239.327165
 40
0.5
100
AcDbArc
 50
89.998251
 51
162.874002
  0
ARC
  5
21B
100
AcDbEntity
  8
M2
 62
     4
100
AcDbCircle
 10
42.732255
 20
231.727205
 40
0.5
100
AcDbArc
 50
197.129131
 51
270.0
  0
ARC
  5
21C
100
AcDbEntity
  8
M2
 62
     4
100
AcDbCircle
 10
47.693925
 20
231.727205
 40
0.5
100
AcDbArc
 50
270.0
 51
342.861236
  0
ARC
  5
21D
100
AcDbEntity
  8
M2
 62
     4
100
AcDbCircle
 10
47.693925
 20
239.327165
 40
0.5
100
AcDbArc
 50
17.136442
 51
90.0
  0
LINE
  5
21E
100
AcDbEntity
  8
M2
  6
DASHDOT
 62
     4
100
AcDbLine
 10
44.713212
 20
235.527131
 11
45.713212
 21
235.527131
  0
LINE
  5
21F
100
AcDbEntity
  8
M2
  6
DASHDOT
 62
     4
100
AcDbLine
 10
45.213212
 20
235.027131
 11
45.213212
 21
236.027131
  0
LINE
  5
220
100
AcDbEntity
  8
M2
  6
DOT
 62
     6
100
AcDbLine
 10
47.713219
 20
252.827193
 11
47.713222
 21
253.927193
  0
ARC
  5
221
100
AcDbEntity
  8
M2
  6
DOT
 62
     6
100
AcDbCircle
 10
50.213227
 20
253.927192
 40
0.5
100
AcDbArc
 50
0.0
 51
89.99836
  0
ARC
  5
222
100
AcDbEntity
  8
M2
  6
DOT
 62
     6
100
AcDbCircle
 10
48.213227
 20
252.827191
 40
0.5
100
AcDbArc
 50
180.0
 51
270.0
  0
LINE
  5
223
100
AcDbEntity
  8
M2
 62
     6
100
AcDbLine
 10
48.213227
 20
252.327192
 11
50.213227
 21
252.327192
  0
LINE
  5
224
100
AcDbEntity
  8
M2
  6
DOT
 62
     6
100
AcDbLine
 10
50.713227
 20
252.827191
 11
50.713227
 21
253.927192
  0
ARC
  5
225
100
AcDbEntity
  8
M2
  6
DOT
 62
     6
100
AcDbCircle
 10
50.213227
 20
252.827191
 40
0.5
100
AcDbArc
 50
270.0
 51
359.999891
  0
LINE
  5
226
100
AcDbEntity
  8
M2
  6
DOT
 62
     6
100
AcDbLine
 10
48.213227
 20
254.427192
 11
50.213227
 21
254.427192
  0
ARC
  5
227
100
AcDbEntity
  8
M2
  6
DOT
 62
     6
100
AcDbCircle
 10
48.213227
 20
253.927192
 40
0.5
100
AcDbArc
 50
89.998251
 51
180.0
  0
CIRCLE
  5
228
100
AcDbEntity
  8
M2
 62
     4
100
AcDbCircle
 10
65.213212
 20
235.527131
 40
2.999997
  0
LINE
  5
229
100
AcDbEntity
  8
M2
 62
     4
100
AcDbLine
 10
62.254227
 20
239.474473
 11
61.438065
 21
236.82718
  0
LINE
  5
22A
100
AcDbEntity
  8
M2
 62
     4
100
AcDbLine
 10
62.254227
 20
231.579881
 11
61.438065
 21
234.227205
  0
LINE
  5
22B
100
AcDbEntity
  8
M2
 62
     4
100
AcDbLine
 10
68.171708
 20
239.474489
 11
68.988114
 21
236.82718
  0
LINE
  5
22C
100
AcDbEntity
  8
M2
 62
     4
100
AcDbLine
 10
68.171708
 20
231.579866
 11
68.988114
 21
234.227205
  0
LINE
  5
22D
100
AcDbEntity
  8
M2
 62
     4
100
AcDbLine
 10
62.732255
 20
231.227205
 11
67.693925
 21
231.227205
  0
LINE
  5
22E
100
AcDbEntity
  8
M2
 62
     4
100
AcDbLine
 10
68.988114
 20
234.227205
 11
68.988114
 21
236.82718
  0
LINE
  5
22F
100
AcDbEntity
  8
M2
 62
     4
100
AcDbLine
 10
67.693925
 20
239.82718
 11
62.732255
 21
239.827165
  0
LINE
  5
230
100
AcDbEntity
  8
M2
 62
     4
100
AcDbLine
 10
61.438065
 20
236.82718
 11
61.438065
 21
234.227205
  0
LINE
  5
231
100
AcDbEntity
  8
M2
 62
     4
100
AcDbLine
 10
66.803788
 20
233.936311
 11
63.622147
 21
237.118074
  0
LINE
  5
232
100
AcDbEntity
  8
M2
 62
     4
100
AcDbLine
 10
65.566483
 20
236.941316
 11
63.798905
 21
235.173616
  0
LINE
  5
233
100
AcDbEntity
  8
M2
 62
     4
100
AcDbLine
 10
66.62703
 20
235.880647
 11
64.859452
 21
234.113069
  0
ARC
  5
234
100
AcDbEntity
  8
M2
 62
     4
100
AcDbCircle
 10
62.732255
 20
239.327165
 40
0.5
100
AcDbArc
 50
89.998251
 51
162.874002
  0
ARC
  5
235
100
AcDbEntity
  8
M2
 62
     4
100
AcDbCircle
 10
62.732255
 20
231.727205
 40
0.5
100
AcDbArc
 50
197.129131
 51
270.0
  0
ARC
  5
236
100
AcDbEntity
  8
M2
 62
     4
100
AcDbCircle
 10
67.693925
 20
231.727205
 40
0.5
100
AcDbArc
 50
270.0
 51
342.861236
  0
ARC
  5
237
100
AcDbEntity
  8
M2
 62
     4
100
AcDbCircle
 10
67.693925
 20
239.327165
 40
0.5
100
AcDbArc
 50
17.136442
 51
90.0
  0
LINE
  5
238
100
AcDbEntity
  8
M2
  6
DASHDOT
 62
     4
100
AcDbLine
 10
64.713212
 20
235.527131
 11
65.713212
 21
235.527131
  0
LINE
  5
239
100
AcDbEntity
  8
M2
  6
DASHDOT
 62
     4
100
AcDbLine
 10
65.213212
 20
235.027131
 11
65.213212
 21
236.027131
  0
LINE
  5
23A
100
AcDbEntity
  8
M2
 62
    74
100
AcDbLine
 10
77.413218
 20
249.977198
 11
77.413218
 21
248.077198
  0
LINE
  5
23B
100
AcDbEntity
  8
M2
 62
    74
100
AcDbLine
 10
74.013209
 20
249.977198
 11
74.013209
 21
248.077198
  0
LINE
  5
23C
100
AcDbEntity
  8
M2
 62
    74
100
AcDbLine
 10
74.213209
 20
250.177198
 11
77.213218
 21
250.177198
  0
LINE
  5
23D
100
AcDbEntity
  8
M2
 62
    74
100
AcDbLine
 10
74.213209
 20
247.877198
 11
77.213218
 21
247.877198
  0
ARC
  5
23E
100
AcDbEntity
  8
M2
 62
    74
100
AcDbCircle
 10
77.213218
 20
249.977198
 40
0.2
100
AcDbArc
 50
0.0
 51
90.0
  0
ARC
  5
23F
100
AcDbEntity
  8
M2
 62
    74
100
AcDbCircle
 10
74.213209
 20
249.977198
 40
0.2
100
AcDbArc
 50
90.0
 51
180.0
  0
ARC
  5
240
100
AcDbEntity
  8
M2
 62
    74
100
AcDbCircle
 10
74.213209
 20
248.077198
 40
0.2
100
AcDbArc
 50
180.0
 51
270.0
  0
ARC
  5
241
100
AcDbEntity
  8
M2
 62
    74
100
AcDbCircle
 10
77.213218
 20
248.077198
 40
0.2
100
AcDbArc
 50
270.0
 51
360.0
  0
LINE
  5
242
100
AcDbEntity
  8
M2
100
AcDbLine
 10
89.538718
 20
325.6272
 11
89.538718
 21
301.327199
  0
LINE
  5
243
100
AcDbEntity
  8
M2
100
AcDbLine
 10
89.538718
 20
318.727199
 11
84.538718
 21
318.727199
  0
LINE
  5
244
100
AcDbEntity
  8
M2
100
AcDbLine
 10
86.938718
 20
326.727201
 11
82.138718
 21
326.727201
  0
LINE
  5
245
100
AcDbEntity
  8
M2
100
AcDbLine
 10
79.538718
 20
318.727199
 11
84.538718
 21
318.727199
  0
LINE
  5
246
100
AcDbEntity
  8
M2
100
AcDbLine
 10
89.538718
 20
322.8272
 11
84.538718
 21
322.8272
  0
LINE
  5
247
100
AcDbEntity
  8
M2
100
AcDbLine
 10
79.538718
 20
283.927199
 11
84.538718
 21
283.927199
  0
ARC
  5
248
100
AcDbEntity
  8
M2
100
AcDbCircle
 10
89.038718
 20
325.6272
 40
0.5
100
AcDbArc
 50
23.578178
 51
90.0
  0
LINE
  5
249
100
AcDbEntity
  8
M2
100
AcDbLine
 10
86.938718
 20
275.927198
 11
82.138718
 21
275.927198
  0
ARC
  5
24A
100
AcDbEntity
  8
M2
100
AcDbCircle
 10
82.138718
 20
326.1272
 40
0.6
100
AcDbArc
 50
90.0
 51
180.0
  0
ARC
  5
24B
100
AcDbEntity
  8
M2
100
AcDbCircle
 10
80.038718
 20
325.6272
 40
0.5
100
AcDbArc
 50
90.0
 51
156.421822
  0
LINE
  5
24C
100
AcDbEntity
  8
M2
100
AcDbLine
 10
79.538718
 20
301.327199
 11
79.538718
 21
277.027199
  0
ARC
  5
24D
100
AcDbEntity
  8
M2
100
AcDbCircle
 10
86.938718
 20
326.1272
 40
0.6
100
AcDbArc
 50
0.0
 51
90.0
  0
LINE
  5
24E
100
AcDbEntity
  8
M2
100
AcDbLine
 10
89.538718
 20
277.027199
 11
89.538718
 21
301.327199
  0
LINE
  5
24F
100
AcDbEntity
  8
M2
100
AcDbLine
 10
89.538718
 20
279.827199
 11
84.538718
 21
279.827199
  0
ARC
  5
250
100
AcDbEntity
  8
M2
100
AcDbCircle
 10
86.938718
 20
276.527199
 40
0.6
100
AcDbArc
 50
270.0
 51
360.0
  0
LINE
  5
251
100
AcDbEntity
  8
M2
  6
DASHDOT
 62
     7
100
AcDbLine
 10
84.538718
 20
329.680397
 11
84.538718
 21
273.588039
  0
ARC
  5
252
100
AcDbEntity
  8
M2
100
AcDbCircle
 10
89.038718
 20
277.027199
 40
0.5
100
AcDbArc
 50
270.0
 51
336.421822
  0
LINE
  5
253
100
AcDbEntity
  8
M2
100
AcDbLine
 10
89.538718
 20
283.927199
 11
84.538718
 21
283.927199
  0
LINE
  5
254
100
AcDbEntity
  8
M2
100
AcDbLine
 10
79.538718
 20
322.8272
 11
84.538718
 21
322.8272
  0
ARC
  5
255
100
AcDbEntity
  8
M2
100
AcDbCircle
 10
80.038718
 20
277.027199
 40
0.5
100
AcDbArc
 50
203.578178
 51
270.0
  0
LINE
  5
256
100
AcDbEntity
  8
M2
100
AcDbLine
 10
79.538718
 20
301.327199
 11
79.538718
 21
325.6272
  0
LINE
  5
257
100
AcDbEntity
  8
M2
100
AcDbLine
 10
80.038718
 20
276.527201
 11
89.038718
 21
276.527201
  0
ARC
  5
258
100
AcDbEntity
  8
M2
100
AcDbCircle
 10
82.138718
 20
276.527199
 40
0.6
100
AcDbArc
 50
180.0
 51
270.0
  0
LINE
  5
259
100
AcDbEntity
  8
M2
100
AcDbLine
 10
80.038718
 20
326.127198
 11
89.038718
 21
326.127198
  0
LINE
  5
25A
100
AcDbEntity
  8
M2
100
AcDbLine
 10
79.538718
 20
279.827199
 11
84.538718
 21
279.827199
  0
ARC
  5
25B
100
AcDbEntity
  8
M2
 62
    34
100
AcDbCircle
 10
66.213204
 20
247.727198
 40
6.7
100
AcDbArc
 50
284.999947
 51
335.000001
  0
LINE
  5
25C
100
AcDbEntity
  8
M2
 62
    34
100
AcDbLine
 10
67.740236
 20
242.028236
 11
67.947291
 21
241.255496
  0
LINE
  5
25D
100
AcDbEntity
  8
M2
 62
    34
100
AcDbLine
 10
71.56042
 20
245.233751
 11
72.285466
 21
244.895656
  0
LINE
  5
25E
100
AcDbEntity
  8
M2
 62
    34
100
AcDbLine
 10
67.963204
 20
248.227198
 11
67.963204
 21
247.227198
  0
LINE
  5
25F
100
AcDbEntity
  8
M2
 62
    34
100
AcDbLine
 10
64.463204
 20
248.227198
 11
64.463204
 21
247.227198
  0
LINE
  5
260
100
AcDbEntity
  8
M2
 62
    34
100
AcDbLine
 10
65.713204
 20
249.477198
 11
66.713204
 21
249.477198
  0
LINE
  5
261
100
AcDbEntity
  8
M2
 62
    34
100
AcDbLine
 10
65.713204
 20
245.977198
 11
66.713204
 21
245.977198
  0
LINE
  5
262
100
AcDbEntity
  8
M2
 62
    34
100
AcDbLine
 10
65.713204
 20
245.977198
 11
65.713204
 21
247.227198
  0
LINE
  5
263
100
AcDbEntity
  8
M2
 62
    34
100
AcDbLine
 10
65.713204
 20
248.227198
 11
65.713204
 21
249.477198
  0
LINE
  5
264
100
AcDbEntity
  8
M2
 62
    34
100
AcDbLine
 10
66.713204
 20
245.977198
 11
66.713204
 21
247.227198
  0
LINE
  5
265
100
AcDbEntity
  8
M2
 62
    34
100
AcDbLine
 10
66.713204
 20
248.227198
 11
66.713204
 21
249.477198
  0
LINE
  5
266
100
AcDbEntity
  8
M2
 62
    34
100
AcDbLine
 10
67.963204
 20
248.227198
 11
66.713204
 21
248.227198
  0
LINE
  5
267
100
AcDbEntity
  8
M2
 62
    34
100
AcDbLine
 10
65.713204
 20
248.227198
 11
64.463204
 21
248.227198
  0
LINE
  5
268
100
AcDbEntity
  8
M2
 62
    34
100
AcDbLine
 10
67.963204
 20
247.227198
 11
66.713204
 21
247.227198
  0
LINE
  5
269
100
AcDbEntity
  8
M2
 62
    34
100
AcDbLine
 10
65.713204
 20
247.227198
 11
64.463204
 21
247.227198
  0
ARC
  5
26A
100
AcDbEntity
  8
M2
 62
    34
100
AcDbCircle
 10
66.213204
 20
247.727198
 40
5.9
100
AcDbArc
 50
180.0
 51
284.999949
  0
ARC
  5
26B
100
AcDbEntity
  8
M2
 62
    34
100
AcDbCircle
 10
66.213204
 20
247.727198
 40
5.9
100
AcDbArc
 50
334.999999
 51
540.0
  0
LINE
  5
26C
100
AcDbEntity
  8
M2
 62
     1
100
AcDbLine
 10
39.913225
 20
269.527198
 11
39.713224
 21
269.327198
  0
LINE
  5
26D
100
AcDbEntity
  8
M2
 62
     1
100
AcDbLine
 10
41.513223
 20
269.527198
 11
41.713224
 21
269.327198
  0
LINE
  5
26E
100
AcDbEntity
  8
M2
 62
     1
100
AcDbLine
 10
39.913225
 20
276.602199
 11
39.913225
 21
269.527198
  0
LINE
  5
26F
100
AcDbEntity
  8
M2
 62
     1
100
AcDbLine
 10
41.513223
 20
269.527198
 11
41.513223
 21
276.602199
  0
LINE
  5
270
100
AcDbEntity
  8
M2
 62
     1
100
AcDbLine
 10
39.713224
 20
269.327198
 11
39.713224
 21
266.327205
  0
LINE
  5
271
100
AcDbEntity
  8
M2
 62
     1
100
AcDbLine
 10
41.713224
 20
266.327205
 11
41.713224
 21
269.327198
  0
LINE
  5
272
100
AcDbEntity
  8
M2
 62
    34
100
AcDbLine
 10
66.913718
 20
276.602199
 11
66.913718
 21
266.702199
  0
LINE
  5
273
100
AcDbEntity
  8
M2
 62
    34
100
AcDbLine
 10
114.313718
 20
261.102199
 11
97.113718
 21
261.102199
  0
LINE
  5
274
100
AcDbEntity
  8
M2
 62
    34
100
AcDbLine
 10
63.713718
 20
276.602199
 11
63.713718
 21
266.702199
  0
ARC
  5
275
100
AcDbEntity
  8
M2
 62
    34
100
AcDbCircle
 10
114.313718
 20
266.702199
 40
2.4
100
AcDbArc
 50
270.0
 51
360.0
  0
LINE
  5
276
100
AcDbEntity
  8
M2
 62
    34
100
AcDbLine
 10
114.313718
 20
264.302199
 11
109.273347
 21
264.302199
  0
LINE
  5
277
100
AcDbEntity
  8
M2
 62
    34
100
AcDbLine
 10
116.713718
 20
276.602199
 11
116.713718
 21
266.702199
  0
LINE
  5
278
100
AcDbEntity
  8
M2
 62
    34
100
AcDbLine
 10
69.313718
 20
261.102199
 11
97.113718
 21
261.102199
  0
LINE
  5
279
100
AcDbEntity
  8
M2
 62
    34
100
AcDbLine
 10
119.913718
 20
276.602199
 11
119.913718
 21
266.702199
  0
ARC
  5
27A
100
AcDbEntity
  8
M2
 62
    34
100
AcDbCircle
 10
94.113718
 20
266.702215
 40
5.6
100
AcDbArc
 50
270.0
 51
360.0
  0
ARC
  5
27B
100
AcDbEntity
  8
M2
 62
    34
100
AcDbCircle
 10
94.113718
 20
266.702215
 40
2.4
100
AcDbArc
 50
270.0
 51
360.0
  0
ARC
  5
27C
100
AcDbEntity
  8
M2
 62
    34
100
AcDbCircle
 10
104.213702
 20
266.702199
 40
2.4
100
AcDbArc
 50
270.0
 51
360.0
  0
ARC
  5
27D
100
AcDbEntity
  8
M2
 62
    34
100
AcDbCircle
 10
59.213702
 20
266.702199
 40
2.4
100
AcDbArc
 50
180.0
 51
245.365356
  0
ARC
  5
27E
100
AcDbEntity
  8
M2
 62
    34
100
AcDbCircle
 10
104.213702
 20
266.702199
 40
5.6
100
AcDbArc
 50
270.0
 51
360.0
  0
ARC
  5
27F
100
AcDbEntity
  8
M2
 62
    34
100
AcDbCircle
 10
49.113718
 20
266.702215
 40
2.4
100
AcDbArc
 50
180.0
 51
247.965168
  0
ARC
  5
280
100
AcDbEntity
  8
M2
 62
    34
100
AcDbCircle
 10
114.313718
 20
266.702199
 40
5.6
100
AcDbArc
 50
270.0
 51
360.0
  0
ARC
  5
281
100
AcDbEntity
  8
M2
 62
    34
100
AcDbCircle
 10
49.113718
 20
266.702215
 40
5.6
100
AcDbArc
 50
180.0
 51
260.747408
  0
ARC
  5
282
100
AcDbEntity
  8
M2
 62
    34
100
AcDbCircle
 10
69.313718
 20
266.702199
 40
5.6
100
AcDbArc
 50
180.0
 51
270.0
  0
ARC
  5
283
100
AcDbEntity
  8
M2
 62
    34
100
AcDbCircle
 10
69.313718
 20
266.702199
 40
2.4
100
AcDbArc
 50
180.0
 51
270.0
  0
LINE
  5
284
100
AcDbEntity
  8
M2
 62
    34
100
AcDbLine
 10
109.813702
 20
276.627199
 11
109.813702
 21
266.702199
  0
LINE
  5
285
100
AcDbEntity
  8
M2
 62
    34
100
AcDbLine
 10
53.613702
 20
276.602199
 11
53.613702
 21
266.702199
  0
LINE
  5
286
100
AcDbEntity
  8
M2
 62
    34
100
AcDbLine
 10
104.213702
 20
261.102199
 11
86.613702
 21
261.102199
  0
LINE
  5
287
100
AcDbEntity
  8
M2
 62
    34
100
AcDbLine
 10
104.213702
 20
264.302199
 11
99.173355
 21
264.302199
  0
LINE
  5
288
100
AcDbEntity
  8
M2
 62
    34
100
AcDbLine
 10
106.613702
 20
276.602199
 11
106.613702
 21
266.702199
  0
LINE
  5
289
100
AcDbEntity
  8
M2
 62
    34
100
AcDbLine
 10
56.813702
 20
267.605061
 11
56.813702
 21
266.702199
  0
LINE
  5
28A
100
AcDbEntity
  8
M2
 62
    34
100
AcDbLine
 10
61.513312
 20
261.102199
 11
86.613702
 21
261.102199
  0
LINE
  5
28B
100
AcDbEntity
  8
M2
 62
    34
100
AcDbLine
 10
61.713224
 20
264.302199
 11
64.254073
 21
264.302199
  0
LINE
  5
28C
100
AcDbEntity
  8
M2
 62
    34
100
AcDbLine
 10
43.513718
 20
276.602215
 11
43.513718
 21
266.702215
  0
LINE
  5
28D
100
AcDbEntity
  8
M2
 62
    34
100
AcDbLine
 10
61.513312
 20
261.102215
 11
66.313718
 21
261.102215
  0
LINE
  5
28E
100
AcDbEntity
  8
M2
 62
    34
100
AcDbLine
 10
53.213309
 20
264.302215
 11
54.154051
 21
264.302215
  0
LINE
  5
28F
100
AcDbEntity
  8
M2
 62
    34
100
AcDbLine
 10
46.713718
 20
267.343076
 11
46.713718
 21
266.702215
  0
LINE
  5
290
100
AcDbEntity
  8
M2
 62
    34
100
AcDbLine
 10
99.713718
 20
276.602215
 11
99.713718
 21
266.702215
  0
LINE
  5
291
100
AcDbEntity
  8
M2
 62
    34
100
AcDbLine
 10
94.113718
 20
264.302215
 11
69.305159
 21
264.302215
  0
LINE
  5
292
100
AcDbEntity
  8
M2
 62
    34
100
AcDbLine
 10
94.113718
 20
261.102215
 11
66.313718
 21
261.102215
  0
LINE
  5
293
100
AcDbEntity
  8
M2
 62
    34
100
AcDbLine
 10
96.513718
 20
276.602215
 11
96.513718
 21
266.702215
  0
ARC
  5
294
100
AcDbEntity
  8
M2
 62
    34
100
AcDbCircle
 10
59.213702
 20
266.702199
 40
5.6
100
AcDbArc
 50
180.0
 51
259.709351
  0
LINE
  5
295
100
AcDbEntity
  8
M2
 62
    34
100
AcDbLine
 10
69.313718
 20
264.302199
 11
86.613702
 21
264.302199
  0
LINE
  5
296
100
AcDbEntity
  8
M2
 62
    34
100
AcDbLine
 10
61.713224
 20
264.302215
 11
64.254066
 21
264.302215
  0
LINE
  5
297
100
AcDbEntity
  8
M2
 62
    34
100
AcDbLine
 10
56.813733
 20
276.602199
 11
56.813733
 21
266.702199
  0
LINE
  5
298
100
AcDbEntity
  8
M2
 62
    34
100
AcDbLine
 10
46.713718
 20
276.602199
 11
46.713718
 21
266.702199
  0
LINE
  5
299
100
AcDbEntity
  8
M2
  6
DIVIDE
 62
     6
100
AcDbLine
 10
269.226552
 20
314.827199
 11
262.726552
 21
314.827199
  0
LINE
  5
29A
100
AcDbEntity
  8
M2
  6
DIVIDE
 62
     6
100
AcDbLine
 10
269.226552
 20
287.827199
 11
262.726552
 21
287.827199
  0
LINE
  5
29B
100
AcDbEntity
  8
M2
  6
DIVIDE
 62
     6
100
AcDbLine
 10
268.226552
 20
313.827199
 11
261.726552
 21
313.827199
  0
LINE
  5
29C
100
AcDbEntity
  8
M2
  6
DIVIDE
 62
     6
100
AcDbLine
 10
262.726552
 20
287.827199
 11
262.726552
 21
283.827199
  0
LINE
  5
29D
100
AcDbEntity
  8
M2
  6
DIVIDE
 62
     6
100
AcDbLine
 10
268.226552
 20
288.827199
 11
261.726552
 21
288.827199
  0
LINE
  5
29E
100
AcDbEntity
  8
M2
  6
DIVIDE
 62
     6
100
AcDbLine
 10
261.726552
 20
288.827199
 11
261.726552
 21
283.827199
  0
LINE
  5
29F
100
AcDbEntity
  8
M2
  6
DIVIDE
 62
     6
100
AcDbLine
 10
262.726552
 20
318.827199
 11
261.726552
 21
318.827199
  0
LINE
  5
2A0
100
AcDbEntity
  8
M2
  6
DIVIDE
 62
     6
100
AcDbLine
 10
269.226552
 20
287.827199
 11
269.226552
 21
314.827199
  0
LINE
  5
2A1
100
AcDbEntity
  8
M2
  6
DIVIDE
 62
     6
100
AcDbLine
 10
261.726552
 20
318.827199
 11
261.726552
 21
313.827199
  0
LINE
  5
2A2
100
AcDbEntity
  8
M2
  6
DIVIDE
 62
     6
100
AcDbLine
 10
262.726552
 20
318.827199
 11
262.726552
 21
314.827199
  0
LINE
  5
2A3
100
AcDbEntity
  8
M2
  6
DIVIDE
 62
     6
100
AcDbLine
 10
261.726552
 20
283.827199
 11
262.726552
 21
283.827199
  0
LINE
  5
2A4
100
AcDbEntity
  8
M2
  6
DIVIDE
 62
     6
100
AcDbLine
 10
268.226552
 20
313.827199
 11
268.226552
 21
288.827199
  0
LINE
  5
2A5
100
AcDbEntity
  8
M2
  6
DASHED
100
AcDbLine
 10
212.676552
 20
323.977199
 11
207.226552
 21
323.977199
  0
LINE
  5
2A6
100
AcDbEntity
  8
M2
  6
DASHED
100
AcDbLine
 10
207.226552
 20
320.477199
 11
212.676552
 21
320.477199
  0
ARC
  5
2A7
100
AcDbEntity
  8
M2
  6
DASHED
100
AcDbCircle
 10
202.876552
 20
324.227199
 40
1.0
100
AcDbArc
 50
90.0
 51
180.0
  0
LINE
  5
2A8
100
AcDbEntity
  8
M2
  6
DASHED
100
AcDbLine
 10
201.876552
 20
320.227199
 11
201.876552
 21
324.227199
  0
LINE
  5
2A9
100
AcDbEntity
  8
M2
  6
DASHED
100
AcDbLine
 10
204.176552
 20
319.477199
 11
205.226552
 21
319.477199
  0
ARC
  5
2AA
100
AcDbEntity
  8
M2
  6
DASHED
100
AcDbCircle
 10
202.876552
 20
320.227199
 40
1.0
100
AcDbArc
 50
180.0
 51
270.0
  0
LINE
  5
2AB
100
AcDbEntity
  8
M2
  6
DASHED
100
AcDbLine
 10
212.676552
 20
323.977199
 11
212.676552
 21
320.477199
  0
LINE
  5
2AC
100
AcDbEntity
  8
M2
  6
DASHED
100
AcDbLine
 10
204.176552
 20
324.977199
 11
205.226552
 21
324.977199
  0
LINE
  5
2AD
100
AcDbEntity
  8
M2
  6
DASHED
100
AcDbLine
 10
206.226552
 20
326.052199
 11
205.226552
 21
326.052199
  0
LINE
  5
2AE
100
AcDbEntity
  8
M2
  6
DASHED
100
AcDbLine
 10
205.226552
 20
326.052199
 11
205.226552
 21
318.402199
  0
LINE
  5
2AF
100
AcDbEntity
  8
M2
  6
DASHED
100
AcDbLine
 10
206.226552
 20
318.402199
 11
205.226552
 21
318.402199
  0
LINE
  5
2B0
100
AcDbEntity
  8
M2
  6
DASHED
100
AcDbLine
 10
204.176552
 20
325.227199
 11
204.176552
 21
319.227199
  0
LINE
  5
2B1
100
AcDbEntity
  8
M2
  6
DASHED
100
AcDbLine
 10
202.876552
 20
325.227199
 11
204.176552
 21
325.227199
  0
LINE
  5
2B2
100
AcDbEntity
  8
M2
  6
DASHED
100
AcDbLine
 10
205.226552
 20
323.652199
 11
205.226552
 21
320.802199
  0
LINE
  5
2B3
100
AcDbEntity
  8
M2
  6
DASHED
100
AcDbLine
 10
202.876552
 20
319.227199
 11
204.176552
 21
319.227199
  0
LINE
  5
2B4
100
AcDbEntity
  8
M2
 62
     7
100
AcDbLine
 10
255.726552
 20
337.027199
 11
265.429058
 21
337.027199
  0
LINE
  5
2B5
100
AcDbEntity
  8
M2
 62
     7
100
AcDbLine
 10
262.726552
 20
317.627199
 11
263.726552
 21
316.627199
  0
LINE
  5
2B6
100
AcDbEntity
  8
M2
 62
     7
100
AcDbLine
 10
262.726552
 20
319.127199
 11
262.726552
 21
317.627199
  0
LINE
  5
2B7
100
AcDbEntity
  8
M2
 62
     7
100
AcDbLine
 10
265.926552
 20
336.577199
 11
265.926552
 21
317.127199
  0
LINE
  5
2B8
100
AcDbEntity
  8
M2
 62
     7
100
AcDbLine
 10
262.026552
 20
315.627199
 11
262.026552
 21
313.627199
  0
LINE
  5
2B9
100
AcDbEntity
  8
M2
 62
     7
100
AcDbLine
 10
261.726552
 20
313.127199
 11
262.026552
 21
313.627199
  0
LINE
  5
2BA
100
AcDbEntity
  8
M2
 62
     7
100
AcDbLine
 10
262.026552
 20
315.627199
 11
261.726552
 21
315.627199
  0
LINE
  5
2BB
100
AcDbEntity
  8
M2
 62
     7
100
AcDbLine
 10
241.726552
 20
340.312986
 11
241.726552
 21
320.427199
  0
LINE
  5
2BC
100
AcDbEntity
  8
M2
 62
     7
100
AcDbLine
 10
238.519445
 20
343.934306
 11
241.433658
 21
341.020093
  0
LINE
  5
2BD
100
AcDbEntity
  8
M2
 62
     7
100
AcDbLine
 10
265.926552
 20
283.027199
 11
265.926552
 21
267.027199
  0
LINE
  5
2BE
100
AcDbEntity
  8
M2
 62
     7
100
AcDbLine
 10
225.626552
 20
314.327199
 11
225.626552
 21
332.227199
  0
LINE
  5
2BF
100
AcDbEntity
  8
M2
 62
     7
100
AcDbLine
 10
233.380302
 20
345.727199
 11
233.526552
 21
345.727199
  0
LINE
  5
2C0
100
AcDbEntity
  8
M2
 62
     7
100
AcDbLine
 10
219.126552
 20
335.827199
 11
224.726552
 21
335.827199
  0
LINE
  5
2C1
100
AcDbEntity
  8
M2
 62
     7
100
AcDbLine
 10
225.626552
 20
332.227199
 11
224.726552
 21
332.227199
  0
LINE
  5
2C2
100
AcDbEntity
  8
M2
 62
     7
100
AcDbLine
 10
224.726552
 20
332.227199
 11
224.726552
 21
335.827199
  0
LINE
  5
2C3
100
AcDbEntity
  8
M2
 62
     7
100
AcDbLine
 10
234.526552
 20
344.727199
 11
234.526552
 21
344.227199
  0
LINE
  5
2C4
100
AcDbEntity
  8
M2
 62
     7
100
AcDbLine
 10
263.726552
 20
316.627199
 11
265.426552
 21
316.627199
  0
LINE
  5
2C5
100
AcDbEntity
  8
M2
 62
     7
100
AcDbLine
 10
234.526552
 20
344.227199
 11
237.812338
 21
344.227199
  0
LINE
  5
2C6
100
AcDbEntity
  8
M2
 62
     7
100
AcDbLine
 10
218.526552
 20
335.827199
 11
218.526552
 21
342.727199
  0
LINE
  5
2C7
100
AcDbEntity
  8
M2
 62
     7
100
AcDbLine
 10
219.126552
 20
335.827199
 11
218.526552
 21
335.827199
  0
ELLIPSE
  5
2C8
100
AcDbEntity
  8
M2
 62
     7
100
AcDbEllipse
 10
235.455963
 20
319.427199
 11
1.929412
 21
0.0
210
0.0
220
0.0
230
1.0
 40
0.518293
 41
1.570796326794897
 42
3.141592653589793
  0
ARC
  5
2C9
100
AcDbEntity
  8
M2
 62
     7
100
AcDbCircle
 10
237.812338
 20
343.227199
 40
1.0
100
AcDbArc
 50
45.0
 51
90.0
  0
ARC
  5
2CA
100
AcDbEntity
  8
M2
 62
     7
100
AcDbCircle
 10
240.726552
 20
340.312986
 40
1.0
100
AcDbArc
 50
0.0
 51
45.0
  0
ARC
  5
2CB
100
AcDbEntity
  8
M2
 62
     7
100
AcDbCircle
 10
265.426552
 20
317.127199
 40
0.5
100
AcDbArc
 50
270.0
 51
360.0
  0
LINE
  5
2CC
100
AcDbEntity
  8
M2
 62
     7
100
AcDbLine
 10
231.026552
 20
316.427199
 11
231.026552
 21
323.227199
  0
LINE
  5
2CD
100
AcDbEntity
  8
M2
 62
     7
100
AcDbLine
 10
231.026552
 20
316.427199
 11
238.426552
 21
316.427199
  0
LINE
  5
2CE
100
AcDbEntity
  8
M2
 62
     7
100
AcDbLine
 10
231.026552
 20
306.627199
 11
231.026552
 21
313.327199
  0
LINE
  5
2CF
100
AcDbEntity
  8
M2
 62
     7
100
AcDbLine
 10
230.526552
 20
313.827199
 11
226.126552
 21
313.827199
  0
LINE
  5
2D0
100
AcDbEntity
  8
M2
 62
     7
100
AcDbLine
 10
245.026552
 20
282.227199
 11
245.026552
 21
273.027199
  0
ARC
  5
2D1
100
AcDbEntity
  8
M2
 62
     7
100
AcDbCircle
 10
230.026552
 20
323.227199
 40
1.0
100
AcDbArc
 50
0.0
 51
90.0
  0
ELLIPSE
  5
2D2
100
AcDbEntity
  8
M2
 62
     7
100
AcDbEllipse
 10
233.380302
 20
345.127199
 11
0.0
 21
0.6
210
0.0
220
0.0
230
1.0
 40
0.243749
 41
4.71238898038469
 42
6.283185307179586
  0
ARC
  5
2D3
100
AcDbEntity
  8
M2
 62
     7
100
AcDbCircle
 10
233.526552
 20
344.727199
 40
1.0
100
AcDbArc
 50
0.0
 51
90.0
  0
ARC
  5
2D4
100
AcDbEntity
  8
M2
 62
     7
100
AcDbCircle
 10
232.526552
 20
323.227199
 40
1.0
100
AcDbArc
 50
0.0
 51
90.0
  0
ARC
  5
2D5
100
AcDbEntity
  8
M2
 62
     7
100
AcDbCircle
 10
221.526552
 20
342.727199
 40
3.0
100
AcDbArc
 50
90.0
 51
180.0
  0
ARC
  5
2D6
100
AcDbEntity
  8
M2
 62
     7
100
AcDbCircle
 10
219.926552
 20
344.727199
 40
1.0
100
AcDbArc
 50
90.0
 51
180.0
  0
ARC
  5
2D7
100
AcDbEntity
  8
M2
 62
     7
100
AcDbCircle
 10
238.126552
 20
266.827199
 40
1.0
100
AcDbArc
 50
270.0
 51
360.0
  0
ARC
  5
2D8
100
AcDbEntity
  8
M2
 62
     7
100
AcDbCircle
 10
236.312338
 20
344.727199
 40
1.0
100
AcDbArc
 50
45.0
 51
90.0
  0
LINE
  5
2D9
100
AcDbEntity
  8
M2
 62
     7
100
AcDbLine
 10
232.726552
 20
278.827199
 11
214.926552
 21
278.827199
  0
LINE
  5
2DA
100
AcDbEntity
  8
M2
 62
     7
100
AcDbLine
 10
238.426552
 20
281.227199
 11
238.426552
 21
286.227199
  0
LINE
  5
2DB
100
AcDbEntity
  8
M2
 62
     7
100
AcDbLine
 10
218.926552
 20
344.223862
 11
218.926552
 21
344.727199
  0
LINE
  5
2DC
100
AcDbEntity
  8
M2
 62
     7
100
AcDbLine
 10
218.926552
 20
335.727199
 11
218.926552
 21
335.827199
  0
ARC
  5
2DD
100
AcDbEntity
  8
M2
 62
     7
100
AcDbCircle
 10
254.626552
 20
267.527199
 40
1.0
100
AcDbArc
 50
246.828934
 51
270.0
  0
ELLIPSE
  5
2DE
100
AcDbEntity
  8
M2
 62
     7
100
AcDbEllipse
 10
245.912338
 20
331.227199
 11
0.0
 21
1.0
210
0.0
220
0.0
230
1.0
 40
0.414214
 41
4.71238898038469
 42
6.283185307179586
  0
ARC
  5
2DF
100
AcDbEntity
  8
M2
 62
     7
100
AcDbCircle
 10
244.526552
 20
270.827199
 40
0.5
100
AcDbArc
 50
270.0
 51
360.0
  0
LINE
  5
2E0
100
AcDbEntity
  8
M2
 62
     7
100
AcDbLine
 10
233.526552
 20
323.227199
 11
233.526552
 21
345.127199
  0
ARC
  5
2E1
100
AcDbEntity
  8
M2
 62
     7
100
AcDbCircle
 10
232.726552
 20
279.827199
 40
1.0
100
AcDbArc
 50
270.0
 51
360.0
  0
LINE
  5
2E2
100
AcDbEntity
  8
M2
 62
     7
100
AcDbLine
 10
261.726552
 20
319.127199
 11
261.726552
 21
283.527199
  0
LINE
  5
2E3
100
AcDbEntity
  8
M2
 62
     7
100
AcDbLine
 10
266.226552
 20
336.577199
 11
266.226552
 21
322.677199
  0
LINE
  5
2E4
100
AcDbEntity
  8
M2
 62
     7
100
AcDbLine
 10
233.726552
 20
279.927199
 11
233.726552
 21
279.827199
  0
LINE
  5
2E5
100
AcDbEntity
  8
M2
 62
     7
100
AcDbLine
 10
266.226552
 20
281.777199
 11
265.926552
 21
281.777199
  0
LINE
  5
2E6
100
AcDbEntity
  8
M2
 62
     7
100
AcDbLine
 10
233.526552
 20
319.427199
 11
234.026552
 21
316.427199
  0
LINE
  5
2E7
100
AcDbEntity
  8
M2
 62
     7
100
AcDbLine
 10
214.926552
 20
324.227199
 11
232.526552
 21
324.227199
  0
LINE
  5
2E8
100
AcDbEntity
  8
M2
 62
     7
100
AcDbLine
 10
233.526552
 20
323.227199
 11
233.526552
 21
319.427199
  0
ARC
  5
2E9
100
AcDbEntity
  8
M2
 62
     7
100
AcDbCircle
 10
239.426552
 20
319.427199
 40
1.0
100
AcDbArc
 50
90.0
 51
180.0
  0
ARC
  5
2EA
100
AcDbEntity
  8
M2
 62
     7
100
AcDbCircle
 10
240.726552
 20
280.927199
 40
1.0
100
AcDbArc
 50
270.0
 51
360.0
  0
ARC
  5
2EB
100
AcDbEntity
  8
M2
 62
     7
100
AcDbCircle
 10
255.726552
 20
267.027199
 40
0.5
100
AcDbArc
 50
180.0
 51
270.0
  0
LINE
  5
2EC
100
AcDbEntity
  8
M2
 62
     7
100
AcDbLine
 10
266.226552
 20
336.577199
 11
265.926552
 21
336.577199
  0
LINE
  5
2ED
100
AcDbEntity
  8
M2
 62
     7
100
AcDbLine
 10
258.426552
 20
283.910972
 11
242.926552
 21
283.910972
  0
LINE
  5
2EE
100
AcDbEntity
  8
M2
 62
     7
100
AcDbLine
 10
258.426552
 20
315.866644
 11
242.926552
 21
315.866644
  0
LINE
  5
2EF
100
AcDbEntity
  8
M2
 62
     7
100
AcDbLine
 10
242.926552
 20
318.743427
 11
258.426552
 21
318.743427
  0
ARC
  5
2F0
100
AcDbEntity
  8
M2
 62
     7
100
AcDbCircle
 10
265.426552
 20
267.027199
 40
0.5
100
AcDbArc
 50
270.0
 51
360.0
  0
ARC
  5
2F1
100
AcDbEntity
  8
M2
 62
     7
100
AcDbCircle
 10
265.426552
 20
319.627199
 40
0.5
100
AcDbArc
 50
270.0
 51
360.0
  0
ARC
  5
2F2
100
AcDbEntity
  8
M2
 62
     7
100
AcDbCircle
 10
229.226552
 20
306.027199
 40
0.6
100
AcDbArc
 50
90.0
 51
180.0
  0
ARC
  5
2F3
100
AcDbEntity
  8
M2
 62
     7
100
AcDbCircle
 10
229.226552
 20
296.927199
 40
0.6
100
AcDbArc
 50
180.0
 51
270.0
  0
LINE
  5
2F4
100
AcDbEntity
  8
M2
 62
     7
100
AcDbLine
 10
242.926552
 20
286.787755
 11
258.426552
 21
286.787755
  0
ARC
  5
2F5
100
AcDbEntity
  8
M2
 62
     7
100
AcDbCircle
 10
261.226552
 20
288.027199
 40
0.5
100
AcDbArc
 50
270.0
 51
360.0
  0
ARC
  5
2F6
100
AcDbEntity
  8
M2
 62
     7
100
AcDbCircle
 10
261.226552
 20
314.627199
 40
0.5
100
AcDbArc
 50
0.0
 51
90.0
  0
ARC
  5
2F7
100
AcDbEntity
  8
M2
 62
     7
100
AcDbCircle
 10
265.429058
 20
336.527199
 40
0.5
100
AcDbArc
 50
5.73917
 51
90.0
  0
ARC
  5
2F8
100
AcDbEntity
  8
M2
 62
     7
100
AcDbCircle
 10
258.426552
 20
319.043427
 40
0.3
100
AcDbArc
 50
270.0
 51
360.0
  0
LINE
  5
2F9
100
AcDbEntity
  8
M2
 62
     7
100
AcDbLine
 10
263.426552
 20
285.827199
 11
263.866552
 21
285.327199
  0
LINE
  5
2FA
100
AcDbEntity
  8
M2
 62
     7
100
AcDbLine
 10
262.726552
 20
285.827199
 11
263.426552
 21
285.827199
  0
LINE
  5
2FB
100
AcDbEntity
  8
M2
 62
     7
100
AcDbLine
 10
262.726552
 20
285.327199
 11
262.726552
 21
285.827199
  0
LINE
  5
2FC
100
AcDbEntity
  8
M2
 62
     7
100
AcDbLine
 10
265.451082
 20
283.526597
 11
263.866552
 21
285.327199
  0
ARC
  5
2FD
100
AcDbEntity
  8
M2
 62
     7
100
AcDbCircle
 10
262.426552
 20
266.327199
 40
0.5
100
AcDbArc
 50
180.0
 51
270.0
  0
ARC
  5
2FE
100
AcDbEntity
  8
M2
 62
     7
100
AcDbCircle
 10
262.426552
 20
283.827199
 40
0.5
100
AcDbArc
 50
90.0
 51
180.0
  0
ARC
  5
2FF
100
AcDbEntity
  8
M2
 62
     7
100
AcDbCircle
 10
258.426552
 20
283.610972
 40
0.3
100
AcDbArc
 50
0.0
 51
90.0
  0
ARC
  5
300
100
AcDbEntity
  8
M2
 62
     7
100
AcDbCircle
 10
258.426552
 20
315.566644
 40
0.3
100
AcDbArc
 50
0.0
 51
90.0
  0
ARC
  5
301
100
AcDbEntity
  8
M2
 62
     7
100
AcDbCircle
 10
255.726552
 20
336.527199
 40
0.5
100
AcDbArc
 50
90.0
 51
180.0
  0
LINE
  5
302
100
AcDbEntity
  8
M2
 62
     7
100
AcDbLine
 10
265.626552
 20
266.568942
 11
265.626552
 21
265.827199
  0
LINE
  5
303
100
AcDbEntity
  8
M2
 62
     7
100
AcDbLine
 10
261.926552
 20
266.327199
 11
261.926552
 21
266.527199
  0
LINE
  5
304
100
AcDbEntity
  8
M2
 62
     7
100
AcDbLine
 10
265.626552
 20
265.827199
 11
262.426552
 21
265.827199
  0
LINE
  5
305
100
AcDbEntity
  8
M2
 62
     7
100
AcDbLine
 10
265.926552
 20
269.477199
 11
266.226552
 21
269.477199
  0
ARC
  5
306
100
AcDbEntity
  8
M2
 62
     7
100
AcDbCircle
 10
265.426552
 20
283.027199
 40
0.5
100
AcDbArc
 50
0.0
 51
90.0
  0
LINE
  5
307
100
AcDbEntity
  8
M2
 62
     7
100
AcDbLine
 10
262.726552
 20
285.327199
 11
262.726552
 21
284.327199
  0
ARC
  5
308
100
AcDbEntity
  8
M2
 62
     7
100
AcDbCircle
 10
258.426552
 20
287.087755
 40
0.3
100
AcDbArc
 50
270.0
 51
360.0
  0
LINE
  5
309
100
AcDbEntity
  8
M2
 62
     7
100
AcDbLine
 10
263.926552
 20
283.827199
 11
263.926552
 21
283.527199
  0
LINE
  5
30A
100
AcDbEntity
  8
M2
 62
     7
100
AcDbLine
 10
263.926552
 20
284.327199
 11
263.926552
 21
283.827199
  0
LINE
  5
30B
100
AcDbEntity
  8
M2
 62
     7
100
AcDbLine
 10
261.926552
 20
283.527199
 11
261.926552
 21
283.827199
  0
LINE
  5
30C
100
AcDbEntity
  8
M2
 62
     7
100
AcDbLine
 10
265.426552
 20
319.127199
 11
258.726552
 21
319.127199
  0
LINE
  5
30D
100
AcDbEntity
  8
M2
 62
     7
100
AcDbLine
 10
265.426552
 20
266.527199
 11
255.726552
 21
266.527199
  0
LINE
  5
30E
100
AcDbEntity
  8
M2
 62
     7
100
AcDbLine
 10
238.426552
 20
286.227199
 11
231.026552
 21
286.227199
  0
LINE
  5
30F
100
AcDbEntity
  8
M2
 62
     7
100
AcDbLine
 10
238.426552
 20
281.227199
 11
231.026552
 21
281.227199
  0
LINE
  5
310
100
AcDbEntity
  8
M2
 62
     7
100
AcDbLine
 10
242.926552
 20
286.787755
 11
242.926552
 21
283.910972
  0
LINE
  5
311
100
AcDbEntity
  8
M2
 62
     7
100
AcDbLine
 10
242.926552
 20
318.743427
 11
242.926552
 21
315.866644
  0
LINE
  5
312
100
AcDbEntity
  8
M2
 62
     7
100
AcDbLine
 10
258.726552
 20
283.527199
 11
265.426552
 21
283.527199
  0
LINE
  5
313
100
AcDbEntity
  8
M2
 62
     7
100
AcDbLine
 10
228.626552
 20
296.927199
 11
228.626552
 21
306.027199
  0
LINE
  5
314
100
AcDbEntity
  8
M2
 62
     7
100
AcDbLine
 10
231.026552
 20
306.627199
 11
229.226552
 21
306.627199
  0
LINE
  5
315
100
AcDbEntity
  8
M2
 62
     7
100
AcDbLine
 10
238.426552
 20
316.427199
 11
238.426552
 21
319.427199
  0
LINE
  5
316
100
AcDbEntity
  8
M2
 62
     7
100
AcDbLine
 10
255.226552
 20
282.227199
 11
241.726552
 21
282.227199
  0
LINE
  5
317
100
AcDbEntity
  8
M2
 62
     7
100
AcDbLine
 10
255.226552
 20
267.027199
 11
255.226552
 21
282.227199
  0
LINE
  5
318
100
AcDbEntity
  8
M2
 62
     7
100
AcDbLine
 10
235.455963
 20
320.427199
 11
255.226552
 21
320.427199
  0
ARC
  5
319
100
AcDbEntity
  8
M2
 62
     7
100
AcDbCircle
 10
226.126552
 20
314.327199
 40
0.5
100
AcDbArc
 50
180.0
 51
270.0
  0
LINE
  5
31A
100
AcDbEntity
  8
M2
 62
     7
100
AcDbLine
 10
262.426552
 20
284.327199
 11
263.926552
 21
284.327199
  0
ARC
  5
31B
100
AcDbEntity
  8
M2
 62
     7
100
AcDbCircle
 10
230.526552
 20
313.327199
 40
0.5
100
AcDbArc
 50
0.0
 51
90.0
  0
LINE
  5
31C
100
AcDbEntity
  8
M2
 62
     7
100
AcDbLine
 10
241.726552
 20
282.227199
 11
241.726552
 21
280.927199
  0
LINE
  5
31D
100
AcDbEntity
  8
M2
 62
     7
100
AcDbLine
 10
258.726552
 20
315.566644
 11
258.726552
 21
315.127199
  0
LINE
  5
31E
100
AcDbEntity
  8
M2
 62
     7
100
AcDbLine
 10
258.726552
 20
315.127199
 11
261.226552
 21
315.127199
  0
LINE
  5
31F
100
AcDbEntity
  8
M2
 62
     7
100
AcDbLine
 10
261.226552
 20
287.527199
 11
258.726552
 21
287.527199
  0
LINE
  5
320
100
AcDbEntity
  8
M2
 62
     7
100
AcDbLine
 10
231.026552
 20
296.327199
 11
229.226552
 21
296.327199
  0
LINE
  5
321
100
AcDbEntity
  8
M2
 62
     7
100
AcDbLine
 10
239.426552
 20
320.427199
 11
241.426552
 21
320.427199
  0
LINE
  5
322
100
AcDbEntity
  8
M2
 62
     7
100
AcDbLine
 10
240.726552
 20
279.927199
 11
233.726552
 21
279.927199
  0
LINE
  5
323
100
AcDbEntity
  8
M2
 62
     7
100
AcDbLine
 10
255.226552
 20
320.427199
 11
255.226552
 21
336.527199
  0
LINE
  5
324
100
AcDbEntity
  8
M2
 62
     7
100
AcDbLine
 10
258.726552
 20
287.527199
 11
258.726552
 21
287.087755
  0
ARC
  5
325
100
AcDbEntity
  8
M2
 62
     7
100
AcDbCircle
 10
211.430933
 20
275.527199
 40
3.0
100
AcDbArc
 50
270.0
 51
320.582606
  0
ARC
  5
326
100
AcDbEntity
  8
M2
 62
     7
100
AcDbCircle
 10
194.426552
 20
277.527199
 40
5.0
100
AcDbArc
 50
180.0
 51
270.0
  0
ARC
  5
327
100
AcDbEntity
  8
M2
 62
     7
100
AcDbCircle
 10
211.529225
 20
327.127199
 40
3.0
100
AcDbArc
 50
41.009087
 51
90.0
  0
ARC
  5
328
100
AcDbEntity
  8
M2
 62
     7
100
AcDbCircle
 10
211.926552
 20
326.670274
 40
3.0
100
AcDbArc
 50
0.0
 51
41.009087
  0
ARC
  5
329
100
AcDbEntity
  8
M2
 62
     7
100
AcDbCircle
 10
211.926552
 20
276.130202
 40
3.0
100
AcDbArc
 50
320.582606
 51
360.0
  0
ARC
  5
32A
100
AcDbEntity
  8
M2
 62
     7
100
AcDbCircle
 10
190.426552
 20
306.027199
 40
1.0
100
AcDbArc
 50
180.0
 51
270.0
  0
ARC
  5
32B
100
AcDbEntity
  8
M2
 62
     7
100
AcDbCircle
 10
190.426552
 20
296.627199
 40
1.0
100
AcDbArc
 50
90.0
 51
180.0
  0
LINE
  5
32C
100
AcDbEntity
  8
M2
 62
     7
100
AcDbLine
 10
207.226552
 20
333.527199
 11
210.826552
 21
333.527199
  0
LINE
  5
32D
100
AcDbEntity
  8
M2
 62
     7
100
AcDbLine
 10
214.326552
 20
270.327199
 11
213.126552
 21
269.127199
  0
ARC
  5
32E
100
AcDbEntity
  8
M2
 62
     7
100
AcDbCircle
 10
194.426552
 20
325.127199
 40
5.0
100
AcDbArc
 50
90.0
 51
180.0
  0
ARC
  5
32F
100
AcDbEntity
  8
M2
 62
     7
100
AcDbCircle
 10
217.326552
 20
299.127199
 40
0.5
100
AcDbArc
 50
180.0
 51
270.0
  0
ARC
  5
330
100
AcDbEntity
  8
M2
 62
     7
100
AcDbCircle
 10
217.326552
 20
303.527199
 40
0.5
100
AcDbArc
 50
90.0
 51
180.0
  0
LINE
  5
331
100
AcDbEntity
  8
M2
 62
     7
100
AcDbLine
 10
185.626552
 20
294.827199
 11
187.126552
 21
294.827199
  0
LINE
  5
332
100
AcDbEntity
  8
M2
 62
     7
100
AcDbLine
 10
185.626552
 20
313.527199
 11
189.426552
 21
313.527199
  0
LINE
  5
333
100
AcDbEntity
  8
M2
 62
     7
100
AcDbLine
 10
187.126552
 20
313.527199
 11
187.126552
 21
305.927199
  0
LINE
  5
334
100
AcDbEntity
  8
M2
 62
     7
100
AcDbLine
 10
189.426552
 20
290.327199
 11
185.626552
 21
290.327199
  0
LINE
  5
335
100
AcDbEntity
  8
M2
 62
     7
100
AcDbLine
 10
187.126552
 20
294.827199
 11
187.126552
 21
290.327199
  0
LINE
  5
336
100
AcDbEntity
  8
M2
 62
     7
100
AcDbLine
 10
185.626552
 20
305.927199
 11
187.126552
 21
305.927199
  0
LINE
  5
337
100
AcDbEntity
  8
M2
 62
     7
100
AcDbLine
 10
187.126552
 20
307.427199
 11
185.626552
 21
307.427199
  0
LINE
  5
338
100
AcDbEntity
  8
M2
 62
     7
100
AcDbLine
 10
195.426552
 20
333.527199
 11
205.327854
 21
333.527199
  0
LINE
  5
339
100
AcDbEntity
  8
M2
 62
     7
100
AcDbLine
 10
205.68993
 20
330.127199
 11
205.327854
 21
333.527199
  0
LINE
  5
33A
100
AcDbEntity
  8
M2
 62
     7
100
AcDbLine
 10
210.826552
 20
333.527199
 11
212.226552
 21
332.127199
  0
LINE
  5
33B
100
AcDbEntity
  8
M2
 62
     7
100
AcDbLine
 10
205.327854
 20
333.527199
 11
207.226552
 21
333.527199
  0
LINE
  5
33C
100
AcDbEntity
  8
M2
 62
     7
100
AcDbLine
 10
191.426552
 20
329.127199
 11
191.426552
 21
329.527199
  0
LINE
  5
33D
100
AcDbEntity
  8
M2
 62
     7
100
AcDbLine
 10
205.68993
 20
272.527199
 11
205.327854
 21
269.127199
  0
LINE
  5
33E
100
AcDbEntity
  8
M2
 62
     7
100
AcDbLine
 10
191.426552
 20
273.127199
 11
191.426552
 21
273.527199
  0
LINE
  5
33F
100
AcDbEntity
  8
M2
 62
     7
100
AcDbLine
 10
231.026552
 20
313.227199
 11
231.026552
 21
306.827199
  0
LINE
  5
340
100
AcDbEntity
  8
M2
 62
     7
100
AcDbLine
 10
213.793042
 20
329.095736
 11
214.190368
 21
328.63881
  0
LINE
  5
341
100
AcDbEntity
  8
M2
 62
     7
100
AcDbLine
 10
194.426552
 20
330.127199
 11
211.529225
 21
330.127199
  0
LINE
  5
342
100
AcDbEntity
  8
M2
 62
     7
100
AcDbLine
 10
214.244174
 20
274.225307
 11
213.748556
 21
273.622304
  0
LINE
  5
343
100
AcDbEntity
  8
M2
 62
     7
100
AcDbLine
 10
214.926552
 20
326.670274
 11
214.926552
 21
324.227199
  0
LINE
  5
344
100
AcDbEntity
  8
M2
 62
     7
100
AcDbLine
 10
214.926552
 20
278.827199
 11
214.926552
 21
276.130202
  0
LINE
  5
345
100
AcDbEntity
  8
M2
 62
     7
100
AcDbLine
 10
191.926552
 20
305.027199
 11
191.926552
 21
297.627199
  0
LINE
  5
346
100
AcDbEntity
  8
M2
 62
     7
100
AcDbLine
 10
216.826552
 20
303.527199
 11
216.826552
 21
299.127199
  0
LINE
  5
347
100
AcDbEntity
  8
M2
 62
     7
100
AcDbLine
 10
217.326552
 20
298.627199
 11
228.626552
 21
298.627199
  0
LINE
  5
348
100
AcDbEntity
  8
M2
 62
     7
100
AcDbLine
 10
250.926603
 20
270.327199
 11
214.326552
 21
270.327199
  0
LINE
  5
349
100
AcDbEntity
  8
M2
 62
     7
100
AcDbLine
 10
215.326552
 20
324.227199
 11
215.326552
 21
332.127199
  0
LINE
  5
34A
100
AcDbEntity
  8
M2
 62
     7
100
AcDbLine
 10
207.226552
 20
330.127199
 11
207.226552
 21
333.527199
  0
LINE
  5
34B
100
AcDbEntity
  8
M2
 62
     7
100
AcDbLine
 10
213.126552
 20
269.127199
 11
195.426552
 21
269.127199
  0
LINE
  5
34C
100
AcDbEntity
  8
M2
 62
     7
100
AcDbLine
 10
212.226552
 20
332.127199
 11
215.326552
 21
332.127199
  0
LINE
  5
34D
100
AcDbEntity
  8
M2
 62
     7
100
AcDbLine
 10
190.926552
 20
297.627199
 11
190.926552
 21
305.027199
  0
LINE
  5
34E
100
AcDbEntity
  8
M2
 62
     7
100
AcDbLine
 10
189.426552
 20
277.527199
 11
189.426552
 21
325.127199
  0
LINE
  5
34F
100
AcDbEntity
  8
M2
 62
     7
100
AcDbLine
 10
191.926552
 20
305.027199
 11
190.426552
 21
305.027199
  0
LINE
  5
350
100
AcDbEntity
  8
M2
 62
     7
100
AcDbLine
 10
211.430933
 20
272.527199
 11
194.426552
 21
272.527199
  0
LINE
  5
351
100
AcDbEntity
  8
M2
 62
     7
100
AcDbLine
 10
190.426552
 20
297.627199
 11
191.926552
 21
297.627199
  0
LINE
  5
352
100
AcDbEntity
  8
M2
 62
     7
100
AcDbLine
 10
228.626552
 20
304.027199
 11
217.326552
 21
304.027199
  0
LINE
  5
353
100
AcDbEntity
  8
M2
 62
     7
100
AcDbLine
 10
239.126552
 20
270.327199
 11
239.126552
 21
266.827199
  0
LINE
  5
354
100
AcDbEntity
  8
M2
 62
     7
100
AcDbLine
 10
241.726552
 20
338.127199
 11
241.726552
 21
340.312986
  0
LINE
  5
355
100
AcDbEntity
  8
M2
 62
     7
100
AcDbLine
 10
249.326552
 20
335.227199
 11
255.226552
 21
335.227199
  0
LINE
  5
356
100
AcDbEntity
  8
M2
 62
     7
100
AcDbLine
 10
241.626552
 20
270.327199
 11
239.626552
 21
270.327199
  0
LINE
  5
357
100
AcDbEntity
  8
M2
 62
     7
100
AcDbLine
 10
242.126552
 20
270.327199
 11
241.626552
 21
270.327199
  0
LINE
  5
358
100
AcDbEntity
  8
M2
 62
     7
100
AcDbLine
 10
241.726552
 20
335.827199
 11
241.726552
 21
332.227199
  0
LINE
  5
359
100
AcDbEntity
  8
M2
 62
     7
100
AcDbLine
 10
253.626552
 20
271.82828
 11
253.626552
 21
282.227199
  0
LINE
  5
35A
100
AcDbEntity
  8
M2
 62
     7
100
AcDbLine
 10
237.019445
 20
345.434306
 11
238.519445
 21
343.934306
  0
LINE
  5
35B
100
AcDbEntity
  8
M2
 62
     7
100
AcDbLine
 10
257.726552
 20
266.527199
 11
254.626552
 21
266.527199
  0
LINE
  5
35C
100
AcDbEntity
  8
M2
 62
     7
100
AcDbLine
 10
253.626552
 20
272.027199
 11
255.226552
 21
272.027199
  0
LINE
  5
35D
100
AcDbEntity
  8
M2
 62
     7
100
AcDbLine
 10
249.326552
 20
335.227199
 11
249.326552
 21
332.227199
  0
LINE
  5
35E
100
AcDbEntity
  8
M2
 62
     7
100
AcDbLine
 10
231.026552
 20
265.827199
 11
231.026552
 21
266.827199
  0
LINE
  5
35F
100
AcDbEntity
  8
M2
 62
     7
100
AcDbLine
 10
262.026552
 20
315.627199
 11
261.726552
 21
316.627199
  0
LINE
  5
360
100
AcDbEntity
  8
M2
 62
     7
100
AcDbLine
 10
218.926552
 20
335.727199
 11
215.326552
 21
334.227199
  0
LINE
  5
361
100
AcDbEntity
  8
M2
 62
     7
100
AcDbLine
 10
224.626552
 20
335.727199
 11
218.926552
 21
335.727199
  0
LINE
  5
362
100
AcDbEntity
  8
M2
 62
     7
100
AcDbLine
 10
215.326552
 20
334.227199
 11
215.326552
 21
332.227199
  0
LINE
  5
363
100
AcDbEntity
  8
M2
 62
     7
100
AcDbLine
 10
219.126552
 20
334.727199
 11
216.326552
 21
333.560533
  0
LINE
  5
364
100
AcDbEntity
  8
M2
 62
     7
100
AcDbLine
 10
224.626552
 20
332.227199
 11
224.626552
 21
335.727199
  0
LINE
  5
365
100
AcDbEntity
  8
M2
 62
     7
100
AcDbLine
 10
223.626552
 20
334.727199
 11
219.126552
 21
334.727199
  0
LINE
  5
366
100
AcDbEntity
  8
M2
 62
     7
100
AcDbLine
 10
236.726552
 20
345.727199
 11
219.926552
 21
345.727199
  0
LINE
  5
367
100
AcDbEntity
  8
M2
 62
     7
100
AcDbLine
 10
224.626552
 20
335.727199
 11
224.726552
 21
335.727199
  0
LINE
  5
368
100
AcDbEntity
  8
M2
 62
     7
100
AcDbLine
 10
224.726552
 20
332.227199
 11
224.626552
 21
332.227199
  0
LINE
  5
369
100
AcDbEntity
  8
M2
 62
     7
100
AcDbLine
 10
266.226552
 20
322.677199
 11
265.926552
 21
322.677199
  0
LINE
  5
36A
100
AcDbEntity
  8
M2
 62
     7
100
AcDbLine
 10
223.626552
 20
333.227199
 11
223.626552
 21
334.727199
  0
LINE
  5
36B
100
AcDbEntity
  8
M2
 62
     7
100
AcDbLine
 10
224.626552
 20
332.227199
 11
215.326552
 21
332.227199
  0
LINE
  5
36C
100
AcDbEntity
  8
M2
 62
     7
100
AcDbLine
 10
216.326552
 20
333.227199
 11
223.626552
 21
333.227199
  0
LINE
  5
36D
100
AcDbEntity
  8
M2
 62
     7
100
AcDbLine
 10
216.326552
 20
333.560533
 11
216.326552
 21
333.227199
  0
LINE
  5
36E
100
AcDbEntity
  8
M2
 62
     7
100
AcDbLine
 10
231.026552
 20
296.327199
 11
231.026552
 21
265.827199
  0
LINE
  5
36F
100
AcDbEntity
  8
M2
 62
     7
100
AcDbLine
 10
215.026552
 20
265.827199
 11
207.226552
 21
266.327199
  0
LINE
  5
370
100
AcDbEntity
  8
M2
 62
     7
100
AcDbLine
 10
238.126552
 20
265.827199
 11
223.716861
 21
265.827199
  0
LINE
  5
371
100
AcDbEntity
  8
M2
 62
     7
100
AcDbLine
 10
200.638397
 20
266.596144
 11
197.926552
 21
269.127199
  0
LINE
  5
372
100
AcDbEntity
  8
M2
 62
     7
100
AcDbLine
 10
207.226552
 20
266.327199
 11
206.426617
 21
266.327199
  0
LINE
  5
373
100
AcDbEntity
  8
M2
 62
     7
100
AcDbLine
 10
205.544671
 20
269.127199
 11
205.327436
 21
266.327199
  0
LINE
  5
374
100
AcDbEntity
  8
M2
 62
     7
100
AcDbLine
 10
205.327436
 20
266.327199
 11
201.320715
 21
266.327199
  0
LINE
  5
375
100
AcDbEntity
  8
M2
 62
     7
100
AcDbLine
 10
185.126552
 20
290.827199
 11
185.126552
 21
313.027199
  0
LINE
  5
376
100
AcDbEntity
  8
M2
 62
     7
100
AcDbLine
 10
207.226552
 20
266.327199
 11
207.226552
 21
272.527199
  0
LINE
  5
377
100
AcDbEntity
  8
M2
 62
     7
100
AcDbLine
 10
215.326552
 20
332.127199
 11
215.326552
 21
332.227199
  0
ELLIPSE
  5
378
100
AcDbEntity
  8
M2
 62
     7
100
AcDbEllipse
 10
185.626552
 20
307.634306
 11
0.5
 21
0.0
210
0.0
220
0.0
230
1.0
 40
0.414214
 41
3.141592653589793
 42
4.71238898038469
  0
ELLIPSE
  5
379
100
AcDbEntity
  8
M2
 62
     7
100
AcDbEllipse
 10
185.626552
 20
306.134306
 11
0.5
 21
0.0
210
0.0
220
0.0
230
1.0
 40
0.414214
 41
3.141592653589793
 42
4.71238898038469
  0
ARC
  5
37A
100
AcDbEntity
  8
M2
 62
     7
100
AcDbCircle
 10
218.326552
 20
299.727199
 40
1.0
100
AcDbArc
 50
180.0
 51
270.0
  0
ARC
  5
37B
100
AcDbEntity
  8
M2
 62
     7
100
AcDbCircle
 10
201.320715
 20
267.327199
 40
1.0
100
AcDbArc
 50
226.974934
 51
270.0
  0
ARC
  5
37C
100
AcDbEntity
  8
M2
 62
     7
100
AcDbCircle
 10
219.826552
 20
299.727199
 40
1.0
100
AcDbArc
 50
270.0
 51
360.0
  0
ARC
  5
37D
100
AcDbEntity
  8
M2
 62
     7
100
AcDbCircle
 10
185.626552
 20
313.027199
 40
0.5
100
AcDbArc
 50
90.0
 51
180.0
  0
LINE
  5
37E
100
AcDbEntity
  8
M2
 62
     7
100
AcDbLine
 10
266.226552
 20
281.777199
 11
266.226552
 21
269.477199
  0
LINE
  5
37F
100
AcDbEntity
  8
M2
 62
     7
100
AcDbLine
 10
244.526552
 20
270.327199
 11
244.432777
 21
270.327199
  0
LINE
  5
380
100
AcDbEntity
  8
M2
 62
     7
100
AcDbLine
 10
241.726552
 20
332.227199
 11
255.226552
 21
332.227199
  0
LINE
  5
381
100
AcDbEntity
  8
M2
 62
     7
100
AcDbLine
 10
246.326552
 20
320.427199
 11
246.326552
 21
331.227199
  0
LINE
  5
382
100
AcDbEntity
  8
M2
 62
     7
100
AcDbLine
 10
220.826552
 20
299.727199
 11
220.826552
 21
304.027199
  0
LINE
  5
383
100
AcDbEntity
  8
M2
 62
     7
100
AcDbLine
 10
218.326552
 20
298.727199
 11
219.826552
 21
298.727199
  0
LINE
  5
384
100
AcDbEntity
  8
M2
 62
     7
100
AcDbLine
 10
222.926552
 20
304.027199
 11
222.926552
 21
298.627199
  0
LINE
  5
385
100
AcDbEntity
  8
M2
 62
     7
100
AcDbLine
 10
185.626552
 20
290.327199
 11
186.626552
 21
290.327199
  0
LINE
  5
386
100
AcDbEntity
  8
M2
 62
     7
100
AcDbLine
 10
215.278558
 20
265.827199
 11
215.026552
 21
265.827199
  0
ARC
  5
387
100
AcDbEntity
  8
M2
 62
     7
100
AcDbCircle
 10
185.626552
 20
290.827199
 40
0.5
100
AcDbArc
 50
180.0
 51
270.0
  0
LINE
  5
388
100
AcDbEntity
  8
M2
 62
     7
100
AcDbLine
 10
245.026552
 20
273.027199
 11
245.026552
 21
270.827199
  0
ARC
  5
389
100
AcDbEntity
  8
M2
 62
     7
100
AcDbCircle
 10
185.626552
 20
294.327199
 40
0.5
100
AcDbArc
 50
90.0
 51
180.0
  0
ARC
  5
38A
100
AcDbEntity
  8
M2
 62
     7
100
AcDbCircle
 10
195.426552
 20
329.527199
 40
4.0
100
AcDbArc
 50
90.0
 51
180.0
  0
ARC
  5
38B
100
AcDbEntity
  8
M2
 62
     7
100
AcDbCircle
 10
195.426552
 20
273.127199
 40
4.0
100
AcDbArc
 50
180.0
 51
270.0
  0
LINE
  5
38C
100
AcDbEntity
  8
M2
 62
     7
100
AcDbLine
 10
217.326552
 20
304.027199
 11
217.326552
 21
299.727199
  0
LINE
  5
38D
100
AcDbEntity
  8
M2
  6
DASHED
 62
     7
100
AcDbLine
 10
229.126552
 20
338.727199
 11
229.126552
 21
345.727199
  0
LINE
  5
38E
100
AcDbEntity
  8
M2
  6
DASHED
 62
     7
100
AcDbLine
 10
230.126552
 20
345.727199
 11
230.126552
 21
338.727199
  0
LINE
  5
38F
100
AcDbEntity
  8
M2
 62
     7
100
AcDbLine
 10
205.426617
 20
266.327199
 11
205.327436
 21
266.327199
  0
LINE
  5
390
100
AcDbEntity
  8
M2
100
AcDbLine
 10
27.038718
 20
326.9772
 11
33.038718
 21
326.9772
  0
LINE
  5
391
100
AcDbEntity
  8
M2
  6
DASHDOT
100
AcDbLine
 10
30.038718
 20
315.077199
 11
30.038718
 21
314.077199
  0
LINE
  5
392
100
AcDbEntity
  8
M2
100
AcDbLine
 10
27.038718
 20
326.002199
 11
27.038718
 21
326.9772
  0
LINE
  5
393
100
AcDbEntity
  8
M2
100
AcDbLine
 10
33.038718
 20
326.9772
 11
33.038718
 21
326.002199
  0
LINE
  5
394
100
AcDbEntity
  8
M2
100
AcDbLine
 10
40.838718
 20
304.827199
 11
36.538718
 21
304.827199
  0
LINE
  5
395
100
AcDbEntity
  8
M2
100
AcDbLine
 10
35.038717
 20
330.977199
 11
35.538717
 21
330.977199
  0
LINE
  5
396
100
AcDbEntity
  8
M2
100
AcDbLine
 10
40.838718
 20
304.827199
 11
40.838718
 21
301.327199
  0
LINE
  5
397
100
AcDbEntity
  8
M2
100
AcDbLine
 10
36.538718
 20
316.3272
 11
36.538718
 21
304.827199
  0
LINE
  5
398
100
AcDbEntity
  8
M2
  6
DASHDOT
100
AcDbLine
 10
30.038718
 20
322.677199
 11
30.038718
 21
321.677199
  0
LINE
  5
399
100
AcDbEntity
  8
M2
  6
DASHDOT
100
AcDbLine
 10
29.538718
 20
322.177199
 11
30.538718
 21
322.177199
  0
LINE
  5
39A
100
AcDbEntity
  8
M2
100
AcDbLine
 10
34.038718
 20
308.527199
 11
34.038718
 21
301.327199
  0
ARC
  5
39B
100
AcDbEntity
  8
M2
100
AcDbCircle
 10
35.038718
 20
293.077199
 40
1.0
100
AcDbArc
 50
90.0
 51
180.0
  0
ARC
  5
39C
100
AcDbEntity
  8
M2
100
AcDbCircle
 10
35.538718
 20
280.277199
 40
1.0
100
AcDbArc
 50
270.0
 51
360.0
  0
ARC
  5
39D
100
AcDbEntity
  8
M2
100
AcDbCircle
 10
25.038718
 20
282.277199
 40
1.0
100
AcDbArc
 50
180.0
 51
270.0
  0
ARC
  5
39E
100
AcDbEntity
  8
M2
100
AcDbCircle
 10
35.038718
 20
280.277199
 40
1.0
100
AcDbArc
 50
180.0
 51
270.0
  0
ARC
  5
39F
100
AcDbEntity
  8
M2
100
AcDbCircle
 10
25.038718
 20
282.277199
 40
1.0
100
AcDbArc
 50
270.0
 51
360.0
  0
LINE
  5
3A0
100
AcDbEntity
  8
M2
100
AcDbLine
 10
34.038718
 20
308.527199
 11
34.038718
 21
308.577199
  0
LINE
  5
3A1
100
AcDbEntity
  8
M2
  6
DASHDOT
100
AcDbLine
 10
29.538718
 20
314.577199
 11
30.538718
 21
314.577199
  0
LINE
  5
3A2
100
AcDbEntity
  8
M2
100
AcDbLine
 10
35.038717
 20
308.577199
 11
26.038718
 21
308.577199
  0
LINE
  5
3A3
100
AcDbEntity
  8
M2
100
AcDbLine
 10
36.538718
 20
329.977199
 11
36.538718
 21
316.477199
  0
LINE
  5
3A4
100
AcDbEntity
  8
M2
100
AcDbLine
 10
26.038718
 20
310.5772
 11
34.038718
 21
310.5772
  0
LINE
  5
3A5
100
AcDbEntity
  8
M2
  6
DASHDOT
100
AcDbLine
 10
29.538718
 20
288.077199
 11
30.538718
 21
288.077199
  0
ARC
  5
3A6
100
AcDbEntity
  8
M2
100
AcDbCircle
 10
35.538718
 20
322.377199
 40
1.0
100
AcDbArc
 50
3.256888E-012
 51
90.0
  0
LINE
  5
3A7
100
AcDbEntity
  8
M2
100
AcDbLine
 10
34.038718
 20
293.077199
 11
34.038718
 21
272.677199
  0
LINE
  5
3A8
100
AcDbEntity
  8
M2
100
AcDbLine
 10
35.038717
 20
286.327199
 11
36.538718
 21
286.327199
  0
LINE
  5
3A9
100
AcDbEntity
  8
M2
100
AcDbLine
 10
27.138718
 20
301.327199
 11
27.138718
 21
294.127199
  0
LINE
  5
3AA
100
AcDbEntity
  8
M2
100
AcDbLine
 10
33.038718
 20
301.327199
 11
33.038718
 21
294.127199
  0
ARC
  5
3AB
100
AcDbEntity
  8
M2
100
AcDbCircle
 10
25.038718
 20
327.977199
 40
1.0
100
AcDbArc
 50
0.0
 51
90.0
  0
ARC
  5
3AC
100
AcDbEntity
  8
M2
100
AcDbCircle
 10
25.038718
 20
327.977199
 40
1.0
100
AcDbArc
 50
90.0
 51
180.0
  0
ARC
  5
3AD
100
AcDbEntity
  8
M2
100
AcDbCircle
 10
35.538718
 20
329.977199
 40
1.0
100
AcDbArc
 50
0.0
 51
90.0
  0
LINE
  5
3AE
100
AcDbEntity
  8
M2
100
AcDbLine
 10
34.038718
 20
309.577199
 11
34.038718
 21
329.977199
  0
LINE
  5
3AF
100
AcDbEntity
  8
M2
100
AcDbLine
 10
35.038717
 20
316.3272
 11
36.538718
 21
316.3272
  0
LINE
  5
3B0
100
AcDbEntity
  8
M2
100
AcDbLine
 10
33.038718
 20
301.327199
 11
33.038718
 21
308.527199
  0
LINE
  5
3B1
100
AcDbEntity
  8
M2
100
AcDbLine
 10
27.138718
 20
301.327199
 11
27.138718
 21
308.527199
  0
LINE
  5
3B2
100
AcDbEntity
  8
M2
100
AcDbLine
 10
28.138718
 20
308.527199
 11
28.138718
 21
301.327199
  0
LINE
  5
3B3
100
AcDbEntity
  8
M2
100
AcDbLine
 10
36.538718
 20
286.327199
 11
36.538718
 21
297.827199
  0
ARC
  5
3B4
100
AcDbEntity
  8
M2
100
AcDbCircle
 10
35.038718
 20
329.977199
 40
1.0
100
AcDbArc
 50
90.0
 51
180.0
  0
LINE
  5
3B5
100
AcDbEntity
  8
M2
100
AcDbLine
 10
28.138718
 20
294.127199
 11
28.138718
 21
301.327199
  0
LINE
  5
3B6
100
AcDbEntity
  8
M2
100
AcDbLine
 10
35.038717
 20
323.377199
 11
35.538717
 21
323.377199
  0
LINE
  5
3B7
100
AcDbEntity
  8
M2
100
AcDbLine
 10
35.038717
 20
308.577199
 11
35.038717
 21
316.477199
  0
LINE
  5
3B8
100
AcDbEntity
  8
M2
  6
DASHDOT
100
AcDbLine
 10
29.538718
 20
280.477199
 11
30.538718
 21
280.477199
  0
LINE
  5
3B9
100
AcDbEntity
  8
M2
  6
DASHDOT
100
AcDbLine
 10
30.038718
 20
279.977199
 11
30.038718
 21
280.977199
  0
LINE
  5
3BA
100
AcDbEntity
  8
M2
  6
DASHDOT
100
AcDbLine
 10
30.038718
 20
287.577199
 11
30.038718
 21
288.577199
  0
ARC
  5
3BB
100
AcDbEntity
  8
M2
100
AcDbCircle
 10
35.038718
 20
309.577199
 40
1.0
100
AcDbArc
 50
180.0
 51
270.0
  0
ARC
  5
3BC
100
AcDbEntity
  8
M2
100
AcDbCircle
 10
35.038718
 20
322.377199
 40
1.0
100
AcDbArc
 50
90.0
 51
180.0
  0
LINE
  5
3BD
100
AcDbEntity
  8
M2
100
AcDbLine
 10
35.038717
 20
294.077199
 11
35.038717
 21
286.177199
  0
LINE
  5
3BE
100
AcDbEntity
  8
M2
100
AcDbLine
 10
35.038717
 20
279.2772
 11
35.538717
 21
279.2772
  0
LINE
  5
3BF
100
AcDbEntity
  8
M2
100
AcDbLine
 10
24.038718
 20
301.327199
 11
24.038718
 21
274.677199
  0
LINE
  5
3C0
100
AcDbEntity
  8
M2
100
AcDbLine
 10
40.838718
 20
297.827199
 11
40.838718
 21
301.327199
  0
LINE
  5
3C1
100
AcDbEntity
  8
M2
100
AcDbLine
 10
34.038718
 20
318.3772
 11
26.038718
 21
318.3772
  0
LINE
  5
3C2
100
AcDbEntity
  8
M2
100
AcDbLine
 10
26.038718
 20
327.977199
 11
26.038718
 21
301.327199
  0
LINE
  5
3C3
100
AcDbEntity
  8
M2
100
AcDbLine
 10
36.538718
 20
316.477199
 11
35.038717
 21
316.477199
  0
ARC
  5
3C4
100
AcDbEntity
  8
M2
100
AcDbCircle
 10
25.038718
 20
320.377199
 40
1.0
100
AcDbArc
 50
90.0
 51
180.0
  0
LINE
  5
3C5
100
AcDbEntity
  8
M2
100
AcDbLine
 10
34.038718
 20
294.127199
 11
34.038718
 21
301.327199
  0
LINE
  5
3C6
100
AcDbEntity
  8
M2
100
AcDbLine
 10
33.519841
 20
325.9772
 11
34.038718
 21
325.9772
  0
ARC
  5
3C7
100
AcDbEntity
  8
M2
100
AcDbCircle
 10
25.038718
 20
320.377199
 40
1.0
100
AcDbArc
 50
6.513776E-012
 51
90.0
  0
LINE
  5
3C8
100
AcDbEntity
  8
M2
100
AcDbLine
 10
26.038718
 20
325.9772
 11
26.557594
 21
325.9772
  0
LINE
  5
3C9
100
AcDbEntity
  8
M2
100
AcDbLine
 10
34.038718
 20
294.127199
 11
34.038718
 21
294.077199
  0
ARC
  5
3CA
100
AcDbEntity
  8
M2
100
AcDbCircle
 10
35.538718
 20
272.677199
 40
1.0
100
AcDbArc
 50
270.0
 51
360.0
  0
LINE
  5
3CB
100
AcDbEntity
  8
M2
100
AcDbLine
 10
26.038718
 20
292.077199
 11
34.038718
 21
292.077199
  0
LINE
  5
3CC
100
AcDbEntity
  8
M2
100
AcDbLine
 10
36.538718
 20
272.6772
 11
36.538718
 21
286.177199
  0
LINE
  5
3CD
100
AcDbEntity
  8
M2
100
AcDbLine
 10
35.038717
 20
294.077199
 11
26.038718
 21
294.077199
  0
LINE
  5
3CE
100
AcDbEntity
  8
M2
100
AcDbLine
 10
26.038718
 20
276.677199
 11
26.557594
 21
276.677199
  0
ARC
  5
3CF
100
AcDbEntity
  8
M2
100
AcDbCircle
 10
25.038718
 20
274.677199
 40
1.0
100
AcDbArc
 50
180.0
 51
270.0
  0
LINE
  5
3D0
100
AcDbEntity
  8
M2
100
AcDbLine
 10
24.038718
 20
301.327199
 11
24.038718
 21
327.9772
  0
ARC
  5
3D1
100
AcDbEntity
  8
M2
100
AcDbCircle
 10
25.038718
 20
274.677199
 40
1.0
100
AcDbArc
 50
270.0
 51
360.0
  0
LINE
  5
3D2
100
AcDbEntity
  8
M2
100
AcDbLine
 10
26.038718
 20
274.677199
 11
26.038718
 21
301.327199
  0
LINE
  5
3D3
100
AcDbEntity
  8
M2
100
AcDbLine
 10
34.038718
 20
284.277199
 11
26.038718
 21
284.277199
  0
LINE
  5
3D4
100
AcDbEntity
  8
M2
100
AcDbLine
 10
36.538718
 20
286.177199
 11
35.038717
 21
286.177199
  0
LINE
  5
3D5
100
AcDbEntity
  8
M2
100
AcDbLine
 10
33.519841
 20
276.677199
 11
34.038718
 21
276.677199
  0
LINE
  5
3D6
100
AcDbEntity
  8
M2
100
AcDbLine
 10
27.038718
 20
276.652199
 11
27.038718
 21
275.677199
  0
ARC
  5
3D7
100
AcDbEntity
  8
M2
100
AcDbCircle
 10
35.038718
 20
272.677199
 40
1.0
100
AcDbArc
 50
180.0
 51
270.0
  0
LINE
  5
3D8
100
AcDbEntity
  8
M2
100
AcDbLine
 10
27.038718
 20
275.677199
 11
33.038718
 21
275.677199
  0
LINE
  5
3D9
100
AcDbEntity
  8
M2
100
AcDbLine
 10
35.038717
 20
271.6772
 11
35.538717
 21
271.6772
  0
LINE
  5
3DA
100
AcDbEntity
  8
M2
100
AcDbLine
 10
40.838718
 20
297.827199
 11
36.538718
 21
297.827199
  0
LINE
  5
3DB
100
AcDbEntity
  8
M2
100
AcDbLine
 10
33.038718
 20
275.677199
 11
33.038718
 21
276.652199
  0
CIRCLE
  5
3DC
100
AcDbEntity
  8
M2
 62
     7
100
AcDbCircle
 10
30.038718
 20
288.077199
 40
3.0
  0
LINE
  5
3DD
100
AcDbEntity
  8
M2
 62
     7
100
AcDbLine
 10
33.863718
 20
291.402199
 11
33.863718
 21
284.752199
  0
ARC
  5
3DE
100
AcDbEntity
  8
M2
 62
     7
100
AcDbCircle
 10
26.713718
 20
291.402199
 40
0.5
100
AcDbArc
 50
90.0
 51
180.0
  0
ARC
  5
3DF
100
AcDbEntity
  8
M2
 62
     7
100
AcDbCircle
 10
33.363718
 20
284.752199
 40
0.5
100
AcDbArc
 50
270.0
 51
360.0
  0
ARC
  5
3E0
100
AcDbEntity
  8
M2
 62
     7
100
AcDbCircle
 10
26.713718
 20
284.752199
 40
0.5
100
AcDbArc
 50
180.0
 51
270.0
  0
ARC
  5
3E1
100
AcDbEntity
  8
M2
 62
     7
100
AcDbCircle
 10
33.363718
 20
291.402199
 40
0.5
100
AcDbArc
 50
0.0
 51
90.0
  0
LINE
  5
3E2
100
AcDbEntity
  8
M2
 62
     7
100
AcDbLine
 10
30.391997
 20
286.662839
 11
28.624419
 21
288.430539
  0
LINE
  5
3E3
100
AcDbEntity
  8
M2
 62
     7
100
AcDbLine
 10
31.629302
 20
289.667844
 11
28.447661
 21
286.486081
  0
LINE
  5
3E4
100
AcDbEntity
  8
M2
 62
     7
100
AcDbLine
 10
31.452544
 20
287.723508
 11
29.684966
 21
289.491086
  0
LINE
  5
3E5
100
AcDbEntity
  8
M2
 62
     7
100
AcDbLine
 10
26.213718
 20
284.752199
 11
26.213718
 21
291.402199
  0
LINE
  5
3E6
100
AcDbEntity
  8
M2
 62
     7
100
AcDbLine
 10
26.713718
 20
291.902199
 11
33.363718
 21
291.902199
  0
LINE
  5
3E7
100
AcDbEntity
  8
M2
 62
     7
100
AcDbLine
 10
33.363718
 20
284.252199
 11
26.713718
 21
284.252199
  0
CIRCLE
  5
3E8
100
AcDbEntity
  8
M2
 62
     7
100
AcDbCircle
 10
30.038718
 20
322.177199
 40
3.0
  0
LINE
  5
3E9
100
AcDbEntity
  8
M2
 62
     7
100
AcDbLine
 10
33.863718
 20
325.502199
 11
33.863718
 21
318.852199
  0
ARC
  5
3EA
100
AcDbEntity
  8
M2
 62
     7
100
AcDbCircle
 10
26.713718
 20
325.502199
 40
0.5
100
AcDbArc
 50
90.0
 51
180.0
  0
ARC
  5
3EB
100
AcDbEntity
  8
M2
 62
     7
100
AcDbCircle
 10
33.363718
 20
318.852199
 40
0.5
100
AcDbArc
 50
270.0
 51
360.0
  0
ARC
  5
3EC
100
AcDbEntity
  8
M2
 62
     7
100
AcDbCircle
 10
26.713718
 20
318.852199
 40
0.5
100
AcDbArc
 50
180.0
 51
270.0
  0
ARC
  5
3ED
100
AcDbEntity
  8
M2
 62
     7
100
AcDbCircle
 10
33.363718
 20
325.502199
 40
0.5
100
AcDbArc
 50
0.0
 51
90.0
  0
LINE
  5
3EE
100
AcDbEntity
  8
M2
 62
     7
100
AcDbLine
 10
30.391997
 20
320.762839
 11
28.624419
 21
322.53054
  0
LINE
  5
3EF
100
AcDbEntity
  8
M2
 62
     7
100
AcDbLine
 10
31.629302
 20
323.767844
 11
28.447661
 21
320.586082
  0
LINE
  5
3F0
100
AcDbEntity
  8
M2
 62
     7
100
AcDbLine
 10
31.452544
 20
321.823508
 11
29.684966
 21
323.591086
  0
LINE
  5
3F1
100
AcDbEntity
  8
M2
 62
     7
100
AcDbLine
 10
26.213718
 20
318.852199
 11
26.213718
 21
325.502199
  0
LINE
  5
3F2
100
AcDbEntity
  8
M2
 62
     7
100
AcDbLine
 10
26.713718
 20
326.002199
 11
33.363718
 21
326.002199
  0
LINE
  5
3F3
100
AcDbEntity
  8
M2
 62
     7
100
AcDbLine
 10
33.363718
 20
318.352199
 11
26.713718
 21
318.352199
  0
CIRCLE
  5
3F4
100
AcDbEntity
  8
M2
 62
     7
100
AcDbCircle
 10
30.038718
 20
280.477199
 40
3.0
  0
LINE
  5
3F5
100
AcDbEntity
  8
M2
 62
     7
100
AcDbLine
 10
33.863718
 20
283.802199
 11
33.863718
 21
277.152199
  0
ARC
  5
3F6
100
AcDbEntity
  8
M2
 62
     7
100
AcDbCircle
 10
26.713718
 20
283.802199
 40
0.5
100
AcDbArc
 50
90.0
 51
180.0
  0
ARC
  5
3F7
100
AcDbEntity
  8
M2
 62
     7
100
AcDbCircle
 10
33.363718
 20
277.152199
 40
0.5
100
AcDbArc
 50
270.0
 51
360.0
  0
ARC
  5
3F8
100
AcDbEntity
  8
M2
 62
     7
100
AcDbCircle
 10
26.713718
 20
277.152199
 40
0.5
100
AcDbArc
 50
180.0
 51
270.0
  0
ARC
  5
3F9
100
AcDbEntity
  8
M2
 62
     7
100
AcDbCircle
 10
33.363718
 20
283.802199
 40
0.5
100
AcDbArc
 50
0.0
 51
90.0
  0
LINE
  5
3FA
100
AcDbEntity
  8
M2
 62
     7
100
AcDbLine
 10
30.391997
 20
279.062839
 11
28.624419
 21
280.830539
  0
LINE
  5
3FB
100
AcDbEntity
  8
M2
 62
     7
100
AcDbLine
 10
31.629302
 20
282.067844
 11
28.447661
 21
278.886081
  0
LINE
  5
3FC
100
AcDbEntity
  8
M2
 62
     7
100
AcDbLine
 10
31.452544
 20
280.123508
 11
29.684966
 21
281.891086
  0
LINE
  5
3FD
100
AcDbEntity
  8
M2
 62
     7
100
AcDbLine
 10
26.213718
 20
277.152199
 11
26.213718
 21
283.802199
  0
LINE
  5
3FE
100
AcDbEntity
  8
M2
 62
     7
100
AcDbLine
 10
26.713718
 20
284.302199
 11
33.363718
 21
284.302199
  0
LINE
  5
3FF
100
AcDbEntity
  8
M2
 62
     7
100
AcDbLine
 10
33.363718
 20
276.652199
 11
26.713718
 21
276.652199
  0
CIRCLE
  5
400
100
AcDbEntity
  8
M2
 62
     7
100
AcDbCircle
 10
30.038718
 20
314.577199
 40
3.0
  0
LINE
  5
401
100
AcDbEntity
  8
M2
 62
     7
100
AcDbLine
 10
33.863718
 20
317.902199
 11
33.863718
 21
311.252199
  0
ARC
  5
402
100
AcDbEntity
  8
M2
 62
     7
100
AcDbCircle
 10
26.713718
 20
317.902199
 40
0.5
100
AcDbArc
 50
90.0
 51
180.0
  0
ARC
  5
403
100
AcDbEntity
  8
M2
 62
     7
100
AcDbCircle
 10
33.363718
 20
311.252199
 40
0.5
100
AcDbArc
 50
270.0
 51
360.0
  0
ARC
  5
404
100
AcDbEntity
  8
M2
 62
     7
100
AcDbCircle
 10
26.713718
 20
311.252199
 40
0.5
100
AcDbArc
 50
180.0
 51
270.0
  0
ARC
  5
405
100
AcDbEntity
  8
M2
 62
     7
100
AcDbCircle
 10
33.363718
 20
317.902199
 40
0.5
100
AcDbArc
 50
0.0
 51
90.0
  0
LINE
  5
406
100
AcDbEntity
  8
M2
 62
     7
100
AcDbLine
 10
30.391997
 20
313.162839
 11
28.624419
 21
314.93054
  0
LINE
  5
407
100
AcDbEntity
  8
M2
 62
     7
100
AcDbLine
 10
31.629302
 20
316.167844
 11
28.447661
 21
312.986082
  0
LINE
  5
408
100
AcDbEntity
  8
M2
 62
     7
100
AcDbLine
 10
31.452544
 20
314.223508
 11
29.684966
 21
315.991086
  0
LINE
  5
409
100
AcDbEntity
  8
M2
 62
     7
100
AcDbLine
 10
26.213718
 20
311.252199
 11
26.213718
 21
317.902199
  0
LINE
  5
40A
100
AcDbEntity
  8
M2
 62
     7
100
AcDbLine
 10
26.713718
 20
318.402199
 11
33.363718
 21
318.402199
  0
LINE
  5
40B
100
AcDbEntity
  8
M2
 62
     7
100
AcDbLine
 10
33.363718
 20
310.752199
 11
26.713718
 21
310.752199
  0
ARC
  5
40C
100
AcDbEntity
  8
M2
 62
     1
100
AcDbCircle
 10
66.613224
 20
262.03221
 40
5.0
100
AcDbArc
 50
168.521659
 51
191.478341
  0
LINE
  5
40D
100
AcDbEntity
  8
M2
 62
     1
100
AcDbLine
 10
59.913225
 20
269.527198
 11
59.713224
 21
269.327198
  0
LINE
  5
40E
100
AcDbEntity
  8
M2
 62
     1
100
AcDbLine
 10
61.513223
 20
269.527198
 11
61.713224
 21
269.327198
  0
LINE
  5
40F
100
AcDbEntity
  8
M2
 62
     1
100
AcDbLine
 10
59.913225
 20
276.602199
 11
59.913225
 21
269.527198
  0
LINE
  5
410
100
AcDbEntity
  8
M2
 62
     1
100
AcDbLine
 10
61.513223
 20
269.527198
 11
61.513223
 21
276.602199
  0
LINE
  5
411
100
AcDbEntity
  8
M2
 62
     1
100
AcDbLine
 10
59.713224
 20
269.327198
 11
59.713224
 21
266.32722
  0
LINE
  5
412
100
AcDbEntity
  8
M2
 62
     1
100
AcDbLine
 10
61.713224
 20
263.027198
 11
61.713224
 21
269.327198
  0
LINE
  5
413
100
AcDbEntity
  8
M2
 62
     7
100
AcDbLine
 10
61.713224
 20
261.027217
 11
61.713224
 21
261.037223
  0
LINE
  5
414
100
AcDbEntity
  8
M2
 62
     1
100
AcDbLine
 10
205.426617
 20
261.028395
 11
205.426617
 21
266.328396
  0
LINE
  5
415
100
AcDbEntity
  8
M2
 62
     1
100
AcDbLine
 10
206.426617
 20
261.028393
 11
206.426617
 21
266.328393
  0
LINE
  5
416
100
AcDbEntity
  8
M2
 62
     1
100
AcDbLine
 10
205.426617
 20
263.028258
 11
206.426617
 21
263.028258
  0
LINE
  5
417
100
AcDbEntity
  8
M2
 62
     1
100
AcDbLine
 10
206.426617
 20
261.528258
 11
205.426617
 21
261.528258
  0
LINE
  5
418
100
AcDbEntity
  8
M2
100
AcDbLine
 10
142.038717
 20
326.9772
 11
136.038717
 21
326.9772
  0
LINE
  5
419
100
AcDbEntity
  8
M2
  6
DASHDOT
100
AcDbLine
 10
139.038717
 20
315.077199
 11
139.038717
 21
314.077199
  0
LINE
  5
41A
100
AcDbEntity
  8
M2
100
AcDbLine
 10
142.038717
 20
326.002199
 11
142.038717
 21
326.9772
  0
LINE
  5
41B
100
AcDbEntity
  8
M2
100
AcDbLine
 10
136.038717
 20
326.9772
 11
136.038717
 21
326.002199
  0
LINE
  5
41C
100
AcDbEntity
  8
M2
100
AcDbLine
 10
128.238717
 20
304.827199
 11
132.538718
 21
304.827199
  0
LINE
  5
41D
100
AcDbEntity
  8
M2
100
AcDbLine
 10
134.038718
 20
330.977199
 11
133.538718
 21
330.977199
  0
LINE
  5
41E
100
AcDbEntity
  8
M2
100
AcDbLine
 10
128.238717
 20
304.827199
 11
128.238717
 21
301.327199
  0
LINE
  5
41F
100
AcDbEntity
  8
M2
100
AcDbLine
 10
132.538718
 20
316.3272
 11
132.538718
 21
304.827199
  0
LINE
  5
420
100
AcDbEntity
  8
M2
  6
DASHDOT
100
AcDbLine
 10
139.038717
 20
322.677199
 11
139.038717
 21
321.677199
  0
LINE
  5
421
100
AcDbEntity
  8
M2
  6
DASHDOT
100
AcDbLine
 10
139.538717
 20
322.177199
 11
138.538717
 21
322.177199
  0
LINE
  5
422
100
AcDbEntity
  8
M2
100
AcDbLine
 10
135.038718
 20
308.527199
 11
135.038718
 21
301.327199
  0
ARC
  5
423
100
AcDbEntity
  8
M2
100
AcDbCircle
 10
134.038717
 20
293.077199
 40
1.0
100
AcDbArc
 50
0.0
 51
90.0
  0
ARC
  5
424
100
AcDbEntity
  8
M2
100
AcDbCircle
 10
133.538717
 20
280.277199
 40
1.0
100
AcDbArc
 50
180.0
 51
270.0
  0
ARC
  5
425
100
AcDbEntity
  8
M2
100
AcDbCircle
 10
144.038717
 20
282.277199
 40
1.0
100
AcDbArc
 50
270.0
 51
360.0
  0
ARC
  5
426
100
AcDbEntity
  8
M2
100
AcDbCircle
 10
134.038717
 20
280.277199
 40
1.0
100
AcDbArc
 50
270.0
 51
360.0
  0
ARC
  5
427
100
AcDbEntity
  8
M2
100
AcDbCircle
 10
144.038717
 20
282.277199
 40
1.0
100
AcDbArc
 50
180.0
 51
270.0
  0
LINE
  5
428
100
AcDbEntity
  8
M2
100
AcDbLine
 10
135.038718
 20
308.527199
 11
135.038718
 21
308.577199
  0
LINE
  5
429
100
AcDbEntity
  8
M2
  6
DASHDOT
100
AcDbLine
 10
139.538717
 20
314.577199
 11
138.538717
 21
314.577199
  0
LINE
  5
42A
100
AcDbEntity
  8
M2
100
AcDbLine
 10
134.038718
 20
308.577199
 11
143.038717
 21
308.577199
  0
LINE
  5
42B
100
AcDbEntity
  8
M2
100
AcDbLine
 10
132.538718
 20
329.977199
 11
132.538718
 21
316.477199
  0
LINE
  5
42C
100
AcDbEntity
  8
M2
100
AcDbLine
 10
143.038717
 20
310.5772
 11
135.038718
 21
310.5772
  0
LINE
  5
42D
100
AcDbEntity
  8
M2
  6
DASHDOT
100
AcDbLine
 10
139.538717
 20
288.077199
 11
138.538717
 21
288.077199
  0
ARC
  5
42E
100
AcDbEntity
  8
M2
100
AcDbCircle
 10
133.538717
 20
322.377199
 40
1.0
100
AcDbArc
 50
90.0
 51
180.0
  0
LINE
  5
42F
100
AcDbEntity
  8
M2
100
AcDbLine
 10
135.038718
 20
293.077199
 11
135.038718
 21
272.677199
  0
LINE
  5
430
100
AcDbEntity
  8
M2
100
AcDbLine
 10
134.038718
 20
286.327199
 11
132.538718
 21
286.327199
  0
LINE
  5
431
100
AcDbEntity
  8
M2
100
AcDbLine
 10
141.938717
 20
301.327199
 11
141.938717
 21
294.127199
  0
LINE
  5
432
100
AcDbEntity
  8
M2
100
AcDbLine
 10
136.038717
 20
301.327199
 11
136.038717
 21
294.127199
  0
ARC
  5
433
100
AcDbEntity
  8
M2
100
AcDbCircle
 10
144.038717
 20
327.977199
 40
1.0
100
AcDbArc
 50
90.0
 51
180.0
  0
ARC
  5
434
100
AcDbEntity
  8
M2
100
AcDbCircle
 10
144.038717
 20
327.977199
 40
1.0
100
AcDbArc
 50
0.0
 51
90.0
  0
ARC
  5
435
100
AcDbEntity
  8
M2
100
AcDbCircle
 10
133.538717
 20
329.977199
 40
1.0
100
AcDbArc
 50
90.0
 51
180.0
  0
LINE
  5
436
100
AcDbEntity
  8
M2
100
AcDbLine
 10
135.038718
 20
309.577199
 11
135.038718
 21
329.977199
  0
LINE
  5
437
100
AcDbEntity
  8
M2
100
AcDbLine
 10
134.038718
 20
316.3272
 11
132.538718
 21
316.3272
  0
LINE
  5
438
100
AcDbEntity
  8
M2
100
AcDbLine
 10
136.038717
 20
301.327199
 11
136.038717
 21
308.527199
  0
LINE
  5
439
100
AcDbEntity
  8
M2
100
AcDbLine
 10
141.938717
 20
301.327199
 11
141.938717
 21
308.527199
  0
LINE
  5
43A
100
AcDbEntity
  8
M2
100
AcDbLine
 10
140.938717
 20
308.527199
 11
140.938717
 21
301.327199
  0
LINE
  5
43B
100
AcDbEntity
  8
M2
100
AcDbLine
 10
132.538718
 20
286.327199
 11
132.538718
 21
297.827199
  0
ARC
  5
43C
100
AcDbEntity
  8
M2
100
AcDbCircle
 10
134.038717
 20
329.977199
 40
1.0
100
AcDbArc
 50
0.0
 51
90.0
  0
LINE
  5
43D
100
AcDbEntity
  8
M2
100
AcDbLine
 10
140.938717
 20
294.127199
 11
140.938717
 21
301.327199
  0
LINE
  5
43E
100
AcDbEntity
  8
M2
100
AcDbLine
 10
134.038718
 20
323.377199
 11
133.538718
 21
323.377199
  0
LINE
  5
43F
100
AcDbEntity
  8
M2
100
AcDbLine
 10
134.038718
 20
308.577199
 11
134.038718
 21
316.477199
  0
LINE
  5
440
100
AcDbEntity
  8
M2
  6
DASHDOT
100
AcDbLine
 10
139.538717
 20
280.477199
 11
138.538717
 21
280.477199
  0
LINE
  5
441
100
AcDbEntity
  8
M2
  6
DASHDOT
100
AcDbLine
 10
139.038717
 20
279.977199
 11
139.038717
 21
280.977199
  0
LINE
  5
442
100
AcDbEntity
  8
M2
  6
DASHDOT
100
AcDbLine
 10
139.038717
 20
287.577199
 11
139.038717
 21
288.577199
  0
ARC
  5
443
100
AcDbEntity
  8
M2
100
AcDbCircle
 10
134.038717
 20
309.577199
 40
1.0
100
AcDbArc
 50
270.0
 51
360.0
  0
ARC
  5
444
100
AcDbEntity
  8
M2
100
AcDbCircle
 10
134.038717
 20
322.377199
 40
1.0
100
AcDbArc
 50
0.0
 51
90.0
  0
LINE
  5
445
100
AcDbEntity
  8
M2
100
AcDbLine
 10
134.038718
 20
294.077199
 11
134.038718
 21
286.177199
  0
LINE
  5
446
100
AcDbEntity
  8
M2
100
AcDbLine
 10
134.038718
 20
279.2772
 11
133.538718
 21
279.2772
  0
LINE
  5
447
100
AcDbEntity
  8
M2
100
AcDbLine
 10
145.038717
 20
301.327199
 11
145.038717
 21
274.677199
  0
LINE
  5
448
100
AcDbEntity
  8
M2
100
AcDbLine
 10
128.238717
 20
297.827199
 11
128.238717
 21
301.327199
  0
LINE
  5
449
100
AcDbEntity
  8
M2
100
AcDbLine
 10
135.038718
 20
318.3772
 11
143.038717
 21
318.3772
  0
LINE
  5
44A
100
AcDbEntity
  8
M2
100
AcDbLine
 10
143.038717
 20
327.977199
 11
143.038717
 21
301.327199
  0
LINE
  5
44B
100
AcDbEntity
  8
M2
100
AcDbLine
 10
132.538718
 20
316.477199
 11
134.038718
 21
316.477199
  0
LINE
  5
44C
100
AcDbEntity
  8
M2
  6
DASHDOT
 62
     7
100
AcDbLine
 10
22.038718
 20
301.327199
 11
147.038717
 21
301.327199
  0
ARC
  5
44D
100
AcDbEntity
  8
M2
100
AcDbCircle
 10
144.038717
 20
320.377199
 40
1.0
100
AcDbArc
 50
0.0
 51
90.0
  0
LINE
  5
44E
100
AcDbEntity
  8
M2
100
AcDbLine
 10
135.038718
 20
294.127199
 11
135.038718
 21
301.327199
  0
LINE
  5
44F
100
AcDbEntity
  8
M2
100
AcDbLine
 10
135.557594
 20
325.9772
 11
135.038718
 21
325.9772
  0
ARC
  5
450
100
AcDbEntity
  8
M2
100
AcDbCircle
 10
144.038717
 20
320.377199
 40
1.0
100
AcDbArc
 50
90.0
 51
180.0
  0
LINE
  5
451
100
AcDbEntity
  8
M2
100
AcDbLine
 10
143.038717
 20
325.9772
 11
142.519841
 21
325.9772
  0
LINE
  5
452
100
AcDbEntity
  8
M2
100
AcDbLine
 10
135.038718
 20
294.127199
 11
135.038718
 21
294.077199
  0
ARC
  5
453
100
AcDbEntity
  8
M2
100
AcDbCircle
 10
133.538717
 20
272.677199
 40
1.0
100
AcDbArc
 50
180.0
 51
270.0
  0
LINE
  5
454
100
AcDbEntity
  8
M2
100
AcDbLine
 10
143.038717
 20
292.077199
 11
135.038718
 21
292.077199
  0
LINE
  5
455
100
AcDbEntity
  8
M2
100
AcDbLine
 10
132.538718
 20
272.6772
 11
132.538718
 21
286.177199
  0
LINE
  5
456
100
AcDbEntity
  8
M2
100
AcDbLine
 10
134.038718
 20
294.077199
 11
143.038717
 21
294.077199
  0
LINE
  5
457
100
AcDbEntity
  8
M2
100
AcDbLine
 10
143.038717
 20
276.677199
 11
142.519841
 21
276.677199
  0
ARC
  5
458
100
AcDbEntity
  8
M2
100
AcDbCircle
 10
144.038717
 20
274.677199
 40
1.0
100
AcDbArc
 50
270.0
 51
360.0
  0
LINE
  5
459
100
AcDbEntity
  8
M2
100
AcDbLine
 10
145.038717
 20
301.327199
 11
145.038717
 21
327.9772
  0
ARC
  5
45A
100
AcDbEntity
  8
M2
100
AcDbCircle
 10
144.038717
 20
274.677199
 40
1.0
100
AcDbArc
 50
180.0
 51
270.0
  0
LINE
  5
45B
100
AcDbEntity
  8
M2
100
AcDbLine
 10
143.038717
 20
274.677199
 11
143.038717
 21
301.327199
  0
LINE
  5
45C
100
AcDbEntity
  8
M2
100
AcDbLine
 10
135.038718
 20
284.277199
 11
143.038717
 21
284.277199
  0
LINE
  5
45D
100
AcDbEntity
  8
M2
100
AcDbLine
 10
132.538718
 20
286.177199
 11
134.038718
 21
286.177199
  0
LINE
  5
45E
100
AcDbEntity
  8
M2
100
AcDbLine
 10
135.557594
 20
276.677199
 11
135.038718
 21
276.677199
  0
LINE
  5
45F
100
AcDbEntity
  8
M2
100
AcDbLine
 10
142.038717
 20
276.652199
 11
142.038717
 21
275.677199
  0
ARC
  5
460
100
AcDbEntity
  8
M2
100
AcDbCircle
 10
134.038717
 20
272.677199
 40
1.0
100
AcDbArc
 50
270.0
 51
360.0
  0
LINE
  5
461
100
AcDbEntity
  8
M2
100
AcDbLine
 10
142.038717
 20
275.677199
 11
136.038717
 21
275.677199
  0
LINE
  5
462
100
AcDbEntity
  8
M2
100
AcDbLine
 10
134.038718
 20
271.6772
 11
133.538718
 21
271.6772
  0
LINE
  5
463
100
AcDbEntity
  8
M2
100
AcDbLine
 10
128.238717
 20
297.827199
 11
132.538718
 21
297.827199
  0
LINE
  5
464
100
AcDbEntity
  8
M2
100
AcDbLine
 10
136.038717
 20
275.677199
 11
136.038717
 21
276.652199
  0
CIRCLE
  5
465
100
AcDbEntity
  8
M2
 62
     7
100
AcDbCircle
 10
139.038717
 20
288.077199
 40
3.0
  0
LINE
  5
466
100
AcDbEntity
  8
M2
 62
     7
100
AcDbLine
 10
135.213717
 20
291.402199
 11
135.213717
 21
284.752199
  0
ARC
  5
467
100
AcDbEntity
  8
M2
 62
     7
100
AcDbCircle
 10
142.363717
 20
291.402199
 40
0.5
100
AcDbArc
 50
0.0
 51
90.0
  0
ARC
  5
468
100
AcDbEntity
  8
M2
 62
     7
100
AcDbCircle
 10
135.713717
 20
284.752199
 40
0.5
100
AcDbArc
 50
180.0
 51
270.0
  0
ARC
  5
469
100
AcDbEntity
  8
M2
 62
     7
100
AcDbCircle
 10
142.363717
 20
284.752199
 40
0.5
100
AcDbArc
 50
270.0
 51
360.0
  0
ARC
  5
46A
100
AcDbEntity
  8
M2
 62
     7
100
AcDbCircle
 10
135.713717
 20
291.402199
 40
0.5
100
AcDbArc
 50
90.0
 51
180.0
  0
LINE
  5
46B
100
AcDbEntity
  8
M2
 62
     7
100
AcDbLine
 10
138.685438
 20
286.662839
 11
140.453016
 21
288.430539
  0
LINE
  5
46C
100
AcDbEntity
  8
M2
 62
     7
100
AcDbLine
 10
137.448134
 20
289.667844
 11
140.629774
 21
286.486081
  0
LINE
  5
46D
100
AcDbEntity
  8
M2
 62
     7
100
AcDbLine
 10
137.624891
 20
287.723508
 11
139.39247
 21
289.491086
  0
LINE
  5
46E
100
AcDbEntity
  8
M2
 62
     7
100
AcDbLine
 10
142.863717
 20
284.752199
 11
142.863717
 21
291.402199
  0
LINE
  5
46F
100
AcDbEntity
  8
M2
 62
     7
100
AcDbLine
 10
142.363717
 20
291.902199
 11
135.713717
 21
291.902199
  0
LINE
  5
470
100
AcDbEntity
  8
M2
 62
     7
100
AcDbLine
 10
135.713717
 20
284.252199
 11
142.363717
 21
284.252199
  0
CIRCLE
  5
471
100
AcDbEntity
  8
M2
 62
     7
100
AcDbCircle
 10
139.038717
 20
322.177199
 40
3.0
  0
LINE
  5
472
100
AcDbEntity
  8
M2
 62
     7
100
AcDbLine
 10
135.213717
 20
325.502199
 11
135.213717
 21
318.852199
  0
ARC
  5
473
100
AcDbEntity
  8
M2
 62
     7
100
AcDbCircle
 10
142.363717
 20
325.502199
 40
0.5
100
AcDbArc
 50
0.0
 51
90.0
  0
ARC
  5
474
100
AcDbEntity
  8
M2
 62
     7
100
AcDbCircle
 10
135.713717
 20
318.852199
 40
0.5
100
AcDbArc
 50
180.0
 51
270.0
  0
ARC
  5
475
100
AcDbEntity
  8
M2
 62
     7
100
AcDbCircle
 10
142.363717
 20
318.852199
 40
0.5
100
AcDbArc
 50
270.0
 51
360.0
  0
ARC
  5
476
100
AcDbEntity
  8
M2
 62
     7
100
AcDbCircle
 10
135.713717
 20
325.502199
 40
0.5
100
AcDbArc
 50
90.0
 51
180.0
  0
LINE
  5
477
100
AcDbEntity
  8
M2
 62
     7
100
AcDbLine
 10
138.685438
 20
320.762839
 11
140.453016
 21
322.53054
  0
LINE
  5
478
100
AcDbEntity
  8
M2
 62
     7
100
AcDbLine
 10
137.448134
 20
323.767844
 11
140.629774
 21
320.586082
  0
LINE
  5
479
100
AcDbEntity
  8
M2
 62
     7
100
AcDbLine
 10
137.624891
 20
321.823508
 11
139.39247
 21
323.591086
  0
LINE
  5
47A
100
AcDbEntity
  8
M2
 62
     7
100
AcDbLine
 10
142.863717
 20
318.852199
 11
142.863717
 21
325.502199
  0
LINE
  5
47B
100
AcDbEntity
  8
M2
 62
     7
100
AcDbLine
 10
142.363717
 20
326.002199
 11
135.713717
 21
326.002199
  0
LINE
  5
47C
100
AcDbEntity
  8
M2
 62
     7
100
AcDbLine
 10
135.713717
 20
318.352199
 11
142.363717
 21
318.352199
  0
CIRCLE
  5
47D
100
AcDbEntity
  8
M2
 62
     7
100
AcDbCircle
 10
139.038717
 20
280.477199
 40
3.0
  0
LINE
  5
47E
100
AcDbEntity
  8
M2
 62
     7
100
AcDbLine
 10
135.213717
 20
283.802199
 11
135.213717
 21
277.152199
  0
ARC
  5
47F
100
AcDbEntity
  8
M2
 62
     7
100
AcDbCircle
 10
142.363717
 20
283.802199
 40
0.5
100
AcDbArc
 50
0.0
 51
90.0
  0
ARC
  5
480
100
AcDbEntity
  8
M2
 62
     7
100
AcDbCircle
 10
135.713717
 20
277.152199
 40
0.5
100
AcDbArc
 50
180.0
 51
270.0
  0
ARC
  5
481
100
AcDbEntity
  8
M2
 62
     7
100
AcDbCircle
 10
142.363717
 20
277.152199
 40
0.5
100
AcDbArc
 50
270.0
 51
360.0
  0
ARC
  5
482
100
AcDbEntity
  8
M2
 62
     7
100
AcDbCircle
 10
135.713717
 20
283.802199
 40
0.5
100
AcDbArc
 50
90.0
 51
180.0
  0
LINE
  5
483
100
AcDbEntity
  8
M2
 62
     7
100
AcDbLine
 10
138.685438
 20
279.062839
 11
140.453016
 21
280.830539
  0
LINE
  5
484
100
AcDbEntity
  8
M2
 62
     7
100
AcDbLine
 10
137.448134
 20
282.067844
 11
140.629774
 21
278.886081
  0
LINE
  5
485
100
AcDbEntity
  8
M2
 62
     7
100
AcDbLine
 10
137.624891
 20
280.123508
 11
139.39247
 21
281.891086
  0
LINE
  5
486
100
AcDbEntity
  8
M2
 62
     7
100
AcDbLine
 10
142.863717
 20
277.152199
 11
142.863717
 21
283.802199
  0
LINE
  5
487
100
AcDbEntity
  8
M2
 62
     7
100
AcDbLine
 10
142.363717
 20
284.302199
 11
135.713717
 21
284.302199
  0
LINE
  5
488
100
AcDbEntity
  8
M2
 62
     7
100
AcDbLine
 10
135.713717
 20
276.652199
 11
142.363717
 21
276.652199
  0
CIRCLE
  5
489
100
AcDbEntity
  8
M2
 62
     7
100
AcDbCircle
 10
139.038717
 20
314.577199
 40
3.0
  0
LINE
  5
48A
100
AcDbEntity
  8
M2
 62
     7
100
AcDbLine
 10
135.213717
 20
317.902199
 11
135.213717
 21
311.252199
  0
ARC
  5
48B
100
AcDbEntity
  8
M2
 62
     7
100
AcDbCircle
 10
142.363717
 20
317.902199
 40
0.5
100
AcDbArc
 50
0.0
 51
90.0
  0
ARC
  5
48C
100
AcDbEntity
  8
M2
 62
     7
100
AcDbCircle
 10
135.713717
 20
311.252199
 40
0.5
100
AcDbArc
 50
180.0
 51
270.0
  0
ARC
  5
48D
100
AcDbEntity
  8
M2
 62
     7
100
AcDbCircle
 10
142.363717
 20
311.252199
 40
0.5
100
AcDbArc
 50
270.0
 51
360.0
  0
ARC
  5
48E
100
AcDbEntity
  8
M2
 62
     7
100
AcDbCircle
 10
135.713717
 20
317.902199
 40
0.5
100
AcDbArc
 50
90.0
 51
180.0
  0
LINE
  5
48F
100
AcDbEntity
  8
M2
 62
     7
100
AcDbLine
 10
138.685438
 20
313.162839
 11
140.453016
 21
314.93054
  0
LINE
  5
490
100
AcDbEntity
  8
M2
 62
     7
100
AcDbLine
 10
137.448134
 20
316.167844
 11
140.629774
 21
312.986082
  0
LINE
  5
491
100
AcDbEntity
  8
M2
 62
     7
100
AcDbLine
 10
137.624891
 20
314.223508
 11
139.39247
 21
315.991086
  0
LINE
  5
492
100
AcDbEntity
  8
M2
 62
     7
100
AcDbLine
 10
142.863717
 20
311.252199
 11
142.863717
 21
317.902199
  0
LINE
  5
493
100
AcDbEntity
  8
M2
 62
     7
100
AcDbLine
 10
142.363717
 20
318.402199
 11
135.713717
 21
318.402199
  0
LINE
  5
494
100
AcDbEntity
  8
M2
 62
     7
100
AcDbLine
 10
135.713717
 20
310.752199
 11
142.363717
 21
310.752199
  0
LINE
  5
495
100
AcDbEntity
  8
M2
100
AcDbLine
 10
261.926553
 20
258.928439
 11
258.926554
 21
258.928439
  0
LINE
  5
496
100
AcDbEntity
  8
M2
100
AcDbLine
 10
258.926554
 20
258.928439
 11
258.926554
 21
255.228427
  0
LINE
  5
497
100
AcDbEntity
  8
M2
100
AcDbLine
 10
258.926554
 20
257.228427
 11
261.926553
 21
257.228427
  0
ARC
  5
498
100
AcDbEntity
  8
M2
100
AcDbCircle
 10
253.426554
 20
227.228443
 40
1.0
100
AcDbArc
 50
270.0
 51
360.0
  0
LINE
  5
499
100
AcDbEntity
  8
M2
100
AcDbLine
 10
254.426554
 20
230.728443
 11
254.426554
 21
226.728443
  0
LINE
  5
49A
100
AcDbEntity
  8
M2
100
AcDbLine
 10
261.926553
 20
258.928439
 11
261.926553
 21
232.228443
  0
LINE
  5
49B
100
AcDbEntity
  8
M2
100
AcDbLine
 10
260.926553
 20
231.228443
 11
254.926554
 21
231.228443
  0
ARC
  5
49C
100
AcDbEntity
  8
M2
100
AcDbCircle
 10
260.926553
 20
232.228443
 40
1.0
100
AcDbArc
 50
270.0
 51
360.0
  0
LINE
  5
49D
100
AcDbEntity
  8
M2
100
AcDbLine
 10
253.426554
 20
226.228443
 11
237.426586
 21
226.228443
  0
LINE
  5
49E
100
AcDbEntity
  8
M2
100
AcDbLine
 10
242.32803
 20
224.728457
 11
237.024654
 21
224.728457
  0
LINE
  5
49F
100
AcDbEntity
  8
M2
100
AcDbLine
 10
187.926586
 20
255.228427
 11
192.42654
 21
255.228427
  0
LINE
  5
4A0
100
AcDbEntity
  8
M2
100
AcDbLine
 10
187.926586
 20
255.228427
 11
187.926586
 21
240.228443
  0
ARC
  5
4A1
100
AcDbEntity
  8
M2
100
AcDbCircle
 10
242.32803
 20
228.728443
 40
4.0
100
AcDbArc
 50
270.0
 51
321.318
  0
LINE
  5
4A2
100
AcDbEntity
  8
M2
100
AcDbLine
 10
221.726616
 20
255.228427
 11
258.926554
 21
255.228427
  0
ARC
  5
4A3
100
AcDbEntity
  8
M2
100
AcDbCircle
 10
189.926586
 20
255.228427
 40
0.9
100
AcDbArc
 50
180.0
 51
359.999939
  0
LINE
  5
4A4
100
AcDbEntity
  8
M2
100
AcDbLine
 10
189.726589
 20
244.228439
 11
189.726589
 21
240.228443
  0
LINE
  5
4A5
100
AcDbEntity
  8
M2
100
AcDbLine
 10
187.926586
 20
244.228439
 11
189.726589
 21
244.228439
  0
LINE
  5
4A6
100
AcDbEntity
  8
M2
100
AcDbLine
 10
191.32661
 20
244.228442
 11
191.326595
 21
240.228443
  0
LINE
  5
4A7
100
AcDbEntity
  8
M2
100
AcDbLine
 10
193.326595
 20
235.228443
 11
193.326595
 21
244.228427
  0
LINE
  5
4A8
100
AcDbEntity
  8
M2
100
AcDbLine
 10
187.926586
 20
240.228443
 11
193.326595
 21
240.228443
  0
LINE
  5
4A9
100
AcDbEntity
  8
M2
100
AcDbLine
 10
199.32661
 20
229.228443
 11
204.426601
 21
229.228443
  0
LINE
  5
4AA
100
AcDbEntity
  8
M2
100
AcDbLine
 10
206.297191
 20
227.228443
 11
196.226604
 21
227.228443
  0
LINE
  5
4AB
100
AcDbEntity
  8
M2
100
AcDbLine
 10
190.226604
 20
240.228443
 11
190.226604
 21
233.228443
  0
ARC
  5
4AC
100
AcDbEntity
  8
M2
100
AcDbCircle
 10
196.226604
 20
233.228443
 40
6.0
100
AcDbArc
 50
179.999982
 51
270.0
  0
ARC
  5
4AD
100
AcDbEntity
  8
M2
100
AcDbCircle
 10
254.926554
 20
230.728443
 40
0.5
100
AcDbArc
 50
90.0
 51
179.999891
  0
LINE
  5
4AE
100
AcDbEntity
  8
M2
100
AcDbLine
 10
237.426586
 20
226.228489
 11
234.464931
 21
215.175509
  0
LINE
  5
4AF
100
AcDbEntity
  8
M2
100
AcDbLine
 10
217.740124
 20
210.728442
 11
228.669384
 21
210.728442
  0
LINE
  5
4B0
100
AcDbEntity
  8
M2
100
AcDbLine
 10
219.426617
 20
213.228442
 11
230.873913
 21
213.228442
  0
ARC
  5
4B1
100
AcDbEntity
  8
M2
100
AcDbCircle
 10
230.873913
 20
217.228442
 40
4.0
100
AcDbArc
 50
270.0
 51
344.999779
  0
ARC
  5
4B2
100
AcDbEntity
  8
M2
100
AcDbCircle
 10
228.669384
 20
216.728442
 40
6.0
100
AcDbArc
 50
270.0
 51
344.999849
  0
LINE
  5
4B3
100
AcDbEntity
  8
M2
100
AcDbLine
 10
213.426601
 20
216.728457
 11
213.426601
 21
224.228442
  0
ARC
  5
4B4
100
AcDbEntity
  8
M2
100
AcDbCircle
 10
219.426601
 20
219.228442
 40
6.0
100
AcDbArc
 50
179.999854
 51
270.0
  0
ARC
  5
4B5
100
AcDbEntity
  8
M2
100
AcDbCircle
 10
219.426601
 20
216.728457
 40
6.0
100
AcDbArc
 50
179.999854
 51
270.0
  0
LINE
  5
4B6
100
AcDbEntity
  8
M2
100
AcDbLine
 10
208.426601
 20
227.728443
 11
208.426601
 21
231.228428
  0
LINE
  5
4B7
100
AcDbEntity
  8
M2
100
AcDbLine
 10
205.426601
 20
227.228443
 11
205.426601
 21
231.228428
  0
LINE
  5
4B8
100
AcDbEntity
  8
M2
100
AcDbLine
 10
205.426601
 20
231.228428
 11
208.426601
 21
231.228428
  0
ARC
  5
4B9
100
AcDbEntity
  8
M2
100
AcDbCircle
 10
204.426601
 20
230.228443
 40
1.0
100
AcDbArc
 50
270.0
 51
360.0
  0
LINE
  5
4BA
100
AcDbEntity
  8
M2
100
AcDbLine
 10
187.926586
 20
244.228442
 11
193.326595
 21
244.228442
  0
LINE
  5
4BB
100
AcDbEntity
  8
M2
100
AcDbLine
 10
187.926586
 20
253.12842
 11
188.926708
 21
253.12842
  0
LINE
  5
4BC
100
AcDbEntity
  8
M2
100
AcDbLine
 10
188.926586
 20
245.928424
 11
194.626598
 21
245.928424
  0
ARC
  5
4BD
100
AcDbEntity
  8
M2
100
AcDbCircle
 10
195.626598
 20
245.928424
 40
1.0
100
AcDbArc
 50
90.0
 51
180.0
  0
ARC
  5
4BE
100
AcDbEntity
  8
M2
100
AcDbCircle
 10
195.626598
 20
245.928424
 40
1.0
100
AcDbArc
 50
90.0
 51
180.0
  0
LINE
  5
4BF
100
AcDbEntity
  8
M2
100
AcDbLine
 10
188.926586
 20
244.728442
 11
188.926586
 21
253.12842
  0
ARC
  5
4C0
100
AcDbEntity
  8
M2
100
AcDbCircle
 10
199.326595
 20
235.228443
 40
6.0
100
AcDbArc
 50
179.999982
 51
270.0
  0
LINE
  5
4C1
100
AcDbEntity
  8
M2
100
AcDbLine
 10
211.926601
 20
250.228427
 11
211.926601
 21
252.228516
  0
LINE
  5
4C2
100
AcDbEntity
  8
M2
100
AcDbLine
 10
211.926601
 20
251.228427
 11
221.926586
 21
251.228427
  0
LINE
  5
4C3
100
AcDbEntity
  8
M2
100
AcDbLine
 10
221.926586
 20
251.228427
 11
221.926586
 21
255.228427
  0
LINE
  5
4C4
100
AcDbEntity
  8
M2
100
AcDbLine
 10
208.926601
 20
251.228427
 11
208.926601
 21
250.228427
  0
LINE
  5
4C5
100
AcDbEntity
  8
M2
100
AcDbLine
 10
208.926601
 20
250.228427
 11
211.926601
 21
250.228427
  0
LINE
  5
4C6
100
AcDbEntity
  8
M2
100
AcDbLine
 10
203.926586
 20
251.228427
 11
208.926601
 21
251.228427
  0
LINE
  5
4C7
100
AcDbEntity
  8
M2
100
AcDbLine
 10
203.926586
 20
250.927661
 11
203.926586
 21
251.228427
  0
LINE
  5
4C8
100
AcDbEntity
  8
M2
100
AcDbLine
 10
200.622448
 20
247.240685
 11
203.789577
 21
250.583804
  0
ARC
  5
4C9
100
AcDbEntity
  8
M2
100
AcDbCircle
 10
199.896496
 20
247.928424
 40
1.0
100
AcDbArc
 50
270.0
 51
316.548838
  0
ARC
  5
4CA
100
AcDbEntity
  8
M2
100
AcDbCircle
 10
203.426586
 20
250.927661
 40
0.5
100
AcDbArc
 50
316.55055
 51
359.999891
  0
ARC
  5
4CB
100
AcDbEntity
  8
M2
100
AcDbCircle
 10
189.426586
 20
244.728442
 40
0.5
100
AcDbArc
 50
180.0
 51
270.0
  0
LINE
  5
4CC
100
AcDbEntity
  8
M2
100
AcDbLine
 10
211.126522
 20
218.228442
 11
211.126537
 21
226.028436
  0
LINE
  5
4CD
100
AcDbEntity
  8
M2
100
AcDbLine
 10
211.126522
 20
218.228442
 11
211.944561
 21
215.17557
  0
ARC
  5
4CE
100
AcDbEntity
  8
M2
100
AcDbCircle
 10
217.740108
 20
216.728427
 40
6.0
100
AcDbArc
 50
194.999447
 51
270.0
  0
LINE
  5
4CF
100
AcDbEntity
  8
M2
100
AcDbLine
 10
217.740093
 20
210.728457
 11
223.628872
 21
210.728457
  0
LINE
  5
4D0
100
AcDbEntity
  8
M2
100
AcDbLine
 10
212.92651
 20
224.228442
 11
209.419308
 21
227.73563
  0
ARC
  5
4D1
100
AcDbEntity
  8
M2
100
AcDbCircle
 10
209.065761
 20
227.382084
 40
0.5
100
AcDbArc
 50
44.999382
 51
105.000039
  0
LINE
  5
4D2
100
AcDbEntity
  8
M2
100
AcDbLine
 10
208.936352
 20
227.865039
 11
206.814815
 21
227.296589
  0
ARC
  5
4D3
100
AcDbEntity
  8
M2
100
AcDbCircle
 10
206.297191
 20
229.228428
 40
2.0
100
AcDbArc
 50
270.0
 51
285.00001
  0
LINE
  5
4D4
100
AcDbEntity
  8
M2
100
AcDbLine
 10
213.426601
 20
224.228442
 11
212.92651
 21
224.228442
  0
LINE
  5
4D5
100
AcDbEntity
  8
M2
100
AcDbLine
 10
195.214988
 20
246.928424
 11
199.896496
 21
246.928424
  0
LINE
  5
4D6
100
AcDbEntity
  8
M2
100
AcDbLine
 10
258.626573
 20
257.728293
 11
258.62657
 21
255.228293
  0
LINE
  5
4D7
100
AcDbEntity
  8
M2
100
AcDbLine
 10
202.626675
 20
257.72835
 11
258.626583
 21
257.728289
  0
LINE
  5
4D8
100
AcDbEntity
  8
M2
100
AcDbLine
 10
251.426601
 20
271.82828
 11
255.226553
 21
271.82828
  0
LINE
  5
4D9
100
AcDbEntity
  8
M2
100
AcDbLine
 10
250.926601
 20
271.328265
 11
250.926617
 21
263.728289
  0
LINE
  5
4DA
100
AcDbEntity
  8
M2
100
AcDbLine
 10
255.226553
 20
268.528292
 11
254.426632
 21
268.528292
  0
LINE
  5
4DB
100
AcDbEntity
  8
M2
100
AcDbLine
 10
254.926601
 20
266.328292
 11
256.426617
 21
266.328292
  0
LINE
  5
4DC
100
AcDbEntity
  8
M2
100
AcDbLine
 10
256.926601
 20
265.828292
 11
256.926586
 21
257.728289
  0
LINE
  5
4DD
100
AcDbEntity
  8
M2
100
AcDbLine
 10
250.926601
 20
266.328311
 11
248.239117
 21
257.72835
  0
ARC
  5
4DE
100
AcDbEntity
  8
M2
100
AcDbCircle
 10
254.926596
 20
267.328301
 40
1.0
100
AcDbArc
 50
180.0
 51
270.0
  0
LINE
  5
4DF
100
AcDbEntity
  8
M2
100
AcDbLine
 10
253.926617
 20
268.028292
 11
253.926601
 21
267.328292
  0
LINE
  5
4E0
100
AcDbEntity
  8
M2
100
AcDbLine
 10
192.926632
 20
260.428429
 11
195.426662
 21
260.428424
  0
LINE
  5
4E1
100
AcDbEntity
  8
M2
100
AcDbLine
 10
192.926739
 20
260.428429
 11
192.926739
 21
256.728417
  0
LINE
  5
4E2
100
AcDbEntity
  8
M2
100
AcDbLine
 10
195.426632
 20
256.728411
 11
191.249462
 21
256.728411
  0
LINE
  5
4E3
100
AcDbEntity
  8
M2
100
AcDbLine
 10
189.926586
 20
258.228423
 11
189.22662
 21
258.228423
  0
ARC
  5
4E4
100
AcDbEntity
  8
M2
100
AcDbCircle
 10
189.926586
 20
255.228423
 40
2.0
100
AcDbArc
 50
0.0
 51
180.000036
  0
LINE
  5
4E5
100
AcDbEntity
  8
M2
100
AcDbLine
 10
188.726604
 20
256.828431
 11
188.726604
 21
257.728425
  0
LINE
  5
4E6
100
AcDbEntity
  8
M2
100
AcDbLine
 10
189.926586
 20
258.228423
 11
191.249462
 21
256.728419
  0
ARC
  5
4E7
100
AcDbEntity
  8
M2
100
AcDbCircle
 10
189.22662
 20
257.728423
 40
0.5
100
AcDbArc
 50
90.0
 51
180.0
  0
LINE
  5
4E8
100
AcDbEntity
  8
M2
100
AcDbLine
 10
189.926586
 20
257.228423
 11
188.726604
 21
257.228425
  0
ARC
  5
4E9
100
AcDbEntity
  8
M2
100
AcDbCircle
 10
189.926556
 20
254.928435
 40
1.199999
100
AcDbArc
 50
14.476158
 51
165.522385
  0
LINE
  5
4EA
100
AcDbEntity
  8
M2
100
AcDbLine
 10
240.926601
 20
255.22832
 11
221.426632
 21
255.22832
  0
LINE
  5
4EB
100
AcDbEntity
  8
M2
100
AcDbLine
 10
188.926708
 20
246.428439
 11
194.426708
 21
246.428427
  0
LINE
  5
4EC
100
AcDbEntity
  8
M2
100
AcDbLine
 10
194.926708
 20
246.928439
 11
200.126598
 21
246.928408
  0
ARC
  5
4ED
100
AcDbEntity
  8
M2
100
AcDbCircle
 10
194.926708
 20
246.428427
 40
0.5
100
AcDbArc
 50
90.0
 51
179.999891
  0
LINE
  5
4EE
100
AcDbEntity
  8
M2
100
AcDbLine
 10
221.426632
 20
252.228364
 11
208.926601
 21
252.228388
  0
LINE
  5
4EF
100
AcDbEntity
  8
M2
100
AcDbLine
 10
221.426632
 20
252.22835
 11
221.426632
 21
255.22832
  0
LINE
  5
4F0
100
AcDbEntity
  8
M2
100
AcDbLine
 10
202.626675
 20
253.228396
 11
188.926708
 21
253.228427
  0
ARC
  5
4F1
100
AcDbEntity
  8
M2
100
AcDbCircle
 10
256.426617
 20
263.228289
 40
0.5
100
AcDbArc
 50
0.0
 51
90.0
  0
ARC
  5
4F2
100
AcDbEntity
  8
M2
100
AcDbCircle
 10
256.426617
 20
265.828292
 40
0.5
100
AcDbArc
 50
0.0
 51
90.0
  0
ARC
  5
4F3
100
AcDbEntity
  8
M2
100
AcDbCircle
 10
254.426617
 20
268.028292
 40
0.5
100
AcDbArc
 50
90.0
 51
180.0
  0
ARC
  5
4F4
100
AcDbEntity
  8
M2
100
AcDbCircle
 10
251.426601
 20
271.32828
 40
0.5
100
AcDbArc
 50
90.0
 51
180.0
  0
LINE
  5
4F5
100
AcDbEntity
  8
M2
100
AcDbLine
 10
188.76466
 20
255.228366
 11
187.926586
 21
255.228427
  0
LINE
  5
4F6
100
AcDbEntity
  8
M2
100
AcDbLine
 10
256.426632
 20
263.728289
 11
250.114101
 21
263.728289
  0
LINE
  5
4F7
100
AcDbEntity
  8
M2
100
AcDbLine
 10
192.926647
 20
260.428408
 11
195.426678
 21
260.428408
  0
LINE
  5
4F8
100
AcDbEntity
  8
M2
100
AcDbLine
 10
192.926754
 20
260.428408
 11
192.926769
 21
256.728411
  0
LINE
  5
4F9
100
AcDbEntity
  8
M2
100
AcDbLine
 10
195.426754
 20
260.428408
 11
195.426769
 21
256.728411
  0
LINE
  5
4FA
100
AcDbEntity
  8
M2
100
AcDbLine
 10
213.926601
 20
258.728411
 11
197.426617
 21
258.728396
  0
LINE
  5
4FB
100
AcDbEntity
  8
M2
100
AcDbLine
 10
197.426617
 20
258.728396
 11
195.426617
 21
256.728396
  0
LINE
  5
4FC
100
AcDbEntity
  8
M2
100
AcDbLine
 10
195.426769
 20
259.428424
 11
197.926617
 21
259.428408
  0
LINE
  5
4FD
100
AcDbEntity
  8
M2
100
AcDbLine
 10
197.926617
 20
260.228396
 11
197.926617
 21
259.428408
  0
LINE
  5
4FE
100
AcDbEntity
  8
M2
100
AcDbLine
 10
197.926617
 20
260.228396
 11
203.426678
 21
260.228396
  0
LINE
  5
4FF
100
AcDbEntity
  8
M2
100
AcDbLine
 10
203.426708
 20
258.728411
 11
203.426708
 21
261.028399
  0
LINE
  5
500
100
AcDbEntity
  8
M2
100
AcDbLine
 10
203.926617
 20
266.328402
 11
203.426678
 21
261.028399
  0
LINE
  5
501
100
AcDbEntity
  8
M2
100
AcDbLine
 10
203.926617
 20
266.328402
 11
207.226552
 21
266.32839
  0
LINE
  5
502
100
AcDbEntity
  8
M2
100
AcDbLine
 10
205.176617
 20
266.328402
 11
205.176617
 21
261.028369
  0
LINE
  5
503
100
AcDbEntity
  8
M2
100
AcDbLine
 10
206.676617
 20
266.328402
 11
206.676617
 21
261.028369
  0
LINE
  5
504
100
AcDbEntity
  8
M2
100
AcDbLine
 10
207.926601
 20
266.328387
 11
207.926601
 21
263.028384
  0
ARC
  5
505
100
AcDbEntity
  8
M2
100
AcDbCircle
 10
209.926601
 20
263.028384
 40
2.0
100
AcDbArc
 50
180.0
 51
270.0
  0
LINE
  5
506
100
AcDbEntity
  8
M2
100
AcDbLine
 10
217.426678
 20
261.028369
 11
203.426678
 21
261.028399
  0
LINE
  5
507
100
AcDbEntity
  8
M2
100
AcDbLine
 10
217.426678
 20
261.028369
 11
220.726696
 21
257.72835
  0
LINE
  5
508
100
AcDbEntity
  8
M2
100
AcDbLine
 10
213.926601
 20
258.728411
 11
214.926662
 21
257.72835
  0
LINE
  5
509
100
AcDbEntity
  8
M2
100
AcDbLine
 10
208.926601
 20
251.728335
 11
208.926601
 21
252.22835
  0
LINE
  5
50A
100
AcDbEntity
  8
M2
100
AcDbLine
 10
203.626659
 20
251.728335
 11
208.926601
 21
251.728335
  0
LINE
  5
50B
100
AcDbEntity
  8
M2
100
AcDbLine
 10
203.626659
 20
251.728335
 11
203.626675
 21
251.22832
  0
LINE
  5
50C
100
AcDbEntity
  8
M2
100
AcDbLine
 10
200.126613
 20
246.928439
 11
203.626659
 21
251.228335
  0
LINE
  5
50D
100
AcDbEntity
  8
M2
100
AcDbLine
 10
202.626659
 20
257.72835
 11
202.626659
 21
253.228396
  0
LINE
  5
50E
100
AcDbEntity
  8
M2
100
AcDbLine
 10
188.926708
 20
253.678439
 11
188.926708
 21
246.428439
  0
LINE
  5
50F
100
AcDbEntity
  8
M2
100
AcDbLine
 10
188.926708
 20
253.678439
 11
192.42651
 21
253.678439
  0
LINE
  5
510
100
AcDbEntity
  8
M2
100
AcDbLine
 10
192.42654
 20
253.678424
 11
192.42654
 21
256.728381
  0
LINE
  5
511
100
AcDbEntity
  8
M2
100
AcDbLine
 10
191.088512
 20
255.228396
 11
192.426525
 21
255.228396
  0
LINE
  5
512
100
AcDbEntity
  8
M2
100
AcDbLine
 10
187.926586
 20
244.528289
 11
183.926586
 21
244.528289
  0
ARC
  5
513
100
AcDbEntity
  8
M2
100
AcDbCircle
 10
183.926586
 20
245.028289
 40
0.5
100
AcDbArc
 50
180.0
 51
270.0
  0
LINE
  5
514
100
AcDbEntity
  8
M2
100
AcDbLine
 10
183.426586
 20
250.028289
 11
183.426586
 21
245.028289
  0
ARC
  5
515
100
AcDbEntity
  8
M2
100
AcDbCircle
 10
183.926586
 20
250.028289
 40
0.5
100
AcDbArc
 50
90.0
 51
180.0
  0
LINE
  5
516
100
AcDbEntity
  8
M2
100
AcDbLine
 10
187.926586
 20
250.528289
 11
183.926586
 21
250.528289
  0
LINE
  5
517
100
AcDbEntity
  8
M2
100
AcDbLine
 10
206.426617
 20
266.328393
 11
207.926601
 21
266.328387
  0
LINE
  5
518
100
AcDbEntity
  8
M2
 62
     1
100
AcDbLine
 10
49.913225
 20
269.527198
 11
49.713224
 21
269.327198
  0
LINE
  5
519
100
AcDbEntity
  8
M2
 62
     1
100
AcDbLine
 10
51.513223
 20
269.527198
 11
51.713224
 21
269.327198
  0
LINE
  5
51A
100
AcDbEntity
  8
M2
 62
     1
100
AcDbLine
 10
49.913225
 20
276.602199
 11
49.913225
 21
269.527198
  0
LINE
  5
51B
100
AcDbEntity
  8
M2
 62
     1
100
AcDbLine
 10
51.513223
 20
269.527198
 11
51.513223
 21
276.602199
  0
LINE
  5
51C
100
AcDbEntity
  8
M2
 62
     1
100
AcDbLine
 10
49.713224
 20
269.327198
 11
49.713224
 21
266.327205
  0
LINE
  5
51D
100
AcDbEntity
  8
M2
 62
     1
100
AcDbLine
 10
51.713224
 20
266.327205
 11
51.713224
 21
269.327198
  0
ARC
  5
51E
100
AcDbEntity
  8
M2
 62
     7
100
AcDbCircle
 10
69.863718
 20
325.552199
 40
0.5
100
AcDbArc
 50
90.0
 51
180.0
  0
ARC
  5
51F
100
AcDbEntity
  8
M2
 62
     7
100
AcDbCircle
 10
69.863718
 20
318.902199
 40
0.5
100
AcDbArc
 50
180.0
 51
270.0
  0
ARC
  5
520
100
AcDbEntity
  8
M2
 62
     7
100
AcDbCircle
 10
76.513718
 20
325.552199
 40
0.5
100
AcDbArc
 50
0.0
 51
90.0
  0
ARC
  5
521
100
AcDbEntity
  8
M2
 62
     7
100
AcDbCircle
 10
76.513718
 20
318.902199
 40
0.5
100
AcDbArc
 50
270.0
 51
360.0
  0
LINE
  5
522
100
AcDbEntity
  8
M2
 62
     7
100
AcDbLine
 10
69.363718
 20
325.552199
 11
69.363718
 21
318.902199
  0
LINE
  5
523
100
AcDbEntity
  8
M2
 62
     7
100
AcDbLine
 10
77.013718
 20
318.902199
 11
77.013718
 21
325.552199
  0
LINE
  5
524
100
AcDbEntity
  8
M2
 62
     7
100
AcDbLine
 10
69.863718
 20
318.402199
 11
76.513718
 21
318.402199
  0
LINE
  5
525
100
AcDbEntity
  8
M2
 62
     7
100
AcDbLine
 10
76.513718
 20
326.052199
 11
69.863718
 21
326.052199
  0
LINE
  5
526
100
AcDbEntity
  8
M2
  6
DASHDOT
 62
     7
100
AcDbLine
 10
72.688718
 20
322.227199
 11
73.688718
 21
322.227199
  0
LINE
  5
527
100
AcDbEntity
  8
M2
  6
DASHDOT
 62
     7
100
AcDbLine
 10
73.188718
 20
321.727199
 11
73.188718
 21
322.727199
  0
ARC
  5
528
100
AcDbEntity
  8
M2
 62
     7
100
AcDbCircle
 10
49.663718
 20
325.552199
 40
0.5
100
AcDbArc
 50
90.0
 51
180.0
  0
ARC
  5
529
100
AcDbEntity
  8
M2
 62
     7
100
AcDbCircle
 10
49.663718
 20
318.902199
 40
0.5
100
AcDbArc
 50
180.0
 51
270.0
  0
ARC
  5
52A
100
AcDbEntity
  8
M2
 62
     7
100
AcDbCircle
 10
56.313718
 20
325.552199
 40
0.5
100
AcDbArc
 50
0.0
 51
90.0
  0
ARC
  5
52B
100
AcDbEntity
  8
M2
 62
     7
100
AcDbCircle
 10
56.313718
 20
318.902199
 40
0.5
100
AcDbArc
 50
270.0
 51
360.0
  0
LINE
  5
52C
100
AcDbEntity
  8
M2
 62
     7
100
AcDbLine
 10
49.163718
 20
325.552199
 11
49.163718
 21
318.902199
  0
LINE
  5
52D
100
AcDbEntity
  8
M2
 62
     7
100
AcDbLine
 10
56.813718
 20
318.902199
 11
56.813718
 21
325.552199
  0
LINE
  5
52E
100
AcDbEntity
  8
M2
 62
     7
100
AcDbLine
 10
49.663718
 20
318.402199
 11
56.313718
 21
318.402199
  0
LINE
  5
52F
100
AcDbEntity
  8
M2
 62
     7
100
AcDbLine
 10
56.313718
 20
326.052199
 11
49.663718
 21
326.052199
  0
LINE
  5
530
100
AcDbEntity
  8
M2
  6
DASHDOT
 62
     7
100
AcDbLine
 10
52.488718
 20
322.227199
 11
53.488718
 21
322.227199
  0
LINE
  5
531
100
AcDbEntity
  8
M2
  6
DASHDOT
 62
     7
100
AcDbLine
 10
52.988718
 20
321.727199
 11
52.988718
 21
322.727199
  0
ARC
  5
532
100
AcDbEntity
  8
M2
 62
     7
100
AcDbCircle
 10
59.763718
 20
325.552199
 40
0.5
100
AcDbArc
 50
90.0
 51
180.0
  0
ARC
  5
533
100
AcDbEntity
  8
M2
 62
     7
100
AcDbCircle
 10
59.763718
 20
318.902199
 40
0.5
100
AcDbArc
 50
180.0
 51
270.0
  0
ARC
  5
534
100
AcDbEntity
  8
M2
 62
     7
100
AcDbCircle
 10
66.413718
 20
325.552199
 40
0.5
100
AcDbArc
 50
0.0
 51
90.0
  0
ARC
  5
535
100
AcDbEntity
  8
M2
 62
     7
100
AcDbCircle
 10
66.413718
 20
318.902199
 40
0.5
100
AcDbArc
 50
270.0
 51
360.0
  0
LINE
  5
536
100
AcDbEntity
  8
M2
 62
     7
100
AcDbLine
 10
59.263718
 20
325.552199
 11
59.263718
 21
318.902199
  0
LINE
  5
537
100
AcDbEntity
  8
M2
 62
     7
100
AcDbLine
 10
66.913718
 20
318.902199
 11
66.913718
 21
325.552199
  0
LINE
  5
538
100
AcDbEntity
  8
M2
 62
     7
100
AcDbLine
 10
59.763718
 20
318.402199
 11
66.413718
 21
318.402199
  0
LINE
  5
539
100
AcDbEntity
  8
M2
 62
     7
100
AcDbLine
 10
66.413718
 20
326.052199
 11
59.763718
 21
326.052199
  0
LINE
  5
53A
100
AcDbEntity
  8
M2
  6
DASHDOT
 62
     7
100
AcDbLine
 10
62.588718
 20
322.227199
 11
63.588718
 21
322.227199
  0
LINE
  5
53B
100
AcDbEntity
  8
M2
  6
DASHDOT
 62
     7
100
AcDbLine
 10
63.088718
 20
321.727199
 11
63.088718
 21
322.727199
  0
ARC
  5
53C
100
AcDbEntity
  8
M2
 62
     7
100
AcDbCircle
 10
50.463718
 20
336.502199
 40
0.5
100
AcDbArc
 50
270.0
 51
360.0
  0
LINE
  5
53D
100
AcDbEntity
  8
M2
 62
     7
100
AcDbLine
 10
50.963718
 20
336.502199
 11
50.963718
 21
342.527199
  0
LINE
  5
53E
100
AcDbEntity
  8
M2
 62
     7
100
AcDbLine
 10
44.488718
 20
336.002199
 11
50.463718
 21
336.002199
  0
LINE
  5
53F
100
AcDbEntity
  8
M2
  6
DASHDOT
 62
     7
100
AcDbLine
 10
46.638718
 20
339.827199
 11
47.638718
 21
339.827199
  0
LINE
  5
540
100
AcDbEntity
  8
M2
  6
DASHDOT
 62
     7
100
AcDbLine
 10
47.138718
 20
339.327199
 11
47.138718
 21
340.327199
  0
ARC
  5
541
100
AcDbEntity
  8
M2
 62
     7
100
AcDbCircle
 10
39.563718
 20
325.552199
 40
0.5
100
AcDbArc
 50
90.0
 51
180.0
  0
ARC
  5
542
100
AcDbEntity
  8
M2
 62
     7
100
AcDbCircle
 10
39.563718
 20
318.902199
 40
0.5
100
AcDbArc
 50
180.0
 51
270.0
  0
ARC
  5
543
100
AcDbEntity
  8
M2
 62
     7
100
AcDbCircle
 10
46.213718
 20
325.552199
 40
0.5
100
AcDbArc
 50
0.0
 51
90.0
  0
ARC
  5
544
100
AcDbEntity
  8
M2
 62
     7
100
AcDbCircle
 10
46.213718
 20
318.902199
 40
0.5
100
AcDbArc
 50
270.0
 51
360.0
  0
LINE
  5
545
100
AcDbEntity
  8
M2
 62
     7
100
AcDbLine
 10
39.063718
 20
325.552199
 11
39.063718
 21
318.902199
  0
LINE
  5
546
100
AcDbEntity
  8
M2
 62
     7
100
AcDbLine
 10
46.713718
 20
318.902199
 11
46.713718
 21
325.552199
  0
LINE
  5
547
100
AcDbEntity
  8
M2
 62
     7
100
AcDbLine
 10
39.563718
 20
318.402199
 11
46.213718
 21
318.402199
  0
LINE
  5
548
100
AcDbEntity
  8
M2
 62
     7
100
AcDbLine
 10
46.213718
 20
326.052199
 11
39.563718
 21
326.052199
  0
LINE
  5
549
100
AcDbEntity
  8
M2
  6
DASHDOT
 62
     7
100
AcDbLine
 10
42.388718
 20
322.227199
 11
43.388718
 21
322.227199
  0
LINE
  5
54A
100
AcDbEntity
  8
M2
  6
DASHDOT
 62
     7
100
AcDbLine
 10
42.888718
 20
321.727199
 11
42.888718
 21
322.727199
  0
ARC
  5
54B
100
AcDbEntity
  8
M2
 62
     7
100
AcDbCircle
 10
65.613718
 20
336.502199
 40
0.5
100
AcDbArc
 50
180.0
 51
270.0
  0
ARC
  5
54C
100
AcDbEntity
  8
M2
 62
     7
100
AcDbCircle
 10
72.263718
 20
336.502199
 40
0.5
100
AcDbArc
 50
270.0
 51
360.0
  0
LINE
  5
54D
100
AcDbEntity
  8
M2
 62
     7
100
AcDbLine
 10
65.113718
 20
341.490788
 11
65.113718
 21
336.502199
  0
LINE
  5
54E
100
AcDbEntity
  8
M2
 62
     7
100
AcDbLine
 10
72.763718
 20
336.502199
 11
72.763718
 21
342.527199
  0
LINE
  5
54F
100
AcDbEntity
  8
M2
 62
     7
100
AcDbLine
 10
65.613718
 20
336.002199
 11
72.263718
 21
336.002199
  0
LINE
  5
550
100
AcDbEntity
  8
M2
  6
DASHDOT
 62
     7
100
AcDbLine
 10
68.438718
 20
339.827199
 11
69.438718
 21
339.827199
  0
LINE
  5
551
100
AcDbEntity
  8
M2
  6
DASHDOT
 62
     7
100
AcDbLine
 10
68.938718
 20
339.327199
 11
68.938718
 21
340.327199
  0
ARC
  5
552
100
AcDbEntity
  8
M2
 62
     7
100
AcDbCircle
 10
69.863718
 20
283.752199
 40
0.5
100
AcDbArc
 50
90.0
 51
180.0
  0
ARC
  5
553
100
AcDbEntity
  8
M2
 62
     7
100
AcDbCircle
 10
69.863718
 20
277.102199
 40
0.5
100
AcDbArc
 50
180.0
 51
270.0
  0
ARC
  5
554
100
AcDbEntity
  8
M2
 62
     7
100
AcDbCircle
 10
76.513718
 20
283.752199
 40
0.5
100
AcDbArc
 50
0.0
 51
90.0
  0
ARC
  5
555
100
AcDbEntity
  8
M2
 62
     7
100
AcDbCircle
 10
76.513718
 20
277.102199
 40
0.5
100
AcDbArc
 50
270.0
 51
360.0
  0
CIRCLE
  5
556
100
AcDbEntity
  8
M2
 62
     7
100
AcDbCircle
 10
73.188718
 20
280.427199
 40
3.0
  0
LINE
  5
557
100
AcDbEntity
  8
M2
 62
     7
100
AcDbLine
 10
69.363718
 20
283.752199
 11
69.363718
 21
277.102199
  0
LINE
  5
558
100
AcDbEntity
  8
M2
 62
     7
100
AcDbLine
 10
77.013718
 20
277.102199
 11
77.013718
 21
283.752199
  0
LINE
  5
559
100
AcDbEntity
  8
M2
 62
     7
100
AcDbLine
 10
69.863718
 20
276.602199
 11
76.513718
 21
276.602199
  0
LINE
  5
55A
100
AcDbEntity
  8
M2
 62
     7
100
AcDbLine
 10
76.513718
 20
284.252199
 11
69.863718
 21
284.252199
  0
LINE
  5
55B
100
AcDbEntity
  8
M2
  6
DASHDOT
 62
     7
100
AcDbLine
 10
72.688718
 20
280.427199
 11
73.688718
 21
280.427199
  0
LINE
  5
55C
100
AcDbEntity
  8
M2
  6
DASHDOT
 62
     7
100
AcDbLine
 10
73.188718
 20
279.927199
 11
73.188718
 21
280.927199
  0
ARC
  5
55D
100
AcDbEntity
  8
M2
 62
     7
100
AcDbCircle
 10
59.763718
 20
283.752199
 40
0.5
100
AcDbArc
 50
90.0
 51
180.0
  0
ARC
  5
55E
100
AcDbEntity
  8
M2
 62
     7
100
AcDbCircle
 10
59.763718
 20
277.102199
 40
0.5
100
AcDbArc
 50
180.0
 51
270.0
  0
ARC
  5
55F
100
AcDbEntity
  8
M2
 62
     7
100
AcDbCircle
 10
66.413718
 20
283.752199
 40
0.5
100
AcDbArc
 50
0.0
 51
90.0
  0
ARC
  5
560
100
AcDbEntity
  8
M2
 62
     7
100
AcDbCircle
 10
66.413718
 20
277.102199
 40
0.5
100
AcDbArc
 50
270.0
 51
360.0
  0
LINE
  5
561
100
AcDbEntity
  8
M2
 62
     7
100
AcDbLine
 10
59.263718
 20
283.752199
 11
59.263718
 21
277.102199
  0
LINE
  5
562
100
AcDbEntity
  8
M2
 62
     7
100
AcDbLine
 10
66.913718
 20
277.102199
 11
66.913718
 21
283.752199
  0
LINE
  5
563
100
AcDbEntity
  8
M2
 62
     7
100
AcDbLine
 10
59.763718
 20
276.602199
 11
66.413718
 21
276.602199
  0
LINE
  5
564
100
AcDbEntity
  8
M2
 62
     7
100
AcDbLine
 10
66.413718
 20
284.252199
 11
59.763718
 21
284.252199
  0
LINE
  5
565
100
AcDbEntity
  8
M2
  6
DASHDOT
 62
     7
100
AcDbLine
 10
62.588718
 20
280.427199
 11
63.588718
 21
280.427199
  0
LINE
  5
566
100
AcDbEntity
  8
M2
  6
DASHDOT
 62
     7
100
AcDbLine
 10
63.088718
 20
279.927199
 11
63.088718
 21
280.927199
  0
ARC
  5
567
100
AcDbEntity
  8
M2
 62
     7
100
AcDbCircle
 10
49.663718
 20
283.752199
 40
0.5
100
AcDbArc
 50
90.0
 51
180.0
  0
ARC
  5
568
100
AcDbEntity
  8
M2
 62
     7
100
AcDbCircle
 10
49.663718
 20
277.102199
 40
0.5
100
AcDbArc
 50
180.0
 51
270.0
  0
ARC
  5
569
100
AcDbEntity
  8
M2
 62
     7
100
AcDbCircle
 10
56.313718
 20
283.752199
 40
0.5
100
AcDbArc
 50
0.0
 51
90.0
  0
ARC
  5
56A
100
AcDbEntity
  8
M2
 62
     7
100
AcDbCircle
 10
56.313718
 20
277.102199
 40
0.5
100
AcDbArc
 50
270.0
 51
360.0
  0
CIRCLE
  5
56B
100
AcDbEntity
  8
M2
 62
     7
100
AcDbCircle
 10
52.988718
 20
280.427199
 40
3.0
  0
LINE
  5
56C
100
AcDbEntity
  8
M2
 62
     7
100
AcDbLine
 10
49.163718
 20
283.752199
 11
49.163718
 21
277.102199
  0
LINE
  5
56D
100
AcDbEntity
  8
M2
 62
     7
100
AcDbLine
 10
56.813718
 20
277.102199
 11
56.813718
 21
283.752199
  0
LINE
  5
56E
100
AcDbEntity
  8
M2
 62
     7
100
AcDbLine
 10
49.663718
 20
276.602199
 11
56.313718
 21
276.602199
  0
LINE
  5
56F
100
AcDbEntity
  8
M2
 62
     7
100
AcDbLine
 10
56.313718
 20
284.252199
 11
49.663718
 21
284.252199
  0
LINE
  5
570
100
AcDbEntity
  8
M2
  6
DASHDOT
 62
     7
100
AcDbLine
 10
52.488718
 20
280.427199
 11
53.488718
 21
280.427199
  0
LINE
  5
571
100
AcDbEntity
  8
M2
  6
DASHDOT
 62
     7
100
AcDbLine
 10
52.988718
 20
279.927199
 11
52.988718
 21
280.927199
  0
ARC
  5
572
100
AcDbEntity
  8
M2
 62
     7
100
AcDbCircle
 10
39.563718
 20
283.752199
 40
0.5
100
AcDbArc
 50
90.0
 51
180.0
  0
ARC
  5
573
100
AcDbEntity
  8
M2
 62
     7
100
AcDbCircle
 10
39.563718
 20
277.102199
 40
0.5
100
AcDbArc
 50
180.0
 51
270.0
  0
ARC
  5
574
100
AcDbEntity
  8
M2
 62
     7
100
AcDbCircle
 10
46.213718
 20
283.752199
 40
0.5
100
AcDbArc
 50
0.0
 51
90.0
  0
ARC
  5
575
100
AcDbEntity
  8
M2
 62
     7
100
AcDbCircle
 10
46.213718
 20
277.102199
 40
0.5
100
AcDbArc
 50
270.0
 51
360.0
  0
LINE
  5
576
100
AcDbEntity
  8
M2
 62
     7
100
AcDbLine
 10
39.063718
 20
283.752199
 11
39.063718
 21
277.102199
  0
LINE
  5
577
100
AcDbEntity
  8
M2
 62
     7
100
AcDbLine
 10
46.713718
 20
277.102199
 11
46.713718
 21
283.752199
  0
LINE
  5
578
100
AcDbEntity
  8
M2
 62
     7
100
AcDbLine
 10
39.563718
 20
276.602199
 11
46.213718
 21
276.602199
  0
LINE
  5
579
100
AcDbEntity
  8
M2
 62
     7
100
AcDbLine
 10
46.213718
 20
284.252199
 11
39.563718
 21
284.252199
  0
LINE
  5
57A
100
AcDbEntity
  8
M2
  6
DASHDOT
 62
     7
100
AcDbLine
 10
42.388718
 20
280.427199
 11
43.388718
 21
280.427199
  0
LINE
  5
57B
100
AcDbEntity
  8
M2
  6
DASHDOT
 62
     7
100
AcDbLine
 10
42.888718
 20
279.927199
 11
42.888718
 21
280.927199
  0
CIRCLE
  5
57C
100
AcDbEntity
  8
M2
 62
     7
100
AcDbCircle
 10
58.038718
 20
339.427199
 40
2.65
  0
LINE
  5
57D
100
AcDbEntity
  8
M2
 62
     7
100
AcDbLine
 10
59.238718
 20
338.977199
 11
59.238718
 21
339.877199
  0
LINE
  5
57E
100
AcDbEntity
  8
M2
 62
     7
100
AcDbLine
 10
51.788718
 20
268.377199
 11
51.788718
 21
269.277199
  0
LINE
  5
57F
100
AcDbEntity
  8
M2
 62
     7
100
AcDbLine
 10
56.838718
 20
338.977199
 11
56.838718
 21
339.877199
  0
LINE
  5
580
100
AcDbEntity
  8
M2
 62
     7
100
AcDbLine
 10
70.388718
 20
272.027199
 11
69.288718
 21
272.027199
  0
LINE
  5
581
100
AcDbEntity
  8
M2
 62
     7
100
AcDbLine
 10
70.388718
 20
271.827233
 11
70.388718
 21
272.027199
  0
LINE
  5
582
100
AcDbEntity
  8
M2
 62
     7
100
AcDbLine
 10
79.538718
 20
333.027199
 11
79.538718
 21
271.527199
  0
LINE
  5
583
100
AcDbEntity
  8
M2
 62
     7
100
AcDbLine
 10
36.538718
 20
270.027199
 11
36.538718
 21
297.827199
  0
LINE
  5
584
100
AcDbEntity
  8
M2
 62
     7
100
AcDbLine
 10
75.788718
 20
275.627199
 11
75.788718
 21
275.227199
  0
LINE
  5
585
100
AcDbEntity
  8
M2
 62
     7
100
AcDbLine
 10
62.738718
 20
266.527199
 11
63.513297
 21
266.527199
  0
LINE
  5
586
100
AcDbEntity
  8
M2
 62
     7
100
AcDbLine
 10
46.834778
 20
266.527199
 11
46.720107
 21
266.527199
  0
LINE
  5
587
100
AcDbEntity
  8
M2
 62
     7
100
AcDbLine
 10
46.788718
 20
270.827199
 11
46.713718
 21
270.827199
  0
LINE
  5
588
100
AcDbEntity
  8
M2
 62
     7
100
AcDbLine
 10
62.238718
 20
270.327199
 11
62.238718
 21
267.027199
  0
LINE
  5
589
100
AcDbEntity
  8
M2
 62
     7
100
AcDbLine
 10
71.288718
 20
275.227199
 11
71.288718
 21
275.627199
  0
LINE
  5
58A
100
AcDbEntity
  8
M2
 62
     7
100
AcDbLine
 10
38.288718
 20
330.227199
 11
38.288718
 21
330.081139
  0
ARC
  5
58B
100
AcDbEntity
  8
M2
 62
     7
100
AcDbCircle
 10
75.538718
 20
333.027199
 40
4.0
100
AcDbArc
 50
0.0
 51
97.180756
  0
ARC
  5
58C
100
AcDbEntity
  8
M2
 62
     7
100
AcDbCircle
 10
75.538718
 20
333.027199
 40
2.25
100
AcDbArc
 50
257.160412
 51
462.839588
  0
ARC
  5
58D
100
AcDbEntity
  8
M2
 62
     7
100
AcDbCircle
 10
62.738718
 20
267.027199
 40
0.5
100
AcDbArc
 50
180.0
 51
270.0
  0
LINE
  5
58E
100
AcDbEntity
  8
M2
 62
     7
100
AcDbLine
 10
42.838718
 20
344.227199
 11
43.074271
 21
344.227199
  0
LINE
  5
58F
100
AcDbEntity
  8
M2
 62
     7
100
AcDbLine
 10
41.038718
 20
335.827199
 11
41.038718
 21
335.727199
  0
LINE
  5
590
100
AcDbEntity
  8
M2
 62
     7
100
AcDbLine
 10
75.038718
 20
332.127199
 11
75.038718
 21
332.227199
  0
LINE
  5
591
100
AcDbEntity
  8
M2
 62
     7
100
AcDbLine
 10
75.038718
 20
335.727199
 11
75.038718
 21
335.827199
  0
LINE
  5
592
100
AcDbEntity
  8
M2
 62
     7
100
AcDbLine
 10
73.238718
 20
342.527199
 11
73.238718
 21
335.727199
  0
LINE
  5
593
100
AcDbEntity
  8
M2
 62
     7
100
AcDbLine
 10
53.438718
 20
269.277199
 11
53.438718
 21
270.027199
  0
ARC
  5
594
100
AcDbEntity
  8
M2
 62
     7
100
AcDbCircle
 10
42.238718
 20
345.127199
 40
0.6
100
AcDbArc
 50
0.0
 51
90.0
  0
LINE
  5
595
100
AcDbEntity
  8
M2
 62
     7
100
AcDbLine
 10
51.788718
 20
269.277199
 11
52.538718
 21
269.277199
  0
LINE
  5
596
100
AcDbEntity
  8
M2
 62
     7
100
AcDbLine
 10
52.538718
 20
270.027199
 11
52.538718
 21
269.277199
  0
LINE
  5
597
100
AcDbEntity
  8
M2
 62
     7
100
AcDbLine
 10
53.438718
 20
269.277199
 11
53.613702
 21
269.277199
  0
LINE
  5
598
100
AcDbEntity
  8
M2
 62
     7
100
AcDbLine
 10
53.438718
 20
270.027199
 11
52.538718
 21
270.027199
  0
ARC
  5
599
100
AcDbEntity
  8
M2
 62
     7
100
AcDbCircle
 10
41.638718
 20
345.127199
 40
0.6
100
AcDbArc
 50
90.0
 51
180.0
  0
ARC
  5
59A
100
AcDbEntity
  8
M2
 62
     7
100
AcDbCircle
 10
63.038718
 20
267.827199
 40
2.0
100
AcDbArc
 50
270.0
 51
283.72663
  0
LINE
  5
59B
100
AcDbEntity
  8
M2
 62
     7
100
AcDbLine
 10
53.438718
 20
267.627199
 11
53.438718
 21
268.377199
  0
LINE
  5
59C
100
AcDbEntity
  8
M2
 62
     7
100
AcDbLine
 10
52.538718
 20
268.377199
 11
51.788718
 21
268.377199
  0
LINE
  5
59D
100
AcDbEntity
  8
M2
 62
     7
100
AcDbLine
 10
52.538718
 20
267.627199
 11
53.438718
 21
267.627199
  0
LINE
  5
59E
100
AcDbEntity
  8
M2
 62
     7
100
AcDbLine
 10
52.538718
 20
268.377199
 11
52.538718
 21
267.627199
  0
ARC
  5
59F
100
AcDbEntity
  8
M2
 62
     7
100
AcDbCircle
 10
75.538718
 20
278.227199
 40
2.25
100
AcDbArc
 50
286.791447
 51
313.542219
  0
ARC
  5
5A0
100
AcDbEntity
  8
M2
 62
     7
100
AcDbCircle
 10
40.538718
 20
273.027199
 40
2.25
100
AcDbArc
 50
191.257189
 51
253.859307
  0
ARC
  5
5A1
100
AcDbEntity
  8
M2
 62
     7
100
AcDbCircle
 10
73.538718
 20
275.227199
 40
2.25
100
AcDbArc
 50
180.0
 51
360.0
  0
ARC
  5
5A2
100
AcDbEntity
  8
M2
 62
     7
100
AcDbCircle
 10
40.538718
 20
330.227199
 40
2.25
100
AcDbArc
 50
81.050982
 51
180.0
  0
ARC
  5
5A3
100
AcDbEntity
  8
M2
 62
     7
100
AcDbCircle
 10
41.538718
 20
330.227199
 40
5.0
100
AcDbArc
 50
95.73917
 51
180.0
  0
ARC
  5
5A4
100
AcDbEntity
  8
M2
 62
     7
100
AcDbCircle
 10
70.888718
 20
267.027199
 40
0.5
100
AcDbArc
 50
243.203501
 51
270.0
  0
LINE
  5
5A5
100
AcDbEntity
  8
M2
 62
     7
100
AcDbLine
 10
53.613702
 20
268.377199
 11
53.438718
 21
268.377199
  0
ARC
  5
5A6
100
AcDbEntity
  8
M2
 62
     7
100
AcDbCircle
 10
43.288718
 20
267.027199
 40
0.5
100
AcDbArc
 50
270.0
 51
296.689719
  0
ARC
  5
5A7
100
AcDbEntity
  8
M2
 62
     7
100
AcDbCircle
 10
74.538718
 20
271.527199
 40
5.0
100
AcDbArc
 50
270.0
 51
360.0
  0
ARC
  5
5A8
100
AcDbEntity
  8
M2
 62
     7
100
AcDbCircle
 10
40.038718
 20
270.027199
 40
3.5
100
AcDbArc
 50
180.0
 51
264.663882
  0
LINE
  5
5A9
100
AcDbEntity
  8
M2
 62
     7
100
AcDbLine
 10
41.638718
 20
345.727199
 11
42.238718
 21
345.727199
  0
LINE
  5
5AA
100
AcDbEntity
  8
M2
 62
     7
100
AcDbLine
 10
63.038718
 20
265.827199
 11
61.713224
 21
265.827199
  0
LINE
  5
5AB
100
AcDbEntity
  8
M2
 62
     7
100
AcDbLine
 10
75.038718
 20
342.727199
 11
75.038718
 21
335.827199
  0
LINE
  5
5AC
100
AcDbEntity
  8
M2
 62
     7
100
AcDbLine
 10
59.188718
 20
267.827199
 11
59.713224
 21
267.827199
  0
LINE
  5
5AD
100
AcDbEntity
  8
M2
 62
     7
100
AcDbLine
 10
42.838718
 20
343.994692
 11
42.838718
 21
345.127199
  0
LINE
  5
5AE
100
AcDbEntity
  8
M2
 62
     7
100
AcDbLine
 10
41.838718
 20
304.977199
 11
41.838718
 21
303.727199
  0
LINE
  5
5AF
100
AcDbEntity
  8
M2
 62
     7
100
AcDbLine
 10
42.038718
 20
303.727199
 11
41.838718
 21
303.727199
  0
LINE
  5
5B0
100
AcDbEntity
  8
M2
 62
     7
100
AcDbLine
 10
41.838718
 20
298.727199
 11
41.838718
 21
297.677199
  0
LINE
  5
5B1
100
AcDbEntity
  8
M2
 62
     7
100
AcDbLine
 10
41.838718
 20
298.727199
 11
42.038718
 21
298.727199
  0
LINE
  5
5B2
100
AcDbEntity
  8
M2
 62
     7
100
AcDbLine
 10
41.756663
 20
297.627199
 11
38.838718
 21
297.627199
  0
LINE
  5
5B3
100
AcDbEntity
  8
M2
 62
     7
100
AcDbLine
 10
38.488718
 20
307.427199
 11
38.638718
 21
307.427199
  0
LINE
  5
5B4
100
AcDbEntity
  8
M2
 62
     7
100
AcDbLine
 10
38.638718
 20
310.227199
 11
38.488718
 21
310.227199
  0
LINE
  5
5B5
100
AcDbEntity
  8
M2
 62
     7
100
AcDbLine
 10
37.988718
 20
272.527199
 11
37.538718
 21
272.527199
  0
ARC
  5
5B6
100
AcDbEntity
  8
M2
 62
     7
100
AcDbCircle
 10
68.288718
 20
270.127199
 40
1.0
100
AcDbArc
 50
270.0
 51
360.0
  0
ARC
  5
5B7
100
AcDbEntity
  8
M2
 62
     7
100
AcDbCircle
 10
48.088718
 20
270.127199
 40
1.0
100
AcDbArc
 50
270.0
 51
360.0
  0
ARC
  5
5B8
100
AcDbEntity
  8
M2
 62
     7
100
AcDbCircle
 10
58.188718
 20
270.127199
 40
1.0
100
AcDbArc
 50
270.0
 51
360.0
  0
ARC
  5
5B9
100
AcDbEntity
  8
M2
 62
     7
100
AcDbCircle
 10
47.788718
 20
270.127199
 40
1.0
100
AcDbArc
 50
180.0
 51
270.0
  0
LINE
  5
5BA
100
AcDbEntity
  8
M2
 62
     7
100
AcDbLine
 10
38.838718
 20
297.627199
 11
38.838718
 21
297.827199
  0
LINE
  5
5BB
100
AcDbEntity
  8
M2
 62
     7
100
AcDbLine
 10
37.538718
 20
297.627199
 11
37.538718
 21
297.827199
  0
LINE
  5
5BC
100
AcDbEntity
  8
M2
 62
     7
100
AcDbLine
 10
38.838718
 20
305.027199
 11
41.756663
 21
305.027199
  0
LINE
  5
5BD
100
AcDbEntity
  8
M2
 62
     7
100
AcDbLine
 10
77.088718
 20
273.527199
 11
77.088718
 21
284.627199
  0
LINE
  5
5BE
100
AcDbEntity
  8
M2
 62
     7
100
AcDbLine
 10
78.538718
 20
272.527199
 11
78.088718
 21
272.527199
  0
LINE
  5
5BF
100
AcDbEntity
  8
M2
 62
     7
100
AcDbLine
 10
62.938718
 20
312.327199
 11
63.088718
 21
312.327199
  0
LINE
  5
5C0
100
AcDbEntity
  8
M2
 62
     7
100
AcDbLine
 10
77.486086
 20
307.427199
 11
77.486086
 21
310.227199
  0
LINE
  5
5C1
100
AcDbEntity
  8
M2
 62
     7
100
AcDbLine
 10
53.138718
 20
312.327199
 11
52.988718
 21
312.327199
  0
LINE
  5
5C2
100
AcDbEntity
  8
M2
 62
     7
100
AcDbLine
 10
74.038718
 20
298.727199
 11
74.238718
 21
298.727199
  0
LINE
  5
5C3
100
AcDbEntity
  8
M2
 62
     7
100
AcDbLine
 10
74.238718
 20
298.727199
 11
74.238718
 21
297.677199
  0
LINE
  5
5C4
100
AcDbEntity
  8
M2
 62
     7
100
AcDbLine
 10
74.238718
 20
303.727199
 11
74.038718
 21
303.727199
  0
LINE
  5
5C5
100
AcDbEntity
  8
M2
 62
     7
100
AcDbLine
 10
46.788718
 20
329.527199
 11
46.788718
 21
332.527199
  0
LINE
  5
5C6
100
AcDbEntity
  8
M2
 62
     7
100
AcDbLine
 10
77.588718
 20
310.227199
 11
77.438718
 21
310.227199
  0
LINE
  5
5C7
100
AcDbEntity
  8
M2
 62
     7
100
AcDbLine
 10
78.538718
 20
297.627199
 11
78.538718
 21
305.027199
  0
LINE
  5
5C8
100
AcDbEntity
  8
M2
 62
     7
100
AcDbLine
 10
74.238718
 20
304.977199
 11
74.238718
 21
303.727199
  0
LINE
  5
5C9
100
AcDbEntity
  8
M2
 62
     7
100
AcDbLine
 10
38.591349
 20
307.427199
 11
38.591349
 21
310.227199
  0
LINE
  5
5CA
100
AcDbEntity
  8
M2
 62
     7
100
AcDbLine
 10
77.238718
 20
305.027199
 11
74.320773
 21
305.027199
  0
LINE
  5
5CB
100
AcDbEntity
  8
M2
 62
     7
100
AcDbLine
 10
74.320773
 20
297.627199
 11
77.238718
 21
297.627199
  0
LINE
  5
5CC
100
AcDbEntity
  8
M2
 62
     7
100
AcDbLine
 10
77.238718
 20
297.627199
 11
77.238718
 21
305.027199
  0
LINE
  5
5CD
100
AcDbEntity
  8
M2
 62
     7
100
AcDbLine
 10
77.438718
 20
307.427199
 11
77.588718
 21
307.427199
  0
LINE
  5
5CE
100
AcDbEntity
  8
M2
 62
     7
100
AcDbLine
 10
57.988718
 20
269.127199
 11
57.888718
 21
269.127199
  0
LINE
  5
5CF
100
AcDbEntity
  8
M2
 62
     7
100
AcDbLine
 10
58.088718
 20
269.127199
 11
57.988718
 21
269.127199
  0
LINE
  5
5D0
100
AcDbEntity
  8
M2
 62
     7
100
AcDbLine
 10
68.088718
 20
269.127199
 11
67.988718
 21
269.127199
  0
LINE
  5
5D1
100
AcDbEntity
  8
M2
 62
     7
100
AcDbLine
 10
58.188718
 20
269.127199
 11
58.088718
 21
269.127199
  0
LINE
  5
5D2
100
AcDbEntity
  8
M2
 62
     7
100
AcDbLine
 10
68.288718
 20
269.127199
 11
68.088718
 21
269.127199
  0
LINE
  5
5D3
100
AcDbEntity
  8
M2
 62
     7
100
AcDbLine
 10
59.188718
 20
318.027199
 11
59.188718
 21
332.527199
  0
LINE
  5
5D4
100
AcDbEntity
  8
M2
 62
     7
100
AcDbLine
 10
69.288718
 20
318.027199
 11
69.288718
 21
332.527199
  0
LINE
  5
5D5
100
AcDbEntity
  8
M2
 62
     7
100
AcDbLine
 10
57.888718
 20
283.127199
 11
58.188718
 21
283.127199
  0
LINE
  5
5D6
100
AcDbEntity
  8
M2
 62
     7
100
AcDbLine
 10
66.988718
 20
270.127199
 11
66.988718
 21
284.627199
  0
LINE
  5
5D7
100
AcDbEntity
  8
M2
 62
     7
100
AcDbLine
 10
47.988718
 20
269.127199
 11
47.788718
 21
269.127199
  0
LINE
  5
5D8
100
AcDbEntity
  8
M2
 62
     7
100
AcDbLine
 10
48.088718
 20
269.127199
 11
47.988718
 21
269.127199
  0
LINE
  5
5D9
100
AcDbEntity
  8
M2
 62
     7
100
AcDbLine
 10
69.288718
 20
284.627199
 11
69.288718
 21
270.127199
  0
ARC
  5
5DA
100
AcDbEntity
  8
M2
 62
     7
100
AcDbCircle
 10
58.188718
 20
282.127199
 40
1.0
100
AcDbArc
 50
0.0
 51
90.0
  0
ARC
  5
5DB
100
AcDbEntity
  8
M2
 62
     7
100
AcDbCircle
 10
48.088718
 20
282.127199
 40
1.0
100
AcDbArc
 50
0.0
 51
90.0
  0
ARC
  5
5DC
100
AcDbEntity
  8
M2
 62
     7
100
AcDbCircle
 10
47.788718
 20
320.527199
 40
1.0
100
AcDbArc
 50
180.0
 51
270.0
  0
ARC
  5
5DD
100
AcDbEntity
  8
M2
 62
     7
100
AcDbCircle
 10
58.188718
 20
320.527199
 40
1.0
100
AcDbArc
 50
270.0
 51
360.0
  0
ARC
  5
5DE
100
AcDbEntity
  8
M2
 62
     7
100
AcDbCircle
 10
57.888718
 20
320.527199
 40
1.0
100
AcDbArc
 50
180.0
 51
270.0
  0
ARC
  5
5DF
100
AcDbEntity
  8
M2
 62
     7
100
AcDbCircle
 10
67.988718
 20
320.527199
 40
1.0
100
AcDbArc
 50
180.0
 51
270.0
  0
ARC
  5
5E0
100
AcDbEntity
  8
M2
 62
     7
100
AcDbCircle
 10
57.888718
 20
270.127199
 40
1.0
100
AcDbArc
 50
180.0
 51
270.0
  0
ARC
  5
5E1
100
AcDbEntity
  8
M2
 62
     7
100
AcDbCircle
 10
67.988718
 20
270.127199
 40
1.0
100
AcDbArc
 50
180.0
 51
270.0
  0
ARC
  5
5E2
100
AcDbEntity
  8
M2
 62
     7
100
AcDbCircle
 10
67.988718
 20
282.127199
 40
1.0
100
AcDbArc
 50
90.0
 51
180.0
  0
ARC
  5
5E3
100
AcDbEntity
  8
M2
 62
     7
100
AcDbCircle
 10
68.288718
 20
282.127199
 40
1.0
100
AcDbArc
 50
0.0
 51
90.0
  0
ARC
  5
5E4
100
AcDbEntity
  8
M2
 62
     7
100
AcDbCircle
 10
47.788718
 20
282.127199
 40
1.0
100
AcDbArc
 50
90.0
 51
180.0
  0
LINE
  5
5E5
100
AcDbEntity
  8
M2
 62
     7
100
AcDbLine
 10
46.788718
 20
318.027199
 11
46.788718
 21
320.527199
  0
LINE
  5
5E6
100
AcDbEntity
  8
M2
 62
     7
100
AcDbLine
 10
49.088718
 20
320.527199
 11
49.088718
 21
318.027199
  0
LINE
  5
5E7
100
AcDbEntity
  8
M2
 62
     7
100
AcDbLine
 10
66.988718
 20
332.527199
 11
66.988718
 21
318.027199
  0
ARC
  5
5E8
100
AcDbEntity
  8
M2
 62
     7
100
AcDbCircle
 10
68.288718
 20
320.527199
 40
1.0
100
AcDbArc
 50
270.0
 51
360.0
  0
ARC
  5
5E9
100
AcDbEntity
  8
M2
 62
     7
100
AcDbCircle
 10
57.888718
 20
282.127199
 40
1.0
100
AcDbArc
 50
90.0
 51
180.0
  0
ARC
  5
5EA
100
AcDbEntity
  8
M2
 62
     7
100
AcDbCircle
 10
48.088718
 20
320.527199
 40
1.0
100
AcDbArc
 50
270.0
 51
360.0
  0
LINE
  5
5EB
100
AcDbEntity
  8
M2
 62
     7
100
AcDbLine
 10
77.588718
 20
296.627199
 11
77.588718
 21
296.62845
  0
LINE
  5
5EC
100
AcDbEntity
  8
M2
 62
     7
100
AcDbLine
 10
38.488718
 20
296.62845
 11
38.488718
 21
296.627199
  0
LINE
  5
5ED
100
AcDbEntity
  8
M2
 62
     7
100
AcDbLine
 10
77.588718
 20
306.025949
 11
77.588718
 21
306.027199
  0
LINE
  5
5EE
100
AcDbEntity
  8
M2
 62
     7
100
AcDbLine
 10
38.488718
 20
306.027199
 11
38.488718
 21
306.025949
  0
LINE
  5
5EF
100
AcDbEntity
  8
M2
 62
     7
100
AcDbLine
 10
77.588718
 20
284.627199
 11
77.588718
 21
296.627199
  0
LINE
  5
5F0
100
AcDbEntity
  8
M2
 62
     7
100
AcDbLine
 10
38.488718
 20
296.627199
 11
38.488718
 21
284.627199
  0
LINE
  5
5F1
100
AcDbEntity
  8
M2
 62
     7
100
AcDbLine
 10
49.838718
 20
313.527199
 11
50.338718
 21
313.527199
  0
LINE
  5
5F2
100
AcDbEntity
  8
M2
 62
     7
100
AcDbLine
 10
67.238718
 20
293.827199
 11
67.238718
 21
307.427199
  0
LINE
  5
5F3
100
AcDbEntity
  8
M2
 62
     7
100
AcDbLine
 10
50.338718
 20
290.327199
 11
49.838718
 21
290.327199
  0
LINE
  5
5F4
100
AcDbEntity
  8
M2
 62
     7
100
AcDbLine
 10
38.488718
 20
318.027199
 11
38.488718
 21
306.027199
  0
LINE
  5
5F5
100
AcDbEntity
  8
M2
 62
     7
100
AcDbLine
 10
48.838718
 20
293.827199
 11
48.838718
 21
307.427199
  0
LINE
  5
5F6
100
AcDbEntity
  8
M2
 62
     7
100
AcDbLine
 10
77.588718
 20
306.027199
 11
77.588718
 21
318.027199
  0
LINE
  5
5F7
100
AcDbEntity
  8
M2
 62
     7
100
AcDbLine
 10
63.588718
 20
306.127199
 11
52.488718
 21
306.127199
  0
LINE
  5
5F8
100
AcDbEntity
  8
M2
 62
     7
100
AcDbLine
 10
65.738718
 20
313.527199
 11
66.238718
 21
313.527199
  0
LINE
  5
5F9
100
AcDbEntity
  8
M2
 62
     7
100
AcDbLine
 10
63.088718
 20
311.327199
 11
52.988718
 21
311.327199
  0
LINE
  5
5FA
100
AcDbEntity
  8
M2
 62
     7
100
AcDbLine
 10
65.738718
 20
290.327199
 11
66.238718
 21
290.327199
  0
ARC
  5
5FB
100
AcDbEntity
  8
M2
 62
     7
100
AcDbCircle
 10
37.538718
 20
306.027199
 40
1.0
100
AcDbArc
 50
180.0
 51
270.0
  0
ARC
  5
5FC
100
AcDbEntity
  8
M2
 62
     7
100
AcDbCircle
 10
78.588718
 20
306.025949
 40
1.0
100
AcDbArc
 50
180.0
 51
267.134016
  0
ARC
  5
5FD
100
AcDbEntity
  8
M2
 62
     7
100
AcDbCircle
 10
78.538718
 20
306.027199
 40
1.0
100
AcDbArc
 50
270.0
 51
360.0
  0
ARC
  5
5FE
100
AcDbEntity
  8
M2
 62
     7
100
AcDbCircle
 10
78.538718
 20
329.127199
 40
1.0
100
AcDbArc
 50
0.0
 51
90.0
  0
ARC
  5
5FF
100
AcDbEntity
  8
M2
 62
     7
100
AcDbCircle
 10
37.988718
 20
329.127199
 40
1.0
100
AcDbArc
 50
0.0
 51
90.0
  0
ARC
  5
600
100
AcDbEntity
  8
M2
 62
     7
100
AcDbCircle
 10
78.088718
 20
329.127199
 40
1.0
100
AcDbArc
 50
90.0
 51
180.0
  0
ARC
  5
601
100
AcDbEntity
  8
M2
 62
     7
100
AcDbCircle
 10
37.538718
 20
296.627199
 40
1.0
100
AcDbArc
 50
90.0
 51
180.0
  0
LINE
  5
602
100
AcDbEntity
  8
M2
 62
     7
100
AcDbLine
 10
39.888718
 20
327.027199
 11
40.888718
 21
327.027199
  0
ARC
  5
603
100
AcDbEntity
  8
M2
 62
     7
100
AcDbCircle
 10
78.538718
 20
296.627199
 40
1.0
100
AcDbArc
 50
0.0
 51
90.0
  0
ARC
  5
604
100
AcDbEntity
  8
M2
 62
     7
100
AcDbCircle
 10
78.588718
 20
296.62845
 40
1.0
100
AcDbArc
 50
92.865984
 51
180.0
  0
ARC
  5
605
100
AcDbEntity
  8
M2
 62
     7
100
AcDbCircle
 10
37.488718
 20
296.62845
 40
1.0
100
AcDbArc
 50
0.0
 51
87.134016
  0
LINE
  5
606
100
AcDbEntity
  8
M2
 62
     7
100
AcDbLine
 10
38.988718
 20
284.627199
 11
38.988718
 21
277.527199
  0
ARC
  5
607
100
AcDbEntity
  8
M2
 62
     7
100
AcDbCircle
 10
37.538718
 20
329.127199
 40
1.0
100
AcDbArc
 50
90.0
 51
180.0
  0
ARC
  5
608
100
AcDbEntity
  8
M2
 62
     7
100
AcDbCircle
 10
37.488718
 20
306.025949
 40
1.0
100
AcDbArc
 50
272.865984
 51
360.0
  0
ARC
  5
609
100
AcDbEntity
  8
M2
 62
     7
100
AcDbCircle
 10
64.088718
 20
290.827199
 40
0.5
100
AcDbArc
 50
180.0
 51
270.0
  0
LINE
  5
60A
100
AcDbEntity
  8
M2
 62
     7
100
AcDbLine
 10
38.988718
 20
277.527199
 11
38.988718
 21
273.527199
  0
ARC
  5
60B
100
AcDbEntity
  8
M2
 62
     7
100
AcDbCircle
 10
51.988718
 20
290.827199
 40
0.5
100
AcDbArc
 50
270.0
 51
360.0
  0
ARC
  5
60C
100
AcDbEntity
  8
M2
 62
     7
100
AcDbCircle
 10
66.488718
 20
289.827199
 40
0.5
100
AcDbArc
 50
67.201593
 51
90.0
  0
ARC
  5
60D
100
AcDbEntity
  8
M2
 62
     7
100
AcDbCircle
 10
66.488718
 20
314.027199
 40
0.5
100
AcDbArc
 50
270.0
 51
292.798407
  0
ARC
  5
60E
100
AcDbEntity
  8
M2
 62
     7
100
AcDbCircle
 10
49.588718
 20
289.827199
 40
0.5
100
AcDbArc
 50
90.0
 51
112.798407
  0
ARC
  5
60F
100
AcDbEntity
  8
M2
 62
     7
100
AcDbCircle
 10
37.538718
 20
273.527199
 40
1.0
100
AcDbArc
 50
180.0
 51
270.0
  0
ARC
  5
610
100
AcDbEntity
  8
M2
 62
     7
100
AcDbCircle
 10
49.588718
 20
314.027199
 40
0.5
100
AcDbArc
 50
247.201593
 51
270.0
  0
ARC
  5
611
100
AcDbEntity
  8
M2
 62
     7
100
AcDbCircle
 10
78.088718
 20
273.527199
 40
1.0
100
AcDbArc
 50
180.0
 51
270.0
  0
ARC
  5
612
100
AcDbEntity
  8
M2
 62
     7
100
AcDbCircle
 10
68.288718
 20
332.527199
 40
1.0
100
AcDbArc
 50
0.0
 51
90.0
  0
ARC
  5
613
100
AcDbEntity
  8
M2
 62
     7
100
AcDbCircle
 10
58.188718
 20
332.527199
 40
1.0
100
AcDbArc
 50
0.0
 51
90.0
  0
ARC
  5
614
100
AcDbEntity
  8
M2
 62
     7
100
AcDbCircle
 10
67.988718
 20
332.527199
 40
1.0
100
AcDbArc
 50
90.0
 51
180.0
  0
ARC
  5
615
100
AcDbEntity
  8
M2
 62
     7
100
AcDbCircle
 10
56.388718
 20
289.827199
 40
0.5
100
AcDbArc
 50
53.130102
 51
90.0
  0
ARC
  5
616
100
AcDbEntity
  8
M2
 62
     7
100
AcDbCircle
 10
47.788718
 20
332.527199
 40
1.0
100
AcDbArc
 50
90.0
 51
180.0
  0
LINE
  5
617
100
AcDbEntity
  8
M2
 62
     7
100
AcDbLine
 10
68.088718
 20
333.527199
 11
68.288718
 21
333.527199
  0
LINE
  5
618
100
AcDbEntity
  8
M2
 62
     7
100
AcDbLine
 10
67.988718
 20
333.527199
 11
68.088718
 21
333.527199
  0
ARC
  5
619
100
AcDbEntity
  8
M2
 62
     7
100
AcDbCircle
 10
78.538718
 20
273.527199
 40
1.0
100
AcDbArc
 50
270.0
 51
360.0
  0
ARC
  5
61A
100
AcDbEntity
  8
M2
 62
     7
100
AcDbCircle
 10
59.688718
 20
289.827199
 40
0.5
100
AcDbArc
 50
90.0
 51
126.869898
  0
ARC
  5
61B
100
AcDbEntity
  8
M2
 62
     7
100
AcDbCircle
 10
37.988718
 20
273.527199
 40
1.0
100
AcDbArc
 50
270.0
 51
360.0
  0
LINE
  5
61C
100
AcDbEntity
  8
M2
 62
     7
100
AcDbLine
 10
56.888718
 20
318.027199
 11
56.888718
 21
332.527199
  0
LINE
  5
61D
100
AcDbEntity
  8
M2
 62
     7
100
AcDbLine
 10
47.788718
 20
333.527199
 11
47.988718
 21
333.527199
  0
LINE
  5
61E
100
AcDbEntity
  8
M2
 62
     7
100
AcDbLine
 10
49.088718
 20
332.527199
 11
49.088718
 21
329.527199
  0
LINE
  5
61F
100
AcDbEntity
  8
M2
 62
     7
100
AcDbLine
 10
78.088718
 20
330.127199
 11
78.538718
 21
330.127199
  0
LINE
  5
620
100
AcDbEntity
  8
M2
 62
     7
100
AcDbLine
 10
38.988718
 20
329.127199
 11
38.988718
 21
325.127199
  0
LINE
  5
621
100
AcDbEntity
  8
M2
 62
     7
100
AcDbLine
 10
77.588718
 20
318.027199
 11
38.488718
 21
318.027199
  0
LINE
  5
622
100
AcDbEntity
  8
M2
 62
     7
100
AcDbLine
 10
63.588718
 20
295.027199
 11
52.488718
 21
295.027199
  0
LINE
  5
623
100
AcDbEntity
  8
M2
 62
     7
100
AcDbLine
 10
52.488718
 20
291.827199
 11
63.588718
 21
291.827199
  0
LINE
  5
624
100
AcDbEntity
  8
M2
 62
     7
100
AcDbLine
 10
52.488718
 20
296.427199
 11
63.588718
 21
296.427199
  0
ARC
  5
625
100
AcDbEntity
  8
M2
 62
     7
100
AcDbCircle
 10
57.888718
 20
332.527199
 40
1.0
100
AcDbArc
 50
90.0
 51
180.0
  0
LINE
  5
626
100
AcDbEntity
  8
M2
 62
     7
100
AcDbLine
 10
49.838718
 20
290.327199
 11
51.988718
 21
290.327199
  0
ARC
  5
627
100
AcDbEntity
  8
M2
 62
     7
100
AcDbCircle
 10
48.088718
 20
332.527199
 40
1.0
100
AcDbArc
 50
0.0
 51
90.0
  0
LINE
  5
628
100
AcDbEntity
  8
M2
 62
     7
100
AcDbLine
 10
38.988718
 20
325.127199
 11
38.988718
 21
318.027199
  0
LINE
  5
629
100
AcDbEntity
  8
M2
 62
     7
100
AcDbLine
 10
37.538718
 20
330.127199
 11
37.988718
 21
330.127199
  0
LINE
  5
62A
100
AcDbEntity
  8
M2
 62
     7
100
AcDbLine
 10
64.088718
 20
290.327199
 11
51.988718
 21
290.327199
  0
LINE
  5
62B
100
AcDbEntity
  8
M2
 62
     7
100
AcDbLine
 10
46.788718
 20
332.127199
 11
44.888718
 21
332.127199
  0
LINE
  5
62C
100
AcDbEntity
  8
M2
 62
     7
100
AcDbLine
 10
41.038718
 20
345.127199
 11
41.038718
 21
333.327199
  0
LINE
  5
62D
100
AcDbEntity
  8
M2
 62
     7
100
AcDbLine
 10
56.888718
 20
297.227199
 11
56.888718
 21
297.727199
  0
LINE
  5
62E
100
AcDbEntity
  8
M2
 62
     7
100
AcDbLine
 10
63.338718
 20
305.427199
 11
63.338718
 21
297.227199
  0
LINE
  5
62F
100
AcDbEntity
  8
M2
 62
     7
100
AcDbLine
 10
60.288718
 20
305.927199
 11
62.838718
 21
305.927199
  0
LINE
  5
630
100
AcDbEntity
  8
M2
 62
     7
100
AcDbLine
 10
55.788718
 20
305.927199
 11
53.238718
 21
305.927199
  0
LINE
  5
631
100
AcDbEntity
  8
M2
 62
     7
100
AcDbLine
 10
54.588718
 20
335.727199
 11
61.488718
 21
335.727199
  0
LINE
  5
632
100
AcDbEntity
  8
M2
 62
     7
100
AcDbLine
 10
54.588718
 20
334.227199
 11
61.488718
 21
334.227199
  0
LINE
  5
633
100
AcDbEntity
  8
M2
 62
     7
100
AcDbLine
 10
53.613702
 20
272.327199
 11
51.513223
 21
272.327199
  0
LINE
  5
634
100
AcDbEntity
  8
M2
 62
     7
100
AcDbLine
 10
66.988718
 20
270.327199
 11
66.913718
 21
270.327199
  0
LINE
  5
635
100
AcDbEntity
  8
M2
 62
     7
100
AcDbLine
 10
59.188718
 20
332.127199
 11
61.088718
 21
332.127199
  0
LINE
  5
636
100
AcDbEntity
  8
M2
 62
     7
100
AcDbLine
 10
75.038718
 20
332.127199
 11
69.288718
 21
332.127199
  0
LINE
  5
637
100
AcDbEntity
  8
M2
 62
     7
100
AcDbLine
 10
75.038718
 20
327.027199
 11
75.038718
 21
332.127199
  0
ARC
  5
638
100
AcDbEntity
  8
M2
 62
     7
100
AcDbCircle
 10
51.088718
 20
270.327199
 40
2.0
100
AcDbArc
 50
125.99726
 51
180.0
  0
ARC
  5
639
100
AcDbEntity
  8
M2
 62
     7
100
AcDbCircle
 10
48.088718
 20
266.827199
 40
1.0
100
AcDbArc
 50
330.000341
 51
360.0
  0
ARC
  5
63A
100
AcDbEntity
  8
M2
 62
     7
100
AcDbCircle
 10
58.188718
 20
266.827199
 40
1.0
100
AcDbArc
 50
330.00135
 51
360.0
  0
ARC
  5
63B
100
AcDbEntity
  8
M2
 62
     7
100
AcDbCircle
 10
47.788718
 20
266.827199
 40
1.0
100
AcDbArc
 50
180.0
 51
270.0
  0
ARC
  5
63C
100
AcDbEntity
  8
M2
 62
     7
100
AcDbCircle
 10
57.888718
 20
266.827199
 40
1.0
100
AcDbArc
 50
180.0
 51
270.0
  0
ARC
  5
63D
100
AcDbEntity
  8
M2
 62
     7
100
AcDbCircle
 10
60.288718
 20
305.427199
 40
0.5
100
AcDbArc
 50
90.0
 51
180.0
  0
ARC
  5
63E
100
AcDbEntity
  8
M2
 62
     7
100
AcDbCircle
 10
55.788718
 20
305.427199
 40
0.5
100
AcDbArc
 50
0.0
 51
90.0
  0
ARC
  5
63F
100
AcDbEntity
  8
M2
 62
     7
100
AcDbCircle
 10
62.838718
 20
305.427199
 40
0.5
100
AcDbArc
 50
0.0
 51
90.0
  0
ARC
  5
640
100
AcDbEntity
  8
M2
 62
     7
100
AcDbCircle
 10
53.238718
 20
305.427199
 40
0.5
100
AcDbArc
 50
90.0
 51
180.0
  0
LINE
  5
641
100
AcDbEntity
  8
M2
 62
     7
100
AcDbLine
 10
59.188718
 20
298.227199
 11
59.288718
 21
298.227199
  0
LINE
  5
642
100
AcDbEntity
  8
M2
 62
     7
100
AcDbLine
 10
59.188718
 20
297.727199
 11
59.188718
 21
298.227199
  0
LINE
  5
643
100
AcDbEntity
  8
M2
 62
     7
100
AcDbLine
 10
52.738718
 20
305.427199
 11
52.738718
 21
297.227199
  0
LINE
  5
644
100
AcDbEntity
  8
M2
 62
     7
100
AcDbLine
 10
59.788718
 20
298.727199
 11
59.788718
 21
305.427199
  0
LINE
  5
645
100
AcDbEntity
  8
M2
 62
     7
100
AcDbLine
 10
59.188718
 20
297.227199
 11
59.188718
 21
297.727199
  0
LINE
  5
646
100
AcDbEntity
  8
M2
 62
     7
100
AcDbLine
 10
56.288718
 20
298.727199
 11
56.288718
 21
305.427199
  0
LINE
  5
647
100
AcDbEntity
  8
M2
 62
     7
100
AcDbLine
 10
62.838718
 20
296.727199
 11
59.688718
 21
296.727199
  0
LINE
  5
648
100
AcDbEntity
  8
M2
 62
     7
100
AcDbLine
 10
56.888718
 20
297.727199
 11
56.888718
 21
298.227199
  0
LINE
  5
649
100
AcDbEntity
  8
M2
 62
     7
100
AcDbLine
 10
53.238718
 20
296.727199
 11
56.388718
 21
296.727199
  0
LINE
  5
64A
100
AcDbEntity
  8
M2
 62
     7
100
AcDbLine
 10
56.888718
 20
298.227199
 11
56.788718
 21
298.227199
  0
LINE
  5
64B
100
AcDbEntity
  8
M2
 62
     7
100
AcDbLine
 10
56.888718
 20
304.927199
 11
56.888718
 21
306.127199
  0
LINE
  5
64C
100
AcDbEntity
  8
M2
 62
     7
100
AcDbLine
 10
63.588718
 20
297.027199
 11
63.55286
 21
297.027199
  0
LINE
  5
64D
100
AcDbEntity
  8
M2
 62
     7
100
AcDbLine
 10
52.805705
 20
305.677199
 11
52.801754
 21
305.670214
  0
LINE
  5
64E
100
AcDbEntity
  8
M2
 62
     7
100
AcDbLine
 10
52.488718
 20
297.027199
 11
52.524575
 21
297.027199
  0
LINE
  5
64F
100
AcDbEntity
  8
M2
 62
     7
100
AcDbLine
 10
57.388718
 20
302.727199
 11
58.688718
 21
302.727199
  0
LINE
  5
650
100
AcDbEntity
  8
M2
 62
     7
100
AcDbLine
 10
59.188718
 20
296.427199
 11
59.188718
 21
297.227199
  0
LINE
  5
651
100
AcDbEntity
  8
M2
 62
     7
100
AcDbLine
 10
56.888718
 20
296.427199
 11
56.888718
 21
297.227199
  0
LINE
  5
652
100
AcDbEntity
  8
M2
 62
     7
100
AcDbLine
 10
59.688718
 20
305.927199
 11
61.038718
 21
305.927199
  0
LINE
  5
653
100
AcDbEntity
  8
M2
 62
     7
100
AcDbLine
 10
56.388718
 20
305.927199
 11
55.038718
 21
305.927199
  0
LINE
  5
654
100
AcDbEntity
  8
M2
 62
     7
100
AcDbLine
 10
59.188718
 20
298.227199
 11
59.188718
 21
298.727199
  0
LINE
  5
655
100
AcDbEntity
  8
M2
 62
     7
100
AcDbLine
 10
62.038718
 20
305.927199
 11
61.038718
 21
305.927199
  0
LINE
  5
656
100
AcDbEntity
  8
M2
 62
     7
100
AcDbLine
 10
56.888718
 20
298.227199
 11
56.888718
 21
298.727199
  0
LINE
  5
657
100
AcDbEntity
  8
M2
 62
     7
100
AcDbLine
 10
54.038718
 20
305.927199
 11
55.038718
 21
305.927199
  0
LINE
  5
658
100
AcDbEntity
  8
M2
 62
     7
100
AcDbLine
 10
56.888718
 20
299.227199
 11
56.888718
 21
298.727199
  0
LINE
  5
659
100
AcDbEntity
  8
M2
 62
     7
100
AcDbLine
 10
59.188718
 20
304.927199
 11
59.188718
 21
306.127199
  0
LINE
  5
65A
100
AcDbEntity
  8
M2
 62
     7
100
AcDbLine
 10
59.188718
 20
299.227199
 11
59.188718
 21
298.727199
  0
LINE
  5
65B
100
AcDbEntity
  8
M2
 62
     7
100
AcDbLine
 10
56.888718
 20
303.227199
 11
56.888718
 21
305.427199
  0
LINE
  5
65C
100
AcDbEntity
  8
M2
 62
     7
100
AcDbLine
 10
57.388718
 20
299.727199
 11
58.688718
 21
299.727199
  0
LINE
  5
65D
100
AcDbEntity
  8
M2
 62
     7
100
AcDbLine
 10
59.188718
 20
303.227199
 11
59.188718
 21
305.427199
  0
LINE
  5
65E
100
AcDbEntity
  8
M2
 62
     7
100
AcDbLine
 10
46.788718
 20
276.627199
 11
46.369843
 21
276.627199
  0
LINE
  5
65F
100
AcDbEntity
  8
M2
 62
     7
100
AcDbLine
 10
56.888718
 20
266.827199
 11
56.888718
 21
284.627199
  0
LINE
  5
660
100
AcDbEntity
  8
M2
 62
     7
100
AcDbLine
 10
77.088718
 20
276.627199
 11
76.669843
 21
276.627199
  0
LINE
  5
661
100
AcDbEntity
  8
M2
 62
     7
100
AcDbLine
 10
39.407593
 20
276.627199
 11
38.988718
 21
276.627199
  0
LINE
  5
662
100
AcDbEntity
  8
M2
 62
     7
100
AcDbLine
 10
59.607593
 20
276.627199
 11
59.188718
 21
276.627199
  0
LINE
  5
663
100
AcDbEntity
  8
M2
 62
     7
100
AcDbLine
 10
57.888718
 20
265.827199
 11
58.188718
 21
265.827199
  0
LINE
  5
664
100
AcDbEntity
  8
M2
 62
     7
100
AcDbLine
 10
49.088718
 20
332.127199
 11
50.988718
 21
332.127199
  0
LINE
  5
665
100
AcDbEntity
  8
M2
 62
     7
100
AcDbLine
 10
47.788718
 20
265.827199
 11
48.088718
 21
265.827199
  0
LINE
  5
666
100
AcDbEntity
  8
M2
 62
     7
100
AcDbLine
 10
46.788718
 20
266.827199
 11
46.788718
 21
284.627199
  0
LINE
  5
667
100
AcDbEntity
  8
M2
 62
     7
100
AcDbLine
 10
49.088718
 20
284.627199
 11
49.088718
 21
266.827199
  0
ARC
  5
668
100
AcDbEntity
  8
M2
 62
     7
100
AcDbCircle
 10
57.388718
 20
299.227199
 40
0.5
100
AcDbArc
 50
90.0
 51
180.0
  0
ARC
  5
669
100
AcDbEntity
  8
M2
 62
     7
100
AcDbCircle
 10
58.688718
 20
303.227199
 40
0.5
100
AcDbArc
 50
270.0
 51
360.0
  0
ARC
  5
66A
100
AcDbEntity
  8
M2
 62
     7
100
AcDbCircle
 10
58.688718
 20
299.227199
 40
0.5
100
AcDbArc
 50
0.0
 51
90.0
  0
ARC
  5
66B
100
AcDbEntity
  8
M2
 62
     7
100
AcDbCircle
 10
56.388718
 20
305.427199
 40
0.5
100
AcDbArc
 50
0.0
 51
90.0
  0
ARC
  5
66C
100
AcDbEntity
  8
M2
 62
     7
100
AcDbCircle
 10
59.688718
 20
305.427199
 40
0.5
100
AcDbArc
 50
90.0
 51
180.0
  0
ARC
  5
66D
100
AcDbEntity
  8
M2
 62
     7
100
AcDbCircle
 10
59.688718
 20
297.227199
 40
0.5
100
AcDbArc
 50
180.0
 51
270.0
  0
LINE
  5
66E
100
AcDbEntity
  8
M2
 62
     7
100
AcDbLine
 10
59.188718
 20
284.627199
 11
59.188718
 21
266.827199
  0
ARC
  5
66F
100
AcDbEntity
  8
M2
 62
     7
100
AcDbCircle
 10
53.196752
 20
297.188366
 40
0.44285
100
AcDbArc
 50
206.131697
 51
224.639687
  0
LINE
  5
670
100
AcDbEntity
  8
M2
 62
     7
100
AcDbLine
 10
65.838718
 20
290.327199
 11
65.838718
 21
290.227199
  0
LINE
  5
671
100
AcDbEntity
  8
M2
 62
     7
100
AcDbLine
 10
68.188718
 20
269.127199
 11
68.288718
 21
269.127199
  0
LINE
  5
672
100
AcDbEntity
  8
M2
 62
     7
100
AcDbLine
 10
50.238718
 20
290.227199
 11
50.238718
 21
290.327199
  0
LINE
  5
673
100
AcDbEntity
  8
M2
 62
     7
100
AcDbLine
 10
56.469843
 20
326.027199
 11
56.888718
 21
326.027199
  0
LINE
  5
674
100
AcDbEntity
  8
M2
 62
     7
100
AcDbLine
 10
66.569843
 20
326.027199
 11
66.988718
 21
326.027199
  0
LINE
  5
675
100
AcDbEntity
  8
M2
 62
     7
100
AcDbLine
 10
59.188718
 20
326.027199
 11
59.607593
 21
326.027199
  0
LINE
  5
676
100
AcDbEntity
  8
M2
 62
     7
100
AcDbLine
 10
49.507593
 20
276.627199
 11
49.088718
 21
276.627199
  0
LINE
  5
677
100
AcDbEntity
  8
M2
 62
     7
100
AcDbLine
 10
69.707593
 20
276.627199
 11
69.288718
 21
276.627199
  0
LINE
  5
678
100
AcDbEntity
  8
M2
 62
     7
100
AcDbLine
 10
56.888718
 20
276.627199
 11
56.469843
 21
276.627199
  0
LINE
  5
679
100
AcDbEntity
  8
M2
 62
     7
100
AcDbLine
 10
60.338718
 20
290.227199
 11
60.338718
 21
290.327199
  0
LINE
  5
67A
100
AcDbEntity
  8
M2
 62
     7
100
AcDbLine
 10
66.988718
 20
276.627199
 11
66.569843
 21
276.627199
  0
LINE
  5
67B
100
AcDbEntity
  8
M2
 62
     7
100
AcDbLine
 10
65.838718
 20
313.627199
 11
65.838718
 21
313.527199
  0
LINE
  5
67C
100
AcDbEntity
  8
M2
 62
     7
100
AcDbLine
 10
68.288718
 20
333.527199
 11
68.188718
 21
333.527199
  0
LINE
  5
67D
100
AcDbEntity
  8
M2
 62
     7
100
AcDbLine
 10
47.888718
 20
333.527199
 11
47.788718
 21
333.527199
  0
LINE
  5
67E
100
AcDbEntity
  8
M2
 62
     7
100
AcDbLine
 10
48.088718
 20
266.327199
 11
47.788718
 21
266.327199
  0
LINE
  5
67F
100
AcDbEntity
  8
M2
 62
     7
100
AcDbLine
 10
50.238718
 20
313.527199
 11
50.238718
 21
313.627199
  0
LINE
  5
680
100
AcDbEntity
  8
M2
 62
     7
100
AcDbLine
 10
58.188718
 20
266.327199
 11
57.888718
 21
266.327199
  0
LINE
  5
681
100
AcDbEntity
  8
M2
 62
     7
100
AcDbLine
 10
69.288718
 20
326.027199
 11
69.707593
 21
326.027199
  0
LINE
  5
682
100
AcDbEntity
  8
M2
 62
     7
100
AcDbLine
 10
55.738718
 20
290.327199
 11
55.738718
 21
290.227199
  0
LINE
  5
683
100
AcDbEntity
  8
M2
 62
     7
100
AcDbLine
 10
76.669843
 20
326.027199
 11
77.088718
 21
326.027199
  0
LINE
  5
684
100
AcDbEntity
  8
M2
 62
     7
100
AcDbLine
 10
49.088718
 20
326.027199
 11
49.507593
 21
326.027199
  0
LINE
  5
685
100
AcDbEntity
  8
M2
 62
     7
100
AcDbLine
 10
38.988718
 20
326.027199
 11
39.407593
 21
326.027199
  0
LINE
  5
686
100
AcDbEntity
  8
M2
 62
     7
100
AcDbLine
 10
46.369843
 20
326.027199
 11
46.788718
 21
326.027199
  0
LINE
  5
687
100
AcDbEntity
  8
M2
 62
     7
100
AcDbLine
 10
49.088718
 20
329.527199
 11
49.088718
 21
320.527199
  0
LINE
  5
688
100
AcDbEntity
  8
M2
 62
     7
100
AcDbLine
 10
57.888718
 20
333.527199
 11
57.988718
 21
333.527199
  0
LINE
  5
689
100
AcDbEntity
  8
M2
 62
     7
100
AcDbLine
 10
67.988718
 20
283.127199
 11
68.288718
 21
283.127199
  0
LINE
  5
68A
100
AcDbEntity
  8
M2
 62
     7
100
AcDbLine
 10
47.788718
 20
283.127199
 11
48.088718
 21
283.127199
  0
LINE
  5
68B
100
AcDbEntity
  8
M2
 62
     7
100
AcDbLine
 10
68.288718
 20
319.527199
 11
67.988718
 21
319.527199
  0
LINE
  5
68C
100
AcDbEntity
  8
M2
 62
     7
100
AcDbLine
 10
58.188718
 20
319.527199
 11
57.888718
 21
319.527199
  0
LINE
  5
68D
100
AcDbEntity
  8
M2
 62
     7
100
AcDbLine
 10
48.088718
 20
319.527199
 11
47.788718
 21
319.527199
  0
ARC
  5
68E
100
AcDbEntity
  8
M2
 62
     7
100
AcDbCircle
 10
58.188718
 20
267.327199
 40
1.0
100
AcDbArc
 50
270.0
 51
360.0
  0
ARC
  5
68F
100
AcDbEntity
  8
M2
 62
     7
100
AcDbCircle
 10
57.888718
 20
267.327199
 40
1.0
100
AcDbArc
 50
180.0
 51
270.0
  0
ARC
  5
690
100
AcDbEntity
  8
M2
 62
     7
100
AcDbCircle
 10
58.188718
 20
298.827199
 40
0.5
100
AcDbArc
 50
0.0
 51
90.0
  0
ARC
  5
691
100
AcDbEntity
  8
M2
 62
     7
100
AcDbCircle
 10
58.188718
 20
303.827199
 40
0.5
100
AcDbArc
 50
270.0
 51
360.0
  0
ARC
  5
692
100
AcDbEntity
  8
M2
 62
     7
100
AcDbCircle
 10
57.888718
 20
298.827199
 40
0.5
100
AcDbArc
 50
90.0
 51
180.0
  0
ARC
  5
693
100
AcDbEntity
  8
M2
 62
     7
100
AcDbCircle
 10
57.888718
 20
303.827199
 40
0.5
100
AcDbArc
 50
180.0
 51
270.0
  0
LINE
  5
694
100
AcDbEntity
  8
M2
 62
     7
100
AcDbLine
 10
58.088718
 20
333.527199
 11
58.188718
 21
333.527199
  0
LINE
  5
695
100
AcDbEntity
  8
M2
 62
     7
100
AcDbLine
 10
46.788718
 20
320.527199
 11
46.788718
 21
329.527199
  0
LINE
  5
696
100
AcDbEntity
  8
M2
 62
     7
100
AcDbLine
 10
57.988718
 20
333.527199
 11
58.088718
 21
333.527199
  0
ARC
  5
697
100
AcDbEntity
  8
M2
 62
     7
100
AcDbCircle
 10
48.088718
 20
267.327199
 40
1.0
100
AcDbArc
 50
270.0
 51
360.0
  0
LINE
  5
698
100
AcDbEntity
  8
M2
 62
     7
100
AcDbLine
 10
47.988718
 20
333.527199
 11
48.088718
 21
333.527199
  0
ARC
  5
699
100
AcDbEntity
  8
M2
 62
     7
100
AcDbCircle
 10
47.788718
 20
267.327199
 40
1.0
100
AcDbArc
 50
180.0
 51
270.0
  0
LINE
  5
69A
100
AcDbEntity
  8
M2
 62
     7
100
AcDbLine
 10
49.088718
 20
275.527199
 11
49.088718
 21
274.527199
  0
LINE
  5
69B
100
AcDbEntity
  8
M2
 62
     7
100
AcDbLine
 10
38.988718
 20
274.527199
 11
38.988718
 21
275.527199
  0
LINE
  5
69C
100
AcDbEntity
  8
M2
 62
     7
100
AcDbLine
 10
77.088718
 20
275.527199
 11
77.088718
 21
274.527199
  0
ARC
  5
69D
100
AcDbEntity
  8
M2
 62
     7
100
AcDbCircle
 10
53.238718
 20
297.227199
 40
0.5
100
AcDbArc
 50
180.0
 51
270.0
  0
ARC
  5
69E
100
AcDbEntity
  8
M2
 62
     7
100
AcDbCircle
 10
62.838718
 20
297.227199
 40
0.5
100
AcDbArc
 50
270.0
 51
360.0
  0
ARC
  5
69F
100
AcDbEntity
  8
M2
 62
     7
100
AcDbCircle
 10
56.388718
 20
297.227199
 40
0.5
100
AcDbArc
 50
270.0
 51
360.0
  0
ARC
  5
6A0
100
AcDbEntity
  8
M2
 62
     7
100
AcDbCircle
 10
59.288718
 20
298.727199
 40
0.5
100
AcDbArc
 50
270.0
 51
360.0
  0
ARC
  5
6A1
100
AcDbEntity
  8
M2
 62
     7
100
AcDbCircle
 10
56.788718
 20
298.727199
 40
0.5
100
AcDbArc
 50
180.0
 51
270.0
  0
ARC
  5
6A2
100
AcDbEntity
  8
M2
 62
     7
100
AcDbCircle
 10
57.388718
 20
303.227199
 40
0.5
100
AcDbArc
 50
180.0
 51
270.0
  0
LINE
  5
6A3
100
AcDbEntity
  8
M2
 62
     7
100
AcDbLine
 10
38.988718
 20
327.127199
 11
38.988718
 21
328.127199
  0
LINE
  5
6A4
100
AcDbEntity
  8
M2
 62
     7
100
AcDbLine
 10
49.088718
 20
327.127199
 11
49.088718
 21
328.127199
  0
LINE
  5
6A5
100
AcDbEntity
  8
M2
 62
     7
100
AcDbLine
 10
78.288718
 20
330.127199
 11
78.088718
 21
330.127199
  0
LINE
  5
6A6
100
AcDbEntity
  8
M2
 62
     7
100
AcDbLine
 10
77.088718
 20
329.127199
 11
77.088718
 21
318.027199
  0
LINE
  5
6A7
100
AcDbEntity
  8
M2
 62
     7
100
AcDbLine
 10
78.288718
 20
272.527199
 11
78.088718
 21
272.527199
  0
LINE
  5
6A8
100
AcDbEntity
  8
M2
 62
     7
100
AcDbLine
 10
77.088718
 20
274.527199
 11
77.088718
 21
273.527199
  0
LINE
  5
6A9
100
AcDbEntity
  8
M2
 62
     7
100
AcDbLine
 10
38.988718
 20
273.527199
 11
38.988718
 21
274.527199
  0
LINE
  5
6AA
100
AcDbEntity
  8
M2
 62
     7
100
AcDbLine
 10
38.988718
 20
328.127199
 11
38.988718
 21
329.127199
  0
LINE
  5
6AB
100
AcDbEntity
  8
M2
 62
     7
100
AcDbLine
 10
37.788718
 20
272.527199
 11
37.988718
 21
272.527199
  0
LINE
  5
6AC
100
AcDbEntity
  8
M2
 62
     7
100
AcDbLine
 10
57.888718
 20
303.327199
 11
58.188718
 21
303.327199
  0
LINE
  5
6AD
100
AcDbEntity
  8
M2
 62
     7
100
AcDbLine
 10
49.088718
 20
328.127199
 11
49.088718
 21
332.527199
  0
LINE
  5
6AE
100
AcDbEntity
  8
M2
 62
     7
100
AcDbLine
 10
58.688718
 20
296.427199
 11
58.688718
 21
298.827199
  0
LINE
  5
6AF
100
AcDbEntity
  8
M2
 62
     7
100
AcDbLine
 10
37.788718
 20
330.127199
 11
37.988718
 21
330.127199
  0
LINE
  5
6B0
100
AcDbEntity
  8
M2
 62
     7
100
AcDbLine
 10
57.388718
 20
298.827199
 11
57.388718
 21
296.427199
  0
LINE
  5
6B1
100
AcDbEntity
  8
M2
 62
     7
100
AcDbLine
 10
57.388718
 20
306.127199
 11
57.388718
 21
303.827199
  0
LINE
  5
6B2
100
AcDbEntity
  8
M2
 62
     7
100
AcDbLine
 10
57.888718
 20
299.327199
 11
58.188718
 21
299.327199
  0
LINE
  5
6B3
100
AcDbEntity
  8
M2
 62
     7
100
AcDbLine
 10
58.688718
 20
303.827199
 11
58.688718
 21
306.127199
  0
LINE
  5
6B4
100
AcDbEntity
  8
M2
 62
     7
100
AcDbLine
 10
38.638718
 20
317.527199
 11
38.638718
 21
305.577199
  0
LINE
  5
6B5
100
AcDbEntity
  8
M2
 62
     7
100
AcDbLine
 10
66.338718
 20
290.227199
 11
49.738718
 21
290.227199
  0
LINE
  5
6B6
100
AcDbEntity
  8
M2
 62
     7
100
AcDbLine
 10
53.138718
 20
311.927199
 11
53.138718
 21
312.627199
  0
LINE
  5
6B7
100
AcDbEntity
  8
M2
 62
     7
100
AcDbLine
 10
52.138718
 20
313.627199
 11
49.738718
 21
313.627199
  0
LINE
  5
6B8
100
AcDbEntity
  8
M2
 62
     7
100
AcDbLine
 10
62.438718
 20
311.427199
 11
53.638718
 21
311.427199
  0
LINE
  5
6B9
100
AcDbEntity
  8
M2
 62
     7
100
AcDbLine
 10
63.938718
 20
313.627199
 11
66.338718
 21
313.627199
  0
LINE
  5
6BA
100
AcDbEntity
  8
M2
 62
     7
100
AcDbLine
 10
62.938718
 20
311.927199
 11
62.938718
 21
312.627199
  0
LINE
  5
6BB
100
AcDbEntity
  8
M2
 62
     7
100
AcDbLine
 10
67.338718
 20
291.227199
 11
67.338718
 21
312.627199
  0
ARC
  5
6BC
100
AcDbEntity
  8
M2
 62
     7
100
AcDbCircle
 10
49.738718
 20
312.627199
 40
1.0
100
AcDbArc
 50
90.0
 51
180.0
  0
ARC
  5
6BD
100
AcDbEntity
  8
M2
 62
     7
100
AcDbCircle
 10
52.138718
 20
312.627199
 40
1.0
100
AcDbArc
 50
0.0
 51
90.0
  0
ARC
  5
6BE
100
AcDbEntity
  8
M2
 62
     7
100
AcDbCircle
 10
62.438718
 20
311.927199
 40
0.5
100
AcDbArc
 50
270.0
 51
360.0
  0
ARC
  5
6BF
100
AcDbEntity
  8
M2
 62
     7
100
AcDbCircle
 10
53.638718
 20
311.927199
 40
0.5
100
AcDbArc
 50
180.0
 51
270.0
  0
ARC
  5
6C0
100
AcDbEntity
  8
M2
 62
     7
100
AcDbCircle
 10
63.938718
 20
312.627199
 40
1.0
100
AcDbArc
 50
90.0
 51
180.0
  0
ARC
  5
6C1
100
AcDbEntity
  8
M2
 62
     7
100
AcDbCircle
 10
66.338718
 20
312.627199
 40
1.0
100
AcDbArc
 50
0.0
 51
90.0
  0
ARC
  5
6C2
100
AcDbEntity
  8
M2
 62
     7
100
AcDbCircle
 10
66.338718
 20
291.227199
 40
1.0
100
AcDbArc
 50
270.0
 51
360.0
  0
ARC
  5
6C3
100
AcDbEntity
  8
M2
 62
     7
100
AcDbCircle
 10
39.138718
 20
317.527199
 40
0.5
100
AcDbArc
 50
90.0
 51
180.0
  0
ARC
  5
6C4
100
AcDbEntity
  8
M2
 62
     7
100
AcDbCircle
 10
49.738718
 20
291.227199
 40
1.0
100
AcDbArc
 50
180.0
 51
270.0
  0
ARC
  5
6C5
100
AcDbEntity
  8
M2
 62
     7
100
AcDbCircle
 10
41.538718
 20
298.077199
 40
0.5
100
AcDbArc
 50
270.0
 51
360.0
  0
ARC
  5
6C6
100
AcDbEntity
  8
M2
 62
     7
100
AcDbCircle
 10
39.138718
 20
297.077199
 40
0.5
100
AcDbArc
 50
90.0
 51
180.0
  0
ARC
  5
6C7
100
AcDbEntity
  8
M2
 62
     7
100
AcDbCircle
 10
74.538718
 20
304.577199
 40
0.5
100
AcDbArc
 50
90.0
 51
180.0
  0
ARC
  5
6C8
100
AcDbEntity
  8
M2
 62
     7
100
AcDbCircle
 10
41.538718
 20
304.577199
 40
0.5
100
AcDbArc
 50
0.0
 51
90.0
  0
ARC
  5
6C9
100
AcDbEntity
  8
M2
 62
     7
100
AcDbCircle
 10
76.938718
 20
305.577199
 40
0.5
100
AcDbArc
 50
270.0
 51
360.0
  0
ARC
  5
6CA
100
AcDbEntity
  8
M2
 62
     7
100
AcDbCircle
 10
39.138718
 20
305.577199
 40
0.5
100
AcDbArc
 50
180.0
 51
270.0
  0
ARC
  5
6CB
100
AcDbEntity
  8
M2
 62
     7
100
AcDbCircle
 10
60.588718
 20
289.827199
 40
0.5
100
AcDbArc
 50
53.130102
 51
90.0
  0
ARC
  5
6CC
100
AcDbEntity
  8
M2
 62
     7
100
AcDbCircle
 10
65.588718
 20
289.827199
 40
0.5
100
AcDbArc
 50
90.0
 51
126.869898
  0
ARC
  5
6CD
100
AcDbEntity
  8
M2
 62
     7
100
AcDbCircle
 10
76.938718
 20
285.127199
 40
0.5
100
AcDbArc
 50
270.0
 51
360.0
  0
ARC
  5
6CE
100
AcDbEntity
  8
M2
 62
     7
100
AcDbCircle
 10
76.938718
 20
297.077199
 40
0.5
100
AcDbArc
 50
0.0
 51
90.0
  0
ARC
  5
6CF
100
AcDbEntity
  8
M2
 62
     7
100
AcDbCircle
 10
39.138718
 20
285.127199
 40
0.5
100
AcDbArc
 50
180.0
 51
270.0
  0
LINE
  5
6D0
100
AcDbEntity
  8
M2
 62
     7
100
AcDbLine
 10
63.713718
 20
275.627199
 11
61.513223
 21
275.627199
  0
ARC
  5
6D1
100
AcDbEntity
  8
M2
 62
     7
100
AcDbCircle
 10
76.938718
 20
317.527199
 40
0.5
100
AcDbArc
 50
0.0
 51
90.0
  0
ARC
  5
6D2
100
AcDbEntity
  8
M2
 62
     7
100
AcDbCircle
 10
74.538718
 20
298.077199
 40
0.5
100
AcDbArc
 50
180.0
 51
270.0
  0
LINE
  5
6D3
100
AcDbEntity
  8
M2
 62
     7
100
AcDbLine
 10
69.288718
 20
332.227199
 11
75.038718
 21
332.227199
  0
LINE
  5
6D4
100
AcDbEntity
  8
M2
 62
     7
100
AcDbLine
 10
75.038718
 20
334.227199
 11
75.038718
 21
332.227199
  0
LINE
  5
6D5
100
AcDbEntity
  8
M2
 62
     7
100
AcDbLine
 10
65.088718
 20
332.227199
 11
66.988718
 21
332.227199
  0
LINE
  5
6D6
100
AcDbEntity
  8
M2
 62
     7
100
AcDbLine
 10
49.088718
 20
332.227199
 11
50.988718
 21
332.227199
  0
LINE
  5
6D7
100
AcDbEntity
  8
M2
 62
     7
100
AcDbLine
 10
51.138718
 20
335.727199
 11
51.138718
 21
342.527199
  0
LINE
  5
6D8
100
AcDbEntity
  8
M2
 62
     7
100
AcDbLine
 10
64.938718
 20
341.193736
 11
64.938718
 21
335.727199
  0
LINE
  5
6D9
100
AcDbEntity
  8
M2
 62
     7
100
AcDbLine
 10
51.388718
 20
335.727199
 11
44.488718
 21
335.727199
  0
LINE
  5
6DA
100
AcDbEntity
  8
M2
 62
     7
100
AcDbLine
 10
51.388718
 20
334.227199
 11
44.488718
 21
334.227199
  0
LINE
  5
6DB
100
AcDbEntity
  8
M2
 62
     7
100
AcDbLine
 10
44.888718
 20
332.227199
 11
46.788718
 21
332.227199
  0
LINE
  5
6DC
100
AcDbEntity
  8
M2
 62
     7
100
AcDbLine
 10
75.038718
 20
335.727199
 11
75.038718
 21
334.227199
  0
LINE
  5
6DD
100
AcDbEntity
  8
M2
 62
     7
100
AcDbLine
 10
75.038718
 20
334.227199
 11
64.688718
 21
334.227199
  0
LINE
  5
6DE
100
AcDbEntity
  8
M2
 62
     7
100
AcDbLine
 10
64.688718
 20
335.727199
 11
75.038718
 21
335.727199
  0
ARC
  5
6DF
100
AcDbEntity
  8
M2
 62
     7
100
AcDbCircle
 10
63.588718
 20
306.627199
 40
0.5
100
AcDbArc
 50
180.0
 51
270.0
  0
ARC
  5
6E0
100
AcDbEntity
  8
M2
 62
     7
100
AcDbCircle
 10
52.488718
 20
306.627199
 40
0.5
100
AcDbArc
 50
270.0
 51
360.0
  0
ARC
  5
6E1
100
AcDbEntity
  8
M2
 62
     7
100
AcDbCircle
 10
64.288718
 20
312.327199
 40
1.2
100
AcDbArc
 50
90.0
 51
180.0
  0
ARC
  5
6E2
100
AcDbEntity
  8
M2
 62
     7
100
AcDbCircle
 10
51.788718
 20
312.327199
 40
1.2
100
AcDbArc
 50
0.0
 51
90.0
  0
ARC
  5
6E3
100
AcDbEntity
  8
M2
 62
     7
100
AcDbCircle
 10
49.838718
 20
312.527199
 40
1.0
100
AcDbArc
 50
90.0
 51
180.0
  0
ARC
  5
6E4
100
AcDbEntity
  8
M2
 62
     7
100
AcDbCircle
 10
66.238718
 20
312.527199
 40
1.0
100
AcDbArc
 50
0.0
 51
90.0
  0
ARC
  5
6E5
100
AcDbEntity
  8
M2
 62
     7
100
AcDbCircle
 10
66.238718
 20
291.327199
 40
1.0
100
AcDbArc
 50
270.0
 51
360.0
  0
ARC
  5
6E6
100
AcDbEntity
  8
M2
 62
     7
100
AcDbCircle
 10
49.838718
 20
293.827199
 40
1.0
100
AcDbArc
 50
90.0
 51
180.0
  0
ARC
  5
6E7
100
AcDbEntity
  8
M2
 62
     7
100
AcDbCircle
 10
49.838718
 20
291.327199
 40
1.0
100
AcDbArc
 50
180.0
 51
270.0
  0
LINE
  5
6E8
100
AcDbEntity
  8
M2
 62
     7
100
AcDbLine
 10
63.588718
 20
290.827199
 11
63.588718
 21
298.677199
  0
LINE
  5
6E9
100
AcDbEntity
  8
M2
 62
     7
100
AcDbLine
 10
52.488718
 20
290.827199
 11
52.488718
 21
298.677199
  0
LINE
  5
6EA
100
AcDbEntity
  8
M2
 62
     7
100
AcDbLine
 10
63.588718
 20
298.677199
 11
63.838718
 21
299.177199
  0
LINE
  5
6EB
100
AcDbEntity
  8
M2
 62
     7
100
AcDbLine
 10
52.488718
 20
298.677199
 11
52.238718
 21
299.177199
  0
LINE
  5
6EC
100
AcDbEntity
  8
M2
 62
     7
100
AcDbLine
 10
66.238718
 20
290.327199
 11
64.088718
 21
290.327199
  0
ARC
  5
6ED
100
AcDbEntity
  8
M2
 62
     7
100
AcDbCircle
 10
66.238718
 20
293.827199
 40
1.0
100
AcDbArc
 50
0.0
 51
90.0
  0
LINE
  5
6EE
100
AcDbEntity
  8
M2
 62
     7
100
AcDbLine
 10
67.238718
 20
293.827199
 11
67.238718
 21
291.327199
  0
LINE
  5
6EF
100
AcDbEntity
  8
M2
 62
     7
100
AcDbLine
 10
65.738718
 20
294.827199
 11
66.238718
 21
294.827199
  0
LINE
  5
6F0
100
AcDbEntity
  8
M2
 62
     7
100
AcDbLine
 10
48.838718
 20
293.827199
 11
48.838718
 21
291.327199
  0
LINE
  5
6F1
100
AcDbEntity
  8
M2
 62
     7
100
AcDbLine
 10
50.338718
 20
294.827199
 11
49.838718
 21
294.827199
  0
LINE
  5
6F2
100
AcDbEntity
  8
M2
 62
     7
100
AcDbLine
 10
76.188718
 20
276.602199
 11
76.188718
 21
275.627199
  0
LINE
  5
6F3
100
AcDbEntity
  8
M2
 62
     7
100
AcDbLine
 10
76.188718
 20
275.627199
 11
70.188718
 21
275.627199
  0
LINE
  5
6F4
100
AcDbEntity
  8
M2
 62
     7
100
AcDbLine
 10
53.613702
 20
275.627199
 11
51.513223
 21
275.627199
  0
LINE
  5
6F5
100
AcDbEntity
  8
M2
 62
     7
100
AcDbLine
 10
70.188718
 20
275.627199
 11
70.188718
 21
276.602199
  0
LINE
  5
6F6
100
AcDbEntity
  8
M2
 62
     7
100
AcDbLine
 10
60.088718
 20
326.052199
 11
60.088718
 21
327.027199
  0
LINE
  5
6F7
100
AcDbEntity
  8
M2
 62
     7
100
AcDbLine
 10
49.838718
 20
313.527199
 11
51.788718
 21
313.527199
  0
LINE
  5
6F8
100
AcDbEntity
  8
M2
 62
     7
100
AcDbLine
 10
66.088718
 20
327.027199
 11
66.088718
 21
326.052199
  0
LINE
  5
6F9
100
AcDbEntity
  8
M2
 62
     7
100
AcDbLine
 10
65.088718
 20
313.527199
 11
65.088718
 21
313.627199
  0
LINE
  5
6FA
100
AcDbEntity
  8
M2
 62
     7
100
AcDbLine
 10
60.088718
 20
327.027199
 11
61.088718
 21
327.027199
  0
LINE
  5
6FB
100
AcDbEntity
  8
M2
 62
     7
100
AcDbLine
 10
48.838718
 20
312.527199
 11
48.838718
 21
307.427199
  0
LINE
  5
6FC
100
AcDbEntity
  8
M2
 62
     7
100
AcDbLine
 10
67.238718
 20
312.527199
 11
67.238718
 21
307.427199
  0
LINE
  5
6FD
100
AcDbEntity
  8
M2
 62
     7
100
AcDbLine
 10
52.988718
 20
306.627199
 11
52.988718
 21
312.327199
  0
LINE
  5
6FE
100
AcDbEntity
  8
M2
 62
     7
100
AcDbLine
 10
45.888718
 20
327.027199
 11
45.888718
 21
326.052199
  0
LINE
  5
6FF
100
AcDbEntity
  8
M2
 62
     7
100
AcDbLine
 10
39.888718
 20
326.052199
 11
39.888718
 21
327.027199
  0
LINE
  5
700
100
AcDbEntity
  8
M2
 62
     7
100
AcDbLine
 10
64.288718
 20
313.527199
 11
66.238718
 21
313.527199
  0
LINE
  5
701
100
AcDbEntity
  8
M2
 62
     7
100
AcDbLine
 10
63.838718
 20
304.677199
 11
63.588718
 21
305.177199
  0
LINE
  5
702
100
AcDbEntity
  8
M2
 62
     7
100
AcDbLine
 10
50.338718
 20
305.927199
 11
50.338718
 21
294.827199
  0
LINE
  5
703
100
AcDbEntity
  8
M2
 62
     7
100
AcDbLine
 10
65.738718
 20
305.927199
 11
65.738718
 21
294.827199
  0
LINE
  5
704
100
AcDbEntity
  8
M2
 62
     7
100
AcDbLine
 10
52.238718
 20
299.177199
 11
52.238718
 21
304.677199
  0
LINE
  5
705
100
AcDbEntity
  8
M2
 62
     7
100
AcDbLine
 10
63.838718
 20
299.177199
 11
63.838718
 21
304.677199
  0
LINE
  5
706
100
AcDbEntity
  8
M2
 62
     7
100
AcDbLine
 10
48.838718
 20
307.427199
 11
50.338718
 21
305.927199
  0
LINE
  5
707
100
AcDbEntity
  8
M2
 62
     7
100
AcDbLine
 10
67.238718
 20
307.427199
 11
65.738718
 21
305.927199
  0
LINE
  5
708
100
AcDbEntity
  8
M2
 62
     7
100
AcDbLine
 10
63.088718
 20
306.627199
 11
63.088718
 21
312.327199
  0
LINE
  5
709
100
AcDbEntity
  8
M2
 62
     7
100
AcDbLine
 10
52.238718
 20
304.677199
 11
52.488718
 21
305.177199
  0
LINE
  5
70A
100
AcDbEntity
  8
M2
 62
     7
100
AcDbLine
 10
52.488718
 20
305.177199
 11
52.488718
 21
306.127199
  0
LINE
  5
70B
100
AcDbEntity
  8
M2
 62
     7
100
AcDbLine
 10
63.588718
 20
305.177199
 11
63.588718
 21
306.127199
  0
LINE
  5
70C
100
AcDbEntity
  8
M2
 62
     7
100
AcDbLine
 10
77.438718
 20
285.127199
 11
77.438718
 21
297.077199
  0
LINE
  5
70D
100
AcDbEntity
  8
M2
 62
     7
100
AcDbLine
 10
77.588718
 20
284.627199
 11
38.488718
 21
284.627199
  0
LINE
  5
70E
100
AcDbEntity
  8
M2
 62
     7
100
AcDbLine
 10
74.538718
 20
297.577199
 11
76.938718
 21
297.577199
  0
LINE
  5
70F
100
AcDbEntity
  8
M2
 62
     7
100
AcDbLine
 10
39.138718
 20
297.577199
 11
41.538718
 21
297.577199
  0
LINE
  5
710
100
AcDbEntity
  8
M2
 62
     7
100
AcDbLine
 10
38.638718
 20
285.127199
 11
38.638718
 21
297.077199
  0
LINE
  5
711
100
AcDbEntity
  8
M2
 62
     7
100
AcDbLine
 10
74.038718
 20
304.577199
 11
74.038718
 21
298.077199
  0
LINE
  5
712
100
AcDbEntity
  8
M2
 62
     7
100
AcDbLine
 10
76.938718
 20
318.027199
 11
77.088718
 21
318.027199
  0
LINE
  5
713
100
AcDbEntity
  8
M2
 62
     7
100
AcDbLine
 10
39.138718
 20
318.027199
 11
38.988718
 21
318.027199
  0
LINE
  5
714
100
AcDbEntity
  8
M2
 62
     7
100
AcDbLine
 10
61.038718
 20
314.927199
 11
55.038718
 21
314.927199
  0
LINE
  5
715
100
AcDbEntity
  8
M2
 62
     7
100
AcDbLine
 10
55.038718
 20
314.927199
 11
55.038718
 21
313.327199
  0
LINE
  5
716
100
AcDbEntity
  8
M2
 62
     7
100
AcDbLine
 10
61.038718
 20
313.327199
 11
61.038718
 21
314.927199
  0
ARC
  5
717
100
AcDbEntity
  8
M2
 62
     7
100
AcDbCircle
 10
55.488718
 20
289.827199
 40
0.5
100
AcDbArc
 50
90.0
 51
126.869898
  0
LINE
  5
718
100
AcDbEntity
  8
M2
 62
     7
100
AcDbLine
 10
48.738718
 20
291.227199
 11
48.738718
 21
312.627199
  0
ARC
  5
719
100
AcDbEntity
  8
M2
 62
     7
100
AcDbCircle
 10
50.488718
 20
289.827199
 40
0.5
100
AcDbArc
 50
53.130102
 51
90.0
  0
LINE
  5
71A
100
AcDbEntity
  8
M2
 62
     7
100
AcDbLine
 10
76.938718
 20
305.077199
 11
74.538718
 21
305.077199
  0
LINE
  5
71B
100
AcDbEntity
  8
M2
 62
     7
100
AcDbLine
 10
42.038718
 20
298.077199
 11
42.038718
 21
304.577199
  0
LINE
  5
71C
100
AcDbEntity
  8
M2
 62
     7
100
AcDbLine
 10
77.438718
 20
317.527199
 11
77.438718
 21
305.577199
  0
LINE
  5
71D
100
AcDbEntity
  8
M2
 62
     7
100
AcDbLine
 10
41.538718
 20
305.077199
 11
39.138718
 21
305.077199
  0
LINE
  5
71E
100
AcDbEntity
  8
M2
 62
     7
100
AcDbLine
 10
55.038718
 20
313.327199
 11
61.038718
 21
313.327199
  0
LINE
  5
71F
100
AcDbEntity
  8
M2
 62
     7
100
AcDbLine
 10
76.938718
 20
284.627199
 11
77.088718
 21
284.627199
  0
LINE
  5
720
100
AcDbEntity
  8
M2
 62
     7
100
AcDbLine
 10
39.138718
 20
284.627199
 11
38.988718
 21
284.627199
  0
LINE
  5
721
100
AcDbEntity
  8
M2
 62
     7
100
AcDbLine
 10
77.486086
 20
310.077199
 11
77.438718
 21
310.077199
  0
LINE
  5
722
100
AcDbEntity
  8
M2
 62
     7
100
AcDbLine
 10
38.591349
 20
310.077199
 11
38.638718
 21
310.077199
  0
LINE
  5
723
100
AcDbEntity
  8
M2
 62
     7
100
AcDbLine
 10
77.486086
 20
307.577199
 11
77.438718
 21
307.577199
  0
LINE
  5
724
100
AcDbEntity
  8
M2
 62
     7
100
AcDbLine
 10
38.591349
 20
307.577199
 11
38.638718
 21
307.577199
  0
LINE
  5
725
100
AcDbEntity
  8
M2
 62
     7
100
AcDbLine
 10
43.513718
 20
275.627199
 11
41.513223
 21
275.627199
  0
LINE
  5
726
100
AcDbEntity
  8
M2
 62
     7
100
AcDbLine
 10
39.888718
 20
275.627199
 11
39.888718
 21
276.602199
  0
LINE
  5
727
100
AcDbEntity
  8
M2
 62
     7
100
AcDbLine
 10
50.988718
 20
313.627199
 11
50.988718
 21
313.527199
  0
LINE
  5
728
100
AcDbEntity
  8
M2
 62
     7
100
AcDbLine
 10
49.988718
 20
326.052199
 11
49.988718
 21
327.027199
  0
LINE
  5
729
100
AcDbEntity
  8
M2
 62
     7
100
AcDbLine
 10
49.988718
 20
327.027199
 11
50.988718
 21
327.027199
  0
LINE
  5
72A
100
AcDbEntity
  8
M2
 62
     7
100
AcDbLine
 10
55.988718
 20
327.027199
 11
55.988718
 21
326.052199
  0
LINE
  5
72B
100
AcDbEntity
  8
M2
 62
     7
100
AcDbLine
 10
70.188718
 20
326.052199
 11
70.188718
 21
327.027199
  0
LINE
  5
72C
100
AcDbEntity
  8
M2
 62
     7
100
AcDbLine
 10
76.188718
 20
327.027199
 11
76.188718
 21
326.052199
  0
LINE
  5
72D
100
AcDbEntity
  8
M2
 62
     7
100
AcDbLine
 10
70.188718
 20
327.027199
 11
76.188718
 21
327.027199
  0
LINE
  5
72E
100
AcDbEntity
  8
M2
  6
DASHDOT
 62
     7
100
AcDbLine
 10
58.038718
 20
262.447102
 11
58.038718
 21
347.549208
  0
LINE
  5
72F
100
AcDbEntity
  8
M2
  6
DASHDOT
 62
     7
100
AcDbLine
 10
52.488718
 20
268.827199
 11
53.488718
 21
268.827199
  0
LINE
  5
730
100
AcDbEntity
  8
M2
  6
DASHDOT
 62
     7
100
AcDbLine
 10
52.988718
 20
268.327199
 11
52.988718
 21
269.327199
  0
LINE
  5
731
100
AcDbEntity
  8
M2
  6
DASHDOT
 62
     7
100
AcDbLine
 10
52.488718
 20
280.427199
 11
53.488718
 21
280.427199
  0
LINE
  5
732
100
AcDbEntity
  8
M2
  6
DASHDOT
 62
     7
100
AcDbLine
 10
52.988718
 20
279.927199
 11
52.988718
 21
280.927199
  0
LINE
  5
733
100
AcDbEntity
  8
M2
  6
DASHDOT
 62
     7
100
AcDbLine
 10
62.588718
 20
280.427199
 11
63.588718
 21
280.427199
  0
LINE
  5
734
100
AcDbEntity
  8
M2
  6
DASHDOT
 62
     7
100
AcDbLine
 10
63.088718
 20
279.927199
 11
63.088718
 21
280.927199
  0
LINE
  5
735
100
AcDbEntity
  8
M2
  6
DASHDOT
 62
     7
100
AcDbLine
 10
72.688718
 20
280.427199
 11
73.688718
 21
280.427199
  0
LINE
  5
736
100
AcDbEntity
  8
M2
  6
DASHDOT
 62
     7
100
AcDbLine
 10
73.188718
 20
279.927199
 11
73.188718
 21
280.927199
  0
LINE
  5
737
100
AcDbEntity
  8
M2
  6
DASHDOT
 62
     7
100
AcDbLine
 10
72.688718
 20
322.227199
 11
73.688718
 21
322.227199
  0
LINE
  5
738
100
AcDbEntity
  8
M2
  6
DASHDOT
 62
     7
100
AcDbLine
 10
73.188718
 20
321.727199
 11
73.188718
 21
322.727199
  0
LINE
  5
739
100
AcDbEntity
  8
M2
  6
DASHDOT
 62
     7
100
AcDbLine
 10
62.588718
 20
322.227199
 11
63.588718
 21
322.227199
  0
LINE
  5
73A
100
AcDbEntity
  8
M2
  6
DASHDOT
 62
     7
100
AcDbLine
 10
63.088718
 20
321.727199
 11
63.088718
 21
322.727199
  0
LINE
  5
73B
100
AcDbEntity
  8
M2
  6
DASHDOT
 62
     7
100
AcDbLine
 10
52.488718
 20
322.227199
 11
53.488718
 21
322.227199
  0
LINE
  5
73C
100
AcDbEntity
  8
M2
  6
DASHDOT
 62
     7
100
AcDbLine
 10
52.988718
 20
321.727199
 11
52.988718
 21
322.727199
  0
LINE
  5
73D
100
AcDbEntity
  8
M2
  6
DASHDOT
 62
     7
100
AcDbLine
 10
42.388718
 20
322.227199
 11
43.388718
 21
322.227199
  0
LINE
  5
73E
100
AcDbEntity
  8
M2
  6
DASHDOT
 62
     7
100
AcDbLine
 10
42.888718
 20
321.727199
 11
42.888718
 21
322.727199
  0
LINE
  5
73F
100
AcDbEntity
  8
M2
  6
DASHDOT
 62
     7
100
AcDbLine
 10
46.638718
 20
339.827199
 11
47.638718
 21
339.827199
  0
LINE
  5
740
100
AcDbEntity
  8
M2
  6
DASHDOT
 62
     7
100
AcDbLine
 10
47.138718
 20
339.327199
 11
47.138718
 21
340.327199
  0
LINE
  5
741
100
AcDbEntity
  8
M2
  6
DASHDOT
 62
     7
100
AcDbLine
 10
68.438718
 20
339.827199
 11
69.438718
 21
339.827199
  0
LINE
  5
742
100
AcDbEntity
  8
M2
  6
DASHDOT
 62
     7
100
AcDbLine
 10
68.938718
 20
339.327199
 11
68.938718
 21
340.327199
  0
LINE
  5
743
100
AcDbEntity
  8
M2
  6
DASHDOT
 62
     7
100
AcDbLine
 10
42.388718
 20
280.427199
 11
43.388718
 21
280.427199
  0
LINE
  5
744
100
AcDbEntity
  8
M2
  6
DASHDOT
 62
     7
100
AcDbLine
 10
42.888718
 20
279.927199
 11
42.888718
 21
280.927199
  0
LINE
  5
745
100
AcDbEntity
  8
M2
  6
DASHDOT
 62
     7
100
AcDbLine
 10
57.538718
 20
339.427199
 11
58.538718
 21
339.427199
  0
LINE
  5
746
100
AcDbEntity
  8
M2
 62
     7
100
AcDbLine
 10
57.588718
 20
338.227199
 11
58.488718
 21
338.227199
  0
LINE
  5
747
100
AcDbEntity
  8
M2
 62
     7
100
AcDbLine
 10
57.588718
 20
338.977199
 11
57.588718
 21
338.227199
  0
LINE
  5
748
100
AcDbEntity
  8
M2
 62
     7
100
AcDbLine
 10
58.488718
 20
338.227199
 11
58.488718
 21
338.977199
  0
LINE
  5
749
100
AcDbEntity
  8
M2
  6
DASHDOT
 62
     7
100
AcDbLine
 10
57.538718
 20
339.427199
 11
58.538718
 21
339.427199
  0
LINE
  5
74A
100
AcDbEntity
  8
M2
 62
     7
100
AcDbLine
 10
57.588718
 20
338.977199
 11
56.838718
 21
338.977199
  0
LINE
  5
74B
100
AcDbEntity
  8
M2
 62
     7
100
AcDbLine
 10
56.838718
 20
339.877199
 11
57.588718
 21
339.877199
  0
LINE
  5
74C
100
AcDbEntity
  8
M2
 62
     7
100
AcDbLine
 10
57.588718
 20
340.627199
 11
57.588718
 21
339.877199
  0
CIRCLE
  5
74D
100
AcDbEntity
  8
M2
 62
     7
100
AcDbCircle
 10
58.038718
 20
339.427199
 40
2.85
  0
LINE
  5
74E
100
AcDbEntity
  8
M2
 62
     7
100
AcDbLine
 10
58.488718
 20
340.627199
 11
57.588718
 21
340.627199
  0
LINE
  5
74F
100
AcDbEntity
  8
M2
 62
     7
100
AcDbLine
 10
59.238718
 20
338.977199
 11
58.488718
 21
338.977199
  0
LINE
  5
750
100
AcDbEntity
  8
M2
 62
     7
100
AcDbLine
 10
58.488718
 20
339.877199
 11
58.488718
 21
340.627199
  0
LINE
  5
751
100
AcDbEntity
  8
M2
 62
     7
100
AcDbLine
 10
58.488718
 20
339.877199
 11
59.238718
 21
339.877199
  0
CIRCLE
  5
752
100
AcDbEntity
  8
M2
 62
     7
100
AcDbCircle
 10
73.188718
 20
322.227199
 40
3.0
  0
CIRCLE
  5
753
100
AcDbEntity
  8
M2
 62
     7
100
AcDbCircle
 10
63.088718
 20
322.227199
 40
3.0
  0
CIRCLE
  5
754
100
AcDbEntity
  8
M2
 62
     7
100
AcDbCircle
 10
52.988718
 20
322.227199
 40
3.0
  0
CIRCLE
  5
755
100
AcDbEntity
  8
M2
 62
     7
100
AcDbCircle
 10
42.888718
 20
322.227199
 40
3.0
  0
CIRCLE
  5
756
100
AcDbEntity
  8
M2
 62
     7
100
AcDbCircle
 10
63.088718
 20
280.427199
 40
3.0
  0
CIRCLE
  5
757
100
AcDbEntity
  8
M2
 62
     7
100
AcDbCircle
 10
42.888718
 20
280.427199
 40
3.0
  0
LINE
  5
758
100
AcDbEntity
  8
M2
 62
     7
100
AcDbLine
 10
130.438718
 20
285.127199
 11
130.438718
 21
297.077199
  0
LINE
  5
759
100
AcDbEntity
  8
M2
 62
     7
100
AcDbLine
 10
116.588718
 20
305.177199
 11
116.588718
 21
306.127199
  0
LINE
  5
75A
100
AcDbEntity
  8
M2
 62
     7
100
AcDbLine
 10
127.538718
 20
297.577199
 11
129.938718
 21
297.577199
  0
LINE
  5
75B
100
AcDbEntity
  8
M2
 62
     7
100
AcDbLine
 10
130.588718
 20
284.627199
 11
91.488718
 21
284.627199
  0
LINE
  5
75C
100
AcDbEntity
  8
M2
 62
     7
100
AcDbLine
 10
92.138718
 20
297.577199
 11
94.538718
 21
297.577199
  0
LINE
  5
75D
100
AcDbEntity
  8
M2
 62
     7
100
AcDbLine
 10
120.238718
 20
307.427199
 11
118.738718
 21
305.927199
  0
LINE
  5
75E
100
AcDbEntity
  8
M2
 62
     7
100
AcDbLine
 10
101.838718
 20
307.427199
 11
103.338718
 21
305.927199
  0
LINE
  5
75F
100
AcDbEntity
  8
M2
 62
     7
100
AcDbLine
 10
105.238718
 20
304.677199
 11
105.488718
 21
305.177199
  0
LINE
  5
760
100
AcDbEntity
  8
M2
 62
     7
100
AcDbLine
 10
116.088718
 20
306.627199
 11
116.088718
 21
312.327199
  0
LINE
  5
761
100
AcDbEntity
  8
M2
 62
     7
100
AcDbLine
 10
105.488718
 20
305.177199
 11
105.488718
 21
306.127199
  0
LINE
  5
762
100
AcDbEntity
  8
M2
 62
     7
100
AcDbLine
 10
114.038718
 20
313.327199
 11
114.038718
 21
314.927199
  0
LINE
  5
763
100
AcDbEntity
  8
M2
 62
     7
100
AcDbLine
 10
108.038718
 20
314.927199
 11
108.038718
 21
313.327199
  0
LINE
  5
764
100
AcDbEntity
  8
M2
 62
     7
100
AcDbLine
 10
129.938718
 20
305.077199
 11
127.538718
 21
305.077199
  0
LINE
  5
765
100
AcDbEntity
  8
M2
 62
     7
100
AcDbLine
 10
101.738718
 20
291.227199
 11
101.738718
 21
312.627199
  0
LINE
  5
766
100
AcDbEntity
  8
M2
 62
     7
100
AcDbLine
 10
95.038718
 20
298.077199
 11
95.038718
 21
304.577199
  0
LINE
  5
767
100
AcDbEntity
  8
M2
 62
     7
100
AcDbLine
 10
127.038718
 20
304.577199
 11
127.038718
 21
298.077199
  0
LINE
  5
768
100
AcDbEntity
  8
M2
 62
     7
100
AcDbLine
 10
91.638718
 20
285.127199
 11
91.638718
 21
297.077199
  0
LINE
  5
769
100
AcDbEntity
  8
M2
 62
     7
100
AcDbLine
 10
92.138718
 20
318.027199
 11
91.988718
 21
318.027199
  0
LINE
  5
76A
100
AcDbEntity
  8
M2
 62
     7
100
AcDbLine
 10
129.938718
 20
318.027199
 11
130.088718
 21
318.027199
  0
LINE
  5
76B
100
AcDbEntity
  8
M2
 62
     7
100
AcDbLine
 10
114.038718
 20
314.927199
 11
108.038718
 21
314.927199
  0
LINE
  5
76C
100
AcDbEntity
  8
M2
 62
     7
100
AcDbLine
 10
119.088718
 20
327.027199
 11
119.088718
 21
326.052199
  0
LINE
  5
76D
100
AcDbEntity
  8
M2
 62
     7
100
AcDbLine
 10
102.838718
 20
313.527199
 11
104.788718
 21
313.527199
  0
LINE
  5
76E
100
AcDbEntity
  8
M2
 62
     7
100
AcDbLine
 10
113.088718
 20
327.027199
 11
114.088718
 21
327.027199
  0
LINE
  5
76F
100
AcDbEntity
  8
M2
 62
     7
100
AcDbLine
 10
118.088718
 20
313.527199
 11
118.088718
 21
313.627199
  0
LINE
  5
770
100
AcDbEntity
  8
M2
 62
     7
100
AcDbLine
 10
101.838718
 20
312.527199
 11
101.838718
 21
307.427199
  0
LINE
  5
771
100
AcDbEntity
  8
M2
 62
     7
100
AcDbLine
 10
106.613702
 20
275.627199
 11
102.988718
 21
275.627199
  0
LINE
  5
772
100
AcDbEntity
  8
M2
 62
     7
100
AcDbLine
 10
102.988718
 20
275.627199
 11
102.988718
 21
276.602199
  0
LINE
  5
773
100
AcDbEntity
  8
M2
 62
     7
100
AcDbLine
 10
123.188718
 20
275.627199
 11
123.188718
 21
276.602199
  0
LINE
  5
774
100
AcDbEntity
  8
M2
 62
     7
100
AcDbLine
 10
113.088718
 20
326.052199
 11
113.088718
 21
327.027199
  0
LINE
  5
775
100
AcDbEntity
  8
M2
 62
     7
100
AcDbLine
 10
103.338718
 20
305.927199
 11
103.338718
 21
294.827199
  0
LINE
  5
776
100
AcDbEntity
  8
M2
 62
     7
100
AcDbLine
 10
116.838718
 20
304.677199
 11
116.588718
 21
305.177199
  0
LINE
  5
777
100
AcDbEntity
  8
M2
 62
     7
100
AcDbLine
 10
105.238718
 20
299.177199
 11
105.238718
 21
304.677199
  0
LINE
  5
778
100
AcDbEntity
  8
M2
 62
     7
100
AcDbLine
 10
118.738718
 20
305.927199
 11
118.738718
 21
294.827199
  0
LINE
  5
779
100
AcDbEntity
  8
M2
 62
     7
100
AcDbLine
 10
116.838718
 20
299.177199
 11
116.838718
 21
304.677199
  0
LINE
  5
77A
100
AcDbEntity
  8
M2
 62
     7
100
AcDbLine
 10
105.988718
 20
306.627199
 11
105.988718
 21
312.327199
  0
LINE
  5
77B
100
AcDbEntity
  8
M2
 62
     7
100
AcDbLine
 10
120.238718
 20
312.527199
 11
120.238718
 21
307.427199
  0
LINE
  5
77C
100
AcDbEntity
  8
M2
 62
     7
100
AcDbLine
 10
92.888718
 20
326.052199
 11
92.888718
 21
327.027199
  0
LINE
  5
77D
100
AcDbEntity
  8
M2
 62
     7
100
AcDbLine
 10
98.888718
 20
327.027199
 11
98.888718
 21
326.052199
  0
LINE
  5
77E
100
AcDbEntity
  8
M2
 62
     7
100
AcDbLine
 10
115.438718
 20
311.427199
 11
106.638718
 21
311.427199
  0
LINE
  5
77F
100
AcDbEntity
  8
M2
 62
     7
100
AcDbLine
 10
105.138718
 20
313.627199
 11
102.738718
 21
313.627199
  0
LINE
  5
780
100
AcDbEntity
  8
M2
 62
     7
100
AcDbLine
 10
115.938718
 20
311.927199
 11
115.938718
 21
312.627199
  0
LINE
  5
781
100
AcDbEntity
  8
M2
 62
     7
100
AcDbLine
 10
116.938718
 20
313.627199
 11
119.338718
 21
313.627199
  0
LINE
  5
782
100
AcDbEntity
  8
M2
 62
     7
100
AcDbLine
 10
120.338718
 20
291.227199
 11
120.338718
 21
312.627199
  0
LINE
  5
783
100
AcDbEntity
  8
M2
 62
     7
100
AcDbLine
 10
119.338718
 20
290.227199
 11
102.738718
 21
290.227199
  0
LINE
  5
784
100
AcDbEntity
  8
M2
 62
     7
100
AcDbLine
 10
91.638718
 20
317.527199
 11
91.638718
 21
305.577199
  0
LINE
  5
785
100
AcDbEntity
  8
M2
 62
     7
100
AcDbLine
 10
115.903164
 20
344.227199
 11
116.438718
 21
344.227199
  0
LINE
  5
786
100
AcDbEntity
  8
M2
 62
     7
100
AcDbLine
 10
106.138718
 20
311.927199
 11
106.138718
 21
312.627199
  0
LINE
  5
787
100
AcDbEntity
  8
M2
 62
     7
100
AcDbLine
 10
118.088718
 20
332.227199
 11
119.988718
 21
332.227199
  0
LINE
  5
788
100
AcDbEntity
  8
M2
 62
     7
100
AcDbLine
 10
104.138718
 20
335.727199
 11
104.138718
 21
341.193736
  0
LINE
  5
789
100
AcDbEntity
  8
M2
 62
     7
100
AcDbLine
 10
102.088718
 20
332.227199
 11
103.988718
 21
332.227199
  0
LINE
  5
78A
100
AcDbEntity
  8
M2
 62
     7
100
AcDbLine
 10
117.938718
 20
344.727199
 11
117.938718
 21
335.727199
  0
LINE
  5
78B
100
AcDbEntity
  8
M2
 62
     7
100
AcDbLine
 10
113.088718
 20
275.627199
 11
113.088718
 21
276.602199
  0
LINE
  5
78C
100
AcDbEntity
  8
M2
 62
     7
100
AcDbLine
 10
122.288718
 20
332.227199
 11
128.038718
 21
332.227199
  0
LINE
  5
78D
100
AcDbEntity
  8
M2
 62
     7
100
AcDbLine
 10
116.713718
 20
275.627199
 11
113.088718
 21
275.627199
  0
LINE
  5
78E
100
AcDbEntity
  8
M2
 62
     7
100
AcDbLine
 10
128.038718
 20
334.227199
 11
128.038718
 21
332.227199
  0
LINE
  5
78F
100
AcDbEntity
  8
M2
 62
     7
100
AcDbLine
 10
130.486086
 20
310.077199
 11
130.438718
 21
310.077199
  0
LINE
  5
790
100
AcDbEntity
  8
M2
 62
     7
100
AcDbLine
 10
92.138718
 20
284.627199
 11
91.988718
 21
284.627199
  0
LINE
  5
791
100
AcDbEntity
  8
M2
 62
     7
100
AcDbLine
 10
130.486086
 20
307.577199
 11
130.438718
 21
307.577199
  0
LINE
  5
792
100
AcDbEntity
  8
M2
 62
     7
100
AcDbLine
 10
91.591349
 20
310.077199
 11
91.638718
 21
310.077199
  0
LINE
  5
793
100
AcDbEntity
  8
M2
 62
     7
100
AcDbLine
 10
91.591349
 20
307.577199
 11
91.638718
 21
307.577199
  0
LINE
  5
794
100
AcDbEntity
  8
M2
 62
     7
100
AcDbLine
 10
130.438718
 20
317.527199
 11
130.438718
 21
305.577199
  0
LINE
  5
795
100
AcDbEntity
  8
M2
 62
     7
100
AcDbLine
 10
117.288718
 20
313.527199
 11
119.238718
 21
313.527199
  0
LINE
  5
796
100
AcDbEntity
  8
M2
 62
     7
100
AcDbLine
 10
108.038718
 20
313.327199
 11
114.038718
 21
313.327199
  0
LINE
  5
797
100
AcDbEntity
  8
M2
 62
     7
100
AcDbLine
 10
94.538718
 20
305.077199
 11
92.138718
 21
305.077199
  0
LINE
  5
798
100
AcDbEntity
  8
M2
 62
     7
100
AcDbLine
 10
129.938718
 20
284.627199
 11
130.088718
 21
284.627199
  0
ARC
  5
799
100
AcDbEntity
  8
M2
 62
     7
100
AcDbCircle
 10
102.838718
 20
291.327199
 40
1.0
100
AcDbArc
 50
180.0
 51
270.0
  0
ARC
  5
79A
100
AcDbEntity
  8
M2
 62
     7
100
AcDbCircle
 10
102.838718
 20
293.827199
 40
1.0
100
AcDbArc
 50
90.0
 51
180.0
  0
ARC
  5
79B
100
AcDbEntity
  8
M2
 62
     7
100
AcDbCircle
 10
108.488718
 20
289.827199
 40
0.5
100
AcDbArc
 50
90.0
 51
126.869898
  0
ARC
  5
79C
100
AcDbEntity
  8
M2
 62
     7
100
AcDbCircle
 10
119.238718
 20
293.827199
 40
1.0
100
AcDbArc
 50
0.0
 51
90.0
  0
ARC
  5
79D
100
AcDbEntity
  8
M2
 62
     7
100
AcDbCircle
 10
103.488718
 20
289.827199
 40
0.5
100
AcDbArc
 50
53.130102
 51
90.0
  0
LINE
  5
79E
100
AcDbEntity
  8
M2
 62
     7
100
AcDbLine
 10
92.888718
 20
275.627199
 11
92.888718
 21
276.602199
  0
LINE
  5
79F
100
AcDbEntity
  8
M2
 62
     7
100
AcDbLine
 10
96.513718
 20
275.627199
 11
92.888718
 21
275.627199
  0
ARC
  5
7A0
100
AcDbEntity
  8
M2
 62
     7
100
AcDbCircle
 10
119.238718
 20
312.527199
 40
1.0
100
AcDbArc
 50
0.0
 51
90.0
  0
LINE
  5
7A1
100
AcDbEntity
  8
M2
 62
     7
100
AcDbLine
 10
109.888718
 20
299.227199
 11
109.888718
 21
298.727199
  0
LINE
  5
7A2
100
AcDbEntity
  8
M2
 62
     7
100
AcDbLine
 10
107.038718
 20
305.927199
 11
108.038718
 21
305.927199
  0
LINE
  5
7A3
100
AcDbEntity
  8
M2
 62
     7
100
AcDbLine
 10
112.188718
 20
299.227199
 11
112.188718
 21
298.727199
  0
LINE
  5
7A4
100
AcDbEntity
  8
M2
 62
     7
100
AcDbLine
 10
112.188718
 20
304.927199
 11
112.188718
 21
306.127199
  0
LINE
  5
7A5
100
AcDbEntity
  8
M2
 62
     7
100
AcDbLine
 10
109.888718
 20
303.227199
 11
109.888718
 21
305.427199
  0
LINE
  5
7A6
100
AcDbEntity
  8
M2
 62
     7
100
AcDbLine
 10
109.388718
 20
305.927199
 11
108.038718
 21
305.927199
  0
LINE
  5
7A7
100
AcDbEntity
  8
M2
 62
     7
100
AcDbLine
 10
112.688718
 20
305.927199
 11
114.038718
 21
305.927199
  0
LINE
  5
7A8
100
AcDbEntity
  8
M2
 62
     7
100
AcDbLine
 10
115.038718
 20
305.927199
 11
114.038718
 21
305.927199
  0
LINE
  5
7A9
100
AcDbEntity
  8
M2
 62
     7
100
AcDbLine
 10
112.188718
 20
298.227199
 11
112.188718
 21
298.727199
  0
LINE
  5
7AA
100
AcDbEntity
  8
M2
 62
     7
100
AcDbLine
 10
109.888718
 20
298.227199
 11
109.888718
 21
298.727199
  0
LINE
  5
7AB
100
AcDbEntity
  8
M2
 62
     7
100
AcDbLine
 10
112.607593
 20
276.627199
 11
112.188718
 21
276.627199
  0
LINE
  5
7AC
100
AcDbEntity
  8
M2
 62
     7
100
AcDbLine
 10
92.407593
 20
276.627199
 11
91.988718
 21
276.627199
  0
LINE
  5
7AD
100
AcDbEntity
  8
M2
 62
     7
100
AcDbLine
 10
102.088718
 20
332.127199
 11
103.988718
 21
332.127199
  0
LINE
  5
7AE
100
AcDbEntity
  8
M2
 62
     7
100
AcDbLine
 10
110.888718
 20
265.827199
 11
111.188718
 21
265.827199
  0
LINE
  5
7AF
100
AcDbEntity
  8
M2
 62
     7
100
AcDbLine
 10
100.788718
 20
265.827199
 11
101.088718
 21
265.827199
  0
LINE
  5
7B0
100
AcDbEntity
  8
M2
 62
     7
100
AcDbLine
 10
112.188718
 20
303.227199
 11
112.188718
 21
305.427199
  0
LINE
  5
7B1
100
AcDbEntity
  8
M2
 62
     7
100
AcDbLine
 10
110.388718
 20
299.727199
 11
111.688718
 21
299.727199
  0
LINE
  5
7B2
100
AcDbEntity
  8
M2
 62
     7
100
AcDbLine
 10
109.888718
 20
266.827199
 11
109.888718
 21
284.627199
  0
LINE
  5
7B3
100
AcDbEntity
  8
M2
 62
     7
100
AcDbLine
 10
99.788718
 20
276.627199
 11
99.369843
 21
276.627199
  0
LINE
  5
7B4
100
AcDbEntity
  8
M2
 62
     7
100
AcDbLine
 10
130.088718
 20
276.627199
 11
129.669843
 21
276.627199
  0
LINE
  5
7B5
100
AcDbEntity
  8
M2
 62
     7
100
AcDbLine
 10
112.788718
 20
298.727199
 11
112.788718
 21
305.427199
  0
LINE
  5
7B6
100
AcDbEntity
  8
M2
 62
     7
100
AcDbLine
 10
105.738718
 20
305.427199
 11
105.738718
 21
297.227199
  0
LINE
  5
7B7
100
AcDbEntity
  8
M2
 62
     7
100
AcDbLine
 10
109.288718
 20
298.727199
 11
109.288718
 21
305.427199
  0
LINE
  5
7B8
100
AcDbEntity
  8
M2
 62
     7
100
AcDbLine
 10
112.188718
 20
297.227199
 11
112.188718
 21
297.727199
  0
LINE
  5
7B9
100
AcDbEntity
  8
M2
 62
     7
100
AcDbLine
 10
115.838718
 20
296.727199
 11
112.688718
 21
296.727199
  0
ARC
  5
7BA
100
AcDbEntity
  8
M2
 62
     7
100
AcDbCircle
 10
90.988718
 20
329.127199
 40
1.0
100
AcDbArc
 50
0.0
 51
90.0
  0
ARC
  5
7BB
100
AcDbEntity
  8
M2
 62
     7
100
AcDbCircle
 10
131.538718
 20
329.127199
 40
1.0
100
AcDbArc
 50
0.0
 51
90.0
  0
LINE
  5
7BC
100
AcDbEntity
  8
M2
 62
     7
100
AcDbLine
 10
112.188718
 20
298.227199
 11
112.288718
 21
298.227199
  0
ARC
  5
7BD
100
AcDbEntity
  8
M2
 62
     7
100
AcDbCircle
 10
131.088718
 20
329.127199
 40
1.0
100
AcDbArc
 50
90.0
 51
180.0
  0
LINE
  5
7BE
100
AcDbEntity
  8
M2
 62
     7
100
AcDbLine
 10
112.188718
 20
297.727199
 11
112.188718
 21
298.227199
  0
LINE
  5
7BF
100
AcDbEntity
  8
M2
 62
     7
100
AcDbLine
 10
105.488718
 20
297.027199
 11
105.524575
 21
297.027199
  0
LINE
  5
7C0
100
AcDbEntity
  8
M2
 62
     7
100
AcDbLine
 10
105.805705
 20
305.677199
 11
105.801754
 21
305.670214
  0
LINE
  5
7C1
100
AcDbEntity
  8
M2
 62
     7
100
AcDbLine
 10
112.188718
 20
296.427199
 11
112.188718
 21
297.227199
  0
LINE
  5
7C2
100
AcDbEntity
  8
M2
 62
     7
100
AcDbLine
 10
110.388718
 20
302.727199
 11
111.688718
 21
302.727199
  0
LINE
  5
7C3
100
AcDbEntity
  8
M2
 62
     7
100
AcDbLine
 10
109.888718
 20
296.427199
 11
109.888718
 21
297.227199
  0
LINE
  5
7C4
100
AcDbEntity
  8
M2
 62
     7
100
AcDbLine
 10
106.238718
 20
296.727199
 11
109.388718
 21
296.727199
  0
LINE
  5
7C5
100
AcDbEntity
  8
M2
 62
     7
100
AcDbLine
 10
109.888718
 20
297.727199
 11
109.888718
 21
298.227199
  0
LINE
  5
7C6
100
AcDbEntity
  8
M2
 62
     7
100
AcDbLine
 10
109.888718
 20
304.927199
 11
109.888718
 21
306.127199
  0
LINE
  5
7C7
100
AcDbEntity
  8
M2
 62
     7
100
AcDbLine
 10
109.888718
 20
298.227199
 11
109.788718
 21
298.227199
  0
ARC
  5
7C8
100
AcDbEntity
  8
M2
 62
     7
100
AcDbCircle
 10
112.688718
 20
297.227199
 40
0.5
100
AcDbArc
 50
180.0
 51
270.0
  0
ARC
  5
7C9
100
AcDbEntity
  8
M2
 62
     7
100
AcDbCircle
 10
112.688718
 20
305.427199
 40
0.5
100
AcDbArc
 50
90.0
 51
180.0
  0
LINE
  5
7CA
100
AcDbEntity
  8
M2
 62
     7
100
AcDbLine
 10
116.588718
 20
290.827199
 11
116.588718
 21
298.677199
  0
ARC
  5
7CB
100
AcDbEntity
  8
M2
 62
     7
100
AcDbCircle
 10
106.196752
 20
297.188366
 40
0.44285
100
AcDbArc
 50
206.131697
 51
224.639687
  0
LINE
  5
7CC
100
AcDbEntity
  8
M2
 62
     7
100
AcDbLine
 10
105.488718
 20
290.827199
 11
105.488718
 21
298.677199
  0
ARC
  5
7CD
100
AcDbEntity
  8
M2
 62
     7
100
AcDbCircle
 10
110.388718
 20
299.227199
 40
0.5
100
AcDbArc
 50
90.0
 51
180.0
  0
ARC
  5
7CE
100
AcDbEntity
  8
M2
 62
     7
100
AcDbCircle
 10
111.688718
 20
299.227199
 40
0.5
100
AcDbArc
 50
0.0
 51
90.0
  0
ARC
  5
7CF
100
AcDbEntity
  8
M2
 62
     7
100
AcDbCircle
 10
111.688718
 20
303.227199
 40
0.5
100
AcDbArc
 50
270.0
 51
360.0
  0
ARC
  5
7D0
100
AcDbEntity
  8
M2
 62
     7
100
AcDbCircle
 10
109.388718
 20
305.427199
 40
0.5
100
AcDbArc
 50
0.0
 51
90.0
  0
LINE
  5
7D1
100
AcDbEntity
  8
M2
 62
     7
100
AcDbLine
 10
103.338718
 20
294.827199
 11
102.838718
 21
294.827199
  0
LINE
  5
7D2
100
AcDbEntity
  8
M2
 62
     7
100
AcDbLine
 10
101.838718
 20
293.827199
 11
101.838718
 21
291.327199
  0
LINE
  5
7D3
100
AcDbEntity
  8
M2
 62
     7
100
AcDbLine
 10
129.188718
 20
275.627199
 11
123.188718
 21
275.627199
  0
LINE
  5
7D4
100
AcDbEntity
  8
M2
 62
     7
100
AcDbLine
 10
129.188718
 20
276.602199
 11
129.188718
 21
275.627199
  0
ARC
  5
7D5
100
AcDbEntity
  8
M2
 62
     7
100
AcDbCircle
 10
119.238718
 20
291.327199
 40
1.0
100
AcDbArc
 50
270.0
 51
360.0
  0
LINE
  5
7D6
100
AcDbEntity
  8
M2
 62
     7
100
AcDbLine
 10
105.488718
 20
298.677199
 11
105.238718
 21
299.177199
  0
LINE
  5
7D7
100
AcDbEntity
  8
M2
 62
     7
100
AcDbLine
 10
116.588718
 20
298.677199
 11
116.838718
 21
299.177199
  0
LINE
  5
7D8
100
AcDbEntity
  8
M2
 62
     7
100
AcDbLine
 10
120.238718
 20
293.827199
 11
120.238718
 21
291.327199
  0
LINE
  5
7D9
100
AcDbEntity
  8
M2
 62
     7
100
AcDbLine
 10
119.238718
 20
290.327199
 11
117.088718
 21
290.327199
  0
LINE
  5
7DA
100
AcDbEntity
  8
M2
 62
     7
100
AcDbLine
 10
118.738718
 20
294.827199
 11
119.238718
 21
294.827199
  0
LINE
  5
7DB
100
AcDbEntity
  8
M2
 62
     7
100
AcDbLine
 10
103.238718
 20
290.227199
 11
103.238718
 21
290.327199
  0
LINE
  5
7DC
100
AcDbEntity
  8
M2
 62
     7
100
AcDbLine
 10
121.188718
 20
269.127199
 11
121.288718
 21
269.127199
  0
LINE
  5
7DD
100
AcDbEntity
  8
M2
 62
     7
100
AcDbLine
 10
119.569843
 20
326.027199
 11
119.988718
 21
326.027199
  0
LINE
  5
7DE
100
AcDbEntity
  8
M2
 62
     7
100
AcDbLine
 10
109.469843
 20
326.027199
 11
109.888718
 21
326.027199
  0
ARC
  5
7DF
100
AcDbEntity
  8
M2
 62
     7
100
AcDbCircle
 10
107.888718
 20
270.327199
 40
2.0
100
AcDbArc
 50
0.0
 51
15.74216
  0
LINE
  5
7E0
100
AcDbEntity
  8
M2
 62
     7
100
AcDbLine
 10
99.788718
 20
266.827199
 11
99.788718
 21
284.627199
  0
LINE
  5
7E1
100
AcDbEntity
  8
M2
 62
     7
100
AcDbLine
 10
116.588718
 20
297.027199
 11
116.55286
 21
297.027199
  0
LINE
  5
7E2
100
AcDbEntity
  8
M2
 62
     7
100
AcDbLine
 10
112.188718
 20
284.627199
 11
112.188718
 21
266.827199
  0
LINE
  5
7E3
100
AcDbEntity
  8
M2
 62
     7
100
AcDbLine
 10
102.088718
 20
284.627199
 11
102.088718
 21
266.827199
  0
LINE
  5
7E4
100
AcDbEntity
  8
M2
 62
     7
100
AcDbLine
 10
118.838718
 20
290.327199
 11
118.838718
 21
290.227199
  0
ARC
  5
7E5
100
AcDbEntity
  8
M2
 62
     7
100
AcDbCircle
 10
108.788718
 20
305.427199
 40
0.5
100
AcDbArc
 50
0.0
 51
90.0
  0
ARC
  5
7E6
100
AcDbEntity
  8
M2
 62
     7
100
AcDbCircle
 10
113.288718
 20
305.427199
 40
0.5
100
AcDbArc
 50
90.0
 51
180.0
  0
ARC
  5
7E7
100
AcDbEntity
  8
M2
 62
     7
100
AcDbCircle
 10
115.838718
 20
305.427199
 40
0.5
100
AcDbArc
 50
0.0
 51
90.0
  0
ARC
  5
7E8
100
AcDbEntity
  8
M2
 62
     7
100
AcDbCircle
 10
106.238718
 20
305.427199
 40
0.5
100
AcDbArc
 50
90.0
 51
180.0
  0
ARC
  5
7E9
100
AcDbEntity
  8
M2
 62
     7
100
AcDbCircle
 10
101.088718
 20
266.827199
 40
1.0
100
AcDbArc
 50
270.0
 51
360.0
  0
ARC
  5
7EA
100
AcDbEntity
  8
M2
 62
     7
100
AcDbCircle
 10
104.088718
 20
270.327199
 40
2.0
100
AcDbArc
 50
90.0
 51
180.0
  0
ARC
  5
7EB
100
AcDbEntity
  8
M2
 62
     7
100
AcDbCircle
 10
100.788718
 20
266.827199
 40
1.0
100
AcDbArc
 50
180.0
 51
270.0
  0
ARC
  5
7EC
100
AcDbEntity
  8
M2
 62
     7
100
AcDbCircle
 10
111.188718
 20
266.827199
 40
1.0
100
AcDbArc
 50
270.0
 51
360.0
  0
ARC
  5
7ED
100
AcDbEntity
  8
M2
 62
     7
100
AcDbCircle
 10
110.888718
 20
266.827199
 40
1.0
100
AcDbArc
 50
180.0
 51
270.0
  0
LINE
  5
7EE
100
AcDbEntity
  8
M2
 62
     7
100
AcDbLine
 10
102.988718
 20
326.052199
 11
102.988718
 21
327.027199
  0
LINE
  5
7EF
100
AcDbEntity
  8
M2
 62
     7
100
AcDbLine
 10
103.988718
 20
313.627199
 11
103.988718
 21
313.527199
  0
LINE
  5
7F0
100
AcDbEntity
  8
M2
 62
     7
100
AcDbLine
 10
108.988718
 20
327.027199
 11
108.988718
 21
326.052199
  0
LINE
  5
7F1
100
AcDbEntity
  8
M2
 62
     7
100
AcDbLine
 10
102.988718
 20
327.027199
 11
103.988718
 21
327.027199
  0
LINE
  5
7F2
100
AcDbEntity
  8
M2
 62
     7
100
AcDbLine
 10
123.188718
 20
326.052199
 11
123.188718
 21
327.027199
  0
ARC
  5
7F3
100
AcDbEntity
  8
M2
 62
     7
100
AcDbCircle
 10
92.563718
 20
277.102199
 40
0.5
100
AcDbArc
 50
180.0
 51
270.0
  0
ARC
  5
7F4
100
AcDbEntity
  8
M2
 62
     7
100
AcDbCircle
 10
92.563718
 20
283.752199
 40
0.5
100
AcDbArc
 50
90.0
 51
180.0
  0
ARC
  5
7F5
100
AcDbEntity
  8
M2
 62
     7
100
AcDbCircle
 10
99.213718
 20
277.102199
 40
0.5
100
AcDbArc
 50
270.0
 51
360.0
  0
ARC
  5
7F6
100
AcDbEntity
  8
M2
 62
     7
100
AcDbCircle
 10
99.213718
 20
283.752199
 40
0.5
100
AcDbArc
 50
0.0
 51
90.0
  0
ARC
  5
7F7
100
AcDbEntity
  8
M2
 62
     7
100
AcDbCircle
 10
128.538718
 20
333.027199
 40
4.0
100
AcDbArc
 50
0.0
 51
97.180756
  0
LINE
  5
7F8
100
AcDbEntity
  8
M2
  6
DASHDOT
 62
     7
100
AcDbLine
 10
105.988718
 20
268.327199
 11
105.988718
 21
269.327199
  0
LINE
  5
7F9
100
AcDbEntity
  8
M2
  6
DASHDOT
 62
     7
100
AcDbLine
 10
105.488718
 20
268.827199
 11
106.488718
 21
268.827199
  0
LINE
  5
7FA
100
AcDbEntity
  8
M2
  6
DASHDOT
 62
     7
100
AcDbLine
 10
105.488718
 20
280.427199
 11
106.488718
 21
280.427199
  0
LINE
  5
7FB
100
AcDbEntity
  8
M2
 62
     7
100
AcDbLine
 10
123.188718
 20
327.027199
 11
129.188718
 21
327.027199
  0
LINE
  5
7FC
100
AcDbEntity
  8
M2
 62
     7
100
AcDbLine
 10
129.188718
 20
327.027199
 11
129.188718
 21
326.052199
  0
LINE
  5
7FD
100
AcDbEntity
  8
M2
  6
DASHDOT
 62
     7
100
AcDbLine
 10
111.038718
 20
262.447102
 11
111.038718
 21
347.549208
  0
CIRCLE
  5
7FE
100
AcDbEntity
  8
M2
 62
     7
100
AcDbCircle
 10
105.988718
 20
280.427199
 40
3.0
  0
ARC
  5
7FF
100
AcDbEntity
  8
M2
 62
     7
100
AcDbCircle
 10
122.863718
 20
283.752199
 40
0.5
100
AcDbArc
 50
90.0
 51
180.0
  0
CIRCLE
  5
800
100
AcDbEntity
  8
M2
 62
     7
100
AcDbCircle
 10
111.038718
 20
339.427199
 40
2.65
  0
ARC
  5
801
100
AcDbEntity
  8
M2
 62
     7
100
AcDbCircle
 10
122.863718
 20
277.102199
 40
0.5
100
AcDbArc
 50
180.0
 51
270.0
  0
LINE
  5
802
100
AcDbEntity
  8
M2
 62
     7
100
AcDbLine
 10
124.288718
 20
275.227199
 11
124.288718
 21
275.627199
  0
LINE
  5
803
100
AcDbEntity
  8
M2
 62
     7
100
AcDbLine
 10
91.288718
 20
330.227199
 11
91.288718
 21
330.081139
  0
CIRCLE
  5
804
100
AcDbEntity
  8
M2
 62
     7
100
AcDbCircle
 10
126.188718
 20
280.427199
 40
3.0
  0
ARC
  5
805
100
AcDbEntity
  8
M2
 62
     7
100
AcDbCircle
 10
102.663718
 20
283.752199
 40
0.5
100
AcDbArc
 50
90.0
 51
180.0
  0
ARC
  5
806
100
AcDbEntity
  8
M2
 62
     7
100
AcDbCircle
 10
119.413718
 20
277.102199
 40
0.5
100
AcDbArc
 50
270.0
 51
360.0
  0
ARC
  5
807
100
AcDbEntity
  8
M2
 62
     7
100
AcDbCircle
 10
109.313718
 20
283.752199
 40
0.5
100
AcDbArc
 50
0.0
 51
90.0
  0
ARC
  5
808
100
AcDbEntity
  8
M2
 62
     7
100
AcDbCircle
 10
102.663718
 20
277.102199
 40
0.5
100
AcDbArc
 50
180.0
 51
270.0
  0
ARC
  5
809
100
AcDbEntity
  8
M2
 62
     7
100
AcDbCircle
 10
109.313718
 20
277.102199
 40
0.5
100
AcDbArc
 50
270.0
 51
360.0
  0
ARC
  5
80A
100
AcDbEntity
  8
M2
 62
     7
100
AcDbCircle
 10
129.513718
 20
277.102199
 40
0.5
100
AcDbArc
 50
270.0
 51
360.0
  0
ARC
  5
80B
100
AcDbEntity
  8
M2
 62
     7
100
AcDbCircle
 10
129.513718
 20
283.752199
 40
0.5
100
AcDbArc
 50
0.0
 51
90.0
  0
ARC
  5
80C
100
AcDbEntity
  8
M2
 62
     7
100
AcDbCircle
 10
112.763718
 20
277.102199
 40
0.5
100
AcDbArc
 50
180.0
 51
270.0
  0
ARC
  5
80D
100
AcDbEntity
  8
M2
 62
     7
100
AcDbCircle
 10
112.763718
 20
283.752199
 40
0.5
100
AcDbArc
 50
90.0
 51
180.0
  0
LINE
  5
80E
100
AcDbEntity
  8
M2
 62
     7
100
AcDbLine
 10
109.838718
 20
339.877199
 11
110.588718
 21
339.877199
  0
LINE
  5
80F
100
AcDbEntity
  8
M2
 62
     7
100
AcDbLine
 10
110.588718
 20
338.977199
 11
109.838718
 21
338.977199
  0
LINE
  5
810
100
AcDbEntity
  8
M2
 62
     7
100
AcDbLine
 10
111.488718
 20
340.627199
 11
110.588718
 21
340.627199
  0
LINE
  5
811
100
AcDbEntity
  8
M2
 62
     7
100
AcDbLine
 10
110.588718
 20
340.627199
 11
110.588718
 21
339.877199
  0
LINE
  5
812
100
AcDbEntity
  8
M2
 62
     7
100
AcDbLine
 10
112.238718
 20
338.977199
 11
111.488718
 21
338.977199
  0
LINE
  5
813
100
AcDbEntity
  8
M2
 62
     7
100
AcDbLine
 10
110.588718
 20
338.227199
 11
111.488718
 21
338.227199
  0
LINE
  5
814
100
AcDbEntity
  8
M2
  6
DASHDOT
 62
     7
100
AcDbLine
 10
110.538718
 20
339.427199
 11
111.538718
 21
339.427199
  0
LINE
  5
815
100
AcDbEntity
  8
M2
 62
     7
100
AcDbLine
 10
111.488718
 20
338.227199
 11
111.488718
 21
338.977199
  0
LINE
  5
816
100
AcDbEntity
  8
M2
 62
     7
100
AcDbLine
 10
110.588718
 20
338.977199
 11
110.588718
 21
338.227199
  0
LINE
  5
817
100
AcDbEntity
  8
M2
  6
DASHDOT
 62
     7
100
AcDbLine
 10
110.538718
 20
339.427199
 11
111.538718
 21
339.427199
  0
CIRCLE
  5
818
100
AcDbEntity
  8
M2
 62
     7
100
AcDbCircle
 10
105.988718
 20
322.227199
 40
3.0
  0
CIRCLE
  5
819
100
AcDbEntity
  8
M2
 62
     7
100
AcDbCircle
 10
116.088718
 20
322.227199
 40
3.0
  0
CIRCLE
  5
81A
100
AcDbEntity
  8
M2
 62
     7
100
AcDbCircle
 10
116.088718
 20
280.427199
 40
3.0
  0
CIRCLE
  5
81B
100
AcDbEntity
  8
M2
 62
     7
100
AcDbCircle
 10
95.888718
 20
322.227199
 40
3.0
  0
CIRCLE
  5
81C
100
AcDbEntity
  8
M2
 62
     7
100
AcDbCircle
 10
95.888718
 20
280.427199
 40
3.0
  0
LINE
  5
81D
100
AcDbEntity
  8
M2
 62
     7
100
AcDbLine
 10
111.488718
 20
339.877199
 11
112.238718
 21
339.877199
  0
LINE
  5
81E
100
AcDbEntity
  8
M2
 62
     7
100
AcDbLine
 10
111.488718
 20
339.877199
 11
111.488718
 21
340.627199
  0
CIRCLE
  5
81F
100
AcDbEntity
  8
M2
 62
     7
100
AcDbCircle
 10
121.938718
 20
339.827199
 40
3.0
  0
CIRCLE
  5
820
100
AcDbEntity
  8
M2
 62
     7
100
AcDbCircle
 10
111.038718
 20
339.427199
 40
2.85
  0
CIRCLE
  5
821
100
AcDbEntity
  8
M2
 62
     7
100
AcDbCircle
 10
126.188718
 20
322.227199
 40
3.0
  0
LINE
  5
822
100
AcDbEntity
  8
M2
  6
DASHDOT
 62
     7
100
AcDbLine
 10
125.688718
 20
322.227199
 11
126.688718
 21
322.227199
  0
LINE
  5
823
100
AcDbEntity
  8
M2
  6
DASHDOT
 62
     7
100
AcDbLine
 10
126.188718
 20
279.927199
 11
126.188718
 21
280.927199
  0
LINE
  5
824
100
AcDbEntity
  8
M2
  6
DASHDOT
 62
     7
100
AcDbLine
 10
115.588718
 20
322.227199
 11
116.588718
 21
322.227199
  0
LINE
  5
825
100
AcDbEntity
  8
M2
  6
DASHDOT
 62
     7
100
AcDbLine
 10
126.188718
 20
321.727199
 11
126.188718
 21
322.727199
  0
LINE
  5
826
100
AcDbEntity
  8
M2
  6
DASHDOT
 62
     7
100
AcDbLine
 10
116.088718
 20
321.727199
 11
116.088718
 21
322.727199
  0
LINE
  5
827
100
AcDbEntity
  8
M2
  6
DASHDOT
 62
     7
100
AcDbLine
 10
105.988718
 20
279.927199
 11
105.988718
 21
280.927199
  0
ARC
  5
828
100
AcDbEntity
  8
M2
 62
     7
100
AcDbCircle
 10
119.413718
 20
283.752199
 40
0.5
100
AcDbArc
 50
0.0
 51
90.0
  0
LINE
  5
829
100
AcDbEntity
  8
M2
  6
DASHDOT
 62
     7
100
AcDbLine
 10
116.088718
 20
279.927199
 11
116.088718
 21
280.927199
  0
LINE
  5
82A
100
AcDbEntity
  8
M2
  6
DASHDOT
 62
     7
100
AcDbLine
 10
115.588718
 20
280.427199
 11
116.588718
 21
280.427199
  0
LINE
  5
82B
100
AcDbEntity
  8
M2
  6
DASHDOT
 62
     7
100
AcDbLine
 10
125.688718
 20
280.427199
 11
126.688718
 21
280.427199
  0
LINE
  5
82C
100
AcDbEntity
  8
M2
  6
DASHDOT
 62
     7
100
AcDbLine
 10
121.438718
 20
339.827199
 11
122.438718
 21
339.827199
  0
LINE
  5
82D
100
AcDbEntity
  8
M2
  6
DASHDOT
 62
     7
100
AcDbLine
 10
100.138718
 20
339.327199
 11
100.138718
 21
340.327199
  0
LINE
  5
82E
100
AcDbEntity
  8
M2
  6
DASHDOT
 62
     7
100
AcDbLine
 10
95.388718
 20
280.427199
 11
96.388718
 21
280.427199
  0
LINE
  5
82F
100
AcDbEntity
  8
M2
  6
DASHDOT
 62
     7
100
AcDbLine
 10
121.938718
 20
339.327199
 11
121.938718
 21
340.327199
  0
LINE
  5
830
100
AcDbEntity
  8
M2
  6
DASHDOT
 62
     7
100
AcDbLine
 10
95.888718
 20
279.927199
 11
95.888718
 21
280.927199
  0
LINE
  5
831
100
AcDbEntity
  8
M2
  6
DASHDOT
 62
     7
100
AcDbLine
 10
105.988718
 20
321.727199
 11
105.988718
 21
322.727199
  0
LINE
  5
832
100
AcDbEntity
  8
M2
  6
DASHDOT
 62
     7
100
AcDbLine
 10
105.488718
 20
322.227199
 11
106.488718
 21
322.227199
  0
LINE
  5
833
100
AcDbEntity
  8
M2
  6
DASHDOT
 62
     7
100
AcDbLine
 10
95.888718
 20
321.727199
 11
95.888718
 21
322.727199
  0
LINE
  5
834
100
AcDbEntity
  8
M2
  6
DASHDOT
 62
     7
100
AcDbLine
 10
95.388718
 20
322.227199
 11
96.388718
 21
322.227199
  0
ARC
  5
835
100
AcDbEntity
  8
M2
 62
     7
100
AcDbCircle
 10
92.138718
 20
305.577199
 40
0.5
100
AcDbArc
 50
180.0
 51
270.0
  0
ARC
  5
836
100
AcDbEntity
  8
M2
 62
     7
100
AcDbCircle
 10
129.938718
 20
305.577199
 40
0.5
100
AcDbArc
 50
270.0
 51
360.0
  0
ARC
  5
837
100
AcDbEntity
  8
M2
 62
     7
100
AcDbCircle
 10
118.588718
 20
289.827199
 40
0.5
100
AcDbArc
 50
90.0
 51
126.869898
  0
ARC
  5
838
100
AcDbEntity
  8
M2
 62
     7
100
AcDbCircle
 10
113.588718
 20
289.827199
 40
0.5
100
AcDbArc
 50
53.130102
 51
90.0
  0
ARC
  5
839
100
AcDbEntity
  8
M2
 62
     7
100
AcDbCircle
 10
129.938718
 20
285.127199
 40
0.5
100
AcDbArc
 50
270.0
 51
360.0
  0
ARC
  5
83A
100
AcDbEntity
  8
M2
 62
     7
100
AcDbCircle
 10
94.538718
 20
298.077199
 40
0.5
100
AcDbArc
 50
270.0
 51
360.0
  0
ARC
  5
83B
100
AcDbEntity
  8
M2
 62
     7
100
AcDbCircle
 10
102.738718
 20
291.227199
 40
1.0
100
AcDbArc
 50
180.0
 51
270.0
  0
ARC
  5
83C
100
AcDbEntity
  8
M2
 62
     7
100
AcDbCircle
 10
127.538718
 20
304.577199
 40
0.5
100
AcDbArc
 50
90.0
 51
180.0
  0
ARC
  5
83D
100
AcDbEntity
  8
M2
 62
     7
100
AcDbCircle
 10
92.138718
 20
297.077199
 40
0.5
100
AcDbArc
 50
90.0
 51
180.0
  0
ARC
  5
83E
100
AcDbEntity
  8
M2
 62
     7
100
AcDbCircle
 10
94.538718
 20
304.577199
 40
0.5
100
AcDbArc
 50
0.0
 51
90.0
  0
ARC
  5
83F
100
AcDbEntity
  8
M2
 62
     7
100
AcDbCircle
 10
117.288718
 20
312.327199
 40
1.2
100
AcDbArc
 50
90.0
 51
180.0
  0
ARC
  5
840
100
AcDbEntity
  8
M2
 62
     7
100
AcDbCircle
 10
105.488718
 20
306.627199
 40
0.5
100
AcDbArc
 50
270.0
 51
360.0
  0
ARC
  5
841
100
AcDbEntity
  8
M2
 62
     7
100
AcDbCircle
 10
102.838718
 20
312.527199
 40
1.0
100
AcDbArc
 50
90.0
 51
180.0
  0
ARC
  5
842
100
AcDbEntity
  8
M2
 62
     7
100
AcDbCircle
 10
104.788718
 20
312.327199
 40
1.2
100
AcDbArc
 50
0.0
 51
90.0
  0
LINE
  5
843
100
AcDbEntity
  8
M2
 62
     7
100
AcDbLine
 10
122.363718
 20
283.752199
 11
122.363718
 21
277.102199
  0
ARC
  5
844
100
AcDbEntity
  8
M2
 62
     7
100
AcDbCircle
 10
92.138718
 20
285.127199
 40
0.5
100
AcDbArc
 50
180.0
 51
270.0
  0
ARC
  5
845
100
AcDbEntity
  8
M2
 62
     7
100
AcDbCircle
 10
129.938718
 20
297.077199
 40
0.5
100
AcDbArc
 50
0.0
 51
90.0
  0
ARC
  5
846
100
AcDbEntity
  8
M2
 62
     7
100
AcDbCircle
 10
127.538718
 20
298.077199
 40
0.5
100
AcDbArc
 50
180.0
 51
270.0
  0
ARC
  5
847
100
AcDbEntity
  8
M2
 62
     7
100
AcDbCircle
 10
129.938718
 20
317.527199
 40
0.5
100
AcDbArc
 50
0.0
 51
90.0
  0
ARC
  5
848
100
AcDbEntity
  8
M2
 62
     7
100
AcDbCircle
 10
116.588718
 20
306.627199
 40
0.5
100
AcDbArc
 50
180.0
 51
270.0
  0
LINE
  5
849
100
AcDbEntity
  8
M2
 62
     7
100
AcDbLine
 10
117.688718
 20
335.727199
 11
128.038718
 21
335.727199
  0
LINE
  5
84A
100
AcDbEntity
  8
M2
 62
     7
100
AcDbLine
 10
128.038718
 20
334.227199
 11
117.688718
 21
334.227199
  0
ARC
  5
84B
100
AcDbEntity
  8
M2
 62
     7
100
AcDbCircle
 10
102.738718
 20
312.627199
 40
1.0
100
AcDbArc
 50
90.0
 51
180.0
  0
LINE
  5
84C
100
AcDbEntity
  8
M2
 62
     7
100
AcDbLine
 10
125.438718
 20
344.227199
 11
117.938718
 21
344.227199
  0
ARC
  5
84D
100
AcDbEntity
  8
M2
 62
     7
100
AcDbCircle
 10
105.138718
 20
312.627199
 40
1.0
100
AcDbArc
 50
0.0
 51
90.0
  0
LINE
  5
84E
100
AcDbEntity
  8
M2
 62
     7
100
AcDbLine
 10
104.388718
 20
334.227199
 11
97.488718
 21
334.227199
  0
LINE
  5
84F
100
AcDbEntity
  8
M2
 62
     7
100
AcDbLine
 10
104.388718
 20
335.727199
 11
97.488718
 21
335.727199
  0
LINE
  5
850
100
AcDbEntity
  8
M2
 62
     7
100
AcDbLine
 10
116.438718
 20
343.653883
 11
116.438718
 21
345.227199
  0
LINE
  5
851
100
AcDbEntity
  8
M2
 62
     7
100
AcDbLine
 10
97.888718
 20
332.227199
 11
99.788718
 21
332.227199
  0
LINE
  5
852
100
AcDbEntity
  8
M2
 62
     7
100
AcDbLine
 10
128.038718
 20
335.727199
 11
128.038718
 21
334.227199
  0
ARC
  5
853
100
AcDbEntity
  8
M2
 62
     7
100
AcDbCircle
 10
116.938718
 20
344.727199
 40
1.0
100
AcDbArc
 50
0.0
 51
90.0
  0
ARC
  5
854
100
AcDbEntity
  8
M2
 62
     7
100
AcDbCircle
 10
119.338718
 20
291.227199
 40
1.0
100
AcDbArc
 50
270.0
 51
360.0
  0
ARC
  5
855
100
AcDbEntity
  8
M2
 62
     7
100
AcDbCircle
 10
119.338718
 20
312.627199
 40
1.0
100
AcDbArc
 50
0.0
 51
90.0
  0
ARC
  5
856
100
AcDbEntity
  8
M2
 62
     7
100
AcDbCircle
 10
92.138718
 20
317.527199
 40
0.5
100
AcDbArc
 50
90.0
 51
180.0
  0
ARC
  5
857
100
AcDbEntity
  8
M2
 62
     7
100
AcDbCircle
 10
106.638718
 20
311.927199
 40
0.5
100
AcDbArc
 50
180.0
 51
270.0
  0
ARC
  5
858
100
AcDbEntity
  8
M2
 62
     7
100
AcDbCircle
 10
115.438718
 20
311.927199
 40
0.5
100
AcDbArc
 50
270.0
 51
360.0
  0
ARC
  5
859
100
AcDbEntity
  8
M2
 62
     7
100
AcDbCircle
 10
116.938718
 20
345.227199
 40
0.5
100
AcDbArc
 50
90.0
 51
180.0
  0
ARC
  5
85A
100
AcDbEntity
  8
M2
 62
     7
100
AcDbCircle
 10
116.938718
 20
312.627199
 40
1.0
100
AcDbArc
 50
90.0
 51
180.0
  0
LINE
  5
85B
100
AcDbEntity
  8
M2
 62
     7
100
AcDbLine
 10
109.838718
 20
338.977199
 11
109.838718
 21
339.877199
  0
LINE
  5
85C
100
AcDbEntity
  8
M2
 62
     7
100
AcDbLine
 10
104.788718
 20
268.377199
 11
104.788718
 21
269.277199
  0
LINE
  5
85D
100
AcDbEntity
  8
M2
 62
     7
100
AcDbLine
 10
123.388718
 20
272.027199
 11
122.288718
 21
272.027199
  0
LINE
  5
85E
100
AcDbEntity
  8
M2
 62
     7
100
AcDbLine
 10
123.388718
 20
267.027199
 11
123.388718
 21
272.027199
  0
LINE
  5
85F
100
AcDbEntity
  8
M2
 62
     7
100
AcDbLine
 10
99.213718
 20
284.252199
 11
92.563718
 21
284.252199
  0
LINE
  5
860
100
AcDbEntity
  8
M2
 62
     7
100
AcDbLine
 10
92.563718
 20
276.602199
 11
99.213718
 21
276.602199
  0
LINE
  5
861
100
AcDbEntity
  8
M2
  6
DASHDOT
 62
     7
100
AcDbLine
 10
95.888718
 20
279.927199
 11
95.888718
 21
280.927199
  0
LINE
  5
862
100
AcDbEntity
  8
M2
  6
DASHDOT
 62
     7
100
AcDbLine
 10
95.388718
 20
280.427199
 11
96.388718
 21
280.427199
  0
LINE
  5
863
100
AcDbEntity
  8
M2
 62
     7
100
AcDbLine
 10
112.238718
 20
338.977199
 11
112.238718
 21
339.877199
  0
LINE
  5
864
100
AcDbEntity
  8
M2
 62
     7
100
AcDbLine
 10
99.788718
 20
270.827199
 11
99.713718
 21
270.827199
  0
LINE
  5
865
100
AcDbEntity
  8
M2
 62
     7
100
AcDbLine
 10
115.238718
 20
270.327199
 11
115.238718
 21
267.027199
  0
LINE
  5
866
100
AcDbEntity
  8
M2
  6
DASHDOT
 62
     7
100
AcDbLine
 10
99.638718
 20
339.827199
 11
100.638718
 21
339.827199
  0
LINE
  5
867
100
AcDbEntity
  8
M2
 62
     7
100
AcDbLine
 10
89.538718
 20
270.027199
 11
89.538718
 21
330.227199
  0
LINE
  5
868
100
AcDbEntity
  8
M2
 62
     7
100
AcDbLine
 10
132.538718
 20
333.027199
 11
132.538718
 21
304.827199
  0
LINE
  5
869
100
AcDbEntity
  8
M2
 62
     7
100
AcDbLine
 10
115.738718
 20
266.527199
 11
116.707329
 21
266.527199
  0
LINE
  5
86A
100
AcDbEntity
  8
M2
 62
     7
100
AcDbLine
 10
128.788718
 20
275.627199
 11
128.788718
 21
275.227199
  0
LINE
  5
86B
100
AcDbEntity
  8
M2
 62
     7
100
AcDbLine
 10
99.834778
 20
266.527199
 11
99.710982
 21
266.527199
  0
LINE
  5
86C
100
AcDbEntity
  8
M2
 62
     7
100
AcDbLine
 10
112.263718
 20
283.752199
 11
112.263718
 21
277.102199
  0
LINE
  5
86D
100
AcDbEntity
  8
M2
  6
DASHDOT
 62
     7
100
AcDbLine
 10
126.188718
 20
279.927199
 11
126.188718
 21
280.927199
  0
LINE
  5
86E
100
AcDbEntity
  8
M2
 62
     7
100
AcDbLine
 10
112.763718
 20
276.602199
 11
119.413718
 21
276.602199
  0
LINE
  5
86F
100
AcDbEntity
  8
M2
 62
     7
100
AcDbLine
 10
119.913718
 20
277.102199
 11
119.913718
 21
283.752199
  0
LINE
  5
870
100
AcDbEntity
  8
M2
 62
     7
100
AcDbLine
 10
119.413718
 20
284.252199
 11
112.763718
 21
284.252199
  0
LINE
  5
871
100
AcDbEntity
  8
M2
 62
     7
100
AcDbLine
 10
130.013718
 20
277.102199
 11
130.013718
 21
283.752199
  0
LINE
  5
872
100
AcDbEntity
  8
M2
 62
     7
100
AcDbLine
 10
129.513718
 20
284.252199
 11
122.863718
 21
284.252199
  0
LINE
  5
873
100
AcDbEntity
  8
M2
 62
     7
100
AcDbLine
 10
122.863718
 20
276.602199
 11
129.513718
 21
276.602199
  0
LINE
  5
874
100
AcDbEntity
  8
M2
  6
DASHDOT
 62
     7
100
AcDbLine
 10
125.688718
 20
280.427199
 11
126.688718
 21
280.427199
  0
LINE
  5
875
100
AcDbEntity
  8
M2
  6
DASHDOT
 62
     7
100
AcDbLine
 10
105.488718
 20
280.427199
 11
106.488718
 21
280.427199
  0
LINE
  5
876
100
AcDbEntity
  8
M2
 62
     7
100
AcDbLine
 10
109.313718
 20
284.252199
 11
102.663718
 21
284.252199
  0
LINE
  5
877
100
AcDbEntity
  8
M2
 62
     7
100
AcDbLine
 10
92.063718
 20
283.752199
 11
92.063718
 21
277.102199
  0
LINE
  5
878
100
AcDbEntity
  8
M2
  6
DASHDOT
 62
     7
100
AcDbLine
 10
105.988718
 20
279.927199
 11
105.988718
 21
280.927199
  0
LINE
  5
879
100
AcDbEntity
  8
M2
 62
     7
100
AcDbLine
 10
99.713718
 20
277.102199
 11
99.713718
 21
283.752199
  0
LINE
  5
87A
100
AcDbEntity
  8
M2
  6
DASHDOT
 62
     7
100
AcDbLine
 10
116.088718
 20
279.927199
 11
116.088718
 21
280.927199
  0
LINE
  5
87B
100
AcDbEntity
  8
M2
  6
DASHDOT
 62
     7
100
AcDbLine
 10
115.588718
 20
280.427199
 11
116.588718
 21
280.427199
  0
LINE
  5
87C
100
AcDbEntity
  8
M2
 62
     7
100
AcDbLine
 10
109.813718
 20
277.102199
 11
109.813718
 21
283.752199
  0
LINE
  5
87D
100
AcDbEntity
  8
M2
 62
     7
100
AcDbLine
 10
102.163718
 20
283.752199
 11
102.163718
 21
277.102199
  0
LINE
  5
87E
100
AcDbEntity
  8
M2
 62
     7
100
AcDbLine
 10
130.486086
 20
307.427199
 11
130.486086
 21
310.227199
  0
ARC
  5
87F
100
AcDbEntity
  8
M2
 62
     7
100
AcDbCircle
 10
115.738718
 20
267.027199
 40
0.5
100
AcDbArc
 50
180.0
 51
270.0
  0
ARC
  5
880
100
AcDbEntity
  8
M2
 62
     7
100
AcDbCircle
 10
128.538718
 20
333.027199
 40
2.25
100
AcDbArc
 50
257.160412
 51
462.839588
  0
LINE
  5
881
100
AcDbEntity
  8
M2
 62
     7
100
AcDbLine
 10
91.838718
 20
305.027199
 11
94.756663
 21
305.027199
  0
LINE
  5
882
100
AcDbEntity
  8
M2
 62
     7
100
AcDbLine
 10
90.538718
 20
297.627199
 11
90.538718
 21
305.027199
  0
LINE
  5
883
100
AcDbEntity
  8
M2
 62
     7
100
AcDbLine
 10
131.538718
 20
272.527199
 11
131.088718
 21
272.527199
  0
LINE
  5
884
100
AcDbEntity
  8
M2
 62
     7
100
AcDbLine
 10
130.088718
 20
273.527199
 11
130.088718
 21
284.627199
  0
LINE
  5
885
100
AcDbEntity
  8
M2
 62
     7
100
AcDbLine
 10
115.938718
 20
312.327199
 11
116.088718
 21
312.327199
  0
ARC
  5
886
100
AcDbEntity
  8
M2
 62
     7
100
AcDbCircle
 10
93.538718
 20
273.027199
 40
2.25
100
AcDbArc
 50
191.257189
 51
493.542219
  0
ARC
  5
887
100
AcDbEntity
  8
M2
 62
     7
100
AcDbCircle
 10
128.538718
 20
278.227199
 40
2.25
100
AcDbArc
 50
286.791447
 51
313.542219
  0
ARC
  5
888
100
AcDbEntity
  8
M2
 62
     7
100
AcDbCircle
 10
93.538718
 20
330.227199
 40
2.25
100
AcDbArc
 50
81.050982
 51
180.0
  0
ARC
  5
889
100
AcDbEntity
  8
M2
 62
     7
100
AcDbCircle
 10
126.538718
 20
275.227199
 40
2.25
100
AcDbArc
 50
180.0
 51
360.0
  0
ARC
  5
88A
100
AcDbEntity
  8
M2
 62
     7
100
AcDbCircle
 10
94.538718
 20
330.227199
 40
5.0
100
AcDbArc
 50
95.73917
 51
180.0
  0
ARC
  5
88B
100
AcDbEntity
  8
M2
 62
     7
100
AcDbCircle
 10
126.838718
 20
345.127199
 40
0.6
100
AcDbArc
 50
90.0
 51
180.0
  0
ARC
  5
88C
100
AcDbEntity
  8
M2
 62
     7
100
AcDbCircle
 10
116.038718
 20
267.827199
 40
2.0
100
AcDbArc
 50
270.0
 51
285.58129
  0
ARC
  5
88D
100
AcDbEntity
  8
M2
 62
     7
100
AcDbCircle
 10
127.438718
 20
345.127199
 40
0.6
100
AcDbArc
 50
0.0
 51
90.0
  0
LINE
  5
88E
100
AcDbEntity
  8
M2
 62
     7
100
AcDbLine
 10
116.038718
 20
265.827199
 11
109.744921
 21
265.827199
  0
LINE
  5
88F
100
AcDbEntity
  8
M2
 62
     7
100
AcDbLine
 10
112.188718
 20
267.827199
 11
115.238718
 21
267.827199
  0
LINE
  5
890
100
AcDbEntity
  8
M2
 62
     7
100
AcDbLine
 10
128.038718
 20
342.727199
 11
128.038718
 21
335.827199
  0
LINE
  5
891
100
AcDbEntity
  8
M2
 62
     7
100
AcDbLine
 10
105.538718
 20
268.377199
 11
105.538718
 21
267.627199
  0
LINE
  5
892
100
AcDbEntity
  8
M2
 62
     7
100
AcDbLine
 10
105.538718
 20
267.627199
 11
106.438718
 21
267.627199
  0
LINE
  5
893
100
AcDbEntity
  8
M2
 62
     7
100
AcDbLine
 10
128.038718
 20
342.727199
 11
128.038718
 21
345.127199
  0
LINE
  5
894
100
AcDbEntity
  8
M2
 62
     7
100
AcDbLine
 10
106.613702
 20
268.377199
 11
106.438718
 21
268.377199
  0
LINE
  5
895
100
AcDbEntity
  8
M2
 62
     7
100
AcDbLine
 10
126.838718
 20
345.727199
 11
127.438718
 21
345.727199
  0
LINE
  5
896
100
AcDbEntity
  8
M2
 62
     7
100
AcDbLine
 10
91.488718
 20
307.427199
 11
91.638718
 21
307.427199
  0
LINE
  5
897
100
AcDbEntity
  8
M2
 62
     7
100
AcDbLine
 10
94.756663
 20
297.627199
 11
91.838718
 21
297.627199
  0
LINE
  5
898
100
AcDbEntity
  8
M2
 62
     7
100
AcDbLine
 10
90.988718
 20
272.527199
 11
90.538718
 21
272.527199
  0
LINE
  5
899
100
AcDbEntity
  8
M2
 62
     7
100
AcDbLine
 10
91.638718
 20
310.227199
 11
91.488718
 21
310.227199
  0
LINE
  5
89A
100
AcDbEntity
  8
M2
 62
     7
100
AcDbLine
 10
91.838718
 20
297.627199
 11
91.838718
 21
305.027199
  0
LINE
  5
89B
100
AcDbEntity
  8
M2
 62
     7
100
AcDbLine
 10
94.838718
 20
304.977199
 11
94.838718
 21
303.727199
  0
LINE
  5
89C
100
AcDbEntity
  8
M2
 62
     7
100
AcDbLine
 10
94.838718
 20
298.727199
 11
94.838718
 21
297.677199
  0
LINE
  5
89D
100
AcDbEntity
  8
M2
 62
     7
100
AcDbLine
 10
95.038718
 20
303.727199
 11
94.838718
 21
303.727199
  0
LINE
  5
89E
100
AcDbEntity
  8
M2
  6
DASHDOT
 62
     7
100
AcDbLine
 10
116.088718
 20
321.727199
 11
116.088718
 21
322.727199
  0
LINE
  5
89F
100
AcDbEntity
  8
M2
  6
DASHDOT
 62
     7
100
AcDbLine
 10
115.588718
 20
322.227199
 11
116.588718
 21
322.227199
  0
LINE
  5
8A0
100
AcDbEntity
  8
M2
 62
     7
100
AcDbLine
 10
103.963718
 20
336.502199
 11
103.963718
 21
341.490788
  0
LINE
  5
8A1
100
AcDbEntity
  8
M2
 62
     7
100
AcDbLine
 10
97.488718
 20
336.002199
 11
103.463718
 21
336.002199
  0
LINE
  5
8A2
100
AcDbEntity
  8
M2
 62
     7
100
AcDbLine
 10
112.263718
 20
325.552199
 11
112.263718
 21
318.902199
  0
LINE
  5
8A3
100
AcDbEntity
  8
M2
  6
DASHDOT
 62
     7
100
AcDbLine
 10
105.988718
 20
321.727199
 11
105.988718
 21
322.727199
  0
LINE
  5
8A4
100
AcDbEntity
  8
M2
 62
     7
100
AcDbLine
 10
112.763718
 20
318.402199
 11
119.413718
 21
318.402199
  0
LINE
  5
8A5
100
AcDbEntity
  8
M2
 62
     7
100
AcDbLine
 10
119.913718
 20
318.902199
 11
119.913718
 21
325.552199
  0
LINE
  5
8A6
100
AcDbEntity
  8
M2
 62
     7
100
AcDbLine
 10
119.413718
 20
326.052199
 11
112.763718
 21
326.052199
  0
LINE
  5
8A7
100
AcDbEntity
  8
M2
 62
     7
100
AcDbLine
 10
99.213718
 20
326.052199
 11
92.563718
 21
326.052199
  0
LINE
  5
8A8
100
AcDbEntity
  8
M2
 62
     7
100
AcDbLine
 10
92.563718
 20
318.402199
 11
99.213718
 21
318.402199
  0
LINE
  5
8A9
100
AcDbEntity
  8
M2
  6
DASHDOT
 62
     7
100
AcDbLine
 10
95.888718
 20
321.727199
 11
95.888718
 21
322.727199
  0
LINE
  5
8AA
100
AcDbEntity
  8
M2
  6
DASHDOT
 62
     7
100
AcDbLine
 10
95.388718
 20
322.227199
 11
96.388718
 21
322.227199
  0
LINE
  5
8AB
100
AcDbEntity
  8
M2
 62
     7
100
AcDbLine
 10
118.113718
 20
343.152199
 11
118.113718
 21
336.502199
  0
LINE
  5
8AC
100
AcDbEntity
  8
M2
  6
DASHDOT
 62
     7
100
AcDbLine
 10
99.638718
 20
339.827199
 11
100.638718
 21
339.827199
  0
LINE
  5
8AD
100
AcDbEntity
  8
M2
 62
     7
100
AcDbLine
 10
92.063718
 20
325.552199
 11
92.063718
 21
318.902199
  0
LINE
  5
8AE
100
AcDbEntity
  8
M2
  6
DASHDOT
 62
     7
100
AcDbLine
 10
100.138718
 20
339.327199
 11
100.138718
 21
340.327199
  0
LINE
  5
8AF
100
AcDbEntity
  8
M2
 62
     7
100
AcDbLine
 10
99.713718
 20
318.902199
 11
99.713718
 21
325.552199
  0
ARC
  5
8B0
100
AcDbEntity
  8
M2
 62
     7
100
AcDbCircle
 10
101.088718
 20
270.127199
 40
1.0
100
AcDbArc
 50
270.0
 51
360.0
  0
ARC
  5
8B1
100
AcDbEntity
  8
M2
 62
     7
100
AcDbCircle
 10
121.288718
 20
270.127199
 40
1.0
100
AcDbArc
 50
270.0
 51
360.0
  0
ARC
  5
8B2
100
AcDbEntity
  8
M2
 62
     7
100
AcDbCircle
 10
100.788718
 20
270.127199
 40
1.0
100
AcDbArc
 50
180.0
 51
270.0
  0
ARC
  5
8B3
100
AcDbEntity
  8
M2
 62
     7
100
AcDbCircle
 10
111.188718
 20
270.127199
 40
1.0
100
AcDbArc
 50
270.0
 51
360.0
  0
LINE
  5
8B4
100
AcDbEntity
  8
M2
 62
     7
100
AcDbLine
 10
122.363718
 20
325.552199
 11
122.363718
 21
318.902199
  0
ARC
  5
8B5
100
AcDbEntity
  8
M2
 62
     7
100
AcDbCircle
 10
123.888718
 20
267.027199
 40
0.5
100
AcDbArc
 50
180.0
 51
270.0
  0
LINE
  5
8B6
100
AcDbEntity
  8
M2
 62
     7
100
AcDbLine
 10
94.838718
 20
298.727199
 11
95.038718
 21
298.727199
  0
ARC
  5
8B7
100
AcDbEntity
  8
M2
 62
     7
100
AcDbCircle
 10
127.538718
 20
271.527199
 40
5.0
100
AcDbArc
 50
270.0
 51
360.0
  0
ARC
  5
8B8
100
AcDbEntity
  8
M2
 62
     7
100
AcDbCircle
 10
96.288718
 20
267.027199
 40
0.5
100
AcDbArc
 50
270.0
 51
296.338984
  0
ARC
  5
8B9
100
AcDbEntity
  8
M2
 62
     7
100
AcDbCircle
 10
93.038718
 20
270.027199
 40
3.5
100
AcDbArc
 50
180.0
 51
270.0
  0
LINE
  5
8BA
100
AcDbEntity
  8
M2
 62
     7
100
AcDbLine
 10
109.813718
 20
318.902199
 11
109.813718
 21
325.552199
  0
LINE
  5
8BB
100
AcDbEntity
  8
M2
 62
     7
100
AcDbLine
 10
102.163718
 20
325.552199
 11
102.163718
 21
318.902199
  0
LINE
  5
8BC
100
AcDbEntity
  8
M2
 62
     7
100
AcDbLine
 10
109.313718
 20
326.052199
 11
102.663718
 21
326.052199
  0
LINE
  5
8BD
100
AcDbEntity
  8
M2
 62
     7
100
AcDbLine
 10
102.663718
 20
318.402199
 11
109.313718
 21
318.402199
  0
LINE
  5
8BE
100
AcDbEntity
  8
M2
  6
DASHDOT
 62
     7
100
AcDbLine
 10
105.488718
 20
322.227199
 11
106.488718
 21
322.227199
  0
LINE
  5
8BF
100
AcDbEntity
  8
M2
 62
     7
100
AcDbLine
 10
122.863718
 20
318.402199
 11
129.513718
 21
318.402199
  0
LINE
  5
8C0
100
AcDbEntity
  8
M2
 62
     7
100
AcDbLine
 10
130.013718
 20
318.902199
 11
130.013718
 21
325.552199
  0
LINE
  5
8C1
100
AcDbEntity
  8
M2
  6
DASHDOT
 62
     7
100
AcDbLine
 10
125.688718
 20
322.227199
 11
126.688718
 21
322.227199
  0
LINE
  5
8C2
100
AcDbEntity
  8
M2
 62
     7
100
AcDbLine
 10
129.513718
 20
326.052199
 11
122.863718
 21
326.052199
  0
LINE
  5
8C3
100
AcDbEntity
  8
M2
 62
     7
100
AcDbLine
 10
108.788718
 20
305.927199
 11
106.238718
 21
305.927199
  0
LINE
  5
8C4
100
AcDbEntity
  8
M2
 62
     7
100
AcDbLine
 10
113.288718
 20
305.927199
 11
115.838718
 21
305.927199
  0
LINE
  5
8C5
100
AcDbEntity
  8
M2
 62
     7
100
AcDbLine
 10
107.588718
 20
335.727199
 11
114.488718
 21
335.727199
  0
LINE
  5
8C6
100
AcDbEntity
  8
M2
 62
     7
100
AcDbLine
 10
107.588718
 20
334.227199
 11
114.488718
 21
334.227199
  0
LINE
  5
8C7
100
AcDbEntity
  8
M2
 62
     7
100
AcDbLine
 10
99.788718
 20
332.127199
 11
97.888718
 21
332.127199
  0
LINE
  5
8C8
100
AcDbEntity
  8
M2
 62
     7
100
AcDbLine
 10
109.888718
 20
297.227199
 11
109.888718
 21
297.727199
  0
LINE
  5
8C9
100
AcDbEntity
  8
M2
 62
     7
100
AcDbLine
 10
94.038718
 20
341.193736
 11
94.038718
 21
333.327199
  0
LINE
  5
8CA
100
AcDbEntity
  8
M2
 62
     7
100
AcDbLine
 10
116.338718
 20
305.427199
 11
116.338718
 21
297.227199
  0
ARC
  5
8CB
100
AcDbEntity
  8
M2
 62
     7
100
AcDbCircle
 10
90.538718
 20
296.627199
 40
1.0
100
AcDbArc
 50
90.0
 51
180.0
  0
ARC
  5
8CC
100
AcDbEntity
  8
M2
 62
     7
100
AcDbCircle
 10
131.538718
 20
296.627199
 40
1.0
100
AcDbArc
 50
0.0
 51
90.0
  0
LINE
  5
8CD
100
AcDbEntity
  8
M2
 62
     7
100
AcDbLine
 10
119.988718
 20
270.327199
 11
119.913718
 21
270.327199
  0
LINE
  5
8CE
100
AcDbEntity
  8
M2
 62
     7
100
AcDbLine
 10
106.613702
 20
272.327199
 11
104.088718
 21
272.327199
  0
LINE
  5
8CF
100
AcDbEntity
  8
M2
 62
     7
100
AcDbLine
 10
128.038718
 20
332.127199
 11
122.288718
 21
332.127199
  0
LINE
  5
8D0
100
AcDbEntity
  8
M2
 62
     7
100
AcDbLine
 10
112.188718
 20
332.127199
 11
114.088718
 21
332.127199
  0
LINE
  5
8D1
100
AcDbEntity
  8
M2
 62
     7
100
AcDbLine
 10
128.038718
 20
327.027199
 11
128.038718
 21
332.127199
  0
LINE
  5
8D2
100
AcDbEntity
  8
M2
 62
     7
100
AcDbLine
 10
100.788718
 20
333.527199
 11
100.988718
 21
333.527199
  0
LINE
  5
8D3
100
AcDbEntity
  8
M2
 62
     7
100
AcDbLine
 10
109.888718
 20
318.027199
 11
109.888718
 21
332.527199
  0
LINE
  5
8D4
100
AcDbEntity
  8
M2
 62
     7
100
AcDbLine
 10
131.088718
 20
330.127199
 11
131.538718
 21
330.127199
  0
LINE
  5
8D5
100
AcDbEntity
  8
M2
 62
     7
100
AcDbLine
 10
102.088718
 20
332.527199
 11
102.088718
 21
329.527199
  0
LINE
  5
8D6
100
AcDbEntity
  8
M2
 62
     7
100
AcDbLine
 10
91.988718
 20
329.127199
 11
91.988718
 21
325.127199
  0
LINE
  5
8D7
100
AcDbEntity
  8
M2
 62
     7
100
AcDbLine
 10
91.988718
 20
284.627199
 11
91.988718
 21
277.527199
  0
LINE
  5
8D8
100
AcDbEntity
  8
M2
 62
     7
100
AcDbLine
 10
92.888718
 20
327.027199
 11
93.888718
 21
327.027199
  0
LINE
  5
8D9
100
AcDbEntity
  8
M2
 62
     7
100
AcDbLine
 10
121.088718
 20
333.527199
 11
121.288718
 21
333.527199
  0
LINE
  5
8DA
100
AcDbEntity
  8
M2
 62
     7
100
AcDbLine
 10
91.988718
 20
277.527199
 11
91.988718
 21
273.527199
  0
LINE
  5
8DB
100
AcDbEntity
  8
M2
 62
     7
100
AcDbLine
 10
120.988718
 20
333.527199
 11
121.088718
 21
333.527199
  0
LINE
  5
8DC
100
AcDbEntity
  8
M2
 62
     7
100
AcDbLine
 10
90.538718
 20
330.127199
 11
90.988718
 21
330.127199
  0
LINE
  5
8DD
100
AcDbEntity
  8
M2
 62
     7
100
AcDbLine
 10
91.988718
 20
325.127199
 11
91.988718
 21
318.027199
  0
LINE
  5
8DE
100
AcDbEntity
  8
M2
 62
     7
100
AcDbLine
 10
117.088718
 20
290.327199
 11
104.988718
 21
290.327199
  0
LINE
  5
8DF
100
AcDbEntity
  8
M2
 62
     7
100
AcDbLine
 10
116.588718
 20
295.027199
 11
105.488718
 21
295.027199
  0
LINE
  5
8E0
100
AcDbEntity
  8
M2
 62
     7
100
AcDbLine
 10
130.588718
 20
318.027199
 11
91.488718
 21
318.027199
  0
LINE
  5
8E1
100
AcDbEntity
  8
M2
 62
     7
100
AcDbLine
 10
105.488718
 20
296.427199
 11
116.588718
 21
296.427199
  0
LINE
  5
8E2
100
AcDbEntity
  8
M2
 62
     7
100
AcDbLine
 10
105.488718
 20
291.827199
 11
116.588718
 21
291.827199
  0
LINE
  5
8E3
100
AcDbEntity
  8
M2
 62
     7
100
AcDbLine
 10
125.438718
 20
344.227199
 11
126.238718
 21
344.227199
  0
LINE
  5
8E4
100
AcDbEntity
  8
M2
 62
     7
100
AcDbLine
 10
128.038718
 20
332.127199
 11
128.038718
 21
332.227199
  0
LINE
  5
8E5
100
AcDbEntity
  8
M2
 62
     7
100
AcDbLine
 10
94.038718
 20
335.827199
 11
94.038718
 21
335.727199
  0
LINE
  5
8E6
100
AcDbEntity
  8
M2
 62
     7
100
AcDbLine
 10
128.038718
 20
335.727199
 11
128.038718
 21
335.827199
  0
ARC
  5
8E7
100
AcDbEntity
  8
M2
 62
     7
100
AcDbCircle
 10
110.888718
 20
332.527199
 40
1.0
100
AcDbArc
 50
90.0
 51
180.0
  0
ARC
  5
8E8
100
AcDbEntity
  8
M2
 62
     7
100
AcDbCircle
 10
90.988718
 20
273.527199
 40
1.0
100
AcDbArc
 50
270.0
 51
360.0
  0
ARC
  5
8E9
100
AcDbEntity
  8
M2
 62
     7
100
AcDbCircle
 10
101.088718
 20
332.527199
 40
1.0
100
AcDbArc
 50
0.0
 51
90.0
  0
LINE
  5
8EA
100
AcDbEntity
  8
M2
 62
     7
100
AcDbLine
 10
106.438718
 20
270.027199
 11
105.538718
 21
270.027199
  0
LINE
  5
8EB
100
AcDbEntity
  8
M2
 62
     7
100
AcDbLine
 10
106.438718
 20
269.277199
 11
106.613702
 21
269.277199
  0
LINE
  5
8EC
100
AcDbEntity
  8
M2
 62
     7
100
AcDbLine
 10
105.538718
 20
268.377199
 11
104.788718
 21
268.377199
  0
LINE
  5
8ED
100
AcDbEntity
  8
M2
 62
     7
100
AcDbLine
 10
106.438718
 20
267.627199
 11
106.438718
 21
268.377199
  0
LINE
  5
8EE
100
AcDbEntity
  8
M2
  6
DASHDOT
 62
     7
100
AcDbLine
 10
126.188718
 20
321.727199
 11
126.188718
 21
322.727199
  0
LINE
  5
8EF
100
AcDbEntity
  8
M2
 62
     7
100
AcDbLine
 10
126.238718
 20
345.127199
 11
126.238718
 21
335.727199
  0
LINE
  5
8F0
100
AcDbEntity
  8
M2
 62
     7
100
AcDbLine
 10
104.788718
 20
269.277199
 11
105.538718
 21
269.277199
  0
LINE
  5
8F1
100
AcDbEntity
  8
M2
 62
     7
100
AcDbLine
 10
106.438718
 20
269.277199
 11
106.438718
 21
270.027199
  0
LINE
  5
8F2
100
AcDbEntity
  8
M2
 62
     7
100
AcDbLine
 10
105.538718
 20
270.027199
 11
105.538718
 21
269.277199
  0
ARC
  5
8F3
100
AcDbEntity
  8
M2
 62
     7
100
AcDbCircle
 10
104.988718
 20
290.827199
 40
0.5
100
AcDbArc
 50
270.0
 51
360.0
  0
ARC
  5
8F4
100
AcDbEntity
  8
M2
 62
     7
100
AcDbCircle
 10
117.088718
 20
290.827199
 40
0.5
100
AcDbArc
 50
180.0
 51
270.0
  0
ARC
  5
8F5
100
AcDbEntity
  8
M2
 62
     7
100
AcDbCircle
 10
119.488718
 20
314.027199
 40
0.5
100
AcDbArc
 50
270.0
 51
292.798407
  0
ARC
  5
8F6
100
AcDbEntity
  8
M2
 62
     7
100
AcDbCircle
 10
119.488718
 20
289.827199
 40
0.5
100
AcDbArc
 50
67.201593
 51
90.0
  0
ARC
  5
8F7
100
AcDbEntity
  8
M2
 62
     7
100
AcDbCircle
 10
102.588718
 20
289.827199
 40
0.5
100
AcDbArc
 50
90.0
 51
112.798407
  0
ARC
  5
8F8
100
AcDbEntity
  8
M2
 62
     7
100
AcDbCircle
 10
131.588718
 20
296.62845
 40
1.0
100
AcDbArc
 50
92.865984
 51
180.0
  0
LINE
  5
8F9
100
AcDbEntity
  8
M2
 62
     7
100
AcDbLine
 10
102.838718
 20
290.327199
 11
104.988718
 21
290.327199
  0
ARC
  5
8FA
100
AcDbEntity
  8
M2
 62
     7
100
AcDbCircle
 10
90.538718
 20
329.127199
 40
1.0
100
AcDbArc
 50
90.0
 51
180.0
  0
ARC
  5
8FB
100
AcDbEntity
  8
M2
 62
     7
100
AcDbCircle
 10
90.488718
 20
296.62845
 40
1.0
100
AcDbArc
 50
0.0
 51
87.134016
  0
ARC
  5
8FC
100
AcDbEntity
  8
M2
 62
     7
100
AcDbCircle
 10
90.488718
 20
306.025949
 40
1.0
100
AcDbArc
 50
272.865984
 51
360.0
  0
ARC
  5
8FD
100
AcDbEntity
  8
M2
 62
     7
100
AcDbCircle
 10
109.388718
 20
289.827199
 40
0.5
100
AcDbArc
 50
53.130102
 51
90.0
  0
ARC
  5
8FE
100
AcDbEntity
  8
M2
 62
     7
100
AcDbCircle
 10
120.988718
 20
332.527199
 40
1.0
100
AcDbArc
 50
90.0
 51
180.0
  0
ARC
  5
8FF
100
AcDbEntity
  8
M2
 62
     7
100
AcDbCircle
 10
131.538718
 20
273.527199
 40
1.0
100
AcDbArc
 50
270.0
 51
360.0
  0
ARC
  5
900
100
AcDbEntity
  8
M2
 62
     7
100
AcDbCircle
 10
100.788718
 20
332.527199
 40
1.0
100
AcDbArc
 50
90.0
 51
180.0
  0
ARC
  5
901
100
AcDbEntity
  8
M2
 62
     7
100
AcDbCircle
 10
112.688718
 20
289.827199
 40
0.5
100
AcDbArc
 50
90.0
 51
126.869898
  0
ARC
  5
902
100
AcDbEntity
  8
M2
 62
     7
100
AcDbCircle
 10
102.588718
 20
314.027199
 40
0.5
100
AcDbArc
 50
247.201593
 51
270.0
  0
ARC
  5
903
100
AcDbEntity
  8
M2
 62
     7
100
AcDbCircle
 10
90.538718
 20
273.527199
 40
1.0
100
AcDbArc
 50
180.0
 51
270.0
  0
ARC
  5
904
100
AcDbEntity
  8
M2
 62
     7
100
AcDbCircle
 10
121.288718
 20
332.527199
 40
1.0
100
AcDbArc
 50
0.0
 51
90.0
  0
ARC
  5
905
100
AcDbEntity
  8
M2
 62
     7
100
AcDbCircle
 10
131.088718
 20
273.527199
 40
1.0
100
AcDbArc
 50
180.0
 51
270.0
  0
ARC
  5
906
100
AcDbEntity
  8
M2
 62
     7
100
AcDbCircle
 10
111.188718
 20
332.527199
 40
1.0
100
AcDbArc
 50
0.0
 51
90.0
  0
LINE
  5
907
100
AcDbEntity
  8
M2
 62
     7
100
AcDbLine
 10
130.238718
 20
305.027199
 11
127.320773
 21
305.027199
  0
LINE
  5
908
100
AcDbEntity
  8
M2
 62
     7
100
AcDbLine
 10
91.591349
 20
307.427199
 11
91.591349
 21
310.227199
  0
LINE
  5
909
100
AcDbEntity
  8
M2
 62
     7
100
AcDbLine
 10
130.238718
 20
297.627199
 11
130.238718
 21
297.827199
  0
LINE
  5
90A
100
AcDbEntity
  8
M2
 62
     7
100
AcDbLine
 10
127.320773
 20
297.627199
 11
130.238718
 21
297.627199
  0
LINE
  5
90B
100
AcDbEntity
  8
M2
 62
     7
100
AcDbLine
 10
130.438718
 20
307.427199
 11
130.588718
 21
307.427199
  0
LINE
  5
90C
100
AcDbEntity
  8
M2
 62
     7
100
AcDbLine
 10
99.788718
 20
329.527199
 11
99.788718
 21
332.527199
  0
LINE
  5
90D
100
AcDbEntity
  8
M2
 62
     7
100
AcDbLine
 10
127.238718
 20
303.727199
 11
127.038718
 21
303.727199
  0
LINE
  5
90E
100
AcDbEntity
  8
M2
 62
     7
100
AcDbLine
 10
131.538718
 20
297.627199
 11
131.538718
 21
297.827199
  0
LINE
  5
90F
100
AcDbEntity
  8
M2
 62
     7
100
AcDbLine
 10
130.588718
 20
310.227199
 11
130.438718
 21
310.227199
  0
LINE
  5
910
100
AcDbEntity
  8
M2
 62
     7
100
AcDbLine
 10
127.238718
 20
304.977199
 11
127.238718
 21
303.727199
  0
LINE
  5
911
100
AcDbEntity
  8
M2
 62
     7
100
AcDbLine
 10
122.288718
 20
318.027199
 11
122.288718
 21
332.527199
  0
LINE
  5
912
100
AcDbEntity
  8
M2
 62
     7
100
AcDbLine
 10
112.188718
 20
318.027199
 11
112.188718
 21
332.527199
  0
LINE
  5
913
100
AcDbEntity
  8
M2
 62
     7
100
AcDbLine
 10
119.988718
 20
270.127199
 11
119.988718
 21
284.627199
  0
LINE
  5
914
100
AcDbEntity
  8
M2
 62
     7
100
AcDbLine
 10
110.888718
 20
283.127199
 11
111.188718
 21
283.127199
  0
LINE
  5
915
100
AcDbEntity
  8
M2
 62
     7
100
AcDbLine
 10
100.988718
 20
269.127199
 11
100.788718
 21
269.127199
  0
LINE
  5
916
100
AcDbEntity
  8
M2
 62
     7
100
AcDbLine
 10
111.088718
 20
269.127199
 11
110.988718
 21
269.127199
  0
LINE
  5
917
100
AcDbEntity
  8
M2
 62
     7
100
AcDbLine
 10
110.988718
 20
269.127199
 11
110.888718
 21
269.127199
  0
LINE
  5
918
100
AcDbEntity
  8
M2
 62
     7
100
AcDbLine
 10
111.188718
 20
269.127199
 11
111.088718
 21
269.127199
  0
LINE
  5
919
100
AcDbEntity
  8
M2
 62
     7
100
AcDbLine
 10
121.088718
 20
269.127199
 11
120.988718
 21
269.127199
  0
LINE
  5
91A
100
AcDbEntity
  8
M2
 62
     7
100
AcDbLine
 10
121.288718
 20
269.127199
 11
121.088718
 21
269.127199
  0
ARC
  5
91B
100
AcDbEntity
  8
M2
 62
     7
100
AcDbCircle
 10
110.888718
 20
303.827199
 40
0.5
100
AcDbArc
 50
180.0
 51
270.0
  0
ARC
  5
91C
100
AcDbEntity
  8
M2
 62
     7
100
AcDbCircle
 10
110.888718
 20
298.827199
 40
0.5
100
AcDbArc
 50
90.0
 51
180.0
  0
ARC
  5
91D
100
AcDbEntity
  8
M2
 62
     7
100
AcDbCircle
 10
100.788718
 20
267.327199
 40
1.0
100
AcDbArc
 50
180.0
 51
270.0
  0
ARC
  5
91E
100
AcDbEntity
  8
M2
 62
     7
100
AcDbCircle
 10
101.088718
 20
267.327199
 40
1.0
100
AcDbArc
 50
270.0
 51
360.0
  0
ARC
  5
91F
100
AcDbEntity
  8
M2
 62
     7
100
AcDbCircle
 10
106.238718
 20
297.227199
 40
0.5
100
AcDbArc
 50
180.0
 51
270.0
  0
ARC
  5
920
100
AcDbEntity
  8
M2
 62
     7
100
AcDbCircle
 10
111.188718
 20
267.327199
 40
1.0
100
AcDbArc
 50
270.0
 51
360.0
  0
LINE
  5
921
100
AcDbEntity
  8
M2
 62
     7
100
AcDbLine
 10
111.688718
 20
303.827199
 11
111.688718
 21
306.127199
  0
ARC
  5
922
100
AcDbEntity
  8
M2
 62
     7
100
AcDbCircle
 10
111.188718
 20
298.827199
 40
0.5
100
AcDbArc
 50
0.0
 51
90.0
  0
ARC
  5
923
100
AcDbEntity
  8
M2
 62
     7
100
AcDbCircle
 10
110.888718
 20
267.327199
 40
1.0
100
AcDbArc
 50
180.0
 51
270.0
  0
ARC
  5
924
100
AcDbEntity
  8
M2
 62
     7
100
AcDbCircle
 10
111.188718
 20
303.827199
 40
0.5
100
AcDbArc
 50
270.0
 51
360.0
  0
LINE
  5
925
100
AcDbEntity
  8
M2
 62
     7
100
AcDbLine
 10
127.038718
 20
298.727199
 11
127.238718
 21
298.727199
  0
LINE
  5
926
100
AcDbEntity
  8
M2
 62
     7
100
AcDbLine
 10
106.138718
 20
312.327199
 11
105.988718
 21
312.327199
  0
LINE
  5
927
100
AcDbEntity
  8
M2
 62
     7
100
AcDbLine
 10
127.238718
 20
298.727199
 11
127.238718
 21
297.677199
  0
ARC
  5
928
100
AcDbEntity
  8
M2
 62
     7
100
AcDbCircle
 10
109.388718
 20
297.227199
 40
0.5
100
AcDbArc
 50
270.0
 51
360.0
  0
ARC
  5
929
100
AcDbEntity
  8
M2
 62
     7
100
AcDbCircle
 10
115.838718
 20
297.227199
 40
0.5
100
AcDbArc
 50
270.0
 51
360.0
  0
ARC
  5
92A
100
AcDbEntity
  8
M2
 62
     7
100
AcDbCircle
 10
109.788718
 20
298.727199
 40
0.5
100
AcDbArc
 50
180.0
 51
270.0
  0
ARC
  5
92B
100
AcDbEntity
  8
M2
 62
     7
100
AcDbCircle
 10
112.288718
 20
298.727199
 40
0.5
100
AcDbArc
 50
270.0
 51
360.0
  0
ARC
  5
92C
100
AcDbEntity
  8
M2
 62
     7
100
AcDbCircle
 10
110.888718
 20
320.527199
 40
1.0
100
AcDbArc
 50
180.0
 51
270.0
  0
ARC
  5
92D
100
AcDbEntity
  8
M2
 62
     7
100
AcDbCircle
 10
111.188718
 20
320.527199
 40
1.0
100
AcDbArc
 50
270.0
 51
360.0
  0
ARC
  5
92E
100
AcDbEntity
  8
M2
 62
     7
100
AcDbCircle
 10
110.888718
 20
270.127199
 40
1.0
100
AcDbArc
 50
180.0
 51
270.0
  0
ARC
  5
92F
100
AcDbEntity
  8
M2
 62
     7
100
AcDbCircle
 10
120.988718
 20
320.527199
 40
1.0
100
AcDbArc
 50
180.0
 51
270.0
  0
ARC
  5
930
100
AcDbEntity
  8
M2
 62
     7
100
AcDbCircle
 10
120.988718
 20
270.127199
 40
1.0
100
AcDbArc
 50
180.0
 51
270.0
  0
LINE
  5
931
100
AcDbEntity
  8
M2
 62
     7
100
AcDbLine
 10
118.738718
 20
290.327199
 11
119.238718
 21
290.327199
  0
LINE
  5
932
100
AcDbEntity
  8
M2
 62
     7
100
AcDbLine
 10
116.088718
 20
311.327199
 11
105.988718
 21
311.327199
  0
ARC
  5
933
100
AcDbEntity
  8
M2
 62
     7
100
AcDbCircle
 10
101.088718
 20
282.127199
 40
1.0
100
AcDbArc
 50
0.0
 51
90.0
  0
ARC
  5
934
100
AcDbEntity
  8
M2
 62
     7
100
AcDbCircle
 10
111.188718
 20
282.127199
 40
1.0
100
AcDbArc
 50
0.0
 51
90.0
  0
ARC
  5
935
100
AcDbEntity
  8
M2
 62
     7
100
AcDbCircle
 10
100.788718
 20
320.527199
 40
1.0
100
AcDbArc
 50
180.0
 51
270.0
  0
ARC
  5
936
100
AcDbEntity
  8
M2
 62
     7
100
AcDbCircle
 10
90.538718
 20
306.027199
 40
1.0
100
AcDbArc
 50
180.0
 51
270.0
  0
ARC
  5
937
100
AcDbEntity
  8
M2
 62
     7
100
AcDbCircle
 10
101.088718
 20
320.527199
 40
1.0
100
AcDbArc
 50
270.0
 51
360.0
  0
ARC
  5
938
100
AcDbEntity
  8
M2
 62
     7
100
AcDbCircle
 10
131.538718
 20
306.027199
 40
1.0
100
AcDbArc
 50
270.0
 51
360.0
  0
ARC
  5
939
100
AcDbEntity
  8
M2
 62
     7
100
AcDbCircle
 10
131.588718
 20
306.025949
 40
1.0
100
AcDbArc
 50
180.0
 51
267.134016
  0
LINE
  5
93A
100
AcDbEntity
  8
M2
 62
     7
100
AcDbLine
 10
102.663718
 20
276.602199
 11
109.313718
 21
276.602199
  0
ARC
  5
93B
100
AcDbEntity
  8
M2
 62
     7
100
AcDbCircle
 10
121.288718
 20
282.127199
 40
1.0
100
AcDbArc
 50
0.0
 51
90.0
  0
ARC
  5
93C
100
AcDbEntity
  8
M2
 62
     7
100
AcDbCircle
 10
120.988718
 20
282.127199
 40
1.0
100
AcDbArc
 50
90.0
 51
180.0
  0
ARC
  5
93D
100
AcDbEntity
  8
M2
 62
     7
100
AcDbCircle
 10
121.288718
 20
320.527199
 40
1.0
100
AcDbArc
 50
270.0
 51
360.0
  0
ARC
  5
93E
100
AcDbEntity
  8
M2
 62
     7
100
AcDbCircle
 10
100.788718
 20
282.127199
 40
1.0
100
AcDbArc
 50
90.0
 51
180.0
  0
ARC
  5
93F
100
AcDbEntity
  8
M2
 62
     7
100
AcDbCircle
 10
110.888718
 20
282.127199
 40
1.0
100
AcDbArc
 50
90.0
 51
180.0
  0
LINE
  5
940
100
AcDbEntity
  8
M2
 62
     7
100
AcDbLine
 10
130.588718
 20
296.627199
 11
130.588718
 21
296.62845
  0
LINE
  5
941
100
AcDbEntity
  8
M2
 62
     7
100
AcDbLine
 10
119.988718
 20
332.527199
 11
119.988718
 21
318.027199
  0
LINE
  5
942
100
AcDbEntity
  8
M2
 62
     7
100
AcDbLine
 10
130.588718
 20
306.025949
 11
130.588718
 21
306.027199
  0
LINE
  5
943
100
AcDbEntity
  8
M2
 62
     7
100
AcDbLine
 10
91.488718
 20
296.62845
 11
91.488718
 21
296.627199
  0
LINE
  5
944
100
AcDbEntity
  8
M2
 62
     7
100
AcDbLine
 10
91.488718
 20
306.027199
 11
91.488718
 21
306.025949
  0
LINE
  5
945
100
AcDbEntity
  8
M2
 62
     7
100
AcDbLine
 10
101.088718
 20
269.127199
 11
100.988718
 21
269.127199
  0
ARC
  5
946
100
AcDbEntity
  8
M2
 62
     7
100
AcDbCircle
 10
110.388718
 20
303.227199
 40
0.5
100
AcDbArc
 50
180.0
 51
270.0
  0
LINE
  5
947
100
AcDbEntity
  8
M2
 62
     7
100
AcDbLine
 10
99.788718
 20
318.027199
 11
99.788718
 21
320.527199
  0
LINE
  5
948
100
AcDbEntity
  8
M2
 62
     7
100
AcDbLine
 10
122.288718
 20
284.627199
 11
122.288718
 21
270.127199
  0
LINE
  5
949
100
AcDbEntity
  8
M2
 62
     7
100
AcDbLine
 10
102.088718
 20
320.527199
 11
102.088718
 21
318.027199
  0
LINE
  5
94A
100
AcDbEntity
  8
M2
 62
     7
100
AcDbLine
 10
101.838718
 20
293.827199
 11
101.838718
 21
307.427199
  0
LINE
  5
94B
100
AcDbEntity
  8
M2
 62
     7
100
AcDbLine
 10
91.488718
 20
318.027199
 11
91.488718
 21
306.027199
  0
LINE
  5
94C
100
AcDbEntity
  8
M2
 62
     7
100
AcDbLine
 10
116.588718
 20
306.127199
 11
105.488718
 21
306.127199
  0
LINE
  5
94D
100
AcDbEntity
  8
M2
 62
     7
100
AcDbLine
 10
130.588718
 20
306.027199
 11
130.588718
 21
318.027199
  0
LINE
  5
94E
100
AcDbEntity
  8
M2
 62
     7
100
AcDbLine
 10
118.738718
 20
313.527199
 11
119.238718
 21
313.527199
  0
LINE
  5
94F
100
AcDbEntity
  8
M2
 62
     7
100
AcDbLine
 10
91.488718
 20
296.627199
 11
91.488718
 21
284.627199
  0
LINE
  5
950
100
AcDbEntity
  8
M2
 62
     7
100
AcDbLine
 10
130.588718
 20
284.627199
 11
130.588718
 21
296.627199
  0
LINE
  5
951
100
AcDbEntity
  8
M2
 62
     7
100
AcDbLine
 10
120.238718
 20
293.827199
 11
120.238718
 21
307.427199
  0
LINE
  5
952
100
AcDbEntity
  8
M2
 62
     7
100
AcDbLine
 10
102.838718
 20
313.527199
 11
103.338718
 21
313.527199
  0
ARC
  5
953
100
AcDbEntity
  8
M2
 62
     7
100
AcDbCircle
 10
118.613718
 20
343.152199
 40
0.5
100
AcDbArc
 50
90.0
 51
180.0
  0
ARC
  5
954
100
AcDbEntity
  8
M2
 62
     7
100
AcDbCircle
 10
99.213718
 20
318.902199
 40
0.5
100
AcDbArc
 50
270.0
 51
360.0
  0
ARC
  5
955
100
AcDbEntity
  8
M2
 62
     7
100
AcDbCircle
 10
125.263718
 20
343.152199
 40
0.5
100
AcDbArc
 50
0.0
 51
90.0
  0
ARC
  5
956
100
AcDbEntity
  8
M2
 62
     7
100
AcDbCircle
 10
118.613718
 20
336.502199
 40
0.5
100
AcDbArc
 50
180.0
 51
270.0
  0
ARC
  5
957
100
AcDbEntity
  8
M2
 62
     7
100
AcDbCircle
 10
125.263718
 20
336.502199
 40
0.5
100
AcDbArc
 50
270.0
 51
360.0
  0
ARC
  5
958
100
AcDbEntity
  8
M2
 62
     7
100
AcDbCircle
 10
103.463718
 20
336.502199
 40
0.5
100
AcDbArc
 50
270.0
 51
360.0
  0
ARC
  5
959
100
AcDbEntity
  8
M2
 62
     7
100
AcDbCircle
 10
92.563718
 20
318.902199
 40
0.5
100
AcDbArc
 50
180.0
 51
270.0
  0
ARC
  5
95A
100
AcDbEntity
  8
M2
 62
     7
100
AcDbCircle
 10
92.563718
 20
325.552199
 40
0.5
100
AcDbArc
 50
90.0
 51
180.0
  0
ARC
  5
95B
100
AcDbEntity
  8
M2
 62
     7
100
AcDbCircle
 10
99.213718
 20
325.552199
 40
0.5
100
AcDbArc
 50
0.0
 51
90.0
  0
LINE
  5
95C
100
AcDbEntity
  8
M2
 62
     7
100
AcDbLine
 10
118.838718
 20
313.627199
 11
118.838718
 21
313.527199
  0
LINE
  5
95D
100
AcDbEntity
  8
M2
 62
     7
100
AcDbLine
 10
119.988718
 20
276.627199
 11
119.569843
 21
276.627199
  0
LINE
  5
95E
100
AcDbEntity
  8
M2
 62
     7
100
AcDbLine
 10
100.888718
 20
333.527199
 11
100.788718
 21
333.527199
  0
LINE
  5
95F
100
AcDbEntity
  8
M2
 62
     7
100
AcDbLine
 10
121.288718
 20
333.527199
 11
121.188718
 21
333.527199
  0
LINE
  5
960
100
AcDbEntity
  8
M2
 62
     7
100
AcDbLine
 10
101.088718
 20
266.327199
 11
100.788718
 21
266.327199
  0
LINE
  5
961
100
AcDbEntity
  8
M2
 62
     7
100
AcDbLine
 10
102.507593
 20
276.627199
 11
102.088718
 21
276.627199
  0
LINE
  5
962
100
AcDbEntity
  8
M2
 62
     7
100
AcDbLine
 10
112.188718
 20
326.027199
 11
112.607593
 21
326.027199
  0
LINE
  5
963
100
AcDbEntity
  8
M2
 62
     7
100
AcDbLine
 10
109.888718
 20
276.627199
 11
109.469843
 21
276.627199
  0
LINE
  5
964
100
AcDbEntity
  8
M2
 62
     7
100
AcDbLine
 10
122.707593
 20
276.627199
 11
122.288718
 21
276.627199
  0
LINE
  5
965
100
AcDbEntity
  8
M2
 62
     7
100
AcDbLine
 10
113.338718
 20
290.227199
 11
113.338718
 21
290.327199
  0
ARC
  5
966
100
AcDbEntity
  8
M2
 62
     7
100
AcDbCircle
 10
122.863718
 20
325.552199
 40
0.5
100
AcDbArc
 50
90.0
 51
180.0
  0
ARC
  5
967
100
AcDbEntity
  8
M2
 62
     7
100
AcDbCircle
 10
129.513718
 20
325.552199
 40
0.5
100
AcDbArc
 50
0.0
 51
90.0
  0
ARC
  5
968
100
AcDbEntity
  8
M2
 62
     7
100
AcDbCircle
 10
122.863718
 20
318.902199
 40
0.5
100
AcDbArc
 50
180.0
 51
270.0
  0
ARC
  5
969
100
AcDbEntity
  8
M2
 62
     7
100
AcDbCircle
 10
129.513718
 20
318.902199
 40
0.5
100
AcDbArc
 50
270.0
 51
360.0
  0
LINE
  5
96A
100
AcDbEntity
  8
M2
 62
     7
100
AcDbLine
 10
118.613718
 20
336.002199
 11
125.263718
 21
336.002199
  0
LINE
  5
96B
100
AcDbEntity
  8
M2
 62
     7
100
AcDbLine
 10
125.763718
 20
336.502199
 11
125.763718
 21
343.152199
  0
LINE
  5
96C
100
AcDbEntity
  8
M2
  6
DASHDOT
 62
     7
100
AcDbLine
 10
121.438718
 20
339.827199
 11
122.438718
 21
339.827199
  0
LINE
  5
96D
100
AcDbEntity
  8
M2
 62
     7
100
AcDbLine
 10
125.263718
 20
343.652199
 11
118.613718
 21
343.652199
  0
LINE
  5
96E
100
AcDbEntity
  8
M2
  6
DASHDOT
 62
     7
100
AcDbLine
 10
121.938718
 20
339.327199
 11
121.938718
 21
340.327199
  0
ARC
  5
96F
100
AcDbEntity
  8
M2
 62
     7
100
AcDbCircle
 10
119.413718
 20
325.552199
 40
0.5
100
AcDbArc
 50
0.0
 51
90.0
  0
ARC
  5
970
100
AcDbEntity
  8
M2
 62
     7
100
AcDbCircle
 10
112.763718
 20
318.902199
 40
0.5
100
AcDbArc
 50
180.0
 51
270.0
  0
ARC
  5
971
100
AcDbEntity
  8
M2
 62
     7
100
AcDbCircle
 10
119.413718
 20
318.902199
 40
0.5
100
AcDbArc
 50
270.0
 51
360.0
  0
ARC
  5
972
100
AcDbEntity
  8
M2
 62
     7
100
AcDbCircle
 10
102.663718
 20
318.902199
 40
0.5
100
AcDbArc
 50
180.0
 51
270.0
  0
ARC
  5
973
100
AcDbEntity
  8
M2
 62
     7
100
AcDbCircle
 10
102.663718
 20
325.552199
 40
0.5
100
AcDbArc
 50
90.0
 51
180.0
  0
ARC
  5
974
100
AcDbEntity
  8
M2
 62
     7
100
AcDbCircle
 10
109.313718
 20
318.902199
 40
0.5
100
AcDbArc
 50
270.0
 51
360.0
  0
ARC
  5
975
100
AcDbEntity
  8
M2
 62
     7
100
AcDbCircle
 10
109.313718
 20
325.552199
 40
0.5
100
AcDbArc
 50
0.0
 51
90.0
  0
LINE
  5
976
100
AcDbEntity
  8
M2
 62
     7
100
AcDbLine
 10
130.088718
 20
329.127199
 11
130.088718
 21
318.027199
  0
LINE
  5
977
100
AcDbEntity
  8
M2
 62
     7
100
AcDbLine
 10
131.288718
 20
330.127199
 11
131.088718
 21
330.127199
  0
LINE
  5
978
100
AcDbEntity
  8
M2
 62
     7
100
AcDbLine
 10
130.088718
 20
274.527199
 11
130.088718
 21
273.527199
  0
LINE
  5
979
100
AcDbEntity
  8
M2
 62
     7
100
AcDbLine
 10
131.288718
 20
272.527199
 11
131.088718
 21
272.527199
  0
LINE
  5
97A
100
AcDbEntity
  8
M2
 62
     7
100
AcDbLine
 10
91.988718
 20
273.527199
 11
91.988718
 21
274.527199
  0
LINE
  5
97B
100
AcDbEntity
  8
M2
 62
     7
100
AcDbLine
 10
91.988718
 20
274.527199
 11
91.988718
 21
275.527199
  0
LINE
  5
97C
100
AcDbEntity
  8
M2
 62
     7
100
AcDbLine
 10
102.088718
 20
275.527199
 11
102.088718
 21
274.527199
  0
LINE
  5
97D
100
AcDbEntity
  8
M2
 62
     7
100
AcDbLine
 10
91.988718
 20
327.127199
 11
91.988718
 21
328.127199
  0
LINE
  5
97E
100
AcDbEntity
  8
M2
 62
     7
100
AcDbLine
 10
130.088718
 20
275.527199
 11
130.088718
 21
274.527199
  0
LINE
  5
97F
100
AcDbEntity
  8
M2
 62
     7
100
AcDbLine
 10
102.088718
 20
327.127199
 11
102.088718
 21
328.127199
  0
LINE
  5
980
100
AcDbEntity
  8
M2
 62
     7
100
AcDbLine
 10
110.388718
 20
298.827199
 11
110.388718
 21
296.427199
  0
LINE
  5
981
100
AcDbEntity
  8
M2
 62
     7
100
AcDbLine
 10
90.788718
 20
330.127199
 11
90.988718
 21
330.127199
  0
LINE
  5
982
100
AcDbEntity
  8
M2
 62
     7
100
AcDbLine
 10
110.888718
 20
299.327199
 11
111.188718
 21
299.327199
  0
LINE
  5
983
100
AcDbEntity
  8
M2
 62
     7
100
AcDbLine
 10
110.388718
 20
306.127199
 11
110.388718
 21
303.827199
  0
LINE
  5
984
100
AcDbEntity
  8
M2
 62
     7
100
AcDbLine
 10
103.338718
 20
290.327199
 11
102.838718
 21
290.327199
  0
LINE
  5
985
100
AcDbEntity
  8
M2
 62
     7
100
AcDbLine
 10
90.788718
 20
272.527199
 11
90.988718
 21
272.527199
  0
LINE
  5
986
100
AcDbEntity
  8
M2
 62
     7
100
AcDbLine
 10
91.988718
 20
328.127199
 11
91.988718
 21
329.127199
  0
LINE
  5
987
100
AcDbEntity
  8
M2
 62
     7
100
AcDbLine
 10
102.088718
 20
328.127199
 11
102.088718
 21
332.527199
  0
LINE
  5
988
100
AcDbEntity
  8
M2
 62
     7
100
AcDbLine
 10
110.888718
 20
303.327199
 11
111.188718
 21
303.327199
  0
LINE
  5
989
100
AcDbEntity
  8
M2
 62
     7
100
AcDbLine
 10
111.688718
 20
296.427199
 11
111.688718
 21
298.827199
  0
LINE
  5
98A
100
AcDbEntity
  8
M2
 62
     7
100
AcDbLine
 10
102.088718
 20
326.027199
 11
102.507593
 21
326.027199
  0
LINE
  5
98B
100
AcDbEntity
  8
M2
 62
     7
100
AcDbLine
 10
129.669843
 20
326.027199
 11
130.088718
 21
326.027199
  0
LINE
  5
98C
100
AcDbEntity
  8
M2
 62
     7
100
AcDbLine
 10
99.369843
 20
326.027199
 11
99.788718
 21
326.027199
  0
LINE
  5
98D
100
AcDbEntity
  8
M2
 62
     7
100
AcDbLine
 10
91.988718
 20
326.027199
 11
92.407593
 21
326.027199
  0
LINE
  5
98E
100
AcDbEntity
  8
M2
 62
     7
100
AcDbLine
 10
102.088718
 20
329.527199
 11
102.088718
 21
320.527199
  0
LINE
  5
98F
100
AcDbEntity
  8
M2
 62
     7
100
AcDbLine
 10
103.238718
 20
313.527199
 11
103.238718
 21
313.627199
  0
ARC
  5
990
100
AcDbEntity
  8
M2
 62
     7
100
AcDbCircle
 10
112.763718
 20
325.552199
 40
0.5
100
AcDbArc
 50
90.0
 51
180.0
  0
LINE
  5
991
100
AcDbEntity
  8
M2
 62
     7
100
AcDbLine
 10
122.288718
 20
326.027199
 11
122.707593
 21
326.027199
  0
LINE
  5
992
100
AcDbEntity
  8
M2
 62
     7
100
AcDbLine
 10
111.188718
 20
266.327199
 11
110.888718
 21
266.327199
  0
LINE
  5
993
100
AcDbEntity
  8
M2
 62
     7
100
AcDbLine
 10
108.738718
 20
290.327199
 11
108.738718
 21
290.227199
  0
LINE
  5
994
100
AcDbEntity
  8
M2
 62
     7
100
AcDbLine
 10
111.088718
 20
333.527199
 11
111.188718
 21
333.527199
  0
LINE
  5
995
100
AcDbEntity
  8
M2
 62
     7
100
AcDbLine
 10
101.088718
 20
319.527199
 11
100.788718
 21
319.527199
  0
LINE
  5
996
100
AcDbEntity
  8
M2
 62
     7
100
AcDbLine
 10
110.988718
 20
333.527199
 11
111.088718
 21
333.527199
  0
LINE
  5
997
100
AcDbEntity
  8
M2
 62
     7
100
AcDbLine
 10
99.788718
 20
320.527199
 11
99.788718
 21
329.527199
  0
LINE
  5
998
100
AcDbEntity
  8
M2
 62
     7
100
AcDbLine
 10
100.988718
 20
333.527199
 11
101.088718
 21
333.527199
  0
LINE
  5
999
100
AcDbEntity
  8
M2
 62
     7
100
AcDbLine
 10
120.988718
 20
283.127199
 11
121.288718
 21
283.127199
  0
LINE
  5
99A
100
AcDbEntity
  8
M2
 62
     7
100
AcDbLine
 10
110.888718
 20
333.527199
 11
110.988718
 21
333.527199
  0
LINE
  5
99B
100
AcDbEntity
  8
M2
 62
     7
100
AcDbLine
 10
121.288718
 20
319.527199
 11
120.988718
 21
319.527199
  0
LINE
  5
99C
100
AcDbEntity
  8
M2
 62
     7
100
AcDbLine
 10
100.788718
 20
283.127199
 11
101.088718
 21
283.127199
  0
LINE
  5
99D
100
AcDbEntity
  8
M2
 62
     7
100
AcDbLine
 10
111.188718
 20
319.527199
 11
110.888718
 21
319.527199
  0
LINE
  5
99E
100
AcDbEntity
  8
M2
 62
     7
100
AcDbLine
 10
130.238718
 20
304.827199
 11
130.238718
 21
305.027199
  0
LINE
  5
99F
100
AcDbEntity
  8
M2
 62
     7
100
AcDbLine
 10
131.538718
 20
304.827199
 11
131.538718
 21
305.027199
  0
LINE
  5
9A0
100
AcDbEntity
  8
M2
 62
     7
100
AcDbLine
 10
132.538718
 20
297.827199
 11
132.538718
 21
271.527199
  0
LINE
  5
9A1
100
AcDbEntity
  8
M2
 62
     7
100
AcDbLine
 10
38.838718
 20
304.827199
 11
38.838718
 21
305.027199
  0
LINE
  5
9A2
100
AcDbEntity
  8
M2
 62
     7
100
AcDbLine
 10
37.538718
 20
304.827199
 11
37.538718
 21
305.027199
  0
LINE
  5
9A3
100
AcDbEntity
  8
M2
 62
     7
100
AcDbLine
 10
36.538718
 20
304.827199
 11
36.538718
 21
330.227199
  0
LINE
  5
9A4
100
AcDbEntity
  8
M2
 62
     7
100
AcDbLine
 10
39.913225
 20
275.627199
 11
39.888718
 21
275.627199
  0
ARC
  5
9A5
100
AcDbEntity
  8
M2
 62
     7
100
AcDbCircle
 10
40.538718
 20
273.027199
 40
2.25
100
AcDbArc
 50
295.665313
 51
424.334687
  0
ARC
  5
9A6
100
AcDbEntity
  8
M2
 62
     7
100
AcDbCircle
 10
40.538718
 20
273.027199
 40
2.25
100
AcDbArc
 50
106.140693
 51
133.542219
  0
LINE
  5
9A7
100
AcDbEntity
  8
M2
 62
     7
100
AcDbLine
 10
43.513297
 20
266.527199
 11
41.713224
 21
266.527199
  0
LINE
  5
9A8
100
AcDbEntity
  8
M2
 62
     7
100
AcDbLine
 10
48.213309
 20
265.827199
 11
48.088718
 21
265.827199
  0
ARC
  5
9A9
100
AcDbEntity
  8
M2
 62
     7
100
AcDbCircle
 10
52.988718
 20
268.827199
 40
2.65
100
AcDbArc
 50
274.861737
 51
284.037209
  0
ARC
  5
9AA
100
AcDbEntity
  8
M2
 62
     7
100
AcDbCircle
 10
52.988718
 20
268.827199
 40
2.85
100
AcDbArc
 50
274.519826
 51
283.441274
  0
LINE
  5
9AB
100
AcDbEntity
  8
M2
 62
     7
100
AcDbLine
 10
58.213309
 20
265.827199
 11
56.978893
 21
265.827199
  0
LINE
  5
9AC
100
AcDbEntity
  8
M2
 62
     7
100
AcDbLine
 10
61.713224
 20
267.827199
 11
62.238718
 21
267.827199
  0
LINE
  5
9AD
100
AcDbEntity
  8
M2
 62
     7
100
AcDbLine
 10
59.913225
 20
270.327199
 11
59.188718
 21
270.327199
  0
LINE
  5
9AE
100
AcDbEntity
  8
M2
 62
     7
100
AcDbLine
 10
63.513297
 20
270.327199
 11
61.513223
 21
270.327199
  0
LINE
  5
9AF
100
AcDbEntity
  8
M2
 62
     7
100
AcDbLine
 10
66.920106
 20
266.527199
 11
68.513297
 21
266.527199
  0
LINE
  5
9B0
100
AcDbEntity
  8
M2
 62
     7
100
AcDbLine
 10
70.663306
 20
266.527199
 11
74.538718
 21
266.527199
  0
LINE
  5
9B1
100
AcDbEntity
  8
M2
 62
     7
100
AcDbLine
 10
96.507328
 20
266.527199
 11
93.038718
 21
266.527199
  0
ARC
  5
9B2
100
AcDbEntity
  8
M2
 62
     7
100
AcDbCircle
 10
105.988718
 20
268.827199
 40
2.85
100
AcDbArc
 50
77.332495
 51
280.674593
  0
ARC
  5
9B3
100
AcDbEntity
  8
M2
 62
     7
100
AcDbCircle
 10
105.988718
 20
268.827199
 40
2.65
100
AcDbArc
 50
76.358662
 51
282.650486
  0
LINE
  5
9B4
100
AcDbEntity
  8
M2
 62
     7
100
AcDbLine
 10
106.448512
 20
265.827199
 11
101.088718
 21
265.827199
  0
LINE
  5
9B5
100
AcDbEntity
  8
M2
 62
     7
100
AcDbLine
 10
119.910983
 20
266.527199
 11
127.538718
 21
266.527199
  0
LINE
  5
9B6
100
AcDbEntity
  8
M2
 62
     7
100
AcDbLine
 10
116.713718
 20
270.327199
 11
112.188718
 21
270.327199
  0
ARC
  5
9B7
100
AcDbEntity
  8
M2
 62
     7
100
AcDbCircle
 10
52.988718
 20
268.827199
 40
2.85
100
AcDbArc
 50
77.332495
 51
121.179265
  0
ARC
  5
9B8
100
AcDbEntity
  8
M2
 62
     7
100
AcDbCircle
 10
52.988718
 20
268.827199
 40
2.65
100
AcDbArc
 50
76.358662
 51
123.834124
  0
LINE
  5
9B9
100
AcDbEntity
  8
M2
 62
     7
100
AcDbLine
 10
53.682484
 20
265.827199
 11
53.213309
 21
265.827199
  0
LINE
  5
9BA
100
AcDbEntity
  8
M2
 62
     7
100
AcDbLine
 10
118.088718
 20
327.027199
 11
119.088718
 21
327.027199
  0
LINE
  5
9BB
100
AcDbEntity
  8
M2
 62
     7
100
AcDbLine
 10
107.988718
 20
327.027199
 11
108.988718
 21
327.027199
  0
LINE
  5
9BC
100
AcDbEntity
  8
M2
 62
     7
100
AcDbLine
 10
97.888718
 20
327.027199
 11
98.888718
 21
327.027199
  0
LINE
  5
9BD
100
AcDbEntity
  8
M2
 62
     7
100
AcDbLine
 10
107.988718
 20
332.127199
 11
109.888718
 21
332.127199
  0
LINE
  5
9BE
100
AcDbEntity
  8
M2
 62
     7
100
AcDbLine
 10
118.088718
 20
332.127199
 11
119.988718
 21
332.127199
  0
ARC
  5
9BF
100
AcDbEntity
  8
M2
 62
     7
100
AcDbCircle
 10
100.138718
 20
339.827199
 40
3.0
100
AcDbArc
 50
115.841933
 51
155.509008
  0
ARC
  5
9C0
100
AcDbEntity
  8
M2
 62
     7
100
AcDbCircle
 10
100.138718
 20
339.827199
 40
3.0
100
AcDbArc
 50
207.952887
 51
424.158067
  0
LINE
  5
9C1
100
AcDbEntity
  8
M2
 62
     7
100
AcDbLine
 10
94.288718
 20
335.727199
 11
94.038718
 21
335.727199
  0
LINE
  5
9C2
100
AcDbEntity
  8
M2
 62
     7
100
AcDbLine
 10
94.288718
 20
334.227199
 11
94.038718
 21
334.227199
  0
ARC
  5
9C3
100
AcDbEntity
  8
M2
 62
     7
100
AcDbCircle
 10
47.138718
 20
339.827199
 40
3.0
100
AcDbArc
 50
207.952887
 51
424.158067
  0
LINE
  5
9C4
100
AcDbEntity
  8
M2
 62
     7
100
AcDbLine
 10
54.988718
 20
332.127199
 11
56.888718
 21
332.127199
  0
LINE
  5
9C5
100
AcDbEntity
  8
M2
 62
     7
100
AcDbLine
 10
65.088718
 20
332.127199
 11
66.988718
 21
332.127199
  0
ARC
  5
9C6
100
AcDbEntity
  8
M2
 62
     7
100
AcDbCircle
 10
68.938718
 20
339.827199
 40
3.0
100
AcDbArc
 50
115.841933
 51
424.158067
  0
LINE
  5
9C7
100
AcDbEntity
  8
M2
 62
     7
100
AcDbLine
 10
65.088718
 20
327.027199
 11
66.088718
 21
327.027199
  0
LINE
  5
9C8
100
AcDbEntity
  8
M2
 62
     7
100
AcDbLine
 10
54.988718
 20
327.027199
 11
55.988718
 21
327.027199
  0
LINE
  5
9C9
100
AcDbEntity
  8
M2
 62
     7
100
AcDbLine
 10
44.888718
 20
327.027199
 11
45.888718
 21
327.027199
  0
LINE
  5
9CA
100
AcDbEntity
  8
M2
 62
     7
100
AcDbLine
 10
41.288718
 20
334.227199
 11
41.038718
 21
334.227199
  0
LINE
  5
9CB
100
AcDbEntity
  8
M2
 62
     7
100
AcDbLine
 10
41.288718
 20
335.727199
 11
41.038718
 21
335.727199
  0
CIRCLE
  5
9CC
100
AcDbEntity
  8
M2
100
AcDbCircle
 10
40.538718
 20
154.523368
 40
2.0
  0
CIRCLE
  5
9CD
100
AcDbEntity
  8
M2
100
AcDbCircle
 10
73.538718
 20
99.523368
 40
2.0
  0
LINE
  5
9CE
100
AcDbEntity
  8
M2
  6
DIVIDE
100
AcDbLine
 10
79.538711
 20
90.823383
 11
81.213181
 21
90.823383
  0
LINE
  5
9CF
100
AcDbEntity
  8
M2
  6
DIVIDE
100
AcDbLine
 10
81.213181
 20
34.523383
 11
81.213181
 21
90.823383
  0
LINE
  5
9D0
100
AcDbEntity
  8
M2
  6
DIVIDE
100
AcDbLine
 10
36.213211
 20
34.523383
 11
36.213211
 21
90.823368
  0
LINE
  5
9D1
100
AcDbEntity
  8
M2
  6
DIVIDE
100
AcDbLine
 10
81.213181
 20
34.523383
 11
36.213211
 21
34.523383
  0
CIRCLE
  5
9D2
100
AcDbEntity
  8
M2
100
AcDbCircle
 10
126.538718
 20
99.523368
 40
2.0
  0
CIRCLE
  5
9D3
100
AcDbEntity
  8
M2
100
AcDbCircle
 10
126.538718
 20
99.523368
 40
1.7
  0
CIRCLE
  5
9D4
100
AcDbEntity
  8
M2
100
AcDbCircle
 10
93.538718
 20
154.523368
 40
1.7
  0
CIRCLE
  5
9D5
100
AcDbEntity
  8
M2
100
AcDbCircle
 10
73.538718
 20
99.523368
 40
1.7
  0
CIRCLE
  5
9D6
100
AcDbEntity
  8
M2
100
AcDbCircle
 10
93.538718
 20
154.523368
 40
2.0
  0
CIRCLE
  5
9D7
100
AcDbEntity
  8
M2
100
AcDbCircle
 10
40.538718
 20
154.523368
 40
1.7
  0
LINE
  5
9D8
100
AcDbEntity
  8
M2
  6
DASHDOT
100
AcDbLine
 10
36.538718
 20
154.523368
 11
44.538718
 21
154.523368
  0
LINE
  5
9D9
100
AcDbEntity
  8
M2
  6
DASHDOT
100
AcDbLine
 10
40.538718
 20
150.523368
 11
40.538718
 21
158.523368
  0
LINE
  5
9DA
100
AcDbEntity
  8
M2
  6
DIVIDE
100
AcDbLine
 10
145.038717
 20
161.323368
 11
128.038718
 21
161.323368
  0
LINE
  5
9DB
100
AcDbEntity
  8
M2
  6
DIVIDE
100
AcDbLine
 10
79.538718
 20
161.323368
 11
75.038718
 21
161.323368
  0
LINE
  5
9DC
100
AcDbEntity
  8
M2
  6
DIVIDE
100
AcDbLine
 10
89.538718
 20
161.323368
 11
94.038718
 21
161.323368
  0
LINE
  5
9DD
100
AcDbEntity
  8
M2
  6
DIVIDE
100
AcDbLine
 10
24.038718
 20
161.323368
 11
41.038718
 21
161.323368
  0
LINE
  5
9DE
100
AcDbEntity
  8
M2
  6
DASHDOT
100
AcDbLine
 10
122.538718
 20
99.523368
 11
130.538718
 21
99.523368
  0
LINE
  5
9DF
100
AcDbEntity
  8
M2
  6
DASHDOT
100
AcDbLine
 10
126.538718
 20
95.523368
 11
126.538718
 21
103.523368
  0
LINE
  5
9E0
100
AcDbEntity
  8
M2
  6
DASHDOT
100
AcDbLine
 10
93.538718
 20
150.523368
 11
93.538718
 21
158.523368
  0
LINE
  5
9E1
100
AcDbEntity
  8
M2
  6
DASHDOT
100
AcDbLine
 10
73.538718
 20
95.523368
 11
73.538718
 21
103.523368
  0
LINE
  5
9E2
100
AcDbEntity
  8
M2
  6
DASHDOT
100
AcDbLine
 10
89.538718
 20
154.523368
 11
97.538718
 21
154.523368
  0
LINE
  5
9E3
100
AcDbEntity
  8
M2
  6
DASHDOT
100
AcDbLine
 10
69.538718
 20
99.523368
 11
77.538718
 21
99.523368
  0
LINE
  5
9E4
100
AcDbEntity
  8
M2
  6
DIVIDE
100
AcDbLine
 10
89.538718
 20
161.323368
 11
89.538718
 21
151.023369
  0
LINE
  5
9E5
100
AcDbEntity
  8
M2
  6
DIVIDE
100
AcDbLine
 10
128.038718
 20
170.023368
 11
94.038718
 21
170.023368
  0
LINE
  5
9E6
100
AcDbEntity
  8
M2
  6
DIVIDE
100
AcDbLine
 10
89.538718
 20
90.123368
 11
145.038717
 21
90.123368
  0
LINE
  5
9E7
100
AcDbEntity
  8
M2
  6
DIVIDE
100
AcDbLine
 10
94.038718
 20
170.023368
 11
94.038718
 21
161.291995
  0
LINE
  5
9E8
100
AcDbEntity
  8
M2
  6
DIVIDE
100
AcDbLine
 10
128.038718
 20
170.023368
 11
128.038718
 21
161.323368
  0
LINE
  5
9E9
100
AcDbEntity
  8
M2
  6
DIVIDE
100
AcDbLine
 10
89.538718
 20
100.223367
 11
89.538718
 21
90.123368
  0
LINE
  5
9EA
100
AcDbEntity
  8
M2
  6
DIVIDE
100
AcDbLine
 10
79.538718
 20
161.323368
 11
79.538718
 21
151.023369
  0
LINE
  5
9EB
100
AcDbEntity
  8
M2
  6
DIVIDE
100
AcDbLine
 10
36.213211
 20
90.823368
 11
24.038718
 21
90.823368
  0
LINE
  5
9EC
100
AcDbEntity
  8
M2
  6
DIVIDE
100
AcDbLine
 10
41.038718
 20
170.023368
 11
75.038718
 21
170.023368
  0
LINE
  5
9ED
100
AcDbEntity
  8
M2
  6
DIVIDE
100
AcDbLine
 10
75.038718
 20
170.023368
 11
75.038718
 21
161.291995
  0
LINE
  5
9EE
100
AcDbEntity
  8
M2
  6
DIVIDE
100
AcDbLine
 10
41.038718
 20
170.023368
 11
41.038718
 21
161.323368
  0
LINE
  5
9EF
100
AcDbEntity
  8
M2
  6
DIVIDE
100
AcDbLine
 10
79.538718
 20
100.223367
 11
79.538718
 21
90.823368
  0
LINE
  5
9F0
100
AcDbEntity
  8
M2
  6
DIVIDE
100
AcDbLine
 10
24.038718
 20
90.823368
 11
24.038718
 21
161.323368
  0
LINE
  5
9F1
100
AcDbEntity
  8
M2
  6
DIVIDE
100
AcDbLine
 10
145.038717
 20
90.123368
 11
145.038717
 21
161.323368
  0
LINE
  5
9F2
100
AcDbEntity
  8
M2
  6
DIVIDE
100
AcDbLine
 10
89.538718
 20
151.023369
 11
79.538718
 21
151.023369
  0
LINE
  5
9F3
100
AcDbEntity
  8
M2
  6
DIVIDE
100
AcDbLine
 10
89.538718
 20
100.223367
 11
79.538718
 21
100.223367
  0
HATCH
  5
9F4
100
AcDbEntity
  8
M2
 62
     7
100
AcDbHatch
 10
0.0
 20
0.0
210
0.0
220
0.0
230
1.0
  2
SOLID
 70
     1
 71
     0
 91
        1
 92
        1
 93
        4
 72
     1
 10
180.126552
 20
345.327199
 11
178.126552
 21
345.327199
 72
     1
 10
178.126552
 20
345.327199
 11
178.126552
 21
327.127199
 72
     1
 10
178.126552
 20
327.127199
 11
180.126552
 21
327.127199
 72
     1
 10
180.126552
 20
327.127199
 11
180.126552
 21
345.327199
 97
        0
 75
     0
 76
     1
 98
        1
 10
0.0
 20
0.0
  0
LINE
  5
9F7
100
AcDbEntity
  8
M3
 62
     2
100
AcDbLine
 10
285.285281
 20
45.045044
 11
135.135133
 21
45.045044
  0
LINE
  5
9F8
100
AcDbEntity
  8
M3
 62
     2
100
AcDbLine
 10
-1.776357E-015
 20
-1.776357E-015
 11
-1.776357E-015
 21
412.912907
  0
LINE
  5
9F9
100
AcDbEntity
  8
M3
 62
     2
100
AcDbLine
 10
285.285281
 20
-1.776357E-015
 11
-1.776357E-015
 21
-1.776357E-015
  0
LINE
  5
9FA
100
AcDbEntity
  8
M3
 62
     2
100
AcDbLine
 10
285.285281
 20
15.015014
 11
135.135133
 21
15.015014
  0
TEXT
  5
9FB
100
AcDbEntity
  8
M3
 62
     2
100
AcDbText
 10
137.887878
 20
18.768768
 40
7.507507
  1
形　式；
 41
1.0
  7
STANDARD
100
AcDbText
  0
LINE
  5
9FC
100
AcDbEntity
  8
M3
 62
     2
100
AcDbLine
 10
285.285281
 20
30.030029
 11
135.135133
 21
30.030029
  0
TEXT
  5
9FD
100
AcDbEntity
  8
M3
 62
     2
100
AcDbText
 10
137.887878
 20
33.783783
 40
7.507507
  1
登録名：
 41
1.0
  7
STANDARD
100
AcDbText
  0
LINE
  5
9FE
100
AcDbEntity
  8
M3
 62
     2
100
AcDbLine
 10
135.135133
 20
-1.776357E-015
 11
135.135133
 21
45.045044
  0
TEXT
  5
9FF
100
AcDbEntity
  8
M3
 62
     2
100
AcDbText
 10
137.887878
 20
3.753753
 40
7.507507
  1
適　用；
 41
1.0
  7
STANDARD
100
AcDbText
  0
LINE
  5
A00
100
AcDbEntity
  8
M3
 62
     2
100
AcDbLine
 10
-1.776357E-015
 20
412.912907
 11
285.285281
 21
412.912907
  0
LINE
  5
A01
100
AcDbEntity
  8
M3
 62
     2
100
AcDbLine
 10
285.285281
 20
412.912907
 11
285.285281
 21
-1.776357E-015
  0
TEXT
  5
A02
100
AcDbEntity
  8
M3
 62
     2
100
AcDbText
 10
174.424423
 20
33.783783
 40
7.507507
  1
ＤＭＨＳ１０ＲＴＲ００
 41
0.5
  7
STANDARD
100
AcDbText
  0
TEXT
  5
A03
100
AcDbEntity
  8
M3
 62
     2
100
AcDbText
 10
174.424423
 20
18.768768
 40
7.507507
  1
ＨＳ１０－ＲＴ，ＨＳ１０－ＲＴＫ
 41
0.5
  7
STANDARD
100
AcDbText
  0
LINE
  5
A04
100
AcDbEntity
  8
M4
100
AcDbLine
 10
128.940222
 20
345.727207
 11
159.889789
 21
345.727207
  0
LINE
  5
A05
100
AcDbEntity
  8
M4
100
AcDbLine
 10
69.214717
 20
210.727203
 11
159.889789
 21
210.727203
  0
LINE
  5
A06
100
AcDbEntity
  8
M4
100
AcDbLine
 10
159.554139
 20
341.37619
 11
158.388287
 21
345.727207
  0
LINE
  5
A07
100
AcDbEntity
  8
M4
100
AcDbLine
 10
158.388287
 20
345.727207
 11
157.222436
 21
341.37619
  0
LINE
  5
A08
100
AcDbEntity
  8
M4
100
AcDbLine
 10
157.222436
 20
215.078221
 11
158.388287
 21
210.727203
  0
LINE
  5
A09
100
AcDbEntity
  8
M4
100
AcDbLine
 10
158.388287
 20
210.727203
 11
159.554139
 21
215.078221
  0
LINE
  5
A0A
100
AcDbEntity
  8
M4
100
AcDbLine
 10
158.388287
 20
345.727207
 11
158.388287
 21
210.727203
  0
TEXT
  5
A0B
100
AcDbEntity
  8
M4
100
AcDbText
 10
157.487396
 20
273.813617
 40
3.753754
  1
１３５
 50
90.000003
 41
0.666667
  7
STANDARD
100
AcDbText
  0
LINE
  5
A0C
100
AcDbEntity
  8
M4
100
AcDbLine
 10
206.226549
 20
327.028707
 11
206.226549
 21
360.577148
  0
LINE
  5
A0D
100
AcDbEntity
  8
M4
100
AcDbLine
 10
261.875541
 20
357.909795
 11
266.226559
 21
359.075646
  0
LINE
  5
A0E
100
AcDbEntity
  8
M4
100
AcDbLine
 10
266.226559
 20
359.075646
 11
261.875541
 21
360.241498
  0
LINE
  5
A0F
100
AcDbEntity
  8
M4
100
AcDbLine
 10
210.577567
 20
360.241498
 11
206.226549
 21
359.075646
  0
LINE
  5
A10
100
AcDbEntity
  8
M4
100
AcDbLine
 10
206.226549
 20
359.075646
 11
210.577567
 21
357.909795
  0
LINE
  5
A11
100
AcDbEntity
  8
M4
100
AcDbLine
 10
266.226559
 20
359.075646
 11
206.226549
 21
359.075646
  0
TEXT
  5
A12
100
AcDbEntity
  8
M4
100
AcDbText
 10
233.314453
 20
359.976551
 40
3.753754
  1
６０
 41
0.666667
  7
STANDARD
100
AcDbText
  0
LINE
  5
A13
100
AcDbEntity
  8
M4
100
AcDbLine
 10
266.226559
 20
338.078705
 11
266.226559
 21
366.980684
  0
LINE
  5
A14
100
AcDbEntity
  8
M4
100
AcDbLine
 10
185.126554
 20
314.528712
 11
185.126554
 21
366.980684
  0
LINE
  5
A15
100
AcDbEntity
  8
M4
100
AcDbLine
 10
261.875541
 20
364.313331
 11
266.226559
 21
365.479182
  0
LINE
  5
A16
100
AcDbEntity
  8
M4
100
AcDbLine
 10
266.226559
 20
365.479182
 11
261.875541
 21
366.645034
  0
LINE
  5
A17
100
AcDbEntity
  8
M4
100
AcDbLine
 10
189.477571
 20
366.645034
 11
185.126554
 21
365.479182
  0
LINE
  5
A18
100
AcDbEntity
  8
M4
100
AcDbLine
 10
185.126554
 20
365.479182
 11
189.477571
 21
364.313331
  0
LINE
  5
A19
100
AcDbEntity
  8
M4
100
AcDbLine
 10
266.226559
 20
365.479182
 11
185.126554
 21
365.479182
  0
TEXT
  5
A1A
100
AcDbEntity
  8
M4
100
AcDbText
 10
222.764465
 20
366.380085
 40
3.753754
  1
８２
 41
0.666667
  7
STANDARD
100
AcDbText
  0
LINE
  5
A1B
100
AcDbEntity
  8
M4
100
AcDbLine
 10
180.126551
 20
346.828704
 11
180.126551
 21
355.490404
  0
LINE
  5
A1C
100
AcDbEntity
  8
M4
100
AcDbLine
 10
185.126554
 20
314.528712
 11
185.126554
 21
355.490404
  0
LINE
  5
A1D
100
AcDbEntity
  8
M4
100
AcDbLine
 10
175.775534
 20
352.82305
 11
180.126551
 21
353.988902
  0
LINE
  5
A1E
100
AcDbEntity
  8
M4
100
AcDbLine
 10
180.126551
 20
353.988902
 11
175.775534
 21
355.154754
  0
LINE
  5
A1F
100
AcDbEntity
  8
M4
100
AcDbLine
 10
189.477571
 20
355.154754
 11
185.126554
 21
353.988902
  0
LINE
  5
A20
100
AcDbEntity
  8
M4
100
AcDbLine
 10
185.126554
 20
353.988902
 11
189.477571
 21
352.82305
  0
LINE
  5
A21
100
AcDbEntity
  8
M4
100
AcDbLine
 10
173.219842
 20
353.988902
 11
190.081509
 21
353.988902
  0
TEXT
  5
A22
100
AcDbEntity
  8
M4
100
AcDbText
 10
174.812271
 20
354.88982
 40
3.753754
  1
５
 41
0.666667
  7
STANDARD
100
AcDbText
  0
LINE
  5
A23
100
AcDbEntity
  8
M4
100
AcDbLine
 10
266.226559
 20
267.975705
 11
266.226559
 21
199.647009
  0
LINE
  5
A24
100
AcDbEntity
  8
M4
100
AcDbLine
 10
183.426597
 20
243.526795
 11
183.426597
 21
199.647009
  0
LINE
  5
A25
100
AcDbEntity
  8
M4
100
AcDbLine
 10
261.875541
 20
199.982659
 11
266.226559
 21
201.14851
  0
LINE
  5
A26
100
AcDbEntity
  8
M4
100
AcDbLine
 10
266.226559
 20
201.14851
 11
261.875541
 21
202.314362
  0
LINE
  5
A27
100
AcDbEntity
  8
M4
100
AcDbLine
 10
187.777614
 20
202.314362
 11
183.426597
 21
201.14851
  0
LINE
  5
A28
100
AcDbEntity
  8
M4
100
AcDbLine
 10
183.426597
 20
201.14851
 11
187.777614
 21
199.982659
  0
LINE
  5
A29
100
AcDbEntity
  8
M4
100
AcDbLine
 10
266.226559
 20
201.14851
 11
183.426597
 21
201.14851
  0
TEXT
  5
A2A
100
AcDbEntity
  8
M4
100
AcDbText
 10
221.91449
 20
202.049427
 40
3.753754
  1
８３
 41
0.666667
  7
STANDARD
100
AcDbText
  0
LINE
  5
A2B
100
AcDbEntity
  8
M4
100
AcDbLine
 10
62.213212
 20
217.025624
 11
62.213212
 21
201.796253
  0
LINE
  5
A2C
100
AcDbEntity
  8
M4
100
AcDbLine
 10
52.213213
 20
217.025624
 11
52.213213
 21
201.796253
  0
LINE
  5
A2D
100
AcDbEntity
  8
M4
100
AcDbLine
 10
66.564229
 20
204.463606
 11
62.213212
 21
203.297754
  0
LINE
  5
A2E
100
AcDbEntity
  8
M4
100
AcDbLine
 10
62.213212
 20
203.297754
 11
66.564229
 21
202.131903
  0
LINE
  5
A2F
100
AcDbEntity
  8
M4
100
AcDbLine
 10
47.862195
 20
202.131903
 11
52.213213
 21
203.297754
  0
LINE
  5
A30
100
AcDbEntity
  8
M4
100
AcDbLine
 10
52.213213
 20
203.297754
 11
47.862195
 21
204.463606
  0
LINE
  5
A31
100
AcDbEntity
  8
M4
100
AcDbLine
 10
67.168167
 20
203.297754
 11
47.258258
 21
203.297754
  0
TEXT
  5
A32
100
AcDbEntity
  8
M4
100
AcDbText
 10
54.30114
 20
204.198658
 40
3.753754
  1
１０
 41
0.666667
  7
STANDARD
100
AcDbText
  0
LINE
  5
A33
100
AcDbEntity
  8
M4
100
AcDbLine
 10
255.226553
 20
338.02869
 11
255.226553
 21
347.805564
  0
LINE
  5
A34
100
AcDbEntity
  8
M4
100
AcDbLine
 10
270.577576
 20
347.469914
 11
266.226559
 21
346.304063
  0
LINE
  5
A35
100
AcDbEntity
  8
M4
100
AcDbLine
 10
266.226559
 20
346.304063
 11
270.577576
 21
345.138211
  0
LINE
  5
A36
100
AcDbEntity
  8
M4
100
AcDbLine
 10
250.875536
 20
345.138211
 11
255.226553
 21
346.304063
  0
LINE
  5
A37
100
AcDbEntity
  8
M4
100
AcDbLine
 10
255.226553
 20
346.304063
 11
250.875536
 21
347.469914
  0
LINE
  5
A38
100
AcDbEntity
  8
M4
100
AcDbLine
 10
271.181513
 20
346.304063
 11
250.271598
 21
346.304063
  0
TEXT
  5
A39
100
AcDbEntity
  8
M4
100
AcDbText
 10
257.02301
 20
347.204975
 40
3.753754
  1
１１
 41
0.666667
  7
STANDARD
100
AcDbText
  0
LINE
  5
A3A
100
AcDbEntity
  8
M4
100
AcDbLine
 10
145.038714
 20
329.478705
 11
145.038714
 21
376.212297
  0
LINE
  5
A3B
100
AcDbEntity
  8
M4
100
AcDbLine
 10
24.038718
 20
329.478705
 11
24.038718
 21
376.212297
  0
LINE
  5
A3C
100
AcDbEntity
  8
M4
100
AcDbLine
 10
140.687697
 20
373.544944
 11
145.038714
 21
374.710796
  0
LINE
  5
A3D
100
AcDbEntity
  8
M4
100
AcDbLine
 10
145.038714
 20
374.710796
 11
140.687697
 21
375.876647
  0
LINE
  5
A3E
100
AcDbEntity
  8
M4
100
AcDbLine
 10
28.389735
 20
375.876647
 11
24.038718
 21
374.710796
  0
LINE
  5
A3F
100
AcDbEntity
  8
M4
100
AcDbLine
 10
24.038718
 20
374.710796
 11
28.389735
 21
373.544944
  0
LINE
  5
A40
100
AcDbEntity
  8
M4
100
AcDbLine
 10
145.038714
 20
374.710796
 11
24.038718
 21
374.710796
  0
TEXT
  5
A41
100
AcDbEntity
  8
M4
100
AcDbText
 10
80.125137
 20
375.611713
 40
3.753754
  1
１２１
 41
0.666667
  7
STANDARD
100
AcDbText
  0
LINE
  5
A42
100
AcDbEntity
  8
M4
100
AcDbLine
 10
111.038719
 20
349.050713
 11
111.038719
 21
363.165941
  0
LINE
  5
A43
100
AcDbEntity
  8
M4
100
AcDbLine
 10
58.038719
 20
349.050713
 11
58.038719
 21
363.165941
  0
LINE
  5
A44
100
AcDbEntity
  8
M4
100
AcDbLine
 10
106.687702
 20
360.498588
 11
111.038719
 21
361.664439
  0
LINE
  5
A45
100
AcDbEntity
  8
M4
100
AcDbLine
 10
111.038719
 20
361.664439
 11
106.687702
 21
362.830291
  0
LINE
  5
A46
100
AcDbEntity
  8
M4
100
AcDbLine
 10
62.389736
 20
362.830291
 11
58.038719
 21
361.664439
  0
LINE
  5
A47
100
AcDbEntity
  8
M4
100
AcDbLine
 10
58.038719
 20
361.664439
 11
62.389736
 21
360.498588
  0
LINE
  5
A48
100
AcDbEntity
  8
M4
100
AcDbLine
 10
111.038719
 20
361.664439
 11
58.038719
 21
361.664439
  0
TEXT
  5
A49
100
AcDbEntity
  8
M4
100
AcDbText
 10
81.62664
 20
362.565357
 40
3.753754
  1
５３
 41
0.666667
  7
STANDARD
100
AcDbText
  0
LINE
  5
A4A
100
AcDbEntity
  8
M4
100
AcDbLine
 10
52.988719
 20
324.228696
 11
52.988719
 21
356.591717
  0
LINE
  5
A4B
100
AcDbEntity
  8
M4
100
AcDbLine
 10
42.888718
 20
324.228696
 11
42.888718
 21
356.591717
  0
LINE
  5
A4C
100
AcDbEntity
  8
M4
100
AcDbLine
 10
57.339736
 20
356.256067
 11
52.988719
 21
355.090215
  0
LINE
  5
A4D
100
AcDbEntity
  8
M4
100
AcDbLine
 10
52.988719
 20
355.090215
 11
57.339736
 21
353.924364
  0
LINE
  5
A4E
100
AcDbEntity
  8
M4
100
AcDbLine
 10
38.537701
 20
353.924364
 11
42.888718
 21
355.090215
  0
LINE
  5
A4F
100
AcDbEntity
  8
M4
100
AcDbLine
 10
42.888718
 20
355.090215
 11
38.537701
 21
356.256067
  0
LINE
  5
A50
100
AcDbEntity
  8
M4
100
AcDbLine
 10
57.943674
 20
355.090215
 11
37.933763
 21
355.090215
  0
TEXT
  5
A51
100
AcDbEntity
  8
M4
100
AcDbText
 10
45.026642
 20
355.991138
 40
3.753754
  1
１０
 41
0.666667
  7
STANDARD
100
AcDbText
  0
TEXT
  5
A52
100
AcDbEntity
  8
M4
100
AcDbText
 10
120.258392
 20
82.727077
 40
3.753754
  1
４－Ｍ４ねじ穴
 41
0.666667
  7
STANDARD
100
AcDbText
  0
LINE
  5
A53
100
AcDbEntity
  8
M4
100
AcDbLine
 10
123.921498
 20
93.70881
 11
125.215875
 21
98.023337
  0
LINE
  5
A54
100
AcDbEntity
  8
M4
100
AcDbLine
 10
125.215875
 20
98.023337
 11
121.937648
 21
94.934035
  0
LINE
  5
A55
100
AcDbEntity
  8
M4
100
AcDbLine
 10
125.215875
 20
98.023337
 11
115.212513
 21
81.826179
  0
LINE
  5
A56
100
AcDbEntity
  8
M4
100
AcDbLine
 10
115.212513
 20
81.826179
 11
146.143453
 21
81.826179
  0
LINE
  5
A57
100
AcDbEntity
  8
M4
100
AcDbLine
 10
129.540218
 20
170.023365
 11
159.889789
 21
170.023365
  0
LINE
  5
A58
100
AcDbEntity
  8
M4
100
AcDbLine
 10
46.040219
 20
154.523368
 11
159.889789
 21
154.523368
  0
LINE
  5
A59
100
AcDbEntity
  8
M4
100
AcDbLine
 10
159.554139
 20
165.672347
 11
158.388287
 21
170.023365
  0
LINE
  5
A5A
100
AcDbEntity
  8
M4
100
AcDbLine
 10
158.388287
 20
170.023365
 11
157.222436
 21
165.672347
  0
LINE
  5
A5B
100
AcDbEntity
  8
M4
100
AcDbLine
 10
157.222436
 20
158.874385
 11
158.388287
 21
154.523368
  0
LINE
  5
A5C
100
AcDbEntity
  8
M4
100
AcDbLine
 10
158.388287
 20
154.523368
 11
159.554139
 21
158.874385
  0
LINE
  5
A5D
100
AcDbEntity
  8
M4
100
AcDbLine
 10
158.388287
 20
188.580687
 11
158.388287
 21
154.523368
  0
TEXT
  5
A5E
100
AcDbEntity
  8
M4
100
AcDbText
 10
157.487396
 20
175.1581
 40
3.753754
  1
１５．５
 50
90.000003
 41
0.666667
  7
STANDARD
100
AcDbText
  0
LINE
  5
A5F
100
AcDbEntity
  8
M4
100
AcDbLine
 10
46.040219
 20
154.523368
 11
159.889789
 21
154.523368
  0
LINE
  5
A60
100
AcDbEntity
  8
M4
100
AcDbLine
 10
79.04022
 20
99.523373
 11
159.889789
 21
99.523373
  0
LINE
  5
A61
100
AcDbEntity
  8
M4
100
AcDbLine
 10
159.554139
 20
150.172351
 11
158.388287
 21
154.523368
  0
LINE
  5
A62
100
AcDbEntity
  8
M4
100
AcDbLine
 10
158.388287
 20
154.523368
 11
157.222436
 21
150.172351
  0
LINE
  5
A63
100
AcDbEntity
  8
M4
100
AcDbLine
 10
157.222436
 20
103.87439
 11
158.388287
 21
99.523373
  0
LINE
  5
A64
100
AcDbEntity
  8
M4
100
AcDbLine
 10
158.388287
 20
99.523373
 11
159.554139
 21
103.87439
  0
LINE
  5
A65
100
AcDbEntity
  8
M4
100
AcDbLine
 10
158.388287
 20
154.523368
 11
158.388287
 21
99.523373
  0
TEXT
  5
A66
100
AcDbEntity
  8
M4
100
AcDbText
 10
157.487396
 20
124.111301
 40
3.753754
  1
５５
 50
90.000003
 41
0.666667
  7
STANDARD
100
AcDbText
  0
LINE
  5
A67
100
AcDbEntity
  8
M4
100
AcDbLine
 10
40.538716
 20
160.024871
 11
40.538716
 21
184.598406
  0
LINE
  5
A68
100
AcDbEntity
  8
M4
100
AcDbLine
 10
73.538716
 20
105.024865
 11
73.538716
 21
184.598406
  0
LINE
  5
A69
100
AcDbEntity
  8
M4
100
AcDbLine
 10
44.889733
 20
184.262756
 11
40.538716
 21
183.096905
  0
LINE
  5
A6A
100
AcDbEntity
  8
M4
100
AcDbLine
 10
40.538716
 20
183.096905
 11
44.889733
 21
181.931053
  0
LINE
  5
A6B
100
AcDbEntity
  8
M4
100
AcDbLine
 10
69.187699
 20
181.931053
 11
73.538716
 21
183.096905
  0
LINE
  5
A6C
100
AcDbEntity
  8
M4
100
AcDbLine
 10
73.538716
 20
183.096905
 11
69.187699
 21
184.262756
  0
LINE
  5
A6D
100
AcDbEntity
  8
M4
100
AcDbLine
 10
40.538716
 20
183.096905
 11
73.538716
 21
183.096905
  0
TEXT
  5
A6E
100
AcDbEntity
  8
M4
100
AcDbText
 10
54.126633
 20
183.997821
 40
3.753754
  1
３３
 41
0.666667
  7
STANDARD
100
AcDbText
  0
LINE
  5
A6F
100
AcDbEntity
  8
M4
100
AcDbLine
 10
40.538716
 20
160.024871
 11
40.538716
 21
184.598406
  0
LINE
  5
A70
100
AcDbEntity
  8
M4
100
AcDbLine
 10
24.038718
 20
162.824871
 11
24.038718
 21
184.598406
  0
LINE
  5
A71
100
AcDbEntity
  8
M4
100
AcDbLine
 10
36.187698
 20
181.931053
 11
40.538716
 21
183.096905
  0
LINE
  5
A72
100
AcDbEntity
  8
M4
100
AcDbLine
 10
40.538716
 20
183.096905
 11
36.187698
 21
184.262756
  0
LINE
  5
A73
100
AcDbEntity
  8
M4
100
AcDbLine
 10
28.389735
 20
184.262756
 11
24.038718
 21
183.096905
  0
LINE
  5
A74
100
AcDbEntity
  8
M4
100
AcDbLine
 10
24.038718
 20
183.096905
 11
28.389735
 21
181.931053
  0
LINE
  5
A75
100
AcDbEntity
  8
M4
100
AcDbLine
 10
40.538716
 20
183.096905
 11
7.353138
 21
183.096905
  0
TEXT
  5
A76
100
AcDbEntity
  8
M4
100
AcDbText
 10
8.945564
 20
183.997821
 40
3.753754
  1
１６．５
 41
0.666667
  7
STANDARD
100
AcDbText
  0
LINE
  5
A77
100
AcDbEntity
  8
M4
100
AcDbLine
 10
73.538716
 20
105.024865
 11
73.538716
 21
184.598406
  0
LINE
  5
A78
100
AcDbEntity
  8
M4
100
AcDbLine
 10
93.538721
 20
160.024871
 11
93.538721
 21
184.598406
  0
LINE
  5
A79
100
AcDbEntity
  8
M4
100
AcDbLine
 10
77.889733
 20
184.262756
 11
73.538716
 21
183.096905
  0
LINE
  5
A7A
100
AcDbEntity
  8
M4
100
AcDbLine
 10
73.538716
 20
183.096905
 11
77.889733
 21
181.931053
  0
LINE
  5
A7B
100
AcDbEntity
  8
M4
100
AcDbLine
 10
89.187704
 20
181.931053
 11
93.538721
 21
183.096905
  0
LINE
  5
A7C
100
AcDbEntity
  8
M4
100
AcDbLine
 10
93.538721
 20
183.096905
 11
89.187704
 21
184.262756
  0
LINE
  5
A7D
100
AcDbEntity
  8
M4
100
AcDbLine
 10
73.538716
 20
183.096905
 11
93.538721
 21
183.096905
  0
TEXT
  5
A7E
100
AcDbEntity
  8
M4
100
AcDbText
 10
80.62664
 20
183.997821
 40
3.753754
  1
２０
 41
0.666667
  7
STANDARD
100
AcDbText
  0
LINE
  5
A7F
100
AcDbEntity
  8
M4
100
AcDbLine
 10
93.538721
 20
160.024871
 11
93.538721
 21
184.598406
  0
LINE
  5
A80
100
AcDbEntity
  8
M4
100
AcDbLine
 10
126.538716
 20
105.024865
 11
126.538716
 21
184.598406
  0
LINE
  5
A81
100
AcDbEntity
  8
M4
100
AcDbLine
 10
97.889738
 20
184.262756
 11
93.538721
 21
183.096905
  0
LINE
  5
A82
100
AcDbEntity
  8
M4
100
AcDbLine
 10
93.538721
 20
183.096905
 11
97.889738
 21
181.931053
  0
LINE
  5
A83
100
AcDbEntity
  8
M4
100
AcDbLine
 10
122.187699
 20
181.931053
 11
126.538716
 21
183.096905
  0
LINE
  5
A84
100
AcDbEntity
  8
M4
100
AcDbLine
 10
126.538716
 20
183.096905
 11
122.187699
 21
184.262756
  0
LINE
  5
A85
100
AcDbEntity
  8
M4
100
AcDbLine
 10
93.538721
 20
183.096905
 11
126.538716
 21
183.096905
  0
TEXT
  5
A86
100
AcDbEntity
  8
M4
100
AcDbText
 10
107.12664
 20
183.997821
 40
3.753754
  1
３３
 41
0.666667
  7
STANDARD
100
AcDbText
  0
LINE
  5
A87
100
AcDbEntity
  8
M5
100
AcDbLine
 10
66.27451
 20
22.326092
 11
90.643879
 21
22.326092
  0
TEXT
  5
A88
100
AcDbEntity
  8
M5
100
AcDbText
 10
66.614014
 20
22.926693
 40
6.006006
  1
せん孔図
 41
0.833333
  7
STANDARD
100
AcDbText
  0
ENDSEC
  0
SECTION
  2
OBJECTS
  0
DICTIONARY
  5
C
100
AcDbDictionary
  3
ACAD_GROUP
350
D
  3
ACAD_MLINESTYLE
350
E
  3
ACDBVARIABLEDICTIONARY
350
9F5
  0
DICTIONARY
  5
D
102
{ACAD_REACTORS
330
C
102
}
100
AcDbDictionary
  0
DICTIONARY
  5
E
102
{ACAD_REACTORS
330
C
102
}
100
AcDbDictionary
  3
STANDARD
350
13
  0
DICTIONARY
  5
9F5
102
{ACAD_REACTORS
330
C
102
}
100
AcDbDictionary
  3
SORTENTS
350
9F6
  0
MLINESTYLE
  5
13
102
{ACAD_REACTORS
330
E
102
}
100
AcDbMlineStyle
  2
STANDARD
 70
     0
  3

 62
     0
 51
90.0
 52
90.0
 71
     2
 49
0.5
 62
   256
  6
BYLAYER
 49
-0.5
 62
   256
  6
BYLAYER
  0
DICTIONARYVAR
  5
9F6
102
{ACAD_REACTORS
330
9F5
102
}
100
DictionaryVariables
280
     0
  1
96
  0
ENDSEC
  0
EOF
