  0
SECTION
  2
HEADER
  9
$ACADVER
  1
AC1009
  9
$INSBASE
 10
0.000000
 20
0.000000
 30
0.0
  9
$VIEWCTR
 10
7.531722
 20
4.5
  9
$VIEWSIZE
 40
9.0
  9
$SNAPMODE
 70
     0
  9
$SNAPUNIT
 10
1.0
 20
1.0
  9
$SNAPBASE
 10
0.0
 20
0.0
  9
$SNAPANG
 50
0.0
  9
$SNAPSTYLE
 70
     0
  9
$SNAPISOPAIR
 70
     0
  9
$GRIDMODE
 70
     0
  9
$GRIDUNIT
 10
0.0
 20
0.0
  9
$ORTHOMODE
 70
     0
  9
$REGENMODE
 70
     1
  9
$FILLMODE
 70
     1
  9
$QTEXTMODE
 70
     0
  9
$DRAGMODE
 70
     2
  9
$LTSCALE
  40
     1.000000
  9
$OSMODE
 70
     0
  9
$ATTMODE
 70
     1
  9
$TEXTSIZE
 40
0.2
  9
$TRACEWID
 40
0.05
  9
$TEXTSTYLE
  7
STANDARD
  9
$CELTYPE
  6
BYLAYER
  9
$CECOLOR
 62
   256
  9
$DIMSCALE
 40
1.0
  9
$DIMASZ
 40
0.18
  9
$DIMEXO
 40
0.0625
  9
$DIMDLI
 40
0.38
  9
$DIMRND
 40
0.0
  9
$DIMDLE
 40
0.0
  9
$DIMEXE
 40
0.18
  9
$DIMTP
 40
0.0
  9
$DIMTM
 40
0.0
  9
$DIMTXT
 40
0.18
  9
$DIMCEN
 40
0.09
  9
$DIMTSZ
 40
0.0
  9
$DIMTOL
 70
     0
  9
$DIMLIM
 70
     0
  9
$DIMTIH
 70
     1
  9
$DIMTOH
 70
     1
  9
$DIMSE1
 70
     0
  9
$DIMSE2
 70
     0
  9
$DIMTAD
 70
     0
  9
$DIMZIN
 70
     0
  9
$DIMBLK
  1

  9
$LUNITS
 70
     2
  9
$LUPREC
 70
     4
  9
$AXISMODE
 70
     0
  9
$AXISUNIT
 10
0.0
 20
0.0
  9
$SKETCHINC
 40
0.1
  9
$FILLETRAD
 40
0.0
  9
$AUNITS
 70
     0
  9
$AUPREC
 70
     0
  9
$MENU
  1
ACAD
  9
$ELEVATION
 40
0.0
  9
$THICKNESS
 40
0.0
  9
$VIEWDIR
 10
0.0
 20
0.0
 30
1.0
  9
$LIMCHECK
 70
     0
  9
$BLIPMODE
 70
     1
  9
$CHAMFERA
 40
0.0
  9
$CHAMFERB
 40
0.0
  9
$FASTZOOM
 70
     1
  9
$SKPOLY
 70
     0
  9
$TDCREATE
 40
0000000.0000000000
  9
$TDUPDATE
 40
0000000.0000000000
  9
$TDINDWG
 40
0.0000000000
  9
$TDUSRTIMER
 40
0.0000000000
  9
$USRTIMER
 70
     1
  9
$ANGBASE
 50
0.0
  9
$ANGDIR
 70
     0
  9
$PDMODE
 70
     0
  9
$PDSIZE
 40
0.0
  9
$PLINEWID
 40
0.0
  9
$COORDS
 70
     0
  9
$USERI1
 70
     0
  9
$USERI2
 70
     0
  9
$USERI3
 70
     0
  9
$USERI4
 70
     0
  9
$USERI5
 70
     0
  9
$USERR1
 40
0.0
  9
$USERR2
 40
0.0
  9
$USERR3
 40
0.0
  9
$USERR4
 40
0.0
  9
$USERR5
 40
0.0
  9
$CLAYER
  8
M0
  9
$EXTMIN
 10
14.717987
 20
15.85014
  9
$EXTMAX
 10
300.003268
 20
428.763047
  9
$LIMMIN
 10
0.0
 20
0.0
  9
$LIMMAX
 10
210.0
 20
297.0
  0
ENDSEC
  0
SECTION
  2
TABLES
  0
TABLE
  2
VPORT
  0
VPORT
  2
*ACTIVE
 70
     0
 10
0.0
 20
0.0
 11
1.0
 21
1.0
 12
484.0
 22
297.0
 13
0.0
 23
0.0
 14
1.0
 24
1.0
 15
0.0
 25
0.0
 16
0.0
 26
0.0
 36
1.0
 17
0.0
 27
0.0
 37
0.0
 40
594.0
 41
2.0
 42
50.0
 43
0.0
 44
0.0
 50
0.0
 51
0.0
 71
     0
 72
   100
 73
     1
 74
     1
 75
     0
 76
     0
 77
     0
 78
     0
  0
ENDTAB
  0
TABLE
  2
LTYPE
 70
     5
  0
LTYPE
  2
CONTINUOUS
 70
    64
  3
Solid line
 72
    65
 73
     0
 40
0.0
  0
LTYPE
  2
DASHED
 70
    64
  3
__ __ __ __ __ __ __ __ __ __ __ __ __ __ __ __
 72
    65
 73
     2
 40
0.75
 49
0.5
 49
-0.25
  0
LTYPE
  2
DASHDOT
 70
    64
  3
__ . __ . __ . __ . __ . __ . __ . __ . __ . __
 72
    65
 73
     4
 40
1.0
 49
0.5
 49
-0.25
 49
0.0
 49
-0.25
  0
LTYPE
  2
DIVIDE
 70
    64
  3
____ . . ____ . . ____ . . ____ . . ____ . . __
 72
    65
 73
     6
 40
1.25
 49
0.5
 49
-0.25
 49
0.0
 49
-0.25
 49
0.0
 49
-0.25
  0
LTYPE
  2
DOT
 70
    64
  3
. . . . . . . . . . . . . . . . . . . . . . . .
 72
    65
 73
     2
 40
0.25
 49
0.0
 49
-0.25
  0
ENDTAB
  0
TABLE
  2
LAYER
 70
   102
  0
LAYER
  2
0
 70
     0
 62
     7
  6
CONTINUOUS
  0
LAYER
  2
M0
 70
     0
 62
     3
  6
CONTINUOUS
  0
LAYER
  2
M3
 70
     0
 62
     3
  6
CONTINUOUS
  0
LAYER
  2
DD0
 70
     0
 62
     4
  6
CONTINUOUS
  0
LAYER
  2
DN0
 70
     0
 62
     2
  6
CONTINUOUS
  0
ENDTAB
  0
TABLE
  2
STYLE
 70
     2
  0
STYLE
  2
STANDARD
 70
     0
 40
0.0
 41
1.0
 50
0.0
 71
     0
 42
0.2
  3
txt
  4
BIGFONT
  0
ENDTAB
  0
TABLE
  2
VIEW
 70
     0
  0
ENDTAB
  0
TABLE
  2
DIMSTYLE
 70
     2
  0
DIMSTYLE
  2
STANDARD
 70
     0
  3

  4

  5

  6
_OPEN
  7
_OPEN
 40
1.0
 41
4.504504
 42
1.0
 43
8.0
 44
1.0
 45
0.0
 46
0.0
 47
0.0
 48
0.0
140
4.72973
141
0.09
142
0.0
143
0.03937
144
1.0
145
0.0
146
1.0
147
0.6
 71
     0
 72
     0
 73
     1
 74
     1
 75
     0
 76
     0
 77
     3
 78
     8
170
     0
171
     2
172
     0
173
     1
174
     0
175
     0
176
     0
177
     0
178
     0
  0
ENDTAB
  0
ENDSEC
  0
SECTION
  2
BLOCKS
  0
BLOCK
  8
DD0
  2
DIMS0
 70
     0
 10
0.0
 20
0.0
  0
LINE
  8
DD0
 10
196.67683
 20
353.941194
 11
196.67683
 21
406.573729
  0
LINE
  8
DD0
 10
273.425818
 20
403.906375
 11
277.776835
 21
405.072227
  0
LINE
  8
DD0
 10
277.776835
 20
405.072227
 11
273.425818
 21
406.238079
  0
LINE
  8
DD0
 10
201.027847
 20
406.238079
 11
196.67683
 21
405.072227
  0
LINE
  8
DD0
 10
196.67683
 20
405.072227
 11
201.027847
 21
403.906375
  0
LINE
  8
DD0
 10
277.776835
 20
405.072227
 11
196.67683
 21
405.072227
  0
TEXT
  8
DD0
 10
234.481578
 20
405.973137
 40
3.753754
  1
８１
 41
0.666667
  7
STANDARD
  0
ENDBLK
  8
DD0
  0
BLOCK
  8
DD0
  2
DIMS1
 70
     0
 10
0.0
 20
0.0
  0
LINE
  8
DD0
 10
266.776829
 20
376.941183
 11
266.776829
 21
387.202352
  0
LINE
  8
DD0
 10
282.127852
 20
386.866702
 11
277.776835
 21
385.700851
  0
LINE
  8
DD0
 10
277.776835
 20
385.700851
 11
282.127852
 21
384.534999
  0
LINE
  8
DD0
 10
262.425812
 20
384.534999
 11
266.776829
 21
385.700851
  0
LINE
  8
DD0
 10
266.776829
 20
385.700851
 11
262.425812
 21
386.866702
  0
LINE
  8
DD0
 10
282.73179
 20
385.700851
 11
261.821874
 21
385.700851
  0
TEXT
  8
DD0
 10
269.531566
 20
386.601761
 40
3.753754
  1
１１
 41
0.666667
  7
STANDARD
  0
ENDBLK
  8
DD0
  0
BLOCK
  8
DD0
  2
DIMS2
 70
     0
 10
0.0
 20
0.0
  0
LINE
  8
DD0
 10
277.776835
 20
376.191189
 11
277.776835
 21
412.74277
  0
LINE
  8
DD0
 10
165.376827
 20
343.741175
 11
165.376827
 21
412.74277
  0
LINE
  8
DD0
 10
273.425818
 20
410.075417
 11
277.776835
 21
411.241268
  0
LINE
  8
DD0
 10
277.776835
 20
411.241268
 11
273.425818
 21
412.40712
  0
LINE
  8
DD0
 10
169.727844
 20
412.40712
 11
165.376827
 21
411.241268
  0
LINE
  8
DD0
 10
165.376827
 20
411.241268
 11
169.727844
 21
410.075417
  0
LINE
  8
DD0
 10
277.776835
 20
411.241268
 11
165.376827
 21
411.241268
  0
TEXT
  8
DD0
 10
185.79855
 20
412.142178
 40
3.753754
  1
１１２（補助接点ヘッドオンユニットを付けた場合）
 41
0.666667
  7
STANDARD
  0
ENDBLK
  8
DD0
  0
BLOCK
  8
DD0
  2
DIMS3
 70
     0
 10
0.0
 20
0.0
  0
LINE
  8
DD0
 10
196.67683
 20
353.941194
 11
196.67683
 21
391.707773
  0
LINE
  8
DD0
 10
191.676828
 20
386.4412
 11
191.676828
 21
391.707773
  0
LINE
  8
DD0
 10
201.027847
 20
391.372123
 11
196.67683
 21
390.206272
  0
LINE
  8
DD0
 10
196.67683
 20
390.206272
 11
201.027847
 21
389.04042
  0
LINE
  8
DD0
 10
187.32581
 20
389.04042
 11
191.676828
 21
390.206272
  0
LINE
  8
DD0
 10
191.676828
 20
390.206272
 11
187.32581
 21
391.372123
  0
LINE
  8
DD0
 10
201.631785
 20
390.206272
 11
182.217368
 21
390.206272
  0
TEXT
  8
DD0
 10
183.541188
 20
391.107182
 40
3.753754
  1
５
 41
0.666667
  7
STANDARD
  0
ENDBLK
  8
DD0
  0
BLOCK
  8
DD0
  2
DIMS4
 70
     0
 10
0.0
 20
0.0
  0
LINE
  8
DD0
 10
133.980563
 20
372.141195
 11
133.980563
 21
412.341459
  0
LINE
  8
DD0
 10
46.180567
 20
372.141195
 11
46.180567
 21
412.341459
  0
LINE
  8
DD0
 10
129.629546
 20
409.674106
 11
133.980563
 21
410.839958
  0
LINE
  8
DD0
 10
133.980563
 20
410.839958
 11
129.629546
 21
412.005809
  0
LINE
  8
DD0
 10
50.531584
 20
412.005809
 11
46.180567
 21
410.839958
  0
LINE
  8
DD0
 10
46.180567
 20
410.839958
 11
50.531584
 21
409.674106
  0
LINE
  8
DD0
 10
133.980563
 20
410.839958
 11
46.180567
 21
410.839958
  0
TEXT
  8
DD0
 10
87.335321
 20
411.740868
 40
3.753754
  1
８８
 41
0.666667
  7
STANDARD
  0
TEXT
  8
DD0
 10
58.806793
 20
405.885021
 40
3.753754
  1
（補助接点サイドオンユニットを付けた場合）
 41
0.666667
  7
STANDARD
  0
ENDBLK
  8
DD0
  0
BLOCK
  8
DD0
  2
DIMS5
 70
     0
 10
0.0
 20
0.0
  0
LINE
  8
DD0
 10
277.776835
 20
305.688184
 11
277.776835
 21
241.853178
  0
LINE
  8
DD0
 10
203.177349
 20
276.692499
 11
203.177349
 21
241.853178
  0
LINE
  8
DD0
 10
273.425818
 20
242.188828
 11
277.776835
 21
243.35468
  0
LINE
  8
DD0
 10
277.776835
 20
243.35468
 11
273.425818
 21
244.520531
  0
LINE
  8
DD0
 10
207.528366
 20
244.520531
 11
203.177349
 21
243.35468
  0
LINE
  8
DD0
 10
203.177349
 20
243.35468
 11
207.528366
 21
242.188828
  0
LINE
  8
DD0
 10
277.776835
 20
243.35468
 11
203.177349
 21
243.35468
  0
TEXT
  8
DD0
 10
234.728835
 20
244.25559
 40
3.753754
  1
７４．５
 41
0.666667
  7
STANDARD
  0
ENDBLK
  8
DD0
  0
BLOCK
  8
DD0
  2
DIMS6
 70
     0
 10
0.0
 20
0.0
  0
LINE
  8
DD0
 10
67.230608
 20
270.438182
 11
67.230608
 21
245.098076
  0
LINE
  8
DD0
 10
79.730608
 20
270.438182
 11
79.730608
 21
245.098076
  0
LINE
  8
DD0
 10
71.581625
 20
247.76543
 11
67.230608
 21
246.599578
  0
LINE
  8
DD0
 10
67.230608
 20
246.599578
 11
71.581625
 21
245.433726
  0
LINE
  8
DD0
 10
75.379591
 20
245.433726
 11
79.730608
 21
246.599578
  0
LINE
  8
DD0
 10
79.730608
 20
246.599578
 11
75.379591
 21
247.76543
  0
LINE
  8
DD0
 10
67.230608
 20
246.599578
 11
79.730608
 21
246.599578
  0
TEXT
  8
DD0
 10
67.732365
 20
247.500488
 40
3.753754
  1
１２．５
 41
0.666667
  7
STANDARD
  0
ENDBLK
  8
DD0
  0
BLOCK
  8
DD0
  2
DIMS7
 70
     0
 10
0.0
 20
0.0
  0
LINE
  8
DD0
 10
107.382066
 20
385.439664
 11
149.037517
 21
385.439664
  0
LINE
  8
DD0
 10
111.233111
 20
253.439502
 11
149.037517
 21
253.439502
  0
LINE
  8
DD0
 10
148.701867
 20
381.088647
 11
147.536015
 21
385.439664
  0
LINE
  8
DD0
 10
147.536015
 20
385.439664
 11
146.370164
 21
381.088647
  0
LINE
  8
DD0
 10
146.370164
 20
257.790519
 11
147.536015
 21
253.439502
  0
LINE
  8
DD0
 10
147.536015
 20
253.439502
 11
148.701867
 21
257.790519
  0
LINE
  8
DD0
 10
147.536015
 20
385.439664
 11
147.536015
 21
253.439502
  0
TEXT
  8
DD0
 10
146.635117
 20
315.192827
 40
3.753754
  1
１３２
 50
90.000003
 41
0.666667
  7
STANDARD
  0
ENDBLK
  8
DD0
  0
BLOCK
  8
DD0
  2
DIMS8
 70
     0
 10
0.0
 20
0.0
  0
LINE
  8
DD0
 10
58.680565
 20
372.941181
 11
58.680565
 21
399.910449
  0
LINE
  8
DD0
 10
121.480556
 20
372.941181
 11
121.480556
 21
399.910449
  0
LINE
  8
DD0
 10
63.031582
 20
399.574799
 11
58.680565
 21
398.408948
  0
LINE
  8
DD0
 10
58.680565
 20
398.408948
 11
63.031582
 21
397.243096
  0
LINE
  8
DD0
 10
117.129539
 20
397.243096
 11
121.480556
 21
398.408948
  0
LINE
  8
DD0
 10
121.480556
 20
398.408948
 11
117.129539
 21
399.574799
  0
LINE
  8
DD0
 10
58.680565
 20
398.408948
 11
121.480556
 21
398.408948
  0
TEXT
  8
DD0
 10
87.335315
 20
399.309858
 40
3.753754
  1
６３
 41
0.666667
  7
STANDARD
  0
ENDBLK
  8
DD0
  0
BLOCK
  8
DD0
  2
DIMS9
 70
     0
 10
0.0
 20
0.0
  0
LINE
  8
DD0
 10
90.080558
 20
366.64118
 11
90.080558
 21
392.966326
  0
LINE
  8
DD0
 10
77.080562
 20
366.64118
 11
77.080562
 21
392.966326
  0
LINE
  8
DD0
 10
85.729541
 20
390.298972
 11
90.080558
 21
391.464824
  0
LINE
  8
DD0
 10
90.080558
 20
391.464824
 11
85.729541
 21
392.630676
  0
LINE
  8
DD0
 10
81.43158
 20
392.630676
 11
77.080562
 21
391.464824
  0
LINE
  8
DD0
 10
77.080562
 20
391.464824
 11
81.43158
 21
390.298972
  0
LINE
  8
DD0
 10
90.080558
 20
391.464824
 11
77.080562
 21
391.464824
  0
TEXT
  8
DD0
 10
80.835317
 20
392.365734
 40
3.753754
  1
１３
 41
0.666667
  7
STANDARD
  0
ENDBLK
  8
DD0
  0
BLOCK
  8
DD0
  2
DIMS10
 70
     0
 10
0.0
 20
0.0
  0
TEXT
  8
DD0
 10
130.827308
 20
116.594376
 40
3.753754
  1
２－Ｍ４ねじ穴
 41
0.666667
  7
STANDARD
  0
LINE
  8
DD0
 10
122.378082
 20
122.553391
 11
118.973361
 21
125.502702
  0
LINE
  8
DD0
 10
118.973361
 20
125.502702
 11
120.447281
 21
121.246164
  0
LINE
  8
DD0
 10
118.973361
 20
125.502702
 11
125.614588
 21
115.693477
  0
LINE
  8
DD0
 10
125.614588
 20
115.693477
 11
156.545517
 21
115.693477
  0
ENDBLK
  8
DD0
  0
BLOCK
  8
DD0
  2
DIMS11
 70
     0
 10
0.0
 20
0.0
  0
LINE
  8
DD0
 10
69.423892
 20
186.140144
 11
143.461644
 21
186.140144
  0
LINE
  8
DD0
 10
109.026486
 20
200.640152
 11
143.461644
 21
200.640152
  0
LINE
  8
DD0
 10
140.794291
 20
190.491161
 11
141.960142
 21
186.140144
  0
LINE
  8
DD0
 10
141.960142
 20
186.140144
 11
143.125994
 21
190.491161
  0
LINE
  8
DD0
 10
143.125994
 20
196.289135
 11
141.960142
 21
200.640152
  0
LINE
  8
DD0
 10
141.960142
 20
200.640152
 11
140.794291
 21
196.289135
  0
LINE
  8
DD0
 10
141.960142
 20
186.140144
 11
141.960142
 21
218.090433
  0
TEXT
  8
DD0
 10
141.059244
 20
204.834668
 40
3.753754
  1
１４．５
 50
90.000003
 41
0.666667
  7
STANDARD
  0
ENDBLK
  8
DD0
  0
BLOCK
  8
DD0
  2
DIMS12
 70
     0
 10
0.0
 20
0.0
  0
LINE
  8
DD0
 10
69.423892
 20
186.140144
 11
143.461644
 21
186.140144
  0
LINE
  8
DD0
 10
123.923899
 20
127.140147
 11
143.461644
 21
127.140147
  0
LINE
  8
DD0
 10
143.125994
 20
181.789127
 11
141.960142
 21
186.140144
  0
LINE
  8
DD0
 10
141.960142
 20
186.140144
 11
140.794291
 21
181.789127
  0
LINE
  8
DD0
 10
140.794291
 20
131.491164
 11
141.960142
 21
127.140147
  0
LINE
  8
DD0
 10
141.960142
 20
127.140147
 11
143.125994
 21
131.491164
  0
LINE
  8
DD0
 10
141.960142
 20
186.140144
 11
141.960142
 21
127.140147
  0
TEXT
  8
DD0
 10
141.059244
 20
153.894908
 40
3.753754
  1
５９
 50
90.000003
 41
0.666667
  7
STANDARD
  0
ENDBLK
  8
DD0
  0
BLOCK
  8
DD0
  2
DIMS13
 70
     0
 10
0.0
 20
0.0
  0
LINE
  8
DD0
 10
63.824976
 20
191.739043
 11
63.824976
 21
212.889843
  0
LINE
  8
DD0
 10
117.824977
 20
133.239046
 11
117.824977
 21
212.889843
  0
LINE
  8
DD0
 10
68.175994
 20
212.554193
 11
63.824976
 21
211.388342
  0
LINE
  8
DD0
 10
63.824976
 20
211.388342
 11
68.175994
 21
210.22249
  0
LINE
  8
DD0
 10
113.47396
 20
210.22249
 11
117.824977
 21
211.388342
  0
LINE
  8
DD0
 10
117.824977
 20
211.388342
 11
113.47396
 21
212.554193
  0
LINE
  8
DD0
 10
63.824976
 20
211.388342
 11
117.824977
 21
211.388342
  0
TEXT
  8
DD0
 10
88.079731
 20
212.289252
 40
3.753754
  1
５４
 41
0.666667
  7
STANDARD
  0
ENDBLK
  8
DD0
  0
BLOCK
  8
DD0
  2
DIMS14
 70
     0
 10
0.0
 20
0.0
  0
LINE
  8
DD0
 10
63.824976
 20
191.739043
 11
63.824976
 21
212.889843
  0
LINE
  8
DD0
 10
59.424987
 20
193.141648
 11
59.424987
 21
212.889843
  0
LINE
  8
DD0
 10
68.175994
 20
212.554193
 11
63.824976
 21
211.388342
  0
LINE
  8
DD0
 10
63.824976
 20
211.388342
 11
68.175994
 21
210.22249
  0
LINE
  8
DD0
 10
55.073969
 20
210.22249
 11
59.424987
 21
211.388342
  0
LINE
  8
DD0
 10
59.424987
 20
211.388342
 11
55.073969
 21
212.554193
  0
LINE
  8
DD0
 10
68.779931
 20
211.388342
 11
43.959521
 21
211.388342
  0
TEXT
  8
DD0
 10
45.283347
 20
212.289252
 40
3.753754
  1
４．４
 41
0.666667
  7
STANDARD
  0
ENDBLK
  8
DD0
  0
ENDSEC
  0
SECTION
  2
ENTITIES
  0
INSERT
  8
DD0
  2
DIMS0
 10
0.0
 20
0.0
  0
INSERT
  8
DD0
  2
DIMS1
 10
0.0
 20
0.0
  0
INSERT
  8
DD0
  2
DIMS2
 10
0.0
 20
0.0
  0
INSERT
  8
DD0
  2
DIMS3
 10
0.0
 20
0.0
  0
INSERT
  8
DD0
  2
DIMS4
 10
0.0
 20
0.0
  0
INSERT
  8
DD0
  2
DIMS5
 10
0.0
 20
0.0
  0
INSERT
  8
DD0
  2
DIMS6
 10
0.0
 20
0.0
  0
INSERT
  8
DD0
  2
DIMS7
 10
0.0
 20
0.0
  0
INSERT
  8
DD0
  2
DIMS8
 10
0.0
 20
0.0
  0
INSERT
  8
DD0
  2
DIMS9
 10
0.0
 20
0.0
  0
INSERT
  8
DD0
  2
DIMS10
 10
0.0
 20
0.0
  0
INSERT
  8
DD0
  2
DIMS11
 10
0.0
 20
0.0
  0
INSERT
  8
DD0
  2
DIMS12
 10
0.0
 20
0.0
  0
INSERT
  8
DD0
  2
DIMS13
 10
0.0
 20
0.0
  0
INSERT
  8
DD0
  2
DIMS14
 10
0.0
 20
0.0
  0
CIRCLE
  8
M0
  6
DASHED
 62
     7
 10
64.880563
 20
354.239686
 40
3.0
  0
LINE
  8
M0
  6
DASHED
 62
     7
 10
66.471146
 20
352.649042
 11
63.289506
 21
355.830804
  0
LINE
  8
M0
  6
DASHED
 62
     7
 10
66.294389
 20
354.593378
 11
64.52681
 21
352.825799
  0
LINE
  8
M0
  6
DASHED
 62
     7
 10
65.233842
 20
355.654047
 11
63.466264
 21
353.886346
  0
LINE
  8
M0
  6
DASHED
 62
     7
 10
68.205563
 20
358.064686
 11
61.555563
 21
358.064686
  0
ARC
  8
M0
  6
DASHED
 62
     7
 10
68.205563
 20
357.564686
 40
0.5
 50
0.0
 51
90.0
  0
LINE
  8
M0
  6
DASHED
 62
     7
 10
68.705563
 20
350.914686
 11
68.705563
 21
357.564686
  0
ARC
  8
M0
  6
DASHED
 62
     7
 10
68.205563
 20
350.914686
 40
0.5
 50
270.0
 51
360.0
  0
LINE
  8
M0
  6
DASHED
 62
     7
 10
61.555563
 20
350.414686
 11
68.205563
 21
350.414686
  0
LINE
  8
M0
  6
DASHED
 62
     7
 10
61.055563
 20
357.564686
 11
61.055563
 21
350.914686
  0
ARC
  8
M0
  6
DASHED
 62
     7
 10
61.555563
 20
357.564686
 40
0.5
 50
90.0
 51
180.0
  0
ARC
  8
M0
  6
DASHED
 62
     7
 10
61.555563
 20
350.914686
 40
0.5
 50
180.0
 51
270.0
  0
CIRCLE
  8
M0
 62
     7
 10
115.280562
 20
327.639686
 40
3.0
  0
LINE
  8
M0
 62
     7
 10
116.871146
 20
326.049042
 11
113.689506
 21
329.230804
  0
LINE
  8
M0
 62
     7
 10
116.694388
 20
327.993378
 11
114.92681
 21
326.225799
  0
LINE
  8
M0
 62
     7
 10
115.633841
 20
329.054047
 11
113.866263
 21
327.286346
  0
LINE
  8
M0
 62
     7
 10
118.605562
 20
331.464686
 11
111.955562
 21
331.464686
  0
ARC
  8
M0
 62
     7
 10
118.605562
 20
330.964686
 40
0.5
 50
0.0
 51
90.0
  0
LINE
  8
M0
 62
     7
 10
119.105562
 20
324.314686
 11
119.105562
 21
330.964686
  0
ARC
  8
M0
 62
     7
 10
118.605562
 20
324.314686
 40
0.5
 50
270.0
 51
360.0
  0
LINE
  8
M0
 62
     7
 10
111.955562
 20
323.814686
 11
118.605562
 21
323.814686
  0
LINE
  8
M0
 62
     7
 10
111.455562
 20
330.964686
 11
111.455562
 21
324.314686
  0
ARC
  8
M0
 62
     7
 10
111.955562
 20
330.964686
 40
0.5
 50
90.0
 51
180.0
  0
ARC
  8
M0
 62
     7
 10
111.955562
 20
324.314686
 40
0.5
 50
180.0
 51
270.0
  0
CIRCLE
  8
M0
 62
     7
 10
79.180562
 20
379.539686
 40
3.0
  0
LINE
  8
M0
 62
     7
 10
80.771146
 20
377.949042
 11
77.589506
 21
381.130804
  0
LINE
  8
M0
 62
     7
 10
80.594388
 20
379.893378
 11
78.82681
 21
378.125799
  0
LINE
  8
M0
 62
     7
 10
79.533841
 20
380.954047
 11
77.766263
 21
379.186346
  0
LINE
  8
M0
 62
     7
 10
82.505562
 20
383.364686
 11
75.855562
 21
383.364686
  0
ARC
  8
M0
 62
     7
 10
82.505562
 20
382.864686
 40
0.5
 50
0.0
 51
90.0
  0
LINE
  8
M0
 62
     7
 10
83.005562
 20
376.214686
 11
83.005562
 21
382.864686
  0
ARC
  8
M0
 62
     7
 10
82.505562
 20
376.214686
 40
0.5
 50
270.0
 51
360.0
  0
LINE
  8
M0
 62
     7
 10
75.855562
 20
375.714686
 11
82.505562
 21
375.714686
  0
LINE
  8
M0
 62
     7
 10
75.355562
 20
382.864686
 11
75.355562
 21
376.214686
  0
ARC
  8
M0
 62
     7
 10
75.855562
 20
382.864686
 40
0.5
 50
90.0
 51
180.0
  0
ARC
  8
M0
 62
     7
 10
75.855562
 20
376.214686
 40
0.5
 50
180.0
 51
270.0
  0
LINE
  8
M0
 62
     2
 10
91.269686
 20
287.900532
 11
93.114535
 21
286.055699
  0
LINE
  8
M0
 62
     2
 10
93.241412
 20
288.657643
 11
90.666338
 21
286.08257
  0
LINE
  8
M0
 62
     2
 10
93.948519
 20
287.950535
 11
91.373446
 21
285.375462
  0
CIRCLE
  8
M0
 62
     2
 10
92.230563
 20
286.939686
 40
3.499993
  0
LINE
  8
M0
  6
DASHDOT
 62
     2
 10
91.730563
 20
286.939686
 11
92.730563
 21
286.939686
  0
LINE
  8
M0
  6
DASHDOT
 62
     2
 10
92.230563
 20
286.439686
 11
92.230563
 21
287.439686
  0
LINE
  8
M0
  6
DASHED
 62
     7
 10
46.180566
 20
370.639687
 11
46.180566
 21
311.239687
  0
LINE
  8
M0
  6
DASHED
 62
     7
 10
46.180566
 20
311.239687
 11
58.680566
 21
311.239687
  0
LINE
  8
M0
  6
DASHED
 62
     7
 10
46.180566
 20
370.639687
 11
58.680566
 21
370.639687
  0
LINE
  8
M0
  6
DASHED
 62
     7
 10
133.980559
 20
370.639687
 11
121.480559
 21
370.639687
  0
LINE
  8
M0
  6
DASHED
 62
     7
 10
133.980559
 20
370.639687
 11
133.980559
 21
311.239687
  0
LINE
  8
M0
  6
DASHED
 62
     7
 10
133.980559
 20
311.239687
 11
121.480559
 21
311.239687
  0
LINE
  8
M0
 62
     7
 10
191.676827
 20
366.739686
 11
191.676827
 21
384.939686
  0
CIRCLE
  8
M0
 62
     7
 10
115.280562
 20
361.839686
 40
3.0
  0
LINE
  8
M0
 62
     7
 10
116.871146
 20
360.249042
 11
113.689506
 21
363.430804
  0
LINE
  8
M0
 62
     7
 10
116.694388
 20
362.193378
 11
114.92681
 21
360.425799
  0
LINE
  8
M0
 62
     7
 10
115.633842
 20
363.254047
 11
113.866263
 21
361.486346
  0
LINE
  8
M0
 62
     7
 10
118.605562
 20
365.664686
 11
111.955562
 21
365.664686
  0
ARC
  8
M0
 62
     7
 10
118.605562
 20
365.164686
 40
0.5
 50
0.0
 51
90.0
  0
LINE
  8
M0
 62
     7
 10
119.105562
 20
358.514686
 11
119.105562
 21
365.164686
  0
ARC
  8
M0
 62
     7
 10
118.605562
 20
358.514686
 40
0.5
 50
270.0
 51
360.0
  0
LINE
  8
M0
 62
     7
 10
111.955562
 20
358.014686
 11
118.605562
 21
358.014686
  0
LINE
  8
M0
 62
     7
 10
111.455562
 20
365.164686
 11
111.455562
 21
358.514686
  0
ARC
  8
M0
 62
     7
 10
111.955562
 20
365.164686
 40
0.5
 50
90.0
 51
180.0
  0
ARC
  8
M0
 62
     7
 10
111.955562
 20
358.514686
 40
0.5
 50
180.0
 51
270.0
  0
CIRCLE
  8
M0
  6
DASHED
 62
     7
 10
64.880563
 20
361.839686
 40
3.0
  0
LINE
  8
M0
  6
DASHED
 62
     7
 10
66.471146
 20
360.249042
 11
63.289506
 21
363.430804
  0
LINE
  8
M0
  6
DASHED
 62
     7
 10
66.294389
 20
362.193378
 11
64.52681
 21
360.425799
  0
LINE
  8
M0
  6
DASHED
 62
     7
 10
65.233842
 20
363.254047
 11
63.466264
 21
361.486346
  0
LINE
  8
M0
  6
DASHED
 62
     7
 10
68.205563
 20
365.664686
 11
61.555563
 21
365.664686
  0
ARC
  8
M0
  6
DASHED
 62
     7
 10
68.205563
 20
365.164686
 40
0.5
 50
0.0
 51
90.0
  0
LINE
  8
M0
  6
DASHED
 62
     7
 10
68.705563
 20
358.514686
 11
68.705563
 21
365.164686
  0
ARC
  8
M0
  6
DASHED
 62
     7
 10
68.205563
 20
358.514686
 40
0.5
 50
270.0
 51
360.0
  0
LINE
  8
M0
  6
DASHED
 62
     7
 10
61.555563
 20
358.014686
 11
68.205563
 21
358.014686
  0
LINE
  8
M0
  6
DASHED
 62
     7
 10
61.055563
 20
365.164686
 11
61.055563
 21
358.514686
  0
ARC
  8
M0
  6
DASHED
 62
     7
 10
61.555563
 20
365.164686
 40
0.5
 50
90.0
 51
180.0
  0
ARC
  8
M0
  6
DASHED
 62
     7
 10
61.555563
 20
358.514686
 40
0.5
 50
180.0
 51
270.0
  0
CIRCLE
  8
M0
 62
     7
 10
115.280562
 20
320.039686
 40
3.0
  0
LINE
  8
M0
 62
     7
 10
116.871146
 20
318.449042
 11
113.689506
 21
321.630804
  0
LINE
  8
M0
 62
     7
 10
116.694388
 20
320.393378
 11
114.92681
 21
318.625799
  0
LINE
  8
M0
 62
     7
 10
115.633841
 20
321.454047
 11
113.866263
 21
319.686346
  0
LINE
  8
M0
 62
     7
 10
118.605562
 20
323.864686
 11
111.955562
 21
323.864686
  0
ARC
  8
M0
 62
     7
 10
118.605562
 20
323.364686
 40
0.5
 50
0.0
 51
90.0
  0
LINE
  8
M0
 62
     7
 10
119.105562
 20
316.714686
 11
119.105562
 21
323.364686
  0
ARC
  8
M0
 62
     7
 10
118.605562
 20
316.714686
 40
0.5
 50
270.0
 51
360.0
  0
LINE
  8
M0
 62
     7
 10
111.955562
 20
316.214686
 11
118.605562
 21
316.214686
  0
LINE
  8
M0
 62
     7
 10
111.455562
 20
323.364686
 11
111.455562
 21
316.714686
  0
ARC
  8
M0
 62
     7
 10
111.955562
 20
323.364686
 40
0.5
 50
90.0
 51
180.0
  0
ARC
  8
M0
 62
     7
 10
111.955562
 20
316.714686
 40
0.5
 50
180.0
 51
270.0
  0
LINE
  8
M0
 10
110.080676
 20
291.289687
 11
114.080676
 21
291.289687
  0
LINE
  8
M0
 10
114.080676
 20
291.289687
 11
114.080676
 21
294.089686
  0
LINE
  8
M0
 10
114.080676
 20
294.089686
 11
110.080676
 21
294.089686
  0
LINE
  8
M0
 10
110.080676
 20
294.089686
 11
110.080676
 21
291.289687
  0
LINE
  8
M0
 62
     2
 10
78.769717
 20
287.900532
 11
80.614565
 21
286.055699
  0
LINE
  8
M0
 62
     2
 10
80.741442
 20
288.657643
 11
78.166369
 21
286.08257
  0
LINE
  8
M0
 62
     2
 10
81.44855
 20
287.950535
 11
78.873477
 21
285.375462
  0
CIRCLE
  8
M0
 62
     2
 10
79.730593
 20
286.939686
 40
3.499993
  0
LINE
  8
M0
  6
DASHDOT
 62
     2
 10
79.230593
 20
286.939686
 11
80.230593
 21
286.939686
  0
LINE
  8
M0
  6
DASHDOT
 62
     2
 10
79.730593
 20
286.439686
 11
79.730593
 21
287.439686
  0
CIRCLE
  8
M0
  6
DASHED
 62
     7
 10
64.880563
 20
320.039686
 40
3.0
  0
LINE
  8
M0
  6
DASHED
 62
     7
 10
66.471146
 20
318.449042
 11
63.289506
 21
321.630804
  0
LINE
  8
M0
  6
DASHED
 62
     7
 10
66.294389
 20
320.393378
 11
64.526811
 21
318.625799
  0
LINE
  8
M0
  6
DASHED
 62
     7
 10
65.233842
 20
321.454047
 11
63.466264
 21
319.686346
  0
LINE
  8
M0
  6
DASHED
 62
     7
 10
68.205563
 20
323.864686
 11
61.555563
 21
323.864686
  0
ARC
  8
M0
  6
DASHED
 62
     7
 10
68.205563
 20
323.364686
 40
0.5
 50
0.0
 51
90.0
  0
LINE
  8
M0
  6
DASHED
 62
     7
 10
68.705563
 20
316.714686
 11
68.705563
 21
323.364686
  0
ARC
  8
M0
  6
DASHED
 62
     7
 10
68.205563
 20
316.714686
 40
0.5
 50
270.0
 51
360.0
  0
LINE
  8
M0
  6
DASHED
 62
     7
 10
61.555563
 20
316.214686
 11
68.205563
 21
316.214686
  0
LINE
  8
M0
  6
DASHED
 62
     7
 10
61.055563
 20
323.364686
 11
61.055563
 21
316.714686
  0
ARC
  8
M0
  6
DASHED
 62
     7
 10
61.555563
 20
323.364686
 40
0.5
 50
90.0
 51
180.0
  0
ARC
  8
M0
  6
DASHED
 62
     7
 10
61.555563
 20
316.714686
 40
0.5
 50
180.0
 51
270.0
  0
CIRCLE
  8
M0
  6
DASHED
 62
     7
 10
64.880563
 20
327.639686
 40
3.0
  0
LINE
  8
M0
  6
DASHED
 62
     7
 10
66.471146
 20
326.049042
 11
63.289506
 21
329.230804
  0
LINE
  8
M0
  6
DASHED
 62
     7
 10
66.294389
 20
327.993378
 11
64.526811
 21
326.225799
  0
LINE
  8
M0
  6
DASHED
 62
     7
 10
65.233842
 20
329.054047
 11
63.466264
 21
327.286346
  0
LINE
  8
M0
  6
DASHED
 62
     7
 10
68.205563
 20
331.464686
 11
61.555563
 21
331.464686
  0
ARC
  8
M0
  6
DASHED
 62
     7
 10
68.205563
 20
330.964686
 40
0.5
 50
0.0
 51
90.0
  0
LINE
  8
M0
  6
DASHED
 62
     7
 10
68.705563
 20
324.314686
 11
68.705563
 21
330.964686
  0
ARC
  8
M0
  6
DASHED
 62
     7
 10
68.205563
 20
324.314686
 40
0.5
 50
270.0
 51
360.0
  0
LINE
  8
M0
  6
DASHED
 62
     7
 10
61.555563
 20
323.814686
 11
68.205563
 21
323.814686
  0
LINE
  8
M0
  6
DASHED
 62
     7
 10
61.055563
 20
330.964686
 11
61.055563
 21
324.314686
  0
ARC
  8
M0
  6
DASHED
 62
     7
 10
61.555563
 20
330.964686
 40
0.5
 50
90.0
 51
180.0
  0
ARC
  8
M0
  6
DASHED
 62
     7
 10
61.555563
 20
324.314686
 40
0.5
 50
180.0
 51
270.0
  0
CIRCLE
  8
M0
 62
     7
 10
100.980563
 20
379.539686
 40
3.0
  0
LINE
  8
M0
 62
     7
 10
102.571146
 20
377.949042
 11
99.389506
 21
381.130804
  0
LINE
  8
M0
 62
     7
 10
102.394389
 20
379.893378
 11
100.626811
 21
378.125799
  0
LINE
  8
M0
 62
     7
 10
101.333842
 20
380.954047
 11
99.566264
 21
379.186346
  0
LINE
  8
M0
 62
     7
 10
104.305563
 20
383.364686
 11
97.655563
 21
383.364686
  0
ARC
  8
M0
 62
     7
 10
104.305563
 20
382.864686
 40
0.5
 50
0.0
 51
90.0
  0
LINE
  8
M0
 62
     7
 10
104.805563
 20
376.214686
 11
104.805563
 21
382.864686
  0
ARC
  8
M0
 62
     7
 10
104.305563
 20
376.214686
 40
0.5
 50
270.0
 51
360.0
  0
LINE
  8
M0
 62
     7
 10
97.655563
 20
375.714686
 11
104.305563
 21
375.714686
  0
LINE
  8
M0
 62
     7
 10
97.155563
 20
382.864686
 11
97.155563
 21
376.214686
  0
ARC
  8
M0
 62
     7
 10
97.655563
 20
382.864686
 40
0.5
 50
90.0
 51
180.0
  0
ARC
  8
M0
 62
     7
 10
97.655563
 20
376.214686
 40
0.5
 50
180.0
 51
270.0
  0
CIRCLE
  8
M0
 62
     7
 10
115.280562
 20
354.239686
 40
3.0
  0
LINE
  8
M0
 62
     7
 10
116.871146
 20
352.649042
 11
113.689506
 21
355.830804
  0
LINE
  8
M0
 62
     7
 10
116.694388
 20
354.593378
 11
114.92681
 21
352.825799
  0
LINE
  8
M0
 62
     7
 10
115.633842
 20
355.654047
 11
113.866263
 21
353.886346
  0
LINE
  8
M0
 62
     7
 10
118.605562
 20
358.064686
 11
111.955562
 21
358.064686
  0
ARC
  8
M0
 62
     7
 10
118.605562
 20
357.564686
 40
0.5
 50
0.0
 51
90.0
  0
LINE
  8
M0
 62
     7
 10
119.105562
 20
350.914686
 11
119.105562
 21
357.564686
  0
ARC
  8
M0
 62
     7
 10
118.605562
 20
350.914686
 40
0.5
 50
270.0
 51
360.0
  0
LINE
  8
M0
 62
     7
 10
111.955562
 20
350.414686
 11
118.605562
 21
350.414686
  0
LINE
  8
M0
 62
     7
 10
111.455562
 20
357.564686
 11
111.455562
 21
350.914686
  0
ARC
  8
M0
 62
     7
 10
111.955562
 20
357.564686
 40
0.5
 50
90.0
 51
180.0
  0
ARC
  8
M0
 62
     7
 10
111.955562
 20
350.914686
 40
0.5
 50
180.0
 51
270.0
  0
LINE
  8
M0
 10
276.177209
 20
260.944064
 11
276.177209
 21
297.940921
  0
LINE
  8
M0
 10
273.180627
 20
294.944049
 11
201.177209
 21
294.944084
  0
LINE
  8
M0
 10
213.677361
 20
273.941913
 11
213.677361
 21
294.944049
  0
LINE
  8
M0
 10
227.477166
 20
297.944049
 11
214.476922
 21
297.944034
  0
LINE
  8
M0
 10
276.177209
 20
260.944064
 11
268.677209
 21
260.944064
  0
LINE
  8
M0
 10
247.622033
 20
253.444019
 11
263.192834
 21
253.444019
  0
ARC
  8
M0
 10
227.477166
 20
295.944049
 40
1.999998
 50
14.479306
 51
89.999563
  0
LINE
  8
M0
 10
212.876931
 20
297.944034
 11
204.177193
 21
297.944019
  0
LINE
  8
M0
 10
212.876931
 20
305.439685
 11
212.876931
 21
294.944078
  0
LINE
  8
M0
 10
214.476922
 20
305.439685
 11
214.476922
 21
294.944077
  0
LINE
  8
M0
 10
276.177071
 20
271.444049
 11
276.177071
 21
262.444049
  0
LINE
  8
M0
 10
276.177071
 20
294.944034
 11
276.177071
 21
276.444034
  0
LINE
  8
M0
 10
213.677361
 20
274.444034
 11
213.677361
 21
288.444034
  0
LINE
  8
M0
 10
213.677361
 20
288.444034
 11
213.477151
 21
288.444019
  0
LINE
  8
M0
  6
DASHED
 10
223.177148
 20
268.255847
 11
223.177148
 21
272.432147
  0
LINE
  8
M0
  6
DASHED
 10
224.177148
 20
268.255847
 11
224.177148
 21
272.432147
  0
LINE
  8
M0
 10
201.177209
 20
279.941882
 11
201.177209
 21
294.941745
  0
LINE
  8
M0
 10
220.024529
 20
260.444064
 11
244.212121
 21
260.444064
  0
LINE
  8
M0
 10
243.677209
 20
262.441592
 11
245.690392
 21
254.926547
  0
ARC
  8
M0
 10
247.622033
 20
255.444019
 40
2.0
 50
194.996439
 51
270.0
  0
LINE
  8
M0
 10
268.677209
 20
260.944064
 11
264.925011
 21
254.44408
  0
ARC
  8
M0
 10
263.192834
 20
255.444019
 40
2.0
 50
269.999563
 51
330.003375
  0
ARC
  8
M0
 10
246.550988
 20
259.441654
 40
2.0
 50
194.99554
 51
270.0
  0
LINE
  8
M0
 10
251.177209
 20
257.441638
 11
254.176964
 21
255.441638
  0
LINE
  8
M0
 10
214.677327
 20
273.94191
 11
217.69822
 21
262.667621
  0
ARC
  8
M0
 10
220.595986
 20
263.444064
 40
3.0
 50
194.999804
 51
270.0
  0
LINE
  8
M0
 10
208.391139
 20
273.144011
 11
210.796899
 21
264.165439
  0
ARC
  8
M0
 10
213.694665
 20
264.941882
 40
3.0
 50
194.999804
 51
270.0
  0
LINE
  8
M0
 10
273.177209
 20
257.444049
 11
273.177209
 21
260.944049
  0
LINE
  8
M0
 10
265.50216
 20
255.444064
 11
271.177209
 21
255.444064
  0
ARC
  8
M0
 10
271.177209
 20
257.444064
 40
2.0
 50
269.999563
 51
360.0
  0
LINE
  8
M0
 10
212.033059
 20
262.444064
 11
208.167672
 21
262.444049
  0
ARC
  8
M0
 10
204.177209
 20
294.944019
 40
3.0
 50
89.999709
 51
179.999709
  0
LINE
  8
M0
 10
221.177361
 20
292.944049
 11
221.177361
 21
294.244006
  0
LINE
  8
M0
 10
224.377358
 20
292.944049
 11
224.377358
 21
294.244022
  0
LINE
  8
M0
 10
221.177361
 20
292.944049
 11
224.377358
 21
292.944049
  0
ARC
  8
M0
 10
225.077355
 20
294.244022
 40
0.7
 50
89.998751
 51
179.998751
  0
ARC
  8
M0
 10
220.477349
 20
294.244022
 40
0.7
 50
0.0
 51
89.998751
  0
LINE
  8
M0
 10
201.177361
 20
273.942172
 11
201.177361
 21
275.442157
  0
LINE
  8
M0
 10
202.177361
 20
292.444049
 11
211.677361
 21
292.444049
  0
LINE
  8
M0
 10
202.177361
 20
285.694064
 11
202.177361
 21
292.444049
  0
ARC
  8
M0
 10
203.177361
 20
285.694064
 40
1.0
 50
179.999126
 51
270.0
  0
ARC
  8
M0
 10
203.177331
 20
277.194064
 40
1.0
 50
89.999126
 51
179.999126
  0
LINE
  8
M0
 10
202.177361
 20
277.186252
 11
202.177361
 21
276.441898
  0
LINE
  8
M0
 10
215.677361
 20
273.941912
 11
215.677361
 21
294.944049
  0
LINE
  8
M0
 10
243.677453
 20
262.44176
 11
233.68174
 21
262.441806
  0
LINE
  8
M0
 10
230.681786
 20
264.441821
 11
233.681786
 21
262.441806
  0
LINE
  8
M0
 10
230.681771
 20
264.441837
 11
225.681771
 21
264.441867
  0
ARC
  8
M0
 10
225.681786
 20
267.441882
 40
3.0
 50
179.999709
 51
270.0
  0
LINE
  8
M0
 10
222.681786
 20
267.441913
 11
222.681878
 21
273.941943
  0
LINE
  8
M0
 10
222.681893
 20
273.941928
 11
210.677336
 21
273.941901
  0
LINE
  8
M0
 10
213.694741
 20
261.941913
 11
217.89277
 21
261.941913
  0
ARC
  8
M0
 10
208.167687
 20
265.444019
 40
3.0
 50
194.999804
 51
270.0
  0
LINE
  8
M0
 10
202.784854
 20
273.94206
 11
205.269936
 21
264.66756
  0
LINE
  8
M0
 10
206.777336
 20
276.441823
 11
202.153486
 21
276.441872
  0
LINE
  8
M0
 10
201.177254
 20
279.941837
 11
202.11506
 21
276.441867
  0
LINE
  8
M0
 10
206.777336
 20
273.941819
 11
201.177376
 21
273.942157
  0
LINE
  8
M0
 10
246.551232
 20
257.44176
 11
251.177209
 21
257.44173
  0
LINE
  8
M0
 10
254.176964
 20
255.441699
 11
264.34591
 21
255.441654
  0
ARC
  8
M0
 10
264.34591
 20
257.441654
 40
2.0
 50
269.992569
 51
329.999254
  0
LINE
  8
M0
 10
273.180627
 20
297.940967
 11
276.176964
 21
297.940906
  0
LINE
  8
M0
 10
273.180627
 20
297.940982
 11
273.180627
 21
294.944034
  0
LINE
  8
M0
 10
273.180382
 20
295.944064
 11
218.177346
 21
295.944064
  0
LINE
  8
M0
 10
218.177346
 20
295.944064
 11
218.177346
 21
294.941837
  0
LINE
  8
M0
 62
     7
 10
210.677336
 20
289.744011
 11
210.677336
 21
289.444011
  0
LINE
  8
M0
 62
     7
 10
207.977336
 20
286.948785
 11
207.977336
 21
285.076455
  0
LINE
  8
M0
 62
     7
 10
207.977336
 20
289.289626
 11
210.677336
 21
289.289626
  0
LINE
  8
M0
 62
     7
 10
207.977336
 20
289.744011
 11
207.977336
 21
289.289626
  0
LINE
  8
M0
 62
     7
 10
203.677346
 20
285.194011
 11
206.777336
 21
285.194011
  0
LINE
  8
M0
 62
     7
 10
206.777336
 20
289.744011
 11
206.777336
 21
273.144011
  0
LINE
  8
M0
 62
     7
 10
210.677336
 20
289.444011
 11
212.677336
 21
289.444011
  0
LINE
  8
M0
 62
     7
 10
207.977336
 20
288.906943
 11
210.677336
 21
288.906943
  0
LINE
  8
M0
 62
     7
 10
210.677336
 20
289.289626
 11
210.677336
 21
288.906943
  0
LINE
  8
M0
 62
     7
 10
207.977336
 20
286.948785
 11
210.677336
 21
286.948785
  0
LINE
  8
M0
 62
     7
 10
207.977336
 20
287.655892
 11
210.677336
 21
287.655892
  0
LINE
  8
M0
 62
     7
 10
207.977336
 20
284.152575
 11
210.677336
 21
284.152575
  0
LINE
  8
M0
 62
     7
 10
207.977336
 20
285.076455
 11
210.677336
 21
285.076455
  0
LINE
  8
M0
 62
     7
 10
210.677336
 20
287.655892
 11
210.677336
 21
286.948785
  0
LINE
  8
M0
 62
     7
 10
210.677336
 20
285.076455
 11
210.677336
 21
284.152575
  0
LINE
  8
M0
 62
     7
 10
207.977336
 20
288.906943
 11
207.977336
 21
287.655892
  0
LINE
  8
M0
 62
     7
 10
206.777336
 20
289.744011
 11
210.677336
 21
289.744011
  0
LINE
  8
M0
 62
     7
 10
207.977336
 20
284.152575
 11
207.977336
 21
281.944011
  0
LINE
  8
M0
 62
     7
 10
212.677336
 20
273.944011
 11
212.677336
 21
289.444011
  0
LINE
  8
M0
 62
     7
 10
213.677361
 20
288.944011
 11
212.677336
 21
288.944011
  0
LINE
  8
M0
 62
     7
 10
210.677336
 20
279.04987
 11
210.677336
 21
273.144011
  0
LINE
  8
M0
 62
     7
 10
207.977336
 20
280.944011
 11
207.977336
 21
278.735447
  0
LINE
  8
M0
 62
     7
 10
207.977336
 20
278.735447
 11
210.677336
 21
278.735447
  0
LINE
  8
M0
 62
     7
 10
207.977336
 20
277.811567
 11
210.677336
 21
277.811567
  0
LINE
  8
M0
 62
     7
 10
210.677336
 20
281.944011
 11
210.677336
 21
280.944011
  0
LINE
  8
M0
 62
     7
 10
207.977336
 20
281.944011
 11
210.677336
 21
281.944011
  0
LINE
  8
M0
 62
     7
 10
207.977336
 20
277.811567
 11
207.977336
 21
275.939237
  0
LINE
  8
M0
 62
     7
 10
207.977336
 20
280.944011
 11
210.677336
 21
280.944011
  0
LINE
  8
M0
 62
     7
 10
212.677336
 20
279.04987
 11
210.677336
 21
279.04987
  0
ARC
  8
M0
 62
     7
 10
203.677346
 20
284.694011
 40
0.5
 50
90.0
 51
179.998251
  0
LINE
  8
M0
 62
     7
 10
203.177346
 20
278.194011
 11
203.177346
 21
284.694011
  0
ARC
  8
M0
 62
     7
 10
203.677346
 20
278.194011
 40
0.5
 50
179.998251
 51
270.0
  0
LINE
  8
M0
 62
     7
 10
206.777336
 20
277.694011
 11
203.677346
 21
277.694011
  0
LINE
  8
M0
 62
     7
 10
207.977336
 20
275.23213
 11
210.677336
 21
275.23213
  0
LINE
  8
M0
 62
     7
 10
207.977336
 20
275.939237
 11
210.677336
 21
275.939237
  0
LINE
  8
M0
 62
     7
 10
207.977336
 20
273.981079
 11
210.677336
 21
273.981079
  0
LINE
  8
M0
 62
     7
 10
206.777336
 20
273.144011
 11
210.677336
 21
273.144011
  0
LINE
  8
M0
 62
     7
 10
207.977336
 20
273.598396
 11
210.677336
 21
273.598396
  0
LINE
  8
M0
 62
     7
 10
212.677336
 20
274.444011
 11
210.677336
 21
274.444011
  0
LINE
  8
M0
 10
214.476571
 20
299.944598
 11
214.47654
 21
299.69382
  0
LINE
  8
M0
 10
212.87658
 20
299.944568
 11
212.876549
 21
299.69382
  0
LINE
  8
M0
 62
     7
 10
202.177361
 20
281.944049
 11
202.177361
 21
279.944049
  0
LINE
  8
M0
 62
     7
 10
203.177346
 20
281.944049
 11
201.177361
 21
281.944049
  0
ARC
  8
M0
 62
     7
 10
202.177361
 20
293.444049
 40
1.0
 50
180.0
 51
270.0
  0
LINE
  8
M0
 62
     7
 10
203.177346
 20
279.944049
 11
201.177361
 21
279.944049
  0
ARC
  8
M0
 62
     7
 10
202.177361
 20
275.442157
 40
1.0
 50
90.0
 51
180.0
  0
LINE
  8
M0
 62
     7
 10
213.677361
 20
290.444049
 11
206.677361
 21
290.444049
  0
LINE
  8
M0
 62
     7
 10
206.677361
 20
292.444049
 11
206.677361
 21
290.444049
  0
LINE
  8
M0
 62
     7
 10
211.677361
 20
293.794049
 11
213.677361
 21
293.794049
  0
LINE
  8
M0
 62
     7
 10
211.677361
 20
293.794049
 11
211.677361
 21
291.494049
  0
LINE
  8
M0
 62
     7
 10
211.677361
 20
291.494049
 11
213.677361
 21
291.494049
  0
ARC
  8
M0
 62
     7
 10
78.105563
 20
309.464686
 40
0.725
 50
256.677021
 51
270.0
  0
ARC
  8
M0
 62
     7
 10
78.105563
 20
307.414686
 40
0.725
 50
90.0
 51
123.683498
  0
LINE
  8
M0
 62
     7
 10
78.105563
 20
308.139686
 11
78.505563
 21
308.139686
  0
LINE
  8
M0
 62
     7
 10
78.105563
 20
308.739686
 11
78.505563
 21
308.739686
  0
LINE
  8
M0
 62
     7
 10
78.505563
 20
308.739686
 11
78.505563
 21
308.139686
  0
ARC
  8
M0
 62
     7
 10
77.080563
 20
308.439686
 40
2.75
 50
269.031179
 51
417.203183
  0
SOLID
  8
M0
 62
     7
 10
191.676827
 20
384.939686
 11
189.676827
 21
384.939686
 12
191.676827
 22
366.739686
 13
189.676827
 23
366.739686
  0
ARC
  8
M0
 62
     6
 10
114.731799
 20
262.439442
 40
2.999997
 50
115.844051
 51
424.156194
  0
LINE
  8
M0
 62
     6
 10
111.63431
 20
265.937245
 11
110.956652
 21
263.739491
  0
LINE
  8
M0
 62
     6
 10
111.772814
 20
258.492192
 11
110.956652
 21
261.139516
  0
LINE
  8
M0
 62
     6
 10
117.827624
 20
265.941395
 11
118.506701
 21
263.739491
  0
LINE
  8
M0
 62
     6
 10
117.690295
 20
258.492177
 11
118.506701
 21
261.139516
  0
LINE
  8
M0
 62
     6
 10
112.250842
 20
258.139516
 11
117.212512
 21
258.139516
  0
LINE
  8
M0
 62
     6
 10
118.506701
 20
261.139516
 11
118.506701
 21
263.739491
  0
LINE
  8
M0
 62
     6
 10
110.956652
 20
263.739491
 11
110.956652
 21
261.139516
  0
LINE
  8
M0
 62
     6
 10
116.322375
 20
260.848622
 11
113.140734
 21
264.030385
  0
LINE
  8
M0
 62
     6
 10
115.08507
 20
263.853627
 11
113.317492
 21
262.085927
  0
LINE
  8
M0
 62
     6
 10
116.145617
 20
262.792958
 11
114.378039
 21
261.02538
  0
ARC
  8
M0
 62
     6
 10
112.250842
 20
258.639516
 40
0.5
 50
197.128737
 51
270.0
  0
ARC
  8
M0
 62
     6
 10
117.212512
 20
258.639516
 40
0.5
 50
270.0
 51
342.861308
  0
LINE
  8
M0
  6
DASHDOT
 62
     6
 10
114.231799
 20
262.439442
 11
115.231799
 21
262.439442
  0
LINE
  8
M0
  6
DASHDOT
 62
     6
 10
114.731799
 20
261.939442
 11
114.731799
 21
262.939442
  0
LINE
  8
M0
  6
DASHED
 62
     7
 10
165.376829
 20
342.23968
 11
165.376829
 21
339.43968
  0
LINE
  8
M0
  6
DASHED
 62
     7
 10
165.376829
 20
342.23968
 11
166.976829
 21
342.23968
  0
LINE
  8
M0
  6
DASHED
 62
     7
 10
166.976829
 20
339.43968
 11
165.376829
 21
339.43968
  0
LINE
  8
M0
  6
DASHED
 62
     7
 10
200.476829
 20
358.639674
 11
191.076829
 21
358.639674
  0
LINE
  8
M0
  6
DASHED
 62
     7
 10
200.476829
 20
323.239686
 11
195.676828
 21
323.239686
  0
LINE
  8
M0
  6
DASHED
 62
     7
 10
166.976829
 20
321.53968
 11
166.976829
 21
360.33968
  0
ARC
  8
M0
  6
DASHED
 62
     7
 10
170.976829
 20
321.53968
 40
4.0
 50
180.0
 51
270.0
  0
ARC
  8
M0
  6
DASHED
 62
     7
 10
186.076829
 20
322.53968
 40
5.0
 50
270.0
 51
360.0
  0
ARC
  8
M0
  6
DASHED
 62
     7
 10
200.476829
 20
323.739686
 40
0.5
 50
270.0
 51
360.0
  0
ARC
  8
M0
  6
DASHED
 62
     7
 10
170.976829
 20
360.33968
 40
4.0
 50
90.0
 51
180.0
  0
ARC
  8
M0
  6
DASHED
 62
     7
 10
186.076829
 20
359.33968
 40
5.0
 50
0.0
 51
90.0
  0
ARC
  8
M0
  6
DASHED
 62
     7
 10
200.476829
 20
358.139674
 40
0.5
 50
0.0
 51
90.0
  0
LINE
  8
M0
  6
DASHED
 62
     7
 10
191.076829
 20
358.639674
 11
191.076829
 21
359.33968
  0
LINE
  8
M0
  6
DASHED
 62
     7
 10
186.076829
 20
364.339681
 11
170.976828
 21
364.339681
  0
LINE
  8
M0
  6
DASHED
 62
     7
 10
198.876828
 20
358.639674
 11
198.876828
 21
360.639679
  0
LINE
  8
M0
  6
DASHED
 62
     7
 10
199.276829
 20
360.639679
 11
199.87683
 21
358.639674
  0
LINE
  8
M0
  6
DASHED
 62
     7
 10
198.876828
 20
360.639679
 11
199.276829
 21
360.639679
  0
LINE
  8
M0
  6
DASHED
 62
     7
 10
200.476829
 20
323.239686
 11
191.076829
 21
323.239686
  0
LINE
  8
M0
  6
DASHED
 62
     7
 10
191.076829
 20
323.239686
 11
191.076829
 21
322.53968
  0
LINE
  8
M0
  6
DASHED
 62
     7
 10
186.076829
 20
317.53968
 11
170.976828
 21
317.53968
  0
LINE
  8
M0
 62
     7
 10
121.731761
 20
295.937964
 11
95.224753
 21
295.937964
  0
LINE
  8
M0
 62
     7
 10
90.824988
 20
295.937964
 11
87.231792
 21
295.937964
  0
LINE
  8
M0
 62
     7
 10
103.383148
 20
294.937965
 11
103.383148
 21
292.637965
  0
LINE
  8
M0
 62
     7
 10
106.583148
 20
292.637965
 11
103.383148
 21
292.637965
  0
LINE
  8
M0
 62
     7
 10
106.583148
 20
292.637965
 11
106.583148
 21
290.437965
  0
ARC
  8
M0
 62
   154
 10
101.430559
 20
295.439686
 40
9.0
 50
120.042201
 51
160.747898
  0
ARC
  8
M0
 62
   154
 10
93.880559
 20
307.939686
 40
9.0
 50
300.042201
 51
340.747898
  0
LINE
  8
M0
 62
   154
 10
104.646461
 20
311.469412
 11
102.377252
 21
304.972159
  0
LINE
  8
M0
 62
   154
 10
96.92482
 20
303.230599
 11
98.432281
 21
304.102413
  0
LINE
  8
M0
 62
   154
 10
96.878838
 20
299.27696
 11
98.386299
 21
300.148774
  0
LINE
  8
M0
 62
   154
 10
90.664657
 20
291.909961
 11
92.933867
 21
298.407214
  0
ARC
  8
M0
 62
   154
 10
97.080559
 20
306.439686
 40
2.7
 50
300.042201
 51
351.333467
  0
ARC
  8
M0
 62
   154
 10
98.230559
 20
296.939686
 40
2.7
 50
120.042201
 51
171.333467
  0
ARC
  8
M0
 62
   154
 10
99.749381
 20
311.339686
 40
0.8
 50
351.333467
 51
450.0
  0
LINE
  8
M0
 62
   154
 10
100.540246
 20
311.21914
 11
99.749731
 21
306.032841
  0
LINE
  8
M0
 62
   154
 10
94.770873
 20
292.160233
 11
95.561388
 21
297.346532
  0
LINE
  8
M0
 62
   154
 10
105.590538
 20
312.139686
 11
106.280559
 21
312.139686
  0
LINE
  8
M0
 62
   154
 10
99.749381
 20
312.139686
 11
99.380559
 21
312.139686
  0
ARC
  8
M0
 62
   154
 10
105.590538
 20
311.139686
 40
1.0
 50
90.0
 51
160.747898
  0
ARC
  8
M0
 62
   154
 10
95.561738
 20
292.039686
 40
0.8
 50
171.333467
 51
270.0
  0
LINE
  8
M0
 62
   154
 10
95.561738
 20
291.239686
 11
95.930559
 21
291.239686
  0
LINE
  8
M0
 62
   154
 10
89.720581
 20
291.239686
 11
89.030559
 21
291.239686
  0
ARC
  8
M0
 62
   154
 10
89.720581
 20
292.239686
 40
1.0
 50
270.0
 51
340.747898
  0
ARC
  8
M0
 62
   154
 10
89.030559
 20
290.239686
 40
1.0
 50
90.0
 51
180.0
  0
ARC
  8
M0
 62
   154
 10
106.280559
 20
313.139686
 40
1.0
 50
270.0
 51
360.0
  0
LINE
  8
M0
 62
   154
 10
107.280559
 20
320.339686
 11
107.280559
 21
313.139686
  0
LINE
  8
M0
 62
   154
 10
98.880559
 20
320.339686
 11
98.880559
 21
312.639686
  0
LINE
  8
M0
 62
   154
 10
99.880559
 20
321.339686
 11
106.280559
 21
321.339686
  0
ARC
  8
M0
 62
   154
 10
99.380559
 20
312.639686
 40
0.5
 50
180.0
 51
270.0
  0
ARC
  8
M0
 62
   154
 10
95.930559
 20
290.739686
 40
0.5
 50
0.0
 51
90.0
  0
LINE
  8
M0
 62
   154
 10
96.430559
 20
283.039686
 11
96.430559
 21
290.739686
  0
LINE
  8
M0
 62
   154
 10
88.030559
 20
283.039686
 11
88.030559
 21
290.239686
  0
LINE
  8
M0
 62
   154
 10
95.430559
 20
282.039686
 11
89.030559
 21
282.039686
  0
ARC
  8
M0
 62
   154
 10
89.030559
 20
283.039686
 40
1.0
 50
180.0
 51
270.0
  0
ARC
  8
M0
 62
   154
 10
95.430559
 20
283.039686
 40
1.0
 50
270.0
 51
360.0
  0
ARC
  8
M0
 62
   154
 10
99.880559
 20
320.339686
 40
1.0
 50
90.0
 51
180.0
  0
ARC
  8
M0
 62
   154
 10
106.280559
 20
320.339686
 40
1.0
 50
6.513776E-012
 51
90.0
  0
LINE
  8
M0
 62
     2
 10
78.769732
 20
273.400532
 11
80.614581
 21
271.555699
  0
LINE
  8
M0
 62
     2
 10
80.741457
 20
274.157643
 11
78.166384
 21
271.58257
  0
LINE
  8
M0
 62
     2
 10
81.448565
 20
273.450535
 11
78.873492
 21
270.875462
  0
LINE
  8
M0
 62
     2
 10
76.630602
 20
267.639683
 11
82.830599
 21
267.639683
  0
LINE
  8
M0
 62
     2
 10
83.830599
 20
268.639668
 11
83.830599
 21
276.239644
  0
LINE
  8
M0
 62
     2
 10
75.630602
 20
276.239659
 11
75.630602
 21
268.639683
  0
CIRCLE
  8
M0
 62
     2
 10
79.730608
 20
272.439686
 40
3.499993
  0
ARC
  8
M0
 62
     2
 10
82.830599
 20
268.639683
 40
1.0
 50
270.0
 51
360.0
  0
ARC
  8
M0
 62
     2
 10
82.830599
 20
276.239491
 40
1.0
 50
0.0
 51
90.0
  0
ARC
  8
M0
 62
     2
 10
76.630602
 20
276.239491
 40
1.0
 50
90.0
 51
180.0
  0
ARC
  8
M0
 62
     2
 10
76.630602
 20
268.639683
 40
1.0
 50
179.999945
 51
270.0
  0
LINE
  8
M0
 62
     2
 10
76.630602
 20
277.239674
 11
82.830599
 21
277.239674
  0
LINE
  8
M0
 62
     2
 10
64.130617
 20
267.639683
 11
70.330614
 21
267.639683
  0
LINE
  8
M0
  6
DASHDOT
 62
     2
 10
79.230608
 20
272.439686
 11
80.230608
 21
272.439686
  0
LINE
  8
M0
  6
DASHDOT
 62
     2
 10
79.730608
 20
271.939686
 11
79.730608
 21
272.939686
  0
ARC
  8
M0
 62
   154
 10
76.192377
 20
295.395382
 40
9.0
 50
122.042201
 51
162.747898
  0
ARC
  8
M0
 62
   154
 10
68.210732
 20
307.624276
 40
9.0
 50
302.042201
 51
342.747898
  0
LINE
  8
M0
 62
   154
 10
78.84689
 20
311.527576
 11
76.805814
 21
304.955087
  0
LINE
  8
M0
 62
   154
 10
71.417483
 20
303.0243
 11
72.8936
 21
303.948193
  0
LINE
  8
M0
 62
   154
 10
71.509509
 20
299.071466
 11
72.985626
 21
299.995358
  0
LINE
  8
M0
 62
   154
 10
65.556219
 20
291.492083
 11
67.597295
 21
298.064572
  0
ARC
  8
M0
 62
   154
 10
71.461132
 20
306.236869
 40
2.7
 50
302.042201
 51
353.333467
  0
ARC
  8
M0
 62
   154
 10
72.941977
 20
296.78279
 40
2.7
 50
122.042201
 51
173.333467
  0
ARC
  8
M0
 62
   154
 10
73.95732
 20
311.227024
 40
0.8
 50
353.333467
 51
452.0
  0
LINE
  8
M0
 62
   154
 10
74.751911
 20
311.134152
 11
74.142877
 21
305.923424
  0
LINE
  8
M0
 62
   154
 10
69.651198
 20
291.885507
 11
70.260233
 21
297.096235
  0
LINE
  8
M0
 62
   154
 10
79.767
 20
312.23039
 11
80.456601
 21
312.254472
  0
LINE
  8
M0
 62
   154
 10
73.929401
 20
312.026537
 11
73.560804
 21
312.013665
  0
ARC
  8
M0
 62
   154
 10
79.8019
 20
311.230999
 40
1.0
 50
92.0
 51
162.747898
  0
ARC
  8
M0
 62
   154
 10
70.445789
 20
291.792635
 40
0.8
 50
173.333467
 51
272.0
  0
LINE
  8
M0
 62
   154
 10
70.473709
 20
290.993122
 11
70.842305
 21
291.005994
  0
LINE
  8
M0
 62
   154
 10
64.636109
 20
290.789268
 11
63.946508
 21
290.765187
  0
ARC
  8
M0
 62
   154
 10
64.60121
 20
291.788659
 40
1.0
 50
272.0
 51
342.747898
  0
ARC
  8
M0
 62
   154
 10
63.981408
 20
289.765796
 40
1.0
 50
92.0
 51
182.0
  0
ARC
  8
M0
 62
   154
 10
80.421701
 20
313.253862
 40
1.0
 50
272.0
 51
362.0
  0
LINE
  8
M0
 62
   154
 10
81.169816
 20
320.484376
 11
81.421092
 21
313.288762
  0
LINE
  8
M0
 62
   154
 10
72.774933
 20
320.19122
 11
73.043659
 21
312.495911
  0
LINE
  8
M0
 62
   154
 10
73.739424
 20
321.22551
 11
80.135525
 21
321.448867
  0
ARC
  8
M0
 62
   154
 10
73.543354
 20
312.513361
 40
0.5
 50
182.0
 51
272.0
  0
ARC
  8
M0
 62
   154
 10
70.859755
 20
290.506298
 40
0.5
 50
2.0
 51
92.0
  0
LINE
  8
M0
 62
   154
 10
71.628176
 20
282.828439
 11
71.35945
 21
290.523748
  0
LINE
  8
M0
 62
   154
 10
63.233294
 20
282.535283
 11
62.982017
 21
289.730897
  0
ARC
  8
M0
 62
   154
 10
64.232684
 20
282.570182
 40
1.0
 50
182.0
 51
219.089724
  0
ARC
  8
M0
 62
   154
 10
70.628786
 20
282.793539
 40
1.0
 50
312.028533
 51
362.0
  0
ARC
  8
M0
 62
   154
 10
73.774324
 20
320.22612
 40
1.0
 50
92.0
 51
182.0
  0
ARC
  8
M0
 62
   154
 10
80.170425
 20
320.449476
 40
1.0
 50
2.0
 51
92.0
  0
ARC
  8
M0
 62
   234
 10
262.276827
 20
314.539685
 40
1.5
 50
90.0
 51
180.0
  0
ARC
  8
M0
 62
   234
 10
266.776827
 20
310.639685
 40
1.0
 50
90.0
 51
180.0
  0
ARC
  8
M0
 62
   234
 10
275.676827
 20
267.939685
 40
1.7
 50
287.113266
 51
360.0
  0
ARC
  8
M0
 62
   234
 10
262.276827
 20
297.939685
 40
1.5
 50
180.0
 51
270.0
  0
LINE
  8
M0
 62
   234
 10
277.376827
 20
296.439685
 11
276.176827
 21
296.439685
  0
LINE
  8
M0
 62
   234
 10
265.776827
 20
310.639685
 11
265.776827
 21
306.439685
  0
LINE
  8
M0
 62
   234
 10
266.776827
 20
305.439685
 11
277.376827
 21
305.439685
  0
LINE
  8
M0
 62
   234
 10
262.276827
 20
316.039685
 11
266.776827
 21
316.039685
  0
LINE
  8
M0
 62
   234
 10
277.376827
 20
305.439685
 11
277.376827
 21
267.939685
  0
LINE
  8
M0
 62
   234
 10
277.376827
 20
269.639685
 11
276.176827
 21
269.639685
  0
ARC
  8
M0
 62
   234
 10
266.776827
 20
306.439685
 40
1.0
 50
180.0
 51
270.0
  0
LINE
  8
M0
 62
   234
 10
260.776827
 20
297.939685
 11
260.776827
 21
314.539685
  0
LINE
  8
M0
 62
   234
 10
276.176827
 20
296.439685
 11
276.176827
 21
267.939685
  0
LINE
  8
M0
 62
   234
 10
273.180627
 20
296.439685
 11
262.276827
 21
296.439685
  0
LINE
  8
M0
 62
     2
 10
66.269732
 20
273.400532
 11
68.114581
 21
271.555699
  0
LINE
  8
M0
 62
     2
 10
68.241457
 20
274.157643
 11
65.666384
 21
271.58257
  0
LINE
  8
M0
 62
     2
 10
68.948565
 20
273.450535
 11
66.373492
 21
270.875462
  0
LINE
  8
M0
 62
     2
 10
71.330599
 20
268.639668
 11
71.330599
 21
276.239644
  0
LINE
  8
M0
 62
     2
 10
63.130602
 20
276.239659
 11
63.130602
 21
268.639683
  0
CIRCLE
  8
M0
 62
     2
 10
67.230608
 20
272.439686
 40
3.499993
  0
ARC
  8
M0
 62
     2
 10
70.330599
 20
268.639683
 40
1.0
 50
270.0
 51
360.0
  0
ARC
  8
M0
 62
     2
 10
70.330599
 20
276.239491
 40
1.0
 50
0.0
 51
90.0
  0
ARC
  8
M0
 62
     2
 10
64.130602
 20
276.239491
 40
1.0
 50
90.0
 51
180.0
  0
ARC
  8
M0
 62
     2
 10
64.130602
 20
268.639683
 40
1.0
 50
179.999945
 51
270.0
  0
LINE
  8
M0
 62
     2
 10
64.130602
 20
277.239674
 11
70.330599
 21
277.239674
  0
LINE
  8
M0
  6
DASHDOT
 62
     2
 10
66.730608
 20
272.439686
 11
67.730608
 21
272.439686
  0
LINE
  8
M0
  6
DASHDOT
 62
     2
 10
67.230608
 20
271.939686
 11
67.230608
 21
272.939686
  0
LINE
  8
M0
 62
     7
 10
201.976827
 20
338.439686
 11
201.976827
 21
337.439687
  0
LINE
  8
M0
 62
     7
 10
201.976827
 20
343.439686
 11
201.976827
 21
344.439686
  0
LINE
  8
M0
 62
     7
 10
273.976827
 20
323.939687
 11
275.476827
 21
323.939687
  0
LINE
  8
M0
 62
     7
 10
275.476827
 20
323.939687
 11
275.476827
 21
323.139687
  0
LINE
  8
M0
 62
     7
 10
277.176828
 20
305.439685
 11
267.776827
 21
305.439685
  0
LINE
  8
M0
 62
     7
 10
277.176828
 20
305.481431
 11
277.176828
 21
305.439685
  0
LINE
  8
M0
 62
     7
 10
201.976827
 20
337.439687
 11
200.976829
 21
337.439687
  0
LINE
  8
M0
 62
     7
 10
200.976829
 20
343.439686
 11
201.976827
 21
343.439686
  0
LINE
  8
M0
 62
     7
 10
201.976827
 20
337.439687
 11
202.476828
 21
337.439687
  0
LINE
  8
M0
 62
     7
 10
200.976829
 20
338.439686
 11
201.976827
 21
338.439686
  0
LINE
  8
M0
 62
     7
 10
201.976827
 20
344.439686
 11
200.976829
 21
344.439686
  0
LINE
  8
M0
 62
     7
 10
201.976827
 20
344.439686
 11
202.476828
 21
344.439686
  0
LINE
  8
M0
 62
     7
 10
202.476828
 20
338.439686
 11
201.976827
 21
338.439686
  0
ARC
  8
M0
 62
     7
 10
269.976827
 20
323.223459
 40
0.3
 50
0.0
 51
90.0
  0
ARC
  8
M0
 62
     7
 10
269.976827
 20
358.655914
 40
0.3
 50
270.0
 51
360.0
  0
ARC
  8
M0
 62
     7
 10
273.976827
 20
323.439686
 40
0.5
 50
90.0
 51
180.0
  0
ARC
  8
M0
 62
     7
 10
269.976827
 20
355.179131
 40
0.3
 50
0.0
 51
90.0
  0
ARC
  8
M0
 62
     7
 10
269.976827
 20
326.700242
 40
0.3
 50
270.0
 51
360.0
  0
LINE
  8
M0
 62
     7
 10
277.001357
 20
323.139085
 11
275.416827
 21
324.939686
  0
LINE
  8
M0
 62
     7
 10
274.276827
 20
325.439687
 11
274.976828
 21
325.439687
  0
LINE
  8
M0
 62
     7
 10
273.476826
 20
323.139687
 11
273.476826
 21
323.439686
  0
LINE
  8
M0
 62
     7
 10
277.476827
 20
322.639686
 11
277.476827
 21
305.939686
  0
LINE
  8
M0
 62
     7
 10
274.276827
 20
323.939687
 11
274.276827
 21
325.439687
  0
LINE
  8
M0
 62
     7
 10
200.976829
 20
352.939686
 11
197.676829
 21
352.939686
  0
LINE
  8
M0
 62
     7
 10
198.676827
 20
351.939686
 11
200.976829
 21
351.939686
  0
LINE
  8
M0
 62
     7
 10
200.976829
 20
328.939686
 11
198.676827
 21
328.939686
  0
ARC
  8
M0
 62
     7
 10
197.176827
 20
352.439686
 40
0.5
 50
90.0
 51
180.0
  0
ARC
  8
M0
 62
     7
 10
197.176827
 20
333.939686
 40
0.5
 50
90.0
 51
180.0
  0
LINE
  8
M0
 62
     7
 10
198.176826
 20
328.939686
 11
197.176828
 21
328.939686
  0
ARC
  8
M0
 62
     7
 10
231.576827
 20
306.439686
 40
1.0
 50
180.0
 51
270.0
  0
LINE
  8
M0
 62
     7
 10
225.676828
 20
308.439687
 11
230.576827
 21
308.439687
  0
LINE
  8
M0
 62
     7
 10
197.176828
 20
328.939686
 11
198.676827
 21
328.939686
  0
LINE
  8
M0
 62
     7
 10
198.676827
 20
328.939686
 11
198.676827
 21
329.939686
  0
LINE
  8
M0
 62
     7
 10
196.676827
 20
352.439686
 11
196.676827
 21
329.439686
  0
LINE
  8
M0
 62
     7
 10
198.676827
 20
333.439686
 11
198.676827
 21
334.439686
  0
LINE
  8
M0
 62
     7
 10
277.776827
 20
374.689686
 11
277.476827
 21
374.689686
  0
LINE
  8
M0
 62
     7
 10
277.476827
 20
365.189687
 11
277.776827
 21
365.189687
  0
LINE
  8
M0
 62
     7
 10
277.776827
 20
316.689686
 11
277.476827
 21
316.689686
  0
LINE
  8
M0
 62
     7
 10
277.476827
 20
307.189685
 11
277.776827
 21
307.189685
  0
LINE
  8
M0
 62
     7
 10
202.476828
 20
342.439687
 11
201.976827
 21
342.439687
  0
LINE
  8
M0
 62
     7
 10
202.476828
 20
343.439686
 11
201.976827
 21
343.439686
  0
LINE
  8
M0
 62
     7
 10
201.976827
 20
339.439687
 11
201.976827
 21
342.439687
  0
LINE
  8
M0
 62
     7
 10
201.976827
 20
339.439687
 11
202.476828
 21
339.439687
  0
POLYLINE
  8
M0
 62
     7
 66
     1
  0
VERTEX
  8
M0
 62
     7
 10
196.676827
 20
347.246793
  0
VERTEX
  8
M0
 62
     7
 10
196.684423
 20
347.21083
  0
VERTEX
  8
M0
 62
     7
 10
196.70698
 20
347.175959
  0
VERTEX
  8
M0
 62
     7
 10
196.743814
 20
347.14324
  0
VERTEX
  8
M0
 62
     7
 10
196.793805
 20
347.113668
  0
VERTEX
  8
M0
 62
     7
 10
196.855433
 20
347.08814
  0
VERTEX
  8
M0
 62
     7
 10
196.926827
 20
347.067433
  0
VERTEX
  8
M0
 62
     7
 10
197.005817
 20
347.052177
  0
VERTEX
  8
M0
 62
     7
 10
197.090003
 20
347.042833
  0
VERTEX
  8
M0
 62
     7
 10
197.176827
 20
347.039686
  0
SEQEND
  8
M0
 62
     7
  0
LINE
  8
M0
 62
     7
 10
254.476827
 20
358.355914
 11
269.976827
 21
358.355914
  0
ARC
  8
M0
 62
     7
 10
225.676827
 20
309.439686
 40
1.0
 50
237.247324
 51
270.0
  0
POLYLINE
  8
M0
 62
     7
 66
     1
  0
VERTEX
  8
M0
 62
     7
 10
196.676827
 20
345.746793
  0
VERTEX
  8
M0
 62
     7
 10
196.684423
 20
345.71083
  0
VERTEX
  8
M0
 62
     7
 10
196.70698
 20
345.675959
  0
VERTEX
  8
M0
 62
     7
 10
196.743814
 20
345.64324
  0
VERTEX
  8
M0
 62
     7
 10
196.793805
 20
345.613668
  0
VERTEX
  8
M0
 62
     7
 10
196.855433
 20
345.58814
  0
VERTEX
  8
M0
 62
     7
 10
196.926827
 20
345.567433
  0
VERTEX
  8
M0
 62
     7
 10
197.005817
 20
345.552177
  0
VERTEX
  8
M0
 62
     7
 10
197.090003
 20
345.542833
  0
VERTEX
  8
M0
 62
     7
 10
197.176827
 20
345.539686
  0
SEQEND
  8
M0
 62
     7
  0
LINE
  8
M0
 62
     7
 10
269.976827
 20
355.479131
 11
254.476827
 21
355.479131
  0
LINE
  8
M0
 62
     7
 10
254.476827
 20
326.400241
 11
269.976827
 21
326.400241
  0
LINE
  8
M0
 62
     7
 10
269.976827
 20
323.523459
 11
254.476827
 21
323.523459
  0
LINE
  8
M0
 62
     7
 10
226.776828
 20
373.939686
 11
226.776828
 21
371.939686
  0
LINE
  8
M0
 62
     7
 10
230.376827
 20
375.439687
 11
226.776828
 21
373.939686
  0
LINE
  8
M0
 62
     7
 10
230.576827
 20
374.439687
 11
227.776826
 21
373.273019
  0
LINE
  8
M0
 62
     7
 10
236.076827
 20
371.939686
 11
236.076827
 21
375.439687
  0
LINE
  8
M0
 62
     7
 10
230.376827
 20
375.439687
 11
230.376827
 21
384.439685
  0
LINE
  8
M0
 62
     7
 10
241.076827
 20
345.039686
 11
241.176827
 21
345.039686
  0
LINE
  8
M0
 62
     7
 10
236.076827
 20
375.439687
 11
230.376827
 21
375.439687
  0
LINE
  8
M0
 62
     7
 10
247.862613
 20
385.439687
 11
231.376827
 21
385.439687
  0
LINE
  8
M0
 62
     7
 10
235.076827
 20
374.439687
 11
230.576827
 21
374.439687
  0
LINE
  8
M0
 62
     7
 10
277.776827
 20
374.689686
 11
277.776827
 21
365.189687
  0
LINE
  8
M0
 62
     7
 10
227.776826
 20
372.939686
 11
235.076827
 21
372.939686
  0
LINE
  8
M0
 62
     7
 10
235.076827
 20
372.939686
 11
235.076827
 21
374.439687
  0
LINE
  8
M0
 62
     7
 10
227.776826
 20
373.273019
 11
227.776826
 21
372.939686
  0
LINE
  8
M0
 62
     7
 10
277.476827
 20
375.939686
 11
277.476827
 21
356.539686
  0
ARC
  8
M0
 62
     7
 10
247.862613
 20
384.439686
 40
1.0
 50
45.0
 51
90.0
  0
ARC
  8
M0
 62
     7
 10
231.376827
 20
384.439686
 40
1.0
 50
90.0
 51
180.0
  0
ARC
  8
M0
 62
     7
 10
252.276827
 20
380.025473
 40
1.0
 50
0.0
 51
45.0
  0
ARC
  8
M0
 62
     7
 10
233.876827
 20
382.439686
 40
3.0
 50
90.0
 51
180.0
  0
POLYLINE
  8
M0
 62
     7
 66
     1
  0
VERTEX
  8
M0
 62
     7
 10
253.015837
 20
371.939686
  0
VERTEX
  8
M0
 62
     7
 10
252.924723
 20
373.652047
  0
VERTEX
  8
M0
 62
     7
 10
252.826076
 20
374.81076
  0
VERTEX
  8
M0
 62
     7
 10
252.722895
 20
375.38062
  0
VERTEX
  8
M0
 62
     7
 10
252.676827
 20
375.439686
  0
SEQEND
  8
M0
 62
     7
  0
ARC
  8
M0
 62
     7
 10
203.276827
 20
344.239686
 40
1.0
 50
168.463041
 51
180.0
  0
ARC
  8
M0
 62
     7
 10
259.576827
 20
306.439686
 40
1.0
 50
270.0
 51
360.0
  0
LINE
  8
M0
 62
     7
 10
202.276828
 20
344.239686
 11
202.276828
 21
343.439686
  0
LINE
  8
M0
 62
     7
 10
202.276828
 20
338.439686
 11
202.276828
 21
337.439687
  0
LINE
  8
M0
 62
     7
 10
232.676827
 20
338.239686
 11
232.676827
 21
343.639686
  0
LINE
  8
M0
 62
     7
 10
229.176827
 20
343.639686
 11
229.176827
 21
338.239686
  0
ARC
  8
M0
 62
     7
 10
277.176827
 20
356.539686
 40
0.3
 50
270.0
 51
360.0
  0
LINE
  8
M0
 62
     7
 10
260.576827
 20
306.439687
 11
260.576827
 21
309.939687
  0
LINE
  8
M0
 62
     7
 10
242.576827
 20
306.439687
 11
242.576827
 21
305.439685
  0
LINE
  8
M0
 62
     7
 10
253.276827
 20
380.025473
 11
253.276827
 21
371.939686
  0
LINE
  8
M0
 62
     7
 10
236.176827
 20
375.439687
 11
231.476827
 21
375.439687
  0
LINE
  8
M0
 62
     7
 10
236.176827
 20
375.439687
 11
236.176827
 21
371.939686
  0
LINE
  8
M0
 62
     7
 10
252.676827
 20
375.439687
 11
236.176827
 21
375.439687
  0
LINE
  8
M0
 62
     7
 10
275.276827
 20
356.239686
 11
277.176828
 21
356.239686
  0
ARC
  8
M0
 62
     7
 10
276.976827
 20
322.639686
 40
0.5
 50
0.0
 51
90.0
  0
LINE
  8
M0
 62
     7
 10
242.576827
 20
351.039686
 11
242.576827
 21
371.939686
  0
ARC
  8
M0
 62
     7
 10
276.976827
 20
305.939686
 40
0.5
 50
270.0
 51
360.0
  0
ARC
  8
M0
 62
     7
 10
276.976827
 20
359.239686
 40
0.5
 50
270.0
 51
360.0
  0
LINE
  8
M0
 62
     7
 10
275.276827
 20
356.239686
 11
274.276827
 21
357.239687
  0
LINE
  8
M0
 62
     7
 10
274.276827
 20
357.239687
 11
274.276827
 21
358.739687
  0
ARC
  8
M0
 62
     7
 10
197.176827
 20
329.439686
 40
0.5
 50
180.0
 51
270.0
  0
LINE
  8
M0
 62
     7
 10
261.876827
 20
375.439687
 11
266.776827
 21
375.439687
  0
LINE
  8
M0
 62
     7
 10
253.276827
 20
380.025473
 11
253.276827
 21
377.889686
  0
LINE
  8
M0
 62
     7
 10
260.976827
 20
375.139686
 11
260.976827
 21
371.939686
  0
LINE
  8
M0
 62
     7
 10
273.276827
 20
356.239686
 11
273.276827
 21
358.739687
  0
LINE
  8
M0
 62
     7
 10
248.56972
 20
385.146794
 11
252.983934
 21
380.732578
  0
LINE
  8
M0
 62
     7
 10
260.976827
 20
375.139686
 11
260.976827
 21
375.439687
  0
LINE
  8
M0
 62
     7
 10
260.976827
 20
375.439687
 11
266.776827
 21
375.439687
  0
LINE
  8
M0
 62
     7
 10
277.476827
 20
374.939686
 11
277.476827
 21
374.389686
  0
LINE
  8
M0
 62
     7
 10
253.276827
 20
375.439687
 11
253.276827
 21
371.939686
  0
ARC
  8
M0
 62
     7
 10
222.876827
 20
365.639686
 40
3.0
 50
90.0
 51
180.0
  0
ARC
  8
M0
 62
     7
 10
222.876827
 20
316.239686
 40
3.0
 50
180.0
 51
270.0
  0
ARC
  8
M0
 62
     7
 10
233.834186
 20
365.639686
 40
3.0
 50
45.0
 51
90.0
  0
ARC
  8
M0
 62
     7
 10
233.834186
 20
316.239686
 40
3.0
 50
270.0
 51
315.0
  0
ARC
  8
M0
 62
     7
 10
203.976827
 20
358.039686
 40
3.0
 50
90.0
 51
180.0
  0
ARC
  8
M0
 62
     7
 10
202.476827
 20
336.239686
 40
1.0
 50
0.0
 51
90.0
  0
ARC
  8
M0
 62
     7
 10
216.876827
 20
364.039686
 40
3.0
 50
270.0
 51
360.0
  0
ARC
  8
M0
 62
     7
 10
216.876827
 20
317.839686
 40
3.0
 50
0.0
 51
90.0
  0
ARC
  8
M0
 62
     7
 10
228.976827
 20
343.139686
 40
0.5
 50
90.0
 51
180.0
  0
LINE
  8
M0
 62
     7
 10
202.976825
 20
321.011259
 11
202.976825
 21
308.439687
  0
ARC
  8
M0
 62
     7
 10
228.976827
 20
338.739686
 40
0.5
 50
180.0
 51
270.0
  0
LINE
  8
M0
 62
     7
 10
202.976825
 20
373.439687
 11
202.976825
 21
360.868114
  0
LINE
  8
M0
 62
     7
 10
242.576827
 20
356.039687
 11
249.976827
 21
356.039687
  0
LINE
  8
M0
 62
     7
 10
249.976827
 20
361.039686
 11
242.576827
 21
361.039686
  0
LINE
  8
M0
 62
     7
 10
242.576827
 20
351.039686
 11
241.676827
 21
351.039686
  0
LINE
  8
M0
 62
     7
 10
254.476827
 20
326.400241
 11
254.476827
 21
323.523459
  0
LINE
  8
M0
 62
     7
 10
254.476827
 20
358.355914
 11
254.476827
 21
355.479131
  0
LINE
  8
M0
 62
     7
 10
267.776827
 20
376.439687
 11
276.976826
 21
376.439687
  0
ARC
  8
M0
 62
     7
 10
201.976827
 20
345.639686
 40
1.0
 50
180.0
 51
270.0
  0
ARC
  8
M0
 62
     7
 10
220.734186
 20
308.439686
 40
3.0
 50
270.0
 51
315.0
  0
ARC
  8
M0
 62
     7
 10
203.976827
 20
323.839686
 40
3.0
 50
180.0
 51
270.0
  0
ARC
  8
M0
 62
     7
 10
201.976827
 20
336.239686
 40
1.0
 50
90.0
 51
180.0
  0
ARC
  8
M0
 62
     7
 10
205.976827
 20
308.439686
 40
3.0
 50
180.0
 51
270.0
  0
LINE
  8
M0
 62
     7
 10
270.276826
 20
323.139687
 11
276.976826
 21
323.139687
  0
ARC
  8
M0
 62
     7
 10
220.734186
 20
373.439686
 40
3.0
 50
45.0
 51
90.0
  0
ARC
  8
M0
 62
     7
 10
205.976827
 20
373.439686
 40
3.0
 50
90.0
 51
180.0
  0
ARC
  8
M0
 62
     7
 10
202.476827
 20
345.639686
 40
1.0
 50
270.0
 51
360.0
  0
LINE
  8
M0
 62
     7
 10
238.076827
 20
316.239687
 11
235.955506
 21
314.118365
  0
LINE
  8
M0
 62
     7
 10
203.476826
 20
336.239687
 11
203.476826
 21
345.639686
  0
LINE
  8
M0
 62
     7
 10
233.834186
 20
313.239687
 11
222.876827
 21
313.239687
  0
LINE
  8
M0
 62
     7
 10
219.876826
 20
364.039686
 11
219.876826
 21
365.639687
  0
LINE
  8
M0
 62
     7
 10
235.955506
 20
367.761007
 11
238.076827
 21
365.639687
  0
LINE
  8
M0
 62
     7
 10
222.876827
 20
368.639686
 11
233.834186
 21
368.639686
  0
LINE
  8
M0
 62
     7
 10
238.076827
 20
365.639687
 11
266.776827
 21
365.639687
  0
LINE
  8
M0
 62
     7
 10
228.476827
 20
343.139686
 11
228.476827
 21
338.739686
  0
LINE
  8
M0
 62
     7
 10
228.976828
 20
338.239686
 11
241.176827
 21
338.239686
  0
LINE
  8
M0
 62
     7
 10
241.176827
 20
343.639686
 11
228.976828
 21
343.639686
  0
LINE
  8
M0
 62
     7
 10
242.576827
 20
316.439687
 11
238.076827
 21
316.239687
  0
LINE
  8
M0
 62
     7
 10
266.776827
 20
371.939686
 11
226.476826
 21
371.939686
  0
LINE
  8
M0
 62
     7
 10
205.976828
 20
305.439685
 11
220.734187
 21
305.439685
  0
LINE
  8
M0
 62
     7
 10
220.734187
 20
376.439687
 11
205.976828
 21
376.439687
  0
LINE
  8
M0
 62
     7
 10
226.476826
 20
371.939686
 11
222.855507
 21
375.561007
  0
LINE
  8
M0
 62
     7
 10
222.855507
 20
306.318366
 11
226.476826
 21
309.939687
  0
LINE
  8
M0
 62
     7
 10
202.476828
 20
344.639686
 11
202.476828
 21
337.239687
  0
LINE
  8
M0
 62
     7
 10
201.976827
 20
344.639686
 11
202.476828
 21
344.639686
  0
LINE
  8
M0
 62
     7
 10
216.876828
 20
320.839687
 11
203.976827
 21
320.839687
  0
LINE
  8
M0
 62
     7
 10
203.976827
 20
361.039686
 11
216.876828
 21
361.039686
  0
LINE
  8
M0
 62
     7
 10
202.476828
 20
337.239687
 11
201.976827
 21
337.239687
  0
LINE
  8
M0
 62
     7
 10
200.976829
 20
323.839686
 11
200.976829
 21
358.039686
  0
ARC
  8
M0
 62
     7
 10
241.676827
 20
350.539686
 40
0.5
 50
90.0
 51
180.0
  0
ARC
  8
M0
 62
     7
 10
272.776827
 20
327.639686
 40
0.5
 50
270.0
 51
360.0
  0
ARC
  8
M0
 62
     7
 10
272.776827
 20
354.239686
 40
0.5
 50
0.0
 51
90.0
  0
ARC
  8
M0
 62
     7
 10
241.676827
 20
331.339686
 40
0.5
 50
180.0
 51
270.0
  0
LINE
  8
M0
 62
     7
 10
260.776827
 20
309.939687
 11
226.476826
 21
309.939687
  0
LINE
  8
M0
 62
     7
 10
265.776827
 20
309.939687
 11
265.776827
 21
310.439688
  0
LINE
  8
M0
 62
     7
 10
266.776827
 20
308.439687
 11
265.776827
 21
308.439687
  0
LINE
  8
M0
 62
     7
 10
265.776827
 20
308.939685
 11
265.776827
 21
309.939687
  0
LINE
  8
M0
 62
     7
 10
265.776827
 20
310.439688
 11
266.776827
 21
310.439688
  0
LINE
  8
M0
 62
     7
 10
277.476827
 20
367.489687
 11
277.476827
 21
365.339686
  0
LINE
  8
M0
 62
     7
 10
265.776827
 20
308.439687
 11
265.776827
 21
308.939685
  0
LINE
  8
M0
 62
     7
 10
273.576826
 20
353.239687
 11
273.576826
 21
355.239686
  0
LINE
  8
M0
 62
     7
 10
197.676829
 20
352.939686
 11
197.176828
 21
352.939686
  0
LINE
  8
M0
 62
     7
 10
197.176828
 20
345.539686
 11
198.676827
 21
345.539686
  0
LINE
  8
M0
 62
     7
 10
198.676827
 20
351.939686
 11
198.676827
 21
347.039686
  0
LINE
  8
M0
 62
     7
 10
198.676827
 20
347.039686
 11
197.176828
 21
347.039686
  0
LINE
  8
M0
 62
     7
 10
198.676827
 20
334.439686
 11
197.176828
 21
334.439686
  0
LINE
  8
M0
 62
     7
 10
230.876826
 20
375.439687
 11
230.876826
 21
382.439685
  0
LINE
  8
M0
 62
     7
 10
198.676827
 20
345.539686
 11
198.676827
 21
347.039686
  0
LINE
  8
M0
 62
     7
 10
198.676827
 20
333.439686
 11
198.676827
 21
329.939686
  0
LINE
  8
M0
 62
     7
 10
231.576827
 20
305.439685
 11
234.576826
 21
305.439685
  0
ARC
  8
M0
 62
     7
 10
267.776827
 20
306.439686
 40
1.0
 50
180.0
 51
270.0
  0
ARC
  8
M0
 62
     7
 10
276.976827
 20
375.939686
 40
0.5
 50
0.0
 51
90.0
  0
ARC
  8
M0
 62
     7
 10
267.776827
 20
375.439686
 40
1.0
 50
90.0
 51
180.0
  0
LINE
  8
M0
 62
     7
 10
242.576827
 20
305.439685
 11
242.576827
 21
330.839687
  0
LINE
  8
M0
 62
     7
 10
230.576827
 20
309.939687
 11
230.576827
 21
306.439687
  0
LINE
  8
M0
 62
     7
 10
231.576827
 20
305.439685
 11
259.576827
 21
305.439685
  0
LINE
  8
M0
 62
     7
 10
272.776828
 20
327.139686
 11
270.276826
 21
327.139686
  0
LINE
  8
M0
 62
     7
 10
270.276826
 20
354.739686
 11
272.776828
 21
354.739686
  0
LINE
  8
M0
 62
     7
 10
270.276826
 20
355.179132
 11
270.276826
 21
354.739686
  0
LINE
  8
M0
 62
     7
 10
270.276826
 20
327.139686
 11
270.276826
 21
326.700241
  0
LINE
  8
M0
 62
     7
 10
242.576827
 20
330.839687
 11
241.676827
 21
330.839687
  0
LINE
  8
M0
 62
     7
 10
242.576827
 20
320.839687
 11
249.976827
 21
320.839687
  0
LINE
  8
M0
 62
     7
 10
249.976827
 20
325.839686
 11
242.576827
 21
325.839686
  0
LINE
  8
M0
 62
     7
 10
241.176827
 20
350.539686
 11
241.176827
 21
331.339687
  0
LINE
  8
M0
 62
     7
 10
276.976826
 20
358.739687
 11
270.276826
 21
358.739687
  0
LINE
  8
M0
 62
     7
 10
219.876826
 20
316.239687
 11
219.876826
 21
317.839686
  0
LINE
  8
M0
 62
     7
 10
277.776827
 20
316.689686
 11
277.776827
 21
307.189685
  0
LINE
  8
M0
 62
     7
 10
273.276827
 20
352.739687
 11
273.576826
 21
353.239687
  0
LINE
  8
M0
 62
     7
 10
273.576826
 20
355.239686
 11
273.276827
 21
356.239686
  0
LINE
  8
M0
 62
     7
 10
273.276827
 20
358.739687
 11
273.276827
 21
323.139687
  0
LINE
  8
M0
 62
     7
 10
266.776827
 20
365.639687
 11
266.776827
 21
375.439686
  0
LINE
  8
M0
 62
     7
 10
249.976827
 20
356.039687
 11
249.976827
 21
361.039686
  0
LINE
  8
M0
 62
     7
 10
249.976827
 20
320.839687
 11
249.976827
 21
325.839686
  0
LINE
  8
M0
 62
     7
 10
266.776827
 20
316.439687
 11
242.576827
 21
316.439687
  0
LINE
  8
M0
 62
     7
 10
266.776827
 20
306.439686
 11
266.776827
 21
316.439687
  0
LINE
  8
M0
 62
     7
 10
274.976828
 20
325.439687
 11
274.983511
 21
325.432091
  0
LINE
  8
M0
 62
     7
 10
274.983511
 20
325.432091
 11
275.003363
 21
325.409532
  0
LINE
  8
M0
 62
     7
 10
275.003363
 20
325.409532
 11
275.035775
 21
325.372698
  0
LINE
  8
M0
 62
     7
 10
275.035775
 20
325.372698
 11
275.079767
 21
325.322709
  0
LINE
  8
M0
 62
     7
 10
275.079767
 20
325.322709
 11
275.134
 21
325.261079
  0
LINE
  8
M0
 62
     7
 10
275.134
 20
325.261079
 11
275.196827
 21
325.189686
  0
LINE
  8
M0
 62
     7
 10
275.196827
 20
325.189686
 11
275.266339
 21
325.110697
  0
LINE
  8
M0
 62
     7
 10
275.266339
 20
325.110697
 11
275.340422
 21
325.026511
  0
LINE
  8
M0
 62
     7
 10
275.340422
 20
325.026511
 11
275.416827
 21
324.939686
  0
LINE
  8
M0
 62
     7
 10
198.676827
 20
351.939686
 11
198.50318
 21
352.113335
  0
LINE
  8
M0
 62
     7
 10
198.50318
 20
352.113335
 11
198.334808
 21
352.281707
  0
LINE
  8
M0
 62
     7
 10
198.334808
 20
352.281707
 11
198.176826
 21
352.439686
  0
LINE
  8
M0
 62
     7
 10
198.176826
 20
352.439686
 11
198.034039
 21
352.582474
  0
LINE
  8
M0
 62
     7
 10
198.034039
 20
352.582474
 11
197.910781
 21
352.705731
  0
LINE
  8
M0
 62
     7
 10
197.910781
 20
352.705731
 11
197.810801
 21
352.805712
  0
LINE
  8
M0
 62
     7
 10
197.810801
 20
352.805712
 11
197.737134
 21
352.879379
  0
LINE
  8
M0
 62
     7
 10
197.737134
 20
352.879379
 11
197.69202
 21
352.924494
  0
LINE
  8
M0
 62
     7
 10
197.69202
 20
352.924494
 11
197.676829
 21
352.939686
  0
ARC
  8
M0
 62
   154
 10
88.811273
 20
295.41421
 40
9.0
 50
121.042201
 51
161.747898
  0
ARC
  8
M0
 62
   154
 10
81.044268
 20
307.780541
 40
9.0
 50
301.042201
 51
341.747898
  0
LINE
  8
M0
 62
   154
 10
91.746928
 20
311.497619
 11
89.591457
 21
304.961753
  0
LINE
  8
M0
 62
   154
 10
84.17025
 20
303.1253
 11
85.662266
 21
304.02329
  0
LINE
  8
M0
 62
   154
 10
84.193275
 20
299.171461
 11
85.685291
 21
300.069451
  0
LINE
  8
M0
 62
   154
 10
78.108613
 20
291.697132
 11
80.264084
 21
298.232998
  0
ARC
  8
M0
 62
   154
 10
84.269959
 20
306.336617
 40
2.7
 50
301.042201
 51
352.333467
  0
ARC
  8
M0
 62
   154
 10
85.585582
 20
296.858134
 40
2.7
 50
121.042201
 51
172.333467
  0
ARC
  8
M0
 62
   154
 10
86.852857
 20
311.282448
 40
0.8
 50
352.333467
 51
451.0
  0
LINE
  8
M0
 62
   154
 10
87.645706
 20
311.175722
 11
86.945825
 21
305.976417
  0
LINE
  8
M0
 62
   154
 10
82.209835
 20
292.019029
 11
82.909716
 21
297.218334
  0
LINE
  8
M0
 62
   154
 10
92.679163
 20
312.184268
 11
93.369079
 21
312.196311
  0
LINE
  8
M0
 62
   154
 10
86.838895
 20
312.082326
 11
86.47013
 21
312.075889
  0
ARC
  8
M0
 62
   154
 10
92.696616
 20
311.184421
 40
1.0
 50
91.0
 51
161.747898
  0
ARC
  8
M0
 62
   154
 10
83.002684
 20
291.912303
 40
0.8
 50
172.333467
 51
271.0
  0
LINE
  8
M0
 62
   154
 10
83.016646
 20
291.112425
 11
83.385411
 21
291.118862
  0
LINE
  8
M0
 62
   154
 10
77.176378
 20
291.010483
 11
76.486462
 21
290.99844
  0
ARC
  8
M0
 62
   154
 10
77.158925
 20
292.01033
 40
1.0
 50
271.0
 51
341.747898
  0
ARC
  8
M0
 62
   154
 10
76.503914
 20
289.998592
 40
1.0
 50
91.0
 51
181.0
  0
ARC
  8
M0
 62
   154
 10
93.351627
 20
313.196159
 40
1.0
 50
271.0
 51
361.0
  0
LINE
  8
M0
 62
   154
 10
94.225817
 20
320.412514
 11
94.351474
 21
313.213611
  0
LINE
  8
M0
 62
   154
 10
85.827096
 20
320.265914
 11
85.96148
 21
312.567087
  0
LINE
  8
M0
 62
   154
 10
86.809492
 20
321.283214
 11
93.208517
 21
321.39491
  0
ARC
  8
M0
 62
   154
 10
86.461404
 20
312.575813
 40
0.5
 50
181.0
 51
271.0
  0
ARC
  8
M0
 62
   154
 10
83.394137
 20
290.618938
 40
0.5
 50
1.0
 51
91.0
  0
LINE
  8
M0
 62
   154
 10
84.028444
 20
282.928837
 11
83.894061
 21
290.627664
  0
LINE
  8
M0
 62
   154
 10
75.629724
 20
282.782237
 11
75.504066
 21
289.98114
  0
ARC
  8
M0
 62
   154
 10
76.629571
 20
282.799689
 40
1.0
 50
181.0
 51
239.326411
  0
ARC
  8
M0
 62
   154
 10
83.028597
 20
282.911384
 40
1.0
 50
271.0
 51
361.0
  0
ARC
  8
M0
 62
   154
 10
86.826944
 20
320.283367
 40
1.0
 50
91.0
 51
181.0
  0
ARC
  8
M0
 62
   154
 10
93.225969
 20
320.395062
 40
1.0
 50
1.0
 51
91.0
  0
ARC
  8
M0
 62
     7
 10
81.580563
 20
360.139687
 40
0.5
 50
270.0
 51
360.0
  0
LINE
  8
M0
 62
     7
 10
82.080563
 20
369.139687
 11
82.080563
 21
360.139687
  0
ARC
  8
M0
 62
     7
 10
81.580563
 20
369.139687
 40
0.5
 50
0.0
 51
90.0
  0
LINE
  8
M0
 62
     7
 10
72.080563
 20
369.139687
 11
72.080563
 21
360.139687
  0
ARC
  8
M0
 62
     7
 10
72.580563
 20
369.139687
 40
0.5
 50
90.0
 51
180.0
  0
ARC
  8
M0
 62
     7
 10
72.580563
 20
360.139687
 40
0.5
 50
180.0
 51
270.0
  0
LINE
  8
M0
 62
     7
 10
72.580563
 20
359.639687
 11
81.580563
 21
359.639687
  0
LINE
  8
M0
 62
     7
 10
81.580563
 20
369.639687
 11
72.580563
 21
369.639687
  0
CIRCLE
  8
M0
 62
     7
 10
77.080563
 20
364.639687
 40
3.5
  0
LINE
  8
M0
 62
     7
 10
78.091434
 20
366.357643
 11
75.516361
 21
363.78257
  0
LINE
  8
M0
 62
     7
 10
78.798542
 20
365.650536
 11
76.223469
 21
363.075463
  0
LINE
  8
M0
 62
     7
 10
76.119709
 20
365.600533
 11
77.964557
 21
363.755699
  0
ARC
  8
M0
 62
     7
 10
94.580559
 20
360.139687
 40
0.5
 50
270.0
 51
360.0
  0
LINE
  8
M0
 62
     7
 10
95.080559
 20
369.139687
 11
95.080559
 21
360.139687
  0
ARC
  8
M0
 62
     7
 10
94.580559
 20
369.139687
 40
0.5
 50
0.0
 51
90.0
  0
LINE
  8
M0
 62
     7
 10
85.080559
 20
369.139687
 11
85.080559
 21
360.139687
  0
ARC
  8
M0
 62
     7
 10
85.580559
 20
369.139687
 40
0.5
 50
90.0
 51
180.0
  0
ARC
  8
M0
 62
     7
 10
85.580559
 20
360.139687
 40
0.5
 50
180.0
 51
270.0
  0
LINE
  8
M0
 62
     7
 10
85.580559
 20
359.639687
 11
94.580559
 21
359.639687
  0
LINE
  8
M0
 62
     7
 10
94.580559
 20
369.639687
 11
85.580559
 21
369.639687
  0
CIRCLE
  8
M0
 62
     7
 10
90.080559
 20
364.639687
 40
3.5
  0
LINE
  8
M0
 62
     7
 10
91.091431
 20
366.357643
 11
88.516358
 21
363.78257
  0
LINE
  8
M0
 62
     7
 10
91.798538
 20
365.650536
 11
89.223465
 21
363.075463
  0
LINE
  8
M0
 62
     7
 10
89.119705
 20
365.600533
 11
90.964554
 21
363.755699
  0
ARC
  8
M0
 62
     7
 10
107.580559
 20
360.139687
 40
0.5
 50
270.0
 51
360.0
  0
LINE
  8
M0
 62
     7
 10
108.080559
 20
369.139687
 11
108.080559
 21
360.139687
  0
ARC
  8
M0
 62
     7
 10
107.580559
 20
369.139687
 40
0.5
 50
0.0
 51
90.0
  0
LINE
  8
M0
 62
     7
 10
98.080559
 20
369.139687
 11
98.080559
 21
360.139687
  0
ARC
  8
M0
 62
     7
 10
98.580559
 20
369.139687
 40
0.5
 50
90.0
 51
180.0
  0
ARC
  8
M0
 62
     7
 10
98.580559
 20
360.139687
 40
0.5
 50
180.0
 51
270.0
  0
LINE
  8
M0
 62
     7
 10
98.580559
 20
359.639687
 11
107.580559
 21
359.639687
  0
LINE
  8
M0
 62
     7
 10
107.580559
 20
369.639687
 11
98.580559
 21
369.639687
  0
CIRCLE
  8
M0
 62
     7
 10
103.080559
 20
364.639687
 40
3.5
  0
LINE
  8
M0
 62
     7
 10
104.091431
 20
366.357643
 11
101.516358
 21
363.78257
  0
LINE
  8
M0
 62
     7
 10
104.798539
 20
365.650536
 11
102.223465
 21
363.075463
  0
LINE
  8
M0
 62
     7
 10
102.119706
 20
365.600533
 11
103.964554
 21
363.755699
  0
CIRCLE
  8
M0
 62
     7
 10
103.080559
 20
317.239686
 40
3.5
  0
LINE
  8
M0
 62
     7
 10
104.091431
 20
318.957643
 11
101.516358
 21
316.38257
  0
LINE
  8
M0
 62
     7
 10
104.798539
 20
318.250535
 11
102.223465
 21
315.675462
  0
LINE
  8
M0
 62
     7
 10
102.119706
 20
318.200532
 11
103.964554
 21
316.355699
  0
CIRCLE
  8
M0
 62
     7
 10
90.080559
 20
317.239686
 40
3.5
  0
LINE
  8
M0
 62
     7
 10
91.091431
 20
318.957643
 11
88.516358
 21
316.38257
  0
LINE
  8
M0
 62
     7
 10
91.798538
 20
318.250535
 11
89.223465
 21
315.675462
  0
LINE
  8
M0
 62
     7
 10
89.119705
 20
318.200532
 11
90.964554
 21
316.355699
  0
CIRCLE
  8
M0
 62
     7
 10
77.080563
 20
317.239686
 40
3.5
  0
LINE
  8
M0
 62
     7
 10
78.091434
 20
318.957643
 11
75.516361
 21
316.38257
  0
LINE
  8
M0
 62
     7
 10
78.798542
 20
318.250535
 11
76.223469
 21
315.675462
  0
LINE
  8
M0
 62
     7
 10
76.119709
 20
318.200532
 11
77.964557
 21
316.355699
  0
LINE
  8
M0
  6
DASHDOT
 62
     4
 10
109.583148
 20
272.227933
 11
109.583148
 21
290.319012
  0
LINE
  8
M0
  6
DASHDOT
 62
     4
 10
99.371264
 20
281.437947
 11
119.444796
 21
281.437982
  0
LINE
  8
M0
 62
     2
 10
91.269701
 20
273.400532
 11
93.11455
 21
271.555699
  0
LINE
  8
M0
 62
     2
 10
93.241427
 20
274.157643
 11
90.666354
 21
271.58257
  0
LINE
  8
M0
 62
     2
 10
93.948534
 20
273.450535
 11
91.373461
 21
270.875462
  0
LINE
  8
M0
 62
     2
 10
89.130572
 20
267.639683
 11
95.330569
 21
267.639683
  0
LINE
  8
M0
 62
     2
 10
96.330569
 20
268.639668
 11
96.330569
 21
276.239644
  0
LINE
  8
M0
 62
     2
 10
88.130572
 20
276.239659
 11
88.130572
 21
268.639683
  0
CIRCLE
  8
M0
 62
     2
 10
92.230578
 20
272.439686
 40
3.499993
  0
ARC
  8
M0
 62
     2
 10
95.330569
 20
268.639683
 40
1.0
 50
270.0
 51
360.0
  0
ARC
  8
M0
 62
     2
 10
95.330569
 20
276.239491
 40
1.0
 50
0.0
 51
90.0
  0
ARC
  8
M0
 62
     2
 10
89.130572
 20
276.239491
 40
1.0
 50
90.0
 51
180.0
  0
ARC
  8
M0
 62
     2
 10
89.130572
 20
268.639683
 40
1.0
 50
179.999945
 51
270.0
  0
LINE
  8
M0
 62
     2
 10
89.130572
 20
277.239674
 11
95.330569
 21
277.239674
  0
LINE
  8
M0
  6
DASHDOT
 62
     2
 10
91.730578
 20
272.439686
 11
92.730578
 21
272.439686
  0
LINE
  8
M0
  6
DASHDOT
 62
     2
 10
92.230578
 20
271.939686
 11
92.230578
 21
272.939686
  0
CIRCLE
  8
M0
 62
     7
 10
90.080563
 20
379.139686
 40
2.75
  0
LINE
  8
M0
 62
     7
 10
89.780563
 20
377.739686
 11
89.780563
 21
378.136047
  0
LINE
  8
M0
 62
     7
 10
90.380563
 20
377.739686
 11
90.380563
 21
378.136047
  0
LINE
  8
M0
 62
     7
 10
89.780563
 20
380.539686
 11
89.780563
 21
380.143326
  0
LINE
  8
M0
 62
     7
 10
90.380563
 20
380.539686
 11
90.380563
 21
380.143326
  0
ARC
  8
M0
 62
     7
 10
89.055563
 20
378.114686
 40
0.725
 50
0.0
 51
90.0
  0
ARC
  8
M0
 62
     7
 10
89.055563
 20
380.164686
 40
0.725
 50
-90.0
 51
0.0
  0
ARC
  8
M0
 62
     7
 10
91.105563
 20
380.164686
 40
0.725
 50
180.0
 51
270.0
  0
ARC
  8
M0
 62
     7
 10
91.105563
 20
378.114686
 40
0.725
 50
90.0
 51
180.0
  0
LINE
  8
M0
 62
     7
 10
91.105563
 20
378.839686
 11
91.505563
 21
378.839686
  0
LINE
  8
M0
 62
     7
 10
91.105563
 20
379.439686
 11
91.505563
 21
379.439686
  0
LINE
  8
M0
 62
     7
 10
89.780563
 20
380.539686
 11
90.380563
 21
380.539686
  0
LINE
  8
M0
 62
     7
 10
89.780563
 20
377.739686
 11
90.380563
 21
377.739686
  0
LINE
  8
M0
 62
     7
 10
88.680563
 20
379.439686
 11
89.055563
 21
379.439686
  0
LINE
  8
M0
 62
     7
 10
88.680563
 20
379.439686
 11
88.680563
 21
378.839686
  0
LINE
  8
M0
 62
     7
 10
88.680563
 20
378.839686
 11
89.055563
 21
378.839686
  0
LINE
  8
M0
 62
     7
 10
91.505563
 20
379.439686
 11
91.505563
 21
378.839686
  0
LINE
  8
M0
 62
     2
 10
66.269732
 20
287.900532
 11
68.114581
 21
286.055699
  0
LINE
  8
M0
 62
     2
 10
68.241457
 20
288.657643
 11
65.666384
 21
286.08257
  0
LINE
  8
M0
 62
     2
 10
68.948565
 20
287.950535
 11
66.373492
 21
285.375462
  0
CIRCLE
  8
M0
 62
     2
 10
67.230608
 20
286.939686
 40
3.499993
  0
LINE
  8
M0
  6
DASHDOT
 62
     2
 10
66.730608
 20
286.939686
 11
67.730608
 21
286.939686
  0
LINE
  8
M0
  6
DASHDOT
 62
     2
 10
67.230608
 20
286.439686
 11
67.230608
 21
287.439686
  0
ARC
  8
M0
 62
     6
 10
104.731814
 20
262.439442
 40
2.999997
 50
115.844051
 51
424.156194
  0
LINE
  8
M0
 62
     6
 10
101.388293
 20
265.139393
 11
100.956667
 21
263.739491
  0
LINE
  8
M0
 62
     6
 10
101.77283
 20
258.492192
 11
100.956667
 21
261.139516
  0
LINE
  8
M0
 62
     6
 10
107.69031
 20
258.492177
 11
108.318484
 21
260.529042
  0
LINE
  8
M0
 62
     6
 10
102.250857
 20
258.139516
 11
107.212527
 21
258.139516
  0
LINE
  8
M0
 62
     6
 10
100.956667
 20
263.739491
 11
100.956667
 21
261.139516
  0
LINE
  8
M0
 62
     6
 10
106.32239
 20
260.848622
 11
103.140749
 21
264.030385
  0
LINE
  8
M0
 62
     6
 10
105.085085
 20
263.853627
 11
103.317507
 21
262.085927
  0
LINE
  8
M0
 62
     6
 10
106.145632
 20
262.792958
 11
104.378054
 21
261.02538
  0
ARC
  8
M0
 62
     6
 10
102.250857
 20
258.639516
 40
0.5
 50
197.128737
 51
270.0
  0
ARC
  8
M0
 62
     6
 10
107.212527
 20
258.639516
 40
0.5
 50
270.0
 51
342.861308
  0
LINE
  8
M0
  6
DASHDOT
 62
     6
 10
104.231814
 20
262.439442
 11
105.231814
 21
262.439442
  0
LINE
  8
M0
  6
DASHDOT
 62
     6
 10
104.731814
 20
261.939442
 11
104.731814
 21
262.939442
  0
ARC
  8
M0
 62
     7
 10
97.730563
 20
376.289686
 40
0.5
 50
268.473851
 51
270.0
  0
ARC
  8
M0
 62
     7
 10
63.080563
 20
370.939686
 40
2.25
 50
0.0
 51
180.0
  0
ARC
  8
M0
 62
     7
 10
63.080563
 20
368.939686
 40
2.25
 50
180.0
 51
360.0
  0
ARC
  8
M0
 62
     7
 10
63.680563
 20
310.439686
 40
5.0
 50
180.0
 51
270.0
  0
ARC
  8
M0
 62
     7
 10
63.680563
 20
371.439686
 40
5.0
 50
90.0
 51
180.0
  0
LINE
  8
M0
 62
     7
 10
98.980562
 20
328.739687
 11
81.180563
 21
328.739687
  0
LINE
  8
M0
 62
     7
 10
80.680564
 20
329.239687
 11
80.680564
 21
352.639687
  0
LINE
  8
M0
 62
     7
 10
109.780563
 20
358.339687
 11
70.380562
 21
358.339687
  0
LINE
  8
M0
 62
     7
 10
111.580563
 20
343.439686
 11
109.780563
 21
343.439686
  0
LINE
  8
M0
 62
     7
 10
84.780564
 20
353.139686
 11
81.180563
 21
353.139686
  0
ARC
  8
M0
 62
     7
 10
67.880563
 20
308.939686
 40
0.5
 50
180.0
 51
270.0
  0
ARC
  8
M0
 62
     7
 10
112.280563
 20
309.939686
 40
0.5
 50
0.0
 51
90.0
  0
ARC
  8
M0
 62
     7
 10
68.880563
 20
309.939686
 40
0.5
 50
0.0
 51
36.86993
  0
ARC
  8
M0
 62
     7
 10
67.880563
 20
309.939686
 40
0.5
 50
90.0
 51
180.0
  0
CIRCLE
  8
M0
 62
     7
 10
62.580563
 20
310.939686
 40
2.25
  0
CIRCLE
  8
M0
 62
     7
 10
117.580563
 20
370.939686
 40
2.25
  0
ARC
  8
M0
 62
     7
 10
112.280563
 20
308.939686
 40
0.5
 50
270.0
 51
360.0
  0
ARC
  8
M0
 62
     7
 10
111.280563
 20
309.939686
 40
0.5
 50
143.130134
 51
180.0
  0
ARC
  8
M0
 62
     7
 10
110.080563
 20
375.439686
 40
1.0
 50
90.0
 51
98.626927
  0
ARC
  8
M0
 62
     7
 10
117.080563
 20
310.939686
 40
2.25
 50
180.0
 51
360.0
  0
ARC
  8
M0
 62
     7
 10
70.080563
 20
375.439686
 40
1.0
 50
81.373073
 51
90.0
  0
ARC
  8
M0
 62
     7
 10
116.480563
 20
371.439686
 40
5.0
 50
0.0
 51
90.0
  0
ARC
  8
M0
 62
     7
 10
68.880563
 20
308.939686
 40
0.5
 50
323.13007
 51
360.0
  0
ARC
  8
M0
 62
     7
 10
117.080563
 20
312.939686
 40
2.25
 50
0.0
 51
180.0
  0
ARC
  8
M0
 62
     7
 10
116.480563
 20
310.439686
 40
5.0
 50
270.0
 51
360.0
  0
LINE
  8
M0
 62
     7
 10
69.649793
 20
344.439686
 11
69.649793
 21
343.439686
  0
LINE
  8
M0
 62
     7
 10
69.380562
 20
344.439686
 11
68.780563
 21
344.439686
  0
LINE
  8
M0
 62
     7
 10
69.649793
 20
337.439687
 11
69.649793
 21
338.439686
  0
LINE
  8
M0
 62
     7
 10
69.380562
 20
337.439687
 11
68.780563
 21
337.439687
  0
LINE
  8
M0
 62
     7
 10
110.51133
 20
337.439687
 11
110.51133
 21
338.439686
  0
LINE
  8
M0
 62
     7
 10
110.780561
 20
337.439687
 11
111.380564
 21
337.439687
  0
LINE
  8
M0
 62
     7
 10
110.51133
 20
344.439686
 11
110.51133
 21
343.439686
  0
LINE
  8
M0
 62
     7
 10
110.780561
 20
344.439686
 11
111.380564
 21
344.439686
  0
LINE
  8
M0
 62
     7
 10
105.280561
 20
375.439687
 11
105.280561
 21
384.839688
  0
LINE
  8
M0
 62
     7
 10
106.870023
 20
382.457678
 11
107.080562
 21
375.439687
  0
LINE
  8
M0
 62
     7
 10
106.198294
 20
385.439687
 11
105.880564
 21
385.439687
  0
LINE
  8
M0
 62
     7
 10
95.080563
 20
307.939686
 11
95.080563
 21
308.439687
  0
LINE
  8
M0
 62
     7
 10
95.080563
 20
305.439685
 11
89.713723
 21
305.439685
  0
LINE
  8
M0
 62
     7
 10
85.080562
 20
308.439687
 11
85.080562
 21
307.939686
  0
LINE
  8
M0
 62
     7
 10
68.580562
 20
338.439686
 11
68.580562
 21
343.439686
  0
LINE
  8
M0
 62
     7
 10
69.380562
 20
337.439687
 11
70.380562
 21
337.439687
  0
LINE
  8
M0
 62
     7
 10
69.380562
 20
306.439686
 11
69.380562
 21
337.439687
  0
LINE
  8
M0
 62
     7
 10
69.380562
 20
344.439686
 11
70.380562
 21
344.439686
  0
LINE
  8
M0
 62
     7
 10
68.080563
 20
342.439687
 11
68.580562
 21
342.439687
  0
LINE
  8
M0
 62
     7
 10
68.080563
 20
339.439687
 11
68.080563
 21
342.439687
  0
LINE
  8
M0
 62
     7
 10
85.580563
 20
307.439685
 11
87.142796
 21
307.439685
  0
LINE
  8
M0
 62
     7
 10
68.580562
 20
339.439687
 11
68.080563
 21
339.439687
  0
LINE
  8
M0
 62
     7
 10
112.080564
 20
339.439687
 11
112.080564
 21
342.439687
  0
LINE
  8
M0
 62
     7
 10
69.580562
 20
343.439686
 11
68.580562
 21
343.439686
  0
LINE
  8
M0
 62
     7
 10
112.080564
 20
342.439687
 11
111.580563
 21
342.439687
  0
ARC
  8
M0
 62
     7
 10
68.580563
 20
337.639686
 40
0.5
 50
293.578178
 51
336.421822
  0
ARC
  8
M0
 62
     7
 10
111.580563
 20
337.639686
 40
0.5
 50
203.578178
 51
246.421822
  0
LINE
  8
M0
 62
     7
 10
67.880563
 20
308.439687
 11
68.080563
 21
308.439687
  0
LINE
  8
M0
 62
     7
 10
68.080563
 20
310.439688
 11
67.880563
 21
310.439688
  0
LINE
  8
M0
 62
     7
 10
112.280564
 20
310.439688
 11
112.080563
 21
310.439688
  0
LINE
  8
M0
 62
     7
 10
67.380562
 20
309.939687
 11
67.380562
 21
308.939685
  0
ARC
  8
M0
 62
     7
 10
84.180563
 20
384.939686
 40
0.5
 50
0.0
 51
90.0
  0
ARC
  8
M0
 62
     7
 10
95.980563
 20
384.939686
 40
0.5
 50
90.0
 51
180.0
  0
ARC
  8
M0
 62
     7
 10
84.180563
 20
384.439686
 40
1.0
 50
90.0
 51
180.0
  0
LINE
  8
M0
 62
     7
 10
87.580563
 20
345.417153
 11
87.580563
 21
345.239686
  0
LINE
  8
M0
 62
     7
 10
92.580562
 20
335.939686
 11
92.580562
 21
336.039686
  0
ARC
  8
M0
 62
     7
 10
95.980563
 20
384.439686
 40
1.0
 50
0.0
 51
90.0
  0
LINE
  8
M0
 62
     7
 10
92.580562
 20
345.417153
 11
92.580562
 21
345.239686
  0
ARC
  8
M0
 62
     7
 10
85.280563
 20
344.739686
 40
0.5
 50
90.0
 51
180.0
  0
ARC
  8
M0
 62
     7
 10
87.830563
 20
344.739686
 40
0.5
 50
0.0
 51
90.0
  0
LINE
  8
M0
 62
     7
 10
112.780561
 20
308.939685
 11
112.780561
 21
309.939687
  0
ARC
  8
M0
 62
     7
 10
85.280563
 20
336.539686
 40
0.5
 50
180.0
 51
270.0
  0
ARC
  8
M0
 62
     7
 10
94.880563
 20
344.739686
 40
0.5
 50
0.0
 51
90.0
  0
ARC
  8
M0
 62
     7
 10
92.330563
 20
344.739686
 40
0.5
 50
90.0
 51
180.0
  0
ARC
  8
M0
 62
     7
 10
94.880563
 20
336.539686
 40
0.5
 50
270.0
 51
360.0
  0
LINE
  8
M0
 62
     7
 10
97.780564
 20
375.439687
 11
107.080562
 21
375.439687
  0
LINE
  8
M0
 62
     7
 10
107.080562
 20
373.939686
 11
97.780564
 21
373.939686
  0
LINE
  8
M0
 62
     7
 10
107.080562
 20
375.439687
 11
107.080562
 21
373.939686
  0
LINE
  8
M0
 62
     7
 10
83.180563
 20
383.939688
 11
74.880562
 21
383.939688
  0
LINE
  8
M0
 62
     7
 10
105.280561
 20
383.939688
 11
96.980562
 21
383.939688
  0
LINE
  8
M0
 62
     7
 10
96.980562
 20
384.439685
 11
96.980562
 21
376.419481
  0
LINE
  8
M0
 62
     7
 10
111.580563
 20
339.439687
 11
112.080564
 21
339.439687
  0
LINE
  8
M0
 62
     7
 10
95.480563
 20
375.875576
 11
95.480563
 21
384.439685
  0
LINE
  8
M0
 62
     7
 10
82.380564
 20
373.939686
 11
73.080563
 21
373.939686
  0
LINE
  8
M0
 62
     7
 10
107.080562
 20
373.939686
 11
107.080562
 21
371.939686
  0
LINE
  8
M0
 62
     7
 10
73.080563
 20
375.439687
 11
82.380564
 21
375.439687
  0
LINE
  8
M0
 62
     7
 10
116.480564
 20
305.439685
 11
112.080563
 21
305.439685
  0
LINE
  8
M0
 62
     7
 10
67.380562
 20
311.439686
 11
68.080563
 21
311.439686
  0
LINE
  8
M0
 62
     7
 10
67.380562
 20
315.239687
 11
67.380562
 21
311.439686
  0
LINE
  8
M0
 62
     7
 10
112.780561
 20
311.439686
 11
112.780561
 21
315.239687
  0
LINE
  8
M0
 62
     7
 10
110.780561
 20
311.439686
 11
110.880563
 21
311.439686
  0
LINE
  8
M0
 62
     7
 10
114.830566
 20
312.939685
 11
114.830566
 21
310.939685
  0
LINE
  8
M0
 62
     7
 10
119.33056
 20
310.939685
 11
119.33056
 21
312.939685
  0
LINE
  8
M0
 62
     7
 10
58.680563
 20
310.439688
 11
58.680563
 21
371.439686
  0
LINE
  8
M0
 62
     7
 10
73.080563
 20
375.439687
 11
73.080563
 21
371.939686
  0
LINE
  8
M0
 62
     7
 10
65.330563
 20
370.939686
 11
65.330563
 21
368.939687
  0
LINE
  8
M0
 62
     7
 10
60.830563
 20
368.939687
 11
60.830563
 21
370.939686
  0
ARC
  8
M0
 62
     7
 10
109.780563
 20
357.339686
 40
1.0
 50
0.0
 51
90.0
  0
ARC
  8
M0
 62
     7
 10
109.780563
 20
324.539686
 40
1.0
 50
270.0
 51
360.0
  0
LINE
  8
M0
 62
     7
 10
109.780563
 20
337.439687
 11
109.780563
 21
338.439686
  0
LINE
  8
M0
 62
     7
 10
111.580563
 20
338.439686
 11
109.780563
 21
338.439686
  0
LINE
  8
M0
 62
     7
 10
91.280562
 20
353.139686
 11
88.880563
 21
353.139686
  0
LINE
  8
M0
 62
     7
 10
88.880563
 20
354.739686
 11
88.880563
 21
353.139686
  0
LINE
  8
M0
 62
     7
 10
69.580562
 20
343.439686
 11
70.380562
 21
343.439686
  0
LINE
  8
M0
 62
     7
 10
68.580562
 20
338.439686
 11
70.380562
 21
338.439686
  0
LINE
  8
M0
 62
     7
 10
109.780563
 20
344.439686
 11
109.780563
 21
343.439686
  0
LINE
  8
M0
 62
     7
 10
70.380562
 20
344.439686
 11
70.380562
 21
343.439686
  0
LINE
  8
M0
 62
     7
 10
94.380563
 20
352.139686
 11
85.780562
 21
352.139686
  0
LINE
  8
M0
 62
     7
 10
91.280562
 20
354.739686
 11
88.880563
 21
354.739686
  0
LINE
  8
M0
 62
     7
 10
91.280562
 20
354.739686
 11
91.280562
 21
353.139686
  0
LINE
  8
M0
 62
     7
 10
95.380561
 20
353.139686
 11
98.980562
 21
353.139686
  0
LINE
  8
M0
 62
     7
 10
99.480563
 20
329.239687
 11
99.480563
 21
352.639687
  0
LINE
  8
M0
 62
     7
 10
111.380564
 20
316.239687
 11
112.280564
 21
316.239687
  0
LINE
  8
M0
 62
     7
 10
118.280565
 20
316.239687
 11
119.180565
 21
316.239687
  0
LINE
  8
M0
 62
     7
 10
67.880563
 20
365.639687
 11
68.780563
 21
365.639687
  0
LINE
  8
M0
 62
     7
 10
112.280564
 20
365.639687
 11
111.380564
 21
365.639687
  0
LINE
  8
M0
 62
     7
 10
120.280562
 20
313.239687
 11
120.18056
 21
313.239687
  0
LINE
  8
M0
 62
     7
 10
119.180565
 20
365.639687
 11
118.280565
 21
365.639687
  0
LINE
  8
M0
 62
     7
 10
120.280562
 20
368.639686
 11
120.18056
 21
368.639686
  0
LINE
  8
M0
 62
     7
 10
60.980563
 20
365.639687
 11
61.880563
 21
365.639687
  0
ARC
  8
M0
 62
     7
 10
73.080563
 20
306.439686
 40
1.0
 50
180.0
 51
270.0
  0
LINE
  8
M0
 62
     7
 10
73.080563
 20
305.439685
 11
73.964966
 21
305.439685
  0
LINE
  8
M0
 62
     7
 10
59.880563
 20
313.239687
 11
59.980562
 21
313.239687
  0
LINE
  8
M0
 62
     7
 10
68.780563
 20
316.239687
 11
67.880563
 21
316.239687
  0
LINE
  8
M0
 62
     7
 10
61.880563
 20
316.239687
 11
60.980563
 21
316.239687
  0
ARC
  8
M0
 62
     7
 10
95.380563
 20
352.639686
 40
0.5
 50
90.0
 51
180.0
  0
ARC
  8
M0
 62
     7
 10
98.980563
 20
352.639686
 40
0.5
 50
0.0
 51
90.0
  0
ARC
  8
M0
 62
     7
 10
85.780563
 20
352.639686
 40
0.5
 50
180.0
 51
270.0
  0
ARC
  8
M0
 62
     7
 10
94.380563
 20
352.639686
 40
0.5
 50
270.0
 51
360.0
  0
LINE
  8
M0
 62
     7
 10
59.880563
 20
368.639686
 11
59.980562
 21
368.639686
  0
ARC
  8
M0
 62
     7
 10
70.380563
 20
357.339686
 40
1.0
 50
90.0
 51
180.0
  0
ARC
  8
M0
 62
     7
 10
70.380563
 20
324.539686
 40
1.0
 50
180.0
 51
270.0
  0
ARC
  8
M0
 62
     7
 10
94.580563
 20
307.939686
 40
0.5
 50
270.0
 51
360.0
  0
ARC
  8
M0
 62
     7
 10
95.080563
 20
307.439686
 40
2.0
 50
270.0
 51
292.57935
  0
ARC
  8
M0
 62
     7
 10
81.180563
 20
352.639686
 40
0.5
 50
90.0
 51
180.0
  0
ARC
  8
M0
 62
     7
 10
84.780563
 20
352.639686
 40
0.5
 50
0.0
 51
90.0
  0
ARC
  8
M0
 62
     7
 10
98.980563
 20
329.239686
 40
0.5
 50
270.0
 51
360.0
  0
ARC
  8
M0
 62
     7
 10
81.180563
 20
329.239686
 40
0.5
 50
180.0
 51
270.0
  0
ARC
  8
M0
 62
     7
 10
73.962833
 20
384.839686
 40
0.6
 50
90.0
 51
178.281642
  0
ARC
  8
M0
 62
     7
 10
74.280563
 20
384.839686
 40
0.6
 50
0.0
 51
90.0
  0
ARC
  8
M0
 62
     7
 10
111.280563
 20
308.939686
 40
0.5
 50
180.0
 51
216.869866
  0
ARC
  8
M0
 62
     7
 10
85.080563
 20
307.439686
 40
2.0
 50
247.42065
 51
270.0
  0
ARC
  8
M0
 62
     7
 10
85.580563
 20
307.939686
 40
0.5
 50
180.0
 51
270.0
  0
ARC
  8
M0
 62
     7
 10
105.880563
 20
384.839686
 40
0.6
 50
90.0
 51
180.0
  0
LINE
  8
M0
 62
     7
 10
74.880562
 20
384.839688
 11
74.880562
 21
375.439687
  0
LINE
  8
M0
 62
     7
 10
73.080563
 20
375.439687
 11
73.291102
 21
382.457678
  0
LINE
  8
M0
 62
     7
 10
73.962833
 20
385.439687
 11
74.280563
 21
385.439687
  0
ARC
  8
M0
 62
     7
 10
106.198293
 20
384.839686
 40
0.6
 50
1.718358
 51
90.0
  0
LINE
  8
M0
 62
     7
 10
112.080563
 20
308.439687
 11
112.280564
 21
308.439687
  0
LINE
  8
M0
 62
     7
 10
110.780561
 20
344.439686
 11
109.780563
 21
344.439686
  0
LINE
  8
M0
 62
     7
 10
111.580563
 20
338.439686
 11
111.580563
 21
343.439686
  0
LINE
  8
M0
 62
     7
 10
109.780563
 20
323.539686
 11
70.380562
 21
323.539686
  0
LINE
  8
M0
 62
     7
 10
110.780561
 20
337.439687
 11
109.780563
 21
337.439687
  0
LINE
  8
M0
 62
     7
 10
110.780561
 20
306.439686
 11
110.780561
 21
337.439687
  0
LINE
  8
M0
 62
     7
 10
70.380562
 20
337.439687
 11
70.380562
 21
338.439686
  0
LINE
  8
M0
 62
     7
 10
95.480563
 20
384.439685
 11
95.480563
 21
384.939686
  0
LINE
  8
M0
 62
     7
 10
84.680562
 20
383.939688
 11
85.780562
 21
383.939688
  0
LINE
  8
M0
 62
     7
 10
95.380561
 20
336.539686
 11
95.380561
 21
344.739686
  0
LINE
  8
M0
 62
     7
 10
94.380563
 20
383.939688
 11
95.480563
 21
383.939688
  0
LINE
  8
M0
 62
     7
 10
84.680562
 20
384.439685
 11
84.680562
 21
375.875576
  0
LINE
  8
M0
 62
     7
 10
83.180563
 20
376.419481
 11
83.180563
 21
384.439685
  0
LINE
  8
M0
 62
     7
 10
84.680562
 20
384.939686
 11
84.680562
 21
384.439685
  0
LINE
  8
M0
 62
     7
 10
93.880562
 20
345.539686
 11
93.880562
 21
345.239686
  0
LINE
  8
M0
 62
     7
 10
95.380561
 20
344.739686
 11
95.380561
 21
345.539686
  0
LINE
  8
M0
 62
     7
 10
86.280563
 20
345.539686
 11
86.280563
 21
345.239686
  0
LINE
  8
M0
 62
     7
 10
93.880562
 20
336.039686
 11
93.880562
 21
335.939686
  0
LINE
  8
M0
 62
     7
 10
84.780564
 20
339.139687
 11
84.280563
 21
339.139687
  0
LINE
  8
M0
 62
     7
 10
95.380561
 20
339.139687
 11
95.880562
 21
339.139687
  0
LINE
  8
M0
 62
     7
 10
95.380561
 20
335.939686
 11
95.380561
 21
336.539686
  0
LINE
  8
M0
 62
     7
 10
84.280563
 20
342.139686
 11
84.780564
 21
342.139686
  0
LINE
  8
M0
 62
     7
 10
87.580563
 20
345.417153
 11
87.580563
 21
345.539686
  0
LINE
  8
M0
 62
     7
 10
68.780563
 20
337.139686
 11
69.380562
 21
337.139686
  0
LINE
  8
M0
 62
     7
 10
87.580563
 20
335.939686
 11
87.580563
 21
336.039686
  0
LINE
  8
M0
 62
     7
 10
92.580562
 20
345.417153
 11
92.580562
 21
345.539686
  0
LINE
  8
M0
 62
     7
 10
84.780564
 20
335.939686
 11
84.780564
 21
336.539686
  0
LINE
  8
M0
 62
     7
 10
86.280563
 20
336.039686
 11
86.280563
 21
335.939686
  0
LINE
  8
M0
 62
     7
 10
111.380564
 20
337.139686
 11
110.780561
 21
337.139686
  0
LINE
  8
M0
 62
     7
 10
91.830564
 20
344.739686
 11
91.830564
 21
337.539686
  0
LINE
  8
M0
 62
     7
 10
88.330561
 20
344.739686
 11
88.330561
 21
337.539686
  0
LINE
  8
M0
 62
     7
 10
85.280561
 20
345.239686
 11
87.830564
 21
345.239686
  0
LINE
  8
M0
 62
     7
 10
94.880564
 20
336.039686
 11
85.280561
 21
336.039686
  0
LINE
  8
M0
 62
     7
 10
94.880564
 20
345.239686
 11
92.330561
 21
345.239686
  0
LINE
  8
M0
 62
     7
 10
88.330561
 20
337.539686
 11
91.830564
 21
337.539686
  0
LINE
  8
M0
 62
     7
 10
80.680564
 20
345.239686
 11
80.880563
 21
345.239686
  0
LINE
  8
M0
 62
     7
 10
80.880563
 20
336.039686
 11
80.680564
 21
336.039686
  0
LINE
  8
M0
 62
     7
 10
84.780564
 20
344.739686
 11
84.780564
 21
345.539686
  0
LINE
  8
M0
 62
     7
 10
95.880562
 20
342.139686
 11
95.380561
 21
342.139686
  0
LINE
  8
M0
 62
     7
 10
86.080564
 20
345.239686
 11
94.080561
 21
345.239686
  0
LINE
  8
M0
 62
     7
 10
84.780564
 20
336.539686
 11
84.780564
 21
344.739686
  0
LINE
  8
M0
 62
     7
 10
99.480563
 20
345.239686
 11
99.280564
 21
345.239686
  0
LINE
  8
M0
 62
     7
 10
99.280564
 20
336.039686
 11
99.480563
 21
336.039686
  0
LINE
  8
M0
 62
     7
 10
120.480565
 20
361.039686
 11
120.18056
 21
361.039686
  0
ARC
  8
M0
 62
     7
 10
83.380563
 20
375.439686
 40
1.0
 50
90.0
 51
180.0
  0
LINE
  8
M0
 62
     7
 10
120.18056
 20
337.239687
 11
120.480565
 21
337.239687
  0
LINE
  8
M0
 62
     7
 10
120.480565
 20
344.639686
 11
120.18056
 21
344.639686
  0
ARC
  8
M0
 62
     7
 10
96.380563
 20
375.439686
 40
1.0
 50
90.0
 51
180.0
  0
ARC
  8
M0
 62
     7
 10
96.380563
 20
306.439686
 40
1.0
 50
180.0
 51
270.0
  0
ARC
  8
M0
 62
     7
 10
83.780563
 20
375.439686
 40
1.0
 50
0.0
 51
90.0
  0
ARC
  8
M0
 62
     7
 10
83.780563
 20
306.439686
 40
1.0
 50
270.0
 51
360.0
  0
LINE
  8
M0
 62
     7
 10
99.280564
 20
333.439686
 11
99.280564
 21
347.039686
  0
LINE
  8
M0
 62
     7
 10
98.280562
 20
352.939686
 11
96.780562
 21
352.939686
  0
LINE
  8
M0
 62
     7
 10
98.280562
 20
328.939686
 11
97.780564
 21
328.939686
  0
LINE
  8
M0
 62
     7
 10
120.18056
 20
320.839687
 11
120.480565
 21
320.839687
  0
LINE
  8
M0
 62
     7
 10
119.180565
 20
367.639686
 11
119.180565
 21
345.639686
  0
LINE
  8
M0
 62
     7
 10
83.780562
 20
305.439685
 11
83.380563
 21
305.439685
  0
LINE
  8
M0
 62
     7
 10
83.380563
 20
322.039687
 11
83.780562
 21
322.039687
  0
LINE
  8
M0
 62
     7
 10
83.780562
 20
322.039687
 11
84.780564
 21
322.039687
  0
ARC
  8
M0
 62
     7
 10
96.780563
 20
375.439686
 40
1.0
 50
0.0
 51
90.0
  0
ARC
  8
M0
 62
     7
 10
109.380563
 20
375.439686
 40
1.0
 50
90.0
 51
180.0
  0
LINE
  8
M0
 62
     7
 10
119.180565
 20
336.239687
 11
119.180565
 21
314.239686
  0
ARC
  8
M0
 62
     7
 10
96.780563
 20
306.439686
 40
1.0
 50
270.0
 51
360.0
  0
ARC
  8
M0
 62
     7
 10
109.780563
 20
306.439686
 40
1.0
 50
270.0
 51
360.0
  0
LINE
  8
M0
 62
     7
 10
83.380563
 20
376.439687
 11
83.780562
 21
376.439687
  0
ARC
  8
M0
 62
     7
 10
109.380563
 20
306.439686
 40
1.0
 50
180.0
 51
270.0
  0
ARC
  8
M0
 62
     7
 10
109.780563
 20
375.439686
 40
1.0
 50
0.0
 51
90.0
  0
LINE
  8
M0
 62
     7
 10
120.480565
 20
344.639686
 11
120.480565
 21
337.239687
  0
LINE
  8
M0
 62
     7
 10
112.780561
 20
336.939687
 11
112.780561
 21
344.939686
  0
LINE
  8
M0
 62
     7
 10
110.780561
 20
336.939687
 11
112.780561
 21
336.939687
  0
LINE
  8
M0
 62
     7
 10
59.680563
 20
337.239687
 11
59.980562
 21
337.239687
  0
LINE
  8
M0
 62
     7
 10
59.680563
 20
361.039686
 11
59.980562
 21
361.039686
  0
LINE
  8
M0
 62
     7
 10
119.180565
 20
344.639686
 11
119.180565
 21
337.239687
  0
LINE
  8
M0
 62
     7
 10
119.180565
 20
337.239687
 11
116.180559
 21
337.239687
  0
LINE
  8
M0
 62
     7
 10
59.680563
 20
344.639686
 11
59.680563
 21
337.239687
  0
LINE
  8
M0
 62
     7
 10
116.180559
 20
344.639686
 11
119.180565
 21
344.639686
  0
LINE
  8
M0
 62
     7
 10
109.880564
 20
344.439686
 11
109.880564
 21
343.439686
  0
LINE
  8
M0
 62
     7
 10
110.780561
 20
344.939686
 11
112.780561
 21
344.939686
  0
LINE
  8
M0
 62
     7
 10
116.180559
 20
337.239687
 11
116.180559
 21
344.639686
  0
LINE
  8
M0
 62
     7
 10
81.880563
 20
352.939686
 11
83.380563
 21
352.939686
  0
LINE
  8
M0
 62
     7
 10
80.880563
 20
333.439686
 11
80.880563
 21
347.039686
  0
LINE
  8
M0
 62
     7
 10
81.880563
 20
328.939686
 11
82.380564
 21
328.939686
  0
LINE
  8
M0
 62
     7
 10
85.030561
 20
351.939686
 11
95.130564
 21
351.939686
  0
LINE
  8
M0
 62
     7
 10
95.630561
 20
345.539686
 11
84.530564
 21
345.539686
  0
LINE
  8
M0
 62
     7
 10
85.030561
 20
347.039686
 11
95.130564
 21
347.039686
  0
LINE
  8
M0
 62
     7
 10
95.130564
 20
350.439686
 11
85.030561
 21
350.439686
  0
LINE
  8
M0
 62
     7
 10
59.980562
 20
344.639686
 11
59.680563
 21
344.639686
  0
LINE
  8
M0
 62
     7
 10
109.880564
 20
338.439686
 11
109.880564
 21
337.439687
  0
LINE
  8
M0
 62
     7
 10
59.980562
 20
320.839687
 11
59.680563
 21
320.839687
  0
LINE
  8
M0
 62
     7
 10
60.980563
 20
367.639686
 11
60.980563
 21
345.639686
  0
LINE
  8
M0
 62
     7
 10
111.380564
 20
337.939686
 11
111.380564
 21
336.939687
  0
LINE
  8
M0
 62
     7
 10
111.380564
 20
344.939686
 11
111.380564
 21
343.939686
  0
LINE
  8
M0
 62
     7
 10
60.980563
 20
350.239686
 11
69.380562
 21
350.239686
  0
LINE
  8
M0
 62
     7
 10
111.380564
 20
337.939686
 11
111.680561
 21
337.939686
  0
LINE
  8
M0
 62
     7
 10
111.680561
 20
343.939686
 11
111.680561
 21
342.439687
  0
LINE
  8
M0
 62
     7
 10
110.780561
 20
331.639686
 11
119.180565
 21
331.639686
  0
LINE
  8
M0
 62
     7
 10
111.680561
 20
343.939686
 11
111.380564
 21
343.939686
  0
LINE
  8
M0
 62
     7
 10
111.680561
 20
339.439687
 11
111.680561
 21
337.939686
  0
LINE
  8
M0
 62
     7
 10
68.480562
 20
339.439687
 11
68.480562
 21
337.939686
  0
LINE
  8
M0
 62
     7
 10
68.480562
 20
343.939686
 11
68.480562
 21
342.439687
  0
LINE
  8
M0
 62
     7
 10
68.780563
 20
337.939686
 11
68.480562
 21
337.939686
  0
LINE
  8
M0
 62
     7
 10
68.780563
 20
337.939686
 11
68.780563
 21
336.939687
  0
LINE
  8
M0
 62
     7
 10
69.380562
 20
331.639686
 11
60.980563
 21
331.639686
  0
LINE
  8
M0
 62
     7
 10
68.480562
 20
343.939686
 11
68.780563
 21
343.939686
  0
ARC
  8
M0
 62
     7
 10
70.780563
 20
375.439686
 40
1.0
 50
0.0
 51
90.0
  0
ARC
  8
M0
 62
     7
 10
83.380563
 20
306.439686
 40
1.0
 50
180.0
 51
270.0
  0
ARC
  8
M0
 62
     7
 10
70.380563
 20
375.439686
 40
1.0
 50
90.0
 51
180.0
  0
ARC
  8
M0
 62
     7
 10
70.780563
 20
306.439686
 40
1.0
 50
270.0
 51
360.0
  0
LINE
  8
M0
 62
     7
 10
70.780562
 20
305.439685
 11
70.580562
 21
305.439685
  0
LINE
  8
M0
 62
     7
 10
70.580562
 20
376.439687
 11
70.780562
 21
376.439687
  0
LINE
  8
M0
 62
     7
 10
99.480563
 20
346.239686
 11
99.280564
 21
346.239686
  0
ARC
  8
M0
 62
     7
 10
69.380563
 20
321.439686
 40
0.6
 50
180.0
 51
270.0
  0
LINE
  8
M0
 62
     7
 10
68.780563
 20
344.939686
 11
68.780563
 21
343.939686
  0
LINE
  8
M0
 62
     7
 10
119.180565
 20
350.239686
 11
110.780561
 21
350.239686
  0
ARC
  8
M0
 62
     7
 10
110.780563
 20
321.439686
 40
0.6
 50
270.0
 51
360.0
  0
ARC
  8
M0
 62
     7
 10
70.380563
 20
306.439686
 40
1.0
 50
180.0
 51
270.0
  0
ARC
  8
M0
 62
     7
 10
69.380563
 20
360.439686
 40
0.6
 50
90.0
 51
180.0
  0
ARC
  8
M0
 62
     7
 10
110.780563
 20
360.439686
 40
0.6
 50
0.0
 51
90.0
  0
LINE
  8
M0
 62
     7
 10
97.780564
 20
359.839687
 11
95.380561
 21
359.839687
  0
LINE
  8
M0
 62
     7
 10
97.780564
 20
322.039687
 11
96.780562
 21
322.039687
  0
LINE
  8
M0
 62
     7
 10
96.380563
 20
305.439685
 11
96.780562
 21
305.439685
  0
LINE
  8
M0
 62
     7
 10
96.380563
 20
322.039687
 11
95.380561
 21
322.039687
  0
LINE
  8
M0
 62
     7
 10
96.780562
 20
322.039687
 11
96.380563
 21
322.039687
  0
LINE
  8
M0
 62
     7
 10
116.480563
 20
376.439687
 11
109.380563
 21
376.439687
  0
LINE
  8
M0
 62
     7
 10
110.780561
 20
344.439686
 11
110.780561
 21
375.439687
  0
LINE
  8
M0
 62
     7
 10
96.780562
 20
376.439687
 11
96.380563
 21
376.439687
  0
LINE
  8
M0
 62
     7
 10
108.380561
 20
323.539686
 11
108.380561
 21
306.439687
  0
ARC
  8
M0
 62
     7
 10
84.030563
 20
329.439686
 40
0.5
 50
270.0
 51
360.0
  0
ARC
  8
M0
 62
     7
 10
96.130563
 20
329.439686
 40
0.5
 50
180.0
 51
270.0
  0
ARC
  8
M0
 62
     7
 10
84.030563
 20
351.939686
 40
1.0
 50
0.0
 51
90.0
  0
ARC
  8
M0
 62
     7
 10
84.530563
 20
346.039686
 40
0.5
 50
270.0
 51
360.0
  0
ARC
  8
M0
 62
     7
 10
98.280563
 20
329.939686
 40
1.0
 50
270.0
 51
360.0
  0
ARC
  8
M0
 62
     7
 10
98.280563
 20
333.439686
 40
1.0
 50
0.0
 51
90.0
  0
ARC
  8
M0
 62
     7
 10
96.130563
 20
351.939686
 40
1.0
 50
90.0
 51
180.0
  0
ARC
  8
M0
 62
     7
 10
95.630563
 20
346.039686
 40
0.5
 50
180.0
 51
270.0
  0
ARC
  8
M0
 62
     7
 10
120.480563
 20
345.639686
 40
1.0
 50
270.0
 51
360.0
  0
ARC
  8
M0
 62
     7
 10
120.480563
 20
360.039686
 40
1.0
 50
0.0
 51
90.0
  0
ARC
  8
M0
 62
     7
 10
81.880563
 20
351.939686
 40
1.0
 50
90.0
 51
180.0
  0
ARC
  8
M0
 62
     7
 10
81.880563
 20
329.939686
 40
1.0
 50
180.0
 51
270.0
  0
ARC
  8
M0
 62
     7
 10
120.480563
 20
321.839686
 40
1.0
 50
270.0
 51
360.0
  0
LINE
  8
M0
 62
     7
 10
95.630561
 20
334.439686
 11
84.530564
 21
334.439686
  0
LINE
  8
M0
 62
     7
 10
84.530564
 20
330.439686
 11
95.630561
 21
330.439686
  0
LINE
  8
M0
 62
     7
 10
84.530564
 20
335.939686
 11
95.630561
 21
335.939686
  0
LINE
  8
M0
 62
     7
 10
80.880563
 20
347.039686
 11
80.880563
 21
351.939686
  0
LINE
  8
M0
 62
     7
 10
82.380564
 20
345.539686
 11
80.880563
 21
347.039686
  0
LINE
  8
M0
 62
     7
 10
80.880563
 20
329.939686
 11
80.880563
 21
333.439686
  0
ARC
  8
M0
 62
     7
 10
72.980563
 20
324.239686
 40
1.0
 50
270.0
 51
315.572996
  0
ARC
  8
M0
 62
     7
 10
81.180563
 20
324.239686
 40
1.0
 50
224.427004
 51
270.0
  0
ARC
  8
M0
 62
     7
 10
81.880563
 20
333.439686
 40
1.0
 50
90.0
 51
180.0
  0
ARC
  8
M0
 62
     7
 10
98.280563
 20
351.939686
 40
1.0
 50
0.0
 51
90.0
  0
LINE
  8
M0
 62
     7
 10
121.480559
 20
371.439686
 11
121.480559
 21
310.439686
  0
ARC
  8
M0
 62
     7
 10
107.180563
 20
357.639686
 40
1.0
 50
90.0
 51
135.572996
  0
LINE
  8
M0
 62
     7
 10
94.180563
 20
358.639686
 11
95.380561
 21
358.639686
  0
LINE
  8
M0
 62
     7
 10
107.180563
 20
323.239687
 11
108.380561
 21
323.239687
  0
LINE
  8
M0
 62
     7
 10
98.980562
 20
323.239687
 11
97.780564
 21
323.239687
  0
LINE
  8
M0
 62
     7
 10
119.180565
 20
358.039686
 11
111.380564
 21
358.039686
  0
LINE
  8
M0
 62
     7
 10
85.980562
 20
358.639686
 11
84.780564
 21
358.639686
  0
LINE
  8
M0
 62
     7
 10
97.780564
 20
311.939687
 11
100.278533
 21
311.939687
  0
LINE
  8
M0
 62
     7
 10
95.380561
 20
369.939687
 11
84.780564
 21
369.939687
  0
ARC
  8
M0
 62
     7
 10
59.980563
 20
360.039686
 40
1.0
 50
0.0
 51
90.0
  0
ARC
  8
M0
 62
     7
 10
59.980563
 20
336.239686
 40
1.0
 50
0.0
 51
90.0
  0
ARC
  8
M0
 62
     7
 10
59.680563
 20
345.639686
 40
1.0
 50
180.0
 51
270.0
  0
ARC
  8
M0
 62
     7
 10
59.680563
 20
360.039686
 40
1.0
 50
90.0
 51
180.0
  0
ARC
  8
M0
 62
     7
 10
120.180563
 20
321.839686
 40
1.0
 50
180.0
 51
270.0
  0
ARC
  8
M0
 62
     7
 10
120.180563
 20
345.639686
 40
1.0
 50
180.0
 51
270.0
  0
ARC
  8
M0
 62
     7
 10
59.980563
 20
321.839686
 40
1.0
 50
270.0
 51
360.0
  0
ARC
  8
M0
 62
     7
 10
59.980563
 20
345.639686
 40
1.0
 50
270.0
 51
360.0
  0
ARC
  8
M0
 62
     7
 10
59.680563
 20
336.239686
 40
1.0
 50
90.0
 51
180.0
  0
ARC
  8
M0
 62
     7
 10
59.680563
 20
321.839686
 40
1.0
 50
180.0
 51
270.0
  0
LINE
  8
M0
 62
     7
 10
107.180563
 20
358.639686
 11
108.380561
 21
358.639686
  0
LINE
  8
M0
 62
     7
 10
60.980563
 20
344.639686
 11
60.980563
 21
337.239687
  0
LINE
  8
M0
 62
     7
 10
70.280563
 20
338.439686
 11
70.280563
 21
337.439687
  0
LINE
  8
M0
 62
     7
 10
63.980563
 20
337.239687
 11
63.980563
 21
344.639686
  0
LINE
  8
M0
 62
     7
 10
60.980563
 20
337.239687
 11
63.980563
 21
337.239687
  0
LINE
  8
M0
 62
     7
 10
67.380562
 20
336.939687
 11
67.380562
 21
344.939686
  0
LINE
  8
M0
 62
     7
 10
69.380562
 20
344.939686
 11
67.380562
 21
344.939686
  0
LINE
  8
M0
 62
     7
 10
70.280563
 20
344.439686
 11
70.280563
 21
343.439686
  0
LINE
  8
M0
 62
     7
 10
69.380562
 20
336.939687
 11
67.380562
 21
336.939687
  0
ARC
  8
M0
 62
     7
 10
120.180563
 20
360.039686
 40
1.0
 50
90.0
 51
180.0
  0
ARC
  8
M0
 62
     7
 10
120.480563
 20
336.239686
 40
1.0
 50
0.0
 51
90.0
  0
LINE
  8
M0
 62
     7
 10
108.380561
 20
369.939687
 11
97.780564
 21
369.939687
  0
ARC
  8
M0
 62
     7
 10
120.180563
 20
336.239686
 40
1.0
 50
90.0
 51
180.0
  0
LINE
  8
M0
 62
     7
 10
80.680564
 20
346.239686
 11
80.880563
 21
346.239686
  0
LINE
  8
M0
 62
     7
 10
63.980563
 20
344.639686
 11
60.980563
 21
344.639686
  0
LINE
  8
M0
 62
     7
 10
99.480563
 20
335.639686
 11
99.280564
 21
335.639686
  0
LINE
  8
M0
 62
     7
 10
80.680564
 20
335.639686
 11
80.880563
 21
335.639686
  0
LINE
  8
M0
 62
     7
 10
85.030561
 20
351.939686
 11
85.030561
 21
346.039686
  0
LINE
  8
M0
 62
     7
 10
95.130564
 20
351.939686
 11
95.130564
 21
346.039686
  0
LINE
  8
M0
 62
     7
 10
84.530564
 20
337.689686
 11
84.530564
 21
329.439686
  0
LINE
  8
M0
 62
     7
 10
84.280563
 20
338.189686
 11
84.530564
 21
337.689686
  0
LINE
  8
M0
 62
     7
 10
95.880562
 20
338.189686
 11
95.630561
 21
337.689686
  0
LINE
  8
M0
 62
     7
 10
95.880562
 20
343.689686
 11
95.880562
 21
338.189686
  0
LINE
  8
M0
 62
     7
 10
95.630561
 20
345.539686
 11
95.630561
 21
344.189686
  0
LINE
  8
M0
 62
     7
 10
95.630561
 20
337.689686
 11
95.630561
 21
329.439686
  0
LINE
  8
M0
 62
     7
 10
81.880563
 20
334.439686
 11
82.380564
 21
334.439686
  0
LINE
  8
M0
 62
     7
 10
84.280563
 20
343.689686
 11
84.280563
 21
338.189686
  0
LINE
  8
M0
 62
     7
 10
82.380564
 20
334.439686
 11
82.380564
 21
345.539686
  0
LINE
  8
M0
 62
     7
 10
84.530564
 20
344.189686
 11
84.280563
 21
343.689686
  0
LINE
  8
M0
 62
     7
 10
84.530564
 20
345.539686
 11
84.530564
 21
344.189686
  0
LINE
  8
M0
 62
     7
 10
71.780562
 20
311.939687
 11
74.319604
 21
311.939687
  0
LINE
  8
M0
 62
     7
 10
81.180563
 20
323.239687
 11
82.380564
 21
323.239687
  0
LINE
  8
M0
 62
     7
 10
99.280564
 20
329.939686
 11
99.280564
 21
333.439686
  0
LINE
  8
M0
 62
     7
 10
72.980562
 20
323.239687
 11
71.780562
 21
323.239687
  0
LINE
  8
M0
 62
     7
 10
98.280562
 20
334.439686
 11
97.780564
 21
334.439686
  0
LINE
  8
M0
 62
     7
 10
97.780564
 20
334.439686
 11
97.780564
 21
345.539686
  0
LINE
  8
M0
 62
     7
 10
81.880563
 20
352.939686
 11
84.030563
 21
352.939686
  0
LINE
  8
M0
 62
     7
 10
95.630561
 20
344.189686
 11
95.880562
 21
343.689686
  0
LINE
  8
M0
 62
     7
 10
99.280564
 20
347.039686
 11
99.280564
 21
351.939686
  0
LINE
  8
M0
 62
     7
 10
97.780564
 20
345.539686
 11
99.280564
 21
347.039686
  0
LINE
  8
M0
 62
     7
 10
81.880563
 20
328.939686
 11
98.280562
 21
328.939686
  0
LINE
  8
M0
 62
     7
 10
98.280562
 20
352.939686
 11
96.130562
 21
352.939686
  0
POLYLINE
  8
M0
 62
     7
 66
     1
  0
VERTEX
  8
M0
 62
     7
 10
84.780563
 20
375.856353
  0
VERTEX
  8
M0
 62
     7
 10
84.795755
 20
375.784
  0
VERTEX
  8
M0
 62
     7
 10
84.84087
 20
375.713845
  0
VERTEX
  8
M0
 62
     7
 10
84.914537
 20
375.64802
  0
VERTEX
  8
M0
 62
     7
 10
85.014518
 20
375.588525
  0
VERTEX
  8
M0
 62
     7
 10
85.137775
 20
375.537168
  0
VERTEX
  8
M0
 62
     7
 10
85.280563
 20
375.495509
  0
VERTEX
  8
M0
 62
     7
 10
85.438543
 20
375.464815
  0
VERTEX
  8
M0
 62
     7
 10
85.606915
 20
375.446017
  0
VERTEX
  8
M0
 62
     7
 10
85.780563
 20
375.439686
  0
SEQEND
  8
M0
 62
     7
  0
POLYLINE
  8
M0
 62
     7
 66
     1
  0
VERTEX
  8
M0
 62
     7
 10
94.380563
 20
375.439686
  0
VERTEX
  8
M0
 62
     7
 10
94.554211
 20
375.446017
  0
VERTEX
  8
M0
 62
     7
 10
94.722583
 20
375.464815
  0
VERTEX
  8
M0
 62
     7
 10
94.880563
 20
375.495509
  0
VERTEX
  8
M0
 62
     7
 10
95.02335
 20
375.537168
  0
VERTEX
  8
M0
 62
     7
 10
95.146607
 20
375.588525
  0
VERTEX
  8
M0
 62
     7
 10
95.246588
 20
375.64802
  0
VERTEX
  8
M0
 62
     7
 10
95.320255
 20
375.713845
  0
VERTEX
  8
M0
 62
     7
 10
95.36537
 20
375.784
  0
VERTEX
  8
M0
 62
     7
 10
95.380563
 20
375.856353
  0
SEQEND
  8
M0
 62
     7
  0
LINE
  8
M0
 62
     7
 10
94.380563
 20
375.439687
 11
85.780562
 21
375.439687
  0
LINE
  8
M0
 62
     7
 10
85.780562
 20
383.939688
 11
94.380563
 21
383.939688
  0
LINE
  8
M0
 62
     7
 10
71.780562
 20
371.939686
 11
82.380564
 21
371.939686
  0
LINE
  8
M0
 62
     7
 10
84.780564
 20
371.939686
 11
95.380561
 21
371.939686
  0
LINE
  8
M0
 62
     7
 10
84.780564
 20
382.939686
 11
84.780564
 21
358.339687
  0
LINE
  8
M0
 62
     7
 10
95.380561
 20
373.939686
 11
84.780564
 21
373.939686
  0
LINE
  8
M0
 62
     7
 10
106.330564
 20
308.439687
 11
106.330564
 21
306.439687
  0
LINE
  8
M0
 62
     7
 10
99.080564
 20
305.439685
 11
107.080563
 21
305.439685
  0
LINE
  8
M0
 62
     7
 10
99.830562
 20
306.439687
 11
99.830562
 21
308.439687
  0
LINE
  8
M0
 62
     7
 10
108.080564
 20
306.439687
 11
108.080564
 21
309.939687
  0
LINE
  8
M0
 62
     7
 10
108.080564
 20
309.939687
 11
108.380561
 21
309.939687
  0
LINE
  8
M0
 62
     7
 10
59.980562
 20
313.239687
 11
59.680563
 21
313.239687
  0
LINE
  8
M0
 62
     7
 10
72.080563
 20
309.939687
 11
71.780562
 21
309.939687
  0
LINE
  8
M0
 62
     7
 10
107.080562
 20
311.939687
 11
107.080562
 21
310.939685
  0
LINE
  8
M0
 62
     7
 10
59.680563
 20
368.639686
 11
59.980562
 21
368.639686
  0
LINE
  8
M0
 62
     7
 10
81.080563
 20
309.439686
 11
81.080563
 21
311.939687
  0
LINE
  8
M0
 62
     7
 10
82.380564
 20
308.439687
 11
82.080563
 21
308.439687
  0
LINE
  8
M0
 62
     7
 10
106.330564
 20
306.439687
 11
106.330564
 21
305.939686
  0
LINE
  8
M0
 62
     7
 10
108.380561
 20
371.939686
 11
97.780564
 21
371.939686
  0
LINE
  8
M0
 62
     7
 10
99.080564
 20
309.439686
 11
99.080564
 21
311.939687
  0
LINE
  8
M0
 62
     7
 10
73.080563
 20
311.939687
 11
73.080563
 21
310.939685
  0
LINE
  8
M0
 62
     7
 10
95.380561
 20
308.439687
 11
90.712977
 21
308.439687
  0
LINE
  8
M0
 62
     7
 10
98.080562
 20
308.439687
 11
97.780564
 21
308.439687
  0
ARC
  8
M0
 62
     7
 10
106.830563
 20
305.939686
 40
0.5
 50
180.0
 51
270.0
  0
ARC
  8
M0
 62
     7
 10
99.330563
 20
305.939686
 40
0.5
 50
270.0
 51
306.017821
  0
ARC
  8
M0
 62
     7
 10
103.080563
 20
308.439686
 40
3.25
 50
145.699618
 51
180.0
  0
ARC
  8
M0
 62
     7
 10
85.780563
 20
382.939686
 40
1.0
 50
90.0
 51
180.0
  0
ARC
  8
M0
 62
     7
 10
94.380563
 20
382.939686
 40
1.0
 50
0.0
 51
90.0
  0
ARC
  8
M0
 62
     7
 10
107.080563
 20
306.439686
 40
1.0
 50
270.0
 51
360.0
  0
ARC
  8
M0
 62
     7
 10
73.330563
 20
305.939686
 40
0.5
 50
270.0
 51
360.0
  0
ARC
  8
M0
 62
     7
 10
81.080563
 20
306.439686
 40
1.0
 50
270.0
 51
360.0
  0
ARC
  8
M0
 62
     7
 10
99.080563
 20
306.439686
 40
1.0
 50
180.0
 51
270.0
  0
ARC
  8
M0
 62
     7
 10
77.080563
 20
308.439686
 40
3.25
 50
0.0
 51
59.586094
  0
LINE
  8
M0
 62
     7
 10
73.830563
 20
308.439686
 11
73.830563
 21
305.939686
  0
LINE
  8
M0
 62
     7
 10
82.080563
 20
308.439687
 11
82.080563
 21
306.439687
  0
LINE
  8
M0
 62
     7
 10
98.080562
 20
308.439687
 11
98.080562
 21
306.439687
  0
LINE
  8
M0
 62
     7
 10
80.330563
 20
305.939686
 11
80.330563
 21
308.439686
  0
ARC
  8
M0
 62
     7
 10
98.080563
 20
309.439686
 40
1.0
 50
270.0
 51
360.0
  0
ARC
  8
M0
 62
     7
 10
72.080563
 20
310.939686
 40
1.0
 50
270.0
 51
360.0
  0
ARC
  8
M0
 62
     7
 10
80.830563
 20
305.939686
 40
0.5
 50
180.0
 51
270.0
  0
ARC
  8
M0
 62
     7
 10
82.080563
 20
309.439686
 40
1.0
 50
180.0
 51
270.0
  0
LINE
  8
M0
 62
     7
 10
72.080563
 20
306.439687
 11
72.080563
 21
309.939687
  0
ARC
  8
M0
 62
     7
 10
108.080563
 20
310.939686
 40
1.0
 50
180.0
 51
270.0
  0
ARC
  8
M0
 62
     7
 10
59.680563
 20
367.639686
 40
1.0
 50
90.0
 51
180.0
  0
LINE
  8
M0
 62
     7
 10
70.780562
 20
305.439685
 11
69.280563
 21
305.439685
  0
LINE
  8
M0
 62
     7
 10
63.680563
 20
376.439687
 11
70.780562
 21
376.439687
  0
LINE
  8
M0
 62
     7
 10
69.380562
 20
375.439686
 11
69.380562
 21
344.439686
  0
LINE
  8
M0
 62
     7
 10
111.380564
 20
313.839686
 11
111.380564
 21
331.639686
  0
LINE
  8
M0
 62
     7
 10
111.380564
 20
350.239686
 11
111.380564
 21
368.039686
  0
ARC
  8
M0
 62
     7
 10
59.680563
 20
314.239686
 40
1.0
 50
180.0
 51
270.0
  0
ARC
  8
M0
 62
     7
 10
59.980563
 20
314.239686
 40
1.0
 50
270.0
 51
360.0
  0
LINE
  8
M0
 62
     7
 10
82.380564
 20
359.839687
 11
84.780564
 21
359.839687
  0
ARC
  8
M0
 62
     7
 10
69.380563
 20
313.839686
 40
0.6
 50
180.0
 51
270.0
  0
ARC
  8
M0
 62
     7
 10
110.780563
 20
368.039686
 40
0.6
 50
0.0
 51
90.0
  0
ARC
  8
M0
 62
     7
 10
59.980563
 20
367.639686
 40
1.0
 50
0.0
 51
90.0
  0
ARC
  8
M0
 62
     7
 10
69.380563
 20
368.039686
 40
0.6
 50
90.0
 51
180.0
  0
LINE
  8
M0
 62
     7
 10
71.780562
 20
323.539686
 11
71.780562
 21
306.439687
  0
LINE
  8
M0
 62
     7
 10
82.380564
 20
306.439687
 11
82.380564
 21
323.539686
  0
LINE
  8
M0
 62
     7
 10
82.380564
 20
322.039687
 11
83.380563
 21
322.039687
  0
LINE
  8
M0
 62
     7
 10
109.580563
 20
376.439687
 11
109.380563
 21
376.439687
  0
LINE
  8
M0
 62
     7
 10
108.380561
 20
375.439687
 11
108.380561
 21
358.339687
  0
LINE
  8
M0
 62
     7
 10
84.780564
 20
306.439686
 11
84.780564
 21
323.539686
  0
LINE
  8
M0
 62
     7
 10
82.380564
 20
375.439686
 11
82.380564
 21
358.339687
  0
LINE
  8
M0
 62
     7
 10
97.780564
 20
323.539686
 11
97.780564
 21
306.439686
  0
LINE
  8
M0
 62
     7
 10
95.380561
 20
306.439686
 11
95.380561
 21
323.539686
  0
LINE
  8
M0
 62
     7
 10
97.780564
 20
375.439686
 11
97.780564
 21
358.339687
  0
LINE
  8
M0
 62
     7
 10
95.380561
 20
358.339687
 11
95.380561
 21
382.939686
  0
LINE
  8
M0
 62
     7
 10
95.380561
 20
308.439687
 11
95.380561
 21
309.439686
  0
LINE
  8
M0
 62
     7
 10
95.380561
 20
373.439687
 11
95.380561
 21
372.439687
  0
LINE
  8
M0
 62
     7
 10
120.18056
 20
313.239687
 11
120.480565
 21
313.239687
  0
LINE
  8
M0
 62
     7
 10
120.480565
 20
368.639686
 11
120.18056
 21
368.639686
  0
LINE
  8
M0
 62
     7
 10
120.280562
 20
361.039686
 11
120.18056
 21
361.039686
  0
LINE
  8
M0
 62
     7
 10
71.780562
 20
375.439687
 11
71.780562
 21
358.339687
  0
LINE
  8
M0
 62
     7
 10
59.880563
 20
361.039686
 11
59.980562
 21
361.039686
  0
LINE
  8
M0
 62
     7
 10
120.280562
 20
320.839687
 11
120.18056
 21
320.839687
  0
LINE
  8
M0
 62
     7
 10
59.880563
 20
320.839687
 11
59.980562
 21
320.839687
  0
ARC
  8
M0
 62
     7
 10
120.180563
 20
314.239686
 40
1.0
 50
180.0
 51
270.0
  0
ARC
  8
M0
 62
     7
 10
120.180563
 20
367.639686
 40
1.0
 50
90.0
 51
180.0
  0
ARC
  8
M0
 62
     7
 10
110.780563
 20
313.839686
 40
0.6
 50
270.0
 51
360.0
  0
ARC
  8
M0
 62
     7
 10
120.480563
 20
367.639686
 40
1.0
 50
0.0
 51
90.0
  0
LINE
  8
M0
 62
     7
 10
68.780563
 20
313.839686
 11
68.780563
 21
331.639686
  0
LINE
  8
M0
 62
     7
 10
68.780563
 20
350.239686
 11
68.780563
 21
368.039686
  0
ARC
  8
M0
 62
     7
 10
120.480563
 20
314.239686
 40
1.0
 50
270.0
 51
360.0
  0
LINE
  8
M0
 62
     7
 10
60.980563
 20
336.239686
 11
60.980563
 21
314.239687
  0
LINE
  8
M0
 62
     7
 10
112.280564
 20
315.239687
 11
112.280564
 21
316.239687
  0
LINE
  8
M0
 62
     7
 10
118.280565
 20
315.239687
 11
112.280564
 21
315.239687
  0
LINE
  8
M0
 62
     7
 10
118.280565
 20
316.239687
 11
118.280565
 21
315.239687
  0
LINE
  8
M0
 62
     7
 10
68.780563
 20
358.039686
 11
60.980563
 21
358.039686
  0
LINE
  8
M0
 62
     7
 10
112.280564
 20
366.639687
 11
118.280565
 21
366.639687
  0
LINE
  8
M0
 62
     7
 10
112.280564
 20
365.639687
 11
112.280564
 21
366.639687
  0
LINE
  8
M0
 62
     7
 10
118.280565
 20
366.639687
 11
118.280565
 21
365.639687
  0
LINE
  8
M0
 62
     7
 10
60.980563
 20
323.839686
 11
68.780563
 21
323.839686
  0
LINE
  8
M0
 62
     7
 10
111.380564
 20
323.839686
 11
119.180565
 21
323.839686
  0
LINE
  8
M0
 62
     7
 10
72.980562
 20
358.639686
 11
71.780562
 21
358.639686
  0
LINE
  8
M0
 62
     7
 10
81.180563
 20
358.639686
 11
82.380564
 21
358.639686
  0
LINE
  8
M0
 62
     7
 10
82.380564
 20
369.939687
 11
71.780562
 21
369.939687
  0
ARC
  8
M0
 62
     7
 10
85.980563
 20
357.639686
 40
1.0
 50
44.427004
 51
90.0
  0
LINE
  8
M0
 62
     7
 10
98.980562
 20
358.639686
 11
97.780564
 21
358.639686
  0
ARC
  8
M0
 62
     7
 10
107.180563
 20
324.239686
 40
1.0
 50
224.427004
 51
270.0
  0
ARC
  8
M0
 62
     7
 10
94.180563
 20
357.639686
 40
1.0
 50
90.0
 51
135.572996
  0
LINE
  8
M0
 62
     7
 10
94.180563
 20
323.239687
 11
95.380561
 21
323.239687
  0
LINE
  8
M0
 62
     7
 10
85.980562
 20
323.239687
 11
84.780564
 21
323.239687
  0
LINE
  8
M0
 62
     7
 10
84.780564
 20
311.939687
 11
87.304845
 21
311.939687
  0
LINE
  8
M0
 62
     7
 10
61.880563
 20
366.639687
 11
67.880563
 21
366.639687
  0
LINE
  8
M0
 62
     7
 10
61.880563
 20
365.639687
 11
61.880563
 21
366.639687
  0
LINE
  8
M0
 62
     7
 10
67.880563
 20
366.639687
 11
67.880563
 21
365.639687
  0
ARC
  8
M0
 62
     7
 10
98.980563
 20
357.639686
 40
1.0
 50
44.427004
 51
90.0
  0
ARC
  8
M0
 62
     7
 10
81.180563
 20
357.639686
 40
1.0
 50
90.0
 51
135.572996
  0
ARC
  8
M0
 62
     7
 10
94.180563
 20
324.239686
 40
1.0
 50
224.427004
 51
270.0
  0
ARC
  8
M0
 62
     7
 10
98.980563
 20
324.239686
 40
1.0
 50
270.0
 51
315.572996
  0
ARC
  8
M0
 62
     7
 10
72.980563
 20
357.639686
 40
1.0
 50
44.427004
 51
90.0
  0
ARC
  8
M0
 62
     7
 10
85.980563
 20
324.239686
 40
1.0
 50
270.0
 51
315.572996
  0
LINE
  8
M0
 62
     7
 10
67.880563
 20
315.239687
 11
61.880563
 21
315.239687
  0
LINE
  8
M0
 62
     7
 10
67.880563
 20
316.239687
 11
67.880563
 21
315.239687
  0
LINE
  8
M0
 62
     7
 10
61.880563
 20
315.239687
 11
61.880563
 21
316.239687
  0
LINE
  8
M0
 62
     7
 10
106.798024
 20
384.857678
 11
106.799116
 21
384.821218
  0
LINE
  8
M0
 62
     7
 10
106.799116
 20
384.821218
 11
106.802364
 21
384.712939
  0
LINE
  8
M0
 62
     7
 10
106.802364
 20
384.712939
 11
106.807669
 21
384.53614
  0
LINE
  8
M0
 62
     7
 10
106.807669
 20
384.53614
 11
106.814866
 21
384.296187
  0
LINE
  8
M0
 62
     7
 10
106.814866
 20
384.296187
 11
106.823744
 21
384.000369
  0
LINE
  8
M0
 62
     7
 10
106.823744
 20
384.000369
 11
106.834022
 21
383.65768
  0
LINE
  8
M0
 62
     7
 10
106.834022
 20
383.65768
 11
106.845399
 21
383.278527
  0
LINE
  8
M0
 62
     7
 10
106.845399
 20
383.278527
 11
106.857521
 21
382.874434
  0
LINE
  8
M0
 62
     7
 10
106.857521
 20
382.874434
 11
106.870023
 21
382.457678
  0
LINE
  8
M0
 62
     7
 10
73.291102
 20
382.457678
 11
73.305148
 21
382.925895
  0
LINE
  8
M0
 62
     7
 10
73.305148
 20
382.925895
 11
73.318656
 21
383.376118
  0
LINE
  8
M0
 62
     7
 10
73.318656
 20
383.376118
 11
73.331104
 21
383.791049
  0
LINE
  8
M0
 62
     7
 10
73.331104
 20
383.791049
 11
73.342014
 21
384.154734
  0
LINE
  8
M0
 62
     7
 10
73.342014
 20
384.154734
 11
73.350967
 21
384.453204
  0
LINE
  8
M0
 62
     7
 10
73.350967
 20
384.453204
 11
73.357623
 21
384.674989
  0
LINE
  8
M0
 62
     7
 10
73.357623
 20
384.674989
 11
73.361719
 21
384.811562
  0
LINE
  8
M0
 62
     7
 10
73.361719
 20
384.811562
 11
73.363103
 21
384.857678
  0
LINE
  8
M0
  6
DASHDOT
 62
     7
 10
57.832062
 20
370.939686
 11
68.329063
 21
370.939686
  0
LINE
  8
M0
  6
DASHDOT
 62
     7
 10
63.080563
 20
365.691186
 11
63.080563
 21
376.188187
  0
LINE
  8
M0
  6
DASHDOT
 62
     7
 10
111.832062
 20
311.939686
 11
122.329063
 21
311.939686
  0
LINE
  8
M0
  6
DASHDOT
 62
     7
 10
117.080563
 20
305.691186
 11
117.080563
 21
316.188187
  0
LINE
  8
M0
  6
DASHDOT
 62
     7
 10
76.580563
 20
317.239686
 11
77.580563
 21
317.239686
  0
LINE
  8
M0
  6
DASHDOT
 62
     7
 10
77.080563
 20
316.739686
 11
77.080563
 21
317.739686
  0
LINE
  8
M0
  6
DASHDOT
 62
     7
 10
90.080559
 20
316.739686
 11
90.080559
 21
317.739686
  0
LINE
  8
M0
  6
DASHDOT
 62
     7
 10
89.580559
 20
317.239686
 11
90.580559
 21
317.239686
  0
LINE
  8
M0
  6
DASHDOT
 62
     7
 10
103.080559
 20
316.739686
 11
103.080559
 21
317.739686
  0
LINE
  8
M0
  6
DASHDOT
 62
     7
 10
102.580559
 20
317.239686
 11
103.580559
 21
317.239686
  0
LINE
  8
M0
  6
DASHDOT
 62
     7
 10
103.080559
 20
365.139687
 11
103.080559
 21
364.139687
  0
LINE
  8
M0
  6
DASHDOT
 62
     7
 10
102.580559
 20
364.639687
 11
103.580559
 21
364.639687
  0
LINE
  8
M0
  6
DASHDOT
 62
     7
 10
89.580559
 20
364.639687
 11
90.580559
 21
364.639687
  0
LINE
  8
M0
  6
DASHDOT
 62
     7
 10
77.080563
 20
365.139687
 11
77.080563
 21
364.139687
  0
LINE
  8
M0
  6
DASHDOT
 62
     7
 10
90.080559
 20
365.139687
 11
90.080559
 21
364.139687
  0
LINE
  8
M0
  6
DASHDOT
 62
     7
 10
76.580563
 20
364.639687
 11
77.580563
 21
364.639687
  0
LINE
  8
M0
  6
DASHDOT
 62
     7
 10
115.780562
 20
361.839686
 11
114.780562
 21
361.839686
  0
LINE
  8
M0
  6
DASHDOT
 62
     7
 10
115.280562
 20
361.339686
 11
115.280562
 21
362.339686
  0
LINE
  8
M0
  6
DASHDOT
 62
     7
 10
115.780562
 20
354.239686
 11
114.780562
 21
354.239686
  0
LINE
  8
M0
  6
DASHDOT
 62
     7
 10
115.280562
 20
353.739686
 11
115.280562
 21
354.739686
  0
LINE
  8
M0
  6
DASHDOT
 62
     7
 10
115.780562
 20
327.639686
 11
114.780562
 21
327.639686
  0
LINE
  8
M0
  6
DASHDOT
 62
     7
 10
115.280562
 20
327.139686
 11
115.280562
 21
328.139686
  0
LINE
  8
M0
  6
DASHDOT
 62
     7
 10
115.780562
 20
320.039686
 11
114.780562
 21
320.039686
  0
LINE
  8
M0
  6
DASHDOT
 62
     7
 10
115.280562
 20
319.539686
 11
115.280562
 21
320.539686
  0
LINE
  8
M0
  6
DASHDOT
 62
     7
 10
64.380563
 20
354.239686
 11
65.380563
 21
354.239686
  0
LINE
  8
M0
  6
DASHDOT
 62
     7
 10
64.880563
 20
353.739686
 11
64.880563
 21
354.739686
  0
LINE
  8
M0
  6
DASHDOT
 62
     7
 10
64.380563
 20
361.839686
 11
65.380563
 21
361.839686
  0
LINE
  8
M0
  6
DASHDOT
 62
     7
 10
64.880563
 20
361.339686
 11
64.880563
 21
362.339686
  0
LINE
  8
M0
  6
DASHDOT
 62
     7
 10
64.380563
 20
320.039686
 11
65.380563
 21
320.039686
  0
LINE
  8
M0
  6
DASHDOT
 62
     7
 10
64.880563
 20
319.539686
 11
64.880563
 21
320.539686
  0
LINE
  8
M0
  6
DASHDOT
 62
     7
 10
64.380563
 20
327.639686
 11
65.380563
 21
327.639686
  0
LINE
  8
M0
  6
DASHDOT
 62
     7
 10
64.880563
 20
327.139686
 11
64.880563
 21
328.139686
  0
LINE
  8
M0
  6
DASHDOT
 62
     7
 10
77.080563
 20
307.939686
 11
77.080563
 21
308.939686
  0
LINE
  8
M0
  6
DASHDOT
 62
     7
 10
100.480563
 20
379.539686
 11
101.480563
 21
379.539686
  0
LINE
  8
M0
  6
DASHDOT
 62
     7
 10
100.980563
 20
379.039686
 11
100.980563
 21
380.039686
  0
LINE
  8
M0
  6
DASHDOT
 62
     7
 10
89.580563
 20
379.139686
 11
90.580563
 21
379.139686
  0
LINE
  8
M0
  6
DASHDOT
 62
     7
 10
90.080563
 20
378.639686
 11
90.080563
 21
379.639686
  0
LINE
  8
M0
  6
DASHDOT
 62
     7
 10
79.680562
 20
379.539686
 11
78.680562
 21
379.539686
  0
LINE
  8
M0
  6
DASHDOT
 62
     7
 10
79.180562
 20
379.039686
 11
79.180562
 21
380.039686
  0
LINE
  8
M0
 62
     7
 10
112.080563
 20
311.439686
 11
112.780561
 21
311.439686
  0
LINE
  8
M0
 62
     7
 10
104.990543
 20
311.939687
 11
108.380561
 21
311.939687
  0
LINE
  8
M0
 62
     7
 10
86.77815
 20
305.439685
 11
85.080562
 21
305.439685
  0
LINE
  8
M0
 62
     7
 10
90.408657
 20
307.439685
 11
94.580562
 21
307.439685
  0
LINE
  8
M0
 62
     7
 10
87.250162
 20
308.439687
 11
84.780564
 21
308.439687
  0
LINE
  8
M0
 62
     7
 10
92.032245
 20
311.939687
 11
95.380561
 21
311.939687
  0
ARC
  8
M0
 62
     7
 10
77.080563
 20
308.439686
 40
3.25
 50
138.466946
 51
180.0
  0
LINE
  8
M0
 62
     7
 10
79.077163
 20
311.939687
 11
82.380564
 21
311.939687
  0
LINE
  8
M0
 62
     7
 10
76.956305
 20
305.439685
 11
81.080563
 21
305.439685
  0
LINE
  8
M0
 62
     7
 10
69.280563
 20
311.439686
 11
69.380562
 21
311.439686
  0
LINE
  8
M0
 62
     7
 10
68.080563
 20
305.439685
 11
63.680563
 21
305.439685
  0
LINE
  8
M0
 62
     7
 10
110.880563
 20
305.439685
 11
109.380563
 21
305.439685
  0
LINE
  8
M0
  6
DIVIDE
 62
     6
 10
280.776826
 20
354.439686
 11
274.276826
 21
354.439686
  0
LINE
  8
M0
  6
DIVIDE
 62
     6
 10
280.776826
 20
327.439686
 11
274.276826
 21
327.439686
  0
LINE
  8
M0
  6
DIVIDE
 62
     6
 10
279.776826
 20
353.439686
 11
273.276826
 21
353.439686
  0
LINE
  8
M0
  6
DIVIDE
 62
     6
 10
274.276826
 20
327.439686
 11
274.276826
 21
323.439686
  0
LINE
  8
M0
  6
DIVIDE
 62
     6
 10
279.776826
 20
328.439686
 11
273.276826
 21
328.439686
  0
LINE
  8
M0
  6
DIVIDE
 62
     6
 10
273.276826
 20
328.439686
 11
273.276826
 21
323.439686
  0
LINE
  8
M0
  6
DIVIDE
 62
     6
 10
274.276826
 20
358.439686
 11
273.276826
 21
358.439686
  0
LINE
  8
M0
  6
DIVIDE
 62
     6
 10
280.776826
 20
327.439686
 11
280.776826
 21
354.439686
  0
LINE
  8
M0
  6
DIVIDE
 62
     6
 10
273.276826
 20
358.439686
 11
273.276826
 21
353.439686
  0
LINE
  8
M0
  6
DIVIDE
 62
     6
 10
274.276826
 20
358.439686
 11
274.276826
 21
354.439686
  0
LINE
  8
M0
  6
DIVIDE
 62
     6
 10
273.276826
 20
323.439686
 11
274.276826
 21
323.439686
  0
LINE
  8
M0
  6
DIVIDE
 62
     6
 10
279.776826
 20
353.439686
 11
279.776826
 21
328.439686
  0
ARC
  8
M0
 62
     4
 10
109.731616
 20
254.439484
 40
1.0
 50
179.9998
 51
270.0
  0
ARC
  8
M0
 62
     4
 10
109.731616
 20
254.439484
 40
1.0
 50
270.0
 51
359.9998
  0
LINE
  8
M0
 62
     4
 10
100.731647
 20
254.439516
 11
97.731647
 21
254.439526
  0
ARC
  8
M0
 62
     4
 10
77.981794
 20
296.739583
 40
1.0
 50
0.0
 51
89.998926
  0
LINE
  8
M0
 62
     4
 10
121.731742
 20
294.939442
 11
95.072552
 21
294.939428
  0
LINE
  8
M0
 62
     4
 10
59.231777
 20
296.239367
 11
59.231654
 21
260.939569
  0
LINE
  8
M0
 62
     4
 10
100.731646
 20
258.439516
 11
101.788942
 21
258.439512
  0
LINE
  8
M0
 62
     4
 10
121.731622
 20
255.939442
 11
121.731768
 21
297.939442
  0
LINE
  8
M0
 62
     4
 10
117.876746
 20
290.439456
 11
106.583148
 21
290.439495
  0
LINE
  8
M0
 62
     4
 10
84.731678
 20
263.439571
 11
84.731795
 21
296.939571
  0
LINE
  8
M0
 62
     4
 10
87.231678
 20
263.439563
 11
87.231795
 21
296.939563
  0
LINE
  8
M0
 62
     4
 10
74.731678
 20
263.439606
 11
74.731795
 21
296.939606
  0
LINE
  8
M0
 62
     4
 10
72.231678
 20
263.439615
 11
72.231795
 21
296.939615
  0
LINE
  8
M0
 62
     4
 10
86.231799
 20
297.939566
 11
85.731799
 21
297.939568
  0
ARC
  8
M0
 62
     4
 10
86.231795
 20
296.939566
 40
1.0
 50
359.9998
 51
449.998926
  0
LINE
  8
M0
 62
     4
 10
77.981783
 20
297.739595
 11
74.331728
 21
297.739582
  0
ARC
  8
M0
 62
     4
 10
85.731795
 20
296.939568
 40
1.0
 50
89.998926
 51
179.9998
  0
LINE
  8
M0
 62
     4
 10
95.731727
 20
277.439533
 11
88.731727
 21
277.439557
  0
LINE
  8
M0
 62
     4
 10
95.731743
 20
281.939533
 11
88.731743
 21
281.939557
  0
LINE
  8
M0
 62
     4
 10
95.731736
 20
279.939533
 11
88.731736
 21
279.939557
  0
LINE
  8
M0
 62
     4
 10
89.231743
 20
281.939556
 11
89.231743
 21
282.039686
  0
LINE
  8
M0
 62
     4
 10
95.231743
 20
281.939535
 11
95.231743
 21
282.039686
  0
LINE
  8
M0
 62
     4
 10
89.731775
 20
291.239686
 11
89.731788
 21
294.939554
  0
LINE
  8
M0
 62
     4
 10
77.231774
 20
291.012987
 11
77.231788
 21
294.939598
  0
LINE
  8
M0
 62
     4
 10
64.731774
 20
290.797219
 11
64.731788
 21
294.939641
  0
LINE
  8
M0
 62
     4
 10
69.731776
 20
291.431823
 11
69.73178
 21
292.574941
  0
LINE
  8
M0
 62
     4
 10
89.731788
 20
294.939554
 11
87.231788
 21
294.939563
  0
LINE
  8
M0
 62
     4
 10
77.231788
 20
294.939598
 11
74.731788
 21
294.939606
  0
LINE
  8
M0
 62
     4
 10
64.731788
 20
294.939641
 11
62.231788
 21
294.93965
  0
LINE
  8
M0
 62
     4
 10
83.231743
 20
281.939577
 11
76.231743
 21
281.939601
  0
LINE
  8
M0
 62
     4
 10
70.731743
 20
281.93962
 11
63.731743
 21
281.939645
  0
LINE
  8
M0
 62
     4
 10
96.731746
 20
282.93953
 11
96.731785
 21
293.93953
  0
LINE
  8
M0
 62
     4
 10
87.731746
 20
282.939561
 11
87.731785
 21
293.939561
  0
LINE
  8
M0
 62
     4
 10
84.231746
 20
282.939573
 11
84.231785
 21
293.939573
  0
LINE
  8
M0
 62
     4
 10
75.231746
 20
282.939605
 11
75.231785
 21
293.939605
  0
LINE
  8
M0
 62
     4
 10
71.731746
 20
282.939617
 11
71.731785
 21
293.939617
  0
LINE
  8
M0
 62
     4
 10
62.731746
 20
282.939648
 11
62.731785
 21
293.939648
  0
LINE
  8
M0
 62
     4
 10
84.731788
 20
294.939571
 11
82.533772
 21
294.939557
  0
LINE
  8
M0
 62
     4
 10
72.231788
 20
294.939615
 11
70.008164
 21
294.939603
  0
LINE
  8
M0
 62
     4
 10
97.231666
 20
259.939528
 11
97.23168
 21
272.739455
  0
ARC
  8
M0
 62
     4
 10
97.731785
 20
293.939526
 40
1.0
 50
119.999001
 51
179.9998
  0
ARC
  8
M0
 62
     4
 10
85.231785
 20
293.93957
 40
1.0
 50
119.999001
 51
179.9998
  0
ARC
  8
M0
 62
     4
 10
72.731785
 20
293.939613
 40
1.0
 50
119.999001
 51
179.9998
  0
ARC
  8
M0
 62
     4
 10
86.731785
 20
293.939564
 40
1.0
 50
359.9998
 51
419.999842
  0
ARC
  8
M0
 62
     4
 10
74.231785
 20
293.939608
 40
1.0
 50
359.9998
 51
419.999842
  0
LINE
  8
M0
 62
     4
 10
62.231746
 20
282.93965
 11
62.231788
 21
294.93965
  0
ARC
  8
M0
 62
     4
 10
61.731785
 20
293.939652
 40
1.0
 50
359.9998
 51
419.999842
  0
ARC
  8
M0
 62
     4
 10
70.48181
 20
296.739621
 40
1.0
 50
89.998926
 51
93.750712
  0
ARC
  8
M0
 62
     4
 10
73.731795
 20
296.93961
 40
1.0
 50
359.9998
 51
449.998926
  0
ARC
  8
M0
 62
     4
 10
73.231795
 20
296.939612
 40
1.0
 50
89.998926
 51
179.9998
  0
LINE
  8
M0
 62
     4
 10
72.231808
 20
296.239341
 11
70.160077
 21
296.239331
  0
LINE
  8
M0
 62
     4
 10
70.731736
 20
279.93962
 11
59.231705
 21
279.93966
  0
LINE
  8
M0
 62
     4
 10
83.231736
 20
279.939577
 11
76.231736
 21
279.939601
  0
ARC
  8
M0
 62
     4
 10
83.231748
 20
283.439577
 40
1.499996
 50
270.0
 51
359.9998
  0
ARC
  8
M0
 62
     4
 10
70.731748
 20
283.43962
 40
1.499996
 50
270.0
 51
359.9998
  0
ARC
  8
M0
 62
     4
 10
70.731746
 20
282.93962
 40
1.0
 50
270.0
 51
359.9998
  0
ARC
  8
M0
 62
     4
 10
83.231746
 20
282.939577
 40
1.0
 50
270.0
 51
359.9998
  0
ARC
  8
M0
 62
     4
 10
95.731748
 20
283.439533
 40
1.499996
 50
270.0
 51
359.9998
  0
ARC
  8
M0
 62
     4
 10
95.731746
 20
282.939533
 40
1.0
 50
270.0
 51
359.9998
  0
ARC
  8
M0
 62
     4
 10
88.731748
 20
283.439557
 40
1.499996
 50
179.9998
 51
270.0
  0
ARC
  8
M0
 62
     4
 10
76.231748
 20
283.439601
 40
1.499996
 50
179.9998
 51
270.0
  0
ARC
  8
M0
 62
     4
 10
88.731746
 20
282.939557
 40
1.0
 50
179.9998
 51
270.0
  0
ARC
  8
M0
 62
     4
 10
76.231746
 20
282.939601
 40
1.0
 50
179.9998
 51
270.0
  0
ARC
  8
M0
 62
     4
 10
63.731746
 20
282.939645
 40
1.0
 50
179.9998
 51
270.0
  0
ARC
  8
M0
 62
     4
 10
63.731748
 20
283.439645
 40
1.499996
 50
179.9998
 51
270.0
  0
ARC
  8
M0
 62
     4
 10
61.231746
 20
282.939653
 40
1.0
 50
270.0
 51
359.9998
  0
LINE
  8
M0
 62
     4
 10
61.231743
 20
281.939653
 11
59.231712
 21
281.93966
  0
LINE
  8
M0
 62
     4
 10
97.231692
 20
267.439528
 11
87.231692
 21
267.439563
  0
LINE
  8
M0
 62
     4
 10
97.231748
 20
283.439528
 11
97.231788
 21
294.939528
  0
ARC
  8
M0
 62
     4
 10
88.731731
 20
278.439557
 40
1.499996
 50
89.999217
 51
179.9998
  0
ARC
  8
M0
 62
     4
 10
95.731731
 20
278.439533
 40
1.499996
 50
359.9998
 51
449.999217
  0
ARC
  8
M0
 62
     4
 10
83.231731
 20
278.439577
 40
1.499996
 50
359.9998
 51
449.999217
  0
ARC
  8
M0
 62
     4
 10
76.231731
 20
278.439601
 40
1.499996
 50
89.999217
 51
179.9998
  0
ARC
  8
M0
 62
     4
 10
70.731731
 20
278.43962
 40
1.499996
 50
359.9998
 51
449.999217
  0
LINE
  8
M0
 62
     4
 10
62.23169
 20
266.93965
 11
62.231732
 21
278.93965
  0
ARC
  8
M0
 62
     4
 10
63.731731
 20
278.439645
 40
1.499996
 50
89.999217
 51
179.9998
  0
ARC
  8
M0
 62
     4
 10
61.231732
 20
278.939653
 40
1.0
 50
359.9998
 51
449.998926
  0
LINE
  8
M0
 62
     4
 10
84.731692
 20
267.439571
 11
74.731692
 21
267.439606
  0
LINE
  8
M0
 62
     4
 10
72.231692
 20
267.439615
 11
62.231692
 21
267.43965
  0
ARC
  8
M0
 62
     4
 10
95.731722
 20
275.939533
 40
1.499996
 50
359.9998
 51
449.999217
  0
LINE
  8
M0
 62
     4
 10
83.231727
 20
277.439577
 11
76.231727
 21
277.439601
  0
LINE
  8
M0
 62
     4
 10
70.731727
 20
277.43962
 11
63.731727
 21
277.439645
  0
ARC
  8
M0
 62
     4
 10
88.731722
 20
275.939557
 40
1.499996
 50
89.999217
 51
179.9998
  0
ARC
  8
M0
 62
     4
 10
76.231722
 20
275.939601
 40
1.499996
 50
89.999217
 51
179.9998
  0
ARC
  8
M0
 62
     4
 10
63.731722
 20
275.939645
 40
1.499996
 50
89.999217
 51
179.9998
  0
ARC
  8
M0
 62
     4
 10
83.231722
 20
275.939577
 40
1.499996
 50
359.9998
 51
449.999217
  0
ARC
  8
M0
 62
     4
 10
70.731722
 20
275.93962
 40
1.499996
 50
359.9998
 51
449.999217
  0
LINE
  8
M0
 62
     4
 10
96.731696
 20
268.43953
 11
96.731724
 21
276.43953
  0
LINE
  8
M0
 62
     4
 10
87.731696
 20
268.439561
 11
87.731724
 21
276.439561
  0
LINE
  8
M0
 62
     4
 10
84.231696
 20
268.439573
 11
84.231724
 21
276.439573
  0
LINE
  8
M0
 62
     4
 10
75.231696
 20
268.439605
 11
75.231724
 21
276.439605
  0
LINE
  8
M0
 62
     4
 10
71.731696
 20
268.439617
 11
71.731724
 21
276.439617
  0
LINE
  8
M0
 62
     4
 10
62.731696
 20
268.439648
 11
62.731724
 21
276.439648
  0
ARC
  8
M0
 62
     4
 10
95.731724
 20
276.439533
 40
1.0
 50
359.9998
 51
449.998926
  0
ARC
  8
M0
 62
     4
 10
83.231724
 20
276.439577
 40
1.0
 50
359.9998
 51
449.998926
  0
ARC
  8
M0
 62
     4
 10
70.731724
 20
276.43962
 40
1.0
 50
359.9998
 51
449.998926
  0
ARC
  8
M0
 62
     4
 10
88.731724
 20
276.439557
 40
1.0
 50
89.998926
 51
179.9998
  0
ARC
  8
M0
 62
     4
 10
76.231724
 20
276.439601
 40
1.0
 50
89.998926
 51
179.9998
  0
ARC
  8
M0
 62
     4
 10
63.731724
 20
276.439645
 40
1.0
 50
89.998926
 51
179.9998
  0
ARC
  8
M0
 62
     4
 10
97.731696
 20
268.439526
 40
1.0
 50
179.9998
 51
239.999433
  0
ARC
  8
M0
 62
     4
 10
85.231696
 20
268.43957
 40
1.0
 50
179.9998
 51
239.999433
  0
ARC
  8
M0
 62
     4
 10
72.731696
 20
268.439613
 40
1.0
 50
179.9998
 51
239.999433
  0
ARC
  8
M0
 62
     4
 10
61.731696
 20
268.439652
 40
1.0
 50
300.000925
 51
359.9998
  0
ARC
  8
M0
 62
     4
 10
74.231696
 20
268.439608
 40
1.0
 50
300.000925
 51
359.9998
  0
ARC
  8
M0
 62
     4
 10
86.731696
 20
268.439564
 40
1.0
 50
300.000925
 51
359.9998
  0
LINE
  8
M0
 62
     4
 10
86.231675
 20
262.439566
 11
85.731675
 21
262.439568
  0
LINE
  8
M0
 62
     4
 10
73.731675
 20
262.43961
 11
73.231675
 21
262.439612
  0
ARC
  8
M0
 62
     4
 10
73.231678
 20
263.439612
 40
1.0
 50
179.9998
 51
270.0
  0
ARC
  8
M0
 62
     4
 10
73.731678
 20
263.43961
 40
1.0
 50
270.0
 51
359.9998
  0
ARC
  8
M0
 62
     4
 10
85.731678
 20
263.439568
 40
1.0
 50
179.9998
 51
270.0
  0
ARC
  8
M0
 62
     4
 10
86.231678
 20
263.439566
 40
1.0
 50
270.0
 51
359.9998
  0
LINE
  8
M0
 62
     4
 10
97.23167
 20
260.939528
 11
87.48167
 21
260.939562
  0
LINE
  8
M0
 62
     4
 10
66.48167
 20
260.939635
 11
66.481692
 21
267.439635
  0
LINE
  8
M0
 62
     4
 10
70.98167
 20
260.939619
 11
70.981692
 21
267.439619
  0
LINE
  8
M0
 62
     4
 10
91.48167
 20
260.939548
 11
91.481692
 21
267.439548
  0
LINE
  8
M0
 62
     4
 10
95.98167
 20
260.939532
 11
95.981692
 21
267.439532
  0
LINE
  8
M0
 62
     4
 10
61.231687
 20
265.939653
 11
59.231656
 21
265.93966
  0
ARC
  8
M0
 62
     4
 10
61.23169
 20
266.939653
 40
1.0
 50
270.0
 51
359.9998
  0
LINE
  8
M0
 62
     4
 10
118.731616
 20
256.439468
 11
118.731616
 21
272.739456
  0
LINE
  8
M0
 62
     4
 10
121.231636
 20
264.439444
 11
119.731636
 21
264.439449
  0
ARC
  8
M0
 62
     4
 10
121.231638
 20
264.939444
 40
0.5
 50
270.0
 51
359.9998
  0
ARC
  8
M0
 62
     4
 10
119.731639
 20
265.439449
 40
1.0
 50
179.9998
 51
270.0
  0
LINE
  8
M0
 62
     4
 10
121.231627
 20
257.439444
 11
119.731627
 21
257.439449
  0
LINE
  8
M0
 62
     4
 10
121.23162
 20
255.439444
 11
119.73162
 21
255.439449
  0
ARC
  8
M0
 62
     4
 10
121.231622
 20
255.939444
 40
0.5
 50
270.0
 51
359.9998
  0
ARC
  8
M0
 62
     4
 10
119.731623
 20
256.439449
 40
1.0
 50
179.9998
 51
270.0
  0
ARC
  8
M0
 62
     4
 10
121.231629
 20
257.939444
 40
0.5
 50
270.0
 51
359.9998
  0
ARC
  8
M0
 62
     4
 10
119.73163
 20
258.439449
 40
1.0
 50
179.9998
 51
270.0
  0
LINE
  8
M0
 62
     4
 10
121.231644
 20
262.439444
 11
119.731644
 21
262.439449
  0
ARC
  8
M0
 62
     4
 10
119.731648
 20
263.439449
 40
1.0
 50
179.9998
 51
270.0
  0
ARC
  8
M0
 62
     4
 10
121.231646
 20
262.939444
 40
0.5
 50
270.0
 51
359.9998
  0
LINE
  8
M0
 62
     4
 10
110.731616
 20
254.439496
 11
110.731616
 21
272.700718
  0
LINE
  8
M0
 62
     4
 10
117.673891
 20
258.439456
 11
118.7316
 21
258.439453
  0
LINE
  8
M0
 62
     4
 10
118.731624
 20
265.439453
 11
117.982311
 21
265.439211
  0
LINE
  8
M0
 62
     4
 10
111.480693
 20
265.439234
 11
110.731624
 21
265.439481
  0
LINE
  8
M0
 62
     4
 10
107.731601
 20
261.439506
 11
107.7316
 21
272.506077
  0
LINE
  8
M0
 62
     4
 10
109.731637
 20
260.439484
 11
108.731637
 21
260.439488
  0
ARC
  8
M0
 62
     4
 10
109.731641
 20
261.439484
 40
1.0
 50
270.0
 51
359.9998
  0
ARC
  8
M0
 62
     4
 10
108.731641
 20
261.439488
 40
1.0
 50
179.9998
 51
270.0
  0
LINE
  8
M0
 62
     4
 10
99.731677
 20
262.93955
 11
99.73168
 21
272.739446
  0
LINE
  8
M0
 62
     4
 10
106.67271
 20
265.439495
 11
107.731655
 21
265.439491
  0
LINE
  8
M0
 62
     4
 10
101.731646
 20
258.439512
 11
101.731646
 21
258.625303
  0
LINE
  8
M0
 62
     4
 10
100.731647
 20
254.439516
 11
100.731671
 21
265.6214
  0
LINE
  8
M0
 62
     4
 10
108.731616
 20
254.439488
 11
108.731637
 21
260.439488
  0
LINE
  8
M0
 62
     4
 10
110.7316
 20
258.439481
 11
111.788927
 21
258.439477
  0
LINE
  8
M0
 62
     4
 10
100.731666
 20
259.939516
 11
97.231666
 21
259.939528
  0
LINE
  8
M0
 62
     4
 10
100.731673
 20
261.939516
 11
97.231673
 21
261.939528
  0
LINE
  8
M0
 62
     4
 10
99.731678
 20
263.439519
 11
99.731715
 21
273.939519
  0
ARC
  8
M0
 62
     4
 10
98.231677
 20
262.939524
 40
1.0
 50
179.9998
 51
270.0
  0
ARC
  8
M0
 62
     4
 10
98.731677
 20
262.939523
 40
1.0
 50
270.0
 51
359.9998
  0
LINE
  8
M0
 62
     4
 10
97.731647
 20
254.439526
 11
97.731666
 21
259.939526
  0
LINE
  8
M0
 62
     4
 10
99.581717
 20
281.43952
 11
98.081711
 21
279.93954
  0
LINE
  8
M0
 62
     4
 10
99.581717
 20
281.43952
 11
98.081722
 21
282.939525
  0
LINE
  8
M0
 62
     4
 10
97.231736
 20
279.939528
 11
97.231748
 21
283.439528
  0
LINE
  8
M0
 62
     4
 10
117.876746
 20
290.439456
 11
117.876762
 21
294.939456
  0
LINE
  8
M0
 62
     4
 10
99.581779
 20
294.939485
 11
99.581742
 21
279.939245
  0
LINE
  8
M0
 62
     4
 10
98.081711
 20
279.93925
 11
97.231751
 21
279.939497
  0
LINE
  8
M0
 62
     4
 10
98.081737
 20
282.939243
 11
97.231762
 21
282.93949
  0
LINE
  8
M0
 62
     4
 10
99.581705
 20
278.18952
 11
97.23173
 21
278.189528
  0
LINE
  8
M0
 62
     4
 10
99.581728
 20
284.68952
 11
97.231752
 21
284.689528
  0
LINE
  8
M0
 62
     4
 10
83.731736
 20
279.85379
 11
83.731743
 21
282.025375
  0
LINE
  8
M0
 62
     4
 10
88.231736
 20
279.853774
 11
88.231743
 21
282.025359
  0
LINE
  8
M0
 62
     4
 10
94.231736
 20
279.939538
 11
94.231743
 21
281.939538
  0
ARC
  8
M0
 62
     4
 10
68.731685
 20
265.439627
 40
2.249995
 50
179.9998
 51
209.868865
  0
LINE
  8
M0
  6
DASHDOT
 62
     4
 10
68.731694
 20
267.945242
 11
68.731669
 21
260.689627
  0
LINE
  8
M0
 62
     4
 10
81.231673
 20
261.939584
 11
81.231682
 21
264.439584
  0
ARC
  8
M0
 62
     4
 10
93.731685
 20
265.43954
 40
2.249995
 50
179.9998
 51
209.868865
  0
LINE
  8
M0
  6
DASHDOT
 62
     4
 10
93.731702
 20
270.18954
 11
93.731669
 21
260.68954
  0
LINE
  8
M0
 62
     4
 10
84.231722
 20
275.939573
 11
83.830523
 21
275.93933
  0
LINE
  8
M0
 62
     4
 10
71.731722
 20
275.939617
 11
71.330523
 21
275.939374
  0
ARC
  8
M0
 62
     4
 10
62.181729
 20
274.43965
 40
1.499996
 50
50.758701
 51
68.48964
  0
ARC
  8
M0
 62
     4
 10
72.281704
 20
274.439615
 40
1.499996
 50
111.509418
 51
129.358881
  0
ARC
  8
M0
 62
     4
 10
74.681759
 20
274.439606
 40
1.499996
 50
50.759521
 51
68.48964
  0
ARC
  8
M0
 62
     4
 10
97.281704
 20
274.439528
 40
1.499996
 50
111.509418
 51
129.359701
  0
ARC
  8
M0
 62
     4
 10
87.181729
 20
274.439563
 40
1.499996
 50
50.759521
 51
68.48964
  0
LINE
  8
M0
 62
     4
 10
96.731722
 20
275.93953
 11
96.330492
 21
275.939287
  0
LINE
  8
M0
 62
     4
 10
107.673906
 20
258.439491
 11
108.7316
 21
258.439488
  0
LINE
  8
M0
 62
     4
 10
87.48167
 20
260.939562
 11
87.481685
 21
265.439562
  0
LINE
  8
M0
 62
     4
 10
80.23167
 20
260.939587
 11
59.231639
 21
260.93966
  0
LINE
  8
M0
 62
     4
 10
84.731689
 20
266.439571
 11
83.231689
 21
266.439577
  0
ARC
  8
M0
 62
     4
 10
83.231682
 20
264.439577
 40
1.999995
 50
89.999363
 51
179.9998
  0
ARC
  8
M0
 62
     4
 10
80.231673
 20
261.939587
 40
1.0
 50
270.0
 51
359.9998
  0
ARC
  8
M0
 62
     4
 10
86.481685
 20
265.439565
 40
1.0
 50
359.9998
 51
401.408851
  0
LINE
  8
M0
 62
     4
 10
61.231792
 20
295.939653
 11
59.231761
 21
295.93966
  0
ARC
  8
M0
 62
     4
 10
61.231788
 20
294.939653
 40
1.0
 50
359.9998
 51
449.998926
  0
LINE
  8
M0
 62
     4
 10
121.731768
 20
297.939442
 11
113.231768
 21
297.939472
  0
LINE
  8
M0
 62
     4
 10
112.231762
 20
296.139488
 11
112.231765
 21
296.939475
  0
LINE
  8
M0
 62
     4
 10
96.780711
 20
295.939473
 11
95.224983
 21
295.939473
  0
ARC
  8
M0
 62
     4
 10
113.231765
 20
296.939472
 40
1.0
 50
90.0
 51
179.9998
  0
LINE
  8
M0
 62
     4
 10
84.731807
 20
295.939523
 11
82.671399
 21
295.939511
  0
LINE
  8
M0
 62
     4
 10
98.731657
 20
257.439523
 11
98.731666
 21
259.939523
  0
LINE
  8
M0
 62
     4
 10
100.731669
 20
256.439516
 11
97.731654
 21
256.439526
  0
ARC
  8
M0
 62
     4
 10
99.731657
 20
257.439519
 40
1.0
 50
179.9998
 51
270.0
  0
ARC
  8
M0
 62
     4
 10
99.731657
 20
257.439519
 40
1.0
 50
270.0
 51
359.9998
  0
TEXT
  8
M0
 62
     4
 10
66.581953
 20
277.290007
 40
2.800003
  1
２
 50
359.999819
 41
0.535719
  7
STANDARD
  0
TEXT
  8
M0
 62
     4
 10
79.081953
 20
277.289963
 40
2.800003
  1
４
 50
359.999819
 41
0.535719
  7
STANDARD
  0
TEXT
  8
M0
 62
     4
 10
91.581787
 20
277.289919
 40
2.800003
  1
６
 50
359.999819
 41
0.535719
  7
STANDARD
  0
LINE
  8
M0
 62
     4
 10
63.130526
 20
275.939403
 11
62.731722
 21
275.939648
  0
LINE
  8
M0
 62
     4
 10
75.630526
 20
275.939359
 11
75.231722
 21
275.939605
  0
LINE
  8
M0
 62
     4
 10
88.130495
 20
275.939315
 11
87.731722
 21
275.939561
  0
ARC
  8
M0
 62
     4
 10
84.779233
 20
274.439327
 40
1.499994
 50
111.509418
 51
129.239628
  0
LINE
  8
M0
 62
     4
 10
102.232134
 20
297.934823
 11
98.232134
 21
297.934837
  0
ARC
  8
M0
 62
     4
 10
98.232131
 20
296.934837
 40
1.0
 50
89.998926
 51
179.9998
  0
ARC
  8
M0
 62
     4
 10
102.232131
 20
296.934823
 40
1.0
 50
359.9998
 51
449.998926
  0
LINE
  8
M0
 62
     4
 10
97.232146
 20
296.934835
 11
97.232143
 21
295.937964
  0
LINE
  8
M0
 62
     4
 10
103.232146
 20
296.93482
 11
103.232143
 21
295.937964
  0
LINE
  8
M0
 62
     4
 10
73.231814
 20
297.939535
 11
73.731814
 21
297.939534
  0
LINE
  8
M0
 62
     4
 10
72.631853
 20
297.739585
 11
70.481813
 21
297.739621
  0
LINE
  8
M0
 62
     4
 10
99.581742
 20
279.939245
 11
99.581712
 21
276.439489
  0
LINE
  8
M0
 62
     4
 10
97.231739
 20
276.439482
 11
100.789553
 21
276.439493
  0
LINE
  8
M0
 62
     4
 10
97.23181
 20
292.439443
 11
99.581801
 21
292.439442
  0
LINE
  8
M0
 62
     4
 10
67.030465
 20
296.239316
 11
59.231777
 21
296.239367
  0
LINE
  8
M0
 62
     4
 10
66.626893
 20
294.939772
 11
64.731788
 21
294.939397
  0
LINE
  8
M0
 62
     4
 10
79.434101
 20
295.939563
 11
74.731792
 21
295.939314
  0
LINE
  8
M0
 62
     4
 10
79.101068
 20
294.939718
 11
77.231788
 21
294.939353
  0
LINE
  8
M0
 62
     4
 10
91.79258
 20
295.939445
 11
87.231807
 21
295.939575
  0
LINE
  8
M0
 62
     4
 10
91.443346
 20
294.93951
 11
89.731788
 21
294.93931
  0
LINE
  8
M0
 62
     4
 10
97.231684
 20
273.939467
 11
97.231731
 21
278.439528
  0
ARC
  8
M0
 62
     4
 10
68.731685
 20
265.439627
 40
2.249995
 50
335.590346
 51
359.9998
  0
ARC
  8
M0
 62
     4
 10
93.731685
 20
265.43954
 40
2.249995
 50
335.590346
 51
359.9998
  0
LINE
  8
M0
 62
     4
 10
78.981792
 20
295.939539
 11
78.981794
 21
296.739583
  0
CIRCLE
  8
M0
 62
     6
 10
103.730593
 20
269.439442
 40
2.999997
  0
LINE
  8
M0
 62
     6
 10
100.880202
 20
273.739065
 11
99.955447
 21
270.739491
  0
LINE
  8
M0
 62
     6
 10
100.771609
 20
265.492192
 11
99.955447
 21
268.139516
  0
LINE
  8
M0
 62
     6
 10
106.675435
 20
273.430948
 11
107.505496
 21
270.739491
  0
LINE
  8
M0
 62
     6
 10
106.689089
 20
265.492177
 11
107.505496
 21
268.139516
  0
LINE
  8
M0
 62
     6
 10
101.249636
 20
265.139516
 11
106.211306
 21
265.139516
  0
LINE
  8
M0
 62
     6
 10
107.505496
 20
268.139516
 11
107.505496
 21
270.739491
  0
LINE
  8
M0
 62
     6
 10
99.955447
 20
270.739491
 11
99.955447
 21
268.139516
  0
LINE
  8
M0
 62
     6
 10
105.321169
 20
267.848622
 11
102.139529
 21
271.030385
  0
LINE
  8
M0
 62
     6
 10
104.083865
 20
270.853627
 11
102.316287
 21
269.085927
  0
LINE
  8
M0
 62
     6
 10
105.144412
 20
269.792958
 11
103.376833
 21
268.02538
  0
ARC
  8
M0
 62
     6
 10
101.249636
 20
265.639516
 40
0.5
 50
197.128737
 51
270.0
  0
ARC
  8
M0
 62
     6
 10
106.211306
 20
265.639516
 40
0.5
 50
270.0
 51
342.861308
  0
LINE
  8
M0
  6
DASHDOT
 62
     6
 10
103.230593
 20
269.439442
 11
104.230593
 21
269.439442
  0
LINE
  8
M0
  6
DASHDOT
 62
     6
 10
103.730593
 20
268.939442
 11
103.730593
 21
269.939442
  0
ARC
  8
M0
 62
   234
 10
109.080563
 20
295.439685
 40
1.0
 50
90.0
 51
150.113814
  0
ARC
  8
M0
 62
   234
 10
92.780563
 20
263.239685
 40
1.0
 50
180.0
 51
270.0
  0
ARC
  8
M0
 62
   234
 10
94.780563
 20
263.239685
 40
1.0
 50
270.0
 51
360.0
  0
LINE
  8
M0
 62
   234
 10
91.780563
 20
263.239685
 11
91.780563
 21
267.439547
  0
LINE
  8
M0
 62
   234
 10
66.780563
 20
263.239685
 11
66.780563
 21
267.439634
  0
LINE
  8
M0
 62
   234
 10
70.780563
 20
267.43962
 11
70.780563
 21
263.239685
  0
ARC
  8
M0
 62
   234
 10
67.780563
 20
263.239685
 40
1.0
 50
180.0
 51
270.0
  0
ARC
  8
M0
 62
   234
 10
80.080563
 20
304.439685
 40
1.0
 50
0.0
 51
90.0
  0
ARC
  8
M0
 62
   234
 10
69.780563
 20
263.239685
 40
1.0
 50
270.0
 51
360.0
  0
LINE
  8
M0
 62
   234
 10
69.780563
 20
262.239685
 11
67.780563
 21
262.239685
  0
LINE
  8
M0
 62
   234
 10
102.526371
 20
305.439685
 11
110.880563
 21
305.439685
  0
ARC
  8
M0
 62
   234
 10
82.080563
 20
302.439685
 40
1.0
 50
180.0
 51
270.0
  0
ARC
  8
M0
 62
   234
 10
100.080563
 20
304.439685
 40
1.0
 50
124.824371
 51
167.795457
  0
LINE
  8
M0
 62
   234
 10
69.280563
 20
313.248078
 11
69.280563
 21
301.317262
  0
LINE
  8
M0
 62
   234
 10
112.080563
 20
316.039685
 11
112.080563
 21
296.439685
  0
LINE
  8
M0
 62
   234
 10
111.380564
 20
316.039685
 11
112.080563
 21
316.039685
  0
LINE
  8
M0
 62
   234
 10
68.080563
 20
316.039685
 11
68.780563
 21
316.039685
  0
LINE
  8
M0
 62
   234
 10
95.780563
 20
263.239685
 11
95.780563
 21
267.439533
  0
LINE
  8
M0
 62
   234
 10
68.080563
 20
299.558491
 11
68.080563
 21
316.039685
  0
LINE
  8
M0
 62
   234
 10
94.780563
 20
262.239685
 11
92.780563
 21
262.239685
  0
LINE
  8
M0
 62
   234
 10
110.880563
 20
296.439685
 11
110.880563
 21
313.248078
  0
LINE
  8
M0
 62
   234
 10
80.080563
 20
305.439685
 11
76.956305
 21
305.439685
  0
LINE
  8
M0
 62
   234
 10
112.080563
 20
296.439685
 11
109.080563
 21
296.439685
  0
LINE
  8
M0
 62
   234
 10
81.080563
 20
304.439685
 11
81.080563
 21
302.439685
  0
LINE
  8
M0
 62
   234
 10
87.376457
 20
301.439685
 11
94.722358
 21
301.439685
  0
LINE
  8
M0
 62
   234
 10
74.040764
 20
305.439685
 11
69.280563
 21
305.439685
  0
CIRCLE
  8
M0
 62
     6
 10
114.730593
 20
269.439442
 40
2.999997
  0
LINE
  8
M0
 62
     6
 10
111.815539
 20
273.52947
 11
110.955447
 21
270.739491
  0
LINE
  8
M0
 62
     6
 10
111.771609
 20
265.492192
 11
110.955447
 21
268.139516
  0
LINE
  8
M0
 62
     6
 10
117.723513
 20
273.275146
 11
118.505496
 21
270.739491
  0
LINE
  8
M0
 62
     6
 10
117.689089
 20
265.492177
 11
118.505496
 21
268.139516
  0
LINE
  8
M0
 62
     6
 10
112.249636
 20
265.139516
 11
117.211306
 21
265.139516
  0
LINE
  8
M0
 62
     6
 10
118.505496
 20
268.139516
 11
118.505496
 21
270.739491
  0
LINE
  8
M0
 62
     6
 10
110.955447
 20
270.739491
 11
110.955447
 21
268.139516
  0
LINE
  8
M0
 62
     6
 10
116.321169
 20
267.848622
 11
113.139529
 21
271.030385
  0
LINE
  8
M0
 62
     6
 10
115.083865
 20
270.853627
 11
113.316287
 21
269.085927
  0
LINE
  8
M0
 62
     6
 10
116.144412
 20
269.792958
 11
114.376833
 21
268.02538
  0
ARC
  8
M0
 62
     6
 10
112.249636
 20
265.639516
 40
0.5
 50
197.128737
 51
270.0
  0
ARC
  8
M0
 62
     6
 10
117.211306
 20
265.639516
 40
0.5
 50
270.0
 51
342.861308
  0
LINE
  8
M0
  6
DASHDOT
 62
     6
 10
114.230593
 20
269.439442
 11
115.230593
 21
269.439442
  0
LINE
  8
M0
  6
DASHDOT
 62
     6
 10
114.730593
 20
268.939442
 11
114.730593
 21
269.939442
  0
LINE
  8
M0
  6
DASHDOT
 62
     4
 10
99.890048
 20
267.439686
 11
88.571185
 21
267.439686
  0
CIRCLE
  8
M0
 62
     7
 10
109.583148
 20
281.437965
 40
3.75
  0
CIRCLE
  8
M0
 62
     7
 10
109.583148
 20
281.437965
 40
8.3
  0
LINE
  8
M0
 62
     7
 10
113.973789
 20
287.406613
 11
113.360954
 21
286.892383
  0
LINE
  8
M0
 62
     7
 10
115.61071
 20
284.211228
 11
116.223546
 21
284.725458
  0
LINE
  8
M0
 62
     7
 10
116.223546
 20
284.725458
 11
113.973789
 21
287.406613
  0
LINE
  8
M0
 62
     7
 10
113.360954
 20
286.892383
 11
115.61071
 21
284.211228
  0
LINE
  8
M0
 62
     7
 10
114.384203
 20
288.208479
 11
114.384204
 21
288.88779
  0
LINE
  8
M0
 62
     7
 10
114.384205
 20
289.38779
 11
114.384207
 21
290.292514
  0
LINE
  8
M0
 62
     7
 10
114.384205
 20
289.38779
 11
112.884205
 21
289.387793
  0
LINE
  8
M0
 62
     7
 10
116.384235
 20
289.137802
 11
114.556793
 21
288.082726
  0
LINE
  8
M0
 62
     7
 10
112.884205
 20
289.05328
 11
112.884205
 21
289.387793
  0
LINE
  8
M0
 62
     7
 10
114.384204
 20
288.88779
 11
113.242392
 21
288.887792
  0
LINE
  8
M0
 62
     7
 10
116.384235
 20
289.137802
 11
114.384207
 21
290.292514
  0
TEXT
  8
M0
 62
     7
 10
121.082108
 20
288.763319
 40
2.0
  1
ＴＲＩＰ
 50
90.000563
 41
0.625
  7
STANDARD
  0
TEXT
  8
M0
 62
     7
 10
121.083153
 20
274.754787
 40
2.0
  1
ＡＵＴＯ
 50
90.000556
 41
0.583333
  7
STANDARD
  0
CIRCLE
  8
M0
 62
     7
 10
120.033148
 20
281.437965
 40
0.75
  0
LINE
  8
M0
 62
     7
 10
110.183148
 20
283.937965
 11
110.183148
 21
278.937965
  0
LINE
  8
M0
 62
     7
 10
110.183148
 20
283.937965
 11
108.983148
 21
283.937965
  0
LINE
  8
M0
 62
     7
 10
108.983148
 20
283.937965
 11
108.983148
 21
278.937965
  0
LINE
  8
M0
 62
     7
 10
110.183148
 20
278.937965
 11
108.983148
 21
278.937965
  0
LINE
  8
M0
 62
     7
 10
102.273052
 20
285.658451
 11
99.583148
 21
287.211468
  0
ARC
  8
M0
 62
     7
 10
100.883148
 20
275.937965
 40
0.5
 50
0.0
 51
90.0
  0
LINE
  8
M0
 62
     7
 10
101.383148
 20
273.937965
 11
101.383148
 21
275.937965
  0
LINE
  8
M0
 62
     7
 10
106.02787
 20
273.937965
 11
96.733148
 21
273.937965
  0
LINE
  8
M0
 62
     7
 10
121.733148
 20
273.937965
 11
113.138425
 21
273.937965
  0
ARC
  8
M0
 62
     7
 10
106.233148
 20
272.437965
 40
1.5
 50
0.0
 51
42.204142
  0
ARC
  8
M0
 62
     7
 10
112.233148
 20
272.437965
 40
1.5
 50
146.969284
 51
180.0
  0
LINE
  8
M0
 62
     7
 10
117.214059
 20
273.739081
 11
112.25219
 21
273.739066
  0
ARC
  8
M0
 62
     7
 10
117.214059
 20
273.239066
 40
0.5
 50
17.13596
 51
90.0
  0
ARC
  8
M0
 62
     7
 10
106.214059
 20
273.239066
 40
0.5
 50
17.13596
 51
90.0
  0
LINE
  8
M0
 62
     7
 10
106.214059
 20
273.739081
 11
101.25219
 21
273.739066
  0
ARC
  8
M0
 62
     7
 10
112.25219
 20
273.239066
 40
0.5
 50
90.0
 51
162.865076
  0
ARC
  8
M0
 62
     7
 10
101.25219
 20
273.239066
 40
0.5
 50
90.0
 51
162.865076
  0
ARC
  8
M0
 62
     7
 10
101.233148
 20
272.437965
 40
1.5
 50
90.0
 51
180.0
  0
ARC
  8
M0
 62
     7
 10
117.233148
 20
272.437965
 40
1.5
 50
0.0
 51
90.0
  0
LINE
  8
M0
 62
     7
 10
103.380563
 20
307.039686
 11
103.380563
 21
307.436047
  0
ARC
  8
M0
 62
     7
 10
104.105563
 20
309.464686
 40
0.725
 50
238.778636
 51
270.0
  0
ARC
  8
M0
 62
     7
 10
104.105563
 20
307.414686
 40
0.725
 50
90.0
 51
180.0
  0
LINE
  8
M0
 62
     7
 10
104.105563
 20
308.139686
 11
104.505563
 21
308.139686
  0
LINE
  8
M0
 62
     7
 10
104.105563
 20
308.739686
 11
104.505563
 21
308.739686
  0
LINE
  8
M0
 62
     7
 10
103.099353
 20
307.039686
 11
103.380563
 21
307.039686
  0
LINE
  8
M0
 62
     7
 10
104.505563
 20
308.739686
 11
104.505563
 21
308.139686
  0
ARC
  8
M0
 62
     7
 10
103.080563
 20
308.439686
 40
2.75
 50
260.786456
 51
420.70934
  0
CIRCLE
  8
M0
 10
117.824988
 20
127.140146
 40
2.0
  0
CIRCLE
  8
M0
 10
117.824988
 20
127.140146
 40
1.7
  0
CIRCLE
  8
M0
 10
63.824986
 20
186.140146
 40
2.0
  0
CIRCLE
  8
M0
 10
63.824986
 20
186.140146
 40
1.7
  0
LINE
  8
M0
  6
DIVIDE
 10
107.524989
 20
200.640146
 11
74.124987
 21
200.640146
  0
LINE
  8
M0
  6
DASHDOT
 10
67.922391
 20
186.140146
 11
59.727582
 21
186.140146
  0
LINE
  8
M0
  6
DASHDOT
 10
63.824979
 20
190.237543
 11
63.824994
 21
182.042734
  0
LINE
  8
M0
  6
DASHDOT
 10
122.422393
 20
127.140146
 11
113.227584
 21
127.140146
  0
LINE
  8
M0
  6
DASHDOT
 10
117.824981
 20
131.737543
 11
117.824996
 21
122.042734
  0
LINE
  8
M0
  6
DIVIDE
 10
59.976235
 20
120.640152
 11
59.976053
 21
68.63998
  0
LINE
  8
M0
  6
DIVIDE
 10
122.476038
 20
68.639944
 11
122.47622
 21
121.640152
  0
LINE
  8
M0
  6
DIVIDE
 10
122.476038
 20
68.639944
 11
59.976053
 21
68.63998
  0
LINE
  8
M0
  6
DASHDOT
 10
90.824988
 20
204.976012
 11
90.824988
 21
62.362789
  0
ARC
  8
M0
  6
DIVIDE
 10
110.824988
 20
190.640153
 40
1.0
 50
90.0
 51
98.626927
  0
ARC
  8
M0
  6
DIVIDE
 10
70.824988
 20
190.640153
 40
1.0
 50
81.373073
 51
90.0
  0
LINE
  8
M0
  6
DIVIDE
 10
122.224985
 20
128.140152
 11
122.224985
 21
121.640152
  0
LINE
  8
M0
  6
DIVIDE
 10
122.224985
 20
186.640153
 11
122.224985
 21
182.840152
  0
LINE
  8
M0
  6
DIVIDE
 10
122.47622
 20
121.640152
 11
122.224985
 21
121.640152
  0
LINE
  8
M0
  6
DIVIDE
 10
107.794987
 20
191.640154
 11
122.224985
 21
191.640154
  0
LINE
  8
M0
  6
DIVIDE
 10
59.424988
 20
120.640152
 11
59.424988
 21
129.440154
  0
LINE
  8
M0
  6
DIVIDE
 10
59.424988
 20
191.640154
 11
73.854989
 21
191.640154
  0
LINE
  8
M0
  6
DIVIDE
 10
73.854989
 20
191.640154
 11
74.124987
 21
200.640146
  0
LINE
  8
M0
  6
DIVIDE
 10
59.424988
 20
139.040152
 11
59.424988
 21
151.440154
  0
LINE
  8
M0
  6
DIVIDE
 10
59.424988
 20
137.040154
 11
59.424988
 21
139.040152
  0
LINE
  8
M0
  6
DIVIDE
 10
59.424988
 20
151.440154
 11
59.424988
 21
191.640154
  0
LINE
  8
M0
  6
DIVIDE
 10
71.324987
 20
191.640154
 11
71.524987
 21
191.640154
  0
LINE
  8
M0
  6
DIVIDE
 10
110.524988
 20
191.640154
 11
110.124989
 21
191.640154
  0
LINE
  8
M0
  6
DIVIDE
 10
59.424988
 20
129.440154
 11
59.424988
 21
131.440154
  0
LINE
  8
M0
  6
DIVIDE
 10
71.124988
 20
191.640154
 11
71.524987
 21
191.640154
  0
LINE
  8
M0
  6
DIVIDE
 10
110.324988
 20
191.640154
 11
110.124989
 21
191.640154
  0
LINE
  8
M0
  6
DIVIDE
 10
59.424988
 20
133.040153
 11
59.424988
 21
137.040154
  0
LINE
  8
M0
  6
DIVIDE
 10
122.224985
 20
182.840152
 11
122.224985
 21
180.840154
  0
LINE
  8
M0
  6
DIVIDE
 10
122.224985
 20
191.640154
 11
122.224985
 21
128.140152
  0
LINE
  8
M0
  6
DIVIDE
 10
59.424988
 20
131.440154
 11
59.424988
 21
133.040153
  0
LINE
  8
M0
 10
90.816921
 20
191.709616
 11
90.82024
 21
191.690159
  0
LINE
  8
M0
 10
90.833055
 20
196.970691
 11
90.829736
 21
196.990148
  0
LINE
  8
M0
  6
DIVIDE
 10
59.976235
 20
120.640152
 11
59.424988
 21
120.640152
  0
LINE
  8
M0
  6
DIVIDE
 10
107.794987
 20
191.640154
 11
107.524989
 21
200.640146
  0
LINE
  8
M3
 62
     2
 10
300.003268
 20
60.895184
 11
149.85312
 21
60.895184
  0
LINE
  8
M3
 62
     2
 10
14.717987
 20
15.85014
 11
14.717987
 21
428.763047
  0
LINE
  8
M3
 62
     2
 10
300.003268
 20
15.85014
 11
14.717987
 21
15.85014
  0
LINE
  8
M3
 62
     2
 10
300.003268
 20
30.865154
 11
149.85312
 21
30.865154
  0
TEXT
  8
M3
 62
     2
 10
153.106369
 20
34.618908
 40
7.507507
  1
形　式；
 41
1.0
  7
STANDARD
  0
LINE
  8
M3
 62
     2
 10
300.003268
 20
45.880169
 11
149.85312
 21
45.880169
  0
TEXT
  8
M3
 62
     2
 10
153.106369
 20
49.633923
 40
7.507507
  1
登録名：
 41
1.0
  7
STANDARD
  0
LINE
  8
M3
 62
     2
 10
149.85312
 20
15.85014
 11
149.85312
 21
60.895184
  0
TEXT
  8
M3
 62
     2
 10
153.106369
 20
19.603893
 40
7.507507
  1
適　用；
 41
1.0
  7
STANDARD
  0
LINE
  8
M3
 62
     2
 10
14.717987
 20
428.763047
 11
300.003268
 21
428.763047
  0
LINE
  8
M3
 62
     2
 10
300.003268
 20
428.763047
 11
300.003268
 21
15.85014
  0
TEXT
  8
M3
 62
     2
 10
189.392663
 20
49.633923
 40
7.507507
  1
ＤＭＨＳ２０ＴＲ００
 41
0.5
  7
STANDARD
  0
TEXT
  8
M3
 62
     2
 10
189.392663
 20
34.618908
 40
7.507507
  1
ＨＳ２０－Ｔ，ＨＳ２０－ＴＫ
 41
0.5
  7
STANDARD
  0
LINE
  8
DN0
 10
79.008671
 20
46.688259
 11
103.37804
 21
46.688259
  0
TEXT
  8
DN0
 10
79.681844
 20
47.28886
 40
6.006006
  1
せん孔図
 41
0.833333
  7
STANDARD
  0
ENDSEC
  0
EOF
