  0
SECTION
  2
HEADER
  9
$ACADVER
  1
AC1014
  9
$INSBASE
 10
0.000000
 20
0.000000
 30
0.0
  9
$VIEWCTR
 10
7.531722
 20
4.5
  9
$VIEWSIZE
 40
9.0
  9
$SNAPMODE
 70
     0
  9
$SNAPUNIT
 10
1.0
 20
1.0
  9
$SNAPBASE
 10
0.0
 20
0.0
  9
$SNAPANG
 50
0.0
  9
$SNAPSTYLE
 70
     0
  9
$SNAPISOPAIR
 70
     0
  9
$GRIDMODE
 70
     0
  9
$GRIDUNIT
 10
0.0
 20
0.0
  9
$ORTHOMODE
 70
     0
  9
$REGENMODE
 70
     1
  9
$FILLMODE
 70
     1
  9
$QTEXTMODE
 70
     0
  9
$DRAGMODE
 70
     2
  9
$LTSCALE
  40
     1.000000
  9
$OSMODE
 70
     0
  9
$ATTMODE
 70
     1
  9
$TEXTSIZE
 40
0.2
  9
$TRACEWID
 40
0.05
  9
$TEXTSTYLE
  7
STANDARD
  9
$CELTYPE
  6
BYLAYER
  9
$CECOLOR
 62
   256
  9
$DIMSCALE
 40
1.0
  9
$DIMASZ
 40
0.18
  9
$DIMEXO
 40
0.0625
  9
$DIMDLI
 40
0.38
  9
$DIMRND
 40
0.0
  9
$DIMDLE
 40
0.0
  9
$DIMEXE
 40
0.18
  9
$DIMTP
 40
0.0
  9
$DIMTM
 40
0.0
  9
$DIMTXT
 40
0.18
  9
$DIMCEN
 40
0.09
  9
$DIMTSZ
 40
0.0
  9
$DIMTOL
 70
     0
  9
$DIMLIM
 70
     0
  9
$DIMTIH
 70
     1
  9
$DIMTOH
 70
     1
  9
$DIMSE1
 70
     0
  9
$DIMSE2
 70
     0
  9
$DIMTAD
 70
     0
  9
$DIMZIN
 70
     0
  9
$DIMBLK
  1

  9
$LUNITS
 70
     2
  9
$LUPREC
 70
     4
  9
$AXISMODE
 70
     0
  9
$AXISUNIT
 10
0.0
 20
0.0
  9
$SKETCHINC
 40
0.1
  9
$FILLETRAD
 40
0.0
  9
$AUNITS
 70
     0
  9
$AUPREC
 70
     0
  9
$MENU
  1
ACAD
  9
$ELEVATION
 40
0.0
  9
$THICKNESS
 40
0.0
  9
$VIEWDIR
 10
0.0
 20
0.0
 30
1.0
  9
$LIMCHECK
 70
     0
  9
$BLIPMODE
 70
     1
  9
$CHAMFERA
 40
0.0
  9
$CHAMFERB
 40
0.0
  9
$FASTZOOM
 70
     1
  9
$SKPOLY
 70
     0
  9
$TDCREATE
 40
0000000.0000000000
  9
$TDUPDATE
 40
0000000.0000000000
  9
$TDINDWG
 40
0.0000000000
  9
$TDUSRTIMER
 40
0.0000000000
  9
$USRTIMER
 70
     1
  9
$ANGBASE
 50
0.0
  9
$ANGDIR
 70
     0
  9
$PDMODE
 70
     0
  9
$PDSIZE
 40
0.0
  9
$PLINEWID
 40
0.0
  9
$COORDS
 70
     0
  9
$USERI1
 70
     0
  9
$USERI2
 70
     0
  9
$USERI3
 70
     0
  9
$USERI4
 70
     0
  9
$USERI5
 70
     0
  9
$USERR1
 40
0.0
  9
$USERR2
 40
0.0
  9
$USERR3
 40
0.0
  9
$USERR4
 40
0.0
  9
$USERR5
 40
0.0
  9
$CLAYER
  8
M1
  9
$EXTMIN
 10
-3.552714E-015
 20
-3.552714E-015
  9
$EXTMAX
 10
316.666654
 20
458.333316
  9
$LIMMIN
 10
0.0
 20
0.0
  9
$LIMMAX
 10
841.0
 20
594.0
  9
$HANDSEED
  5
5F3
  0
ENDSEC
  0
SECTION
  2
CLASSES
  0
CLASS
  1
LWPOLYLINE
  2
AcDbPolyline
  3
"AutoCAD"
 90
        0
280
     0
281
     1
  0
CLASS
  1
DICTIONARYVAR
  2
AcDbDictionaryVar
  3
"AutoCAD"
 90
        0
280
     0
281
     0
  0
CLASS
  1
HATCH
  2
AcDbHatch
  3
"ACAD_SEDONA"
 90
        0
280
     0
281
     1
  0
ENDSEC
  0
SECTION
  2
TABLES
  0
TABLE
  2
VPORT
  5
8
100
AcDbSymbolTable
 70
     2
  0
VPORT
  5
14
100
AcDbSymbolTableRecord
100
AcDbViewportTableRecord
  2
*ACTIVE
 70
     0
 10
0.0
 20
0.0
 11
1.0
 21
1.0
 12
484.0
 22
297.0
 13
0.0
 23
0.0
 14
1.0
 24
1.0
 15
0.0
 25
0.0
 16
0.0
 26
0.0
 36
1.0
 17
0.0
 27
0.0
 37
0.0
 40
594.0
 41
2.0
 42
50.0
 43
0.0
 44
0.0
 50
0.0
 51
0.0
 71
     0
 72
   100
 73
     1
 74
     1
 75
     0
 76
     0
 77
     0
 78
     0
  0
ENDTAB
  0
TABLE
  2
LTYPE
  5
5
100
AcDbSymbolTable
 70
     5
  0
LTYPE
  5
15
100
AcDbSymbolTableRecord
100
AcDbLinetypeTableRecord
  2
BYBLOCK
 70
     0
  3

 72
    65
 73
     0
 40
0.0
  0
LTYPE
  5
16
100
AcDbSymbolTableRecord
100
AcDbLinetypeTableRecord
  2
BYLAYER
 70
     0
  3

 72
    65
 73
     0
 40
0.0
  0
LTYPE
  5
17
100
AcDbSymbolTableRecord
100
AcDbLinetypeTableRecord
  2
CONTINUOUS
 70
    64
  3
Solid line
 72
    65
 73
     0
 40
0.0
  0
LTYPE
  5
18
100
AcDbSymbolTableRecord
100
AcDbLinetypeTableRecord
  2
DASHED
 70
    64
  3
__ __ __ __ __ __ __ __ __ __ __ __ __ __ __ __
 72
    65
 73
     2
 40
0.75
 49
0.5
 74
     0
 49
-0.25
 74
     0
  0
LTYPE
  5
19
100
AcDbSymbolTableRecord
100
AcDbLinetypeTableRecord
  2
DASHDOT
 70
    64
  3
__ . __ . __ . __ . __ . __ . __ . __ . __ . __
 72
    65
 73
     4
 40
1.0
 49
0.5
 74
     0
 49
-0.25
 74
     0
 49
0.0
 74
     0
 49
-0.25
 74
     0
  0
LTYPE
  5
1A
100
AcDbSymbolTableRecord
100
AcDbLinetypeTableRecord
  2
DIVIDE
 70
    64
  3
____ . . ____ . . ____ . . ____ . . ____ . . __
 72
    65
 73
     6
 40
1.25
 49
0.5
 74
     0
 49
-0.25
 74
     0
 49
0.0
 74
     0
 49
-0.25
 74
     0
 49
0.0
 74
     0
 49
-0.25
 74
     0
  0
LTYPE
  5
1B
100
AcDbSymbolTableRecord
100
AcDbLinetypeTableRecord
  2
DOT
 70
    64
  3
. . . . . . . . . . . . . . . . . . . . . . . .
 72
    65
 73
     2
 40
0.25
 49
0.0
 74
     0
 49
-0.25
 74
     0
  0
ENDTAB
  0
TABLE
  2
LAYER
  5
2
100
AcDbSymbolTable
 70
   102
  0
LAYER
  5
F
100
AcDbSymbolTableRecord
100
AcDbLayerTableRecord
  2
0
 70
     0
 62
     7
  6
CONTINUOUS
  0
LAYER
  5
1C
100
AcDbSymbolTableRecord
100
AcDbLayerTableRecord
  2
DEFPOINTS
 70
     0
 62
     7
  6
CONTINUOUS
  0
LAYER
  5
1D
100
AcDbSymbolTableRecord
100
AcDbLayerTableRecord
  2
M1
 70
     0
 62
     3
  6
CONTINUOUS
  0
LAYER
  5
1E
100
AcDbSymbolTableRecord
100
AcDbLayerTableRecord
  2
M2
 70
     0
 62
     3
  6
CONTINUOUS
  0
LAYER
  5
1F
100
AcDbSymbolTableRecord
100
AcDbLayerTableRecord
  2
DD0
 70
     0
 62
     4
  6
CONTINUOUS
  0
LAYER
  5
20
100
AcDbSymbolTableRecord
100
AcDbLayerTableRecord
  2
DN0
 70
     0
 62
     2
  6
CONTINUOUS
  0
ENDTAB
  0
TABLE
  2
STYLE
  5
3
100
AcDbSymbolTable
 70
     2
  0
STYLE
  5
10
100
AcDbSymbolTableRecord
100
AcDbTextStyleTableRecord
  2
STANDARD
 70
     0
 40
0.0
 41
1.0
 50
0.0
 71
     0
 42
0.2
  3
txt
  4
BIGFONT
  0
ENDTAB
  0
TABLE
  2
VIEW
  5
6
100
AcDbSymbolTable
 70
     0
  0
ENDTAB
  0
TABLE
  2
UCS
  5
7
100
AcDbSymbolTable
 70
     0
  0
ENDTAB
  0
TABLE
  2
APPID
  5
9
100
AcDbSymbolTable
 70
     1
  0
APPID
  5
11
100
AcDbSymbolTableRecord
100
AcDbRegAppTableRecord
  2
ACAD
 70
     0
  0
ENDTAB
  0
TABLE
  2
DIMSTYLE
  5
A
100
AcDbSymbolTable
 70
     2
  0
DIMSTYLE
105
27
100
AcDbSymbolTableRecord
100
AcDbDimStyleTableRecord
  2
STANDARD
 70
     0
  3

  4

  5

  6
_OPEN
  7
_OPEN
 40
1.0
 41
3.0
 42
1.0
 43
8.0
 44
1.0
 45
0.0
 46
0.0
 47
0.0
 48
0.0
140
3.15
141
0.09
142
0.0
143
0.03937
144
1.0
145
0.0
146
1.0
147
0.6
 71
     0
 72
     0
 73
     1
 74
     1
 75
     0
 76
     0
 77
     3
 78
     8
170
     0
171
     2
172
     0
173
     1
174
     0
175
     0
176
     0
177
     0
178
     0
270
     2
271
     2
272
     4
273
     2
274
     2
340
10
275
     0
280
     0
281
     0
282
     0
283
     1
284
     0
285
     0
286
     0
287
     3
288
     0
  0
DIMSTYLE
105
28
100
AcDbSymbolTableRecord
100
AcDbDimStyleTableRecord
  2
LEADSTYL
 70
     0
  3

  4

  5

  6
_OPEN
  7
_OPEN
 40
1.0
 41
3.0
 42
0.0625
 43
0.38
 44
0.18
 45
0.0
 46
0.0
 47
0.0
 48
0.0
140
3.15
141
0.09
142
0.0
143
25.4
144
1.0
145
0.0
146
1.0
147
0.6
 71
     0
 72
     0
 73
     1
 74
     1
 75
     0
 76
     0
 77
     0
 78
     0
170
     0
171
     2
172
     0
173
     1
174
     0
175
     0
176
     0
177
     0
178
     0
270
     2
271
     4
272
     4
273
     2
274
     2
340
10
275
     0
280
     0
281
     0
282
     0
283
     1
284
     0
285
     0
286
     0
287
     3
288
     0
  0
ENDTAB
  0
TABLE
  2
BLOCK_RECORD
  5
1
100
AcDbSymbolTable
 70
    25
  0
BLOCK_RECORD
  5
21
100
AcDbSymbolTableRecord
100
AcDbBlockTableRecord
  2
*MODEL_SPACE
  0
BLOCK_RECORD
  5
24
100
AcDbSymbolTableRecord
100
AcDbBlockTableRecord
  2
*PAPER_SPACE
  0
BLOCK_RECORD
  5
29
100
AcDbSymbolTableRecord
100
AcDbBlockTableRecord
  2
_NONE
  0
BLOCK_RECORD
  5
2D
100
AcDbSymbolTableRecord
100
AcDbBlockTableRecord
  2
_OPEN
  0
BLOCK_RECORD
  5
33
100
AcDbSymbolTableRecord
100
AcDbBlockTableRecord
  2
_CLOSED
  0
BLOCK_RECORD
  5
3A
100
AcDbSymbolTableRecord
100
AcDbBlockTableRecord
  2
_ORIGIN
  0
BLOCK_RECORD
  5
3F
100
AcDbSymbolTableRecord
100
AcDbBlockTableRecord
  2
_DOT
  0
BLOCK_RECORD
  5
47
100
AcDbSymbolTableRecord
100
AcDbBlockTableRecord
  2
_OBLIQUE
  0
BLOCK_RECORD
  5
4B
100
AcDbSymbolTableRecord
100
AcDbBlockTableRecord
  2
DIMS0
  0
BLOCK_RECORD
  5
57
100
AcDbSymbolTableRecord
100
AcDbBlockTableRecord
  2
DIMS1
  0
BLOCK_RECORD
  5
63
100
AcDbSymbolTableRecord
100
AcDbBlockTableRecord
  2
DIMS2
  0
BLOCK_RECORD
  5
6E
100
AcDbSymbolTableRecord
100
AcDbBlockTableRecord
  2
DIMS3
  0
BLOCK_RECORD
  5
7A
100
AcDbSymbolTableRecord
100
AcDbBlockTableRecord
  2
DIMS4
  0
BLOCK_RECORD
  5
86
100
AcDbSymbolTableRecord
100
AcDbBlockTableRecord
  2
DIMS5
  0
BLOCK_RECORD
  5
92
100
AcDbSymbolTableRecord
100
AcDbBlockTableRecord
  2
DIMS6
  0
BLOCK_RECORD
  5
9E
100
AcDbSymbolTableRecord
100
AcDbBlockTableRecord
  2
DIMS7
  0
BLOCK_RECORD
  5
A8
100
AcDbSymbolTableRecord
100
AcDbBlockTableRecord
  2
DIMS8
  0
BLOCK_RECORD
  5
B3
100
AcDbSymbolTableRecord
100
AcDbBlockTableRecord
  2
DIMS9
  0
BLOCK_RECORD
  5
C0
100
AcDbSymbolTableRecord
100
AcDbBlockTableRecord
  2
DIMS10
  0
BLOCK_RECORD
  5
CC
100
AcDbSymbolTableRecord
100
AcDbBlockTableRecord
  2
DIMS11
  0
BLOCK_RECORD
  5
D8
100
AcDbSymbolTableRecord
100
AcDbBlockTableRecord
  2
DIMS12
  0
BLOCK_RECORD
  5
E4
100
AcDbSymbolTableRecord
100
AcDbBlockTableRecord
  2
DIMS13
  0
BLOCK_RECORD
  5
F0
100
AcDbSymbolTableRecord
100
AcDbBlockTableRecord
  2
DIMS14
  0
BLOCK_RECORD
  5
FC
100
AcDbSymbolTableRecord
100
AcDbBlockTableRecord
  2
DIMS15
  0
BLOCK_RECORD
  5
108
100
AcDbSymbolTableRecord
100
AcDbBlockTableRecord
  2
DIMS16
  0
BLOCK_RECORD
  5
114
100
AcDbSymbolTableRecord
100
AcDbBlockTableRecord
  2
DIMS17
  0
BLOCK_RECORD
  5
120
100
AcDbSymbolTableRecord
100
AcDbBlockTableRecord
  2
DIMS18
  0
ENDTAB
  0
ENDSEC
  0
SECTION
  2
BLOCKS
  0
BLOCK
  5
22
100
AcDbEntity
  8
0
100
AcDbBlockBegin
  2
*MODEL_SPACE
 70
     0
 10
0.0
 20
0.0
 30
0.0
  3
*MODEL_SPACE
  1

  0
ENDBLK
  5
23
100
AcDbEntity
  8
0
100
AcDbBlockEnd
  0
BLOCK
  5
25
100
AcDbEntity
 67
     1
  8
0
100
AcDbBlockBegin
  2
*PAPER_SPACE
 70
     0
 10
0.0
 20
0.0
 30
0.0
  3
*PAPER_SPACE
  1

  0
ENDBLK
  5
26
100
AcDbEntity
 67
     1
  8
0
100
AcDbBlockEnd
  0
BLOCK
  5
2A
100
AcDbEntity
  8
0
100
AcDbBlockBegin
  2
_NONE
 70
     0
 10
0.0
 20
0.0
  0
CIRCLE
  5
2B
100
AcDbEntity
  8
0
 62
     0
100
AcDbCircle
 10
0.0
 20
0.0
 40
0.25
  0
ENDBLK
  5
2C
100
AcDbEntity
  8
0
100
AcDbBlockEnd
  0
BLOCK
  5
2E
100
AcDbEntity
  8
0
100
AcDbBlockBegin
  2
_OPEN
 70
     0
 10
0.0
 20
0.0
  0
LINE
  5
2F
100
AcDbEntity
  8
0
 62
     0
100
AcDbLine
 10
-0.965926
 20
0.258819
 11
0.0
 21
0.0
  0
LINE
  5
30
100
AcDbEntity
  8
0
 62
     0
100
AcDbLine
 10
0.0
 20
0.0
 11
-0.965926
 21
-0.258819
  0
LINE
  5
31
100
AcDbEntity
  8
0
 62
     0
100
AcDbLine
 10
0.0
 20
0.0
 11
-1.0
 21
0.0
  0
ENDBLK
  5
32
100
AcDbEntity
  8
0
100
AcDbBlockEnd
  0
BLOCK
  5
34
100
AcDbEntity
  8
0
100
AcDbBlockBegin
  2
_CLOSED
 70
     0
 10
0.0
 20
0.0
  0
LINE
  5
35
100
AcDbEntity
  8
0
 62
     0
100
AcDbLine
 10
-0.965926
 20
0.258819
 11
0.0
 21
0.0
  0
LINE
  5
36
100
AcDbEntity
  8
0
 62
     0
100
AcDbLine
 10
0.0
 20
0.0
 11
-0.965926
 21
-0.258819
  0
LINE
  5
37
100
AcDbEntity
  8
0
 62
     0
100
AcDbLine
 10
-0.965926
 20
0.258819
 11
-0.965926
 21
-0.258819
  0
LINE
  5
38
100
AcDbEntity
  8
0
 62
     0
100
AcDbLine
 10
0.0
 20
0.0
 11
-1.0
 21
0.0
  0
ENDBLK
  5
39
100
AcDbEntity
  8
0
100
AcDbBlockEnd
  0
BLOCK
  5
3B
100
AcDbEntity
  8
0
100
AcDbBlockBegin
  2
_ORIGIN
 70
     0
 10
0.0
 20
0.0
  0
CIRCLE
  5
3C
100
AcDbEntity
  8
0
 62
     0
100
AcDbCircle
 10
0.0
 20
0.0
 40
0.5
  0
LINE
  5
3D
100
AcDbEntity
  8
0
 62
     0
100
AcDbLine
 10
0.0
 20
0.0
 11
-1.0
 21
0.0
  0
ENDBLK
  5
3E
100
AcDbEntity
  8
0
100
AcDbBlockEnd
  0
BLOCK
  5
40
100
AcDbEntity
  8
0
100
AcDbBlockBegin
  2
_DOT
 70
     0
 10
0.0
 20
0.0
  0
POLYLINE
  5
41
100
AcDbEntity
  8
0
 62
     0
100
AcDb2dPolyline
 66
     1
 70
     1
 40
0.5
 41
0.5
  0
VERTEX
  5
42
100
AcDbEntity
  8
0
 62
     0
100
AcDbVertex
100
AcDb2dVertex
 10
-0.25
 20
0.0
 42
1.0
  0
VERTEX
  5
43
100
AcDbEntity
  8
0
 62
     0
100
AcDbVertex
100
AcDb2dVertex
 10
0.25
 20
0.0
 42
1.0
  0
SEQEND
  5
44
100
AcDbEntity
  8
0
 62
     0
  0
LINE
  5
45
100
AcDbEntity
  8
0
 62
     0
100
AcDbLine
 10
-0.5
 20
0.0
 11
-1.0
 21
0.0
  0
ENDBLK
  5
46
100
AcDbEntity
  8
0
100
AcDbBlockEnd
  0
BLOCK
  5
48
100
AcDbEntity
  8
0
100
AcDbBlockBegin
  2
_OBLIQUE
 70
     0
 10
0.0
 20
0.0
  0
LINE
  5
49
100
AcDbEntity
  8
0
 62
     0
100
AcDbLine
 10
-0.353553
 20
-0.353553
 11
0.353553
 21
0.353553
  0
ENDBLK
  5
4A
100
AcDbEntity
  8
0
100
AcDbBlockEnd
  0
BLOCK
  5
4C
100
AcDbEntity
  8
DD0
100
AcDbBlockBegin
  2
DIMS0
 70
     0
 10
0.0
 20
0.0
  0
LINE
  5
4D
100
AcDbEntity
  8
DD0
100
AcDbLine
 10
273.783783
 20
277.133728
 11
273.783783
 21
267.100159
  0
LINE
  5
4E
100
AcDbEntity
  8
DD0
100
AcDbLine
 10
195.783798
 20
286.683716
 11
195.783798
 21
267.100159
  0
LINE
  5
4F
100
AcDbEntity
  8
DD0
100
AcDbLine
 10
270.886005
 20
267.323702
 11
273.783783
 21
268.100159
  0
LINE
  5
50
100
AcDbEntity
  8
DD0
100
AcDbLine
 10
273.783783
 20
268.100159
 11
270.886005
 21
268.876616
  0
LINE
  5
51
100
AcDbEntity
  8
DD0
100
AcDbLine
 10
198.681576
 20
268.876616
 11
195.783798
 21
268.100159
  0
LINE
  5
52
100
AcDbEntity
  8
DD0
100
AcDbLine
 10
195.783798
 20
268.100159
 11
198.681576
 21
267.323702
  0
LINE
  5
53
100
AcDbEntity
  8
DD0
100
AcDbLine
 10
273.783783
 20
268.100159
 11
195.783798
 21
268.100159
  0
TEXT
  5
54
100
AcDbEntity
  8
DD0
100
AcDbText
 10
225.955444
 20
268.700165
 40
2.5
  1
７８（補助ａ端子）
 41
0.666667
  7
STANDARD
100
AcDbText
  0
ENDBLK
  5
55
100
AcDbEntity
  8
DD0
100
AcDbBlockEnd
  0
BLOCK
  5
58
100
AcDbEntity
  8
DD0
100
AcDbBlockBegin
  2
DIMS1
 70
     0
 10
0.0
 20
0.0
  0
LINE
  5
59
100
AcDbEntity
  8
DD0
100
AcDbLine
 10
273.783783
 20
277.133728
 11
273.783783
 21
261.807922
  0
LINE
  5
5A
100
AcDbEntity
  8
DD0
100
AcDbLine
 10
175.883804
 20
293.783722
 11
175.883804
 21
261.807922
  0
LINE
  5
5B
100
AcDbEntity
  8
DD0
100
AcDbLine
 10
270.886005
 20
262.031465
 11
273.783783
 21
262.807922
  0
LINE
  5
5C
100
AcDbEntity
  8
DD0
100
AcDbLine
 10
273.783783
 20
262.807922
 11
270.886005
 21
263.58438
  0
LINE
  5
5D
100
AcDbEntity
  8
DD0
100
AcDbLine
 10
178.781582
 20
263.58438
 11
175.883804
 21
262.807922
  0
LINE
  5
5E
100
AcDbEntity
  8
DD0
100
AcDbLine
 10
175.883804
 20
262.807922
 11
178.781582
 21
262.031465
  0
LINE
  5
5F
100
AcDbEntity
  8
DD0
100
AcDbLine
 10
273.783783
 20
262.807922
 11
175.883804
 21
262.807922
  0
TEXT
  5
60
100
AcDbEntity
  8
DD0
100
AcDbText
 10
216.005462
 20
263.407928
 40
2.5
  1
９８（補助ｂ端子）
 41
0.666667
  7
STANDARD
100
AcDbText
  0
ENDBLK
  5
61
100
AcDbEntity
  8
DD0
100
AcDbBlockEnd
  0
BLOCK
  5
64
100
AcDbEntity
  8
DD0
100
AcDbBlockBegin
  2
DIMS2
 70
     0
 10
0.0
 20
0.0
  0
LINE
  5
65
100
AcDbEntity
  8
DD0
100
AcDbLine
 10
273.783783
 20
346.633728
 11
273.783783
 21
356.406647
  0
LINE
  5
66
100
AcDbEntity
  8
DD0
100
AcDbLine
 10
262.783783
 20
346.883728
 11
262.783783
 21
356.406647
  0
LWPOLYLINE
  5
67
100
AcDbEntity
  8
DD0
100
AcDbPolyline
 90
        2
 70
     1
 43
0.5
 10
273.533783
 20
355.406647
 42
1.0
 10
274.033783
 20
355.406647
 42
1.0
  0
LINE
  5
68
100
AcDbEntity
  8
DD0
100
AcDbLine
 10
265.68156
 20
356.183104
 11
262.783783
 21
355.406647
  0
LINE
  5
69
100
AcDbEntity
  8
DD0
100
AcDbLine
 10
262.783783
 20
355.406647
 11
265.68156
 21
354.63019
  0
LINE
  5
6A
100
AcDbEntity
  8
DD0
100
AcDbLine
 10
273.783783
 20
355.406647
 11
254.483783
 21
355.406647
  0
TEXT
  5
6B
100
AcDbEntity
  8
DD0
100
AcDbText
 10
255.365447
 20
356.006653
 40
2.5
  1
１１
 41
0.666667
  7
STANDARD
100
AcDbText
  0
ENDBLK
  5
6C
100
AcDbEntity
  8
DD0
100
AcDbBlockEnd
  0
BLOCK
  5
6F
100
AcDbEntity
  8
DD0
100
AcDbBlockBegin
  2
DIMS3
 70
     0
 10
0.0
 20
0.0
  0
LINE
  5
70
100
AcDbEntity
  8
DD0
100
AcDbLine
 10
273.783783
 20
346.633728
 11
273.783783
 21
362.406647
  0
LINE
  5
71
100
AcDbEntity
  8
DD0
100
AcDbLine
 10
204.383804
 20
357.283722
 11
204.383804
 21
362.406647
  0
LINE
  5
72
100
AcDbEntity
  8
DD0
100
AcDbLine
 10
270.886005
 20
360.63019
 11
273.783783
 21
361.406647
  0
LINE
  5
73
100
AcDbEntity
  8
DD0
100
AcDbLine
 10
273.783783
 20
361.406647
 11
270.886005
 21
362.183104
  0
LINE
  5
74
100
AcDbEntity
  8
DD0
100
AcDbLine
 10
207.281582
 20
362.183104
 11
204.383804
 21
361.406647
  0
LINE
  5
75
100
AcDbEntity
  8
DD0
100
AcDbLine
 10
204.383804
 20
361.406647
 11
207.281582
 21
360.63019
  0
LINE
  5
76
100
AcDbEntity
  8
DD0
100
AcDbLine
 10
273.783783
 20
361.406647
 11
204.383804
 21
361.406647
  0
TEXT
  5
77
100
AcDbEntity
  8
DD0
100
AcDbText
 10
230.255462
 20
362.006653
 40
2.5
  1
７０（コイル端子）
 41
0.666667
  7
STANDARD
100
AcDbText
  0
ENDBLK
  5
78
100
AcDbEntity
  8
DD0
100
AcDbBlockEnd
  0
BLOCK
  5
7B
100
AcDbEntity
  8
DD0
100
AcDbBlockBegin
  2
DIMS4
 70
     0
 10
0.0
 20
0.0
  0
LINE
  5
7C
100
AcDbEntity
  8
DD0
100
AcDbLine
 10
273.783783
 20
346.633728
 11
273.783783
 21
368.406647
  0
LINE
  5
7D
100
AcDbEntity
  8
DD0
100
AcDbLine
 10
180.483795
 20
341.883728
 11
180.483795
 21
368.406647
  0
LINE
  5
7E
100
AcDbEntity
  8
DD0
100
AcDbLine
 10
270.886005
 20
366.63019
 11
273.783783
 21
367.406647
  0
LINE
  5
7F
100
AcDbEntity
  8
DD0
100
AcDbLine
 10
273.783783
 20
367.406647
 11
270.886005
 21
368.183104
  0
LINE
  5
80
100
AcDbEntity
  8
DD0
100
AcDbLine
 10
183.381573
 20
368.183104
 11
180.483795
 21
367.406647
  0
LINE
  5
81
100
AcDbEntity
  8
DD0
100
AcDbLine
 10
180.483795
 20
367.406647
 11
183.381573
 21
366.63019
  0
LINE
  5
82
100
AcDbEntity
  8
DD0
100
AcDbLine
 10
273.783783
 20
367.406647
 11
180.483795
 21
367.406647
  0
TEXT
  5
83
100
AcDbEntity
  8
DD0
100
AcDbText
 10
220.30545
 20
368.006653
 40
2.5
  1
９４（主端子）
 41
0.666667
  7
STANDARD
100
AcDbText
  0
ENDBLK
  5
84
100
AcDbEntity
  8
DD0
100
AcDbBlockEnd
  0
BLOCK
  5
87
100
AcDbEntity
  8
DD0
100
AcDbBlockBegin
  2
DIMS5
 70
     0
 10
0.0
 20
0.0
  0
LINE
  5
88
100
AcDbEntity
  8
DD0
100
AcDbLine
 10
273.783783
 20
346.633728
 11
273.783783
 21
374.406647
  0
LINE
  5
89
100
AcDbEntity
  8
DD0
100
AcDbLine
 10
160.383804
 20
324.383728
 11
160.383804
 21
374.406647
  0
LINE
  5
8A
100
AcDbEntity
  8
DD0
100
AcDbLine
 10
270.886005
 20
372.63019
 11
273.783783
 21
373.406647
  0
LINE
  5
8B
100
AcDbEntity
  8
DD0
100
AcDbLine
 10
273.783783
 20
373.406647
 11
270.886005
 21
374.183104
  0
LINE
  5
8C
100
AcDbEntity
  8
DD0
100
AcDbLine
 10
163.281582
 20
374.183104
 11
160.383804
 21
373.406647
  0
LINE
  5
8D
100
AcDbEntity
  8
DD0
100
AcDbLine
 10
160.383804
 20
373.406647
 11
163.281582
 21
372.63019
  0
LINE
  5
8E
100
AcDbEntity
  8
DD0
100
AcDbLine
 10
273.783783
 20
373.406647
 11
160.383804
 21
373.406647
  0
TEXT
  5
8F
100
AcDbEntity
  8
DD0
100
AcDbText
 10
214.255462
 20
374.006653
 40
2.5
  1
１１４
 41
0.666667
  7
STANDARD
100
AcDbText
  0
ENDBLK
  5
90
100
AcDbEntity
  8
DD0
100
AcDbBlockEnd
  0
BLOCK
  5
93
100
AcDbEntity
  8
DD0
100
AcDbBlockBegin
  2
DIMS6
 70
     0
 10
0.0
 20
0.0
  0
LINE
  5
94
100
AcDbEntity
  8
DD0
100
AcDbLine
 10
273.783783
 20
346.633728
 11
273.783783
 21
380.406647
  0
LINE
  5
95
100
AcDbEntity
  8
DD0
100
AcDbLine
 10
129.083801
 20
315.183716
 11
129.083801
 21
380.406647
  0
LINE
  5
96
100
AcDbEntity
  8
DD0
100
AcDbLine
 10
270.886005
 20
378.63019
 11
273.783783
 21
379.406647
  0
LINE
  5
97
100
AcDbEntity
  8
DD0
100
AcDbLine
 10
273.783783
 20
379.406647
 11
270.886005
 21
380.183104
  0
LINE
  5
98
100
AcDbEntity
  8
DD0
100
AcDbLine
 10
131.981579
 20
380.183104
 11
129.083801
 21
379.406647
  0
LINE
  5
99
100
AcDbEntity
  8
DD0
100
AcDbLine
 10
129.083801
 20
379.406647
 11
131.981579
 21
378.63019
  0
LINE
  5
9A
100
AcDbEntity
  8
DD0
100
AcDbLine
 10
273.783783
 20
379.406647
 11
129.083801
 21
379.406647
  0
TEXT
  5
9B
100
AcDbEntity
  8
DD0
100
AcDbText
 10
180.605453
 20
380.006653
 40
2.5
  1
１４５接点ヘッドオンユニットを付けた場合）
 41
0.666667
  7
STANDARD
100
AcDbText
  0
ENDBLK
  5
9C
100
AcDbEntity
  8
DD0
100
AcDbBlockEnd
  0
BLOCK
  5
9F
100
AcDbEntity
  8
DD0
100
AcDbBlockBegin
  2
DIMS7
 70
     0
 10
0.0
 20
0.0
  0
LINE
  5
A0
100
AcDbEntity
  8
DD0
100
AcDbLine
 10
273.783783
 20
346.633728
 11
273.783783
 21
356.406647
  0
LINE
  5
A1
100
AcDbEntity
  8
DD0
100
AcDbLine
 10
276.783783
 20
326.383728
 11
276.783783
 21
356.406647
  0
LINE
  5
A2
100
AcDbEntity
  8
DD0
100
AcDbLine
 10
279.68156
 20
356.183104
 11
276.783783
 21
355.406647
  0
LINE
  5
A3
100
AcDbEntity
  8
DD0
100
AcDbLine
 10
276.783783
 20
355.406647
 11
279.68156
 21
354.63019
  0
LINE
  5
A4
100
AcDbEntity
  8
DD0
100
AcDbLine
 10
273.783783
 20
355.406647
 11
283.083783
 21
355.406647
  0
TEXT
  5
A5
100
AcDbEntity
  8
DD0
100
AcDbText
 10
280.255431
 20
356.006653
 40
2.5
  1
３
 41
0.666667
  7
STANDARD
100
AcDbText
  0
ENDBLK
  5
A6
100
AcDbEntity
  8
DD0
100
AcDbBlockEnd
  0
BLOCK
  5
A9
100
AcDbEntity
  8
DD0
100
AcDbBlockBegin
  2
DIMS8
 70
     0
 10
0.0
 20
0.0
  0
LINE
  5
AA
100
AcDbEntity
  8
DD0
100
AcDbLine
 10
160.383804
 20
324.383728
 11
160.383804
 21
351.281647
  0
LINE
  5
AB
100
AcDbEntity
  8
DD0
100
AcDbLine
 10
163.281582
 20
351.058104
 11
160.383804
 21
350.281647
  0
LINE
  5
AC
100
AcDbEntity
  8
DD0
100
AcDbLine
 10
160.383804
 20
350.281647
 11
163.281582
 21
349.50519
  0
LINE
  5
AD
100
AcDbEntity
  8
DD0
100
AcDbLine
 10
152.486027
 20
349.50519
 11
155.383804
 21
350.281647
  0
LINE
  5
AE
100
AcDbEntity
  8
DD0
100
AcDbLine
 10
155.383804
 20
350.281647
 11
152.486027
 21
351.058104
  0
LINE
  5
AF
100
AcDbEntity
  8
DD0
100
AcDbLine
 10
163.683804
 20
350.281647
 11
149.083804
 21
350.281647
  0
TEXT
  5
B0
100
AcDbEntity
  8
DD0
100
AcDbText
 10
149.965469
 20
350.881653
 40
2.5
  1
５
 41
0.666667
  7
STANDARD
100
AcDbText
  0
ENDBLK
  5
B1
100
AcDbEntity
  8
DD0
100
AcDbBlockEnd
  0
BLOCK
  5
B4
100
AcDbEntity
  8
DD0
100
AcDbBlockBegin
  2
DIMS9
 70
     0
 10
0.0
 20
0.0
  0
LINE
  5
B5
100
AcDbEntity
  8
DD0
100
AcDbLine
 10
110.573486
 20
342.58374
 11
110.573486
 21
370.846344
  0
LINE
  5
B6
100
AcDbEntity
  8
DD0
100
AcDbLine
 10
22.773491
 20
342.58374
 11
22.773491
 21
370.846344
  0
LINE
  5
B7
100
AcDbEntity
  8
DD0
100
AcDbLine
 10
107.675709
 20
369.069887
 11
110.573486
 21
369.846344
  0
LINE
  5
B8
100
AcDbEntity
  8
DD0
100
AcDbLine
 10
110.573486
 20
369.846344
 11
107.675709
 21
370.622801
  0
LINE
  5
B9
100
AcDbEntity
  8
DD0
100
AcDbLine
 10
25.671268
 20
370.622801
 11
22.773491
 21
369.846344
  0
LINE
  5
BA
100
AcDbEntity
  8
DD0
100
AcDbLine
 10
22.773491
 20
369.846344
 11
25.671268
 21
369.069887
  0
LINE
  5
BB
100
AcDbEntity
  8
DD0
100
AcDbLine
 10
110.573486
 20
369.846344
 11
22.773491
 21
369.846344
  0
TEXT
  5
BC
100
AcDbEntity
  8
DD0
100
AcDbText
 10
64.845161
 20
370.44635
 40
2.5
  1
８８
 41
0.666667
  7
STANDARD
100
AcDbText
  0
TEXT
  5
BD
100
AcDbEntity
  8
DD0
100
AcDbText
 10
45.845161
 20
366.546356
 40
2.5
  1
（補助接点サイドオンユニットを付けた場合）
 41
0.666667
  7
STANDARD
100
AcDbText
  0
ENDBLK
  5
BE
100
AcDbEntity
  8
DD0
100
AcDbBlockEnd
  0
BLOCK
  5
C1
100
AcDbEntity
  8
DD0
100
AcDbBlockBegin
  2
DIMS10
 70
     0
 10
0.0
 20
0.0
  0
LINE
  5
C2
100
AcDbEntity
  8
DD0
100
AcDbLine
 10
66.673485
 20
270.383728
 11
66.673485
 21
262.104645
  0
LINE
  5
C3
100
AcDbEntity
  8
DD0
100
AcDbLine
 10
53.673489
 20
286.683716
 11
53.673489
 21
262.104645
  0
LINE
  5
C4
100
AcDbEntity
  8
DD0
100
AcDbLine
 10
63.775707
 20
262.328188
 11
66.673485
 21
263.104645
  0
LINE
  5
C5
100
AcDbEntity
  8
DD0
100
AcDbLine
 10
66.673485
 20
263.104645
 11
63.775707
 21
263.881102
  0
LINE
  5
C6
100
AcDbEntity
  8
DD0
100
AcDbLine
 10
56.571266
 20
263.881102
 11
53.673489
 21
263.104645
  0
LINE
  5
C7
100
AcDbEntity
  8
DD0
100
AcDbLine
 10
53.673489
 20
263.104645
 11
56.571266
 21
262.328188
  0
LINE
  5
C8
100
AcDbEntity
  8
DD0
100
AcDbLine
 10
66.673485
 20
263.104645
 11
53.673489
 21
263.104645
  0
TEXT
  5
C9
100
AcDbEntity
  8
DD0
100
AcDbText
 10
58.345153
 20
263.704651
 40
2.5
  1
１３
 41
0.666667
  7
STANDARD
100
AcDbText
  0
ENDBLK
  5
CA
100
AcDbEntity
  8
DD0
100
AcDbBlockEnd
  0
BLOCK
  5
CD
100
AcDbEntity
  8
DD0
100
AcDbBlockBegin
  2
DIMS11
 70
     0
 10
0.0
 20
0.0
  0
LINE
  5
CE
100
AcDbEntity
  8
DD0
100
AcDbLine
 10
81.173485
 20
335.58374
 11
104.01516
 21
335.58374
  0
LINE
  5
CF
100
AcDbEntity
  8
DD0
100
AcDbLine
 10
83.791222
 20
356.383728
 11
104.01516
 21
356.383728
  0
LINE
  5
D0
100
AcDbEntity
  8
DD0
100
AcDbLine
 10
102.238702
 20
338.481518
 11
103.01516
 21
335.58374
  0
LINE
  5
D1
100
AcDbEntity
  8
DD0
100
AcDbLine
 10
103.01516
 20
335.58374
 11
103.791617
 21
338.481518
  0
LINE
  5
D2
100
AcDbEntity
  8
DD0
100
AcDbLine
 10
103.791617
 20
353.485951
 11
103.01516
 21
356.383728
  0
LINE
  5
D3
100
AcDbEntity
  8
DD0
100
AcDbLine
 10
103.01516
 20
356.383728
 11
102.238702
 21
353.485951
  0
LINE
  5
D4
100
AcDbEntity
  8
DD0
100
AcDbLine
 10
103.01516
 20
335.58374
 11
103.01516
 21
356.383728
  0
TEXT
  5
D5
100
AcDbEntity
  8
DD0
100
AcDbText
 10
102.415161
 20
344.155395
 40
2.5
  1
２１
 50
90.000003
 41
0.666667
  7
STANDARD
100
AcDbText
  0
ENDBLK
  5
D6
100
AcDbEntity
  8
DD0
100
AcDbBlockEnd
  0
BLOCK
  5
D9
100
AcDbEntity
  8
DD0
100
AcDbBlockBegin
  2
DIMS12
 70
     0
 10
0.0
 20
0.0
  0
LINE
  5
DA
100
AcDbEntity
  8
DD0
100
AcDbLine
 10
83.791222
 20
356.383728
 11
111.015076
 21
356.383728
  0
LINE
  5
DB
100
AcDbEntity
  8
DD0
100
AcDbLine
 10
94.073486
 20
276.383728
 11
111.015076
 21
276.383728
  0
LINE
  5
DC
100
AcDbEntity
  8
DD0
100
AcDbLine
 10
110.791533
 20
353.485951
 11
110.015076
 21
356.383728
  0
LINE
  5
DD
100
AcDbEntity
  8
DD0
100
AcDbLine
 10
110.015076
 20
356.383728
 11
109.238619
 21
353.485951
  0
LINE
  5
DE
100
AcDbEntity
  8
DD0
100
AcDbLine
 10
109.238619
 20
279.281506
 11
110.015076
 21
276.383728
  0
LINE
  5
DF
100
AcDbEntity
  8
DD0
100
AcDbLine
 10
110.015076
 20
276.383728
 11
110.791533
 21
279.281506
  0
LINE
  5
E0
100
AcDbEntity
  8
DD0
100
AcDbLine
 10
110.015076
 20
356.383728
 11
110.015076
 21
276.383728
  0
TEXT
  5
E1
100
AcDbEntity
  8
DD0
100
AcDbText
 10
109.415077
 20
314.555389
 40
2.5
  1
８０
 50
90.000003
 41
0.666667
  7
STANDARD
100
AcDbText
  0
ENDBLK
  5
E2
100
AcDbEntity
  8
DD0
100
AcDbBlockEnd
  0
BLOCK
  5
E5
100
AcDbEntity
  8
DD0
100
AcDbBlockBegin
  2
DIMS13
 70
     0
 10
0.0
 20
0.0
  0
LINE
  5
E6
100
AcDbEntity
  8
DD0
100
AcDbLine
 10
98.073486
 20
343.383728
 11
98.073486
 21
363.001709
  0
LINE
  5
E7
100
AcDbEntity
  8
DD0
100
AcDbLine
 10
35.273487
 20
343.383728
 11
35.273487
 21
363.001709
  0
LINE
  5
E8
100
AcDbEntity
  8
DD0
100
AcDbLine
 10
95.175709
 20
361.225252
 11
98.073486
 21
362.001709
  0
LINE
  5
E9
100
AcDbEntity
  8
DD0
100
AcDbLine
 10
98.073486
 20
362.001709
 11
95.175709
 21
362.778166
  0
LINE
  5
EA
100
AcDbEntity
  8
DD0
100
AcDbLine
 10
38.171265
 20
362.778166
 11
35.273487
 21
362.001709
  0
LINE
  5
EB
100
AcDbEntity
  8
DD0
100
AcDbLine
 10
35.273487
 20
362.001709
 11
38.171265
 21
361.225252
  0
LINE
  5
EC
100
AcDbEntity
  8
DD0
100
AcDbLine
 10
98.073486
 20
362.001709
 11
35.273487
 21
362.001709
  0
TEXT
  5
ED
100
AcDbEntity
  8
DD0
100
AcDbText
 10
64.845153
 20
362.601715
 40
2.5
  1
６３
 41
0.666667
  7
STANDARD
100
AcDbText
  0
ENDBLK
  5
EE
100
AcDbEntity
  8
DD0
100
AcDbBlockEnd
  0
BLOCK
  5
F1
100
AcDbEntity
  8
DD0
100
AcDbBlockBegin
  2
DIMS14
 70
     0
 10
0.0
 20
0.0
  0
LINE
  5
F2
100
AcDbEntity
  8
DD0
100
AcDbLine
 10
81.173485
 20
335.58374
 11
104.01516
 21
335.58374
  0
LINE
  5
F3
100
AcDbEntity
  8
DD0
100
AcDbLine
 10
81.173485
 20
288.183716
 11
104.01516
 21
288.183716
  0
LINE
  5
F4
100
AcDbEntity
  8
DD0
100
AcDbLine
 10
103.791617
 20
332.685963
 11
103.01516
 21
335.58374
  0
LINE
  5
F5
100
AcDbEntity
  8
DD0
100
AcDbLine
 10
103.01516
 20
335.58374
 11
102.238702
 21
332.685963
  0
LINE
  5
F6
100
AcDbEntity
  8
DD0
100
AcDbLine
 10
102.238702
 20
291.081493
 11
103.01516
 21
288.183716
  0
LINE
  5
F7
100
AcDbEntity
  8
DD0
100
AcDbLine
 10
103.01516
 20
288.183716
 11
103.791617
 21
291.081493
  0
LINE
  5
F8
100
AcDbEntity
  8
DD0
100
AcDbLine
 10
103.01516
 20
335.58374
 11
103.01516
 21
288.183716
  0
TEXT
  5
F9
100
AcDbEntity
  8
DD0
100
AcDbText
 10
102.415161
 20
308.055389
 40
2.5
  1
４７．５
 50
90.000003
 41
0.666667
  7
STANDARD
100
AcDbText
  0
ENDBLK
  5
FA
100
AcDbEntity
  8
DD0
100
AcDbBlockEnd
  0
BLOCK
  5
FD
100
AcDbEntity
  8
DD0
100
AcDbBlockBegin
  2
DIMS15
 70
     0
 10
0.0
 20
0.0
  0
LINE
  5
FE
100
AcDbEntity
  8
DD0
100
AcDbLine
 10
39.673481
 20
160.125305
 11
39.673481
 21
174.274353
  0
LINE
  5
FF
100
AcDbEntity
  8
DD0
100
AcDbLine
 10
35.273491
 20
161.527908
 11
35.273491
 21
174.274353
  0
LINE
  5
100
100
AcDbEntity
  8
DD0
100
AcDbLine
 10
42.571258
 20
174.05081
 11
39.673481
 21
173.274353
  0
LINE
  5
101
100
AcDbEntity
  8
DD0
100
AcDbLine
 10
39.673481
 20
173.274353
 11
42.571258
 21
172.497896
  0
LINE
  5
102
100
AcDbEntity
  8
DD0
100
AcDbLine
 10
32.375713
 20
172.497896
 11
35.273491
 21
173.274353
  0
LINE
  5
103
100
AcDbEntity
  8
DD0
100
AcDbLine
 10
35.273491
 20
173.274353
 11
32.375713
 21
174.05081
  0
LINE
  5
104
100
AcDbEntity
  8
DD0
100
AcDbLine
 10
42.973481
 20
173.274353
 11
24.973491
 21
173.274353
  0
TEXT
  5
105
100
AcDbEntity
  8
DD0
100
AcDbText
 10
25.855159
 20
173.874359
 40
2.5
  1
４．５
 41
0.666667
  7
STANDARD
100
AcDbText
  0
ENDBLK
  5
106
100
AcDbEntity
  8
DD0
100
AcDbBlockEnd
  0
BLOCK
  5
109
100
AcDbEntity
  8
DD0
100
AcDbBlockBegin
  2
DIMS16
 70
     0
 10
0.0
 20
0.0
  0
LINE
  5
10A
100
AcDbEntity
  8
DD0
100
AcDbLine
 10
44.770893
 20
155.027908
 11
111.015076
 21
155.027908
  0
LINE
  5
10B
100
AcDbEntity
  8
DD0
100
AcDbLine
 10
98.770889
 20
96.027908
 11
111.015076
 21
96.027908
  0
LINE
  5
10C
100
AcDbEntity
  8
DD0
100
AcDbLine
 10
110.791533
 20
152.130131
 11
110.015076
 21
155.027908
  0
LINE
  5
10D
100
AcDbEntity
  8
DD0
100
AcDbLine
 10
110.015076
 20
155.027908
 11
109.238619
 21
152.130131
  0
LINE
  5
10E
100
AcDbEntity
  8
DD0
100
AcDbLine
 10
109.238619
 20
98.925686
 11
110.015076
 21
96.027908
  0
LINE
  5
10F
100
AcDbEntity
  8
DD0
100
AcDbLine
 10
110.015076
 20
96.027908
 11
110.791533
 21
98.925686
  0
LINE
  5
110
100
AcDbEntity
  8
DD0
100
AcDbLine
 10
110.015076
 20
155.027908
 11
110.015076
 21
96.027908
  0
TEXT
  5
111
100
AcDbEntity
  8
DD0
100
AcDbText
 10
109.415077
 20
123.699577
 40
2.5
  1
５９
 50
90.000003
 41
0.666667
  7
STANDARD
100
AcDbText
  0
ENDBLK
  5
112
100
AcDbEntity
  8
DD0
100
AcDbBlockEnd
  0
BLOCK
  5
115
100
AcDbEntity
  8
DD0
100
AcDbBlockBegin
  2
DIMS17
 70
     0
 10
0.0
 20
0.0
  0
LINE
  5
116
100
AcDbEntity
  8
DD0
100
AcDbLine
 10
44.770893
 20
155.027908
 11
111.015076
 21
155.027908
  0
LINE
  5
117
100
AcDbEntity
  8
DD0
100
AcDbLine
 10
84.643486
 20
169.527908
 11
111.015076
 21
169.527908
  0
LINE
  5
118
100
AcDbEntity
  8
DD0
100
AcDbLine
 10
109.238619
 20
157.925686
 11
110.015076
 21
155.027908
  0
LINE
  5
119
100
AcDbEntity
  8
DD0
100
AcDbLine
 10
110.015076
 20
155.027908
 11
110.791533
 21
157.925686
  0
LINE
  5
11A
100
AcDbEntity
  8
DD0
100
AcDbLine
 10
110.791533
 20
166.630131
 11
110.015076
 21
169.527908
  0
LINE
  5
11B
100
AcDbEntity
  8
DD0
100
AcDbLine
 10
110.015076
 20
169.527908
 11
109.238619
 21
166.630131
  0
LINE
  5
11C
100
AcDbEntity
  8
DD0
100
AcDbLine
 10
110.015076
 20
155.027908
 11
110.015076
 21
169.527908
  0
TEXT
  5
11D
100
AcDbEntity
  8
DD0
100
AcDbText
 10
109.415077
 20
158.099517
 40
2.5
  1
１４．５
 50
90.000003
 41
0.666667
  7
STANDARD
100
AcDbText
  0
ENDBLK
  5
11E
100
AcDbEntity
  8
DD0
100
AcDbBlockEnd
  0
BLOCK
  5
121
100
AcDbEntity
  8
DD0
100
AcDbBlockBegin
  2
DIMS18
 70
     0
 10
0.0
 20
0.0
  0
LINE
  5
122
100
AcDbEntity
  8
DD0
100
AcDbLine
 10
39.673481
 20
160.125305
 11
39.673481
 21
174.274368
  0
LINE
  5
123
100
AcDbEntity
  8
DD0
100
AcDbLine
 10
93.673477
 20
101.125305
 11
93.673477
 21
174.274368
  0
LINE
  5
124
100
AcDbEntity
  8
DD0
100
AcDbLine
 10
42.571258
 20
174.050825
 11
39.673481
 21
173.274368
  0
LINE
  5
125
100
AcDbEntity
  8
DD0
100
AcDbLine
 10
39.673481
 20
173.274368
 11
42.571258
 21
172.497911
  0
LINE
  5
126
100
AcDbEntity
  8
DD0
100
AcDbLine
 10
90.7757
 20
172.497911
 11
93.673477
 21
173.274368
  0
LINE
  5
127
100
AcDbEntity
  8
DD0
100
AcDbLine
 10
93.673477
 20
173.274368
 11
90.7757
 21
174.050825
  0
LINE
  5
128
100
AcDbEntity
  8
DD0
100
AcDbLine
 10
39.673481
 20
173.274368
 11
93.673477
 21
173.274368
  0
TEXT
  5
129
100
AcDbEntity
  8
DD0
100
AcDbText
 10
64.845145
 20
173.874374
 40
2.5
  1
５４
 41
0.666667
  7
STANDARD
100
AcDbText
  0
ENDBLK
  5
12A
100
AcDbEntity
  8
DD0
100
AcDbBlockEnd
  0
ENDSEC
  0
SECTION
  2
ENTITIES
  0
INSERT
  5
56
100
AcDbEntity
  8
DD0
100
AcDbBlockReference
  2
DIMS0
 10
0.0
 20
0.0
  0
INSERT
  5
62
100
AcDbEntity
  8
DD0
100
AcDbBlockReference
  2
DIMS1
 10
0.0
 20
0.0
  0
INSERT
  5
6D
100
AcDbEntity
  8
DD0
100
AcDbBlockReference
  2
DIMS2
 10
0.0
 20
0.0
  0
INSERT
  5
79
100
AcDbEntity
  8
DD0
100
AcDbBlockReference
  2
DIMS3
 10
0.0
 20
0.0
  0
INSERT
  5
85
100
AcDbEntity
  8
DD0
100
AcDbBlockReference
  2
DIMS4
 10
0.0
 20
0.0
  0
INSERT
  5
91
100
AcDbEntity
  8
DD0
100
AcDbBlockReference
  2
DIMS5
 10
0.0
 20
0.0
  0
INSERT
  5
9D
100
AcDbEntity
  8
DD0
100
AcDbBlockReference
  2
DIMS6
 10
0.0
 20
0.0
  0
INSERT
  5
A7
100
AcDbEntity
  8
DD0
100
AcDbBlockReference
  2
DIMS7
 10
0.0
 20
0.0
  0
INSERT
  5
B2
100
AcDbEntity
  8
DD0
100
AcDbBlockReference
  2
DIMS8
 10
0.0
 20
0.0
  0
INSERT
  5
BF
100
AcDbEntity
  8
DD0
100
AcDbBlockReference
  2
DIMS9
 10
0.0
 20
0.0
  0
INSERT
  5
CB
100
AcDbEntity
  8
DD0
100
AcDbBlockReference
  2
DIMS10
 10
0.0
 20
0.0
  0
INSERT
  5
D7
100
AcDbEntity
  8
DD0
100
AcDbBlockReference
  2
DIMS11
 10
0.0
 20
0.0
  0
INSERT
  5
E3
100
AcDbEntity
  8
DD0
100
AcDbBlockReference
  2
DIMS12
 10
0.0
 20
0.0
  0
INSERT
  5
EF
100
AcDbEntity
  8
DD0
100
AcDbBlockReference
  2
DIMS13
 10
0.0
 20
0.0
  0
INSERT
  5
FB
100
AcDbEntity
  8
DD0
100
AcDbBlockReference
  2
DIMS14
 10
0.0
 20
0.0
  0
INSERT
  5
107
100
AcDbEntity
  8
DD0
100
AcDbBlockReference
  2
DIMS15
 10
0.0
 20
0.0
  0
INSERT
  5
113
100
AcDbEntity
  8
DD0
100
AcDbBlockReference
  2
DIMS16
 10
0.0
 20
0.0
  0
INSERT
  5
11F
100
AcDbEntity
  8
DD0
100
AcDbBlockReference
  2
DIMS17
 10
0.0
 20
0.0
  0
INSERT
  5
12B
100
AcDbEntity
  8
DD0
100
AcDbBlockReference
  2
DIMS18
 10
0.0
 20
0.0
  0
LINE
  5
12C
100
AcDbEntity
  8
M1
 62
     7
100
AcDbLine
 10
250.183797
 20
335.883729
 11
250.183797
 21
341.883729
  0
LINE
  5
12D
100
AcDbEntity
  8
M1
 62
     7
100
AcDbLine
 10
238.183797
 20
335.883729
 11
238.183797
 21
341.883729
  0
LINE
  5
12E
100
AcDbEntity
  8
M1
 62
     7
100
AcDbLine
 10
226.183797
 20
335.883729
 11
226.183797
 21
341.883729
  0
LINE
  5
12F
100
AcDbEntity
  8
M1
 62
     7
100
AcDbLine
 10
234.183797
 20
335.883729
 11
234.183797
 21
341.883729
  0
LINE
  5
130
100
AcDbEntity
  8
M1
 62
     7
100
AcDbLine
 10
236.183797
 20
335.883729
 11
236.183797
 21
341.883729
  0
LINE
  5
131
100
AcDbEntity
  8
M1
 62
     7
100
AcDbLine
 10
248.183797
 20
335.883729
 11
250.183797
 21
335.883729
  0
LINE
  5
132
100
AcDbEntity
  8
M1
 62
     7
100
AcDbLine
 10
228.183797
 20
335.883729
 11
228.183797
 21
341.883729
  0
LINE
  5
133
100
AcDbEntity
  8
M1
 62
     7
100
AcDbLine
 10
224.183797
 20
335.883729
 11
226.183797
 21
335.883729
  0
LINE
  5
134
100
AcDbEntity
  8
M1
 62
     7
100
AcDbLine
 10
229.483797
 20
277.883729
 11
229.483797
 21
287.383729
  0
LINE
  5
135
100
AcDbEntity
  8
M1
 62
     7
100
AcDbLine
 10
244.183797
 20
335.883729
 11
244.183797
 21
341.883729
  0
LINE
  5
136
100
AcDbEntity
  8
M1
 62
     7
100
AcDbLine
 10
244.183797
 20
335.883729
 11
246.183797
 21
335.883729
  0
LINE
  5
137
100
AcDbEntity
  8
M1
 62
     7
100
AcDbLine
 10
262.783797
 20
280.883729
 11
238.483797
 21
280.883729
  0
LINE
  5
138
100
AcDbEntity
  8
M1
 62
     7
100
AcDbLine
 10
246.183797
 20
335.883729
 11
246.183797
 21
341.883729
  0
LINE
  5
139
100
AcDbEntity
  8
M1
 62
     7
100
AcDbLine
 10
273.483797
 20
293.583729
 11
273.483797
 21
293.383729
  0
LINE
  5
13A
100
AcDbEntity
  8
M1
 62
     7
100
AcDbLine
 10
273.783797
 20
287.633729
 11
273.783797
 21
278.133729
  0
LINE
  5
13B
100
AcDbEntity
  8
M1
 62
     7
100
AcDbLine
 10
269.283797
 20
323.683729
 11
269.583797
 21
324.183729
  0
LINE
  5
13C
100
AcDbEntity
  8
M1
 62
     7
100
AcDbLine
 10
273.783797
 20
283.883729
 11
273.783797
 21
281.883729
  0
LINE
  5
13D
100
AcDbEntity
  8
M1
 62
     7
100
AcDbLine
 10
224.083797
 20
349.369515
 11
224.083797
 21
342.883729
  0
LINE
  5
13E
100
AcDbEntity
  8
M1
 62
     7
100
AcDbLine
 10
217.87669
 20
355.990835
 11
219.083797
 21
354.783729
  0
LINE
  5
13F
100
AcDbEntity
  8
M1
 62
     7
100
AcDbLine
 10
229.269583
 20
279.383729
 11
227.683797
 21
279.383729
  0
LINE
  5
140
100
AcDbEntity
  8
M1
 62
     7
100
AcDbLine
 10
227.683797
 20
280.883729
 11
227.683797
 21
277.383729
  0
LINE
  5
141
100
AcDbEntity
  8
M1
 62
     7
100
AcDbLine
 10
269.283797
 20
327.183729
 11
269.283797
 21
329.683729
  0
LINE
  5
142
100
AcDbEntity
  8
M1
 62
     7
100
AcDbLine
 10
250.983797
 20
342.883729
 11
250.983797
 21
346.883729
  0
ARC
  5
143
100
AcDbEntity
  8
M1
 62
     7
100
AcDbCircle
 10
217.169583
 20
355.283729
 40
1.0
100
AcDbArc
 50
45.0
 51
90.0
  0
ARC
  5
144
100
AcDbEntity
  8
M1
 62
     7
100
AcDbCircle
 10
229.269583
 20
280.383729
 40
1.0
100
AcDbArc
 50
270.0
 51
282.369393
  0
ARC
  5
145
100
AcDbEntity
  8
M1
 62
     7
100
AcDbCircle
 10
226.683797
 20
277.383729
 40
1.0
100
AcDbArc
 50
270.0
 51
360.0
  0
ARC
  5
146
100
AcDbEntity
  8
M1
 62
     7
100
AcDbCircle
 10
269.603958
 20
330.986765
 40
1.374538
100
AcDbArc
 50
233.367407
 51
251.438337
  0
ARC
  5
147
100
AcDbEntity
  8
M1
 62
     7
100
AcDbCircle
 10
272.983797
 20
330.383729
 40
0.5
100
AcDbArc
 50
270.0
 51
360.0
  0
ARC
  5
148
100
AcDbEntity
  8
M1
 62
     7
100
AcDbCircle
 10
230.983797
 20
277.883729
 40
1.5
100
AcDbArc
 50
180.0
 51
270.0
  0
LINE
  5
149
100
AcDbEntity
  8
M1
 62
     7
100
AcDbLine
 10
240.183797
 20
335.883729
 11
240.183797
 21
341.883729
  0
LINE
  5
14A
100
AcDbEntity
  8
M1
 62
     7
100
AcDbLine
 10
236.183797
 20
335.883729
 11
238.183797
 21
335.883729
  0
LINE
  5
14B
100
AcDbEntity
  8
M1
 62
     7
100
AcDbLine
 10
240.183797
 20
335.883729
 11
242.183797
 21
335.883729
  0
ARC
  5
14C
100
AcDbEntity
  8
M1
 62
     7
100
AcDbCircle
 10
223.083797
 20
349.369515
 40
1.0
100
AcDbArc
 50
0.0
 51
45.0
  0
ARC
  5
14D
100
AcDbEntity
  8
M1
 62
     7
100
AcDbCircle
 10
237.483797
 20
277.383729
 40
1.0
100
AcDbArc
 50
270.0
 51
360.0
  0
LINE
  5
14E
100
AcDbEntity
  8
M1
 62
     7
100
AcDbLine
 10
229.483797
 20
287.383729
 11
217.283797
 21
287.383729
  0
ARC
  5
14F
100
AcDbEntity
  8
M1
 62
     7
100
AcDbCircle
 10
272.983797
 20
276.883729
 40
0.5
100
AcDbArc
 50
270.0
 51
360.0
  0
LINE
  5
150
100
AcDbEntity
  8
M1
 62
     7
100
AcDbLine
 10
273.483797
 20
333.183729
 11
273.483797
 21
331.183729
  0
LINE
  5
151
100
AcDbEntity
  8
M1
 62
     7
100
AcDbLine
 10
238.483797
 20
292.583729
 11
238.483797
 21
277.383729
  0
LINE
  5
152
100
AcDbEntity
  8
M1
 62
     7
100
AcDbLine
 10
218.283797
 20
331.183729
 11
230.283797
 21
331.183729
  0
LINE
  5
153
100
AcDbEntity
  8
M1
 62
     7
100
AcDbLine
 10
242.183797
 20
335.883729
 11
242.183797
 21
341.883729
  0
LINE
  5
154
100
AcDbEntity
  8
M1
 62
     7
100
AcDbLine
 10
238.183797
 20
342.883729
 11
236.183797
 21
342.883729
  0
LINE
  5
155
100
AcDbEntity
  8
M1
 62
     7
100
AcDbLine
 10
237.483797
 20
292.583729
 11
244.283797
 21
292.583729
  0
ARC
  5
156
100
AcDbEntity
  8
M1
 62
     7
100
AcDbCircle
 10
270.045679
 20
291.941215
 40
2.316399
100
AcDbArc
 50
112.341791
 51
123.008287
  0
ARC
  5
157
100
AcDbEntity
  8
M1
 62
     7
100
AcDbCircle
 10
272.983797
 20
346.383729
 40
0.5
100
AcDbArc
 50
0.0
 51
90.0
  0
ARC
  5
158
100
AcDbEntity
  8
M1
 62
     7
100
AcDbCircle
 10
272.983797
 20
293.583729
 40
0.5
100
AcDbArc
 50
0.0
 51
90.0
  0
ARC
  5
159
100
AcDbEntity
  8
M1
 62
     7
100
AcDbCircle
 10
272.983797
 20
293.383729
 40
0.5
100
AcDbArc
 50
0.0
 51
90.0
  0
LINE
  5
15A
100
AcDbEntity
  8
M1
 62
     7
100
AcDbLine
 10
218.283797
 20
333.183729
 11
262.783797
 21
333.183729
  0
ARC
  5
15B
100
AcDbEntity
  8
M1
 62
     7
100
AcDbCircle
 10
272.983797
 20
330.183729
 40
0.5
100
AcDbArc
 50
270.0
 51
360.0
  0
ARC
  5
15C
100
AcDbEntity
  8
M1
 62
     7
100
AcDbCircle
 10
263.783797
 20
345.883729
 40
1.0
100
AcDbArc
 50
90.0
 51
180.0
  0
LINE
  5
15D
100
AcDbEntity
  8
M1
 62
     7
100
AcDbLine
 10
269.583797
 20
326.183729
 11
269.583797
 21
324.183729
  0
LINE
  5
15E
100
AcDbEntity
  8
M1
 62
     7
100
AcDbLine
 10
228.183797
 20
335.883729
 11
230.183797
 21
335.883729
  0
LINE
  5
15F
100
AcDbEntity
  8
M1
 62
     7
100
AcDbLine
 10
269.283797
 20
329.683729
 11
269.283797
 21
294.083729
  0
LINE
  5
160
100
AcDbEntity
  8
M1
 62
     7
100
AcDbLine
 10
273.483797
 20
330.383729
 11
273.483797
 21
330.183729
  0
LINE
  5
161
100
AcDbEntity
  8
M1
 62
     7
100
AcDbLine
 10
269.183797
 20
294.083729
 11
272.983797
 21
294.083729
  0
LINE
  5
162
100
AcDbEntity
  8
M1
 62
     7
100
AcDbLine
 10
272.983797
 20
329.683729
 11
269.183797
 21
329.683729
  0
LINE
  5
163
100
AcDbEntity
  8
M1
 62
     7
100
AcDbLine
 10
237.483797
 20
276.383729
 11
230.983797
 21
276.383729
  0
LINE
  5
164
100
AcDbEntity
  8
M1
 62
     7
100
AcDbLine
 10
262.783797
 20
331.183729
 11
262.783797
 21
345.883729
  0
LINE
  5
165
100
AcDbEntity
  8
M1
 62
     7
100
AcDbLine
 10
263.783797
 20
346.883729
 11
272.983797
 21
346.883729
  0
LINE
  5
166
100
AcDbEntity
  8
M1
 62
     7
100
AcDbLine
 10
242.183797
 20
342.883729
 11
240.183797
 21
342.883729
  0
LINE
  5
167
100
AcDbEntity
  8
M1
 62
     7
100
AcDbLine
 10
229.483797
 20
280.883729
 11
206.283797
 21
280.883729
  0
LINE
  5
168
100
AcDbEntity
  8
M1
 62
     7
100
AcDbLine
 10
226.683797
 20
276.383729
 11
206.283797
 21
276.383729
  0
LINE
  5
169
100
AcDbEntity
  8
M1
 62
     7
100
AcDbLine
 10
206.283797
 20
336.583729
 11
217.283797
 21
336.583729
  0
ARC
  5
16A
100
AcDbEntity
  8
M1
 62
     7
100
AcDbCircle
 10
195.083797
 20
353.883729
 40
1.0
100
AcDbArc
 50
90.0
 51
180.0
  0
ARC
  5
16B
100
AcDbEntity
  8
M1
 62
     7
100
AcDbCircle
 10
198.183797
 20
355.383729
 40
1.0
100
AcDbArc
 50
90.0
 51
115.841933
  0
LINE
  5
16C
100
AcDbEntity
  8
M1
 62
     7
100
AcDbLine
 10
217.283797
 20
287.383729
 11
206.283797
 21
287.383729
  0
LINE
  5
16D
100
AcDbEntity
  8
M1
 62
     7
100
AcDbLine
 10
198.183797
 20
356.383729
 11
207.583797
 21
356.383729
  0
LINE
  5
16E
100
AcDbEntity
  8
M1
 62
     7
100
AcDbLine
 10
197.683797
 20
356.283729
 11
217.169583
 21
356.283729
  0
LINE
  5
16F
100
AcDbEntity
  8
M1
 62
     7
100
AcDbLine
 10
206.283797
 20
342.883729
 11
224.183797
 21
342.883729
  0
LINE
  5
170
100
AcDbEntity
  8
M1
 62
     7
100
AcDbLine
 10
194.083797
 20
353.883729
 11
194.083797
 21
346.383729
  0
ARC
  5
171
100
AcDbEntity
  8
M1
 62
     7
100
AcDbCircle
 10
197.683797
 20
353.283729
 40
3.0
100
AcDbArc
 50
90.0
 51
180.0
  0
ARC
  5
172
100
AcDbEntity
  8
M1
 62
     7
100
AcDbCircle
 10
217.283797
 20
335.583729
 40
1.0
100
AcDbArc
 50
0.0
 51
90.0
  0
LINE
  5
173
100
AcDbEntity
  8
M1
 62
     7
100
AcDbLine
 10
270.283797
 20
329.683729
 11
270.283797
 21
328.183729
  0
LINE
  5
174
100
AcDbEntity
  8
M1
 62
     7
100
AcDbLine
 10
219.083797
 20
354.783729
 11
223.790904
 21
350.076622
  0
LINE
  5
175
100
AcDbEntity
  8
M1
 62
     7
100
AcDbLine
 10
228.183797
 20
341.383729
 11
230.183797
 21
341.383729
  0
LINE
  5
176
100
AcDbEntity
  8
M1
 62
     7
100
AcDbLine
 10
236.183797
 20
341.383729
 11
238.183797
 21
341.383729
  0
LINE
  5
177
100
AcDbEntity
  8
M1
 62
     7
100
AcDbLine
 10
264.283797
 20
298.283729
 11
233.983797
 21
298.283729
  0
LINE
  5
178
100
AcDbEntity
  8
M1
 62
     7
100
AcDbLine
 10
230.183797
 20
342.883729
 11
228.183797
 21
342.883729
  0
LINE
  5
179
100
AcDbEntity
  8
M1
 62
     7
100
AcDbLine
 10
271.283797
 20
327.183729
 11
270.283797
 21
328.183729
  0
LINE
  5
17A
100
AcDbEntity
  8
M1
 62
     7
100
AcDbLine
 10
265.483797
 20
346.883729
 11
272.983797
 21
346.883729
  0
LINE
  5
17B
100
AcDbEntity
  8
M1
 62
     7
100
AcDbLine
 10
271.283797
 20
327.183729
 11
273.483797
 21
327.183729
  0
LINE
  5
17C
100
AcDbEntity
  8
M1
 62
     7
100
AcDbLine
 10
273.483797
 20
346.383729
 11
273.483797
 21
327.183729
  0
LINE
  5
17D
100
AcDbEntity
  8
M1
 62
     7
100
AcDbLine
 10
273.783797
 20
345.633729
 11
273.783797
 21
336.133729
  0
LINE
  5
17E
100
AcDbEntity
  8
M1
 62
     7
100
AcDbLine
 10
263.783797
 20
346.883729
 11
264.983797
 21
346.883729
  0
LINE
  5
17F
100
AcDbEntity
  8
M1
 62
     7
100
AcDbLine
 10
269.483797
 20
294.083729
 11
269.483797
 21
294.383729
  0
LINE
  5
180
100
AcDbEntity
  8
M1
 62
     7
100
AcDbLine
 10
218.183797
 20
329.299956
 11
218.183797
 21
326.423173
  0
LINE
  5
181
100
AcDbEntity
  8
M1
 62
     7
100
AcDbLine
 10
233.983797
 20
298.283729
 11
233.983797
 21
297.644284
  0
LINE
  5
182
100
AcDbEntity
  8
M1
 62
     7
100
AcDbLine
 10
262.783797
 20
292.583729
 11
218.283797
 21
292.583729
  0
LINE
  5
183
100
AcDbEntity
  8
M1
 62
     7
100
AcDbLine
 10
213.683797
 20
291.783729
 11
213.683797
 21
296.783729
  0
LINE
  5
184
100
AcDbEntity
  8
M1
 62
     7
100
AcDbLine
 10
194.683797
 20
346.383729
 11
194.683797
 21
353.283729
  0
LINE
  5
185
100
AcDbEntity
  8
M1
 62
     7
100
AcDbLine
 10
248.183797
 20
335.883729
 11
248.183797
 21
341.883729
  0
LINE
  5
186
100
AcDbEntity
  8
M1
 62
     7
100
AcDbLine
 10
233.983797
 20
293.883729
 11
272.983797
 21
293.883729
  0
LINE
  5
187
100
AcDbEntity
  8
M1
 62
     7
100
AcDbLine
 10
269.583797
 20
326.183729
 11
269.283797
 21
327.183729
  0
LINE
  5
188
100
AcDbEntity
  8
M1
 62
     7
100
AcDbLine
 10
273.483797
 20
293.383729
 11
273.483797
 21
292.883729
  0
LINE
  5
189
100
AcDbEntity
  8
M1
 62
     7
100
AcDbLine
 10
233.983797
 20
294.167501
 11
233.983797
 21
293.883729
  0
LINE
  5
18A
100
AcDbEntity
  8
M1
 62
     7
100
AcDbLine
 10
218.283797
 20
335.583729
 11
218.283797
 21
331.183729
  0
LINE
  5
18B
100
AcDbEntity
  8
M1
 62
     7
100
AcDbLine
 10
264.283797
 20
299.283729
 11
264.283797
 21
298.283729
  0
LINE
  5
18C
100
AcDbEntity
  8
M1
 62
     7
100
AcDbLine
 10
269.283797
 20
294.583729
 11
269.283797
 21
294.283729
  0
LINE
  5
18D
100
AcDbEntity
  8
M1
 62
     7
100
AcDbLine
 10
273.483797
 20
346.383729
 11
273.483797
 21
345.633729
  0
LINE
  5
18E
100
AcDbEntity
  8
M1
 62
     7
100
AcDbLine
 10
265.483797
 20
346.883729
 11
272.983797
 21
346.883729
  0
LINE
  5
18F
100
AcDbEntity
  8
M1
 62
     7
100
AcDbLine
 10
246.183797
 20
341.883729
 11
246.183797
 21
342.883729
  0
LINE
  5
190
100
AcDbEntity
  8
M1
 62
     7
100
AcDbLine
 10
248.183797
 20
342.883729
 11
248.183797
 21
341.883729
  0
LINE
  5
191
100
AcDbEntity
  8
M1
 62
     7
100
AcDbLine
 10
236.183797
 20
342.883729
 11
234.183797
 21
342.883729
  0
LINE
  5
192
100
AcDbEntity
  8
M1
 62
     7
100
AcDbLine
 10
273.483797
 20
346.383729
 11
273.483797
 21
345.633729
  0
LINE
  5
193
100
AcDbEntity
  8
M1
 62
     7
100
AcDbLine
 10
269.283797
 20
294.083729
 11
269.283797
 21
294.283729
  0
LINE
  5
194
100
AcDbEntity
  8
M1
 62
     7
100
AcDbLine
 10
224.183797
 20
341.383729
 11
226.183797
 21
341.383729
  0
LINE
  5
195
100
AcDbEntity
  8
M1
 62
     7
100
AcDbLine
 10
248.183797
 20
342.883729
 11
246.183797
 21
342.883729
  0
LINE
  5
196
100
AcDbEntity
  8
M1
 62
     7
100
AcDbLine
 10
240.183797
 20
342.883729
 11
238.183797
 21
342.883729
  0
LINE
  5
197
100
AcDbEntity
  8
M1
 62
     7
100
AcDbLine
 10
251.083797
 20
346.883729
 11
264.983797
 21
346.883729
  0
LINE
  5
198
100
AcDbEntity
  8
M1
 62
     7
100
AcDbLine
 10
244.183797
 20
342.883729
 11
242.183797
 21
342.883729
  0
LINE
  5
199
100
AcDbEntity
  8
M1
 62
     7
100
AcDbLine
 10
254.183797
 20
341.883729
 11
254.183797
 21
342.883729
  0
LINE
  5
19A
100
AcDbEntity
  8
M1
 62
     7
100
AcDbLine
 10
250.983797
 20
342.883729
 11
250.183797
 21
342.883729
  0
LINE
  5
19B
100
AcDbEntity
  8
M1
 62
     7
100
AcDbLine
 10
252.483797
 20
346.883729
 11
272.983797
 21
346.883729
  0
LINE
  5
19C
100
AcDbEntity
  8
M1
 62
     7
100
AcDbLine
 10
262.783797
 20
277.383729
 11
262.783797
 21
292.583729
  0
LINE
  5
19D
100
AcDbEntity
  8
M1
 62
     7
100
AcDbLine
 10
273.483797
 20
292.883729
 11
273.483797
 21
276.883729
  0
LINE
  5
19E
100
AcDbEntity
  8
M1
 62
     7
100
AcDbLine
 10
252.183797
 20
342.883729
 11
252.183797
 21
341.883729
  0
LINE
  5
19F
100
AcDbEntity
  8
M1
 62
     7
100
AcDbLine
 10
246.183797
 20
342.883729
 11
244.183797
 21
342.883729
  0
LINE
  5
1A0
100
AcDbEntity
  8
M1
 62
     7
100
AcDbLine
 10
250.183797
 20
342.883729
 11
252.183797
 21
342.883729
  0
LINE
  5
1A1
100
AcDbEntity
  8
M1
 62
     7
100
AcDbLine
 10
250.183797
 20
341.883729
 11
250.183797
 21
342.883729
  0
LINE
  5
1A2
100
AcDbEntity
  8
M1
 62
     7
100
AcDbLine
 10
232.183797
 20
342.883729
 11
232.183797
 21
341.883729
  0
LINE
  5
1A3
100
AcDbEntity
  8
M1
 62
     7
100
AcDbLine
 10
273.483797
 20
278.133729
 11
273.783797
 21
278.133729
  0
LINE
  5
1A4
100
AcDbEntity
  8
M1
 62
     7
100
AcDbLine
 10
246.183797
 20
342.883729
 11
248.183797
 21
342.883729
  0
LINE
  5
1A5
100
AcDbEntity
  8
M1
 62
     7
100
AcDbLine
 10
254.183797
 20
335.883729
 11
254.183797
 21
341.883729
  0
LINE
  5
1A6
100
AcDbEntity
  8
M1
 62
     7
100
AcDbLine
 10
242.183797
 20
342.883729
 11
244.183797
 21
342.883729
  0
LINE
  5
1A7
100
AcDbEntity
  8
M1
 62
     7
100
AcDbLine
 10
236.183797
 20
342.883729
 11
236.183797
 21
341.883729
  0
LINE
  5
1A8
100
AcDbEntity
  8
M1
 62
     7
100
AcDbLine
 10
244.183797
 20
342.883729
 11
244.183797
 21
341.883729
  0
LINE
  5
1A9
100
AcDbEntity
  8
M1
 62
     7
100
AcDbLine
 10
224.183797
 20
335.883729
 11
224.183797
 21
341.883729
  0
LINE
  5
1AA
100
AcDbEntity
  8
M1
 62
     7
100
AcDbLine
 10
252.183797
 20
335.883729
 11
254.183797
 21
335.883729
  0
LINE
  5
1AB
100
AcDbEntity
  8
M1
 62
     7
100
AcDbLine
 10
234.183797
 20
342.883729
 11
236.183797
 21
342.883729
  0
LINE
  5
1AC
100
AcDbEntity
  8
M1
 62
     7
100
AcDbLine
 10
254.183797
 20
342.883729
 11
262.783797
 21
342.883729
  0
LINE
  5
1AD
100
AcDbEntity
  8
M1
 62
     7
100
AcDbLine
 10
226.183797
 20
342.883729
 11
224.183797
 21
342.883729
  0
LINE
  5
1AE
100
AcDbEntity
  8
M1
 62
     7
100
AcDbLine
 10
234.183797
 20
341.883729
 11
234.183797
 21
342.883729
  0
LINE
  5
1AF
100
AcDbEntity
  8
M1
 62
     7
100
AcDbLine
 10
242.183797
 20
341.883729
 11
242.183797
 21
342.883729
  0
LINE
  5
1B0
100
AcDbEntity
  8
M1
 62
     7
100
AcDbLine
 10
254.183797
 20
342.883729
 11
252.183797
 21
342.883729
  0
LINE
  5
1B1
100
AcDbEntity
  8
M1
 62
     7
100
AcDbLine
 10
273.483797
 20
346.383729
 11
273.483797
 21
345.633729
  0
LINE
  5
1B2
100
AcDbEntity
  8
M1
 62
     7
100
AcDbLine
 10
252.183797
 20
341.383729
 11
254.183797
 21
341.383729
  0
LINE
  5
1B3
100
AcDbEntity
  8
M1
 62
     7
100
AcDbLine
 10
240.183797
 20
342.883729
 11
240.183797
 21
341.883729
  0
LINE
  5
1B4
100
AcDbEntity
  8
M1
 62
     7
100
AcDbLine
 10
238.183797
 20
342.883729
 11
240.183797
 21
342.883729
  0
LINE
  5
1B5
100
AcDbEntity
  8
M1
 62
     7
100
AcDbLine
 10
230.183797
 20
341.883729
 11
230.183797
 21
342.883729
  0
LINE
  5
1B6
100
AcDbEntity
  8
M1
 62
     7
100
AcDbLine
 10
240.183797
 20
341.383729
 11
242.183797
 21
341.383729
  0
LINE
  5
1B7
100
AcDbEntity
  8
M1
 62
     7
100
AcDbLine
 10
238.183797
 20
341.883729
 11
238.183797
 21
342.883729
  0
LINE
  5
1B8
100
AcDbEntity
  8
M1
 62
     7
100
AcDbLine
 10
244.183797
 20
341.383729
 11
246.183797
 21
341.383729
  0
LINE
  5
1B9
100
AcDbEntity
  8
M1
 62
     7
100
AcDbLine
 10
252.183797
 20
335.883729
 11
252.183797
 21
341.883729
  0
LINE
  5
1BA
100
AcDbEntity
  8
M1
 62
     7
100
AcDbLine
 10
250.183797
 20
342.883729
 11
248.183797
 21
342.883729
  0
LINE
  5
1BB
100
AcDbEntity
  8
M1
 62
     7
100
AcDbLine
 10
234.183797
 20
342.883729
 11
232.183797
 21
342.883729
  0
LINE
  5
1BC
100
AcDbEntity
  8
M1
 62
     7
100
AcDbLine
 10
226.183797
 20
342.883729
 11
228.183797
 21
342.883729
  0
LINE
  5
1BD
100
AcDbEntity
  8
M1
 62
     7
100
AcDbLine
 10
224.183797
 20
342.883729
 11
224.183797
 21
341.883729
  0
LINE
  5
1BE
100
AcDbEntity
  8
M1
 62
     7
100
AcDbLine
 10
269.983797
 20
294.883729
 11
271.483797
 21
294.883729
  0
LINE
  5
1BF
100
AcDbEntity
  8
M1
 62
     7
100
AcDbLine
 10
273.009674
 20
294.081595
 11
271.423797
 21
295.883729
  0
LINE
  5
1C0
100
AcDbEntity
  8
M1
 62
     7
100
AcDbLine
 10
273.483797
 20
338.133729
 11
273.783797
 21
338.133729
  0
LINE
  5
1C1
100
AcDbEntity
  8
M1
 62
     7
100
AcDbLine
 10
218.183797
 20
297.344284
 11
233.683797
 21
297.344284
  0
LINE
  5
1C2
100
AcDbEntity
  8
M1
 62
     7
100
AcDbLine
 10
271.483797
 20
294.883729
 11
271.483797
 21
294.383729
  0
LINE
  5
1C3
100
AcDbEntity
  8
M1
 62
     7
100
AcDbLine
 10
271.483797
 20
294.383729
 11
271.483797
 21
294.083729
  0
LINE
  5
1C4
100
AcDbEntity
  8
M1
 62
     7
100
AcDbLine
 10
218.183797
 20
329.299956
 11
233.683797
 21
329.299956
  0
LINE
  5
1C5
100
AcDbEntity
  8
M1
 62
     7
100
AcDbLine
 10
270.983797
 20
296.383729
 11
271.423797
 21
295.883729
  0
LINE
  5
1C6
100
AcDbEntity
  8
M1
 62
     7
100
AcDbLine
 10
273.483797
 20
333.183729
 11
273.483797
 21
338.133729
  0
LINE
  5
1C7
100
AcDbEntity
  8
M1
 62
     7
100
AcDbLine
 10
218.183797
 20
297.344284
 11
218.183797
 21
294.467501
  0
LINE
  5
1C8
100
AcDbEntity
  8
M1
 62
     7
100
AcDbLine
 10
270.283797
 20
295.883729
 11
270.283797
 21
296.383729
  0
LINE
  5
1C9
100
AcDbEntity
  8
M1
 62
     7
100
AcDbLine
 10
273.783797
 20
345.633729
 11
273.483797
 21
345.633729
  0
LINE
  5
1CA
100
AcDbEntity
  8
M1
 62
     7
100
AcDbLine
 10
233.683797
 20
326.423173
 11
218.183797
 21
326.423173
  0
LINE
  5
1CB
100
AcDbEntity
  8
M1
 62
     7
100
AcDbLine
 10
218.283797
 20
331.183729
 11
262.783797
 21
331.183729
  0
LINE
  5
1CC
100
AcDbEntity
  8
M1
 62
     7
100
AcDbLine
 10
264.283797
 20
325.483729
 11
264.283797
 21
324.483729
  0
LINE
  5
1CD
100
AcDbEntity
  8
M1
 62
     7
100
AcDbLine
 10
272.983797
 20
329.883729
 11
233.983797
 21
329.883729
  0
LINE
  5
1CE
100
AcDbEntity
  8
M1
 62
     7
100
AcDbLine
 10
233.983797
 20
326.123173
 11
233.983797
 21
325.483729
  0
LINE
  5
1CF
100
AcDbEntity
  8
M1
 62
     7
100
AcDbLine
 10
232.183797
 20
335.883729
 11
234.183797
 21
335.883729
  0
LINE
  5
1D0
100
AcDbEntity
  8
M1
 62
     7
100
AcDbLine
 10
213.683797
 20
326.983729
 11
213.683797
 21
331.983729
  0
LINE
  5
1D1
100
AcDbEntity
  8
M1
 62
     7
100
AcDbLine
 10
232.183797
 20
335.883729
 11
232.183797
 21
341.883729
  0
LINE
  5
1D2
100
AcDbEntity
  8
M1
 62
     7
100
AcDbLine
 10
233.983797
 20
325.483729
 11
264.283797
 21
325.483729
  0
LINE
  5
1D3
100
AcDbEntity
  8
M1
 62
     7
100
AcDbLine
 10
233.983797
 20
329.883729
 11
233.983797
 21
329.599956
  0
ARC
  5
1D4
100
AcDbEntity
  8
M1
 62
     7
100
AcDbCircle
 10
233.683797
 20
329.599956
 40
0.3
100
AcDbArc
 50
270.0
 51
360.0
  0
ARC
  5
1D5
100
AcDbEntity
  8
M1
 62
     7
100
AcDbCircle
 10
233.683797
 20
297.644284
 40
0.3
100
AcDbArc
 50
270.0
 51
360.0
  0
ARC
  5
1D6
100
AcDbEntity
  8
M1
 62
     7
100
AcDbCircle
 10
233.683797
 20
294.167501
 40
0.3
100
AcDbArc
 50
0.0
 51
90.0
  0
ARC
  5
1D7
100
AcDbEntity
  8
M1
 62
     7
100
AcDbCircle
 10
269.983797
 20
294.383729
 40
0.5
100
AcDbArc
 50
90.0
 51
180.0
  0
ARC
  5
1D8
100
AcDbEntity
  8
M1
 62
     7
100
AcDbCircle
 10
217.283797
 20
288.383729
 40
1.0
100
AcDbArc
 50
270.0
 51
360.0
  0
LINE
  5
1D9
100
AcDbEntity
  8
M1
 62
     7
100
AcDbLine
 10
233.683797
 20
294.467501
 11
218.183797
 21
294.467501
  0
LINE
  5
1DA
100
AcDbEntity
  8
M1
 62
     7
100
AcDbLine
 10
273.483797
 20
336.133729
 11
273.783797
 21
336.133729
  0
LINE
  5
1DB
100
AcDbEntity
  8
M1
 62
     7
100
AcDbLine
 10
270.283797
 20
296.383729
 11
270.983797
 21
296.383729
  0
LINE
  5
1DC
100
AcDbEntity
  8
M1
 62
     7
100
AcDbLine
 10
273.783797
 20
287.633729
 11
273.483797
 21
287.633729
  0
ARC
  5
1DD
100
AcDbEntity
  8
M1
 62
     7
100
AcDbCircle
 10
233.683797
 20
326.123173
 40
0.3
100
AcDbArc
 50
0.0
 51
90.0
  0
LINE
  5
1DE
100
AcDbEntity
  8
M1
 62
     7
100
AcDbLine
 10
273.183797
 20
276.383729
 11
272.983797
 21
276.383729
  0
LINE
  5
1DF
100
AcDbEntity
  8
M1
 62
     7
100
AcDbLine
 10
273.183797
 20
276.425471
 11
273.183797
 21
276.383729
  0
LINE
  5
1E0
100
AcDbEntity
  8
M1
 62
     7
100
AcDbLine
 10
248.183797
 20
341.383729
 11
250.183797
 21
341.383729
  0
LINE
  5
1E1
100
AcDbEntity
  8
M1
 62
     7
100
AcDbLine
 10
228.183797
 20
342.883729
 11
228.183797
 21
341.883729
  0
LINE
  5
1E2
100
AcDbEntity
  8
M1
 62
     7
100
AcDbLine
 10
207.583797
 20
356.383729
 11
207.583797
 21
356.283729
  0
LINE
  5
1E3
100
AcDbEntity
  8
M1
 62
     7
100
AcDbLine
 10
232.183797
 20
341.383729
 11
234.183797
 21
341.383729
  0
LINE
  5
1E4
100
AcDbEntity
  8
M1
 62
     7
100
AcDbLine
 10
230.183797
 20
335.883729
 11
230.183797
 21
341.883729
  0
LINE
  5
1E5
100
AcDbEntity
  8
M1
 62
     7
100
AcDbLine
 10
270.283797
 20
295.883729
 11
270.283797
 21
294.883729
  0
LINE
  5
1E6
100
AcDbEntity
  8
M1
 62
     7
100
AcDbLine
 10
264.283797
 20
324.483729
 11
264.283797
 21
299.283729
  0
ARC
  5
1E7
100
AcDbEntity
  8
M1
 62
     7
100
AcDbCircle
 10
263.783797
 20
277.383729
 40
1.0
100
AcDbArc
 50
180.0
 51
270.0
  0
LINE
  5
1E8
100
AcDbEntity
  8
M1
 62
     7
100
AcDbLine
 10
218.283797
 20
292.583729
 11
218.283797
 21
288.383729
  0
LINE
  5
1E9
100
AcDbEntity
  8
M1
 62
     7
100
AcDbLine
 10
230.183797
 20
342.883729
 11
232.183797
 21
342.883729
  0
LINE
  5
1EA
100
AcDbEntity
  8
M1
 62
     7
100
AcDbLine
 10
226.183797
 20
341.883729
 11
226.183797
 21
342.883729
  0
LINE
  5
1EB
100
AcDbEntity
  8
M1
 62
     7
100
AcDbLine
 10
263.783797
 20
276.383729
 11
272.983797
 21
276.383729
  0
LINE
  5
1EC
100
AcDbEntity
  8
M1
  6
DASHED
 62
     7
100
AcDbLine
 10
196.783797
 20
306.783729
 11
196.783797
 21
287.683729
  0
LINE
  5
1ED
100
AcDbEntity
  8
M1
  6
DASHED
 62
     7
100
AcDbLine
 10
197.283797
 20
287.183729
 11
199.783797
 21
287.183729
  0
LINE
  5
1EE
100
AcDbEntity
  8
M1
  6
DASHED
 62
     7
100
AcDbLine
 10
195.783797
 20
306.783729
 11
195.783797
 21
287.683729
  0
LINE
  5
1EF
100
AcDbEntity
  8
M1
  6
DASHED
 62
     7
100
AcDbLine
 10
195.783797
 20
306.783729
 11
196.783797
 21
306.783729
  0
ARC
  5
1F0
100
AcDbEntity
  8
M1
  6
DASHED
 62
     7
100
AcDbCircle
 10
197.283797
 20
287.683729
 40
1.5
100
AcDbArc
 50
180.0
 51
270.0
  0
ARC
  5
1F1
100
AcDbEntity
  8
M1
  6
DASHED
 62
     7
100
AcDbCircle
 10
197.283797
 20
287.683729
 40
0.5
100
AcDbArc
 50
180.0
 51
270.0
  0
LINE
  5
1F2
100
AcDbEntity
  8
M1
  6
DASHED
 62
     7
100
AcDbLine
 10
197.283797
 20
286.183729
 11
199.783797
 21
286.183729
  0
LINE
  5
1F3
100
AcDbEntity
  8
M1
 62
     7
100
AcDbLine
 10
155.383797
 20
342.103851
 11
155.383797
 21
360.303851
  0
LINE
  5
1F4
100
AcDbEntity
  8
M1
  6
DASHED
 62
     7
100
AcDbLine
 10
175.883797
 20
306.783729
 11
175.883797
 21
294.783729
  0
LINE
  5
1F5
100
AcDbEntity
  8
M1
  6
DASHED
 62
     7
100
AcDbLine
 10
205.383797
 20
356.283729
 11
205.383797
 21
349.383729
  0
LINE
  5
1F6
100
AcDbEntity
  8
M1
  6
DASHED
 62
     7
100
AcDbLine
 10
204.383797
 20
349.383729
 11
204.383797
 21
356.283729
  0
LINE
  5
1F7
100
AcDbEntity
  8
M1
  6
DASHED
 62
     7
100
AcDbLine
 10
176.883797
 20
294.783729
 11
175.883797
 21
294.783729
  0
LINE
  5
1F8
100
AcDbEntity
  8
M1
  6
DASHED
 62
     7
100
AcDbLine
 10
199.783797
 20
286.183729
 11
199.783797
 21
287.183729
  0
LINE
  5
1F9
100
AcDbEntity
  8
M1
  6
DASHED
 62
     7
100
AcDbLine
 10
176.883797
 20
306.783729
 11
175.883797
 21
306.783729
  0
LINE
  5
1FA
100
AcDbEntity
  8
M1
  6
DASHED
 62
     7
100
AcDbLine
 10
176.883797
 20
306.783729
 11
176.883797
 21
294.783729
  0
LINE
  5
1FB
100
AcDbEntity
  8
M1
  6
DASHED
 62
     7
100
AcDbLine
 10
173.833797
 20
301.583729
 11
173.833797
 21
295.583729
  0
LINE
  5
1FC
100
AcDbEntity
  8
M1
  6
DASHED
 62
     7
100
AcDbLine
 10
171.533797
 20
296.583729
 11
171.533797
 21
300.583729
  0
LINE
  5
1FD
100
AcDbEntity
  8
M1
  6
DASHED
 62
     7
100
AcDbLine
 10
173.833797
 20
301.433729
 11
174.883797
 21
301.433729
  0
LINE
  5
1FE
100
AcDbEntity
  8
M1
  6
DASHED
 62
     7
100
AcDbLine
 10
174.883797
 20
295.733729
 11
173.833797
 21
295.733729
  0
LINE
  5
1FF
100
AcDbEntity
  8
M1
  6
DASHED
 62
     7
100
AcDbLine
 10
175.883797
 20
302.408729
 11
174.883797
 21
302.408729
  0
LINE
  5
200
100
AcDbEntity
  8
M1
  6
DASHED
 62
     7
100
AcDbLine
 10
172.533797
 20
295.583729
 11
173.833797
 21
295.583729
  0
LINE
  5
201
100
AcDbEntity
  8
M1
  6
DASHED
 62
     7
100
AcDbLine
 10
175.883797
 20
294.758729
 11
174.883797
 21
294.758729
  0
LINE
  5
202
100
AcDbEntity
  8
M1
  6
DASHED
 62
     7
100
AcDbLine
 10
182.333797
 20
300.333729
 11
176.883797
 21
300.333729
  0
LINE
  5
203
100
AcDbEntity
  8
M1
  6
DASHED
 62
     7
100
AcDbLine
 10
174.883797
 20
302.408729
 11
174.883797
 21
294.758729
  0
LINE
  5
204
100
AcDbEntity
  8
M1
  6
DASHED
 62
     7
100
AcDbLine
 10
176.883797
 20
296.833729
 11
182.333797
 21
296.833729
  0
LINE
  5
205
100
AcDbEntity
  8
M1
  6
DASHED
 62
     7
100
AcDbLine
 10
182.333797
 20
300.333729
 11
182.333797
 21
296.833729
  0
ARC
  5
206
100
AcDbEntity
  8
M1
  6
DASHED
 62
     7
100
AcDbCircle
 10
172.533797
 20
300.583729
 40
1.0
100
AcDbArc
 50
90.0
 51
180.0
  0
ARC
  5
207
100
AcDbEntity
  8
M1
  6
DASHED
 62
     7
100
AcDbCircle
 10
172.533797
 20
296.583729
 40
1.0
100
AcDbArc
 50
180.0
 51
270.0
  0
LINE
  5
208
100
AcDbEntity
  8
M1
  6
DASHED
 62
     7
100
AcDbLine
 10
172.533797
 20
301.583729
 11
173.833797
 21
301.583729
  0
LINE
  5
209
100
AcDbEntity
  8
M1
  6
DASHED
 62
     7
100
AcDbLine
 10
174.883797
 20
300.008729
 11
174.883797
 21
297.158729
  0
LINE
  5
20A
100
AcDbEntity
  8
M1
  6
DASHED
 62
     7
100
AcDbLine
 10
179.283797
 20
330.58373
 11
179.283797
 21
340.58373
  0
LINE
  5
20B
100
AcDbEntity
  8
M1
  6
DASHED
 62
     7
100
AcDbLine
 10
179.283797
 20
338.88373
 11
178.083797
 21
338.88373
  0
LINE
  5
20C
100
AcDbEntity
  8
M1
  6
DASHED
 62
     7
100
AcDbLine
 10
187.823797
 20
337.58373
 11
181.683797
 21
337.58373
  0
LINE
  5
20D
100
AcDbEntity
  8
M1
  6
DASHED
 62
     7
100
AcDbLine
 10
178.083797
 20
339.08373
 11
178.083797
 21
332.08373
  0
ARC
  5
20E
100
AcDbEntity
  8
M1
  6
DASHED
 62
     7
100
AcDbCircle
 10
177.077684
 20
337.69074
 40
1.3
100
AcDbArc
 50
95.0
 51
164.11915
  0
ARC
  5
20F
100
AcDbEntity
  8
M1
  6
DASHED
 62
     7
100
AcDbCircle
 10
177.077684
 20
333.476719
 40
1.3
100
AcDbArc
 50
195.88085
 51
265.0
  0
LINE
  5
210
100
AcDbEntity
  8
M1
  6
DASHED
 62
     7
100
AcDbLine
 10
180.483797
 20
340.58373
 11
180.483797
 21
330.58373
  0
LINE
  5
211
100
AcDbEntity
  8
M1
  6
DASHED
 62
     7
100
AcDbLine
 10
180.483797
 20
330.58373
 11
179.283797
 21
330.58373
  0
LINE
  5
212
100
AcDbEntity
  8
M1
  6
DASHED
 62
     7
100
AcDbLine
 10
180.483797
 20
340.58373
 11
179.283797
 21
340.58373
  0
LINE
  5
213
100
AcDbEntity
  8
M1
  6
DASHED
 62
     7
100
AcDbLine
 10
187.823797
 20
337.58373
 11
187.823797
 21
333.58373
  0
LINE
  5
214
100
AcDbEntity
  8
M1
  6
DASHED
 62
     7
100
AcDbLine
 10
179.283797
 20
332.28373
 11
178.083797
 21
332.28373
  0
LINE
  5
215
100
AcDbEntity
  8
M1
  6
DASHED
 62
     7
100
AcDbLine
 10
187.823797
 20
333.58373
 11
181.683797
 21
333.58373
  0
ARC
  5
216
100
AcDbEntity
  8
M1
  6
DASHED
 62
     7
100
AcDbCircle
 10
184.483797
 20
335.58373
 40
9.0
100
AcDbArc
 50
164.11915
 51
195.88085
  0
LINE
  5
217
100
AcDbEntity
  8
M1
  6
DASHED
 62
     7
100
AcDbLine
 10
176.964382
 20
338.985794
 11
178.083797
 21
339.08373
  0
LINE
  5
218
100
AcDbEntity
  8
M1
  6
DASHED
 62
     7
100
AcDbLine
 10
176.964382
 20
332.181666
 11
178.083797
 21
332.08373
  0
LINE
  5
219
100
AcDbEntity
  8
M1
  6
DASHED
 62
     7
100
AcDbLine
 10
195.783797
 20
306.783729
 11
196.783797
 21
306.783729
  0
LINE
  5
21A
100
AcDbEntity
  8
M1
  6
DASHED
 62
     7
100
AcDbLine
 10
181.683797
 20
318.38373
 11
181.683797
 21
340.88373
  0
LINE
  5
21B
100
AcDbEntity
  8
M1
  6
DASHED
 62
     7
100
AcDbLine
 10
180.483797
 20
318.38373
 11
180.483797
 21
340.88373
  0
LINE
  5
21C
100
AcDbEntity
  8
M1
 62
     7
100
AcDbLine
 10
165.683797
 20
309.383729
 11
165.683797
 21
308.383729
  0
LINE
  5
21D
100
AcDbEntity
  8
M1
 62
     7
100
AcDbLine
 10
165.683797
 20
314.383729
 11
165.683797
 21
315.383729
  0
LINE
  5
21E
100
AcDbEntity
  8
M1
 62
     7
100
AcDbLine
 10
165.683797
 20
308.383729
 11
164.683799
 21
308.383729
  0
LINE
  5
21F
100
AcDbEntity
  8
M1
 62
     7
100
AcDbLine
 10
164.683799
 20
314.383729
 11
165.683797
 21
314.383729
  0
LINE
  5
220
100
AcDbEntity
  8
M1
 62
     7
100
AcDbLine
 10
165.683797
 20
308.383729
 11
166.183798
 21
308.383729
  0
LINE
  5
221
100
AcDbEntity
  8
M1
 62
     7
100
AcDbLine
 10
164.683799
 20
309.383729
 11
165.683797
 21
309.383729
  0
LINE
  5
222
100
AcDbEntity
  8
M1
 62
     7
100
AcDbLine
 10
165.683797
 20
315.383729
 11
164.683799
 21
315.383729
  0
LINE
  5
223
100
AcDbEntity
  8
M1
 62
     7
100
AcDbLine
 10
165.683797
 20
315.383729
 11
166.183798
 21
315.383729
  0
LINE
  5
224
100
AcDbEntity
  8
M1
 62
     7
100
AcDbLine
 10
166.183798
 20
309.383729
 11
165.683797
 21
309.383729
  0
LINE
  5
225
100
AcDbEntity
  8
M1
 62
     7
100
AcDbLine
 10
162.383797
 20
322.883728
 11
164.683799
 21
322.883728
  0
ARC
  5
226
100
AcDbEntity
  8
M1
 62
     7
100
AcDbCircle
 10
160.883797
 20
323.383729
 40
0.5
100
AcDbArc
 50
90.0
 51
180.0
  0
ARC
  5
227
100
AcDbEntity
  8
M1
 62
     7
100
AcDbCircle
 10
160.883797
 20
304.883729
 40
0.5
100
AcDbArc
 50
90.0
 51
180.0
  0
LINE
  5
228
100
AcDbEntity
  8
M1
 62
     7
100
AcDbLine
 10
161.883796
 20
299.883728
 11
160.883798
 21
299.883728
  0
ARC
  5
229
100
AcDbEntity
  8
M1
 62
     7
100
AcDbCircle
 10
195.283797
 20
277.383729
 40
1.0
100
AcDbArc
 50
180.0
 51
270.0
  0
LINE
  5
22A
100
AcDbEntity
  8
M1
 62
     7
100
AcDbLine
 10
189.383798
 20
279.38373
 11
194.283797
 21
279.38373
  0
LINE
  5
22B
100
AcDbEntity
  8
M1
 62
     7
100
AcDbLine
 10
160.883798
 20
299.883728
 11
164.683799
 21
299.883728
  0
LINE
  5
22C
100
AcDbEntity
  8
M1
 62
     7
100
AcDbLine
 10
160.383797
 20
323.383729
 11
160.383797
 21
300.383729
  0
LINE
  5
22D
100
AcDbEntity
  8
M1
 62
     7
100
AcDbLine
 10
162.383797
 20
299.883728
 11
162.383797
 21
305.383728
  0
LINE
  5
22E
100
AcDbEntity
  8
M1
 62
     7
100
AcDbLine
 10
166.183798
 20
313.383729
 11
165.683797
 21
313.383729
  0
LINE
  5
22F
100
AcDbEntity
  8
M1
 62
     7
100
AcDbLine
 10
166.183798
 20
314.383729
 11
165.683797
 21
314.383729
  0
LINE
  5
230
100
AcDbEntity
  8
M1
 62
     7
100
AcDbLine
 10
165.683797
 20
310.383729
 11
165.683797
 21
313.383729
  0
LINE
  5
231
100
AcDbEntity
  8
M1
 62
     7
100
AcDbLine
 10
165.683797
 20
310.383729
 11
166.183798
 21
310.383729
  0
ELLIPSE
  5
232
100
AcDbEntity
  8
M1
 62
     7
100
AcDbEllipse
 10
160.883797
 20
318.190835
 11
0.5
 21
0.0
210
0.0
220
0.0
230
1.0
 40
0.414214
 41
3.141592653589793
 42
4.71238898038469
  0
ARC
  5
233
100
AcDbEntity
  8
M1
 62
     7
100
AcDbCircle
 10
189.383797
 20
280.383729
 40
1.0
100
AcDbArc
 50
237.247324
 51
270.0
  0
ELLIPSE
  5
234
100
AcDbEntity
  8
M1
 62
     7
100
AcDbEllipse
 10
160.883797
 20
316.690835
 11
0.5
 21
0.0
210
0.0
220
0.0
230
1.0
 40
0.414214
 41
3.141592653589793
 42
4.71238898038469
  0
LINE
  5
235
100
AcDbEntity
  8
M1
 62
     7
100
AcDbLine
 10
190.483798
 20
344.883728
 11
190.483798
 21
342.883728
  0
LINE
  5
236
100
AcDbEntity
  8
M1
 62
     7
100
AcDbLine
 10
194.083797
 20
346.38373
 11
190.483798
 21
344.883728
  0
LINE
  5
237
100
AcDbEntity
  8
M1
 62
     7
100
AcDbLine
 10
194.283797
 20
345.383729
 11
191.483796
 21
344.217062
  0
LINE
  5
238
100
AcDbEntity
  8
M1
 62
     7
100
AcDbLine
 10
199.783797
 20
342.883728
 11
199.783797
 21
346.38373
  0
LINE
  5
239
100
AcDbEntity
  8
M1
 62
     7
100
AcDbLine
 10
204.783797
 20
315.983729
 11
204.883797
 21
315.983729
  0
LINE
  5
23A
100
AcDbEntity
  8
M1
 62
     7
100
AcDbLine
 10
199.783797
 20
346.38373
 11
194.083797
 21
346.38373
  0
LINE
  5
23B
100
AcDbEntity
  8
M1
 62
     7
100
AcDbLine
 10
198.783797
 20
345.383729
 11
194.283797
 21
345.383729
  0
LINE
  5
23C
100
AcDbEntity
  8
M1
 62
     7
100
AcDbLine
 10
191.483796
 20
343.883728
 11
198.783797
 21
343.883728
  0
LINE
  5
23D
100
AcDbEntity
  8
M1
 62
     7
100
AcDbLine
 10
198.783797
 20
343.883728
 11
198.783797
 21
345.383729
  0
LINE
  5
23E
100
AcDbEntity
  8
M1
 62
     7
100
AcDbLine
 10
191.483796
 20
344.217062
 11
191.483796
 21
343.883728
  0
ARC
  5
23F
100
AcDbEntity
  8
M1
 62
     7
100
AcDbCircle
 10
166.983797
 20
315.183729
 40
1.0
100
AcDbArc
 50
168.463041
 51
180.0
  0
LINE
  5
240
100
AcDbEntity
  8
M1
 62
     7
100
AcDbLine
 10
165.983798
 20
315.183729
 11
165.983798
 21
314.383729
  0
LINE
  5
241
100
AcDbEntity
  8
M1
 62
     7
100
AcDbLine
 10
165.983798
 20
309.383729
 11
165.983798
 21
308.383729
  0
LINE
  5
242
100
AcDbEntity
  8
M1
 62
     7
100
AcDbLine
 10
196.383797
 20
309.183728
 11
196.383797
 21
314.583729
  0
LINE
  5
243
100
AcDbEntity
  8
M1
 62
     7
100
AcDbLine
 10
192.883797
 20
314.583729
 11
192.883797
 21
309.183728
  0
LINE
  5
244
100
AcDbEntity
  8
M1
 62
     7
100
AcDbLine
 10
206.283797
 20
277.383729
 11
206.283797
 21
276.383727
  0
LINE
  5
245
100
AcDbEntity
  8
M1
 62
     7
100
AcDbLine
 10
199.883797
 20
346.38373
 11
195.183797
 21
346.38373
  0
LINE
  5
246
100
AcDbEntity
  8
M1
 62
     7
100
AcDbLine
 10
199.883797
 20
346.38373
 11
199.883797
 21
342.883728
  0
LINE
  5
247
100
AcDbEntity
  8
M1
 62
     7
100
AcDbLine
 10
206.283797
 20
321.983729
 11
206.283797
 21
342.883728
  0
ARC
  5
248
100
AcDbEntity
  8
M1
 62
     7
100
AcDbCircle
 10
160.883797
 20
300.383729
 40
0.5
100
AcDbArc
 50
180.0
 51
270.0
  0
ARC
  5
249
100
AcDbEntity
  8
M1
 62
     7
100
AcDbCircle
 10
186.583797
 20
336.583729
 40
3.0
100
AcDbArc
 50
90.0
 51
180.0
  0
ARC
  5
24A
100
AcDbEntity
  8
M1
 62
     7
100
AcDbCircle
 10
186.583797
 20
287.183729
 40
3.0
100
AcDbArc
 50
180.0
 51
270.0
  0
ARC
  5
24B
100
AcDbEntity
  8
M1
 62
     7
100
AcDbCircle
 10
197.541156
 20
336.583729
 40
3.0
100
AcDbArc
 50
45.0
 51
90.0
  0
ARC
  5
24C
100
AcDbEntity
  8
M1
 62
     7
100
AcDbCircle
 10
197.541156
 20
287.183729
 40
3.0
100
AcDbArc
 50
270.0
 51
315.0
  0
ARC
  5
24D
100
AcDbEntity
  8
M1
 62
     7
100
AcDbCircle
 10
167.683797
 20
328.983729
 40
3.0
100
AcDbArc
 50
90.0
 51
180.0
  0
ARC
  5
24E
100
AcDbEntity
  8
M1
 62
     7
100
AcDbCircle
 10
166.183797
 20
307.183729
 40
1.0
100
AcDbArc
 50
0.0
 51
90.0
  0
ARC
  5
24F
100
AcDbEntity
  8
M1
 62
     7
100
AcDbCircle
 10
180.583797
 20
334.983729
 40
3.0
100
AcDbArc
 50
270.0
 51
360.0
  0
ARC
  5
250
100
AcDbEntity
  8
M1
 62
     7
100
AcDbCircle
 10
180.583797
 20
288.783729
 40
3.0
100
AcDbArc
 50
0.0
 51
90.0
  0
ARC
  5
251
100
AcDbEntity
  8
M1
 62
     7
100
AcDbCircle
 10
192.683797
 20
314.083729
 40
0.5
100
AcDbArc
 50
90.0
 51
180.0
  0
LINE
  5
252
100
AcDbEntity
  8
M1
 62
     7
100
AcDbLine
 10
166.683795
 20
291.955301
 11
166.683795
 21
279.38373
  0
ARC
  5
253
100
AcDbEntity
  8
M1
 62
     7
100
AcDbCircle
 10
192.683797
 20
309.683729
 40
0.5
100
AcDbArc
 50
180.0
 51
270.0
  0
LINE
  5
254
100
AcDbEntity
  8
M1
 62
     7
100
AcDbLine
 10
166.683795
 20
344.383729
 11
166.683795
 21
331.812156
  0
LINE
  5
255
100
AcDbEntity
  8
M1
 62
     7
100
AcDbLine
 10
206.283797
 20
326.983729
 11
213.683797
 21
326.983729
  0
LINE
  5
256
100
AcDbEntity
  8
M1
 62
     7
100
AcDbLine
 10
213.683797
 20
331.983728
 11
206.283797
 21
331.983728
  0
LINE
  5
257
100
AcDbEntity
  8
M1
 62
     7
100
AcDbLine
 10
206.283797
 20
321.983729
 11
205.383797
 21
321.983729
  0
ARC
  5
258
100
AcDbEntity
  8
M1
 62
     7
100
AcDbCircle
 10
165.683797
 20
316.583729
 40
1.0
100
AcDbArc
 50
180.0
 51
270.0
  0
ARC
  5
259
100
AcDbEntity
  8
M1
 62
     7
100
AcDbCircle
 10
184.441156
 20
279.383729
 40
3.0
100
AcDbArc
 50
270.0
 51
315.0
  0
ARC
  5
25A
100
AcDbEntity
  8
M1
 62
     7
100
AcDbCircle
 10
167.683797
 20
294.783729
 40
3.0
100
AcDbArc
 50
180.0
 51
270.0
  0
ARC
  5
25B
100
AcDbEntity
  8
M1
 62
     7
100
AcDbCircle
 10
165.683797
 20
307.183729
 40
1.0
100
AcDbArc
 50
90.0
 51
180.0
  0
ARC
  5
25C
100
AcDbEntity
  8
M1
 62
     7
100
AcDbCircle
 10
169.683797
 20
279.383729
 40
3.0
100
AcDbArc
 50
180.0
 51
270.0
  0
ARC
  5
25D
100
AcDbEntity
  8
M1
 62
     7
100
AcDbCircle
 10
184.441156
 20
344.383729
 40
3.0
100
AcDbArc
 50
45.0
 51
90.0
  0
ARC
  5
25E
100
AcDbEntity
  8
M1
 62
     7
100
AcDbCircle
 10
169.683797
 20
344.383729
 40
3.0
100
AcDbArc
 50
90.0
 51
180.0
  0
ARC
  5
25F
100
AcDbEntity
  8
M1
 62
     7
100
AcDbCircle
 10
166.183797
 20
316.583729
 40
1.0
100
AcDbArc
 50
270.0
 51
360.0
  0
LINE
  5
260
100
AcDbEntity
  8
M1
 62
     7
100
AcDbLine
 10
201.783797
 20
287.18373
 11
199.662476
 21
285.062408
  0
LINE
  5
261
100
AcDbEntity
  8
M1
 62
     7
100
AcDbLine
 10
167.183796
 20
307.183729
 11
167.183796
 21
316.583729
  0
LINE
  5
262
100
AcDbEntity
  8
M1
 62
     7
100
AcDbLine
 10
197.541156
 20
284.183729
 11
186.583797
 21
284.183729
  0
LINE
  5
263
100
AcDbEntity
  8
M1
 62
     7
100
AcDbLine
 10
183.583797
 20
334.983728
 11
183.583797
 21
336.583729
  0
LINE
  5
264
100
AcDbEntity
  8
M1
 62
     7
100
AcDbLine
 10
199.662476
 20
338.705049
 11
201.783797
 21
336.583729
  0
LINE
  5
265
100
AcDbEntity
  8
M1
 62
     7
100
AcDbLine
 10
186.583797
 20
339.583728
 11
197.541156
 21
339.583728
  0
LINE
  5
266
100
AcDbEntity
  8
M1
 62
     7
100
AcDbLine
 10
201.783797
 20
336.583729
 11
206.283797
 21
336.583729
  0
LINE
  5
267
100
AcDbEntity
  8
M1
 62
     7
100
AcDbLine
 10
192.183797
 20
314.083729
 11
192.183797
 21
309.683729
  0
LINE
  5
268
100
AcDbEntity
  8
M1
 62
     7
100
AcDbLine
 10
192.683798
 20
309.183728
 11
204.883797
 21
309.183728
  0
LINE
  5
269
100
AcDbEntity
  8
M1
 62
     7
100
AcDbLine
 10
204.883797
 20
314.583729
 11
192.683798
 21
314.583729
  0
LINE
  5
26A
100
AcDbEntity
  8
M1
 62
     7
100
AcDbLine
 10
206.283797
 20
287.383729
 11
201.783797
 21
287.18373
  0
LINE
  5
26B
100
AcDbEntity
  8
M1
 62
     7
100
AcDbLine
 10
206.283797
 20
342.883728
 11
190.183796
 21
342.883728
  0
LINE
  5
26C
100
AcDbEntity
  8
M1
 62
     7
100
AcDbLine
 10
169.683798
 20
276.383727
 11
184.441157
 21
276.383727
  0
LINE
  5
26D
100
AcDbEntity
  8
M1
 62
     7
100
AcDbLine
 10
184.441157
 20
347.38373
 11
169.683798
 21
347.38373
  0
LINE
  5
26E
100
AcDbEntity
  8
M1
 62
     7
100
AcDbLine
 10
190.183796
 20
342.883728
 11
186.562477
 21
346.505049
  0
LINE
  5
26F
100
AcDbEntity
  8
M1
 62
     7
100
AcDbLine
 10
186.562477
 20
277.262408
 11
190.183796
 21
280.883729
  0
LINE
  5
270
100
AcDbEntity
  8
M1
 62
     7
100
AcDbLine
 10
166.183798
 20
315.583729
 11
166.183798
 21
308.183729
  0
LINE
  5
271
100
AcDbEntity
  8
M1
 62
     7
100
AcDbLine
 10
165.683797
 20
315.583729
 11
166.183798
 21
315.583729
  0
LINE
  5
272
100
AcDbEntity
  8
M1
 62
     7
100
AcDbLine
 10
180.583798
 20
291.783729
 11
167.683797
 21
291.783729
  0
LINE
  5
273
100
AcDbEntity
  8
M1
 62
     7
100
AcDbLine
 10
167.683797
 20
331.983728
 11
180.583798
 21
331.983728
  0
LINE
  5
274
100
AcDbEntity
  8
M1
 62
     7
100
AcDbLine
 10
166.183798
 20
308.183729
 11
165.683797
 21
308.183729
  0
LINE
  5
275
100
AcDbEntity
  8
M1
 62
     7
100
AcDbLine
 10
164.683799
 20
294.783728
 11
164.683799
 21
328.983729
  0
ARC
  5
276
100
AcDbEntity
  8
M1
 62
     7
100
AcDbCircle
 10
205.383797
 20
321.483729
 40
0.5
100
AcDbArc
 50
90.0
 51
180.0
  0
ARC
  5
277
100
AcDbEntity
  8
M1
 62
     7
100
AcDbCircle
 10
205.383797
 20
302.283729
 40
0.5
100
AcDbArc
 50
180.0
 51
270.0
  0
LINE
  5
278
100
AcDbEntity
  8
M1
 62
     7
100
AcDbLine
 10
206.283797
 20
280.883729
 11
190.183796
 21
280.883729
  0
LINE
  5
279
100
AcDbEntity
  8
M1
 62
     7
100
AcDbLine
 10
164.683799
 20
323.883729
 11
160.883798
 21
323.883729
  0
LINE
  5
27A
100
AcDbEntity
  8
M1
 62
     7
100
AcDbLine
 10
160.883798
 20
316.483729
 11
164.683799
 21
316.483729
  0
LINE
  5
27B
100
AcDbEntity
  8
M1
 62
     7
100
AcDbLine
 10
162.383797
 20
322.883728
 11
162.383797
 21
316.483729
  0
LINE
  5
27C
100
AcDbEntity
  8
M1
 62
     7
100
AcDbLine
 10
162.383797
 20
317.983729
 11
160.883798
 21
317.983729
  0
LINE
  5
27D
100
AcDbEntity
  8
M1
 62
     7
100
AcDbLine
 10
162.383797
 20
305.383728
 11
160.883798
 21
305.383728
  0
LINE
  5
27E
100
AcDbEntity
  8
M1
 62
     7
100
AcDbLine
 10
195.283797
 20
276.383727
 11
198.283797
 21
276.383727
  0
LINE
  5
27F
100
AcDbEntity
  8
M1
 62
     7
100
AcDbLine
 10
206.283797
 20
276.383727
 11
206.283797
 21
301.783729
  0
LINE
  5
280
100
AcDbEntity
  8
M1
 62
     7
100
AcDbLine
 10
194.283797
 20
280.883729
 11
194.283797
 21
277.383729
  0
LINE
  5
281
100
AcDbEntity
  8
M1
 62
     7
100
AcDbLine
 10
195.283797
 20
276.383727
 11
206.283797
 21
276.383727
  0
LINE
  5
282
100
AcDbEntity
  8
M1
 62
     7
100
AcDbLine
 10
206.283797
 20
301.783729
 11
205.383797
 21
301.783729
  0
LINE
  5
283
100
AcDbEntity
  8
M1
 62
     7
100
AcDbLine
 10
206.283797
 20
291.783729
 11
213.683797
 21
291.783729
  0
LINE
  5
284
100
AcDbEntity
  8
M1
 62
     7
100
AcDbLine
 10
213.683797
 20
296.783728
 11
206.283797
 21
296.783728
  0
LINE
  5
285
100
AcDbEntity
  8
M1
 62
     7
100
AcDbLine
 10
204.883797
 20
321.483729
 11
204.883797
 21
302.283729
  0
LINE
  5
286
100
AcDbEntity
  8
M1
 62
     7
100
AcDbLine
 10
183.583797
 20
287.18373
 11
183.583797
 21
288.783729
  0
LINE
  5
287
100
AcDbEntity
  8
M1
 62
     7
100
AcDbLine
 10
162.383797
 20
322.883728
 11
162.21015
 21
323.057377
  0
LINE
  5
288
100
AcDbEntity
  8
M1
 62
     7
100
AcDbLine
 10
162.21015
 20
323.057377
 11
162.041778
 21
323.225749
  0
LINE
  5
289
100
AcDbEntity
  8
M1
 62
     7
100
AcDbLine
 10
162.041778
 20
323.225749
 11
161.883796
 21
323.383729
  0
LINE
  5
28A
100
AcDbEntity
  8
M1
 62
     7
100
AcDbLine
 10
161.883796
 20
323.383729
 11
161.741009
 21
323.526516
  0
LINE
  5
28B
100
AcDbEntity
  8
M1
 62
     7
100
AcDbLine
 10
161.741009
 20
323.526516
 11
161.617751
 21
323.649773
  0
LINE
  5
28C
100
AcDbEntity
  8
M1
 62
     7
100
AcDbLine
 10
161.617751
 20
323.649773
 11
161.517771
 21
323.749754
  0
LINE
  5
28D
100
AcDbEntity
  8
M1
 62
     7
100
AcDbLine
 10
161.517771
 20
323.749754
 11
161.444104
 21
323.823421
  0
LINE
  5
28E
100
AcDbEntity
  8
M1
 62
     7
100
AcDbLine
 10
161.444104
 20
323.823421
 11
161.398991
 21
323.868536
  0
LINE
  5
28F
100
AcDbEntity
  8
M1
 62
     7
100
AcDbLine
 10
161.398991
 20
323.868536
 11
161.383799
 21
323.883729
  0
LINE
  5
290
100
AcDbEntity
  8
M1
  6
DASHED
 62
     7
100
AcDbLine
 10
180.483797
 20
318.38373
 11
181.683797
 21
318.38373
  0
LINE
  5
291
100
AcDbEntity
  8
M1
  6
DASHED
 62
     7
100
AcDbLine
 10
181.683797
 20
340.88373
 11
180.483797
 21
340.88373
  0
LINE
  5
292
100
AcDbEntity
  8
M1
  6
DASHED
 62
     7
100
AcDbLine
 10
193.733797
 20
293.983729
 11
193.733797
 21
287.983729
  0
LINE
  5
293
100
AcDbEntity
  8
M1
  6
DASHED
 62
     7
100
AcDbLine
 10
191.433797
 20
288.983729
 11
191.433797
 21
292.983729
  0
LINE
  5
294
100
AcDbEntity
  8
M1
  6
DASHED
 62
     7
100
AcDbLine
 10
193.733797
 20
293.833729
 11
194.783797
 21
293.833729
  0
LINE
  5
295
100
AcDbEntity
  8
M1
  6
DASHED
 62
     7
100
AcDbLine
 10
194.783797
 20
288.133729
 11
193.733797
 21
288.133729
  0
LINE
  5
296
100
AcDbEntity
  8
M1
  6
DASHED
 62
     7
100
AcDbLine
 10
195.783797
 20
294.808729
 11
194.783797
 21
294.808729
  0
LINE
  5
297
100
AcDbEntity
  8
M1
  6
DASHED
 62
     7
100
AcDbLine
 10
192.433797
 20
287.983729
 11
193.733797
 21
287.983729
  0
LINE
  5
298
100
AcDbEntity
  8
M1
  6
DASHED
 62
     7
100
AcDbLine
 10
195.783797
 20
287.158729
 11
194.783797
 21
287.158729
  0
LINE
  5
299
100
AcDbEntity
  8
M1
  6
DASHED
 62
     7
100
AcDbLine
 10
202.233797
 20
292.733729
 11
196.783797
 21
292.733729
  0
LINE
  5
29A
100
AcDbEntity
  8
M1
  6
DASHED
 62
     7
100
AcDbLine
 10
194.783797
 20
294.808729
 11
194.783797
 21
287.158729
  0
LINE
  5
29B
100
AcDbEntity
  8
M1
  6
DASHED
 62
     7
100
AcDbLine
 10
196.783797
 20
289.233729
 11
202.233797
 21
289.233729
  0
LINE
  5
29C
100
AcDbEntity
  8
M1
  6
DASHED
 62
     7
100
AcDbLine
 10
202.233797
 20
292.733729
 11
202.233797
 21
289.233729
  0
ARC
  5
29D
100
AcDbEntity
  8
M1
  6
DASHED
 62
     7
100
AcDbCircle
 10
192.433797
 20
292.983729
 40
1.0
100
AcDbArc
 50
90.0
 51
180.0
  0
ARC
  5
29E
100
AcDbEntity
  8
M1
  6
DASHED
 62
     7
100
AcDbCircle
 10
192.433797
 20
288.983729
 40
1.0
100
AcDbArc
 50
180.0
 51
270.0
  0
LINE
  5
29F
100
AcDbEntity
  8
M1
  6
DASHED
 62
     7
100
AcDbLine
 10
192.433797
 20
293.983729
 11
193.733797
 21
293.983729
  0
LINE
  5
2A0
100
AcDbEntity
  8
M1
  6
DASHED
 62
     7
100
AcDbLine
 10
194.783797
 20
292.408729
 11
194.783797
 21
289.558729
  0
LINE
  5
2A1
100
AcDbEntity
  8
M1
  6
DASHED
 62
     7
100
AcDbLine
 10
129.083798
 20
314.183722
 11
129.083798
 21
311.383722
  0
LINE
  5
2A2
100
AcDbEntity
  8
M1
  6
DASHED
 62
     7
100
AcDbLine
 10
129.083798
 20
314.183722
 11
130.683797
 21
314.183722
  0
LINE
  5
2A3
100
AcDbEntity
  8
M1
  6
DASHED
 62
     7
100
AcDbLine
 10
130.683797
 20
311.383722
 11
129.083798
 21
311.383722
  0
LINE
  5
2A4
100
AcDbEntity
  8
M1
  6
DASHED
 62
     7
100
AcDbLine
 10
164.183797
 20
330.583716
 11
154.783797
 21
330.583716
  0
LINE
  5
2A5
100
AcDbEntity
  8
M1
  6
DASHED
 62
     7
100
AcDbLine
 10
164.183798
 20
295.183728
 11
159.383797
 21
295.183728
  0
LINE
  5
2A6
100
AcDbEntity
  8
M1
  6
DASHED
 62
     7
100
AcDbLine
 10
130.683797
 20
293.483722
 11
130.683797
 21
332.283722
  0
ARC
  5
2A7
100
AcDbEntity
  8
M1
  6
DASHED
 62
     7
100
AcDbCircle
 10
134.683797
 20
293.483722
 40
4.0
100
AcDbArc
 50
180.0
 51
270.0
  0
ARC
  5
2A8
100
AcDbEntity
  8
M1
  6
DASHED
 62
     7
100
AcDbCircle
 10
149.783797
 20
294.483722
 40
5.0
100
AcDbArc
 50
270.0
 51
360.0
  0
ARC
  5
2A9
100
AcDbEntity
  8
M1
  6
DASHED
 62
     7
100
AcDbCircle
 10
164.183797
 20
295.683728
 40
0.5
100
AcDbArc
 50
270.0
 51
360.0
  0
ARC
  5
2AA
100
AcDbEntity
  8
M1
  6
DASHED
 62
     7
100
AcDbCircle
 10
134.683797
 20
332.283722
 40
4.0
100
AcDbArc
 50
90.0
 51
180.0
  0
ARC
  5
2AB
100
AcDbEntity
  8
M1
  6
DASHED
 62
     7
100
AcDbCircle
 10
149.783797
 20
331.283722
 40
5.0
100
AcDbArc
 50
0.0
 51
90.0
  0
ARC
  5
2AC
100
AcDbEntity
  8
M1
  6
DASHED
 62
     7
100
AcDbCircle
 10
164.183797
 20
330.083716
 40
0.5
100
AcDbArc
 50
0.0
 51
90.0
  0
LINE
  5
2AD
100
AcDbEntity
  8
M1
  6
DASHED
 62
     7
100
AcDbLine
 10
154.783797
 20
330.583716
 11
154.783797
 21
331.283722
  0
LINE
  5
2AE
100
AcDbEntity
  8
M1
  6
DASHED
 62
     7
100
AcDbLine
 10
149.783797
 20
336.283723
 11
134.683797
 21
336.283723
  0
LINE
  5
2AF
100
AcDbEntity
  8
M1
  6
DASHED
 62
     7
100
AcDbLine
 10
162.583797
 20
330.583716
 11
162.583797
 21
332.583722
  0
LINE
  5
2B0
100
AcDbEntity
  8
M1
  6
DASHED
 62
     7
100
AcDbLine
 10
162.983797
 20
332.583722
 11
163.583799
 21
330.583716
  0
LINE
  5
2B1
100
AcDbEntity
  8
M1
  6
DASHED
 62
     7
100
AcDbLine
 10
162.583797
 20
332.583722
 11
162.983797
 21
332.583722
  0
LINE
  5
2B2
100
AcDbEntity
  8
M1
  6
DASHED
 62
     7
100
AcDbLine
 10
164.183798
 20
295.183728
 11
154.783797
 21
295.183728
  0
LINE
  5
2B3
100
AcDbEntity
  8
M1
  6
DASHED
 62
     7
100
AcDbLine
 10
154.783797
 20
295.183728
 11
154.783797
 21
294.483722
  0
LINE
  5
2B4
100
AcDbEntity
  8
M1
  6
DASHED
 62
     7
100
AcDbLine
 10
149.783797
 20
289.483722
 11
134.683797
 21
289.483722
  0
LINE
  5
2B5
100
AcDbEntity
  8
M1
  6
DIVIDE
 62
     7
100
AcDbLine
 10
270.283796
 20
298.383728
 11
270.283796
 21
294.383728
  0
LINE
  5
2B6
100
AcDbEntity
  8
M1
  6
DIVIDE
 62
     7
100
AcDbLine
 10
269.283796
 20
294.383728
 11
270.283796
 21
294.383728
  0
LINE
  5
2B7
100
AcDbEntity
  8
M1
  6
DIVIDE
 62
     7
100
AcDbLine
 10
275.783796
 20
299.383728
 11
269.283796
 21
299.383728
  0
LINE
  5
2B8
100
AcDbEntity
  8
M1
  6
DIVIDE
 62
     7
100
AcDbLine
 10
276.783796
 20
298.383728
 11
270.283796
 21
298.383728
  0
LINE
  5
2B9
100
AcDbEntity
  8
M1
  6
DIVIDE
 62
     7
100
AcDbLine
 10
276.783796
 20
298.383728
 11
276.783796
 21
325.383728
  0
LINE
  5
2BA
100
AcDbEntity
  8
M1
  6
DIVIDE
 62
     7
100
AcDbLine
 10
275.783796
 20
324.383728
 11
275.783796
 21
299.383728
  0
LINE
  5
2BB
100
AcDbEntity
  8
M1
  6
DIVIDE
 62
     7
100
AcDbLine
 10
275.783796
 20
324.383728
 11
269.283796
 21
324.383728
  0
LINE
  5
2BC
100
AcDbEntity
  8
M1
  6
DIVIDE
 62
     7
100
AcDbLine
 10
276.783796
 20
325.383728
 11
270.283796
 21
325.383728
  0
LINE
  5
2BD
100
AcDbEntity
  8
M1
  6
DIVIDE
 62
     7
100
AcDbLine
 10
270.283796
 20
329.383728
 11
270.283796
 21
325.383728
  0
LINE
  5
2BE
100
AcDbEntity
  8
M1
  6
DIVIDE
 62
     7
100
AcDbLine
 10
270.283796
 20
329.383728
 11
269.283796
 21
329.383728
  0
LINE
  5
2BF
100
AcDbEntity
  8
M1
 62
     7
100
AcDbLine
 10
45.973489
 20
281.383729
 11
44.173489
 21
281.383729
  0
LINE
  5
2C0
100
AcDbEntity
  8
M1
 62
     7
100
AcDbLine
 10
44.173489
 20
282.383729
 11
45.973489
 21
282.383729
  0
ARC
  5
2C1
100
AcDbEntity
  8
M1
 62
     7
100
AcDbCircle
 10
89.673489
 20
277.383729
 40
1.0
100
AcDbArc
 50
270.0
 51
360.0
  0
LINE
  5
2C2
100
AcDbEntity
  8
M1
 62
     7
100
AcDbLine
 10
42.673489
 20
277.383729
 11
42.673489
 21
286.183729
  0
ARC
  5
2C3
100
AcDbEntity
  8
M1
 62
     7
100
AcDbCircle
 10
43.673489
 20
277.383729
 40
1.0
100
AcDbArc
 50
180.0
 51
270.0
  0
LINE
  5
2C4
100
AcDbEntity
  8
M1
 62
     7
100
AcDbLine
 10
89.173489
 20
281.383729
 11
87.373489
 21
281.383729
  0
LINE
  5
2C5
100
AcDbEntity
  8
M1
 62
     7
100
AcDbLine
 10
90.673489
 20
286.183729
 11
90.673489
 21
277.383729
  0
LINE
  5
2C6
100
AcDbEntity
  8
M1
 62
     7
100
AcDbLine
 10
89.173489
 20
286.183729
 11
89.173489
 21
281.383729
  0
LINE
  5
2C7
100
AcDbEntity
  8
M1
 62
     7
100
AcDbLine
 10
87.373489
 20
282.383729
 11
89.173489
 21
282.383729
  0
LINE
  5
2C8
100
AcDbEntity
  8
M1
 62
     7
100
AcDbLine
 10
44.173489
 20
281.383729
 11
44.173489
 21
286.183729
  0
ARC
  5
2C9
100
AcDbEntity
  8
M1
 62
     7
100
AcDbCircle
 10
61.673489
 20
278.383729
 40
2.0
100
AcDbArc
 50
247.42065
 51
270.0
  0
ARC
  5
2CA
100
AcDbEntity
  8
M1
 62
     7
100
AcDbCircle
 10
48.173489
 20
280.883729
 40
4.5
100
AcDbArc
 50
270.0
 51
283.195454
  0
ARC
  5
2CB
100
AcDbEntity
  8
M1
 62
     7
100
AcDbCircle
 10
93.073489
 20
341.883729
 40
5.0
100
AcDbArc
 50
6.513776E-013
 51
90.0
  0
ARC
  5
2CC
100
AcDbEntity
  8
M1
 62
     7
100
AcDbCircle
 10
40.273489
 20
341.883729
 40
5.0
100
AcDbArc
 50
90.0
 51
180.0
  0
LINE
  5
2CD
100
AcDbEntity
  8
M1
 62
     7
100
AcDbLine
 10
48.239514
 20
346.883729
 11
49.673489
 21
346.883729
  0
LINE
  5
2CE
100
AcDbEntity
  8
M1
 62
     7
100
AcDbLine
 10
40.273489
 20
346.883729
 11
46.107463
 21
346.883729
  0
LINE
  5
2CF
100
AcDbEntity
  8
M1
 62
     7
100
AcDbLine
 10
87.239514
 20
346.883729
 11
93.073489
 21
346.883729
  0
LINE
  5
2D0
100
AcDbEntity
  8
M1
 62
     7
100
AcDbLine
 10
83.673489
 20
346.883729
 11
85.107463
 21
346.883729
  0
ARC
  5
2D1
100
AcDbEntity
  8
M1
 62
     7
100
AcDbCircle
 10
85.173489
 20
280.883729
 40
4.5
100
AcDbArc
 50
256.804546
 51
270.0
  0
LINE
  5
2D2
100
AcDbEntity
  8
M1
  6
DASHED
 62
     7
100
AcDbLine
 10
110.573485
 20
341.583729
 11
110.573485
 21
282.183729
  0
LINE
  5
2D3
100
AcDbEntity
  8
M1
  6
DASHED
 62
     7
100
AcDbLine
 10
110.573485
 20
341.583729
 11
98.073485
 21
341.583729
  0
LINE
  5
2D4
100
AcDbEntity
  8
M1
  6
DASHED
 62
     7
100
AcDbLine
 10
110.573485
 20
282.183729
 11
98.073485
 21
282.183729
  0
LINE
  5
2D5
100
AcDbEntity
  8
M1
  6
DASHED
 62
     7
100
AcDbLine
 10
22.773491
 20
341.583729
 11
35.273491
 21
341.583729
  0
LINE
  5
2D6
100
AcDbEntity
  8
M1
  6
DASHED
 62
     7
100
AcDbLine
 10
22.773491
 20
341.583729
 11
22.773491
 21
282.183729
  0
LINE
  5
2D7
100
AcDbEntity
  8
M1
  6
DASHED
 62
     7
100
AcDbLine
 10
22.773491
 20
282.183729
 11
35.273491
 21
282.183729
  0
CIRCLE
  5
2D8
100
AcDbEntity
  8
M1
 62
     7
100
AcDbCircle
 10
91.873488
 20
298.583729
 40
3.0
  0
LINE
  5
2D9
100
AcDbEntity
  8
M1
 62
     7
100
AcDbLine
 10
93.464072
 20
296.993084
 11
90.282431
 21
300.174847
  0
LINE
  5
2DA
100
AcDbEntity
  8
M1
 62
     7
100
AcDbLine
 10
93.287314
 20
298.93742
 11
91.519736
 21
297.169842
  0
LINE
  5
2DB
100
AcDbEntity
  8
M1
 62
     7
100
AcDbLine
 10
92.226767
 20
299.998089
 11
90.459189
 21
298.230389
  0
LINE
  5
2DC
100
AcDbEntity
  8
M1
 62
     7
100
AcDbLine
 10
95.198488
 20
302.408729
 11
88.548488
 21
302.408729
  0
ARC
  5
2DD
100
AcDbEntity
  8
M1
 62
     7
100
AcDbCircle
 10
95.198488
 20
301.908729
 40
0.5
100
AcDbArc
 50
0.0
 51
90.0
  0
LINE
  5
2DE
100
AcDbEntity
  8
M1
 62
     7
100
AcDbLine
 10
95.698488
 20
295.258729
 11
95.698488
 21
301.908729
  0
ARC
  5
2DF
100
AcDbEntity
  8
M1
 62
     7
100
AcDbCircle
 10
95.198488
 20
295.258729
 40
0.5
100
AcDbArc
 50
270.0
 51
360.0
  0
LINE
  5
2E0
100
AcDbEntity
  8
M1
 62
     7
100
AcDbLine
 10
88.548488
 20
294.758729
 11
95.198488
 21
294.758729
  0
LINE
  5
2E1
100
AcDbEntity
  8
M1
 62
     7
100
AcDbLine
 10
88.048488
 20
301.908729
 11
88.048488
 21
295.258729
  0
ARC
  5
2E2
100
AcDbEntity
  8
M1
 62
     7
100
AcDbCircle
 10
88.548488
 20
301.908729
 40
0.5
100
AcDbArc
 50
90.0
 51
180.0
  0
ARC
  5
2E3
100
AcDbEntity
  8
M1
 62
     7
100
AcDbCircle
 10
88.548488
 20
295.258729
 40
0.5
100
AcDbArc
 50
180.0
 51
270.0
  0
CIRCLE
  5
2E4
100
AcDbEntity
  8
M1
 62
     7
100
AcDbCircle
 10
91.873488
 20
325.183729
 40
3.0
  0
LINE
  5
2E5
100
AcDbEntity
  8
M1
 62
     7
100
AcDbLine
 10
93.464072
 20
323.593084
 11
90.282431
 21
326.774847
  0
LINE
  5
2E6
100
AcDbEntity
  8
M1
 62
     7
100
AcDbLine
 10
93.287314
 20
325.53742
 11
91.519736
 21
323.769842
  0
LINE
  5
2E7
100
AcDbEntity
  8
M1
 62
     7
100
AcDbLine
 10
92.226767
 20
326.598089
 11
90.459189
 21
324.830389
  0
LINE
  5
2E8
100
AcDbEntity
  8
M1
 62
     7
100
AcDbLine
 10
95.198488
 20
329.008729
 11
88.548488
 21
329.008729
  0
ARC
  5
2E9
100
AcDbEntity
  8
M1
 62
     7
100
AcDbCircle
 10
95.198488
 20
328.508729
 40
0.5
100
AcDbArc
 50
0.0
 51
90.0
  0
LINE
  5
2EA
100
AcDbEntity
  8
M1
 62
     7
100
AcDbLine
 10
95.698488
 20
321.858729
 11
95.698488
 21
328.508729
  0
ARC
  5
2EB
100
AcDbEntity
  8
M1
 62
     7
100
AcDbCircle
 10
95.198488
 20
321.858729
 40
0.5
100
AcDbArc
 50
270.0
 51
360.0
  0
LINE
  5
2EC
100
AcDbEntity
  8
M1
 62
     7
100
AcDbLine
 10
88.548488
 20
321.358729
 11
95.198488
 21
321.358729
  0
LINE
  5
2ED
100
AcDbEntity
  8
M1
 62
     7
100
AcDbLine
 10
88.048488
 20
328.508729
 11
88.048488
 21
321.858729
  0
ARC
  5
2EE
100
AcDbEntity
  8
M1
 62
     7
100
AcDbCircle
 10
88.548488
 20
328.508729
 40
0.5
100
AcDbArc
 50
90.0
 51
180.0
  0
ARC
  5
2EF
100
AcDbEntity
  8
M1
 62
     7
100
AcDbCircle
 10
88.548488
 20
321.858729
 40
0.5
100
AcDbArc
 50
180.0
 51
270.0
  0
CIRCLE
  5
2F0
100
AcDbEntity
  8
M1
  6
DASHED
 62
     7
100
AcDbCircle
 10
41.473488
 20
325.183729
 40
3.0
  0
LINE
  5
2F1
100
AcDbEntity
  8
M1
  6
DASHED
 62
     7
100
AcDbLine
 10
43.064072
 20
323.593084
 11
39.882432
 21
326.774847
  0
LINE
  5
2F2
100
AcDbEntity
  8
M1
  6
DASHED
 62
     7
100
AcDbLine
 10
42.887314
 20
325.53742
 11
41.119736
 21
323.769842
  0
LINE
  5
2F3
100
AcDbEntity
  8
M1
  6
DASHED
 62
     7
100
AcDbLine
 10
41.826768
 20
326.598089
 11
40.059189
 21
324.830389
  0
LINE
  5
2F4
100
AcDbEntity
  8
M1
  6
DASHED
 62
     7
100
AcDbLine
 10
44.798488
 20
329.008729
 11
38.148488
 21
329.008729
  0
ARC
  5
2F5
100
AcDbEntity
  8
M1
  6
DASHED
 62
     7
100
AcDbCircle
 10
44.798488
 20
328.508729
 40
0.5
100
AcDbArc
 50
0.0
 51
90.0
  0
LINE
  5
2F6
100
AcDbEntity
  8
M1
  6
DASHED
 62
     7
100
AcDbLine
 10
45.298488
 20
321.858729
 11
45.298488
 21
328.508729
  0
ARC
  5
2F7
100
AcDbEntity
  8
M1
  6
DASHED
 62
     7
100
AcDbCircle
 10
44.798488
 20
321.858729
 40
0.5
100
AcDbArc
 50
270.0
 51
360.0
  0
LINE
  5
2F8
100
AcDbEntity
  8
M1
  6
DASHED
 62
     7
100
AcDbLine
 10
38.148488
 20
321.358729
 11
44.798488
 21
321.358729
  0
LINE
  5
2F9
100
AcDbEntity
  8
M1
  6
DASHED
 62
     7
100
AcDbLine
 10
37.648488
 20
328.508729
 11
37.648488
 21
321.858729
  0
ARC
  5
2FA
100
AcDbEntity
  8
M1
  6
DASHED
 62
     7
100
AcDbCircle
 10
38.148488
 20
328.508729
 40
0.5
100
AcDbArc
 50
90.0
 51
180.0
  0
ARC
  5
2FB
100
AcDbEntity
  8
M1
  6
DASHED
 62
     7
100
AcDbCircle
 10
38.148488
 20
321.858729
 40
0.5
100
AcDbArc
 50
180.0
 51
270.0
  0
CIRCLE
  5
2FC
100
AcDbEntity
  8
M1
  6
DASHED
 62
     7
100
AcDbCircle
 10
41.473489
 20
290.983729
 40
3.0
  0
LINE
  5
2FD
100
AcDbEntity
  8
M1
  6
DASHED
 62
     7
100
AcDbLine
 10
43.064072
 20
289.393084
 11
39.882432
 21
292.574847
  0
LINE
  5
2FE
100
AcDbEntity
  8
M1
  6
DASHED
 62
     7
100
AcDbLine
 10
42.887315
 20
291.33742
 11
41.119736
 21
289.569842
  0
LINE
  5
2FF
100
AcDbEntity
  8
M1
  6
DASHED
 62
     7
100
AcDbLine
 10
41.826768
 20
292.398089
 11
40.05919
 21
290.630389
  0
LINE
  5
300
100
AcDbEntity
  8
M1
  6
DASHED
 62
     7
100
AcDbLine
 10
44.798489
 20
294.808729
 11
38.148489
 21
294.808729
  0
ARC
  5
301
100
AcDbEntity
  8
M1
  6
DASHED
 62
     7
100
AcDbCircle
 10
44.798489
 20
294.308729
 40
0.5
100
AcDbArc
 50
0.0
 51
90.0
  0
LINE
  5
302
100
AcDbEntity
  8
M1
  6
DASHED
 62
     7
100
AcDbLine
 10
45.298489
 20
287.658729
 11
45.298489
 21
294.308729
  0
ARC
  5
303
100
AcDbEntity
  8
M1
  6
DASHED
 62
     7
100
AcDbCircle
 10
44.798489
 20
287.658729
 40
0.5
100
AcDbArc
 50
270.0
 51
360.0
  0
LINE
  5
304
100
AcDbEntity
  8
M1
  6
DASHED
 62
     7
100
AcDbLine
 10
38.148489
 20
287.158729
 11
44.798489
 21
287.158729
  0
LINE
  5
305
100
AcDbEntity
  8
M1
  6
DASHED
 62
     7
100
AcDbLine
 10
37.648489
 20
294.308729
 11
37.648489
 21
287.658729
  0
ARC
  5
306
100
AcDbEntity
  8
M1
  6
DASHED
 62
     7
100
AcDbCircle
 10
38.148489
 20
294.308729
 40
0.5
100
AcDbArc
 50
90.0
 51
180.0
  0
ARC
  5
307
100
AcDbEntity
  8
M1
  6
DASHED
 62
     7
100
AcDbCircle
 10
38.148489
 20
287.658729
 40
0.5
100
AcDbArc
 50
180.0
 51
270.0
  0
ARC
  5
308
100
AcDbEntity
  8
M1
 62
     7
100
AcDbCircle
 10
58.173489
 20
331.083729
 40
0.5
100
AcDbArc
 50
270.0
 51
360.0
  0
LINE
  5
309
100
AcDbEntity
  8
M1
 62
     7
100
AcDbLine
 10
58.673489
 20
340.083729
 11
58.673489
 21
331.083729
  0
ARC
  5
30A
100
AcDbEntity
  8
M1
 62
     7
100
AcDbCircle
 10
58.173489
 20
340.083729
 40
0.5
100
AcDbArc
 50
0.0
 51
90.0
  0
LINE
  5
30B
100
AcDbEntity
  8
M1
 62
     7
100
AcDbLine
 10
48.673489
 20
340.083729
 11
48.673489
 21
331.083729
  0
ARC
  5
30C
100
AcDbEntity
  8
M1
 62
     7
100
AcDbCircle
 10
49.173489
 20
340.083729
 40
0.5
100
AcDbArc
 50
90.0
 51
180.0
  0
ARC
  5
30D
100
AcDbEntity
  8
M1
 62
     7
100
AcDbCircle
 10
49.173489
 20
331.083729
 40
0.5
100
AcDbArc
 50
180.0
 51
270.0
  0
LINE
  5
30E
100
AcDbEntity
  8
M1
 62
     7
100
AcDbLine
 10
49.173489
 20
330.583729
 11
58.173489
 21
330.583729
  0
LINE
  5
30F
100
AcDbEntity
  8
M1
 62
     7
100
AcDbLine
 10
58.173489
 20
340.583729
 11
49.173489
 21
340.583729
  0
CIRCLE
  5
310
100
AcDbEntity
  8
M1
 62
     7
100
AcDbCircle
 10
53.673489
 20
335.583729
 40
3.5
  0
LINE
  5
311
100
AcDbEntity
  8
M1
 62
     7
100
AcDbLine
 10
54.68436
 20
337.301686
 11
52.109287
 21
334.726612
  0
LINE
  5
312
100
AcDbEntity
  8
M1
 62
     7
100
AcDbLine
 10
55.391468
 20
336.594578
 11
52.816394
 21
334.019505
  0
LINE
  5
313
100
AcDbEntity
  8
M1
 62
     7
100
AcDbLine
 10
52.712635
 20
336.544575
 11
54.557483
 21
334.699742
  0
ARC
  5
314
100
AcDbEntity
  8
M1
 62
     7
100
AcDbCircle
 10
71.173485
 20
331.083729
 40
0.5
100
AcDbArc
 50
270.0
 51
360.0
  0
LINE
  5
315
100
AcDbEntity
  8
M1
 62
     7
100
AcDbLine
 10
71.673485
 20
340.083729
 11
71.673485
 21
331.083729
  0
ARC
  5
316
100
AcDbEntity
  8
M1
 62
     7
100
AcDbCircle
 10
71.173485
 20
340.083729
 40
0.5
100
AcDbArc
 50
0.0
 51
90.0
  0
LINE
  5
317
100
AcDbEntity
  8
M1
 62
     7
100
AcDbLine
 10
61.673485
 20
340.083729
 11
61.673485
 21
331.083729
  0
ARC
  5
318
100
AcDbEntity
  8
M1
 62
     7
100
AcDbCircle
 10
62.173485
 20
340.083729
 40
0.5
100
AcDbArc
 50
90.0
 51
180.0
  0
ARC
  5
319
100
AcDbEntity
  8
M1
 62
     7
100
AcDbCircle
 10
62.173485
 20
331.083729
 40
0.5
100
AcDbArc
 50
180.0
 51
270.0
  0
LINE
  5
31A
100
AcDbEntity
  8
M1
 62
     7
100
AcDbLine
 10
62.173485
 20
330.583729
 11
71.173485
 21
330.583729
  0
LINE
  5
31B
100
AcDbEntity
  8
M1
 62
     7
100
AcDbLine
 10
71.173485
 20
340.583729
 11
62.173485
 21
340.583729
  0
CIRCLE
  5
31C
100
AcDbEntity
  8
M1
 62
     7
100
AcDbCircle
 10
66.673485
 20
335.583729
 40
3.5
  0
LINE
  5
31D
100
AcDbEntity
  8
M1
 62
     7
100
AcDbLine
 10
67.684357
 20
337.301686
 11
65.109283
 21
334.726612
  0
LINE
  5
31E
100
AcDbEntity
  8
M1
 62
     7
100
AcDbLine
 10
68.391464
 20
336.594578
 11
65.816391
 21
334.019505
  0
LINE
  5
31F
100
AcDbEntity
  8
M1
 62
     7
100
AcDbLine
 10
65.712631
 20
336.544575
 11
67.55748
 21
334.699742
  0
ARC
  5
320
100
AcDbEntity
  8
M1
 62
     7
100
AcDbCircle
 10
84.173485
 20
331.083729
 40
0.5
100
AcDbArc
 50
270.0
 51
360.0
  0
LINE
  5
321
100
AcDbEntity
  8
M1
 62
     7
100
AcDbLine
 10
84.673485
 20
340.083729
 11
84.673485
 21
331.083729
  0
ARC
  5
322
100
AcDbEntity
  8
M1
 62
     7
100
AcDbCircle
 10
84.173485
 20
340.083729
 40
0.5
100
AcDbArc
 50
0.0
 51
90.0
  0
LINE
  5
323
100
AcDbEntity
  8
M1
 62
     7
100
AcDbLine
 10
74.673485
 20
340.083729
 11
74.673485
 21
331.083729
  0
ARC
  5
324
100
AcDbEntity
  8
M1
 62
     7
100
AcDbCircle
 10
75.173485
 20
340.083729
 40
0.5
100
AcDbArc
 50
90.0
 51
180.0
  0
ARC
  5
325
100
AcDbEntity
  8
M1
 62
     7
100
AcDbCircle
 10
75.173485
 20
331.083729
 40
0.5
100
AcDbArc
 50
180.0
 51
270.0
  0
LINE
  5
326
100
AcDbEntity
  8
M1
 62
     7
100
AcDbLine
 10
75.173485
 20
330.583729
 11
84.173485
 21
330.583729
  0
LINE
  5
327
100
AcDbEntity
  8
M1
 62
     7
100
AcDbLine
 10
84.173485
 20
340.583729
 11
75.173485
 21
340.583729
  0
CIRCLE
  5
328
100
AcDbEntity
  8
M1
 62
     7
100
AcDbCircle
 10
79.673485
 20
335.583729
 40
3.5
  0
LINE
  5
329
100
AcDbEntity
  8
M1
 62
     7
100
AcDbLine
 10
80.684357
 20
337.301686
 11
78.109284
 21
334.726612
  0
LINE
  5
32A
100
AcDbEntity
  8
M1
 62
     7
100
AcDbLine
 10
81.391464
 20
336.594578
 11
78.816391
 21
334.019505
  0
LINE
  5
32B
100
AcDbEntity
  8
M1
 62
     7
100
AcDbLine
 10
78.712631
 20
336.544575
 11
80.55748
 21
334.699742
  0
ARC
  5
32C
100
AcDbEntity
  8
M1
 62
     7
100
AcDbCircle
 10
84.173485
 20
283.683729
 40
0.5
100
AcDbArc
 50
270.0
 51
360.0
  0
LINE
  5
32D
100
AcDbEntity
  8
M1
 62
     7
100
AcDbLine
 10
84.673485
 20
292.683729
 11
84.673485
 21
283.683729
  0
ARC
  5
32E
100
AcDbEntity
  8
M1
 62
     7
100
AcDbCircle
 10
84.173485
 20
292.683729
 40
0.5
100
AcDbArc
 50
0.0
 51
90.0
  0
LINE
  5
32F
100
AcDbEntity
  8
M1
 62
     7
100
AcDbLine
 10
74.673485
 20
292.683729
 11
74.673485
 21
283.683729
  0
ARC
  5
330
100
AcDbEntity
  8
M1
 62
     7
100
AcDbCircle
 10
75.173485
 20
292.683729
 40
0.5
100
AcDbArc
 50
90.0
 51
180.0
  0
ARC
  5
331
100
AcDbEntity
  8
M1
 62
     7
100
AcDbCircle
 10
75.173485
 20
283.683729
 40
0.5
100
AcDbArc
 50
180.0
 51
270.0
  0
LINE
  5
332
100
AcDbEntity
  8
M1
 62
     7
100
AcDbLine
 10
75.173485
 20
283.183729
 11
84.173485
 21
283.183729
  0
LINE
  5
333
100
AcDbEntity
  8
M1
 62
     7
100
AcDbLine
 10
84.173485
 20
293.183729
 11
75.173485
 21
293.183729
  0
CIRCLE
  5
334
100
AcDbEntity
  8
M1
 62
     7
100
AcDbCircle
 10
79.673485
 20
288.183729
 40
3.5
  0
LINE
  5
335
100
AcDbEntity
  8
M1
 62
     7
100
AcDbLine
 10
80.684357
 20
289.901685
 11
78.109284
 21
287.326612
  0
LINE
  5
336
100
AcDbEntity
  8
M1
 62
     7
100
AcDbLine
 10
81.391464
 20
289.194578
 11
78.816391
 21
286.619504
  0
LINE
  5
337
100
AcDbEntity
  8
M1
 62
     7
100
AcDbLine
 10
78.712631
 20
289.144575
 11
80.55748
 21
287.299741
  0
ARC
  5
338
100
AcDbEntity
  8
M1
 62
     7
100
AcDbCircle
 10
71.173485
 20
283.683729
 40
0.5
100
AcDbArc
 50
270.0
 51
360.0
  0
LINE
  5
339
100
AcDbEntity
  8
M1
 62
     7
100
AcDbLine
 10
71.673485
 20
292.683729
 11
71.673485
 21
283.683729
  0
ARC
  5
33A
100
AcDbEntity
  8
M1
 62
     7
100
AcDbCircle
 10
71.173485
 20
292.683729
 40
0.5
100
AcDbArc
 50
0.0
 51
90.0
  0
LINE
  5
33B
100
AcDbEntity
  8
M1
 62
     7
100
AcDbLine
 10
61.673485
 20
292.683729
 11
61.673485
 21
283.683729
  0
ARC
  5
33C
100
AcDbEntity
  8
M1
 62
     7
100
AcDbCircle
 10
62.173485
 20
292.683729
 40
0.5
100
AcDbArc
 50
90.0
 51
180.0
  0
ARC
  5
33D
100
AcDbEntity
  8
M1
 62
     7
100
AcDbCircle
 10
62.173485
 20
283.683729
 40
0.5
100
AcDbArc
 50
180.0
 51
270.0
  0
LINE
  5
33E
100
AcDbEntity
  8
M1
 62
     7
100
AcDbLine
 10
62.173485
 20
283.183729
 11
71.173485
 21
283.183729
  0
LINE
  5
33F
100
AcDbEntity
  8
M1
 62
     7
100
AcDbLine
 10
71.173485
 20
293.183729
 11
62.173485
 21
293.183729
  0
CIRCLE
  5
340
100
AcDbEntity
  8
M1
 62
     7
100
AcDbCircle
 10
66.673485
 20
288.183729
 40
3.5
  0
LINE
  5
341
100
AcDbEntity
  8
M1
 62
     7
100
AcDbLine
 10
67.684357
 20
289.901685
 11
65.109283
 21
287.326612
  0
LINE
  5
342
100
AcDbEntity
  8
M1
 62
     7
100
AcDbLine
 10
68.391464
 20
289.194578
 11
65.816391
 21
286.619504
  0
LINE
  5
343
100
AcDbEntity
  8
M1
 62
     7
100
AcDbLine
 10
65.712631
 20
289.144575
 11
67.55748
 21
287.299741
  0
ARC
  5
344
100
AcDbEntity
  8
M1
 62
     7
100
AcDbCircle
 10
58.173489
 20
283.683729
 40
0.5
100
AcDbArc
 50
270.0
 51
360.0
  0
LINE
  5
345
100
AcDbEntity
  8
M1
 62
     7
100
AcDbLine
 10
58.673489
 20
292.683729
 11
58.673489
 21
283.683729
  0
ARC
  5
346
100
AcDbEntity
  8
M1
 62
     7
100
AcDbCircle
 10
58.173489
 20
292.683729
 40
0.5
100
AcDbArc
 50
0.0
 51
90.0
  0
LINE
  5
347
100
AcDbEntity
  8
M1
 62
     7
100
AcDbLine
 10
48.673489
 20
292.683729
 11
48.673489
 21
283.683729
  0
ARC
  5
348
100
AcDbEntity
  8
M1
 62
     7
100
AcDbCircle
 10
49.173489
 20
292.683729
 40
0.5
100
AcDbArc
 50
90.0
 51
180.0
  0
ARC
  5
349
100
AcDbEntity
  8
M1
 62
     7
100
AcDbCircle
 10
49.173489
 20
283.683729
 40
0.5
100
AcDbArc
 50
180.0
 51
270.0
  0
LINE
  5
34A
100
AcDbEntity
  8
M1
 62
     7
100
AcDbLine
 10
49.173489
 20
283.183729
 11
58.173489
 21
283.183729
  0
LINE
  5
34B
100
AcDbEntity
  8
M1
 62
     7
100
AcDbLine
 10
58.173489
 20
293.183729
 11
49.173489
 21
293.183729
  0
CIRCLE
  5
34C
100
AcDbEntity
  8
M1
 62
     7
100
AcDbCircle
 10
53.673489
 20
288.183729
 40
3.5
  0
LINE
  5
34D
100
AcDbEntity
  8
M1
 62
     7
100
AcDbLine
 10
54.68436
 20
289.901685
 11
52.109287
 21
287.326612
  0
LINE
  5
34E
100
AcDbEntity
  8
M1
 62
     7
100
AcDbLine
 10
55.391468
 20
289.194578
 11
52.816394
 21
286.619504
  0
LINE
  5
34F
100
AcDbEntity
  8
M1
 62
     7
100
AcDbLine
 10
52.712635
 20
289.144575
 11
54.557483
 21
287.299741
  0
CIRCLE
  5
350
100
AcDbEntity
  8
M1
 62
     7
100
AcDbCircle
 10
91.873488
 20
290.983729
 40
3.0
  0
LINE
  5
351
100
AcDbEntity
  8
M1
 62
     7
100
AcDbLine
 10
93.464072
 20
289.393084
 11
90.282431
 21
292.574847
  0
LINE
  5
352
100
AcDbEntity
  8
M1
 62
     7
100
AcDbLine
 10
93.287314
 20
291.33742
 11
91.519736
 21
289.569842
  0
LINE
  5
353
100
AcDbEntity
  8
M1
 62
     7
100
AcDbLine
 10
92.226767
 20
292.398089
 11
90.459189
 21
290.630389
  0
LINE
  5
354
100
AcDbEntity
  8
M1
 62
     7
100
AcDbLine
 10
95.198488
 20
294.808729
 11
88.548488
 21
294.808729
  0
ARC
  5
355
100
AcDbEntity
  8
M1
 62
     7
100
AcDbCircle
 10
95.198488
 20
294.308729
 40
0.5
100
AcDbArc
 50
0.0
 51
90.0
  0
LINE
  5
356
100
AcDbEntity
  8
M1
 62
     7
100
AcDbLine
 10
95.698488
 20
287.658729
 11
95.698488
 21
294.308729
  0
ARC
  5
357
100
AcDbEntity
  8
M1
 62
     7
100
AcDbCircle
 10
95.198488
 20
287.658729
 40
0.5
100
AcDbArc
 50
270.0
 51
360.0
  0
LINE
  5
358
100
AcDbEntity
  8
M1
 62
     7
100
AcDbLine
 10
88.548488
 20
287.158729
 11
95.198488
 21
287.158729
  0
LINE
  5
359
100
AcDbEntity
  8
M1
 62
     7
100
AcDbLine
 10
88.048488
 20
294.308729
 11
88.048488
 21
287.658729
  0
ARC
  5
35A
100
AcDbEntity
  8
M1
 62
     7
100
AcDbCircle
 10
88.548488
 20
294.308729
 40
0.5
100
AcDbArc
 50
90.0
 51
180.0
  0
ARC
  5
35B
100
AcDbEntity
  8
M1
 62
     7
100
AcDbCircle
 10
88.548488
 20
287.658729
 40
0.5
100
AcDbArc
 50
180.0
 51
270.0
  0
CIRCLE
  5
35C
100
AcDbEntity
  8
M1
  6
DASHED
 62
     7
100
AcDbCircle
 10
41.473488
 20
332.783729
 40
3.0
  0
LINE
  5
35D
100
AcDbEntity
  8
M1
  6
DASHED
 62
     7
100
AcDbLine
 10
43.064072
 20
331.193084
 11
39.882432
 21
334.374847
  0
LINE
  5
35E
100
AcDbEntity
  8
M1
  6
DASHED
 62
     7
100
AcDbLine
 10
42.887314
 20
333.13742
 11
41.119736
 21
331.369842
  0
LINE
  5
35F
100
AcDbEntity
  8
M1
  6
DASHED
 62
     7
100
AcDbLine
 10
41.826768
 20
334.198089
 11
40.059189
 21
332.430389
  0
LINE
  5
360
100
AcDbEntity
  8
M1
  6
DASHED
 62
     7
100
AcDbLine
 10
44.798488
 20
336.608729
 11
38.148488
 21
336.608729
  0
ARC
  5
361
100
AcDbEntity
  8
M1
  6
DASHED
 62
     7
100
AcDbCircle
 10
44.798488
 20
336.108729
 40
0.5
100
AcDbArc
 50
0.0
 51
90.0
  0
LINE
  5
362
100
AcDbEntity
  8
M1
  6
DASHED
 62
     7
100
AcDbLine
 10
45.298488
 20
329.458729
 11
45.298488
 21
336.108729
  0
ARC
  5
363
100
AcDbEntity
  8
M1
  6
DASHED
 62
     7
100
AcDbCircle
 10
44.798488
 20
329.458729
 40
0.5
100
AcDbArc
 50
270.0
 51
360.0
  0
LINE
  5
364
100
AcDbEntity
  8
M1
  6
DASHED
 62
     7
100
AcDbLine
 10
38.148488
 20
328.958729
 11
44.798488
 21
328.958729
  0
LINE
  5
365
100
AcDbEntity
  8
M1
  6
DASHED
 62
     7
100
AcDbLine
 10
37.648488
 20
336.108729
 11
37.648488
 21
329.458729
  0
ARC
  5
366
100
AcDbEntity
  8
M1
  6
DASHED
 62
     7
100
AcDbCircle
 10
38.148488
 20
336.108729
 40
0.5
100
AcDbArc
 50
90.0
 51
180.0
  0
ARC
  5
367
100
AcDbEntity
  8
M1
  6
DASHED
 62
     7
100
AcDbCircle
 10
38.148488
 20
329.458729
 40
0.5
100
AcDbArc
 50
180.0
 51
270.0
  0
CIRCLE
  5
368
100
AcDbEntity
  8
M1
  6
DASHED
 62
     7
100
AcDbCircle
 10
41.473489
 20
298.583729
 40
3.0
  0
LINE
  5
369
100
AcDbEntity
  8
M1
  6
DASHED
 62
     7
100
AcDbLine
 10
43.064072
 20
296.993084
 11
39.882432
 21
300.174847
  0
LINE
  5
36A
100
AcDbEntity
  8
M1
  6
DASHED
 62
     7
100
AcDbLine
 10
42.887315
 20
298.93742
 11
41.119736
 21
297.169842
  0
LINE
  5
36B
100
AcDbEntity
  8
M1
  6
DASHED
 62
     7
100
AcDbLine
 10
41.826768
 20
299.998089
 11
40.05919
 21
298.230389
  0
LINE
  5
36C
100
AcDbEntity
  8
M1
  6
DASHED
 62
     7
100
AcDbLine
 10
44.798489
 20
302.408729
 11
38.148489
 21
302.408729
  0
ARC
  5
36D
100
AcDbEntity
  8
M1
  6
DASHED
 62
     7
100
AcDbCircle
 10
44.798489
 20
301.908729
 40
0.5
100
AcDbArc
 50
0.0
 51
90.0
  0
LINE
  5
36E
100
AcDbEntity
  8
M1
  6
DASHED
 62
     7
100
AcDbLine
 10
45.298489
 20
295.258729
 11
45.298489
 21
301.908729
  0
ARC
  5
36F
100
AcDbEntity
  8
M1
  6
DASHED
 62
     7
100
AcDbCircle
 10
44.798489
 20
295.258729
 40
0.5
100
AcDbArc
 50
270.0
 51
360.0
  0
LINE
  5
370
100
AcDbEntity
  8
M1
  6
DASHED
 62
     7
100
AcDbLine
 10
38.148489
 20
294.758729
 11
44.798489
 21
294.758729
  0
LINE
  5
371
100
AcDbEntity
  8
M1
  6
DASHED
 62
     7
100
AcDbLine
 10
37.648489
 20
301.908729
 11
37.648489
 21
295.258729
  0
ARC
  5
372
100
AcDbEntity
  8
M1
  6
DASHED
 62
     7
100
AcDbCircle
 10
38.148489
 20
301.908729
 40
0.5
100
AcDbArc
 50
90.0
 51
180.0
  0
ARC
  5
373
100
AcDbEntity
  8
M1
  6
DASHED
 62
     7
100
AcDbCircle
 10
38.148489
 20
295.258729
 40
0.5
100
AcDbArc
 50
180.0
 51
270.0
  0
CIRCLE
  5
374
100
AcDbEntity
  8
M1
 62
     7
100
AcDbCircle
 10
53.673489
 20
279.383729
 40
2.75
  0
LINE
  5
375
100
AcDbEntity
  8
M1
 62
     7
100
AcDbLine
 10
53.373489
 20
277.983729
 11
53.373489
 21
278.380089
  0
LINE
  5
376
100
AcDbEntity
  8
M1
 62
     7
100
AcDbLine
 10
53.973489
 20
277.983729
 11
53.973489
 21
278.380089
  0
LINE
  5
377
100
AcDbEntity
  8
M1
 62
     7
100
AcDbLine
 10
53.373489
 20
280.783729
 11
53.373489
 21
280.387368
  0
LINE
  5
378
100
AcDbEntity
  8
M1
 62
     7
100
AcDbLine
 10
53.973489
 20
280.783729
 11
53.973489
 21
280.387368
  0
ARC
  5
379
100
AcDbEntity
  8
M1
 62
     7
100
AcDbCircle
 10
52.648489
 20
278.358729
 40
0.725
100
AcDbArc
 50
0.0
 51
90.0
  0
ARC
  5
37A
100
AcDbEntity
  8
M1
 62
     7
100
AcDbCircle
 10
52.648489
 20
280.408729
 40
0.725
100
AcDbArc
 50
-90.0
 51
0.0
  0
ARC
  5
37B
100
AcDbEntity
  8
M1
 62
     7
100
AcDbCircle
 10
54.698489
 20
280.408729
 40
0.725
100
AcDbArc
 50
180.0
 51
270.0
  0
ARC
  5
37C
100
AcDbEntity
  8
M1
 62
     7
100
AcDbCircle
 10
54.698489
 20
278.358729
 40
0.725
100
AcDbArc
 50
90.0
 51
180.0
  0
LINE
  5
37D
100
AcDbEntity
  8
M1
 62
     7
100
AcDbLine
 10
54.698489
 20
279.083729
 11
55.098489
 21
279.083729
  0
LINE
  5
37E
100
AcDbEntity
  8
M1
 62
     7
100
AcDbLine
 10
54.698489
 20
279.683729
 11
55.098489
 21
279.683729
  0
LINE
  5
37F
100
AcDbEntity
  8
M1
 62
     7
100
AcDbLine
 10
53.373489
 20
280.783729
 11
53.973489
 21
280.783729
  0
LINE
  5
380
100
AcDbEntity
  8
M1
 62
     7
100
AcDbLine
 10
53.373489
 20
277.983729
 11
53.973489
 21
277.983729
  0
LINE
  5
381
100
AcDbEntity
  8
M1
 62
     7
100
AcDbLine
 10
52.273489
 20
279.683729
 11
52.648489
 21
279.683729
  0
LINE
  5
382
100
AcDbEntity
  8
M1
 62
     7
100
AcDbLine
 10
52.273489
 20
279.683729
 11
52.273489
 21
279.083729
  0
LINE
  5
383
100
AcDbEntity
  8
M1
 62
     7
100
AcDbLine
 10
52.273489
 20
279.083729
 11
52.648489
 21
279.083729
  0
LINE
  5
384
100
AcDbEntity
  8
M1
 62
     7
100
AcDbLine
 10
55.098489
 20
279.683729
 11
55.098489
 21
279.083729
  0
CIRCLE
  5
385
100
AcDbEntity
  8
M1
 62
     7
100
AcDbCircle
 10
79.673489
 20
279.383729
 40
2.75
  0
LINE
  5
386
100
AcDbEntity
  8
M1
 62
     7
100
AcDbLine
 10
79.373489
 20
277.983729
 11
79.373489
 21
278.380089
  0
LINE
  5
387
100
AcDbEntity
  8
M1
 62
     7
100
AcDbLine
 10
79.973489
 20
277.983729
 11
79.973489
 21
278.380089
  0
LINE
  5
388
100
AcDbEntity
  8
M1
 62
     7
100
AcDbLine
 10
79.373489
 20
280.783729
 11
79.373489
 21
280.387368
  0
LINE
  5
389
100
AcDbEntity
  8
M1
 62
     7
100
AcDbLine
 10
79.973489
 20
280.783729
 11
79.973489
 21
280.387368
  0
ARC
  5
38A
100
AcDbEntity
  8
M1
 62
     7
100
AcDbCircle
 10
78.648489
 20
278.358729
 40
0.725
100
AcDbArc
 50
0.0
 51
90.0
  0
ARC
  5
38B
100
AcDbEntity
  8
M1
 62
     7
100
AcDbCircle
 10
78.648489
 20
280.408729
 40
0.725
100
AcDbArc
 50
-90.0
 51
0.0
  0
ARC
  5
38C
100
AcDbEntity
  8
M1
 62
     7
100
AcDbCircle
 10
80.698489
 20
280.408729
 40
0.725
100
AcDbArc
 50
180.0
 51
270.0
  0
ARC
  5
38D
100
AcDbEntity
  8
M1
 62
     7
100
AcDbCircle
 10
80.698489
 20
278.358729
 40
0.725
100
AcDbArc
 50
90.0
 51
180.0
  0
LINE
  5
38E
100
AcDbEntity
  8
M1
 62
     7
100
AcDbLine
 10
80.698489
 20
279.083729
 11
81.098489
 21
279.083729
  0
LINE
  5
38F
100
AcDbEntity
  8
M1
 62
     7
100
AcDbLine
 10
80.698489
 20
279.683729
 11
81.098489
 21
279.683729
  0
LINE
  5
390
100
AcDbEntity
  8
M1
 62
     7
100
AcDbLine
 10
79.373489
 20
280.783729
 11
79.973489
 21
280.783729
  0
LINE
  5
391
100
AcDbEntity
  8
M1
 62
     7
100
AcDbLine
 10
79.373489
 20
277.983729
 11
79.973489
 21
277.983729
  0
LINE
  5
392
100
AcDbEntity
  8
M1
 62
     7
100
AcDbLine
 10
78.273489
 20
279.683729
 11
78.648489
 21
279.683729
  0
LINE
  5
393
100
AcDbEntity
  8
M1
 62
     7
100
AcDbLine
 10
78.273489
 20
279.683729
 11
78.273489
 21
279.083729
  0
LINE
  5
394
100
AcDbEntity
  8
M1
 62
     7
100
AcDbLine
 10
78.273489
 20
279.083729
 11
78.648489
 21
279.083729
  0
LINE
  5
395
100
AcDbEntity
  8
M1
 62
     7
100
AcDbLine
 10
81.098489
 20
279.683729
 11
81.098489
 21
279.083729
  0
CIRCLE
  5
396
100
AcDbEntity
  8
M1
 62
     7
100
AcDbCircle
 10
77.573489
 20
350.483729
 40
3.0
  0
LINE
  5
397
100
AcDbEntity
  8
M1
 62
     7
100
AcDbLine
 10
79.164072
 20
348.893084
 11
75.982432
 21
352.074847
  0
LINE
  5
398
100
AcDbEntity
  8
M1
 62
     7
100
AcDbLine
 10
78.987315
 20
350.83742
 11
77.219736
 21
349.069842
  0
LINE
  5
399
100
AcDbEntity
  8
M1
 62
     7
100
AcDbLine
 10
77.926768
 20
351.898089
 11
76.15919
 21
350.130389
  0
LINE
  5
39A
100
AcDbEntity
  8
M1
 62
     7
100
AcDbLine
 10
80.898489
 20
354.308729
 11
74.248489
 21
354.308729
  0
ARC
  5
39B
100
AcDbEntity
  8
M1
 62
     7
100
AcDbCircle
 10
80.898489
 20
353.808729
 40
0.5
100
AcDbArc
 50
0.0
 51
90.0
  0
LINE
  5
39C
100
AcDbEntity
  8
M1
 62
     7
100
AcDbLine
 10
81.398489
 20
347.158729
 11
81.398489
 21
353.808729
  0
ARC
  5
39D
100
AcDbEntity
  8
M1
 62
     7
100
AcDbCircle
 10
80.898489
 20
347.158729
 40
0.5
100
AcDbArc
 50
270.0
 51
360.0
  0
LINE
  5
39E
100
AcDbEntity
  8
M1
 62
     7
100
AcDbLine
 10
74.248489
 20
346.658729
 11
80.898489
 21
346.658729
  0
LINE
  5
39F
100
AcDbEntity
  8
M1
 62
     7
100
AcDbLine
 10
73.748489
 20
353.808729
 11
73.748489
 21
347.158729
  0
ARC
  5
3A0
100
AcDbEntity
  8
M1
 62
     7
100
AcDbCircle
 10
74.248489
 20
353.808729
 40
0.5
100
AcDbArc
 50
90.0
 51
180.0
  0
ARC
  5
3A1
100
AcDbEntity
  8
M1
 62
     7
100
AcDbCircle
 10
74.248489
 20
347.158729
 40
0.5
100
AcDbArc
 50
180.0
 51
270.0
  0
CIRCLE
  5
3A2
100
AcDbEntity
  8
M1
 62
     7
100
AcDbCircle
 10
91.873488
 20
332.783729
 40
3.0
  0
LINE
  5
3A3
100
AcDbEntity
  8
M1
 62
     7
100
AcDbLine
 10
93.464072
 20
331.193084
 11
90.282431
 21
334.374847
  0
LINE
  5
3A4
100
AcDbEntity
  8
M1
 62
     7
100
AcDbLine
 10
93.287314
 20
333.13742
 11
91.519736
 21
331.369842
  0
LINE
  5
3A5
100
AcDbEntity
  8
M1
 62
     7
100
AcDbLine
 10
92.226767
 20
334.198089
 11
90.459189
 21
332.430389
  0
LINE
  5
3A6
100
AcDbEntity
  8
M1
 62
     7
100
AcDbLine
 10
95.198488
 20
336.608729
 11
88.548488
 21
336.608729
  0
ARC
  5
3A7
100
AcDbEntity
  8
M1
 62
     7
100
AcDbCircle
 10
95.198488
 20
336.108729
 40
0.5
100
AcDbArc
 50
0.0
 51
90.0
  0
LINE
  5
3A8
100
AcDbEntity
  8
M1
 62
     7
100
AcDbLine
 10
95.698488
 20
329.458729
 11
95.698488
 21
336.108729
  0
ARC
  5
3A9
100
AcDbEntity
  8
M1
 62
     7
100
AcDbCircle
 10
95.198488
 20
329.458729
 40
0.5
100
AcDbArc
 50
270.0
 51
360.0
  0
LINE
  5
3AA
100
AcDbEntity
  8
M1
 62
     7
100
AcDbLine
 10
88.548488
 20
328.958729
 11
95.198488
 21
328.958729
  0
LINE
  5
3AB
100
AcDbEntity
  8
M1
 62
     7
100
AcDbLine
 10
88.048488
 20
336.108729
 11
88.048488
 21
329.458729
  0
ARC
  5
3AC
100
AcDbEntity
  8
M1
 62
     7
100
AcDbCircle
 10
88.548488
 20
336.108729
 40
0.5
100
AcDbArc
 50
90.0
 51
180.0
  0
ARC
  5
3AD
100
AcDbEntity
  8
M1
 62
     7
100
AcDbCircle
 10
88.548488
 20
329.458729
 40
0.5
100
AcDbArc
 50
180.0
 51
270.0
  0
CIRCLE
  5
3AE
100
AcDbEntity
  8
M1
 62
     7
100
AcDbCircle
 10
66.673489
 20
350.083729
 40
2.75
  0
LINE
  5
3AF
100
AcDbEntity
  8
M1
 62
     7
100
AcDbLine
 10
66.373489
 20
348.683729
 11
66.373489
 21
349.080089
  0
LINE
  5
3B0
100
AcDbEntity
  8
M1
 62
     7
100
AcDbLine
 10
66.973489
 20
348.683729
 11
66.973489
 21
349.080089
  0
LINE
  5
3B1
100
AcDbEntity
  8
M1
 62
     7
100
AcDbLine
 10
66.373489
 20
351.483729
 11
66.373489
 21
351.087368
  0
LINE
  5
3B2
100
AcDbEntity
  8
M1
 62
     7
100
AcDbLine
 10
66.973489
 20
351.483729
 11
66.973489
 21
351.087368
  0
ARC
  5
3B3
100
AcDbEntity
  8
M1
 62
     7
100
AcDbCircle
 10
65.648489
 20
349.058729
 40
0.725
100
AcDbArc
 50
0.0
 51
90.0
  0
ARC
  5
3B4
100
AcDbEntity
  8
M1
 62
     7
100
AcDbCircle
 10
65.648489
 20
351.108729
 40
0.725
100
AcDbArc
 50
-90.0
 51
0.0
  0
ARC
  5
3B5
100
AcDbEntity
  8
M1
 62
     7
100
AcDbCircle
 10
67.698489
 20
351.108729
 40
0.725
100
AcDbArc
 50
180.0
 51
270.0
  0
ARC
  5
3B6
100
AcDbEntity
  8
M1
 62
     7
100
AcDbCircle
 10
67.698489
 20
349.058729
 40
0.725
100
AcDbArc
 50
90.0
 51
180.0
  0
LINE
  5
3B7
100
AcDbEntity
  8
M1
 62
     7
100
AcDbLine
 10
67.698489
 20
349.783729
 11
68.098489
 21
349.783729
  0
LINE
  5
3B8
100
AcDbEntity
  8
M1
 62
     7
100
AcDbLine
 10
67.698489
 20
350.383729
 11
68.098489
 21
350.383729
  0
LINE
  5
3B9
100
AcDbEntity
  8
M1
 62
     7
100
AcDbLine
 10
66.373489
 20
351.483729
 11
66.973489
 21
351.483729
  0
LINE
  5
3BA
100
AcDbEntity
  8
M1
 62
     7
100
AcDbLine
 10
66.373489
 20
348.683729
 11
66.973489
 21
348.683729
  0
LINE
  5
3BB
100
AcDbEntity
  8
M1
 62
     7
100
AcDbLine
 10
65.273489
 20
350.383729
 11
65.648489
 21
350.383729
  0
LINE
  5
3BC
100
AcDbEntity
  8
M1
 62
     7
100
AcDbLine
 10
65.273489
 20
350.383729
 11
65.273489
 21
349.783729
  0
LINE
  5
3BD
100
AcDbEntity
  8
M1
 62
     7
100
AcDbLine
 10
65.273489
 20
349.783729
 11
65.648489
 21
349.783729
  0
LINE
  5
3BE
100
AcDbEntity
  8
M1
 62
     7
100
AcDbLine
 10
68.098489
 20
350.383729
 11
68.098489
 21
349.783729
  0
LINE
  5
3BF
100
AcDbEntity
  8
M1
  6
DASHDOT
 62
     7
100
AcDbLine
 10
66.673488
 20
359.88373
 11
66.673488
 21
271.383727
  0
LINE
  5
3C0
100
AcDbEntity
  8
M1
  6
DASHDOT
 62
     7
100
AcDbLine
 10
20.773491
 20
311.883729
 11
112.573485
 21
311.883729
  0
ARC
  5
3C1
100
AcDbEntity
  8
M1
 62
     7
100
AcDbCircle
 10
74.323489
 20
347.233729
 40
0.5
100
AcDbArc
 50
268.473851
 51
270.0
  0
ARC
  5
3C2
100
AcDbEntity
  8
M1
 62
     7
100
AcDbCircle
 10
39.673489
 20
341.883729
 40
2.25
100
AcDbArc
 50
0.0
 51
180.0
  0
ARC
  5
3C3
100
AcDbEntity
  8
M1
 62
     7
100
AcDbCircle
 10
39.673489
 20
339.883729
 40
2.25
100
AcDbArc
 50
180.0
 51
360.0
  0
ARC
  5
3C4
100
AcDbEntity
  8
M1
 62
     7
100
AcDbCircle
 10
40.273489
 20
281.383729
 40
5.0
100
AcDbArc
 50
180.0
 51
270.0
  0
LINE
  5
3C5
100
AcDbEntity
  8
M1
 62
     7
100
AcDbLine
 10
75.573488
 20
299.683729
 11
57.773489
 21
299.683729
  0
LINE
  5
3C6
100
AcDbEntity
  8
M1
 62
     7
100
AcDbLine
 10
57.273489
 20
300.183729
 11
57.273489
 21
323.583729
  0
LINE
  5
3C7
100
AcDbEntity
  8
M1
 62
     7
100
AcDbLine
 10
86.373488
 20
329.283729
 11
46.973488
 21
329.283729
  0
LINE
  5
3C8
100
AcDbEntity
  8
M1
 62
     7
100
AcDbLine
 10
88.173489
 20
314.383729
 11
86.373488
 21
314.383729
  0
LINE
  5
3C9
100
AcDbEntity
  8
M1
 62
     7
100
AcDbLine
 10
61.37349
 20
324.083728
 11
57.773489
 21
324.083728
  0
CIRCLE
  5
3CA
100
AcDbEntity
  8
M1
 62
     7
100
AcDbCircle
 10
39.173489
 20
281.883729
 40
2.25
  0
CIRCLE
  5
3CB
100
AcDbEntity
  8
M1
 62
     7
100
AcDbCircle
 10
94.173489
 20
341.883729
 40
2.25
  0
ARC
  5
3CC
100
AcDbEntity
  8
M1
 62
     7
100
AcDbCircle
 10
93.673489
 20
281.883729
 40
2.25
100
AcDbArc
 50
180.0
 51
360.0
  0
ARC
  5
3CD
100
AcDbEntity
  8
M1
 62
     7
100
AcDbCircle
 10
93.673489
 20
283.883729
 40
2.25
100
AcDbArc
 50
0.0
 51
180.0
  0
ARC
  5
3CE
100
AcDbEntity
  8
M1
 62
     7
100
AcDbCircle
 10
93.073489
 20
281.383729
 40
5.0
100
AcDbArc
 50
270.0
 51
360.0
  0
LINE
  5
3CF
100
AcDbEntity
  8
M1
 62
     7
100
AcDbLine
 10
46.242719
 20
315.383729
 11
46.242719
 21
314.383729
  0
LINE
  5
3D0
100
AcDbEntity
  8
M1
 62
     7
100
AcDbLine
 10
45.973488
 20
315.383729
 11
45.373489
 21
315.383729
  0
LINE
  5
3D1
100
AcDbEntity
  8
M1
 62
     7
100
AcDbLine
 10
46.242719
 20
308.383729
 11
46.242719
 21
309.383729
  0
LINE
  5
3D2
100
AcDbEntity
  8
M1
 62
     7
100
AcDbLine
 10
45.973488
 20
308.383729
 11
45.373489
 21
308.383729
  0
LINE
  5
3D3
100
AcDbEntity
  8
M1
 62
     7
100
AcDbLine
 10
87.104256
 20
308.383729
 11
87.104256
 21
309.383729
  0
LINE
  5
3D4
100
AcDbEntity
  8
M1
 62
     7
100
AcDbLine
 10
87.373487
 20
308.383729
 11
87.973489
 21
308.383729
  0
LINE
  5
3D5
100
AcDbEntity
  8
M1
 62
     7
100
AcDbLine
 10
87.104256
 20
315.383729
 11
87.104256
 21
314.383729
  0
LINE
  5
3D6
100
AcDbEntity
  8
M1
 62
     7
100
AcDbLine
 10
87.373487
 20
315.383729
 11
87.973489
 21
315.383729
  0
LINE
  5
3D7
100
AcDbEntity
  8
M1
 62
     7
100
AcDbLine
 10
81.873487
 20
346.38373
 11
81.873487
 21
355.78373
  0
LINE
  5
3D8
100
AcDbEntity
  8
M1
 62
     7
100
AcDbLine
 10
83.462949
 20
353.40172
 11
83.673487
 21
346.38373
  0
LINE
  5
3D9
100
AcDbEntity
  8
M1
 62
     7
100
AcDbLine
 10
82.791219
 20
356.383729
 11
82.473489
 21
356.383729
  0
LINE
  5
3DA
100
AcDbEntity
  8
M1
 62
     7
100
AcDbLine
 10
71.673489
 20
278.883729
 11
71.673489
 21
279.38373
  0
LINE
  5
3DB
100
AcDbEntity
  8
M1
 62
     7
100
AcDbLine
 10
71.673489
 20
276.383727
 11
61.673488
 21
276.383727
  0
LINE
  5
3DC
100
AcDbEntity
  8
M1
 62
     7
100
AcDbLine
 10
61.673488
 20
279.38373
 11
61.673488
 21
278.883729
  0
LINE
  5
3DD
100
AcDbEntity
  8
M1
 62
     7
100
AcDbLine
 10
45.173488
 20
309.383729
 11
45.173488
 21
314.383729
  0
LINE
  5
3DE
100
AcDbEntity
  8
M1
 62
     7
100
AcDbLine
 10
45.973488
 20
308.383729
 11
46.973488
 21
308.383729
  0
LINE
  5
3DF
100
AcDbEntity
  8
M1
 62
     7
100
AcDbLine
 10
45.973488
 20
277.383729
 11
45.973488
 21
308.383729
  0
LINE
  5
3E0
100
AcDbEntity
  8
M1
 62
     7
100
AcDbLine
 10
45.973488
 20
315.383729
 11
46.973488
 21
315.383729
  0
LINE
  5
3E1
100
AcDbEntity
  8
M1
 62
     7
100
AcDbLine
 10
44.673489
 20
313.383729
 11
45.173488
 21
313.383729
  0
LINE
  5
3E2
100
AcDbEntity
  8
M1
 62
     7
100
AcDbLine
 10
44.673489
 20
310.383729
 11
44.673489
 21
313.383729
  0
LINE
  5
3E3
100
AcDbEntity
  8
M1
 62
     7
100
AcDbLine
 10
62.173489
 20
278.383728
 11
71.173488
 21
278.383728
  0
LINE
  5
3E4
100
AcDbEntity
  8
M1
 62
     7
100
AcDbLine
 10
45.173488
 20
310.383729
 11
44.673489
 21
310.383729
  0
LINE
  5
3E5
100
AcDbEntity
  8
M1
 62
     7
100
AcDbLine
 10
88.67349
 20
310.383729
 11
88.67349
 21
313.383729
  0
LINE
  5
3E6
100
AcDbEntity
  8
M1
 62
     7
100
AcDbLine
 10
46.173488
 20
314.383729
 11
45.173488
 21
314.383729
  0
LINE
  5
3E7
100
AcDbEntity
  8
M1
 62
     7
100
AcDbLine
 10
88.67349
 20
313.383729
 11
88.173489
 21
313.383729
  0
ARC
  5
3E8
100
AcDbEntity
  8
M1
 62
     7
100
AcDbCircle
 10
45.173489
 20
308.583729
 40
0.5
100
AcDbArc
 50
293.578178
 51
336.421822
  0
ARC
  5
3E9
100
AcDbEntity
  8
M1
 62
     7
100
AcDbCircle
 10
88.173489
 20
308.583729
 40
0.5
100
AcDbArc
 50
203.578178
 51
246.421822
  0
ARC
  5
3EA
100
AcDbEntity
  8
M1
 62
     7
100
AcDbCircle
 10
60.773489
 20
355.883729
 40
0.5
100
AcDbArc
 50
0.0
 51
90.0
  0
ARC
  5
3EB
100
AcDbEntity
  8
M1
 62
     7
100
AcDbCircle
 10
72.573489
 20
355.883729
 40
0.5
100
AcDbArc
 50
90.0
 51
180.0
  0
ARC
  5
3EC
100
AcDbEntity
  8
M1
 62
     7
100
AcDbCircle
 10
60.773489
 20
355.383729
 40
1.0
100
AcDbArc
 50
90.0
 51
180.0
  0
LINE
  5
3ED
100
AcDbEntity
  8
M1
 62
     7
100
AcDbLine
 10
64.173489
 20
316.361195
 11
64.173489
 21
316.183729
  0
LINE
  5
3EE
100
AcDbEntity
  8
M1
 62
     7
100
AcDbLine
 10
69.173488
 20
306.883729
 11
69.173488
 21
306.983728
  0
ARC
  5
3EF
100
AcDbEntity
  8
M1
 62
     7
100
AcDbCircle
 10
72.573489
 20
355.383729
 40
1.0
100
AcDbArc
 50
0.0
 51
90.0
  0
LINE
  5
3F0
100
AcDbEntity
  8
M1
 62
     7
100
AcDbLine
 10
69.173488
 20
316.361195
 11
69.173488
 21
316.183729
  0
ARC
  5
3F1
100
AcDbEntity
  8
M1
 62
     7
100
AcDbCircle
 10
61.873489
 20
315.683729
 40
0.5
100
AcDbArc
 50
90.0
 51
180.0
  0
ARC
  5
3F2
100
AcDbEntity
  8
M1
 62
     7
100
AcDbCircle
 10
64.423489
 20
315.683729
 40
0.5
100
AcDbArc
 50
0.0
 51
90.0
  0
ARC
  5
3F3
100
AcDbEntity
  8
M1
 62
     7
100
AcDbCircle
 10
61.873489
 20
307.483729
 40
0.5
100
AcDbArc
 50
180.0
 51
270.0
  0
ARC
  5
3F4
100
AcDbEntity
  8
M1
 62
     7
100
AcDbCircle
 10
71.473489
 20
315.683729
 40
0.5
100
AcDbArc
 50
0.0
 51
90.0
  0
ARC
  5
3F5
100
AcDbEntity
  8
M1
 62
     7
100
AcDbCircle
 10
68.923489
 20
315.683729
 40
0.5
100
AcDbArc
 50
90.0
 51
180.0
  0
ARC
  5
3F6
100
AcDbEntity
  8
M1
 62
     7
100
AcDbCircle
 10
71.473489
 20
307.483729
 40
0.5
100
AcDbArc
 50
270.0
 51
360.0
  0
LINE
  5
3F7
100
AcDbEntity
  8
M1
 62
     7
100
AcDbLine
 10
74.37349
 20
346.38373
 11
83.673487
 21
346.38373
  0
LINE
  5
3F8
100
AcDbEntity
  8
M1
 62
     7
100
AcDbLine
 10
83.673487
 20
344.883728
 11
74.37349
 21
344.883728
  0
LINE
  5
3F9
100
AcDbEntity
  8
M1
 62
     7
100
AcDbLine
 10
83.673487
 20
346.38373
 11
83.673487
 21
344.883728
  0
LINE
  5
3FA
100
AcDbEntity
  8
M1
 62
     7
100
AcDbLine
 10
59.773489
 20
354.88373
 11
51.473488
 21
354.88373
  0
LINE
  5
3FB
100
AcDbEntity
  8
M1
 62
     7
100
AcDbLine
 10
81.873487
 20
354.88373
 11
73.573488
 21
354.88373
  0
LINE
  5
3FC
100
AcDbEntity
  8
M1
 62
     7
100
AcDbLine
 10
73.573488
 20
355.383727
 11
73.573488
 21
347.363524
  0
LINE
  5
3FD
100
AcDbEntity
  8
M1
 62
     7
100
AcDbLine
 10
88.173489
 20
310.383729
 11
88.67349
 21
310.383729
  0
LINE
  5
3FE
100
AcDbEntity
  8
M1
 62
     7
100
AcDbLine
 10
72.073489
 20
346.819618
 11
72.073489
 21
355.383727
  0
LINE
  5
3FF
100
AcDbEntity
  8
M1
 62
     7
100
AcDbLine
 10
58.97349
 20
344.883728
 11
49.673489
 21
344.883728
  0
LINE
  5
400
100
AcDbEntity
  8
M1
 62
     7
100
AcDbLine
 10
83.673487
 20
344.883728
 11
83.673487
 21
342.883728
  0
LINE
  5
401
100
AcDbEntity
  8
M1
 62
     7
100
AcDbLine
 10
49.673489
 20
346.38373
 11
58.97349
 21
346.38373
  0
LINE
  5
402
100
AcDbEntity
  8
M1
 62
     7
100
AcDbLine
 10
93.07349
 20
276.383727
 11
85.173489
 21
276.383727
  0
LINE
  5
403
100
AcDbEntity
  8
M1
 62
     7
100
AcDbLine
 10
91.423492
 20
283.883728
 11
91.423492
 21
281.883727
  0
LINE
  5
404
100
AcDbEntity
  8
M1
 62
     7
100
AcDbLine
 10
95.923486
 20
281.883727
 11
95.923486
 21
283.883728
  0
LINE
  5
405
100
AcDbEntity
  8
M1
 62
     7
100
AcDbLine
 10
35.273489
 20
281.38373
 11
35.273489
 21
342.383729
  0
LINE
  5
406
100
AcDbEntity
  8
M1
 62
     7
100
AcDbLine
 10
49.673489
 20
346.38373
 11
49.673489
 21
342.883728
  0
LINE
  5
407
100
AcDbEntity
  8
M1
 62
     7
100
AcDbLine
 10
41.923489
 20
341.883728
 11
41.923489
 21
339.883729
  0
LINE
  5
408
100
AcDbEntity
  8
M1
 62
     7
100
AcDbLine
 10
37.423489
 20
339.883729
 11
37.423489
 21
341.883728
  0
ARC
  5
409
100
AcDbEntity
  8
M1
 62
     7
100
AcDbCircle
 10
86.373489
 20
328.283729
 40
1.0
100
AcDbArc
 50
0.0
 51
90.0
  0
ARC
  5
40A
100
AcDbEntity
  8
M1
 62
     7
100
AcDbCircle
 10
86.373489
 20
295.483729
 40
1.0
100
AcDbArc
 50
270.0
 51
360.0
  0
LINE
  5
40B
100
AcDbEntity
  8
M1
 62
     7
100
AcDbLine
 10
86.373488
 20
308.383729
 11
86.373488
 21
309.383729
  0
LINE
  5
40C
100
AcDbEntity
  8
M1
 62
     7
100
AcDbLine
 10
88.173489
 20
309.383729
 11
86.373488
 21
309.383729
  0
LINE
  5
40D
100
AcDbEntity
  8
M1
 62
     7
100
AcDbLine
 10
67.873488
 20
324.083728
 11
65.473489
 21
324.083728
  0
LINE
  5
40E
100
AcDbEntity
  8
M1
 62
     7
100
AcDbLine
 10
65.473489
 20
325.683728
 11
65.473489
 21
324.083728
  0
LINE
  5
40F
100
AcDbEntity
  8
M1
 62
     7
100
AcDbLine
 10
46.173488
 20
314.383729
 11
46.973488
 21
314.383729
  0
LINE
  5
410
100
AcDbEntity
  8
M1
 62
     7
100
AcDbLine
 10
45.173488
 20
309.383729
 11
46.973488
 21
309.383729
  0
LINE
  5
411
100
AcDbEntity
  8
M1
 62
     7
100
AcDbLine
 10
86.373488
 20
315.383729
 11
86.373488
 21
314.383729
  0
LINE
  5
412
100
AcDbEntity
  8
M1
 62
     7
100
AcDbLine
 10
46.973488
 20
315.383729
 11
46.973488
 21
314.383729
  0
LINE
  5
413
100
AcDbEntity
  8
M1
 62
     7
100
AcDbLine
 10
70.973489
 20
323.083729
 11
62.373488
 21
323.083729
  0
LINE
  5
414
100
AcDbEntity
  8
M1
 62
     7
100
AcDbLine
 10
67.873488
 20
325.683728
 11
65.473489
 21
325.683728
  0
LINE
  5
415
100
AcDbEntity
  8
M1
 62
     7
100
AcDbLine
 10
67.873488
 20
325.683728
 11
67.873488
 21
324.083728
  0
LINE
  5
416
100
AcDbEntity
  8
M1
 62
     7
100
AcDbLine
 10
71.973487
 20
324.083728
 11
75.573488
 21
324.083728
  0
LINE
  5
417
100
AcDbEntity
  8
M1
 62
     7
100
AcDbLine
 10
76.073489
 20
300.183729
 11
76.073489
 21
323.583729
  0
LINE
  5
418
100
AcDbEntity
  8
M1
 62
     7
100
AcDbLine
 10
87.973489
 20
287.18373
 11
88.87349
 21
287.18373
  0
LINE
  5
419
100
AcDbEntity
  8
M1
 62
     7
100
AcDbLine
 10
94.873491
 20
287.18373
 11
95.773491
 21
287.18373
  0
LINE
  5
41A
100
AcDbEntity
  8
M1
 62
     7
100
AcDbLine
 10
44.473489
 20
336.583729
 11
45.373489
 21
336.583729
  0
LINE
  5
41B
100
AcDbEntity
  8
M1
 62
     7
100
AcDbLine
 10
88.87349
 20
336.583729
 11
87.973489
 21
336.583729
  0
LINE
  5
41C
100
AcDbEntity
  8
M1
 62
     7
100
AcDbLine
 10
96.873487
 20
284.183729
 11
96.773486
 21
284.183729
  0
LINE
  5
41D
100
AcDbEntity
  8
M1
 62
     7
100
AcDbLine
 10
95.773491
 20
336.583729
 11
94.873491
 21
336.583729
  0
LINE
  5
41E
100
AcDbEntity
  8
M1
 62
     7
100
AcDbLine
 10
96.873487
 20
339.583728
 11
96.773486
 21
339.583728
  0
LINE
  5
41F
100
AcDbEntity
  8
M1
 62
     7
100
AcDbLine
 10
37.573488
 20
336.583729
 11
38.473489
 21
336.583729
  0
ARC
  5
420
100
AcDbEntity
  8
M1
 62
     7
100
AcDbCircle
 10
49.673489
 20
277.383729
 40
1.0
100
AcDbArc
 50
180.0
 51
270.0
  0
LINE
  5
421
100
AcDbEntity
  8
M1
 62
     7
100
AcDbLine
 10
49.673489
 20
276.383727
 11
57.673489
 21
276.383727
  0
LINE
  5
422
100
AcDbEntity
  8
M1
 62
     7
100
AcDbLine
 10
36.473488
 20
284.183729
 11
36.573488
 21
284.183729
  0
LINE
  5
423
100
AcDbEntity
  8
M1
 62
     7
100
AcDbLine
 10
45.373489
 20
287.18373
 11
44.473489
 21
287.18373
  0
LINE
  5
424
100
AcDbEntity
  8
M1
 62
     7
100
AcDbLine
 10
38.473489
 20
287.18373
 11
37.573488
 21
287.18373
  0
ARC
  5
425
100
AcDbEntity
  8
M1
 62
     7
100
AcDbCircle
 10
71.973489
 20
323.583729
 40
0.5
100
AcDbArc
 50
90.0
 51
180.0
  0
ARC
  5
426
100
AcDbEntity
  8
M1
 62
     7
100
AcDbCircle
 10
75.573489
 20
323.583729
 40
0.5
100
AcDbArc
 50
0.0
 51
90.0
  0
ARC
  5
427
100
AcDbEntity
  8
M1
 62
     7
100
AcDbCircle
 10
62.373489
 20
323.583729
 40
0.5
100
AcDbArc
 50
180.0
 51
270.0
  0
ARC
  5
428
100
AcDbEntity
  8
M1
 62
     7
100
AcDbCircle
 10
70.973489
 20
323.583729
 40
0.5
100
AcDbArc
 50
270.0
 51
360.0
  0
LINE
  5
429
100
AcDbEntity
  8
M1
 62
     7
100
AcDbLine
 10
36.473488
 20
339.583728
 11
36.573488
 21
339.583728
  0
ARC
  5
42A
100
AcDbEntity
  8
M1
 62
     7
100
AcDbCircle
 10
46.973489
 20
328.283729
 40
1.0
100
AcDbArc
 50
90.0
 51
180.0
  0
ARC
  5
42B
100
AcDbEntity
  8
M1
 62
     7
100
AcDbCircle
 10
46.973489
 20
295.483729
 40
1.0
100
AcDbArc
 50
180.0
 51
270.0
  0
ARC
  5
42C
100
AcDbEntity
  8
M1
 62
     7
100
AcDbCircle
 10
71.173489
 20
278.883729
 40
0.5
100
AcDbArc
 50
270.0
 51
360.0
  0
ARC
  5
42D
100
AcDbEntity
  8
M1
 62
     7
100
AcDbCircle
 10
71.673489
 20
278.383729
 40
2.0
100
AcDbArc
 50
270.0
 51
292.57935
  0
ARC
  5
42E
100
AcDbEntity
  8
M1
 62
     7
100
AcDbCircle
 10
57.773489
 20
323.583729
 40
0.5
100
AcDbArc
 50
90.0
 51
180.0
  0
ARC
  5
42F
100
AcDbEntity
  8
M1
 62
     7
100
AcDbCircle
 10
61.373489
 20
323.583729
 40
0.5
100
AcDbArc
 50
0.0
 51
90.0
  0
ARC
  5
430
100
AcDbEntity
  8
M1
 62
     7
100
AcDbCircle
 10
75.573489
 20
300.183729
 40
0.5
100
AcDbArc
 50
270.0
 51
360.0
  0
ARC
  5
431
100
AcDbEntity
  8
M1
 62
     7
100
AcDbCircle
 10
57.773489
 20
300.183729
 40
0.5
100
AcDbArc
 50
180.0
 51
270.0
  0
ARC
  5
432
100
AcDbEntity
  8
M1
 62
     7
100
AcDbCircle
 10
50.555758
 20
355.783729
 40
0.6
100
AcDbArc
 50
90.0
 51
178.281642
  0
ARC
  5
433
100
AcDbEntity
  8
M1
 62
     7
100
AcDbCircle
 10
50.873489
 20
355.783729
 40
0.6
100
AcDbArc
 50
0.0
 51
90.0
  0
ARC
  5
434
100
AcDbEntity
  8
M1
 62
     7
100
AcDbCircle
 10
61.673489
 20
278.383729
 40
2.0
100
AcDbArc
 50
247.42065
 51
270.0
  0
ARC
  5
435
100
AcDbEntity
  8
M1
 62
     7
100
AcDbCircle
 10
62.173489
 20
278.883729
 40
0.5
100
AcDbArc
 50
180.0
 51
270.0
  0
ARC
  5
436
100
AcDbEntity
  8
M1
 62
     7
100
AcDbCircle
 10
82.473489
 20
355.783729
 40
0.6
100
AcDbArc
 50
90.0
 51
180.0
  0
LINE
  5
437
100
AcDbEntity
  8
M1
 62
     7
100
AcDbLine
 10
51.473488
 20
355.78373
 11
51.473488
 21
346.38373
  0
LINE
  5
438
100
AcDbEntity
  8
M1
 62
     7
100
AcDbLine
 10
49.673489
 20
346.38373
 11
49.884028
 21
353.40172
  0
LINE
  5
439
100
AcDbEntity
  8
M1
 62
     7
100
AcDbLine
 10
50.555759
 20
356.383729
 11
50.873489
 21
356.383729
  0
ARC
  5
43A
100
AcDbEntity
  8
M1
 62
     7
100
AcDbCircle
 10
82.791219
 20
355.783729
 40
0.6
100
AcDbArc
 50
1.718358
 51
90.0
  0
LINE
  5
43B
100
AcDbEntity
  8
M1
 62
     7
100
AcDbLine
 10
87.373487
 20
315.383729
 11
86.373488
 21
315.383729
  0
LINE
  5
43C
100
AcDbEntity
  8
M1
 62
     7
100
AcDbLine
 10
88.173489
 20
309.383729
 11
88.173489
 21
314.383729
  0
LINE
  5
43D
100
AcDbEntity
  8
M1
 62
     7
100
AcDbLine
 10
86.373488
 20
294.483728
 11
46.973488
 21
294.483728
  0
LINE
  5
43E
100
AcDbEntity
  8
M1
 62
     7
100
AcDbLine
 10
87.373487
 20
308.383729
 11
86.373488
 21
308.383729
  0
LINE
  5
43F
100
AcDbEntity
  8
M1
 62
     7
100
AcDbLine
 10
87.373487
 20
277.383729
 11
87.373487
 21
308.383729
  0
LINE
  5
440
100
AcDbEntity
  8
M1
 62
     7
100
AcDbLine
 10
46.973488
 20
308.383729
 11
46.973488
 21
309.383729
  0
LINE
  5
441
100
AcDbEntity
  8
M1
 62
     7
100
AcDbLine
 10
72.073489
 20
355.383727
 11
72.073489
 21
355.883728
  0
LINE
  5
442
100
AcDbEntity
  8
M1
 62
     7
100
AcDbLine
 10
61.273488
 20
354.88373
 11
62.373488
 21
354.88373
  0
LINE
  5
443
100
AcDbEntity
  8
M1
 62
     7
100
AcDbLine
 10
71.973487
 20
307.483729
 11
71.973487
 21
315.683729
  0
LINE
  5
444
100
AcDbEntity
  8
M1
 62
     7
100
AcDbLine
 10
70.973489
 20
354.88373
 11
72.073489
 21
354.88373
  0
LINE
  5
445
100
AcDbEntity
  8
M1
 62
     7
100
AcDbLine
 10
61.273488
 20
355.383727
 11
61.273488
 21
346.819618
  0
LINE
  5
446
100
AcDbEntity
  8
M1
 62
     7
100
AcDbLine
 10
59.773489
 20
347.363524
 11
59.773489
 21
355.383727
  0
LINE
  5
447
100
AcDbEntity
  8
M1
 62
     7
100
AcDbLine
 10
61.273488
 20
355.883728
 11
61.273488
 21
355.383727
  0
LINE
  5
448
100
AcDbEntity
  8
M1
 62
     7
100
AcDbLine
 10
70.473488
 20
316.483729
 11
70.473488
 21
316.183729
  0
LINE
  5
449
100
AcDbEntity
  8
M1
 62
     7
100
AcDbLine
 10
71.973487
 20
315.683729
 11
71.973487
 21
316.483729
  0
LINE
  5
44A
100
AcDbEntity
  8
M1
 62
     7
100
AcDbLine
 10
62.873489
 20
316.483729
 11
62.873489
 21
316.183729
  0
LINE
  5
44B
100
AcDbEntity
  8
M1
 62
     7
100
AcDbLine
 10
70.473488
 20
306.983728
 11
70.473488
 21
306.883729
  0
LINE
  5
44C
100
AcDbEntity
  8
M1
 62
     7
100
AcDbLine
 10
61.37349
 20
310.083729
 11
60.873489
 21
310.083729
  0
LINE
  5
44D
100
AcDbEntity
  8
M1
 62
     7
100
AcDbLine
 10
71.973487
 20
310.083729
 11
72.473488
 21
310.083729
  0
LINE
  5
44E
100
AcDbEntity
  8
M1
 62
     7
100
AcDbLine
 10
71.973487
 20
306.883729
 11
71.973487
 21
307.483729
  0
LINE
  5
44F
100
AcDbEntity
  8
M1
 62
     7
100
AcDbLine
 10
60.873489
 20
313.083729
 11
61.37349
 21
313.083729
  0
LINE
  5
450
100
AcDbEntity
  8
M1
 62
     7
100
AcDbLine
 10
64.173489
 20
316.361195
 11
64.173489
 21
316.483729
  0
LINE
  5
451
100
AcDbEntity
  8
M1
 62
     7
100
AcDbLine
 10
45.373489
 20
308.083728
 11
45.973488
 21
308.083728
  0
LINE
  5
452
100
AcDbEntity
  8
M1
 62
     7
100
AcDbLine
 10
64.173489
 20
306.883729
 11
64.173489
 21
306.983728
  0
LINE
  5
453
100
AcDbEntity
  8
M1
 62
     7
100
AcDbLine
 10
69.173488
 20
316.361195
 11
69.173488
 21
316.483729
  0
LINE
  5
454
100
AcDbEntity
  8
M1
 62
     7
100
AcDbLine
 10
61.37349
 20
306.883729
 11
61.37349
 21
307.483729
  0
LINE
  5
455
100
AcDbEntity
  8
M1
 62
     7
100
AcDbLine
 10
62.873489
 20
306.983728
 11
62.873489
 21
306.883729
  0
LINE
  5
456
100
AcDbEntity
  8
M1
 62
     7
100
AcDbLine
 10
87.973489
 20
308.083728
 11
87.373487
 21
308.083728
  0
LINE
  5
457
100
AcDbEntity
  8
M1
 62
     7
100
AcDbLine
 10
68.42349
 20
315.683729
 11
68.42349
 21
308.483729
  0
LINE
  5
458
100
AcDbEntity
  8
M1
 62
     7
100
AcDbLine
 10
64.923487
 20
315.683729
 11
64.923487
 21
308.483729
  0
LINE
  5
459
100
AcDbEntity
  8
M1
 62
     7
100
AcDbLine
 10
61.873487
 20
316.183729
 11
64.423489
 21
316.183729
  0
LINE
  5
45A
100
AcDbEntity
  8
M1
 62
     7
100
AcDbLine
 10
71.47349
 20
306.983728
 11
61.873487
 21
306.983728
  0
LINE
  5
45B
100
AcDbEntity
  8
M1
 62
     7
100
AcDbLine
 10
71.47349
 20
316.183729
 11
68.923487
 21
316.183729
  0
LINE
  5
45C
100
AcDbEntity
  8
M1
 62
     7
100
AcDbLine
 10
64.923487
 20
308.483729
 11
68.42349
 21
308.483729
  0
LINE
  5
45D
100
AcDbEntity
  8
M1
 62
     7
100
AcDbLine
 10
57.273489
 20
316.183729
 11
57.473489
 21
316.183729
  0
LINE
  5
45E
100
AcDbEntity
  8
M1
 62
     7
100
AcDbLine
 10
57.473489
 20
306.983728
 11
57.273489
 21
306.983728
  0
LINE
  5
45F
100
AcDbEntity
  8
M1
 62
     7
100
AcDbLine
 10
61.37349
 20
315.683729
 11
61.37349
 21
316.483729
  0
LINE
  5
460
100
AcDbEntity
  8
M1
 62
     7
100
AcDbLine
 10
72.473488
 20
313.083729
 11
71.973487
 21
313.083729
  0
LINE
  5
461
100
AcDbEntity
  8
M1
 62
     7
100
AcDbLine
 10
62.67349
 20
316.183729
 11
70.673487
 21
316.183729
  0
LINE
  5
462
100
AcDbEntity
  8
M1
 62
     7
100
AcDbLine
 10
61.37349
 20
307.483729
 11
61.37349
 21
315.683729
  0
LINE
  5
463
100
AcDbEntity
  8
M1
 62
     7
100
AcDbLine
 10
76.073489
 20
316.183729
 11
75.87349
 21
316.183729
  0
LINE
  5
464
100
AcDbEntity
  8
M1
 62
     7
100
AcDbLine
 10
75.87349
 20
306.983728
 11
76.073489
 21
306.983728
  0
LINE
  5
465
100
AcDbEntity
  8
M1
 62
     7
100
AcDbLine
 10
97.073491
 20
331.983728
 11
96.773486
 21
331.983728
  0
ARC
  5
466
100
AcDbEntity
  8
M1
 62
     7
100
AcDbCircle
 10
59.973489
 20
346.383729
 40
1.0
100
AcDbArc
 50
90.0
 51
180.0
  0
LINE
  5
467
100
AcDbEntity
  8
M1
 62
     7
100
AcDbLine
 10
96.773486
 20
308.183729
 11
97.073491
 21
308.183729
  0
LINE
  5
468
100
AcDbEntity
  8
M1
 62
     7
100
AcDbLine
 10
97.073491
 20
315.583729
 11
96.773486
 21
315.583729
  0
ARC
  5
469
100
AcDbEntity
  8
M1
 62
     7
100
AcDbCircle
 10
72.973489
 20
346.383729
 40
1.0
100
AcDbArc
 50
90.0
 51
180.0
  0
ARC
  5
46A
100
AcDbEntity
  8
M1
 62
     7
100
AcDbCircle
 10
72.973489
 20
277.383729
 40
1.0
100
AcDbArc
 50
180.0
 51
270.0
  0
ARC
  5
46B
100
AcDbEntity
  8
M1
 62
     7
100
AcDbCircle
 10
60.373489
 20
346.383729
 40
1.0
100
AcDbArc
 50
0.0
 51
90.0
  0
ARC
  5
46C
100
AcDbEntity
  8
M1
 62
     7
100
AcDbCircle
 10
60.373489
 20
277.383729
 40
1.0
100
AcDbArc
 50
270.0
 51
360.0
  0
LINE
  5
46D
100
AcDbEntity
  8
M1
 62
     7
100
AcDbLine
 10
75.87349
 20
304.383728
 11
75.87349
 21
317.983729
  0
LINE
  5
46E
100
AcDbEntity
  8
M1
 62
     7
100
AcDbLine
 10
74.873487
 20
323.883729
 11
73.373488
 21
323.883729
  0
LINE
  5
46F
100
AcDbEntity
  8
M1
 62
     7
100
AcDbLine
 10
74.873487
 20
299.883728
 11
74.37349
 21
299.883728
  0
LINE
  5
470
100
AcDbEntity
  8
M1
 62
     7
100
AcDbLine
 10
96.773486
 20
291.783729
 11
97.073491
 21
291.783729
  0
LINE
  5
471
100
AcDbEntity
  8
M1
 62
     7
100
AcDbLine
 10
95.773491
 20
338.583729
 11
95.773491
 21
316.583729
  0
LINE
  5
472
100
AcDbEntity
  8
M1
 62
     7
100
AcDbLine
 10
60.373488
 20
276.383727
 11
59.973489
 21
276.383727
  0
LINE
  5
473
100
AcDbEntity
  8
M1
 62
     7
100
AcDbLine
 10
59.973489
 20
292.983729
 11
60.373488
 21
292.983729
  0
LINE
  5
474
100
AcDbEntity
  8
M1
 62
     7
100
AcDbLine
 10
60.373488
 20
292.983729
 11
61.37349
 21
292.983729
  0
ARC
  5
475
100
AcDbEntity
  8
M1
 62
     7
100
AcDbCircle
 10
73.373489
 20
346.383729
 40
1.0
100
AcDbArc
 50
0.0
 51
90.0
  0
ARC
  5
476
100
AcDbEntity
  8
M1
 62
     7
100
AcDbCircle
 10
85.973489
 20
346.383729
 40
1.0
100
AcDbArc
 50
90.0
 51
180.0
  0
LINE
  5
477
100
AcDbEntity
  8
M1
 62
     7
100
AcDbLine
 10
95.773491
 20
307.183729
 11
95.773491
 21
285.183729
  0
ARC
  5
478
100
AcDbEntity
  8
M1
 62
     7
100
AcDbCircle
 10
73.373489
 20
277.383729
 40
1.0
100
AcDbArc
 50
270.0
 51
360.0
  0
ARC
  5
479
100
AcDbEntity
  8
M1
 62
     7
100
AcDbCircle
 10
86.373489
 20
277.383729
 40
1.0
100
AcDbArc
 50
270.0
 51
360.0
  0
LINE
  5
47A
100
AcDbEntity
  8
M1
 62
     7
100
AcDbLine
 10
59.973489
 20
347.38373
 11
60.373488
 21
347.38373
  0
ARC
  5
47B
100
AcDbEntity
  8
M1
 62
     7
100
AcDbCircle
 10
85.973489
 20
277.383729
 40
1.0
100
AcDbArc
 50
180.0
 51
270.0
  0
ARC
  5
47C
100
AcDbEntity
  8
M1
 62
     7
100
AcDbCircle
 10
86.373489
 20
346.383729
 40
1.0
100
AcDbArc
 50
0.0
 51
90.0
  0
LINE
  5
47D
100
AcDbEntity
  8
M1
 62
     7
100
AcDbLine
 10
97.073491
 20
315.583729
 11
97.073491
 21
308.183729
  0
LINE
  5
47E
100
AcDbEntity
  8
M1
 62
     7
100
AcDbLine
 10
89.373487
 20
307.883729
 11
89.373487
 21
315.883729
  0
LINE
  5
47F
100
AcDbEntity
  8
M1
 62
     7
100
AcDbLine
 10
87.373487
 20
307.883729
 11
89.373487
 21
307.883729
  0
LINE
  5
480
100
AcDbEntity
  8
M1
 62
     7
100
AcDbLine
 10
36.273489
 20
308.183729
 11
36.573488
 21
308.183729
  0
LINE
  5
481
100
AcDbEntity
  8
M1
 62
     7
100
AcDbLine
 10
36.273489
 20
331.983728
 11
36.573488
 21
331.983728
  0
LINE
  5
482
100
AcDbEntity
  8
M1
 62
     7
100
AcDbLine
 10
95.773491
 20
315.583729
 11
95.773491
 21
308.183729
  0
LINE
  5
483
100
AcDbEntity
  8
M1
 62
     7
100
AcDbLine
 10
95.773491
 20
308.183729
 11
92.773485
 21
308.183729
  0
LINE
  5
484
100
AcDbEntity
  8
M1
 62
     7
100
AcDbLine
 10
36.273489
 20
315.583729
 11
36.273489
 21
308.183729
  0
LINE
  5
485
100
AcDbEntity
  8
M1
 62
     7
100
AcDbLine
 10
92.773485
 20
315.583729
 11
95.773491
 21
315.583729
  0
LINE
  5
486
100
AcDbEntity
  8
M1
 62
     7
100
AcDbLine
 10
86.47349
 20
315.383729
 11
86.47349
 21
314.383729
  0
LINE
  5
487
100
AcDbEntity
  8
M1
 62
     7
100
AcDbLine
 10
87.373487
 20
315.883729
 11
89.373487
 21
315.883729
  0
LINE
  5
488
100
AcDbEntity
  8
M1
 62
     7
100
AcDbLine
 10
92.773485
 20
308.183729
 11
92.773485
 21
315.583729
  0
LINE
  5
489
100
AcDbEntity
  8
M1
 62
     7
100
AcDbLine
 10
58.473489
 20
323.883729
 11
59.973489
 21
323.883729
  0
LINE
  5
48A
100
AcDbEntity
  8
M1
 62
     7
100
AcDbLine
 10
57.473489
 20
304.383728
 11
57.473489
 21
317.983729
  0
LINE
  5
48B
100
AcDbEntity
  8
M1
 62
     7
100
AcDbLine
 10
58.473489
 20
299.883728
 11
58.97349
 21
299.883728
  0
LINE
  5
48C
100
AcDbEntity
  8
M1
 62
     7
100
AcDbLine
 10
61.623487
 20
322.883728
 11
71.72349
 21
322.883728
  0
LINE
  5
48D
100
AcDbEntity
  8
M1
 62
     7
100
AcDbLine
 10
72.223487
 20
316.483729
 11
61.123489
 21
316.483729
  0
LINE
  5
48E
100
AcDbEntity
  8
M1
 62
     7
100
AcDbLine
 10
61.623487
 20
317.983729
 11
71.72349
 21
317.983729
  0
LINE
  5
48F
100
AcDbEntity
  8
M1
 62
     7
100
AcDbLine
 10
71.72349
 20
321.383729
 11
61.623487
 21
321.383729
  0
LINE
  5
490
100
AcDbEntity
  8
M1
 62
     7
100
AcDbLine
 10
36.573488
 20
315.583729
 11
36.273489
 21
315.583729
  0
LINE
  5
491
100
AcDbEntity
  8
M1
 62
     7
100
AcDbLine
 10
86.47349
 20
309.383729
 11
86.47349
 21
308.383729
  0
LINE
  5
492
100
AcDbEntity
  8
M1
 62
     7
100
AcDbLine
 10
36.573488
 20
291.783729
 11
36.273489
 21
291.783729
  0
LINE
  5
493
100
AcDbEntity
  8
M1
 62
     7
100
AcDbLine
 10
37.573488
 20
338.583729
 11
37.573488
 21
316.583729
  0
LINE
  5
494
100
AcDbEntity
  8
M1
 62
     7
100
AcDbLine
 10
87.973489
 20
308.883729
 11
87.973489
 21
307.883729
  0
LINE
  5
495
100
AcDbEntity
  8
M1
 62
     7
100
AcDbLine
 10
87.973489
 20
315.883729
 11
87.973489
 21
314.883729
  0
LINE
  5
496
100
AcDbEntity
  8
M1
 62
     7
100
AcDbLine
 10
37.573488
 20
321.183729
 11
45.973488
 21
321.183729
  0
LINE
  5
497
100
AcDbEntity
  8
M1
 62
     7
100
AcDbLine
 10
87.973489
 20
308.883729
 11
88.273487
 21
308.883729
  0
LINE
  5
498
100
AcDbEntity
  8
M1
 62
     7
100
AcDbLine
 10
88.273487
 20
314.883729
 11
88.273487
 21
313.383729
  0
LINE
  5
499
100
AcDbEntity
  8
M1
 62
     7
100
AcDbLine
 10
87.373487
 20
302.583729
 11
95.773491
 21
302.583729
  0
LINE
  5
49A
100
AcDbEntity
  8
M1
 62
     7
100
AcDbLine
 10
88.273487
 20
314.883729
 11
87.973489
 21
314.883729
  0
LINE
  5
49B
100
AcDbEntity
  8
M1
 62
     7
100
AcDbLine
 10
88.273487
 20
310.383729
 11
88.273487
 21
308.883729
  0
LINE
  5
49C
100
AcDbEntity
  8
M1
 62
     7
100
AcDbLine
 10
45.073488
 20
310.383729
 11
45.073488
 21
308.883729
  0
LINE
  5
49D
100
AcDbEntity
  8
M1
 62
     7
100
AcDbLine
 10
45.073488
 20
314.883729
 11
45.073488
 21
313.383729
  0
LINE
  5
49E
100
AcDbEntity
  8
M1
 62
     7
100
AcDbLine
 10
45.373489
 20
308.883729
 11
45.073488
 21
308.883729
  0
LINE
  5
49F
100
AcDbEntity
  8
M1
 62
     7
100
AcDbLine
 10
45.373489
 20
308.883729
 11
45.373489
 21
307.883729
  0
LINE
  5
4A0
100
AcDbEntity
  8
M1
 62
     7
100
AcDbLine
 10
45.973488
 20
302.583729
 11
37.573488
 21
302.583729
  0
LINE
  5
4A1
100
AcDbEntity
  8
M1
 62
     7
100
AcDbLine
 10
45.073488
 20
314.883729
 11
45.373489
 21
314.883729
  0
ARC
  5
4A2
100
AcDbEntity
  8
M1
 62
     7
100
AcDbCircle
 10
47.373489
 20
346.383729
 40
1.0
100
AcDbArc
 50
0.0
 51
90.0
  0
ARC
  5
4A3
100
AcDbEntity
  8
M1
 62
     7
100
AcDbCircle
 10
59.973489
 20
277.383729
 40
1.0
100
AcDbArc
 50
180.0
 51
270.0
  0
ARC
  5
4A4
100
AcDbEntity
  8
M1
 62
     7
100
AcDbCircle
 10
46.973489
 20
346.383729
 40
1.0
100
AcDbArc
 50
90.0
 51
180.0
  0
ARC
  5
4A5
100
AcDbEntity
  8
M1
 62
     7
100
AcDbCircle
 10
47.373489
 20
277.383729
 40
1.0
100
AcDbArc
 50
270.0
 51
360.0
  0
LINE
  5
4A6
100
AcDbEntity
  8
M1
 62
     7
100
AcDbLine
 10
47.373488
 20
276.383727
 11
47.173488
 21
276.383727
  0
LINE
  5
4A7
100
AcDbEntity
  8
M1
 62
     7
100
AcDbLine
 10
46.973489
 20
347.38373
 11
47.373488
 21
347.38373
  0
LINE
  5
4A8
100
AcDbEntity
  8
M1
 62
     7
100
AcDbLine
 10
76.073489
 20
317.183729
 11
75.87349
 21
317.183729
  0
ARC
  5
4A9
100
AcDbEntity
  8
M1
 62
     7
100
AcDbCircle
 10
45.973489
 20
292.383729
 40
0.6
100
AcDbArc
 50
180.0
 51
270.0
  0
LINE
  5
4AA
100
AcDbEntity
  8
M1
 62
     7
100
AcDbLine
 10
45.373489
 20
315.883729
 11
45.373489
 21
314.883729
  0
LINE
  5
4AB
100
AcDbEntity
  8
M1
 62
     7
100
AcDbLine
 10
95.773491
 20
321.183729
 11
87.373487
 21
321.183729
  0
ARC
  5
4AC
100
AcDbEntity
  8
M1
 62
     7
100
AcDbCircle
 10
87.373489
 20
292.383729
 40
0.6
100
AcDbArc
 50
270.0
 51
360.0
  0
ARC
  5
4AD
100
AcDbEntity
  8
M1
 62
     7
100
AcDbCircle
 10
46.973489
 20
277.383729
 40
1.0
100
AcDbArc
 50
180.0
 51
270.0
  0
ARC
  5
4AE
100
AcDbEntity
  8
M1
 62
     7
100
AcDbCircle
 10
45.973489
 20
331.383729
 40
0.6
100
AcDbArc
 50
90.0
 51
180.0
  0
ARC
  5
4AF
100
AcDbEntity
  8
M1
 62
     7
100
AcDbCircle
 10
87.373489
 20
331.383729
 40
0.6
100
AcDbArc
 50
0.0
 51
90.0
  0
LINE
  5
4B0
100
AcDbEntity
  8
M1
 62
     7
100
AcDbLine
 10
74.37349
 20
330.783729
 11
71.973487
 21
330.783729
  0
LINE
  5
4B1
100
AcDbEntity
  8
M1
 62
     7
100
AcDbLine
 10
74.37349
 20
292.983729
 11
73.373488
 21
292.983729
  0
LINE
  5
4B2
100
AcDbEntity
  8
M1
 62
     7
100
AcDbLine
 10
72.973489
 20
276.383727
 11
73.373488
 21
276.383727
  0
LINE
  5
4B3
100
AcDbEntity
  8
M1
 62
     7
100
AcDbLine
 10
72.973489
 20
292.983729
 11
71.973487
 21
292.983729
  0
LINE
  5
4B4
100
AcDbEntity
  8
M1
 62
     7
100
AcDbLine
 10
73.373488
 20
292.983729
 11
72.973489
 21
292.983729
  0
LINE
  5
4B5
100
AcDbEntity
  8
M1
 62
     7
100
AcDbLine
 10
87.373487
 20
315.383729
 11
87.373487
 21
346.38373
  0
LINE
  5
4B6
100
AcDbEntity
  8
M1
 62
     7
100
AcDbLine
 10
73.373488
 20
347.38373
 11
72.973489
 21
347.38373
  0
LINE
  5
4B7
100
AcDbEntity
  8
M1
 62
     7
100
AcDbLine
 10
84.973487
 20
294.483728
 11
84.973487
 21
277.383729
  0
ARC
  5
4B8
100
AcDbEntity
  8
M1
 62
     7
100
AcDbCircle
 10
60.623489
 20
300.383729
 40
0.5
100
AcDbArc
 50
270.0
 51
360.0
  0
ARC
  5
4B9
100
AcDbEntity
  8
M1
 62
     7
100
AcDbCircle
 10
72.723489
 20
300.383729
 40
0.5
100
AcDbArc
 50
180.0
 51
270.0
  0
ARC
  5
4BA
100
AcDbEntity
  8
M1
 62
     7
100
AcDbCircle
 10
60.623489
 20
322.883729
 40
1.0
100
AcDbArc
 50
0.0
 51
90.0
  0
ARC
  5
4BB
100
AcDbEntity
  8
M1
 62
     7
100
AcDbCircle
 10
61.123489
 20
316.983729
 40
0.5
100
AcDbArc
 50
270.0
 51
360.0
  0
ARC
  5
4BC
100
AcDbEntity
  8
M1
 62
     7
100
AcDbCircle
 10
74.873489
 20
300.883729
 40
1.0
100
AcDbArc
 50
270.0
 51
360.0
  0
ARC
  5
4BD
100
AcDbEntity
  8
M1
 62
     7
100
AcDbCircle
 10
74.873489
 20
304.383729
 40
1.0
100
AcDbArc
 50
0.0
 51
90.0
  0
ARC
  5
4BE
100
AcDbEntity
  8
M1
 62
     7
100
AcDbCircle
 10
72.723489
 20
322.883729
 40
1.0
100
AcDbArc
 50
90.0
 51
180.0
  0
ARC
  5
4BF
100
AcDbEntity
  8
M1
 62
     7
100
AcDbCircle
 10
72.223489
 20
316.983729
 40
0.5
100
AcDbArc
 50
180.0
 51
270.0
  0
ARC
  5
4C0
100
AcDbEntity
  8
M1
 62
     7
100
AcDbCircle
 10
97.073489
 20
316.583729
 40
1.0
100
AcDbArc
 50
270.0
 51
360.0
  0
ARC
  5
4C1
100
AcDbEntity
  8
M1
 62
     7
100
AcDbCircle
 10
97.073489
 20
330.983729
 40
1.0
100
AcDbArc
 50
0.0
 51
90.0
  0
ARC
  5
4C2
100
AcDbEntity
  8
M1
 62
     7
100
AcDbCircle
 10
58.473489
 20
322.883729
 40
1.0
100
AcDbArc
 50
90.0
 51
180.0
  0
ARC
  5
4C3
100
AcDbEntity
  8
M1
 62
     7
100
AcDbCircle
 10
58.473489
 20
300.883729
 40
1.0
100
AcDbArc
 50
180.0
 51
270.0
  0
ARC
  5
4C4
100
AcDbEntity
  8
M1
 62
     7
100
AcDbCircle
 10
97.073489
 20
292.783729
 40
1.0
100
AcDbArc
 50
270.0
 51
360.0
  0
LINE
  5
4C5
100
AcDbEntity
  8
M1
 62
     7
100
AcDbLine
 10
72.223487
 20
305.383728
 11
61.123489
 21
305.383728
  0
LINE
  5
4C6
100
AcDbEntity
  8
M1
 62
     7
100
AcDbLine
 10
61.123489
 20
301.383729
 11
72.223487
 21
301.383729
  0
LINE
  5
4C7
100
AcDbEntity
  8
M1
 62
     7
100
AcDbLine
 10
61.123489
 20
306.883729
 11
72.223487
 21
306.883729
  0
LINE
  5
4C8
100
AcDbEntity
  8
M1
 62
     7
100
AcDbLine
 10
57.473489
 20
317.983729
 11
57.473489
 21
322.883728
  0
LINE
  5
4C9
100
AcDbEntity
  8
M1
 62
     7
100
AcDbLine
 10
58.97349
 20
316.483729
 11
57.473489
 21
317.983729
  0
LINE
  5
4CA
100
AcDbEntity
  8
M1
 62
     7
100
AcDbLine
 10
57.473489
 20
300.883729
 11
57.473489
 21
304.383728
  0
ARC
  5
4CB
100
AcDbEntity
  8
M1
 62
     7
100
AcDbCircle
 10
49.573489
 20
295.183729
 40
1.0
100
AcDbArc
 50
270.0
 51
315.572996
  0
ARC
  5
4CC
100
AcDbEntity
  8
M1
 62
     7
100
AcDbCircle
 10
57.773489
 20
295.183729
 40
1.0
100
AcDbArc
 50
224.427004
 51
270.0
  0
ARC
  5
4CD
100
AcDbEntity
  8
M1
 62
     7
100
AcDbCircle
 10
58.473489
 20
304.383729
 40
1.0
100
AcDbArc
 50
90.0
 51
180.0
  0
ARC
  5
4CE
100
AcDbEntity
  8
M1
 62
     7
100
AcDbCircle
 10
74.873489
 20
322.883729
 40
1.0
100
AcDbArc
 50
0.0
 51
90.0
  0
LINE
  5
4CF
100
AcDbEntity
  8
M1
 62
     7
100
AcDbLine
 10
98.073485
 20
342.383729
 11
98.073485
 21
281.383729
  0
ARC
  5
4D0
100
AcDbEntity
  8
M1
 62
     7
100
AcDbCircle
 10
83.773489
 20
328.583729
 40
1.0
100
AcDbArc
 50
90.0
 51
135.572996
  0
LINE
  5
4D1
100
AcDbEntity
  8
M1
 62
     7
100
AcDbLine
 10
70.773489
 20
329.583728
 11
71.973487
 21
329.583728
  0
LINE
  5
4D2
100
AcDbEntity
  8
M1
 62
     7
100
AcDbLine
 10
83.773489
 20
294.183729
 11
84.973487
 21
294.183729
  0
LINE
  5
4D3
100
AcDbEntity
  8
M1
 62
     7
100
AcDbLine
 10
75.573488
 20
294.183729
 11
74.37349
 21
294.183729
  0
LINE
  5
4D4
100
AcDbEntity
  8
M1
 62
     7
100
AcDbLine
 10
95.773491
 20
328.983728
 11
87.973489
 21
328.983728
  0
LINE
  5
4D5
100
AcDbEntity
  8
M1
 62
     7
100
AcDbLine
 10
62.573488
 20
329.583728
 11
61.37349
 21
329.583728
  0
LINE
  5
4D6
100
AcDbEntity
  8
M1
 62
     7
100
AcDbLine
 10
74.37349
 20
282.883729
 11
84.973487
 21
282.883729
  0
LINE
  5
4D7
100
AcDbEntity
  8
M1
 62
     7
100
AcDbLine
 10
71.973487
 20
340.88373
 11
61.37349
 21
340.88373
  0
ARC
  5
4D8
100
AcDbEntity
  8
M1
 62
     7
100
AcDbCircle
 10
36.573489
 20
330.983729
 40
1.0
100
AcDbArc
 50
0.0
 51
90.0
  0
ARC
  5
4D9
100
AcDbEntity
  8
M1
 62
     7
100
AcDbCircle
 10
36.573489
 20
307.183729
 40
1.0
100
AcDbArc
 50
0.0
 51
90.0
  0
ARC
  5
4DA
100
AcDbEntity
  8
M1
 62
     7
100
AcDbCircle
 10
36.273489
 20
316.583729
 40
1.0
100
AcDbArc
 50
180.0
 51
270.0
  0
ARC
  5
4DB
100
AcDbEntity
  8
M1
 62
     7
100
AcDbCircle
 10
36.273489
 20
330.983729
 40
1.0
100
AcDbArc
 50
90.0
 51
180.0
  0
ARC
  5
4DC
100
AcDbEntity
  8
M1
 62
     7
100
AcDbCircle
 10
96.773489
 20
292.783729
 40
1.0
100
AcDbArc
 50
180.0
 51
270.0
  0
ARC
  5
4DD
100
AcDbEntity
  8
M1
 62
     7
100
AcDbCircle
 10
96.773489
 20
316.583729
 40
1.0
100
AcDbArc
 50
180.0
 51
270.0
  0
ARC
  5
4DE
100
AcDbEntity
  8
M1
 62
     7
100
AcDbCircle
 10
36.573489
 20
292.783729
 40
1.0
100
AcDbArc
 50
270.0
 51
360.0
  0
ARC
  5
4DF
100
AcDbEntity
  8
M1
 62
     7
100
AcDbCircle
 10
36.573489
 20
316.583729
 40
1.0
100
AcDbArc
 50
270.0
 51
360.0
  0
ARC
  5
4E0
100
AcDbEntity
  8
M1
 62
     7
100
AcDbCircle
 10
36.273489
 20
307.183729
 40
1.0
100
AcDbArc
 50
90.0
 51
180.0
  0
ARC
  5
4E1
100
AcDbEntity
  8
M1
 62
     7
100
AcDbCircle
 10
36.273489
 20
292.783729
 40
1.0
100
AcDbArc
 50
180.0
 51
270.0
  0
LINE
  5
4E2
100
AcDbEntity
  8
M1
 62
     7
100
AcDbLine
 10
83.773489
 20
329.583728
 11
84.973487
 21
329.583728
  0
LINE
  5
4E3
100
AcDbEntity
  8
M1
 62
     7
100
AcDbLine
 10
37.573488
 20
315.583729
 11
37.573488
 21
308.183729
  0
LINE
  5
4E4
100
AcDbEntity
  8
M1
 62
     7
100
AcDbLine
 10
46.873488
 20
309.383729
 11
46.873488
 21
308.383729
  0
LINE
  5
4E5
100
AcDbEntity
  8
M1
 62
     7
100
AcDbLine
 10
40.573489
 20
308.183729
 11
40.573489
 21
315.583729
  0
LINE
  5
4E6
100
AcDbEntity
  8
M1
 62
     7
100
AcDbLine
 10
37.573488
 20
308.183729
 11
40.573489
 21
308.183729
  0
LINE
  5
4E7
100
AcDbEntity
  8
M1
 62
     7
100
AcDbLine
 10
43.973488
 20
307.883729
 11
43.973488
 21
315.883729
  0
LINE
  5
4E8
100
AcDbEntity
  8
M1
 62
     7
100
AcDbLine
 10
45.973488
 20
315.883729
 11
43.973488
 21
315.883729
  0
LINE
  5
4E9
100
AcDbEntity
  8
M1
 62
     7
100
AcDbLine
 10
46.873488
 20
315.383729
 11
46.873488
 21
314.383729
  0
LINE
  5
4EA
100
AcDbEntity
  8
M1
 62
     7
100
AcDbLine
 10
45.973488
 20
307.883729
 11
43.973488
 21
307.883729
  0
ARC
  5
4EB
100
AcDbEntity
  8
M1
 62
     7
100
AcDbCircle
 10
96.773489
 20
330.983729
 40
1.0
100
AcDbArc
 50
90.0
 51
180.0
  0
ARC
  5
4EC
100
AcDbEntity
  8
M1
 62
     7
100
AcDbCircle
 10
97.073489
 20
307.183729
 40
1.0
100
AcDbArc
 50
0.0
 51
90.0
  0
LINE
  5
4ED
100
AcDbEntity
  8
M1
 62
     7
100
AcDbLine
 10
84.973487
 20
340.88373
 11
74.37349
 21
340.88373
  0
ARC
  5
4EE
100
AcDbEntity
  8
M1
 62
     7
100
AcDbCircle
 10
96.773489
 20
307.183729
 40
1.0
100
AcDbArc
 50
90.0
 51
180.0
  0
LINE
  5
4EF
100
AcDbEntity
  8
M1
 62
     7
100
AcDbLine
 10
57.273489
 20
317.183729
 11
57.473489
 21
317.183729
  0
LINE
  5
4F0
100
AcDbEntity
  8
M1
 62
     7
100
AcDbLine
 10
40.573489
 20
315.583729
 11
37.573488
 21
315.583729
  0
LINE
  5
4F1
100
AcDbEntity
  8
M1
 62
     7
100
AcDbLine
 10
76.073489
 20
306.583728
 11
75.87349
 21
306.583728
  0
LINE
  5
4F2
100
AcDbEntity
  8
M1
 62
     7
100
AcDbLine
 10
57.273489
 20
306.583728
 11
57.473489
 21
306.583728
  0
LINE
  5
4F3
100
AcDbEntity
  8
M1
 62
     7
100
AcDbLine
 10
61.623487
 20
322.883728
 11
61.623487
 21
316.983729
  0
LINE
  5
4F4
100
AcDbEntity
  8
M1
 62
     7
100
AcDbLine
 10
71.72349
 20
322.883728
 11
71.72349
 21
316.983729
  0
LINE
  5
4F5
100
AcDbEntity
  8
M1
 62
     7
100
AcDbLine
 10
61.123489
 20
308.633728
 11
61.123489
 21
300.383729
  0
LINE
  5
4F6
100
AcDbEntity
  8
M1
 62
     7
100
AcDbLine
 10
60.873489
 20
309.133729
 11
61.123489
 21
308.633728
  0
LINE
  5
4F7
100
AcDbEntity
  8
M1
 62
     7
100
AcDbLine
 10
72.473488
 20
309.133729
 11
72.223487
 21
308.633728
  0
LINE
  5
4F8
100
AcDbEntity
  8
M1
 62
     7
100
AcDbLine
 10
72.473488
 20
314.633729
 11
72.473488
 21
309.133729
  0
LINE
  5
4F9
100
AcDbEntity
  8
M1
 62
     7
100
AcDbLine
 10
72.223487
 20
316.483729
 11
72.223487
 21
315.133729
  0
LINE
  5
4FA
100
AcDbEntity
  8
M1
 62
     7
100
AcDbLine
 10
72.223487
 20
308.633728
 11
72.223487
 21
300.383729
  0
LINE
  5
4FB
100
AcDbEntity
  8
M1
 62
     7
100
AcDbLine
 10
58.473489
 20
305.383728
 11
58.97349
 21
305.383728
  0
LINE
  5
4FC
100
AcDbEntity
  8
M1
 62
     7
100
AcDbLine
 10
60.873489
 20
314.633729
 11
60.873489
 21
309.133729
  0
LINE
  5
4FD
100
AcDbEntity
  8
M1
 62
     7
100
AcDbLine
 10
58.97349
 20
305.383728
 11
58.97349
 21
316.483729
  0
LINE
  5
4FE
100
AcDbEntity
  8
M1
 62
     7
100
AcDbLine
 10
61.123489
 20
315.133729
 11
60.873489
 21
314.633729
  0
LINE
  5
4FF
100
AcDbEntity
  8
M1
 62
     7
100
AcDbLine
 10
61.123489
 20
316.483729
 11
61.123489
 21
315.133729
  0
LINE
  5
500
100
AcDbEntity
  8
M1
 62
     7
100
AcDbLine
 10
48.373488
 20
282.883729
 11
58.97349
 21
282.883729
  0
LINE
  5
501
100
AcDbEntity
  8
M1
 62
     7
100
AcDbLine
 10
57.773489
 20
294.183729
 11
58.97349
 21
294.183729
  0
LINE
  5
502
100
AcDbEntity
  8
M1
 62
     7
100
AcDbLine
 10
75.87349
 20
300.883729
 11
75.87349
 21
304.383728
  0
LINE
  5
503
100
AcDbEntity
  8
M1
 62
     7
100
AcDbLine
 10
49.573488
 20
294.183729
 11
48.373488
 21
294.183729
  0
LINE
  5
504
100
AcDbEntity
  8
M1
 62
     7
100
AcDbLine
 10
74.873487
 20
305.383728
 11
74.37349
 21
305.383728
  0
LINE
  5
505
100
AcDbEntity
  8
M1
 62
     7
100
AcDbLine
 10
74.37349
 20
305.383728
 11
74.37349
 21
316.483729
  0
LINE
  5
506
100
AcDbEntity
  8
M1
 62
     7
100
AcDbLine
 10
58.473489
 20
323.883729
 11
60.623488
 21
323.883729
  0
LINE
  5
507
100
AcDbEntity
  8
M1
 62
     7
100
AcDbLine
 10
72.223487
 20
315.133729
 11
72.473488
 21
314.633729
  0
LINE
  5
508
100
AcDbEntity
  8
M1
 62
     7
100
AcDbLine
 10
75.87349
 20
317.983729
 11
75.87349
 21
322.883728
  0
LINE
  5
509
100
AcDbEntity
  8
M1
 62
     7
100
AcDbLine
 10
74.37349
 20
316.483729
 11
75.87349
 21
317.983729
  0
LINE
  5
50A
100
AcDbEntity
  8
M1
 62
     7
100
AcDbLine
 10
58.473489
 20
299.883728
 11
74.873487
 21
299.883728
  0
LINE
  5
50B
100
AcDbEntity
  8
M1
 62
     7
100
AcDbLine
 10
74.873487
 20
323.883729
 11
72.723488
 21
323.883729
  0
ELLIPSE
  5
50C
100
AcDbEntity
  8
M1
 62
     7
100
AcDbEllipse
 10
62.373489
 20
346.800395
 11
1.0
 21
0.0
210
0.0
220
0.0
230
1.0
 40
0.416667
 41
3.141592653589793
 42
4.71238898038469
  0
ELLIPSE
  5
50D
100
AcDbEntity
  8
M1
 62
     7
100
AcDbEllipse
 10
70.973489
 20
346.800395
 11
1.0
 21
0.0
210
0.0
220
0.0
230
1.0
 40
0.416667
 41
4.71238898038469
 42
6.283185307179586
  0
LINE
  5
50E
100
AcDbEntity
  8
M1
 62
     7
100
AcDbLine
 10
70.973489
 20
346.38373
 11
62.373488
 21
346.38373
  0
LINE
  5
50F
100
AcDbEntity
  8
M1
 62
     7
100
AcDbLine
 10
62.373488
 20
354.88373
 11
70.973489
 21
354.88373
  0
LINE
  5
510
100
AcDbEntity
  8
M1
 62
     7
100
AcDbLine
 10
48.373488
 20
342.883728
 11
58.97349
 21
342.883728
  0
LINE
  5
511
100
AcDbEntity
  8
M1
 62
     7
100
AcDbLine
 10
61.37349
 20
342.883728
 11
71.973487
 21
342.883728
  0
LINE
  5
512
100
AcDbEntity
  8
M1
 62
     7
100
AcDbLine
 10
61.37349
 20
353.883729
 11
61.37349
 21
329.283729
  0
LINE
  5
513
100
AcDbEntity
  8
M1
 62
     7
100
AcDbLine
 10
71.973487
 20
344.883728
 11
61.37349
 21
344.883728
  0
LINE
  5
514
100
AcDbEntity
  8
M1
 62
     7
100
AcDbLine
 10
76.423488
 20
276.883728
 11
76.423488
 21
277.383729
  0
LINE
  5
515
100
AcDbEntity
  8
M1
 62
     7
100
AcDbLine
 10
82.92349
 20
279.38373
 11
82.92349
 21
277.383729
  0
LINE
  5
516
100
AcDbEntity
  8
M1
 62
     7
100
AcDbLine
 10
75.67349
 20
276.383727
 11
83.673489
 21
276.383727
  0
LINE
  5
517
100
AcDbEntity
  8
M1
 62
     7
100
AcDbLine
 10
76.423488
 20
277.383729
 11
76.423488
 21
279.38373
  0
LINE
  5
518
100
AcDbEntity
  8
M1
 62
     7
100
AcDbLine
 10
84.673489
 20
277.383729
 11
84.673489
 21
280.883729
  0
LINE
  5
519
100
AcDbEntity
  8
M1
 62
     7
100
AcDbLine
 10
84.673489
 20
280.883729
 11
84.973487
 21
280.883729
  0
LINE
  5
51A
100
AcDbEntity
  8
M1
 62
     7
100
AcDbLine
 10
36.573488
 20
284.183729
 11
36.273489
 21
284.183729
  0
LINE
  5
51B
100
AcDbEntity
  8
M1
 62
     7
100
AcDbLine
 10
48.673489
 20
280.883729
 11
48.373488
 21
280.883729
  0
LINE
  5
51C
100
AcDbEntity
  8
M1
 62
     7
100
AcDbLine
 10
83.673487
 20
282.883729
 11
83.673487
 21
281.883727
  0
LINE
  5
51D
100
AcDbEntity
  8
M1
 62
     7
100
AcDbLine
 10
36.273489
 20
339.583728
 11
36.573488
 21
339.583728
  0
LINE
  5
51E
100
AcDbEntity
  8
M1
 62
     7
100
AcDbLine
 10
57.673489
 20
280.383728
 11
57.673489
 21
282.883729
  0
LINE
  5
51F
100
AcDbEntity
  8
M1
 62
     7
100
AcDbLine
 10
58.97349
 20
279.38373
 11
58.673489
 21
279.38373
  0
LINE
  5
520
100
AcDbEntity
  8
M1
 62
     7
100
AcDbLine
 10
82.92349
 20
277.383729
 11
82.92349
 21
276.883728
  0
LINE
  5
521
100
AcDbEntity
  8
M1
 62
     7
100
AcDbLine
 10
84.973487
 20
342.883728
 11
74.37349
 21
342.883728
  0
LINE
  5
522
100
AcDbEntity
  8
M1
 62
     7
100
AcDbLine
 10
75.67349
 20
280.383728
 11
75.67349
 21
282.883729
  0
LINE
  5
523
100
AcDbEntity
  8
M1
 62
     7
100
AcDbLine
 10
49.673489
 20
282.883729
 11
49.673489
 21
281.883727
  0
LINE
  5
524
100
AcDbEntity
  8
M1
 62
     7
100
AcDbLine
 10
71.973487
 20
279.38373
 11
61.37349
 21
279.38373
  0
LINE
  5
525
100
AcDbEntity
  8
M1
 62
     7
100
AcDbLine
 10
74.673488
 20
279.38373
 11
74.37349
 21
279.38373
  0
ARC
  5
526
100
AcDbEntity
  8
M1
 62
     7
100
AcDbCircle
 10
83.423489
 20
276.883729
 40
0.5
100
AcDbArc
 50
180.0
 51
270.0
  0
ARC
  5
527
100
AcDbEntity
  8
M1
 62
     7
100
AcDbCircle
 10
75.923489
 20
276.883729
 40
0.5
100
AcDbArc
 50
270.0
 51
360.0
  0
ARC
  5
528
100
AcDbEntity
  8
M1
 62
     7
100
AcDbCircle
 10
79.673489
 20
279.383729
 40
3.25
100
AcDbArc
 50
0.0
 51
180.0
  0
ARC
  5
529
100
AcDbEntity
  8
M1
 62
     7
100
AcDbCircle
 10
62.373489
 20
353.883729
 40
1.0
100
AcDbArc
 50
90.0
 51
180.0
  0
ARC
  5
52A
100
AcDbEntity
  8
M1
 62
     7
100
AcDbCircle
 10
70.973489
 20
353.883729
 40
1.0
100
AcDbArc
 50
0.0
 51
90.0
  0
ARC
  5
52B
100
AcDbEntity
  8
M1
 62
     7
100
AcDbCircle
 10
83.673489
 20
277.383729
 40
1.0
100
AcDbArc
 50
270.0
 51
360.0
  0
ARC
  5
52C
100
AcDbEntity
  8
M1
 62
     7
100
AcDbCircle
 10
49.923489
 20
276.883729
 40
0.5
100
AcDbArc
 50
270.0
 51
360.0
  0
ARC
  5
52D
100
AcDbEntity
  8
M1
 62
     7
100
AcDbCircle
 10
57.673489
 20
277.383729
 40
1.0
100
AcDbArc
 50
270.0
 51
360.0
  0
ARC
  5
52E
100
AcDbEntity
  8
M1
 62
     7
100
AcDbCircle
 10
75.673489
 20
277.383729
 40
1.0
100
AcDbArc
 50
180.0
 51
270.0
  0
ARC
  5
52F
100
AcDbEntity
  8
M1
 62
     7
100
AcDbCircle
 10
53.673489
 20
279.383729
 40
3.25
100
AcDbArc
 50
0.0
 51
180.0
  0
LINE
  5
530
100
AcDbEntity
  8
M1
 62
     7
100
AcDbLine
 10
50.423489
 20
279.383729
 11
50.423489
 21
276.883728
  0
LINE
  5
531
100
AcDbEntity
  8
M1
 62
     7
100
AcDbLine
 10
58.673489
 20
279.38373
 11
58.673489
 21
277.383729
  0
LINE
  5
532
100
AcDbEntity
  8
M1
 62
     7
100
AcDbLine
 10
74.673488
 20
279.38373
 11
74.673488
 21
277.383729
  0
LINE
  5
533
100
AcDbEntity
  8
M1
 62
     7
100
AcDbLine
 10
56.923489
 20
276.883728
 11
56.923489
 21
279.383729
  0
ARC
  5
534
100
AcDbEntity
  8
M1
 62
     7
100
AcDbCircle
 10
74.673489
 20
280.383729
 40
1.0
100
AcDbArc
 50
270.0
 51
360.0
  0
ARC
  5
535
100
AcDbEntity
  8
M1
 62
     7
100
AcDbCircle
 10
48.673489
 20
281.883729
 40
1.0
100
AcDbArc
 50
270.0
 51
360.0
  0
ARC
  5
536
100
AcDbEntity
  8
M1
 62
     7
100
AcDbCircle
 10
57.423489
 20
276.883729
 40
0.5
100
AcDbArc
 50
180.0
 51
270.0
  0
ARC
  5
537
100
AcDbEntity
  8
M1
 62
     7
100
AcDbCircle
 10
58.673489
 20
280.383729
 40
1.0
100
AcDbArc
 50
180.0
 51
270.0
  0
LINE
  5
538
100
AcDbEntity
  8
M1
 62
     7
100
AcDbLine
 10
48.673489
 20
277.383729
 11
48.673489
 21
280.883729
  0
ARC
  5
539
100
AcDbEntity
  8
M1
 62
     7
100
AcDbCircle
 10
84.673489
 20
281.883729
 40
1.0
100
AcDbArc
 50
180.0
 51
270.0
  0
ARC
  5
53A
100
AcDbEntity
  8
M1
 62
     7
100
AcDbCircle
 10
36.273489
 20
338.583729
 40
1.0
100
AcDbArc
 50
90.0
 51
180.0
  0
LINE
  5
53B
100
AcDbEntity
  8
M1
 62
     7
100
AcDbLine
 10
48.173489
 20
276.383727
 11
40.273489
 21
276.383727
  0
LINE
  5
53C
100
AcDbEntity
  8
M1
 62
     7
100
AcDbLine
 10
45.973488
 20
346.383729
 11
45.973488
 21
315.383729
  0
LINE
  5
53D
100
AcDbEntity
  8
M1
 62
     7
100
AcDbLine
 10
87.973489
 20
284.783729
 11
87.973489
 21
302.583729
  0
LINE
  5
53E
100
AcDbEntity
  8
M1
 62
     7
100
AcDbLine
 10
87.973489
 20
321.183729
 11
87.973489
 21
338.983729
  0
ARC
  5
53F
100
AcDbEntity
  8
M1
 62
     7
100
AcDbCircle
 10
36.273489
 20
285.183729
 40
1.0
100
AcDbArc
 50
180.0
 51
270.0
  0
ARC
  5
540
100
AcDbEntity
  8
M1
 62
     7
100
AcDbCircle
 10
36.573489
 20
285.183729
 40
1.0
100
AcDbArc
 50
270.0
 51
360.0
  0
LINE
  5
541
100
AcDbEntity
  8
M1
 62
     7
100
AcDbLine
 10
58.97349
 20
330.783729
 11
61.37349
 21
330.783729
  0
ARC
  5
542
100
AcDbEntity
  8
M1
 62
     7
100
AcDbCircle
 10
45.973489
 20
284.783729
 40
0.6
100
AcDbArc
 50
180.0
 51
270.0
  0
ARC
  5
543
100
AcDbEntity
  8
M1
 62
     7
100
AcDbCircle
 10
87.373489
 20
338.983729
 40
0.6
100
AcDbArc
 50
0.0
 51
90.0
  0
ARC
  5
544
100
AcDbEntity
  8
M1
 62
     7
100
AcDbCircle
 10
36.573489
 20
338.583729
 40
1.0
100
AcDbArc
 50
0.0
 51
90.0
  0
ARC
  5
545
100
AcDbEntity
  8
M1
 62
     7
100
AcDbCircle
 10
45.973489
 20
338.983729
 40
0.6
100
AcDbArc
 50
90.0
 51
180.0
  0
LINE
  5
546
100
AcDbEntity
  8
M1
 62
     7
100
AcDbLine
 10
48.373488
 20
294.483728
 11
48.373488
 21
277.383729
  0
LINE
  5
547
100
AcDbEntity
  8
M1
 62
     7
100
AcDbLine
 10
58.97349
 20
277.383729
 11
58.97349
 21
294.483728
  0
LINE
  5
548
100
AcDbEntity
  8
M1
 62
     7
100
AcDbLine
 10
58.97349
 20
292.983729
 11
59.973489
 21
292.983729
  0
LINE
  5
549
100
AcDbEntity
  8
M1
 62
     7
100
AcDbLine
 10
86.373489
 20
347.38373
 11
85.973489
 21
347.38373
  0
LINE
  5
54A
100
AcDbEntity
  8
M1
 62
     7
100
AcDbLine
 10
84.973487
 20
346.38373
 11
84.973487
 21
329.283729
  0
LINE
  5
54B
100
AcDbEntity
  8
M1
 62
     7
100
AcDbLine
 10
61.37349
 20
277.383729
 11
61.37349
 21
294.483728
  0
LINE
  5
54C
100
AcDbEntity
  8
M1
 62
     7
100
AcDbLine
 10
58.97349
 20
346.383729
 11
58.97349
 21
329.283729
  0
LINE
  5
54D
100
AcDbEntity
  8
M1
 62
     7
100
AcDbLine
 10
74.37349
 20
294.483728
 11
74.37349
 21
277.383729
  0
LINE
  5
54E
100
AcDbEntity
  8
M1
 62
     7
100
AcDbLine
 10
71.973487
 20
277.383729
 11
71.973487
 21
294.483728
  0
LINE
  5
54F
100
AcDbEntity
  8
M1
 62
     7
100
AcDbLine
 10
74.37349
 20
346.383729
 11
74.37349
 21
329.283729
  0
LINE
  5
550
100
AcDbEntity
  8
M1
 62
     7
100
AcDbLine
 10
71.973487
 20
329.283729
 11
71.973487
 21
353.883729
  0
LINE
  5
551
100
AcDbEntity
  8
M1
 62
     7
100
AcDbLine
 10
71.973487
 20
279.38373
 11
71.973487
 21
280.383728
  0
LINE
  5
552
100
AcDbEntity
  8
M1
 62
     7
100
AcDbLine
 10
71.973487
 20
344.383729
 11
71.973487
 21
343.383729
  0
LINE
  5
553
100
AcDbEntity
  8
M1
 62
     7
100
AcDbLine
 10
96.773486
 20
284.183729
 11
97.073491
 21
284.183729
  0
LINE
  5
554
100
AcDbEntity
  8
M1
 62
     7
100
AcDbLine
 10
97.073491
 20
339.583728
 11
96.773486
 21
339.583728
  0
LINE
  5
555
100
AcDbEntity
  8
M1
 62
     7
100
AcDbLine
 10
96.873487
 20
331.983728
 11
96.773486
 21
331.983728
  0
LINE
  5
556
100
AcDbEntity
  8
M1
 62
     7
100
AcDbLine
 10
48.373488
 20
346.38373
 11
48.373488
 21
329.283729
  0
LINE
  5
557
100
AcDbEntity
  8
M1
 62
     7
100
AcDbLine
 10
36.473488
 20
331.983728
 11
36.573488
 21
331.983728
  0
LINE
  5
558
100
AcDbEntity
  8
M1
 62
     7
100
AcDbLine
 10
96.873487
 20
291.783729
 11
96.773486
 21
291.783729
  0
LINE
  5
559
100
AcDbEntity
  8
M1
 62
     7
100
AcDbLine
 10
36.473488
 20
291.783729
 11
36.573488
 21
291.783729
  0
ARC
  5
55A
100
AcDbEntity
  8
M1
 62
     7
100
AcDbCircle
 10
96.773489
 20
285.183729
 40
1.0
100
AcDbArc
 50
180.0
 51
270.0
  0
ARC
  5
55B
100
AcDbEntity
  8
M1
 62
     7
100
AcDbCircle
 10
96.773489
 20
338.583729
 40
1.0
100
AcDbArc
 50
90.0
 51
180.0
  0
ARC
  5
55C
100
AcDbEntity
  8
M1
 62
     7
100
AcDbCircle
 10
87.373489
 20
284.783729
 40
0.6
100
AcDbArc
 50
270.0
 51
360.0
  0
ARC
  5
55D
100
AcDbEntity
  8
M1
 62
     7
100
AcDbCircle
 10
97.073489
 20
338.583729
 40
1.0
100
AcDbArc
 50
0.0
 51
90.0
  0
LINE
  5
55E
100
AcDbEntity
  8
M1
 62
     7
100
AcDbLine
 10
45.373489
 20
284.783728
 11
45.373489
 21
302.583729
  0
LINE
  5
55F
100
AcDbEntity
  8
M1
 62
     7
100
AcDbLine
 10
45.373489
 20
321.183729
 11
45.373489
 21
338.983729
  0
ARC
  5
560
100
AcDbEntity
  8
M1
 62
     7
100
AcDbCircle
 10
97.073489
 20
285.183729
 40
1.0
100
AcDbArc
 50
270.0
 51
360.0
  0
LINE
  5
561
100
AcDbEntity
  8
M1
 62
     7
100
AcDbLine
 10
37.573488
 20
307.183729
 11
37.573488
 21
285.183729
  0
LINE
  5
562
100
AcDbEntity
  8
M1
 62
     7
100
AcDbLine
 10
88.87349
 20
286.183729
 11
88.87349
 21
287.18373
  0
LINE
  5
563
100
AcDbEntity
  8
M1
 62
     7
100
AcDbLine
 10
94.873491
 20
286.183729
 11
88.87349
 21
286.183729
  0
LINE
  5
564
100
AcDbEntity
  8
M1
 62
     7
100
AcDbLine
 10
94.873491
 20
287.18373
 11
94.873491
 21
286.183729
  0
LINE
  5
565
100
AcDbEntity
  8
M1
 62
     7
100
AcDbLine
 10
45.373489
 20
328.983728
 11
37.573488
 21
328.983728
  0
LINE
  5
566
100
AcDbEntity
  8
M1
 62
     7
100
AcDbLine
 10
88.87349
 20
337.58373
 11
94.873491
 21
337.58373
  0
LINE
  5
567
100
AcDbEntity
  8
M1
 62
     7
100
AcDbLine
 10
88.87349
 20
336.583729
 11
88.87349
 21
337.58373
  0
LINE
  5
568
100
AcDbEntity
  8
M1
 62
     7
100
AcDbLine
 10
94.873491
 20
337.58373
 11
94.873491
 21
336.583729
  0
LINE
  5
569
100
AcDbEntity
  8
M1
 62
     7
100
AcDbLine
 10
37.573488
 20
294.783728
 11
45.373489
 21
294.783728
  0
LINE
  5
56A
100
AcDbEntity
  8
M1
 62
     7
100
AcDbLine
 10
87.973489
 20
294.783728
 11
95.773491
 21
294.783728
  0
LINE
  5
56B
100
AcDbEntity
  8
M1
 62
     7
100
AcDbLine
 10
49.573488
 20
329.583728
 11
48.373488
 21
329.583728
  0
LINE
  5
56C
100
AcDbEntity
  8
M1
 62
     7
100
AcDbLine
 10
57.773489
 20
329.583728
 11
58.97349
 21
329.583728
  0
LINE
  5
56D
100
AcDbEntity
  8
M1
 62
     7
100
AcDbLine
 10
58.97349
 20
340.88373
 11
48.373488
 21
340.88373
  0
ARC
  5
56E
100
AcDbEntity
  8
M1
 62
     7
100
AcDbCircle
 10
62.573489
 20
328.583729
 40
1.0
100
AcDbArc
 50
44.427004
 51
90.0
  0
LINE
  5
56F
100
AcDbEntity
  8
M1
 62
     7
100
AcDbLine
 10
75.573488
 20
329.583728
 11
74.37349
 21
329.583728
  0
ARC
  5
570
100
AcDbEntity
  8
M1
 62
     7
100
AcDbCircle
 10
83.773489
 20
295.183729
 40
1.0
100
AcDbArc
 50
224.427004
 51
270.0
  0
ARC
  5
571
100
AcDbEntity
  8
M1
 62
     7
100
AcDbCircle
 10
70.773489
 20
328.583729
 40
1.0
100
AcDbArc
 50
90.0
 51
135.572996
  0
LINE
  5
572
100
AcDbEntity
  8
M1
 62
     7
100
AcDbLine
 10
70.773489
 20
294.183729
 11
71.973487
 21
294.183729
  0
LINE
  5
573
100
AcDbEntity
  8
M1
 62
     7
100
AcDbLine
 10
62.573488
 20
294.183729
 11
61.37349
 21
294.183729
  0
LINE
  5
574
100
AcDbEntity
  8
M1
 62
     7
100
AcDbLine
 10
61.37349
 20
282.883729
 11
71.973487
 21
282.883729
  0
LINE
  5
575
100
AcDbEntity
  8
M1
 62
     7
100
AcDbLine
 10
38.473489
 20
337.58373
 11
44.473489
 21
337.58373
  0
LINE
  5
576
100
AcDbEntity
  8
M1
 62
     7
100
AcDbLine
 10
38.473489
 20
336.583729
 11
38.473489
 21
337.58373
  0
LINE
  5
577
100
AcDbEntity
  8
M1
 62
     7
100
AcDbLine
 10
44.473489
 20
337.58373
 11
44.473489
 21
336.583729
  0
ARC
  5
578
100
AcDbEntity
  8
M1
 62
     7
100
AcDbCircle
 10
75.573489
 20
328.583729
 40
1.0
100
AcDbArc
 50
44.427004
 51
90.0
  0
ARC
  5
579
100
AcDbEntity
  8
M1
 62
     7
100
AcDbCircle
 10
57.773489
 20
328.583729
 40
1.0
100
AcDbArc
 50
90.0
 51
135.572996
  0
ARC
  5
57A
100
AcDbEntity
  8
M1
 62
     7
100
AcDbCircle
 10
70.773489
 20
295.183729
 40
1.0
100
AcDbArc
 50
224.427004
 51
270.0
  0
ARC
  5
57B
100
AcDbEntity
  8
M1
 62
     7
100
AcDbCircle
 10
75.573489
 20
295.183729
 40
1.0
100
AcDbArc
 50
270.0
 51
315.572996
  0
ARC
  5
57C
100
AcDbEntity
  8
M1
 62
     7
100
AcDbCircle
 10
49.573489
 20
328.583729
 40
1.0
100
AcDbArc
 50
44.427004
 51
90.0
  0
ARC
  5
57D
100
AcDbEntity
  8
M1
 62
     7
100
AcDbCircle
 10
62.573489
 20
295.183729
 40
1.0
100
AcDbArc
 50
270.0
 51
315.572996
  0
LINE
  5
57E
100
AcDbEntity
  8
M1
 62
     7
100
AcDbLine
 10
44.473489
 20
286.183729
 11
38.473489
 21
286.183729
  0
LINE
  5
57F
100
AcDbEntity
  8
M1
 62
     7
100
AcDbLine
 10
44.473489
 20
287.18373
 11
44.473489
 21
286.183729
  0
LINE
  5
580
100
AcDbEntity
  8
M1
 62
     7
100
AcDbLine
 10
38.473489
 20
286.183729
 11
38.473489
 21
287.18373
  0
LINE
  5
581
100
AcDbEntity
  8
M1
 62
     7
100
AcDbLine
 10
83.39095
 20
355.80172
 11
83.392042
 21
355.76526
  0
LINE
  5
582
100
AcDbEntity
  8
M1
 62
     7
100
AcDbLine
 10
83.392042
 20
355.76526
 11
83.39529
 21
355.656981
  0
LINE
  5
583
100
AcDbEntity
  8
M1
 62
     7
100
AcDbLine
 10
83.39529
 20
355.656981
 11
83.400595
 21
355.480183
  0
LINE
  5
584
100
AcDbEntity
  8
M1
 62
     7
100
AcDbLine
 10
83.400595
 20
355.480183
 11
83.407792
 21
355.240229
  0
LINE
  5
585
100
AcDbEntity
  8
M1
 62
     7
100
AcDbLine
 10
83.407792
 20
355.240229
 11
83.41667
 21
354.944411
  0
LINE
  5
586
100
AcDbEntity
  8
M1
 62
     7
100
AcDbLine
 10
83.41667
 20
354.944411
 11
83.426948
 21
354.601722
  0
LINE
  5
587
100
AcDbEntity
  8
M1
 62
     7
100
AcDbLine
 10
83.426948
 20
354.601722
 11
83.438325
 21
354.222569
  0
LINE
  5
588
100
AcDbEntity
  8
M1
 62
     7
100
AcDbLine
 10
83.438325
 20
354.222569
 11
83.450447
 21
353.818476
  0
LINE
  5
589
100
AcDbEntity
  8
M1
 62
     7
100
AcDbLine
 10
83.450447
 20
353.818476
 11
83.462949
 21
353.40172
  0
LINE
  5
58A
100
AcDbEntity
  8
M1
 62
     7
100
AcDbLine
 10
49.884028
 20
353.40172
 11
49.898074
 21
353.869937
  0
LINE
  5
58B
100
AcDbEntity
  8
M1
 62
     7
100
AcDbLine
 10
49.898074
 20
353.869937
 11
49.911582
 21
354.320161
  0
LINE
  5
58C
100
AcDbEntity
  8
M1
 62
     7
100
AcDbLine
 10
49.911582
 20
354.320161
 11
49.92403
 21
354.735091
  0
LINE
  5
58D
100
AcDbEntity
  8
M1
 62
     7
100
AcDbLine
 10
49.92403
 20
354.735091
 11
49.93494
 21
355.098776
  0
LINE
  5
58E
100
AcDbEntity
  8
M1
 62
     7
100
AcDbLine
 10
49.93494
 20
355.098776
 11
49.943893
 21
355.397246
  0
LINE
  5
58F
100
AcDbEntity
  8
M1
 62
     7
100
AcDbLine
 10
49.943893
 20
355.397246
 11
49.950548
 21
355.619032
  0
LINE
  5
590
100
AcDbEntity
  8
M1
 62
     7
100
AcDbLine
 10
49.950548
 20
355.619032
 11
49.954644
 21
355.755604
  0
LINE
  5
591
100
AcDbEntity
  8
M1
 62
     7
100
AcDbLine
 10
49.954644
 20
355.755604
 11
49.956028
 21
355.80172
  0
LINE
  5
592
100
AcDbEntity
  8
M1
  6
DASHDOT
 62
     7
100
AcDbLine
 10
53.173489
 20
288.183729
 11
54.173489
 21
288.183729
  0
LINE
  5
593
100
AcDbEntity
  8
M1
  6
DASHDOT
 62
     7
100
AcDbLine
 10
53.673489
 20
287.683729
 11
53.673489
 21
288.683729
  0
LINE
  5
594
100
AcDbEntity
  8
M1
  6
DASHDOT
 62
     7
100
AcDbLine
 10
66.673485
 20
287.683729
 11
66.673485
 21
288.683729
  0
LINE
  5
595
100
AcDbEntity
  8
M1
  6
DASHDOT
 62
     7
100
AcDbLine
 10
66.173485
 20
288.183729
 11
67.173485
 21
288.183729
  0
LINE
  5
596
100
AcDbEntity
  8
M1
  6
DASHDOT
 62
     7
100
AcDbLine
 10
79.673485
 20
287.683729
 11
79.673485
 21
288.683729
  0
LINE
  5
597
100
AcDbEntity
  8
M1
  6
DASHDOT
 62
     7
100
AcDbLine
 10
79.173485
 20
288.183729
 11
80.173485
 21
288.183729
  0
LINE
  5
598
100
AcDbEntity
  8
M1
  6
DASHDOT
 62
     7
100
AcDbLine
 10
79.673485
 20
336.083729
 11
79.673485
 21
335.083729
  0
LINE
  5
599
100
AcDbEntity
  8
M1
  6
DASHDOT
 62
     7
100
AcDbLine
 10
79.173485
 20
335.583729
 11
80.173485
 21
335.583729
  0
LINE
  5
59A
100
AcDbEntity
  8
M1
  6
DASHDOT
 62
     7
100
AcDbLine
 10
66.173485
 20
335.583729
 11
67.173485
 21
335.583729
  0
LINE
  5
59B
100
AcDbEntity
  8
M1
  6
DASHDOT
 62
     7
100
AcDbLine
 10
53.673489
 20
336.083729
 11
53.673489
 21
335.083729
  0
LINE
  5
59C
100
AcDbEntity
  8
M1
  6
DASHDOT
 62
     7
100
AcDbLine
 10
66.673485
 20
336.083729
 11
66.673485
 21
335.083729
  0
LINE
  5
59D
100
AcDbEntity
  8
M1
  6
DASHDOT
 62
     7
100
AcDbLine
 10
53.173489
 20
335.583729
 11
54.173489
 21
335.583729
  0
LINE
  5
59E
100
AcDbEntity
  8
M1
  6
DASHDOT
 62
     7
100
AcDbLine
 10
92.373488
 20
332.783729
 11
91.373488
 21
332.783729
  0
LINE
  5
59F
100
AcDbEntity
  8
M1
  6
DASHDOT
 62
     7
100
AcDbLine
 10
91.873488
 20
332.283729
 11
91.873488
 21
333.283729
  0
LINE
  5
5A0
100
AcDbEntity
  8
M1
  6
DASHDOT
 62
     7
100
AcDbLine
 10
92.373488
 20
325.183729
 11
91.373488
 21
325.183729
  0
LINE
  5
5A1
100
AcDbEntity
  8
M1
  6
DASHDOT
 62
     7
100
AcDbLine
 10
91.873488
 20
324.683729
 11
91.873488
 21
325.683729
  0
LINE
  5
5A2
100
AcDbEntity
  8
M1
  6
DASHDOT
 62
     7
100
AcDbLine
 10
92.373488
 20
298.583729
 11
91.373488
 21
298.583729
  0
LINE
  5
5A3
100
AcDbEntity
  8
M1
  6
DASHDOT
 62
     7
100
AcDbLine
 10
91.873488
 20
298.083729
 11
91.873488
 21
299.083729
  0
LINE
  5
5A4
100
AcDbEntity
  8
M1
  6
DASHDOT
 62
     7
100
AcDbLine
 10
92.373488
 20
290.983729
 11
91.373488
 21
290.983729
  0
LINE
  5
5A5
100
AcDbEntity
  8
M1
  6
DASHDOT
 62
     7
100
AcDbLine
 10
91.873488
 20
290.483729
 11
91.873488
 21
291.483729
  0
LINE
  5
5A6
100
AcDbEntity
  8
M1
  6
DASHDOT
 62
     7
100
AcDbLine
 10
40.973488
 20
325.183729
 11
41.973488
 21
325.183729
  0
LINE
  5
5A7
100
AcDbEntity
  8
M1
  6
DASHDOT
 62
     7
100
AcDbLine
 10
41.473488
 20
324.683729
 11
41.473488
 21
325.683729
  0
LINE
  5
5A8
100
AcDbEntity
  8
M1
  6
DASHDOT
 62
     7
100
AcDbLine
 10
40.973488
 20
332.783729
 11
41.973488
 21
332.783729
  0
LINE
  5
5A9
100
AcDbEntity
  8
M1
  6
DASHDOT
 62
     7
100
AcDbLine
 10
41.473488
 20
332.283729
 11
41.473488
 21
333.283729
  0
LINE
  5
5AA
100
AcDbEntity
  8
M1
  6
DASHDOT
 62
     7
100
AcDbLine
 10
40.973489
 20
290.983729
 11
41.973489
 21
290.983729
  0
LINE
  5
5AB
100
AcDbEntity
  8
M1
  6
DASHDOT
 62
     7
100
AcDbLine
 10
41.473489
 20
290.483729
 11
41.473489
 21
291.483729
  0
LINE
  5
5AC
100
AcDbEntity
  8
M1
  6
DASHDOT
 62
     7
100
AcDbLine
 10
40.973489
 20
298.583729
 11
41.973489
 21
298.583729
  0
LINE
  5
5AD
100
AcDbEntity
  8
M1
  6
DASHDOT
 62
     7
100
AcDbLine
 10
41.473489
 20
298.083729
 11
41.473489
 21
299.083729
  0
LINE
  5
5AE
100
AcDbEntity
  8
M1
  6
DASHDOT
 62
     7
100
AcDbLine
 10
53.173489
 20
279.383729
 11
54.173489
 21
279.383729
  0
LINE
  5
5AF
100
AcDbEntity
  8
M1
  6
DASHDOT
 62
     7
100
AcDbLine
 10
53.673489
 20
278.883729
 11
53.673489
 21
279.883729
  0
LINE
  5
5B0
100
AcDbEntity
  8
M1
  6
DASHDOT
 62
     7
100
AcDbLine
 10
79.173489
 20
279.383729
 11
80.173489
 21
279.383729
  0
LINE
  5
5B1
100
AcDbEntity
  8
M1
  6
DASHDOT
 62
     7
100
AcDbLine
 10
79.673489
 20
278.883729
 11
79.673489
 21
279.883729
  0
LINE
  5
5B2
100
AcDbEntity
  8
M1
  6
DASHDOT
 62
     7
100
AcDbLine
 10
77.073489
 20
350.483729
 11
78.073489
 21
350.483729
  0
LINE
  5
5B3
100
AcDbEntity
  8
M1
  6
DASHDOT
 62
     7
100
AcDbLine
 10
77.573489
 20
349.983729
 11
77.573489
 21
350.983729
  0
LINE
  5
5B4
100
AcDbEntity
  8
M1
  6
DASHDOT
 62
     7
100
AcDbLine
 10
66.173489
 20
350.083729
 11
67.173489
 21
350.083729
  0
LINE
  5
5B5
100
AcDbEntity
  8
M1
  6
DASHDOT
 62
     7
100
AcDbLine
 10
66.673489
 20
349.583729
 11
66.673489
 21
350.583729
  0
LINE
  5
5B6
100
AcDbEntity
  8
M1
  6
DASHDOT
 62
     7
100
AcDbLine
 10
56.273488
 20
350.483729
 11
55.273488
 21
350.483729
  0
LINE
  5
5B7
100
AcDbEntity
  8
M1
  6
DASHDOT
 62
     7
100
AcDbLine
 10
55.773488
 20
349.983729
 11
55.773488
 21
350.983729
  0
CIRCLE
  5
5B8
100
AcDbEntity
  8
M1
 62
     7
100
AcDbCircle
 10
55.773488
 20
350.483729
 40
3.0
  0
LINE
  5
5B9
100
AcDbEntity
  8
M1
 62
     7
100
AcDbLine
 10
57.364072
 20
348.893084
 11
54.182431
 21
352.074847
  0
LINE
  5
5BA
100
AcDbEntity
  8
M1
 62
     7
100
AcDbLine
 10
57.187314
 20
350.83742
 11
55.419736
 21
349.069842
  0
LINE
  5
5BB
100
AcDbEntity
  8
M1
 62
     7
100
AcDbLine
 10
56.126767
 20
351.898089
 11
54.359189
 21
350.130389
  0
LINE
  5
5BC
100
AcDbEntity
  8
M1
 62
     7
100
AcDbLine
 10
59.098488
 20
354.308729
 11
52.448488
 21
354.308729
  0
ARC
  5
5BD
100
AcDbEntity
  8
M1
 62
     7
100
AcDbCircle
 10
59.098488
 20
353.808729
 40
0.5
100
AcDbArc
 50
0.0
 51
90.0
  0
LINE
  5
5BE
100
AcDbEntity
  8
M1
 62
     7
100
AcDbLine
 10
59.598488
 20
347.158729
 11
59.598488
 21
353.808729
  0
ARC
  5
5BF
100
AcDbEntity
  8
M1
 62
     7
100
AcDbCircle
 10
59.098488
 20
347.158729
 40
0.5
100
AcDbArc
 50
270.0
 51
360.0
  0
LINE
  5
5C0
100
AcDbEntity
  8
M1
 62
     7
100
AcDbLine
 10
52.448488
 20
346.658729
 11
59.098488
 21
346.658729
  0
LINE
  5
5C1
100
AcDbEntity
  8
M1
 62
     7
100
AcDbLine
 10
51.948488
 20
353.808729
 11
51.948488
 21
347.158729
  0
ARC
  5
5C2
100
AcDbEntity
  8
M1
 62
     7
100
AcDbCircle
 10
52.448488
 20
353.808729
 40
0.5
100
AcDbArc
 50
90.0
 51
180.0
  0
ARC
  5
5C3
100
AcDbEntity
  8
M1
 62
     7
100
AcDbCircle
 10
52.448488
 20
347.158729
 40
0.5
100
AcDbArc
 50
180.0
 51
270.0
  0
CIRCLE
  5
5C4
100
AcDbEntity
  8
M1
 62
     7
100
AcDbCircle
 10
93.673488
 20
96.027908
 40
2.0
  0
CIRCLE
  5
5C5
100
AcDbEntity
  8
M1
 62
     7
100
AcDbCircle
 10
39.673489
 20
155.027908
 40
2.0
  0
CIRCLE
  5
5C6
100
AcDbEntity
  8
M1
 62
     7
100
AcDbCircle
 10
39.673489
 20
155.0279
 40
1.7
  0
CIRCLE
  5
5C7
100
AcDbEntity
  8
M1
 62
     7
100
AcDbCircle
 10
93.673488
 20
96.027908
 40
1.7
  0
LINE
  5
5C8
100
AcDbEntity
  8
M1
  6
DIVIDE
 62
     7
100
AcDbLine
 10
49.703489
 20
169.527908
 11
49.703489
 21
160.527909
  0
LINE
  5
5C9
100
AcDbEntity
  8
M1
  6
DIVIDE
 62
     7
100
AcDbLine
 10
83.643488
 20
169.527908
 11
83.643488
 21
160.527909
  0
LINE
  5
5CA
100
AcDbEntity
  8
M1
  6
DIVIDE
 62
     7
100
AcDbLine
 10
35.273491
 20
160.527909
 11
35.273491
 21
89.527906
  0
LINE
  5
5CB
100
AcDbEntity
  8
M1
  6
DIVIDE
 62
     7
100
AcDbLine
 10
49.703489
 20
160.527909
 11
35.273491
 21
160.527909
  0
LINE
  5
5CC
100
AcDbEntity
  8
M1
  6
DIVIDE
 62
     7
100
AcDbLine
 10
47.173488
 20
160.527909
 11
47.373488
 21
160.527909
  0
LINE
  5
5CD
100
AcDbEntity
  8
M1
  6
DIVIDE
 62
     7
100
AcDbLine
 10
46.973488
 20
160.527909
 11
47.373488
 21
160.527909
  0
ARC
  5
5CE
100
AcDbEntity
  8
M1
  6
DIVIDE
 62
     7
100
AcDbCircle
 10
46.673488
 20
159.527908
 40
1.0
100
AcDbArc
 50
81.373073
 51
90.0
  0
LINE
  5
5CF
100
AcDbEntity
  8
M1
  6
DASHDOT
 62
     7
100
AcDbLine
 10
43.770893
 20
155.027908
 11
35.576084
 21
155.027908
  0
LINE
  5
5D0
100
AcDbEntity
  8
M1
  6
DASHDOT
 62
     7
100
AcDbLine
 10
39.673481
 20
159.125305
 11
39.673496
 21
150.930496
  0
LINE
  5
5D1
100
AcDbEntity
  8
M1
  6
DASHDOT
 62
     7
100
AcDbLine
 10
97.770893
 20
96.027908
 11
89.576084
 21
96.027908
  0
LINE
  5
5D2
100
AcDbEntity
  8
M1
  6
DASHDOT
 62
     7
100
AcDbLine
 10
93.673481
 20
100.125305
 11
93.673496
 21
90.930496
  0
LINE
  5
5D3
100
AcDbEntity
  8
M1
  6
DIVIDE
 62
     7
100
AcDbLine
 10
98.073485
 20
89.527906
 11
35.273491
 21
89.527906
  0
LINE
  5
5D4
100
AcDbEntity
  8
M1
  6
DIVIDE
 62
     7
100
AcDbLine
 10
83.643488
 20
160.527909
 11
98.073485
 21
160.527909
  0
LINE
  5
5D5
100
AcDbEntity
  8
M1
  6
DIVIDE
 62
     7
100
AcDbLine
 10
83.643488
 20
169.527908
 11
49.703489
 21
169.527908
  0
LINE
  5
5D6
100
AcDbEntity
  8
M1
  6
DIVIDE
 62
     7
100
AcDbLine
 10
98.073485
 20
160.527909
 11
98.073485
 21
89.527906
  0
HATCH
  5
5D7
100
AcDbEntity
  8
M1
 62
     7
100
AcDbHatch
 10
0.0
 20
0.0
210
0.0
220
0.0
230
1.0
  2
SOLID
 70
     1
 71
     0
 91
        1
 92
        1
 93
        4
 72
     1
 10
155.383797
 20
360.303851
 11
153.383797
 21
360.303851
 72
     1
 10
153.383797
 20
360.303851
 11
153.383797
 21
342.103851
 72
     1
 10
153.383797
 20
342.103851
 11
155.383797
 21
342.103851
 72
     1
 10
155.383797
 20
342.103851
 11
155.383797
 21
360.303851
 97
        0
 75
     0
 76
     1
 98
        1
 10
0.0
 20
0.0
  0
LINE
  5
5DA
100
AcDbEntity
  8
M2
 62
     2
100
AcDbLine
 10
316.666654
 20
49.999998
 11
149.999994
 21
49.999998
  0
LINE
  5
5DB
100
AcDbEntity
  8
M2
 62
     2
100
AcDbLine
 10
-3.552714E-015
 20
-3.552714E-015
 11
-3.552714E-015
 21
458.333316
  0
LINE
  5
5DC
100
AcDbEntity
  8
M2
 62
     2
100
AcDbLine
 10
316.666654
 20
-3.552714E-015
 11
-3.552714E-015
 21
-3.552714E-015
  0
LINE
  5
5DD
100
AcDbEntity
  8
M2
 62
     2
100
AcDbLine
 10
316.666654
 20
16.666666
 11
149.999994
 21
16.666666
  0
TEXT
  5
5DE
100
AcDbEntity
  8
M2
 62
     2
100
AcDbText
 10
153.055552
 20
20.833333
 40
8.333333
  1
形　式；
 41
1.0
  7
STANDARD
100
AcDbText
  0
LINE
  5
5DF
100
AcDbEntity
  8
M2
 62
     2
100
AcDbLine
 10
316.666654
 20
33.333332
 11
149.999994
 21
33.333332
  0
TEXT
  5
5E0
100
AcDbEntity
  8
M2
 62
     2
100
AcDbText
 10
153.055552
 20
37.500001
 40
8.333333
  1
登録名：
 41
1.0
  7
STANDARD
100
AcDbText
  0
LINE
  5
5E1
100
AcDbEntity
  8
M2
 62
     2
100
AcDbLine
 10
149.999994
 20
-3.552714E-015
 11
149.999994
 21
49.999998
  0
TEXT
  5
5E2
100
AcDbEntity
  8
M2
 62
     2
100
AcDbText
 10
153.055552
 20
4.166667
 40
8.333333
  1
適　用；
 41
1.0
  7
STANDARD
100
AcDbText
  0
LINE
  5
5E3
100
AcDbEntity
  8
M2
 62
     2
100
AcDbLine
 10
-3.552714E-015
 20
458.333316
 11
316.666654
 21
458.333316
  0
LINE
  5
5E4
100
AcDbEntity
  8
M2
 62
     2
100
AcDbLine
 10
316.666654
 20
458.333316
 11
316.666654
 21
-3.552714E-015
  0
TEXT
  5
5E5
100
AcDbEntity
  8
M2
 62
     2
100
AcDbText
 10
193.611109
 20
37.500001
 40
8.333333
  1
ＤＭＨＳ２０ＧＲ００
 41
0.5
  7
STANDARD
100
AcDbText
  0
TEXT
  5
5E6
100
AcDbEntity
  8
M2
 62
     2
100
AcDbText
 10
193.611109
 20
20.833333
 40
8.333333
  1
ＨＳ２０－Ｇ
 41
0.5
  7
STANDARD
100
AcDbText
  0
TEXT
  5
5E7
100
AcDbEntity
  8
DN0
100
AcDbText
 10
162.560179
 20
334.138062
 40
4.0
  1
（
 41
0.535417
  7
STANDARD
100
AcDbText
  0
TEXT
  5
5E8
100
AcDbEntity
  8
DN0
100
AcDbText
 10
164.930522
 20
336.538055
 40
2.4
  1
高さ７．５の
 41
0.535417
  7
STANDARD
100
AcDbText
  0
TEXT
  5
5E9
100
AcDbEntity
  8
DN0
100
AcDbText
 10
164.930522
 20
333.338074
 40
2.4
  1
レール使用時
 41
0.535417
  7
STANDARD
100
AcDbText
  0
TEXT
  5
5EA
100
AcDbEntity
  8
DN0
100
AcDbText
 10
174.382185
 20
334.138062
 40
4.0
  1
）
 41
0.535417
  7
STANDARD
100
AcDbText
  0
TEXT
  5
5EB
100
AcDbEntity
  8
DN0
100
AcDbText
 10
15.077502
 20
105.349731
 40
2.5
  1
５４ｘ５６
 41
0.666667
  7
STANDARD
100
AcDbText
  0
TEXT
  5
5EC
100
AcDbEntity
  8
DN0
100
AcDbText
 10
15.077502
 20
101.44973
 40
2.5
  1
５４ｘ６０
 41
0.666667
  7
STANDARD
100
AcDbText
  0
TEXT
  5
5ED
100
AcDbEntity
  8
DN0
100
AcDbText
 10
15.077502
 20
97.549728
 40
2.5
  1
も取付可能
 41
0.666667
  7
STANDARD
100
AcDbText
  0
LINE
  5
5EE
100
AcDbEntity
  8
DN0
100
AcDbLine
 10
55.464929
 20
79.605432
 11
71.69493
 21
79.605432
  0
TEXT
  5
5EF
100
AcDbEntity
  8
DN0
100
AcDbText
 10
55.913263
 20
80.005432
 40
4.0
  1
せん孔図
 41
0.833333
  7
STANDARD
100
AcDbText
  0
LINE
  5
5F0
100
AcDbEntity
  8
DN0
100
AcDbLine
 10
210.287332
 20
248.789377
 11
226.517332
 21
248.789377
  0
TEXT
  5
5F1
100
AcDbEntity
  8
DN0
100
AcDbText
 10
210.735666
 20
249.189377
 40
4.0
  1
取付状態
 41
0.833333
  7
STANDARD
100
AcDbText
  0
ENDSEC
  0
SECTION
  2
OBJECTS
  0
DICTIONARY
  5
C
100
AcDbDictionary
  3
ACAD_GROUP
350
D
  3
ACAD_MLINESTYLE
350
E
  3
ACDBVARIABLEDICTIONARY
350
5D8
  0
DICTIONARY
  5
D
102
{ACAD_REACTORS
330
C
102
}
100
AcDbDictionary
  0
DICTIONARY
  5
E
102
{ACAD_REACTORS
330
C
102
}
100
AcDbDictionary
  3
STANDARD
350
13
  0
DICTIONARY
  5
5D8
102
{ACAD_REACTORS
330
C
102
}
100
AcDbDictionary
  3
SORTENTS
350
5D9
  0
MLINESTYLE
  5
13
102
{ACAD_REACTORS
330
E
102
}
100
AcDbMlineStyle
  2
STANDARD
 70
     0
  3

 62
     0
 51
90.0
 52
90.0
 71
     2
 49
0.5
 62
   256
  6
BYLAYER
 49
-0.5
 62
   256
  6
BYLAYER
  0
DICTIONARYVAR
  5
5D9
102
{ACAD_REACTORS
330
5D8
102
}
100
DictionaryVariables
280
     0
  1
96
  0
ENDSEC
  0
EOF
