  0
SECTION
  2
HEADER
  9
$ACADVER
  1
AC1014
  9
$INSBASE
 10
0.000000
 20
0.000000
 30
0.0
  9
$VIEWCTR
 10
7.531722
 20
4.5
  9
$VIEWSIZE
 40
9.0
  9
$SNAPMODE
 70
     0
  9
$SNAPUNIT
 10
1.0
 20
1.0
  9
$SNAPBASE
 10
0.0
 20
0.0
  9
$SNAPANG
 50
0.0
  9
$SNAPSTYLE
 70
     0
  9
$SNAPISOPAIR
 70
     0
  9
$GRIDMODE
 70
     0
  9
$GRIDUNIT
 10
0.0
 20
0.0
  9
$ORTHOMODE
 70
     0
  9
$REGENMODE
 70
     1
  9
$FILLMODE
 70
     1
  9
$QTEXTMODE
 70
     0
  9
$DRAGMODE
 70
     2
  9
$LTSCALE
  40
     1.000000
  9
$OSMODE
 70
     0
  9
$ATTMODE
 70
     1
  9
$TEXTSIZE
 40
0.2
  9
$TRACEWID
 40
0.05
  9
$TEXTSTYLE
  7
STANDARD
  9
$CELTYPE
  6
BYLAYER
  9
$CECOLOR
 62
   256
  9
$DIMSCALE
 40
1.0
  9
$DIMASZ
 40
0.18
  9
$DIMEXO
 40
0.0625
  9
$DIMDLI
 40
0.38
  9
$DIMRND
 40
0.0
  9
$DIMDLE
 40
0.0
  9
$DIMEXE
 40
0.18
  9
$DIMTP
 40
0.0
  9
$DIMTM
 40
0.0
  9
$DIMTXT
 40
0.18
  9
$DIMCEN
 40
0.09
  9
$DIMTSZ
 40
0.0
  9
$DIMTOL
 70
     0
  9
$DIMLIM
 70
     0
  9
$DIMTIH
 70
     1
  9
$DIMTOH
 70
     1
  9
$DIMSE1
 70
     0
  9
$DIMSE2
 70
     0
  9
$DIMTAD
 70
     0
  9
$DIMZIN
 70
     0
  9
$DIMBLK
  1

  9
$LUNITS
 70
     2
  9
$LUPREC
 70
     4
  9
$AXISMODE
 70
     0
  9
$AXISUNIT
 10
0.0
 20
0.0
  9
$SKETCHINC
 40
0.1
  9
$FILLETRAD
 40
0.0
  9
$AUNITS
 70
     0
  9
$AUPREC
 70
     0
  9
$MENU
  1
ACAD
  9
$ELEVATION
 40
0.0
  9
$THICKNESS
 40
0.0
  9
$VIEWDIR
 10
0.0
 20
0.0
 30
1.0
  9
$LIMCHECK
 70
     0
  9
$BLIPMODE
 70
     1
  9
$CHAMFERA
 40
0.0
  9
$CHAMFERB
 40
0.0
  9
$FASTZOOM
 70
     1
  9
$SKPOLY
 70
     0
  9
$TDCREATE
 40
0000000.0000000000
  9
$TDUPDATE
 40
0000000.0000000000
  9
$TDINDWG
 40
0.0000000000
  9
$TDUSRTIMER
 40
0.0000000000
  9
$USRTIMER
 70
     1
  9
$ANGBASE
 50
0.0
  9
$ANGDIR
 70
     0
  9
$PDMODE
 70
     0
  9
$PDSIZE
 40
0.0
  9
$PLINEWID
 40
0.0
  9
$COORDS
 70
     0
  9
$USERI1
 70
     0
  9
$USERI2
 70
     0
  9
$USERI3
 70
     0
  9
$USERI4
 70
     0
  9
$USERI5
 70
     0
  9
$USERR1
 40
0.0
  9
$USERR2
 40
0.0
  9
$USERR3
 40
0.0
  9
$USERR4
 40
0.0
  9
$USERR5
 40
0.0
  9
$CLAYER
  8
M0
  9
$EXTMIN
 10
16.336965
 20
17.593654
  9
$EXTMAX
 10
333.003619
 20
475.92697
  9
$LIMMIN
 10
0.0
 20
0.0
  9
$LIMMAX
 10
210.0
 20
297.0
  9
$HANDSEED
  5
86F
  0
ENDSEC
  0
SECTION
  2
CLASSES
  0
CLASS
  1
DICTIONARYVAR
  2
AcDbDictionaryVar
  3
"AutoCAD"
 90
        0
280
     0
281
     0
  0
CLASS
  1
HATCH
  2
AcDbHatch
  3
"ACAD_SEDONA"
 90
        0
280
     0
281
     1
  0
ENDSEC
  0
SECTION
  2
TABLES
  0
TABLE
  2
VPORT
  5
8
100
AcDbSymbolTable
 70
     2
  0
VPORT
  5
14
100
AcDbSymbolTableRecord
100
AcDbViewportTableRecord
  2
*ACTIVE
 70
     0
 10
0.0
 20
0.0
 11
1.0
 21
1.0
 12
484.0
 22
297.0
 13
0.0
 23
0.0
 14
1.0
 24
1.0
 15
0.0
 25
0.0
 16
0.0
 26
0.0
 36
1.0
 17
0.0
 27
0.0
 37
0.0
 40
594.0
 41
2.0
 42
50.0
 43
0.0
 44
0.0
 50
0.0
 51
0.0
 71
     0
 72
   100
 73
     1
 74
     1
 75
     0
 76
     0
 77
     0
 78
     0
  0
ENDTAB
  0
TABLE
  2
LTYPE
  5
5
100
AcDbSymbolTable
 70
     5
  0
LTYPE
  5
15
100
AcDbSymbolTableRecord
100
AcDbLinetypeTableRecord
  2
BYBLOCK
 70
     0
  3

 72
    65
 73
     0
 40
0.0
  0
LTYPE
  5
16
100
AcDbSymbolTableRecord
100
AcDbLinetypeTableRecord
  2
BYLAYER
 70
     0
  3

 72
    65
 73
     0
 40
0.0
  0
LTYPE
  5
17
100
AcDbSymbolTableRecord
100
AcDbLinetypeTableRecord
  2
CONTINUOUS
 70
    64
  3
Solid line
 72
    65
 73
     0
 40
0.0
  0
LTYPE
  5
18
100
AcDbSymbolTableRecord
100
AcDbLinetypeTableRecord
  2
DASHED
 70
    64
  3
__ __ __ __ __ __ __ __ __ __ __ __ __ __ __ __
 72
    65
 73
     2
 40
0.75
 49
0.5
 74
     0
 49
-0.25
 74
     0
  0
LTYPE
  5
19
100
AcDbSymbolTableRecord
100
AcDbLinetypeTableRecord
  2
DASHDOT
 70
    64
  3
__ . __ . __ . __ . __ . __ . __ . __ . __ . __
 72
    65
 73
     4
 40
1.0
 49
0.5
 74
     0
 49
-0.25
 74
     0
 49
0.0
 74
     0
 49
-0.25
 74
     0
  0
LTYPE
  5
1A
100
AcDbSymbolTableRecord
100
AcDbLinetypeTableRecord
  2
DIVIDE
 70
    64
  3
____ . . ____ . . ____ . . ____ . . ____ . . __
 72
    65
 73
     6
 40
1.25
 49
0.5
 74
     0
 49
-0.25
 74
     0
 49
0.0
 74
     0
 49
-0.25
 74
     0
 49
0.0
 74
     0
 49
-0.25
 74
     0
  0
LTYPE
  5
1B
100
AcDbSymbolTableRecord
100
AcDbLinetypeTableRecord
  2
DOT
 70
    64
  3
. . . . . . . . . . . . . . . . . . . . . . . .
 72
    65
 73
     2
 40
0.25
 49
0.0
 74
     0
 49
-0.25
 74
     0
  0
ENDTAB
  0
TABLE
  2
LAYER
  5
2
100
AcDbSymbolTable
 70
   102
  0
LAYER
  5
F
100
AcDbSymbolTableRecord
100
AcDbLayerTableRecord
  2
0
 70
     0
 62
     7
  6
CONTINUOUS
  0
LAYER
  5
1C
100
AcDbSymbolTableRecord
100
AcDbLayerTableRecord
  2
DEFPOINTS
 70
     0
 62
     7
  6
CONTINUOUS
  0
LAYER
  5
1D
100
AcDbSymbolTableRecord
100
AcDbLayerTableRecord
  2
M0
 70
     0
 62
     3
  6
CONTINUOUS
  0
LAYER
  5
1E
100
AcDbSymbolTableRecord
100
AcDbLayerTableRecord
  2
M3
 70
     0
 62
     3
  6
CONTINUOUS
  0
LAYER
  5
1F
100
AcDbSymbolTableRecord
100
AcDbLayerTableRecord
  2
DD0
 70
     0
 62
     4
  6
CONTINUOUS
  0
LAYER
  5
20
100
AcDbSymbolTableRecord
100
AcDbLayerTableRecord
  2
DN0
 70
     0
 62
     2
  6
CONTINUOUS
  0
ENDTAB
  0
TABLE
  2
STYLE
  5
3
100
AcDbSymbolTable
 70
     2
  0
STYLE
  5
10
100
AcDbSymbolTableRecord
100
AcDbTextStyleTableRecord
  2
STANDARD
 70
     0
 40
0.0
 41
1.0
 50
0.0
 71
     0
 42
0.2
  3
txt
  4
BIGFONT
  0
ENDTAB
  0
TABLE
  2
VIEW
  5
6
100
AcDbSymbolTable
 70
     0
  0
ENDTAB
  0
TABLE
  2
UCS
  5
7
100
AcDbSymbolTable
 70
     0
  0
ENDTAB
  0
TABLE
  2
APPID
  5
9
100
AcDbSymbolTable
 70
     1
  0
APPID
  5
11
100
AcDbSymbolTableRecord
100
AcDbRegAppTableRecord
  2
ACAD
 70
     0
  0
ENDTAB
  0
TABLE
  2
DIMSTYLE
  5
A
100
AcDbSymbolTable
 70
     2
  0
DIMSTYLE
105
27
100
AcDbSymbolTableRecord
100
AcDbDimStyleTableRecord
  2
STANDARD
 70
     0
  3

  4

  5

  6
_OPEN
  7
_OPEN
 40
1.0
 41
5.0
 42
1.0
 43
8.0
 44
1.0
 45
0.0
 46
0.0
 47
0.0
 48
0.0
140
5.25
141
0.09
142
0.0
143
0.03937
144
1.0
145
0.0
146
1.0
147
0.6
 71
     0
 72
     0
 73
     1
 74
     1
 75
     0
 76
     0
 77
     3
 78
     8
170
     0
171
     2
172
     0
173
     1
174
     0
175
     0
176
     0
177
     0
178
     0
270
     2
271
     2
272
     4
273
     2
274
     2
340
10
275
     0
280
     0
281
     0
282
     0
283
     1
284
     0
285
     0
286
     0
287
     3
288
     0
  0
DIMSTYLE
105
28
100
AcDbSymbolTableRecord
100
AcDbDimStyleTableRecord
  2
LEADSTYL
 70
     0
  3

  4

  5

  6
_OPEN
  7
_OPEN
 40
1.0
 41
5.0
 42
0.0625
 43
0.38
 44
0.18
 45
0.0
 46
0.0
 47
0.0
 48
0.0
140
5.25
141
0.09
142
0.0
143
25.4
144
1.0
145
0.0
146
1.0
147
0.6
 71
     0
 72
     0
 73
     1
 74
     1
 75
     0
 76
     0
 77
     0
 78
     0
170
     0
171
     2
172
     0
173
     1
174
     0
175
     0
176
     0
177
     0
178
     0
270
     2
271
     4
272
     4
273
     2
274
     2
340
10
275
     0
280
     0
281
     0
282
     0
283
     1
284
     0
285
     0
286
     0
287
     3
288
     0
  0
ENDTAB
  0
TABLE
  2
BLOCK_RECORD
  5
1
100
AcDbSymbolTable
 70
    22
  0
BLOCK_RECORD
  5
21
100
AcDbSymbolTableRecord
100
AcDbBlockTableRecord
  2
*MODEL_SPACE
  0
BLOCK_RECORD
  5
24
100
AcDbSymbolTableRecord
100
AcDbBlockTableRecord
  2
*PAPER_SPACE
  0
BLOCK_RECORD
  5
29
100
AcDbSymbolTableRecord
100
AcDbBlockTableRecord
  2
_NONE
  0
BLOCK_RECORD
  5
2D
100
AcDbSymbolTableRecord
100
AcDbBlockTableRecord
  2
_OPEN
  0
BLOCK_RECORD
  5
33
100
AcDbSymbolTableRecord
100
AcDbBlockTableRecord
  2
_CLOSED
  0
BLOCK_RECORD
  5
3A
100
AcDbSymbolTableRecord
100
AcDbBlockTableRecord
  2
_ORIGIN
  0
BLOCK_RECORD
  5
3F
100
AcDbSymbolTableRecord
100
AcDbBlockTableRecord
  2
_DOT
  0
BLOCK_RECORD
  5
47
100
AcDbSymbolTableRecord
100
AcDbBlockTableRecord
  2
_OBLIQUE
  0
BLOCK_RECORD
  5
4B
100
AcDbSymbolTableRecord
100
AcDbBlockTableRecord
  2
DIMS0
  0
BLOCK_RECORD
  5
56
100
AcDbSymbolTableRecord
100
AcDbBlockTableRecord
  2
DIMS1
  0
BLOCK_RECORD
  5
62
100
AcDbSymbolTableRecord
100
AcDbBlockTableRecord
  2
DIMS2
  0
BLOCK_RECORD
  5
6D
100
AcDbSymbolTableRecord
100
AcDbBlockTableRecord
  2
DIMS3
  0
BLOCK_RECORD
  5
79
100
AcDbSymbolTableRecord
100
AcDbBlockTableRecord
  2
DIMS4
  0
BLOCK_RECORD
  5
86
100
AcDbSymbolTableRecord
100
AcDbBlockTableRecord
  2
DIMS5
  0
BLOCK_RECORD
  5
92
100
AcDbSymbolTableRecord
100
AcDbBlockTableRecord
  2
DIMS6
  0
BLOCK_RECORD
  5
9E
100
AcDbSymbolTableRecord
100
AcDbBlockTableRecord
  2
DIMS7
  0
BLOCK_RECORD
  5
AA
100
AcDbSymbolTableRecord
100
AcDbBlockTableRecord
  2
DIMS8
  0
BLOCK_RECORD
  5
B6
100
AcDbSymbolTableRecord
100
AcDbBlockTableRecord
  2
DIMS9
  0
BLOCK_RECORD
  5
BE
100
AcDbSymbolTableRecord
100
AcDbBlockTableRecord
  2
DIMS10
  0
BLOCK_RECORD
  5
CA
100
AcDbSymbolTableRecord
100
AcDbBlockTableRecord
  2
DIMS11
  0
BLOCK_RECORD
  5
D6
100
AcDbSymbolTableRecord
100
AcDbBlockTableRecord
  2
DIMS12
  0
BLOCK_RECORD
  5
E2
100
AcDbSymbolTableRecord
100
AcDbBlockTableRecord
  2
DIMS13
  0
BLOCK_RECORD
  5
EE
100
AcDbSymbolTableRecord
100
AcDbBlockTableRecord
  2
DIMS14
  0
BLOCK_RECORD
  5
FA
100
AcDbSymbolTableRecord
100
AcDbBlockTableRecord
  2
DIMS15
  0
ENDTAB
  0
ENDSEC
  0
SECTION
  2
BLOCKS
  0
BLOCK
  5
22
100
AcDbEntity
  8
0
100
AcDbBlockBegin
  2
*MODEL_SPACE
 70
     0
 10
0.0
 20
0.0
 30
0.0
  3
*MODEL_SPACE
  1

  0
ENDBLK
  5
23
100
AcDbEntity
  8
0
100
AcDbBlockEnd
  0
BLOCK
  5
25
100
AcDbEntity
 67
     1
  8
0
100
AcDbBlockBegin
  2
*PAPER_SPACE
 70
     0
 10
0.0
 20
0.0
 30
0.0
  3
*PAPER_SPACE
  1

  0
ENDBLK
  5
26
100
AcDbEntity
 67
     1
  8
0
100
AcDbBlockEnd
  0
BLOCK
  5
2A
100
AcDbEntity
  8
0
100
AcDbBlockBegin
  2
_NONE
 70
     0
 10
0.0
 20
0.0
  0
CIRCLE
  5
2B
100
AcDbEntity
  8
0
 62
     0
100
AcDbCircle
 10
0.0
 20
0.0
 40
0.25
  0
ENDBLK
  5
2C
100
AcDbEntity
  8
0
100
AcDbBlockEnd
  0
BLOCK
  5
2E
100
AcDbEntity
  8
0
100
AcDbBlockBegin
  2
_OPEN
 70
     0
 10
0.0
 20
0.0
  0
LINE
  5
2F
100
AcDbEntity
  8
0
 62
     0
100
AcDbLine
 10
-0.965926
 20
0.258819
 11
0.0
 21
0.0
  0
LINE
  5
30
100
AcDbEntity
  8
0
 62
     0
100
AcDbLine
 10
0.0
 20
0.0
 11
-0.965926
 21
-0.258819
  0
LINE
  5
31
100
AcDbEntity
  8
0
 62
     0
100
AcDbLine
 10
0.0
 20
0.0
 11
-1.0
 21
0.0
  0
ENDBLK
  5
32
100
AcDbEntity
  8
0
100
AcDbBlockEnd
  0
BLOCK
  5
34
100
AcDbEntity
  8
0
100
AcDbBlockBegin
  2
_CLOSED
 70
     0
 10
0.0
 20
0.0
  0
LINE
  5
35
100
AcDbEntity
  8
0
 62
     0
100
AcDbLine
 10
-0.965926
 20
0.258819
 11
0.0
 21
0.0
  0
LINE
  5
36
100
AcDbEntity
  8
0
 62
     0
100
AcDbLine
 10
0.0
 20
0.0
 11
-0.965926
 21
-0.258819
  0
LINE
  5
37
100
AcDbEntity
  8
0
 62
     0
100
AcDbLine
 10
-0.965926
 20
0.258819
 11
-0.965926
 21
-0.258819
  0
LINE
  5
38
100
AcDbEntity
  8
0
 62
     0
100
AcDbLine
 10
0.0
 20
0.0
 11
-1.0
 21
0.0
  0
ENDBLK
  5
39
100
AcDbEntity
  8
0
100
AcDbBlockEnd
  0
BLOCK
  5
3B
100
AcDbEntity
  8
0
100
AcDbBlockBegin
  2
_ORIGIN
 70
     0
 10
0.0
 20
0.0
  0
CIRCLE
  5
3C
100
AcDbEntity
  8
0
 62
     0
100
AcDbCircle
 10
0.0
 20
0.0
 40
0.5
  0
LINE
  5
3D
100
AcDbEntity
  8
0
 62
     0
100
AcDbLine
 10
0.0
 20
0.0
 11
-1.0
 21
0.0
  0
ENDBLK
  5
3E
100
AcDbEntity
  8
0
100
AcDbBlockEnd
  0
BLOCK
  5
40
100
AcDbEntity
  8
0
100
AcDbBlockBegin
  2
_DOT
 70
     0
 10
0.0
 20
0.0
  0
POLYLINE
  5
41
100
AcDbEntity
  8
0
 62
     0
100
AcDb2dPolyline
 66
     1
 70
     1
 40
0.5
 41
0.5
  0
VERTEX
  5
42
100
AcDbEntity
  8
0
 62
     0
100
AcDbVertex
100
AcDb2dVertex
 10
-0.25
 20
0.0
 42
1.0
  0
VERTEX
  5
43
100
AcDbEntity
  8
0
 62
     0
100
AcDbVertex
100
AcDb2dVertex
 10
0.25
 20
0.0
 42
1.0
  0
SEQEND
  5
44
100
AcDbEntity
  8
0
 62
     0
  0
LINE
  5
45
100
AcDbEntity
  8
0
 62
     0
100
AcDbLine
 10
-0.5
 20
0.0
 11
-1.0
 21
0.0
  0
ENDBLK
  5
46
100
AcDbEntity
  8
0
100
AcDbBlockEnd
  0
BLOCK
  5
48
100
AcDbEntity
  8
0
100
AcDbBlockBegin
  2
_OBLIQUE
 70
     0
 10
0.0
 20
0.0
  0
LINE
  5
49
100
AcDbEntity
  8
0
 62
     0
100
AcDbLine
 10
-0.353553
 20
-0.353553
 11
0.353553
 21
0.353553
  0
ENDBLK
  5
4A
100
AcDbEntity
  8
0
100
AcDbBlockEnd
  0
BLOCK
  5
4C
100
AcDbEntity
  8
DD0
100
AcDbBlockBegin
  2
DIMS0
 70
     0
 10
0.0
 20
0.0
  0
LINE
  5
4D
100
AcDbEntity
  8
DD0
100
AcDbLine
 10
241.310644
 20
332.744814
 11
241.310644
 21
385.485901
  0
LINE
  5
4E
100
AcDbEntity
  8
DD0
100
AcDbLine
 10
317.581018
 20
382.525139
 11
322.410647
 21
383.819234
  0
LINE
  5
4F
100
AcDbEntity
  8
DD0
100
AcDbLine
 10
322.410647
 20
383.819234
 11
317.581018
 21
385.113329
  0
LINE
  5
50
100
AcDbEntity
  8
DD0
100
AcDbLine
 10
246.140273
 20
385.113329
 11
241.310644
 21
383.819234
  0
LINE
  5
51
100
AcDbEntity
  8
DD0
100
AcDbLine
 10
241.310644
 20
383.819234
 11
246.140273
 21
382.525139
  0
LINE
  5
52
100
AcDbEntity
  8
DD0
100
AcDbLine
 10
322.410647
 20
383.819234
 11
241.310644
 21
383.819234
  0
TEXT
  5
53
100
AcDbEntity
  8
DD0
100
AcDbText
 10
278.813413
 20
384.819244
 40
4.166667
  1
８１
 41
0.666667
  7
STANDARD
100
AcDbText
  0
ENDBLK
  5
54
100
AcDbEntity
  8
DD0
100
AcDbBlockEnd
  0
BLOCK
  5
57
100
AcDbEntity
  8
DD0
100
AcDbBlockBegin
  2
DIMS1
 70
     0
 10
0.0
 20
0.0
  0
LINE
  5
58
100
AcDbEntity
  8
DD0
100
AcDbLine
 10
322.410647
 20
354.994798
 11
322.410647
 21
392.629506
  0
LINE
  5
59
100
AcDbEntity
  8
DD0
100
AcDbLine
 10
210.010647
 20
322.544797
 11
210.010647
 21
392.629506
  0
LINE
  5
5A
100
AcDbEntity
  8
DD0
100
AcDbLine
 10
317.581018
 20
389.668744
 11
322.410647
 21
390.962839
  0
LINE
  5
5B
100
AcDbEntity
  8
DD0
100
AcDbLine
 10
322.410647
 20
390.962839
 11
317.581018
 21
392.256935
  0
LINE
  5
5C
100
AcDbEntity
  8
DD0
100
AcDbLine
 10
214.840276
 20
392.256935
 11
210.010647
 21
390.962839
  0
LINE
  5
5D
100
AcDbEntity
  8
DD0
100
AcDbLine
 10
210.010647
 20
390.962839
 11
214.840276
 21
389.668744
  0
LINE
  5
5E
100
AcDbEntity
  8
DD0
100
AcDbLine
 10
322.410647
 20
390.962839
 11
210.010647
 21
390.962839
  0
TEXT
  5
5F
100
AcDbEntity
  8
DD0
100
AcDbText
 10
226.49675
 20
391.96285
 40
4.166667
  1
１１２（補助接点ヘッドオンユニットを付けた場合）
 41
0.666667
  7
STANDARD
100
AcDbText
  0
ENDBLK
  5
60
100
AcDbEntity
  8
DD0
100
AcDbBlockEnd
  0
BLOCK
  5
63
100
AcDbEntity
  8
DD0
100
AcDbBlockBegin
  2
DIMS2
 70
     0
 10
0.0
 20
0.0
  0
LINE
  5
64
100
AcDbEntity
  8
DD0
100
AcDbLine
 10
311.410637
 20
355.744818
 11
311.410637
 21
364.177461
  0
LINE
  5
65
100
AcDbEntity
  8
DD0
100
AcDbLine
 10
327.240276
 20
363.804889
 11
322.410647
 21
362.510794
  0
LINE
  5
66
100
AcDbEntity
  8
DD0
100
AcDbLine
 10
322.410647
 20
362.510794
 11
327.240276
 21
361.216699
  0
LINE
  5
67
100
AcDbEntity
  8
DD0
100
AcDbLine
 10
306.581008
 20
361.216699
 11
311.410637
 21
362.510794
  0
LINE
  5
68
100
AcDbEntity
  8
DD0
100
AcDbLine
 10
311.410637
 20
362.510794
 11
306.581008
 21
363.804889
  0
LINE
  5
69
100
AcDbEntity
  8
DD0
100
AcDbLine
 10
327.910647
 20
362.510794
 11
305.910638
 21
362.510794
  0
TEXT
  5
6A
100
AcDbEntity
  8
DD0
100
AcDbText
 10
313.645998
 20
363.510804
 40
4.166667
  1
１１
 41
0.666667
  7
STANDARD
100
AcDbText
  0
ENDBLK
  5
6B
100
AcDbEntity
  8
DD0
100
AcDbBlockEnd
  0
BLOCK
  5
6E
100
AcDbEntity
  8
DD0
100
AcDbBlockBegin
  2
DIMS3
 70
     0
 10
0.0
 20
0.0
  0
LINE
  5
6F
100
AcDbEntity
  8
DD0
100
AcDbLine
 10
241.310644
 20
332.744814
 11
241.310644
 21
368.328588
  0
LINE
  5
70
100
AcDbEntity
  8
DD0
100
AcDbLine
 10
236.310644
 20
365.244813
 11
236.310644
 21
368.328588
  0
LINE
  5
71
100
AcDbEntity
  8
DD0
100
AcDbLine
 10
246.140273
 20
367.956017
 11
241.310644
 21
366.661922
  0
LINE
  5
72
100
AcDbEntity
  8
DD0
100
AcDbLine
 10
241.310644
 20
366.661922
 11
246.140273
 21
365.367827
  0
LINE
  5
73
100
AcDbEntity
  8
DD0
100
AcDbLine
 10
231.481015
 20
365.367827
 11
236.310644
 21
366.661922
  0
LINE
  5
74
100
AcDbEntity
  8
DD0
100
AcDbLine
 10
236.310644
 20
366.661922
 11
231.481015
 21
367.956017
  0
LINE
  5
75
100
AcDbEntity
  8
DD0
100
AcDbLine
 10
246.810644
 20
366.661922
 11
225.810644
 21
366.661922
  0
TEXT
  5
76
100
AcDbEntity
  8
DD0
100
AcDbText
 10
227.280085
 20
367.661932
 40
4.166667
  1
５
 41
0.666667
  7
STANDARD
100
AcDbText
  0
ENDBLK
  5
77
100
AcDbEntity
  8
DD0
100
AcDbBlockEnd
  0
BLOCK
  5
7A
100
AcDbEntity
  8
DD0
100
AcDbBlockBegin
  2
DIMS4
 70
     0
 10
0.0
 20
0.0
  0
LINE
  5
7B
100
AcDbEntity
  8
DD0
100
AcDbLine
 10
190.099378
 20
350.94481
 11
190.099378
 21
398.476979
  0
LINE
  5
7C
100
AcDbEntity
  8
DD0
100
AcDbLine
 10
29.49939
 20
350.94481
 11
29.49939
 21
398.476979
  0
LINE
  5
7D
100
AcDbEntity
  8
DD0
100
AcDbLine
 10
185.269749
 20
395.516217
 11
190.099378
 21
396.810312
  0
LINE
  5
7E
100
AcDbEntity
  8
DD0
100
AcDbLine
 10
190.099378
 20
396.810312
 11
185.269749
 21
398.104408
  0
LINE
  5
7F
100
AcDbEntity
  8
DD0
100
AcDbLine
 10
34.329019
 20
398.104408
 11
29.49939
 21
396.810312
  0
LINE
  5
80
100
AcDbEntity
  8
DD0
100
AcDbLine
 10
29.49939
 20
396.810312
 11
34.329019
 21
395.516217
  0
LINE
  5
81
100
AcDbEntity
  8
DD0
100
AcDbLine
 10
190.099378
 20
396.810312
 11
29.49939
 21
396.810312
  0
TEXT
  5
82
100
AcDbEntity
  8
DD0
100
AcDbText
 10
101.752161
 20
397.810323
 40
4.166667
  1
１６０．５
 41
0.666667
  7
STANDARD
100
AcDbText
  0
TEXT
  5
83
100
AcDbEntity
  8
DD0
100
AcDbText
 10
75.085496
 20
391.310333
 40
4.166667
  1
（補助接点サイドオンユニットを付けた場合）
 41
0.666667
  7
STANDARD
100
AcDbText
  0
ENDBLK
  5
84
100
AcDbEntity
  8
DD0
100
AcDbBlockEnd
  0
BLOCK
  5
87
100
AcDbEntity
  8
DD0
100
AcDbBlockBegin
  2
DIMS5
 70
     0
 10
0.0
 20
0.0
  0
LINE
  5
88
100
AcDbEntity
  8
DD0
100
AcDbLine
 10
73.399388
 20
369.244802
 11
73.399388
 21
373.195252
  0
LINE
  5
89
100
AcDbEntity
  8
DD0
100
AcDbLine
 10
146.199386
 20
369.244802
 11
146.199386
 21
373.195252
  0
LINE
  5
8A
100
AcDbEntity
  8
DD0
100
AcDbLine
 10
78.229017
 20
372.822681
 11
73.399388
 21
371.528585
  0
LINE
  5
8B
100
AcDbEntity
  8
DD0
100
AcDbLine
 10
73.399388
 20
371.528585
 11
78.229017
 21
370.23449
  0
LINE
  5
8C
100
AcDbEntity
  8
DD0
100
AcDbLine
 10
141.369757
 20
370.23449
 11
146.199386
 21
371.528585
  0
LINE
  5
8D
100
AcDbEntity
  8
DD0
100
AcDbLine
 10
146.199386
 20
371.528585
 11
141.369757
 21
372.822681
  0
LINE
  5
8E
100
AcDbEntity
  8
DD0
100
AcDbLine
 10
73.399388
 20
371.528585
 11
146.199386
 21
371.528585
  0
TEXT
  5
8F
100
AcDbEntity
  8
DD0
100
AcDbText
 10
106.752174
 20
372.528595
 40
4.166667
  1
７３
 41
0.666667
  7
STANDARD
100
AcDbText
  0
ENDBLK
  5
90
100
AcDbEntity
  8
DD0
100
AcDbBlockEnd
  0
BLOCK
  5
93
100
AcDbEntity
  8
DD0
100
AcDbBlockBegin
  2
DIMS6
 70
     0
 10
0.0
 20
0.0
  0
LINE
  5
94
100
AcDbEntity
  8
DD0
100
AcDbLine
 10
73.399388
 20
277.411488
 11
73.399388
 21
269.563842
  0
LINE
  5
95
100
AcDbEntity
  8
DD0
100
AcDbLine
 10
60.399384
 20
293.711485
 11
60.399384
 21
269.563842
  0
LINE
  5
96
100
AcDbEntity
  8
DD0
100
AcDbLine
 10
68.569759
 20
269.936414
 11
73.399388
 21
271.230509
  0
LINE
  5
97
100
AcDbEntity
  8
DD0
100
AcDbLine
 10
73.399388
 20
271.230509
 11
68.569759
 21
272.524604
  0
LINE
  5
98
100
AcDbEntity
  8
DD0
100
AcDbLine
 10
65.229013
 20
272.524604
 11
60.399384
 21
271.230509
  0
LINE
  5
99
100
AcDbEntity
  8
DD0
100
AcDbLine
 10
60.399384
 20
271.230509
 11
65.229013
 21
269.936414
  0
LINE
  5
9A
100
AcDbEntity
  8
DD0
100
AcDbLine
 10
73.399388
 20
271.230509
 11
60.399384
 21
271.230509
  0
TEXT
  5
9B
100
AcDbEntity
  8
DD0
100
AcDbText
 10
63.852166
 20
272.230519
 40
4.166667
  1
１３
 41
0.666667
  7
STANDARD
100
AcDbText
  0
ENDBLK
  5
9C
100
AcDbEntity
  8
DD0
100
AcDbBlockEnd
  0
BLOCK
  5
9F
100
AcDbEntity
  8
DD0
100
AcDbBlockBegin
  2
DIMS7
 70
     0
 10
0.0
 20
0.0
  0
LINE
  5
A0
100
AcDbEntity
  8
DD0
100
AcDbLine
 10
163.983784
 20
364.078151
 11
202.400276
 21
364.078151
  0
LINE
  5
A1
100
AcDbEntity
  8
DD0
100
AcDbLine
 10
174.266045
 20
284.078154
 11
202.400276
 21
284.078154
  0
LINE
  5
A2
100
AcDbEntity
  8
DD0
100
AcDbLine
 10
202.027704
 20
359.248522
 11
200.733609
 21
364.078151
  0
LINE
  5
A3
100
AcDbEntity
  8
DD0
100
AcDbLine
 10
200.733609
 20
364.078151
 11
199.439514
 21
359.248522
  0
LINE
  5
A4
100
AcDbEntity
  8
DD0
100
AcDbLine
 10
199.439514
 20
288.907783
 11
200.733609
 21
284.078154
  0
LINE
  5
A5
100
AcDbEntity
  8
DD0
100
AcDbLine
 10
200.733609
 20
284.078154
 11
202.027704
 21
288.907783
  0
LINE
  5
A6
100
AcDbEntity
  8
DD0
100
AcDbLine
 10
200.733609
 20
364.078151
 11
200.733609
 21
284.078154
  0
TEXT
  5
A7
100
AcDbEntity
  8
DD0
100
AcDbText
 10
199.733612
 20
321.030921
 40
4.166667
  1
８０
 50
90.000003
 41
0.666667
  7
STANDARD
100
AcDbText
  0
ENDBLK
  5
A8
100
AcDbEntity
  8
DD0
100
AcDbBlockEnd
  0
BLOCK
  5
AB
100
AcDbEntity
  8
DD0
100
AcDbBlockBegin
  2
DIMS8
 70
     0
 10
0.0
 20
0.0
  0
LINE
  5
AC
100
AcDbEntity
  8
DD0
100
AcDbLine
 10
41.999386
 20
351.744803
 11
41.999386
 21
383.957759
  0
LINE
  5
AD
100
AcDbEntity
  8
DD0
100
AcDbLine
 10
177.599379
 20
351.744803
 11
177.599379
 21
383.957759
  0
LINE
  5
AE
100
AcDbEntity
  8
DD0
100
AcDbLine
 10
46.829015
 20
383.585187
 11
41.999386
 21
382.291092
  0
LINE
  5
AF
100
AcDbEntity
  8
DD0
100
AcDbLine
 10
41.999386
 20
382.291092
 11
46.829015
 21
380.996997
  0
LINE
  5
B0
100
AcDbEntity
  8
DD0
100
AcDbLine
 10
172.76975
 20
380.996997
 11
177.599379
 21
382.291092
  0
LINE
  5
B1
100
AcDbEntity
  8
DD0
100
AcDbLine
 10
177.599379
 20
382.291092
 11
172.76975
 21
383.585187
  0
LINE
  5
B2
100
AcDbEntity
  8
DD0
100
AcDbLine
 10
41.999386
 20
382.291092
 11
177.599379
 21
382.291092
  0
TEXT
  5
B3
100
AcDbEntity
  8
DD0
100
AcDbText
 10
101.752161
 20
383.291102
 40
4.166667
  1
１３５．５
 41
0.666667
  7
STANDARD
100
AcDbText
  0
ENDBLK
  5
B4
100
AcDbEntity
  8
DD0
100
AcDbBlockEnd
  0
BLOCK
  5
B7
100
AcDbEntity
  8
DD0
100
AcDbBlockBegin
  2
DIMS9
 70
     0
 10
0.0
 20
0.0
  0
TEXT
  5
B8
100
AcDbEntity
  8
DD0
100
AcDbText
 10
170.932762
 20
124.579882
 40
4.166667
  1
４－Ｍ４ねじ穴
 41
0.666667
  7
STANDARD
100
AcDbText
  0
LINE
  5
B9
100
AcDbEntity
  8
DD0
100
AcDbLine
 10
177.698225
 20
136.170125
 11
174.561888
 21
140.064145
  0
LINE
  5
BA
100
AcDbEntity
  8
DD0
100
AcDbLine
 10
174.561888
 20
140.064145
 11
175.331026
 21
135.123657
  0
LINE
  5
BB
100
AcDbEntity
  8
DD0
100
AcDbLine
 10
174.561888
 20
140.064145
 11
179.228076
 21
129.50884
  0
ENDBLK
  5
BC
100
AcDbEntity
  8
DD0
100
AcDbBlockEnd
  0
BLOCK
  5
BF
100
AcDbEntity
  8
DD0
100
AcDbBlockBegin
  2
DIMS10
 70
     0
 10
0.0
 20
0.0
  0
LINE
  5
C0
100
AcDbEntity
  8
DD0
100
AcDbLine
 10
164.836038
 20
215.028246
 11
191.363887
 21
215.028246
  0
LINE
  5
C1
100
AcDbEntity
  8
DD0
100
AcDbLine
 10
52.163453
 20
200.528239
 11
191.363887
 21
200.528239
  0
LINE
  5
C2
100
AcDbEntity
  8
DD0
100
AcDbLine
 10
190.991315
 20
210.198617
 11
189.69722
 21
215.028246
  0
LINE
  5
C3
100
AcDbEntity
  8
DD0
100
AcDbLine
 10
189.69722
 20
215.028246
 11
188.403125
 21
210.198617
  0
LINE
  5
C4
100
AcDbEntity
  8
DD0
100
AcDbLine
 10
188.403125
 20
205.357868
 11
189.69722
 21
200.528239
  0
LINE
  5
C5
100
AcDbEntity
  8
DD0
100
AcDbLine
 10
189.69722
 20
200.528239
 11
190.991315
 21
205.357868
  0
LINE
  5
C6
100
AcDbEntity
  8
DD0
100
AcDbLine
 10
189.69722
 20
232.27645
 11
189.69722
 21
200.528239
  0
TEXT
  5
C7
100
AcDbEntity
  8
DD0
100
AcDbText
 10
188.697223
 20
217.562551
 40
4.166667
  1
１４．５
 50
90.000003
 41
0.666667
  7
STANDARD
100
AcDbText
  0
ENDBLK
  5
C8
100
AcDbEntity
  8
DD0
100
AcDbBlockEnd
  0
BLOCK
  5
CB
100
AcDbEntity
  8
DD0
100
AcDbBlockBegin
  2
DIMS11
 70
     0
 10
0.0
 20
0.0
  0
LINE
  5
CC
100
AcDbEntity
  8
DD0
100
AcDbLine
 10
52.163453
 20
200.528239
 11
191.363887
 21
200.528239
  0
LINE
  5
CD
100
AcDbEntity
  8
DD0
100
AcDbLine
 10
106.163453
 20
141.528238
 11
191.363887
 21
141.528238
  0
LINE
  5
CE
100
AcDbEntity
  8
DD0
100
AcDbLine
 10
190.991315
 20
195.69861
 11
189.69722
 21
200.528239
  0
LINE
  5
CF
100
AcDbEntity
  8
DD0
100
AcDbLine
 10
189.69722
 20
200.528239
 11
188.403125
 21
195.69861
  0
LINE
  5
D0
100
AcDbEntity
  8
DD0
100
AcDbLine
 10
188.403125
 20
146.357867
 11
189.69722
 21
141.528238
  0
LINE
  5
D1
100
AcDbEntity
  8
DD0
100
AcDbLine
 10
189.69722
 20
141.528238
 11
190.991315
 21
146.357867
  0
LINE
  5
D2
100
AcDbEntity
  8
DD0
100
AcDbLine
 10
189.69722
 20
200.528239
 11
189.69722
 21
141.528238
  0
TEXT
  5
D3
100
AcDbEntity
  8
DD0
100
AcDbText
 10
188.697223
 20
167.981013
 40
4.166667
  1
５９
 50
90.000003
 41
0.666667
  7
STANDARD
100
AcDbText
  0
ENDBLK
  5
D4
100
AcDbEntity
  8
DD0
100
AcDbBlockEnd
  0
BLOCK
  5
D7
100
AcDbEntity
  8
DD0
100
AcDbBlockBegin
  2
DIMS12
 70
     0
 10
0.0
 20
0.0
  0
LINE
  5
D8
100
AcDbEntity
  8
DD0
100
AcDbLine
 10
46.399375
 20
206.292297
 11
46.399375
 21
231.736594
  0
LINE
  5
D9
100
AcDbEntity
  8
DD0
100
AcDbLine
 10
100.399376
 20
147.292297
 11
100.399376
 21
231.736594
  0
LINE
  5
DA
100
AcDbEntity
  8
DD0
100
AcDbLine
 10
51.229004
 20
231.364022
 11
46.399375
 21
230.069927
  0
LINE
  5
DB
100
AcDbEntity
  8
DD0
100
AcDbLine
 10
46.399375
 20
230.069927
 11
51.229004
 21
228.775832
  0
LINE
  5
DC
100
AcDbEntity
  8
DD0
100
AcDbLine
 10
95.569747
 20
228.775832
 11
100.399376
 21
230.069927
  0
LINE
  5
DD
100
AcDbEntity
  8
DD0
100
AcDbLine
 10
100.399376
 20
230.069927
 11
95.569747
 21
231.364022
  0
LINE
  5
DE
100
AcDbEntity
  8
DD0
100
AcDbLine
 10
46.399375
 20
230.069927
 11
100.399376
 21
230.069927
  0
TEXT
  5
DF
100
AcDbEntity
  8
DD0
100
AcDbText
 10
70.352156
 20
231.069937
 40
4.166667
  1
５４
 41
0.666667
  7
STANDARD
100
AcDbText
  0
ENDBLK
  5
E0
100
AcDbEntity
  8
DD0
100
AcDbBlockEnd
  0
BLOCK
  5
E3
100
AcDbEntity
  8
DD0
100
AcDbBlockBegin
  2
DIMS13
 70
     0
 10
0.0
 20
0.0
  0
LINE
  5
E4
100
AcDbEntity
  8
DD0
100
AcDbLine
 10
46.399375
 20
206.292297
 11
46.399375
 21
231.736594
  0
LINE
  5
E5
100
AcDbEntity
  8
DD0
100
AcDbLine
 10
41.999386
 20
207.694897
 11
41.999386
 21
231.736594
  0
LINE
  5
E6
100
AcDbEntity
  8
DD0
100
AcDbLine
 10
51.229004
 20
231.364022
 11
46.399375
 21
230.069927
  0
LINE
  5
E7
100
AcDbEntity
  8
DD0
100
AcDbLine
 10
46.399375
 20
230.069927
 11
51.229004
 21
228.775832
  0
LINE
  5
E8
100
AcDbEntity
  8
DD0
100
AcDbLine
 10
37.169757
 20
228.775832
 11
41.999386
 21
230.069927
  0
LINE
  5
E9
100
AcDbEntity
  8
DD0
100
AcDbLine
 10
41.999386
 20
230.069927
 11
37.169757
 21
231.364022
  0
LINE
  5
EA
100
AcDbEntity
  8
DD0
100
AcDbLine
 10
51.899375
 20
230.069927
 11
26.774542
 21
230.069927
  0
TEXT
  5
EB
100
AcDbEntity
  8
DD0
100
AcDbText
 10
28.727319
 20
231.069937
 40
4.166667
  1
４．５
 41
0.666667
  7
STANDARD
100
AcDbText
  0
ENDBLK
  5
EC
100
AcDbEntity
  8
DD0
100
AcDbBlockEnd
  0
BLOCK
  5
EF
100
AcDbEntity
  8
DD0
100
AcDbBlockBegin
  2
DIMS14
 70
     0
 10
0.0
 20
0.0
  0
LINE
  5
F0
100
AcDbEntity
  8
DD0
100
AcDbLine
 10
100.399376
 20
147.292297
 11
100.399376
 21
231.736594
  0
LINE
  5
F1
100
AcDbEntity
  8
DD0
100
AcDbLine
 10
119.199367
 20
206.292297
 11
119.199367
 21
231.736594
  0
LINE
  5
F2
100
AcDbEntity
  8
DD0
100
AcDbLine
 10
105.229005
 20
231.364022
 11
100.399376
 21
230.069927
  0
LINE
  5
F3
100
AcDbEntity
  8
DD0
100
AcDbLine
 10
100.399376
 20
230.069927
 11
105.229005
 21
228.775832
  0
LINE
  5
F4
100
AcDbEntity
  8
DD0
100
AcDbLine
 10
114.369738
 20
228.775832
 11
119.199367
 21
230.069927
  0
LINE
  5
F5
100
AcDbEntity
  8
DD0
100
AcDbLine
 10
119.199367
 20
230.069927
 11
114.369738
 21
231.364022
  0
LINE
  5
F6
100
AcDbEntity
  8
DD0
100
AcDbLine
 10
100.399376
 20
230.069927
 11
119.199367
 21
230.069927
  0
TEXT
  5
F7
100
AcDbEntity
  8
DD0
100
AcDbText
 10
106.752148
 20
231.069937
 40
4.166667
  1
１９
 41
0.666667
  7
STANDARD
100
AcDbText
  0
ENDBLK
  5
F8
100
AcDbEntity
  8
DD0
100
AcDbBlockEnd
  0
BLOCK
  5
FB
100
AcDbEntity
  8
DD0
100
AcDbBlockBegin
  2
DIMS15
 70
     0
 10
0.0
 20
0.0
  0
LINE
  5
FC
100
AcDbEntity
  8
DD0
100
AcDbLine
 10
119.199367
 20
206.292297
 11
119.199367
 21
231.736594
  0
LINE
  5
FD
100
AcDbEntity
  8
DD0
100
AcDbLine
 10
173.199367
 20
147.292297
 11
173.199367
 21
231.736594
  0
LINE
  5
FE
100
AcDbEntity
  8
DD0
100
AcDbLine
 10
124.028996
 20
231.364022
 11
119.199367
 21
230.069927
  0
LINE
  5
FF
100
AcDbEntity
  8
DD0
100
AcDbLine
 10
119.199367
 20
230.069927
 11
124.028996
 21
228.775832
  0
LINE
  5
100
100
AcDbEntity
  8
DD0
100
AcDbLine
 10
168.369738
 20
228.775832
 11
173.199367
 21
230.069927
  0
LINE
  5
101
100
AcDbEntity
  8
DD0
100
AcDbLine
 10
173.199367
 20
230.069927
 11
168.369738
 21
231.364022
  0
LINE
  5
102
100
AcDbEntity
  8
DD0
100
AcDbLine
 10
119.199367
 20
230.069927
 11
173.199367
 21
230.069927
  0
TEXT
  5
103
100
AcDbEntity
  8
DD0
100
AcDbText
 10
143.152141
 20
231.069937
 40
4.166667
  1
５４
 41
0.666667
  7
STANDARD
100
AcDbText
  0
ENDBLK
  5
104
100
AcDbEntity
  8
DD0
100
AcDbBlockEnd
  0
ENDSEC
  0
SECTION
  2
ENTITIES
  0
INSERT
  5
55
100
AcDbEntity
  8
DD0
100
AcDbBlockReference
  2
DIMS0
 10
0.0
 20
0.0
  0
INSERT
  5
61
100
AcDbEntity
  8
DD0
100
AcDbBlockReference
  2
DIMS1
 10
0.0
 20
0.0
  0
INSERT
  5
6C
100
AcDbEntity
  8
DD0
100
AcDbBlockReference
  2
DIMS2
 10
0.0
 20
0.0
  0
INSERT
  5
78
100
AcDbEntity
  8
DD0
100
AcDbBlockReference
  2
DIMS3
 10
0.0
 20
0.0
  0
INSERT
  5
85
100
AcDbEntity
  8
DD0
100
AcDbBlockReference
  2
DIMS4
 10
0.0
 20
0.0
  0
INSERT
  5
91
100
AcDbEntity
  8
DD0
100
AcDbBlockReference
  2
DIMS5
 10
0.0
 20
0.0
  0
INSERT
  5
9D
100
AcDbEntity
  8
DD0
100
AcDbBlockReference
  2
DIMS6
 10
0.0
 20
0.0
  0
INSERT
  5
A9
100
AcDbEntity
  8
DD0
100
AcDbBlockReference
  2
DIMS7
 10
0.0
 20
0.0
  0
INSERT
  5
B5
100
AcDbEntity
  8
DD0
100
AcDbBlockReference
  2
DIMS8
 10
0.0
 20
0.0
  0
INSERT
  5
BD
100
AcDbEntity
  8
DD0
100
AcDbBlockReference
  2
DIMS9
 10
0.0
 20
0.0
  0
INSERT
  5
C9
100
AcDbEntity
  8
DD0
100
AcDbBlockReference
  2
DIMS10
 10
0.0
 20
0.0
  0
INSERT
  5
D5
100
AcDbEntity
  8
DD0
100
AcDbBlockReference
  2
DIMS11
 10
0.0
 20
0.0
  0
INSERT
  5
E1
100
AcDbEntity
  8
DD0
100
AcDbBlockReference
  2
DIMS12
 10
0.0
 20
0.0
  0
INSERT
  5
ED
100
AcDbEntity
  8
DD0
100
AcDbBlockReference
  2
DIMS13
 10
0.0
 20
0.0
  0
INSERT
  5
F9
100
AcDbEntity
  8
DD0
100
AcDbBlockReference
  2
DIMS14
 10
0.0
 20
0.0
  0
INSERT
  5
105
100
AcDbEntity
  8
DD0
100
AcDbBlockReference
  2
DIMS15
 10
0.0
 20
0.0
  0
LINE
  5
106
100
AcDbEntity
  8
M0
  6
DASHED
100
AcDbLine
 10
286.210639
 20
364.078144
 11
286.210639
 21
357.078144
  0
LINE
  5
107
100
AcDbEntity
  8
M0
  6
DASHED
100
AcDbLine
 10
285.210639
 20
357.078144
 11
285.210639
 21
364.078144
  0
LINE
  5
108
100
AcDbEntity
  8
M0
  6
DASHED
100
AcDbLine
 10
29.499388
 20
349.278144
 11
41.999388
 21
349.278144
  0
LINE
  5
109
100
AcDbEntity
  8
M0
  6
DASHED
100
AcDbLine
 10
29.499388
 20
349.278144
 11
29.499388
 21
289.878144
  0
LINE
  5
10A
100
AcDbEntity
  8
M0
  6
DASHED
100
AcDbLine
 10
29.499388
 20
289.878144
 11
41.999388
 21
289.878144
  0
LINE
  5
10B
100
AcDbEntity
  8
M0
  6
DASHED
100
AcDbLine
 10
190.099379
 20
349.278144
 11
177.599379
 21
349.278144
  0
LINE
  5
10C
100
AcDbEntity
  8
M0
  6
DASHED
100
AcDbLine
 10
190.099379
 20
349.278144
 11
190.099379
 21
289.878144
  0
LINE
  5
10D
100
AcDbEntity
  8
M0
  6
DASHED
100
AcDbLine
 10
190.099379
 20
289.878144
 11
177.599379
 21
289.878144
  0
LINE
  5
10E
100
AcDbEntity
  8
M0
100
AcDbLine
 10
236.310639
 20
345.378144
 11
236.310639
 21
363.578144
  0
CIRCLE
  5
10F
100
AcDbEntity
  8
M0
100
AcDbCircle
 10
86.399385
 20
287.078144
 40
2.75
  0
LINE
  5
110
100
AcDbEntity
  8
M0
100
AcDbLine
 10
86.099385
 20
285.678144
 11
86.099385
 21
286.074504
  0
LINE
  5
111
100
AcDbEntity
  8
M0
100
AcDbLine
 10
86.699385
 20
285.678144
 11
86.699385
 21
286.074504
  0
LINE
  5
112
100
AcDbEntity
  8
M0
100
AcDbLine
 10
86.099385
 20
288.478144
 11
86.099385
 21
288.081783
  0
LINE
  5
113
100
AcDbEntity
  8
M0
100
AcDbLine
 10
86.699385
 20
288.478144
 11
86.699385
 21
288.081783
  0
ARC
  5
114
100
AcDbEntity
  8
M0
100
AcDbCircle
 10
85.374385
 20
286.053144
 40
0.725
100
AcDbArc
 50
0.0
 51
90.0
  0
ARC
  5
115
100
AcDbEntity
  8
M0
100
AcDbCircle
 10
85.374385
 20
288.103144
 40
0.725
100
AcDbArc
 50
-90.0
 51
0.0
  0
ARC
  5
116
100
AcDbEntity
  8
M0
100
AcDbCircle
 10
87.424385
 20
288.103144
 40
0.725
100
AcDbArc
 50
180.0
 51
270.0
  0
ARC
  5
117
100
AcDbEntity
  8
M0
100
AcDbCircle
 10
87.424385
 20
286.053144
 40
0.725
100
AcDbArc
 50
90.0
 51
180.0
  0
LINE
  5
118
100
AcDbEntity
  8
M0
100
AcDbLine
 10
87.424385
 20
286.778144
 11
87.824385
 21
286.778144
  0
LINE
  5
119
100
AcDbEntity
  8
M0
100
AcDbLine
 10
87.424385
 20
287.378144
 11
87.824385
 21
287.378144
  0
LINE
  5
11A
100
AcDbEntity
  8
M0
100
AcDbLine
 10
86.099385
 20
288.478144
 11
86.699385
 21
288.478144
  0
LINE
  5
11B
100
AcDbEntity
  8
M0
100
AcDbLine
 10
86.099385
 20
285.678144
 11
86.699385
 21
285.678144
  0
LINE
  5
11C
100
AcDbEntity
  8
M0
100
AcDbLine
 10
84.999385
 20
287.378144
 11
85.374385
 21
287.378144
  0
LINE
  5
11D
100
AcDbEntity
  8
M0
100
AcDbLine
 10
84.999385
 20
287.378144
 11
84.999385
 21
286.778144
  0
LINE
  5
11E
100
AcDbEntity
  8
M0
100
AcDbLine
 10
84.999385
 20
286.778144
 11
85.374385
 21
286.778144
  0
LINE
  5
11F
100
AcDbEntity
  8
M0
100
AcDbLine
 10
87.824385
 20
287.378144
 11
87.824385
 21
286.778144
  0
CIRCLE
  5
120
100
AcDbEntity
  8
M0
100
AcDbCircle
 10
146.199382
 20
357.778144
 40
2.75
  0
LINE
  5
121
100
AcDbEntity
  8
M0
100
AcDbLine
 10
145.899382
 20
356.378144
 11
145.899382
 21
356.774504
  0
LINE
  5
122
100
AcDbEntity
  8
M0
100
AcDbLine
 10
146.499382
 20
356.378144
 11
146.499382
 21
356.774504
  0
LINE
  5
123
100
AcDbEntity
  8
M0
100
AcDbLine
 10
145.899382
 20
359.178144
 11
145.899382
 21
358.781783
  0
LINE
  5
124
100
AcDbEntity
  8
M0
100
AcDbLine
 10
146.499382
 20
359.178144
 11
146.499382
 21
358.781783
  0
ARC
  5
125
100
AcDbEntity
  8
M0
100
AcDbCircle
 10
145.174382
 20
356.753144
 40
0.725
100
AcDbArc
 50
0.0
 51
90.0
  0
ARC
  5
126
100
AcDbEntity
  8
M0
100
AcDbCircle
 10
145.174382
 20
358.803144
 40
0.725
100
AcDbArc
 50
-90.0
 51
0.0
  0
ARC
  5
127
100
AcDbEntity
  8
M0
100
AcDbCircle
 10
147.224382
 20
358.803144
 40
0.725
100
AcDbArc
 50
180.0
 51
270.0
  0
ARC
  5
128
100
AcDbEntity
  8
M0
100
AcDbCircle
 10
147.224382
 20
356.753144
 40
0.725
100
AcDbArc
 50
90.0
 51
180.0
  0
LINE
  5
129
100
AcDbEntity
  8
M0
100
AcDbLine
 10
147.224382
 20
357.478144
 11
147.624382
 21
357.478144
  0
LINE
  5
12A
100
AcDbEntity
  8
M0
100
AcDbLine
 10
147.224382
 20
358.078144
 11
147.624382
 21
358.078144
  0
LINE
  5
12B
100
AcDbEntity
  8
M0
100
AcDbLine
 10
145.899382
 20
359.178144
 11
146.499382
 21
359.178144
  0
LINE
  5
12C
100
AcDbEntity
  8
M0
100
AcDbLine
 10
145.899382
 20
356.378144
 11
146.499382
 21
356.378144
  0
LINE
  5
12D
100
AcDbEntity
  8
M0
100
AcDbLine
 10
144.799382
 20
358.078144
 11
145.174382
 21
358.078144
  0
LINE
  5
12E
100
AcDbEntity
  8
M0
100
AcDbLine
 10
144.799382
 20
358.078144
 11
144.799382
 21
357.478144
  0
LINE
  5
12F
100
AcDbEntity
  8
M0
100
AcDbLine
 10
144.799382
 20
357.478144
 11
145.174382
 21
357.478144
  0
LINE
  5
130
100
AcDbEntity
  8
M0
100
AcDbLine
 10
147.624382
 20
358.078144
 11
147.624382
 21
357.478144
  0
CIRCLE
  5
131
100
AcDbEntity
  8
M0
100
AcDbCircle
 10
171.399382
 20
340.478144
 40
3.0
  0
LINE
  5
132
100
AcDbEntity
  8
M0
100
AcDbLine
 10
172.989965
 20
338.887499
 11
169.808325
 21
342.069262
  0
LINE
  5
133
100
AcDbEntity
  8
M0
100
AcDbLine
 10
172.813208
 20
340.831835
 11
171.04563
 21
339.064257
  0
LINE
  5
134
100
AcDbEntity
  8
M0
100
AcDbLine
 10
171.752661
 20
341.892504
 11
169.985083
 21
340.124804
  0
LINE
  5
135
100
AcDbEntity
  8
M0
100
AcDbLine
 10
174.724382
 20
344.303144
 11
168.074382
 21
344.303144
  0
ARC
  5
136
100
AcDbEntity
  8
M0
100
AcDbCircle
 10
174.724382
 20
343.803144
 40
0.5
100
AcDbArc
 50
0.0
 51
90.0
  0
LINE
  5
137
100
AcDbEntity
  8
M0
100
AcDbLine
 10
175.224382
 20
337.153144
 11
175.224382
 21
343.803144
  0
ARC
  5
138
100
AcDbEntity
  8
M0
100
AcDbCircle
 10
174.724382
 20
337.153144
 40
0.5
100
AcDbArc
 50
270.0
 51
360.0
  0
LINE
  5
139
100
AcDbEntity
  8
M0
100
AcDbLine
 10
168.074382
 20
336.653144
 11
174.724382
 21
336.653144
  0
LINE
  5
13A
100
AcDbEntity
  8
M0
100
AcDbLine
 10
167.574382
 20
343.803144
 11
167.574382
 21
337.153144
  0
ARC
  5
13B
100
AcDbEntity
  8
M0
100
AcDbCircle
 10
168.074382
 20
343.803144
 40
0.5
100
AcDbArc
 50
90.0
 51
180.0
  0
ARC
  5
13C
100
AcDbEntity
  8
M0
100
AcDbCircle
 10
168.074382
 20
337.153144
 40
0.5
100
AcDbArc
 50
180.0
 51
270.0
  0
CIRCLE
  5
13D
100
AcDbEntity
  8
M0
100
AcDbCircle
 10
159.199382
 20
287.078144
 40
2.75
  0
LINE
  5
13E
100
AcDbEntity
  8
M0
100
AcDbLine
 10
158.899382
 20
285.678144
 11
158.899382
 21
286.074504
  0
LINE
  5
13F
100
AcDbEntity
  8
M0
100
AcDbLine
 10
159.499382
 20
285.678144
 11
159.499382
 21
286.074504
  0
LINE
  5
140
100
AcDbEntity
  8
M0
100
AcDbLine
 10
158.899382
 20
288.478144
 11
158.899382
 21
288.081783
  0
LINE
  5
141
100
AcDbEntity
  8
M0
100
AcDbLine
 10
159.499382
 20
288.478144
 11
159.499382
 21
288.081783
  0
ARC
  5
142
100
AcDbEntity
  8
M0
100
AcDbCircle
 10
158.174382
 20
286.053144
 40
0.725
100
AcDbArc
 50
0.0
 51
90.0
  0
ARC
  5
143
100
AcDbEntity
  8
M0
100
AcDbCircle
 10
158.174382
 20
288.103144
 40
0.725
100
AcDbArc
 50
-90.0
 51
0.0
  0
ARC
  5
144
100
AcDbEntity
  8
M0
100
AcDbCircle
 10
160.224382
 20
288.103144
 40
0.725
100
AcDbArc
 50
180.0
 51
270.0
  0
ARC
  5
145
100
AcDbEntity
  8
M0
100
AcDbCircle
 10
160.224382
 20
286.053144
 40
0.725
100
AcDbArc
 50
90.0
 51
180.0
  0
LINE
  5
146
100
AcDbEntity
  8
M0
100
AcDbLine
 10
160.224382
 20
286.778144
 11
160.624382
 21
286.778144
  0
LINE
  5
147
100
AcDbEntity
  8
M0
100
AcDbLine
 10
160.224382
 20
287.378144
 11
160.624382
 21
287.378144
  0
LINE
  5
148
100
AcDbEntity
  8
M0
100
AcDbLine
 10
158.899382
 20
288.478144
 11
159.499382
 21
288.478144
  0
LINE
  5
149
100
AcDbEntity
  8
M0
100
AcDbLine
 10
158.899382
 20
285.678144
 11
159.499382
 21
285.678144
  0
LINE
  5
14A
100
AcDbEntity
  8
M0
100
AcDbLine
 10
157.799382
 20
287.378144
 11
158.174382
 21
287.378144
  0
LINE
  5
14B
100
AcDbEntity
  8
M0
100
AcDbLine
 10
157.799382
 20
287.378144
 11
157.799382
 21
286.778144
  0
LINE
  5
14C
100
AcDbEntity
  8
M0
100
AcDbLine
 10
157.799382
 20
286.778144
 11
158.174382
 21
286.778144
  0
LINE
  5
14D
100
AcDbEntity
  8
M0
100
AcDbLine
 10
160.624382
 20
287.378144
 11
160.624382
 21
286.778144
  0
CIRCLE
  5
14E
100
AcDbEntity
  8
M0
  6
DASHED
100
AcDbCircle
 10
120.999382
 20
332.878144
 40
3.0
  0
LINE
  5
14F
100
AcDbEntity
  8
M0
  6
DASHED
100
AcDbLine
 10
122.589966
 20
331.287499
 11
119.408325
 21
334.469262
  0
LINE
  5
150
100
AcDbEntity
  8
M0
  6
DASHED
100
AcDbLine
 10
122.413208
 20
333.231835
 11
120.64563
 21
331.464257
  0
LINE
  5
151
100
AcDbEntity
  8
M0
  6
DASHED
100
AcDbLine
 10
121.352661
 20
334.292504
 11
119.585083
 21
332.524804
  0
LINE
  5
152
100
AcDbEntity
  8
M0
  6
DASHED
100
AcDbLine
 10
124.324382
 20
336.703144
 11
117.674382
 21
336.703144
  0
ARC
  5
153
100
AcDbEntity
  8
M0
  6
DASHED
100
AcDbCircle
 10
124.324382
 20
336.203144
 40
0.5
100
AcDbArc
 50
0.0
 51
90.0
  0
LINE
  5
154
100
AcDbEntity
  8
M0
  6
DASHED
100
AcDbLine
 10
124.824382
 20
329.553144
 11
124.824382
 21
336.203144
  0
ARC
  5
155
100
AcDbEntity
  8
M0
  6
DASHED
100
AcDbCircle
 10
124.324382
 20
329.553144
 40
0.5
100
AcDbArc
 50
270.0
 51
360.0
  0
LINE
  5
156
100
AcDbEntity
  8
M0
  6
DASHED
100
AcDbLine
 10
117.674382
 20
329.053144
 11
124.324382
 21
329.053144
  0
LINE
  5
157
100
AcDbEntity
  8
M0
  6
DASHED
100
AcDbLine
 10
117.174382
 20
336.203144
 11
117.174382
 21
329.553144
  0
ARC
  5
158
100
AcDbEntity
  8
M0
  6
DASHED
100
AcDbCircle
 10
117.674382
 20
336.203144
 40
0.5
100
AcDbArc
 50
90.0
 51
180.0
  0
ARC
  5
159
100
AcDbEntity
  8
M0
  6
DASHED
100
AcDbCircle
 10
117.674382
 20
329.553144
 40
0.5
100
AcDbArc
 50
180.0
 51
270.0
  0
LINE
  5
15A
100
AcDbEntity
  8
M0
  6
DASHDOT
100
AcDbLine
 10
146.199382
 20
367.578145
 11
146.199382
 21
279.078142
  0
LINE
  5
15B
100
AcDbEntity
  8
M0
  6
DASHDOT
100
AcDbLine
 10
109.799382
 20
319.578144
 11
192.099379
 21
319.578144
  0
ARC
  5
15C
100
AcDbEntity
  8
M0
100
AcDbCircle
 10
153.849382
 20
354.928144
 40
0.5
100
AcDbArc
 50
268.473851
 51
270.0
  0
ARC
  5
15D
100
AcDbEntity
  8
M0
100
AcDbCircle
 10
119.199382
 20
349.578144
 40
2.25
100
AcDbArc
 50
0.0
 51
180.0
  0
ARC
  5
15E
100
AcDbEntity
  8
M0
100
AcDbCircle
 10
119.199382
 20
347.578144
 40
2.25
100
AcDbArc
 50
180.0
 51
360.0
  0
ARC
  5
15F
100
AcDbEntity
  8
M0
100
AcDbCircle
 10
119.799382
 20
289.078144
 40
5.0
100
AcDbArc
 50
180.0
 51
270.0
  0
ARC
  5
160
100
AcDbEntity
  8
M0
100
AcDbCircle
 10
119.799382
 20
350.078144
 40
5.0
100
AcDbArc
 50
90.0
 51
180.0
  0
LINE
  5
161
100
AcDbEntity
  8
M0
100
AcDbLine
 10
155.099382
 20
307.378144
 11
137.299382
 21
307.378144
  0
LINE
  5
162
100
AcDbEntity
  8
M0
100
AcDbLine
 10
136.799383
 20
307.878144
 11
136.799383
 21
331.278144
  0
LINE
  5
163
100
AcDbEntity
  8
M0
100
AcDbLine
 10
165.899382
 20
336.978144
 11
126.499382
 21
336.978144
  0
LINE
  5
164
100
AcDbEntity
  8
M0
100
AcDbLine
 10
167.699382
 20
322.078144
 11
165.899382
 21
322.078144
  0
LINE
  5
165
100
AcDbEntity
  8
M0
100
AcDbLine
 10
140.899383
 20
331.778143
 11
137.299382
 21
331.778143
  0
ARC
  5
166
100
AcDbEntity
  8
M0
100
AcDbCircle
 10
123.999382
 20
287.578144
 40
0.5
100
AcDbArc
 50
180.0
 51
270.0
  0
ARC
  5
167
100
AcDbEntity
  8
M0
100
AcDbCircle
 10
168.399382
 20
288.578144
 40
0.5
100
AcDbArc
 50
0.0
 51
90.0
  0
ARC
  5
168
100
AcDbEntity
  8
M0
100
AcDbCircle
 10
124.999382
 20
288.578144
 40
0.5
100
AcDbArc
 50
0.0
 51
90.0
  0
ARC
  5
169
100
AcDbEntity
  8
M0
100
AcDbCircle
 10
123.999382
 20
288.578144
 40
0.5
100
AcDbArc
 50
90.0
 51
180.0
  0
CIRCLE
  5
16A
100
AcDbEntity
  8
M0
100
AcDbCircle
 10
118.699382
 20
289.578144
 40
2.25
  0
CIRCLE
  5
16B
100
AcDbEntity
  8
M0
100
AcDbCircle
 10
173.699382
 20
349.578144
 40
2.25
  0
ARC
  5
16C
100
AcDbEntity
  8
M0
100
AcDbCircle
 10
168.399382
 20
287.578144
 40
0.5
100
AcDbArc
 50
270.0
 51
360.0
  0
ARC
  5
16D
100
AcDbEntity
  8
M0
100
AcDbCircle
 10
167.399382
 20
288.578144
 40
0.5
100
AcDbArc
 50
90.0
 51
180.0
  0
ARC
  5
16E
100
AcDbEntity
  8
M0
100
AcDbCircle
 10
166.199382
 20
354.078144
 40
1.0
100
AcDbArc
 50
90.0
 51
98.626927
  0
ARC
  5
16F
100
AcDbEntity
  8
M0
100
AcDbCircle
 10
173.199382
 20
289.578144
 40
2.25
100
AcDbArc
 50
180.0
 51
360.0
  0
ARC
  5
170
100
AcDbEntity
  8
M0
100
AcDbCircle
 10
126.199382
 20
354.078144
 40
1.0
100
AcDbArc
 50
81.373073
 51
90.0
  0
ARC
  5
171
100
AcDbEntity
  8
M0
100
AcDbCircle
 10
172.599382
 20
350.078144
 40
5.0
100
AcDbArc
 50
0.0
 51
90.0
  0
ARC
  5
172
100
AcDbEntity
  8
M0
100
AcDbCircle
 10
124.999382
 20
287.578144
 40
0.5
100
AcDbArc
 50
270.0
 51
360.0
  0
ARC
  5
173
100
AcDbEntity
  8
M0
100
AcDbCircle
 10
173.199382
 20
291.578144
 40
2.25
100
AcDbArc
 50
0.0
 51
180.0
  0
ARC
  5
174
100
AcDbEntity
  8
M0
100
AcDbCircle
 10
172.599382
 20
289.078144
 40
5.0
100
AcDbArc
 50
270.0
 51
360.0
  0
LINE
  5
175
100
AcDbEntity
  8
M0
100
AcDbLine
 10
125.768612
 20
323.078144
 11
125.768612
 21
322.078144
  0
LINE
  5
176
100
AcDbEntity
  8
M0
100
AcDbLine
 10
125.499382
 20
323.078144
 11
124.899383
 21
323.078144
  0
LINE
  5
177
100
AcDbEntity
  8
M0
100
AcDbLine
 10
125.768612
 20
316.078144
 11
125.768612
 21
317.078144
  0
LINE
  5
178
100
AcDbEntity
  8
M0
100
AcDbLine
 10
125.499382
 20
316.078144
 11
124.899383
 21
316.078144
  0
LINE
  5
179
100
AcDbEntity
  8
M0
100
AcDbLine
 10
166.63015
 20
316.078144
 11
166.63015
 21
317.078144
  0
LINE
  5
17A
100
AcDbEntity
  8
M0
100
AcDbLine
 10
166.89938
 20
316.078144
 11
167.499383
 21
316.078144
  0
LINE
  5
17B
100
AcDbEntity
  8
M0
100
AcDbLine
 10
166.63015
 20
323.078144
 11
166.63015
 21
322.078144
  0
LINE
  5
17C
100
AcDbEntity
  8
M0
100
AcDbLine
 10
166.89938
 20
323.078144
 11
167.499383
 21
323.078144
  0
LINE
  5
17D
100
AcDbEntity
  8
M0
100
AcDbLine
 10
161.39938
 20
354.078145
 11
161.39938
 21
363.478145
  0
LINE
  5
17E
100
AcDbEntity
  8
M0
100
AcDbLine
 10
162.988842
 20
361.096135
 11
163.199381
 21
354.078145
  0
LINE
  5
17F
100
AcDbEntity
  8
M0
100
AcDbLine
 10
162.317113
 20
364.078144
 11
161.999383
 21
364.078144
  0
LINE
  5
180
100
AcDbEntity
  8
M0
100
AcDbLine
 10
151.199383
 20
286.578144
 11
151.199383
 21
287.078145
  0
LINE
  5
181
100
AcDbEntity
  8
M0
100
AcDbLine
 10
151.199383
 20
284.078142
 11
141.199381
 21
284.078142
  0
LINE
  5
182
100
AcDbEntity
  8
M0
100
AcDbLine
 10
141.199381
 20
287.078145
 11
141.199381
 21
286.578144
  0
LINE
  5
183
100
AcDbEntity
  8
M0
100
AcDbLine
 10
124.699381
 20
317.078144
 11
124.699381
 21
322.078144
  0
LINE
  5
184
100
AcDbEntity
  8
M0
100
AcDbLine
 10
125.499382
 20
316.078144
 11
126.499382
 21
316.078144
  0
LINE
  5
185
100
AcDbEntity
  8
M0
100
AcDbLine
 10
125.499382
 20
285.078144
 11
125.499382
 21
316.078144
  0
LINE
  5
186
100
AcDbEntity
  8
M0
100
AcDbLine
 10
125.499382
 20
323.078144
 11
126.499382
 21
323.078144
  0
LINE
  5
187
100
AcDbEntity
  8
M0
100
AcDbLine
 10
124.199382
 20
321.078144
 11
124.699381
 21
321.078144
  0
LINE
  5
188
100
AcDbEntity
  8
M0
100
AcDbLine
 10
124.199382
 20
318.078144
 11
124.199382
 21
321.078144
  0
LINE
  5
189
100
AcDbEntity
  8
M0
100
AcDbLine
 10
141.699382
 20
286.078143
 11
150.699382
 21
286.078143
  0
LINE
  5
18A
100
AcDbEntity
  8
M0
100
AcDbLine
 10
124.699381
 20
318.078144
 11
124.199382
 21
318.078144
  0
LINE
  5
18B
100
AcDbEntity
  8
M0
100
AcDbLine
 10
168.199383
 20
318.078144
 11
168.199383
 21
321.078144
  0
LINE
  5
18C
100
AcDbEntity
  8
M0
100
AcDbLine
 10
125.699381
 20
322.078144
 11
124.699381
 21
322.078144
  0
LINE
  5
18D
100
AcDbEntity
  8
M0
100
AcDbLine
 10
168.199383
 20
321.078144
 11
167.699382
 21
321.078144
  0
ARC
  5
18E
100
AcDbEntity
  8
M0
100
AcDbCircle
 10
124.699382
 20
316.278144
 40
0.5
100
AcDbArc
 50
293.578178
 51
336.421822
  0
ARC
  5
18F
100
AcDbEntity
  8
M0
100
AcDbCircle
 10
167.699382
 20
316.278144
 40
0.5
100
AcDbArc
 50
203.578178
 51
246.421822
  0
LINE
  5
190
100
AcDbEntity
  8
M0
100
AcDbLine
 10
123.999382
 20
287.078145
 11
124.999382
 21
287.078145
  0
LINE
  5
191
100
AcDbEntity
  8
M0
100
AcDbLine
 10
124.999382
 20
289.078145
 11
123.999382
 21
289.078145
  0
LINE
  5
192
100
AcDbEntity
  8
M0
100
AcDbLine
 10
168.399383
 20
289.078145
 11
167.399381
 21
289.078145
  0
LINE
  5
193
100
AcDbEntity
  8
M0
100
AcDbLine
 10
123.499381
 20
288.578144
 11
123.499381
 21
287.578142
  0
ARC
  5
194
100
AcDbEntity
  8
M0
100
AcDbCircle
 10
140.299382
 20
363.578144
 40
0.5
100
AcDbArc
 50
0.0
 51
90.0
  0
ARC
  5
195
100
AcDbEntity
  8
M0
100
AcDbCircle
 10
152.099382
 20
363.578144
 40
0.5
100
AcDbArc
 50
90.0
 51
180.0
  0
ARC
  5
196
100
AcDbEntity
  8
M0
100
AcDbCircle
 10
140.299382
 20
363.078144
 40
1.0
100
AcDbArc
 50
90.0
 51
180.0
  0
LINE
  5
197
100
AcDbEntity
  8
M0
100
AcDbLine
 10
143.699382
 20
324.05561
 11
143.699382
 21
323.878144
  0
LINE
  5
198
100
AcDbEntity
  8
M0
100
AcDbLine
 10
148.699381
 20
314.578144
 11
148.699381
 21
314.678144
  0
ARC
  5
199
100
AcDbEntity
  8
M0
100
AcDbCircle
 10
152.099382
 20
363.078144
 40
1.0
100
AcDbArc
 50
0.0
 51
90.0
  0
LINE
  5
19A
100
AcDbEntity
  8
M0
100
AcDbLine
 10
148.699381
 20
324.05561
 11
148.699381
 21
323.878144
  0
ARC
  5
19B
100
AcDbEntity
  8
M0
100
AcDbCircle
 10
141.399382
 20
323.378144
 40
0.5
100
AcDbArc
 50
90.0
 51
180.0
  0
ARC
  5
19C
100
AcDbEntity
  8
M0
100
AcDbCircle
 10
143.949382
 20
323.378144
 40
0.5
100
AcDbArc
 50
0.0
 51
90.0
  0
LINE
  5
19D
100
AcDbEntity
  8
M0
100
AcDbLine
 10
168.89938
 20
287.578142
 11
168.89938
 21
288.578144
  0
ARC
  5
19E
100
AcDbEntity
  8
M0
100
AcDbCircle
 10
141.399382
 20
315.178144
 40
0.5
100
AcDbArc
 50
180.0
 51
270.0
  0
ARC
  5
19F
100
AcDbEntity
  8
M0
100
AcDbCircle
 10
150.999382
 20
323.378144
 40
0.5
100
AcDbArc
 50
0.0
 51
90.0
  0
ARC
  5
1A0
100
AcDbEntity
  8
M0
100
AcDbCircle
 10
148.449382
 20
323.378144
 40
0.5
100
AcDbArc
 50
90.0
 51
180.0
  0
ARC
  5
1A1
100
AcDbEntity
  8
M0
100
AcDbCircle
 10
150.999382
 20
315.178144
 40
0.5
100
AcDbArc
 50
270.0
 51
360.0
  0
LINE
  5
1A2
100
AcDbEntity
  8
M0
100
AcDbLine
 10
153.899384
 20
354.078145
 11
163.199381
 21
354.078145
  0
LINE
  5
1A3
100
AcDbEntity
  8
M0
100
AcDbLine
 10
163.199381
 20
352.578143
 11
153.899384
 21
352.578143
  0
LINE
  5
1A4
100
AcDbEntity
  8
M0
100
AcDbLine
 10
163.199381
 20
354.078145
 11
163.199381
 21
352.578143
  0
LINE
  5
1A5
100
AcDbEntity
  8
M0
100
AcDbLine
 10
139.299382
 20
362.578145
 11
130.999381
 21
362.578145
  0
LINE
  5
1A6
100
AcDbEntity
  8
M0
100
AcDbLine
 10
161.39938
 20
362.578145
 11
153.099381
 21
362.578145
  0
LINE
  5
1A7
100
AcDbEntity
  8
M0
100
AcDbLine
 10
153.099381
 20
363.078142
 11
153.099381
 21
355.057939
  0
LINE
  5
1A8
100
AcDbEntity
  8
M0
100
AcDbLine
 10
167.699382
 20
318.078144
 11
168.199383
 21
318.078144
  0
LINE
  5
1A9
100
AcDbEntity
  8
M0
100
AcDbLine
 10
151.599382
 20
354.514033
 11
151.599382
 21
363.078142
  0
LINE
  5
1AA
100
AcDbEntity
  8
M0
100
AcDbLine
 10
138.499384
 20
352.578143
 11
129.199383
 21
352.578143
  0
LINE
  5
1AB
100
AcDbEntity
  8
M0
100
AcDbLine
 10
163.199381
 20
352.578143
 11
163.199381
 21
350.578143
  0
LINE
  5
1AC
100
AcDbEntity
  8
M0
100
AcDbLine
 10
129.199383
 20
354.078145
 11
138.499384
 21
354.078145
  0
LINE
  5
1AD
100
AcDbEntity
  8
M0
100
AcDbLine
 10
172.599383
 20
284.078142
 11
165.499382
 21
284.078142
  0
LINE
  5
1AE
100
AcDbEntity
  8
M0
100
AcDbLine
 10
123.499381
 20
290.078143
 11
125.499382
 21
290.078143
  0
LINE
  5
1AF
100
AcDbEntity
  8
M0
100
AcDbLine
 10
123.499381
 20
293.878144
 11
123.499381
 21
290.078143
  0
LINE
  5
1B0
100
AcDbEntity
  8
M0
100
AcDbLine
 10
168.89938
 20
290.078143
 11
168.89938
 21
293.878144
  0
LINE
  5
1B1
100
AcDbEntity
  8
M0
100
AcDbLine
 10
166.89938
 20
290.078143
 11
168.89938
 21
290.078143
  0
LINE
  5
1B2
100
AcDbEntity
  8
M0
100
AcDbLine
 10
170.949385
 20
291.578143
 11
170.949385
 21
289.578142
  0
LINE
  5
1B3
100
AcDbEntity
  8
M0
100
AcDbLine
 10
175.44938
 20
289.578142
 11
175.44938
 21
291.578143
  0
LINE
  5
1B4
100
AcDbEntity
  8
M0
100
AcDbLine
 10
114.799382
 20
289.078145
 11
114.799382
 21
350.078144
  0
LINE
  5
1B5
100
AcDbEntity
  8
M0
100
AcDbLine
 10
129.199383
 20
354.078145
 11
129.199383
 21
350.578143
  0
LINE
  5
1B6
100
AcDbEntity
  8
M0
100
AcDbLine
 10
121.449382
 20
349.578143
 11
121.449382
 21
347.578144
  0
LINE
  5
1B7
100
AcDbEntity
  8
M0
100
AcDbLine
 10
116.949382
 20
347.578144
 11
116.949382
 21
349.578143
  0
ARC
  5
1B8
100
AcDbEntity
  8
M0
100
AcDbCircle
 10
165.899382
 20
335.978144
 40
1.0
100
AcDbArc
 50
0.0
 51
90.0
  0
ARC
  5
1B9
100
AcDbEntity
  8
M0
100
AcDbCircle
 10
165.899382
 20
303.178144
 40
1.0
100
AcDbArc
 50
270.0
 51
360.0
  0
LINE
  5
1BA
100
AcDbEntity
  8
M0
100
AcDbLine
 10
165.899382
 20
316.078144
 11
165.899382
 21
317.078144
  0
LINE
  5
1BB
100
AcDbEntity
  8
M0
100
AcDbLine
 10
167.699382
 20
317.078144
 11
165.899382
 21
317.078144
  0
LINE
  5
1BC
100
AcDbEntity
  8
M0
100
AcDbLine
 10
147.399382
 20
331.778143
 11
144.999382
 21
331.778143
  0
LINE
  5
1BD
100
AcDbEntity
  8
M0
100
AcDbLine
 10
144.999382
 20
333.378143
 11
144.999382
 21
331.778143
  0
LINE
  5
1BE
100
AcDbEntity
  8
M0
100
AcDbLine
 10
125.699381
 20
322.078144
 11
126.499382
 21
322.078144
  0
LINE
  5
1BF
100
AcDbEntity
  8
M0
100
AcDbLine
 10
124.699381
 20
317.078144
 11
126.499382
 21
317.078144
  0
LINE
  5
1C0
100
AcDbEntity
  8
M0
100
AcDbLine
 10
165.899382
 20
323.078144
 11
165.899382
 21
322.078144
  0
LINE
  5
1C1
100
AcDbEntity
  8
M0
100
AcDbLine
 10
126.499382
 20
323.078144
 11
126.499382
 21
322.078144
  0
LINE
  5
1C2
100
AcDbEntity
  8
M0
100
AcDbLine
 10
150.499382
 20
330.778144
 11
141.899382
 21
330.778144
  0
LINE
  5
1C3
100
AcDbEntity
  8
M0
100
AcDbLine
 10
147.399382
 20
333.378143
 11
144.999382
 21
333.378143
  0
LINE
  5
1C4
100
AcDbEntity
  8
M0
100
AcDbLine
 10
147.399382
 20
333.378143
 11
147.399382
 21
331.778143
  0
LINE
  5
1C5
100
AcDbEntity
  8
M0
100
AcDbLine
 10
151.49938
 20
331.778143
 11
155.099382
 21
331.778143
  0
LINE
  5
1C6
100
AcDbEntity
  8
M0
100
AcDbLine
 10
155.599383
 20
307.878144
 11
155.599383
 21
331.278144
  0
LINE
  5
1C7
100
AcDbEntity
  8
M0
100
AcDbLine
 10
167.499383
 20
294.878145
 11
168.399383
 21
294.878145
  0
LINE
  5
1C8
100
AcDbEntity
  8
M0
100
AcDbLine
 10
174.399384
 20
294.878145
 11
175.299384
 21
294.878145
  0
LINE
  5
1C9
100
AcDbEntity
  8
M0
100
AcDbLine
 10
123.999382
 20
344.278144
 11
124.899383
 21
344.278144
  0
LINE
  5
1CA
100
AcDbEntity
  8
M0
100
AcDbLine
 10
168.399383
 20
344.278144
 11
167.499383
 21
344.278144
  0
LINE
  5
1CB
100
AcDbEntity
  8
M0
100
AcDbLine
 10
176.399381
 20
291.878144
 11
176.299379
 21
291.878144
  0
LINE
  5
1CC
100
AcDbEntity
  8
M0
100
AcDbLine
 10
175.299384
 20
344.278144
 11
174.399384
 21
344.278144
  0
LINE
  5
1CD
100
AcDbEntity
  8
M0
100
AcDbLine
 10
176.399381
 20
347.278143
 11
176.299379
 21
347.278143
  0
LINE
  5
1CE
100
AcDbEntity
  8
M0
100
AcDbLine
 10
117.099382
 20
344.278144
 11
117.999382
 21
344.278144
  0
ARC
  5
1CF
100
AcDbEntity
  8
M0
100
AcDbCircle
 10
129.199382
 20
285.078144
 40
1.0
100
AcDbArc
 50
180.0
 51
270.0
  0
LINE
  5
1D0
100
AcDbEntity
  8
M0
100
AcDbLine
 10
129.199382
 20
284.078142
 11
137.199382
 21
284.078142
  0
LINE
  5
1D1
100
AcDbEntity
  8
M0
100
AcDbLine
 10
115.999382
 20
291.878144
 11
116.099382
 21
291.878144
  0
LINE
  5
1D2
100
AcDbEntity
  8
M0
100
AcDbLine
 10
124.899383
 20
294.878145
 11
123.999382
 21
294.878145
  0
LINE
  5
1D3
100
AcDbEntity
  8
M0
100
AcDbLine
 10
117.999382
 20
294.878145
 11
117.099382
 21
294.878145
  0
ARC
  5
1D4
100
AcDbEntity
  8
M0
100
AcDbCircle
 10
151.499382
 20
331.278144
 40
0.5
100
AcDbArc
 50
90.0
 51
180.0
  0
ARC
  5
1D5
100
AcDbEntity
  8
M0
100
AcDbCircle
 10
155.099382
 20
331.278144
 40
0.5
100
AcDbArc
 50
0.0
 51
90.0
  0
ARC
  5
1D6
100
AcDbEntity
  8
M0
100
AcDbCircle
 10
141.899382
 20
331.278144
 40
0.5
100
AcDbArc
 50
180.0
 51
270.0
  0
ARC
  5
1D7
100
AcDbEntity
  8
M0
100
AcDbCircle
 10
150.499382
 20
331.278144
 40
0.5
100
AcDbArc
 50
270.0
 51
360.0
  0
LINE
  5
1D8
100
AcDbEntity
  8
M0
100
AcDbLine
 10
115.999382
 20
347.278143
 11
116.099382
 21
347.278143
  0
ARC
  5
1D9
100
AcDbEntity
  8
M0
100
AcDbCircle
 10
126.499382
 20
335.978144
 40
1.0
100
AcDbArc
 50
90.0
 51
180.0
  0
ARC
  5
1DA
100
AcDbEntity
  8
M0
100
AcDbCircle
 10
126.499382
 20
303.178144
 40
1.0
100
AcDbArc
 50
180.0
 51
270.0
  0
ARC
  5
1DB
100
AcDbEntity
  8
M0
100
AcDbCircle
 10
150.699382
 20
286.578144
 40
0.5
100
AcDbArc
 50
270.0
 51
360.0
  0
ARC
  5
1DC
100
AcDbEntity
  8
M0
100
AcDbCircle
 10
151.199382
 20
286.078144
 40
2.0
100
AcDbArc
 50
270.0
 51
292.57935
  0
ARC
  5
1DD
100
AcDbEntity
  8
M0
100
AcDbCircle
 10
137.299382
 20
331.278144
 40
0.5
100
AcDbArc
 50
90.0
 51
180.0
  0
ARC
  5
1DE
100
AcDbEntity
  8
M0
100
AcDbCircle
 10
140.899382
 20
331.278144
 40
0.5
100
AcDbArc
 50
0.0
 51
90.0
  0
ARC
  5
1DF
100
AcDbEntity
  8
M0
100
AcDbCircle
 10
155.099382
 20
307.878144
 40
0.5
100
AcDbArc
 50
270.0
 51
360.0
  0
ARC
  5
1E0
100
AcDbEntity
  8
M0
100
AcDbCircle
 10
137.299382
 20
307.878144
 40
0.5
100
AcDbArc
 50
180.0
 51
270.0
  0
ARC
  5
1E1
100
AcDbEntity
  8
M0
100
AcDbCircle
 10
130.081652
 20
363.478144
 40
0.6
100
AcDbArc
 50
90.0
 51
178.281642
  0
ARC
  5
1E2
100
AcDbEntity
  8
M0
100
AcDbCircle
 10
130.399382
 20
363.478144
 40
0.6
100
AcDbArc
 50
0.0
 51
90.0
  0
ARC
  5
1E3
100
AcDbEntity
  8
M0
100
AcDbCircle
 10
167.399382
 20
287.578144
 40
0.5
100
AcDbArc
 50
180.0
 51
270.0
  0
ARC
  5
1E4
100
AcDbEntity
  8
M0
100
AcDbCircle
 10
141.199382
 20
286.078144
 40
2.0
100
AcDbArc
 50
247.42065
 51
270.0
  0
ARC
  5
1E5
100
AcDbEntity
  8
M0
100
AcDbCircle
 10
141.699382
 20
286.578144
 40
0.5
100
AcDbArc
 50
180.0
 51
270.0
  0
ARC
  5
1E6
100
AcDbEntity
  8
M0
100
AcDbCircle
 10
161.999382
 20
363.478144
 40
0.6
100
AcDbArc
 50
90.0
 51
180.0
  0
LINE
  5
1E7
100
AcDbEntity
  8
M0
100
AcDbLine
 10
130.999381
 20
363.478145
 11
130.999381
 21
354.078145
  0
LINE
  5
1E8
100
AcDbEntity
  8
M0
100
AcDbLine
 10
129.199383
 20
354.078145
 11
129.409921
 21
361.096135
  0
LINE
  5
1E9
100
AcDbEntity
  8
M0
100
AcDbLine
 10
130.081653
 20
364.078144
 11
130.399383
 21
364.078144
  0
ARC
  5
1EA
100
AcDbEntity
  8
M0
100
AcDbCircle
 10
162.317112
 20
363.478144
 40
0.6
100
AcDbArc
 50
1.718358
 51
90.0
  0
LINE
  5
1EB
100
AcDbEntity
  8
M0
100
AcDbLine
 10
167.399381
 20
287.078145
 11
168.399383
 21
287.078145
  0
LINE
  5
1EC
100
AcDbEntity
  8
M0
100
AcDbLine
 10
166.89938
 20
323.078144
 11
165.899382
 21
323.078144
  0
LINE
  5
1ED
100
AcDbEntity
  8
M0
100
AcDbLine
 10
167.699382
 20
317.078144
 11
167.699382
 21
322.078144
  0
LINE
  5
1EE
100
AcDbEntity
  8
M0
100
AcDbLine
 10
165.899382
 20
302.178143
 11
126.499382
 21
302.178143
  0
LINE
  5
1EF
100
AcDbEntity
  8
M0
100
AcDbLine
 10
166.89938
 20
316.078144
 11
165.899382
 21
316.078144
  0
LINE
  5
1F0
100
AcDbEntity
  8
M0
100
AcDbLine
 10
166.89938
 20
285.078144
 11
166.89938
 21
316.078144
  0
LINE
  5
1F1
100
AcDbEntity
  8
M0
100
AcDbLine
 10
126.499382
 20
316.078144
 11
126.499382
 21
317.078144
  0
LINE
  5
1F2
100
AcDbEntity
  8
M0
100
AcDbLine
 10
151.599382
 20
363.078142
 11
151.599382
 21
363.578143
  0
LINE
  5
1F3
100
AcDbEntity
  8
M0
100
AcDbLine
 10
140.799382
 20
362.578145
 11
141.899382
 21
362.578145
  0
LINE
  5
1F4
100
AcDbEntity
  8
M0
100
AcDbLine
 10
151.49938
 20
315.178144
 11
151.49938
 21
323.378144
  0
LINE
  5
1F5
100
AcDbEntity
  8
M0
100
AcDbLine
 10
150.499382
 20
362.578145
 11
151.599382
 21
362.578145
  0
LINE
  5
1F6
100
AcDbEntity
  8
M0
100
AcDbLine
 10
140.799382
 20
363.078142
 11
140.799382
 21
354.514033
  0
LINE
  5
1F7
100
AcDbEntity
  8
M0
100
AcDbLine
 10
139.299382
 20
355.057939
 11
139.299382
 21
363.078142
  0
LINE
  5
1F8
100
AcDbEntity
  8
M0
100
AcDbLine
 10
140.799382
 20
363.578143
 11
140.799382
 21
363.078142
  0
LINE
  5
1F9
100
AcDbEntity
  8
M0
100
AcDbLine
 10
149.999381
 20
324.178144
 11
149.999381
 21
323.878144
  0
LINE
  5
1FA
100
AcDbEntity
  8
M0
100
AcDbLine
 10
151.49938
 20
323.378144
 11
151.49938
 21
324.178144
  0
LINE
  5
1FB
100
AcDbEntity
  8
M0
100
AcDbLine
 10
142.399383
 20
324.178144
 11
142.399383
 21
323.878144
  0
LINE
  5
1FC
100
AcDbEntity
  8
M0
100
AcDbLine
 10
149.999381
 20
314.678144
 11
149.999381
 21
314.578144
  0
LINE
  5
1FD
100
AcDbEntity
  8
M0
100
AcDbLine
 10
140.899383
 20
317.778144
 11
140.399382
 21
317.778144
  0
LINE
  5
1FE
100
AcDbEntity
  8
M0
100
AcDbLine
 10
151.49938
 20
317.778144
 11
151.999381
 21
317.778144
  0
LINE
  5
1FF
100
AcDbEntity
  8
M0
100
AcDbLine
 10
151.49938
 20
314.578144
 11
151.49938
 21
315.178144
  0
LINE
  5
200
100
AcDbEntity
  8
M0
100
AcDbLine
 10
140.399382
 20
320.778144
 11
140.899383
 21
320.778144
  0
LINE
  5
201
100
AcDbEntity
  8
M0
100
AcDbLine
 10
143.699382
 20
324.05561
 11
143.699382
 21
324.178144
  0
LINE
  5
202
100
AcDbEntity
  8
M0
100
AcDbLine
 10
124.899383
 20
315.778144
 11
125.499382
 21
315.778144
  0
LINE
  5
203
100
AcDbEntity
  8
M0
100
AcDbLine
 10
143.699382
 20
314.578144
 11
143.699382
 21
314.678144
  0
LINE
  5
204
100
AcDbEntity
  8
M0
100
AcDbLine
 10
148.699381
 20
324.05561
 11
148.699381
 21
324.178144
  0
LINE
  5
205
100
AcDbEntity
  8
M0
100
AcDbLine
 10
140.899383
 20
314.578144
 11
140.899383
 21
315.178144
  0
LINE
  5
206
100
AcDbEntity
  8
M0
100
AcDbLine
 10
142.399383
 20
314.678144
 11
142.399383
 21
314.578144
  0
LINE
  5
207
100
AcDbEntity
  8
M0
100
AcDbLine
 10
167.499383
 20
315.778144
 11
166.89938
 21
315.778144
  0
LINE
  5
208
100
AcDbEntity
  8
M0
100
AcDbLine
 10
147.949383
 20
323.378144
 11
147.949383
 21
316.178144
  0
LINE
  5
209
100
AcDbEntity
  8
M0
100
AcDbLine
 10
144.44938
 20
323.378144
 11
144.44938
 21
316.178144
  0
LINE
  5
20A
100
AcDbEntity
  8
M0
100
AcDbLine
 10
141.399381
 20
323.878144
 11
143.949383
 21
323.878144
  0
LINE
  5
20B
100
AcDbEntity
  8
M0
100
AcDbLine
 10
150.999383
 20
314.678144
 11
141.399381
 21
314.678144
  0
LINE
  5
20C
100
AcDbEntity
  8
M0
100
AcDbLine
 10
150.999383
 20
323.878144
 11
148.449381
 21
323.878144
  0
LINE
  5
20D
100
AcDbEntity
  8
M0
100
AcDbLine
 10
144.44938
 20
316.178144
 11
147.949383
 21
316.178144
  0
LINE
  5
20E
100
AcDbEntity
  8
M0
100
AcDbLine
 10
136.799383
 20
323.878144
 11
136.999382
 21
323.878144
  0
LINE
  5
20F
100
AcDbEntity
  8
M0
100
AcDbLine
 10
136.999382
 20
314.678144
 11
136.799383
 21
314.678144
  0
LINE
  5
210
100
AcDbEntity
  8
M0
100
AcDbLine
 10
140.899383
 20
323.378144
 11
140.899383
 21
324.178144
  0
LINE
  5
211
100
AcDbEntity
  8
M0
100
AcDbLine
 10
151.999381
 20
320.778144
 11
151.49938
 21
320.778144
  0
LINE
  5
212
100
AcDbEntity
  8
M0
100
AcDbLine
 10
142.199383
 20
323.878144
 11
150.199381
 21
323.878144
  0
LINE
  5
213
100
AcDbEntity
  8
M0
100
AcDbLine
 10
140.899383
 20
315.178144
 11
140.899383
 21
323.378144
  0
LINE
  5
214
100
AcDbEntity
  8
M0
100
AcDbLine
 10
155.599383
 20
323.878144
 11
155.399383
 21
323.878144
  0
LINE
  5
215
100
AcDbEntity
  8
M0
100
AcDbLine
 10
155.399383
 20
314.678144
 11
155.599383
 21
314.678144
  0
LINE
  5
216
100
AcDbEntity
  8
M0
100
AcDbLine
 10
176.599384
 20
339.678143
 11
176.299379
 21
339.678143
  0
ARC
  5
217
100
AcDbEntity
  8
M0
100
AcDbCircle
 10
139.499382
 20
354.078144
 40
1.0
100
AcDbArc
 50
90.0
 51
180.0
  0
LINE
  5
218
100
AcDbEntity
  8
M0
100
AcDbLine
 10
176.299379
 20
315.878144
 11
176.599384
 21
315.878144
  0
LINE
  5
219
100
AcDbEntity
  8
M0
100
AcDbLine
 10
176.599384
 20
323.278144
 11
176.299379
 21
323.278144
  0
ARC
  5
21A
100
AcDbEntity
  8
M0
100
AcDbCircle
 10
152.499382
 20
354.078144
 40
1.0
100
AcDbArc
 50
90.0
 51
180.0
  0
ARC
  5
21B
100
AcDbEntity
  8
M0
100
AcDbCircle
 10
152.499382
 20
285.078144
 40
1.0
100
AcDbArc
 50
180.0
 51
270.0
  0
ARC
  5
21C
100
AcDbEntity
  8
M0
100
AcDbCircle
 10
139.899382
 20
354.078144
 40
1.0
100
AcDbArc
 50
0.0
 51
90.0
  0
ARC
  5
21D
100
AcDbEntity
  8
M0
100
AcDbCircle
 10
139.899382
 20
285.078144
 40
1.0
100
AcDbArc
 50
270.0
 51
360.0
  0
LINE
  5
21E
100
AcDbEntity
  8
M0
100
AcDbLine
 10
155.399383
 20
312.078143
 11
155.399383
 21
325.678144
  0
LINE
  5
21F
100
AcDbEntity
  8
M0
100
AcDbLine
 10
154.399381
 20
331.578144
 11
152.899382
 21
331.578144
  0
LINE
  5
220
100
AcDbEntity
  8
M0
100
AcDbLine
 10
154.399381
 20
307.578143
 11
153.899384
 21
307.578143
  0
LINE
  5
221
100
AcDbEntity
  8
M0
100
AcDbLine
 10
176.299379
 20
299.478144
 11
176.599384
 21
299.478144
  0
LINE
  5
222
100
AcDbEntity
  8
M0
100
AcDbLine
 10
175.299384
 20
346.278144
 11
175.299384
 21
324.278144
  0
LINE
  5
223
100
AcDbEntity
  8
M0
100
AcDbLine
 10
139.899381
 20
284.078142
 11
139.499382
 21
284.078142
  0
LINE
  5
224
100
AcDbEntity
  8
M0
100
AcDbLine
 10
139.499382
 20
300.678144
 11
139.899381
 21
300.678144
  0
LINE
  5
225
100
AcDbEntity
  8
M0
100
AcDbLine
 10
139.899381
 20
300.678144
 11
140.899383
 21
300.678144
  0
ARC
  5
226
100
AcDbEntity
  8
M0
100
AcDbCircle
 10
152.899382
 20
354.078144
 40
1.0
100
AcDbArc
 50
0.0
 51
90.0
  0
ARC
  5
227
100
AcDbEntity
  8
M0
100
AcDbCircle
 10
165.499382
 20
354.078144
 40
1.0
100
AcDbArc
 50
90.0
 51
180.0
  0
LINE
  5
228
100
AcDbEntity
  8
M0
100
AcDbLine
 10
175.299384
 20
314.878144
 11
175.299384
 21
292.878144
  0
ARC
  5
229
100
AcDbEntity
  8
M0
100
AcDbCircle
 10
152.899382
 20
285.078144
 40
1.0
100
AcDbArc
 50
270.0
 51
360.0
  0
ARC
  5
22A
100
AcDbEntity
  8
M0
100
AcDbCircle
 10
165.899382
 20
285.078144
 40
1.0
100
AcDbArc
 50
270.0
 51
360.0
  0
LINE
  5
22B
100
AcDbEntity
  8
M0
100
AcDbLine
 10
139.499382
 20
355.078145
 11
139.899381
 21
355.078145
  0
ARC
  5
22C
100
AcDbEntity
  8
M0
100
AcDbCircle
 10
165.499382
 20
285.078144
 40
1.0
100
AcDbArc
 50
180.0
 51
270.0
  0
ARC
  5
22D
100
AcDbEntity
  8
M0
100
AcDbCircle
 10
165.899382
 20
354.078144
 40
1.0
100
AcDbArc
 50
0.0
 51
90.0
  0
LINE
  5
22E
100
AcDbEntity
  8
M0
100
AcDbLine
 10
176.599384
 20
323.278144
 11
176.599384
 21
315.878144
  0
LINE
  5
22F
100
AcDbEntity
  8
M0
100
AcDbLine
 10
168.89938
 20
315.578144
 11
168.89938
 21
323.578144
  0
LINE
  5
230
100
AcDbEntity
  8
M0
100
AcDbLine
 10
166.89938
 20
315.578144
 11
168.89938
 21
315.578144
  0
LINE
  5
231
100
AcDbEntity
  8
M0
100
AcDbLine
 10
115.799382
 20
315.878144
 11
116.099382
 21
315.878144
  0
LINE
  5
232
100
AcDbEntity
  8
M0
100
AcDbLine
 10
115.799382
 20
339.678143
 11
116.099382
 21
339.678143
  0
LINE
  5
233
100
AcDbEntity
  8
M0
100
AcDbLine
 10
175.299384
 20
323.278144
 11
175.299384
 21
315.878144
  0
LINE
  5
234
100
AcDbEntity
  8
M0
100
AcDbLine
 10
175.299384
 20
315.878144
 11
172.299378
 21
315.878144
  0
LINE
  5
235
100
AcDbEntity
  8
M0
100
AcDbLine
 10
115.799382
 20
323.278144
 11
115.799382
 21
315.878144
  0
LINE
  5
236
100
AcDbEntity
  8
M0
100
AcDbLine
 10
172.299378
 20
323.278144
 11
175.299384
 21
323.278144
  0
LINE
  5
237
100
AcDbEntity
  8
M0
100
AcDbLine
 10
165.999384
 20
323.078144
 11
165.999384
 21
322.078144
  0
LINE
  5
238
100
AcDbEntity
  8
M0
100
AcDbLine
 10
166.89938
 20
323.578144
 11
168.89938
 21
323.578144
  0
LINE
  5
239
100
AcDbEntity
  8
M0
100
AcDbLine
 10
172.299378
 20
315.878144
 11
172.299378
 21
323.278144
  0
LINE
  5
23A
100
AcDbEntity
  8
M0
100
AcDbLine
 10
137.999383
 20
331.578144
 11
139.499382
 21
331.578144
  0
LINE
  5
23B
100
AcDbEntity
  8
M0
100
AcDbLine
 10
136.999382
 20
312.078143
 11
136.999382
 21
325.678144
  0
LINE
  5
23C
100
AcDbEntity
  8
M0
100
AcDbLine
 10
137.999383
 20
307.578143
 11
138.499384
 21
307.578143
  0
LINE
  5
23D
100
AcDbEntity
  8
M0
100
AcDbLine
 10
141.14938
 20
330.578144
 11
151.249383
 21
330.578144
  0
LINE
  5
23E
100
AcDbEntity
  8
M0
100
AcDbLine
 10
151.749381
 20
324.178144
 11
140.649383
 21
324.178144
  0
LINE
  5
23F
100
AcDbEntity
  8
M0
100
AcDbLine
 10
141.14938
 20
325.678144
 11
151.249383
 21
325.678144
  0
LINE
  5
240
100
AcDbEntity
  8
M0
100
AcDbLine
 10
151.249383
 20
329.078144
 11
141.14938
 21
329.078144
  0
LINE
  5
241
100
AcDbEntity
  8
M0
100
AcDbLine
 10
116.099382
 20
323.278144
 11
115.799382
 21
323.278144
  0
LINE
  5
242
100
AcDbEntity
  8
M0
100
AcDbLine
 10
165.999384
 20
317.078144
 11
165.999384
 21
316.078144
  0
LINE
  5
243
100
AcDbEntity
  8
M0
100
AcDbLine
 10
116.099382
 20
299.478144
 11
115.799382
 21
299.478144
  0
LINE
  5
244
100
AcDbEntity
  8
M0
100
AcDbLine
 10
117.099382
 20
346.278144
 11
117.099382
 21
324.278144
  0
LINE
  5
245
100
AcDbEntity
  8
M0
100
AcDbLine
 10
167.499383
 20
316.578144
 11
167.499383
 21
315.578144
  0
LINE
  5
246
100
AcDbEntity
  8
M0
100
AcDbLine
 10
167.499383
 20
323.578144
 11
167.499383
 21
322.578144
  0
LINE
  5
247
100
AcDbEntity
  8
M0
100
AcDbLine
 10
117.099382
 20
328.878144
 11
125.499382
 21
328.878144
  0
LINE
  5
248
100
AcDbEntity
  8
M0
100
AcDbLine
 10
167.499383
 20
316.578144
 11
167.79938
 21
316.578144
  0
LINE
  5
249
100
AcDbEntity
  8
M0
100
AcDbLine
 10
167.79938
 20
322.578144
 11
167.79938
 21
321.078144
  0
LINE
  5
24A
100
AcDbEntity
  8
M0
100
AcDbLine
 10
166.89938
 20
310.278144
 11
175.299384
 21
310.278144
  0
LINE
  5
24B
100
AcDbEntity
  8
M0
100
AcDbLine
 10
167.79938
 20
322.578144
 11
167.499383
 21
322.578144
  0
LINE
  5
24C
100
AcDbEntity
  8
M0
100
AcDbLine
 10
167.79938
 20
318.078144
 11
167.79938
 21
316.578144
  0
LINE
  5
24D
100
AcDbEntity
  8
M0
100
AcDbLine
 10
124.599381
 20
318.078144
 11
124.599381
 21
316.578144
  0
LINE
  5
24E
100
AcDbEntity
  8
M0
100
AcDbLine
 10
124.599381
 20
322.578144
 11
124.599381
 21
321.078144
  0
LINE
  5
24F
100
AcDbEntity
  8
M0
100
AcDbLine
 10
124.899383
 20
316.578144
 11
124.599381
 21
316.578144
  0
LINE
  5
250
100
AcDbEntity
  8
M0
100
AcDbLine
 10
124.899383
 20
316.578144
 11
124.899383
 21
315.578144
  0
LINE
  5
251
100
AcDbEntity
  8
M0
100
AcDbLine
 10
125.499382
 20
310.278144
 11
117.099382
 21
310.278144
  0
LINE
  5
252
100
AcDbEntity
  8
M0
100
AcDbLine
 10
124.599381
 20
322.578144
 11
124.899383
 21
322.578144
  0
ARC
  5
253
100
AcDbEntity
  8
M0
100
AcDbCircle
 10
126.899382
 20
354.078144
 40
1.0
100
AcDbArc
 50
0.0
 51
90.0
  0
ARC
  5
254
100
AcDbEntity
  8
M0
100
AcDbCircle
 10
139.499382
 20
285.078144
 40
1.0
100
AcDbArc
 50
180.0
 51
270.0
  0
ARC
  5
255
100
AcDbEntity
  8
M0
100
AcDbCircle
 10
126.499382
 20
354.078144
 40
1.0
100
AcDbArc
 50
90.0
 51
180.0
  0
ARC
  5
256
100
AcDbEntity
  8
M0
100
AcDbCircle
 10
126.899382
 20
285.078144
 40
1.0
100
AcDbArc
 50
270.0
 51
360.0
  0
LINE
  5
257
100
AcDbEntity
  8
M0
100
AcDbLine
 10
126.899381
 20
284.078142
 11
126.699381
 21
284.078142
  0
LINE
  5
258
100
AcDbEntity
  8
M0
100
AcDbLine
 10
126.699381
 20
355.078145
 11
126.899381
 21
355.078145
  0
LINE
  5
259
100
AcDbEntity
  8
M0
100
AcDbLine
 10
155.599383
 20
324.878144
 11
155.399383
 21
324.878144
  0
ARC
  5
25A
100
AcDbEntity
  8
M0
100
AcDbCircle
 10
125.499382
 20
300.078144
 40
0.6
100
AcDbArc
 50
180.0
 51
270.0
  0
LINE
  5
25B
100
AcDbEntity
  8
M0
100
AcDbLine
 10
124.899383
 20
323.578144
 11
124.899383
 21
322.578144
  0
LINE
  5
25C
100
AcDbEntity
  8
M0
100
AcDbLine
 10
175.299384
 20
328.878144
 11
166.89938
 21
328.878144
  0
ARC
  5
25D
100
AcDbEntity
  8
M0
100
AcDbCircle
 10
166.899382
 20
300.078144
 40
0.6
100
AcDbArc
 50
270.0
 51
360.0
  0
ARC
  5
25E
100
AcDbEntity
  8
M0
100
AcDbCircle
 10
126.499382
 20
285.078144
 40
1.0
100
AcDbArc
 50
180.0
 51
270.0
  0
ARC
  5
25F
100
AcDbEntity
  8
M0
100
AcDbCircle
 10
125.499382
 20
339.078144
 40
0.6
100
AcDbArc
 50
90.0
 51
180.0
  0
ARC
  5
260
100
AcDbEntity
  8
M0
100
AcDbCircle
 10
166.899382
 20
339.078144
 40
0.6
100
AcDbArc
 50
0.0
 51
90.0
  0
LINE
  5
261
100
AcDbEntity
  8
M0
100
AcDbLine
 10
153.899384
 20
338.478144
 11
151.49938
 21
338.478144
  0
LINE
  5
262
100
AcDbEntity
  8
M0
100
AcDbLine
 10
153.899384
 20
300.678144
 11
152.899382
 21
300.678144
  0
LINE
  5
263
100
AcDbEntity
  8
M0
100
AcDbLine
 10
152.499382
 20
284.078142
 11
152.899382
 21
284.078142
  0
LINE
  5
264
100
AcDbEntity
  8
M0
100
AcDbLine
 10
152.499382
 20
300.678144
 11
151.49938
 21
300.678144
  0
LINE
  5
265
100
AcDbEntity
  8
M0
100
AcDbLine
 10
152.899382
 20
300.678144
 11
152.499382
 21
300.678144
  0
LINE
  5
266
100
AcDbEntity
  8
M0
100
AcDbLine
 10
172.599382
 20
355.078145
 11
165.499382
 21
355.078145
  0
LINE
  5
267
100
AcDbEntity
  8
M0
100
AcDbLine
 10
166.89938
 20
323.078144
 11
166.89938
 21
354.078145
  0
LINE
  5
268
100
AcDbEntity
  8
M0
100
AcDbLine
 10
152.899382
 20
355.078145
 11
152.499382
 21
355.078145
  0
LINE
  5
269
100
AcDbEntity
  8
M0
100
AcDbLine
 10
164.49938
 20
302.178143
 11
164.49938
 21
285.078144
  0
ARC
  5
26A
100
AcDbEntity
  8
M0
100
AcDbCircle
 10
140.149382
 20
308.078144
 40
0.5
100
AcDbArc
 50
270.0
 51
360.0
  0
ARC
  5
26B
100
AcDbEntity
  8
M0
100
AcDbCircle
 10
152.249382
 20
308.078144
 40
0.5
100
AcDbArc
 50
180.0
 51
270.0
  0
ARC
  5
26C
100
AcDbEntity
  8
M0
100
AcDbCircle
 10
140.149382
 20
330.578144
 40
1.0
100
AcDbArc
 50
0.0
 51
90.0
  0
ARC
  5
26D
100
AcDbEntity
  8
M0
100
AcDbCircle
 10
140.649382
 20
324.678144
 40
0.5
100
AcDbArc
 50
270.0
 51
360.0
  0
ARC
  5
26E
100
AcDbEntity
  8
M0
100
AcDbCircle
 10
154.399382
 20
308.578144
 40
1.0
100
AcDbArc
 50
270.0
 51
360.0
  0
ARC
  5
26F
100
AcDbEntity
  8
M0
100
AcDbCircle
 10
154.399382
 20
312.078144
 40
1.0
100
AcDbArc
 50
0.0
 51
90.0
  0
ARC
  5
270
100
AcDbEntity
  8
M0
100
AcDbCircle
 10
152.249382
 20
330.578144
 40
1.0
100
AcDbArc
 50
90.0
 51
180.0
  0
ARC
  5
271
100
AcDbEntity
  8
M0
100
AcDbCircle
 10
151.749382
 20
324.678144
 40
0.5
100
AcDbArc
 50
180.0
 51
270.0
  0
ARC
  5
272
100
AcDbEntity
  8
M0
100
AcDbCircle
 10
176.599382
 20
324.278144
 40
1.0
100
AcDbArc
 50
270.0
 51
360.0
  0
ARC
  5
273
100
AcDbEntity
  8
M0
100
AcDbCircle
 10
176.599382
 20
338.678144
 40
1.0
100
AcDbArc
 50
0.0
 51
90.0
  0
ARC
  5
274
100
AcDbEntity
  8
M0
100
AcDbCircle
 10
137.999382
 20
330.578144
 40
1.0
100
AcDbArc
 50
90.0
 51
180.0
  0
ARC
  5
275
100
AcDbEntity
  8
M0
100
AcDbCircle
 10
137.999382
 20
308.578144
 40
1.0
100
AcDbArc
 50
180.0
 51
270.0
  0
ARC
  5
276
100
AcDbEntity
  8
M0
100
AcDbCircle
 10
176.599382
 20
300.478144
 40
1.0
100
AcDbArc
 50
270.0
 51
360.0
  0
LINE
  5
277
100
AcDbEntity
  8
M0
100
AcDbLine
 10
151.749381
 20
313.078143
 11
140.649383
 21
313.078143
  0
LINE
  5
278
100
AcDbEntity
  8
M0
100
AcDbLine
 10
140.649383
 20
309.078144
 11
151.749381
 21
309.078144
  0
LINE
  5
279
100
AcDbEntity
  8
M0
100
AcDbLine
 10
140.649383
 20
314.578144
 11
151.749381
 21
314.578144
  0
LINE
  5
27A
100
AcDbEntity
  8
M0
100
AcDbLine
 10
136.999382
 20
325.678144
 11
136.999382
 21
330.578144
  0
LINE
  5
27B
100
AcDbEntity
  8
M0
100
AcDbLine
 10
138.499384
 20
324.178144
 11
136.999382
 21
325.678144
  0
LINE
  5
27C
100
AcDbEntity
  8
M0
100
AcDbLine
 10
136.999382
 20
308.578144
 11
136.999382
 21
312.078143
  0
ARC
  5
27D
100
AcDbEntity
  8
M0
100
AcDbCircle
 10
129.099382
 20
302.878144
 40
1.0
100
AcDbArc
 50
270.0
 51
315.572996
  0
ARC
  5
27E
100
AcDbEntity
  8
M0
100
AcDbCircle
 10
137.299382
 20
302.878144
 40
1.0
100
AcDbArc
 50
224.427004
 51
270.0
  0
ARC
  5
27F
100
AcDbEntity
  8
M0
100
AcDbCircle
 10
137.999382
 20
312.078144
 40
1.0
100
AcDbArc
 50
90.0
 51
180.0
  0
ARC
  5
280
100
AcDbEntity
  8
M0
100
AcDbCircle
 10
154.399382
 20
330.578144
 40
1.0
100
AcDbArc
 50
0.0
 51
90.0
  0
LINE
  5
281
100
AcDbEntity
  8
M0
100
AcDbLine
 10
177.599379
 20
350.078144
 11
177.599379
 21
289.078144
  0
ARC
  5
282
100
AcDbEntity
  8
M0
100
AcDbCircle
 10
163.299382
 20
336.278144
 40
1.0
100
AcDbArc
 50
90.0
 51
135.572996
  0
LINE
  5
283
100
AcDbEntity
  8
M0
100
AcDbLine
 10
150.299382
 20
337.278143
 11
151.49938
 21
337.278143
  0
LINE
  5
284
100
AcDbEntity
  8
M0
100
AcDbLine
 10
163.299383
 20
301.878144
 11
164.49938
 21
301.878144
  0
LINE
  5
285
100
AcDbEntity
  8
M0
100
AcDbLine
 10
155.099382
 20
301.878144
 11
153.899384
 21
301.878144
  0
LINE
  5
286
100
AcDbEntity
  8
M0
100
AcDbLine
 10
175.299384
 20
336.678143
 11
167.499383
 21
336.678143
  0
LINE
  5
287
100
AcDbEntity
  8
M0
100
AcDbLine
 10
142.099381
 20
337.278143
 11
140.899383
 21
337.278143
  0
LINE
  5
288
100
AcDbEntity
  8
M0
100
AcDbLine
 10
153.899384
 20
290.578144
 11
164.49938
 21
290.578144
  0
LINE
  5
289
100
AcDbEntity
  8
M0
100
AcDbLine
 10
151.49938
 20
348.578145
 11
140.899383
 21
348.578145
  0
ARC
  5
28A
100
AcDbEntity
  8
M0
100
AcDbCircle
 10
116.099382
 20
338.678144
 40
1.0
100
AcDbArc
 50
0.0
 51
90.0
  0
ARC
  5
28B
100
AcDbEntity
  8
M0
100
AcDbCircle
 10
116.099382
 20
314.878144
 40
1.0
100
AcDbArc
 50
0.0
 51
90.0
  0
ARC
  5
28C
100
AcDbEntity
  8
M0
100
AcDbCircle
 10
115.799382
 20
324.278144
 40
1.0
100
AcDbArc
 50
180.0
 51
270.0
  0
ARC
  5
28D
100
AcDbEntity
  8
M0
100
AcDbCircle
 10
115.799382
 20
338.678144
 40
1.0
100
AcDbArc
 50
90.0
 51
180.0
  0
ARC
  5
28E
100
AcDbEntity
  8
M0
100
AcDbCircle
 10
176.299382
 20
300.478144
 40
1.0
100
AcDbArc
 50
180.0
 51
270.0
  0
ARC
  5
28F
100
AcDbEntity
  8
M0
100
AcDbCircle
 10
176.299382
 20
324.278144
 40
1.0
100
AcDbArc
 50
180.0
 51
270.0
  0
ARC
  5
290
100
AcDbEntity
  8
M0
100
AcDbCircle
 10
116.099382
 20
300.478144
 40
1.0
100
AcDbArc
 50
270.0
 51
360.0
  0
ARC
  5
291
100
AcDbEntity
  8
M0
100
AcDbCircle
 10
116.099382
 20
324.278144
 40
1.0
100
AcDbArc
 50
270.0
 51
360.0
  0
ARC
  5
292
100
AcDbEntity
  8
M0
100
AcDbCircle
 10
115.799382
 20
314.878144
 40
1.0
100
AcDbArc
 50
90.0
 51
180.0
  0
ARC
  5
293
100
AcDbEntity
  8
M0
100
AcDbCircle
 10
115.799382
 20
300.478144
 40
1.0
100
AcDbArc
 50
180.0
 51
270.0
  0
LINE
  5
294
100
AcDbEntity
  8
M0
100
AcDbLine
 10
163.299383
 20
337.278143
 11
164.49938
 21
337.278143
  0
LINE
  5
295
100
AcDbEntity
  8
M0
100
AcDbLine
 10
117.099382
 20
323.278144
 11
117.099382
 21
315.878144
  0
LINE
  5
296
100
AcDbEntity
  8
M0
100
AcDbLine
 10
126.399382
 20
317.078144
 11
126.399382
 21
316.078144
  0
LINE
  5
297
100
AcDbEntity
  8
M0
100
AcDbLine
 10
120.099382
 20
315.878144
 11
120.099382
 21
323.278144
  0
LINE
  5
298
100
AcDbEntity
  8
M0
100
AcDbLine
 10
117.099382
 20
315.878144
 11
120.099382
 21
315.878144
  0
LINE
  5
299
100
AcDbEntity
  8
M0
100
AcDbLine
 10
123.499381
 20
315.578144
 11
123.499381
 21
323.578144
  0
LINE
  5
29A
100
AcDbEntity
  8
M0
100
AcDbLine
 10
125.499382
 20
323.578144
 11
123.499381
 21
323.578144
  0
LINE
  5
29B
100
AcDbEntity
  8
M0
100
AcDbLine
 10
126.399382
 20
323.078144
 11
126.399382
 21
322.078144
  0
LINE
  5
29C
100
AcDbEntity
  8
M0
100
AcDbLine
 10
125.499382
 20
315.578144
 11
123.499381
 21
315.578144
  0
ARC
  5
29D
100
AcDbEntity
  8
M0
100
AcDbCircle
 10
176.299382
 20
338.678144
 40
1.0
100
AcDbArc
 50
90.0
 51
180.0
  0
ARC
  5
29E
100
AcDbEntity
  8
M0
100
AcDbCircle
 10
176.599382
 20
314.878144
 40
1.0
100
AcDbArc
 50
0.0
 51
90.0
  0
LINE
  5
29F
100
AcDbEntity
  8
M0
100
AcDbLine
 10
164.49938
 20
348.578145
 11
153.899384
 21
348.578145
  0
ARC
  5
2A0
100
AcDbEntity
  8
M0
100
AcDbCircle
 10
176.299382
 20
314.878144
 40
1.0
100
AcDbArc
 50
90.0
 51
180.0
  0
LINE
  5
2A1
100
AcDbEntity
  8
M0
100
AcDbLine
 10
136.799383
 20
324.878144
 11
136.999382
 21
324.878144
  0
LINE
  5
2A2
100
AcDbEntity
  8
M0
100
AcDbLine
 10
120.099382
 20
323.278144
 11
117.099382
 21
323.278144
  0
LINE
  5
2A3
100
AcDbEntity
  8
M0
100
AcDbLine
 10
155.599383
 20
314.278143
 11
155.399383
 21
314.278143
  0
LINE
  5
2A4
100
AcDbEntity
  8
M0
100
AcDbLine
 10
136.799383
 20
314.278143
 11
136.999382
 21
314.278143
  0
LINE
  5
2A5
100
AcDbEntity
  8
M0
100
AcDbLine
 10
141.14938
 20
330.578144
 11
141.14938
 21
324.678144
  0
LINE
  5
2A6
100
AcDbEntity
  8
M0
100
AcDbLine
 10
151.249383
 20
330.578144
 11
151.249383
 21
324.678144
  0
LINE
  5
2A7
100
AcDbEntity
  8
M0
100
AcDbLine
 10
140.649383
 20
316.328144
 11
140.649383
 21
308.078144
  0
LINE
  5
2A8
100
AcDbEntity
  8
M0
100
AcDbLine
 10
140.399382
 20
316.828144
 11
140.649383
 21
316.328144
  0
LINE
  5
2A9
100
AcDbEntity
  8
M0
100
AcDbLine
 10
151.999381
 20
316.828144
 11
151.749381
 21
316.328144
  0
LINE
  5
2AA
100
AcDbEntity
  8
M0
100
AcDbLine
 10
151.999381
 20
322.328144
 11
151.999381
 21
316.828144
  0
LINE
  5
2AB
100
AcDbEntity
  8
M0
100
AcDbLine
 10
151.749381
 20
324.178144
 11
151.749381
 21
322.828144
  0
LINE
  5
2AC
100
AcDbEntity
  8
M0
100
AcDbLine
 10
151.749381
 20
316.328144
 11
151.749381
 21
308.078144
  0
LINE
  5
2AD
100
AcDbEntity
  8
M0
100
AcDbLine
 10
137.999383
 20
313.078143
 11
138.499384
 21
313.078143
  0
LINE
  5
2AE
100
AcDbEntity
  8
M0
100
AcDbLine
 10
140.399382
 20
322.328144
 11
140.399382
 21
316.828144
  0
LINE
  5
2AF
100
AcDbEntity
  8
M0
100
AcDbLine
 10
138.499384
 20
313.078143
 11
138.499384
 21
324.178144
  0
LINE
  5
2B0
100
AcDbEntity
  8
M0
100
AcDbLine
 10
140.649383
 20
322.828144
 11
140.399382
 21
322.328144
  0
LINE
  5
2B1
100
AcDbEntity
  8
M0
100
AcDbLine
 10
140.649383
 20
324.178144
 11
140.649383
 21
322.828144
  0
LINE
  5
2B2
100
AcDbEntity
  8
M0
100
AcDbLine
 10
127.899381
 20
290.578144
 11
138.499384
 21
290.578144
  0
LINE
  5
2B3
100
AcDbEntity
  8
M0
100
AcDbLine
 10
137.299382
 20
301.878144
 11
138.499384
 21
301.878144
  0
LINE
  5
2B4
100
AcDbEntity
  8
M0
100
AcDbLine
 10
155.399383
 20
308.578144
 11
155.399383
 21
312.078143
  0
LINE
  5
2B5
100
AcDbEntity
  8
M0
100
AcDbLine
 10
129.099381
 20
301.878144
 11
127.899381
 21
301.878144
  0
LINE
  5
2B6
100
AcDbEntity
  8
M0
100
AcDbLine
 10
154.399381
 20
313.078143
 11
153.899384
 21
313.078143
  0
LINE
  5
2B7
100
AcDbEntity
  8
M0
100
AcDbLine
 10
153.899384
 20
313.078143
 11
153.899384
 21
324.178144
  0
LINE
  5
2B8
100
AcDbEntity
  8
M0
100
AcDbLine
 10
137.999383
 20
331.578144
 11
140.149382
 21
331.578144
  0
LINE
  5
2B9
100
AcDbEntity
  8
M0
100
AcDbLine
 10
151.749381
 20
322.828144
 11
151.999381
 21
322.328144
  0
LINE
  5
2BA
100
AcDbEntity
  8
M0
100
AcDbLine
 10
155.399383
 20
325.678144
 11
155.399383
 21
330.578144
  0
LINE
  5
2BB
100
AcDbEntity
  8
M0
100
AcDbLine
 10
153.899384
 20
324.178144
 11
155.399383
 21
325.678144
  0
LINE
  5
2BC
100
AcDbEntity
  8
M0
100
AcDbLine
 10
137.999382
 20
307.578143
 11
154.399381
 21
307.578143
  0
LINE
  5
2BD
100
AcDbEntity
  8
M0
100
AcDbLine
 10
154.399381
 20
331.578144
 11
152.249382
 21
331.578144
  0
ELLIPSE
  5
2BE
100
AcDbEntity
  8
M0
100
AcDbEllipse
 10
141.899382
 20
354.49481
 11
1.0
 21
0.0
210
0.0
220
0.0
230
1.0
 40
0.416667
 41
3.141592653589793
 42
4.71238898038469
  0
ELLIPSE
  5
2BF
100
AcDbEntity
  8
M0
100
AcDbEllipse
 10
150.499382
 20
354.49481
 11
1.0
 21
0.0
210
0.0
220
0.0
230
1.0
 40
0.416667
 41
4.71238898038469
 42
6.283185307179586
  0
LINE
  5
2C0
100
AcDbEntity
  8
M0
100
AcDbLine
 10
150.499382
 20
354.078145
 11
141.899382
 21
354.078145
  0
LINE
  5
2C1
100
AcDbEntity
  8
M0
100
AcDbLine
 10
141.899382
 20
362.578145
 11
150.499382
 21
362.578145
  0
LINE
  5
2C2
100
AcDbEntity
  8
M0
100
AcDbLine
 10
127.899381
 20
350.578143
 11
138.499384
 21
350.578143
  0
LINE
  5
2C3
100
AcDbEntity
  8
M0
100
AcDbLine
 10
140.899383
 20
350.578143
 11
151.49938
 21
350.578143
  0
LINE
  5
2C4
100
AcDbEntity
  8
M0
100
AcDbLine
 10
140.899383
 20
361.578144
 11
140.899383
 21
336.978144
  0
LINE
  5
2C5
100
AcDbEntity
  8
M0
100
AcDbLine
 10
151.49938
 20
352.578143
 11
140.899383
 21
352.578143
  0
LINE
  5
2C6
100
AcDbEntity
  8
M0
100
AcDbLine
 10
155.949381
 20
284.578143
 11
155.949381
 21
285.078144
  0
LINE
  5
2C7
100
AcDbEntity
  8
M0
100
AcDbLine
 10
162.449383
 20
287.078145
 11
162.449383
 21
285.078144
  0
LINE
  5
2C8
100
AcDbEntity
  8
M0
100
AcDbLine
 10
155.199383
 20
284.078142
 11
163.199382
 21
284.078142
  0
LINE
  5
2C9
100
AcDbEntity
  8
M0
100
AcDbLine
 10
155.949381
 20
285.078144
 11
155.949381
 21
287.078145
  0
LINE
  5
2CA
100
AcDbEntity
  8
M0
100
AcDbLine
 10
164.199383
 20
285.078144
 11
164.199383
 21
288.578144
  0
LINE
  5
2CB
100
AcDbEntity
  8
M0
100
AcDbLine
 10
164.199383
 20
288.578144
 11
164.49938
 21
288.578144
  0
LINE
  5
2CC
100
AcDbEntity
  8
M0
100
AcDbLine
 10
116.099382
 20
291.878144
 11
115.799382
 21
291.878144
  0
LINE
  5
2CD
100
AcDbEntity
  8
M0
100
AcDbLine
 10
128.199383
 20
288.578144
 11
127.899381
 21
288.578144
  0
LINE
  5
2CE
100
AcDbEntity
  8
M0
100
AcDbLine
 10
163.199381
 20
290.578144
 11
163.199381
 21
289.578142
  0
LINE
  5
2CF
100
AcDbEntity
  8
M0
100
AcDbLine
 10
115.799382
 20
347.278143
 11
116.099382
 21
347.278143
  0
LINE
  5
2D0
100
AcDbEntity
  8
M0
100
AcDbLine
 10
137.199382
 20
288.078143
 11
137.199382
 21
290.578144
  0
LINE
  5
2D1
100
AcDbEntity
  8
M0
100
AcDbLine
 10
138.499384
 20
287.078145
 11
138.199382
 21
287.078145
  0
LINE
  5
2D2
100
AcDbEntity
  8
M0
100
AcDbLine
 10
162.449383
 20
285.078144
 11
162.449383
 21
284.578143
  0
LINE
  5
2D3
100
AcDbEntity
  8
M0
100
AcDbLine
 10
164.49938
 20
350.578143
 11
153.899384
 21
350.578143
  0
LINE
  5
2D4
100
AcDbEntity
  8
M0
100
AcDbLine
 10
155.199383
 20
288.078143
 11
155.199383
 21
290.578144
  0
LINE
  5
2D5
100
AcDbEntity
  8
M0
100
AcDbLine
 10
129.199383
 20
290.578144
 11
129.199383
 21
289.578142
  0
LINE
  5
2D6
100
AcDbEntity
  8
M0
100
AcDbLine
 10
151.49938
 20
287.078145
 11
140.899383
 21
287.078145
  0
LINE
  5
2D7
100
AcDbEntity
  8
M0
100
AcDbLine
 10
154.199381
 20
287.078145
 11
153.899384
 21
287.078145
  0
ARC
  5
2D8
100
AcDbEntity
  8
M0
100
AcDbCircle
 10
162.949382
 20
284.578144
 40
0.5
100
AcDbArc
 50
180.0
 51
270.0
  0
ARC
  5
2D9
100
AcDbEntity
  8
M0
100
AcDbCircle
 10
155.449382
 20
284.578144
 40
0.5
100
AcDbArc
 50
270.0
 51
360.0
  0
ARC
  5
2DA
100
AcDbEntity
  8
M0
100
AcDbCircle
 10
159.199382
 20
287.078144
 40
3.25
100
AcDbArc
 50
0.0
 51
180.0
  0
ARC
  5
2DB
100
AcDbEntity
  8
M0
100
AcDbCircle
 10
141.899382
 20
361.578144
 40
1.0
100
AcDbArc
 50
90.0
 51
180.0
  0
ARC
  5
2DC
100
AcDbEntity
  8
M0
100
AcDbCircle
 10
150.499382
 20
361.578144
 40
1.0
100
AcDbArc
 50
0.0
 51
90.0
  0
ARC
  5
2DD
100
AcDbEntity
  8
M0
100
AcDbCircle
 10
163.199382
 20
285.078144
 40
1.0
100
AcDbArc
 50
270.0
 51
360.0
  0
ARC
  5
2DE
100
AcDbEntity
  8
M0
100
AcDbCircle
 10
129.449382
 20
284.578144
 40
0.5
100
AcDbArc
 50
270.0
 51
360.0
  0
ARC
  5
2DF
100
AcDbEntity
  8
M0
100
AcDbCircle
 10
137.199382
 20
285.078144
 40
1.0
100
AcDbArc
 50
270.0
 51
360.0
  0
ARC
  5
2E0
100
AcDbEntity
  8
M0
100
AcDbCircle
 10
155.199382
 20
285.078144
 40
1.0
100
AcDbArc
 50
180.0
 51
270.0
  0
ARC
  5
2E1
100
AcDbEntity
  8
M0
100
AcDbCircle
 10
133.199382
 20
287.078144
 40
3.25
100
AcDbArc
 50
0.0
 51
180.0
  0
LINE
  5
2E2
100
AcDbEntity
  8
M0
100
AcDbLine
 10
129.949382
 20
287.078144
 11
129.949382
 21
284.578143
  0
LINE
  5
2E3
100
AcDbEntity
  8
M0
100
AcDbLine
 10
138.199382
 20
287.078145
 11
138.199382
 21
285.078144
  0
LINE
  5
2E4
100
AcDbEntity
  8
M0
100
AcDbLine
 10
154.199381
 20
287.078145
 11
154.199381
 21
285.078144
  0
LINE
  5
2E5
100
AcDbEntity
  8
M0
100
AcDbLine
 10
136.449382
 20
284.578143
 11
136.449382
 21
287.078144
  0
ARC
  5
2E6
100
AcDbEntity
  8
M0
100
AcDbCircle
 10
154.199382
 20
288.078144
 40
1.0
100
AcDbArc
 50
270.0
 51
360.0
  0
ARC
  5
2E7
100
AcDbEntity
  8
M0
100
AcDbCircle
 10
128.199382
 20
289.578144
 40
1.0
100
AcDbArc
 50
270.0
 51
360.0
  0
ARC
  5
2E8
100
AcDbEntity
  8
M0
100
AcDbCircle
 10
136.949382
 20
284.578144
 40
0.5
100
AcDbArc
 50
180.0
 51
270.0
  0
ARC
  5
2E9
100
AcDbEntity
  8
M0
100
AcDbCircle
 10
138.199382
 20
288.078144
 40
1.0
100
AcDbArc
 50
180.0
 51
270.0
  0
LINE
  5
2EA
100
AcDbEntity
  8
M0
100
AcDbLine
 10
128.199383
 20
285.078144
 11
128.199383
 21
288.578144
  0
ARC
  5
2EB
100
AcDbEntity
  8
M0
100
AcDbCircle
 10
164.199382
 20
289.578144
 40
1.0
100
AcDbArc
 50
180.0
 51
270.0
  0
ARC
  5
2EC
100
AcDbEntity
  8
M0
100
AcDbCircle
 10
115.799382
 20
346.278144
 40
1.0
100
AcDbArc
 50
90.0
 51
180.0
  0
LINE
  5
2ED
100
AcDbEntity
  8
M0
100
AcDbLine
 10
126.899381
 20
284.078142
 11
119.799382
 21
284.078142
  0
LINE
  5
2EE
100
AcDbEntity
  8
M0
100
AcDbLine
 10
119.799382
 20
355.078145
 11
126.899381
 21
355.078145
  0
LINE
  5
2EF
100
AcDbEntity
  8
M0
100
AcDbLine
 10
125.499382
 20
354.078144
 11
125.499382
 21
323.078144
  0
LINE
  5
2F0
100
AcDbEntity
  8
M0
100
AcDbLine
 10
167.499383
 20
292.478144
 11
167.499383
 21
310.278144
  0
LINE
  5
2F1
100
AcDbEntity
  8
M0
100
AcDbLine
 10
167.499383
 20
328.878144
 11
167.499383
 21
346.678144
  0
ARC
  5
2F2
100
AcDbEntity
  8
M0
100
AcDbCircle
 10
115.799382
 20
292.878144
 40
1.0
100
AcDbArc
 50
180.0
 51
270.0
  0
ARC
  5
2F3
100
AcDbEntity
  8
M0
100
AcDbCircle
 10
116.099382
 20
292.878144
 40
1.0
100
AcDbArc
 50
270.0
 51
360.0
  0
LINE
  5
2F4
100
AcDbEntity
  8
M0
100
AcDbLine
 10
138.499384
 20
338.478144
 11
140.899383
 21
338.478144
  0
ARC
  5
2F5
100
AcDbEntity
  8
M0
100
AcDbCircle
 10
125.499382
 20
292.478144
 40
0.6
100
AcDbArc
 50
180.0
 51
270.0
  0
ARC
  5
2F6
100
AcDbEntity
  8
M0
100
AcDbCircle
 10
166.899382
 20
346.678144
 40
0.6
100
AcDbArc
 50
0.0
 51
90.0
  0
ARC
  5
2F7
100
AcDbEntity
  8
M0
100
AcDbCircle
 10
116.099382
 20
346.278144
 40
1.0
100
AcDbArc
 50
0.0
 51
90.0
  0
ARC
  5
2F8
100
AcDbEntity
  8
M0
100
AcDbCircle
 10
125.499382
 20
346.678144
 40
0.6
100
AcDbArc
 50
90.0
 51
180.0
  0
LINE
  5
2F9
100
AcDbEntity
  8
M0
100
AcDbLine
 10
127.899381
 20
302.178143
 11
127.899381
 21
285.078144
  0
LINE
  5
2FA
100
AcDbEntity
  8
M0
100
AcDbLine
 10
138.499384
 20
285.078144
 11
138.499384
 21
302.178143
  0
LINE
  5
2FB
100
AcDbEntity
  8
M0
100
AcDbLine
 10
138.499384
 20
300.678144
 11
139.499382
 21
300.678144
  0
LINE
  5
2FC
100
AcDbEntity
  8
M0
100
AcDbLine
 10
165.699382
 20
355.078145
 11
165.499382
 21
355.078145
  0
LINE
  5
2FD
100
AcDbEntity
  8
M0
100
AcDbLine
 10
164.49938
 20
354.078145
 11
164.49938
 21
336.978144
  0
LINE
  5
2FE
100
AcDbEntity
  8
M0
100
AcDbLine
 10
140.899383
 20
285.078144
 11
140.899383
 21
302.178143
  0
LINE
  5
2FF
100
AcDbEntity
  8
M0
100
AcDbLine
 10
138.499384
 20
354.078144
 11
138.499384
 21
336.978144
  0
LINE
  5
300
100
AcDbEntity
  8
M0
100
AcDbLine
 10
153.899384
 20
302.178143
 11
153.899384
 21
285.078144
  0
LINE
  5
301
100
AcDbEntity
  8
M0
100
AcDbLine
 10
151.49938
 20
285.078144
 11
151.49938
 21
302.178143
  0
LINE
  5
302
100
AcDbEntity
  8
M0
100
AcDbLine
 10
153.899384
 20
354.078144
 11
153.899384
 21
336.978144
  0
LINE
  5
303
100
AcDbEntity
  8
M0
100
AcDbLine
 10
151.49938
 20
336.978144
 11
151.49938
 21
361.578144
  0
LINE
  5
304
100
AcDbEntity
  8
M0
100
AcDbLine
 10
151.49938
 20
287.078145
 11
151.49938
 21
288.078143
  0
LINE
  5
305
100
AcDbEntity
  8
M0
100
AcDbLine
 10
151.49938
 20
352.078144
 11
151.49938
 21
351.078144
  0
LINE
  5
306
100
AcDbEntity
  8
M0
100
AcDbLine
 10
176.299379
 20
291.878144
 11
176.599384
 21
291.878144
  0
LINE
  5
307
100
AcDbEntity
  8
M0
100
AcDbLine
 10
176.599384
 20
347.278143
 11
176.299379
 21
347.278143
  0
LINE
  5
308
100
AcDbEntity
  8
M0
100
AcDbLine
 10
176.399381
 20
339.678143
 11
176.299379
 21
339.678143
  0
LINE
  5
309
100
AcDbEntity
  8
M0
100
AcDbLine
 10
127.899381
 20
354.078145
 11
127.899381
 21
336.978144
  0
LINE
  5
30A
100
AcDbEntity
  8
M0
100
AcDbLine
 10
115.999382
 20
339.678143
 11
116.099382
 21
339.678143
  0
LINE
  5
30B
100
AcDbEntity
  8
M0
100
AcDbLine
 10
176.399381
 20
299.478144
 11
176.299379
 21
299.478144
  0
LINE
  5
30C
100
AcDbEntity
  8
M0
100
AcDbLine
 10
115.999382
 20
299.478144
 11
116.099382
 21
299.478144
  0
ARC
  5
30D
100
AcDbEntity
  8
M0
100
AcDbCircle
 10
176.299382
 20
292.878144
 40
1.0
100
AcDbArc
 50
180.0
 51
270.0
  0
ARC
  5
30E
100
AcDbEntity
  8
M0
100
AcDbCircle
 10
176.299382
 20
346.278144
 40
1.0
100
AcDbArc
 50
90.0
 51
180.0
  0
ARC
  5
30F
100
AcDbEntity
  8
M0
100
AcDbCircle
 10
166.899382
 20
292.478144
 40
0.6
100
AcDbArc
 50
270.0
 51
360.0
  0
ARC
  5
310
100
AcDbEntity
  8
M0
100
AcDbCircle
 10
176.599382
 20
346.278144
 40
1.0
100
AcDbArc
 50
0.0
 51
90.0
  0
LINE
  5
311
100
AcDbEntity
  8
M0
100
AcDbLine
 10
124.899383
 20
292.478143
 11
124.899383
 21
310.278144
  0
LINE
  5
312
100
AcDbEntity
  8
M0
100
AcDbLine
 10
124.899383
 20
328.878144
 11
124.899383
 21
346.678144
  0
ARC
  5
313
100
AcDbEntity
  8
M0
100
AcDbCircle
 10
176.599382
 20
292.878144
 40
1.0
100
AcDbArc
 50
270.0
 51
360.0
  0
LINE
  5
314
100
AcDbEntity
  8
M0
100
AcDbLine
 10
117.099382
 20
314.878144
 11
117.099382
 21
292.878144
  0
LINE
  5
315
100
AcDbEntity
  8
M0
100
AcDbLine
 10
168.399383
 20
293.878144
 11
168.399383
 21
294.878145
  0
LINE
  5
316
100
AcDbEntity
  8
M0
100
AcDbLine
 10
174.399384
 20
293.878144
 11
168.399383
 21
293.878144
  0
LINE
  5
317
100
AcDbEntity
  8
M0
100
AcDbLine
 10
174.399384
 20
294.878145
 11
174.399384
 21
293.878144
  0
LINE
  5
318
100
AcDbEntity
  8
M0
100
AcDbLine
 10
124.899383
 20
336.678143
 11
117.099382
 21
336.678143
  0
LINE
  5
319
100
AcDbEntity
  8
M0
100
AcDbLine
 10
168.399383
 20
345.278145
 11
174.399384
 21
345.278145
  0
LINE
  5
31A
100
AcDbEntity
  8
M0
100
AcDbLine
 10
168.399383
 20
344.278144
 11
168.399383
 21
345.278145
  0
LINE
  5
31B
100
AcDbEntity
  8
M0
100
AcDbLine
 10
174.399384
 20
345.278145
 11
174.399384
 21
344.278144
  0
LINE
  5
31C
100
AcDbEntity
  8
M0
100
AcDbLine
 10
117.099382
 20
302.478143
 11
124.899383
 21
302.478143
  0
LINE
  5
31D
100
AcDbEntity
  8
M0
100
AcDbLine
 10
167.499383
 20
302.478143
 11
175.299384
 21
302.478143
  0
LINE
  5
31E
100
AcDbEntity
  8
M0
100
AcDbLine
 10
129.099381
 20
337.278143
 11
127.899381
 21
337.278143
  0
LINE
  5
31F
100
AcDbEntity
  8
M0
100
AcDbLine
 10
137.299382
 20
337.278143
 11
138.499384
 21
337.278143
  0
LINE
  5
320
100
AcDbEntity
  8
M0
100
AcDbLine
 10
138.499384
 20
348.578145
 11
127.899381
 21
348.578145
  0
ARC
  5
321
100
AcDbEntity
  8
M0
100
AcDbCircle
 10
142.099382
 20
336.278144
 40
1.0
100
AcDbArc
 50
44.427004
 51
90.0
  0
LINE
  5
322
100
AcDbEntity
  8
M0
100
AcDbLine
 10
155.099382
 20
337.278143
 11
153.899384
 21
337.278143
  0
ARC
  5
323
100
AcDbEntity
  8
M0
100
AcDbCircle
 10
163.299382
 20
302.878144
 40
1.0
100
AcDbArc
 50
224.427004
 51
270.0
  0
ARC
  5
324
100
AcDbEntity
  8
M0
100
AcDbCircle
 10
150.299382
 20
336.278144
 40
1.0
100
AcDbArc
 50
90.0
 51
135.572996
  0
LINE
  5
325
100
AcDbEntity
  8
M0
100
AcDbLine
 10
150.299382
 20
301.878144
 11
151.49938
 21
301.878144
  0
LINE
  5
326
100
AcDbEntity
  8
M0
100
AcDbLine
 10
142.099381
 20
301.878144
 11
140.899383
 21
301.878144
  0
LINE
  5
327
100
AcDbEntity
  8
M0
100
AcDbLine
 10
140.899383
 20
290.578144
 11
151.49938
 21
290.578144
  0
LINE
  5
328
100
AcDbEntity
  8
M0
100
AcDbLine
 10
117.999382
 20
345.278145
 11
123.999382
 21
345.278145
  0
LINE
  5
329
100
AcDbEntity
  8
M0
100
AcDbLine
 10
117.999382
 20
344.278144
 11
117.999382
 21
345.278145
  0
LINE
  5
32A
100
AcDbEntity
  8
M0
100
AcDbLine
 10
123.999382
 20
345.278145
 11
123.999382
 21
344.278144
  0
ARC
  5
32B
100
AcDbEntity
  8
M0
100
AcDbCircle
 10
155.099382
 20
336.278144
 40
1.0
100
AcDbArc
 50
44.427004
 51
90.0
  0
ARC
  5
32C
100
AcDbEntity
  8
M0
100
AcDbCircle
 10
137.299382
 20
336.278144
 40
1.0
100
AcDbArc
 50
90.0
 51
135.572996
  0
ARC
  5
32D
100
AcDbEntity
  8
M0
100
AcDbCircle
 10
150.299382
 20
302.878144
 40
1.0
100
AcDbArc
 50
224.427004
 51
270.0
  0
ARC
  5
32E
100
AcDbEntity
  8
M0
100
AcDbCircle
 10
155.099382
 20
302.878144
 40
1.0
100
AcDbArc
 50
270.0
 51
315.572996
  0
ARC
  5
32F
100
AcDbEntity
  8
M0
100
AcDbCircle
 10
129.099382
 20
336.278144
 40
1.0
100
AcDbArc
 50
44.427004
 51
90.0
  0
ARC
  5
330
100
AcDbEntity
  8
M0
100
AcDbCircle
 10
142.099382
 20
302.878144
 40
1.0
100
AcDbArc
 50
270.0
 51
315.572996
  0
LINE
  5
331
100
AcDbEntity
  8
M0
100
AcDbLine
 10
123.999382
 20
293.878144
 11
117.999382
 21
293.878144
  0
LINE
  5
332
100
AcDbEntity
  8
M0
100
AcDbLine
 10
123.999382
 20
294.878145
 11
123.999382
 21
293.878144
  0
LINE
  5
333
100
AcDbEntity
  8
M0
100
AcDbLine
 10
117.999382
 20
293.878144
 11
117.999382
 21
294.878145
  0
LINE
  5
334
100
AcDbEntity
  8
M0
100
AcDbLine
 10
162.916844
 20
363.496135
 11
162.917935
 21
363.459675
  0
LINE
  5
335
100
AcDbEntity
  8
M0
100
AcDbLine
 10
162.917935
 20
363.459675
 11
162.921184
 21
363.351396
  0
LINE
  5
336
100
AcDbEntity
  8
M0
100
AcDbLine
 10
162.921184
 20
363.351396
 11
162.926488
 21
363.174598
  0
LINE
  5
337
100
AcDbEntity
  8
M0
100
AcDbLine
 10
162.926488
 20
363.174598
 11
162.933686
 21
362.934644
  0
LINE
  5
338
100
AcDbEntity
  8
M0
100
AcDbLine
 10
162.933686
 20
362.934644
 11
162.942563
 21
362.638826
  0
LINE
  5
339
100
AcDbEntity
  8
M0
100
AcDbLine
 10
162.942563
 20
362.638826
 11
162.952841
 21
362.296137
  0
LINE
  5
33A
100
AcDbEntity
  8
M0
100
AcDbLine
 10
162.952841
 20
362.296137
 11
162.964218
 21
361.916984
  0
LINE
  5
33B
100
AcDbEntity
  8
M0
100
AcDbLine
 10
162.964218
 20
361.916984
 11
162.97634
 21
361.512891
  0
LINE
  5
33C
100
AcDbEntity
  8
M0
100
AcDbLine
 10
162.97634
 20
361.512891
 11
162.988842
 21
361.096135
  0
LINE
  5
33D
100
AcDbEntity
  8
M0
100
AcDbLine
 10
129.409921
 20
361.096135
 11
129.423967
 21
361.564352
  0
LINE
  5
33E
100
AcDbEntity
  8
M0
100
AcDbLine
 10
129.423967
 20
361.564352
 11
129.437475
 21
362.014576
  0
LINE
  5
33F
100
AcDbEntity
  8
M0
100
AcDbLine
 10
129.437475
 20
362.014576
 11
129.449923
 21
362.429506
  0
LINE
  5
340
100
AcDbEntity
  8
M0
100
AcDbLine
 10
129.449923
 20
362.429506
 11
129.460833
 21
362.793191
  0
LINE
  5
341
100
AcDbEntity
  8
M0
100
AcDbLine
 10
129.460833
 20
362.793191
 11
129.469787
 21
363.091661
  0
LINE
  5
342
100
AcDbEntity
  8
M0
100
AcDbLine
 10
129.469787
 20
363.091661
 11
129.476442
 21
363.313447
  0
LINE
  5
343
100
AcDbEntity
  8
M0
100
AcDbLine
 10
129.476442
 20
363.313447
 11
129.480538
 21
363.450019
  0
LINE
  5
344
100
AcDbEntity
  8
M0
100
AcDbLine
 10
129.480538
 20
363.450019
 11
129.481922
 21
363.496135
  0
LINE
  5
345
100
AcDbEntity
  8
M0
  6
DASHDOT
100
AcDbLine
 10
132.699382
 20
295.878144
 11
133.699382
 21
295.878144
  0
LINE
  5
346
100
AcDbEntity
  8
M0
  6
DASHDOT
100
AcDbLine
 10
133.199382
 20
295.378144
 11
133.199382
 21
296.378144
  0
LINE
  5
347
100
AcDbEntity
  8
M0
  6
DASHDOT
100
AcDbLine
 10
146.199378
 20
295.378144
 11
146.199378
 21
296.378144
  0
LINE
  5
348
100
AcDbEntity
  8
M0
  6
DASHDOT
100
AcDbLine
 10
145.699378
 20
295.878144
 11
146.699378
 21
295.878144
  0
LINE
  5
349
100
AcDbEntity
  8
M0
  6
DASHDOT
100
AcDbLine
 10
159.199379
 20
295.378144
 11
159.199379
 21
296.378144
  0
LINE
  5
34A
100
AcDbEntity
  8
M0
  6
DASHDOT
100
AcDbLine
 10
158.699379
 20
295.878144
 11
159.699379
 21
295.878144
  0
LINE
  5
34B
100
AcDbEntity
  8
M0
  6
DASHDOT
100
AcDbLine
 10
159.199379
 20
343.778144
 11
159.199379
 21
342.778144
  0
LINE
  5
34C
100
AcDbEntity
  8
M0
  6
DASHDOT
100
AcDbLine
 10
158.699379
 20
343.278144
 11
159.699379
 21
343.278144
  0
LINE
  5
34D
100
AcDbEntity
  8
M0
  6
DASHDOT
100
AcDbLine
 10
145.699378
 20
343.278144
 11
146.699378
 21
343.278144
  0
LINE
  5
34E
100
AcDbEntity
  8
M0
  6
DASHDOT
100
AcDbLine
 10
133.199382
 20
343.778144
 11
133.199382
 21
342.778144
  0
LINE
  5
34F
100
AcDbEntity
  8
M0
  6
DASHDOT
100
AcDbLine
 10
146.199378
 20
343.778144
 11
146.199378
 21
342.778144
  0
LINE
  5
350
100
AcDbEntity
  8
M0
  6
DASHDOT
100
AcDbLine
 10
132.699382
 20
343.278144
 11
133.699382
 21
343.278144
  0
LINE
  5
351
100
AcDbEntity
  8
M0
  6
DASHDOT
100
AcDbLine
 10
171.899382
 20
340.478144
 11
170.899382
 21
340.478144
  0
LINE
  5
352
100
AcDbEntity
  8
M0
  6
DASHDOT
100
AcDbLine
 10
171.399382
 20
339.978144
 11
171.399382
 21
340.978144
  0
LINE
  5
353
100
AcDbEntity
  8
M0
  6
DASHDOT
100
AcDbLine
 10
171.899382
 20
332.878144
 11
170.899382
 21
332.878144
  0
LINE
  5
354
100
AcDbEntity
  8
M0
  6
DASHDOT
100
AcDbLine
 10
171.399382
 20
332.378144
 11
171.399382
 21
333.378144
  0
LINE
  5
355
100
AcDbEntity
  8
M0
  6
DASHDOT
100
AcDbLine
 10
171.899382
 20
306.278144
 11
170.899382
 21
306.278144
  0
LINE
  5
356
100
AcDbEntity
  8
M0
  6
DASHDOT
100
AcDbLine
 10
171.399382
 20
305.778144
 11
171.399382
 21
306.778144
  0
LINE
  5
357
100
AcDbEntity
  8
M0
  6
DASHDOT
100
AcDbLine
 10
171.899382
 20
298.678144
 11
170.899382
 21
298.678144
  0
LINE
  5
358
100
AcDbEntity
  8
M0
  6
DASHDOT
100
AcDbLine
 10
171.399382
 20
298.178144
 11
171.399382
 21
299.178144
  0
LINE
  5
359
100
AcDbEntity
  8
M0
  6
DASHDOT
100
AcDbLine
 10
120.499382
 20
332.878144
 11
121.499382
 21
332.878144
  0
LINE
  5
35A
100
AcDbEntity
  8
M0
  6
DASHDOT
100
AcDbLine
 10
120.999382
 20
332.378144
 11
120.999382
 21
333.378144
  0
LINE
  5
35B
100
AcDbEntity
  8
M0
  6
DASHDOT
100
AcDbLine
 10
120.499382
 20
340.478144
 11
121.499382
 21
340.478144
  0
LINE
  5
35C
100
AcDbEntity
  8
M0
  6
DASHDOT
100
AcDbLine
 10
120.999382
 20
339.978144
 11
120.999382
 21
340.978144
  0
LINE
  5
35D
100
AcDbEntity
  8
M0
  6
DASHDOT
100
AcDbLine
 10
120.499382
 20
298.678144
 11
121.499382
 21
298.678144
  0
LINE
  5
35E
100
AcDbEntity
  8
M0
  6
DASHDOT
100
AcDbLine
 10
120.999382
 20
298.178144
 11
120.999382
 21
299.178144
  0
LINE
  5
35F
100
AcDbEntity
  8
M0
  6
DASHDOT
100
AcDbLine
 10
120.499382
 20
306.278144
 11
121.499382
 21
306.278144
  0
LINE
  5
360
100
AcDbEntity
  8
M0
  6
DASHDOT
100
AcDbLine
 10
120.999382
 20
305.778144
 11
120.999382
 21
306.778144
  0
LINE
  5
361
100
AcDbEntity
  8
M0
  6
DASHDOT
100
AcDbLine
 10
132.699382
 20
287.078144
 11
133.699382
 21
287.078144
  0
LINE
  5
362
100
AcDbEntity
  8
M0
  6
DASHDOT
100
AcDbLine
 10
133.199382
 20
286.578144
 11
133.199382
 21
287.578144
  0
LINE
  5
363
100
AcDbEntity
  8
M0
  6
DASHDOT
100
AcDbLine
 10
158.699382
 20
287.078144
 11
159.699382
 21
287.078144
  0
LINE
  5
364
100
AcDbEntity
  8
M0
  6
DASHDOT
100
AcDbLine
 10
159.199382
 20
286.578144
 11
159.199382
 21
287.578144
  0
LINE
  5
365
100
AcDbEntity
  8
M0
  6
DASHDOT
100
AcDbLine
 10
156.599382
 20
358.178144
 11
157.599382
 21
358.178144
  0
LINE
  5
366
100
AcDbEntity
  8
M0
  6
DASHDOT
100
AcDbLine
 10
157.099382
 20
357.678144
 11
157.099382
 21
358.678144
  0
LINE
  5
367
100
AcDbEntity
  8
M0
  6
DASHDOT
100
AcDbLine
 10
145.699382
 20
357.778144
 11
146.699382
 21
357.778144
  0
LINE
  5
368
100
AcDbEntity
  8
M0
  6
DASHDOT
100
AcDbLine
 10
146.199382
 20
357.278144
 11
146.199382
 21
358.278144
  0
LINE
  5
369
100
AcDbEntity
  8
M0
  6
DASHDOT
100
AcDbLine
 10
135.799382
 20
358.178144
 11
134.799382
 21
358.178144
  0
LINE
  5
36A
100
AcDbEntity
  8
M0
  6
DASHDOT
100
AcDbLine
 10
135.299382
 20
357.678144
 11
135.299382
 21
358.678144
  0
CIRCLE
  5
36B
100
AcDbEntity
  8
M0
  6
DASHED
100
AcDbCircle
 10
48.199385
 20
298.678144
 40
3.0
  0
LINE
  5
36C
100
AcDbEntity
  8
M0
  6
DASHED
100
AcDbLine
 10
49.789969
 20
297.087499
 11
46.608329
 21
300.269262
  0
LINE
  5
36D
100
AcDbEntity
  8
M0
  6
DASHED
100
AcDbLine
 10
49.613211
 20
299.031835
 11
47.845633
 21
297.264257
  0
LINE
  5
36E
100
AcDbEntity
  8
M0
  6
DASHED
100
AcDbLine
 10
48.552665
 20
300.092504
 11
46.785086
 21
298.324804
  0
LINE
  5
36F
100
AcDbEntity
  8
M0
  6
DASHED
100
AcDbLine
 10
51.524385
 20
302.503144
 11
44.874385
 21
302.503144
  0
ARC
  5
370
100
AcDbEntity
  8
M0
  6
DASHED
100
AcDbCircle
 10
51.524385
 20
302.003144
 40
0.5
100
AcDbArc
 50
0.0
 51
90.0
  0
LINE
  5
371
100
AcDbEntity
  8
M0
  6
DASHED
100
AcDbLine
 10
52.024385
 20
295.353144
 11
52.024385
 21
302.003144
  0
ARC
  5
372
100
AcDbEntity
  8
M0
  6
DASHED
100
AcDbCircle
 10
51.524385
 20
295.353144
 40
0.5
100
AcDbArc
 50
270.0
 51
360.0
  0
LINE
  5
373
100
AcDbEntity
  8
M0
  6
DASHED
100
AcDbLine
 10
44.874385
 20
294.853144
 11
51.524385
 21
294.853144
  0
LINE
  5
374
100
AcDbEntity
  8
M0
  6
DASHED
100
AcDbLine
 10
44.374385
 20
302.003144
 11
44.374385
 21
295.353144
  0
ARC
  5
375
100
AcDbEntity
  8
M0
  6
DASHED
100
AcDbCircle
 10
44.874385
 20
302.003144
 40
0.5
100
AcDbArc
 50
90.0
 51
180.0
  0
ARC
  5
376
100
AcDbEntity
  8
M0
  6
DASHED
100
AcDbCircle
 10
44.874385
 20
295.353144
 40
0.5
100
AcDbArc
 50
180.0
 51
270.0
  0
CIRCLE
  5
377
100
AcDbEntity
  8
M0
100
AcDbCircle
 10
98.599385
 20
306.278144
 40
3.0
  0
LINE
  5
378
100
AcDbEntity
  8
M0
100
AcDbLine
 10
100.189969
 20
304.687499
 11
97.008328
 21
307.869262
  0
LINE
  5
379
100
AcDbEntity
  8
M0
100
AcDbLine
 10
100.013211
 20
306.631835
 11
98.245633
 21
304.864257
  0
LINE
  5
37A
100
AcDbEntity
  8
M0
100
AcDbLine
 10
98.952664
 20
307.692504
 11
97.185086
 21
305.924804
  0
LINE
  5
37B
100
AcDbEntity
  8
M0
100
AcDbLine
 10
101.924385
 20
310.103144
 11
95.274385
 21
310.103144
  0
ARC
  5
37C
100
AcDbEntity
  8
M0
100
AcDbCircle
 10
101.924385
 20
309.603144
 40
0.5
100
AcDbArc
 50
0.0
 51
90.0
  0
LINE
  5
37D
100
AcDbEntity
  8
M0
100
AcDbLine
 10
102.424385
 20
302.953144
 11
102.424385
 21
309.603144
  0
ARC
  5
37E
100
AcDbEntity
  8
M0
100
AcDbCircle
 10
101.924385
 20
302.953144
 40
0.5
100
AcDbArc
 50
270.0
 51
360.0
  0
LINE
  5
37F
100
AcDbEntity
  8
M0
100
AcDbLine
 10
95.274385
 20
302.453144
 11
101.924385
 21
302.453144
  0
LINE
  5
380
100
AcDbEntity
  8
M0
100
AcDbLine
 10
94.774385
 20
309.603144
 11
94.774385
 21
302.953144
  0
ARC
  5
381
100
AcDbEntity
  8
M0
100
AcDbCircle
 10
95.274385
 20
309.603144
 40
0.5
100
AcDbArc
 50
90.0
 51
180.0
  0
ARC
  5
382
100
AcDbEntity
  8
M0
100
AcDbCircle
 10
95.274385
 20
302.953144
 40
0.5
100
AcDbArc
 50
180.0
 51
270.0
  0
CIRCLE
  5
383
100
AcDbEntity
  8
M0
100
AcDbCircle
 10
60.399385
 20
287.078144
 40
2.75
  0
LINE
  5
384
100
AcDbEntity
  8
M0
100
AcDbLine
 10
60.099385
 20
285.678144
 11
60.099385
 21
286.074504
  0
LINE
  5
385
100
AcDbEntity
  8
M0
100
AcDbLine
 10
60.699385
 20
285.678144
 11
60.699385
 21
286.074504
  0
LINE
  5
386
100
AcDbEntity
  8
M0
100
AcDbLine
 10
60.099385
 20
288.478144
 11
60.099385
 21
288.081783
  0
LINE
  5
387
100
AcDbEntity
  8
M0
100
AcDbLine
 10
60.699385
 20
288.478144
 11
60.699385
 21
288.081783
  0
ARC
  5
388
100
AcDbEntity
  8
M0
100
AcDbCircle
 10
59.374385
 20
286.053144
 40
0.725
100
AcDbArc
 50
0.0
 51
90.0
  0
ARC
  5
389
100
AcDbEntity
  8
M0
100
AcDbCircle
 10
59.374385
 20
288.103144
 40
0.725
100
AcDbArc
 50
-90.0
 51
0.0
  0
ARC
  5
38A
100
AcDbEntity
  8
M0
100
AcDbCircle
 10
61.424385
 20
288.103144
 40
0.725
100
AcDbArc
 50
180.0
 51
270.0
  0
ARC
  5
38B
100
AcDbEntity
  8
M0
100
AcDbCircle
 10
61.424385
 20
286.053144
 40
0.725
100
AcDbArc
 50
90.0
 51
180.0
  0
LINE
  5
38C
100
AcDbEntity
  8
M0
100
AcDbLine
 10
61.424385
 20
286.778144
 11
61.824385
 21
286.778144
  0
LINE
  5
38D
100
AcDbEntity
  8
M0
100
AcDbLine
 10
61.424385
 20
287.378144
 11
61.824385
 21
287.378144
  0
LINE
  5
38E
100
AcDbEntity
  8
M0
100
AcDbLine
 10
60.099385
 20
288.478144
 11
60.699385
 21
288.478144
  0
LINE
  5
38F
100
AcDbEntity
  8
M0
100
AcDbLine
 10
60.099385
 20
285.678144
 11
60.699385
 21
285.678144
  0
LINE
  5
390
100
AcDbEntity
  8
M0
100
AcDbLine
 10
58.999385
 20
287.378144
 11
59.374385
 21
287.378144
  0
LINE
  5
391
100
AcDbEntity
  8
M0
100
AcDbLine
 10
58.999385
 20
287.378144
 11
58.999385
 21
286.778144
  0
LINE
  5
392
100
AcDbEntity
  8
M0
100
AcDbLine
 10
58.999385
 20
286.778144
 11
59.374385
 21
286.778144
  0
LINE
  5
393
100
AcDbEntity
  8
M0
100
AcDbLine
 10
61.824385
 20
287.378144
 11
61.824385
 21
286.778144
  0
LINE
  5
394
100
AcDbEntity
  8
M0
  6
DASHED
100
AcDbLine
 10
260.210639
 20
338.278145
 11
260.210639
 21
348.278145
  0
LINE
  5
395
100
AcDbEntity
  8
M0
  6
DASHED
100
AcDbLine
 10
260.210639
 20
346.578145
 11
259.010639
 21
346.578145
  0
LINE
  5
396
100
AcDbEntity
  8
M0
  6
DASHED
100
AcDbLine
 10
268.750639
 20
345.278145
 11
262.610639
 21
345.278145
  0
LINE
  5
397
100
AcDbEntity
  8
M0
  6
DASHED
100
AcDbLine
 10
259.010639
 20
346.778145
 11
259.010639
 21
339.778145
  0
ARC
  5
398
100
AcDbEntity
  8
M0
  6
DASHED
100
AcDbCircle
 10
258.004526
 20
345.385155
 40
1.3
100
AcDbArc
 50
95.0
 51
164.11915
  0
ARC
  5
399
100
AcDbEntity
  8
M0
  6
DASHED
100
AcDbCircle
 10
258.004526
 20
341.171134
 40
1.3
100
AcDbArc
 50
195.88085
 51
265.0
  0
LINE
  5
39A
100
AcDbEntity
  8
M0
  6
DASHED
100
AcDbLine
 10
261.410639
 20
348.278145
 11
261.410639
 21
338.278145
  0
LINE
  5
39B
100
AcDbEntity
  8
M0
  6
DASHED
100
AcDbLine
 10
261.410639
 20
338.278145
 11
260.210639
 21
338.278145
  0
LINE
  5
39C
100
AcDbEntity
  8
M0
  6
DASHED
100
AcDbLine
 10
261.410639
 20
348.278145
 11
260.210639
 21
348.278145
  0
LINE
  5
39D
100
AcDbEntity
  8
M0
  6
DASHED
100
AcDbLine
 10
268.750639
 20
345.278145
 11
268.750639
 21
341.278145
  0
LINE
  5
39E
100
AcDbEntity
  8
M0
  6
DASHED
100
AcDbLine
 10
260.210639
 20
339.978145
 11
259.010639
 21
339.978145
  0
LINE
  5
39F
100
AcDbEntity
  8
M0
  6
DASHED
100
AcDbLine
 10
268.750639
 20
341.278145
 11
262.610639
 21
341.278145
  0
ARC
  5
3A0
100
AcDbEntity
  8
M0
  6
DASHED
100
AcDbCircle
 10
265.410639
 20
343.278145
 40
9.0
100
AcDbArc
 50
164.11915
 51
195.88085
  0
LINE
  5
3A1
100
AcDbEntity
  8
M0
  6
DASHED
100
AcDbLine
 10
257.891224
 20
346.680209
 11
259.010639
 21
346.778145
  0
LINE
  5
3A2
100
AcDbEntity
  8
M0
  6
DASHED
100
AcDbLine
 10
257.891224
 20
339.876081
 11
259.010639
 21
339.778145
  0
CIRCLE
  5
3A3
100
AcDbEntity
  8
M0
100
AcDbCircle
 10
98.599385
 20
332.878144
 40
3.0
  0
LINE
  5
3A4
100
AcDbEntity
  8
M0
100
AcDbLine
 10
100.189969
 20
331.287499
 11
97.008328
 21
334.469262
  0
LINE
  5
3A5
100
AcDbEntity
  8
M0
100
AcDbLine
 10
100.013211
 20
333.231835
 11
98.245633
 21
331.464257
  0
LINE
  5
3A6
100
AcDbEntity
  8
M0
100
AcDbLine
 10
98.952664
 20
334.292504
 11
97.185086
 21
332.524804
  0
LINE
  5
3A7
100
AcDbEntity
  8
M0
100
AcDbLine
 10
101.924385
 20
336.703144
 11
95.274385
 21
336.703144
  0
ARC
  5
3A8
100
AcDbEntity
  8
M0
100
AcDbCircle
 10
101.924385
 20
336.203144
 40
0.5
100
AcDbArc
 50
0.0
 51
90.0
  0
LINE
  5
3A9
100
AcDbEntity
  8
M0
100
AcDbLine
 10
102.424385
 20
329.553144
 11
102.424385
 21
336.203144
  0
ARC
  5
3AA
100
AcDbEntity
  8
M0
100
AcDbCircle
 10
101.924385
 20
329.553144
 40
0.5
100
AcDbArc
 50
270.0
 51
360.0
  0
LINE
  5
3AB
100
AcDbEntity
  8
M0
100
AcDbLine
 10
95.274385
 20
329.053144
 11
101.924385
 21
329.053144
  0
LINE
  5
3AC
100
AcDbEntity
  8
M0
100
AcDbLine
 10
94.774385
 20
336.203144
 11
94.774385
 21
329.553144
  0
ARC
  5
3AD
100
AcDbEntity
  8
M0
100
AcDbCircle
 10
95.274385
 20
336.203144
 40
0.5
100
AcDbArc
 50
90.0
 51
180.0
  0
ARC
  5
3AE
100
AcDbEntity
  8
M0
100
AcDbCircle
 10
95.274385
 20
329.553144
 40
0.5
100
AcDbArc
 50
180.0
 51
270.0
  0
CIRCLE
  5
3AF
100
AcDbEntity
  8
M0
100
AcDbCircle
 10
171.399382
 20
332.878144
 40
3.0
  0
LINE
  5
3B0
100
AcDbEntity
  8
M0
100
AcDbLine
 10
172.989965
 20
331.287499
 11
169.808325
 21
334.469262
  0
LINE
  5
3B1
100
AcDbEntity
  8
M0
100
AcDbLine
 10
172.813208
 20
333.231835
 11
171.04563
 21
331.464257
  0
LINE
  5
3B2
100
AcDbEntity
  8
M0
100
AcDbLine
 10
171.752661
 20
334.292504
 11
169.985083
 21
332.524804
  0
LINE
  5
3B3
100
AcDbEntity
  8
M0
100
AcDbLine
 10
174.724382
 20
336.703144
 11
168.074382
 21
336.703144
  0
ARC
  5
3B4
100
AcDbEntity
  8
M0
100
AcDbCircle
 10
174.724382
 20
336.203144
 40
0.5
100
AcDbArc
 50
0.0
 51
90.0
  0
LINE
  5
3B5
100
AcDbEntity
  8
M0
100
AcDbLine
 10
175.224382
 20
329.553144
 11
175.224382
 21
336.203144
  0
ARC
  5
3B6
100
AcDbEntity
  8
M0
100
AcDbCircle
 10
174.724382
 20
329.553144
 40
0.5
100
AcDbArc
 50
270.0
 51
360.0
  0
LINE
  5
3B7
100
AcDbEntity
  8
M0
100
AcDbLine
 10
168.074382
 20
329.053144
 11
174.724382
 21
329.053144
  0
LINE
  5
3B8
100
AcDbEntity
  8
M0
100
AcDbLine
 10
167.574382
 20
336.203144
 11
167.574382
 21
329.553144
  0
ARC
  5
3B9
100
AcDbEntity
  8
M0
100
AcDbCircle
 10
168.074382
 20
336.203144
 40
0.5
100
AcDbArc
 50
90.0
 51
180.0
  0
ARC
  5
3BA
100
AcDbEntity
  8
M0
100
AcDbCircle
 10
168.074382
 20
329.553144
 40
0.5
100
AcDbArc
 50
180.0
 51
270.0
  0
LINE
  5
3BB
100
AcDbEntity
  8
M0
  6
DIVIDE
100
AcDbLine
 10
325.410639
 20
333.078143
 11
318.910639
 21
333.078143
  0
LINE
  5
3BC
100
AcDbEntity
  8
M0
  6
DIVIDE
100
AcDbLine
 10
325.410639
 20
306.078143
 11
318.910639
 21
306.078143
  0
LINE
  5
3BD
100
AcDbEntity
  8
M0
  6
DIVIDE
100
AcDbLine
 10
324.410639
 20
332.078143
 11
317.910639
 21
332.078143
  0
LINE
  5
3BE
100
AcDbEntity
  8
M0
  6
DIVIDE
100
AcDbLine
 10
318.910639
 20
306.078143
 11
318.910639
 21
302.078143
  0
LINE
  5
3BF
100
AcDbEntity
  8
M0
  6
DIVIDE
100
AcDbLine
 10
324.410639
 20
307.078143
 11
317.910639
 21
307.078143
  0
LINE
  5
3C0
100
AcDbEntity
  8
M0
  6
DIVIDE
100
AcDbLine
 10
317.910639
 20
307.078143
 11
317.910639
 21
302.078143
  0
LINE
  5
3C1
100
AcDbEntity
  8
M0
  6
DIVIDE
100
AcDbLine
 10
318.910639
 20
337.078143
 11
317.910639
 21
337.078143
  0
LINE
  5
3C2
100
AcDbEntity
  8
M0
  6
DIVIDE
100
AcDbLine
 10
325.410639
 20
306.078143
 11
325.410639
 21
333.078143
  0
LINE
  5
3C3
100
AcDbEntity
  8
M0
  6
DIVIDE
100
AcDbLine
 10
317.910639
 20
337.078143
 11
317.910639
 21
332.078143
  0
LINE
  5
3C4
100
AcDbEntity
  8
M0
  6
DIVIDE
100
AcDbLine
 10
318.910639
 20
337.078143
 11
318.910639
 21
333.078143
  0
LINE
  5
3C5
100
AcDbEntity
  8
M0
  6
DIVIDE
100
AcDbLine
 10
317.910639
 20
302.078143
 11
318.910639
 21
302.078143
  0
LINE
  5
3C6
100
AcDbEntity
  8
M0
  6
DIVIDE
100
AcDbLine
 10
324.410639
 20
332.078143
 11
324.410639
 21
307.078143
  0
CIRCLE
  5
3C7
100
AcDbEntity
  8
M0
100
AcDbCircle
 10
171.399382
 20
306.278144
 40
3.0
  0
LINE
  5
3C8
100
AcDbEntity
  8
M0
100
AcDbLine
 10
172.989965
 20
304.687499
 11
169.808325
 21
307.869262
  0
LINE
  5
3C9
100
AcDbEntity
  8
M0
100
AcDbLine
 10
172.813208
 20
306.631835
 11
171.045629
 21
304.864257
  0
LINE
  5
3CA
100
AcDbEntity
  8
M0
100
AcDbLine
 10
171.752661
 20
307.692504
 11
169.985083
 21
305.924804
  0
LINE
  5
3CB
100
AcDbEntity
  8
M0
100
AcDbLine
 10
174.724382
 20
310.103144
 11
168.074382
 21
310.103144
  0
ARC
  5
3CC
100
AcDbEntity
  8
M0
100
AcDbCircle
 10
174.724382
 20
309.603144
 40
0.5
100
AcDbArc
 50
0.0
 51
90.0
  0
LINE
  5
3CD
100
AcDbEntity
  8
M0
100
AcDbLine
 10
175.224382
 20
302.953144
 11
175.224382
 21
309.603144
  0
ARC
  5
3CE
100
AcDbEntity
  8
M0
100
AcDbCircle
 10
174.724382
 20
302.953144
 40
0.5
100
AcDbArc
 50
270.0
 51
360.0
  0
LINE
  5
3CF
100
AcDbEntity
  8
M0
100
AcDbLine
 10
168.074382
 20
302.453144
 11
174.724382
 21
302.453144
  0
LINE
  5
3D0
100
AcDbEntity
  8
M0
100
AcDbLine
 10
167.574382
 20
309.603144
 11
167.574382
 21
302.953144
  0
ARC
  5
3D1
100
AcDbEntity
  8
M0
100
AcDbCircle
 10
168.074382
 20
309.603144
 40
0.5
100
AcDbArc
 50
90.0
 51
180.0
  0
ARC
  5
3D2
100
AcDbEntity
  8
M0
100
AcDbCircle
 10
168.074382
 20
302.953144
 40
0.5
100
AcDbArc
 50
180.0
 51
270.0
  0
CIRCLE
  5
3D3
100
AcDbEntity
  8
M0
100
AcDbCircle
 10
157.099382
 20
358.178144
 40
3.0
  0
LINE
  5
3D4
100
AcDbEntity
  8
M0
100
AcDbLine
 10
158.689966
 20
356.587499
 11
155.508325
 21
359.769262
  0
LINE
  5
3D5
100
AcDbEntity
  8
M0
100
AcDbLine
 10
158.513208
 20
358.531835
 11
156.74563
 21
356.764257
  0
LINE
  5
3D6
100
AcDbEntity
  8
M0
100
AcDbLine
 10
157.452661
 20
359.592504
 11
155.685083
 21
357.824804
  0
LINE
  5
3D7
100
AcDbEntity
  8
M0
100
AcDbLine
 10
160.424382
 20
362.003144
 11
153.774382
 21
362.003144
  0
ARC
  5
3D8
100
AcDbEntity
  8
M0
100
AcDbCircle
 10
160.424382
 20
361.503144
 40
0.5
100
AcDbArc
 50
0.0
 51
90.0
  0
LINE
  5
3D9
100
AcDbEntity
  8
M0
100
AcDbLine
 10
160.924382
 20
354.853144
 11
160.924382
 21
361.503144
  0
ARC
  5
3DA
100
AcDbEntity
  8
M0
100
AcDbCircle
 10
160.424382
 20
354.853144
 40
0.5
100
AcDbArc
 50
270.0
 51
360.0
  0
LINE
  5
3DB
100
AcDbEntity
  8
M0
100
AcDbLine
 10
153.774382
 20
354.353144
 11
160.424382
 21
354.353144
  0
LINE
  5
3DC
100
AcDbEntity
  8
M0
100
AcDbLine
 10
153.274382
 20
361.503144
 11
153.274382
 21
354.853144
  0
ARC
  5
3DD
100
AcDbEntity
  8
M0
100
AcDbCircle
 10
153.774382
 20
361.503144
 40
0.5
100
AcDbArc
 50
90.0
 51
180.0
  0
ARC
  5
3DE
100
AcDbEntity
  8
M0
100
AcDbCircle
 10
153.774382
 20
354.853144
 40
0.5
100
AcDbArc
 50
180.0
 51
270.0
  0
ARC
  5
3DF
100
AcDbEntity
  8
M0
100
AcDbCircle
 10
64.899385
 20
338.778144
 40
0.5
100
AcDbArc
 50
270.0
 51
360.0
  0
LINE
  5
3E0
100
AcDbEntity
  8
M0
100
AcDbLine
 10
65.399385
 20
347.778144
 11
65.399385
 21
338.778144
  0
ARC
  5
3E1
100
AcDbEntity
  8
M0
100
AcDbCircle
 10
64.899385
 20
347.778144
 40
0.5
100
AcDbArc
 50
0.0
 51
90.0
  0
LINE
  5
3E2
100
AcDbEntity
  8
M0
100
AcDbLine
 10
55.399385
 20
347.778144
 11
55.399385
 21
338.778144
  0
ARC
  5
3E3
100
AcDbEntity
  8
M0
100
AcDbCircle
 10
55.899385
 20
347.778144
 40
0.5
100
AcDbArc
 50
90.0
 51
180.0
  0
ARC
  5
3E4
100
AcDbEntity
  8
M0
100
AcDbCircle
 10
55.899385
 20
338.778144
 40
0.5
100
AcDbArc
 50
180.0
 51
270.0
  0
LINE
  5
3E5
100
AcDbEntity
  8
M0
100
AcDbLine
 10
55.899385
 20
338.278144
 11
64.899385
 21
338.278144
  0
LINE
  5
3E6
100
AcDbEntity
  8
M0
100
AcDbLine
 10
64.899385
 20
348.278144
 11
55.899385
 21
348.278144
  0
CIRCLE
  5
3E7
100
AcDbEntity
  8
M0
100
AcDbCircle
 10
60.399385
 20
343.278144
 40
3.5
  0
LINE
  5
3E8
100
AcDbEntity
  8
M0
100
AcDbLine
 10
61.410257
 20
344.996101
 11
58.835184
 21
342.421027
  0
LINE
  5
3E9
100
AcDbEntity
  8
M0
100
AcDbLine
 10
62.117365
 20
344.288993
 11
59.542291
 21
341.71392
  0
LINE
  5
3EA
100
AcDbEntity
  8
M0
100
AcDbLine
 10
59.438532
 20
344.23899
 11
61.28338
 21
342.394157
  0
ARC
  5
3EB
100
AcDbEntity
  8
M0
100
AcDbCircle
 10
77.899382
 20
338.778144
 40
0.5
100
AcDbArc
 50
270.0
 51
360.0
  0
LINE
  5
3EC
100
AcDbEntity
  8
M0
100
AcDbLine
 10
78.399382
 20
347.778144
 11
78.399382
 21
338.778144
  0
ARC
  5
3ED
100
AcDbEntity
  8
M0
100
AcDbCircle
 10
77.899382
 20
347.778144
 40
0.5
100
AcDbArc
 50
0.0
 51
90.0
  0
LINE
  5
3EE
100
AcDbEntity
  8
M0
100
AcDbLine
 10
68.399382
 20
347.778144
 11
68.399382
 21
338.778144
  0
ARC
  5
3EF
100
AcDbEntity
  8
M0
100
AcDbCircle
 10
68.899382
 20
347.778144
 40
0.5
100
AcDbArc
 50
90.0
 51
180.0
  0
ARC
  5
3F0
100
AcDbEntity
  8
M0
100
AcDbCircle
 10
68.899382
 20
338.778144
 40
0.5
100
AcDbArc
 50
180.0
 51
270.0
  0
LINE
  5
3F1
100
AcDbEntity
  8
M0
100
AcDbLine
 10
68.899382
 20
338.278144
 11
77.899382
 21
338.278144
  0
LINE
  5
3F2
100
AcDbEntity
  8
M0
100
AcDbLine
 10
77.899382
 20
348.278144
 11
68.899382
 21
348.278144
  0
CIRCLE
  5
3F3
100
AcDbEntity
  8
M0
100
AcDbCircle
 10
73.399382
 20
343.278144
 40
3.5
  0
LINE
  5
3F4
100
AcDbEntity
  8
M0
100
AcDbLine
 10
74.410254
 20
344.996101
 11
71.83518
 21
342.421027
  0
LINE
  5
3F5
100
AcDbEntity
  8
M0
100
AcDbLine
 10
75.117361
 20
344.288993
 11
72.542288
 21
341.71392
  0
LINE
  5
3F6
100
AcDbEntity
  8
M0
100
AcDbLine
 10
72.438528
 20
344.23899
 11
74.283377
 21
342.394157
  0
ARC
  5
3F7
100
AcDbEntity
  8
M0
100
AcDbCircle
 10
90.899382
 20
338.778144
 40
0.5
100
AcDbArc
 50
270.0
 51
360.0
  0
LINE
  5
3F8
100
AcDbEntity
  8
M0
100
AcDbLine
 10
91.399382
 20
347.778144
 11
91.399382
 21
338.778144
  0
ARC
  5
3F9
100
AcDbEntity
  8
M0
100
AcDbCircle
 10
90.899382
 20
347.778144
 40
0.5
100
AcDbArc
 50
0.0
 51
90.0
  0
LINE
  5
3FA
100
AcDbEntity
  8
M0
100
AcDbLine
 10
81.399382
 20
347.778144
 11
81.399382
 21
338.778144
  0
ARC
  5
3FB
100
AcDbEntity
  8
M0
100
AcDbCircle
 10
81.899382
 20
347.778144
 40
0.5
100
AcDbArc
 50
90.0
 51
180.0
  0
ARC
  5
3FC
100
AcDbEntity
  8
M0
100
AcDbCircle
 10
81.899382
 20
338.778144
 40
0.5
100
AcDbArc
 50
180.0
 51
270.0
  0
LINE
  5
3FD
100
AcDbEntity
  8
M0
100
AcDbLine
 10
81.899382
 20
338.278144
 11
90.899382
 21
338.278144
  0
LINE
  5
3FE
100
AcDbEntity
  8
M0
100
AcDbLine
 10
90.899382
 20
348.278144
 11
81.899382
 21
348.278144
  0
CIRCLE
  5
3FF
100
AcDbEntity
  8
M0
100
AcDbCircle
 10
86.399382
 20
343.278144
 40
3.5
  0
LINE
  5
400
100
AcDbEntity
  8
M0
100
AcDbLine
 10
87.410254
 20
344.996101
 11
84.835181
 21
342.421027
  0
LINE
  5
401
100
AcDbEntity
  8
M0
100
AcDbLine
 10
88.117361
 20
344.288993
 11
85.542288
 21
341.71392
  0
LINE
  5
402
100
AcDbEntity
  8
M0
100
AcDbLine
 10
85.438528
 20
344.23899
 11
87.283377
 21
342.394157
  0
ARC
  5
403
100
AcDbEntity
  8
M0
100
AcDbCircle
 10
90.899382
 20
291.378144
 40
0.5
100
AcDbArc
 50
270.0
 51
360.0
  0
LINE
  5
404
100
AcDbEntity
  8
M0
100
AcDbLine
 10
91.399382
 20
300.378144
 11
91.399382
 21
291.378144
  0
ARC
  5
405
100
AcDbEntity
  8
M0
100
AcDbCircle
 10
90.899382
 20
300.378144
 40
0.5
100
AcDbArc
 50
0.0
 51
90.0
  0
LINE
  5
406
100
AcDbEntity
  8
M0
100
AcDbLine
 10
81.399382
 20
300.378144
 11
81.399382
 21
291.378144
  0
ARC
  5
407
100
AcDbEntity
  8
M0
100
AcDbCircle
 10
81.899382
 20
300.378144
 40
0.5
100
AcDbArc
 50
90.0
 51
180.0
  0
ARC
  5
408
100
AcDbEntity
  8
M0
100
AcDbCircle
 10
81.899382
 20
291.378144
 40
0.5
100
AcDbArc
 50
180.0
 51
270.0
  0
LINE
  5
409
100
AcDbEntity
  8
M0
100
AcDbLine
 10
81.899382
 20
290.878144
 11
90.899382
 21
290.878144
  0
LINE
  5
40A
100
AcDbEntity
  8
M0
100
AcDbLine
 10
90.899382
 20
300.878144
 11
81.899382
 21
300.878144
  0
CIRCLE
  5
40B
100
AcDbEntity
  8
M0
100
AcDbCircle
 10
86.399382
 20
295.878144
 40
3.5
  0
LINE
  5
40C
100
AcDbEntity
  8
M0
100
AcDbLine
 10
87.410254
 20
297.5961
 11
84.835181
 21
295.021027
  0
LINE
  5
40D
100
AcDbEntity
  8
M0
100
AcDbLine
 10
88.117361
 20
296.888993
 11
85.542288
 21
294.313919
  0
LINE
  5
40E
100
AcDbEntity
  8
M0
100
AcDbLine
 10
85.438528
 20
296.83899
 11
87.283377
 21
294.994156
  0
ARC
  5
40F
100
AcDbEntity
  8
M0
100
AcDbCircle
 10
77.899382
 20
291.378144
 40
0.5
100
AcDbArc
 50
270.0
 51
360.0
  0
LINE
  5
410
100
AcDbEntity
  8
M0
100
AcDbLine
 10
78.399382
 20
300.378144
 11
78.399382
 21
291.378144
  0
ARC
  5
411
100
AcDbEntity
  8
M0
100
AcDbCircle
 10
77.899382
 20
300.378144
 40
0.5
100
AcDbArc
 50
0.0
 51
90.0
  0
LINE
  5
412
100
AcDbEntity
  8
M0
100
AcDbLine
 10
68.399382
 20
300.378144
 11
68.399382
 21
291.378144
  0
ARC
  5
413
100
AcDbEntity
  8
M0
100
AcDbCircle
 10
68.899382
 20
300.378144
 40
0.5
100
AcDbArc
 50
90.0
 51
180.0
  0
ARC
  5
414
100
AcDbEntity
  8
M0
100
AcDbCircle
 10
68.899382
 20
291.378144
 40
0.5
100
AcDbArc
 50
180.0
 51
270.0
  0
LINE
  5
415
100
AcDbEntity
  8
M0
100
AcDbLine
 10
68.899382
 20
290.878144
 11
77.899382
 21
290.878144
  0
LINE
  5
416
100
AcDbEntity
  8
M0
100
AcDbLine
 10
77.899382
 20
300.878144
 11
68.899382
 21
300.878144
  0
CIRCLE
  5
417
100
AcDbEntity
  8
M0
100
AcDbCircle
 10
73.399382
 20
295.878144
 40
3.5
  0
LINE
  5
418
100
AcDbEntity
  8
M0
100
AcDbLine
 10
74.410254
 20
297.5961
 11
71.83518
 21
295.021027
  0
LINE
  5
419
100
AcDbEntity
  8
M0
100
AcDbLine
 10
75.117361
 20
296.888993
 11
72.542288
 21
294.313919
  0
LINE
  5
41A
100
AcDbEntity
  8
M0
100
AcDbLine
 10
72.438528
 20
296.83899
 11
74.283377
 21
294.994156
  0
ARC
  5
41B
100
AcDbEntity
  8
M0
100
AcDbCircle
 10
64.899385
 20
291.378144
 40
0.5
100
AcDbArc
 50
270.0
 51
360.0
  0
LINE
  5
41C
100
AcDbEntity
  8
M0
100
AcDbLine
 10
65.399385
 20
300.378144
 11
65.399385
 21
291.378144
  0
ARC
  5
41D
100
AcDbEntity
  8
M0
100
AcDbCircle
 10
64.899385
 20
300.378144
 40
0.5
100
AcDbArc
 50
0.0
 51
90.0
  0
LINE
  5
41E
100
AcDbEntity
  8
M0
100
AcDbLine
 10
55.399385
 20
300.378144
 11
55.399385
 21
291.378144
  0
ARC
  5
41F
100
AcDbEntity
  8
M0
100
AcDbCircle
 10
55.899385
 20
300.378144
 40
0.5
100
AcDbArc
 50
90.0
 51
180.0
  0
ARC
  5
420
100
AcDbEntity
  8
M0
100
AcDbCircle
 10
55.899385
 20
291.378144
 40
0.5
100
AcDbArc
 50
180.0
 51
270.0
  0
LINE
  5
421
100
AcDbEntity
  8
M0
100
AcDbLine
 10
55.899385
 20
290.878144
 11
64.899385
 21
290.878144
  0
LINE
  5
422
100
AcDbEntity
  8
M0
100
AcDbLine
 10
64.899385
 20
300.878144
 11
55.899385
 21
300.878144
  0
CIRCLE
  5
423
100
AcDbEntity
  8
M0
100
AcDbCircle
 10
60.399385
 20
295.878144
 40
3.5
  0
LINE
  5
424
100
AcDbEntity
  8
M0
100
AcDbLine
 10
61.410257
 20
297.5961
 11
58.835184
 21
295.021027
  0
LINE
  5
425
100
AcDbEntity
  8
M0
100
AcDbLine
 10
62.117365
 20
296.888993
 11
59.542291
 21
294.313919
  0
LINE
  5
426
100
AcDbEntity
  8
M0
100
AcDbLine
 10
59.438532
 20
296.83899
 11
61.28338
 21
294.994156
  0
CIRCLE
  5
427
100
AcDbEntity
  8
M0
100
AcDbCircle
 10
98.599385
 20
298.678144
 40
3.0
  0
LINE
  5
428
100
AcDbEntity
  8
M0
100
AcDbLine
 10
100.189969
 20
297.087499
 11
97.008328
 21
300.269262
  0
LINE
  5
429
100
AcDbEntity
  8
M0
100
AcDbLine
 10
100.013211
 20
299.031835
 11
98.245633
 21
297.264257
  0
LINE
  5
42A
100
AcDbEntity
  8
M0
100
AcDbLine
 10
98.952664
 20
300.092504
 11
97.185086
 21
298.324804
  0
LINE
  5
42B
100
AcDbEntity
  8
M0
100
AcDbLine
 10
101.924385
 20
302.503144
 11
95.274385
 21
302.503144
  0
ARC
  5
42C
100
AcDbEntity
  8
M0
100
AcDbCircle
 10
101.924385
 20
302.003144
 40
0.5
100
AcDbArc
 50
0.0
 51
90.0
  0
LINE
  5
42D
100
AcDbEntity
  8
M0
100
AcDbLine
 10
102.424385
 20
295.353144
 11
102.424385
 21
302.003144
  0
ARC
  5
42E
100
AcDbEntity
  8
M0
100
AcDbCircle
 10
101.924385
 20
295.353144
 40
0.5
100
AcDbArc
 50
270.0
 51
360.0
  0
LINE
  5
42F
100
AcDbEntity
  8
M0
100
AcDbLine
 10
95.274385
 20
294.853144
 11
101.924385
 21
294.853144
  0
LINE
  5
430
100
AcDbEntity
  8
M0
100
AcDbLine
 10
94.774385
 20
302.003144
 11
94.774385
 21
295.353144
  0
ARC
  5
431
100
AcDbEntity
  8
M0
100
AcDbCircle
 10
95.274385
 20
302.003144
 40
0.5
100
AcDbArc
 50
90.0
 51
180.0
  0
ARC
  5
432
100
AcDbEntity
  8
M0
100
AcDbCircle
 10
95.274385
 20
295.353144
 40
0.5
100
AcDbArc
 50
180.0
 51
270.0
  0
CIRCLE
  5
433
100
AcDbEntity
  8
M0
100
AcDbCircle
 10
171.399382
 20
298.678144
 40
3.0
  0
LINE
  5
434
100
AcDbEntity
  8
M0
100
AcDbLine
 10
172.989965
 20
297.087499
 11
169.808325
 21
300.269262
  0
LINE
  5
435
100
AcDbEntity
  8
M0
100
AcDbLine
 10
172.813208
 20
299.031835
 11
171.045629
 21
297.264257
  0
LINE
  5
436
100
AcDbEntity
  8
M0
100
AcDbLine
 10
171.752661
 20
300.092504
 11
169.985083
 21
298.324804
  0
LINE
  5
437
100
AcDbEntity
  8
M0
100
AcDbLine
 10
174.724382
 20
302.503144
 11
168.074382
 21
302.503144
  0
ARC
  5
438
100
AcDbEntity
  8
M0
100
AcDbCircle
 10
174.724382
 20
302.003144
 40
0.5
100
AcDbArc
 50
0.0
 51
90.0
  0
LINE
  5
439
100
AcDbEntity
  8
M0
100
AcDbLine
 10
175.224382
 20
295.353144
 11
175.224382
 21
302.003144
  0
ARC
  5
43A
100
AcDbEntity
  8
M0
100
AcDbCircle
 10
174.724382
 20
295.353144
 40
0.5
100
AcDbArc
 50
270.0
 51
360.0
  0
LINE
  5
43B
100
AcDbEntity
  8
M0
100
AcDbLine
 10
168.074382
 20
294.853144
 11
174.724382
 21
294.853144
  0
LINE
  5
43C
100
AcDbEntity
  8
M0
100
AcDbLine
 10
167.574382
 20
302.003144
 11
167.574382
 21
295.353144
  0
ARC
  5
43D
100
AcDbEntity
  8
M0
100
AcDbCircle
 10
168.074382
 20
302.003144
 40
0.5
100
AcDbArc
 50
90.0
 51
180.0
  0
ARC
  5
43E
100
AcDbEntity
  8
M0
100
AcDbCircle
 10
168.074382
 20
295.353144
 40
0.5
100
AcDbArc
 50
180.0
 51
270.0
  0
CIRCLE
  5
43F
100
AcDbEntity
  8
M0
  6
DASHED
100
AcDbCircle
 10
120.999382
 20
340.478144
 40
3.0
  0
LINE
  5
440
100
AcDbEntity
  8
M0
  6
DASHED
100
AcDbLine
 10
122.589966
 20
338.887499
 11
119.408325
 21
342.069262
  0
LINE
  5
441
100
AcDbEntity
  8
M0
  6
DASHED
100
AcDbLine
 10
122.413208
 20
340.831835
 11
120.64563
 21
339.064257
  0
LINE
  5
442
100
AcDbEntity
  8
M0
  6
DASHED
100
AcDbLine
 10
121.352661
 20
341.892504
 11
119.585083
 21
340.124804
  0
LINE
  5
443
100
AcDbEntity
  8
M0
  6
DASHED
100
AcDbLine
 10
124.324382
 20
344.303144
 11
117.674382
 21
344.303144
  0
ARC
  5
444
100
AcDbEntity
  8
M0
  6
DASHED
100
AcDbCircle
 10
124.324382
 20
343.803144
 40
0.5
100
AcDbArc
 50
0.0
 51
90.0
  0
LINE
  5
445
100
AcDbEntity
  8
M0
  6
DASHED
100
AcDbLine
 10
124.824382
 20
337.153144
 11
124.824382
 21
343.803144
  0
ARC
  5
446
100
AcDbEntity
  8
M0
  6
DASHED
100
AcDbCircle
 10
124.324382
 20
337.153144
 40
0.5
100
AcDbArc
 50
270.0
 51
360.0
  0
LINE
  5
447
100
AcDbEntity
  8
M0
  6
DASHED
100
AcDbLine
 10
117.674382
 20
336.653144
 11
124.324382
 21
336.653144
  0
LINE
  5
448
100
AcDbEntity
  8
M0
  6
DASHED
100
AcDbLine
 10
117.174382
 20
343.803144
 11
117.174382
 21
337.153144
  0
ARC
  5
449
100
AcDbEntity
  8
M0
  6
DASHED
100
AcDbCircle
 10
117.674382
 20
343.803144
 40
0.5
100
AcDbArc
 50
90.0
 51
180.0
  0
ARC
  5
44A
100
AcDbEntity
  8
M0
  6
DASHED
100
AcDbCircle
 10
117.674382
 20
337.153144
 40
0.5
100
AcDbArc
 50
180.0
 51
270.0
  0
CIRCLE
  5
44B
100
AcDbEntity
  8
M0
100
AcDbCircle
 10
135.299382
 20
358.178144
 40
3.0
  0
LINE
  5
44C
100
AcDbEntity
  8
M0
100
AcDbLine
 10
136.889965
 20
356.587499
 11
133.708325
 21
359.769262
  0
LINE
  5
44D
100
AcDbEntity
  8
M0
100
AcDbLine
 10
136.713208
 20
358.531835
 11
134.945629
 21
356.764257
  0
LINE
  5
44E
100
AcDbEntity
  8
M0
100
AcDbLine
 10
135.652661
 20
359.592504
 11
133.885083
 21
357.824804
  0
LINE
  5
44F
100
AcDbEntity
  8
M0
100
AcDbLine
 10
138.624382
 20
362.003144
 11
131.974382
 21
362.003144
  0
ARC
  5
450
100
AcDbEntity
  8
M0
100
AcDbCircle
 10
138.624382
 20
361.503144
 40
0.5
100
AcDbArc
 50
0.0
 51
90.0
  0
LINE
  5
451
100
AcDbEntity
  8
M0
100
AcDbLine
 10
139.124382
 20
354.853144
 11
139.124382
 21
361.503144
  0
ARC
  5
452
100
AcDbEntity
  8
M0
100
AcDbCircle
 10
138.624382
 20
354.853144
 40
0.5
100
AcDbArc
 50
270.0
 51
360.0
  0
LINE
  5
453
100
AcDbEntity
  8
M0
100
AcDbLine
 10
131.974382
 20
354.353144
 11
138.624382
 21
354.353144
  0
LINE
  5
454
100
AcDbEntity
  8
M0
100
AcDbLine
 10
131.474382
 20
361.503144
 11
131.474382
 21
354.853144
  0
ARC
  5
455
100
AcDbEntity
  8
M0
100
AcDbCircle
 10
131.974382
 20
361.503144
 40
0.5
100
AcDbArc
 50
90.0
 51
180.0
  0
ARC
  5
456
100
AcDbEntity
  8
M0
100
AcDbCircle
 10
131.974382
 20
354.853144
 40
0.5
100
AcDbArc
 50
180.0
 51
270.0
  0
LINE
  5
457
100
AcDbEntity
  8
M0
  6
DASHED
100
AcDbLine
 10
262.610639
 20
326.078145
 11
262.610639
 21
348.578145
  0
LINE
  5
458
100
AcDbEntity
  8
M0
  6
DASHED
100
AcDbLine
 10
261.410639
 20
326.078145
 11
261.410639
 21
348.578145
  0
LINE
  5
459
100
AcDbEntity
  8
M0
100
AcDbLine
 10
246.610639
 20
317.078144
 11
246.610639
 21
316.078144
  0
LINE
  5
45A
100
AcDbEntity
  8
M0
100
AcDbLine
 10
246.610639
 20
322.078144
 11
246.610639
 21
323.078144
  0
LINE
  5
45B
100
AcDbEntity
  8
M0
100
AcDbLine
 10
318.61064
 20
302.578145
 11
320.110639
 21
302.578145
  0
LINE
  5
45C
100
AcDbEntity
  8
M0
100
AcDbLine
 10
320.110639
 20
302.578145
 11
320.110639
 21
301.778144
  0
LINE
  5
45D
100
AcDbEntity
  8
M0
100
AcDbLine
 10
321.81064
 20
284.078142
 11
312.410639
 21
284.078142
  0
LINE
  5
45E
100
AcDbEntity
  8
M0
100
AcDbLine
 10
321.81064
 20
284.119888
 11
321.81064
 21
284.078142
  0
LINE
  5
45F
100
AcDbEntity
  8
M0
100
AcDbLine
 10
246.610639
 20
316.078144
 11
245.610641
 21
316.078144
  0
LINE
  5
460
100
AcDbEntity
  8
M0
100
AcDbLine
 10
245.610641
 20
322.078144
 11
246.610639
 21
322.078144
  0
LINE
  5
461
100
AcDbEntity
  8
M0
100
AcDbLine
 10
246.610639
 20
316.078144
 11
247.11064
 21
316.078144
  0
LINE
  5
462
100
AcDbEntity
  8
M0
100
AcDbLine
 10
245.610641
 20
317.078144
 11
246.610639
 21
317.078144
  0
LINE
  5
463
100
AcDbEntity
  8
M0
100
AcDbLine
 10
246.610639
 20
323.078144
 11
245.610641
 21
323.078144
  0
LINE
  5
464
100
AcDbEntity
  8
M0
100
AcDbLine
 10
246.610639
 20
323.078144
 11
247.11064
 21
323.078144
  0
LINE
  5
465
100
AcDbEntity
  8
M0
100
AcDbLine
 10
247.11064
 20
317.078144
 11
246.610639
 21
317.078144
  0
ARC
  5
466
100
AcDbEntity
  8
M0
100
AcDbCircle
 10
314.610639
 20
301.861916
 40
0.3
100
AcDbArc
 50
0.0
 51
90.0
  0
ARC
  5
467
100
AcDbEntity
  8
M0
100
AcDbCircle
 10
314.610639
 20
337.294371
 40
0.3
100
AcDbArc
 50
270.0
 51
360.0
  0
ARC
  5
468
100
AcDbEntity
  8
M0
100
AcDbCircle
 10
318.610639
 20
302.078144
 40
0.5
100
AcDbArc
 50
90.0
 51
180.0
  0
ARC
  5
469
100
AcDbEntity
  8
M0
100
AcDbCircle
 10
314.610639
 20
333.817589
 40
0.3
100
AcDbArc
 50
0.0
 51
90.0
  0
ARC
  5
46A
100
AcDbEntity
  8
M0
100
AcDbCircle
 10
314.610639
 20
305.338699
 40
0.3
100
AcDbArc
 50
270.0
 51
360.0
  0
LINE
  5
46B
100
AcDbEntity
  8
M0
100
AcDbLine
 10
321.63517
 20
301.777542
 11
320.05064
 21
303.578143
  0
LINE
  5
46C
100
AcDbEntity
  8
M0
100
AcDbLine
 10
318.91064
 20
304.078144
 11
319.61064
 21
304.078144
  0
LINE
  5
46D
100
AcDbEntity
  8
M0
100
AcDbLine
 10
318.110639
 20
301.778144
 11
318.110639
 21
302.078144
  0
LINE
  5
46E
100
AcDbEntity
  8
M0
100
AcDbLine
 10
322.11064
 20
301.278144
 11
322.11064
 21
284.578143
  0
LINE
  5
46F
100
AcDbEntity
  8
M0
100
AcDbLine
 10
318.91064
 20
302.578145
 11
318.91064
 21
304.078144
  0
LINE
  5
470
100
AcDbEntity
  8
M0
100
AcDbLine
 10
245.610641
 20
331.578144
 11
242.310641
 21
331.578144
  0
LINE
  5
471
100
AcDbEntity
  8
M0
100
AcDbLine
 10
243.310639
 20
330.578144
 11
245.610641
 21
330.578144
  0
LINE
  5
472
100
AcDbEntity
  8
M0
100
AcDbLine
 10
245.610641
 20
307.578143
 11
243.310639
 21
307.578143
  0
ARC
  5
473
100
AcDbEntity
  8
M0
100
AcDbCircle
 10
241.810639
 20
331.078144
 40
0.5
100
AcDbArc
 50
90.0
 51
180.0
  0
ARC
  5
474
100
AcDbEntity
  8
M0
100
AcDbCircle
 10
241.810639
 20
312.578144
 40
0.5
100
AcDbArc
 50
90.0
 51
180.0
  0
LINE
  5
475
100
AcDbEntity
  8
M0
100
AcDbLine
 10
242.810638
 20
307.578143
 11
241.81064
 21
307.578143
  0
ARC
  5
476
100
AcDbEntity
  8
M0
100
AcDbCircle
 10
276.210639
 20
285.078144
 40
1.0
100
AcDbArc
 50
180.0
 51
270.0
  0
LINE
  5
477
100
AcDbEntity
  8
M0
100
AcDbLine
 10
270.31064
 20
287.078145
 11
275.210639
 21
287.078145
  0
LINE
  5
478
100
AcDbEntity
  8
M0
100
AcDbLine
 10
241.81064
 20
307.578143
 11
243.310639
 21
307.578143
  0
LINE
  5
479
100
AcDbEntity
  8
M0
100
AcDbLine
 10
243.310639
 20
307.578143
 11
243.310639
 21
308.578144
  0
LINE
  5
47A
100
AcDbEntity
  8
M0
100
AcDbLine
 10
241.310639
 20
331.078144
 11
241.310639
 21
308.078144
  0
LINE
  5
47B
100
AcDbEntity
  8
M0
100
AcDbLine
 10
243.310639
 20
312.078143
 11
243.310639
 21
313.078143
  0
LINE
  5
47C
100
AcDbEntity
  8
M0
100
AcDbLine
 10
322.410639
 20
353.328143
 11
322.11064
 21
353.328143
  0
LINE
  5
47D
100
AcDbEntity
  8
M0
100
AcDbLine
 10
322.11064
 20
343.828144
 11
322.410639
 21
343.828144
  0
LINE
  5
47E
100
AcDbEntity
  8
M0
100
AcDbLine
 10
322.410639
 20
295.328143
 11
322.11064
 21
295.328143
  0
LINE
  5
47F
100
AcDbEntity
  8
M0
100
AcDbLine
 10
322.11064
 20
285.828142
 11
322.410639
 21
285.828142
  0
LINE
  5
480
100
AcDbEntity
  8
M0
100
AcDbLine
 10
247.11064
 20
321.078144
 11
246.610639
 21
321.078144
  0
LINE
  5
481
100
AcDbEntity
  8
M0
100
AcDbLine
 10
247.11064
 20
322.078144
 11
246.610639
 21
322.078144
  0
LINE
  5
482
100
AcDbEntity
  8
M0
100
AcDbLine
 10
246.610639
 20
318.078144
 11
246.610639
 21
321.078144
  0
LINE
  5
483
100
AcDbEntity
  8
M0
100
AcDbLine
 10
246.610639
 20
318.078144
 11
247.11064
 21
318.078144
  0
ELLIPSE
  5
484
100
AcDbEntity
  8
M0
100
AcDbEllipse
 10
241.810639
 20
325.885251
 11
0.5
 21
0.0
210
0.0
220
0.0
230
1.0
 40
0.414214
 41
3.141592653589793
 42
4.71238898038469
  0
LINE
  5
485
100
AcDbEntity
  8
M0
100
AcDbLine
 10
299.110639
 20
336.994371
 11
314.610639
 21
336.994371
  0
ARC
  5
486
100
AcDbEntity
  8
M0
100
AcDbCircle
 10
270.310639
 20
288.078144
 40
1.0
100
AcDbArc
 50
237.247324
 51
270.0
  0
ELLIPSE
  5
487
100
AcDbEntity
  8
M0
100
AcDbEllipse
 10
241.810639
 20
324.385251
 11
0.5
 21
0.0
210
0.0
220
0.0
230
1.0
 40
0.414214
 41
3.141592653589793
 42
4.71238898038469
  0
LINE
  5
488
100
AcDbEntity
  8
M0
100
AcDbLine
 10
314.610639
 20
334.117588
 11
299.110639
 21
334.117588
  0
LINE
  5
489
100
AcDbEntity
  8
M0
100
AcDbLine
 10
299.110639
 20
305.038699
 11
314.610639
 21
305.038699
  0
LINE
  5
48A
100
AcDbEntity
  8
M0
100
AcDbLine
 10
314.610639
 20
302.161916
 11
299.110639
 21
302.161916
  0
LINE
  5
48B
100
AcDbEntity
  8
M0
100
AcDbLine
 10
271.41064
 20
352.578143
 11
271.41064
 21
350.578143
  0
LINE
  5
48C
100
AcDbEntity
  8
M0
100
AcDbLine
 10
275.01064
 20
354.078145
 11
271.41064
 21
352.578143
  0
LINE
  5
48D
100
AcDbEntity
  8
M0
100
AcDbLine
 10
275.210639
 20
353.078144
 11
272.410638
 21
351.911477
  0
LINE
  5
48E
100
AcDbEntity
  8
M0
100
AcDbLine
 10
280.710639
 20
350.578143
 11
280.710639
 21
354.078145
  0
LINE
  5
48F
100
AcDbEntity
  8
M0
100
AcDbLine
 10
275.01064
 20
354.078145
 11
275.01064
 21
363.078142
  0
LINE
  5
490
100
AcDbEntity
  8
M0
100
AcDbLine
 10
285.710639
 20
323.678144
 11
285.810639
 21
323.678144
  0
LINE
  5
491
100
AcDbEntity
  8
M0
100
AcDbLine
 10
280.710639
 20
354.078145
 11
275.01064
 21
354.078145
  0
LINE
  5
492
100
AcDbEntity
  8
M0
100
AcDbLine
 10
292.496426
 20
364.078144
 11
276.01064
 21
364.078144
  0
LINE
  5
493
100
AcDbEntity
  8
M0
100
AcDbLine
 10
279.710639
 20
353.078144
 11
275.210639
 21
353.078144
  0
LINE
  5
494
100
AcDbEntity
  8
M0
100
AcDbLine
 10
322.410639
 20
353.328143
 11
322.410639
 21
343.828144
  0
LINE
  5
495
100
AcDbEntity
  8
M0
100
AcDbLine
 10
272.410638
 20
351.578143
 11
279.710639
 21
351.578143
  0
LINE
  5
496
100
AcDbEntity
  8
M0
100
AcDbLine
 10
279.710639
 20
351.578143
 11
279.710639
 21
353.078144
  0
LINE
  5
497
100
AcDbEntity
  8
M0
100
AcDbLine
 10
272.410638
 20
351.911477
 11
272.410638
 21
351.578143
  0
LINE
  5
498
100
AcDbEntity
  8
M0
100
AcDbLine
 10
322.11064
 20
354.578144
 11
322.11064
 21
335.178144
  0
ARC
  5
499
100
AcDbEntity
  8
M0
100
AcDbCircle
 10
292.496426
 20
363.078144
 40
1.0
100
AcDbArc
 50
45.0
 51
90.0
  0
ARC
  5
49A
100
AcDbEntity
  8
M0
100
AcDbCircle
 10
276.010639
 20
363.078144
 40
1.0
100
AcDbArc
 50
90.0
 51
180.0
  0
ARC
  5
49B
100
AcDbEntity
  8
M0
100
AcDbCircle
 10
296.910639
 20
358.66393
 40
1.0
100
AcDbArc
 50
0.0
 51
45.0
  0
ARC
  5
49C
100
AcDbEntity
  8
M0
100
AcDbCircle
 10
278.510639
 20
361.078144
 40
3.0
100
AcDbArc
 50
90.0
 51
180.0
  0
ELLIPSE
  5
49D
100
AcDbEntity
  8
M0
100
AcDbEllipse
 10
297.310639
 20
334.069146
 11
0.0
 21
20.008998
210
0.0
220
0.0
230
1.0
 40
0.029987
 41
5.682730448278159
 42
6.283185307179586
  0
ARC
  5
49E
100
AcDbEntity
  8
M0
100
AcDbCircle
 10
247.910639
 20
322.878144
 40
1.0
100
AcDbArc
 50
168.463041
 51
180.0
  0
ARC
  5
49F
100
AcDbEntity
  8
M0
100
AcDbCircle
 10
304.210639
 20
285.078144
 40
1.0
100
AcDbArc
 50
270.0
 51
360.0
  0
LINE
  5
4A0
100
AcDbEntity
  8
M0
100
AcDbLine
 10
246.910641
 20
322.878144
 11
246.910641
 21
322.078144
  0
LINE
  5
4A1
100
AcDbEntity
  8
M0
100
AcDbLine
 10
246.910641
 20
317.078144
 11
246.910641
 21
316.078144
  0
LINE
  5
4A2
100
AcDbEntity
  8
M0
100
AcDbLine
 10
277.310639
 20
316.878144
 11
277.310639
 21
322.278144
  0
LINE
  5
4A3
100
AcDbEntity
  8
M0
100
AcDbLine
 10
273.81064
 20
322.278144
 11
273.81064
 21
316.878144
  0
ARC
  5
4A4
100
AcDbEntity
  8
M0
100
AcDbCircle
 10
321.810639
 20
335.178144
 40
0.3
100
AcDbArc
 50
270.0
 51
360.0
  0
LINE
  5
4A5
100
AcDbEntity
  8
M0
100
AcDbLine
 10
305.21064
 20
285.078144
 11
305.21064
 21
288.578144
  0
LINE
  5
4A6
100
AcDbEntity
  8
M0
100
AcDbLine
 10
287.210639
 20
285.078144
 11
287.210639
 21
284.078142
  0
LINE
  5
4A7
100
AcDbEntity
  8
M0
100
AcDbLine
 10
297.910639
 20
358.66393
 11
297.910639
 21
350.578143
  0
LINE
  5
4A8
100
AcDbEntity
  8
M0
100
AcDbLine
 10
280.810639
 20
354.078145
 11
276.11064
 21
354.078145
  0
LINE
  5
4A9
100
AcDbEntity
  8
M0
100
AcDbLine
 10
280.810639
 20
354.078145
 11
280.810639
 21
350.578143
  0
LINE
  5
4AA
100
AcDbEntity
  8
M0
100
AcDbLine
 10
297.310639
 20
354.078145
 11
280.810639
 21
354.078145
  0
LINE
  5
4AB
100
AcDbEntity
  8
M0
100
AcDbLine
 10
319.91064
 20
334.878144
 11
321.81064
 21
334.878144
  0
ARC
  5
4AC
100
AcDbEntity
  8
M0
100
AcDbCircle
 10
321.610639
 20
301.278144
 40
0.5
100
AcDbArc
 50
0.0
 51
90.0
  0
LINE
  5
4AD
100
AcDbEntity
  8
M0
100
AcDbLine
 10
287.210639
 20
329.678144
 11
287.210639
 21
350.578143
  0
ARC
  5
4AE
100
AcDbEntity
  8
M0
100
AcDbCircle
 10
321.610639
 20
284.578144
 40
0.5
100
AcDbArc
 50
270.0
 51
360.0
  0
ARC
  5
4AF
100
AcDbEntity
  8
M0
100
AcDbCircle
 10
321.610639
 20
337.878144
 40
0.5
100
AcDbArc
 50
270.0
 51
360.0
  0
LINE
  5
4B0
100
AcDbEntity
  8
M0
100
AcDbLine
 10
319.91064
 20
334.878144
 11
318.91064
 21
335.878144
  0
LINE
  5
4B1
100
AcDbEntity
  8
M0
100
AcDbLine
 10
318.91064
 20
335.878144
 11
318.91064
 21
337.378144
  0
ARC
  5
4B2
100
AcDbEntity
  8
M0
100
AcDbCircle
 10
241.810639
 20
308.078144
 40
0.5
100
AcDbArc
 50
180.0
 51
270.0
  0
LINE
  5
4B3
100
AcDbEntity
  8
M0
100
AcDbLine
 10
306.510639
 20
354.078145
 11
311.410639
 21
354.078145
  0
LINE
  5
4B4
100
AcDbEntity
  8
M0
100
AcDbLine
 10
297.910639
 20
358.66393
 11
297.910639
 21
356.528143
  0
LINE
  5
4B5
100
AcDbEntity
  8
M0
100
AcDbLine
 10
305.61064
 20
353.778143
 11
305.61064
 21
350.578143
  0
LINE
  5
4B6
100
AcDbEntity
  8
M0
100
AcDbLine
 10
317.910639
 20
334.878144
 11
317.910639
 21
337.378144
  0
LINE
  5
4B7
100
AcDbEntity
  8
M0
100
AcDbLine
 10
293.203532
 20
363.785251
 11
297.617746
 21
359.371035
  0
LINE
  5
4B8
100
AcDbEntity
  8
M0
100
AcDbLine
 10
305.61064
 20
353.778143
 11
305.61064
 21
354.078145
  0
LINE
  5
4B9
100
AcDbEntity
  8
M0
100
AcDbLine
 10
305.61064
 20
354.078145
 11
311.410639
 21
354.078145
  0
LINE
  5
4BA
100
AcDbEntity
  8
M0
100
AcDbLine
 10
322.11064
 20
353.578144
 11
322.11064
 21
353.028144
  0
LINE
  5
4BB
100
AcDbEntity
  8
M0
100
AcDbLine
 10
297.910639
 20
354.078145
 11
297.910639
 21
350.578143
  0
ARC
  5
4BC
100
AcDbEntity
  8
M0
100
AcDbCircle
 10
267.510639
 20
344.278144
 40
3.0
100
AcDbArc
 50
90.0
 51
180.0
  0
ARC
  5
4BD
100
AcDbEntity
  8
M0
100
AcDbCircle
 10
267.510639
 20
294.878144
 40
3.0
100
AcDbArc
 50
180.0
 51
270.0
  0
ARC
  5
4BE
100
AcDbEntity
  8
M0
100
AcDbCircle
 10
278.467999
 20
344.278144
 40
3.0
100
AcDbArc
 50
45.0
 51
90.0
  0
ARC
  5
4BF
100
AcDbEntity
  8
M0
100
AcDbCircle
 10
278.467999
 20
294.878144
 40
3.0
100
AcDbArc
 50
270.0
 51
315.0
  0
ARC
  5
4C0
100
AcDbEntity
  8
M0
100
AcDbCircle
 10
248.610639
 20
336.678144
 40
3.0
100
AcDbArc
 50
90.0
 51
180.0
  0
ARC
  5
4C1
100
AcDbEntity
  8
M0
100
AcDbCircle
 10
247.110639
 20
314.878144
 40
1.0
100
AcDbArc
 50
0.0
 51
90.0
  0
ARC
  5
4C2
100
AcDbEntity
  8
M0
100
AcDbCircle
 10
261.510639
 20
342.678144
 40
3.0
100
AcDbArc
 50
270.0
 51
360.0
  0
ARC
  5
4C3
100
AcDbEntity
  8
M0
100
AcDbCircle
 10
261.510639
 20
296.478144
 40
3.0
100
AcDbArc
 50
0.0
 51
90.0
  0
ARC
  5
4C4
100
AcDbEntity
  8
M0
100
AcDbCircle
 10
273.610639
 20
321.778144
 40
0.5
100
AcDbArc
 50
90.0
 51
180.0
  0
LINE
  5
4C5
100
AcDbEntity
  8
M0
100
AcDbLine
 10
247.610638
 20
299.649716
 11
247.610638
 21
287.078145
  0
ARC
  5
4C6
100
AcDbEntity
  8
M0
100
AcDbCircle
 10
273.610639
 20
317.378144
 40
0.5
100
AcDbArc
 50
180.0
 51
270.0
  0
LINE
  5
4C7
100
AcDbEntity
  8
M0
100
AcDbLine
 10
247.610638
 20
352.078144
 11
247.610638
 21
339.506571
  0
LINE
  5
4C8
100
AcDbEntity
  8
M0
100
AcDbLine
 10
287.210639
 20
334.678144
 11
294.610639
 21
334.678144
  0
LINE
  5
4C9
100
AcDbEntity
  8
M0
100
AcDbLine
 10
294.610639
 20
339.678143
 11
287.210639
 21
339.678143
  0
LINE
  5
4CA
100
AcDbEntity
  8
M0
100
AcDbLine
 10
287.210639
 20
329.678144
 11
286.310639
 21
329.678144
  0
LINE
  5
4CB
100
AcDbEntity
  8
M0
100
AcDbLine
 10
299.110639
 20
305.038699
 11
299.110639
 21
302.161916
  0
LINE
  5
4CC
100
AcDbEntity
  8
M0
100
AcDbLine
 10
299.110639
 20
336.994371
 11
299.110639
 21
334.117588
  0
LINE
  5
4CD
100
AcDbEntity
  8
M0
100
AcDbLine
 10
312.410639
 20
355.078145
 11
321.610639
 21
355.078145
  0
ARC
  5
4CE
100
AcDbEntity
  8
M0
100
AcDbCircle
 10
246.610639
 20
324.278144
 40
1.0
100
AcDbArc
 50
180.0
 51
270.0
  0
ARC
  5
4CF
100
AcDbEntity
  8
M0
100
AcDbCircle
 10
265.367999
 20
287.078144
 40
3.0
100
AcDbArc
 50
270.0
 51
315.0
  0
ARC
  5
4D0
100
AcDbEntity
  8
M0
100
AcDbCircle
 10
248.610639
 20
302.478144
 40
3.0
100
AcDbArc
 50
180.0
 51
270.0
  0
ARC
  5
4D1
100
AcDbEntity
  8
M0
100
AcDbCircle
 10
246.610639
 20
314.878144
 40
1.0
100
AcDbArc
 50
90.0
 51
180.0
  0
ARC
  5
4D2
100
AcDbEntity
  8
M0
100
AcDbCircle
 10
250.610639
 20
287.078144
 40
3.0
100
AcDbArc
 50
180.0
 51
270.0
  0
LINE
  5
4D3
100
AcDbEntity
  8
M0
100
AcDbLine
 10
314.910639
 20
301.778144
 11
321.610639
 21
301.778144
  0
ARC
  5
4D4
100
AcDbEntity
  8
M0
100
AcDbCircle
 10
265.367999
 20
352.078144
 40
3.0
100
AcDbArc
 50
45.0
 51
90.0
  0
ARC
  5
4D5
100
AcDbEntity
  8
M0
100
AcDbCircle
 10
250.610639
 20
352.078144
 40
3.0
100
AcDbArc
 50
90.0
 51
180.0
  0
ARC
  5
4D6
100
AcDbEntity
  8
M0
100
AcDbCircle
 10
247.110639
 20
324.278144
 40
1.0
100
AcDbArc
 50
270.0
 51
360.0
  0
LINE
  5
4D7
100
AcDbEntity
  8
M0
100
AcDbLine
 10
282.71064
 20
294.878145
 11
280.589319
 21
292.756823
  0
LINE
  5
4D8
100
AcDbEntity
  8
M0
100
AcDbLine
 10
248.110639
 20
314.878144
 11
248.110639
 21
324.278144
  0
LINE
  5
4D9
100
AcDbEntity
  8
M0
100
AcDbLine
 10
278.467999
 20
291.878144
 11
267.510639
 21
291.878144
  0
LINE
  5
4DA
100
AcDbEntity
  8
M0
100
AcDbLine
 10
264.510639
 20
342.678143
 11
264.510639
 21
344.278144
  0
LINE
  5
4DB
100
AcDbEntity
  8
M0
100
AcDbLine
 10
280.589319
 20
346.399464
 11
282.71064
 21
344.278144
  0
LINE
  5
4DC
100
AcDbEntity
  8
M0
100
AcDbLine
 10
267.510639
 20
347.278143
 11
278.467999
 21
347.278143
  0
LINE
  5
4DD
100
AcDbEntity
  8
M0
100
AcDbLine
 10
282.71064
 20
344.278144
 11
311.410639
 21
344.278144
  0
LINE
  5
4DE
100
AcDbEntity
  8
M0
100
AcDbLine
 10
273.110639
 20
321.778144
 11
273.110639
 21
317.378144
  0
LINE
  5
4DF
100
AcDbEntity
  8
M0
100
AcDbLine
 10
273.61064
 20
316.878144
 11
285.810639
 21
316.878144
  0
LINE
  5
4E0
100
AcDbEntity
  8
M0
100
AcDbLine
 10
285.810639
 20
322.278144
 11
273.61064
 21
322.278144
  0
LINE
  5
4E1
100
AcDbEntity
  8
M0
100
AcDbLine
 10
287.210639
 20
295.078144
 11
282.71064
 21
294.878145
  0
LINE
  5
4E2
100
AcDbEntity
  8
M0
100
AcDbLine
 10
311.410639
 20
350.578143
 11
271.110639
 21
350.578143
  0
LINE
  5
4E3
100
AcDbEntity
  8
M0
100
AcDbLine
 10
250.61064
 20
284.078142
 11
265.367999
 21
284.078142
  0
LINE
  5
4E4
100
AcDbEntity
  8
M0
100
AcDbLine
 10
265.367999
 20
355.078145
 11
250.61064
 21
355.078145
  0
LINE
  5
4E5
100
AcDbEntity
  8
M0
100
AcDbLine
 10
271.110639
 20
350.578143
 11
267.489319
 21
354.199464
  0
LINE
  5
4E6
100
AcDbEntity
  8
M0
100
AcDbLine
 10
267.489319
 20
284.956823
 11
271.110639
 21
288.578144
  0
LINE
  5
4E7
100
AcDbEntity
  8
M0
100
AcDbLine
 10
247.11064
 20
323.278144
 11
247.11064
 21
315.878144
  0
LINE
  5
4E8
100
AcDbEntity
  8
M0
100
AcDbLine
 10
246.610639
 20
323.278144
 11
247.11064
 21
323.278144
  0
LINE
  5
4E9
100
AcDbEntity
  8
M0
100
AcDbLine
 10
261.51064
 20
299.478144
 11
248.61064
 21
299.478144
  0
LINE
  5
4EA
100
AcDbEntity
  8
M0
100
AcDbLine
 10
248.61064
 20
339.678143
 11
261.51064
 21
339.678143
  0
LINE
  5
4EB
100
AcDbEntity
  8
M0
100
AcDbLine
 10
247.11064
 20
315.878144
 11
246.610639
 21
315.878144
  0
LINE
  5
4EC
100
AcDbEntity
  8
M0
100
AcDbLine
 10
245.610641
 20
302.478143
 11
245.610641
 21
336.678144
  0
ARC
  5
4ED
100
AcDbEntity
  8
M0
100
AcDbCircle
 10
286.310639
 20
329.178144
 40
0.5
100
AcDbArc
 50
90.0
 51
180.0
  0
ARC
  5
4EE
100
AcDbEntity
  8
M0
100
AcDbCircle
 10
317.410639
 20
306.278144
 40
0.5
100
AcDbArc
 50
270.0
 51
360.0
  0
ARC
  5
4EF
100
AcDbEntity
  8
M0
100
AcDbCircle
 10
317.410639
 20
332.878144
 40
0.5
100
AcDbArc
 50
0.0
 51
90.0
  0
ARC
  5
4F0
100
AcDbEntity
  8
M0
100
AcDbCircle
 10
286.310639
 20
309.978144
 40
0.5
100
AcDbArc
 50
180.0
 51
270.0
  0
LINE
  5
4F1
100
AcDbEntity
  8
M0
100
AcDbLine
 10
310.410639
 20
288.578144
 11
271.110639
 21
288.578144
  0
LINE
  5
4F2
100
AcDbEntity
  8
M0
100
AcDbLine
 10
310.410639
 20
288.578144
 11
310.410639
 21
289.078145
  0
LINE
  5
4F3
100
AcDbEntity
  8
M0
100
AcDbLine
 10
311.410639
 20
287.078145
 11
310.410639
 21
287.078145
  0
LINE
  5
4F4
100
AcDbEntity
  8
M0
100
AcDbLine
 10
310.410639
 20
287.578142
 11
310.410639
 21
288.578144
  0
LINE
  5
4F5
100
AcDbEntity
  8
M0
100
AcDbLine
 10
310.410639
 20
289.078145
 11
311.410639
 21
289.078145
  0
LINE
  5
4F6
100
AcDbEntity
  8
M0
100
AcDbLine
 10
322.11064
 20
346.128144
 11
322.11064
 21
343.978143
  0
LINE
  5
4F7
100
AcDbEntity
  8
M0
100
AcDbLine
 10
310.410639
 20
287.078145
 11
310.410639
 21
287.578142
  0
LINE
  5
4F8
100
AcDbEntity
  8
M0
100
AcDbLine
 10
318.210639
 20
331.878144
 11
318.210639
 21
333.878143
  0
LINE
  5
4F9
100
AcDbEntity
  8
M0
100
AcDbLine
 10
242.310641
 20
331.578144
 11
241.81064
 21
331.578144
  0
LINE
  5
4FA
100
AcDbEntity
  8
M0
100
AcDbLine
 10
241.81064
 20
324.178144
 11
243.310639
 21
324.178144
  0
LINE
  5
4FB
100
AcDbEntity
  8
M0
100
AcDbLine
 10
243.310639
 20
330.578144
 11
243.310639
 21
325.678144
  0
LINE
  5
4FC
100
AcDbEntity
  8
M0
100
AcDbLine
 10
243.310639
 20
325.678144
 11
241.81064
 21
325.678144
  0
LINE
  5
4FD
100
AcDbEntity
  8
M0
100
AcDbLine
 10
243.310639
 20
313.078143
 11
241.81064
 21
313.078143
  0
LINE
  5
4FE
100
AcDbEntity
  8
M0
100
AcDbLine
 10
275.510639
 20
354.078145
 11
275.510639
 21
361.078142
  0
LINE
  5
4FF
100
AcDbEntity
  8
M0
100
AcDbLine
 10
243.310639
 20
324.178144
 11
243.310639
 21
325.678144
  0
LINE
  5
500
100
AcDbEntity
  8
M0
100
AcDbLine
 10
243.310639
 20
312.078143
 11
243.310639
 21
308.578144
  0
LINE
  5
501
100
AcDbEntity
  8
M0
100
AcDbLine
 10
276.210639
 20
284.078142
 11
279.210639
 21
284.078142
  0
ARC
  5
502
100
AcDbEntity
  8
M0
100
AcDbCircle
 10
312.410639
 20
285.078144
 40
1.0
100
AcDbArc
 50
180.0
 51
270.0
  0
ARC
  5
503
100
AcDbEntity
  8
M0
100
AcDbCircle
 10
321.610639
 20
354.578144
 40
0.5
100
AcDbArc
 50
0.0
 51
90.0
  0
ARC
  5
504
100
AcDbEntity
  8
M0
100
AcDbCircle
 10
312.410639
 20
354.078144
 40
1.0
100
AcDbArc
 50
90.0
 51
180.0
  0
LINE
  5
505
100
AcDbEntity
  8
M0
100
AcDbLine
 10
287.210639
 20
284.078142
 11
287.210639
 21
309.478144
  0
LINE
  5
506
100
AcDbEntity
  8
M0
100
AcDbLine
 10
275.210639
 20
288.578144
 11
275.210639
 21
285.078144
  0
LINE
  5
507
100
AcDbEntity
  8
M0
100
AcDbLine
 10
276.210639
 20
284.078142
 11
304.210639
 21
284.078142
  0
LINE
  5
508
100
AcDbEntity
  8
M0
100
AcDbLine
 10
317.41064
 20
305.778143
 11
314.910639
 21
305.778143
  0
LINE
  5
509
100
AcDbEntity
  8
M0
100
AcDbLine
 10
314.910639
 20
333.378143
 11
317.41064
 21
333.378143
  0
LINE
  5
50A
100
AcDbEntity
  8
M0
100
AcDbLine
 10
314.910639
 20
333.817589
 11
314.910639
 21
333.378143
  0
LINE
  5
50B
100
AcDbEntity
  8
M0
100
AcDbLine
 10
314.910639
 20
305.778143
 11
314.910639
 21
305.338698
  0
LINE
  5
50C
100
AcDbEntity
  8
M0
100
AcDbLine
 10
287.210639
 20
309.478144
 11
286.310639
 21
309.478144
  0
LINE
  5
50D
100
AcDbEntity
  8
M0
100
AcDbLine
 10
287.210639
 20
299.478144
 11
294.610639
 21
299.478144
  0
LINE
  5
50E
100
AcDbEntity
  8
M0
100
AcDbLine
 10
294.610639
 20
304.478143
 11
287.210639
 21
304.478143
  0
LINE
  5
50F
100
AcDbEntity
  8
M0
100
AcDbLine
 10
285.810639
 20
329.178144
 11
285.810639
 21
309.978144
  0
LINE
  5
510
100
AcDbEntity
  8
M0
100
AcDbLine
 10
321.610639
 20
337.378144
 11
314.910639
 21
337.378144
  0
LINE
  5
511
100
AcDbEntity
  8
M0
100
AcDbLine
 10
264.510639
 20
294.878145
 11
264.510639
 21
296.478144
  0
LINE
  5
512
100
AcDbEntity
  8
M0
100
AcDbLine
 10
322.410639
 20
295.328143
 11
322.410639
 21
285.828142
  0
LINE
  5
513
100
AcDbEntity
  8
M0
100
AcDbLine
 10
317.910639
 20
331.378144
 11
318.210639
 21
331.878144
  0
LINE
  5
514
100
AcDbEntity
  8
M0
100
AcDbLine
 10
318.210639
 20
333.878143
 11
317.910639
 21
334.878144
  0
LINE
  5
515
100
AcDbEntity
  8
M0
100
AcDbLine
 10
317.910639
 20
337.378144
 11
317.910639
 21
301.778144
  0
LINE
  5
516
100
AcDbEntity
  8
M0
100
AcDbLine
 10
311.410639
 20
344.278144
 11
311.410639
 21
354.078144
  0
LINE
  5
517
100
AcDbEntity
  8
M0
100
AcDbLine
 10
294.610639
 20
334.678144
 11
294.610639
 21
339.678143
  0
LINE
  5
518
100
AcDbEntity
  8
M0
100
AcDbLine
 10
294.610639
 20
299.478144
 11
294.610639
 21
304.478143
  0
LINE
  5
519
100
AcDbEntity
  8
M0
100
AcDbLine
 10
311.410639
 20
295.078144
 11
287.210639
 21
295.078144
  0
LINE
  5
51A
100
AcDbEntity
  8
M0
100
AcDbLine
 10
311.410639
 20
285.078144
 11
311.410639
 21
295.078144
  0
LINE
  5
51B
100
AcDbEntity
  8
M0
100
AcDbLine
 10
319.61064
 20
304.078144
 11
319.617323
 21
304.070548
  0
LINE
  5
51C
100
AcDbEntity
  8
M0
100
AcDbLine
 10
319.617323
 20
304.070548
 11
319.637175
 21
304.047989
  0
LINE
  5
51D
100
AcDbEntity
  8
M0
100
AcDbLine
 10
319.637175
 20
304.047989
 11
319.669587
 21
304.011156
  0
LINE
  5
51E
100
AcDbEntity
  8
M0
100
AcDbLine
 10
319.669587
 20
304.011156
 11
319.713579
 21
303.961166
  0
LINE
  5
51F
100
AcDbEntity
  8
M0
100
AcDbLine
 10
319.713579
 20
303.961166
 11
319.767812
 21
303.899537
  0
LINE
  5
520
100
AcDbEntity
  8
M0
100
AcDbLine
 10
319.767812
 20
303.899537
 11
319.830639
 21
303.828143
  0
LINE
  5
521
100
AcDbEntity
  8
M0
100
AcDbLine
 10
319.830639
 20
303.828143
 11
319.900151
 21
303.749154
  0
LINE
  5
522
100
AcDbEntity
  8
M0
100
AcDbLine
 10
319.900151
 20
303.749154
 11
319.974234
 21
303.664968
  0
LINE
  5
523
100
AcDbEntity
  8
M0
100
AcDbLine
 10
319.974234
 20
303.664968
 11
320.05064
 21
303.578143
  0
LINE
  5
524
100
AcDbEntity
  8
M0
100
AcDbLine
 10
243.310639
 20
330.578144
 11
243.136992
 21
330.751792
  0
LINE
  5
525
100
AcDbEntity
  8
M0
100
AcDbLine
 10
243.136992
 20
330.751792
 11
242.968621
 21
330.920164
  0
LINE
  5
526
100
AcDbEntity
  8
M0
100
AcDbLine
 10
242.968621
 20
330.920164
 11
242.810638
 21
331.078144
  0
LINE
  5
527
100
AcDbEntity
  8
M0
100
AcDbLine
 10
242.810638
 20
331.078144
 11
242.667852
 21
331.220931
  0
LINE
  5
528
100
AcDbEntity
  8
M0
100
AcDbLine
 10
242.667852
 20
331.220931
 11
242.544593
 21
331.344188
  0
LINE
  5
529
100
AcDbEntity
  8
M0
100
AcDbLine
 10
242.544593
 20
331.344188
 11
242.444614
 21
331.444169
  0
LINE
  5
52A
100
AcDbEntity
  8
M0
100
AcDbLine
 10
242.444614
 20
331.444169
 11
242.370946
 21
331.517836
  0
LINE
  5
52B
100
AcDbEntity
  8
M0
100
AcDbLine
 10
242.370946
 20
331.517836
 11
242.325833
 21
331.562951
  0
LINE
  5
52C
100
AcDbEntity
  8
M0
100
AcDbLine
 10
242.325833
 20
331.562951
 11
242.310641
 21
331.578144
  0
LINE
  5
52D
100
AcDbEntity
  8
M0
  6
DASHED
100
AcDbLine
 10
261.410639
 20
326.078145
 11
262.610639
 21
326.078145
  0
LINE
  5
52E
100
AcDbEntity
  8
M0
  6
DASHED
100
AcDbLine
 10
262.610639
 20
348.578145
 11
261.410639
 21
348.578145
  0
CIRCLE
  5
52F
100
AcDbEntity
  8
M0
100
AcDbCircle
 10
84.299385
 20
358.178144
 40
3.0
  0
LINE
  5
530
100
AcDbEntity
  8
M0
100
AcDbLine
 10
85.889969
 20
356.587499
 11
82.708329
 21
359.769262
  0
LINE
  5
531
100
AcDbEntity
  8
M0
100
AcDbLine
 10
85.713211
 20
358.531835
 11
83.945633
 21
356.764257
  0
LINE
  5
532
100
AcDbEntity
  8
M0
100
AcDbLine
 10
84.652665
 20
359.592504
 11
82.885086
 21
357.824804
  0
LINE
  5
533
100
AcDbEntity
  8
M0
100
AcDbLine
 10
87.624385
 20
362.003144
 11
80.974385
 21
362.003144
  0
ARC
  5
534
100
AcDbEntity
  8
M0
100
AcDbCircle
 10
87.624385
 20
361.503144
 40
0.5
100
AcDbArc
 50
0.0
 51
90.0
  0
LINE
  5
535
100
AcDbEntity
  8
M0
100
AcDbLine
 10
88.124385
 20
354.853144
 11
88.124385
 21
361.503144
  0
ARC
  5
536
100
AcDbEntity
  8
M0
100
AcDbCircle
 10
87.624385
 20
354.853144
 40
0.5
100
AcDbArc
 50
270.0
 51
360.0
  0
LINE
  5
537
100
AcDbEntity
  8
M0
100
AcDbLine
 10
80.974385
 20
354.353144
 11
87.624385
 21
354.353144
  0
LINE
  5
538
100
AcDbEntity
  8
M0
100
AcDbLine
 10
80.474385
 20
361.503144
 11
80.474385
 21
354.853144
  0
ARC
  5
539
100
AcDbEntity
  8
M0
100
AcDbCircle
 10
80.974385
 20
361.503144
 40
0.5
100
AcDbArc
 50
90.0
 51
180.0
  0
ARC
  5
53A
100
AcDbEntity
  8
M0
100
AcDbCircle
 10
80.974385
 20
354.853144
 40
0.5
100
AcDbArc
 50
180.0
 51
270.0
  0
CIRCLE
  5
53B
100
AcDbEntity
  8
M0
  6
DASHED
100
AcDbCircle
 10
48.199385
 20
340.478144
 40
3.0
  0
LINE
  5
53C
100
AcDbEntity
  8
M0
  6
DASHED
100
AcDbLine
 10
49.789969
 20
338.887499
 11
46.608329
 21
342.069262
  0
LINE
  5
53D
100
AcDbEntity
  8
M0
  6
DASHED
100
AcDbLine
 10
49.613211
 20
340.831835
 11
47.845633
 21
339.064257
  0
LINE
  5
53E
100
AcDbEntity
  8
M0
  6
DASHED
100
AcDbLine
 10
48.552664
 20
341.892504
 11
46.785086
 21
340.124804
  0
LINE
  5
53F
100
AcDbEntity
  8
M0
  6
DASHED
100
AcDbLine
 10
51.524385
 20
344.303144
 11
44.874385
 21
344.303144
  0
ARC
  5
540
100
AcDbEntity
  8
M0
  6
DASHED
100
AcDbCircle
 10
51.524385
 20
343.803144
 40
0.5
100
AcDbArc
 50
0.0
 51
90.0
  0
LINE
  5
541
100
AcDbEntity
  8
M0
  6
DASHED
100
AcDbLine
 10
52.024385
 20
337.153144
 11
52.024385
 21
343.803144
  0
ARC
  5
542
100
AcDbEntity
  8
M0
  6
DASHED
100
AcDbCircle
 10
51.524385
 20
337.153144
 40
0.5
100
AcDbArc
 50
270.0
 51
360.0
  0
LINE
  5
543
100
AcDbEntity
  8
M0
  6
DASHED
100
AcDbLine
 10
44.874385
 20
336.653144
 11
51.524385
 21
336.653144
  0
LINE
  5
544
100
AcDbEntity
  8
M0
  6
DASHED
100
AcDbLine
 10
44.374385
 20
343.803144
 11
44.374385
 21
337.153144
  0
ARC
  5
545
100
AcDbEntity
  8
M0
  6
DASHED
100
AcDbCircle
 10
44.874385
 20
343.803144
 40
0.5
100
AcDbArc
 50
90.0
 51
180.0
  0
ARC
  5
546
100
AcDbEntity
  8
M0
  6
DASHED
100
AcDbCircle
 10
44.874385
 20
337.153144
 40
0.5
100
AcDbArc
 50
180.0
 51
270.0
  0
LINE
  5
547
100
AcDbEntity
  8
M0
  6
DASHDOT
100
AcDbLine
 10
73.399385
 20
367.578145
 11
73.399385
 21
279.078142
  0
LINE
  5
548
100
AcDbEntity
  8
M0
  6
DASHDOT
100
AcDbLine
 10
27.499388
 20
319.578144
 11
109.799382
 21
319.578144
  0
ARC
  5
549
100
AcDbEntity
  8
M0
100
AcDbCircle
 10
81.049385
 20
354.928144
 40
0.5
100
AcDbArc
 50
268.473851
 51
270.0
  0
ARC
  5
54A
100
AcDbEntity
  8
M0
100
AcDbCircle
 10
46.399385
 20
349.578144
 40
2.25
100
AcDbArc
 50
0.0
 51
180.0
  0
ARC
  5
54B
100
AcDbEntity
  8
M0
100
AcDbCircle
 10
46.399385
 20
347.578144
 40
2.25
100
AcDbArc
 50
180.0
 51
360.0
  0
ARC
  5
54C
100
AcDbEntity
  8
M0
100
AcDbCircle
 10
46.999385
 20
289.078144
 40
5.0
100
AcDbArc
 50
180.0
 51
270.0
  0
ARC
  5
54D
100
AcDbEntity
  8
M0
100
AcDbCircle
 10
46.999385
 20
350.078144
 40
5.0
100
AcDbArc
 50
90.0
 51
180.0
  0
LINE
  5
54E
100
AcDbEntity
  8
M0
100
AcDbLine
 10
82.299385
 20
307.378144
 11
64.499385
 21
307.378144
  0
LINE
  5
54F
100
AcDbEntity
  8
M0
100
AcDbLine
 10
63.999386
 20
307.878144
 11
63.999386
 21
331.278144
  0
LINE
  5
550
100
AcDbEntity
  8
M0
100
AcDbLine
 10
93.099385
 20
336.978144
 11
53.699385
 21
336.978144
  0
LINE
  5
551
100
AcDbEntity
  8
M0
100
AcDbLine
 10
94.899386
 20
322.078144
 11
93.099385
 21
322.078144
  0
LINE
  5
552
100
AcDbEntity
  8
M0
100
AcDbLine
 10
68.099387
 20
331.778143
 11
64.499385
 21
331.778143
  0
ARC
  5
553
100
AcDbEntity
  8
M0
100
AcDbCircle
 10
51.199385
 20
287.578144
 40
0.5
100
AcDbArc
 50
180.0
 51
270.0
  0
ARC
  5
554
100
AcDbEntity
  8
M0
100
AcDbCircle
 10
95.599385
 20
288.578144
 40
0.5
100
AcDbArc
 50
0.0
 51
90.0
  0
ARC
  5
555
100
AcDbEntity
  8
M0
100
AcDbCircle
 10
52.199385
 20
288.578144
 40
0.5
100
AcDbArc
 50
0.0
 51
90.0
  0
ARC
  5
556
100
AcDbEntity
  8
M0
100
AcDbCircle
 10
51.199385
 20
288.578144
 40
0.5
100
AcDbArc
 50
90.0
 51
180.0
  0
CIRCLE
  5
557
100
AcDbEntity
  8
M0
100
AcDbCircle
 10
45.899385
 20
289.578144
 40
2.25
  0
CIRCLE
  5
558
100
AcDbEntity
  8
M0
100
AcDbCircle
 10
100.899385
 20
349.578144
 40
2.25
  0
ARC
  5
559
100
AcDbEntity
  8
M0
100
AcDbCircle
 10
95.599385
 20
287.578144
 40
0.5
100
AcDbArc
 50
270.0
 51
360.0
  0
ARC
  5
55A
100
AcDbEntity
  8
M0
100
AcDbCircle
 10
94.599385
 20
288.578144
 40
0.5
100
AcDbArc
 50
90.0
 51
180.0
  0
ARC
  5
55B
100
AcDbEntity
  8
M0
100
AcDbCircle
 10
93.399385
 20
354.078144
 40
1.0
100
AcDbArc
 50
90.0
 51
98.626927
  0
ARC
  5
55C
100
AcDbEntity
  8
M0
100
AcDbCircle
 10
100.399385
 20
289.578144
 40
2.25
100
AcDbArc
 50
180.0
 51
360.0
  0
ARC
  5
55D
100
AcDbEntity
  8
M0
100
AcDbCircle
 10
53.399385
 20
354.078144
 40
1.0
100
AcDbArc
 50
81.373073
 51
90.0
  0
ARC
  5
55E
100
AcDbEntity
  8
M0
100
AcDbCircle
 10
99.799385
 20
350.078144
 40
5.0
100
AcDbArc
 50
0.0
 51
90.0
  0
ARC
  5
55F
100
AcDbEntity
  8
M0
100
AcDbCircle
 10
52.199385
 20
287.578144
 40
0.5
100
AcDbArc
 50
270.0
 51
360.0
  0
ARC
  5
560
100
AcDbEntity
  8
M0
100
AcDbCircle
 10
100.399385
 20
291.578144
 40
2.25
100
AcDbArc
 50
0.0
 51
180.0
  0
ARC
  5
561
100
AcDbEntity
  8
M0
100
AcDbCircle
 10
99.799385
 20
289.078144
 40
5.0
100
AcDbArc
 50
270.0
 51
360.0
  0
LINE
  5
562
100
AcDbEntity
  8
M0
100
AcDbLine
 10
52.968616
 20
323.078144
 11
52.968616
 21
322.078144
  0
LINE
  5
563
100
AcDbEntity
  8
M0
100
AcDbLine
 10
52.699385
 20
323.078144
 11
52.099386
 21
323.078144
  0
LINE
  5
564
100
AcDbEntity
  8
M0
100
AcDbLine
 10
52.968616
 20
316.078144
 11
52.968616
 21
317.078144
  0
LINE
  5
565
100
AcDbEntity
  8
M0
100
AcDbLine
 10
52.699385
 20
316.078144
 11
52.099386
 21
316.078144
  0
LINE
  5
566
100
AcDbEntity
  8
M0
100
AcDbLine
 10
93.830153
 20
316.078144
 11
93.830153
 21
317.078144
  0
LINE
  5
567
100
AcDbEntity
  8
M0
100
AcDbLine
 10
94.099384
 20
316.078144
 11
94.699386
 21
316.078144
  0
LINE
  5
568
100
AcDbEntity
  8
M0
100
AcDbLine
 10
93.830153
 20
323.078144
 11
93.830153
 21
322.078144
  0
LINE
  5
569
100
AcDbEntity
  8
M0
100
AcDbLine
 10
94.099384
 20
323.078144
 11
94.699386
 21
323.078144
  0
LINE
  5
56A
100
AcDbEntity
  8
M0
100
AcDbLine
 10
88.599384
 20
354.078145
 11
88.599384
 21
363.478145
  0
LINE
  5
56B
100
AcDbEntity
  8
M0
100
AcDbLine
 10
90.188846
 20
361.096135
 11
90.399384
 21
354.078145
  0
LINE
  5
56C
100
AcDbEntity
  8
M0
100
AcDbLine
 10
89.517116
 20
364.078144
 11
89.199386
 21
364.078144
  0
LINE
  5
56D
100
AcDbEntity
  8
M0
100
AcDbLine
 10
78.399386
 20
286.578144
 11
78.399386
 21
287.078145
  0
LINE
  5
56E
100
AcDbEntity
  8
M0
100
AcDbLine
 10
78.399386
 20
284.078142
 11
68.399384
 21
284.078142
  0
LINE
  5
56F
100
AcDbEntity
  8
M0
100
AcDbLine
 10
68.399384
 20
287.078145
 11
68.399384
 21
286.578144
  0
LINE
  5
570
100
AcDbEntity
  8
M0
100
AcDbLine
 10
51.899385
 20
317.078144
 11
51.899385
 21
322.078144
  0
LINE
  5
571
100
AcDbEntity
  8
M0
100
AcDbLine
 10
52.699385
 20
316.078144
 11
53.699385
 21
316.078144
  0
LINE
  5
572
100
AcDbEntity
  8
M0
100
AcDbLine
 10
52.699385
 20
285.078144
 11
52.699385
 21
316.078144
  0
LINE
  5
573
100
AcDbEntity
  8
M0
100
AcDbLine
 10
52.699385
 20
323.078144
 11
53.699385
 21
323.078144
  0
LINE
  5
574
100
AcDbEntity
  8
M0
100
AcDbLine
 10
51.399385
 20
321.078144
 11
51.899385
 21
321.078144
  0
LINE
  5
575
100
AcDbEntity
  8
M0
100
AcDbLine
 10
51.399385
 20
318.078144
 11
51.399385
 21
321.078144
  0
LINE
  5
576
100
AcDbEntity
  8
M0
100
AcDbLine
 10
68.899385
 20
286.078143
 11
77.899385
 21
286.078143
  0
LINE
  5
577
100
AcDbEntity
  8
M0
100
AcDbLine
 10
51.899385
 20
318.078144
 11
51.399385
 21
318.078144
  0
LINE
  5
578
100
AcDbEntity
  8
M0
100
AcDbLine
 10
95.399387
 20
318.078144
 11
95.399387
 21
321.078144
  0
LINE
  5
579
100
AcDbEntity
  8
M0
100
AcDbLine
 10
52.899385
 20
322.078144
 11
51.899385
 21
322.078144
  0
LINE
  5
57A
100
AcDbEntity
  8
M0
100
AcDbLine
 10
95.399387
 20
321.078144
 11
94.899386
 21
321.078144
  0
ARC
  5
57B
100
AcDbEntity
  8
M0
100
AcDbCircle
 10
51.899385
 20
316.278144
 40
0.5
100
AcDbArc
 50
293.578178
 51
336.421822
  0
ARC
  5
57C
100
AcDbEntity
  8
M0
100
AcDbCircle
 10
94.899385
 20
316.278144
 40
0.5
100
AcDbArc
 50
203.578178
 51
246.421822
  0
LINE
  5
57D
100
AcDbEntity
  8
M0
100
AcDbLine
 10
51.199386
 20
287.078145
 11
52.199386
 21
287.078145
  0
LINE
  5
57E
100
AcDbEntity
  8
M0
100
AcDbLine
 10
52.199386
 20
289.078145
 11
51.199386
 21
289.078145
  0
LINE
  5
57F
100
AcDbEntity
  8
M0
100
AcDbLine
 10
95.599387
 20
289.078145
 11
94.599385
 21
289.078145
  0
LINE
  5
580
100
AcDbEntity
  8
M0
100
AcDbLine
 10
50.699385
 20
288.578144
 11
50.699385
 21
287.578142
  0
ARC
  5
581
100
AcDbEntity
  8
M0
100
AcDbCircle
 10
67.499385
 20
363.578144
 40
0.5
100
AcDbArc
 50
0.0
 51
90.0
  0
ARC
  5
582
100
AcDbEntity
  8
M0
100
AcDbCircle
 10
79.299385
 20
363.578144
 40
0.5
100
AcDbArc
 50
90.0
 51
180.0
  0
ARC
  5
583
100
AcDbEntity
  8
M0
100
AcDbCircle
 10
67.499385
 20
363.078144
 40
1.0
100
AcDbArc
 50
90.0
 51
180.0
  0
LINE
  5
584
100
AcDbEntity
  8
M0
100
AcDbLine
 10
70.899386
 20
324.05561
 11
70.899386
 21
323.878144
  0
LINE
  5
585
100
AcDbEntity
  8
M0
100
AcDbLine
 10
75.899385
 20
314.578144
 11
75.899385
 21
314.678144
  0
ARC
  5
586
100
AcDbEntity
  8
M0
100
AcDbCircle
 10
79.299385
 20
363.078144
 40
1.0
100
AcDbArc
 50
0.0
 51
90.0
  0
LINE
  5
587
100
AcDbEntity
  8
M0
100
AcDbLine
 10
75.899385
 20
324.05561
 11
75.899385
 21
323.878144
  0
ARC
  5
588
100
AcDbEntity
  8
M0
100
AcDbCircle
 10
68.599385
 20
323.378144
 40
0.5
100
AcDbArc
 50
90.0
 51
180.0
  0
ARC
  5
589
100
AcDbEntity
  8
M0
100
AcDbCircle
 10
71.149385
 20
323.378144
 40
0.5
100
AcDbArc
 50
0.0
 51
90.0
  0
LINE
  5
58A
100
AcDbEntity
  8
M0
100
AcDbLine
 10
96.099384
 20
287.578142
 11
96.099384
 21
288.578144
  0
ARC
  5
58B
100
AcDbEntity
  8
M0
100
AcDbCircle
 10
68.599385
 20
315.178144
 40
0.5
100
AcDbArc
 50
180.0
 51
270.0
  0
ARC
  5
58C
100
AcDbEntity
  8
M0
100
AcDbCircle
 10
78.199385
 20
323.378144
 40
0.5
100
AcDbArc
 50
0.0
 51
90.0
  0
ARC
  5
58D
100
AcDbEntity
  8
M0
100
AcDbCircle
 10
75.649385
 20
323.378144
 40
0.5
100
AcDbArc
 50
90.0
 51
180.0
  0
ARC
  5
58E
100
AcDbEntity
  8
M0
100
AcDbCircle
 10
78.199385
 20
315.178144
 40
0.5
100
AcDbArc
 50
270.0
 51
360.0
  0
LINE
  5
58F
100
AcDbEntity
  8
M0
100
AcDbLine
 10
81.099387
 20
354.078145
 11
90.399384
 21
354.078145
  0
LINE
  5
590
100
AcDbEntity
  8
M0
100
AcDbLine
 10
90.399384
 20
352.578143
 11
81.099387
 21
352.578143
  0
LINE
  5
591
100
AcDbEntity
  8
M0
100
AcDbLine
 10
90.399384
 20
354.078145
 11
90.399384
 21
352.578143
  0
LINE
  5
592
100
AcDbEntity
  8
M0
100
AcDbLine
 10
66.499386
 20
362.578145
 11
58.199385
 21
362.578145
  0
LINE
  5
593
100
AcDbEntity
  8
M0
100
AcDbLine
 10
88.599384
 20
362.578145
 11
80.299385
 21
362.578145
  0
LINE
  5
594
100
AcDbEntity
  8
M0
100
AcDbLine
 10
80.299385
 20
363.078142
 11
80.299385
 21
355.057939
  0
LINE
  5
595
100
AcDbEntity
  8
M0
100
AcDbLine
 10
94.899386
 20
318.078144
 11
95.399387
 21
318.078144
  0
LINE
  5
596
100
AcDbEntity
  8
M0
100
AcDbLine
 10
78.799385
 20
354.514033
 11
78.799385
 21
363.078142
  0
LINE
  5
597
100
AcDbEntity
  8
M0
100
AcDbLine
 10
65.699387
 20
352.578143
 11
56.399386
 21
352.578143
  0
LINE
  5
598
100
AcDbEntity
  8
M0
100
AcDbLine
 10
90.399384
 20
352.578143
 11
90.399384
 21
350.578143
  0
LINE
  5
599
100
AcDbEntity
  8
M0
100
AcDbLine
 10
56.399386
 20
354.078145
 11
65.699387
 21
354.078145
  0
LINE
  5
59A
100
AcDbEntity
  8
M0
100
AcDbLine
 10
99.799387
 20
284.078142
 11
92.699385
 21
284.078142
  0
LINE
  5
59B
100
AcDbEntity
  8
M0
100
AcDbLine
 10
50.699385
 20
290.078143
 11
52.699385
 21
290.078143
  0
LINE
  5
59C
100
AcDbEntity
  8
M0
100
AcDbLine
 10
50.699385
 20
293.878144
 11
50.699385
 21
290.078143
  0
LINE
  5
59D
100
AcDbEntity
  8
M0
100
AcDbLine
 10
96.099384
 20
290.078143
 11
96.099384
 21
293.878144
  0
LINE
  5
59E
100
AcDbEntity
  8
M0
100
AcDbLine
 10
94.099384
 20
290.078143
 11
96.099384
 21
290.078143
  0
LINE
  5
59F
100
AcDbEntity
  8
M0
100
AcDbLine
 10
98.149389
 20
291.578143
 11
98.149389
 21
289.578142
  0
LINE
  5
5A0
100
AcDbEntity
  8
M0
100
AcDbLine
 10
102.649383
 20
289.578142
 11
102.649383
 21
291.578143
  0
LINE
  5
5A1
100
AcDbEntity
  8
M0
100
AcDbLine
 10
41.999386
 20
289.078145
 11
41.999386
 21
350.078144
  0
LINE
  5
5A2
100
AcDbEntity
  8
M0
100
AcDbLine
 10
56.399386
 20
354.078145
 11
56.399386
 21
350.578143
  0
LINE
  5
5A3
100
AcDbEntity
  8
M0
100
AcDbLine
 10
48.649385
 20
349.578143
 11
48.649385
 21
347.578144
  0
LINE
  5
5A4
100
AcDbEntity
  8
M0
100
AcDbLine
 10
44.149386
 20
347.578144
 11
44.149386
 21
349.578143
  0
ARC
  5
5A5
100
AcDbEntity
  8
M0
100
AcDbCircle
 10
93.099385
 20
335.978144
 40
1.0
100
AcDbArc
 50
0.0
 51
90.0
  0
ARC
  5
5A6
100
AcDbEntity
  8
M0
100
AcDbCircle
 10
93.099385
 20
303.178144
 40
1.0
100
AcDbArc
 50
270.0
 51
360.0
  0
LINE
  5
5A7
100
AcDbEntity
  8
M0
100
AcDbLine
 10
93.099385
 20
316.078144
 11
93.099385
 21
317.078144
  0
LINE
  5
5A8
100
AcDbEntity
  8
M0
100
AcDbLine
 10
94.899386
 20
317.078144
 11
93.099385
 21
317.078144
  0
LINE
  5
5A9
100
AcDbEntity
  8
M0
100
AcDbLine
 10
74.599385
 20
331.778143
 11
72.199385
 21
331.778143
  0
LINE
  5
5AA
100
AcDbEntity
  8
M0
100
AcDbLine
 10
72.199385
 20
333.378143
 11
72.199385
 21
331.778143
  0
LINE
  5
5AB
100
AcDbEntity
  8
M0
100
AcDbLine
 10
52.899385
 20
322.078144
 11
53.699385
 21
322.078144
  0
LINE
  5
5AC
100
AcDbEntity
  8
M0
100
AcDbLine
 10
51.899385
 20
317.078144
 11
53.699385
 21
317.078144
  0
LINE
  5
5AD
100
AcDbEntity
  8
M0
100
AcDbLine
 10
93.099385
 20
323.078144
 11
93.099385
 21
322.078144
  0
LINE
  5
5AE
100
AcDbEntity
  8
M0
100
AcDbLine
 10
53.699385
 20
323.078144
 11
53.699385
 21
322.078144
  0
LINE
  5
5AF
100
AcDbEntity
  8
M0
100
AcDbLine
 10
77.699385
 20
330.778144
 11
69.099385
 21
330.778144
  0
LINE
  5
5B0
100
AcDbEntity
  8
M0
100
AcDbLine
 10
74.599385
 20
333.378143
 11
72.199385
 21
333.378143
  0
LINE
  5
5B1
100
AcDbEntity
  8
M0
100
AcDbLine
 10
74.599385
 20
333.378143
 11
74.599385
 21
331.778143
  0
LINE
  5
5B2
100
AcDbEntity
  8
M0
100
AcDbLine
 10
78.699384
 20
331.778143
 11
82.299385
 21
331.778143
  0
LINE
  5
5B3
100
AcDbEntity
  8
M0
100
AcDbLine
 10
82.799386
 20
307.878144
 11
82.799386
 21
331.278144
  0
LINE
  5
5B4
100
AcDbEntity
  8
M0
100
AcDbLine
 10
94.699386
 20
294.878145
 11
95.599387
 21
294.878145
  0
LINE
  5
5B5
100
AcDbEntity
  8
M0
100
AcDbLine
 10
101.599388
 20
294.878145
 11
102.499388
 21
294.878145
  0
LINE
  5
5B6
100
AcDbEntity
  8
M0
100
AcDbLine
 10
51.199386
 20
344.278144
 11
52.099386
 21
344.278144
  0
LINE
  5
5B7
100
AcDbEntity
  8
M0
100
AcDbLine
 10
95.599387
 20
344.278144
 11
94.699386
 21
344.278144
  0
LINE
  5
5B8
100
AcDbEntity
  8
M0
100
AcDbLine
 10
103.599384
 20
291.878144
 11
103.499383
 21
291.878144
  0
LINE
  5
5B9
100
AcDbEntity
  8
M0
100
AcDbLine
 10
102.499388
 20
344.278144
 11
101.599388
 21
344.278144
  0
LINE
  5
5BA
100
AcDbEntity
  8
M0
100
AcDbLine
 10
103.599384
 20
347.278143
 11
103.499383
 21
347.278143
  0
LINE
  5
5BB
100
AcDbEntity
  8
M0
100
AcDbLine
 10
44.299385
 20
344.278144
 11
45.199386
 21
344.278144
  0
ARC
  5
5BC
100
AcDbEntity
  8
M0
100
AcDbCircle
 10
56.399385
 20
285.078144
 40
1.0
100
AcDbArc
 50
180.0
 51
270.0
  0
LINE
  5
5BD
100
AcDbEntity
  8
M0
100
AcDbLine
 10
56.399385
 20
284.078142
 11
64.399385
 21
284.078142
  0
LINE
  5
5BE
100
AcDbEntity
  8
M0
100
AcDbLine
 10
43.199385
 20
291.878144
 11
43.299385
 21
291.878144
  0
LINE
  5
5BF
100
AcDbEntity
  8
M0
100
AcDbLine
 10
52.099386
 20
294.878145
 11
51.199386
 21
294.878145
  0
LINE
  5
5C0
100
AcDbEntity
  8
M0
100
AcDbLine
 10
45.199386
 20
294.878145
 11
44.299385
 21
294.878145
  0
ARC
  5
5C1
100
AcDbEntity
  8
M0
100
AcDbCircle
 10
78.699385
 20
331.278144
 40
0.5
100
AcDbArc
 50
90.0
 51
180.0
  0
ARC
  5
5C2
100
AcDbEntity
  8
M0
100
AcDbCircle
 10
82.299385
 20
331.278144
 40
0.5
100
AcDbArc
 50
0.0
 51
90.0
  0
ARC
  5
5C3
100
AcDbEntity
  8
M0
100
AcDbCircle
 10
69.099385
 20
331.278144
 40
0.5
100
AcDbArc
 50
180.0
 51
270.0
  0
ARC
  5
5C4
100
AcDbEntity
  8
M0
100
AcDbCircle
 10
77.699385
 20
331.278144
 40
0.5
100
AcDbArc
 50
270.0
 51
360.0
  0
LINE
  5
5C5
100
AcDbEntity
  8
M0
100
AcDbLine
 10
43.199385
 20
347.278143
 11
43.299385
 21
347.278143
  0
ARC
  5
5C6
100
AcDbEntity
  8
M0
100
AcDbCircle
 10
53.699385
 20
335.978144
 40
1.0
100
AcDbArc
 50
90.0
 51
180.0
  0
ARC
  5
5C7
100
AcDbEntity
  8
M0
100
AcDbCircle
 10
53.699385
 20
303.178144
 40
1.0
100
AcDbArc
 50
180.0
 51
270.0
  0
ARC
  5
5C8
100
AcDbEntity
  8
M0
100
AcDbCircle
 10
77.899385
 20
286.578144
 40
0.5
100
AcDbArc
 50
270.0
 51
360.0
  0
ARC
  5
5C9
100
AcDbEntity
  8
M0
100
AcDbCircle
 10
78.399385
 20
286.078144
 40
2.0
100
AcDbArc
 50
270.0
 51
292.57935
  0
ARC
  5
5CA
100
AcDbEntity
  8
M0
100
AcDbCircle
 10
64.499385
 20
331.278144
 40
0.5
100
AcDbArc
 50
90.0
 51
180.0
  0
ARC
  5
5CB
100
AcDbEntity
  8
M0
100
AcDbCircle
 10
68.099385
 20
331.278144
 40
0.5
100
AcDbArc
 50
0.0
 51
90.0
  0
ARC
  5
5CC
100
AcDbEntity
  8
M0
100
AcDbCircle
 10
82.299385
 20
307.878144
 40
0.5
100
AcDbArc
 50
270.0
 51
360.0
  0
ARC
  5
5CD
100
AcDbEntity
  8
M0
100
AcDbCircle
 10
64.499385
 20
307.878144
 40
0.5
100
AcDbArc
 50
180.0
 51
270.0
  0
ARC
  5
5CE
100
AcDbEntity
  8
M0
100
AcDbCircle
 10
57.281655
 20
363.478144
 40
0.6
100
AcDbArc
 50
90.0
 51
178.281642
  0
ARC
  5
5CF
100
AcDbEntity
  8
M0
100
AcDbCircle
 10
57.599385
 20
363.478144
 40
0.6
100
AcDbArc
 50
0.0
 51
90.0
  0
ARC
  5
5D0
100
AcDbEntity
  8
M0
100
AcDbCircle
 10
94.599385
 20
287.578144
 40
0.5
100
AcDbArc
 50
180.0
 51
270.0
  0
ARC
  5
5D1
100
AcDbEntity
  8
M0
100
AcDbCircle
 10
68.399385
 20
286.078144
 40
2.0
100
AcDbArc
 50
247.42065
 51
270.0
  0
ARC
  5
5D2
100
AcDbEntity
  8
M0
100
AcDbCircle
 10
68.899385
 20
286.578144
 40
0.5
100
AcDbArc
 50
180.0
 51
270.0
  0
ARC
  5
5D3
100
AcDbEntity
  8
M0
100
AcDbCircle
 10
89.199385
 20
363.478144
 40
0.6
100
AcDbArc
 50
90.0
 51
180.0
  0
LINE
  5
5D4
100
AcDbEntity
  8
M0
100
AcDbLine
 10
58.199385
 20
363.478145
 11
58.199385
 21
354.078145
  0
LINE
  5
5D5
100
AcDbEntity
  8
M0
100
AcDbLine
 10
56.399386
 20
354.078145
 11
56.609925
 21
361.096135
  0
LINE
  5
5D6
100
AcDbEntity
  8
M0
100
AcDbLine
 10
57.281656
 20
364.078144
 11
57.599386
 21
364.078144
  0
ARC
  5
5D7
100
AcDbEntity
  8
M0
100
AcDbCircle
 10
89.517116
 20
363.478144
 40
0.6
100
AcDbArc
 50
1.718358
 51
90.0
  0
LINE
  5
5D8
100
AcDbEntity
  8
M0
100
AcDbLine
 10
94.599385
 20
287.078145
 11
95.599387
 21
287.078145
  0
LINE
  5
5D9
100
AcDbEntity
  8
M0
100
AcDbLine
 10
94.099384
 20
323.078144
 11
93.099385
 21
323.078144
  0
LINE
  5
5DA
100
AcDbEntity
  8
M0
100
AcDbLine
 10
94.899386
 20
317.078144
 11
94.899386
 21
322.078144
  0
LINE
  5
5DB
100
AcDbEntity
  8
M0
100
AcDbLine
 10
93.099385
 20
302.178143
 11
53.699385
 21
302.178143
  0
LINE
  5
5DC
100
AcDbEntity
  8
M0
100
AcDbLine
 10
94.099384
 20
316.078144
 11
93.099385
 21
316.078144
  0
LINE
  5
5DD
100
AcDbEntity
  8
M0
100
AcDbLine
 10
94.099384
 20
285.078144
 11
94.099384
 21
316.078144
  0
LINE
  5
5DE
100
AcDbEntity
  8
M0
100
AcDbLine
 10
53.699385
 20
316.078144
 11
53.699385
 21
317.078144
  0
LINE
  5
5DF
100
AcDbEntity
  8
M0
100
AcDbLine
 10
78.799385
 20
363.078142
 11
78.799385
 21
363.578143
  0
LINE
  5
5E0
100
AcDbEntity
  8
M0
100
AcDbLine
 10
67.999385
 20
362.578145
 11
69.099385
 21
362.578145
  0
LINE
  5
5E1
100
AcDbEntity
  8
M0
100
AcDbLine
 10
78.699384
 20
315.178144
 11
78.699384
 21
323.378144
  0
LINE
  5
5E2
100
AcDbEntity
  8
M0
100
AcDbLine
 10
77.699385
 20
362.578145
 11
78.799385
 21
362.578145
  0
LINE
  5
5E3
100
AcDbEntity
  8
M0
100
AcDbLine
 10
67.999385
 20
363.078142
 11
67.999385
 21
354.514033
  0
LINE
  5
5E4
100
AcDbEntity
  8
M0
100
AcDbLine
 10
66.499386
 20
355.057939
 11
66.499386
 21
363.078142
  0
LINE
  5
5E5
100
AcDbEntity
  8
M0
100
AcDbLine
 10
67.999385
 20
363.578143
 11
67.999385
 21
363.078142
  0
LINE
  5
5E6
100
AcDbEntity
  8
M0
100
AcDbLine
 10
77.199384
 20
324.178144
 11
77.199384
 21
323.878144
  0
LINE
  5
5E7
100
AcDbEntity
  8
M0
100
AcDbLine
 10
78.699384
 20
323.378144
 11
78.699384
 21
324.178144
  0
LINE
  5
5E8
100
AcDbEntity
  8
M0
100
AcDbLine
 10
69.599386
 20
324.178144
 11
69.599386
 21
323.878144
  0
LINE
  5
5E9
100
AcDbEntity
  8
M0
100
AcDbLine
 10
77.199384
 20
314.678144
 11
77.199384
 21
314.578144
  0
LINE
  5
5EA
100
AcDbEntity
  8
M0
100
AcDbLine
 10
68.099387
 20
317.778144
 11
67.599386
 21
317.778144
  0
LINE
  5
5EB
100
AcDbEntity
  8
M0
100
AcDbLine
 10
78.699384
 20
317.778144
 11
79.199385
 21
317.778144
  0
LINE
  5
5EC
100
AcDbEntity
  8
M0
100
AcDbLine
 10
78.699384
 20
314.578144
 11
78.699384
 21
315.178144
  0
LINE
  5
5ED
100
AcDbEntity
  8
M0
100
AcDbLine
 10
67.599386
 20
320.778144
 11
68.099387
 21
320.778144
  0
LINE
  5
5EE
100
AcDbEntity
  8
M0
100
AcDbLine
 10
70.899386
 20
324.05561
 11
70.899386
 21
324.178144
  0
LINE
  5
5EF
100
AcDbEntity
  8
M0
100
AcDbLine
 10
52.099386
 20
315.778144
 11
52.699385
 21
315.778144
  0
LINE
  5
5F0
100
AcDbEntity
  8
M0
100
AcDbLine
 10
70.899386
 20
314.578144
 11
70.899386
 21
314.678144
  0
LINE
  5
5F1
100
AcDbEntity
  8
M0
100
AcDbLine
 10
75.899385
 20
324.05561
 11
75.899385
 21
324.178144
  0
LINE
  5
5F2
100
AcDbEntity
  8
M0
100
AcDbLine
 10
68.099387
 20
314.578144
 11
68.099387
 21
315.178144
  0
LINE
  5
5F3
100
AcDbEntity
  8
M0
100
AcDbLine
 10
69.599386
 20
314.678144
 11
69.599386
 21
314.578144
  0
LINE
  5
5F4
100
AcDbEntity
  8
M0
100
AcDbLine
 10
94.699386
 20
315.778144
 11
94.099384
 21
315.778144
  0
LINE
  5
5F5
100
AcDbEntity
  8
M0
100
AcDbLine
 10
75.149387
 20
323.378144
 11
75.149387
 21
316.178144
  0
LINE
  5
5F6
100
AcDbEntity
  8
M0
100
AcDbLine
 10
71.649384
 20
323.378144
 11
71.649384
 21
316.178144
  0
LINE
  5
5F7
100
AcDbEntity
  8
M0
100
AcDbLine
 10
68.599384
 20
323.878144
 11
71.149386
 21
323.878144
  0
LINE
  5
5F8
100
AcDbEntity
  8
M0
100
AcDbLine
 10
78.199386
 20
314.678144
 11
68.599384
 21
314.678144
  0
LINE
  5
5F9
100
AcDbEntity
  8
M0
100
AcDbLine
 10
78.199386
 20
323.878144
 11
75.649384
 21
323.878144
  0
LINE
  5
5FA
100
AcDbEntity
  8
M0
100
AcDbLine
 10
71.649384
 20
316.178144
 11
75.149387
 21
316.178144
  0
LINE
  5
5FB
100
AcDbEntity
  8
M0
100
AcDbLine
 10
63.999386
 20
323.878144
 11
64.199386
 21
323.878144
  0
LINE
  5
5FC
100
AcDbEntity
  8
M0
100
AcDbLine
 10
64.199386
 20
314.678144
 11
63.999386
 21
314.678144
  0
LINE
  5
5FD
100
AcDbEntity
  8
M0
100
AcDbLine
 10
68.099387
 20
323.378144
 11
68.099387
 21
324.178144
  0
LINE
  5
5FE
100
AcDbEntity
  8
M0
100
AcDbLine
 10
79.199385
 20
320.778144
 11
78.699384
 21
320.778144
  0
LINE
  5
5FF
100
AcDbEntity
  8
M0
100
AcDbLine
 10
69.399386
 20
323.878144
 11
77.399384
 21
323.878144
  0
LINE
  5
600
100
AcDbEntity
  8
M0
100
AcDbLine
 10
68.099387
 20
315.178144
 11
68.099387
 21
323.378144
  0
LINE
  5
601
100
AcDbEntity
  8
M0
100
AcDbLine
 10
82.799386
 20
323.878144
 11
82.599386
 21
323.878144
  0
LINE
  5
602
100
AcDbEntity
  8
M0
100
AcDbLine
 10
82.599386
 20
314.678144
 11
82.799386
 21
314.678144
  0
LINE
  5
603
100
AcDbEntity
  8
M0
100
AcDbLine
 10
103.799388
 20
339.678143
 11
103.499383
 21
339.678143
  0
ARC
  5
604
100
AcDbEntity
  8
M0
100
AcDbCircle
 10
66.699385
 20
354.078144
 40
1.0
100
AcDbArc
 50
90.0
 51
180.0
  0
LINE
  5
605
100
AcDbEntity
  8
M0
100
AcDbLine
 10
103.499383
 20
315.878144
 11
103.799388
 21
315.878144
  0
LINE
  5
606
100
AcDbEntity
  8
M0
100
AcDbLine
 10
103.799388
 20
323.278144
 11
103.499383
 21
323.278144
  0
ARC
  5
607
100
AcDbEntity
  8
M0
100
AcDbCircle
 10
79.699385
 20
354.078144
 40
1.0
100
AcDbArc
 50
90.0
 51
180.0
  0
ARC
  5
608
100
AcDbEntity
  8
M0
100
AcDbCircle
 10
79.699385
 20
285.078144
 40
1.0
100
AcDbArc
 50
180.0
 51
270.0
  0
ARC
  5
609
100
AcDbEntity
  8
M0
100
AcDbCircle
 10
67.099385
 20
354.078144
 40
1.0
100
AcDbArc
 50
0.0
 51
90.0
  0
ARC
  5
60A
100
AcDbEntity
  8
M0
100
AcDbCircle
 10
67.099385
 20
285.078144
 40
1.0
100
AcDbArc
 50
270.0
 51
360.0
  0
LINE
  5
60B
100
AcDbEntity
  8
M0
100
AcDbLine
 10
82.599386
 20
312.078143
 11
82.599386
 21
325.678144
  0
LINE
  5
60C
100
AcDbEntity
  8
M0
100
AcDbLine
 10
81.599384
 20
331.578144
 11
80.099385
 21
331.578144
  0
LINE
  5
60D
100
AcDbEntity
  8
M0
100
AcDbLine
 10
81.599384
 20
307.578143
 11
81.099387
 21
307.578143
  0
LINE
  5
60E
100
AcDbEntity
  8
M0
100
AcDbLine
 10
103.499383
 20
299.478144
 11
103.799388
 21
299.478144
  0
LINE
  5
60F
100
AcDbEntity
  8
M0
100
AcDbLine
 10
102.499388
 20
346.278144
 11
102.499388
 21
324.278144
  0
LINE
  5
610
100
AcDbEntity
  8
M0
100
AcDbLine
 10
67.099385
 20
284.078142
 11
66.699385
 21
284.078142
  0
LINE
  5
611
100
AcDbEntity
  8
M0
100
AcDbLine
 10
66.699385
 20
300.678144
 11
67.099385
 21
300.678144
  0
LINE
  5
612
100
AcDbEntity
  8
M0
100
AcDbLine
 10
67.099385
 20
300.678144
 11
68.099387
 21
300.678144
  0
ARC
  5
613
100
AcDbEntity
  8
M0
100
AcDbCircle
 10
80.099385
 20
354.078144
 40
1.0
100
AcDbArc
 50
0.0
 51
90.0
  0
ARC
  5
614
100
AcDbEntity
  8
M0
100
AcDbCircle
 10
92.699385
 20
354.078144
 40
1.0
100
AcDbArc
 50
90.0
 51
180.0
  0
LINE
  5
615
100
AcDbEntity
  8
M0
100
AcDbLine
 10
102.499388
 20
314.878144
 11
102.499388
 21
292.878144
  0
ARC
  5
616
100
AcDbEntity
  8
M0
100
AcDbCircle
 10
80.099385
 20
285.078144
 40
1.0
100
AcDbArc
 50
270.0
 51
360.0
  0
ARC
  5
617
100
AcDbEntity
  8
M0
100
AcDbCircle
 10
93.099385
 20
285.078144
 40
1.0
100
AcDbArc
 50
270.0
 51
360.0
  0
LINE
  5
618
100
AcDbEntity
  8
M0
100
AcDbLine
 10
66.699385
 20
355.078145
 11
67.099385
 21
355.078145
  0
ARC
  5
619
100
AcDbEntity
  8
M0
100
AcDbCircle
 10
92.699385
 20
285.078144
 40
1.0
100
AcDbArc
 50
180.0
 51
270.0
  0
ARC
  5
61A
100
AcDbEntity
  8
M0
100
AcDbCircle
 10
93.099385
 20
354.078144
 40
1.0
100
AcDbArc
 50
0.0
 51
90.0
  0
LINE
  5
61B
100
AcDbEntity
  8
M0
100
AcDbLine
 10
103.799388
 20
323.278144
 11
103.799388
 21
315.878144
  0
LINE
  5
61C
100
AcDbEntity
  8
M0
100
AcDbLine
 10
96.099384
 20
315.578144
 11
96.099384
 21
323.578144
  0
LINE
  5
61D
100
AcDbEntity
  8
M0
100
AcDbLine
 10
94.099384
 20
315.578144
 11
96.099384
 21
315.578144
  0
LINE
  5
61E
100
AcDbEntity
  8
M0
100
AcDbLine
 10
42.999386
 20
315.878144
 11
43.299385
 21
315.878144
  0
LINE
  5
61F
100
AcDbEntity
  8
M0
100
AcDbLine
 10
42.999386
 20
339.678143
 11
43.299385
 21
339.678143
  0
LINE
  5
620
100
AcDbEntity
  8
M0
100
AcDbLine
 10
102.499388
 20
323.278144
 11
102.499388
 21
315.878144
  0
LINE
  5
621
100
AcDbEntity
  8
M0
100
AcDbLine
 10
102.499388
 20
315.878144
 11
99.499382
 21
315.878144
  0
LINE
  5
622
100
AcDbEntity
  8
M0
100
AcDbLine
 10
42.999386
 20
323.278144
 11
42.999386
 21
315.878144
  0
LINE
  5
623
100
AcDbEntity
  8
M0
100
AcDbLine
 10
99.499382
 20
323.278144
 11
102.499388
 21
323.278144
  0
LINE
  5
624
100
AcDbEntity
  8
M0
100
AcDbLine
 10
93.199387
 20
323.078144
 11
93.199387
 21
322.078144
  0
LINE
  5
625
100
AcDbEntity
  8
M0
100
AcDbLine
 10
94.099384
 20
323.578144
 11
96.099384
 21
323.578144
  0
LINE
  5
626
100
AcDbEntity
  8
M0
100
AcDbLine
 10
99.499382
 20
315.878144
 11
99.499382
 21
323.278144
  0
LINE
  5
627
100
AcDbEntity
  8
M0
100
AcDbLine
 10
65.199386
 20
331.578144
 11
66.699385
 21
331.578144
  0
LINE
  5
628
100
AcDbEntity
  8
M0
100
AcDbLine
 10
64.199386
 20
312.078143
 11
64.199386
 21
325.678144
  0
LINE
  5
629
100
AcDbEntity
  8
M0
100
AcDbLine
 10
65.199386
 20
307.578143
 11
65.699387
 21
307.578143
  0
LINE
  5
62A
100
AcDbEntity
  8
M0
100
AcDbLine
 10
68.349384
 20
330.578144
 11
78.449387
 21
330.578144
  0
LINE
  5
62B
100
AcDbEntity
  8
M0
100
AcDbLine
 10
78.949384
 20
324.178144
 11
67.849386
 21
324.178144
  0
LINE
  5
62C
100
AcDbEntity
  8
M0
100
AcDbLine
 10
68.349384
 20
325.678144
 11
78.449387
 21
325.678144
  0
LINE
  5
62D
100
AcDbEntity
  8
M0
100
AcDbLine
 10
78.449387
 20
329.078144
 11
68.349384
 21
329.078144
  0
LINE
  5
62E
100
AcDbEntity
  8
M0
100
AcDbLine
 10
43.299385
 20
323.278144
 11
42.999386
 21
323.278144
  0
LINE
  5
62F
100
AcDbEntity
  8
M0
100
AcDbLine
 10
93.199387
 20
317.078144
 11
93.199387
 21
316.078144
  0
LINE
  5
630
100
AcDbEntity
  8
M0
100
AcDbLine
 10
43.299385
 20
299.478144
 11
42.999386
 21
299.478144
  0
LINE
  5
631
100
AcDbEntity
  8
M0
100
AcDbLine
 10
44.299385
 20
346.278144
 11
44.299385
 21
324.278144
  0
LINE
  5
632
100
AcDbEntity
  8
M0
100
AcDbLine
 10
94.699386
 20
316.578144
 11
94.699386
 21
315.578144
  0
LINE
  5
633
100
AcDbEntity
  8
M0
100
AcDbLine
 10
94.699386
 20
323.578144
 11
94.699386
 21
322.578144
  0
LINE
  5
634
100
AcDbEntity
  8
M0
100
AcDbLine
 10
44.299385
 20
328.878144
 11
52.699385
 21
328.878144
  0
LINE
  5
635
100
AcDbEntity
  8
M0
100
AcDbLine
 10
94.699386
 20
316.578144
 11
94.999384
 21
316.578144
  0
LINE
  5
636
100
AcDbEntity
  8
M0
100
AcDbLine
 10
94.999384
 20
322.578144
 11
94.999384
 21
321.078144
  0
LINE
  5
637
100
AcDbEntity
  8
M0
100
AcDbLine
 10
94.099384
 20
310.278144
 11
102.499388
 21
310.278144
  0
LINE
  5
638
100
AcDbEntity
  8
M0
100
AcDbLine
 10
94.999384
 20
322.578144
 11
94.699386
 21
322.578144
  0
LINE
  5
639
100
AcDbEntity
  8
M0
100
AcDbLine
 10
94.999384
 20
318.078144
 11
94.999384
 21
316.578144
  0
LINE
  5
63A
100
AcDbEntity
  8
M0
100
AcDbLine
 10
51.799385
 20
318.078144
 11
51.799385
 21
316.578144
  0
LINE
  5
63B
100
AcDbEntity
  8
M0
100
AcDbLine
 10
51.799385
 20
322.578144
 11
51.799385
 21
321.078144
  0
LINE
  5
63C
100
AcDbEntity
  8
M0
100
AcDbLine
 10
52.099386
 20
316.578144
 11
51.799385
 21
316.578144
  0
LINE
  5
63D
100
AcDbEntity
  8
M0
100
AcDbLine
 10
52.099386
 20
316.578144
 11
52.099386
 21
315.578144
  0
LINE
  5
63E
100
AcDbEntity
  8
M0
100
AcDbLine
 10
52.699385
 20
310.278144
 11
44.299385
 21
310.278144
  0
LINE
  5
63F
100
AcDbEntity
  8
M0
100
AcDbLine
 10
51.799385
 20
322.578144
 11
52.099386
 21
322.578144
  0
ARC
  5
640
100
AcDbEntity
  8
M0
100
AcDbCircle
 10
54.099385
 20
354.078144
 40
1.0
100
AcDbArc
 50
0.0
 51
90.0
  0
ARC
  5
641
100
AcDbEntity
  8
M0
100
AcDbCircle
 10
66.699385
 20
285.078144
 40
1.0
100
AcDbArc
 50
180.0
 51
270.0
  0
ARC
  5
642
100
AcDbEntity
  8
M0
100
AcDbCircle
 10
53.699385
 20
354.078144
 40
1.0
100
AcDbArc
 50
90.0
 51
180.0
  0
ARC
  5
643
100
AcDbEntity
  8
M0
100
AcDbCircle
 10
54.099385
 20
285.078144
 40
1.0
100
AcDbArc
 50
270.0
 51
360.0
  0
LINE
  5
644
100
AcDbEntity
  8
M0
100
AcDbLine
 10
54.099385
 20
284.078142
 11
53.899385
 21
284.078142
  0
LINE
  5
645
100
AcDbEntity
  8
M0
100
AcDbLine
 10
53.899385
 20
355.078145
 11
54.099385
 21
355.078145
  0
LINE
  5
646
100
AcDbEntity
  8
M0
100
AcDbLine
 10
82.799386
 20
324.878144
 11
82.599386
 21
324.878144
  0
ARC
  5
647
100
AcDbEntity
  8
M0
100
AcDbCircle
 10
52.699385
 20
300.078144
 40
0.6
100
AcDbArc
 50
180.0
 51
270.0
  0
LINE
  5
648
100
AcDbEntity
  8
M0
100
AcDbLine
 10
52.099386
 20
323.578144
 11
52.099386
 21
322.578144
  0
LINE
  5
649
100
AcDbEntity
  8
M0
100
AcDbLine
 10
102.499388
 20
328.878144
 11
94.099384
 21
328.878144
  0
ARC
  5
64A
100
AcDbEntity
  8
M0
100
AcDbCircle
 10
94.099385
 20
300.078144
 40
0.6
100
AcDbArc
 50
270.0
 51
360.0
  0
ARC
  5
64B
100
AcDbEntity
  8
M0
100
AcDbCircle
 10
53.699385
 20
285.078144
 40
1.0
100
AcDbArc
 50
180.0
 51
270.0
  0
ARC
  5
64C
100
AcDbEntity
  8
M0
100
AcDbCircle
 10
52.699385
 20
339.078144
 40
0.6
100
AcDbArc
 50
90.0
 51
180.0
  0
ARC
  5
64D
100
AcDbEntity
  8
M0
100
AcDbCircle
 10
94.099385
 20
339.078144
 40
0.6
100
AcDbArc
 50
0.0
 51
90.0
  0
LINE
  5
64E
100
AcDbEntity
  8
M0
100
AcDbLine
 10
81.099387
 20
338.478144
 11
78.699384
 21
338.478144
  0
LINE
  5
64F
100
AcDbEntity
  8
M0
100
AcDbLine
 10
81.099387
 20
300.678144
 11
80.099385
 21
300.678144
  0
LINE
  5
650
100
AcDbEntity
  8
M0
100
AcDbLine
 10
79.699386
 20
284.078142
 11
80.099385
 21
284.078142
  0
LINE
  5
651
100
AcDbEntity
  8
M0
100
AcDbLine
 10
79.699386
 20
300.678144
 11
78.699384
 21
300.678144
  0
LINE
  5
652
100
AcDbEntity
  8
M0
100
AcDbLine
 10
80.099385
 20
300.678144
 11
79.699386
 21
300.678144
  0
LINE
  5
653
100
AcDbEntity
  8
M0
100
AcDbLine
 10
99.799385
 20
355.078145
 11
92.699386
 21
355.078145
  0
LINE
  5
654
100
AcDbEntity
  8
M0
100
AcDbLine
 10
94.099384
 20
323.078144
 11
94.099384
 21
354.078145
  0
LINE
  5
655
100
AcDbEntity
  8
M0
100
AcDbLine
 10
80.099385
 20
355.078145
 11
79.699386
 21
355.078145
  0
LINE
  5
656
100
AcDbEntity
  8
M0
100
AcDbLine
 10
91.699384
 20
302.178143
 11
91.699384
 21
285.078144
  0
ARC
  5
657
100
AcDbEntity
  8
M0
100
AcDbCircle
 10
67.349385
 20
308.078144
 40
0.5
100
AcDbArc
 50
270.0
 51
360.0
  0
ARC
  5
658
100
AcDbEntity
  8
M0
100
AcDbCircle
 10
79.449385
 20
308.078144
 40
0.5
100
AcDbArc
 50
180.0
 51
270.0
  0
ARC
  5
659
100
AcDbEntity
  8
M0
100
AcDbCircle
 10
67.349385
 20
330.578144
 40
1.0
100
AcDbArc
 50
0.0
 51
90.0
  0
ARC
  5
65A
100
AcDbEntity
  8
M0
100
AcDbCircle
 10
67.849385
 20
324.678144
 40
0.5
100
AcDbArc
 50
270.0
 51
360.0
  0
ARC
  5
65B
100
AcDbEntity
  8
M0
100
AcDbCircle
 10
81.599385
 20
308.578144
 40
1.0
100
AcDbArc
 50
270.0
 51
360.0
  0
ARC
  5
65C
100
AcDbEntity
  8
M0
100
AcDbCircle
 10
81.599385
 20
312.078144
 40
1.0
100
AcDbArc
 50
0.0
 51
90.0
  0
ARC
  5
65D
100
AcDbEntity
  8
M0
100
AcDbCircle
 10
79.449385
 20
330.578144
 40
1.0
100
AcDbArc
 50
90.0
 51
180.0
  0
ARC
  5
65E
100
AcDbEntity
  8
M0
100
AcDbCircle
 10
78.949385
 20
324.678144
 40
0.5
100
AcDbArc
 50
180.0
 51
270.0
  0
ARC
  5
65F
100
AcDbEntity
  8
M0
100
AcDbCircle
 10
103.799385
 20
324.278144
 40
1.0
100
AcDbArc
 50
270.0
 51
360.0
  0
ARC
  5
660
100
AcDbEntity
  8
M0
100
AcDbCircle
 10
103.799385
 20
338.678144
 40
1.0
100
AcDbArc
 50
0.0
 51
90.0
  0
ARC
  5
661
100
AcDbEntity
  8
M0
100
AcDbCircle
 10
65.199385
 20
330.578144
 40
1.0
100
AcDbArc
 50
90.0
 51
180.0
  0
ARC
  5
662
100
AcDbEntity
  8
M0
100
AcDbCircle
 10
65.199385
 20
308.578144
 40
1.0
100
AcDbArc
 50
180.0
 51
270.0
  0
ARC
  5
663
100
AcDbEntity
  8
M0
100
AcDbCircle
 10
103.799385
 20
300.478144
 40
1.0
100
AcDbArc
 50
270.0
 51
360.0
  0
LINE
  5
664
100
AcDbEntity
  8
M0
100
AcDbLine
 10
78.949384
 20
313.078143
 11
67.849386
 21
313.078143
  0
LINE
  5
665
100
AcDbEntity
  8
M0
100
AcDbLine
 10
67.849386
 20
309.078144
 11
78.949384
 21
309.078144
  0
LINE
  5
666
100
AcDbEntity
  8
M0
100
AcDbLine
 10
67.849386
 20
314.578144
 11
78.949384
 21
314.578144
  0
LINE
  5
667
100
AcDbEntity
  8
M0
100
AcDbLine
 10
64.199386
 20
325.678144
 11
64.199386
 21
330.578144
  0
LINE
  5
668
100
AcDbEntity
  8
M0
100
AcDbLine
 10
65.699387
 20
324.178144
 11
64.199386
 21
325.678144
  0
LINE
  5
669
100
AcDbEntity
  8
M0
100
AcDbLine
 10
64.199386
 20
308.578144
 11
64.199386
 21
312.078143
  0
ARC
  5
66A
100
AcDbEntity
  8
M0
100
AcDbCircle
 10
56.299385
 20
302.878144
 40
1.0
100
AcDbArc
 50
270.0
 51
315.572996
  0
ARC
  5
66B
100
AcDbEntity
  8
M0
100
AcDbCircle
 10
64.499385
 20
302.878144
 40
1.0
100
AcDbArc
 50
224.427004
 51
270.0
  0
ARC
  5
66C
100
AcDbEntity
  8
M0
100
AcDbCircle
 10
65.199385
 20
312.078144
 40
1.0
100
AcDbArc
 50
90.0
 51
180.0
  0
ARC
  5
66D
100
AcDbEntity
  8
M0
100
AcDbCircle
 10
81.599385
 20
330.578144
 40
1.0
100
AcDbArc
 50
0.0
 51
90.0
  0
LINE
  5
66E
100
AcDbEntity
  8
M0
100
AcDbLine
 10
104.799382
 20
350.078144
 11
104.799382
 21
289.078144
  0
ARC
  5
66F
100
AcDbEntity
  8
M0
100
AcDbCircle
 10
90.499385
 20
336.278144
 40
1.0
100
AcDbArc
 50
90.0
 51
135.572996
  0
LINE
  5
670
100
AcDbEntity
  8
M0
100
AcDbLine
 10
77.499386
 20
337.278143
 11
78.699384
 21
337.278143
  0
LINE
  5
671
100
AcDbEntity
  8
M0
100
AcDbLine
 10
90.499386
 20
301.878144
 11
91.699384
 21
301.878144
  0
LINE
  5
672
100
AcDbEntity
  8
M0
100
AcDbLine
 10
82.299385
 20
301.878144
 11
81.099387
 21
301.878144
  0
LINE
  5
673
100
AcDbEntity
  8
M0
100
AcDbLine
 10
102.499388
 20
336.678143
 11
94.699386
 21
336.678143
  0
LINE
  5
674
100
AcDbEntity
  8
M0
100
AcDbLine
 10
69.299385
 20
337.278143
 11
68.099387
 21
337.278143
  0
LINE
  5
675
100
AcDbEntity
  8
M0
100
AcDbLine
 10
81.099387
 20
290.578144
 11
91.699384
 21
290.578144
  0
LINE
  5
676
100
AcDbEntity
  8
M0
100
AcDbLine
 10
78.699384
 20
348.578145
 11
68.099387
 21
348.578145
  0
ARC
  5
677
100
AcDbEntity
  8
M0
100
AcDbCircle
 10
43.299385
 20
338.678144
 40
1.0
100
AcDbArc
 50
0.0
 51
90.0
  0
ARC
  5
678
100
AcDbEntity
  8
M0
100
AcDbCircle
 10
43.299385
 20
314.878144
 40
1.0
100
AcDbArc
 50
0.0
 51
90.0
  0
ARC
  5
679
100
AcDbEntity
  8
M0
100
AcDbCircle
 10
42.999385
 20
324.278144
 40
1.0
100
AcDbArc
 50
180.0
 51
270.0
  0
ARC
  5
67A
100
AcDbEntity
  8
M0
100
AcDbCircle
 10
42.999385
 20
338.678144
 40
1.0
100
AcDbArc
 50
90.0
 51
180.0
  0
ARC
  5
67B
100
AcDbEntity
  8
M0
100
AcDbCircle
 10
103.499385
 20
300.478144
 40
1.0
100
AcDbArc
 50
180.0
 51
270.0
  0
ARC
  5
67C
100
AcDbEntity
  8
M0
100
AcDbCircle
 10
103.499385
 20
324.278144
 40
1.0
100
AcDbArc
 50
180.0
 51
270.0
  0
ARC
  5
67D
100
AcDbEntity
  8
M0
100
AcDbCircle
 10
43.299385
 20
300.478144
 40
1.0
100
AcDbArc
 50
270.0
 51
360.0
  0
ARC
  5
67E
100
AcDbEntity
  8
M0
100
AcDbCircle
 10
43.299385
 20
324.278144
 40
1.0
100
AcDbArc
 50
270.0
 51
360.0
  0
ARC
  5
67F
100
AcDbEntity
  8
M0
100
AcDbCircle
 10
42.999385
 20
314.878144
 40
1.0
100
AcDbArc
 50
90.0
 51
180.0
  0
ARC
  5
680
100
AcDbEntity
  8
M0
100
AcDbCircle
 10
42.999385
 20
300.478144
 40
1.0
100
AcDbArc
 50
180.0
 51
270.0
  0
LINE
  5
681
100
AcDbEntity
  8
M0
100
AcDbLine
 10
90.499386
 20
337.278143
 11
91.699384
 21
337.278143
  0
LINE
  5
682
100
AcDbEntity
  8
M0
100
AcDbLine
 10
44.299385
 20
323.278144
 11
44.299385
 21
315.878144
  0
LINE
  5
683
100
AcDbEntity
  8
M0
100
AcDbLine
 10
53.599385
 20
317.078144
 11
53.599385
 21
316.078144
  0
LINE
  5
684
100
AcDbEntity
  8
M0
100
AcDbLine
 10
47.299386
 20
315.878144
 11
47.299386
 21
323.278144
  0
LINE
  5
685
100
AcDbEntity
  8
M0
100
AcDbLine
 10
44.299385
 20
315.878144
 11
47.299386
 21
315.878144
  0
LINE
  5
686
100
AcDbEntity
  8
M0
100
AcDbLine
 10
50.699385
 20
315.578144
 11
50.699385
 21
323.578144
  0
LINE
  5
687
100
AcDbEntity
  8
M0
100
AcDbLine
 10
52.699385
 20
323.578144
 11
50.699385
 21
323.578144
  0
LINE
  5
688
100
AcDbEntity
  8
M0
100
AcDbLine
 10
53.599385
 20
323.078144
 11
53.599385
 21
322.078144
  0
LINE
  5
689
100
AcDbEntity
  8
M0
100
AcDbLine
 10
52.699385
 20
315.578144
 11
50.699385
 21
315.578144
  0
ARC
  5
68A
100
AcDbEntity
  8
M0
100
AcDbCircle
 10
103.499385
 20
338.678144
 40
1.0
100
AcDbArc
 50
90.0
 51
180.0
  0
ARC
  5
68B
100
AcDbEntity
  8
M0
100
AcDbCircle
 10
103.799385
 20
314.878144
 40
1.0
100
AcDbArc
 50
0.0
 51
90.0
  0
LINE
  5
68C
100
AcDbEntity
  8
M0
100
AcDbLine
 10
91.699384
 20
348.578145
 11
81.099387
 21
348.578145
  0
ARC
  5
68D
100
AcDbEntity
  8
M0
100
AcDbCircle
 10
103.499385
 20
314.878144
 40
1.0
100
AcDbArc
 50
90.0
 51
180.0
  0
LINE
  5
68E
100
AcDbEntity
  8
M0
100
AcDbLine
 10
63.999386
 20
324.878144
 11
64.199386
 21
324.878144
  0
LINE
  5
68F
100
AcDbEntity
  8
M0
100
AcDbLine
 10
47.299386
 20
323.278144
 11
44.299385
 21
323.278144
  0
LINE
  5
690
100
AcDbEntity
  8
M0
100
AcDbLine
 10
82.799386
 20
314.278143
 11
82.599386
 21
314.278143
  0
LINE
  5
691
100
AcDbEntity
  8
M0
100
AcDbLine
 10
63.999386
 20
314.278143
 11
64.199386
 21
314.278143
  0
LINE
  5
692
100
AcDbEntity
  8
M0
100
AcDbLine
 10
68.349384
 20
330.578144
 11
68.349384
 21
324.678144
  0
LINE
  5
693
100
AcDbEntity
  8
M0
100
AcDbLine
 10
78.449387
 20
330.578144
 11
78.449387
 21
324.678144
  0
LINE
  5
694
100
AcDbEntity
  8
M0
100
AcDbLine
 10
67.849386
 20
316.328144
 11
67.849386
 21
308.078144
  0
LINE
  5
695
100
AcDbEntity
  8
M0
100
AcDbLine
 10
67.599386
 20
316.828144
 11
67.849386
 21
316.328144
  0
LINE
  5
696
100
AcDbEntity
  8
M0
100
AcDbLine
 10
79.199385
 20
316.828144
 11
78.949384
 21
316.328144
  0
LINE
  5
697
100
AcDbEntity
  8
M0
100
AcDbLine
 10
79.199385
 20
322.328144
 11
79.199385
 21
316.828144
  0
LINE
  5
698
100
AcDbEntity
  8
M0
100
AcDbLine
 10
78.949384
 20
324.178144
 11
78.949384
 21
322.828144
  0
LINE
  5
699
100
AcDbEntity
  8
M0
100
AcDbLine
 10
78.949384
 20
316.328144
 11
78.949384
 21
308.078144
  0
LINE
  5
69A
100
AcDbEntity
  8
M0
100
AcDbLine
 10
65.199386
 20
313.078143
 11
65.699387
 21
313.078143
  0
LINE
  5
69B
100
AcDbEntity
  8
M0
100
AcDbLine
 10
67.599386
 20
322.328144
 11
67.599386
 21
316.828144
  0
LINE
  5
69C
100
AcDbEntity
  8
M0
100
AcDbLine
 10
65.699387
 20
313.078143
 11
65.699387
 21
324.178144
  0
LINE
  5
69D
100
AcDbEntity
  8
M0
100
AcDbLine
 10
67.849386
 20
322.828144
 11
67.599386
 21
322.328144
  0
LINE
  5
69E
100
AcDbEntity
  8
M0
100
AcDbLine
 10
67.849386
 20
324.178144
 11
67.849386
 21
322.828144
  0
LINE
  5
69F
100
AcDbEntity
  8
M0
100
AcDbLine
 10
55.099385
 20
290.578144
 11
65.699387
 21
290.578144
  0
LINE
  5
6A0
100
AcDbEntity
  8
M0
100
AcDbLine
 10
64.499385
 20
301.878144
 11
65.699387
 21
301.878144
  0
LINE
  5
6A1
100
AcDbEntity
  8
M0
100
AcDbLine
 10
82.599386
 20
308.578144
 11
82.599386
 21
312.078143
  0
LINE
  5
6A2
100
AcDbEntity
  8
M0
100
AcDbLine
 10
56.299385
 20
301.878144
 11
55.099385
 21
301.878144
  0
LINE
  5
6A3
100
AcDbEntity
  8
M0
100
AcDbLine
 10
81.599384
 20
313.078143
 11
81.099387
 21
313.078143
  0
LINE
  5
6A4
100
AcDbEntity
  8
M0
100
AcDbLine
 10
81.099387
 20
313.078143
 11
81.099387
 21
324.178144
  0
LINE
  5
6A5
100
AcDbEntity
  8
M0
100
AcDbLine
 10
65.199386
 20
331.578144
 11
67.349385
 21
331.578144
  0
LINE
  5
6A6
100
AcDbEntity
  8
M0
100
AcDbLine
 10
78.949384
 20
322.828144
 11
79.199385
 21
322.328144
  0
LINE
  5
6A7
100
AcDbEntity
  8
M0
100
AcDbLine
 10
82.599386
 20
325.678144
 11
82.599386
 21
330.578144
  0
LINE
  5
6A8
100
AcDbEntity
  8
M0
100
AcDbLine
 10
81.099387
 20
324.178144
 11
82.599386
 21
325.678144
  0
LINE
  5
6A9
100
AcDbEntity
  8
M0
100
AcDbLine
 10
65.199385
 20
307.578143
 11
81.599384
 21
307.578143
  0
LINE
  5
6AA
100
AcDbEntity
  8
M0
100
AcDbLine
 10
81.599384
 20
331.578144
 11
79.449385
 21
331.578144
  0
ELLIPSE
  5
6AB
100
AcDbEntity
  8
M0
100
AcDbEllipse
 10
69.099385
 20
354.49481
 11
1.0
 21
0.0
210
0.0
220
0.0
230
1.0
 40
0.416667
 41
3.141592653589793
 42
4.71238898038469
  0
ELLIPSE
  5
6AC
100
AcDbEntity
  8
M0
100
AcDbEllipse
 10
77.699385
 20
354.49481
 11
1.0
 21
0.0
210
0.0
220
0.0
230
1.0
 40
0.416667
 41
4.71238898038469
 42
6.283185307179586
  0
LINE
  5
6AD
100
AcDbEntity
  8
M0
100
AcDbLine
 10
77.699385
 20
354.078145
 11
69.099385
 21
354.078145
  0
LINE
  5
6AE
100
AcDbEntity
  8
M0
100
AcDbLine
 10
69.099385
 20
362.578145
 11
77.699385
 21
362.578145
  0
LINE
  5
6AF
100
AcDbEntity
  8
M0
100
AcDbLine
 10
55.099385
 20
350.578143
 11
65.699387
 21
350.578143
  0
LINE
  5
6B0
100
AcDbEntity
  8
M0
100
AcDbLine
 10
68.099387
 20
350.578143
 11
78.699384
 21
350.578143
  0
LINE
  5
6B1
100
AcDbEntity
  8
M0
100
AcDbLine
 10
68.099387
 20
361.578144
 11
68.099387
 21
336.978144
  0
LINE
  5
6B2
100
AcDbEntity
  8
M0
100
AcDbLine
 10
78.699384
 20
352.578143
 11
68.099387
 21
352.578143
  0
LINE
  5
6B3
100
AcDbEntity
  8
M0
100
AcDbLine
 10
83.149385
 20
284.578143
 11
83.149385
 21
285.078144
  0
LINE
  5
6B4
100
AcDbEntity
  8
M0
100
AcDbLine
 10
89.649387
 20
287.078145
 11
89.649387
 21
285.078144
  0
LINE
  5
6B5
100
AcDbEntity
  8
M0
100
AcDbLine
 10
82.399387
 20
284.078142
 11
90.399385
 21
284.078142
  0
LINE
  5
6B6
100
AcDbEntity
  8
M0
100
AcDbLine
 10
83.149385
 20
285.078144
 11
83.149385
 21
287.078145
  0
LINE
  5
6B7
100
AcDbEntity
  8
M0
100
AcDbLine
 10
91.399386
 20
285.078144
 11
91.399386
 21
288.578144
  0
LINE
  5
6B8
100
AcDbEntity
  8
M0
100
AcDbLine
 10
91.399386
 20
288.578144
 11
91.699384
 21
288.578144
  0
LINE
  5
6B9
100
AcDbEntity
  8
M0
100
AcDbLine
 10
43.299385
 20
291.878144
 11
42.999386
 21
291.878144
  0
LINE
  5
6BA
100
AcDbEntity
  8
M0
100
AcDbLine
 10
55.399386
 20
288.578144
 11
55.099385
 21
288.578144
  0
LINE
  5
6BB
100
AcDbEntity
  8
M0
100
AcDbLine
 10
90.399384
 20
290.578144
 11
90.399384
 21
289.578142
  0
LINE
  5
6BC
100
AcDbEntity
  8
M0
100
AcDbLine
 10
42.999386
 20
347.278143
 11
43.299385
 21
347.278143
  0
LINE
  5
6BD
100
AcDbEntity
  8
M0
100
AcDbLine
 10
64.399386
 20
288.078143
 11
64.399386
 21
290.578144
  0
LINE
  5
6BE
100
AcDbEntity
  8
M0
100
AcDbLine
 10
65.699387
 20
287.078145
 11
65.399386
 21
287.078145
  0
LINE
  5
6BF
100
AcDbEntity
  8
M0
100
AcDbLine
 10
89.649387
 20
285.078144
 11
89.649387
 21
284.578143
  0
LINE
  5
6C0
100
AcDbEntity
  8
M0
100
AcDbLine
 10
91.699384
 20
350.578143
 11
81.099387
 21
350.578143
  0
LINE
  5
6C1
100
AcDbEntity
  8
M0
100
AcDbLine
 10
82.399387
 20
288.078143
 11
82.399387
 21
290.578144
  0
LINE
  5
6C2
100
AcDbEntity
  8
M0
100
AcDbLine
 10
56.399386
 20
290.578144
 11
56.399386
 21
289.578142
  0
LINE
  5
6C3
100
AcDbEntity
  8
M0
100
AcDbLine
 10
78.699384
 20
287.078145
 11
68.099387
 21
287.078145
  0
LINE
  5
6C4
100
AcDbEntity
  8
M0
100
AcDbLine
 10
81.399385
 20
287.078145
 11
81.099387
 21
287.078145
  0
ARC
  5
6C5
100
AcDbEntity
  8
M0
100
AcDbCircle
 10
90.149385
 20
284.578144
 40
0.5
100
AcDbArc
 50
180.0
 51
270.0
  0
ARC
  5
6C6
100
AcDbEntity
  8
M0
100
AcDbCircle
 10
82.649385
 20
284.578144
 40
0.5
100
AcDbArc
 50
270.0
 51
360.0
  0
ARC
  5
6C7
100
AcDbEntity
  8
M0
100
AcDbCircle
 10
86.399385
 20
287.078144
 40
3.25
100
AcDbArc
 50
0.0
 51
180.0
  0
ARC
  5
6C8
100
AcDbEntity
  8
M0
100
AcDbCircle
 10
69.099385
 20
361.578144
 40
1.0
100
AcDbArc
 50
90.0
 51
180.0
  0
ARC
  5
6C9
100
AcDbEntity
  8
M0
100
AcDbCircle
 10
77.699385
 20
361.578144
 40
1.0
100
AcDbArc
 50
0.0
 51
90.0
  0
ARC
  5
6CA
100
AcDbEntity
  8
M0
100
AcDbCircle
 10
90.399385
 20
285.078144
 40
1.0
100
AcDbArc
 50
270.0
 51
360.0
  0
ARC
  5
6CB
100
AcDbEntity
  8
M0
100
AcDbCircle
 10
56.649385
 20
284.578144
 40
0.5
100
AcDbArc
 50
270.0
 51
360.0
  0
ARC
  5
6CC
100
AcDbEntity
  8
M0
100
AcDbCircle
 10
64.399385
 20
285.078144
 40
1.0
100
AcDbArc
 50
270.0
 51
360.0
  0
ARC
  5
6CD
100
AcDbEntity
  8
M0
100
AcDbCircle
 10
82.399385
 20
285.078144
 40
1.0
100
AcDbArc
 50
180.0
 51
270.0
  0
ARC
  5
6CE
100
AcDbEntity
  8
M0
100
AcDbCircle
 10
60.399385
 20
287.078144
 40
3.25
100
AcDbArc
 50
0.0
 51
180.0
  0
LINE
  5
6CF
100
AcDbEntity
  8
M0
100
AcDbLine
 10
57.149386
 20
287.078144
 11
57.149386
 21
284.578143
  0
LINE
  5
6D0
100
AcDbEntity
  8
M0
100
AcDbLine
 10
65.399386
 20
287.078145
 11
65.399386
 21
285.078144
  0
LINE
  5
6D1
100
AcDbEntity
  8
M0
100
AcDbLine
 10
81.399385
 20
287.078145
 11
81.399385
 21
285.078144
  0
LINE
  5
6D2
100
AcDbEntity
  8
M0
100
AcDbLine
 10
63.649386
 20
284.578143
 11
63.649386
 21
287.078144
  0
ARC
  5
6D3
100
AcDbEntity
  8
M0
100
AcDbCircle
 10
81.399385
 20
288.078144
 40
1.0
100
AcDbArc
 50
270.0
 51
360.0
  0
ARC
  5
6D4
100
AcDbEntity
  8
M0
100
AcDbCircle
 10
55.399385
 20
289.578144
 40
1.0
100
AcDbArc
 50
270.0
 51
360.0
  0
ARC
  5
6D5
100
AcDbEntity
  8
M0
100
AcDbCircle
 10
64.149385
 20
284.578144
 40
0.5
100
AcDbArc
 50
180.0
 51
270.0
  0
ARC
  5
6D6
100
AcDbEntity
  8
M0
100
AcDbCircle
 10
65.399385
 20
288.078144
 40
1.0
100
AcDbArc
 50
180.0
 51
270.0
  0
LINE
  5
6D7
100
AcDbEntity
  8
M0
100
AcDbLine
 10
55.399386
 20
285.078144
 11
55.399386
 21
288.578144
  0
ARC
  5
6D8
100
AcDbEntity
  8
M0
100
AcDbCircle
 10
91.399385
 20
289.578144
 40
1.0
100
AcDbArc
 50
180.0
 51
270.0
  0
ARC
  5
6D9
100
AcDbEntity
  8
M0
100
AcDbCircle
 10
42.999385
 20
346.278144
 40
1.0
100
AcDbArc
 50
90.0
 51
180.0
  0
LINE
  5
6DA
100
AcDbEntity
  8
M0
100
AcDbLine
 10
54.099385
 20
284.078142
 11
46.999385
 21
284.078142
  0
LINE
  5
6DB
100
AcDbEntity
  8
M0
100
AcDbLine
 10
46.999385
 20
355.078145
 11
54.099385
 21
355.078145
  0
LINE
  5
6DC
100
AcDbEntity
  8
M0
100
AcDbLine
 10
52.699385
 20
354.078144
 11
52.699385
 21
323.078144
  0
LINE
  5
6DD
100
AcDbEntity
  8
M0
100
AcDbLine
 10
94.699386
 20
292.478144
 11
94.699386
 21
310.278144
  0
LINE
  5
6DE
100
AcDbEntity
  8
M0
100
AcDbLine
 10
94.699386
 20
328.878144
 11
94.699386
 21
346.678144
  0
ARC
  5
6DF
100
AcDbEntity
  8
M0
100
AcDbCircle
 10
42.999385
 20
292.878144
 40
1.0
100
AcDbArc
 50
180.0
 51
270.0
  0
ARC
  5
6E0
100
AcDbEntity
  8
M0
100
AcDbCircle
 10
43.299385
 20
292.878144
 40
1.0
100
AcDbArc
 50
270.0
 51
360.0
  0
LINE
  5
6E1
100
AcDbEntity
  8
M0
100
AcDbLine
 10
65.699387
 20
338.478144
 11
68.099387
 21
338.478144
  0
ARC
  5
6E2
100
AcDbEntity
  8
M0
100
AcDbCircle
 10
52.699385
 20
292.478144
 40
0.6
100
AcDbArc
 50
180.0
 51
270.0
  0
ARC
  5
6E3
100
AcDbEntity
  8
M0
100
AcDbCircle
 10
94.099385
 20
346.678144
 40
0.6
100
AcDbArc
 50
0.0
 51
90.0
  0
ARC
  5
6E4
100
AcDbEntity
  8
M0
100
AcDbCircle
 10
43.299385
 20
346.278144
 40
1.0
100
AcDbArc
 50
0.0
 51
90.0
  0
ARC
  5
6E5
100
AcDbEntity
  8
M0
100
AcDbCircle
 10
52.699385
 20
346.678144
 40
0.6
100
AcDbArc
 50
90.0
 51
180.0
  0
LINE
  5
6E6
100
AcDbEntity
  8
M0
100
AcDbLine
 10
55.099385
 20
302.178143
 11
55.099385
 21
285.078144
  0
LINE
  5
6E7
100
AcDbEntity
  8
M0
100
AcDbLine
 10
65.699387
 20
285.078144
 11
65.699387
 21
302.178143
  0
LINE
  5
6E8
100
AcDbEntity
  8
M0
100
AcDbLine
 10
65.699387
 20
300.678144
 11
66.699385
 21
300.678144
  0
LINE
  5
6E9
100
AcDbEntity
  8
M0
100
AcDbLine
 10
92.899386
 20
355.078145
 11
92.699386
 21
355.078145
  0
LINE
  5
6EA
100
AcDbEntity
  8
M0
100
AcDbLine
 10
91.699384
 20
354.078145
 11
91.699384
 21
336.978144
  0
LINE
  5
6EB
100
AcDbEntity
  8
M0
100
AcDbLine
 10
68.099387
 20
285.078144
 11
68.099387
 21
302.178143
  0
LINE
  5
6EC
100
AcDbEntity
  8
M0
100
AcDbLine
 10
65.699387
 20
354.078144
 11
65.699387
 21
336.978144
  0
LINE
  5
6ED
100
AcDbEntity
  8
M0
100
AcDbLine
 10
81.099387
 20
302.178143
 11
81.099387
 21
285.078144
  0
LINE
  5
6EE
100
AcDbEntity
  8
M0
100
AcDbLine
 10
78.699384
 20
285.078144
 11
78.699384
 21
302.178143
  0
LINE
  5
6EF
100
AcDbEntity
  8
M0
100
AcDbLine
 10
81.099387
 20
354.078144
 11
81.099387
 21
336.978144
  0
LINE
  5
6F0
100
AcDbEntity
  8
M0
100
AcDbLine
 10
78.699384
 20
336.978144
 11
78.699384
 21
361.578144
  0
LINE
  5
6F1
100
AcDbEntity
  8
M0
100
AcDbLine
 10
78.699384
 20
287.078145
 11
78.699384
 21
288.078143
  0
LINE
  5
6F2
100
AcDbEntity
  8
M0
100
AcDbLine
 10
78.699384
 20
352.078144
 11
78.699384
 21
351.078144
  0
LINE
  5
6F3
100
AcDbEntity
  8
M0
100
AcDbLine
 10
103.499383
 20
291.878144
 11
103.799388
 21
291.878144
  0
LINE
  5
6F4
100
AcDbEntity
  8
M0
100
AcDbLine
 10
103.799388
 20
347.278143
 11
103.499383
 21
347.278143
  0
LINE
  5
6F5
100
AcDbEntity
  8
M0
100
AcDbLine
 10
103.599384
 20
339.678143
 11
103.499383
 21
339.678143
  0
LINE
  5
6F6
100
AcDbEntity
  8
M0
100
AcDbLine
 10
55.099385
 20
354.078145
 11
55.099385
 21
336.978144
  0
LINE
  5
6F7
100
AcDbEntity
  8
M0
100
AcDbLine
 10
43.199385
 20
339.678143
 11
43.299385
 21
339.678143
  0
LINE
  5
6F8
100
AcDbEntity
  8
M0
100
AcDbLine
 10
103.599384
 20
299.478144
 11
103.499383
 21
299.478144
  0
LINE
  5
6F9
100
AcDbEntity
  8
M0
100
AcDbLine
 10
43.199385
 20
299.478144
 11
43.299385
 21
299.478144
  0
ARC
  5
6FA
100
AcDbEntity
  8
M0
100
AcDbCircle
 10
103.499385
 20
292.878144
 40
1.0
100
AcDbArc
 50
180.0
 51
270.0
  0
ARC
  5
6FB
100
AcDbEntity
  8
M0
100
AcDbCircle
 10
103.499385
 20
346.278144
 40
1.0
100
AcDbArc
 50
90.0
 51
180.0
  0
ARC
  5
6FC
100
AcDbEntity
  8
M0
100
AcDbCircle
 10
94.099385
 20
292.478144
 40
0.6
100
AcDbArc
 50
270.0
 51
360.0
  0
ARC
  5
6FD
100
AcDbEntity
  8
M0
100
AcDbCircle
 10
103.799385
 20
346.278144
 40
1.0
100
AcDbArc
 50
0.0
 51
90.0
  0
LINE
  5
6FE
100
AcDbEntity
  8
M0
100
AcDbLine
 10
52.099386
 20
292.478143
 11
52.099386
 21
310.278144
  0
LINE
  5
6FF
100
AcDbEntity
  8
M0
100
AcDbLine
 10
52.099386
 20
328.878144
 11
52.099386
 21
346.678144
  0
ARC
  5
700
100
AcDbEntity
  8
M0
100
AcDbCircle
 10
103.799385
 20
292.878144
 40
1.0
100
AcDbArc
 50
270.0
 51
360.0
  0
LINE
  5
701
100
AcDbEntity
  8
M0
100
AcDbLine
 10
44.299385
 20
314.878144
 11
44.299385
 21
292.878144
  0
LINE
  5
702
100
AcDbEntity
  8
M0
100
AcDbLine
 10
95.599387
 20
293.878144
 11
95.599387
 21
294.878145
  0
LINE
  5
703
100
AcDbEntity
  8
M0
100
AcDbLine
 10
101.599388
 20
293.878144
 11
95.599387
 21
293.878144
  0
LINE
  5
704
100
AcDbEntity
  8
M0
100
AcDbLine
 10
101.599388
 20
294.878145
 11
101.599388
 21
293.878144
  0
LINE
  5
705
100
AcDbEntity
  8
M0
100
AcDbLine
 10
52.099386
 20
336.678143
 11
44.299385
 21
336.678143
  0
LINE
  5
706
100
AcDbEntity
  8
M0
100
AcDbLine
 10
95.599387
 20
345.278145
 11
101.599388
 21
345.278145
  0
LINE
  5
707
100
AcDbEntity
  8
M0
100
AcDbLine
 10
95.599387
 20
344.278144
 11
95.599387
 21
345.278145
  0
LINE
  5
708
100
AcDbEntity
  8
M0
100
AcDbLine
 10
101.599388
 20
345.278145
 11
101.599388
 21
344.278144
  0
LINE
  5
709
100
AcDbEntity
  8
M0
100
AcDbLine
 10
44.299385
 20
302.478143
 11
52.099386
 21
302.478143
  0
LINE
  5
70A
100
AcDbEntity
  8
M0
100
AcDbLine
 10
94.699386
 20
302.478143
 11
102.499388
 21
302.478143
  0
LINE
  5
70B
100
AcDbEntity
  8
M0
100
AcDbLine
 10
56.299385
 20
337.278143
 11
55.099385
 21
337.278143
  0
LINE
  5
70C
100
AcDbEntity
  8
M0
100
AcDbLine
 10
64.499385
 20
337.278143
 11
65.699387
 21
337.278143
  0
LINE
  5
70D
100
AcDbEntity
  8
M0
100
AcDbLine
 10
65.699387
 20
348.578145
 11
55.099385
 21
348.578145
  0
ARC
  5
70E
100
AcDbEntity
  8
M0
100
AcDbCircle
 10
69.299385
 20
336.278144
 40
1.0
100
AcDbArc
 50
44.427004
 51
90.0
  0
LINE
  5
70F
100
AcDbEntity
  8
M0
100
AcDbLine
 10
82.299385
 20
337.278143
 11
81.099387
 21
337.278143
  0
ARC
  5
710
100
AcDbEntity
  8
M0
100
AcDbCircle
 10
90.499385
 20
302.878144
 40
1.0
100
AcDbArc
 50
224.427004
 51
270.0
  0
ARC
  5
711
100
AcDbEntity
  8
M0
100
AcDbCircle
 10
77.499385
 20
336.278144
 40
1.0
100
AcDbArc
 50
90.0
 51
135.572996
  0
LINE
  5
712
100
AcDbEntity
  8
M0
100
AcDbLine
 10
77.499386
 20
301.878144
 11
78.699384
 21
301.878144
  0
LINE
  5
713
100
AcDbEntity
  8
M0
100
AcDbLine
 10
69.299385
 20
301.878144
 11
68.099387
 21
301.878144
  0
LINE
  5
714
100
AcDbEntity
  8
M0
100
AcDbLine
 10
68.099387
 20
290.578144
 11
78.699384
 21
290.578144
  0
LINE
  5
715
100
AcDbEntity
  8
M0
100
AcDbLine
 10
45.199386
 20
345.278145
 11
51.199386
 21
345.278145
  0
LINE
  5
716
100
AcDbEntity
  8
M0
100
AcDbLine
 10
45.199386
 20
344.278144
 11
45.199386
 21
345.278145
  0
LINE
  5
717
100
AcDbEntity
  8
M0
100
AcDbLine
 10
51.199386
 20
345.278145
 11
51.199386
 21
344.278144
  0
ARC
  5
718
100
AcDbEntity
  8
M0
100
AcDbCircle
 10
82.299385
 20
336.278144
 40
1.0
100
AcDbArc
 50
44.427004
 51
90.0
  0
ARC
  5
719
100
AcDbEntity
  8
M0
100
AcDbCircle
 10
64.499385
 20
336.278144
 40
1.0
100
AcDbArc
 50
90.0
 51
135.572996
  0
ARC
  5
71A
100
AcDbEntity
  8
M0
100
AcDbCircle
 10
77.499385
 20
302.878144
 40
1.0
100
AcDbArc
 50
224.427004
 51
270.0
  0
ARC
  5
71B
100
AcDbEntity
  8
M0
100
AcDbCircle
 10
82.299385
 20
302.878144
 40
1.0
100
AcDbArc
 50
270.0
 51
315.572996
  0
ARC
  5
71C
100
AcDbEntity
  8
M0
100
AcDbCircle
 10
56.299385
 20
336.278144
 40
1.0
100
AcDbArc
 50
44.427004
 51
90.0
  0
ARC
  5
71D
100
AcDbEntity
  8
M0
100
AcDbCircle
 10
69.299385
 20
302.878144
 40
1.0
100
AcDbArc
 50
270.0
 51
315.572996
  0
LINE
  5
71E
100
AcDbEntity
  8
M0
100
AcDbLine
 10
51.199386
 20
293.878144
 11
45.199386
 21
293.878144
  0
LINE
  5
71F
100
AcDbEntity
  8
M0
100
AcDbLine
 10
51.199386
 20
294.878145
 11
51.199386
 21
293.878144
  0
LINE
  5
720
100
AcDbEntity
  8
M0
100
AcDbLine
 10
45.199386
 20
293.878144
 11
45.199386
 21
294.878145
  0
LINE
  5
721
100
AcDbEntity
  8
M0
100
AcDbLine
 10
90.116847
 20
363.496135
 11
90.117939
 21
363.459675
  0
LINE
  5
722
100
AcDbEntity
  8
M0
100
AcDbLine
 10
90.117939
 20
363.459675
 11
90.121187
 21
363.351396
  0
LINE
  5
723
100
AcDbEntity
  8
M0
100
AcDbLine
 10
90.121187
 20
363.351396
 11
90.126492
 21
363.174598
  0
LINE
  5
724
100
AcDbEntity
  8
M0
100
AcDbLine
 10
90.126492
 20
363.174598
 11
90.133689
 21
362.934644
  0
LINE
  5
725
100
AcDbEntity
  8
M0
100
AcDbLine
 10
90.133689
 20
362.934644
 11
90.142567
 21
362.638826
  0
LINE
  5
726
100
AcDbEntity
  8
M0
100
AcDbLine
 10
90.142567
 20
362.638826
 11
90.152845
 21
362.296137
  0
LINE
  5
727
100
AcDbEntity
  8
M0
100
AcDbLine
 10
90.152845
 20
362.296137
 11
90.164222
 21
361.916984
  0
LINE
  5
728
100
AcDbEntity
  8
M0
100
AcDbLine
 10
90.164222
 20
361.916984
 11
90.176344
 21
361.512891
  0
LINE
  5
729
100
AcDbEntity
  8
M0
100
AcDbLine
 10
90.176344
 20
361.512891
 11
90.188846
 21
361.096135
  0
LINE
  5
72A
100
AcDbEntity
  8
M0
100
AcDbLine
 10
56.609925
 20
361.096135
 11
56.623971
 21
361.564352
  0
LINE
  5
72B
100
AcDbEntity
  8
M0
100
AcDbLine
 10
56.623971
 20
361.564352
 11
56.637479
 21
362.014576
  0
LINE
  5
72C
100
AcDbEntity
  8
M0
100
AcDbLine
 10
56.637479
 20
362.014576
 11
56.649927
 21
362.429506
  0
LINE
  5
72D
100
AcDbEntity
  8
M0
100
AcDbLine
 10
56.649927
 20
362.429506
 11
56.660836
 21
362.793191
  0
LINE
  5
72E
100
AcDbEntity
  8
M0
100
AcDbLine
 10
56.660836
 20
362.793191
 11
56.66979
 21
363.091661
  0
LINE
  5
72F
100
AcDbEntity
  8
M0
100
AcDbLine
 10
56.66979
 20
363.091661
 11
56.676445
 21
363.313447
  0
LINE
  5
730
100
AcDbEntity
  8
M0
100
AcDbLine
 10
56.676445
 20
363.313447
 11
56.680541
 21
363.450019
  0
LINE
  5
731
100
AcDbEntity
  8
M0
100
AcDbLine
 10
56.680541
 20
363.450019
 11
56.681925
 21
363.496135
  0
LINE
  5
732
100
AcDbEntity
  8
M0
  6
DASHDOT
100
AcDbLine
 10
59.899385
 20
295.878144
 11
60.899385
 21
295.878144
  0
LINE
  5
733
100
AcDbEntity
  8
M0
  6
DASHDOT
100
AcDbLine
 10
60.399385
 20
295.378144
 11
60.399385
 21
296.378144
  0
LINE
  5
734
100
AcDbEntity
  8
M0
  6
DASHDOT
100
AcDbLine
 10
73.399382
 20
295.378144
 11
73.399382
 21
296.378144
  0
LINE
  5
735
100
AcDbEntity
  8
M0
  6
DASHDOT
100
AcDbLine
 10
72.899382
 20
295.878144
 11
73.899382
 21
295.878144
  0
LINE
  5
736
100
AcDbEntity
  8
M0
  6
DASHDOT
100
AcDbLine
 10
86.399382
 20
295.378144
 11
86.399382
 21
296.378144
  0
LINE
  5
737
100
AcDbEntity
  8
M0
  6
DASHDOT
100
AcDbLine
 10
85.899382
 20
295.878144
 11
86.899382
 21
295.878144
  0
LINE
  5
738
100
AcDbEntity
  8
M0
  6
DASHDOT
100
AcDbLine
 10
86.399382
 20
343.778144
 11
86.399382
 21
342.778144
  0
LINE
  5
739
100
AcDbEntity
  8
M0
  6
DASHDOT
100
AcDbLine
 10
85.899382
 20
343.278144
 11
86.899382
 21
343.278144
  0
LINE
  5
73A
100
AcDbEntity
  8
M0
  6
DASHDOT
100
AcDbLine
 10
72.899382
 20
343.278144
 11
73.899382
 21
343.278144
  0
LINE
  5
73B
100
AcDbEntity
  8
M0
  6
DASHDOT
100
AcDbLine
 10
60.399385
 20
343.778144
 11
60.399385
 21
342.778144
  0
LINE
  5
73C
100
AcDbEntity
  8
M0
  6
DASHDOT
100
AcDbLine
 10
73.399382
 20
343.778144
 11
73.399382
 21
342.778144
  0
LINE
  5
73D
100
AcDbEntity
  8
M0
  6
DASHDOT
100
AcDbLine
 10
59.899385
 20
343.278144
 11
60.899385
 21
343.278144
  0
LINE
  5
73E
100
AcDbEntity
  8
M0
  6
DASHDOT
100
AcDbLine
 10
99.099385
 20
340.478144
 11
98.099385
 21
340.478144
  0
LINE
  5
73F
100
AcDbEntity
  8
M0
  6
DASHDOT
100
AcDbLine
 10
98.599385
 20
339.978144
 11
98.599385
 21
340.978144
  0
LINE
  5
740
100
AcDbEntity
  8
M0
  6
DASHDOT
100
AcDbLine
 10
99.099385
 20
332.878144
 11
98.099385
 21
332.878144
  0
LINE
  5
741
100
AcDbEntity
  8
M0
  6
DASHDOT
100
AcDbLine
 10
98.599385
 20
332.378144
 11
98.599385
 21
333.378144
  0
LINE
  5
742
100
AcDbEntity
  8
M0
  6
DASHDOT
100
AcDbLine
 10
99.099385
 20
306.278144
 11
98.099385
 21
306.278144
  0
LINE
  5
743
100
AcDbEntity
  8
M0
  6
DASHDOT
100
AcDbLine
 10
98.599385
 20
305.778144
 11
98.599385
 21
306.778144
  0
LINE
  5
744
100
AcDbEntity
  8
M0
  6
DASHDOT
100
AcDbLine
 10
99.099385
 20
298.678144
 11
98.099385
 21
298.678144
  0
LINE
  5
745
100
AcDbEntity
  8
M0
  6
DASHDOT
100
AcDbLine
 10
98.599385
 20
298.178144
 11
98.599385
 21
299.178144
  0
LINE
  5
746
100
AcDbEntity
  8
M0
  6
DASHDOT
100
AcDbLine
 10
47.699385
 20
332.878144
 11
48.699385
 21
332.878144
  0
LINE
  5
747
100
AcDbEntity
  8
M0
  6
DASHDOT
100
AcDbLine
 10
48.199385
 20
332.378144
 11
48.199385
 21
333.378144
  0
LINE
  5
748
100
AcDbEntity
  8
M0
  6
DASHDOT
100
AcDbLine
 10
47.699385
 20
340.478144
 11
48.699385
 21
340.478144
  0
LINE
  5
749
100
AcDbEntity
  8
M0
  6
DASHDOT
100
AcDbLine
 10
48.199385
 20
339.978144
 11
48.199385
 21
340.978144
  0
LINE
  5
74A
100
AcDbEntity
  8
M0
  6
DASHDOT
100
AcDbLine
 10
47.699385
 20
298.678144
 11
48.699385
 21
298.678144
  0
LINE
  5
74B
100
AcDbEntity
  8
M0
  6
DASHDOT
100
AcDbLine
 10
48.199385
 20
298.178144
 11
48.199385
 21
299.178144
  0
LINE
  5
74C
100
AcDbEntity
  8
M0
  6
DASHDOT
100
AcDbLine
 10
47.699385
 20
306.278144
 11
48.699385
 21
306.278144
  0
LINE
  5
74D
100
AcDbEntity
  8
M0
  6
DASHDOT
100
AcDbLine
 10
48.199385
 20
305.778144
 11
48.199385
 21
306.778144
  0
LINE
  5
74E
100
AcDbEntity
  8
M0
  6
DASHDOT
100
AcDbLine
 10
59.899385
 20
287.078144
 11
60.899385
 21
287.078144
  0
LINE
  5
74F
100
AcDbEntity
  8
M0
  6
DASHDOT
100
AcDbLine
 10
60.399385
 20
286.578144
 11
60.399385
 21
287.578144
  0
LINE
  5
750
100
AcDbEntity
  8
M0
  6
DASHDOT
100
AcDbLine
 10
85.899385
 20
287.078144
 11
86.899385
 21
287.078144
  0
LINE
  5
751
100
AcDbEntity
  8
M0
  6
DASHDOT
100
AcDbLine
 10
86.399385
 20
286.578144
 11
86.399385
 21
287.578144
  0
LINE
  5
752
100
AcDbEntity
  8
M0
  6
DASHDOT
100
AcDbLine
 10
83.799385
 20
358.178144
 11
84.799385
 21
358.178144
  0
LINE
  5
753
100
AcDbEntity
  8
M0
  6
DASHDOT
100
AcDbLine
 10
84.299385
 20
357.678144
 11
84.299385
 21
358.678144
  0
LINE
  5
754
100
AcDbEntity
  8
M0
  6
DASHDOT
100
AcDbLine
 10
72.899385
 20
357.778144
 11
73.899385
 21
357.778144
  0
LINE
  5
755
100
AcDbEntity
  8
M0
  6
DASHDOT
100
AcDbLine
 10
73.399385
 20
357.278144
 11
73.399385
 21
358.278144
  0
LINE
  5
756
100
AcDbEntity
  8
M0
  6
DASHDOT
100
AcDbLine
 10
62.999385
 20
358.178144
 11
61.999385
 21
358.178144
  0
LINE
  5
757
100
AcDbEntity
  8
M0
  6
DASHDOT
100
AcDbLine
 10
62.499385
 20
357.678144
 11
62.499385
 21
358.678144
  0
ARC
  5
758
100
AcDbEntity
  8
M0
100
AcDbCircle
 10
137.699382
 20
338.778144
 40
0.5
100
AcDbArc
 50
270.0
 51
360.0
  0
LINE
  5
759
100
AcDbEntity
  8
M0
100
AcDbLine
 10
138.199382
 20
347.778144
 11
138.199382
 21
338.778144
  0
ARC
  5
75A
100
AcDbEntity
  8
M0
100
AcDbCircle
 10
137.699382
 20
347.778144
 40
0.5
100
AcDbArc
 50
0.0
 51
90.0
  0
LINE
  5
75B
100
AcDbEntity
  8
M0
100
AcDbLine
 10
128.199382
 20
347.778144
 11
128.199382
 21
338.778144
  0
ARC
  5
75C
100
AcDbEntity
  8
M0
100
AcDbCircle
 10
128.699382
 20
347.778144
 40
0.5
100
AcDbArc
 50
90.0
 51
180.0
  0
ARC
  5
75D
100
AcDbEntity
  8
M0
100
AcDbCircle
 10
128.699382
 20
338.778144
 40
0.5
100
AcDbArc
 50
180.0
 51
270.0
  0
LINE
  5
75E
100
AcDbEntity
  8
M0
100
AcDbLine
 10
128.699382
 20
338.278144
 11
137.699382
 21
338.278144
  0
LINE
  5
75F
100
AcDbEntity
  8
M0
100
AcDbLine
 10
137.699382
 20
348.278144
 11
128.699382
 21
348.278144
  0
CIRCLE
  5
760
100
AcDbEntity
  8
M0
100
AcDbCircle
 10
133.199382
 20
343.278144
 40
3.5
  0
LINE
  5
761
100
AcDbEntity
  8
M0
100
AcDbLine
 10
134.210253
 20
344.996101
 11
131.63518
 21
342.421027
  0
LINE
  5
762
100
AcDbEntity
  8
M0
100
AcDbLine
 10
134.917361
 20
344.288993
 11
132.342288
 21
341.71392
  0
LINE
  5
763
100
AcDbEntity
  8
M0
100
AcDbLine
 10
132.238528
 20
344.23899
 11
134.083377
 21
342.394157
  0
ARC
  5
764
100
AcDbEntity
  8
M0
100
AcDbCircle
 10
150.699378
 20
338.778144
 40
0.5
100
AcDbArc
 50
270.0
 51
360.0
  0
LINE
  5
765
100
AcDbEntity
  8
M0
100
AcDbLine
 10
151.199378
 20
347.778144
 11
151.199378
 21
338.778144
  0
ARC
  5
766
100
AcDbEntity
  8
M0
100
AcDbCircle
 10
150.699378
 20
347.778144
 40
0.5
100
AcDbArc
 50
0.0
 51
90.0
  0
LINE
  5
767
100
AcDbEntity
  8
M0
100
AcDbLine
 10
141.199378
 20
347.778144
 11
141.199378
 21
338.778144
  0
ARC
  5
768
100
AcDbEntity
  8
M0
100
AcDbCircle
 10
141.699378
 20
347.778144
 40
0.5
100
AcDbArc
 50
90.0
 51
180.0
  0
ARC
  5
769
100
AcDbEntity
  8
M0
100
AcDbCircle
 10
141.699378
 20
338.778144
 40
0.5
100
AcDbArc
 50
180.0
 51
270.0
  0
LINE
  5
76A
100
AcDbEntity
  8
M0
100
AcDbLine
 10
141.699378
 20
338.278144
 11
150.699378
 21
338.278144
  0
LINE
  5
76B
100
AcDbEntity
  8
M0
100
AcDbLine
 10
150.699378
 20
348.278144
 11
141.699378
 21
348.278144
  0
CIRCLE
  5
76C
100
AcDbEntity
  8
M0
100
AcDbCircle
 10
146.199378
 20
343.278144
 40
3.5
  0
LINE
  5
76D
100
AcDbEntity
  8
M0
100
AcDbLine
 10
147.21025
 20
344.996101
 11
144.635177
 21
342.421027
  0
LINE
  5
76E
100
AcDbEntity
  8
M0
100
AcDbLine
 10
147.917358
 20
344.288993
 11
145.342284
 21
341.71392
  0
LINE
  5
76F
100
AcDbEntity
  8
M0
100
AcDbLine
 10
145.238525
 20
344.23899
 11
147.083373
 21
342.394157
  0
ARC
  5
770
100
AcDbEntity
  8
M0
100
AcDbCircle
 10
163.699379
 20
338.778144
 40
0.5
100
AcDbArc
 50
270.0
 51
360.0
  0
LINE
  5
771
100
AcDbEntity
  8
M0
100
AcDbLine
 10
164.199379
 20
347.778144
 11
164.199379
 21
338.778144
  0
ARC
  5
772
100
AcDbEntity
  8
M0
100
AcDbCircle
 10
163.699379
 20
347.778144
 40
0.5
100
AcDbArc
 50
0.0
 51
90.0
  0
LINE
  5
773
100
AcDbEntity
  8
M0
100
AcDbLine
 10
154.199379
 20
347.778144
 11
154.199379
 21
338.778144
  0
ARC
  5
774
100
AcDbEntity
  8
M0
100
AcDbCircle
 10
154.699379
 20
347.778144
 40
0.5
100
AcDbArc
 50
90.0
 51
180.0
  0
ARC
  5
775
100
AcDbEntity
  8
M0
100
AcDbCircle
 10
154.699379
 20
338.778144
 40
0.5
100
AcDbArc
 50
180.0
 51
270.0
  0
LINE
  5
776
100
AcDbEntity
  8
M0
100
AcDbLine
 10
154.699379
 20
338.278144
 11
163.699379
 21
338.278144
  0
LINE
  5
777
100
AcDbEntity
  8
M0
100
AcDbLine
 10
163.699379
 20
348.278144
 11
154.699379
 21
348.278144
  0
CIRCLE
  5
778
100
AcDbEntity
  8
M0
100
AcDbCircle
 10
159.199379
 20
343.278144
 40
3.5
  0
LINE
  5
779
100
AcDbEntity
  8
M0
100
AcDbLine
 10
160.21025
 20
344.996101
 11
157.635177
 21
342.421027
  0
LINE
  5
77A
100
AcDbEntity
  8
M0
100
AcDbLine
 10
160.917358
 20
344.288993
 11
158.342285
 21
341.71392
  0
LINE
  5
77B
100
AcDbEntity
  8
M0
100
AcDbLine
 10
158.238525
 20
344.23899
 11
160.083373
 21
342.394157
  0
ARC
  5
77C
100
AcDbEntity
  8
M0
100
AcDbCircle
 10
163.699379
 20
291.378144
 40
0.5
100
AcDbArc
 50
270.0
 51
360.0
  0
LINE
  5
77D
100
AcDbEntity
  8
M0
100
AcDbLine
 10
164.199379
 20
300.378144
 11
164.199379
 21
291.378144
  0
ARC
  5
77E
100
AcDbEntity
  8
M0
100
AcDbCircle
 10
163.699379
 20
300.378144
 40
0.5
100
AcDbArc
 50
0.0
 51
90.0
  0
LINE
  5
77F
100
AcDbEntity
  8
M0
100
AcDbLine
 10
154.199379
 20
300.378144
 11
154.199379
 21
291.378144
  0
ARC
  5
780
100
AcDbEntity
  8
M0
100
AcDbCircle
 10
154.699379
 20
300.378144
 40
0.5
100
AcDbArc
 50
90.0
 51
180.0
  0
ARC
  5
781
100
AcDbEntity
  8
M0
100
AcDbCircle
 10
154.699379
 20
291.378144
 40
0.5
100
AcDbArc
 50
180.0
 51
270.0
  0
LINE
  5
782
100
AcDbEntity
  8
M0
100
AcDbLine
 10
154.699379
 20
290.878144
 11
163.699379
 21
290.878144
  0
LINE
  5
783
100
AcDbEntity
  8
M0
100
AcDbLine
 10
163.699379
 20
300.878144
 11
154.699379
 21
300.878144
  0
CIRCLE
  5
784
100
AcDbEntity
  8
M0
100
AcDbCircle
 10
159.199379
 20
295.878144
 40
3.5
  0
LINE
  5
785
100
AcDbEntity
  8
M0
100
AcDbLine
 10
160.21025
 20
297.5961
 11
157.635177
 21
295.021027
  0
LINE
  5
786
100
AcDbEntity
  8
M0
100
AcDbLine
 10
160.917358
 20
296.888993
 11
158.342285
 21
294.313919
  0
LINE
  5
787
100
AcDbEntity
  8
M0
100
AcDbLine
 10
158.238525
 20
296.83899
 11
160.083373
 21
294.994156
  0
ARC
  5
788
100
AcDbEntity
  8
M0
100
AcDbCircle
 10
150.699378
 20
291.378144
 40
0.5
100
AcDbArc
 50
270.0
 51
360.0
  0
LINE
  5
789
100
AcDbEntity
  8
M0
100
AcDbLine
 10
151.199378
 20
300.378144
 11
151.199378
 21
291.378144
  0
ARC
  5
78A
100
AcDbEntity
  8
M0
100
AcDbCircle
 10
150.699378
 20
300.378144
 40
0.5
100
AcDbArc
 50
0.0
 51
90.0
  0
LINE
  5
78B
100
AcDbEntity
  8
M0
100
AcDbLine
 10
141.199378
 20
300.378144
 11
141.199378
 21
291.378144
  0
ARC
  5
78C
100
AcDbEntity
  8
M0
100
AcDbCircle
 10
141.699378
 20
300.378144
 40
0.5
100
AcDbArc
 50
90.0
 51
180.0
  0
ARC
  5
78D
100
AcDbEntity
  8
M0
100
AcDbCircle
 10
141.699378
 20
291.378144
 40
0.5
100
AcDbArc
 50
180.0
 51
270.0
  0
LINE
  5
78E
100
AcDbEntity
  8
M0
100
AcDbLine
 10
141.699378
 20
290.878144
 11
150.699378
 21
290.878144
  0
LINE
  5
78F
100
AcDbEntity
  8
M0
100
AcDbLine
 10
150.699378
 20
300.878144
 11
141.699378
 21
300.878144
  0
CIRCLE
  5
790
100
AcDbEntity
  8
M0
100
AcDbCircle
 10
146.199378
 20
295.878144
 40
3.5
  0
LINE
  5
791
100
AcDbEntity
  8
M0
100
AcDbLine
 10
147.21025
 20
297.5961
 11
144.635177
 21
295.021027
  0
LINE
  5
792
100
AcDbEntity
  8
M0
100
AcDbLine
 10
147.917358
 20
296.888993
 11
145.342284
 21
294.313919
  0
LINE
  5
793
100
AcDbEntity
  8
M0
100
AcDbLine
 10
145.238525
 20
296.83899
 11
147.083373
 21
294.994156
  0
ARC
  5
794
100
AcDbEntity
  8
M0
100
AcDbCircle
 10
137.699382
 20
291.378144
 40
0.5
100
AcDbArc
 50
270.0
 51
360.0
  0
LINE
  5
795
100
AcDbEntity
  8
M0
100
AcDbLine
 10
138.199382
 20
300.378144
 11
138.199382
 21
291.378144
  0
ARC
  5
796
100
AcDbEntity
  8
M0
100
AcDbCircle
 10
137.699382
 20
300.378144
 40
0.5
100
AcDbArc
 50
0.0
 51
90.0
  0
LINE
  5
797
100
AcDbEntity
  8
M0
100
AcDbLine
 10
128.199382
 20
300.378144
 11
128.199382
 21
291.378144
  0
ARC
  5
798
100
AcDbEntity
  8
M0
100
AcDbCircle
 10
128.699382
 20
300.378144
 40
0.5
100
AcDbArc
 50
90.0
 51
180.0
  0
ARC
  5
799
100
AcDbEntity
  8
M0
100
AcDbCircle
 10
128.699382
 20
291.378144
 40
0.5
100
AcDbArc
 50
180.0
 51
270.0
  0
LINE
  5
79A
100
AcDbEntity
  8
M0
100
AcDbLine
 10
128.699382
 20
290.878144
 11
137.699382
 21
290.878144
  0
LINE
  5
79B
100
AcDbEntity
  8
M0
100
AcDbLine
 10
137.699382
 20
300.878144
 11
128.699382
 21
300.878144
  0
CIRCLE
  5
79C
100
AcDbEntity
  8
M0
100
AcDbCircle
 10
133.199382
 20
295.878144
 40
3.5
  0
LINE
  5
79D
100
AcDbEntity
  8
M0
100
AcDbLine
 10
134.210253
 20
297.5961
 11
131.63518
 21
295.021027
  0
LINE
  5
79E
100
AcDbEntity
  8
M0
100
AcDbLine
 10
134.917361
 20
296.888993
 11
132.342288
 21
294.313919
  0
LINE
  5
79F
100
AcDbEntity
  8
M0
100
AcDbLine
 10
132.238528
 20
296.83899
 11
134.083377
 21
294.994156
  0
CIRCLE
  5
7A0
100
AcDbEntity
  8
M0
  6
DASHED
100
AcDbCircle
 10
120.999382
 20
298.678144
 40
3.0
  0
LINE
  5
7A1
100
AcDbEntity
  8
M0
  6
DASHED
100
AcDbLine
 10
122.589966
 20
297.087499
 11
119.408325
 21
300.269262
  0
LINE
  5
7A2
100
AcDbEntity
  8
M0
  6
DASHED
100
AcDbLine
 10
122.413208
 20
299.031835
 11
120.64563
 21
297.264257
  0
LINE
  5
7A3
100
AcDbEntity
  8
M0
  6
DASHED
100
AcDbLine
 10
121.352661
 20
300.092504
 11
119.585083
 21
298.324804
  0
LINE
  5
7A4
100
AcDbEntity
  8
M0
  6
DASHED
100
AcDbLine
 10
124.324382
 20
302.503144
 11
117.674382
 21
302.503144
  0
ARC
  5
7A5
100
AcDbEntity
  8
M0
  6
DASHED
100
AcDbCircle
 10
124.324382
 20
302.003144
 40
0.5
100
AcDbArc
 50
0.0
 51
90.0
  0
LINE
  5
7A6
100
AcDbEntity
  8
M0
  6
DASHED
100
AcDbLine
 10
124.824382
 20
295.353144
 11
124.824382
 21
302.003144
  0
ARC
  5
7A7
100
AcDbEntity
  8
M0
  6
DASHED
100
AcDbCircle
 10
124.324382
 20
295.353144
 40
0.5
100
AcDbArc
 50
270.0
 51
360.0
  0
LINE
  5
7A8
100
AcDbEntity
  8
M0
  6
DASHED
100
AcDbLine
 10
117.674382
 20
294.853144
 11
124.324382
 21
294.853144
  0
LINE
  5
7A9
100
AcDbEntity
  8
M0
  6
DASHED
100
AcDbLine
 10
117.174382
 20
302.003144
 11
117.174382
 21
295.353144
  0
ARC
  5
7AA
100
AcDbEntity
  8
M0
  6
DASHED
100
AcDbCircle
 10
117.674382
 20
302.003144
 40
0.5
100
AcDbArc
 50
90.0
 51
180.0
  0
ARC
  5
7AB
100
AcDbEntity
  8
M0
  6
DASHED
100
AcDbCircle
 10
117.674382
 20
295.353144
 40
0.5
100
AcDbArc
 50
180.0
 51
270.0
  0
CIRCLE
  5
7AC
100
AcDbEntity
  8
M0
100
AcDbCircle
 10
133.199382
 20
287.078144
 40
2.75
  0
LINE
  5
7AD
100
AcDbEntity
  8
M0
100
AcDbLine
 10
132.899382
 20
285.678144
 11
132.899382
 21
286.074504
  0
LINE
  5
7AE
100
AcDbEntity
  8
M0
100
AcDbLine
 10
133.499382
 20
285.678144
 11
133.499382
 21
286.074504
  0
LINE
  5
7AF
100
AcDbEntity
  8
M0
100
AcDbLine
 10
132.899382
 20
288.478144
 11
132.899382
 21
288.081783
  0
LINE
  5
7B0
100
AcDbEntity
  8
M0
100
AcDbLine
 10
133.499382
 20
288.478144
 11
133.499382
 21
288.081783
  0
ARC
  5
7B1
100
AcDbEntity
  8
M0
100
AcDbCircle
 10
132.174382
 20
286.053144
 40
0.725
100
AcDbArc
 50
0.0
 51
90.0
  0
ARC
  5
7B2
100
AcDbEntity
  8
M0
100
AcDbCircle
 10
132.174382
 20
288.103144
 40
0.725
100
AcDbArc
 50
-90.0
 51
0.0
  0
ARC
  5
7B3
100
AcDbEntity
  8
M0
100
AcDbCircle
 10
134.224382
 20
288.103144
 40
0.725
100
AcDbArc
 50
180.0
 51
270.0
  0
ARC
  5
7B4
100
AcDbEntity
  8
M0
100
AcDbCircle
 10
134.224382
 20
286.053144
 40
0.725
100
AcDbArc
 50
90.0
 51
180.0
  0
LINE
  5
7B5
100
AcDbEntity
  8
M0
100
AcDbLine
 10
134.224382
 20
286.778144
 11
134.624382
 21
286.778144
  0
LINE
  5
7B6
100
AcDbEntity
  8
M0
100
AcDbLine
 10
134.224382
 20
287.378144
 11
134.624382
 21
287.378144
  0
LINE
  5
7B7
100
AcDbEntity
  8
M0
100
AcDbLine
 10
132.899382
 20
288.478144
 11
133.499382
 21
288.478144
  0
LINE
  5
7B8
100
AcDbEntity
  8
M0
100
AcDbLine
 10
132.899382
 20
285.678144
 11
133.499382
 21
285.678144
  0
LINE
  5
7B9
100
AcDbEntity
  8
M0
100
AcDbLine
 10
131.799382
 20
287.378144
 11
132.174382
 21
287.378144
  0
LINE
  5
7BA
100
AcDbEntity
  8
M0
100
AcDbLine
 10
131.799382
 20
287.378144
 11
131.799382
 21
286.778144
  0
LINE
  5
7BB
100
AcDbEntity
  8
M0
100
AcDbLine
 10
131.799382
 20
286.778144
 11
132.174382
 21
286.778144
  0
LINE
  5
7BC
100
AcDbEntity
  8
M0
100
AcDbLine
 10
134.624382
 20
287.378144
 11
134.624382
 21
286.778144
  0
CIRCLE
  5
7BD
100
AcDbEntity
  8
M0
100
AcDbCircle
 10
62.499385
 20
358.178144
 40
3.0
  0
LINE
  5
7BE
100
AcDbEntity
  8
M0
100
AcDbLine
 10
64.089969
 20
356.587499
 11
60.908328
 21
359.769262
  0
LINE
  5
7BF
100
AcDbEntity
  8
M0
100
AcDbLine
 10
63.913211
 20
358.531835
 11
62.145633
 21
356.764257
  0
LINE
  5
7C0
100
AcDbEntity
  8
M0
100
AcDbLine
 10
62.852664
 20
359.592504
 11
61.085086
 21
357.824804
  0
LINE
  5
7C1
100
AcDbEntity
  8
M0
100
AcDbLine
 10
65.824385
 20
362.003144
 11
59.174385
 21
362.003144
  0
ARC
  5
7C2
100
AcDbEntity
  8
M0
100
AcDbCircle
 10
65.824385
 20
361.503144
 40
0.5
100
AcDbArc
 50
0.0
 51
90.0
  0
LINE
  5
7C3
100
AcDbEntity
  8
M0
100
AcDbLine
 10
66.324385
 20
354.853144
 11
66.324385
 21
361.503144
  0
ARC
  5
7C4
100
AcDbEntity
  8
M0
100
AcDbCircle
 10
65.824385
 20
354.853144
 40
0.5
100
AcDbArc
 50
270.0
 51
360.0
  0
LINE
  5
7C5
100
AcDbEntity
  8
M0
100
AcDbLine
 10
59.174385
 20
354.353144
 11
65.824385
 21
354.353144
  0
LINE
  5
7C6
100
AcDbEntity
  8
M0
100
AcDbLine
 10
58.674385
 20
361.503144
 11
58.674385
 21
354.853144
  0
ARC
  5
7C7
100
AcDbEntity
  8
M0
100
AcDbCircle
 10
59.174385
 20
361.503144
 40
0.5
100
AcDbArc
 50
90.0
 51
180.0
  0
ARC
  5
7C8
100
AcDbEntity
  8
M0
100
AcDbCircle
 10
59.174385
 20
354.853144
 40
0.5
100
AcDbArc
 50
180.0
 51
270.0
  0
CIRCLE
  5
7C9
100
AcDbEntity
  8
M0
  6
DASHED
100
AcDbCircle
 10
48.199385
 20
306.278144
 40
3.0
  0
LINE
  5
7CA
100
AcDbEntity
  8
M0
  6
DASHED
100
AcDbLine
 10
49.789969
 20
304.687499
 11
46.608329
 21
307.869262
  0
LINE
  5
7CB
100
AcDbEntity
  8
M0
  6
DASHED
100
AcDbLine
 10
49.613211
 20
306.631835
 11
47.845633
 21
304.864257
  0
LINE
  5
7CC
100
AcDbEntity
  8
M0
  6
DASHED
100
AcDbLine
 10
48.552665
 20
307.692504
 11
46.785086
 21
305.924804
  0
LINE
  5
7CD
100
AcDbEntity
  8
M0
  6
DASHED
100
AcDbLine
 10
51.524385
 20
310.103144
 11
44.874385
 21
310.103144
  0
ARC
  5
7CE
100
AcDbEntity
  8
M0
  6
DASHED
100
AcDbCircle
 10
51.524385
 20
309.603144
 40
0.5
100
AcDbArc
 50
0.0
 51
90.0
  0
LINE
  5
7CF
100
AcDbEntity
  8
M0
  6
DASHED
100
AcDbLine
 10
52.024385
 20
302.953144
 11
52.024385
 21
309.603144
  0
ARC
  5
7D0
100
AcDbEntity
  8
M0
  6
DASHED
100
AcDbCircle
 10
51.524385
 20
302.953144
 40
0.5
100
AcDbArc
 50
270.0
 51
360.0
  0
LINE
  5
7D1
100
AcDbEntity
  8
M0
  6
DASHED
100
AcDbLine
 10
44.874385
 20
302.453144
 11
51.524385
 21
302.453144
  0
LINE
  5
7D2
100
AcDbEntity
  8
M0
  6
DASHED
100
AcDbLine
 10
44.374385
 20
309.603144
 11
44.374385
 21
302.953144
  0
ARC
  5
7D3
100
AcDbEntity
  8
M0
  6
DASHED
100
AcDbCircle
 10
44.874385
 20
309.603144
 40
0.5
100
AcDbArc
 50
90.0
 51
180.0
  0
ARC
  5
7D4
100
AcDbEntity
  8
M0
  6
DASHED
100
AcDbCircle
 10
44.874385
 20
302.953144
 40
0.5
100
AcDbArc
 50
180.0
 51
270.0
  0
CIRCLE
  5
7D5
100
AcDbEntity
  8
M0
100
AcDbCircle
 10
73.399385
 20
357.778144
 40
2.75
  0
LINE
  5
7D6
100
AcDbEntity
  8
M0
100
AcDbLine
 10
73.099385
 20
356.378144
 11
73.099385
 21
356.774504
  0
LINE
  5
7D7
100
AcDbEntity
  8
M0
100
AcDbLine
 10
73.699385
 20
356.378144
 11
73.699385
 21
356.774504
  0
LINE
  5
7D8
100
AcDbEntity
  8
M0
100
AcDbLine
 10
73.099385
 20
359.178144
 11
73.099385
 21
358.781783
  0
LINE
  5
7D9
100
AcDbEntity
  8
M0
100
AcDbLine
 10
73.699385
 20
359.178144
 11
73.699385
 21
358.781783
  0
ARC
  5
7DA
100
AcDbEntity
  8
M0
100
AcDbCircle
 10
72.374385
 20
356.753144
 40
0.725
100
AcDbArc
 50
0.0
 51
90.0
  0
ARC
  5
7DB
100
AcDbEntity
  8
M0
100
AcDbCircle
 10
72.374385
 20
358.803144
 40
0.725
100
AcDbArc
 50
-90.0
 51
0.0
  0
ARC
  5
7DC
100
AcDbEntity
  8
M0
100
AcDbCircle
 10
74.424385
 20
358.803144
 40
0.725
100
AcDbArc
 50
180.0
 51
270.0
  0
ARC
  5
7DD
100
AcDbEntity
  8
M0
100
AcDbCircle
 10
74.424385
 20
356.753144
 40
0.725
100
AcDbArc
 50
90.0
 51
180.0
  0
LINE
  5
7DE
100
AcDbEntity
  8
M0
100
AcDbLine
 10
74.424385
 20
357.478144
 11
74.824385
 21
357.478144
  0
LINE
  5
7DF
100
AcDbEntity
  8
M0
100
AcDbLine
 10
74.424385
 20
358.078144
 11
74.824385
 21
358.078144
  0
LINE
  5
7E0
100
AcDbEntity
  8
M0
100
AcDbLine
 10
73.099385
 20
359.178144
 11
73.699385
 21
359.178144
  0
LINE
  5
7E1
100
AcDbEntity
  8
M0
100
AcDbLine
 10
73.099385
 20
356.378144
 11
73.699385
 21
356.378144
  0
LINE
  5
7E2
100
AcDbEntity
  8
M0
100
AcDbLine
 10
71.999385
 20
358.078144
 11
72.374385
 21
358.078144
  0
LINE
  5
7E3
100
AcDbEntity
  8
M0
100
AcDbLine
 10
71.999385
 20
358.078144
 11
71.999385
 21
357.478144
  0
LINE
  5
7E4
100
AcDbEntity
  8
M0
100
AcDbLine
 10
71.999385
 20
357.478144
 11
72.374385
 21
357.478144
  0
LINE
  5
7E5
100
AcDbEntity
  8
M0
100
AcDbLine
 10
74.824385
 20
358.078144
 11
74.824385
 21
357.478144
  0
LINE
  5
7E6
100
AcDbEntity
  8
M0
100
AcDbLine
 10
114.799382
 20
343.878144
 11
114.799382
 21
319.578144
  0
LINE
  5
7E7
100
AcDbEntity
  8
M0
100
AcDbLine
 10
114.799382
 20
336.978144
 11
109.799382
 21
336.978144
  0
LINE
  5
7E8
100
AcDbEntity
  8
M0
100
AcDbLine
 10
112.199382
 20
344.978145
 11
107.399382
 21
344.978145
  0
LINE
  5
7E9
100
AcDbEntity
  8
M0
100
AcDbLine
 10
104.799382
 20
336.978144
 11
109.799382
 21
336.978144
  0
LINE
  5
7EA
100
AcDbEntity
  8
M0
100
AcDbLine
 10
114.799382
 20
341.078144
 11
109.799382
 21
341.078144
  0
LINE
  5
7EB
100
AcDbEntity
  8
M0
100
AcDbLine
 10
104.799382
 20
302.178144
 11
109.799382
 21
302.178144
  0
ARC
  5
7EC
100
AcDbEntity
  8
M0
100
AcDbCircle
 10
114.299382
 20
343.878144
 40
0.5
100
AcDbArc
 50
23.578178
 51
90.0
  0
LINE
  5
7ED
100
AcDbEntity
  8
M0
100
AcDbLine
 10
112.199382
 20
294.178143
 11
107.399382
 21
294.178143
  0
ARC
  5
7EE
100
AcDbEntity
  8
M0
100
AcDbCircle
 10
107.399382
 20
344.378144
 40
0.6
100
AcDbArc
 50
90.0
 51
180.0
  0
ARC
  5
7EF
100
AcDbEntity
  8
M0
100
AcDbCircle
 10
105.299382
 20
343.878144
 40
0.5
100
AcDbArc
 50
90.0
 51
156.421822
  0
LINE
  5
7F0
100
AcDbEntity
  8
M0
100
AcDbLine
 10
104.799382
 20
319.578144
 11
104.799382
 21
295.278144
  0
ARC
  5
7F1
100
AcDbEntity
  8
M0
100
AcDbCircle
 10
112.199382
 20
344.378144
 40
0.6
100
AcDbArc
 50
0.0
 51
90.0
  0
LINE
  5
7F2
100
AcDbEntity
  8
M0
100
AcDbLine
 10
114.799382
 20
295.278144
 11
114.799382
 21
319.578144
  0
LINE
  5
7F3
100
AcDbEntity
  8
M0
100
AcDbLine
 10
114.799382
 20
298.078144
 11
109.799382
 21
298.078144
  0
ARC
  5
7F4
100
AcDbEntity
  8
M0
100
AcDbCircle
 10
112.199382
 20
294.778144
 40
0.6
100
AcDbArc
 50
270.0
 51
360.0
  0
LINE
  5
7F5
100
AcDbEntity
  8
M0
  6
DASHDOT
100
AcDbLine
 10
109.799382
 20
349.578144
 11
109.799382
 21
290.578144
  0
ARC
  5
7F6
100
AcDbEntity
  8
M0
100
AcDbCircle
 10
114.299382
 20
295.278144
 40
0.5
100
AcDbArc
 50
270.0
 51
336.421822
  0
LINE
  5
7F7
100
AcDbEntity
  8
M0
100
AcDbLine
 10
114.799382
 20
302.178144
 11
109.799382
 21
302.178144
  0
LINE
  5
7F8
100
AcDbEntity
  8
M0
100
AcDbLine
 10
104.799382
 20
341.078144
 11
109.799382
 21
341.078144
  0
ARC
  5
7F9
100
AcDbEntity
  8
M0
100
AcDbCircle
 10
105.299382
 20
295.278144
 40
0.5
100
AcDbArc
 50
203.578178
 51
270.0
  0
LINE
  5
7FA
100
AcDbEntity
  8
M0
100
AcDbLine
 10
104.799382
 20
319.578144
 11
104.799382
 21
343.878144
  0
LINE
  5
7FB
100
AcDbEntity
  8
M0
100
AcDbLine
 10
105.299382
 20
294.778145
 11
114.299382
 21
294.778145
  0
ARC
  5
7FC
100
AcDbEntity
  8
M0
100
AcDbCircle
 10
107.399382
 20
294.778144
 40
0.6
100
AcDbArc
 50
180.0
 51
270.0
  0
LINE
  5
7FD
100
AcDbEntity
  8
M0
100
AcDbLine
 10
105.299382
 20
344.378142
 11
114.299382
 21
344.378142
  0
LINE
  5
7FE
100
AcDbEntity
  8
M0
100
AcDbLine
 10
104.799382
 20
298.078144
 11
109.799382
 21
298.078144
  0
CIRCLE
  5
7FF
100
AcDbEntity
  8
M0
  6
DASHED
100
AcDbCircle
 10
48.199385
 20
332.878144
 40
3.0
  0
LINE
  5
800
100
AcDbEntity
  8
M0
  6
DASHED
100
AcDbLine
 10
49.789969
 20
331.287499
 11
46.608329
 21
334.469262
  0
LINE
  5
801
100
AcDbEntity
  8
M0
  6
DASHED
100
AcDbLine
 10
49.613211
 20
333.231835
 11
47.845633
 21
331.464257
  0
LINE
  5
802
100
AcDbEntity
  8
M0
  6
DASHED
100
AcDbLine
 10
48.552664
 20
334.292504
 11
46.785086
 21
332.524804
  0
LINE
  5
803
100
AcDbEntity
  8
M0
  6
DASHED
100
AcDbLine
 10
51.524385
 20
336.703144
 11
44.874385
 21
336.703144
  0
ARC
  5
804
100
AcDbEntity
  8
M0
  6
DASHED
100
AcDbCircle
 10
51.524385
 20
336.203144
 40
0.5
100
AcDbArc
 50
0.0
 51
90.0
  0
LINE
  5
805
100
AcDbEntity
  8
M0
  6
DASHED
100
AcDbLine
 10
52.024385
 20
329.553144
 11
52.024385
 21
336.203144
  0
ARC
  5
806
100
AcDbEntity
  8
M0
  6
DASHED
100
AcDbCircle
 10
51.524385
 20
329.553144
 40
0.5
100
AcDbArc
 50
270.0
 51
360.0
  0
LINE
  5
807
100
AcDbEntity
  8
M0
  6
DASHED
100
AcDbLine
 10
44.874385
 20
329.053144
 11
51.524385
 21
329.053144
  0
LINE
  5
808
100
AcDbEntity
  8
M0
  6
DASHED
100
AcDbLine
 10
44.374385
 20
336.203144
 11
44.374385
 21
329.553144
  0
ARC
  5
809
100
AcDbEntity
  8
M0
  6
DASHED
100
AcDbCircle
 10
44.874385
 20
336.203144
 40
0.5
100
AcDbArc
 50
90.0
 51
180.0
  0
ARC
  5
80A
100
AcDbEntity
  8
M0
  6
DASHED
100
AcDbCircle
 10
44.874385
 20
329.553144
 40
0.5
100
AcDbArc
 50
180.0
 51
270.0
  0
HATCH
  5
80B
100
AcDbEntity
  8
M0
 62
     7
100
AcDbHatch
 10
0.0
 20
0.0
210
0.0
220
0.0
230
1.0
  2
SOLID
 70
     1
 71
     0
 91
        1
 92
        1
 93
        4
 72
     1
 10
236.310639
 20
363.578144
 11
234.310639
 21
363.578144
 72
     1
 10
234.310639
 20
363.578144
 11
234.310639
 21
345.378144
 72
     1
 10
234.310639
 20
345.378144
 11
236.310639
 21
345.378144
 72
     1
 10
236.310639
 20
345.378144
 11
236.310639
 21
363.578144
 97
        0
 75
     0
 76
     1
 98
        1
 10
0.0
 20
0.0
  0
LINE
  5
80E
100
AcDbEntity
  8
M0
  6
DASHED
100
AcDbLine
 10
210.010642
 20
320.878137
 11
210.010642
 21
318.078137
  0
LINE
  5
80F
100
AcDbEntity
  8
M0
  6
DASHED
100
AcDbLine
 10
210.010642
 20
320.878137
 11
211.610641
 21
320.878137
  0
LINE
  5
810
100
AcDbEntity
  8
M0
  6
DASHED
100
AcDbLine
 10
211.610641
 20
318.078137
 11
210.010642
 21
318.078137
  0
LINE
  5
811
100
AcDbEntity
  8
M0
  6
DASHED
100
AcDbLine
 10
245.110641
 20
337.278131
 11
235.710641
 21
337.278131
  0
LINE
  5
812
100
AcDbEntity
  8
M0
  6
DASHED
100
AcDbLine
 10
245.110642
 20
301.878143
 11
240.310641
 21
301.878143
  0
LINE
  5
813
100
AcDbEntity
  8
M0
  6
DASHED
100
AcDbLine
 10
211.610641
 20
300.178137
 11
211.610641
 21
338.978137
  0
ARC
  5
814
100
AcDbEntity
  8
M0
  6
DASHED
100
AcDbCircle
 10
215.610641
 20
300.178137
 40
4.0
100
AcDbArc
 50
180.0
 51
270.0
  0
ARC
  5
815
100
AcDbEntity
  8
M0
  6
DASHED
100
AcDbCircle
 10
230.710641
 20
301.178137
 40
5.0
100
AcDbArc
 50
270.0
 51
360.0
  0
ARC
  5
816
100
AcDbEntity
  8
M0
  6
DASHED
100
AcDbCircle
 10
245.110641
 20
302.378143
 40
0.5
100
AcDbArc
 50
270.0
 51
360.0
  0
ARC
  5
817
100
AcDbEntity
  8
M0
  6
DASHED
100
AcDbCircle
 10
215.610641
 20
338.978137
 40
4.0
100
AcDbArc
 50
90.0
 51
180.0
  0
ARC
  5
818
100
AcDbEntity
  8
M0
  6
DASHED
100
AcDbCircle
 10
230.710641
 20
337.978137
 40
5.0
100
AcDbArc
 50
0.0
 51
90.0
  0
ARC
  5
819
100
AcDbEntity
  8
M0
  6
DASHED
100
AcDbCircle
 10
245.110641
 20
336.778131
 40
0.5
100
AcDbArc
 50
0.0
 51
90.0
  0
LINE
  5
81A
100
AcDbEntity
  8
M0
  6
DASHED
100
AcDbLine
 10
235.710641
 20
337.278131
 11
235.710641
 21
337.978137
  0
LINE
  5
81B
100
AcDbEntity
  8
M0
  6
DASHED
100
AcDbLine
 10
230.710641
 20
342.978138
 11
215.610641
 21
342.978138
  0
LINE
  5
81C
100
AcDbEntity
  8
M0
  6
DASHED
100
AcDbLine
 10
243.510641
 20
337.278131
 11
243.510641
 21
339.278137
  0
LINE
  5
81D
100
AcDbEntity
  8
M0
  6
DASHED
100
AcDbLine
 10
243.910641
 20
339.278137
 11
244.510643
 21
337.278131
  0
LINE
  5
81E
100
AcDbEntity
  8
M0
  6
DASHED
100
AcDbLine
 10
243.510641
 20
339.278137
 11
243.910641
 21
339.278137
  0
LINE
  5
81F
100
AcDbEntity
  8
M0
  6
DASHED
100
AcDbLine
 10
245.110642
 20
301.878143
 11
235.710641
 21
301.878143
  0
LINE
  5
820
100
AcDbEntity
  8
M0
  6
DASHED
100
AcDbLine
 10
235.710641
 20
301.878143
 11
235.710641
 21
301.178137
  0
LINE
  5
821
100
AcDbEntity
  8
M0
  6
DASHED
100
AcDbLine
 10
230.710641
 20
296.178137
 11
215.610641
 21
296.178137
  0
CIRCLE
  5
822
100
AcDbEntity
  8
M0
100
AcDbCircle
 10
98.599385
 20
340.478144
 40
3.0
  0
LINE
  5
823
100
AcDbEntity
  8
M0
100
AcDbLine
 10
100.189969
 20
338.887499
 11
97.008328
 21
342.069262
  0
LINE
  5
824
100
AcDbEntity
  8
M0
100
AcDbLine
 10
100.013211
 20
340.831835
 11
98.245633
 21
339.064257
  0
LINE
  5
825
100
AcDbEntity
  8
M0
100
AcDbLine
 10
98.952664
 20
341.892504
 11
97.185086
 21
340.124804
  0
LINE
  5
826
100
AcDbEntity
  8
M0
100
AcDbLine
 10
101.924385
 20
344.303144
 11
95.274385
 21
344.303144
  0
ARC
  5
827
100
AcDbEntity
  8
M0
100
AcDbCircle
 10
101.924385
 20
343.803144
 40
0.5
100
AcDbArc
 50
0.0
 51
90.0
  0
LINE
  5
828
100
AcDbEntity
  8
M0
100
AcDbLine
 10
102.424385
 20
337.153144
 11
102.424385
 21
343.803144
  0
ARC
  5
829
100
AcDbEntity
  8
M0
100
AcDbCircle
 10
101.924385
 20
337.153144
 40
0.5
100
AcDbArc
 50
270.0
 51
360.0
  0
LINE
  5
82A
100
AcDbEntity
  8
M0
100
AcDbLine
 10
95.274385
 20
336.653144
 11
101.924385
 21
336.653144
  0
LINE
  5
82B
100
AcDbEntity
  8
M0
100
AcDbLine
 10
94.774385
 20
343.803144
 11
94.774385
 21
337.153144
  0
ARC
  5
82C
100
AcDbEntity
  8
M0
100
AcDbCircle
 10
95.274385
 20
343.803144
 40
0.5
100
AcDbArc
 50
90.0
 51
180.0
  0
ARC
  5
82D
100
AcDbEntity
  8
M0
100
AcDbCircle
 10
95.274385
 20
337.153144
 40
0.5
100
AcDbArc
 50
180.0
 51
270.0
  0
CIRCLE
  5
82E
100
AcDbEntity
  8
M0
  6
DASHED
100
AcDbCircle
 10
120.999382
 20
306.278144
 40
3.0
  0
LINE
  5
82F
100
AcDbEntity
  8
M0
  6
DASHED
100
AcDbLine
 10
122.589966
 20
304.687499
 11
119.408325
 21
307.869262
  0
LINE
  5
830
100
AcDbEntity
  8
M0
  6
DASHED
100
AcDbLine
 10
122.413208
 20
306.631835
 11
120.64563
 21
304.864257
  0
LINE
  5
831
100
AcDbEntity
  8
M0
  6
DASHED
100
AcDbLine
 10
121.352661
 20
307.692504
 11
119.585083
 21
305.924804
  0
LINE
  5
832
100
AcDbEntity
  8
M0
  6
DASHED
100
AcDbLine
 10
124.324382
 20
310.103144
 11
117.674382
 21
310.103144
  0
ARC
  5
833
100
AcDbEntity
  8
M0
  6
DASHED
100
AcDbCircle
 10
124.324382
 20
309.603144
 40
0.5
100
AcDbArc
 50
0.0
 51
90.0
  0
LINE
  5
834
100
AcDbEntity
  8
M0
  6
DASHED
100
AcDbLine
 10
124.824382
 20
302.953144
 11
124.824382
 21
309.603144
  0
ARC
  5
835
100
AcDbEntity
  8
M0
  6
DASHED
100
AcDbCircle
 10
124.324382
 20
302.953144
 40
0.5
100
AcDbArc
 50
270.0
 51
360.0
  0
LINE
  5
836
100
AcDbEntity
  8
M0
  6
DASHED
100
AcDbLine
 10
117.674382
 20
302.453144
 11
124.324382
 21
302.453144
  0
LINE
  5
837
100
AcDbEntity
  8
M0
  6
DASHED
100
AcDbLine
 10
117.174382
 20
309.603144
 11
117.174382
 21
302.953144
  0
ARC
  5
838
100
AcDbEntity
  8
M0
  6
DASHED
100
AcDbCircle
 10
117.674382
 20
309.603144
 40
0.5
100
AcDbArc
 50
90.0
 51
180.0
  0
ARC
  5
839
100
AcDbEntity
  8
M0
  6
DASHED
100
AcDbCircle
 10
117.674382
 20
302.953144
 40
0.5
100
AcDbArc
 50
180.0
 51
270.0
  0
CIRCLE
  5
83A
100
AcDbEntity
  8
M0
 62
     7
100
AcDbCircle
 10
100.399382
 20
141.528235
 40
2.0
  0
CIRCLE
  5
83B
100
AcDbEntity
  8
M0
 62
     7
100
AcDbCircle
 10
46.399383
 20
200.528235
 40
2.0
  0
CIRCLE
  5
83C
100
AcDbEntity
  8
M0
 62
     7
100
AcDbCircle
 10
46.399383
 20
200.528227
 40
1.7
  0
CIRCLE
  5
83D
100
AcDbEntity
  8
M0
 62
     7
100
AcDbCircle
 10
100.399382
 20
141.528235
 40
1.7
  0
LINE
  5
83E
100
AcDbEntity
  8
M0
  6
DIVIDE
 62
     7
100
AcDbLine
 10
163.169376
 20
215.028235
 11
163.169376
 21
206.028236
  0
LINE
  5
83F
100
AcDbEntity
  8
M0
  6
DIVIDE
 62
     7
100
AcDbLine
 10
129.229302
 20
215.028235
 11
129.229302
 21
206.028236
  0
LINE
  5
840
100
AcDbEntity
  8
M0
  6
DIVIDE
 62
     7
100
AcDbLine
 10
56.429308
 20
215.028235
 11
56.429308
 21
206.028236
  0
LINE
  5
841
100
AcDbEntity
  8
M0
  6
DIVIDE
 62
     7
100
AcDbLine
 10
90.369382
 20
215.028235
 11
90.369382
 21
206.028236
  0
CIRCLE
  5
842
100
AcDbEntity
  8
M0
 62
     7
100
AcDbCircle
 10
173.199376
 20
141.528235
 40
2.0
  0
CIRCLE
  5
843
100
AcDbEntity
  8
M0
 62
     7
100
AcDbCircle
 10
119.199376
 20
200.528235
 40
2.0
  0
CIRCLE
  5
844
100
AcDbEntity
  8
M0
 62
     7
100
AcDbCircle
 10
119.199376
 20
200.528227
 40
1.7
  0
CIRCLE
  5
845
100
AcDbEntity
  8
M0
 62
     7
100
AcDbCircle
 10
173.199376
 20
141.528235
 40
1.7
  0
LINE
  5
846
100
AcDbEntity
  8
M0
  6
DIVIDE
 62
     7
100
AcDbLine
 10
114.799379
 20
195.828236
 11
104.799379
 21
195.828236
  0
LINE
  5
847
100
AcDbEntity
  8
M0
  6
DIVIDE
 62
     7
100
AcDbLine
 10
114.799379
 20
145.028234
 11
104.799379
 21
145.028234
  0
LINE
  5
848
100
AcDbEntity
  8
M0
  6
DASHDOT
 62
     7
100
AcDbLine
 10
109.799382
 20
215.028235
 11
109.799382
 21
125.685849
  0
LINE
  5
849
100
AcDbEntity
  8
M0
  6
DASHDOT
 62
     7
100
AcDbLine
 10
50.496787
 20
200.528235
 11
42.301978
 21
200.528235
  0
LINE
  5
84A
100
AcDbEntity
  8
M0
  6
DASHDOT
 62
     7
100
AcDbLine
 10
46.399375
 20
204.625632
 11
46.39939
 21
196.430823
  0
LINE
  5
84B
100
AcDbEntity
  8
M0
  6
DASHDOT
 62
     7
100
AcDbLine
 10
104.496787
 20
141.528235
 11
96.301978
 21
141.528235
  0
LINE
  5
84C
100
AcDbEntity
  8
M0
  6
DASHDOT
 62
     7
100
AcDbLine
 10
100.399375
 20
145.625632
 11
100.39939
 21
136.430823
  0
LINE
  5
84D
100
AcDbEntity
  8
M0
  6
DIVIDE
 62
     7
100
AcDbLine
 10
104.799379
 20
206.028236
 11
104.799379
 21
195.828236
  0
LINE
  5
84E
100
AcDbEntity
  8
M0
  6
DIVIDE
 62
     7
100
AcDbLine
 10
177.599373
 20
135.028234
 11
114.799379
 21
135.028234
  0
LINE
  5
84F
100
AcDbEntity
  8
M0
  6
DIVIDE
 62
     7
100
AcDbLine
 10
163.169376
 20
206.028236
 11
177.599373
 21
206.028236
  0
LINE
  5
850
100
AcDbEntity
  8
M0
  6
DIVIDE
 62
     7
100
AcDbLine
 10
177.599373
 20
206.028236
 11
177.599373
 21
135.028234
  0
LINE
  5
851
100
AcDbEntity
  8
M0
  6
DIVIDE
 62
     7
100
AcDbLine
 10
114.799379
 20
206.028236
 11
114.799379
 21
195.828236
  0
LINE
  5
852
100
AcDbEntity
  8
M0
  6
DASHDOT
 62
     7
100
AcDbLine
 10
177.296781
 20
141.528235
 11
169.101972
 21
141.528235
  0
LINE
  5
853
100
AcDbEntity
  8
M0
  6
DASHDOT
 62
     7
100
AcDbLine
 10
173.199369
 20
145.625632
 11
173.199384
 21
136.430823
  0
LINE
  5
854
100
AcDbEntity
  8
M0
  6
DASHDOT
 62
     7
100
AcDbLine
 10
123.296781
 20
200.528235
 11
115.101972
 21
200.528235
  0
LINE
  5
855
100
AcDbEntity
  8
M0
  6
DASHDOT
 62
     7
100
AcDbLine
 10
119.199369
 20
204.625632
 11
119.199384
 21
196.430823
  0
LINE
  5
856
100
AcDbEntity
  8
M0
  6
DIVIDE
 62
     7
100
AcDbLine
 10
129.229302
 20
215.028235
 11
163.169376
 21
215.028235
  0
LINE
  5
857
100
AcDbEntity
  8
M0
  6
DIVIDE
 62
     7
100
AcDbLine
 10
129.229302
 20
206.028236
 11
114.799379
 21
206.028236
  0
LINE
  5
858
100
AcDbEntity
  8
M0
  6
DIVIDE
 62
     7
100
AcDbLine
 10
114.799379
 20
145.028234
 11
114.799379
 21
135.028234
  0
LINE
  5
859
100
AcDbEntity
  8
M0
  6
DIVIDE
 62
     7
100
AcDbLine
 10
104.799379
 20
135.028234
 11
41.999385
 21
135.028234
  0
LINE
  5
85A
100
AcDbEntity
  8
M0
  6
DIVIDE
 62
     7
100
AcDbLine
 10
41.999385
 20
206.028236
 11
41.999385
 21
135.028234
  0
LINE
  5
85B
100
AcDbEntity
  8
M0
  6
DIVIDE
 62
     7
100
AcDbLine
 10
56.429308
 20
206.028236
 11
41.999385
 21
206.028236
  0
LINE
  5
85C
100
AcDbEntity
  8
M0
  6
DIVIDE
 62
     7
100
AcDbLine
 10
90.369382
 20
206.028236
 11
104.799379
 21
206.028236
  0
LINE
  5
85D
100
AcDbEntity
  8
M0
  6
DIVIDE
 62
     7
100
AcDbLine
 10
104.799379
 20
145.028234
 11
104.799379
 21
135.028234
  0
LINE
  5
85E
100
AcDbEntity
  8
M0
  6
DIVIDE
 62
     7
100
AcDbLine
 10
56.429308
 20
215.028235
 11
90.369382
 21
215.028235
  0
LINE
  5
85F
100
AcDbEntity
  8
M3
 62
     2
100
AcDbLine
 10
333.003619
 20
67.593652
 11
166.336959
 21
67.593652
  0
LINE
  5
860
100
AcDbEntity
  8
M3
 62
     2
100
AcDbLine
 10
16.336965
 20
17.593654
 11
16.336965
 21
475.92697
  0
LINE
  5
861
100
AcDbEntity
  8
M3
 62
     2
100
AcDbLine
 10
333.003619
 20
17.593654
 11
16.336965
 21
17.593654
  0
LINE
  5
862
100
AcDbEntity
  8
M3
 62
     2
100
AcDbLine
 10
333.003619
 20
34.26032
 11
166.336959
 21
34.26032
  0
TEXT
  5
863
100
AcDbEntity
  8
M3
 62
     2
100
AcDbText
 10
169.948066
 20
38.426987
 40
8.333333
  1
形　式；
 41
1.0
  7
STANDARD
100
AcDbText
  0
LINE
  5
864
100
AcDbEntity
  8
M3
 62
     2
100
AcDbLine
 10
333.003619
 20
50.926986
 11
166.336959
 21
50.926986
  0
TEXT
  5
865
100
AcDbEntity
  8
M3
 62
     2
100
AcDbText
 10
169.948066
 20
55.093653
 40
8.333333
  1
登録名：
 41
1.0
  7
STANDARD
100
AcDbText
  0
LINE
  5
866
100
AcDbEntity
  8
M3
 62
     2
100
AcDbLine
 10
166.336959
 20
17.593654
 11
166.336959
 21
67.593652
  0
TEXT
  5
867
100
AcDbEntity
  8
M3
 62
     2
100
AcDbText
 10
169.948066
 20
21.760321
 40
8.333333
  1
適　用；
 41
1.0
  7
STANDARD
100
AcDbText
  0
LINE
  5
868
100
AcDbEntity
  8
M3
 62
     2
100
AcDbLine
 10
16.336965
 20
475.92697
 11
333.003619
 21
475.92697
  0
LINE
  5
869
100
AcDbEntity
  8
M3
 62
     2
100
AcDbLine
 10
333.003619
 20
475.92697
 11
333.003619
 21
17.593654
  0
TEXT
  5
86A
100
AcDbEntity
  8
M3
 62
     2
100
AcDbText
 10
210.22585
 20
55.093653
 40
8.333333
  1
ＤＭＨＳ２０ＲＲ００
 41
0.5
  7
STANDARD
100
AcDbText
  0
TEXT
  5
86B
100
AcDbEntity
  8
M3
 62
     2
100
AcDbText
 10
210.22585
 20
38.426987
 40
8.333333
  1
ＨＳ２０－Ｒ
 41
0.5
  7
STANDARD
100
AcDbText
  0
LINE
  5
86C
100
AcDbEntity
  8
DN0
100
AcDbLine
 10
98.303762
 20
105.976198
 11
125.353768
 21
105.976198
  0
TEXT
  5
86D
100
AcDbEntity
  8
DN0
100
AcDbText
 10
99.050984
 20
106.642865
 40
6.666666
  1
せん孔図
 41
0.833333
  7
STANDARD
100
AcDbText
  0
ENDSEC
  0
SECTION
  2
OBJECTS
  0
DICTIONARY
  5
C
100
AcDbDictionary
  3
ACAD_GROUP
350
D
  3
ACAD_MLINESTYLE
350
E
  3
ACDBVARIABLEDICTIONARY
350
80C
  0
DICTIONARY
  5
D
102
{ACAD_REACTORS
330
C
102
}
100
AcDbDictionary
  0
DICTIONARY
  5
E
102
{ACAD_REACTORS
330
C
102
}
100
AcDbDictionary
  3
STANDARD
350
13
  0
DICTIONARY
  5
80C
102
{ACAD_REACTORS
330
C
102
}
100
AcDbDictionary
  3
SORTENTS
350
80D
  0
MLINESTYLE
  5
13
102
{ACAD_REACTORS
330
E
102
}
100
AcDbMlineStyle
  2
STANDARD
 70
     0
  3

 62
     0
 51
90.0
 52
90.0
 71
     2
 49
0.5
 62
   256
  6
BYLAYER
 49
-0.5
 62
   256
  6
BYLAYER
  0
DICTIONARYVAR
  5
80D
102
{ACAD_REACTORS
330
80C
102
}
100
DictionaryVariables
280
     0
  1
96
  0
ENDSEC
  0
EOF
