  0
SECTION
  2
HEADER
  9
$ACADVER
  1
AC1014
  9
$INSBASE
 10
0.000000
 20
0.000000
 30
0.0
  9
$VIEWCTR
 10
7.531722
 20
4.5
  9
$VIEWSIZE
 40
9.0
  9
$SNAPMODE
 70
     0
  9
$SNAPUNIT
 10
1.0
 20
1.0
  9
$SNAPBASE
 10
0.0
 20
0.0
  9
$SNAPANG
 50
0.0
  9
$SNAPSTYLE
 70
     0
  9
$SNAPISOPAIR
 70
     0
  9
$GRIDMODE
 70
     0
  9
$GRIDUNIT
 10
0.0
 20
0.0
  9
$ORTHOMODE
 70
     0
  9
$REGENMODE
 70
     1
  9
$FILLMODE
 70
     1
  9
$QTEXTMODE
 70
     0
  9
$DRAGMODE
 70
     2
  9
$LTSCALE
  40
     1.000000
  9
$OSMODE
 70
     0
  9
$ATTMODE
 70
     1
  9
$TEXTSIZE
 40
0.2
  9
$TRACEWID
 40
0.05
  9
$TEXTSTYLE
  7
STANDARD
  9
$CELTYPE
  6
BYLAYER
  9
$CECOLOR
 62
   256
  9
$DIMSCALE
 40
1.0
  9
$DIMASZ
 40
0.18
  9
$DIMEXO
 40
0.0625
  9
$DIMDLI
 40
0.38
  9
$DIMRND
 40
0.0
  9
$DIMDLE
 40
0.0
  9
$DIMEXE
 40
0.18
  9
$DIMTP
 40
0.0
  9
$DIMTM
 40
0.0
  9
$DIMTXT
 40
0.18
  9
$DIMCEN
 40
0.09
  9
$DIMTSZ
 40
0.0
  9
$DIMTOL
 70
     0
  9
$DIMLIM
 70
     0
  9
$DIMTIH
 70
     1
  9
$DIMTOH
 70
     1
  9
$DIMSE1
 70
     0
  9
$DIMSE2
 70
     0
  9
$DIMTAD
 70
     0
  9
$DIMZIN
 70
     0
  9
$DIMBLK
  1

  9
$LUNITS
 70
     2
  9
$LUPREC
 70
     4
  9
$AXISMODE
 70
     0
  9
$AXISUNIT
 10
0.0
 20
0.0
  9
$SKETCHINC
 40
0.1
  9
$FILLETRAD
 40
0.0
  9
$AUNITS
 70
     0
  9
$AUPREC
 70
     0
  9
$MENU
  1
ACAD
  9
$ELEVATION
 40
0.0
  9
$THICKNESS
 40
0.0
  9
$VIEWDIR
 10
0.0
 20
0.0
 30
1.0
  9
$LIMCHECK
 70
     0
  9
$BLIPMODE
 70
     1
  9
$CHAMFERA
 40
0.0
  9
$CHAMFERB
 40
0.0
  9
$FASTZOOM
 70
     1
  9
$SKPOLY
 70
     0
  9
$TDCREATE
 40
0000000.0000000000
  9
$TDUPDATE
 40
0000000.0000000000
  9
$TDINDWG
 40
0.0000000000
  9
$TDUSRTIMER
 40
0.0000000000
  9
$USRTIMER
 70
     1
  9
$ANGBASE
 50
0.0
  9
$ANGDIR
 70
     0
  9
$PDMODE
 70
     0
  9
$PDSIZE
 40
0.0
  9
$PLINEWID
 40
0.0
  9
$COORDS
 70
     0
  9
$USERI1
 70
     0
  9
$USERI2
 70
     0
  9
$USERI3
 70
     0
  9
$USERI4
 70
     0
  9
$USERI5
 70
     0
  9
$USERR1
 40
0.0
  9
$USERR2
 40
0.0
  9
$USERR3
 40
0.0
  9
$USERR4
 40
0.0
  9
$USERR5
 40
0.0
  9
$CLAYER
  8
M0
  9
$EXTMIN
 10
20.0
 20
20.0
  9
$EXTMAX
 10
400.0
 20
570.0
  9
$LIMMIN
 10
0.0
 20
0.0
  9
$LIMMAX
 10
210.0
 20
297.0
  9
$HANDSEED
  5
8E4
  0
ENDSEC
  0
SECTION
  2
CLASSES
  0
CLASS
  1
DICTIONARYVAR
  2
AcDbDictionaryVar
  3
"AutoCAD"
 90
        0
280
     0
281
     0
  0
CLASS
  1
HATCH
  2
AcDbHatch
  3
"ACAD_SEDONA"
 90
        0
280
     0
281
     1
  0
ENDSEC
  0
SECTION
  2
TABLES
  0
TABLE
  2
VPORT
  5
8
100
AcDbSymbolTable
 70
     2
  0
VPORT
  5
14
100
AcDbSymbolTableRecord
100
AcDbViewportTableRecord
  2
*ACTIVE
 70
     0
 10
0.0
 20
0.0
 11
1.0
 21
1.0
 12
484.0
 22
297.0
 13
0.0
 23
0.0
 14
1.0
 24
1.0
 15
0.0
 25
0.0
 16
0.0
 26
0.0
 36
1.0
 17
0.0
 27
0.0
 37
0.0
 40
594.0
 41
2.0
 42
50.0
 43
0.0
 44
0.0
 50
0.0
 51
0.0
 71
     0
 72
   100
 73
     1
 74
     1
 75
     0
 76
     0
 77
     0
 78
     0
  0
ENDTAB
  0
TABLE
  2
LTYPE
  5
5
100
AcDbSymbolTable
 70
     5
  0
LTYPE
  5
15
100
AcDbSymbolTableRecord
100
AcDbLinetypeTableRecord
  2
BYBLOCK
 70
     0
  3

 72
    65
 73
     0
 40
0.0
  0
LTYPE
  5
16
100
AcDbSymbolTableRecord
100
AcDbLinetypeTableRecord
  2
BYLAYER
 70
     0
  3

 72
    65
 73
     0
 40
0.0
  0
LTYPE
  5
17
100
AcDbSymbolTableRecord
100
AcDbLinetypeTableRecord
  2
CONTINUOUS
 70
    64
  3
Solid line
 72
    65
 73
     0
 40
0.0
  0
LTYPE
  5
18
100
AcDbSymbolTableRecord
100
AcDbLinetypeTableRecord
  2
DASHED
 70
    64
  3
__ __ __ __ __ __ __ __ __ __ __ __ __ __ __ __
 72
    65
 73
     2
 40
0.75
 49
0.5
 74
     0
 49
-0.25
 74
     0
  0
LTYPE
  5
19
100
AcDbSymbolTableRecord
100
AcDbLinetypeTableRecord
  2
DASHDOT
 70
    64
  3
__ . __ . __ . __ . __ . __ . __ . __ . __ . __
 72
    65
 73
     4
 40
1.0
 49
0.5
 74
     0
 49
-0.25
 74
     0
 49
0.0
 74
     0
 49
-0.25
 74
     0
  0
LTYPE
  5
1A
100
AcDbSymbolTableRecord
100
AcDbLinetypeTableRecord
  2
DIVIDE
 70
    64
  3
____ . . ____ . . ____ . . ____ . . ____ . . __
 72
    65
 73
     6
 40
1.25
 49
0.5
 74
     0
 49
-0.25
 74
     0
 49
0.0
 74
     0
 49
-0.25
 74
     0
 49
0.0
 74
     0
 49
-0.25
 74
     0
  0
LTYPE
  5
1B
100
AcDbSymbolTableRecord
100
AcDbLinetypeTableRecord
  2
DOT
 70
    64
  3
. . . . . . . . . . . . . . . . . . . . . . . .
 72
    65
 73
     2
 40
0.25
 49
0.0
 74
     0
 49
-0.25
 74
     0
  0
ENDTAB
  0
TABLE
  2
LAYER
  5
2
100
AcDbSymbolTable
 70
   102
  0
LAYER
  5
F
100
AcDbSymbolTableRecord
100
AcDbLayerTableRecord
  2
0
 70
     0
 62
     7
  6
CONTINUOUS
  0
LAYER
  5
1C
100
AcDbSymbolTableRecord
100
AcDbLayerTableRecord
  2
DEFPOINTS
 70
     0
 62
     7
  6
CONTINUOUS
  0
LAYER
  5
1D
100
AcDbSymbolTableRecord
100
AcDbLayerTableRecord
  2
M0
 70
     0
 62
     3
  6
CONTINUOUS
  0
LAYER
  5
1E
100
AcDbSymbolTableRecord
100
AcDbLayerTableRecord
  2
M1
 70
     0
 62
     3
  6
CONTINUOUS
  0
LAYER
  5
1F
100
AcDbSymbolTableRecord
100
AcDbLayerTableRecord
  2
DD0
 70
     0
 62
     4
  6
CONTINUOUS
  0
LAYER
  5
20
100
AcDbSymbolTableRecord
100
AcDbLayerTableRecord
  2
DN0
 70
     0
 62
     2
  6
CONTINUOUS
  0
ENDTAB
  0
TABLE
  2
STYLE
  5
3
100
AcDbSymbolTable
 70
     2
  0
STYLE
  5
10
100
AcDbSymbolTableRecord
100
AcDbTextStyleTableRecord
  2
STANDARD
 70
     0
 40
0.0
 41
1.0
 50
0.0
 71
     0
 42
0.2
  3
txt
  4
BIGFONT
  0
ENDTAB
  0
TABLE
  2
VIEW
  5
6
100
AcDbSymbolTable
 70
     0
  0
ENDTAB
  0
TABLE
  2
UCS
  5
7
100
AcDbSymbolTable
 70
     0
  0
ENDTAB
  0
TABLE
  2
APPID
  5
9
100
AcDbSymbolTable
 70
     1
  0
APPID
  5
11
100
AcDbSymbolTableRecord
100
AcDbRegAppTableRecord
  2
ACAD
 70
     0
  0
ENDTAB
  0
TABLE
  2
DIMSTYLE
  5
A
100
AcDbSymbolTable
 70
     2
  0
DIMSTYLE
105
27
100
AcDbSymbolTableRecord
100
AcDbDimStyleTableRecord
  2
STANDARD
 70
     0
  3

  4

  5

  6
_OPEN
  7
_OPEN
 40
1.0
 41
6.0
 42
1.0
 43
8.0
 44
1.0
 45
0.0
 46
0.0
 47
0.0
 48
0.0
140
6.3
141
0.09
142
0.0
143
0.03937
144
1.0
145
0.0
146
1.0
147
0.6
 71
     0
 72
     0
 73
     1
 74
     1
 75
     0
 76
     0
 77
     3
 78
     8
170
     0
171
     2
172
     0
173
     1
174
     0
175
     0
176
     0
177
     0
178
     0
270
     2
271
     2
272
     4
273
     2
274
     2
340
10
275
     0
280
     0
281
     0
282
     0
283
     1
284
     0
285
     0
286
     0
287
     3
288
     0
  0
DIMSTYLE
105
28
100
AcDbSymbolTableRecord
100
AcDbDimStyleTableRecord
  2
LEADSTYL
 70
     0
  3

  4

  5

  6
_OPEN
  7
_OPEN
 40
1.0
 41
6.0
 42
0.0625
 43
0.38
 44
0.18
 45
0.0
 46
0.0
 47
0.0
 48
0.0
140
6.3
141
0.09
142
0.0
143
25.4
144
1.0
145
0.0
146
1.0
147
0.6
 71
     0
 72
     0
 73
     1
 74
     1
 75
     0
 76
     0
 77
     0
 78
     0
170
     0
171
     2
172
     0
173
     1
174
     0
175
     0
176
     0
177
     0
178
     0
270
     2
271
     4
272
     4
273
     2
274
     2
340
10
275
     0
280
     0
281
     0
282
     0
283
     1
284
     0
285
     0
286
     0
287
     3
288
     0
  0
ENDTAB
  0
TABLE
  2
BLOCK_RECORD
  5
1
100
AcDbSymbolTable
 70
    30
  0
BLOCK_RECORD
  5
21
100
AcDbSymbolTableRecord
100
AcDbBlockTableRecord
  2
*MODEL_SPACE
  0
BLOCK_RECORD
  5
24
100
AcDbSymbolTableRecord
100
AcDbBlockTableRecord
  2
*PAPER_SPACE
  0
BLOCK_RECORD
  5
29
100
AcDbSymbolTableRecord
100
AcDbBlockTableRecord
  2
_NONE
  0
BLOCK_RECORD
  5
2D
100
AcDbSymbolTableRecord
100
AcDbBlockTableRecord
  2
_OPEN
  0
BLOCK_RECORD
  5
33
100
AcDbSymbolTableRecord
100
AcDbBlockTableRecord
  2
_CLOSED
  0
BLOCK_RECORD
  5
3A
100
AcDbSymbolTableRecord
100
AcDbBlockTableRecord
  2
_ORIGIN
  0
BLOCK_RECORD
  5
3F
100
AcDbSymbolTableRecord
100
AcDbBlockTableRecord
  2
_DOT
  0
BLOCK_RECORD
  5
47
100
AcDbSymbolTableRecord
100
AcDbBlockTableRecord
  2
_OBLIQUE
  0
BLOCK_RECORD
  5
4B
100
AcDbSymbolTableRecord
100
AcDbBlockTableRecord
  2
DIMS0
  0
BLOCK_RECORD
  5
57
100
AcDbSymbolTableRecord
100
AcDbBlockTableRecord
  2
DIMS1
  0
BLOCK_RECORD
  5
63
100
AcDbSymbolTableRecord
100
AcDbBlockTableRecord
  2
DIMS2
  0
BLOCK_RECORD
  5
6F
100
AcDbSymbolTableRecord
100
AcDbBlockTableRecord
  2
DIMS3
  0
BLOCK_RECORD
  5
7B
100
AcDbSymbolTableRecord
100
AcDbBlockTableRecord
  2
DIMS4
  0
BLOCK_RECORD
  5
87
100
AcDbSymbolTableRecord
100
AcDbBlockTableRecord
  2
DIMS5
  0
BLOCK_RECORD
  5
93
100
AcDbSymbolTableRecord
100
AcDbBlockTableRecord
  2
DIMS6
  0
BLOCK_RECORD
  5
A0
100
AcDbSymbolTableRecord
100
AcDbBlockTableRecord
  2
DIMS7
  0
BLOCK_RECORD
  5
AC
100
AcDbSymbolTableRecord
100
AcDbBlockTableRecord
  2
DIMS8
  0
BLOCK_RECORD
  5
B8
100
AcDbSymbolTableRecord
100
AcDbBlockTableRecord
  2
DIMS9
  0
BLOCK_RECORD
  5
C4
100
AcDbSymbolTableRecord
100
AcDbBlockTableRecord
  2
DIMS10
  0
BLOCK_RECORD
  5
D0
100
AcDbSymbolTableRecord
100
AcDbBlockTableRecord
  2
DIMS11
  0
BLOCK_RECORD
  5
DC
100
AcDbSymbolTableRecord
100
AcDbBlockTableRecord
  2
DIMS12
  0
BLOCK_RECORD
  5
E8
100
AcDbSymbolTableRecord
100
AcDbBlockTableRecord
  2
DIMS13
  0
BLOCK_RECORD
  5
F3
100
AcDbSymbolTableRecord
100
AcDbBlockTableRecord
  2
DIMS14
  0
BLOCK_RECORD
  5
F8
100
AcDbSymbolTableRecord
100
AcDbBlockTableRecord
  2
DIMS15
  0
BLOCK_RECORD
  5
FD
100
AcDbSymbolTableRecord
100
AcDbBlockTableRecord
  2
DIMS16
  0
BLOCK_RECORD
  5
102
100
AcDbSymbolTableRecord
100
AcDbBlockTableRecord
  2
DIMS17
  0
BLOCK_RECORD
  5
107
100
AcDbSymbolTableRecord
100
AcDbBlockTableRecord
  2
DIMS18
  0
BLOCK_RECORD
  5
10C
100
AcDbSymbolTableRecord
100
AcDbBlockTableRecord
  2
DIMS19
  0
BLOCK_RECORD
  5
111
100
AcDbSymbolTableRecord
100
AcDbBlockTableRecord
  2
DIMS20
  0
BLOCK_RECORD
  5
116
100
AcDbSymbolTableRecord
100
AcDbBlockTableRecord
  2
DIMS21
  0
BLOCK_RECORD
  5
11F
100
AcDbSymbolTableRecord
100
AcDbBlockTableRecord
  2
DIMS22
  0
BLOCK_RECORD
  5
12B
100
AcDbSymbolTableRecord
100
AcDbBlockTableRecord
  2
DIMS23
  0
ENDTAB
  0
ENDSEC
  0
SECTION
  2
BLOCKS
  0
BLOCK
  5
22
100
AcDbEntity
  8
0
100
AcDbBlockBegin
  2
*MODEL_SPACE
 70
     0
 10
0.0
 20
0.0
 30
0.0
  3
*MODEL_SPACE
  1

  0
ENDBLK
  5
23
100
AcDbEntity
  8
0
100
AcDbBlockEnd
  0
BLOCK
  5
25
100
AcDbEntity
 67
     1
  8
0
100
AcDbBlockBegin
  2
*PAPER_SPACE
 70
     0
 10
0.0
 20
0.0
 30
0.0
  3
*PAPER_SPACE
  1

  0
ENDBLK
  5
26
100
AcDbEntity
 67
     1
  8
0
100
AcDbBlockEnd
  0
BLOCK
  5
2A
100
AcDbEntity
  8
0
100
AcDbBlockBegin
  2
_NONE
 70
     0
 10
0.0
 20
0.0
  0
CIRCLE
  5
2B
100
AcDbEntity
  8
0
 62
     0
100
AcDbCircle
 10
0.0
 20
0.0
 40
0.25
  0
ENDBLK
  5
2C
100
AcDbEntity
  8
0
100
AcDbBlockEnd
  0
BLOCK
  5
2E
100
AcDbEntity
  8
0
100
AcDbBlockBegin
  2
_OPEN
 70
     0
 10
0.0
 20
0.0
  0
LINE
  5
2F
100
AcDbEntity
  8
0
 62
     0
100
AcDbLine
 10
-0.965926
 20
0.258819
 11
0.0
 21
0.0
  0
LINE
  5
30
100
AcDbEntity
  8
0
 62
     0
100
AcDbLine
 10
0.0
 20
0.0
 11
-0.965926
 21
-0.258819
  0
LINE
  5
31
100
AcDbEntity
  8
0
 62
     0
100
AcDbLine
 10
0.0
 20
0.0
 11
-1.0
 21
0.0
  0
ENDBLK
  5
32
100
AcDbEntity
  8
0
100
AcDbBlockEnd
  0
BLOCK
  5
34
100
AcDbEntity
  8
0
100
AcDbBlockBegin
  2
_CLOSED
 70
     0
 10
0.0
 20
0.0
  0
LINE
  5
35
100
AcDbEntity
  8
0
 62
     0
100
AcDbLine
 10
-0.965926
 20
0.258819
 11
0.0
 21
0.0
  0
LINE
  5
36
100
AcDbEntity
  8
0
 62
     0
100
AcDbLine
 10
0.0
 20
0.0
 11
-0.965926
 21
-0.258819
  0
LINE
  5
37
100
AcDbEntity
  8
0
 62
     0
100
AcDbLine
 10
-0.965926
 20
0.258819
 11
-0.965926
 21
-0.258819
  0
LINE
  5
38
100
AcDbEntity
  8
0
 62
     0
100
AcDbLine
 10
0.0
 20
0.0
 11
-1.0
 21
0.0
  0
ENDBLK
  5
39
100
AcDbEntity
  8
0
100
AcDbBlockEnd
  0
BLOCK
  5
3B
100
AcDbEntity
  8
0
100
AcDbBlockBegin
  2
_ORIGIN
 70
     0
 10
0.0
 20
0.0
  0
CIRCLE
  5
3C
100
AcDbEntity
  8
0
 62
     0
100
AcDbCircle
 10
0.0
 20
0.0
 40
0.5
  0
LINE
  5
3D
100
AcDbEntity
  8
0
 62
     0
100
AcDbLine
 10
0.0
 20
0.0
 11
-1.0
 21
0.0
  0
ENDBLK
  5
3E
100
AcDbEntity
  8
0
100
AcDbBlockEnd
  0
BLOCK
  5
40
100
AcDbEntity
  8
0
100
AcDbBlockBegin
  2
_DOT
 70
     0
 10
0.0
 20
0.0
  0
POLYLINE
  5
41
100
AcDbEntity
  8
0
 62
     0
100
AcDb2dPolyline
 66
     1
 70
     1
 40
0.5
 41
0.5
  0
VERTEX
  5
42
100
AcDbEntity
  8
0
 62
     0
100
AcDbVertex
100
AcDb2dVertex
 10
-0.25
 20
0.0
 42
1.0
  0
VERTEX
  5
43
100
AcDbEntity
  8
0
 62
     0
100
AcDbVertex
100
AcDb2dVertex
 10
0.25
 20
0.0
 42
1.0
  0
SEQEND
  5
44
100
AcDbEntity
  8
0
 62
     0
  0
LINE
  5
45
100
AcDbEntity
  8
0
 62
     0
100
AcDbLine
 10
-0.5
 20
0.0
 11
-1.0
 21
0.0
  0
ENDBLK
  5
46
100
AcDbEntity
  8
0
100
AcDbBlockEnd
  0
BLOCK
  5
48
100
AcDbEntity
  8
0
100
AcDbBlockBegin
  2
_OBLIQUE
 70
     0
 10
0.0
 20
0.0
  0
LINE
  5
49
100
AcDbEntity
  8
0
 62
     0
100
AcDbLine
 10
-0.353553
 20
-0.353553
 11
0.353553
 21
0.353553
  0
ENDBLK
  5
4A
100
AcDbEntity
  8
0
100
AcDbBlockEnd
  0
BLOCK
  5
4C
100
AcDbEntity
  8
DD0
100
AcDbBlockBegin
  2
DIMS0
 70
     0
 10
0.0
 20
0.0
  0
LINE
  5
4D
100
AcDbEntity
  8
DD0
100
AcDbLine
 10
182.0522
 20
282.247742
 11
221.770447
 21
282.247742
  0
LINE
  5
4E
100
AcDbEntity
  8
DD0
100
AcDbLine
 10
69.379616
 20
267.747742
 11
221.770447
 21
267.747742
  0
LINE
  5
4F
100
AcDbEntity
  8
DD0
100
AcDbLine
 10
218.217532
 20
288.043297
 11
219.770447
 21
282.247742
  0
LINE
  5
50
100
AcDbEntity
  8
DD0
100
AcDbLine
 10
219.770447
 20
282.247742
 11
221.323361
 21
288.043297
  0
LINE
  5
51
100
AcDbEntity
  8
DD0
100
AcDbLine
 10
221.323361
 20
261.952187
 11
219.770447
 21
267.747742
  0
LINE
  5
52
100
AcDbEntity
  8
DD0
100
AcDbLine
 10
219.770447
 20
267.747742
 11
218.217532
 21
261.952187
  0
LINE
  5
53
100
AcDbEntity
  8
DD0
100
AcDbLine
 10
219.770447
 20
302.945587
 11
219.770447
 21
261.147742
  0
TEXT
  5
54
100
AcDbEntity
  8
DD0
100
AcDbText
 10
218.57045
 20
285.288908
 40
5.0
  1
１４．５
 50
90.000003
 41
0.666667
  7
STANDARD
100
AcDbText
  0
ENDBLK
  5
55
100
AcDbEntity
  8
DD0
100
AcDbBlockEnd
  0
BLOCK
  5
58
100
AcDbEntity
  8
DD0
100
AcDbBlockBegin
  2
DIMS1
 70
     0
 10
0.0
 20
0.0
  0
LINE
  5
59
100
AcDbEntity
  8
DD0
100
AcDbLine
 10
69.379616
 20
267.747742
 11
221.770462
 21
267.747742
  0
LINE
  5
5A
100
AcDbEntity
  8
DD0
100
AcDbLine
 10
123.379616
 20
208.747742
 11
221.770462
 21
208.747742
  0
LINE
  5
5B
100
AcDbEntity
  8
DD0
100
AcDbLine
 10
221.323376
 20
261.952187
 11
219.770462
 21
267.747742
  0
LINE
  5
5C
100
AcDbEntity
  8
DD0
100
AcDbLine
 10
219.770462
 20
267.747742
 11
218.217548
 21
261.952187
  0
LINE
  5
5D
100
AcDbEntity
  8
DD0
100
AcDbLine
 10
218.217548
 20
214.543297
 11
219.770462
 21
208.747742
  0
LINE
  5
5E
100
AcDbEntity
  8
DD0
100
AcDbLine
 10
219.770462
 20
208.747742
 11
221.323376
 21
214.543297
  0
LINE
  5
5F
100
AcDbEntity
  8
DD0
100
AcDbLine
 10
219.770462
 20
267.747742
 11
219.770462
 21
208.747742
  0
TEXT
  5
60
100
AcDbEntity
  8
DD0
100
AcDbText
 10
218.570465
 20
234.591078
 40
5.0
  1
５９
 50
90.000003
 41
0.666667
  7
STANDARD
100
AcDbText
  0
ENDBLK
  5
61
100
AcDbEntity
  8
DD0
100
AcDbBlockEnd
  0
BLOCK
  5
64
100
AcDbEntity
  8
DD0
100
AcDbBlockBegin
  2
DIMS2
 70
     0
 10
0.0
 20
0.0
  0
LINE
  5
65
100
AcDbEntity
  8
DD0
100
AcDbLine
 10
63.282204
 20
273.845123
 11
63.282204
 21
301.418793
  0
LINE
  5
66
100
AcDbEntity
  8
DD0
100
AcDbLine
 10
117.282204
 20
214.845139
 11
117.282204
 21
301.418793
  0
LINE
  5
67
100
AcDbEntity
  8
DD0
100
AcDbLine
 10
69.077759
 20
300.971707
 11
63.282204
 21
299.418793
  0
LINE
  5
68
100
AcDbEntity
  8
DD0
100
AcDbLine
 10
63.282204
 20
299.418793
 11
69.077759
 21
297.865878
  0
LINE
  5
69
100
AcDbEntity
  8
DD0
100
AcDbLine
 10
111.486649
 20
297.865878
 11
117.282204
 21
299.418793
  0
LINE
  5
6A
100
AcDbEntity
  8
DD0
100
AcDbLine
 10
117.282204
 20
299.418793
 11
111.486649
 21
300.971707
  0
LINE
  5
6B
100
AcDbEntity
  8
DD0
100
AcDbLine
 10
63.282204
 20
299.418793
 11
117.282204
 21
299.418793
  0
TEXT
  5
6C
100
AcDbEntity
  8
DD0
100
AcDbText
 10
86.62554
 20
300.618805
 40
5.0
  1
５４
 41
0.666667
  7
STANDARD
100
AcDbText
  0
ENDBLK
  5
6D
100
AcDbEntity
  8
DD0
100
AcDbBlockEnd
  0
BLOCK
  5
70
100
AcDbEntity
  8
DD0
100
AcDbBlockBegin
  2
DIMS3
 70
     0
 10
0.0
 20
0.0
  0
LINE
  5
71
100
AcDbEntity
  8
DD0
100
AcDbLine
 10
63.282204
 20
273.845123
 11
63.282204
 21
301.418793
  0
LINE
  5
72
100
AcDbEntity
  8
DD0
100
AcDbLine
 10
58.882217
 20
275.247742
 11
58.882217
 21
301.418793
  0
LINE
  5
73
100
AcDbEntity
  8
DD0
100
AcDbLine
 10
69.077759
 20
300.971707
 11
63.282204
 21
299.418793
  0
LINE
  5
74
100
AcDbEntity
  8
DD0
100
AcDbLine
 10
63.282204
 20
299.418793
 11
69.077759
 21
297.865878
  0
LINE
  5
75
100
AcDbEntity
  8
DD0
100
AcDbLine
 10
53.086662
 20
297.865878
 11
58.882217
 21
299.418793
  0
LINE
  5
76
100
AcDbEntity
  8
DD0
100
AcDbLine
 10
58.882217
 20
299.418793
 11
53.086662
 21
300.971707
  0
LINE
  5
77
100
AcDbEntity
  8
DD0
100
AcDbLine
 10
69.882204
 20
299.418793
 11
40.612392
 21
299.418793
  0
TEXT
  5
78
100
AcDbEntity
  8
DD0
100
AcDbText
 10
42.955725
 20
300.618805
 40
5.0
  1
４．５
 41
0.666667
  7
STANDARD
100
AcDbText
  0
ENDBLK
  5
79
100
AcDbEntity
  8
DD0
100
AcDbBlockEnd
  0
BLOCK
  5
7C
100
AcDbEntity
  8
DD0
100
AcDbBlockBegin
  2
DIMS4
 70
     0
 10
0.0
 20
0.0
  0
LINE
  5
7D
100
AcDbEntity
  8
DD0
100
AcDbLine
 10
117.282204
 20
214.845139
 11
117.282204
 21
301.418793
  0
LINE
  5
7E
100
AcDbEntity
  8
DD0
100
AcDbLine
 10
136.082199
 20
273.845123
 11
136.082199
 21
301.418793
  0
LINE
  5
7F
100
AcDbEntity
  8
DD0
100
AcDbLine
 10
123.077759
 20
300.971707
 11
117.282204
 21
299.418793
  0
LINE
  5
80
100
AcDbEntity
  8
DD0
100
AcDbLine
 10
117.282204
 20
299.418793
 11
123.077759
 21
297.865878
  0
LINE
  5
81
100
AcDbEntity
  8
DD0
100
AcDbLine
 10
130.286644
 20
297.865878
 11
136.082199
 21
299.418793
  0
LINE
  5
82
100
AcDbEntity
  8
DD0
100
AcDbLine
 10
136.082199
 20
299.418793
 11
130.286644
 21
300.971707
  0
LINE
  5
83
100
AcDbEntity
  8
DD0
100
AcDbLine
 10
117.282204
 20
299.418793
 11
136.082199
 21
299.418793
  0
TEXT
  5
84
100
AcDbEntity
  8
DD0
100
AcDbText
 10
123.025542
 20
300.618805
 40
5.0
  1
１９
 41
0.666667
  7
STANDARD
100
AcDbText
  0
ENDBLK
  5
85
100
AcDbEntity
  8
DD0
100
AcDbBlockEnd
  0
BLOCK
  5
88
100
AcDbEntity
  8
DD0
100
AcDbBlockBegin
  2
DIMS5
 70
     0
 10
0.0
 20
0.0
  0
LINE
  5
89
100
AcDbEntity
  8
DD0
100
AcDbLine
 10
136.082199
 20
273.845123
 11
136.082199
 21
301.418793
  0
LINE
  5
8A
100
AcDbEntity
  8
DD0
100
AcDbLine
 10
190.082199
 20
214.845139
 11
190.082199
 21
301.418793
  0
LINE
  5
8B
100
AcDbEntity
  8
DD0
100
AcDbLine
 10
141.877754
 20
300.971707
 11
136.082199
 21
299.418793
  0
LINE
  5
8C
100
AcDbEntity
  8
DD0
100
AcDbLine
 10
136.082199
 20
299.418793
 11
141.877754
 21
297.865878
  0
LINE
  5
8D
100
AcDbEntity
  8
DD0
100
AcDbLine
 10
184.286644
 20
297.865878
 11
190.082199
 21
299.418793
  0
LINE
  5
8E
100
AcDbEntity
  8
DD0
100
AcDbLine
 10
190.082199
 20
299.418793
 11
184.286644
 21
300.971707
  0
LINE
  5
8F
100
AcDbEntity
  8
DD0
100
AcDbLine
 10
136.082199
 20
299.418793
 11
190.082199
 21
299.418793
  0
TEXT
  5
90
100
AcDbEntity
  8
DD0
100
AcDbText
 10
159.425536
 20
300.618805
 40
5.0
  1
５４
 41
0.666667
  7
STANDARD
100
AcDbText
  0
ENDBLK
  5
91
100
AcDbEntity
  8
DD0
100
AcDbBlockEnd
  0
BLOCK
  5
94
100
AcDbEntity
  8
DD0
100
AcDbBlockBegin
  2
DIMS6
 70
     0
 10
0.0
 20
0.0
  0
LINE
  5
95
100
AcDbEntity
  8
DD0
100
AcDbLine
 10
206.982224
 20
448.634338
 11
206.982224
 21
508.427246
  0
LINE
  5
96
100
AcDbEntity
  8
DD0
100
AcDbLine
 10
46.382233
 20
448.634338
 11
46.382233
 21
508.427246
  0
LINE
  5
97
100
AcDbEntity
  8
DD0
100
AcDbLine
 10
201.186669
 20
504.874332
 11
206.982224
 21
506.427246
  0
LINE
  5
98
100
AcDbEntity
  8
DD0
100
AcDbLine
 10
206.982224
 20
506.427246
 11
201.186669
 21
507.98016
  0
LINE
  5
99
100
AcDbEntity
  8
DD0
100
AcDbLine
 10
52.177788
 20
507.98016
 11
46.382233
 21
506.427246
  0
LINE
  5
9A
100
AcDbEntity
  8
DD0
100
AcDbLine
 10
46.382233
 20
506.427246
 11
52.177788
 21
504.874332
  0
LINE
  5
9B
100
AcDbEntity
  8
DD0
100
AcDbLine
 10
206.982224
 20
506.427246
 11
46.382233
 21
506.427246
  0
TEXT
  5
9C
100
AcDbEntity
  8
DD0
100
AcDbText
 10
117.025565
 20
507.627258
 40
5.0
  1
１６０．５
 41
0.666667
  7
STANDARD
100
AcDbText
  0
TEXT
  5
9D
100
AcDbEntity
  8
DD0
100
AcDbText
 10
85.025565
 20
499.827271
 40
5.0
  1
（補助接点サイドオンユニットを付けた場合）
 41
0.666667
  7
STANDARD
100
AcDbText
  0
ENDBLK
  5
9E
100
AcDbEntity
  8
DD0
100
AcDbBlockEnd
  0
BLOCK
  5
A1
100
AcDbEntity
  8
DD0
100
AcDbBlockBegin
  2
DIMS7
 70
     0
 10
0.0
 20
0.0
  0
LINE
  5
A2
100
AcDbEntity
  8
DD0
100
AcDbLine
 10
90.282227
 20
466.934357
 11
90.282227
 21
479.095459
  0
LINE
  5
A3
100
AcDbEntity
  8
DD0
100
AcDbLine
 10
163.08223
 20
466.934357
 11
163.08223
 21
479.095459
  0
LINE
  5
A4
100
AcDbEntity
  8
DD0
100
AcDbLine
 10
96.077782
 20
478.648373
 11
90.282227
 21
477.095459
  0
LINE
  5
A5
100
AcDbEntity
  8
DD0
100
AcDbLine
 10
90.282227
 20
477.095459
 11
96.077782
 21
475.542545
  0
LINE
  5
A6
100
AcDbEntity
  8
DD0
100
AcDbLine
 10
157.286675
 20
475.542545
 11
163.08223
 21
477.095459
  0
LINE
  5
A7
100
AcDbEntity
  8
DD0
100
AcDbLine
 10
163.08223
 20
477.095459
 11
157.286675
 21
478.648373
  0
LINE
  5
A8
100
AcDbEntity
  8
DD0
100
AcDbLine
 10
90.282227
 20
477.095459
 11
163.08223
 21
477.095459
  0
TEXT
  5
A9
100
AcDbEntity
  8
DD0
100
AcDbText
 10
123.025565
 20
478.295471
 40
5.0
  1
７３
 41
0.666667
  7
STANDARD
100
AcDbText
  0
ENDBLK
  5
AA
100
AcDbEntity
  8
DD0
100
AcDbBlockEnd
  0
BLOCK
  5
AD
100
AcDbEntity
  8
DD0
100
AcDbBlockBegin
  2
DIMS8
 70
     0
 10
0.0
 20
0.0
  0
LINE
  5
AE
100
AcDbEntity
  8
DD0
100
AcDbLine
 10
90.282227
 20
374.434357
 11
90.282227
 21
365.017212
  0
LINE
  5
AF
100
AcDbEntity
  8
DD0
100
AcDbLine
 10
77.282227
 20
390.734344
 11
77.282227
 21
365.017212
  0
LINE
  5
B0
100
AcDbEntity
  8
DD0
100
AcDbLine
 10
96.077782
 20
368.570126
 11
90.282227
 21
367.017212
  0
LINE
  5
B1
100
AcDbEntity
  8
DD0
100
AcDbLine
 10
90.282227
 20
367.017212
 11
96.077782
 21
365.464298
  0
LINE
  5
B2
100
AcDbEntity
  8
DD0
100
AcDbLine
 10
71.486672
 20
365.464298
 11
77.282227
 21
367.017212
  0
LINE
  5
B3
100
AcDbEntity
  8
DD0
100
AcDbLine
 10
77.282227
 20
367.017212
 11
71.486672
 21
368.570126
  0
LINE
  5
B4
100
AcDbEntity
  8
DD0
100
AcDbLine
 10
96.882226
 20
367.017212
 11
70.682227
 21
367.017212
  0
TEXT
  5
B5
100
AcDbEntity
  8
DD0
100
AcDbText
 10
80.125563
 20
368.217224
 40
5.0
  1
１３
 41
0.666667
  7
STANDARD
100
AcDbText
  0
ENDBLK
  5
B6
100
AcDbEntity
  8
DD0
100
AcDbBlockEnd
  0
BLOCK
  5
B9
100
AcDbEntity
  8
DD0
100
AcDbBlockBegin
  2
DIMS9
 70
     0
 10
0.0
 20
0.0
  0
LINE
  5
BA
100
AcDbEntity
  8
DD0
100
AcDbLine
 10
181.199951
 20
461.434357
 11
221.770447
 21
461.434357
  0
LINE
  5
BB
100
AcDbEntity
  8
DD0
100
AcDbLine
 10
191.482224
 20
381.434357
 11
221.770447
 21
381.434357
  0
LINE
  5
BC
100
AcDbEntity
  8
DD0
100
AcDbLine
 10
221.323361
 20
455.638802
 11
219.770447
 21
461.434357
  0
LINE
  5
BD
100
AcDbEntity
  8
DD0
100
AcDbLine
 10
219.770447
 20
461.434357
 11
218.217532
 21
455.638802
  0
LINE
  5
BE
100
AcDbEntity
  8
DD0
100
AcDbLine
 10
218.217532
 20
387.229912
 11
219.770447
 21
381.434357
  0
LINE
  5
BF
100
AcDbEntity
  8
DD0
100
AcDbLine
 10
219.770447
 20
381.434357
 11
221.323361
 21
387.229912
  0
LINE
  5
C0
100
AcDbEntity
  8
DD0
100
AcDbLine
 10
219.770447
 20
461.434357
 11
219.770447
 21
381.434357
  0
TEXT
  5
C1
100
AcDbEntity
  8
DD0
100
AcDbText
 10
218.57045
 20
417.777678
 40
5.0
  1
８０
 50
90.000003
 41
0.666667
  7
STANDARD
100
AcDbText
  0
ENDBLK
  5
C2
100
AcDbEntity
  8
DD0
100
AcDbBlockEnd
  0
BLOCK
  5
C5
100
AcDbEntity
  8
DD0
100
AcDbBlockBegin
  2
DIMS10
 70
     0
 10
0.0
 20
0.0
  0
LINE
  5
C6
100
AcDbEntity
  8
DD0
100
AcDbLine
 10
58.882229
 20
449.434357
 11
58.882229
 21
491.016357
  0
LINE
  5
C7
100
AcDbEntity
  8
DD0
100
AcDbLine
 10
194.482224
 20
449.434357
 11
194.482224
 21
491.016357
  0
LINE
  5
C8
100
AcDbEntity
  8
DD0
100
AcDbLine
 10
64.677784
 20
490.569272
 11
58.882229
 21
489.016357
  0
LINE
  5
C9
100
AcDbEntity
  8
DD0
100
AcDbLine
 10
58.882229
 20
489.016357
 11
64.677784
 21
487.463443
  0
LINE
  5
CA
100
AcDbEntity
  8
DD0
100
AcDbLine
 10
188.686669
 20
487.463443
 11
194.482224
 21
489.016357
  0
LINE
  5
CB
100
AcDbEntity
  8
DD0
100
AcDbLine
 10
194.482224
 20
489.016357
 11
188.686669
 21
490.569272
  0
LINE
  5
CC
100
AcDbEntity
  8
DD0
100
AcDbLine
 10
58.882229
 20
489.016357
 11
194.482224
 21
489.016357
  0
TEXT
  5
CD
100
AcDbEntity
  8
DD0
100
AcDbText
 10
117.025565
 20
490.21637
 40
5.0
  1
１３５．５
 41
0.666667
  7
STANDARD
100
AcDbText
  0
ENDBLK
  5
CE
100
AcDbEntity
  8
DD0
100
AcDbBlockEnd
  0
BLOCK
  5
D1
100
AcDbEntity
  8
DD0
100
AcDbBlockBegin
  2
DIMS11
 70
     0
 10
0.0
 20
0.0
  0
LINE
  5
D2
100
AcDbEntity
  8
DD0
100
AcDbLine
 10
381.669647
 20
452.684357
 11
381.669647
 21
508.022247
  0
LINE
  5
D3
100
AcDbEntity
  8
DD0
100
AcDbLine
 10
251.869659
 20
435.634918
 11
251.869659
 21
508.022247
  0
LINE
  5
D4
100
AcDbEntity
  8
DD0
100
AcDbLine
 10
375.874092
 20
504.469333
 11
381.669647
 21
506.022247
  0
LINE
  5
D5
100
AcDbEntity
  8
DD0
100
AcDbLine
 10
381.669647
 20
506.022247
 11
375.874092
 21
507.575162
  0
LINE
  5
D6
100
AcDbEntity
  8
DD0
100
AcDbLine
 10
257.665214
 20
507.575162
 11
251.869659
 21
506.022247
  0
LINE
  5
D7
100
AcDbEntity
  8
DD0
100
AcDbLine
 10
251.869659
 20
506.022247
 11
257.665214
 21
504.469333
  0
LINE
  5
D8
100
AcDbEntity
  8
DD0
100
AcDbLine
 10
381.669647
 20
506.022247
 11
251.869659
 21
506.022247
  0
TEXT
  5
D9
100
AcDbEntity
  8
DD0
100
AcDbText
 10
311.112974
 20
507.22226
 40
5.0
  1
１３０
 41
0.666667
  7
STANDARD
100
AcDbText
  0
ENDBLK
  5
DA
100
AcDbEntity
  8
DD0
100
AcDbBlockEnd
  0
BLOCK
  5
DD
100
AcDbEntity
  8
DD0
100
AcDbBlockBegin
  2
DIMS12
 70
     0
 10
0.0
 20
0.0
  0
LINE
  5
DE
100
AcDbEntity
  8
DD0
100
AcDbLine
 10
251.869659
 20
435.634918
 11
251.869659
 21
508.022247
  0
LINE
  5
DF
100
AcDbEntity
  8
DD0
100
AcDbLine
 10
246.869659
 20
435.634918
 11
246.869659
 21
508.022247
  0
LINE
  5
E0
100
AcDbEntity
  8
DD0
100
AcDbLine
 10
257.665214
 20
507.575162
 11
251.869659
 21
506.022247
  0
LINE
  5
E1
100
AcDbEntity
  8
DD0
100
AcDbLine
 10
251.869659
 20
506.022247
 11
257.665214
 21
504.469333
  0
LINE
  5
E2
100
AcDbEntity
  8
DD0
100
AcDbLine
 10
241.074104
 20
504.469333
 11
246.869659
 21
506.022247
  0
LINE
  5
E3
100
AcDbEntity
  8
DD0
100
AcDbLine
 10
246.869659
 20
506.022247
 11
241.074104
 21
507.575162
  0
LINE
  5
E4
100
AcDbEntity
  8
DD0
100
AcDbLine
 10
258.469659
 20
506.022247
 11
234.269659
 21
506.022247
  0
TEXT
  5
E5
100
AcDbEntity
  8
DD0
100
AcDbText
 10
236.032988
 20
507.22226
 40
5.0
  1
５
 41
0.666667
  7
STANDARD
100
AcDbText
  0
ENDBLK
  5
E6
100
AcDbEntity
  8
DD0
100
AcDbBlockEnd
  0
BLOCK
  5
E9
100
AcDbEntity
  8
DD0
100
AcDbBlockBegin
  2
DIMS13
 70
     0
 10
0.0
 20
0.0
  0
LINE
  5
EA
100
AcDbEntity
  8
DD0
100
AcDbLine
 10
370.669647
 20
453.434357
 11
370.669647
 21
491.016357
  0
LINE
  5
EB
100
AcDbEntity
  8
DD0
100
AcDbLine
 10
387.465202
 20
490.569272
 11
381.669647
 21
489.016357
  0
LINE
  5
EC
100
AcDbEntity
  8
DD0
100
AcDbLine
 10
381.669647
 20
489.016357
 11
387.465202
 21
487.463443
  0
LINE
  5
ED
100
AcDbEntity
  8
DD0
100
AcDbLine
 10
364.874092
 20
487.463443
 11
370.669647
 21
489.016357
  0
LINE
  5
EE
100
AcDbEntity
  8
DD0
100
AcDbLine
 10
370.669647
 20
489.016357
 11
364.874092
 21
490.569272
  0
LINE
  5
EF
100
AcDbEntity
  8
DD0
100
AcDbLine
 10
388.269647
 20
489.016357
 11
364.069647
 21
489.016357
  0
TEXT
  5
F0
100
AcDbEntity
  8
DD0
100
AcDbText
 10
372.512968
 20
490.21637
 40
5.0
  1
１１
 41
0.666667
  7
STANDARD
100
AcDbText
  0
ENDBLK
  5
F1
100
AcDbEntity
  8
DD0
100
AcDbBlockEnd
  0
BLOCK
  5
F4
100
AcDbEntity
  8
DD0
100
AcDbBlockBegin
  2
DIMS14
 70
     0
 10
0.0
 20
0.0
  0
TEXT
  5
F5
100
AcDbEntity
  8
DD0
100
AcDbText
 10
120.420326
 20
370.222957
 40
6.3
  1
　
 50
114.970976
 41
0.833333
  7
STANDARD
100
AcDbText
  0
ENDBLK
  5
F6
100
AcDbEntity
  8
DD0
100
AcDbBlockEnd
  0
BLOCK
  5
F9
100
AcDbEntity
  8
DD0
100
AcDbBlockBegin
  2
DIMS15
 70
     0
 10
0.0
 20
0.0
  0
TEXT
  5
FA
100
AcDbEntity
  8
DD0
100
AcDbText
 10
111.088515
 20
369.947484
 40
6.3
  1
　
 50
101.275504
 41
0.833333
  7
STANDARD
100
AcDbText
  0
ENDBLK
  5
FB
100
AcDbEntity
  8
DD0
100
AcDbBlockEnd
  0
BLOCK
  5
FE
100
AcDbEntity
  8
DD0
100
AcDbBlockBegin
  2
DIMS16
 70
     0
 10
0.0
 20
0.0
  0
TEXT
  5
FF
100
AcDbEntity
  8
DD0
100
AcDbText
 10
126.120289
 20
488.187907
 40
6.3
  1
　
 50
50.389529
 41
0.833333
  7
STANDARD
100
AcDbText
  0
ENDBLK
  5
100
100
AcDbEntity
  8
DD0
100
AcDbBlockEnd
  0
BLOCK
  5
103
100
AcDbEntity
  8
DD0
100
AcDbBlockBegin
  2
DIMS17
 70
     0
 10
0.0
 20
0.0
  0
TEXT
  5
104
100
AcDbEntity
  8
DD0
100
AcDbText
 10
193.220322
 20
370.222957
 40
6.3
  1
　
 50
114.970976
 41
0.833333
  7
STANDARD
100
AcDbText
  0
ENDBLK
  5
105
100
AcDbEntity
  8
DD0
100
AcDbBlockEnd
  0
BLOCK
  5
108
100
AcDbEntity
  8
DD0
100
AcDbBlockBegin
  2
DIMS18
 70
     0
 10
0.0
 20
0.0
  0
TEXT
  5
109
100
AcDbEntity
  8
DD0
100
AcDbText
 10
183.888518
 20
369.947484
 40
6.3
  1
　
 50
101.275504
 41
0.833333
  7
STANDARD
100
AcDbText
  0
ENDBLK
  5
10A
100
AcDbEntity
  8
DD0
100
AcDbBlockEnd
  0
BLOCK
  5
10D
100
AcDbEntity
  8
DD0
100
AcDbBlockBegin
  2
DIMS19
 70
     0
 10
0.0
 20
0.0
  0
TEXT
  5
10E
100
AcDbEntity
  8
DD0
100
AcDbText
 10
198.920284
 20
488.187907
 40
6.3
  1
　
 50
50.389529
 41
0.833333
  7
STANDARD
100
AcDbText
  0
ENDBLK
  5
10F
100
AcDbEntity
  8
DD0
100
AcDbBlockEnd
  0
BLOCK
  5
112
100
AcDbEntity
  8
DD0
100
AcDbBlockBegin
  2
DIMS20
 70
     0
 10
0.0
 20
0.0
  0
TEXT
  5
113
100
AcDbEntity
  8
DD0
100
AcDbText
 10
193.775052
 20
487.019046
 40
5.0
  1
　
 50
52.805087
 41
0.666667
  7
STANDARD
100
AcDbText
  0
ENDBLK
  5
114
100
AcDbEntity
  8
DD0
100
AcDbBlockEnd
  0
BLOCK
  5
117
100
AcDbEntity
  8
DD0
100
AcDbBlockBegin
  2
DIMS21
 70
     0
 10
0.0
 20
0.0
  0
TEXT
  5
118
100
AcDbEntity
  8
DD0
100
AcDbText
 10
205.575285
 20
181.251205
 40
5.0
  1
４－Ｍ４ねじ穴
 41
0.666667
  7
STANDARD
100
AcDbText
  0
LINE
  5
119
100
AcDbEntity
  8
DD0
100
AcDbLine
 10
194.159906
 20
201.864989
 11
191.10704
 21
207.030258
  0
LINE
  5
11A
100
AcDbEntity
  8
DD0
100
AcDbLine
 10
191.10704
 20
207.030258
 11
191.168265
 21
201.030571
  0
LINE
  5
11B
100
AcDbEntity
  8
DD0
100
AcDbLine
 10
191.10704
 20
207.030258
 11
198.631943
 21
180.051208
  0
LINE
  5
11C
100
AcDbEntity
  8
DD0
100
AcDbLine
 10
198.631943
 20
180.051208
 11
239.83194
 21
180.051208
  0
ENDBLK
  5
11D
100
AcDbEntity
  8
DD0
100
AcDbBlockEnd
  0
BLOCK
  5
120
100
AcDbEntity
  8
DD0
100
AcDbBlockBegin
  2
DIMS22
 70
     0
 10
0.0
 20
0.0
  0
LINE
  5
121
100
AcDbEntity
  8
DD0
100
AcDbLine
 10
72.164497
 20
461.434357
 11
33.952381
 21
461.434357
  0
LINE
  5
122
100
AcDbEntity
  8
DD0
100
AcDbLine
 10
75.282227
 20
440.634338
 11
33.952381
 21
440.634338
  0
LINE
  5
123
100
AcDbEntity
  8
DD0
100
AcDbLine
 10
37.505295
 20
455.638802
 11
35.952381
 21
461.434357
  0
LINE
  5
124
100
AcDbEntity
  8
DD0
100
AcDbLine
 10
35.952381
 20
461.434357
 11
34.399467
 21
455.638802
  0
LINE
  5
125
100
AcDbEntity
  8
DD0
100
AcDbLine
 10
34.399467
 20
446.429893
 11
35.952381
 21
440.634338
  0
LINE
  5
126
100
AcDbEntity
  8
DD0
100
AcDbLine
 10
35.952381
 20
440.634338
 11
37.505295
 21
446.429893
  0
LINE
  5
127
100
AcDbEntity
  8
DD0
100
AcDbLine
 10
35.952381
 20
461.434357
 11
35.952381
 21
440.634338
  0
TEXT
  5
128
100
AcDbEntity
  8
DD0
100
AcDbText
 10
34.75238
 20
447.377684
 40
5.0
  1
２１
 50
90.000003
 41
0.666667
  7
STANDARD
100
AcDbText
  0
ENDBLK
  5
129
100
AcDbEntity
  8
DD0
100
AcDbBlockEnd
  0
BLOCK
  5
12C
100
AcDbEntity
  8
DD0
100
AcDbBlockBegin
  2
DIMS23
 70
     0
 10
0.0
 20
0.0
  0
LINE
  5
12D
100
AcDbEntity
  8
DD0
100
AcDbLine
 10
75.282227
 20
440.634338
 11
33.952381
 21
440.634338
  0
LINE
  5
12E
100
AcDbEntity
  8
DD0
100
AcDbLine
 10
75.282227
 20
393.234344
 11
33.952381
 21
393.234344
  0
LINE
  5
12F
100
AcDbEntity
  8
DD0
100
AcDbLine
 10
37.505295
 20
434.838783
 11
35.952381
 21
440.634338
  0
LINE
  5
130
100
AcDbEntity
  8
DD0
100
AcDbLine
 10
35.952381
 20
440.634338
 11
34.399467
 21
434.838783
  0
LINE
  5
131
100
AcDbEntity
  8
DD0
100
AcDbLine
 10
34.399467
 20
399.029899
 11
35.952381
 21
393.234344
  0
LINE
  5
132
100
AcDbEntity
  8
DD0
100
AcDbLine
 10
35.952381
 20
393.234344
 11
37.505295
 21
399.029899
  0
LINE
  5
133
100
AcDbEntity
  8
DD0
100
AcDbLine
 10
35.952381
 20
440.634338
 11
35.952381
 21
393.234344
  0
TEXT
  5
134
100
AcDbEntity
  8
DD0
100
AcDbText
 10
34.75238
 20
409.277647
 40
5.0
  1
４７．５
 50
90.000003
 41
0.666667
  7
STANDARD
100
AcDbText
  0
ENDBLK
  5
135
100
AcDbEntity
  8
DD0
100
AcDbBlockEnd
  0
ENDSEC
  0
SECTION
  2
ENTITIES
  0
INSERT
  5
56
100
AcDbEntity
  8
DD0
100
AcDbBlockReference
  2
DIMS0
 10
0.0
 20
0.0
  0
INSERT
  5
62
100
AcDbEntity
  8
DD0
100
AcDbBlockReference
  2
DIMS1
 10
0.0
 20
0.0
  0
INSERT
  5
6E
100
AcDbEntity
  8
DD0
100
AcDbBlockReference
  2
DIMS2
 10
0.0
 20
0.0
  0
INSERT
  5
7A
100
AcDbEntity
  8
DD0
100
AcDbBlockReference
  2
DIMS3
 10
0.0
 20
0.0
  0
INSERT
  5
86
100
AcDbEntity
  8
DD0
100
AcDbBlockReference
  2
DIMS4
 10
0.0
 20
0.0
  0
INSERT
  5
92
100
AcDbEntity
  8
DD0
100
AcDbBlockReference
  2
DIMS5
 10
0.0
 20
0.0
  0
INSERT
  5
9F
100
AcDbEntity
  8
DD0
100
AcDbBlockReference
  2
DIMS6
 10
0.0
 20
0.0
  0
INSERT
  5
AB
100
AcDbEntity
  8
DD0
100
AcDbBlockReference
  2
DIMS7
 10
0.0
 20
0.0
  0
INSERT
  5
B7
100
AcDbEntity
  8
DD0
100
AcDbBlockReference
  2
DIMS8
 10
0.0
 20
0.0
  0
INSERT
  5
C3
100
AcDbEntity
  8
DD0
100
AcDbBlockReference
  2
DIMS9
 10
0.0
 20
0.0
  0
INSERT
  5
CF
100
AcDbEntity
  8
DD0
100
AcDbBlockReference
  2
DIMS10
 10
0.0
 20
0.0
  0
INSERT
  5
DB
100
AcDbEntity
  8
DD0
100
AcDbBlockReference
  2
DIMS11
 10
0.0
 20
0.0
  0
INSERT
  5
E7
100
AcDbEntity
  8
DD0
100
AcDbBlockReference
  2
DIMS12
 10
0.0
 20
0.0
  0
INSERT
  5
F2
100
AcDbEntity
  8
DD0
100
AcDbBlockReference
  2
DIMS13
 10
0.0
 20
0.0
  0
INSERT
  5
F7
100
AcDbEntity
  8
DD0
100
AcDbBlockReference
  2
DIMS14
 10
0.0
 20
0.0
  0
INSERT
  5
FC
100
AcDbEntity
  8
DD0
100
AcDbBlockReference
  2
DIMS15
 10
0.0
 20
0.0
  0
INSERT
  5
101
100
AcDbEntity
  8
DD0
100
AcDbBlockReference
  2
DIMS16
 10
0.0
 20
0.0
  0
INSERT
  5
106
100
AcDbEntity
  8
DD0
100
AcDbBlockReference
  2
DIMS17
 10
0.0
 20
0.0
  0
INSERT
  5
10B
100
AcDbEntity
  8
DD0
100
AcDbBlockReference
  2
DIMS18
 10
0.0
 20
0.0
  0
INSERT
  5
110
100
AcDbEntity
  8
DD0
100
AcDbBlockReference
  2
DIMS19
 10
0.0
 20
0.0
  0
INSERT
  5
115
100
AcDbEntity
  8
DD0
100
AcDbBlockReference
  2
DIMS20
 10
0.0
 20
0.0
  0
INSERT
  5
11E
100
AcDbEntity
  8
DD0
100
AcDbBlockReference
  2
DIMS21
 10
0.0
 20
0.0
  0
INSERT
  5
12A
100
AcDbEntity
  8
DD0
100
AcDbBlockReference
  2
DIMS22
 10
0.0
 20
0.0
  0
INSERT
  5
136
100
AcDbEntity
  8
DD0
100
AcDbBlockReference
  2
DIMS23
 10
0.0
 20
0.0
  0
LINE
  5
137
100
AcDbEntity
  8
M0
  6
DIVIDE
 62
     7
100
AcDbLine
 10
131.682209
 20
263.047739
 11
121.682209
 21
263.047739
  0
LINE
  5
138
100
AcDbEntity
  8
M0
  6
DIVIDE
 62
     7
100
AcDbLine
 10
131.682209
 20
212.247736
 11
121.682209
 21
212.247736
  0
LINE
  5
139
100
AcDbEntity
  8
M0
  6
DASHDOT
 62
     7
100
AcDbLine
 10
67.379617
 20
267.747738
 11
59.184808
 21
267.747738
  0
LINE
  5
13A
100
AcDbEntity
  8
M0
  6
DASHDOT
 62
     7
100
AcDbLine
 10
63.282205
 20
271.845135
 11
63.28222
 21
263.650326
  0
LINE
  5
13B
100
AcDbEntity
  8
M0
  6
DASHDOT
 62
     7
100
AcDbLine
 10
121.379617
 20
208.747738
 11
113.184808
 21
208.747738
  0
LINE
  5
13C
100
AcDbEntity
  8
M0
  6
DASHDOT
 62
     7
100
AcDbLine
 10
117.282205
 20
212.845135
 11
117.28222
 21
203.650326
  0
LINE
  5
13D
100
AcDbEntity
  8
M0
  6
DIVIDE
 62
     7
100
AcDbLine
 10
121.682209
 20
273.247739
 11
121.682209
 21
263.047739
  0
LINE
  5
13E
100
AcDbEntity
  8
M0
  6
DIVIDE
 62
     7
100
AcDbLine
 10
194.482203
 20
202.247736
 11
131.682209
 21
202.247736
  0
LINE
  5
13F
100
AcDbEntity
  8
M0
  6
DIVIDE
 62
     7
100
AcDbLine
 10
180.052206
 20
273.247739
 11
194.482203
 21
273.247739
  0
LINE
  5
140
100
AcDbEntity
  8
M0
  6
DIVIDE
 62
     7
100
AcDbLine
 10
194.482203
 20
273.247739
 11
194.482203
 21
202.247736
  0
LINE
  5
141
100
AcDbEntity
  8
M0
  6
DIVIDE
 62
     7
100
AcDbLine
 10
131.682209
 20
273.247739
 11
131.682209
 21
263.047739
  0
LINE
  5
142
100
AcDbEntity
  8
M0
  6
DASHDOT
 62
     7
100
AcDbLine
 10
194.179611
 20
208.747738
 11
185.984802
 21
208.747738
  0
LINE
  5
143
100
AcDbEntity
  8
M0
  6
DASHDOT
 62
     7
100
AcDbLine
 10
190.082199
 20
212.845135
 11
190.082214
 21
203.650326
  0
LINE
  5
144
100
AcDbEntity
  8
M0
  6
DASHDOT
 62
     7
100
AcDbLine
 10
140.179611
 20
267.747738
 11
131.984802
 21
267.747738
  0
LINE
  5
145
100
AcDbEntity
  8
M0
  6
DASHDOT
 62
     7
100
AcDbLine
 10
136.082199
 20
271.845135
 11
136.082214
 21
263.650326
  0
LINE
  5
146
100
AcDbEntity
  8
M0
  6
DIVIDE
 62
     7
100
AcDbLine
 10
146.112132
 20
282.247738
 11
180.052206
 21
282.247738
  0
LINE
  5
147
100
AcDbEntity
  8
M0
  6
DIVIDE
 62
     7
100
AcDbLine
 10
146.112132
 20
273.247739
 11
131.682209
 21
273.247739
  0
LINE
  5
148
100
AcDbEntity
  8
M0
  6
DIVIDE
 62
     7
100
AcDbLine
 10
131.682209
 20
212.247736
 11
131.682209
 21
202.247736
  0
LINE
  5
149
100
AcDbEntity
  8
M0
  6
DIVIDE
 62
     7
100
AcDbLine
 10
121.682209
 20
202.247736
 11
58.882216
 21
202.247736
  0
LINE
  5
14A
100
AcDbEntity
  8
M0
  6
DIVIDE
 62
     7
100
AcDbLine
 10
58.882216
 20
273.247739
 11
58.882216
 21
202.247736
  0
LINE
  5
14B
100
AcDbEntity
  8
M0
  6
DIVIDE
 62
     7
100
AcDbLine
 10
73.312138
 20
273.247739
 11
58.882216
 21
273.247739
  0
LINE
  5
14C
100
AcDbEntity
  8
M0
  6
DIVIDE
 62
     7
100
AcDbLine
 10
107.252212
 20
273.247739
 11
121.682209
 21
273.247739
  0
LINE
  5
14D
100
AcDbEntity
  8
M0
  6
DIVIDE
 62
     7
100
AcDbLine
 10
121.682209
 20
212.247736
 11
121.682209
 21
202.247736
  0
LINE
  5
14E
100
AcDbEntity
  8
M0
  6
DIVIDE
 62
     7
100
AcDbLine
 10
73.312138
 20
282.247738
 11
107.252212
 21
282.247738
  0
CIRCLE
  5
14F
100
AcDbEntity
  8
M0
 62
     7
100
AcDbCircle
 10
117.282212
 20
208.747738
 40
2.0
  0
CIRCLE
  5
150
100
AcDbEntity
  8
M0
 62
     7
100
AcDbCircle
 10
63.282213
 20
267.747738
 40
2.0
  0
CIRCLE
  5
151
100
AcDbEntity
  8
M0
 62
     7
100
AcDbCircle
 10
63.282213
 20
267.74773
 40
1.7
  0
CIRCLE
  5
152
100
AcDbEntity
  8
M0
 62
     7
100
AcDbCircle
 10
117.282212
 20
208.747738
 40
1.7
  0
LINE
  5
153
100
AcDbEntity
  8
M0
  6
DIVIDE
 62
     7
100
AcDbLine
 10
180.052206
 20
282.247738
 11
180.052206
 21
273.247739
  0
LINE
  5
154
100
AcDbEntity
  8
M0
  6
DIVIDE
 62
     7
100
AcDbLine
 10
146.112132
 20
282.247738
 11
146.112132
 21
273.247739
  0
LINE
  5
155
100
AcDbEntity
  8
M0
  6
DIVIDE
 62
     7
100
AcDbLine
 10
73.312138
 20
282.247738
 11
73.312138
 21
273.247739
  0
LINE
  5
156
100
AcDbEntity
  8
M0
  6
DIVIDE
 62
     7
100
AcDbLine
 10
107.252212
 20
282.247738
 11
107.252212
 21
273.247739
  0
CIRCLE
  5
157
100
AcDbEntity
  8
M0
 62
     7
100
AcDbCircle
 10
190.082206
 20
208.747738
 40
2.0
  0
CIRCLE
  5
158
100
AcDbEntity
  8
M0
 62
     7
100
AcDbCircle
 10
136.082207
 20
267.747738
 40
2.0
  0
CIRCLE
  5
159
100
AcDbEntity
  8
M0
 62
     7
100
AcDbCircle
 10
136.082207
 20
267.74773
 40
1.7
  0
CIRCLE
  5
15A
100
AcDbEntity
  8
M0
 62
     7
100
AcDbCircle
 10
190.082206
 20
208.747738
 40
1.7
  0
LINE
  5
15B
100
AcDbEntity
  8
M0
  6
DASHED
 62
     1
100
AcDbLine
 10
206.982221
 20
446.634352
 11
206.982221
 21
387.234352
  0
LINE
  5
15C
100
AcDbEntity
  8
M0
  6
DASHED
 62
     1
100
AcDbLine
 10
206.982221
 20
387.234352
 11
194.482221
 21
387.234352
  0
LINE
  5
15D
100
AcDbEntity
  8
M0
  6
DASHED
 62
     1
100
AcDbLine
 10
206.982221
 20
446.634352
 11
194.482221
 21
446.634352
  0
LINE
  5
15E
100
AcDbEntity
  8
M0
  6
DASHED
 62
     1
100
AcDbLine
 10
46.382231
 20
446.634352
 11
46.382231
 21
387.234352
  0
LINE
  5
15F
100
AcDbEntity
  8
M0
  6
DASHED
 62
     1
100
AcDbLine
 10
46.382231
 20
387.234352
 11
58.882231
 21
387.234352
  0
LINE
  5
160
100
AcDbEntity
  8
M0
  6
DASHED
 62
     1
100
AcDbLine
 10
46.382231
 20
446.634352
 11
58.882231
 21
446.634352
  0
CIRCLE
  5
161
100
AcDbEntity
  8
M0
 62
     1
100
AcDbCircle
 10
103.282228
 20
384.434352
 40
2.75
  0
LINE
  5
162
100
AcDbEntity
  8
M0
 62
     1
100
AcDbLine
 10
102.982228
 20
383.034352
 11
102.982228
 21
383.430712
  0
LINE
  5
163
100
AcDbEntity
  8
M0
 62
     1
100
AcDbLine
 10
103.582228
 20
383.034352
 11
103.582228
 21
383.430712
  0
LINE
  5
164
100
AcDbEntity
  8
M0
 62
     1
100
AcDbLine
 10
102.982228
 20
385.834352
 11
102.982228
 21
385.437991
  0
LINE
  5
165
100
AcDbEntity
  8
M0
 62
     1
100
AcDbLine
 10
103.582228
 20
385.834352
 11
103.582228
 21
385.437991
  0
ARC
  5
166
100
AcDbEntity
  8
M0
 62
     1
100
AcDbCircle
 10
102.257228
 20
383.409352
 40
0.725
100
AcDbArc
 50
0.0
 51
90.0
  0
ARC
  5
167
100
AcDbEntity
  8
M0
 62
     1
100
AcDbCircle
 10
102.257228
 20
385.459352
 40
0.725
100
AcDbArc
 50
-90.0
 51
0.0
  0
ARC
  5
168
100
AcDbEntity
  8
M0
 62
     1
100
AcDbCircle
 10
104.307228
 20
385.459352
 40
0.725
100
AcDbArc
 50
180.0
 51
270.0
  0
ARC
  5
169
100
AcDbEntity
  8
M0
 62
     1
100
AcDbCircle
 10
104.307228
 20
383.409352
 40
0.725
100
AcDbArc
 50
90.0
 51
180.0
  0
LINE
  5
16A
100
AcDbEntity
  8
M0
 62
     1
100
AcDbLine
 10
104.307228
 20
384.134352
 11
104.707228
 21
384.134352
  0
LINE
  5
16B
100
AcDbEntity
  8
M0
 62
     1
100
AcDbLine
 10
104.307228
 20
384.734352
 11
104.707228
 21
384.734352
  0
LINE
  5
16C
100
AcDbEntity
  8
M0
 62
     1
100
AcDbLine
 10
102.982228
 20
385.834352
 11
103.582228
 21
385.834352
  0
LINE
  5
16D
100
AcDbEntity
  8
M0
 62
     1
100
AcDbLine
 10
102.982228
 20
383.034352
 11
103.582228
 21
383.034352
  0
LINE
  5
16E
100
AcDbEntity
  8
M0
 62
     1
100
AcDbLine
 10
101.882228
 20
384.734352
 11
102.257228
 21
384.734352
  0
LINE
  5
16F
100
AcDbEntity
  8
M0
 62
     1
100
AcDbLine
 10
101.882228
 20
384.734352
 11
101.882228
 21
384.134352
  0
LINE
  5
170
100
AcDbEntity
  8
M0
 62
     1
100
AcDbLine
 10
101.882228
 20
384.134352
 11
102.257228
 21
384.134352
  0
LINE
  5
171
100
AcDbEntity
  8
M0
 62
     1
100
AcDbLine
 10
104.707228
 20
384.734352
 11
104.707228
 21
384.134352
  0
CIRCLE
  5
172
100
AcDbEntity
  8
M0
 62
     1
100
AcDbCircle
 10
137.882224
 20
437.834352
 40
3.0
  0
LINE
  5
173
100
AcDbEntity
  8
M0
 62
     1
100
AcDbLine
 10
139.472808
 20
436.243707
 11
136.291168
 21
439.425469
  0
LINE
  5
174
100
AcDbEntity
  8
M0
 62
     1
100
AcDbLine
 10
139.29605
 20
438.188043
 11
137.528472
 21
436.420465
  0
LINE
  5
175
100
AcDbEntity
  8
M0
 62
     1
100
AcDbLine
 10
138.235503
 20
439.248712
 11
136.467925
 21
437.481011
  0
LINE
  5
176
100
AcDbEntity
  8
M0
 62
     1
100
AcDbLine
 10
141.207224
 20
441.659352
 11
134.557224
 21
441.659352
  0
ARC
  5
177
100
AcDbEntity
  8
M0
 62
     1
100
AcDbCircle
 10
141.207224
 20
441.159352
 40
0.5
100
AcDbArc
 50
0.0
 51
90.0
  0
LINE
  5
178
100
AcDbEntity
  8
M0
 62
     1
100
AcDbLine
 10
141.707224
 20
434.934352
 11
141.707224
 21
441.159352
  0
LINE
  5
179
100
AcDbEntity
  8
M0
 62
     1
100
AcDbLine
 10
134.557224
 20
434.009352
 11
139.082224
 21
434.009352
  0
LINE
  5
17A
100
AcDbEntity
  8
M0
 62
     1
100
AcDbLine
 10
134.057224
 20
441.159352
 11
134.057224
 21
434.509352
  0
ARC
  5
17B
100
AcDbEntity
  8
M0
 62
     1
100
AcDbCircle
 10
134.557224
 20
441.159352
 40
0.5
100
AcDbArc
 50
90.0
 51
180.0
  0
ARC
  5
17C
100
AcDbEntity
  8
M0
 62
     1
100
AcDbCircle
 10
134.557224
 20
434.509352
 40
0.5
100
AcDbArc
 50
180.0
 51
270.0
  0
CIRCLE
  5
17D
100
AcDbEntity
  8
M0
 62
     1
100
AcDbCircle
 10
188.282224
 20
396.034352
 40
3.0
  0
LINE
  5
17E
100
AcDbEntity
  8
M0
 62
     1
100
AcDbLine
 10
189.872808
 20
394.443707
 11
186.691167
 21
397.625469
  0
LINE
  5
17F
100
AcDbEntity
  8
M0
 62
     1
100
AcDbLine
 10
189.69605
 20
396.388043
 11
187.928472
 21
394.620465
  0
LINE
  5
180
100
AcDbEntity
  8
M0
 62
     1
100
AcDbLine
 10
188.635503
 20
397.448712
 11
186.867925
 21
395.681011
  0
LINE
  5
181
100
AcDbEntity
  8
M0
 62
     1
100
AcDbLine
 10
191.607224
 20
399.859352
 11
187.079408
 21
399.859352
  0
ARC
  5
182
100
AcDbEntity
  8
M0
 62
     1
100
AcDbCircle
 10
191.607224
 20
399.359352
 40
0.5
100
AcDbArc
 50
0.0
 51
90.0
  0
LINE
  5
183
100
AcDbEntity
  8
M0
 62
     1
100
AcDbLine
 10
192.107224
 20
392.709352
 11
192.107224
 21
399.359352
  0
ARC
  5
184
100
AcDbEntity
  8
M0
 62
     1
100
AcDbCircle
 10
191.607224
 20
392.709352
 40
0.5
100
AcDbArc
 50
270.0
 51
360.0
  0
LINE
  5
185
100
AcDbEntity
  8
M0
 62
     1
100
AcDbLine
 10
184.957224
 20
392.209352
 11
191.607224
 21
392.209352
  0
LINE
  5
186
100
AcDbEntity
  8
M0
 62
     1
100
AcDbLine
 10
184.457224
 20
398.934353
 11
184.457224
 21
392.709352
  0
ARC
  5
187
100
AcDbEntity
  8
M0
 62
     1
100
AcDbCircle
 10
184.957224
 20
392.709352
 40
0.5
100
AcDbArc
 50
180.0
 51
270.0
  0
LINE
  5
188
100
AcDbEntity
  8
M0
 62
     1
100
AcDbLine
 10
139.082224
 20
402.434306
 11
136.291168
 21
405.225469
  0
LINE
  5
189
100
AcDbEntity
  8
M0
 62
     1
100
AcDbLine
 10
139.082224
 20
403.774217
 11
137.528472
 21
402.220465
  0
LINE
  5
18A
100
AcDbEntity
  8
M0
 62
     1
100
AcDbLine
 10
138.235504
 20
405.048712
 11
136.467925
 21
403.281011
  0
LINE
  5
18B
100
AcDbEntity
  8
M0
 62
     1
100
AcDbLine
 10
139.082224
 20
407.459352
 11
134.557224
 21
407.459352
  0
LINE
  5
18C
100
AcDbEntity
  8
M0
 62
     1
100
AcDbLine
 10
134.557224
 20
399.809352
 11
139.090068
 21
399.809352
  0
LINE
  5
18D
100
AcDbEntity
  8
M0
 62
     1
100
AcDbLine
 10
134.057224
 20
406.959352
 11
134.057224
 21
400.309352
  0
ARC
  5
18E
100
AcDbEntity
  8
M0
 62
     1
100
AcDbCircle
 10
134.557224
 20
406.959352
 40
0.5
100
AcDbArc
 50
90.0
 51
180.0
  0
ARC
  5
18F
100
AcDbEntity
  8
M0
 62
     1
100
AcDbCircle
 10
134.557224
 20
400.309352
 40
0.5
100
AcDbArc
 50
180.0
 51
270.0
  0
ARC
  5
190
100
AcDbEntity
  8
M0
 62
     1
100
AcDbCircle
 10
137.882224
 20
403.634352
 40
3.0
100
AcDbArc
 50
66.421825
 51
293.578175
  0
CIRCLE
  5
191
100
AcDbEntity
  8
M0
 62
     1
100
AcDbCircle
 10
115.482228
 20
437.834352
 40
3.0
  0
LINE
  5
192
100
AcDbEntity
  8
M0
 62
     1
100
AcDbLine
 10
117.072812
 20
436.243707
 11
113.891171
 21
439.425469
  0
LINE
  5
193
100
AcDbEntity
  8
M0
 62
     1
100
AcDbLine
 10
116.896054
 20
438.188043
 11
115.128476
 21
436.420465
  0
LINE
  5
194
100
AcDbEntity
  8
M0
 62
     1
100
AcDbLine
 10
115.835507
 20
439.248712
 11
114.067929
 21
437.481011
  0
LINE
  5
195
100
AcDbEntity
  8
M0
 62
     1
100
AcDbLine
 10
118.807228
 20
441.659352
 11
112.157228
 21
441.659352
  0
ARC
  5
196
100
AcDbEntity
  8
M0
 62
     1
100
AcDbCircle
 10
118.807228
 20
441.159352
 40
0.5
100
AcDbArc
 50
0.0
 51
90.0
  0
LINE
  5
197
100
AcDbEntity
  8
M0
 62
     1
100
AcDbLine
 10
119.307228
 20
434.509352
 11
119.307228
 21
441.159352
  0
ARC
  5
198
100
AcDbEntity
  8
M0
 62
     1
100
AcDbCircle
 10
118.807228
 20
434.509352
 40
0.5
100
AcDbArc
 50
270.0
 51
360.0
  0
LINE
  5
199
100
AcDbEntity
  8
M0
 62
     1
100
AcDbLine
 10
114.282228
 20
434.009352
 11
118.807228
 21
434.009352
  0
LINE
  5
19A
100
AcDbEntity
  8
M0
 62
     1
100
AcDbLine
 10
111.657228
 20
441.159352
 11
111.657228
 21
434.934352
  0
ARC
  5
19B
100
AcDbEntity
  8
M0
 62
     1
100
AcDbCircle
 10
112.157228
 20
441.159352
 40
0.5
100
AcDbArc
 50
90.0
 51
180.0
  0
LINE
  5
19C
100
AcDbEntity
  8
M0
 62
     1
100
AcDbLine
 10
66.282228
 20
429.034306
 11
63.491171
 21
431.825469
  0
LINE
  5
19D
100
AcDbEntity
  8
M0
 62
     1
100
AcDbLine
 10
66.282228
 20
430.374217
 11
64.728476
 21
428.820465
  0
LINE
  5
19E
100
AcDbEntity
  8
M0
 62
     1
100
AcDbLine
 10
65.435507
 20
431.648712
 11
63.667929
 21
429.881011
  0
LINE
  5
19F
100
AcDbEntity
  8
M0
 62
     1
100
AcDbLine
 10
66.290071
 20
434.059352
 11
61.757228
 21
434.059352
  0
LINE
  5
1A0
100
AcDbEntity
  8
M0
 62
     1
100
AcDbLine
 10
61.757228
 20
426.409352
 11
66.282228
 21
426.409352
  0
LINE
  5
1A1
100
AcDbEntity
  8
M0
 62
     1
100
AcDbLine
 10
61.257228
 20
433.559352
 11
61.257228
 21
426.909352
  0
ARC
  5
1A2
100
AcDbEntity
  8
M0
 62
     1
100
AcDbCircle
 10
61.757228
 20
433.559352
 40
0.5
100
AcDbArc
 50
90.0
 51
180.0
  0
ARC
  5
1A3
100
AcDbEntity
  8
M0
 62
     1
100
AcDbCircle
 10
61.757228
 20
426.909352
 40
0.5
100
AcDbArc
 50
180.0
 51
270.0
  0
ARC
  5
1A4
100
AcDbEntity
  8
M0
 62
     1
100
AcDbCircle
 10
65.082228
 20
430.234352
 40
3.0
100
AcDbArc
 50
66.421824
 51
293.578176
  0
LINE
  5
1A5
100
AcDbEntity
  8
M0
 62
     1
100
AcDbLine
 10
189.872808
 20
428.643707
 11
187.082225
 21
431.434397
  0
LINE
  5
1A6
100
AcDbEntity
  8
M0
 62
     1
100
AcDbLine
 10
189.69605
 20
430.588043
 11
187.928472
 21
428.820465
  0
LINE
  5
1A7
100
AcDbEntity
  8
M0
 62
     1
100
AcDbLine
 10
188.635503
 20
431.648712
 11
187.082225
 21
430.095326
  0
LINE
  5
1A8
100
AcDbEntity
  8
M0
 62
     1
100
AcDbLine
 10
191.607224
 20
434.059352
 11
187.074381
 21
434.059352
  0
ARC
  5
1A9
100
AcDbEntity
  8
M0
 62
     1
100
AcDbCircle
 10
191.607224
 20
433.559352
 40
0.5
100
AcDbArc
 50
0.0
 51
90.0
  0
LINE
  5
1AA
100
AcDbEntity
  8
M0
 62
     1
100
AcDbLine
 10
192.107224
 20
426.909352
 11
192.107224
 21
433.559352
  0
ARC
  5
1AB
100
AcDbEntity
  8
M0
 62
     1
100
AcDbCircle
 10
191.607224
 20
426.909352
 40
0.5
100
AcDbArc
 50
270.0
 51
360.0
  0
LINE
  5
1AC
100
AcDbEntity
  8
M0
 62
     1
100
AcDbLine
 10
187.082225
 20
426.409352
 11
191.607224
 21
426.409352
  0
ARC
  5
1AD
100
AcDbEntity
  8
M0
 62
     1
100
AcDbCircle
 10
188.282224
 20
430.234352
 40
3.0
100
AcDbArc
 50
246.421832
 51
473.578168
  0
ARC
  5
1AE
100
AcDbEntity
  8
M0
 62
     1
100
AcDbCircle
 10
81.782228
 20
436.134352
 40
0.5
100
AcDbArc
 50
270.0
 51
360.0
  0
LINE
  5
1AF
100
AcDbEntity
  8
M0
 62
     1
100
AcDbLine
 10
82.282228
 20
445.134352
 11
82.282228
 21
436.134352
  0
ARC
  5
1B0
100
AcDbEntity
  8
M0
 62
     1
100
AcDbCircle
 10
81.782228
 20
445.134352
 40
0.5
100
AcDbArc
 50
0.0
 51
90.0
  0
LINE
  5
1B1
100
AcDbEntity
  8
M0
 62
     1
100
AcDbLine
 10
72.282228
 20
445.134352
 11
72.282228
 21
436.134352
  0
ARC
  5
1B2
100
AcDbEntity
  8
M0
 62
     1
100
AcDbCircle
 10
72.782228
 20
445.134352
 40
0.5
100
AcDbArc
 50
90.0
 51
180.0
  0
ARC
  5
1B3
100
AcDbEntity
  8
M0
 62
     1
100
AcDbCircle
 10
72.782228
 20
436.134352
 40
0.5
100
AcDbArc
 50
180.0
 51
270.0
  0
LINE
  5
1B4
100
AcDbEntity
  8
M0
 62
     1
100
AcDbLine
 10
72.782228
 20
435.634352
 11
81.782228
 21
435.634352
  0
LINE
  5
1B5
100
AcDbEntity
  8
M0
 62
     1
100
AcDbLine
 10
81.782228
 20
445.634352
 11
72.782228
 21
445.634352
  0
CIRCLE
  5
1B6
100
AcDbEntity
  8
M0
 62
     1
100
AcDbCircle
 10
77.282228
 20
440.634352
 40
3.5
  0
LINE
  5
1B7
100
AcDbEntity
  8
M0
 62
     1
100
AcDbLine
 10
78.2931
 20
442.352309
 11
75.718026
 21
439.777235
  0
LINE
  5
1B8
100
AcDbEntity
  8
M0
 62
     1
100
AcDbLine
 10
79.000207
 20
441.645201
 11
76.425134
 21
439.070128
  0
LINE
  5
1B9
100
AcDbEntity
  8
M0
 62
     1
100
AcDbLine
 10
76.321374
 20
441.595198
 11
78.166223
 21
439.750365
  0
ARC
  5
1BA
100
AcDbEntity
  8
M0
 62
     1
100
AcDbCircle
 10
94.782225
 20
436.134352
 40
0.5
100
AcDbArc
 50
270.0
 51
360.0
  0
LINE
  5
1BB
100
AcDbEntity
  8
M0
 62
     1
100
AcDbLine
 10
95.282225
 20
445.134352
 11
95.282225
 21
436.134352
  0
ARC
  5
1BC
100
AcDbEntity
  8
M0
 62
     1
100
AcDbCircle
 10
94.782225
 20
445.134352
 40
0.5
100
AcDbArc
 50
0.0
 51
90.0
  0
LINE
  5
1BD
100
AcDbEntity
  8
M0
 62
     1
100
AcDbLine
 10
85.282225
 20
445.134352
 11
85.282225
 21
436.134352
  0
ARC
  5
1BE
100
AcDbEntity
  8
M0
 62
     1
100
AcDbCircle
 10
85.782225
 20
445.134352
 40
0.5
100
AcDbArc
 50
90.0
 51
180.0
  0
ARC
  5
1BF
100
AcDbEntity
  8
M0
 62
     1
100
AcDbCircle
 10
85.782225
 20
436.134352
 40
0.5
100
AcDbArc
 50
180.0
 51
270.0
  0
LINE
  5
1C0
100
AcDbEntity
  8
M0
 62
     1
100
AcDbLine
 10
85.782225
 20
435.634352
 11
94.782225
 21
435.634352
  0
LINE
  5
1C1
100
AcDbEntity
  8
M0
 62
     1
100
AcDbLine
 10
94.782225
 20
445.634352
 11
85.782225
 21
445.634352
  0
CIRCLE
  5
1C2
100
AcDbEntity
  8
M0
 62
     1
100
AcDbCircle
 10
90.282225
 20
440.634352
 40
3.5
  0
LINE
  5
1C3
100
AcDbEntity
  8
M0
 62
     1
100
AcDbLine
 10
91.293096
 20
442.352309
 11
88.718023
 21
439.777235
  0
LINE
  5
1C4
100
AcDbEntity
  8
M0
 62
     1
100
AcDbLine
 10
92.000204
 20
441.645201
 11
89.42513
 21
439.070128
  0
LINE
  5
1C5
100
AcDbEntity
  8
M0
 62
     1
100
AcDbLine
 10
89.321371
 20
441.595198
 11
91.166219
 21
439.750365
  0
ARC
  5
1C6
100
AcDbEntity
  8
M0
 62
     1
100
AcDbCircle
 10
107.782225
 20
436.134352
 40
0.5
100
AcDbArc
 50
270.0
 51
360.0
  0
LINE
  5
1C7
100
AcDbEntity
  8
M0
 62
     1
100
AcDbLine
 10
108.282225
 20
445.134352
 11
108.282225
 21
436.134352
  0
ARC
  5
1C8
100
AcDbEntity
  8
M0
 62
     1
100
AcDbCircle
 10
107.782225
 20
445.134352
 40
0.5
100
AcDbArc
 50
0.0
 51
90.0
  0
LINE
  5
1C9
100
AcDbEntity
  8
M0
 62
     1
100
AcDbLine
 10
98.282225
 20
445.134352
 11
98.282225
 21
436.134352
  0
ARC
  5
1CA
100
AcDbEntity
  8
M0
 62
     1
100
AcDbCircle
 10
98.782225
 20
445.134352
 40
0.5
100
AcDbArc
 50
90.0
 51
180.0
  0
ARC
  5
1CB
100
AcDbEntity
  8
M0
 62
     1
100
AcDbCircle
 10
98.782225
 20
436.134352
 40
0.5
100
AcDbArc
 50
180.0
 51
270.0
  0
LINE
  5
1CC
100
AcDbEntity
  8
M0
 62
     1
100
AcDbLine
 10
98.782225
 20
435.634352
 11
107.782225
 21
435.634352
  0
LINE
  5
1CD
100
AcDbEntity
  8
M0
 62
     1
100
AcDbLine
 10
107.782225
 20
445.634352
 11
98.782225
 21
445.634352
  0
CIRCLE
  5
1CE
100
AcDbEntity
  8
M0
 62
     1
100
AcDbCircle
 10
103.282225
 20
440.634352
 40
3.5
  0
LINE
  5
1CF
100
AcDbEntity
  8
M0
 62
     1
100
AcDbLine
 10
104.293096
 20
442.352309
 11
101.718023
 21
439.777235
  0
LINE
  5
1D0
100
AcDbEntity
  8
M0
 62
     1
100
AcDbLine
 10
105.000204
 20
441.645201
 11
102.425131
 21
439.070128
  0
LINE
  5
1D1
100
AcDbEntity
  8
M0
 62
     1
100
AcDbLine
 10
102.321371
 20
441.595198
 11
104.16622
 21
439.750365
  0
ARC
  5
1D2
100
AcDbEntity
  8
M0
 62
     1
100
AcDbCircle
 10
107.782225
 20
388.734352
 40
0.5
100
AcDbArc
 50
270.0
 51
360.0
  0
LINE
  5
1D3
100
AcDbEntity
  8
M0
 62
     1
100
AcDbLine
 10
108.282225
 20
397.734352
 11
108.282225
 21
388.734352
  0
ARC
  5
1D4
100
AcDbEntity
  8
M0
 62
     1
100
AcDbCircle
 10
107.782225
 20
397.734352
 40
0.5
100
AcDbArc
 50
0.0
 51
90.0
  0
LINE
  5
1D5
100
AcDbEntity
  8
M0
 62
     1
100
AcDbLine
 10
98.282225
 20
397.734352
 11
98.282225
 21
388.734352
  0
ARC
  5
1D6
100
AcDbEntity
  8
M0
 62
     1
100
AcDbCircle
 10
98.782225
 20
397.734352
 40
0.5
100
AcDbArc
 50
90.0
 51
180.0
  0
ARC
  5
1D7
100
AcDbEntity
  8
M0
 62
     1
100
AcDbCircle
 10
98.782225
 20
388.734352
 40
0.5
100
AcDbArc
 50
180.0
 51
270.0
  0
LINE
  5
1D8
100
AcDbEntity
  8
M0
 62
     1
100
AcDbLine
 10
98.782225
 20
388.234352
 11
107.782225
 21
388.234352
  0
LINE
  5
1D9
100
AcDbEntity
  8
M0
 62
     1
100
AcDbLine
 10
107.782225
 20
398.234352
 11
98.782225
 21
398.234352
  0
CIRCLE
  5
1DA
100
AcDbEntity
  8
M0
 62
     1
100
AcDbCircle
 10
103.282225
 20
393.234352
 40
3.5
  0
LINE
  5
1DB
100
AcDbEntity
  8
M0
 62
     1
100
AcDbLine
 10
104.293096
 20
394.952308
 11
101.718023
 21
392.377235
  0
LINE
  5
1DC
100
AcDbEntity
  8
M0
 62
     1
100
AcDbLine
 10
105.000204
 20
394.245201
 11
102.425131
 21
391.670127
  0
LINE
  5
1DD
100
AcDbEntity
  8
M0
 62
     1
100
AcDbLine
 10
102.321371
 20
394.195198
 11
104.16622
 21
392.350364
  0
ARC
  5
1DE
100
AcDbEntity
  8
M0
 62
     1
100
AcDbCircle
 10
94.782225
 20
388.734352
 40
0.5
100
AcDbArc
 50
270.0
 51
360.0
  0
LINE
  5
1DF
100
AcDbEntity
  8
M0
 62
     1
100
AcDbLine
 10
95.282225
 20
397.734352
 11
95.282225
 21
388.734352
  0
ARC
  5
1E0
100
AcDbEntity
  8
M0
 62
     1
100
AcDbCircle
 10
94.782225
 20
397.734352
 40
0.5
100
AcDbArc
 50
0.0
 51
90.0
  0
LINE
  5
1E1
100
AcDbEntity
  8
M0
 62
     1
100
AcDbLine
 10
85.282225
 20
397.734352
 11
85.282225
 21
388.734352
  0
ARC
  5
1E2
100
AcDbEntity
  8
M0
 62
     1
100
AcDbCircle
 10
85.782225
 20
397.734352
 40
0.5
100
AcDbArc
 50
90.0
 51
180.0
  0
ARC
  5
1E3
100
AcDbEntity
  8
M0
 62
     1
100
AcDbCircle
 10
85.782225
 20
388.734352
 40
0.5
100
AcDbArc
 50
180.0
 51
270.0
  0
LINE
  5
1E4
100
AcDbEntity
  8
M0
 62
     1
100
AcDbLine
 10
85.782225
 20
388.234352
 11
94.782225
 21
388.234352
  0
LINE
  5
1E5
100
AcDbEntity
  8
M0
 62
     1
100
AcDbLine
 10
94.782225
 20
398.234352
 11
85.782225
 21
398.234352
  0
CIRCLE
  5
1E6
100
AcDbEntity
  8
M0
 62
     1
100
AcDbCircle
 10
90.282225
 20
393.234352
 40
3.5
  0
LINE
  5
1E7
100
AcDbEntity
  8
M0
 62
     1
100
AcDbLine
 10
91.293096
 20
394.952308
 11
88.718023
 21
392.377235
  0
LINE
  5
1E8
100
AcDbEntity
  8
M0
 62
     1
100
AcDbLine
 10
92.000204
 20
394.245201
 11
89.42513
 21
391.670127
  0
LINE
  5
1E9
100
AcDbEntity
  8
M0
 62
     1
100
AcDbLine
 10
89.321371
 20
394.195198
 11
91.166219
 21
392.350364
  0
ARC
  5
1EA
100
AcDbEntity
  8
M0
 62
     1
100
AcDbCircle
 10
81.782228
 20
388.734352
 40
0.5
100
AcDbArc
 50
270.0
 51
360.0
  0
LINE
  5
1EB
100
AcDbEntity
  8
M0
 62
     1
100
AcDbLine
 10
82.282228
 20
397.734352
 11
82.282228
 21
388.734352
  0
ARC
  5
1EC
100
AcDbEntity
  8
M0
 62
     1
100
AcDbCircle
 10
81.782228
 20
397.734352
 40
0.5
100
AcDbArc
 50
0.0
 51
90.0
  0
LINE
  5
1ED
100
AcDbEntity
  8
M0
 62
     1
100
AcDbLine
 10
72.282228
 20
397.734352
 11
72.282228
 21
388.734352
  0
ARC
  5
1EE
100
AcDbEntity
  8
M0
 62
     1
100
AcDbCircle
 10
72.782228
 20
397.734352
 40
0.5
100
AcDbArc
 50
90.0
 51
180.0
  0
ARC
  5
1EF
100
AcDbEntity
  8
M0
 62
     1
100
AcDbCircle
 10
72.782228
 20
388.734352
 40
0.5
100
AcDbArc
 50
180.0
 51
270.0
  0
LINE
  5
1F0
100
AcDbEntity
  8
M0
 62
     1
100
AcDbLine
 10
72.782228
 20
388.234352
 11
81.782228
 21
388.234352
  0
LINE
  5
1F1
100
AcDbEntity
  8
M0
 62
     1
100
AcDbLine
 10
81.782228
 20
398.234352
 11
72.782228
 21
398.234352
  0
CIRCLE
  5
1F2
100
AcDbEntity
  8
M0
 62
     1
100
AcDbCircle
 10
77.282228
 20
393.234352
 40
3.5
  0
LINE
  5
1F3
100
AcDbEntity
  8
M0
 62
     1
100
AcDbLine
 10
78.2931
 20
394.952308
 11
75.718026
 21
392.377235
  0
LINE
  5
1F4
100
AcDbEntity
  8
M0
 62
     1
100
AcDbLine
 10
79.000207
 20
394.245201
 11
76.425134
 21
391.670127
  0
LINE
  5
1F5
100
AcDbEntity
  8
M0
 62
     1
100
AcDbLine
 10
76.321374
 20
394.195198
 11
78.166223
 21
392.350364
  0
CIRCLE
  5
1F6
100
AcDbEntity
  8
M0
 62
     1
100
AcDbCircle
 10
115.482228
 20
396.034352
 40
3.0
  0
LINE
  5
1F7
100
AcDbEntity
  8
M0
 62
     1
100
AcDbLine
 10
117.072811
 20
394.443707
 11
113.891171
 21
397.625469
  0
LINE
  5
1F8
100
AcDbEntity
  8
M0
 62
     1
100
AcDbLine
 10
116.896054
 20
396.388043
 11
115.128476
 21
394.620465
  0
LINE
  5
1F9
100
AcDbEntity
  8
M0
 62
     1
100
AcDbLine
 10
115.835507
 20
397.448712
 11
114.067929
 21
395.681011
  0
LINE
  5
1FA
100
AcDbEntity
  8
M0
 62
     1
100
AcDbLine
 10
118.807228
 20
399.859352
 11
114.279412
 21
399.859352
  0
ARC
  5
1FB
100
AcDbEntity
  8
M0
 62
     1
100
AcDbCircle
 10
118.807228
 20
399.359352
 40
0.5
100
AcDbArc
 50
0.0
 51
90.0
  0
LINE
  5
1FC
100
AcDbEntity
  8
M0
 62
     1
100
AcDbLine
 10
119.307228
 20
392.709352
 11
119.307228
 21
399.359352
  0
ARC
  5
1FD
100
AcDbEntity
  8
M0
 62
     1
100
AcDbCircle
 10
118.807228
 20
392.709352
 40
0.5
100
AcDbArc
 50
270.0
 51
360.0
  0
LINE
  5
1FE
100
AcDbEntity
  8
M0
 62
     1
100
AcDbLine
 10
112.157228
 20
392.209352
 11
118.807228
 21
392.209352
  0
LINE
  5
1FF
100
AcDbEntity
  8
M0
 62
     1
100
AcDbLine
 10
111.657228
 20
398.934353
 11
111.657228
 21
392.709352
  0
ARC
  5
200
100
AcDbEntity
  8
M0
 62
     1
100
AcDbCircle
 10
112.157228
 20
392.709352
 40
0.5
100
AcDbArc
 50
180.0
 51
270.0
  0
CIRCLE
  5
201
100
AcDbEntity
  8
M0
 62
     1
100
AcDbCircle
 10
173.982224
 20
455.534352
 40
3.0
  0
LINE
  5
202
100
AcDbEntity
  8
M0
 62
     1
100
AcDbLine
 10
175.572808
 20
453.943707
 11
172.391168
 21
457.125469
  0
LINE
  5
203
100
AcDbEntity
  8
M0
 62
     1
100
AcDbLine
 10
175.39605
 20
455.888043
 11
173.628472
 21
454.120465
  0
LINE
  5
204
100
AcDbEntity
  8
M0
 62
     1
100
AcDbLine
 10
174.335504
 20
456.948712
 11
172.567925
 21
455.181011
  0
LINE
  5
205
100
AcDbEntity
  8
M0
 62
     1
100
AcDbLine
 10
177.307224
 20
459.359352
 11
170.657224
 21
459.359352
  0
ARC
  5
206
100
AcDbEntity
  8
M0
 62
     1
100
AcDbCircle
 10
177.307224
 20
458.859352
 40
0.5
100
AcDbArc
 50
0.0
 51
90.0
  0
LINE
  5
207
100
AcDbEntity
  8
M0
 62
     1
100
AcDbLine
 10
177.807224
 20
452.209352
 11
177.807224
 21
458.859352
  0
ARC
  5
208
100
AcDbEntity
  8
M0
 62
     1
100
AcDbCircle
 10
177.307224
 20
452.209352
 40
0.5
100
AcDbArc
 50
270.0
 51
360.0
  0
LINE
  5
209
100
AcDbEntity
  8
M0
 62
     1
100
AcDbLine
 10
170.657224
 20
451.709352
 11
177.307224
 21
451.709352
  0
LINE
  5
20A
100
AcDbEntity
  8
M0
 62
     1
100
AcDbLine
 10
170.157224
 20
458.859352
 11
170.157224
 21
452.209352
  0
ARC
  5
20B
100
AcDbEntity
  8
M0
 62
     1
100
AcDbCircle
 10
170.657224
 20
458.859352
 40
0.5
100
AcDbArc
 50
90.0
 51
180.0
  0
ARC
  5
20C
100
AcDbEntity
  8
M0
 62
     1
100
AcDbCircle
 10
170.657224
 20
452.209352
 40
0.5
100
AcDbArc
 50
180.0
 51
270.0
  0
LINE
  5
20D
100
AcDbEntity
  8
M0
 62
     1
100
AcDbLine
 10
189.872808
 20
402.043707
 11
187.082225
 21
404.834397
  0
LINE
  5
20E
100
AcDbEntity
  8
M0
 62
     1
100
AcDbLine
 10
189.69605
 20
403.988043
 11
187.928472
 21
402.220465
  0
LINE
  5
20F
100
AcDbEntity
  8
M0
 62
     1
100
AcDbLine
 10
188.635503
 20
405.048712
 11
187.082225
 21
403.495326
  0
LINE
  5
210
100
AcDbEntity
  8
M0
 62
     1
100
AcDbLine
 10
191.607224
 20
407.459352
 11
187.082225
 21
407.459352
  0
ARC
  5
211
100
AcDbEntity
  8
M0
 62
     1
100
AcDbCircle
 10
191.607224
 20
406.959352
 40
0.5
100
AcDbArc
 50
0.0
 51
90.0
  0
LINE
  5
212
100
AcDbEntity
  8
M0
 62
     1
100
AcDbLine
 10
192.107224
 20
400.309352
 11
192.107224
 21
406.959352
  0
ARC
  5
213
100
AcDbEntity
  8
M0
 62
     1
100
AcDbCircle
 10
191.607224
 20
400.309352
 40
0.5
100
AcDbArc
 50
270.0
 51
360.0
  0
LINE
  5
214
100
AcDbEntity
  8
M0
 62
     1
100
AcDbLine
 10
187.074381
 20
399.809352
 11
191.607224
 21
399.809352
  0
ARC
  5
215
100
AcDbEntity
  8
M0
 62
     1
100
AcDbCircle
 10
188.282224
 20
403.634352
 40
3.0
100
AcDbArc
 50
246.421834
 51
473.578166
  0
LINE
  5
216
100
AcDbEntity
  8
M0
 62
     1
100
AcDbLine
 10
117.072812
 20
428.643707
 11
114.282228
 21
431.434397
  0
LINE
  5
217
100
AcDbEntity
  8
M0
 62
     1
100
AcDbLine
 10
116.896054
 20
430.588043
 11
115.128476
 21
428.820465
  0
LINE
  5
218
100
AcDbEntity
  8
M0
 62
     1
100
AcDbLine
 10
115.835507
 20
431.648712
 11
114.282228
 21
430.095326
  0
LINE
  5
219
100
AcDbEntity
  8
M0
 62
     1
100
AcDbLine
 10
118.807228
 20
434.059352
 11
114.274385
 21
434.059352
  0
ARC
  5
21A
100
AcDbEntity
  8
M0
 62
     1
100
AcDbCircle
 10
118.807228
 20
433.559352
 40
0.5
100
AcDbArc
 50
0.0
 51
90.0
  0
LINE
  5
21B
100
AcDbEntity
  8
M0
 62
     1
100
AcDbLine
 10
119.307228
 20
426.909352
 11
119.307228
 21
433.559352
  0
ARC
  5
21C
100
AcDbEntity
  8
M0
 62
     1
100
AcDbCircle
 10
118.807228
 20
426.909352
 40
0.5
100
AcDbArc
 50
270.0
 51
360.0
  0
LINE
  5
21D
100
AcDbEntity
  8
M0
 62
     1
100
AcDbLine
 10
114.282228
 20
426.409352
 11
118.807228
 21
426.409352
  0
ARC
  5
21E
100
AcDbEntity
  8
M0
 62
     1
100
AcDbCircle
 10
115.482228
 20
430.234352
 40
3.0
100
AcDbArc
 50
246.421832
 51
473.578168
  0
LINE
  5
21F
100
AcDbEntity
  8
M0
 62
     1
100
AcDbLine
 10
117.072811
 20
402.043707
 11
114.282228
 21
404.834397
  0
LINE
  5
220
100
AcDbEntity
  8
M0
 62
     1
100
AcDbLine
 10
116.896054
 20
403.988043
 11
115.128476
 21
402.220465
  0
LINE
  5
221
100
AcDbEntity
  8
M0
 62
     1
100
AcDbLine
 10
115.835507
 20
405.048712
 11
114.282228
 21
403.495326
  0
LINE
  5
222
100
AcDbEntity
  8
M0
 62
     1
100
AcDbLine
 10
118.807228
 20
407.459352
 11
114.282228
 21
407.459352
  0
ARC
  5
223
100
AcDbEntity
  8
M0
 62
     1
100
AcDbCircle
 10
118.807228
 20
406.959352
 40
0.5
100
AcDbArc
 50
0.0
 51
90.0
  0
LINE
  5
224
100
AcDbEntity
  8
M0
 62
     1
100
AcDbLine
 10
119.307228
 20
400.309352
 11
119.307228
 21
406.959352
  0
ARC
  5
225
100
AcDbEntity
  8
M0
 62
     1
100
AcDbCircle
 10
118.807228
 20
400.309352
 40
0.5
100
AcDbArc
 50
270.0
 51
360.0
  0
LINE
  5
226
100
AcDbEntity
  8
M0
 62
     1
100
AcDbLine
 10
114.274385
 20
399.809352
 11
118.807228
 21
399.809352
  0
ARC
  5
227
100
AcDbEntity
  8
M0
 62
     1
100
AcDbCircle
 10
115.482228
 20
403.634352
 40
3.0
100
AcDbArc
 50
246.421834
 51
473.578166
  0
CIRCLE
  5
228
100
AcDbEntity
  8
M0
 62
     1
100
AcDbCircle
 10
77.282228
 20
384.434352
 40
2.75
  0
LINE
  5
229
100
AcDbEntity
  8
M0
 62
     1
100
AcDbLine
 10
76.982228
 20
383.034352
 11
76.982228
 21
383.430712
  0
LINE
  5
22A
100
AcDbEntity
  8
M0
 62
     1
100
AcDbLine
 10
77.582228
 20
383.034352
 11
77.582228
 21
383.430712
  0
LINE
  5
22B
100
AcDbEntity
  8
M0
 62
     1
100
AcDbLine
 10
76.982228
 20
385.834352
 11
76.982228
 21
385.437991
  0
LINE
  5
22C
100
AcDbEntity
  8
M0
 62
     1
100
AcDbLine
 10
77.582228
 20
385.834352
 11
77.582228
 21
385.437991
  0
ARC
  5
22D
100
AcDbEntity
  8
M0
 62
     1
100
AcDbCircle
 10
76.257228
 20
383.409352
 40
0.725
100
AcDbArc
 50
0.0
 51
90.0
  0
ARC
  5
22E
100
AcDbEntity
  8
M0
 62
     1
100
AcDbCircle
 10
76.257228
 20
385.459352
 40
0.725
100
AcDbArc
 50
-90.0
 51
0.0
  0
ARC
  5
22F
100
AcDbEntity
  8
M0
 62
     1
100
AcDbCircle
 10
78.307228
 20
385.459352
 40
0.725
100
AcDbArc
 50
180.0
 51
270.0
  0
ARC
  5
230
100
AcDbEntity
  8
M0
 62
     1
100
AcDbCircle
 10
78.307228
 20
383.409352
 40
0.725
100
AcDbArc
 50
90.0
 51
180.0
  0
LINE
  5
231
100
AcDbEntity
  8
M0
 62
     1
100
AcDbLine
 10
78.307228
 20
384.134352
 11
78.707228
 21
384.134352
  0
LINE
  5
232
100
AcDbEntity
  8
M0
 62
     1
100
AcDbLine
 10
78.307228
 20
384.734352
 11
78.707228
 21
384.734352
  0
LINE
  5
233
100
AcDbEntity
  8
M0
 62
     1
100
AcDbLine
 10
76.982228
 20
385.834352
 11
77.582228
 21
385.834352
  0
LINE
  5
234
100
AcDbEntity
  8
M0
 62
     1
100
AcDbLine
 10
76.982228
 20
383.034352
 11
77.582228
 21
383.034352
  0
LINE
  5
235
100
AcDbEntity
  8
M0
 62
     1
100
AcDbLine
 10
75.882228
 20
384.734352
 11
76.257228
 21
384.734352
  0
LINE
  5
236
100
AcDbEntity
  8
M0
 62
     1
100
AcDbLine
 10
75.882228
 20
384.734352
 11
75.882228
 21
384.134352
  0
LINE
  5
237
100
AcDbEntity
  8
M0
 62
     1
100
AcDbLine
 10
75.882228
 20
384.134352
 11
76.257228
 21
384.134352
  0
LINE
  5
238
100
AcDbEntity
  8
M0
 62
     1
100
AcDbLine
 10
78.707228
 20
384.734352
 11
78.707228
 21
384.134352
  0
CIRCLE
  5
239
100
AcDbEntity
  8
M0
 62
     1
100
AcDbCircle
 10
65.082228
 20
396.034352
 40
3.0
  0
LINE
  5
23A
100
AcDbEntity
  8
M0
 62
     1
100
AcDbLine
 10
66.672812
 20
394.443707
 11
63.491171
 21
397.625469
  0
LINE
  5
23B
100
AcDbEntity
  8
M0
 62
     1
100
AcDbLine
 10
66.496054
 20
396.388043
 11
64.728476
 21
394.620465
  0
LINE
  5
23C
100
AcDbEntity
  8
M0
 62
     1
100
AcDbLine
 10
65.435507
 20
397.448712
 11
63.667929
 21
395.681011
  0
LINE
  5
23D
100
AcDbEntity
  8
M0
 62
     1
100
AcDbLine
 10
66.282228
 20
399.859352
 11
61.757228
 21
399.859352
  0
LINE
  5
23E
100
AcDbEntity
  8
M0
 62
     1
100
AcDbLine
 10
68.907228
 20
392.709352
 11
68.907228
 21
398.934353
  0
ARC
  5
23F
100
AcDbEntity
  8
M0
 62
     1
100
AcDbCircle
 10
68.407228
 20
392.709352
 40
0.5
100
AcDbArc
 50
270.0
 51
360.0
  0
LINE
  5
240
100
AcDbEntity
  8
M0
 62
     1
100
AcDbLine
 10
61.757228
 20
392.209352
 11
68.407228
 21
392.209352
  0
LINE
  5
241
100
AcDbEntity
  8
M0
 62
     1
100
AcDbLine
 10
61.257228
 20
399.359352
 11
61.257228
 21
392.709352
  0
ARC
  5
242
100
AcDbEntity
  8
M0
 62
     1
100
AcDbCircle
 10
61.757228
 20
399.359352
 40
0.5
100
AcDbArc
 50
90.0
 51
180.0
  0
ARC
  5
243
100
AcDbEntity
  8
M0
 62
     1
100
AcDbCircle
 10
61.757228
 20
392.709352
 40
0.5
100
AcDbArc
 50
180.0
 51
270.0
  0
CIRCLE
  5
244
100
AcDbEntity
  8
M0
 62
     1
100
AcDbCircle
 10
163.082224
 20
455.134352
 40
2.75
  0
LINE
  5
245
100
AcDbEntity
  8
M0
 62
     1
100
AcDbLine
 10
162.782224
 20
453.734352
 11
162.782224
 21
454.130712
  0
LINE
  5
246
100
AcDbEntity
  8
M0
 62
     1
100
AcDbLine
 10
163.382224
 20
453.734352
 11
163.382224
 21
454.130712
  0
LINE
  5
247
100
AcDbEntity
  8
M0
 62
     1
100
AcDbLine
 10
162.782224
 20
456.534352
 11
162.782224
 21
456.137991
  0
LINE
  5
248
100
AcDbEntity
  8
M0
 62
     1
100
AcDbLine
 10
163.382224
 20
456.534352
 11
163.382224
 21
456.137991
  0
ARC
  5
249
100
AcDbEntity
  8
M0
 62
     1
100
AcDbCircle
 10
162.057224
 20
454.109352
 40
0.725
100
AcDbArc
 50
0.0
 51
90.0
  0
ARC
  5
24A
100
AcDbEntity
  8
M0
 62
     1
100
AcDbCircle
 10
162.057224
 20
456.159352
 40
0.725
100
AcDbArc
 50
-90.0
 51
0.0
  0
ARC
  5
24B
100
AcDbEntity
  8
M0
 62
     1
100
AcDbCircle
 10
164.107224
 20
456.159352
 40
0.725
100
AcDbArc
 50
180.0
 51
270.0
  0
ARC
  5
24C
100
AcDbEntity
  8
M0
 62
     1
100
AcDbCircle
 10
164.107224
 20
454.109352
 40
0.725
100
AcDbArc
 50
90.0
 51
180.0
  0
LINE
  5
24D
100
AcDbEntity
  8
M0
 62
     1
100
AcDbLine
 10
164.107224
 20
454.834352
 11
164.507224
 21
454.834352
  0
LINE
  5
24E
100
AcDbEntity
  8
M0
 62
     1
100
AcDbLine
 10
164.107224
 20
455.434352
 11
164.507224
 21
455.434352
  0
LINE
  5
24F
100
AcDbEntity
  8
M0
 62
     1
100
AcDbLine
 10
162.782224
 20
456.534352
 11
163.382224
 21
456.534352
  0
LINE
  5
250
100
AcDbEntity
  8
M0
 62
     1
100
AcDbLine
 10
162.782224
 20
453.734352
 11
163.382224
 21
453.734352
  0
LINE
  5
251
100
AcDbEntity
  8
M0
 62
     1
100
AcDbLine
 10
161.682224
 20
455.434352
 11
162.057224
 21
455.434352
  0
LINE
  5
252
100
AcDbEntity
  8
M0
 62
     1
100
AcDbLine
 10
161.682224
 20
455.434352
 11
161.682224
 21
454.834352
  0
LINE
  5
253
100
AcDbEntity
  8
M0
 62
     1
100
AcDbLine
 10
161.682224
 20
454.834352
 11
162.057224
 21
454.834352
  0
LINE
  5
254
100
AcDbEntity
  8
M0
 62
     1
100
AcDbLine
 10
164.507224
 20
455.434352
 11
164.507224
 21
454.834352
  0
CIRCLE
  5
255
100
AcDbEntity
  8
M0
 62
     1
100
AcDbCircle
 10
188.282224
 20
437.834352
 40
3.0
  0
LINE
  5
256
100
AcDbEntity
  8
M0
 62
     1
100
AcDbLine
 10
189.872808
 20
436.243707
 11
186.691167
 21
439.425469
  0
LINE
  5
257
100
AcDbEntity
  8
M0
 62
     1
100
AcDbLine
 10
189.69605
 20
438.188043
 11
187.928472
 21
436.420465
  0
LINE
  5
258
100
AcDbEntity
  8
M0
 62
     1
100
AcDbLine
 10
188.635503
 20
439.248712
 11
186.867925
 21
437.481011
  0
LINE
  5
259
100
AcDbEntity
  8
M0
 62
     1
100
AcDbLine
 10
191.607224
 20
441.659352
 11
184.957224
 21
441.659352
  0
ARC
  5
25A
100
AcDbEntity
  8
M0
 62
     1
100
AcDbCircle
 10
191.607224
 20
441.159352
 40
0.5
100
AcDbArc
 50
0.0
 51
90.0
  0
LINE
  5
25B
100
AcDbEntity
  8
M0
 62
     1
100
AcDbLine
 10
192.107224
 20
434.509352
 11
192.107224
 21
441.159352
  0
ARC
  5
25C
100
AcDbEntity
  8
M0
 62
     1
100
AcDbCircle
 10
191.607224
 20
434.509352
 40
0.5
100
AcDbArc
 50
270.0
 51
360.0
  0
LINE
  5
25D
100
AcDbEntity
  8
M0
 62
     1
100
AcDbLine
 10
187.079408
 20
434.009352
 11
191.607224
 21
434.009352
  0
LINE
  5
25E
100
AcDbEntity
  8
M0
 62
     1
100
AcDbLine
 10
184.457224
 20
441.159352
 11
184.457224
 21
434.934352
  0
ARC
  5
25F
100
AcDbEntity
  8
M0
 62
     1
100
AcDbCircle
 10
184.957224
 20
441.159352
 40
0.5
100
AcDbArc
 50
90.0
 51
180.0
  0
LINE
  5
260
100
AcDbEntity
  8
M0
 62
     1
100
AcDbLine
 10
139.082224
 20
429.034306
 11
136.291168
 21
431.825469
  0
LINE
  5
261
100
AcDbEntity
  8
M0
 62
     1
100
AcDbLine
 10
139.082224
 20
430.374217
 11
137.528472
 21
428.820465
  0
LINE
  5
262
100
AcDbEntity
  8
M0
 62
     1
100
AcDbLine
 10
138.235503
 20
431.648712
 11
136.467925
 21
429.881011
  0
LINE
  5
263
100
AcDbEntity
  8
M0
 62
     1
100
AcDbLine
 10
139.082224
 20
434.059352
 11
134.557224
 21
434.059352
  0
LINE
  5
264
100
AcDbEntity
  8
M0
 62
     1
100
AcDbLine
 10
134.557224
 20
426.409352
 11
139.082224
 21
426.409352
  0
LINE
  5
265
100
AcDbEntity
  8
M0
 62
     1
100
AcDbLine
 10
134.057224
 20
433.559352
 11
134.057224
 21
426.909352
  0
ARC
  5
266
100
AcDbEntity
  8
M0
 62
     1
100
AcDbCircle
 10
134.557224
 20
433.559352
 40
0.5
100
AcDbArc
 50
90.0
 51
180.0
  0
ARC
  5
267
100
AcDbEntity
  8
M0
 62
     1
100
AcDbCircle
 10
134.557224
 20
426.909352
 40
0.5
100
AcDbArc
 50
180.0
 51
270.0
  0
ARC
  5
268
100
AcDbEntity
  8
M0
 62
     1
100
AcDbCircle
 10
137.882224
 20
430.234352
 40
3.0
100
AcDbArc
 50
66.421824
 51
293.578176
  0
LINE
  5
269
100
AcDbEntity
  8
M0
  6
DASHDOT
 62
     1
100
AcDbLine
 10
163.082224
 20
464.934353
 11
163.082224
 21
376.43435
  0
LINE
  5
26A
100
AcDbEntity
  8
M0
  6
DASHDOT
 62
     1
100
AcDbLine
 10
126.682225
 20
416.934352
 11
208.982221
 21
416.934352
  0
ARC
  5
26B
100
AcDbEntity
  8
M0
 62
     1
100
AcDbCircle
 10
170.732224
 20
452.284352
 40
0.5
100
AcDbArc
 50
268.473851
 51
270.0
  0
ARC
  5
26C
100
AcDbEntity
  8
M0
 62
     1
100
AcDbCircle
 10
136.082224
 20
446.934352
 40
2.25
100
AcDbArc
 50
0.0
 51
180.0
  0
ARC
  5
26D
100
AcDbEntity
  8
M0
 62
     1
100
AcDbCircle
 10
136.082224
 20
444.934352
 40
2.25
100
AcDbArc
 50
180.0
 51
360.0
  0
ARC
  5
26E
100
AcDbEntity
  8
M0
 62
     1
100
AcDbCircle
 10
136.682224
 20
386.434352
 40
5.0
100
AcDbArc
 50
180.0
 51
270.0
  0
ARC
  5
26F
100
AcDbEntity
  8
M0
 62
     1
100
AcDbCircle
 10
136.682224
 20
447.434352
 40
5.0
100
AcDbArc
 50
90.0
 51
180.0
  0
ARC
  5
270
100
AcDbEntity
  8
M0
 62
     1
100
AcDbCircle
 10
140.882224
 20
384.934352
 40
0.5
100
AcDbArc
 50
180.0
 51
270.0
  0
ARC
  5
271
100
AcDbEntity
  8
M0
 62
     1
100
AcDbCircle
 10
185.282224
 20
385.934352
 40
0.5
100
AcDbArc
 50
0.0
 51
90.0
  0
ARC
  5
272
100
AcDbEntity
  8
M0
 62
     1
100
AcDbCircle
 10
141.882224
 20
385.934352
 40
0.5
100
AcDbArc
 50
0.0
 51
90.0
  0
ARC
  5
273
100
AcDbEntity
  8
M0
 62
     1
100
AcDbCircle
 10
140.882224
 20
385.934352
 40
0.5
100
AcDbArc
 50
90.0
 51
180.0
  0
CIRCLE
  5
274
100
AcDbEntity
  8
M0
 62
     1
100
AcDbCircle
 10
135.582224
 20
386.934352
 40
2.25
  0
CIRCLE
  5
275
100
AcDbEntity
  8
M0
 62
     1
100
AcDbCircle
 10
190.582224
 20
446.934352
 40
2.25
  0
ARC
  5
276
100
AcDbEntity
  8
M0
 62
     1
100
AcDbCircle
 10
185.282224
 20
384.934352
 40
0.5
100
AcDbArc
 50
270.0
 51
360.0
  0
ARC
  5
277
100
AcDbEntity
  8
M0
 62
     1
100
AcDbCircle
 10
184.282224
 20
385.934352
 40
0.5
100
AcDbArc
 50
90.0
 51
180.0
  0
ARC
  5
278
100
AcDbEntity
  8
M0
 62
     1
100
AcDbCircle
 10
183.082224
 20
451.434352
 40
1.0
100
AcDbArc
 50
90.0
 51
98.626927
  0
ARC
  5
279
100
AcDbEntity
  8
M0
 62
     1
100
AcDbCircle
 10
190.082224
 20
386.934352
 40
2.25
100
AcDbArc
 50
180.0
 51
360.0
  0
ARC
  5
27A
100
AcDbEntity
  8
M0
 62
     1
100
AcDbCircle
 10
143.082224
 20
451.434352
 40
1.0
100
AcDbArc
 50
81.373073
 51
90.0
  0
ARC
  5
27B
100
AcDbEntity
  8
M0
 62
     1
100
AcDbCircle
 10
189.482224
 20
447.434352
 40
5.0
100
AcDbArc
 50
0.0
 51
90.0
  0
ARC
  5
27C
100
AcDbEntity
  8
M0
 62
     1
100
AcDbCircle
 10
141.882224
 20
384.934352
 40
0.5
100
AcDbArc
 50
270.0
 51
360.0
  0
ARC
  5
27D
100
AcDbEntity
  8
M0
 62
     1
100
AcDbCircle
 10
190.082224
 20
388.934352
 40
2.25
100
AcDbArc
 50
0.0
 51
180.0
  0
ARC
  5
27E
100
AcDbEntity
  8
M0
 62
     1
100
AcDbCircle
 10
189.482224
 20
386.434352
 40
5.0
100
AcDbArc
 50
270.0
 51
360.0
  0
LINE
  5
27F
100
AcDbEntity
  8
M0
 62
     1
100
AcDbLine
 10
178.282223
 20
451.434352
 11
178.282223
 21
460.834353
  0
LINE
  5
280
100
AcDbEntity
  8
M0
 62
     1
100
AcDbLine
 10
179.871685
 20
458.452343
 11
180.082223
 21
451.434352
  0
LINE
  5
281
100
AcDbEntity
  8
M0
 62
     1
100
AcDbLine
 10
179.199955
 20
461.434352
 11
178.882225
 21
461.434352
  0
LINE
  5
282
100
AcDbEntity
  8
M0
 62
     1
100
AcDbLine
 10
168.082225
 20
383.934352
 11
168.082225
 21
384.434353
  0
LINE
  5
283
100
AcDbEntity
  8
M0
 62
     1
100
AcDbLine
 10
168.082225
 20
381.43435
 11
158.082223
 21
381.43435
  0
LINE
  5
284
100
AcDbEntity
  8
M0
 62
     1
100
AcDbLine
 10
158.082223
 20
384.434353
 11
158.082223
 21
383.934352
  0
LINE
  5
285
100
AcDbEntity
  8
M0
 62
     1
100
AcDbLine
 10
142.382224
 20
382.434352
 11
142.382224
 21
398.934353
  0
LINE
  5
286
100
AcDbEntity
  8
M0
 62
     1
100
AcDbLine
 10
158.582224
 20
383.434351
 11
167.582224
 21
383.434351
  0
LINE
  5
287
100
AcDbEntity
  8
M0
 62
     1
100
AcDbLine
 10
140.882225
 20
384.434353
 11
141.882225
 21
384.434353
  0
LINE
  5
288
100
AcDbEntity
  8
M0
 62
     1
100
AcDbLine
 10
141.882225
 20
386.434353
 11
140.882225
 21
386.434353
  0
LINE
  5
289
100
AcDbEntity
  8
M0
 62
     1
100
AcDbLine
 10
185.282226
 20
386.434353
 11
184.282224
 21
386.434353
  0
LINE
  5
28A
100
AcDbEntity
  8
M0
 62
     1
100
AcDbLine
 10
140.382224
 20
385.934352
 11
140.382224
 21
384.93435
  0
ARC
  5
28B
100
AcDbEntity
  8
M0
 62
     1
100
AcDbCircle
 10
157.182224
 20
460.934352
 40
0.5
100
AcDbArc
 50
0.0
 51
90.0
  0
ARC
  5
28C
100
AcDbEntity
  8
M0
 62
     1
100
AcDbCircle
 10
168.982224
 20
460.934352
 40
0.5
100
AcDbArc
 50
90.0
 51
180.0
  0
ARC
  5
28D
100
AcDbEntity
  8
M0
 62
     1
100
AcDbCircle
 10
157.182224
 20
460.434352
 40
1.0
100
AcDbArc
 50
90.0
 51
180.0
  0
ARC
  5
28E
100
AcDbEntity
  8
M0
 62
     1
100
AcDbCircle
 10
168.982224
 20
460.434352
 40
1.0
100
AcDbArc
 50
0.0
 51
90.0
  0
LINE
  5
28F
100
AcDbEntity
  8
M0
 62
     1
100
AcDbLine
 10
185.782223
 20
384.93435
 11
185.782223
 21
385.934352
  0
LINE
  5
290
100
AcDbEntity
  8
M0
 62
     1
100
AcDbLine
 10
170.782226
 20
451.434352
 11
180.082223
 21
451.434352
  0
LINE
  5
291
100
AcDbEntity
  8
M0
 62
     1
100
AcDbLine
 10
180.082223
 20
449.934351
 11
170.782226
 21
449.934351
  0
LINE
  5
292
100
AcDbEntity
  8
M0
 62
     1
100
AcDbLine
 10
180.082223
 20
451.434352
 11
180.082223
 21
449.934351
  0
LINE
  5
293
100
AcDbEntity
  8
M0
 62
     1
100
AcDbLine
 10
156.182225
 20
459.934353
 11
147.882224
 21
459.934353
  0
LINE
  5
294
100
AcDbEntity
  8
M0
 62
     1
100
AcDbLine
 10
178.282223
 20
459.934353
 11
169.982224
 21
459.934353
  0
LINE
  5
295
100
AcDbEntity
  8
M0
 62
     1
100
AcDbLine
 10
169.982224
 20
460.43435
 11
169.982224
 21
452.414147
  0
LINE
  5
296
100
AcDbEntity
  8
M0
 62
     1
100
AcDbLine
 10
168.482224
 20
451.870241
 11
168.482224
 21
460.43435
  0
LINE
  5
297
100
AcDbEntity
  8
M0
 62
     1
100
AcDbLine
 10
155.382226
 20
449.934351
 11
146.082225
 21
449.934351
  0
LINE
  5
298
100
AcDbEntity
  8
M0
 62
     1
100
AcDbLine
 10
180.082223
 20
449.934351
 11
180.082223
 21
447.934351
  0
LINE
  5
299
100
AcDbEntity
  8
M0
 62
     1
100
AcDbLine
 10
146.082225
 20
451.434352
 11
155.382226
 21
451.434352
  0
LINE
  5
29A
100
AcDbEntity
  8
M0
 62
     1
100
AcDbLine
 10
189.482226
 20
381.43435
 11
182.382224
 21
381.43435
  0
LINE
  5
29B
100
AcDbEntity
  8
M0
 62
     1
100
AcDbLine
 10
140.382224
 20
387.434351
 11
142.382224
 21
387.434351
  0
LINE
  5
29C
100
AcDbEntity
  8
M0
 62
     1
100
AcDbLine
 10
140.382224
 20
391.234352
 11
140.382224
 21
387.434351
  0
LINE
  5
29D
100
AcDbEntity
  8
M0
 62
     1
100
AcDbLine
 10
185.782223
 20
387.434351
 11
185.782223
 21
391.234352
  0
LINE
  5
29E
100
AcDbEntity
  8
M0
 62
     1
100
AcDbLine
 10
183.782223
 20
387.434351
 11
185.782223
 21
387.434351
  0
LINE
  5
29F
100
AcDbEntity
  8
M0
 62
     1
100
AcDbLine
 10
187.832228
 20
388.934351
 11
187.832228
 21
386.93435
  0
LINE
  5
2A0
100
AcDbEntity
  8
M0
 62
     1
100
AcDbLine
 10
192.332222
 20
386.93435
 11
192.332222
 21
388.934351
  0
LINE
  5
2A1
100
AcDbEntity
  8
M0
 62
     1
100
AcDbLine
 10
131.682225
 20
386.434353
 11
131.682225
 21
447.434352
  0
LINE
  5
2A2
100
AcDbEntity
  8
M0
 62
     1
100
AcDbLine
 10
146.082225
 20
451.434352
 11
146.082225
 21
447.934351
  0
LINE
  5
2A3
100
AcDbEntity
  8
M0
 62
     1
100
AcDbLine
 10
138.332224
 20
446.934351
 11
138.332224
 21
444.934352
  0
LINE
  5
2A4
100
AcDbEntity
  8
M0
 62
     1
100
AcDbLine
 10
133.832225
 20
444.934352
 11
133.832225
 21
446.934351
  0
LINE
  5
2A5
100
AcDbEntity
  8
M0
 62
     1
100
AcDbLine
 10
184.382225
 20
392.234352
 11
185.282226
 21
392.234352
  0
LINE
  5
2A6
100
AcDbEntity
  8
M0
 62
     1
100
AcDbLine
 10
191.282227
 20
392.234352
 11
192.182227
 21
392.234352
  0
LINE
  5
2A7
100
AcDbEntity
  8
M0
 62
     1
100
AcDbLine
 10
140.882225
 20
441.634352
 11
141.782225
 21
441.634352
  0
LINE
  5
2A8
100
AcDbEntity
  8
M0
 62
     1
100
AcDbLine
 10
185.282226
 20
441.634352
 11
184.382225
 21
441.634352
  0
LINE
  5
2A9
100
AcDbEntity
  8
M0
 62
     1
100
AcDbLine
 10
193.282223
 20
389.234352
 11
193.182222
 21
389.234352
  0
LINE
  5
2AA
100
AcDbEntity
  8
M0
 62
     1
100
AcDbLine
 10
192.182227
 20
441.634352
 11
191.282227
 21
441.634352
  0
LINE
  5
2AB
100
AcDbEntity
  8
M0
 62
     1
100
AcDbLine
 10
193.282223
 20
444.634351
 11
193.182222
 21
444.634351
  0
LINE
  5
2AC
100
AcDbEntity
  8
M0
 62
     1
100
AcDbLine
 10
133.982224
 20
441.634352
 11
134.882225
 21
441.634352
  0
ARC
  5
2AD
100
AcDbEntity
  8
M0
 62
     1
100
AcDbCircle
 10
146.082224
 20
382.434352
 40
1.0
100
AcDbArc
 50
180.0
 51
270.0
  0
LINE
  5
2AE
100
AcDbEntity
  8
M0
 62
     1
100
AcDbLine
 10
146.082224
 20
381.43435
 11
154.082224
 21
381.43435
  0
LINE
  5
2AF
100
AcDbEntity
  8
M0
 62
     1
100
AcDbLine
 10
132.882224
 20
389.234352
 11
132.982224
 21
389.234352
  0
LINE
  5
2B0
100
AcDbEntity
  8
M0
 62
     1
100
AcDbLine
 10
141.782225
 20
392.234352
 11
140.882225
 21
392.234352
  0
LINE
  5
2B1
100
AcDbEntity
  8
M0
 62
     1
100
AcDbLine
 10
134.882225
 20
392.234352
 11
133.982224
 21
392.234352
  0
LINE
  5
2B2
100
AcDbEntity
  8
M0
 62
     1
100
AcDbLine
 10
132.882224
 20
444.634351
 11
132.982224
 21
444.634351
  0
ARC
  5
2B3
100
AcDbEntity
  8
M0
 62
     1
100
AcDbCircle
 10
167.582224
 20
383.934352
 40
0.5
100
AcDbArc
 50
270.0
 51
360.0
  0
ARC
  5
2B4
100
AcDbEntity
  8
M0
 62
     1
100
AcDbCircle
 10
168.082224
 20
383.434352
 40
2.0
100
AcDbArc
 50
270.0
 51
292.57935
  0
ARC
  5
2B5
100
AcDbEntity
  8
M0
 62
     1
100
AcDbCircle
 10
146.964494
 20
460.834352
 40
0.6
100
AcDbArc
 50
90.0
 51
178.281642
  0
ARC
  5
2B6
100
AcDbEntity
  8
M0
 62
     1
100
AcDbCircle
 10
147.282224
 20
460.834352
 40
0.6
100
AcDbArc
 50
0.0
 51
90.0
  0
ARC
  5
2B7
100
AcDbEntity
  8
M0
 62
     1
100
AcDbCircle
 10
184.282224
 20
384.934352
 40
0.5
100
AcDbArc
 50
180.0
 51
270.0
  0
ARC
  5
2B8
100
AcDbEntity
  8
M0
 62
     1
100
AcDbCircle
 10
158.082224
 20
383.434352
 40
2.0
100
AcDbArc
 50
247.42065
 51
270.0
  0
ARC
  5
2B9
100
AcDbEntity
  8
M0
 62
     1
100
AcDbCircle
 10
158.582224
 20
383.934352
 40
0.5
100
AcDbArc
 50
180.0
 51
270.0
  0
ARC
  5
2BA
100
AcDbEntity
  8
M0
 62
     1
100
AcDbCircle
 10
178.882224
 20
460.834352
 40
0.6
100
AcDbArc
 50
90.0
 51
180.0
  0
LINE
  5
2BB
100
AcDbEntity
  8
M0
 62
     1
100
AcDbLine
 10
147.882224
 20
460.834353
 11
147.882224
 21
451.434352
  0
LINE
  5
2BC
100
AcDbEntity
  8
M0
 62
     1
100
AcDbLine
 10
146.082225
 20
451.434352
 11
146.292764
 21
458.452343
  0
LINE
  5
2BD
100
AcDbEntity
  8
M0
 62
     1
100
AcDbLine
 10
146.964495
 20
461.434352
 11
147.282225
 21
461.434352
  0
ARC
  5
2BE
100
AcDbEntity
  8
M0
 62
     1
100
AcDbCircle
 10
179.199955
 20
460.834352
 40
0.6
100
AcDbArc
 50
1.718358
 51
90.0
  0
LINE
  5
2BF
100
AcDbEntity
  8
M0
 62
     1
100
AcDbLine
 10
184.282224
 20
384.434353
 11
185.282226
 21
384.434353
  0
LINE
  5
2C0
100
AcDbEntity
  8
M0
 62
     1
100
AcDbLine
 10
183.782223
 20
382.434352
 11
183.782223
 21
398.934353
  0
LINE
  5
2C1
100
AcDbEntity
  8
M0
 62
     1
100
AcDbLine
 10
168.482224
 20
460.43435
 11
168.482224
 21
460.934351
  0
LINE
  5
2C2
100
AcDbEntity
  8
M0
 62
     1
100
AcDbLine
 10
157.682224
 20
459.934353
 11
158.782224
 21
459.934353
  0
LINE
  5
2C3
100
AcDbEntity
  8
M0
 62
     1
100
AcDbLine
 10
167.382224
 20
459.934353
 11
168.482224
 21
459.934353
  0
LINE
  5
2C4
100
AcDbEntity
  8
M0
 62
     1
100
AcDbLine
 10
157.682224
 20
460.43435
 11
157.682224
 21
451.870241
  0
LINE
  5
2C5
100
AcDbEntity
  8
M0
 62
     1
100
AcDbLine
 10
156.182225
 20
452.414147
 11
156.182225
 21
460.43435
  0
LINE
  5
2C6
100
AcDbEntity
  8
M0
 62
     1
100
AcDbLine
 10
157.682224
 20
460.934351
 11
157.682224
 21
460.43435
  0
LINE
  5
2C7
100
AcDbEntity
  8
M0
 62
     1
100
AcDbLine
 10
193.482227
 20
437.034351
 11
193.182222
 21
437.034351
  0
ARC
  5
2C8
100
AcDbEntity
  8
M0
 62
     1
100
AcDbCircle
 10
156.382224
 20
451.434352
 40
1.0
100
AcDbArc
 50
90.0
 51
180.0
  0
LINE
  5
2C9
100
AcDbEntity
  8
M0
 62
     1
100
AcDbLine
 10
193.182222
 20
413.234352
 11
193.482227
 21
413.234352
  0
LINE
  5
2CA
100
AcDbEntity
  8
M0
 62
     1
100
AcDbLine
 10
193.482227
 20
420.634352
 11
193.182222
 21
420.634352
  0
ARC
  5
2CB
100
AcDbEntity
  8
M0
 62
     1
100
AcDbCircle
 10
169.382224
 20
451.434352
 40
1.0
100
AcDbArc
 50
90.0
 51
180.0
  0
ARC
  5
2CC
100
AcDbEntity
  8
M0
 62
     1
100
AcDbCircle
 10
169.382224
 20
382.434352
 40
1.0
100
AcDbArc
 50
180.0
 51
270.0
  0
ARC
  5
2CD
100
AcDbEntity
  8
M0
 62
     1
100
AcDbCircle
 10
156.782224
 20
451.434352
 40
1.0
100
AcDbArc
 50
0.0
 51
90.0
  0
ARC
  5
2CE
100
AcDbEntity
  8
M0
 62
     1
100
AcDbCircle
 10
156.782224
 20
382.434352
 40
1.0
100
AcDbArc
 50
270.0
 51
360.0
  0
LINE
  5
2CF
100
AcDbEntity
  8
M0
 62
     1
100
AcDbLine
 10
193.182222
 20
396.834352
 11
193.482227
 21
396.834352
  0
LINE
  5
2D0
100
AcDbEntity
  8
M0
 62
     1
100
AcDbLine
 10
192.182227
 20
443.634352
 11
192.182227
 21
421.634352
  0
LINE
  5
2D1
100
AcDbEntity
  8
M0
 62
     1
100
AcDbLine
 10
156.782224
 20
381.43435
 11
156.382224
 21
381.43435
  0
LINE
  5
2D2
100
AcDbEntity
  8
M0
 62
     1
100
AcDbLine
 10
156.382224
 20
398.034352
 11
156.782224
 21
398.034352
  0
LINE
  5
2D3
100
AcDbEntity
  8
M0
 62
     1
100
AcDbLine
 10
156.782224
 20
398.034352
 11
157.782226
 21
398.034352
  0
ARC
  5
2D4
100
AcDbEntity
  8
M0
 62
     1
100
AcDbCircle
 10
169.782224
 20
451.434352
 40
1.0
100
AcDbArc
 50
0.0
 51
90.0
  0
ARC
  5
2D5
100
AcDbEntity
  8
M0
 62
     1
100
AcDbCircle
 10
182.382224
 20
451.434352
 40
1.0
100
AcDbArc
 50
90.0
 51
180.0
  0
LINE
  5
2D6
100
AcDbEntity
  8
M0
 62
     1
100
AcDbLine
 10
192.182227
 20
412.234352
 11
192.182227
 21
390.234352
  0
ARC
  5
2D7
100
AcDbEntity
  8
M0
 62
     1
100
AcDbCircle
 10
169.782224
 20
382.434352
 40
1.0
100
AcDbArc
 50
270.0
 51
360.0
  0
ARC
  5
2D8
100
AcDbEntity
  8
M0
 62
     1
100
AcDbCircle
 10
182.782224
 20
382.434352
 40
1.0
100
AcDbArc
 50
270.0
 51
360.0
  0
LINE
  5
2D9
100
AcDbEntity
  8
M0
 62
     1
100
AcDbLine
 10
156.382224
 20
452.434353
 11
156.782224
 21
452.434353
  0
ARC
  5
2DA
100
AcDbEntity
  8
M0
 62
     1
100
AcDbCircle
 10
182.382224
 20
382.434352
 40
1.0
100
AcDbArc
 50
180.0
 51
270.0
  0
ARC
  5
2DB
100
AcDbEntity
  8
M0
 62
     1
100
AcDbCircle
 10
182.782224
 20
451.434352
 40
1.0
100
AcDbArc
 50
0.0
 51
90.0
  0
LINE
  5
2DC
100
AcDbEntity
  8
M0
 62
     1
100
AcDbLine
 10
193.482227
 20
420.634352
 11
193.482227
 21
413.234352
  0
LINE
  5
2DD
100
AcDbEntity
  8
M0
 62
     1
100
AcDbLine
 10
132.682225
 20
413.234352
 11
132.982224
 21
413.234352
  0
LINE
  5
2DE
100
AcDbEntity
  8
M0
 62
     1
100
AcDbLine
 10
132.682225
 20
437.034351
 11
132.982224
 21
437.034351
  0
LINE
  5
2DF
100
AcDbEntity
  8
M0
 62
     1
100
AcDbLine
 10
192.182227
 20
420.634352
 11
192.182227
 21
413.234352
  0
LINE
  5
2E0
100
AcDbEntity
  8
M0
 62
     1
100
AcDbLine
 10
192.182227
 20
413.234352
 11
189.182221
 21
413.234352
  0
LINE
  5
2E1
100
AcDbEntity
  8
M0
 62
     1
100
AcDbLine
 10
132.682225
 20
420.634352
 11
132.682225
 21
413.234352
  0
LINE
  5
2E2
100
AcDbEntity
  8
M0
 62
     1
100
AcDbLine
 10
189.182221
 20
420.634352
 11
192.182227
 21
420.634352
  0
LINE
  5
2E3
100
AcDbEntity
  8
M0
 62
     1
100
AcDbLine
 10
189.182221
 20
413.234352
 11
189.182221
 21
420.634352
  0
LINE
  5
2E4
100
AcDbEntity
  8
M0
 62
     1
100
AcDbLine
 10
132.982224
 20
420.634352
 11
132.682225
 21
420.634352
  0
LINE
  5
2E5
100
AcDbEntity
  8
M0
 62
     1
100
AcDbLine
 10
132.982224
 20
396.834352
 11
132.682225
 21
396.834352
  0
LINE
  5
2E6
100
AcDbEntity
  8
M0
 62
     1
100
AcDbLine
 10
133.982224
 20
443.634352
 11
133.982224
 21
421.634352
  0
LINE
  5
2E7
100
AcDbEntity
  8
M0
 62
     1
100
AcDbLine
 10
133.982224
 20
426.234351
 11
139.082224
 21
426.234351
  0
LINE
  5
2E8
100
AcDbEntity
  8
M0
 62
     1
100
AcDbLine
 10
187.082225
 20
407.634351
 11
192.182227
 21
407.634351
  0
LINE
  5
2E9
100
AcDbEntity
  8
M0
 62
     1
100
AcDbLine
 10
139.082224
 20
407.634351
 11
133.982224
 21
407.634351
  0
ARC
  5
2EA
100
AcDbEntity
  8
M0
 62
     1
100
AcDbCircle
 10
143.782224
 20
451.434352
 40
1.0
100
AcDbArc
 50
0.0
 51
90.0
  0
ARC
  5
2EB
100
AcDbEntity
  8
M0
 62
     1
100
AcDbCircle
 10
156.382224
 20
382.434352
 40
1.0
100
AcDbArc
 50
180.0
 51
270.0
  0
ARC
  5
2EC
100
AcDbEntity
  8
M0
 62
     1
100
AcDbCircle
 10
143.382224
 20
451.434352
 40
1.0
100
AcDbArc
 50
90.0
 51
180.0
  0
ARC
  5
2ED
100
AcDbEntity
  8
M0
 62
     1
100
AcDbCircle
 10
143.782224
 20
382.434352
 40
1.0
100
AcDbArc
 50
270.0
 51
360.0
  0
LINE
  5
2EE
100
AcDbEntity
  8
M0
 62
     1
100
AcDbLine
 10
143.782224
 20
381.43435
 11
143.582224
 21
381.43435
  0
LINE
  5
2EF
100
AcDbEntity
  8
M0
 62
     1
100
AcDbLine
 10
143.582224
 20
452.434353
 11
143.782224
 21
452.434353
  0
ARC
  5
2F0
100
AcDbEntity
  8
M0
 62
     1
100
AcDbCircle
 10
142.382224
 20
397.434352
 40
0.6
100
AcDbArc
 50
180.0
 51
270.0
  0
LINE
  5
2F1
100
AcDbEntity
  8
M0
 62
     1
100
AcDbLine
 10
192.182227
 20
426.234351
 11
187.082225
 21
426.234351
  0
ARC
  5
2F2
100
AcDbEntity
  8
M0
 62
     1
100
AcDbCircle
 10
183.782224
 20
397.434352
 40
0.6
100
AcDbArc
 50
270.0
 51
360.0
  0
ARC
  5
2F3
100
AcDbEntity
  8
M0
 62
     1
100
AcDbCircle
 10
143.382224
 20
382.434352
 40
1.0
100
AcDbArc
 50
180.0
 51
270.0
  0
ARC
  5
2F4
100
AcDbEntity
  8
M0
 62
     1
100
AcDbCircle
 10
142.382224
 20
436.434352
 40
0.6
100
AcDbArc
 50
90.0
 51
180.0
  0
ARC
  5
2F5
100
AcDbEntity
  8
M0
 62
     1
100
AcDbCircle
 10
183.782224
 20
436.434352
 40
0.6
100
AcDbArc
 50
0.0
 51
90.0
  0
LINE
  5
2F6
100
AcDbEntity
  8
M0
 62
     1
100
AcDbLine
 10
170.782226
 20
435.834352
 11
168.382223
 21
435.834352
  0
LINE
  5
2F7
100
AcDbEntity
  8
M0
 62
     1
100
AcDbLine
 10
170.782226
 20
398.034352
 11
169.782224
 21
398.034352
  0
LINE
  5
2F8
100
AcDbEntity
  8
M0
 62
     1
100
AcDbLine
 10
169.382225
 20
381.43435
 11
169.782224
 21
381.43435
  0
LINE
  5
2F9
100
AcDbEntity
  8
M0
 62
     1
100
AcDbLine
 10
169.382225
 20
398.034352
 11
168.382223
 21
398.034352
  0
LINE
  5
2FA
100
AcDbEntity
  8
M0
 62
     1
100
AcDbLine
 10
169.782224
 20
398.034352
 11
169.382225
 21
398.034352
  0
LINE
  5
2FB
100
AcDbEntity
  8
M0
 62
     1
100
AcDbLine
 10
189.482224
 20
452.434353
 11
182.382225
 21
452.434353
  0
LINE
  5
2FC
100
AcDbEntity
  8
M0
 62
     1
100
AcDbLine
 10
183.782223
 20
434.934352
 11
183.782223
 21
451.434352
  0
LINE
  5
2FD
100
AcDbEntity
  8
M0
 62
     1
100
AcDbLine
 10
169.782224
 20
452.434353
 11
169.382225
 21
452.434353
  0
LINE
  5
2FE
100
AcDbEntity
  8
M0
 62
     1
100
AcDbLine
 10
181.382223
 20
398.934353
 11
181.382223
 21
382.434352
  0
ARC
  5
2FF
100
AcDbEntity
  8
M0
 62
     1
100
AcDbCircle
 10
193.482224
 20
421.634352
 40
1.0
100
AcDbArc
 50
270.0
 51
360.0
  0
ARC
  5
300
100
AcDbEntity
  8
M0
 62
     1
100
AcDbCircle
 10
193.482224
 20
436.034352
 40
1.0
100
AcDbArc
 50
0.0
 51
90.0
  0
ARC
  5
301
100
AcDbEntity
  8
M0
 62
     1
100
AcDbCircle
 10
193.482224
 20
397.834352
 40
1.0
100
AcDbArc
 50
270.0
 51
360.0
  0
LINE
  5
302
100
AcDbEntity
  8
M0
 62
     1
100
AcDbLine
 10
194.482221
 20
447.434352
 11
194.482221
 21
386.434352
  0
LINE
  5
303
100
AcDbEntity
  8
M0
 62
     1
100
AcDbLine
 10
192.182227
 20
434.034351
 11
187.082225
 21
434.034351
  0
LINE
  5
304
100
AcDbEntity
  8
M0
 62
     1
100
AcDbLine
 10
170.782226
 20
387.934352
 11
181.382223
 21
387.934352
  0
LINE
  5
305
100
AcDbEntity
  8
M0
 62
     1
100
AcDbLine
 10
168.382223
 20
445.934352
 11
157.782226
 21
445.934352
  0
ARC
  5
306
100
AcDbEntity
  8
M0
 62
     1
100
AcDbCircle
 10
132.982224
 20
436.034352
 40
1.0
100
AcDbArc
 50
0.0
 51
90.0
  0
ARC
  5
307
100
AcDbEntity
  8
M0
 62
     1
100
AcDbCircle
 10
132.982224
 20
412.234352
 40
1.0
100
AcDbArc
 50
0.0
 51
90.0
  0
ARC
  5
308
100
AcDbEntity
  8
M0
 62
     1
100
AcDbCircle
 10
132.682224
 20
421.634352
 40
1.0
100
AcDbArc
 50
180.0
 51
270.0
  0
ARC
  5
309
100
AcDbEntity
  8
M0
 62
     1
100
AcDbCircle
 10
132.682224
 20
436.034352
 40
1.0
100
AcDbArc
 50
90.0
 51
180.0
  0
ARC
  5
30A
100
AcDbEntity
  8
M0
 62
     1
100
AcDbCircle
 10
193.182224
 20
397.834352
 40
1.0
100
AcDbArc
 50
180.0
 51
270.0
  0
ARC
  5
30B
100
AcDbEntity
  8
M0
 62
     1
100
AcDbCircle
 10
193.182224
 20
421.634352
 40
1.0
100
AcDbArc
 50
180.0
 51
270.0
  0
ARC
  5
30C
100
AcDbEntity
  8
M0
 62
     1
100
AcDbCircle
 10
132.982224
 20
397.834352
 40
1.0
100
AcDbArc
 50
270.0
 51
360.0
  0
ARC
  5
30D
100
AcDbEntity
  8
M0
 62
     1
100
AcDbCircle
 10
132.982224
 20
421.634352
 40
1.0
100
AcDbArc
 50
270.0
 51
360.0
  0
ARC
  5
30E
100
AcDbEntity
  8
M0
 62
     1
100
AcDbCircle
 10
132.682224
 20
412.234352
 40
1.0
100
AcDbArc
 50
90.0
 51
180.0
  0
ARC
  5
30F
100
AcDbEntity
  8
M0
 62
     1
100
AcDbCircle
 10
132.682224
 20
397.834352
 40
1.0
100
AcDbArc
 50
180.0
 51
270.0
  0
LINE
  5
310
100
AcDbEntity
  8
M0
 62
     1
100
AcDbLine
 10
133.982224
 20
420.634352
 11
133.982224
 21
413.234352
  0
LINE
  5
311
100
AcDbEntity
  8
M0
 62
     1
100
AcDbLine
 10
136.982225
 20
413.234352
 11
136.982225
 21
420.634352
  0
LINE
  5
312
100
AcDbEntity
  8
M0
 62
     1
100
AcDbLine
 10
133.982224
 20
413.234352
 11
136.982225
 21
413.234352
  0
ARC
  5
313
100
AcDbEntity
  8
M0
 62
     1
100
AcDbCircle
 10
193.182224
 20
436.034352
 40
1.0
100
AcDbArc
 50
90.0
 51
180.0
  0
ARC
  5
314
100
AcDbEntity
  8
M0
 62
     1
100
AcDbCircle
 10
193.482224
 20
412.234352
 40
1.0
100
AcDbArc
 50
0.0
 51
90.0
  0
LINE
  5
315
100
AcDbEntity
  8
M0
 62
     1
100
AcDbLine
 10
181.382223
 20
445.934352
 11
170.782226
 21
445.934352
  0
ARC
  5
316
100
AcDbEntity
  8
M0
 62
     1
100
AcDbCircle
 10
193.182224
 20
412.234352
 40
1.0
100
AcDbArc
 50
90.0
 51
180.0
  0
LINE
  5
317
100
AcDbEntity
  8
M0
 62
     1
100
AcDbLine
 10
136.982225
 20
420.634352
 11
133.982224
 21
420.634352
  0
LINE
  5
318
100
AcDbEntity
  8
M0
 62
     1
100
AcDbLine
 10
144.782224
 20
387.934352
 11
155.382226
 21
387.934352
  0
ELLIPSE
  5
319
100
AcDbEntity
  8
M0
 62
     1
100
AcDbEllipse
 10
158.782224
 20
451.851018
 11
1.0
 21
0.0
210
0.0
220
0.0
230
1.0
 40
0.416667
 41
3.141592653589793
 42
4.71238898038469
  0
ELLIPSE
  5
31A
100
AcDbEntity
  8
M0
 62
     1
100
AcDbEllipse
 10
167.382224
 20
451.851018
 11
1.0
 21
0.0
210
0.0
220
0.0
230
1.0
 40
0.416667
 41
4.71238898038469
 42
6.283185307179586
  0
LINE
  5
31B
100
AcDbEntity
  8
M0
 62
     1
100
AcDbLine
 10
167.382224
 20
451.434352
 11
158.782224
 21
451.434352
  0
LINE
  5
31C
100
AcDbEntity
  8
M0
 62
     1
100
AcDbLine
 10
158.782224
 20
459.934353
 11
167.382224
 21
459.934353
  0
LINE
  5
31D
100
AcDbEntity
  8
M0
 62
     1
100
AcDbLine
 10
144.782224
 20
447.934351
 11
155.382226
 21
447.934351
  0
LINE
  5
31E
100
AcDbEntity
  8
M0
 62
     1
100
AcDbLine
 10
157.782226
 20
447.934351
 11
168.382223
 21
447.934351
  0
LINE
  5
31F
100
AcDbEntity
  8
M0
 62
     1
100
AcDbLine
 10
157.782226
 20
458.934352
 11
157.782226
 21
434.934352
  0
LINE
  5
320
100
AcDbEntity
  8
M0
 62
     1
100
AcDbLine
 10
168.382223
 20
449.934351
 11
157.782226
 21
449.934351
  0
LINE
  5
321
100
AcDbEntity
  8
M0
 62
     1
100
AcDbLine
 10
172.832224
 20
381.934351
 11
172.832224
 21
382.434352
  0
LINE
  5
322
100
AcDbEntity
  8
M0
 62
     1
100
AcDbLine
 10
179.332226
 20
384.434353
 11
179.332226
 21
382.434352
  0
LINE
  5
323
100
AcDbEntity
  8
M0
 62
     1
100
AcDbLine
 10
172.082226
 20
381.43435
 11
180.082224
 21
381.43435
  0
LINE
  5
324
100
AcDbEntity
  8
M0
 62
     1
100
AcDbLine
 10
172.832224
 20
382.434352
 11
172.832224
 21
384.434353
  0
LINE
  5
325
100
AcDbEntity
  8
M0
 62
     1
100
AcDbLine
 10
181.082225
 20
382.434352
 11
181.082225
 21
385.934352
  0
LINE
  5
326
100
AcDbEntity
  8
M0
 62
     1
100
AcDbLine
 10
181.082225
 20
385.934352
 11
181.382223
 21
385.934352
  0
LINE
  5
327
100
AcDbEntity
  8
M0
 62
     1
100
AcDbLine
 10
132.982224
 20
389.234352
 11
132.682225
 21
389.234352
  0
LINE
  5
328
100
AcDbEntity
  8
M0
 62
     1
100
AcDbLine
 10
145.082225
 20
385.934352
 11
144.782224
 21
385.934352
  0
LINE
  5
329
100
AcDbEntity
  8
M0
 62
     1
100
AcDbLine
 10
180.082223
 20
387.934352
 11
180.082223
 21
386.93435
  0
LINE
  5
32A
100
AcDbEntity
  8
M0
 62
     1
100
AcDbLine
 10
132.682225
 20
444.634351
 11
132.982224
 21
444.634351
  0
LINE
  5
32B
100
AcDbEntity
  8
M0
 62
     1
100
AcDbLine
 10
154.082225
 20
385.434351
 11
154.082225
 21
387.934352
  0
LINE
  5
32C
100
AcDbEntity
  8
M0
 62
     1
100
AcDbLine
 10
155.382226
 20
384.434353
 11
155.082225
 21
384.434353
  0
LINE
  5
32D
100
AcDbEntity
  8
M0
 62
     1
100
AcDbLine
 10
179.332226
 20
382.434352
 11
179.332226
 21
381.934351
  0
LINE
  5
32E
100
AcDbEntity
  8
M0
 62
     1
100
AcDbLine
 10
181.382223
 20
447.934351
 11
170.782226
 21
447.934351
  0
LINE
  5
32F
100
AcDbEntity
  8
M0
 62
     1
100
AcDbLine
 10
172.082226
 20
385.434351
 11
172.082226
 21
387.934352
  0
LINE
  5
330
100
AcDbEntity
  8
M0
 62
     1
100
AcDbLine
 10
146.082225
 20
387.934352
 11
146.082225
 21
386.93435
  0
LINE
  5
331
100
AcDbEntity
  8
M0
 62
     1
100
AcDbLine
 10
168.382223
 20
384.434353
 11
157.782226
 21
384.434353
  0
LINE
  5
332
100
AcDbEntity
  8
M0
 62
     1
100
AcDbLine
 10
171.082224
 20
384.434353
 11
170.782226
 21
384.434353
  0
ARC
  5
333
100
AcDbEntity
  8
M0
 62
     1
100
AcDbCircle
 10
179.832224
 20
381.934352
 40
0.5
100
AcDbArc
 50
180.0
 51
270.0
  0
ARC
  5
334
100
AcDbEntity
  8
M0
 62
     1
100
AcDbCircle
 10
172.332224
 20
381.934352
 40
0.5
100
AcDbArc
 50
270.0
 51
360.0
  0
ARC
  5
335
100
AcDbEntity
  8
M0
 62
     1
100
AcDbCircle
 10
176.082224
 20
384.434352
 40
3.25
100
AcDbArc
 50
0.0
 51
180.0
  0
ARC
  5
336
100
AcDbEntity
  8
M0
 62
     1
100
AcDbCircle
 10
158.782224
 20
458.934352
 40
1.0
100
AcDbArc
 50
90.0
 51
180.0
  0
ARC
  5
337
100
AcDbEntity
  8
M0
 62
     1
100
AcDbCircle
 10
167.382224
 20
458.934352
 40
1.0
100
AcDbArc
 50
0.0
 51
90.0
  0
ARC
  5
338
100
AcDbEntity
  8
M0
 62
     1
100
AcDbCircle
 10
180.082224
 20
382.434352
 40
1.0
100
AcDbArc
 50
270.0
 51
360.0
  0
ARC
  5
339
100
AcDbEntity
  8
M0
 62
     1
100
AcDbCircle
 10
146.332224
 20
381.934352
 40
0.5
100
AcDbArc
 50
270.0
 51
360.0
  0
ARC
  5
33A
100
AcDbEntity
  8
M0
 62
     1
100
AcDbCircle
 10
154.082224
 20
382.434352
 40
1.0
100
AcDbArc
 50
270.0
 51
360.0
  0
ARC
  5
33B
100
AcDbEntity
  8
M0
 62
     1
100
AcDbCircle
 10
172.082224
 20
382.434352
 40
1.0
100
AcDbArc
 50
180.0
 51
270.0
  0
ARC
  5
33C
100
AcDbEntity
  8
M0
 62
     1
100
AcDbCircle
 10
150.082224
 20
384.434352
 40
3.25
100
AcDbArc
 50
0.0
 51
180.0
  0
LINE
  5
33D
100
AcDbEntity
  8
M0
 62
     1
100
AcDbLine
 10
146.832225
 20
384.434352
 11
146.832225
 21
381.934351
  0
LINE
  5
33E
100
AcDbEntity
  8
M0
 62
     1
100
AcDbLine
 10
155.082225
 20
384.434353
 11
155.082225
 21
382.434352
  0
LINE
  5
33F
100
AcDbEntity
  8
M0
 62
     1
100
AcDbLine
 10
171.082224
 20
384.434353
 11
171.082224
 21
382.434352
  0
LINE
  5
340
100
AcDbEntity
  8
M0
 62
     1
100
AcDbLine
 10
153.332225
 20
381.934351
 11
153.332225
 21
384.434352
  0
ARC
  5
341
100
AcDbEntity
  8
M0
 62
     1
100
AcDbCircle
 10
171.082224
 20
385.434352
 40
1.0
100
AcDbArc
 50
270.0
 51
360.0
  0
ARC
  5
342
100
AcDbEntity
  8
M0
 62
     1
100
AcDbCircle
 10
145.082224
 20
386.934352
 40
1.0
100
AcDbArc
 50
270.0
 51
360.0
  0
ARC
  5
343
100
AcDbEntity
  8
M0
 62
     1
100
AcDbCircle
 10
153.832224
 20
381.934352
 40
0.5
100
AcDbArc
 50
180.0
 51
270.0
  0
ARC
  5
344
100
AcDbEntity
  8
M0
 62
     1
100
AcDbCircle
 10
155.082224
 20
385.434352
 40
1.0
100
AcDbArc
 50
180.0
 51
270.0
  0
LINE
  5
345
100
AcDbEntity
  8
M0
 62
     1
100
AcDbLine
 10
145.082225
 20
382.434352
 11
145.082225
 21
385.934352
  0
ARC
  5
346
100
AcDbEntity
  8
M0
 62
     1
100
AcDbCircle
 10
181.082224
 20
386.934352
 40
1.0
100
AcDbArc
 50
180.0
 51
270.0
  0
ARC
  5
347
100
AcDbEntity
  8
M0
 62
     1
100
AcDbCircle
 10
132.682224
 20
443.634352
 40
1.0
100
AcDbArc
 50
90.0
 51
180.0
  0
LINE
  5
348
100
AcDbEntity
  8
M0
 62
     1
100
AcDbLine
 10
143.782224
 20
381.43435
 11
136.682224
 21
381.43435
  0
LINE
  5
349
100
AcDbEntity
  8
M0
 62
     1
100
AcDbLine
 10
136.682224
 20
452.434353
 11
143.782224
 21
452.434353
  0
LINE
  5
34A
100
AcDbEntity
  8
M0
 62
     1
100
AcDbLine
 10
142.382224
 20
451.434352
 11
142.382224
 21
434.934352
  0
LINE
  5
34B
100
AcDbEntity
  8
M0
 62
     1
100
AcDbLine
 10
184.382225
 20
389.834352
 11
184.382225
 21
398.934353
  0
LINE
  5
34C
100
AcDbEntity
  8
M0
 62
     1
100
AcDbLine
 10
184.382225
 20
434.934352
 11
184.382225
 21
444.034352
  0
ARC
  5
34D
100
AcDbEntity
  8
M0
 62
     1
100
AcDbCircle
 10
132.682224
 20
390.234352
 40
1.0
100
AcDbArc
 50
180.0
 51
270.0
  0
ARC
  5
34E
100
AcDbEntity
  8
M0
 62
     1
100
AcDbCircle
 10
132.982224
 20
390.234352
 40
1.0
100
AcDbArc
 50
270.0
 51
360.0
  0
LINE
  5
34F
100
AcDbEntity
  8
M0
 62
     1
100
AcDbLine
 10
155.382226
 20
435.834352
 11
157.782226
 21
435.834352
  0
ARC
  5
350
100
AcDbEntity
  8
M0
 62
     1
100
AcDbCircle
 10
142.382224
 20
389.834352
 40
0.6
100
AcDbArc
 50
180.0
 51
270.0
  0
ARC
  5
351
100
AcDbEntity
  8
M0
 62
     1
100
AcDbCircle
 10
183.782224
 20
444.034352
 40
0.6
100
AcDbArc
 50
0.0
 51
90.0
  0
ARC
  5
352
100
AcDbEntity
  8
M0
 62
     1
100
AcDbCircle
 10
132.982224
 20
443.634352
 40
1.0
100
AcDbArc
 50
0.0
 51
90.0
  0
ARC
  5
353
100
AcDbEntity
  8
M0
 62
     1
100
AcDbCircle
 10
142.382224
 20
444.034352
 40
0.6
100
AcDbArc
 50
90.0
 51
180.0
  0
LINE
  5
354
100
AcDbEntity
  8
M0
 62
     1
100
AcDbLine
 10
144.782224
 20
398.934353
 11
144.782224
 21
382.434352
  0
LINE
  5
355
100
AcDbEntity
  8
M0
 62
     1
100
AcDbLine
 10
155.382226
 20
382.434352
 11
155.382226
 21
398.934353
  0
LINE
  5
356
100
AcDbEntity
  8
M0
 62
     1
100
AcDbLine
 10
155.382226
 20
398.034352
 11
156.382224
 21
398.034352
  0
LINE
  5
357
100
AcDbEntity
  8
M0
 62
     1
100
AcDbLine
 10
182.582225
 20
452.434353
 11
182.382225
 21
452.434353
  0
LINE
  5
358
100
AcDbEntity
  8
M0
 62
     1
100
AcDbLine
 10
181.382223
 20
451.434352
 11
181.382223
 21
434.934352
  0
LINE
  5
359
100
AcDbEntity
  8
M0
 62
     1
100
AcDbLine
 10
157.782226
 20
382.434352
 11
157.782226
 21
398.934353
  0
LINE
  5
35A
100
AcDbEntity
  8
M0
 62
     1
100
AcDbLine
 10
155.382226
 20
451.434352
 11
155.382226
 21
434.934352
  0
LINE
  5
35B
100
AcDbEntity
  8
M0
 62
     1
100
AcDbLine
 10
170.782226
 20
398.934353
 11
170.782226
 21
382.434352
  0
LINE
  5
35C
100
AcDbEntity
  8
M0
 62
     1
100
AcDbLine
 10
168.382223
 20
382.434352
 11
168.382223
 21
398.934353
  0
LINE
  5
35D
100
AcDbEntity
  8
M0
 62
     1
100
AcDbLine
 10
170.782226
 20
451.434352
 11
170.782226
 21
434.934352
  0
LINE
  5
35E
100
AcDbEntity
  8
M0
 62
     1
100
AcDbLine
 10
168.382223
 20
434.934352
 11
168.382223
 21
458.934352
  0
LINE
  5
35F
100
AcDbEntity
  8
M0
 62
     1
100
AcDbLine
 10
168.382223
 20
384.434353
 11
168.382223
 21
385.434351
  0
LINE
  5
360
100
AcDbEntity
  8
M0
 62
     1
100
AcDbLine
 10
168.382223
 20
449.434352
 11
168.382223
 21
448.434352
  0
LINE
  5
361
100
AcDbEntity
  8
M0
 62
     1
100
AcDbLine
 10
193.182222
 20
389.234352
 11
193.482227
 21
389.234352
  0
LINE
  5
362
100
AcDbEntity
  8
M0
 62
     1
100
AcDbLine
 10
193.482227
 20
444.634351
 11
193.182222
 21
444.634351
  0
LINE
  5
363
100
AcDbEntity
  8
M0
 62
     1
100
AcDbLine
 10
193.282223
 20
437.034351
 11
193.182222
 21
437.034351
  0
LINE
  5
364
100
AcDbEntity
  8
M0
 62
     1
100
AcDbLine
 10
144.782224
 20
451.434352
 11
144.782224
 21
434.934352
  0
LINE
  5
365
100
AcDbEntity
  8
M0
 62
     1
100
AcDbLine
 10
132.882224
 20
437.034351
 11
132.982224
 21
437.034351
  0
LINE
  5
366
100
AcDbEntity
  8
M0
 62
     1
100
AcDbLine
 10
193.282223
 20
396.834352
 11
193.182222
 21
396.834352
  0
LINE
  5
367
100
AcDbEntity
  8
M0
 62
     1
100
AcDbLine
 10
132.882224
 20
396.834352
 11
132.982224
 21
396.834352
  0
ARC
  5
368
100
AcDbEntity
  8
M0
 62
     1
100
AcDbCircle
 10
193.182224
 20
390.234352
 40
1.0
100
AcDbArc
 50
180.0
 51
270.0
  0
ARC
  5
369
100
AcDbEntity
  8
M0
 62
     1
100
AcDbCircle
 10
193.182224
 20
443.634352
 40
1.0
100
AcDbArc
 50
90.0
 51
180.0
  0
ARC
  5
36A
100
AcDbEntity
  8
M0
 62
     1
100
AcDbCircle
 10
183.782224
 20
389.834352
 40
0.6
100
AcDbArc
 50
270.0
 51
360.0
  0
ARC
  5
36B
100
AcDbEntity
  8
M0
 62
     1
100
AcDbCircle
 10
193.482224
 20
443.634352
 40
1.0
100
AcDbArc
 50
0.0
 51
90.0
  0
LINE
  5
36C
100
AcDbEntity
  8
M0
 62
     1
100
AcDbLine
 10
141.782225
 20
389.834351
 11
141.782225
 21
398.934353
  0
LINE
  5
36D
100
AcDbEntity
  8
M0
 62
     1
100
AcDbLine
 10
141.782225
 20
434.934352
 11
141.782225
 21
444.034352
  0
ARC
  5
36E
100
AcDbEntity
  8
M0
 62
     1
100
AcDbCircle
 10
193.482224
 20
390.234352
 40
1.0
100
AcDbArc
 50
270.0
 51
360.0
  0
LINE
  5
36F
100
AcDbEntity
  8
M0
 62
     1
100
AcDbLine
 10
133.982224
 20
412.234352
 11
133.982224
 21
390.234352
  0
LINE
  5
370
100
AcDbEntity
  8
M0
 62
     1
100
AcDbLine
 10
185.282226
 20
391.234352
 11
185.282226
 21
392.234352
  0
LINE
  5
371
100
AcDbEntity
  8
M0
 62
     1
100
AcDbLine
 10
191.282227
 20
391.234352
 11
185.282226
 21
391.234352
  0
LINE
  5
372
100
AcDbEntity
  8
M0
 62
     1
100
AcDbLine
 10
191.282227
 20
392.234352
 11
191.282227
 21
391.234352
  0
LINE
  5
373
100
AcDbEntity
  8
M0
 62
     1
100
AcDbLine
 10
139.082224
 20
434.034351
 11
133.982224
 21
434.034351
  0
LINE
  5
374
100
AcDbEntity
  8
M0
 62
     1
100
AcDbLine
 10
185.282226
 20
442.634352
 11
191.282227
 21
442.634352
  0
LINE
  5
375
100
AcDbEntity
  8
M0
 62
     1
100
AcDbLine
 10
185.282226
 20
441.634352
 11
185.282226
 21
442.634352
  0
LINE
  5
376
100
AcDbEntity
  8
M0
 62
     1
100
AcDbLine
 10
191.282227
 20
442.634352
 11
191.282227
 21
441.634352
  0
LINE
  5
377
100
AcDbEntity
  8
M0
 62
     1
100
AcDbLine
 10
133.982224
 20
399.834351
 11
139.087237
 21
399.834351
  0
LINE
  5
378
100
AcDbEntity
  8
M0
 62
     1
100
AcDbLine
 10
187.077212
 20
399.834351
 11
192.182227
 21
399.834351
  0
LINE
  5
379
100
AcDbEntity
  8
M0
 62
     1
100
AcDbLine
 10
155.382226
 20
445.934352
 11
144.782224
 21
445.934352
  0
LINE
  5
37A
100
AcDbEntity
  8
M0
 62
     1
100
AcDbLine
 10
157.782226
 20
387.934352
 11
168.382223
 21
387.934352
  0
LINE
  5
37B
100
AcDbEntity
  8
M0
 62
     1
100
AcDbLine
 10
134.882225
 20
442.634352
 11
140.882225
 21
442.634352
  0
LINE
  5
37C
100
AcDbEntity
  8
M0
 62
     1
100
AcDbLine
 10
134.882225
 20
441.634352
 11
134.882225
 21
442.634352
  0
LINE
  5
37D
100
AcDbEntity
  8
M0
 62
     1
100
AcDbLine
 10
140.882225
 20
442.634352
 11
140.882225
 21
441.634352
  0
LINE
  5
37E
100
AcDbEntity
  8
M0
 62
     1
100
AcDbLine
 10
140.882225
 20
391.234352
 11
134.882225
 21
391.234352
  0
LINE
  5
37F
100
AcDbEntity
  8
M0
 62
     1
100
AcDbLine
 10
140.882225
 20
392.234352
 11
140.882225
 21
391.234352
  0
LINE
  5
380
100
AcDbEntity
  8
M0
 62
     1
100
AcDbLine
 10
134.882225
 20
391.234352
 11
134.882225
 21
392.234352
  0
LINE
  5
381
100
AcDbEntity
  8
M0
 62
     1
100
AcDbLine
 10
179.799686
 20
460.852343
 11
179.800778
 21
460.815883
  0
LINE
  5
382
100
AcDbEntity
  8
M0
 62
     1
100
AcDbLine
 10
179.800778
 20
460.815883
 11
179.804026
 21
460.707604
  0
LINE
  5
383
100
AcDbEntity
  8
M0
 62
     1
100
AcDbLine
 10
179.804026
 20
460.707604
 11
179.809331
 21
460.530805
  0
LINE
  5
384
100
AcDbEntity
  8
M0
 62
     1
100
AcDbLine
 10
179.809331
 20
460.530805
 11
179.816528
 21
460.290852
  0
LINE
  5
385
100
AcDbEntity
  8
M0
 62
     1
100
AcDbLine
 10
179.816528
 20
460.290852
 11
179.825406
 21
459.995034
  0
LINE
  5
386
100
AcDbEntity
  8
M0
 62
     1
100
AcDbLine
 10
179.825406
 20
459.995034
 11
179.835684
 21
459.652345
  0
LINE
  5
387
100
AcDbEntity
  8
M0
 62
     1
100
AcDbLine
 10
179.835684
 20
459.652345
 11
179.847061
 21
459.273192
  0
LINE
  5
388
100
AcDbEntity
  8
M0
 62
     1
100
AcDbLine
 10
179.847061
 20
459.273192
 11
179.859183
 21
458.869099
  0
LINE
  5
389
100
AcDbEntity
  8
M0
 62
     1
100
AcDbLine
 10
179.859183
 20
458.869099
 11
179.871685
 21
458.452343
  0
LINE
  5
38A
100
AcDbEntity
  8
M0
 62
     1
100
AcDbLine
 10
146.292764
 20
458.452343
 11
146.30681
 21
458.92056
  0
LINE
  5
38B
100
AcDbEntity
  8
M0
 62
     1
100
AcDbLine
 10
146.30681
 20
458.92056
 11
146.320318
 21
459.370784
  0
LINE
  5
38C
100
AcDbEntity
  8
M0
 62
     1
100
AcDbLine
 10
146.320318
 20
459.370784
 11
146.332766
 21
459.785714
  0
LINE
  5
38D
100
AcDbEntity
  8
M0
 62
     1
100
AcDbLine
 10
146.332766
 20
459.785714
 11
146.343675
 21
460.149399
  0
LINE
  5
38E
100
AcDbEntity
  8
M0
 62
     1
100
AcDbLine
 10
146.343675
 20
460.149399
 11
146.352629
 21
460.447869
  0
LINE
  5
38F
100
AcDbEntity
  8
M0
 62
     1
100
AcDbLine
 10
146.352629
 20
460.447869
 11
146.359284
 21
460.669654
  0
LINE
  5
390
100
AcDbEntity
  8
M0
 62
     1
100
AcDbLine
 10
146.359284
 20
460.669654
 11
146.36338
 21
460.806227
  0
LINE
  5
391
100
AcDbEntity
  8
M0
 62
     1
100
AcDbLine
 10
146.36338
 20
460.806227
 11
146.364764
 21
460.852343
  0
LINE
  5
392
100
AcDbEntity
  8
M0
  6
DASHDOT
 62
     1
100
AcDbLine
 10
149.582224
 20
393.234352
 11
150.582224
 21
393.234352
  0
LINE
  5
393
100
AcDbEntity
  8
M0
  6
DASHDOT
 62
     1
100
AcDbLine
 10
150.082224
 20
392.734352
 11
150.082224
 21
393.734352
  0
LINE
  5
394
100
AcDbEntity
  8
M0
  6
DASHDOT
 62
     1
100
AcDbLine
 10
163.082221
 20
392.734352
 11
163.082221
 21
393.734352
  0
LINE
  5
395
100
AcDbEntity
  8
M0
  6
DASHDOT
 62
     1
100
AcDbLine
 10
162.582221
 20
393.234352
 11
163.582221
 21
393.234352
  0
LINE
  5
396
100
AcDbEntity
  8
M0
  6
DASHDOT
 62
     1
100
AcDbLine
 10
176.082221
 20
392.734352
 11
176.082221
 21
393.734352
  0
LINE
  5
397
100
AcDbEntity
  8
M0
  6
DASHDOT
 62
     1
100
AcDbLine
 10
175.582221
 20
393.234352
 11
176.582221
 21
393.234352
  0
LINE
  5
398
100
AcDbEntity
  8
M0
  6
DASHDOT
 62
     1
100
AcDbLine
 10
176.082221
 20
441.134352
 11
176.082221
 21
440.134352
  0
LINE
  5
399
100
AcDbEntity
  8
M0
  6
DASHDOT
 62
     1
100
AcDbLine
 10
175.582221
 20
440.634352
 11
176.582221
 21
440.634352
  0
LINE
  5
39A
100
AcDbEntity
  8
M0
  6
DASHDOT
 62
     1
100
AcDbLine
 10
162.582221
 20
440.634352
 11
163.582221
 21
440.634352
  0
LINE
  5
39B
100
AcDbEntity
  8
M0
  6
DASHDOT
 62
     1
100
AcDbLine
 10
150.082224
 20
441.134352
 11
150.082224
 21
440.134352
  0
LINE
  5
39C
100
AcDbEntity
  8
M0
  6
DASHDOT
 62
     1
100
AcDbLine
 10
163.082221
 20
441.134352
 11
163.082221
 21
440.134352
  0
LINE
  5
39D
100
AcDbEntity
  8
M0
  6
DASHDOT
 62
     1
100
AcDbLine
 10
149.582224
 20
440.634352
 11
150.582224
 21
440.634352
  0
LINE
  5
39E
100
AcDbEntity
  8
M0
  6
DASHDOT
 62
     1
100
AcDbLine
 10
188.782224
 20
437.834352
 11
187.782224
 21
437.834352
  0
LINE
  5
39F
100
AcDbEntity
  8
M0
  6
DASHDOT
 62
     1
100
AcDbLine
 10
188.282224
 20
437.334352
 11
188.282224
 21
438.334352
  0
LINE
  5
3A0
100
AcDbEntity
  8
M0
  6
DASHDOT
 62
     1
100
AcDbLine
 10
188.782224
 20
430.234352
 11
187.782224
 21
430.234352
  0
LINE
  5
3A1
100
AcDbEntity
  8
M0
  6
DASHDOT
 62
     1
100
AcDbLine
 10
188.282224
 20
429.734352
 11
188.282224
 21
430.734352
  0
LINE
  5
3A2
100
AcDbEntity
  8
M0
  6
DASHDOT
 62
     1
100
AcDbLine
 10
188.782224
 20
403.634352
 11
187.782224
 21
403.634352
  0
LINE
  5
3A3
100
AcDbEntity
  8
M0
  6
DASHDOT
 62
     1
100
AcDbLine
 10
188.282224
 20
403.134352
 11
188.282224
 21
404.134352
  0
LINE
  5
3A4
100
AcDbEntity
  8
M0
  6
DASHDOT
 62
     1
100
AcDbLine
 10
188.782224
 20
396.034352
 11
187.782224
 21
396.034352
  0
LINE
  5
3A5
100
AcDbEntity
  8
M0
  6
DASHDOT
 62
     1
100
AcDbLine
 10
188.282224
 20
395.534352
 11
188.282224
 21
396.534352
  0
LINE
  5
3A6
100
AcDbEntity
  8
M0
  6
DASHDOT
 62
     1
100
AcDbLine
 10
137.382224
 20
430.234352
 11
138.382224
 21
430.234352
  0
LINE
  5
3A7
100
AcDbEntity
  8
M0
  6
DASHDOT
 62
     1
100
AcDbLine
 10
137.882224
 20
429.734352
 11
137.882224
 21
430.734352
  0
LINE
  5
3A8
100
AcDbEntity
  8
M0
  6
DASHDOT
 62
     1
100
AcDbLine
 10
137.382224
 20
437.834352
 11
138.382224
 21
437.834352
  0
LINE
  5
3A9
100
AcDbEntity
  8
M0
  6
DASHDOT
 62
     1
100
AcDbLine
 10
137.882224
 20
437.334352
 11
137.882224
 21
438.334352
  0
LINE
  5
3AA
100
AcDbEntity
  8
M0
  6
DASHDOT
 62
     1
100
AcDbLine
 10
137.382224
 20
396.034352
 11
138.382224
 21
396.034352
  0
LINE
  5
3AB
100
AcDbEntity
  8
M0
  6
DASHDOT
 62
     1
100
AcDbLine
 10
137.882224
 20
395.534352
 11
137.882224
 21
396.534352
  0
LINE
  5
3AC
100
AcDbEntity
  8
M0
  6
DASHDOT
 62
     1
100
AcDbLine
 10
137.382224
 20
403.634352
 11
138.382224
 21
403.634352
  0
LINE
  5
3AD
100
AcDbEntity
  8
M0
  6
DASHDOT
 62
     1
100
AcDbLine
 10
137.882224
 20
403.134352
 11
137.882224
 21
404.134352
  0
LINE
  5
3AE
100
AcDbEntity
  8
M0
  6
DASHDOT
 62
     1
100
AcDbLine
 10
149.582224
 20
384.434352
 11
150.582224
 21
384.434352
  0
LINE
  5
3AF
100
AcDbEntity
  8
M0
  6
DASHDOT
 62
     1
100
AcDbLine
 10
150.082224
 20
383.934352
 11
150.082224
 21
384.934352
  0
LINE
  5
3B0
100
AcDbEntity
  8
M0
  6
DASHDOT
 62
     1
100
AcDbLine
 10
175.582224
 20
384.434352
 11
176.582224
 21
384.434352
  0
LINE
  5
3B1
100
AcDbEntity
  8
M0
  6
DASHDOT
 62
     1
100
AcDbLine
 10
176.082224
 20
383.934352
 11
176.082224
 21
384.934352
  0
LINE
  5
3B2
100
AcDbEntity
  8
M0
  6
DASHDOT
 62
     1
100
AcDbLine
 10
173.482224
 20
455.534352
 11
174.482224
 21
455.534352
  0
LINE
  5
3B3
100
AcDbEntity
  8
M0
  6
DASHDOT
 62
     1
100
AcDbLine
 10
173.982224
 20
455.034352
 11
173.982224
 21
456.034352
  0
LINE
  5
3B4
100
AcDbEntity
  8
M0
  6
DASHDOT
 62
     1
100
AcDbLine
 10
162.582224
 20
455.134352
 11
163.582224
 21
455.134352
  0
LINE
  5
3B5
100
AcDbEntity
  8
M0
  6
DASHDOT
 62
     1
100
AcDbLine
 10
163.082224
 20
454.634352
 11
163.082224
 21
455.634352
  0
LINE
  5
3B6
100
AcDbEntity
  8
M0
  6
DASHDOT
 62
     1
100
AcDbLine
 10
152.682224
 20
455.534352
 11
151.682224
 21
455.534352
  0
LINE
  5
3B7
100
AcDbEntity
  8
M0
  6
DASHDOT
 62
     1
100
AcDbLine
 10
152.182224
 20
455.034352
 11
152.182224
 21
456.034352
  0
CIRCLE
  5
3B8
100
AcDbEntity
  8
M0
 62
     1
100
AcDbCircle
 10
90.282228
 20
455.134352
 40
2.75
  0
LINE
  5
3B9
100
AcDbEntity
  8
M0
 62
     1
100
AcDbLine
 10
89.982228
 20
453.734352
 11
89.982228
 21
454.130712
  0
LINE
  5
3BA
100
AcDbEntity
  8
M0
 62
     1
100
AcDbLine
 10
90.582228
 20
453.734352
 11
90.582228
 21
454.130712
  0
LINE
  5
3BB
100
AcDbEntity
  8
M0
 62
     1
100
AcDbLine
 10
89.982228
 20
456.534352
 11
89.982228
 21
456.137991
  0
LINE
  5
3BC
100
AcDbEntity
  8
M0
 62
     1
100
AcDbLine
 10
90.582228
 20
456.534352
 11
90.582228
 21
456.137991
  0
ARC
  5
3BD
100
AcDbEntity
  8
M0
 62
     1
100
AcDbCircle
 10
89.257228
 20
454.109352
 40
0.725
100
AcDbArc
 50
0.0
 51
90.0
  0
ARC
  5
3BE
100
AcDbEntity
  8
M0
 62
     1
100
AcDbCircle
 10
89.257228
 20
456.159352
 40
0.725
100
AcDbArc
 50
-90.0
 51
0.0
  0
ARC
  5
3BF
100
AcDbEntity
  8
M0
 62
     1
100
AcDbCircle
 10
91.307228
 20
456.159352
 40
0.725
100
AcDbArc
 50
180.0
 51
270.0
  0
ARC
  5
3C0
100
AcDbEntity
  8
M0
 62
     1
100
AcDbCircle
 10
91.307228
 20
454.109352
 40
0.725
100
AcDbArc
 50
90.0
 51
180.0
  0
LINE
  5
3C1
100
AcDbEntity
  8
M0
 62
     1
100
AcDbLine
 10
91.307228
 20
454.834352
 11
91.707228
 21
454.834352
  0
LINE
  5
3C2
100
AcDbEntity
  8
M0
 62
     1
100
AcDbLine
 10
91.307228
 20
455.434352
 11
91.707228
 21
455.434352
  0
LINE
  5
3C3
100
AcDbEntity
  8
M0
 62
     1
100
AcDbLine
 10
89.982228
 20
456.534352
 11
90.582228
 21
456.534352
  0
LINE
  5
3C4
100
AcDbEntity
  8
M0
 62
     1
100
AcDbLine
 10
89.982228
 20
453.734352
 11
90.582228
 21
453.734352
  0
LINE
  5
3C5
100
AcDbEntity
  8
M0
 62
     1
100
AcDbLine
 10
88.882228
 20
455.434352
 11
89.257228
 21
455.434352
  0
LINE
  5
3C6
100
AcDbEntity
  8
M0
 62
     1
100
AcDbLine
 10
88.882228
 20
455.434352
 11
88.882228
 21
454.834352
  0
LINE
  5
3C7
100
AcDbEntity
  8
M0
 62
     1
100
AcDbLine
 10
88.882228
 20
454.834352
 11
89.257228
 21
454.834352
  0
LINE
  5
3C8
100
AcDbEntity
  8
M0
 62
     1
100
AcDbLine
 10
91.707228
 20
455.434352
 11
91.707228
 21
454.834352
  0
CIRCLE
  5
3C9
100
AcDbEntity
  8
M0
 62
     1
100
AcDbCircle
 10
152.182224
 20
455.534352
 40
3.0
  0
LINE
  5
3CA
100
AcDbEntity
  8
M0
 62
     1
100
AcDbLine
 10
153.772808
 20
453.943707
 11
150.591167
 21
457.125469
  0
LINE
  5
3CB
100
AcDbEntity
  8
M0
 62
     1
100
AcDbLine
 10
153.59605
 20
455.888043
 11
151.828472
 21
454.120465
  0
LINE
  5
3CC
100
AcDbEntity
  8
M0
 62
     1
100
AcDbLine
 10
152.535503
 20
456.948712
 11
150.767925
 21
455.181011
  0
LINE
  5
3CD
100
AcDbEntity
  8
M0
 62
     1
100
AcDbLine
 10
155.507224
 20
459.359352
 11
148.857224
 21
459.359352
  0
ARC
  5
3CE
100
AcDbEntity
  8
M0
 62
     1
100
AcDbCircle
 10
155.507224
 20
458.859352
 40
0.5
100
AcDbArc
 50
0.0
 51
90.0
  0
LINE
  5
3CF
100
AcDbEntity
  8
M0
 62
     1
100
AcDbLine
 10
156.007224
 20
452.209352
 11
156.007224
 21
458.859352
  0
ARC
  5
3D0
100
AcDbEntity
  8
M0
 62
     1
100
AcDbCircle
 10
155.507224
 20
452.209352
 40
0.5
100
AcDbArc
 50
270.0
 51
360.0
  0
LINE
  5
3D1
100
AcDbEntity
  8
M0
 62
     1
100
AcDbLine
 10
148.857224
 20
451.709352
 11
155.507224
 21
451.709352
  0
LINE
  5
3D2
100
AcDbEntity
  8
M0
 62
     1
100
AcDbLine
 10
148.357224
 20
458.859352
 11
148.357224
 21
452.209352
  0
ARC
  5
3D3
100
AcDbEntity
  8
M0
 62
     1
100
AcDbCircle
 10
148.857224
 20
458.859352
 40
0.5
100
AcDbArc
 50
90.0
 51
180.0
  0
ARC
  5
3D4
100
AcDbEntity
  8
M0
 62
     1
100
AcDbCircle
 10
148.857224
 20
452.209352
 40
0.5
100
AcDbArc
 50
180.0
 51
270.0
  0
CIRCLE
  5
3D5
100
AcDbEntity
  8
M0
 62
     1
100
AcDbCircle
 10
79.382228
 20
455.534352
 40
3.0
  0
LINE
  5
3D6
100
AcDbEntity
  8
M0
 62
     1
100
AcDbLine
 10
80.972811
 20
453.943707
 11
77.791171
 21
457.125469
  0
LINE
  5
3D7
100
AcDbEntity
  8
M0
 62
     1
100
AcDbLine
 10
80.796054
 20
455.888043
 11
79.028476
 21
454.120465
  0
LINE
  5
3D8
100
AcDbEntity
  8
M0
 62
     1
100
AcDbLine
 10
79.735507
 20
456.948712
 11
77.967929
 21
455.181011
  0
LINE
  5
3D9
100
AcDbEntity
  8
M0
 62
     1
100
AcDbLine
 10
82.707228
 20
459.359352
 11
76.057228
 21
459.359352
  0
ARC
  5
3DA
100
AcDbEntity
  8
M0
 62
     1
100
AcDbCircle
 10
82.707228
 20
458.859352
 40
0.5
100
AcDbArc
 50
0.0
 51
90.0
  0
LINE
  5
3DB
100
AcDbEntity
  8
M0
 62
     1
100
AcDbLine
 10
83.207228
 20
452.209352
 11
83.207228
 21
458.859352
  0
ARC
  5
3DC
100
AcDbEntity
  8
M0
 62
     1
100
AcDbCircle
 10
82.707228
 20
452.209352
 40
0.5
100
AcDbArc
 50
270.0
 51
360.0
  0
LINE
  5
3DD
100
AcDbEntity
  8
M0
 62
     1
100
AcDbLine
 10
76.057228
 20
451.709352
 11
82.707228
 21
451.709352
  0
LINE
  5
3DE
100
AcDbEntity
  8
M0
 62
     1
100
AcDbLine
 10
75.557228
 20
458.859352
 11
75.557228
 21
452.209352
  0
ARC
  5
3DF
100
AcDbEntity
  8
M0
 62
     1
100
AcDbCircle
 10
76.057228
 20
458.859352
 40
0.5
100
AcDbArc
 50
90.0
 51
180.0
  0
ARC
  5
3E0
100
AcDbEntity
  8
M0
 62
     1
100
AcDbCircle
 10
76.057228
 20
452.209352
 40
0.5
100
AcDbArc
 50
180.0
 51
270.0
  0
LINE
  5
3E1
100
AcDbEntity
  8
M0
 62
     1
100
AcDbLine
 10
66.282228
 20
402.434306
 11
63.491171
 21
405.225469
  0
LINE
  5
3E2
100
AcDbEntity
  8
M0
 62
     1
100
AcDbLine
 10
66.282228
 20
403.774217
 11
64.728476
 21
402.220465
  0
LINE
  5
3E3
100
AcDbEntity
  8
M0
 62
     1
100
AcDbLine
 10
65.435507
 20
405.048712
 11
63.667929
 21
403.281011
  0
LINE
  5
3E4
100
AcDbEntity
  8
M0
 62
     1
100
AcDbLine
 10
66.282228
 20
407.459352
 11
61.757228
 21
407.459352
  0
LINE
  5
3E5
100
AcDbEntity
  8
M0
 62
     1
100
AcDbLine
 10
61.757228
 20
399.809352
 11
66.282228
 21
399.809352
  0
LINE
  5
3E6
100
AcDbEntity
  8
M0
 62
     1
100
AcDbLine
 10
61.257228
 20
406.959352
 11
61.257228
 21
400.309352
  0
ARC
  5
3E7
100
AcDbEntity
  8
M0
 62
     1
100
AcDbCircle
 10
61.757228
 20
406.959352
 40
0.5
100
AcDbArc
 50
90.0
 51
180.0
  0
ARC
  5
3E8
100
AcDbEntity
  8
M0
 62
     1
100
AcDbCircle
 10
61.757228
 20
400.309352
 40
0.5
100
AcDbArc
 50
180.0
 51
270.0
  0
ARC
  5
3E9
100
AcDbEntity
  8
M0
 62
     1
100
AcDbCircle
 10
65.082228
 20
403.634352
 40
3.0
100
AcDbArc
 50
66.421825
 51
293.578175
  0
LINE
  5
3EA
100
AcDbEntity
  8
M0
 62
     1
100
AcDbLine
 10
131.682225
 20
441.234352
 11
131.682225
 21
416.934352
  0
LINE
  5
3EB
100
AcDbEntity
  8
M0
 62
     1
100
AcDbLine
 10
131.682225
 20
434.334352
 11
126.682225
 21
434.334352
  0
LINE
  5
3EC
100
AcDbEntity
  8
M0
 62
     1
100
AcDbLine
 10
129.082225
 20
442.334353
 11
124.282225
 21
442.334353
  0
LINE
  5
3ED
100
AcDbEntity
  8
M0
 62
     1
100
AcDbLine
 10
121.682225
 20
434.334352
 11
126.682225
 21
434.334352
  0
LINE
  5
3EE
100
AcDbEntity
  8
M0
 62
     1
100
AcDbLine
 10
131.682225
 20
438.434352
 11
126.682225
 21
438.434352
  0
LINE
  5
3EF
100
AcDbEntity
  8
M0
 62
     1
100
AcDbLine
 10
121.682225
 20
399.534352
 11
126.682225
 21
399.534352
  0
ARC
  5
3F0
100
AcDbEntity
  8
M0
 62
     1
100
AcDbCircle
 10
131.182225
 20
441.234352
 40
0.5
100
AcDbArc
 50
23.578178
 51
90.0
  0
LINE
  5
3F1
100
AcDbEntity
  8
M0
 62
     1
100
AcDbLine
 10
129.082225
 20
391.534351
 11
124.282225
 21
391.534351
  0
ARC
  5
3F2
100
AcDbEntity
  8
M0
 62
     1
100
AcDbCircle
 10
124.282225
 20
441.734352
 40
0.6
100
AcDbArc
 50
90.0
 51
180.0
  0
ARC
  5
3F3
100
AcDbEntity
  8
M0
 62
     1
100
AcDbCircle
 10
122.182225
 20
441.234352
 40
0.5
100
AcDbArc
 50
90.0
 51
156.421822
  0
LINE
  5
3F4
100
AcDbEntity
  8
M0
 62
     1
100
AcDbLine
 10
121.682225
 20
416.934352
 11
121.682225
 21
392.634351
  0
ARC
  5
3F5
100
AcDbEntity
  8
M0
 62
     1
100
AcDbCircle
 10
129.082225
 20
441.734352
 40
0.6
100
AcDbArc
 50
0.0
 51
90.0
  0
LINE
  5
3F6
100
AcDbEntity
  8
M0
 62
     1
100
AcDbLine
 10
131.682225
 20
392.634351
 11
131.682225
 21
416.934352
  0
LINE
  5
3F7
100
AcDbEntity
  8
M0
 62
     1
100
AcDbLine
 10
131.682225
 20
395.434351
 11
126.682225
 21
395.434351
  0
ARC
  5
3F8
100
AcDbEntity
  8
M0
 62
     1
100
AcDbCircle
 10
129.082225
 20
392.134351
 40
0.6
100
AcDbArc
 50
270.0
 51
360.0
  0
LINE
  5
3F9
100
AcDbEntity
  8
M0
  6
DASHDOT
 62
     1
100
AcDbLine
 10
126.682225
 20
446.934352
 11
126.682225
 21
387.934352
  0
ARC
  5
3FA
100
AcDbEntity
  8
M0
 62
     1
100
AcDbCircle
 10
131.182225
 20
392.634351
 40
0.5
100
AcDbArc
 50
270.0
 51
336.421822
  0
LINE
  5
3FB
100
AcDbEntity
  8
M0
 62
     1
100
AcDbLine
 10
131.682225
 20
399.534352
 11
126.682225
 21
399.534352
  0
LINE
  5
3FC
100
AcDbEntity
  8
M0
 62
     1
100
AcDbLine
 10
121.682225
 20
438.434352
 11
126.682225
 21
438.434352
  0
ARC
  5
3FD
100
AcDbEntity
  8
M0
 62
     1
100
AcDbCircle
 10
122.182225
 20
392.634351
 40
0.5
100
AcDbArc
 50
203.578178
 51
270.0
  0
LINE
  5
3FE
100
AcDbEntity
  8
M0
 62
     1
100
AcDbLine
 10
121.682225
 20
416.934352
 11
121.682225
 21
441.234352
  0
LINE
  5
3FF
100
AcDbEntity
  8
M0
 62
     1
100
AcDbLine
 10
122.182225
 20
392.134353
 11
131.182225
 21
392.134353
  0
ARC
  5
400
100
AcDbEntity
  8
M0
 62
     1
100
AcDbCircle
 10
124.282225
 20
392.134351
 40
0.6
100
AcDbArc
 50
180.0
 51
270.0
  0
LINE
  5
401
100
AcDbEntity
  8
M0
 62
     1
100
AcDbLine
 10
122.182225
 20
441.73435
 11
131.182225
 21
441.73435
  0
LINE
  5
402
100
AcDbEntity
  8
M0
 62
     1
100
AcDbLine
 10
121.682225
 20
395.434351
 11
126.682225
 21
395.434351
  0
CIRCLE
  5
403
100
AcDbEntity
  8
M0
 62
     1
100
AcDbCircle
 10
150.082224
 20
384.434352
 40
2.75
  0
LINE
  5
404
100
AcDbEntity
  8
M0
 62
     1
100
AcDbLine
 10
149.782224
 20
383.034352
 11
149.782224
 21
383.430712
  0
LINE
  5
405
100
AcDbEntity
  8
M0
 62
     1
100
AcDbLine
 10
150.382224
 20
383.034352
 11
150.382224
 21
383.430712
  0
LINE
  5
406
100
AcDbEntity
  8
M0
 62
     1
100
AcDbLine
 10
149.782224
 20
385.834352
 11
149.782224
 21
385.437991
  0
LINE
  5
407
100
AcDbEntity
  8
M0
 62
     1
100
AcDbLine
 10
150.382224
 20
385.834352
 11
150.382224
 21
385.437991
  0
ARC
  5
408
100
AcDbEntity
  8
M0
 62
     1
100
AcDbCircle
 10
149.057224
 20
383.409352
 40
0.725
100
AcDbArc
 50
0.0
 51
90.0
  0
ARC
  5
409
100
AcDbEntity
  8
M0
 62
     1
100
AcDbCircle
 10
149.057224
 20
385.459352
 40
0.725
100
AcDbArc
 50
-90.0
 51
0.0
  0
ARC
  5
40A
100
AcDbEntity
  8
M0
 62
     1
100
AcDbCircle
 10
151.107224
 20
385.459352
 40
0.725
100
AcDbArc
 50
180.0
 51
270.0
  0
ARC
  5
40B
100
AcDbEntity
  8
M0
 62
     1
100
AcDbCircle
 10
151.107224
 20
383.409352
 40
0.725
100
AcDbArc
 50
90.0
 51
180.0
  0
LINE
  5
40C
100
AcDbEntity
  8
M0
 62
     1
100
AcDbLine
 10
151.107224
 20
384.134352
 11
151.507224
 21
384.134352
  0
LINE
  5
40D
100
AcDbEntity
  8
M0
 62
     1
100
AcDbLine
 10
151.107224
 20
384.734352
 11
151.507224
 21
384.734352
  0
LINE
  5
40E
100
AcDbEntity
  8
M0
 62
     1
100
AcDbLine
 10
149.782224
 20
385.834352
 11
150.382224
 21
385.834352
  0
LINE
  5
40F
100
AcDbEntity
  8
M0
 62
     1
100
AcDbLine
 10
149.782224
 20
383.034352
 11
150.382224
 21
383.034352
  0
LINE
  5
410
100
AcDbEntity
  8
M0
 62
     1
100
AcDbLine
 10
148.682224
 20
384.734352
 11
149.057224
 21
384.734352
  0
LINE
  5
411
100
AcDbEntity
  8
M0
 62
     1
100
AcDbLine
 10
148.682224
 20
384.734352
 11
148.682224
 21
384.134352
  0
LINE
  5
412
100
AcDbEntity
  8
M0
 62
     1
100
AcDbLine
 10
148.682224
 20
384.134352
 11
149.057224
 21
384.134352
  0
LINE
  5
413
100
AcDbEntity
  8
M0
 62
     1
100
AcDbLine
 10
151.507224
 20
384.734352
 11
151.507224
 21
384.134352
  0
CIRCLE
  5
414
100
AcDbEntity
  8
M0
 62
     1
100
AcDbCircle
 10
137.882224
 20
396.034352
 40
3.0
  0
LINE
  5
415
100
AcDbEntity
  8
M0
 62
     1
100
AcDbLine
 10
139.472808
 20
394.443707
 11
136.291168
 21
397.625469
  0
LINE
  5
416
100
AcDbEntity
  8
M0
 62
     1
100
AcDbLine
 10
139.29605
 20
396.388043
 11
137.528472
 21
394.620465
  0
LINE
  5
417
100
AcDbEntity
  8
M0
 62
     1
100
AcDbLine
 10
138.235504
 20
397.448712
 11
136.467925
 21
395.681011
  0
LINE
  5
418
100
AcDbEntity
  8
M0
 62
     1
100
AcDbLine
 10
139.085041
 20
399.859352
 11
134.557224
 21
399.859352
  0
LINE
  5
419
100
AcDbEntity
  8
M0
 62
     1
100
AcDbLine
 10
141.707224
 20
392.709352
 11
141.707224
 21
398.934353
  0
ARC
  5
41A
100
AcDbEntity
  8
M0
 62
     1
100
AcDbCircle
 10
141.207224
 20
392.709352
 40
0.5
100
AcDbArc
 50
270.0
 51
360.0
  0
LINE
  5
41B
100
AcDbEntity
  8
M0
 62
     1
100
AcDbLine
 10
134.557224
 20
392.209352
 11
141.207224
 21
392.209352
  0
LINE
  5
41C
100
AcDbEntity
  8
M0
 62
     1
100
AcDbLine
 10
134.057224
 20
399.359352
 11
134.057224
 21
392.709352
  0
ARC
  5
41D
100
AcDbEntity
  8
M0
 62
     1
100
AcDbCircle
 10
134.557224
 20
399.359352
 40
0.5
100
AcDbArc
 50
90.0
 51
180.0
  0
ARC
  5
41E
100
AcDbEntity
  8
M0
 62
     1
100
AcDbCircle
 10
134.557224
 20
392.709352
 40
0.5
100
AcDbArc
 50
180.0
 51
270.0
  0
CIRCLE
  5
41F
100
AcDbEntity
  8
M0
 62
     1
100
AcDbCircle
 10
65.082228
 20
437.834352
 40
3.0
  0
LINE
  5
420
100
AcDbEntity
  8
M0
 62
     1
100
AcDbLine
 10
66.672812
 20
436.243707
 11
63.491171
 21
439.425469
  0
LINE
  5
421
100
AcDbEntity
  8
M0
 62
     1
100
AcDbLine
 10
66.496054
 20
438.188043
 11
64.728476
 21
436.420465
  0
LINE
  5
422
100
AcDbEntity
  8
M0
 62
     1
100
AcDbLine
 10
65.435507
 20
439.248712
 11
63.667929
 21
437.481011
  0
LINE
  5
423
100
AcDbEntity
  8
M0
 62
     1
100
AcDbLine
 10
68.407228
 20
441.659352
 11
61.757228
 21
441.659352
  0
ARC
  5
424
100
AcDbEntity
  8
M0
 62
     1
100
AcDbCircle
 10
68.407228
 20
441.159352
 40
0.5
100
AcDbArc
 50
0.0
 51
90.0
  0
LINE
  5
425
100
AcDbEntity
  8
M0
 62
     1
100
AcDbLine
 10
68.907228
 20
434.934352
 11
68.907228
 21
441.159352
  0
LINE
  5
426
100
AcDbEntity
  8
M0
 62
     1
100
AcDbLine
 10
61.757228
 20
434.009352
 11
66.282228
 21
434.009352
  0
LINE
  5
427
100
AcDbEntity
  8
M0
 62
     1
100
AcDbLine
 10
61.257228
 20
441.159352
 11
61.257228
 21
434.509352
  0
ARC
  5
428
100
AcDbEntity
  8
M0
 62
     1
100
AcDbCircle
 10
61.757228
 20
441.159352
 40
0.5
100
AcDbArc
 50
90.0
 51
180.0
  0
ARC
  5
429
100
AcDbEntity
  8
M0
 62
     1
100
AcDbCircle
 10
61.757228
 20
434.509352
 40
0.5
100
AcDbArc
 50
180.0
 51
270.0
  0
ARC
  5
42A
100
AcDbEntity
  8
M0
 62
     1
100
AcDbCircle
 10
154.582224
 20
436.134352
 40
0.5
100
AcDbArc
 50
270.0
 51
360.0
  0
LINE
  5
42B
100
AcDbEntity
  8
M0
 62
     1
100
AcDbLine
 10
155.082224
 20
445.134352
 11
155.082224
 21
436.134352
  0
ARC
  5
42C
100
AcDbEntity
  8
M0
 62
     1
100
AcDbCircle
 10
154.582224
 20
445.134352
 40
0.5
100
AcDbArc
 50
0.0
 51
90.0
  0
LINE
  5
42D
100
AcDbEntity
  8
M0
 62
     1
100
AcDbLine
 10
145.082224
 20
445.134352
 11
145.082224
 21
436.134352
  0
ARC
  5
42E
100
AcDbEntity
  8
M0
 62
     1
100
AcDbCircle
 10
145.582224
 20
445.134352
 40
0.5
100
AcDbArc
 50
90.0
 51
180.0
  0
ARC
  5
42F
100
AcDbEntity
  8
M0
 62
     1
100
AcDbCircle
 10
145.582224
 20
436.134352
 40
0.5
100
AcDbArc
 50
180.0
 51
270.0
  0
LINE
  5
430
100
AcDbEntity
  8
M0
 62
     1
100
AcDbLine
 10
145.582224
 20
435.634352
 11
154.582224
 21
435.634352
  0
LINE
  5
431
100
AcDbEntity
  8
M0
 62
     1
100
AcDbLine
 10
154.582224
 20
445.634352
 11
145.582224
 21
445.634352
  0
CIRCLE
  5
432
100
AcDbEntity
  8
M0
 62
     1
100
AcDbCircle
 10
150.082224
 20
440.634352
 40
3.5
  0
LINE
  5
433
100
AcDbEntity
  8
M0
 62
     1
100
AcDbLine
 10
151.093096
 20
442.352309
 11
148.518023
 21
439.777235
  0
LINE
  5
434
100
AcDbEntity
  8
M0
 62
     1
100
AcDbLine
 10
151.800204
 20
441.645201
 11
149.22513
 21
439.070128
  0
LINE
  5
435
100
AcDbEntity
  8
M0
 62
     1
100
AcDbLine
 10
149.121371
 20
441.595198
 11
150.966219
 21
439.750365
  0
ARC
  5
436
100
AcDbEntity
  8
M0
 62
     1
100
AcDbCircle
 10
167.582221
 20
436.134352
 40
0.5
100
AcDbArc
 50
270.0
 51
360.0
  0
LINE
  5
437
100
AcDbEntity
  8
M0
 62
     1
100
AcDbLine
 10
168.082221
 20
445.134352
 11
168.082221
 21
436.134352
  0
ARC
  5
438
100
AcDbEntity
  8
M0
 62
     1
100
AcDbCircle
 10
167.582221
 20
445.134352
 40
0.5
100
AcDbArc
 50
0.0
 51
90.0
  0
LINE
  5
439
100
AcDbEntity
  8
M0
 62
     1
100
AcDbLine
 10
158.082221
 20
445.134352
 11
158.082221
 21
436.134352
  0
ARC
  5
43A
100
AcDbEntity
  8
M0
 62
     1
100
AcDbCircle
 10
158.582221
 20
445.134352
 40
0.5
100
AcDbArc
 50
90.0
 51
180.0
  0
ARC
  5
43B
100
AcDbEntity
  8
M0
 62
     1
100
AcDbCircle
 10
158.582221
 20
436.134352
 40
0.5
100
AcDbArc
 50
180.0
 51
270.0
  0
LINE
  5
43C
100
AcDbEntity
  8
M0
 62
     1
100
AcDbLine
 10
158.582221
 20
435.634352
 11
167.582221
 21
435.634352
  0
LINE
  5
43D
100
AcDbEntity
  8
M0
 62
     1
100
AcDbLine
 10
167.582221
 20
445.634352
 11
158.582221
 21
445.634352
  0
CIRCLE
  5
43E
100
AcDbEntity
  8
M0
 62
     1
100
AcDbCircle
 10
163.082221
 20
440.634352
 40
3.5
  0
LINE
  5
43F
100
AcDbEntity
  8
M0
 62
     1
100
AcDbLine
 10
164.093093
 20
442.352309
 11
161.518019
 21
439.777235
  0
LINE
  5
440
100
AcDbEntity
  8
M0
 62
     1
100
AcDbLine
 10
164.8002
 20
441.645201
 11
162.225127
 21
439.070128
  0
LINE
  5
441
100
AcDbEntity
  8
M0
 62
     1
100
AcDbLine
 10
162.121367
 20
441.595198
 11
163.966216
 21
439.750365
  0
ARC
  5
442
100
AcDbEntity
  8
M0
 62
     1
100
AcDbCircle
 10
180.582221
 20
436.134352
 40
0.5
100
AcDbArc
 50
270.0
 51
360.0
  0
LINE
  5
443
100
AcDbEntity
  8
M0
 62
     1
100
AcDbLine
 10
181.082221
 20
445.134352
 11
181.082221
 21
436.134352
  0
ARC
  5
444
100
AcDbEntity
  8
M0
 62
     1
100
AcDbCircle
 10
180.582221
 20
445.134352
 40
0.5
100
AcDbArc
 50
0.0
 51
90.0
  0
LINE
  5
445
100
AcDbEntity
  8
M0
 62
     1
100
AcDbLine
 10
171.082221
 20
445.134352
 11
171.082221
 21
436.134352
  0
ARC
  5
446
100
AcDbEntity
  8
M0
 62
     1
100
AcDbCircle
 10
171.582221
 20
445.134352
 40
0.5
100
AcDbArc
 50
90.0
 51
180.0
  0
ARC
  5
447
100
AcDbEntity
  8
M0
 62
     1
100
AcDbCircle
 10
171.582221
 20
436.134352
 40
0.5
100
AcDbArc
 50
180.0
 51
270.0
  0
LINE
  5
448
100
AcDbEntity
  8
M0
 62
     1
100
AcDbLine
 10
171.582221
 20
435.634352
 11
180.582221
 21
435.634352
  0
LINE
  5
449
100
AcDbEntity
  8
M0
 62
     1
100
AcDbLine
 10
180.582221
 20
445.634352
 11
171.582221
 21
445.634352
  0
CIRCLE
  5
44A
100
AcDbEntity
  8
M0
 62
     1
100
AcDbCircle
 10
176.082221
 20
440.634352
 40
3.5
  0
LINE
  5
44B
100
AcDbEntity
  8
M0
 62
     1
100
AcDbLine
 10
177.093093
 20
442.352309
 11
174.51802
 21
439.777235
  0
LINE
  5
44C
100
AcDbEntity
  8
M0
 62
     1
100
AcDbLine
 10
177.8002
 20
441.645201
 11
175.225127
 21
439.070128
  0
LINE
  5
44D
100
AcDbEntity
  8
M0
 62
     1
100
AcDbLine
 10
175.121367
 20
441.595198
 11
176.966216
 21
439.750365
  0
ARC
  5
44E
100
AcDbEntity
  8
M0
 62
     1
100
AcDbCircle
 10
180.582221
 20
388.734352
 40
0.5
100
AcDbArc
 50
270.0
 51
360.0
  0
LINE
  5
44F
100
AcDbEntity
  8
M0
 62
     1
100
AcDbLine
 10
181.082221
 20
397.734352
 11
181.082221
 21
388.734352
  0
ARC
  5
450
100
AcDbEntity
  8
M0
 62
     1
100
AcDbCircle
 10
180.582221
 20
397.734352
 40
0.5
100
AcDbArc
 50
0.0
 51
90.0
  0
LINE
  5
451
100
AcDbEntity
  8
M0
 62
     1
100
AcDbLine
 10
171.082221
 20
397.734352
 11
171.082221
 21
388.734352
  0
ARC
  5
452
100
AcDbEntity
  8
M0
 62
     1
100
AcDbCircle
 10
171.582221
 20
397.734352
 40
0.5
100
AcDbArc
 50
90.0
 51
180.0
  0
ARC
  5
453
100
AcDbEntity
  8
M0
 62
     1
100
AcDbCircle
 10
171.582221
 20
388.734352
 40
0.5
100
AcDbArc
 50
180.0
 51
270.0
  0
LINE
  5
454
100
AcDbEntity
  8
M0
 62
     1
100
AcDbLine
 10
171.582221
 20
388.234352
 11
180.582221
 21
388.234352
  0
LINE
  5
455
100
AcDbEntity
  8
M0
 62
     1
100
AcDbLine
 10
180.582221
 20
398.234352
 11
171.582221
 21
398.234352
  0
CIRCLE
  5
456
100
AcDbEntity
  8
M0
 62
     1
100
AcDbCircle
 10
176.082221
 20
393.234352
 40
3.5
  0
LINE
  5
457
100
AcDbEntity
  8
M0
 62
     1
100
AcDbLine
 10
177.093093
 20
394.952308
 11
174.51802
 21
392.377235
  0
LINE
  5
458
100
AcDbEntity
  8
M0
 62
     1
100
AcDbLine
 10
177.8002
 20
394.245201
 11
175.225127
 21
391.670127
  0
LINE
  5
459
100
AcDbEntity
  8
M0
 62
     1
100
AcDbLine
 10
175.121367
 20
394.195198
 11
176.966216
 21
392.350364
  0
ARC
  5
45A
100
AcDbEntity
  8
M0
 62
     1
100
AcDbCircle
 10
167.582221
 20
388.734352
 40
0.5
100
AcDbArc
 50
270.0
 51
360.0
  0
LINE
  5
45B
100
AcDbEntity
  8
M0
 62
     1
100
AcDbLine
 10
168.082221
 20
397.734352
 11
168.082221
 21
388.734352
  0
ARC
  5
45C
100
AcDbEntity
  8
M0
 62
     1
100
AcDbCircle
 10
167.582221
 20
397.734352
 40
0.5
100
AcDbArc
 50
0.0
 51
90.0
  0
LINE
  5
45D
100
AcDbEntity
  8
M0
 62
     1
100
AcDbLine
 10
158.082221
 20
397.734352
 11
158.082221
 21
388.734352
  0
ARC
  5
45E
100
AcDbEntity
  8
M0
 62
     1
100
AcDbCircle
 10
158.582221
 20
397.734352
 40
0.5
100
AcDbArc
 50
90.0
 51
180.0
  0
ARC
  5
45F
100
AcDbEntity
  8
M0
 62
     1
100
AcDbCircle
 10
158.582221
 20
388.734352
 40
0.5
100
AcDbArc
 50
180.0
 51
270.0
  0
LINE
  5
460
100
AcDbEntity
  8
M0
 62
     1
100
AcDbLine
 10
158.582221
 20
388.234352
 11
167.582221
 21
388.234352
  0
LINE
  5
461
100
AcDbEntity
  8
M0
 62
     1
100
AcDbLine
 10
167.582221
 20
398.234352
 11
158.582221
 21
398.234352
  0
CIRCLE
  5
462
100
AcDbEntity
  8
M0
 62
     1
100
AcDbCircle
 10
163.082221
 20
393.234352
 40
3.5
  0
LINE
  5
463
100
AcDbEntity
  8
M0
 62
     1
100
AcDbLine
 10
164.093093
 20
394.952308
 11
161.518019
 21
392.377235
  0
LINE
  5
464
100
AcDbEntity
  8
M0
 62
     1
100
AcDbLine
 10
164.8002
 20
394.245201
 11
162.225127
 21
391.670127
  0
LINE
  5
465
100
AcDbEntity
  8
M0
 62
     1
100
AcDbLine
 10
162.121367
 20
394.195198
 11
163.966216
 21
392.350364
  0
ARC
  5
466
100
AcDbEntity
  8
M0
 62
     1
100
AcDbCircle
 10
154.582224
 20
388.734352
 40
0.5
100
AcDbArc
 50
270.0
 51
360.0
  0
LINE
  5
467
100
AcDbEntity
  8
M0
 62
     1
100
AcDbLine
 10
155.082224
 20
397.734352
 11
155.082224
 21
388.734352
  0
ARC
  5
468
100
AcDbEntity
  8
M0
 62
     1
100
AcDbCircle
 10
154.582224
 20
397.734352
 40
0.5
100
AcDbArc
 50
0.0
 51
90.0
  0
LINE
  5
469
100
AcDbEntity
  8
M0
 62
     1
100
AcDbLine
 10
145.082224
 20
397.734352
 11
145.082224
 21
388.734352
  0
ARC
  5
46A
100
AcDbEntity
  8
M0
 62
     1
100
AcDbCircle
 10
145.582224
 20
397.734352
 40
0.5
100
AcDbArc
 50
90.0
 51
180.0
  0
ARC
  5
46B
100
AcDbEntity
  8
M0
 62
     1
100
AcDbCircle
 10
145.582224
 20
388.734352
 40
0.5
100
AcDbArc
 50
180.0
 51
270.0
  0
LINE
  5
46C
100
AcDbEntity
  8
M0
 62
     1
100
AcDbLine
 10
145.582224
 20
388.234352
 11
154.582224
 21
388.234352
  0
LINE
  5
46D
100
AcDbEntity
  8
M0
 62
     1
100
AcDbLine
 10
154.582224
 20
398.234352
 11
145.582224
 21
398.234352
  0
CIRCLE
  5
46E
100
AcDbEntity
  8
M0
 62
     1
100
AcDbCircle
 10
150.082224
 20
393.234352
 40
3.5
  0
LINE
  5
46F
100
AcDbEntity
  8
M0
 62
     1
100
AcDbLine
 10
151.093096
 20
394.952308
 11
148.518023
 21
392.377235
  0
LINE
  5
470
100
AcDbEntity
  8
M0
 62
     1
100
AcDbLine
 10
151.800204
 20
394.245201
 11
149.22513
 21
391.670127
  0
LINE
  5
471
100
AcDbEntity
  8
M0
 62
     1
100
AcDbLine
 10
149.121371
 20
394.195198
 11
150.966219
 21
392.350364
  0
CIRCLE
  5
472
100
AcDbEntity
  8
M0
 62
     1
100
AcDbCircle
 10
101.182228
 20
455.534352
 40
3.0
  0
LINE
  5
473
100
AcDbEntity
  8
M0
 62
     1
100
AcDbLine
 10
102.772812
 20
453.943707
 11
99.591171
 21
457.125469
  0
LINE
  5
474
100
AcDbEntity
  8
M0
 62
     1
100
AcDbLine
 10
102.596054
 20
455.888043
 11
100.828476
 21
454.120465
  0
LINE
  5
475
100
AcDbEntity
  8
M0
 62
     1
100
AcDbLine
 10
101.535507
 20
456.948712
 11
99.767929
 21
455.181011
  0
LINE
  5
476
100
AcDbEntity
  8
M0
 62
     1
100
AcDbLine
 10
104.507228
 20
459.359352
 11
97.857228
 21
459.359352
  0
ARC
  5
477
100
AcDbEntity
  8
M0
 62
     1
100
AcDbCircle
 10
104.507228
 20
458.859352
 40
0.5
100
AcDbArc
 50
0.0
 51
90.0
  0
LINE
  5
478
100
AcDbEntity
  8
M0
 62
     1
100
AcDbLine
 10
105.007228
 20
452.209352
 11
105.007228
 21
458.859352
  0
ARC
  5
479
100
AcDbEntity
  8
M0
 62
     1
100
AcDbCircle
 10
104.507228
 20
452.209352
 40
0.5
100
AcDbArc
 50
270.0
 51
360.0
  0
LINE
  5
47A
100
AcDbEntity
  8
M0
 62
     1
100
AcDbLine
 10
97.857228
 20
451.709352
 11
104.507228
 21
451.709352
  0
LINE
  5
47B
100
AcDbEntity
  8
M0
 62
     1
100
AcDbLine
 10
97.357228
 20
458.859352
 11
97.357228
 21
452.209352
  0
ARC
  5
47C
100
AcDbEntity
  8
M0
 62
     1
100
AcDbCircle
 10
97.857228
 20
458.859352
 40
0.5
100
AcDbArc
 50
90.0
 51
180.0
  0
ARC
  5
47D
100
AcDbEntity
  8
M0
 62
     1
100
AcDbCircle
 10
97.857228
 20
452.209352
 40
0.5
100
AcDbArc
 50
180.0
 51
270.0
  0
LINE
  5
47E
100
AcDbEntity
  8
M0
  6
DASHDOT
 62
     1
100
AcDbLine
 10
90.282228
 20
464.934353
 11
90.282228
 21
376.43435
  0
LINE
  5
47F
100
AcDbEntity
  8
M0
  6
DASHDOT
 62
     1
100
AcDbLine
 10
44.382231
 20
416.934352
 11
126.682225
 21
416.934352
  0
ARC
  5
480
100
AcDbEntity
  8
M0
 62
     1
100
AcDbCircle
 10
97.932228
 20
452.284352
 40
0.5
100
AcDbArc
 50
268.473851
 51
270.0
  0
ARC
  5
481
100
AcDbEntity
  8
M0
 62
     1
100
AcDbCircle
 10
63.282228
 20
446.934352
 40
2.25
100
AcDbArc
 50
0.0
 51
180.0
  0
ARC
  5
482
100
AcDbEntity
  8
M0
 62
     1
100
AcDbCircle
 10
63.282228
 20
444.934352
 40
2.25
100
AcDbArc
 50
180.0
 51
360.0
  0
ARC
  5
483
100
AcDbEntity
  8
M0
 62
     1
100
AcDbCircle
 10
63.882228
 20
386.434352
 40
5.0
100
AcDbArc
 50
180.0
 51
270.0
  0
ARC
  5
484
100
AcDbEntity
  8
M0
 62
     1
100
AcDbCircle
 10
63.882228
 20
447.434352
 40
5.0
100
AcDbArc
 50
90.0
 51
180.0
  0
ARC
  5
485
100
AcDbEntity
  8
M0
 62
     1
100
AcDbCircle
 10
68.082228
 20
384.934352
 40
0.5
100
AcDbArc
 50
180.0
 51
270.0
  0
ARC
  5
486
100
AcDbEntity
  8
M0
 62
     1
100
AcDbCircle
 10
112.482228
 20
385.934352
 40
0.5
100
AcDbArc
 50
0.0
 51
90.0
  0
ARC
  5
487
100
AcDbEntity
  8
M0
 62
     1
100
AcDbCircle
 10
69.082228
 20
385.934352
 40
0.5
100
AcDbArc
 50
0.0
 51
90.0
  0
ARC
  5
488
100
AcDbEntity
  8
M0
 62
     1
100
AcDbCircle
 10
68.082228
 20
385.934352
 40
0.5
100
AcDbArc
 50
90.0
 51
180.0
  0
CIRCLE
  5
489
100
AcDbEntity
  8
M0
 62
     1
100
AcDbCircle
 10
62.782228
 20
386.934352
 40
2.25
  0
CIRCLE
  5
48A
100
AcDbEntity
  8
M0
 62
     1
100
AcDbCircle
 10
117.782228
 20
446.934352
 40
2.25
  0
ARC
  5
48B
100
AcDbEntity
  8
M0
 62
     1
100
AcDbCircle
 10
112.482228
 20
384.934352
 40
0.5
100
AcDbArc
 50
270.0
 51
360.0
  0
ARC
  5
48C
100
AcDbEntity
  8
M0
 62
     1
100
AcDbCircle
 10
111.482228
 20
385.934352
 40
0.5
100
AcDbArc
 50
90.0
 51
180.0
  0
ARC
  5
48D
100
AcDbEntity
  8
M0
 62
     1
100
AcDbCircle
 10
110.282228
 20
451.434352
 40
1.0
100
AcDbArc
 50
90.0
 51
98.626927
  0
ARC
  5
48E
100
AcDbEntity
  8
M0
 62
     1
100
AcDbCircle
 10
117.282228
 20
386.934352
 40
2.25
100
AcDbArc
 50
180.0
 51
360.0
  0
ARC
  5
48F
100
AcDbEntity
  8
M0
 62
     1
100
AcDbCircle
 10
70.282228
 20
451.434352
 40
1.0
100
AcDbArc
 50
81.373073
 51
90.0
  0
ARC
  5
490
100
AcDbEntity
  8
M0
 62
     1
100
AcDbCircle
 10
116.682228
 20
447.434352
 40
5.0
100
AcDbArc
 50
0.0
 51
90.0
  0
ARC
  5
491
100
AcDbEntity
  8
M0
 62
     1
100
AcDbCircle
 10
69.082228
 20
384.934352
 40
0.5
100
AcDbArc
 50
270.0
 51
360.0
  0
ARC
  5
492
100
AcDbEntity
  8
M0
 62
     1
100
AcDbCircle
 10
117.282228
 20
388.934352
 40
2.25
100
AcDbArc
 50
0.0
 51
180.0
  0
ARC
  5
493
100
AcDbEntity
  8
M0
 62
     1
100
AcDbCircle
 10
116.682228
 20
386.434352
 40
5.0
100
AcDbArc
 50
270.0
 51
360.0
  0
LINE
  5
494
100
AcDbEntity
  8
M0
 62
     1
100
AcDbLine
 10
105.482226
 20
451.434352
 11
105.482226
 21
460.834353
  0
LINE
  5
495
100
AcDbEntity
  8
M0
 62
     1
100
AcDbLine
 10
107.071688
 20
458.452343
 11
107.282227
 21
451.434352
  0
LINE
  5
496
100
AcDbEntity
  8
M0
 62
     1
100
AcDbLine
 10
106.399959
 20
461.434352
 11
106.082229
 21
461.434352
  0
LINE
  5
497
100
AcDbEntity
  8
M0
 62
     1
100
AcDbLine
 10
95.282229
 20
383.934352
 11
95.282229
 21
384.434353
  0
LINE
  5
498
100
AcDbEntity
  8
M0
 62
     1
100
AcDbLine
 10
95.282229
 20
381.43435
 11
85.282227
 21
381.43435
  0
LINE
  5
499
100
AcDbEntity
  8
M0
 62
     1
100
AcDbLine
 10
85.282227
 20
384.434353
 11
85.282227
 21
383.934352
  0
LINE
  5
49A
100
AcDbEntity
  8
M0
 62
     1
100
AcDbLine
 10
69.582228
 20
382.434352
 11
69.582228
 21
398.934353
  0
LINE
  5
49B
100
AcDbEntity
  8
M0
 62
     1
100
AcDbLine
 10
85.782228
 20
383.434351
 11
94.782228
 21
383.434351
  0
LINE
  5
49C
100
AcDbEntity
  8
M0
 62
     1
100
AcDbLine
 10
68.082228
 20
384.434353
 11
69.082228
 21
384.434353
  0
LINE
  5
49D
100
AcDbEntity
  8
M0
 62
     1
100
AcDbLine
 10
69.082228
 20
386.434353
 11
68.082228
 21
386.434353
  0
LINE
  5
49E
100
AcDbEntity
  8
M0
 62
     1
100
AcDbLine
 10
112.482229
 20
386.434353
 11
111.482227
 21
386.434353
  0
LINE
  5
49F
100
AcDbEntity
  8
M0
 62
     1
100
AcDbLine
 10
67.582227
 20
385.934352
 11
67.582227
 21
384.93435
  0
ARC
  5
4A0
100
AcDbEntity
  8
M0
 62
     1
100
AcDbCircle
 10
84.382228
 20
460.934352
 40
0.5
100
AcDbArc
 50
0.0
 51
90.0
  0
ARC
  5
4A1
100
AcDbEntity
  8
M0
 62
     1
100
AcDbCircle
 10
96.182228
 20
460.934352
 40
0.5
100
AcDbArc
 50
90.0
 51
180.0
  0
ARC
  5
4A2
100
AcDbEntity
  8
M0
 62
     1
100
AcDbCircle
 10
84.382228
 20
460.434352
 40
1.0
100
AcDbArc
 50
90.0
 51
180.0
  0
ARC
  5
4A3
100
AcDbEntity
  8
M0
 62
     1
100
AcDbCircle
 10
96.182228
 20
460.434352
 40
1.0
100
AcDbArc
 50
0.0
 51
90.0
  0
LINE
  5
4A4
100
AcDbEntity
  8
M0
 62
     1
100
AcDbLine
 10
112.982226
 20
384.93435
 11
112.982226
 21
385.934352
  0
LINE
  5
4A5
100
AcDbEntity
  8
M0
 62
     1
100
AcDbLine
 10
97.98223
 20
451.434352
 11
107.282227
 21
451.434352
  0
LINE
  5
4A6
100
AcDbEntity
  8
M0
 62
     1
100
AcDbLine
 10
107.282227
 20
449.934351
 11
97.98223
 21
449.934351
  0
LINE
  5
4A7
100
AcDbEntity
  8
M0
 62
     1
100
AcDbLine
 10
107.282227
 20
451.434352
 11
107.282227
 21
449.934351
  0
LINE
  5
4A8
100
AcDbEntity
  8
M0
 62
     1
100
AcDbLine
 10
83.382228
 20
459.934353
 11
75.082228
 21
459.934353
  0
LINE
  5
4A9
100
AcDbEntity
  8
M0
 62
     1
100
AcDbLine
 10
105.482226
 20
459.934353
 11
97.182227
 21
459.934353
  0
LINE
  5
4AA
100
AcDbEntity
  8
M0
 62
     1
100
AcDbLine
 10
97.182227
 20
460.43435
 11
97.182227
 21
452.414147
  0
LINE
  5
4AB
100
AcDbEntity
  8
M0
 62
     1
100
AcDbLine
 10
95.682228
 20
451.870241
 11
95.682228
 21
460.43435
  0
LINE
  5
4AC
100
AcDbEntity
  8
M0
 62
     1
100
AcDbLine
 10
82.58223
 20
449.934351
 11
73.282229
 21
449.934351
  0
LINE
  5
4AD
100
AcDbEntity
  8
M0
 62
     1
100
AcDbLine
 10
107.282227
 20
449.934351
 11
107.282227
 21
447.934351
  0
LINE
  5
4AE
100
AcDbEntity
  8
M0
 62
     1
100
AcDbLine
 10
73.282229
 20
451.434352
 11
82.58223
 21
451.434352
  0
LINE
  5
4AF
100
AcDbEntity
  8
M0
 62
     1
100
AcDbLine
 10
116.68223
 20
381.43435
 11
109.582228
 21
381.43435
  0
LINE
  5
4B0
100
AcDbEntity
  8
M0
 62
     1
100
AcDbLine
 10
67.582227
 20
387.434351
 11
69.582228
 21
387.434351
  0
LINE
  5
4B1
100
AcDbEntity
  8
M0
 62
     1
100
AcDbLine
 10
67.582227
 20
391.234352
 11
67.582227
 21
387.434351
  0
LINE
  5
4B2
100
AcDbEntity
  8
M0
 62
     1
100
AcDbLine
 10
112.982226
 20
387.434351
 11
112.982226
 21
391.234352
  0
LINE
  5
4B3
100
AcDbEntity
  8
M0
 62
     1
100
AcDbLine
 10
110.982226
 20
387.434351
 11
112.982226
 21
387.434351
  0
LINE
  5
4B4
100
AcDbEntity
  8
M0
 62
     1
100
AcDbLine
 10
115.032231
 20
388.934351
 11
115.032231
 21
386.93435
  0
LINE
  5
4B5
100
AcDbEntity
  8
M0
 62
     1
100
AcDbLine
 10
119.532226
 20
386.93435
 11
119.532226
 21
388.934351
  0
LINE
  5
4B6
100
AcDbEntity
  8
M0
 62
     1
100
AcDbLine
 10
58.882228
 20
386.434353
 11
58.882228
 21
447.434352
  0
LINE
  5
4B7
100
AcDbEntity
  8
M0
 62
     1
100
AcDbLine
 10
73.282229
 20
451.434352
 11
73.282229
 21
447.934351
  0
LINE
  5
4B8
100
AcDbEntity
  8
M0
 62
     1
100
AcDbLine
 10
65.532228
 20
446.934351
 11
65.532228
 21
444.934352
  0
LINE
  5
4B9
100
AcDbEntity
  8
M0
 62
     1
100
AcDbLine
 10
61.032228
 20
444.934352
 11
61.032228
 21
446.934351
  0
LINE
  5
4BA
100
AcDbEntity
  8
M0
 62
     1
100
AcDbLine
 10
111.582229
 20
392.234352
 11
112.482229
 21
392.234352
  0
LINE
  5
4BB
100
AcDbEntity
  8
M0
 62
     1
100
AcDbLine
 10
118.48223
 20
392.234352
 11
119.382231
 21
392.234352
  0
LINE
  5
4BC
100
AcDbEntity
  8
M0
 62
     1
100
AcDbLine
 10
68.082228
 20
441.634352
 11
68.982229
 21
441.634352
  0
LINE
  5
4BD
100
AcDbEntity
  8
M0
 62
     1
100
AcDbLine
 10
112.482229
 20
441.634352
 11
111.582229
 21
441.634352
  0
LINE
  5
4BE
100
AcDbEntity
  8
M0
 62
     1
100
AcDbLine
 10
120.482227
 20
389.234352
 11
120.382225
 21
389.234352
  0
LINE
  5
4BF
100
AcDbEntity
  8
M0
 62
     1
100
AcDbLine
 10
119.382231
 20
441.634352
 11
118.48223
 21
441.634352
  0
LINE
  5
4C0
100
AcDbEntity
  8
M0
 62
     1
100
AcDbLine
 10
120.482227
 20
444.634351
 11
120.382225
 21
444.634351
  0
LINE
  5
4C1
100
AcDbEntity
  8
M0
 62
     1
100
AcDbLine
 10
61.182228
 20
441.634352
 11
62.082228
 21
441.634352
  0
ARC
  5
4C2
100
AcDbEntity
  8
M0
 62
     1
100
AcDbCircle
 10
73.282228
 20
382.434352
 40
1.0
100
AcDbArc
 50
180.0
 51
270.0
  0
LINE
  5
4C3
100
AcDbEntity
  8
M0
 62
     1
100
AcDbLine
 10
73.282228
 20
381.43435
 11
81.282228
 21
381.43435
  0
LINE
  5
4C4
100
AcDbEntity
  8
M0
 62
     1
100
AcDbLine
 10
60.082228
 20
389.234352
 11
60.182228
 21
389.234352
  0
LINE
  5
4C5
100
AcDbEntity
  8
M0
 62
     1
100
AcDbLine
 10
68.982229
 20
392.234352
 11
68.082228
 21
392.234352
  0
LINE
  5
4C6
100
AcDbEntity
  8
M0
 62
     1
100
AcDbLine
 10
62.082228
 20
392.234352
 11
61.182228
 21
392.234352
  0
LINE
  5
4C7
100
AcDbEntity
  8
M0
 62
     1
100
AcDbLine
 10
60.082228
 20
444.634351
 11
60.182228
 21
444.634351
  0
ARC
  5
4C8
100
AcDbEntity
  8
M0
 62
     1
100
AcDbCircle
 10
94.782228
 20
383.934352
 40
0.5
100
AcDbArc
 50
270.0
 51
360.0
  0
ARC
  5
4C9
100
AcDbEntity
  8
M0
 62
     1
100
AcDbCircle
 10
95.282228
 20
383.434352
 40
2.0
100
AcDbArc
 50
270.0
 51
292.57935
  0
ARC
  5
4CA
100
AcDbEntity
  8
M0
 62
     1
100
AcDbCircle
 10
74.164498
 20
460.834352
 40
0.6
100
AcDbArc
 50
90.0
 51
178.281642
  0
ARC
  5
4CB
100
AcDbEntity
  8
M0
 62
     1
100
AcDbCircle
 10
74.482228
 20
460.834352
 40
0.6
100
AcDbArc
 50
0.0
 51
90.0
  0
ARC
  5
4CC
100
AcDbEntity
  8
M0
 62
     1
100
AcDbCircle
 10
111.482228
 20
384.934352
 40
0.5
100
AcDbArc
 50
180.0
 51
270.0
  0
ARC
  5
4CD
100
AcDbEntity
  8
M0
 62
     1
100
AcDbCircle
 10
85.282228
 20
383.434352
 40
2.0
100
AcDbArc
 50
247.42065
 51
270.0
  0
ARC
  5
4CE
100
AcDbEntity
  8
M0
 62
     1
100
AcDbCircle
 10
85.782228
 20
383.934352
 40
0.5
100
AcDbArc
 50
180.0
 51
270.0
  0
ARC
  5
4CF
100
AcDbEntity
  8
M0
 62
     1
100
AcDbCircle
 10
106.082228
 20
460.834352
 40
0.6
100
AcDbArc
 50
90.0
 51
180.0
  0
LINE
  5
4D0
100
AcDbEntity
  8
M0
 62
     1
100
AcDbLine
 10
75.082228
 20
460.834353
 11
75.082228
 21
451.434352
  0
LINE
  5
4D1
100
AcDbEntity
  8
M0
 62
     1
100
AcDbLine
 10
73.282229
 20
451.434352
 11
73.492767
 21
458.452343
  0
LINE
  5
4D2
100
AcDbEntity
  8
M0
 62
     1
100
AcDbLine
 10
74.164499
 20
461.434352
 11
74.482229
 21
461.434352
  0
ARC
  5
4D3
100
AcDbEntity
  8
M0
 62
     1
100
AcDbCircle
 10
106.399958
 20
460.834352
 40
0.6
100
AcDbArc
 50
1.718358
 51
90.0
  0
LINE
  5
4D4
100
AcDbEntity
  8
M0
 62
     1
100
AcDbLine
 10
111.482227
 20
384.434353
 11
112.482229
 21
384.434353
  0
LINE
  5
4D5
100
AcDbEntity
  8
M0
 62
     1
100
AcDbLine
 10
110.982226
 20
382.434352
 11
110.982226
 21
398.934353
  0
LINE
  5
4D6
100
AcDbEntity
  8
M0
 62
     1
100
AcDbLine
 10
95.682228
 20
460.43435
 11
95.682228
 21
460.934351
  0
LINE
  5
4D7
100
AcDbEntity
  8
M0
 62
     1
100
AcDbLine
 10
84.882228
 20
459.934353
 11
85.982228
 21
459.934353
  0
LINE
  5
4D8
100
AcDbEntity
  8
M0
 62
     1
100
AcDbLine
 10
94.582228
 20
459.934353
 11
95.682228
 21
459.934353
  0
LINE
  5
4D9
100
AcDbEntity
  8
M0
 62
     1
100
AcDbLine
 10
84.882228
 20
460.43435
 11
84.882228
 21
451.870241
  0
LINE
  5
4DA
100
AcDbEntity
  8
M0
 62
     1
100
AcDbLine
 10
83.382228
 20
452.414147
 11
83.382228
 21
460.43435
  0
LINE
  5
4DB
100
AcDbEntity
  8
M0
 62
     1
100
AcDbLine
 10
84.882228
 20
460.934351
 11
84.882228
 21
460.43435
  0
LINE
  5
4DC
100
AcDbEntity
  8
M0
 62
     1
100
AcDbLine
 10
120.68223
 20
437.034351
 11
120.382225
 21
437.034351
  0
ARC
  5
4DD
100
AcDbEntity
  8
M0
 62
     1
100
AcDbCircle
 10
83.582228
 20
451.434352
 40
1.0
100
AcDbArc
 50
90.0
 51
180.0
  0
LINE
  5
4DE
100
AcDbEntity
  8
M0
 62
     1
100
AcDbLine
 10
120.382225
 20
413.234352
 11
120.68223
 21
413.234352
  0
LINE
  5
4DF
100
AcDbEntity
  8
M0
 62
     1
100
AcDbLine
 10
120.68223
 20
420.634352
 11
120.382225
 21
420.634352
  0
ARC
  5
4E0
100
AcDbEntity
  8
M0
 62
     1
100
AcDbCircle
 10
96.582228
 20
451.434352
 40
1.0
100
AcDbArc
 50
90.0
 51
180.0
  0
ARC
  5
4E1
100
AcDbEntity
  8
M0
 62
     1
100
AcDbCircle
 10
96.582228
 20
382.434352
 40
1.0
100
AcDbArc
 50
180.0
 51
270.0
  0
ARC
  5
4E2
100
AcDbEntity
  8
M0
 62
     1
100
AcDbCircle
 10
83.982228
 20
451.434352
 40
1.0
100
AcDbArc
 50
0.0
 51
90.0
  0
ARC
  5
4E3
100
AcDbEntity
  8
M0
 62
     1
100
AcDbCircle
 10
83.982228
 20
382.434352
 40
1.0
100
AcDbArc
 50
270.0
 51
360.0
  0
LINE
  5
4E4
100
AcDbEntity
  8
M0
 62
     1
100
AcDbLine
 10
120.382225
 20
396.834352
 11
120.68223
 21
396.834352
  0
LINE
  5
4E5
100
AcDbEntity
  8
M0
 62
     1
100
AcDbLine
 10
119.382231
 20
443.634352
 11
119.382231
 21
421.634352
  0
LINE
  5
4E6
100
AcDbEntity
  8
M0
 62
     1
100
AcDbLine
 10
83.982227
 20
381.43435
 11
83.582228
 21
381.43435
  0
LINE
  5
4E7
100
AcDbEntity
  8
M0
 62
     1
100
AcDbLine
 10
83.582228
 20
398.034352
 11
83.982227
 21
398.034352
  0
LINE
  5
4E8
100
AcDbEntity
  8
M0
 62
     1
100
AcDbLine
 10
83.982227
 20
398.034352
 11
84.982229
 21
398.034352
  0
ARC
  5
4E9
100
AcDbEntity
  8
M0
 62
     1
100
AcDbCircle
 10
96.982228
 20
451.434352
 40
1.0
100
AcDbArc
 50
0.0
 51
90.0
  0
ARC
  5
4EA
100
AcDbEntity
  8
M0
 62
     1
100
AcDbCircle
 10
109.582228
 20
451.434352
 40
1.0
100
AcDbArc
 50
90.0
 51
180.0
  0
LINE
  5
4EB
100
AcDbEntity
  8
M0
 62
     1
100
AcDbLine
 10
119.382231
 20
412.234352
 11
119.382231
 21
390.234352
  0
ARC
  5
4EC
100
AcDbEntity
  8
M0
 62
     1
100
AcDbCircle
 10
96.982228
 20
382.434352
 40
1.0
100
AcDbArc
 50
270.0
 51
360.0
  0
ARC
  5
4ED
100
AcDbEntity
  8
M0
 62
     1
100
AcDbCircle
 10
109.982228
 20
382.434352
 40
1.0
100
AcDbArc
 50
270.0
 51
360.0
  0
LINE
  5
4EE
100
AcDbEntity
  8
M0
 62
     1
100
AcDbLine
 10
83.582228
 20
452.434353
 11
83.982227
 21
452.434353
  0
ARC
  5
4EF
100
AcDbEntity
  8
M0
 62
     1
100
AcDbCircle
 10
109.582228
 20
382.434352
 40
1.0
100
AcDbArc
 50
180.0
 51
270.0
  0
ARC
  5
4F0
100
AcDbEntity
  8
M0
 62
     1
100
AcDbCircle
 10
109.982228
 20
451.434352
 40
1.0
100
AcDbArc
 50
0.0
 51
90.0
  0
LINE
  5
4F1
100
AcDbEntity
  8
M0
 62
     1
100
AcDbLine
 10
120.68223
 20
420.634352
 11
120.68223
 21
413.234352
  0
LINE
  5
4F2
100
AcDbEntity
  8
M0
 62
     1
100
AcDbLine
 10
59.882228
 20
413.234352
 11
60.182228
 21
413.234352
  0
LINE
  5
4F3
100
AcDbEntity
  8
M0
 62
     1
100
AcDbLine
 10
59.882228
 20
437.034351
 11
60.182228
 21
437.034351
  0
LINE
  5
4F4
100
AcDbEntity
  8
M0
 62
     1
100
AcDbLine
 10
119.382231
 20
420.634352
 11
119.382231
 21
413.234352
  0
LINE
  5
4F5
100
AcDbEntity
  8
M0
 62
     1
100
AcDbLine
 10
119.382231
 20
413.234352
 11
116.382224
 21
413.234352
  0
LINE
  5
4F6
100
AcDbEntity
  8
M0
 62
     1
100
AcDbLine
 10
59.882228
 20
420.634352
 11
59.882228
 21
413.234352
  0
LINE
  5
4F7
100
AcDbEntity
  8
M0
 62
     1
100
AcDbLine
 10
116.382224
 20
420.634352
 11
119.382231
 21
420.634352
  0
LINE
  5
4F8
100
AcDbEntity
  8
M0
 62
     1
100
AcDbLine
 10
116.382224
 20
413.234352
 11
116.382224
 21
420.634352
  0
LINE
  5
4F9
100
AcDbEntity
  8
M0
 62
     1
100
AcDbLine
 10
60.182228
 20
420.634352
 11
59.882228
 21
420.634352
  0
LINE
  5
4FA
100
AcDbEntity
  8
M0
 62
     1
100
AcDbLine
 10
60.182228
 20
396.834352
 11
59.882228
 21
396.834352
  0
LINE
  5
4FB
100
AcDbEntity
  8
M0
 62
     1
100
AcDbLine
 10
61.182228
 20
443.634352
 11
61.182228
 21
421.634352
  0
LINE
  5
4FC
100
AcDbEntity
  8
M0
 62
     1
100
AcDbLine
 10
61.182228
 20
426.234351
 11
66.282228
 21
426.234351
  0
LINE
  5
4FD
100
AcDbEntity
  8
M0
 62
     1
100
AcDbLine
 10
114.282228
 20
407.634351
 11
119.382231
 21
407.634351
  0
LINE
  5
4FE
100
AcDbEntity
  8
M0
 62
     1
100
AcDbLine
 10
66.282228
 20
407.634351
 11
61.182228
 21
407.634351
  0
ARC
  5
4FF
100
AcDbEntity
  8
M0
 62
     1
100
AcDbCircle
 10
70.982228
 20
451.434352
 40
1.0
100
AcDbArc
 50
0.0
 51
90.0
  0
ARC
  5
500
100
AcDbEntity
  8
M0
 62
     1
100
AcDbCircle
 10
83.582228
 20
382.434352
 40
1.0
100
AcDbArc
 50
180.0
 51
270.0
  0
ARC
  5
501
100
AcDbEntity
  8
M0
 62
     1
100
AcDbCircle
 10
70.582228
 20
451.434352
 40
1.0
100
AcDbArc
 50
90.0
 51
180.0
  0
ARC
  5
502
100
AcDbEntity
  8
M0
 62
     1
100
AcDbCircle
 10
70.982228
 20
382.434352
 40
1.0
100
AcDbArc
 50
270.0
 51
360.0
  0
LINE
  5
503
100
AcDbEntity
  8
M0
 62
     1
100
AcDbLine
 10
70.982227
 20
381.43435
 11
70.782227
 21
381.43435
  0
LINE
  5
504
100
AcDbEntity
  8
M0
 62
     1
100
AcDbLine
 10
70.782227
 20
452.434353
 11
70.982227
 21
452.434353
  0
ARC
  5
505
100
AcDbEntity
  8
M0
 62
     1
100
AcDbCircle
 10
69.582228
 20
397.434352
 40
0.6
100
AcDbArc
 50
180.0
 51
270.0
  0
LINE
  5
506
100
AcDbEntity
  8
M0
 62
     1
100
AcDbLine
 10
119.382231
 20
426.234351
 11
114.282228
 21
426.234351
  0
ARC
  5
507
100
AcDbEntity
  8
M0
 62
     1
100
AcDbCircle
 10
110.982228
 20
397.434352
 40
0.6
100
AcDbArc
 50
270.0
 51
360.0
  0
ARC
  5
508
100
AcDbEntity
  8
M0
 62
     1
100
AcDbCircle
 10
70.582228
 20
382.434352
 40
1.0
100
AcDbArc
 50
180.0
 51
270.0
  0
ARC
  5
509
100
AcDbEntity
  8
M0
 62
     1
100
AcDbCircle
 10
69.582228
 20
436.434352
 40
0.6
100
AcDbArc
 50
90.0
 51
180.0
  0
ARC
  5
50A
100
AcDbEntity
  8
M0
 62
     1
100
AcDbCircle
 10
110.982228
 20
436.434352
 40
0.6
100
AcDbArc
 50
0.0
 51
90.0
  0
LINE
  5
50B
100
AcDbEntity
  8
M0
 62
     1
100
AcDbLine
 10
97.98223
 20
435.834352
 11
95.582226
 21
435.834352
  0
LINE
  5
50C
100
AcDbEntity
  8
M0
 62
     1
100
AcDbLine
 10
97.98223
 20
398.034352
 11
96.982228
 21
398.034352
  0
LINE
  5
50D
100
AcDbEntity
  8
M0
 62
     1
100
AcDbLine
 10
96.582228
 20
381.43435
 11
96.982228
 21
381.43435
  0
LINE
  5
50E
100
AcDbEntity
  8
M0
 62
     1
100
AcDbLine
 10
96.582228
 20
398.034352
 11
95.582226
 21
398.034352
  0
LINE
  5
50F
100
AcDbEntity
  8
M0
 62
     1
100
AcDbLine
 10
96.982228
 20
398.034352
 11
96.582228
 21
398.034352
  0
LINE
  5
510
100
AcDbEntity
  8
M0
 62
     1
100
AcDbLine
 10
116.682228
 20
452.434353
 11
109.582229
 21
452.434353
  0
LINE
  5
511
100
AcDbEntity
  8
M0
 62
     1
100
AcDbLine
 10
110.982226
 20
434.934352
 11
110.982226
 21
451.434352
  0
LINE
  5
512
100
AcDbEntity
  8
M0
 62
     1
100
AcDbLine
 10
96.982228
 20
452.434353
 11
96.582228
 21
452.434353
  0
LINE
  5
513
100
AcDbEntity
  8
M0
 62
     1
100
AcDbLine
 10
108.582227
 20
398.934353
 11
108.582227
 21
382.434352
  0
ARC
  5
514
100
AcDbEntity
  8
M0
 62
     1
100
AcDbCircle
 10
120.682228
 20
421.634352
 40
1.0
100
AcDbArc
 50
270.0
 51
360.0
  0
ARC
  5
515
100
AcDbEntity
  8
M0
 62
     1
100
AcDbCircle
 10
120.682228
 20
436.034352
 40
1.0
100
AcDbArc
 50
0.0
 51
90.0
  0
ARC
  5
516
100
AcDbEntity
  8
M0
 62
     1
100
AcDbCircle
 10
120.682228
 20
397.834352
 40
1.0
100
AcDbArc
 50
270.0
 51
360.0
  0
LINE
  5
517
100
AcDbEntity
  8
M0
 62
     1
100
AcDbLine
 10
121.682225
 20
447.434352
 11
121.682225
 21
386.434352
  0
LINE
  5
518
100
AcDbEntity
  8
M0
 62
     1
100
AcDbLine
 10
119.382231
 20
434.034351
 11
114.277216
 21
434.034351
  0
LINE
  5
519
100
AcDbEntity
  8
M0
 62
     1
100
AcDbLine
 10
97.98223
 20
387.934352
 11
108.582227
 21
387.934352
  0
LINE
  5
51A
100
AcDbEntity
  8
M0
 62
     1
100
AcDbLine
 10
95.582226
 20
445.934352
 11
84.982229
 21
445.934352
  0
ARC
  5
51B
100
AcDbEntity
  8
M0
 62
     1
100
AcDbCircle
 10
60.182228
 20
436.034352
 40
1.0
100
AcDbArc
 50
0.0
 51
90.0
  0
ARC
  5
51C
100
AcDbEntity
  8
M0
 62
     1
100
AcDbCircle
 10
60.182228
 20
412.234352
 40
1.0
100
AcDbArc
 50
0.0
 51
90.0
  0
ARC
  5
51D
100
AcDbEntity
  8
M0
 62
     1
100
AcDbCircle
 10
59.882228
 20
421.634352
 40
1.0
100
AcDbArc
 50
180.0
 51
270.0
  0
ARC
  5
51E
100
AcDbEntity
  8
M0
 62
     1
100
AcDbCircle
 10
59.882228
 20
436.034352
 40
1.0
100
AcDbArc
 50
90.0
 51
180.0
  0
ARC
  5
51F
100
AcDbEntity
  8
M0
 62
     1
100
AcDbCircle
 10
120.382228
 20
397.834352
 40
1.0
100
AcDbArc
 50
180.0
 51
270.0
  0
ARC
  5
520
100
AcDbEntity
  8
M0
 62
     1
100
AcDbCircle
 10
120.382228
 20
421.634352
 40
1.0
100
AcDbArc
 50
180.0
 51
270.0
  0
ARC
  5
521
100
AcDbEntity
  8
M0
 62
     1
100
AcDbCircle
 10
60.182228
 20
397.834352
 40
1.0
100
AcDbArc
 50
270.0
 51
360.0
  0
ARC
  5
522
100
AcDbEntity
  8
M0
 62
     1
100
AcDbCircle
 10
60.182228
 20
421.634352
 40
1.0
100
AcDbArc
 50
270.0
 51
360.0
  0
ARC
  5
523
100
AcDbEntity
  8
M0
 62
     1
100
AcDbCircle
 10
59.882228
 20
412.234352
 40
1.0
100
AcDbArc
 50
90.0
 51
180.0
  0
ARC
  5
524
100
AcDbEntity
  8
M0
 62
     1
100
AcDbCircle
 10
59.882228
 20
397.834352
 40
1.0
100
AcDbArc
 50
180.0
 51
270.0
  0
LINE
  5
525
100
AcDbEntity
  8
M0
 62
     1
100
AcDbLine
 10
61.182228
 20
420.634352
 11
61.182228
 21
413.234352
  0
LINE
  5
526
100
AcDbEntity
  8
M0
 62
     1
100
AcDbLine
 10
64.182228
 20
413.234352
 11
64.182228
 21
420.634352
  0
LINE
  5
527
100
AcDbEntity
  8
M0
 62
     1
100
AcDbLine
 10
61.182228
 20
413.234352
 11
64.182228
 21
413.234352
  0
ARC
  5
528
100
AcDbEntity
  8
M0
 62
     1
100
AcDbCircle
 10
120.382228
 20
436.034352
 40
1.0
100
AcDbArc
 50
90.0
 51
180.0
  0
ARC
  5
529
100
AcDbEntity
  8
M0
 62
     1
100
AcDbCircle
 10
120.682228
 20
412.234352
 40
1.0
100
AcDbArc
 50
0.0
 51
90.0
  0
LINE
  5
52A
100
AcDbEntity
  8
M0
 62
     1
100
AcDbLine
 10
108.582227
 20
445.934352
 11
97.98223
 21
445.934352
  0
ARC
  5
52B
100
AcDbEntity
  8
M0
 62
     1
100
AcDbCircle
 10
120.382228
 20
412.234352
 40
1.0
100
AcDbArc
 50
90.0
 51
180.0
  0
LINE
  5
52C
100
AcDbEntity
  8
M0
 62
     1
100
AcDbLine
 10
64.182228
 20
420.634352
 11
61.182228
 21
420.634352
  0
LINE
  5
52D
100
AcDbEntity
  8
M0
 62
     1
100
AcDbLine
 10
71.982227
 20
387.934352
 11
82.58223
 21
387.934352
  0
ELLIPSE
  5
52E
100
AcDbEntity
  8
M0
 62
     1
100
AcDbEllipse
 10
85.982228
 20
451.851018
 11
1.0
 21
0.0
210
0.0
220
0.0
230
1.0
 40
0.416667
 41
3.141592653589793
 42
4.71238898038469
  0
ELLIPSE
  5
52F
100
AcDbEntity
  8
M0
 62
     1
100
AcDbEllipse
 10
94.582228
 20
451.851018
 11
1.0
 21
0.0
210
0.0
220
0.0
230
1.0
 40
0.416667
 41
4.71238898038469
 42
6.283185307179586
  0
LINE
  5
530
100
AcDbEntity
  8
M0
 62
     1
100
AcDbLine
 10
94.582228
 20
451.434352
 11
85.982228
 21
451.434352
  0
LINE
  5
531
100
AcDbEntity
  8
M0
 62
     1
100
AcDbLine
 10
85.982228
 20
459.934353
 11
94.582228
 21
459.934353
  0
LINE
  5
532
100
AcDbEntity
  8
M0
 62
     1
100
AcDbLine
 10
71.982227
 20
447.934351
 11
82.58223
 21
447.934351
  0
LINE
  5
533
100
AcDbEntity
  8
M0
 62
     1
100
AcDbLine
 10
84.982229
 20
447.934351
 11
95.582226
 21
447.934351
  0
LINE
  5
534
100
AcDbEntity
  8
M0
 62
     1
100
AcDbLine
 10
84.982229
 20
458.934352
 11
84.982229
 21
434.934352
  0
LINE
  5
535
100
AcDbEntity
  8
M0
 62
     1
100
AcDbLine
 10
95.582226
 20
449.934351
 11
84.982229
 21
449.934351
  0
LINE
  5
536
100
AcDbEntity
  8
M0
 62
     1
100
AcDbLine
 10
100.032227
 20
381.934351
 11
100.032227
 21
382.434352
  0
LINE
  5
537
100
AcDbEntity
  8
M0
 62
     1
100
AcDbLine
 10
106.532229
 20
384.434353
 11
106.532229
 21
382.434352
  0
LINE
  5
538
100
AcDbEntity
  8
M0
 62
     1
100
AcDbLine
 10
99.282229
 20
381.43435
 11
107.282228
 21
381.43435
  0
LINE
  5
539
100
AcDbEntity
  8
M0
 62
     1
100
AcDbLine
 10
100.032227
 20
382.434352
 11
100.032227
 21
384.434353
  0
LINE
  5
53A
100
AcDbEntity
  8
M0
 62
     1
100
AcDbLine
 10
108.282229
 20
382.434352
 11
108.282229
 21
385.934352
  0
LINE
  5
53B
100
AcDbEntity
  8
M0
 62
     1
100
AcDbLine
 10
108.282229
 20
385.934352
 11
108.582227
 21
385.934352
  0
LINE
  5
53C
100
AcDbEntity
  8
M0
 62
     1
100
AcDbLine
 10
60.182228
 20
389.234352
 11
59.882228
 21
389.234352
  0
LINE
  5
53D
100
AcDbEntity
  8
M0
 62
     1
100
AcDbLine
 10
72.282229
 20
385.934352
 11
71.982227
 21
385.934352
  0
LINE
  5
53E
100
AcDbEntity
  8
M0
 62
     1
100
AcDbLine
 10
107.282227
 20
387.934352
 11
107.282227
 21
386.93435
  0
LINE
  5
53F
100
AcDbEntity
  8
M0
 62
     1
100
AcDbLine
 10
59.882228
 20
444.634351
 11
60.182228
 21
444.634351
  0
LINE
  5
540
100
AcDbEntity
  8
M0
 62
     1
100
AcDbLine
 10
81.282228
 20
385.434351
 11
81.282228
 21
387.934352
  0
LINE
  5
541
100
AcDbEntity
  8
M0
 62
     1
100
AcDbLine
 10
82.58223
 20
384.434353
 11
82.282228
 21
384.434353
  0
LINE
  5
542
100
AcDbEntity
  8
M0
 62
     1
100
AcDbLine
 10
106.532229
 20
382.434352
 11
106.532229
 21
381.934351
  0
LINE
  5
543
100
AcDbEntity
  8
M0
 62
     1
100
AcDbLine
 10
108.582227
 20
447.934351
 11
97.98223
 21
447.934351
  0
LINE
  5
544
100
AcDbEntity
  8
M0
 62
     1
100
AcDbLine
 10
99.282229
 20
385.434351
 11
99.282229
 21
387.934352
  0
LINE
  5
545
100
AcDbEntity
  8
M0
 62
     1
100
AcDbLine
 10
73.282229
 20
387.934352
 11
73.282229
 21
386.93435
  0
LINE
  5
546
100
AcDbEntity
  8
M0
 62
     1
100
AcDbLine
 10
95.582226
 20
384.434353
 11
84.982229
 21
384.434353
  0
LINE
  5
547
100
AcDbEntity
  8
M0
 62
     1
100
AcDbLine
 10
98.282227
 20
384.434353
 11
97.98223
 21
384.434353
  0
ARC
  5
548
100
AcDbEntity
  8
M0
 62
     1
100
AcDbCircle
 10
107.032228
 20
381.934352
 40
0.5
100
AcDbArc
 50
180.0
 51
270.0
  0
ARC
  5
549
100
AcDbEntity
  8
M0
 62
     1
100
AcDbCircle
 10
99.532228
 20
381.934352
 40
0.5
100
AcDbArc
 50
270.0
 51
360.0
  0
ARC
  5
54A
100
AcDbEntity
  8
M0
 62
     1
100
AcDbCircle
 10
103.282228
 20
384.434352
 40
3.25
100
AcDbArc
 50
0.0
 51
180.0
  0
ARC
  5
54B
100
AcDbEntity
  8
M0
 62
     1
100
AcDbCircle
 10
85.982228
 20
458.934352
 40
1.0
100
AcDbArc
 50
90.0
 51
180.0
  0
ARC
  5
54C
100
AcDbEntity
  8
M0
 62
     1
100
AcDbCircle
 10
94.582228
 20
458.934352
 40
1.0
100
AcDbArc
 50
0.0
 51
90.0
  0
ARC
  5
54D
100
AcDbEntity
  8
M0
 62
     1
100
AcDbCircle
 10
107.282228
 20
382.434352
 40
1.0
100
AcDbArc
 50
270.0
 51
360.0
  0
ARC
  5
54E
100
AcDbEntity
  8
M0
 62
     1
100
AcDbCircle
 10
73.532228
 20
381.934352
 40
0.5
100
AcDbArc
 50
270.0
 51
360.0
  0
ARC
  5
54F
100
AcDbEntity
  8
M0
 62
     1
100
AcDbCircle
 10
81.282228
 20
382.434352
 40
1.0
100
AcDbArc
 50
270.0
 51
360.0
  0
ARC
  5
550
100
AcDbEntity
  8
M0
 62
     1
100
AcDbCircle
 10
99.282228
 20
382.434352
 40
1.0
100
AcDbArc
 50
180.0
 51
270.0
  0
ARC
  5
551
100
AcDbEntity
  8
M0
 62
     1
100
AcDbCircle
 10
77.282228
 20
384.434352
 40
3.25
100
AcDbArc
 50
0.0
 51
180.0
  0
LINE
  5
552
100
AcDbEntity
  8
M0
 62
     1
100
AcDbLine
 10
74.032228
 20
384.434352
 11
74.032228
 21
381.934351
  0
LINE
  5
553
100
AcDbEntity
  8
M0
 62
     1
100
AcDbLine
 10
82.282228
 20
384.434353
 11
82.282228
 21
382.434352
  0
LINE
  5
554
100
AcDbEntity
  8
M0
 62
     1
100
AcDbLine
 10
98.282227
 20
384.434353
 11
98.282227
 21
382.434352
  0
LINE
  5
555
100
AcDbEntity
  8
M0
 62
     1
100
AcDbLine
 10
80.532229
 20
381.934351
 11
80.532229
 21
384.434352
  0
ARC
  5
556
100
AcDbEntity
  8
M0
 62
     1
100
AcDbCircle
 10
98.282228
 20
385.434352
 40
1.0
100
AcDbArc
 50
270.0
 51
360.0
  0
ARC
  5
557
100
AcDbEntity
  8
M0
 62
     1
100
AcDbCircle
 10
72.282228
 20
386.934352
 40
1.0
100
AcDbArc
 50
270.0
 51
360.0
  0
ARC
  5
558
100
AcDbEntity
  8
M0
 62
     1
100
AcDbCircle
 10
81.032228
 20
381.934352
 40
0.5
100
AcDbArc
 50
180.0
 51
270.0
  0
ARC
  5
559
100
AcDbEntity
  8
M0
 62
     1
100
AcDbCircle
 10
82.282228
 20
385.434352
 40
1.0
100
AcDbArc
 50
180.0
 51
270.0
  0
LINE
  5
55A
100
AcDbEntity
  8
M0
 62
     1
100
AcDbLine
 10
72.282229
 20
382.434352
 11
72.282229
 21
385.934352
  0
ARC
  5
55B
100
AcDbEntity
  8
M0
 62
     1
100
AcDbCircle
 10
108.282228
 20
386.934352
 40
1.0
100
AcDbArc
 50
180.0
 51
270.0
  0
ARC
  5
55C
100
AcDbEntity
  8
M0
 62
     1
100
AcDbCircle
 10
59.882228
 20
443.634352
 40
1.0
100
AcDbArc
 50
90.0
 51
180.0
  0
LINE
  5
55D
100
AcDbEntity
  8
M0
 62
     1
100
AcDbLine
 10
70.982227
 20
381.43435
 11
63.882228
 21
381.43435
  0
LINE
  5
55E
100
AcDbEntity
  8
M0
 62
     1
100
AcDbLine
 10
63.882228
 20
452.434353
 11
70.982227
 21
452.434353
  0
LINE
  5
55F
100
AcDbEntity
  8
M0
 62
     1
100
AcDbLine
 10
69.582228
 20
451.434352
 11
69.582228
 21
434.934352
  0
LINE
  5
560
100
AcDbEntity
  8
M0
 62
     1
100
AcDbLine
 10
111.582229
 20
389.834352
 11
111.582229
 21
398.934353
  0
LINE
  5
561
100
AcDbEntity
  8
M0
 62
     1
100
AcDbLine
 10
111.582229
 20
434.934352
 11
111.582229
 21
444.034352
  0
ARC
  5
562
100
AcDbEntity
  8
M0
 62
     1
100
AcDbCircle
 10
59.882228
 20
390.234352
 40
1.0
100
AcDbArc
 50
180.0
 51
270.0
  0
ARC
  5
563
100
AcDbEntity
  8
M0
 62
     1
100
AcDbCircle
 10
60.182228
 20
390.234352
 40
1.0
100
AcDbArc
 50
270.0
 51
360.0
  0
LINE
  5
564
100
AcDbEntity
  8
M0
 62
     1
100
AcDbLine
 10
82.58223
 20
435.834352
 11
84.982229
 21
435.834352
  0
ARC
  5
565
100
AcDbEntity
  8
M0
 62
     1
100
AcDbCircle
 10
69.582228
 20
389.834352
 40
0.6
100
AcDbArc
 50
180.0
 51
270.0
  0
ARC
  5
566
100
AcDbEntity
  8
M0
 62
     1
100
AcDbCircle
 10
110.982228
 20
444.034352
 40
0.6
100
AcDbArc
 50
0.0
 51
90.0
  0
ARC
  5
567
100
AcDbEntity
  8
M0
 62
     1
100
AcDbCircle
 10
60.182228
 20
443.634352
 40
1.0
100
AcDbArc
 50
0.0
 51
90.0
  0
ARC
  5
568
100
AcDbEntity
  8
M0
 62
     1
100
AcDbCircle
 10
69.582228
 20
444.034352
 40
0.6
100
AcDbArc
 50
90.0
 51
180.0
  0
LINE
  5
569
100
AcDbEntity
  8
M0
 62
     1
100
AcDbLine
 10
71.982227
 20
398.934353
 11
71.982227
 21
382.434352
  0
LINE
  5
56A
100
AcDbEntity
  8
M0
 62
     1
100
AcDbLine
 10
82.58223
 20
382.434352
 11
82.58223
 21
398.934353
  0
LINE
  5
56B
100
AcDbEntity
  8
M0
 62
     1
100
AcDbLine
 10
82.58223
 20
398.034352
 11
83.582228
 21
398.034352
  0
LINE
  5
56C
100
AcDbEntity
  8
M0
 62
     1
100
AcDbLine
 10
109.782228
 20
452.434353
 11
109.582229
 21
452.434353
  0
LINE
  5
56D
100
AcDbEntity
  8
M0
 62
     1
100
AcDbLine
 10
108.582227
 20
451.434352
 11
108.582227
 21
434.934352
  0
LINE
  5
56E
100
AcDbEntity
  8
M0
 62
     1
100
AcDbLine
 10
84.982229
 20
382.434352
 11
84.982229
 21
398.934353
  0
LINE
  5
56F
100
AcDbEntity
  8
M0
 62
     1
100
AcDbLine
 10
82.58223
 20
451.434352
 11
82.58223
 21
434.934352
  0
LINE
  5
570
100
AcDbEntity
  8
M0
 62
     1
100
AcDbLine
 10
97.98223
 20
398.934353
 11
97.98223
 21
382.434352
  0
LINE
  5
571
100
AcDbEntity
  8
M0
 62
     1
100
AcDbLine
 10
95.582226
 20
382.434352
 11
95.582226
 21
398.934353
  0
LINE
  5
572
100
AcDbEntity
  8
M0
 62
     1
100
AcDbLine
 10
97.98223
 20
451.434352
 11
97.98223
 21
434.934352
  0
LINE
  5
573
100
AcDbEntity
  8
M0
 62
     1
100
AcDbLine
 10
95.582226
 20
434.934352
 11
95.582226
 21
458.934352
  0
LINE
  5
574
100
AcDbEntity
  8
M0
 62
     1
100
AcDbLine
 10
95.582226
 20
384.434353
 11
95.582226
 21
385.434351
  0
LINE
  5
575
100
AcDbEntity
  8
M0
 62
     1
100
AcDbLine
 10
95.582226
 20
449.434352
 11
95.582226
 21
448.434352
  0
LINE
  5
576
100
AcDbEntity
  8
M0
 62
     1
100
AcDbLine
 10
120.382225
 20
389.234352
 11
120.68223
 21
389.234352
  0
LINE
  5
577
100
AcDbEntity
  8
M0
 62
     1
100
AcDbLine
 10
120.68223
 20
444.634351
 11
120.382225
 21
444.634351
  0
LINE
  5
578
100
AcDbEntity
  8
M0
 62
     1
100
AcDbLine
 10
120.482227
 20
437.034351
 11
120.382225
 21
437.034351
  0
LINE
  5
579
100
AcDbEntity
  8
M0
 62
     1
100
AcDbLine
 10
71.982227
 20
451.434352
 11
71.982227
 21
434.934352
  0
LINE
  5
57A
100
AcDbEntity
  8
M0
 62
     1
100
AcDbLine
 10
60.082228
 20
437.034351
 11
60.182228
 21
437.034351
  0
LINE
  5
57B
100
AcDbEntity
  8
M0
 62
     1
100
AcDbLine
 10
120.482227
 20
396.834352
 11
120.382225
 21
396.834352
  0
LINE
  5
57C
100
AcDbEntity
  8
M0
 62
     1
100
AcDbLine
 10
60.082228
 20
396.834352
 11
60.182228
 21
396.834352
  0
ARC
  5
57D
100
AcDbEntity
  8
M0
 62
     1
100
AcDbCircle
 10
120.382228
 20
390.234352
 40
1.0
100
AcDbArc
 50
180.0
 51
270.0
  0
ARC
  5
57E
100
AcDbEntity
  8
M0
 62
     1
100
AcDbCircle
 10
120.382228
 20
443.634352
 40
1.0
100
AcDbArc
 50
90.0
 51
180.0
  0
ARC
  5
57F
100
AcDbEntity
  8
M0
 62
     1
100
AcDbCircle
 10
110.982228
 20
389.834352
 40
0.6
100
AcDbArc
 50
270.0
 51
360.0
  0
ARC
  5
580
100
AcDbEntity
  8
M0
 62
     1
100
AcDbCircle
 10
120.682228
 20
443.634352
 40
1.0
100
AcDbArc
 50
0.0
 51
90.0
  0
LINE
  5
581
100
AcDbEntity
  8
M0
 62
     1
100
AcDbLine
 10
68.982229
 20
389.834351
 11
68.982229
 21
398.934353
  0
LINE
  5
582
100
AcDbEntity
  8
M0
 62
     1
100
AcDbLine
 10
68.982229
 20
434.934352
 11
68.982229
 21
444.034352
  0
ARC
  5
583
100
AcDbEntity
  8
M0
 62
     1
100
AcDbCircle
 10
120.682228
 20
390.234352
 40
1.0
100
AcDbArc
 50
270.0
 51
360.0
  0
LINE
  5
584
100
AcDbEntity
  8
M0
 62
     1
100
AcDbLine
 10
61.182228
 20
412.234352
 11
61.182228
 21
390.234352
  0
LINE
  5
585
100
AcDbEntity
  8
M0
 62
     1
100
AcDbLine
 10
112.482229
 20
391.234352
 11
112.482229
 21
392.234352
  0
LINE
  5
586
100
AcDbEntity
  8
M0
 62
     1
100
AcDbLine
 10
118.48223
 20
391.234352
 11
112.482229
 21
391.234352
  0
LINE
  5
587
100
AcDbEntity
  8
M0
 62
     1
100
AcDbLine
 10
118.48223
 20
392.234352
 11
118.48223
 21
391.234352
  0
LINE
  5
588
100
AcDbEntity
  8
M0
 62
     1
100
AcDbLine
 10
66.287241
 20
434.034351
 11
61.182228
 21
434.034351
  0
LINE
  5
589
100
AcDbEntity
  8
M0
 62
     1
100
AcDbLine
 10
112.482229
 20
442.634352
 11
118.48223
 21
442.634352
  0
LINE
  5
58A
100
AcDbEntity
  8
M0
 62
     1
100
AcDbLine
 10
112.482229
 20
441.634352
 11
112.482229
 21
442.634352
  0
LINE
  5
58B
100
AcDbEntity
  8
M0
 62
     1
100
AcDbLine
 10
118.48223
 20
442.634352
 11
118.48223
 21
441.634352
  0
LINE
  5
58C
100
AcDbEntity
  8
M0
 62
     1
100
AcDbLine
 10
61.182228
 20
399.834351
 11
66.282228
 21
399.834351
  0
LINE
  5
58D
100
AcDbEntity
  8
M0
 62
     1
100
AcDbLine
 10
114.282228
 20
399.834351
 11
119.382231
 21
399.834351
  0
LINE
  5
58E
100
AcDbEntity
  8
M0
 62
     1
100
AcDbLine
 10
82.58223
 20
445.934352
 11
71.982227
 21
445.934352
  0
LINE
  5
58F
100
AcDbEntity
  8
M0
 62
     1
100
AcDbLine
 10
84.982229
 20
387.934352
 11
95.582226
 21
387.934352
  0
LINE
  5
590
100
AcDbEntity
  8
M0
 62
     1
100
AcDbLine
 10
62.082228
 20
442.634352
 11
68.082228
 21
442.634352
  0
LINE
  5
591
100
AcDbEntity
  8
M0
 62
     1
100
AcDbLine
 10
62.082228
 20
441.634352
 11
62.082228
 21
442.634352
  0
LINE
  5
592
100
AcDbEntity
  8
M0
 62
     1
100
AcDbLine
 10
68.082228
 20
442.634352
 11
68.082228
 21
441.634352
  0
LINE
  5
593
100
AcDbEntity
  8
M0
 62
     1
100
AcDbLine
 10
68.082228
 20
391.234352
 11
62.082228
 21
391.234352
  0
LINE
  5
594
100
AcDbEntity
  8
M0
 62
     1
100
AcDbLine
 10
68.082228
 20
392.234352
 11
68.082228
 21
391.234352
  0
LINE
  5
595
100
AcDbEntity
  8
M0
 62
     1
100
AcDbLine
 10
62.082228
 20
391.234352
 11
62.082228
 21
392.234352
  0
LINE
  5
596
100
AcDbEntity
  8
M0
 62
     1
100
AcDbLine
 10
106.99969
 20
460.852343
 11
107.000781
 21
460.815883
  0
LINE
  5
597
100
AcDbEntity
  8
M0
 62
     1
100
AcDbLine
 10
107.000781
 20
460.815883
 11
107.00403
 21
460.707604
  0
LINE
  5
598
100
AcDbEntity
  8
M0
 62
     1
100
AcDbLine
 10
107.00403
 20
460.707604
 11
107.009334
 21
460.530805
  0
LINE
  5
599
100
AcDbEntity
  8
M0
 62
     1
100
AcDbLine
 10
107.009334
 20
460.530805
 11
107.016532
 21
460.290852
  0
LINE
  5
59A
100
AcDbEntity
  8
M0
 62
     1
100
AcDbLine
 10
107.016532
 20
460.290852
 11
107.025409
 21
459.995034
  0
LINE
  5
59B
100
AcDbEntity
  8
M0
 62
     1
100
AcDbLine
 10
107.025409
 20
459.995034
 11
107.035687
 21
459.652345
  0
LINE
  5
59C
100
AcDbEntity
  8
M0
 62
     1
100
AcDbLine
 10
107.035687
 20
459.652345
 11
107.047064
 21
459.273192
  0
LINE
  5
59D
100
AcDbEntity
  8
M0
 62
     1
100
AcDbLine
 10
107.047064
 20
459.273192
 11
107.059186
 21
458.869099
  0
LINE
  5
59E
100
AcDbEntity
  8
M0
 62
     1
100
AcDbLine
 10
107.059186
 20
458.869099
 11
107.071688
 21
458.452343
  0
LINE
  5
59F
100
AcDbEntity
  8
M0
 62
     1
100
AcDbLine
 10
73.492767
 20
458.452343
 11
73.506813
 21
458.92056
  0
LINE
  5
5A0
100
AcDbEntity
  8
M0
 62
     1
100
AcDbLine
 10
73.506813
 20
458.92056
 11
73.520321
 21
459.370784
  0
LINE
  5
5A1
100
AcDbEntity
  8
M0
 62
     1
100
AcDbLine
 10
73.520321
 20
459.370784
 11
73.532769
 21
459.785714
  0
LINE
  5
5A2
100
AcDbEntity
  8
M0
 62
     1
100
AcDbLine
 10
73.532769
 20
459.785714
 11
73.543679
 21
460.149399
  0
LINE
  5
5A3
100
AcDbEntity
  8
M0
 62
     1
100
AcDbLine
 10
73.543679
 20
460.149399
 11
73.552633
 21
460.447869
  0
LINE
  5
5A4
100
AcDbEntity
  8
M0
 62
     1
100
AcDbLine
 10
73.552633
 20
460.447869
 11
73.559288
 21
460.669654
  0
LINE
  5
5A5
100
AcDbEntity
  8
M0
 62
     1
100
AcDbLine
 10
73.559288
 20
460.669654
 11
73.563384
 21
460.806227
  0
LINE
  5
5A6
100
AcDbEntity
  8
M0
 62
     1
100
AcDbLine
 10
73.563384
 20
460.806227
 11
73.564768
 21
460.852343
  0
LINE
  5
5A7
100
AcDbEntity
  8
M0
  6
DASHDOT
 62
     1
100
AcDbLine
 10
76.782228
 20
393.234352
 11
77.782228
 21
393.234352
  0
LINE
  5
5A8
100
AcDbEntity
  8
M0
  6
DASHDOT
 62
     1
100
AcDbLine
 10
77.282228
 20
392.734352
 11
77.282228
 21
393.734352
  0
LINE
  5
5A9
100
AcDbEntity
  8
M0
  6
DASHDOT
 62
     1
100
AcDbLine
 10
90.282225
 20
392.734352
 11
90.282225
 21
393.734352
  0
LINE
  5
5AA
100
AcDbEntity
  8
M0
  6
DASHDOT
 62
     1
100
AcDbLine
 10
89.782225
 20
393.234352
 11
90.782225
 21
393.234352
  0
LINE
  5
5AB
100
AcDbEntity
  8
M0
  6
DASHDOT
 62
     1
100
AcDbLine
 10
103.282225
 20
392.734352
 11
103.282225
 21
393.734352
  0
LINE
  5
5AC
100
AcDbEntity
  8
M0
  6
DASHDOT
 62
     1
100
AcDbLine
 10
102.782225
 20
393.234352
 11
103.782225
 21
393.234352
  0
LINE
  5
5AD
100
AcDbEntity
  8
M0
  6
DASHDOT
 62
     1
100
AcDbLine
 10
103.282225
 20
441.134352
 11
103.282225
 21
440.134352
  0
LINE
  5
5AE
100
AcDbEntity
  8
M0
  6
DASHDOT
 62
     1
100
AcDbLine
 10
102.782225
 20
440.634352
 11
103.782225
 21
440.634352
  0
LINE
  5
5AF
100
AcDbEntity
  8
M0
  6
DASHDOT
 62
     1
100
AcDbLine
 10
89.782225
 20
440.634352
 11
90.782225
 21
440.634352
  0
LINE
  5
5B0
100
AcDbEntity
  8
M0
  6
DASHDOT
 62
     1
100
AcDbLine
 10
77.282228
 20
441.134352
 11
77.282228
 21
440.134352
  0
LINE
  5
5B1
100
AcDbEntity
  8
M0
  6
DASHDOT
 62
     1
100
AcDbLine
 10
90.282225
 20
441.134352
 11
90.282225
 21
440.134352
  0
LINE
  5
5B2
100
AcDbEntity
  8
M0
  6
DASHDOT
 62
     1
100
AcDbLine
 10
76.782228
 20
440.634352
 11
77.782228
 21
440.634352
  0
LINE
  5
5B3
100
AcDbEntity
  8
M0
  6
DASHDOT
 62
     1
100
AcDbLine
 10
115.982228
 20
437.834352
 11
114.982228
 21
437.834352
  0
LINE
  5
5B4
100
AcDbEntity
  8
M0
  6
DASHDOT
 62
     1
100
AcDbLine
 10
115.482228
 20
437.334352
 11
115.482228
 21
438.334352
  0
LINE
  5
5B5
100
AcDbEntity
  8
M0
  6
DASHDOT
 62
     1
100
AcDbLine
 10
115.982228
 20
430.234352
 11
114.982228
 21
430.234352
  0
LINE
  5
5B6
100
AcDbEntity
  8
M0
  6
DASHDOT
 62
     1
100
AcDbLine
 10
115.482228
 20
429.734352
 11
115.482228
 21
430.734352
  0
LINE
  5
5B7
100
AcDbEntity
  8
M0
  6
DASHDOT
 62
     1
100
AcDbLine
 10
115.982228
 20
403.634352
 11
114.982228
 21
403.634352
  0
LINE
  5
5B8
100
AcDbEntity
  8
M0
  6
DASHDOT
 62
     1
100
AcDbLine
 10
115.482228
 20
403.134352
 11
115.482228
 21
404.134352
  0
LINE
  5
5B9
100
AcDbEntity
  8
M0
  6
DASHDOT
 62
     1
100
AcDbLine
 10
115.982228
 20
396.034352
 11
114.982228
 21
396.034352
  0
LINE
  5
5BA
100
AcDbEntity
  8
M0
  6
DASHDOT
 62
     1
100
AcDbLine
 10
115.482228
 20
395.534352
 11
115.482228
 21
396.534352
  0
LINE
  5
5BB
100
AcDbEntity
  8
M0
  6
DASHDOT
 62
     1
100
AcDbLine
 10
64.582228
 20
430.234352
 11
65.582228
 21
430.234352
  0
LINE
  5
5BC
100
AcDbEntity
  8
M0
  6
DASHDOT
 62
     1
100
AcDbLine
 10
65.082228
 20
429.734352
 11
65.082228
 21
430.734352
  0
LINE
  5
5BD
100
AcDbEntity
  8
M0
  6
DASHDOT
 62
     1
100
AcDbLine
 10
64.582228
 20
437.834352
 11
65.582228
 21
437.834352
  0
LINE
  5
5BE
100
AcDbEntity
  8
M0
  6
DASHDOT
 62
     1
100
AcDbLine
 10
65.082228
 20
437.334352
 11
65.082228
 21
438.334352
  0
LINE
  5
5BF
100
AcDbEntity
  8
M0
  6
DASHDOT
 62
     1
100
AcDbLine
 10
64.582228
 20
396.034352
 11
65.582228
 21
396.034352
  0
LINE
  5
5C0
100
AcDbEntity
  8
M0
  6
DASHDOT
 62
     1
100
AcDbLine
 10
65.082228
 20
395.534352
 11
65.082228
 21
396.534352
  0
LINE
  5
5C1
100
AcDbEntity
  8
M0
  6
DASHDOT
 62
     1
100
AcDbLine
 10
64.582228
 20
403.634352
 11
65.582228
 21
403.634352
  0
LINE
  5
5C2
100
AcDbEntity
  8
M0
  6
DASHDOT
 62
     1
100
AcDbLine
 10
65.082228
 20
403.134352
 11
65.082228
 21
404.134352
  0
LINE
  5
5C3
100
AcDbEntity
  8
M0
  6
DASHDOT
 62
     1
100
AcDbLine
 10
76.782228
 20
384.434352
 11
77.782228
 21
384.434352
  0
LINE
  5
5C4
100
AcDbEntity
  8
M0
  6
DASHDOT
 62
     1
100
AcDbLine
 10
77.282228
 20
383.934352
 11
77.282228
 21
384.934352
  0
LINE
  5
5C5
100
AcDbEntity
  8
M0
  6
DASHDOT
 62
     1
100
AcDbLine
 10
102.782228
 20
384.434352
 11
103.782228
 21
384.434352
  0
LINE
  5
5C6
100
AcDbEntity
  8
M0
  6
DASHDOT
 62
     1
100
AcDbLine
 10
103.282228
 20
383.934352
 11
103.282228
 21
384.934352
  0
LINE
  5
5C7
100
AcDbEntity
  8
M0
  6
DASHDOT
 62
     1
100
AcDbLine
 10
100.682228
 20
455.534352
 11
101.682228
 21
455.534352
  0
LINE
  5
5C8
100
AcDbEntity
  8
M0
  6
DASHDOT
 62
     1
100
AcDbLine
 10
101.182228
 20
455.034352
 11
101.182228
 21
456.034352
  0
LINE
  5
5C9
100
AcDbEntity
  8
M0
  6
DASHDOT
 62
     1
100
AcDbLine
 10
89.782228
 20
455.134352
 11
90.782228
 21
455.134352
  0
LINE
  5
5CA
100
AcDbEntity
  8
M0
  6
DASHDOT
 62
     1
100
AcDbLine
 10
90.282228
 20
454.634352
 11
90.282228
 21
455.634352
  0
LINE
  5
5CB
100
AcDbEntity
  8
M0
  6
DASHDOT
 62
     1
100
AcDbLine
 10
79.882228
 20
455.534352
 11
78.882228
 21
455.534352
  0
LINE
  5
5CC
100
AcDbEntity
  8
M0
  6
DASHDOT
 62
     1
100
AcDbLine
 10
79.382228
 20
455.034352
 11
79.382228
 21
456.034352
  0
CIRCLE
  5
5CD
100
AcDbEntity
  8
M0
 62
     1
100
AcDbCircle
 10
176.082224
 20
384.434352
 40
2.75
  0
LINE
  5
5CE
100
AcDbEntity
  8
M0
 62
     1
100
AcDbLine
 10
175.782224
 20
383.034352
 11
175.782224
 21
383.430712
  0
LINE
  5
5CF
100
AcDbEntity
  8
M0
 62
     1
100
AcDbLine
 10
176.382224
 20
383.034352
 11
176.382224
 21
383.430712
  0
LINE
  5
5D0
100
AcDbEntity
  8
M0
 62
     1
100
AcDbLine
 10
175.782224
 20
385.834352
 11
175.782224
 21
385.437991
  0
LINE
  5
5D1
100
AcDbEntity
  8
M0
 62
     1
100
AcDbLine
 10
176.382224
 20
385.834352
 11
176.382224
 21
385.437991
  0
ARC
  5
5D2
100
AcDbEntity
  8
M0
 62
     1
100
AcDbCircle
 10
175.057224
 20
383.409352
 40
0.725
100
AcDbArc
 50
0.0
 51
90.0
  0
ARC
  5
5D3
100
AcDbEntity
  8
M0
 62
     1
100
AcDbCircle
 10
175.057224
 20
385.459352
 40
0.725
100
AcDbArc
 50
-90.0
 51
0.0
  0
ARC
  5
5D4
100
AcDbEntity
  8
M0
 62
     1
100
AcDbCircle
 10
177.107224
 20
385.459352
 40
0.725
100
AcDbArc
 50
180.0
 51
270.0
  0
ARC
  5
5D5
100
AcDbEntity
  8
M0
 62
     1
100
AcDbCircle
 10
177.107224
 20
383.409352
 40
0.725
100
AcDbArc
 50
90.0
 51
180.0
  0
LINE
  5
5D6
100
AcDbEntity
  8
M0
 62
     1
100
AcDbLine
 10
177.107224
 20
384.134352
 11
177.507224
 21
384.134352
  0
LINE
  5
5D7
100
AcDbEntity
  8
M0
 62
     1
100
AcDbLine
 10
177.107224
 20
384.734352
 11
177.507224
 21
384.734352
  0
LINE
  5
5D8
100
AcDbEntity
  8
M0
 62
     1
100
AcDbLine
 10
175.782224
 20
385.834352
 11
176.382224
 21
385.834352
  0
LINE
  5
5D9
100
AcDbEntity
  8
M0
 62
     1
100
AcDbLine
 10
175.782224
 20
383.034352
 11
176.382224
 21
383.034352
  0
LINE
  5
5DA
100
AcDbEntity
  8
M0
 62
     1
100
AcDbLine
 10
174.682224
 20
384.734352
 11
175.057224
 21
384.734352
  0
LINE
  5
5DB
100
AcDbEntity
  8
M0
 62
     1
100
AcDbLine
 10
174.682224
 20
384.734352
 11
174.682224
 21
384.134352
  0
LINE
  5
5DC
100
AcDbEntity
  8
M0
 62
     1
100
AcDbLine
 10
174.682224
 20
384.134352
 11
175.057224
 21
384.134352
  0
LINE
  5
5DD
100
AcDbEntity
  8
M0
 62
     1
100
AcDbLine
 10
177.507224
 20
384.734352
 11
177.507224
 21
384.134352
  0
LINE
  5
5DE
100
AcDbEntity
  8
M0
  6
DASHED
100
AcDbLine
 10
257.969664
 20
407.759908
 11
257.969664
 21
404.909908
  0
LINE
  5
5DF
100
AcDbEntity
  8
M0
  6
DASHED
100
AcDbLine
 10
257.969664
 20
410.159908
 11
257.969664
 21
402.509908
  0
LINE
  5
5E0
100
AcDbEntity
  8
M0
  6
DASHED
100
AcDbLine
 10
258.969664
 20
434.559906
 11
257.969664
 21
434.559906
  0
LINE
  5
5E1
100
AcDbEntity
  8
M0
  6
DASHED
100
AcDbLine
 10
257.969664
 20
432.159906
 11
257.969664
 21
429.309906
  0
LINE
  5
5E2
100
AcDbEntity
  8
M0
  6
DASHED
100
AcDbLine
 10
257.969664
 20
434.559906
 11
257.969664
 21
426.909906
  0
LINE
  5
5E3
100
AcDbEntity
  8
M0
100
AcDbLine
 10
257.569663
 20
421.424804
 11
257.569663
 21
421.634906
  0
LINE
  5
5E4
100
AcDbEntity
  8
M0
100
AcDbLine
 10
253.869664
 20
417.684906
 11
253.369663
 21
417.684906
  0
LINE
  5
5E5
100
AcDbEntity
  8
M0
100
AcDbLine
 10
251.869664
 20
399.634906
 11
251.869664
 21
433.634906
  0
LINE
  5
5E6
100
AcDbEntity
  8
M0
100
AcDbLine
 10
254.039843
 20
421.634906
 11
254.039843
 21
421.310695
  0
LINE
  5
5E7
100
AcDbEntity
  8
M0
100
AcDbLine
 10
302.869663
 20
433.634906
 11
302.869663
 21
434.634906
  0
LINE
  5
5E8
100
AcDbEntity
  8
M0
100
AcDbLine
 10
302.869663
 20
434.634906
 11
303.869663
 21
434.634906
  0
LINE
  5
5E9
100
AcDbEntity
  8
M0
100
AcDbLine
 10
302.869663
 20
429.734906
 11
302.869663
 21
433.634906
  0
LINE
  5
5EA
100
AcDbEntity
  8
M0
100
AcDbLine
 10
304.869663
 20
431.134906
 11
303.869663
 21
434.634906
  0
LINE
  5
5EB
100
AcDbEntity
  8
M0
100
AcDbLine
 10
300.572388
 20
420.634906
 11
300.572388
 21
416.634907
  0
LINE
  5
5EC
100
AcDbEntity
  8
M0
100
AcDbLine
 10
303.313404
 20
429.734906
 11
303.869663
 21
429.734906
  0
LINE
  5
5ED
100
AcDbEntity
  8
M0
100
AcDbLine
 10
298.869663
 20
434.634906
 11
299.565316
 21
434.634906
  0
LINE
  5
5EE
100
AcDbEntity
  8
M0
100
AcDbLine
 10
304.869663
 20
420.634906
 11
300.572388
 21
420.634906
  0
LINE
  5
5EF
100
AcDbEntity
  8
M0
100
AcDbLine
 10
300.569663
 20
433.893092
 11
300.569663
 21
429.734906
  0
LINE
  5
5F0
100
AcDbEntity
  8
M0
100
AcDbLine
 10
303.619663
 20
429.734906
 11
300.569663
 21
429.734906
  0
LINE
  5
5F1
100
AcDbEntity
  8
M0
100
AcDbLine
 10
300.569663
 20
429.734906
 11
303.313404
 21
429.734906
  0
LINE
  5
5F2
100
AcDbEntity
  8
M0
100
AcDbLine
 10
300.369663
 20
433.634906
 11
300.369663
 21
399.634906
  0
LINE
  5
5F3
100
AcDbEntity
  8
M0
100
AcDbLine
 10
254.869662
 20
421.434907
 11
254.369661
 21
421.434907
  0
LINE
  5
5F4
100
AcDbEntity
  8
M0
100
AcDbLine
 10
253.869664
 20
412.334907
 11
253.869664
 21
420.934906
  0
LINE
  5
5F5
100
AcDbEntity
  8
M0
100
AcDbLine
 10
303.519663
 20
416.634907
 11
303.519663
 21
420.634906
  0
LINE
  5
5F6
100
AcDbEntity
  8
M0
100
AcDbLine
 10
254.369661
 20
411.834906
 11
254.869662
 21
411.834906
  0
ARC
  5
5F7
100
AcDbEntity
  8
M0
100
AcDbCircle
 10
254.369663
 20
412.334906
 40
0.5
100
AcDbArc
 50
180.0
 51
270.0
  0
ARC
  5
5F8
100
AcDbEntity
  8
M0
100
AcDbCircle
 10
254.369663
 20
420.934906
 40
0.5
100
AcDbArc
 50
90.0
 51
180.0
  0
LINE
  5
5F9
100
AcDbEntity
  8
M0
100
AcDbLine
 10
257.469661
 20
411.834906
 11
254.869662
 21
411.834906
  0
ARC
  5
5FA
100
AcDbEntity
  8
M0
100
AcDbCircle
 10
300.069663
 20
433.893092
 40
0.5
100
AcDbArc
 50
0.0
 51
44.92732
  0
ARC
  5
5FB
100
AcDbEntity
  8
M0
100
AcDbCircle
 10
258.969663
 20
433.634906
 40
1.0
100
AcDbArc
 50
90.0
 51
180.0
  0
ARC
  5
5FC
100
AcDbEntity
  8
M0
100
AcDbCircle
 10
299.869663
 20
434.134906
 40
0.5
100
AcDbArc
 50
0.0
 51
90.0
  0
ARC
  5
5FD
100
AcDbEntity
  8
M0
100
AcDbCircle
 10
252.869663
 20
422.834906
 40
1.0
100
AcDbArc
 50
90.0
 51
180.0
  0
LINE
  5
5FE
100
AcDbEntity
  8
M0
100
AcDbLine
 10
303.519663
 20
412.634907
 11
303.519663
 21
416.634907
  0
LINE
  5
5FF
100
AcDbEntity
  8
M0
100
AcDbLine
 10
300.421422
 20
434.242842
 11
300.330312
 21
434.328695
  0
ARC
  5
600
100
AcDbEntity
  8
M0
100
AcDbCircle
 10
303.869663
 20
428.734906
 40
1.0
100
AcDbArc
 50
0.0
 51
90.0
  0
ARC
  5
601
100
AcDbEntity
  8
M0
100
AcDbCircle
 10
252.869663
 20
433.634906
 40
1.0
100
AcDbArc
 50
90.0
 51
180.0
  0
LINE
  5
602
100
AcDbEntity
  8
M0
100
AcDbLine
 10
253.369663
 20
421.634906
 11
253.369663
 21
411.634906
  0
LINE
  5
603
100
AcDbEntity
  8
M0
100
AcDbLine
 10
300.569663
 20
403.534907
 11
300.569663
 21
399.634906
  0
LINE
  5
604
100
AcDbEntity
  8
M0
100
AcDbLine
 10
303.313404
 20
403.534907
 11
300.569663
 21
403.534907
  0
LINE
  5
605
100
AcDbEntity
  8
M0
100
AcDbLine
 10
258.969665
 20
398.634908
 11
252.869662
 21
398.634908
  0
LINE
  5
606
100
AcDbEntity
  8
M0
100
AcDbLine
 10
257.569663
 20
411.845009
 11
257.569663
 21
411.634906
  0
LINE
  5
607
100
AcDbEntity
  8
M0
100
AcDbLine
 10
253.369663
 20
417.634906
 11
253.869664
 21
417.634906
  0
LINE
  5
608
100
AcDbEntity
  8
M0
100
AcDbLine
 10
259.469662
 20
398.634908
 11
252.869662
 21
398.634908
  0
LINE
  5
609
100
AcDbEntity
  8
M0
100
AcDbLine
 10
254.039843
 20
411.634906
 11
254.039843
 21
411.959117
  0
LINE
  5
60A
100
AcDbEntity
  8
M0
100
AcDbLine
 10
257.969662
 20
399.634906
 11
257.969662
 21
409.434906
  0
LINE
  5
60B
100
AcDbEntity
  8
M0
100
AcDbLine
 10
257.969662
 20
411.634906
 11
257.969662
 21
421.634906
  0
LINE
  5
60C
100
AcDbEntity
  8
M0
100
AcDbLine
 10
252.869663
 20
411.634906
 11
257.969662
 21
411.634906
  0
LINE
  5
60D
100
AcDbEntity
  8
M0
100
AcDbLine
 10
257.969662
 20
409.434906
 11
252.869663
 21
409.434906
  0
LINE
  5
60E
100
AcDbEntity
  8
M0
100
AcDbLine
 10
303.869663
 20
403.534907
 11
303.313404
 21
403.534907
  0
LINE
  5
60F
100
AcDbEntity
  8
M0
100
AcDbLine
 10
304.869663
 20
431.134906
 11
304.869663
 21
404.534907
  0
LINE
  5
610
100
AcDbEntity
  8
M0
100
AcDbLine
 10
300.569663
 20
416.634907
 11
300.569663
 21
412.634907
  0
LINE
  5
611
100
AcDbEntity
  8
M0
100
AcDbLine
 10
304.869663
 20
412.634907
 11
300.569663
 21
412.634907
  0
LINE
  5
612
100
AcDbEntity
  8
M0
100
AcDbLine
 10
254.869662
 20
421.434907
 11
257.469661
 21
421.434907
  0
ARC
  5
613
100
AcDbEntity
  8
M0
100
AcDbCircle
 10
252.869663
 20
399.634906
 40
1.0
100
AcDbArc
 50
180.0
 51
270.0
  0
ARC
  5
614
100
AcDbEntity
  8
M0
100
AcDbCircle
 10
252.869663
 20
422.634906
 40
1.0
100
AcDbArc
 50
180.0
 51
270.0
  0
ARC
  5
615
100
AcDbEntity
  8
M0
100
AcDbCircle
 10
303.869663
 20
404.534906
 40
1.0
100
AcDbArc
 50
270.0
 51
360.0
  0
ARC
  5
616
100
AcDbEntity
  8
M0
100
AcDbCircle
 10
299.569669
 20
399.634901
 40
0.999994
100
AcDbArc
 50
270.0
 51
360.0
  0
LINE
  5
617
100
AcDbEntity
  8
M0
100
AcDbLine
 10
300.369663
 20
433.634906
 11
300.369663
 21
434.134906
  0
LINE
  5
618
100
AcDbEntity
  8
M0
100
AcDbLine
 10
252.869663
 20
434.634906
 11
299.869663
 21
434.634906
  0
LINE
  5
619
100
AcDbEntity
  8
M0
100
AcDbLine
 10
252.869662
 20
423.834906
 11
257.969662
 21
423.834906
  0
LINE
  5
61A
100
AcDbEntity
  8
M0
100
AcDbLine
 10
257.969662
 20
423.834906
 11
257.969662
 21
433.634906
  0
ARC
  5
61B
100
AcDbEntity
  8
M0
100
AcDbCircle
 10
257.469663
 20
420.934906
 40
0.5
100
AcDbArc
 50
0.0
 51
90.0
  0
ARC
  5
61C
100
AcDbEntity
  8
M0
100
AcDbCircle
 10
257.469663
 20
412.334906
 40
0.5
100
AcDbArc
 50
270.0
 51
360.0
  0
LINE
  5
61D
100
AcDbEntity
  8
M0
100
AcDbLine
 10
299.369663
 20
398.634908
 11
252.869662
 21
398.634908
  0
LINE
  5
61E
100
AcDbEntity
  8
M0
100
AcDbLine
 10
257.969662
 20
421.634906
 11
252.869662
 21
421.634906
  0
ARC
  5
61F
100
AcDbEntity
  8
M0
100
AcDbCircle
 10
258.969663
 20
399.634906
 40
1.0
100
AcDbArc
 50
180.0
 51
270.0
  0
ARC
  5
620
100
AcDbEntity
  8
M0
100
AcDbCircle
 10
299.369663
 20
399.634906
 40
1.0
100
AcDbArc
 50
270.0
 51
360.0
  0
ARC
  5
621
100
AcDbEntity
  8
M0
100
AcDbCircle
 10
252.869663
 20
410.634906
 40
1.0
100
AcDbArc
 50
90.0
 51
180.0
  0
ARC
  5
622
100
AcDbEntity
  8
M0
100
AcDbCircle
 10
252.869663
 20
410.434906
 40
1.0
100
AcDbArc
 50
180.0
 51
270.0
  0
LINE
  5
623
100
AcDbEntity
  8
M0
100
AcDbLine
 10
259.669661
 20
398.634908
 11
252.869662
 21
398.634908
  0
LINE
  5
624
100
AcDbEntity
  8
M0
 62
     7
100
AcDbLine
 10
246.869664
 20
433.634906
 11
246.869664
 21
399.634906
  0
HATCH
  5
625
100
AcDbEntity
  8
M0
 62
     7
100
AcDbHatch
 10
0.0
 20
0.0
210
0.0
220
0.0
230
1.0
  2
SOLID
 70
     1
 71
     0
 91
        1
 92
        1
 93
        4
 72
     1
 10
246.869664
 20
433.634906
 11
244.869664
 21
433.634906
 72
     1
 10
244.869664
 20
433.634906
 11
244.869664
 21
399.634906
 72
     1
 10
244.869664
 20
399.634906
 11
246.869664
 21
399.634906
 72
     1
 10
246.869664
 20
399.634906
 11
246.869664
 21
433.634906
 97
        0
 75
     0
 76
     1
 98
        1
 10
0.0
 20
0.0
  0
LINE
  5
628
100
AcDbEntity
  8
M0
  6
DIVIDE
 62
     7
100
AcDbLine
 10
384.669661
 20
430.434351
 11
378.169661
 21
430.434351
  0
LINE
  5
629
100
AcDbEntity
  8
M0
  6
DIVIDE
 62
     7
100
AcDbLine
 10
384.669661
 20
403.434351
 11
378.169661
 21
403.434351
  0
LINE
  5
62A
100
AcDbEntity
  8
M0
  6
DIVIDE
 62
     7
100
AcDbLine
 10
383.669661
 20
429.434351
 11
377.169661
 21
429.434351
  0
LINE
  5
62B
100
AcDbEntity
  8
M0
  6
DIVIDE
 62
     7
100
AcDbLine
 10
378.169661
 20
403.434351
 11
378.169661
 21
399.434351
  0
LINE
  5
62C
100
AcDbEntity
  8
M0
  6
DIVIDE
 62
     7
100
AcDbLine
 10
383.669661
 20
404.434351
 11
377.169661
 21
404.434351
  0
LINE
  5
62D
100
AcDbEntity
  8
M0
  6
DIVIDE
 62
     7
100
AcDbLine
 10
377.169661
 20
404.434351
 11
377.169661
 21
399.434351
  0
LINE
  5
62E
100
AcDbEntity
  8
M0
  6
DIVIDE
 62
     7
100
AcDbLine
 10
378.169661
 20
434.434351
 11
377.169661
 21
434.434351
  0
LINE
  5
62F
100
AcDbEntity
  8
M0
  6
DIVIDE
 62
     7
100
AcDbLine
 10
384.669661
 20
403.434351
 11
384.669661
 21
430.434351
  0
LINE
  5
630
100
AcDbEntity
  8
M0
  6
DIVIDE
 62
     7
100
AcDbLine
 10
377.169661
 20
434.434351
 11
377.169661
 21
429.434351
  0
LINE
  5
631
100
AcDbEntity
  8
M0
  6
DIVIDE
 62
     7
100
AcDbLine
 10
378.169661
 20
434.434351
 11
378.169661
 21
430.434351
  0
LINE
  5
632
100
AcDbEntity
  8
M0
  6
DIVIDE
 62
     7
100
AcDbLine
 10
377.169661
 20
399.434351
 11
378.169661
 21
399.434351
  0
LINE
  5
633
100
AcDbEntity
  8
M0
  6
DIVIDE
 62
     7
100
AcDbLine
 10
383.669661
 20
429.434351
 11
383.669661
 21
404.434351
  0
LINE
  5
634
100
AcDbEntity
  8
M0
  6
DASHED
 62
     7
100
AcDbLine
 10
317.150246
 20
437.232289
 11
318.269661
 21
437.134353
  0
LINE
  5
635
100
AcDbEntity
  8
M0
 62
     7
100
AcDbLine
 10
305.869661
 20
414.434352
 11
305.869661
 21
413.434352
  0
LINE
  5
636
100
AcDbEntity
  8
M0
 62
     7
100
AcDbLine
 10
305.869661
 20
419.434352
 11
305.869661
 21
420.434352
  0
LINE
  5
637
100
AcDbEntity
  8
M0
 62
     7
100
AcDbLine
 10
377.869662
 20
399.934352
 11
379.369661
 21
399.934352
  0
LINE
  5
638
100
AcDbEntity
  8
M0
 62
     7
100
AcDbLine
 10
379.369661
 20
399.934352
 11
379.369661
 21
399.134352
  0
LINE
  5
639
100
AcDbEntity
  8
M0
 62
     7
100
AcDbLine
 10
381.069662
 20
381.43435
 11
371.669661
 21
381.43435
  0
LINE
  5
63A
100
AcDbEntity
  8
M0
 62
     7
100
AcDbLine
 10
381.069662
 20
381.476096
 11
381.069662
 21
381.43435
  0
LINE
  5
63B
100
AcDbEntity
  8
M0
 62
     7
100
AcDbLine
 10
305.869661
 20
413.434352
 11
304.869663
 21
413.434352
  0
LINE
  5
63C
100
AcDbEntity
  8
M0
 62
     7
100
AcDbLine
 10
304.869663
 20
419.434352
 11
305.869661
 21
419.434352
  0
LINE
  5
63D
100
AcDbEntity
  8
M0
 62
     7
100
AcDbLine
 10
305.869661
 20
413.434352
 11
306.369662
 21
413.434352
  0
LINE
  5
63E
100
AcDbEntity
  8
M0
 62
     7
100
AcDbLine
 10
304.869663
 20
414.434352
 11
305.869661
 21
414.434352
  0
LINE
  5
63F
100
AcDbEntity
  8
M0
 62
     7
100
AcDbLine
 10
305.869661
 20
420.434352
 11
304.869663
 21
420.434352
  0
LINE
  5
640
100
AcDbEntity
  8
M0
 62
     7
100
AcDbLine
 10
305.869661
 20
420.434352
 11
306.369662
 21
420.434352
  0
LINE
  5
641
100
AcDbEntity
  8
M0
 62
     7
100
AcDbLine
 10
306.369662
 20
414.434352
 11
305.869661
 21
414.434352
  0
ARC
  5
642
100
AcDbEntity
  8
M0
 62
     7
100
AcDbCircle
 10
373.869661
 20
399.218124
 40
0.3
100
AcDbArc
 50
0.0
 51
90.0
  0
ARC
  5
643
100
AcDbEntity
  8
M0
 62
     7
100
AcDbCircle
 10
373.869661
 20
434.650579
 40
0.3
100
AcDbArc
 50
270.0
 51
360.0
  0
ARC
  5
644
100
AcDbEntity
  8
M0
 62
     7
100
AcDbCircle
 10
377.869661
 20
399.434352
 40
0.5
100
AcDbArc
 50
90.0
 51
180.0
  0
ARC
  5
645
100
AcDbEntity
  8
M0
 62
     7
100
AcDbCircle
 10
373.869661
 20
431.173796
 40
0.3
100
AcDbArc
 50
0.0
 51
90.0
  0
ARC
  5
646
100
AcDbEntity
  8
M0
 62
     7
100
AcDbCircle
 10
373.869661
 20
402.694907
 40
0.3
100
AcDbArc
 50
270.0
 51
360.0
  0
LINE
  5
647
100
AcDbEntity
  8
M0
 62
     7
100
AcDbLine
 10
380.894192
 20
399.13375
 11
379.309662
 21
400.934351
  0
LINE
  5
648
100
AcDbEntity
  8
M0
 62
     7
100
AcDbLine
 10
378.169661
 20
401.434352
 11
378.869662
 21
401.434352
  0
LINE
  5
649
100
AcDbEntity
  8
M0
 62
     7
100
AcDbLine
 10
377.369661
 20
399.134352
 11
377.369661
 21
399.434351
  0
LINE
  5
64A
100
AcDbEntity
  8
M0
 62
     7
100
AcDbLine
 10
381.369661
 20
398.634352
 11
381.369661
 21
381.934351
  0
LINE
  5
64B
100
AcDbEntity
  8
M0
 62
     7
100
AcDbLine
 10
378.169661
 20
399.934352
 11
378.169661
 21
401.434352
  0
ARC
  5
64C
100
AcDbEntity
  8
M0
 62
     7
100
AcDbCircle
 10
335.469661
 20
382.434352
 40
1.0
100
AcDbArc
 50
180.0
 51
270.0
  0
LINE
  5
64D
100
AcDbEntity
  8
M0
 62
     7
100
AcDbLine
 10
329.569662
 20
384.434353
 11
334.469661
 21
384.434353
  0
LINE
  5
64E
100
AcDbEntity
  8
M0
 62
     7
100
AcDbLine
 10
381.669661
 20
450.684351
 11
381.369661
 21
450.684351
  0
LINE
  5
64F
100
AcDbEntity
  8
M0
 62
     7
100
AcDbLine
 10
381.369661
 20
441.184352
 11
381.669661
 21
441.184352
  0
LINE
  5
650
100
AcDbEntity
  8
M0
 62
     7
100
AcDbLine
 10
381.669661
 20
392.684351
 11
381.369661
 21
392.684351
  0
LINE
  5
651
100
AcDbEntity
  8
M0
 62
     7
100
AcDbLine
 10
381.369661
 20
383.18435
 11
381.669661
 21
383.18435
  0
LINE
  5
652
100
AcDbEntity
  8
M0
 62
     7
100
AcDbLine
 10
306.369662
 20
418.434352
 11
305.869661
 21
418.434352
  0
LINE
  5
653
100
AcDbEntity
  8
M0
 62
     7
100
AcDbLine
 10
306.369662
 20
419.434352
 11
305.869661
 21
419.434352
  0
LINE
  5
654
100
AcDbEntity
  8
M0
 62
     7
100
AcDbLine
 10
305.869661
 20
415.434352
 11
305.869661
 21
418.434352
  0
LINE
  5
655
100
AcDbEntity
  8
M0
 62
     7
100
AcDbLine
 10
305.869661
 20
415.434352
 11
306.369662
 21
415.434352
  0
LINE
  5
656
100
AcDbEntity
  8
M0
 62
     7
100
AcDbLine
 10
358.369661
 20
434.350579
 11
373.869661
 21
434.350579
  0
ARC
  5
657
100
AcDbEntity
  8
M0
 62
     7
100
AcDbCircle
 10
329.569661
 20
385.434352
 40
1.0
100
AcDbArc
 50
237.247324
 51
270.0
  0
LINE
  5
658
100
AcDbEntity
  8
M0
 62
     7
100
AcDbLine
 10
373.869661
 20
431.473796
 11
358.369661
 21
431.473796
  0
LINE
  5
659
100
AcDbEntity
  8
M0
 62
     7
100
AcDbLine
 10
358.369661
 20
402.394907
 11
373.869661
 21
402.394907
  0
LINE
  5
65A
100
AcDbEntity
  8
M0
 62
     7
100
AcDbLine
 10
373.869661
 20
399.518124
 11
358.369661
 21
399.518124
  0
LINE
  5
65B
100
AcDbEntity
  8
M0
 62
     7
100
AcDbLine
 10
330.669662
 20
449.934351
 11
330.669662
 21
447.934351
  0
LINE
  5
65C
100
AcDbEntity
  8
M0
 62
     7
100
AcDbLine
 10
334.269661
 20
451.434352
 11
330.669662
 21
449.934351
  0
LINE
  5
65D
100
AcDbEntity
  8
M0
 62
     7
100
AcDbLine
 10
334.469661
 20
450.434352
 11
331.66966
 21
449.267684
  0
LINE
  5
65E
100
AcDbEntity
  8
M0
 62
     7
100
AcDbLine
 10
339.969661
 20
447.934351
 11
339.969661
 21
451.434352
  0
LINE
  5
65F
100
AcDbEntity
  8
M0
 62
     7
100
AcDbLine
 10
334.269661
 20
451.434352
 11
334.269661
 21
460.43435
  0
LINE
  5
660
100
AcDbEntity
  8
M0
 62
     7
100
AcDbLine
 10
344.969661
 20
421.034352
 11
345.069661
 21
421.034352
  0
LINE
  5
661
100
AcDbEntity
  8
M0
 62
     7
100
AcDbLine
 10
339.969661
 20
451.434352
 11
334.269661
 21
451.434352
  0
LINE
  5
662
100
AcDbEntity
  8
M0
 62
     7
100
AcDbLine
 10
351.755448
 20
461.434352
 11
335.269662
 21
461.434352
  0
LINE
  5
663
100
AcDbEntity
  8
M0
 62
     7
100
AcDbLine
 10
338.969661
 20
450.434352
 11
334.469661
 21
450.434352
  0
LINE
  5
664
100
AcDbEntity
  8
M0
 62
     7
100
AcDbLine
 10
381.669661
 20
450.684351
 11
381.669661
 21
441.184352
  0
LINE
  5
665
100
AcDbEntity
  8
M0
 62
     7
100
AcDbLine
 10
331.66966
 20
448.934351
 11
338.969661
 21
448.934351
  0
LINE
  5
666
100
AcDbEntity
  8
M0
 62
     7
100
AcDbLine
 10
338.969661
 20
448.934351
 11
338.969661
 21
450.434352
  0
LINE
  5
667
100
AcDbEntity
  8
M0
 62
     7
100
AcDbLine
 10
331.66966
 20
449.267684
 11
331.66966
 21
448.934351
  0
LINE
  5
668
100
AcDbEntity
  8
M0
 62
     7
100
AcDbLine
 10
381.369661
 20
451.934352
 11
381.369661
 21
432.534352
  0
ARC
  5
669
100
AcDbEntity
  8
M0
 62
     7
100
AcDbCircle
 10
351.755448
 20
460.434352
 40
1.0
100
AcDbArc
 50
45.0
 51
90.0
  0
ARC
  5
66A
100
AcDbEntity
  8
M0
 62
     7
100
AcDbCircle
 10
335.269661
 20
460.434352
 40
1.0
100
AcDbArc
 50
90.0
 51
180.0
  0
ARC
  5
66B
100
AcDbEntity
  8
M0
 62
     7
100
AcDbCircle
 10
356.169661
 20
456.020138
 40
1.0
100
AcDbArc
 50
0.0
 51
45.0
  0
ARC
  5
66C
100
AcDbEntity
  8
M0
 62
     7
100
AcDbCircle
 10
337.769661
 20
458.434352
 40
3.0
100
AcDbArc
 50
90.0
 51
180.0
  0
ELLIPSE
  5
66D
100
AcDbEntity
  8
M0
 62
     7
100
AcDbEllipse
 10
356.569661
 20
431.425354
 11
0.0
 21
20.008998
210
0.0
220
0.0
230
1.0
 40
0.029987
 41
5.682730448278078
 42
6.283185307179586
  0
ARC
  5
66E
100
AcDbEntity
  8
M0
 62
     7
100
AcDbCircle
 10
307.169661
 20
420.234352
 40
1.0
100
AcDbArc
 50
168.463041
 51
180.0
  0
ARC
  5
66F
100
AcDbEntity
  8
M0
 62
     7
100
AcDbCircle
 10
363.469661
 20
382.434352
 40
1.0
100
AcDbArc
 50
270.0
 51
360.0
  0
LINE
  5
670
100
AcDbEntity
  8
M0
 62
     7
100
AcDbLine
 10
306.169663
 20
420.234352
 11
306.169663
 21
419.434352
  0
LINE
  5
671
100
AcDbEntity
  8
M0
 62
     7
100
AcDbLine
 10
306.169663
 20
414.434352
 11
306.169663
 21
413.434352
  0
LINE
  5
672
100
AcDbEntity
  8
M0
 62
     7
100
AcDbLine
 10
336.569661
 20
414.234351
 11
336.569661
 21
419.634352
  0
LINE
  5
673
100
AcDbEntity
  8
M0
 62
     7
100
AcDbLine
 10
333.069662
 20
419.634352
 11
333.069662
 21
414.234351
  0
ARC
  5
674
100
AcDbEntity
  8
M0
 62
     7
100
AcDbCircle
 10
381.069661
 20
432.534352
 40
0.3
100
AcDbArc
 50
270.0
 51
360.0
  0
LINE
  5
675
100
AcDbEntity
  8
M0
 62
     7
100
AcDbLine
 10
364.469661
 20
382.434352
 11
364.469661
 21
385.934352
  0
LINE
  5
676
100
AcDbEntity
  8
M0
 62
     7
100
AcDbLine
 10
346.469661
 20
382.434352
 11
346.469661
 21
381.43435
  0
LINE
  5
677
100
AcDbEntity
  8
M0
 62
     7
100
AcDbLine
 10
357.169661
 20
456.020138
 11
357.169661
 21
447.934351
  0
LINE
  5
678
100
AcDbEntity
  8
M0
 62
     7
100
AcDbLine
 10
340.069661
 20
451.434352
 11
335.369661
 21
451.434352
  0
LINE
  5
679
100
AcDbEntity
  8
M0
 62
     7
100
AcDbLine
 10
340.069661
 20
451.434352
 11
340.069661
 21
447.934351
  0
LINE
  5
67A
100
AcDbEntity
  8
M0
 62
     7
100
AcDbLine
 10
356.569661
 20
451.434352
 11
340.069661
 21
451.434352
  0
LINE
  5
67B
100
AcDbEntity
  8
M0
 62
     7
100
AcDbLine
 10
379.169661
 20
432.234352
 11
381.069662
 21
432.234352
  0
ARC
  5
67C
100
AcDbEntity
  8
M0
 62
     7
100
AcDbCircle
 10
380.869661
 20
398.634352
 40
0.5
100
AcDbArc
 50
0.0
 51
90.0
  0
LINE
  5
67D
100
AcDbEntity
  8
M0
 62
     7
100
AcDbLine
 10
346.469661
 20
427.034352
 11
346.469661
 21
447.934351
  0
ARC
  5
67E
100
AcDbEntity
  8
M0
 62
     7
100
AcDbCircle
 10
380.869661
 20
381.934352
 40
0.5
100
AcDbArc
 50
270.0
 51
360.0
  0
ARC
  5
67F
100
AcDbEntity
  8
M0
 62
     7
100
AcDbCircle
 10
380.869661
 20
435.234352
 40
0.5
100
AcDbArc
 50
270.0
 51
360.0
  0
LINE
  5
680
100
AcDbEntity
  8
M0
 62
     7
100
AcDbLine
 10
379.169661
 20
432.234352
 11
378.169661
 21
433.234352
  0
LINE
  5
681
100
AcDbEntity
  8
M0
 62
     7
100
AcDbLine
 10
378.169661
 20
433.234352
 11
378.169661
 21
434.734352
  0
LINE
  5
682
100
AcDbEntity
  8
M0
 62
     7
100
AcDbLine
 10
365.769661
 20
451.434352
 11
370.669661
 21
451.434352
  0
LINE
  5
683
100
AcDbEntity
  8
M0
 62
     7
100
AcDbLine
 10
357.169661
 20
456.020138
 11
357.169661
 21
453.884351
  0
LINE
  5
684
100
AcDbEntity
  8
M0
 62
     7
100
AcDbLine
 10
364.869662
 20
451.134351
 11
364.869662
 21
447.934351
  0
LINE
  5
685
100
AcDbEntity
  8
M0
 62
     7
100
AcDbLine
 10
377.169661
 20
432.234352
 11
377.169661
 21
434.734352
  0
LINE
  5
686
100
AcDbEntity
  8
M0
 62
     7
100
AcDbLine
 10
352.462554
 20
461.141459
 11
356.876768
 21
456.727243
  0
LINE
  5
687
100
AcDbEntity
  8
M0
 62
     7
100
AcDbLine
 10
364.869662
 20
451.134351
 11
364.869662
 21
451.434352
  0
LINE
  5
688
100
AcDbEntity
  8
M0
 62
     7
100
AcDbLine
 10
364.869662
 20
451.434352
 11
370.669661
 21
451.434352
  0
LINE
  5
689
100
AcDbEntity
  8
M0
 62
     7
100
AcDbLine
 10
381.369661
 20
450.934351
 11
381.369661
 21
450.384351
  0
LINE
  5
68A
100
AcDbEntity
  8
M0
 62
     7
100
AcDbLine
 10
357.169661
 20
451.434352
 11
357.169661
 21
447.934351
  0
ARC
  5
68B
100
AcDbEntity
  8
M0
 62
     7
100
AcDbCircle
 10
326.769661
 20
441.634352
 40
3.0
100
AcDbArc
 50
90.0
 51
180.0
  0
ARC
  5
68C
100
AcDbEntity
  8
M0
 62
     7
100
AcDbCircle
 10
326.769661
 20
392.234352
 40
3.0
100
AcDbArc
 50
180.0
 51
270.0
  0
ARC
  5
68D
100
AcDbEntity
  8
M0
 62
     7
100
AcDbCircle
 10
337.72702
 20
441.634352
 40
3.0
100
AcDbArc
 50
45.0
 51
90.0
  0
ARC
  5
68E
100
AcDbEntity
  8
M0
 62
     7
100
AcDbCircle
 10
337.72702
 20
392.234352
 40
3.0
100
AcDbArc
 50
270.0
 51
315.0
  0
ARC
  5
68F
100
AcDbEntity
  8
M0
 62
     7
100
AcDbCircle
 10
307.869661
 20
434.034352
 40
3.0
100
AcDbArc
 50
90.0
 51
180.0
  0
ARC
  5
690
100
AcDbEntity
  8
M0
 62
     7
100
AcDbCircle
 10
306.369661
 20
412.234352
 40
1.0
100
AcDbArc
 50
0.0
 51
90.0
  0
ARC
  5
691
100
AcDbEntity
  8
M0
 62
     7
100
AcDbCircle
 10
320.769661
 20
440.034352
 40
3.0
100
AcDbArc
 50
270.0
 51
360.0
  0
ARC
  5
692
100
AcDbEntity
  8
M0
 62
     7
100
AcDbCircle
 10
320.769661
 20
393.834352
 40
3.0
100
AcDbArc
 50
0.0
 51
90.0
  0
ARC
  5
693
100
AcDbEntity
  8
M0
 62
     7
100
AcDbCircle
 10
332.869661
 20
419.134352
 40
0.5
100
AcDbArc
 50
90.0
 51
180.0
  0
LINE
  5
694
100
AcDbEntity
  8
M0
 62
     7
100
AcDbLine
 10
306.86966
 20
397.005924
 11
306.86966
 21
384.434353
  0
ARC
  5
695
100
AcDbEntity
  8
M0
 62
     7
100
AcDbCircle
 10
332.869661
 20
414.734352
 40
0.5
100
AcDbArc
 50
180.0
 51
270.0
  0
LINE
  5
696
100
AcDbEntity
  8
M0
 62
     7
100
AcDbLine
 10
306.86966
 20
449.434352
 11
306.86966
 21
436.862779
  0
LINE
  5
697
100
AcDbEntity
  8
M0
 62
     7
100
AcDbLine
 10
346.469661
 20
432.034352
 11
353.869661
 21
432.034352
  0
LINE
  5
698
100
AcDbEntity
  8
M0
 62
     7
100
AcDbLine
 10
353.869661
 20
437.034351
 11
346.469661
 21
437.034351
  0
LINE
  5
699
100
AcDbEntity
  8
M0
 62
     7
100
AcDbLine
 10
346.469661
 20
427.034352
 11
345.569661
 21
427.034352
  0
LINE
  5
69A
100
AcDbEntity
  8
M0
 62
     7
100
AcDbLine
 10
358.369661
 20
402.394907
 11
358.369661
 21
399.518124
  0
LINE
  5
69B
100
AcDbEntity
  8
M0
 62
     7
100
AcDbLine
 10
358.369661
 20
434.350579
 11
358.369661
 21
431.473796
  0
LINE
  5
69C
100
AcDbEntity
  8
M0
 62
     7
100
AcDbLine
 10
371.669661
 20
452.434353
 11
380.86966
 21
452.434353
  0
ARC
  5
69D
100
AcDbEntity
  8
M0
 62
     7
100
AcDbCircle
 10
305.869661
 20
421.634352
 40
1.0
100
AcDbArc
 50
180.0
 51
270.0
  0
ARC
  5
69E
100
AcDbEntity
  8
M0
 62
     7
100
AcDbCircle
 10
324.62702
 20
384.434352
 40
3.0
100
AcDbArc
 50
270.0
 51
315.0
  0
ARC
  5
69F
100
AcDbEntity
  8
M0
 62
     7
100
AcDbCircle
 10
307.869661
 20
399.834352
 40
3.0
100
AcDbArc
 50
180.0
 51
270.0
  0
ARC
  5
6A0
100
AcDbEntity
  8
M0
 62
     7
100
AcDbCircle
 10
305.869661
 20
412.234352
 40
1.0
100
AcDbArc
 50
90.0
 51
180.0
  0
ARC
  5
6A1
100
AcDbEntity
  8
M0
 62
     7
100
AcDbCircle
 10
309.869661
 20
384.434352
 40
3.0
100
AcDbArc
 50
180.0
 51
270.0
  0
LINE
  5
6A2
100
AcDbEntity
  8
M0
 62
     7
100
AcDbLine
 10
374.169661
 20
399.134352
 11
380.86966
 21
399.134352
  0
ARC
  5
6A3
100
AcDbEntity
  8
M0
 62
     7
100
AcDbCircle
 10
324.62702
 20
449.434352
 40
3.0
100
AcDbArc
 50
45.0
 51
90.0
  0
ARC
  5
6A4
100
AcDbEntity
  8
M0
 62
     7
100
AcDbCircle
 10
309.869661
 20
449.434352
 40
3.0
100
AcDbArc
 50
90.0
 51
180.0
  0
ARC
  5
6A5
100
AcDbEntity
  8
M0
 62
     7
100
AcDbCircle
 10
306.369661
 20
421.634352
 40
1.0
100
AcDbArc
 50
270.0
 51
360.0
  0
LINE
  5
6A6
100
AcDbEntity
  8
M0
 62
     7
100
AcDbLine
 10
341.969661
 20
392.234352
 11
339.84834
 21
390.113031
  0
LINE
  5
6A7
100
AcDbEntity
  8
M0
 62
     7
100
AcDbLine
 10
307.369661
 20
412.234352
 11
307.369661
 21
421.634352
  0
LINE
  5
6A8
100
AcDbEntity
  8
M0
 62
     7
100
AcDbLine
 10
337.72702
 20
389.234352
 11
326.769661
 21
389.234352
  0
LINE
  5
6A9
100
AcDbEntity
  8
M0
 62
     7
100
AcDbLine
 10
323.769661
 20
440.034351
 11
323.769661
 21
441.634352
  0
LINE
  5
6AA
100
AcDbEntity
  8
M0
 62
     7
100
AcDbLine
 10
339.84834
 20
443.755672
 11
341.969661
 21
441.634352
  0
LINE
  5
6AB
100
AcDbEntity
  8
M0
 62
     7
100
AcDbLine
 10
326.769661
 20
444.634351
 11
337.72702
 21
444.634351
  0
LINE
  5
6AC
100
AcDbEntity
  8
M0
 62
     7
100
AcDbLine
 10
341.969661
 20
441.634352
 11
370.669661
 21
441.634352
  0
LINE
  5
6AD
100
AcDbEntity
  8
M0
 62
     7
100
AcDbLine
 10
332.369661
 20
419.134352
 11
332.369661
 21
414.734351
  0
LINE
  5
6AE
100
AcDbEntity
  8
M0
 62
     7
100
AcDbLine
 10
332.869662
 20
414.234351
 11
345.069661
 21
414.234351
  0
LINE
  5
6AF
100
AcDbEntity
  8
M0
 62
     7
100
AcDbLine
 10
345.069661
 20
419.634352
 11
332.869662
 21
419.634352
  0
LINE
  5
6B0
100
AcDbEntity
  8
M0
 62
     7
100
AcDbLine
 10
346.469661
 20
392.434352
 11
341.969661
 21
392.234352
  0
LINE
  5
6B1
100
AcDbEntity
  8
M0
 62
     7
100
AcDbLine
 10
370.669661
 20
447.934351
 11
330.369661
 21
447.934351
  0
LINE
  5
6B2
100
AcDbEntity
  8
M0
 62
     7
100
AcDbLine
 10
309.869662
 20
381.43435
 11
324.627021
 21
381.43435
  0
LINE
  5
6B3
100
AcDbEntity
  8
M0
 62
     7
100
AcDbLine
 10
324.627021
 20
452.434353
 11
309.869662
 21
452.434353
  0
LINE
  5
6B4
100
AcDbEntity
  8
M0
 62
     7
100
AcDbLine
 10
330.369661
 20
447.934351
 11
326.748341
 21
451.555672
  0
LINE
  5
6B5
100
AcDbEntity
  8
M0
 62
     7
100
AcDbLine
 10
326.748341
 20
382.313031
 11
330.369661
 21
385.934352
  0
LINE
  5
6B6
100
AcDbEntity
  8
M0
 62
     7
100
AcDbLine
 10
306.369662
 20
420.634352
 11
306.369662
 21
413.234352
  0
LINE
  5
6B7
100
AcDbEntity
  8
M0
 62
     7
100
AcDbLine
 10
305.869661
 20
420.634352
 11
306.369662
 21
420.634352
  0
LINE
  5
6B8
100
AcDbEntity
  8
M0
 62
     7
100
AcDbLine
 10
320.769662
 20
396.834352
 11
307.869662
 21
396.834352
  0
LINE
  5
6B9
100
AcDbEntity
  8
M0
 62
     7
100
AcDbLine
 10
307.869662
 20
437.034351
 11
320.769662
 21
437.034351
  0
LINE
  5
6BA
100
AcDbEntity
  8
M0
 62
     7
100
AcDbLine
 10
306.369662
 20
413.234352
 11
305.869661
 21
413.234352
  0
LINE
  5
6BB
100
AcDbEntity
  8
M0
 62
     7
100
AcDbLine
 10
304.869663
 20
399.834351
 11
304.869663
 21
434.034352
  0
ARC
  5
6BC
100
AcDbEntity
  8
M0
 62
     7
100
AcDbCircle
 10
345.569661
 20
426.534352
 40
0.5
100
AcDbArc
 50
90.0
 51
180.0
  0
ARC
  5
6BD
100
AcDbEntity
  8
M0
 62
     7
100
AcDbCircle
 10
376.669661
 20
403.634352
 40
0.5
100
AcDbArc
 50
270.0
 51
360.0
  0
ARC
  5
6BE
100
AcDbEntity
  8
M0
 62
     7
100
AcDbCircle
 10
376.669661
 20
430.234352
 40
0.5
100
AcDbArc
 50
0.0
 51
90.0
  0
ARC
  5
6BF
100
AcDbEntity
  8
M0
 62
     7
100
AcDbCircle
 10
345.569661
 20
407.334352
 40
0.5
100
AcDbArc
 50
180.0
 51
270.0
  0
LINE
  5
6C0
100
AcDbEntity
  8
M0
 62
     7
100
AcDbLine
 10
369.669661
 20
385.934352
 11
330.369661
 21
385.934352
  0
LINE
  5
6C1
100
AcDbEntity
  8
M0
 62
     7
100
AcDbLine
 10
369.669661
 20
385.934352
 11
369.669661
 21
386.434353
  0
LINE
  5
6C2
100
AcDbEntity
  8
M0
 62
     7
100
AcDbLine
 10
370.669661
 20
384.434353
 11
369.669661
 21
384.434353
  0
LINE
  5
6C3
100
AcDbEntity
  8
M0
 62
     7
100
AcDbLine
 10
369.669661
 20
384.93435
 11
369.669661
 21
385.934352
  0
LINE
  5
6C4
100
AcDbEntity
  8
M0
 62
     7
100
AcDbLine
 10
369.669661
 20
386.434353
 11
370.669661
 21
386.434353
  0
LINE
  5
6C5
100
AcDbEntity
  8
M0
 62
     7
100
AcDbLine
 10
381.369661
 20
443.484352
 11
381.369661
 21
441.334351
  0
LINE
  5
6C6
100
AcDbEntity
  8
M0
 62
     7
100
AcDbLine
 10
369.669661
 20
384.434353
 11
369.669661
 21
384.93435
  0
LINE
  5
6C7
100
AcDbEntity
  8
M0
 62
     7
100
AcDbLine
 10
377.469661
 20
429.234352
 11
377.469661
 21
431.234351
  0
LINE
  5
6C8
100
AcDbEntity
  8
M0
 62
     7
100
AcDbLine
 10
334.769661
 20
451.434352
 11
334.769661
 21
458.43435
  0
LINE
  5
6C9
100
AcDbEntity
  8
M0
 62
     7
100
AcDbLine
 10
335.469661
 20
381.43435
 11
338.469661
 21
381.43435
  0
ARC
  5
6CA
100
AcDbEntity
  8
M0
 62
     7
100
AcDbCircle
 10
371.669661
 20
382.434352
 40
1.0
100
AcDbArc
 50
180.0
 51
270.0
  0
ARC
  5
6CB
100
AcDbEntity
  8
M0
 62
     7
100
AcDbCircle
 10
380.869661
 20
451.934352
 40
0.5
100
AcDbArc
 50
0.0
 51
90.0
  0
ARC
  5
6CC
100
AcDbEntity
  8
M0
 62
     7
100
AcDbCircle
 10
371.669661
 20
451.434352
 40
1.0
100
AcDbArc
 50
90.0
 51
180.0
  0
LINE
  5
6CD
100
AcDbEntity
  8
M0
 62
     7
100
AcDbLine
 10
346.469661
 20
381.43435
 11
346.469661
 21
406.834352
  0
LINE
  5
6CE
100
AcDbEntity
  8
M0
 62
     7
100
AcDbLine
 10
334.469661
 20
385.934352
 11
334.469661
 21
382.434352
  0
LINE
  5
6CF
100
AcDbEntity
  8
M0
 62
     7
100
AcDbLine
 10
335.469661
 20
381.43435
 11
363.469661
 21
381.43435
  0
LINE
  5
6D0
100
AcDbEntity
  8
M0
 62
     7
100
AcDbLine
 10
376.669662
 20
403.134351
 11
374.169661
 21
403.134351
  0
LINE
  5
6D1
100
AcDbEntity
  8
M0
 62
     7
100
AcDbLine
 10
374.169661
 20
430.734351
 11
376.669662
 21
430.734351
  0
LINE
  5
6D2
100
AcDbEntity
  8
M0
 62
     7
100
AcDbLine
 10
374.169661
 20
431.173797
 11
374.169661
 21
430.734351
  0
LINE
  5
6D3
100
AcDbEntity
  8
M0
 62
     7
100
AcDbLine
 10
374.169661
 20
403.134351
 11
374.169661
 21
402.694906
  0
LINE
  5
6D4
100
AcDbEntity
  8
M0
 62
     7
100
AcDbLine
 10
346.469661
 20
406.834352
 11
345.569661
 21
406.834352
  0
LINE
  5
6D5
100
AcDbEntity
  8
M0
 62
     7
100
AcDbLine
 10
346.469661
 20
396.834352
 11
353.869661
 21
396.834352
  0
LINE
  5
6D6
100
AcDbEntity
  8
M0
 62
     7
100
AcDbLine
 10
353.869661
 20
401.834351
 11
346.469661
 21
401.834351
  0
LINE
  5
6D7
100
AcDbEntity
  8
M0
 62
     7
100
AcDbLine
 10
345.069661
 20
426.534351
 11
345.069661
 21
407.334352
  0
LINE
  5
6D8
100
AcDbEntity
  8
M0
 62
     7
100
AcDbLine
 10
380.86966
 20
434.734352
 11
374.169661
 21
434.734352
  0
LINE
  5
6D9
100
AcDbEntity
  8
M0
 62
     7
100
AcDbLine
 10
323.769661
 20
392.234352
 11
323.769661
 21
393.834352
  0
LINE
  5
6DA
100
AcDbEntity
  8
M0
 62
     7
100
AcDbLine
 10
381.669661
 20
392.684351
 11
381.669661
 21
383.18435
  0
LINE
  5
6DB
100
AcDbEntity
  8
M0
 62
     7
100
AcDbLine
 10
377.169661
 20
428.734352
 11
377.469661
 21
429.234352
  0
LINE
  5
6DC
100
AcDbEntity
  8
M0
 62
     7
100
AcDbLine
 10
377.469661
 20
431.234351
 11
377.169661
 21
432.234352
  0
LINE
  5
6DD
100
AcDbEntity
  8
M0
 62
     7
100
AcDbLine
 10
377.169661
 20
434.734352
 11
377.169661
 21
399.134352
  0
LINE
  5
6DE
100
AcDbEntity
  8
M0
 62
     7
100
AcDbLine
 10
370.669661
 20
441.634352
 11
370.669661
 21
451.434352
  0
LINE
  5
6DF
100
AcDbEntity
  8
M0
 62
     7
100
AcDbLine
 10
353.869661
 20
432.034352
 11
353.869661
 21
437.034351
  0
LINE
  5
6E0
100
AcDbEntity
  8
M0
 62
     7
100
AcDbLine
 10
353.869661
 20
396.834352
 11
353.869661
 21
401.834351
  0
LINE
  5
6E1
100
AcDbEntity
  8
M0
 62
     7
100
AcDbLine
 10
370.669661
 20
392.434352
 11
346.469661
 21
392.434352
  0
LINE
  5
6E2
100
AcDbEntity
  8
M0
 62
     7
100
AcDbLine
 10
370.669661
 20
382.434352
 11
370.669661
 21
392.434352
  0
LINE
  5
6E3
100
AcDbEntity
  8
M0
 62
     7
100
AcDbLine
 10
378.869662
 20
401.434352
 11
378.876345
 21
401.426756
  0
LINE
  5
6E4
100
AcDbEntity
  8
M0
 62
     7
100
AcDbLine
 10
378.876345
 20
401.426756
 11
378.896197
 21
401.404197
  0
LINE
  5
6E5
100
AcDbEntity
  8
M0
 62
     7
100
AcDbLine
 10
378.896197
 20
401.404197
 11
378.928609
 21
401.367364
  0
LINE
  5
6E6
100
AcDbEntity
  8
M0
 62
     7
100
AcDbLine
 10
378.928609
 20
401.367364
 11
378.972601
 21
401.317374
  0
LINE
  5
6E7
100
AcDbEntity
  8
M0
 62
     7
100
AcDbLine
 10
378.972601
 20
401.317374
 11
379.026834
 21
401.255745
  0
LINE
  5
6E8
100
AcDbEntity
  8
M0
 62
     7
100
AcDbLine
 10
379.026834
 20
401.255745
 11
379.089661
 21
401.184351
  0
LINE
  5
6E9
100
AcDbEntity
  8
M0
 62
     7
100
AcDbLine
 10
379.089661
 20
401.184351
 11
379.159173
 21
401.105362
  0
LINE
  5
6EA
100
AcDbEntity
  8
M0
 62
     7
100
AcDbLine
 10
379.159173
 20
401.105362
 11
379.233256
 21
401.021176
  0
LINE
  5
6EB
100
AcDbEntity
  8
M0
 62
     7
100
AcDbLine
 10
379.233256
 20
401.021176
 11
379.309662
 21
400.934351
  0
LINE
  5
6EC
100
AcDbEntity
  8
M0
100
AcDbLine
 10
80.344434
 20
421.434353
 11
81.639035
 21
418.665153
  0
LINE
  5
6ED
100
AcDbEntity
  8
M0
100
AcDbLine
 10
76.931395
 20
418.665153
 11
77.665233
 21
418.665153
  0
LINE
  5
6EE
100
AcDbEntity
  8
M0
100
AcDbLine
 10
89.282028
 20
421.434353
 11
88.548189
 21
421.434353
  0
LINE
  5
6EF
100
AcDbEntity
  8
M0
100
AcDbLine
 10
80.822121
 20
418.665153
 11
81.639035
 21
418.665153
  0
LINE
  5
6F0
100
AcDbEntity
  8
M0
100
AcDbLine
 10
78.966757
 20
418.665153
 11
79.20706
 21
419.260531
  0
LINE
  5
6F1
100
AcDbEntity
  8
M0
100
AcDbLine
 10
74.812957
 20
421.434353
 11
74.812957
 21
418.665153
  0
LINE
  5
6F2
100
AcDbEntity
  8
M0
100
AcDbLine
 10
106.282228
 20
414.234355
 11
100.282228
 21
414.234355
  0
LINE
  5
6F3
100
AcDbEntity
  8
M0
100
AcDbLine
 10
87.966657
 20
421.434353
 11
87.232819
 21
421.434353
  0
TEXT
  5
6F4
100
AcDbEntity
  8
M0
100
AcDbText
 10
93.407228
 20
409.434355
 40
2.0
  1
５６
 41
0.625
  7
STANDARD
100
AcDbText
  0
LINE
  5
6F5
100
AcDbEntity
  8
M0
100
AcDbLine
 10
87.232819
 20
420.326673
 11
85.751297
 21
420.326673
  0
TEXT
  5
6F6
100
AcDbEntity
  8
M0
100
AcDbText
 10
71.407223
 20
415.434356
 40
2.0
  1
ＬＡＴＣＨＥＤ
 41
0.625
  7
STANDARD
100
AcDbText
  0
LINE
  5
6F7
100
AcDbEntity
  8
M0
100
AcDbLine
 10
87.232819
 20
420.326673
 11
87.232819
 21
421.434353
  0
LINE
  5
6F8
100
AcDbEntity
  8
M0
100
AcDbLine
 10
84.641308
 20
419.662065
 11
83.868241
 21
419.662065
  0
TEXT
  5
6F9
100
AcDbEntity
  8
M0
100
AcDbText
 10
93.407228
 20
422.434354
 40
2.0
  1
５５
 41
0.625
  7
STANDARD
100
AcDbText
  0
LINE
  5
6FA
100
AcDbEntity
  8
M0
100
AcDbLine
 10
97.282228
 20
414.734355
 11
100.282228
 21
413.642444
  0
LINE
  5
6FB
100
AcDbEntity
  8
M0
100
AcDbLine
 10
78.786759
 20
421.434353
 11
75.80987
 21
421.434353
  0
LINE
  5
6FC
100
AcDbEntity
  8
M0
100
AcDbLine
 10
106.282228
 20
415.234355
 11
100.282228
 21
415.234355
  0
LINE
  5
6FD
100
AcDbEntity
  8
M0
100
AcDbLine
 10
79.444445
 20
421.434353
 11
78.149844
 21
418.665153
  0
LINE
  5
6FE
100
AcDbEntity
  8
M0
100
AcDbLine
 10
100.282228
 20
413.642444
 11
100.282228
 21
414.234355
  0
LINE
  5
6FF
100
AcDbEntity
  8
M0
100
AcDbLine
 10
76.931395
 20
420.963588
 11
76.931395
 21
418.665153
  0
LINE
  5
700
100
AcDbEntity
  8
M0
100
AcDbLine
 10
100.282228
 20
415.234355
 11
100.282228
 21
415.826266
  0
LINE
  5
701
100
AcDbEntity
  8
M0
100
AcDbLine
 10
97.282228
 20
414.734355
 11
100.282228
 21
415.826266
  0
LINE
  5
702
100
AcDbEntity
  8
M0
100
AcDbLine
 10
79.20706
 20
419.260531
 11
80.581819
 21
419.260531
  0
LINE
  5
703
100
AcDbEntity
  8
M0
100
AcDbLine
 10
80.402988
 20
419.703603
 11
79.894439
 21
420.963588
  0
LINE
  5
704
100
AcDbEntity
  8
M0
100
AcDbLine
 10
72.016066
 20
421.434353
 11
71.282228
 21
421.434353
  0
LINE
  5
705
100
AcDbEntity
  8
M0
100
AcDbLine
 10
74.231426
 20
421.434353
 11
73.497588
 21
421.434353
  0
LINE
  5
706
100
AcDbEntity
  8
M0
100
AcDbLine
 10
73.497588
 20
418.665153
 11
74.231426
 21
418.665153
  0
LINE
  5
707
100
AcDbEntity
  8
M0
100
AcDbLine
 10
106.282228
 20
414.234355
 11
106.282228
 21
415.234355
  0
ARC
  5
708
100
AcDbEntity
  8
M0
100
AcDbCircle
 10
113.745186
 20
412.634352
 40
0.5
100
AcDbArc
 50
270.0
 51
360.0
  0
ARC
  5
709
100
AcDbEntity
  8
M0
100
AcDbCircle
 10
113.745186
 20
421.234352
 40
0.5
100
AcDbArc
 50
0.0
 51
90.0
  0
LINE
  5
70A
100
AcDbEntity
  8
M0
100
AcDbLine
 10
114.245186
 20
421.234352
 11
114.245186
 21
412.634352
  0
LINE
  5
70B
100
AcDbEntity
  8
M0
100
AcDbLine
 10
85.751297
 20
418.665153
 11
85.751297
 21
419.8836
  0
LINE
  5
70C
100
AcDbEntity
  8
M0
100
AcDbLine
 10
75.80987
 20
420.963588
 11
76.931395
 21
420.963588
  0
LINE
  5
70D
100
AcDbEntity
  8
M0
100
AcDbLine
 10
109.382227
 20
421.734352
 11
113.745186
 21
421.734352
  0
LINE
  5
70E
100
AcDbEntity
  8
M0
100
AcDbLine
 10
75.80987
 20
421.434353
 11
75.80987
 21
420.963588
  0
LINE
  5
70F
100
AcDbEntity
  8
M0
100
AcDbLine
 10
98.682228
 20
401.734352
 11
106.482228
 21
401.734352
  0
LINE
  5
710
100
AcDbEntity
  8
M0
100
AcDbLine
 10
83.482228
 20
400.434353
 11
83.482228
 21
398.934353
  0
ARC
  5
711
100
AcDbEntity
  8
M0
100
AcDbCircle
 10
92.682228
 20
401.334352
 40
0.5
100
AcDbArc
 50
270.0
 51
360.0
  0
LINE
  5
712
100
AcDbEntity
  8
M0
100
AcDbLine
 10
75.882228
 20
399.934352
 11
75.782228
 21
399.934352
  0
LINE
  5
713
100
AcDbEntity
  8
M0
100
AcDbLine
 10
83.582228
 20
400.434353
 11
83.482228
 21
400.434353
  0
ARC
  5
714
100
AcDbEntity
  8
M0
100
AcDbCircle
 10
92.682228
 20
404.234352
 40
0.5
100
AcDbArc
 50
0.0
 51
90.0
  0
LINE
  5
715
100
AcDbEntity
  8
M0
100
AcDbLine
 10
75.882228
 20
398.934353
 11
75.882228
 21
399.934352
  0
LINE
  5
716
100
AcDbEntity
  8
M0
100
AcDbLine
 10
85.751297
 20
419.8836
 11
87.232819
 21
419.8836
  0
LINE
  5
717
100
AcDbEntity
  8
M0
100
AcDbLine
 10
85.751297
 20
421.434353
 11
85.01746
 21
421.434353
  0
LINE
  5
718
100
AcDbEntity
  8
M0
100
AcDbLine
 10
77.665233
 20
420.963588
 11
77.665233
 21
418.665153
  0
LINE
  5
719
100
AcDbEntity
  8
M0
100
AcDbLine
 10
88.548189
 20
418.665153
 11
89.282028
 21
418.665153
  0
LINE
  5
71A
100
AcDbEntity
  8
M0
100
AcDbLine
 10
77.665233
 20
420.963588
 11
78.786759
 21
420.963588
  0
LINE
  5
71B
100
AcDbEntity
  8
M0
100
AcDbLine
 10
71.282228
 20
418.665153
 11
72.016066
 21
418.665153
  0
LINE
  5
71C
100
AcDbEntity
  8
M0
100
AcDbLine
 10
80.402988
 20
419.703603
 11
79.385891
 21
419.703603
  0
LINE
  5
71D
100
AcDbEntity
  8
M0
100
AcDbLine
 10
87.966657
 20
418.665153
 11
87.966657
 21
421.434353
  0
LINE
  5
71E
100
AcDbEntity
  8
M0
100
AcDbLine
 10
85.01746
 20
421.434353
 11
85.01746
 21
418.665153
  0
LINE
  5
71F
100
AcDbEntity
  8
M0
100
AcDbLine
 10
75.546795
 20
421.434353
 11
75.546795
 21
418.665153
  0
LINE
  5
720
100
AcDbEntity
  8
M0
100
AcDbLine
 10
78.786759
 20
421.434353
 11
78.786759
 21
420.963588
  0
LINE
  5
721
100
AcDbEntity
  8
M0
100
AcDbLine
 10
87.232819
 20
418.665153
 11
87.232819
 21
419.8836
  0
LINE
  5
722
100
AcDbEntity
  8
M0
100
AcDbLine
 10
85.751297
 20
420.326673
 11
85.751297
 21
421.434353
  0
LINE
  5
723
100
AcDbEntity
  8
M0
100
AcDbLine
 10
80.035507
 20
404.248715
 11
78.267929
 21
402.481015
  0
LINE
  5
724
100
AcDbEntity
  8
M0
100
AcDbLine
 10
103.996054
 20
406.988046
 11
102.228476
 21
405.220468
  0
LINE
  5
725
100
AcDbEntity
  8
M0
100
AcDbLine
 10
81.272812
 20
401.24371
 11
78.091171
 21
404.425473
  0
LINE
  5
726
100
AcDbEntity
  8
M0
100
AcDbLine
 10
104.172812
 20
405.04371
 11
100.991171
 21
408.225473
  0
CIRCLE
  5
727
100
AcDbEntity
  8
M0
100
AcDbCircle
 10
102.582228
 20
427.234352
 40
3.0
  0
LINE
  5
728
100
AcDbEntity
  8
M0
100
AcDbLine
 10
81.096054
 20
403.188046
 11
79.328476
 21
401.420468
  0
LINE
  5
729
100
AcDbEntity
  8
M0
100
AcDbLine
 10
102.935507
 20
408.048715
 11
101.167929
 21
406.281015
  0
LINE
  5
72A
100
AcDbEntity
  8
M0
100
AcDbLine
 10
102.935507
 20
428.648715
 11
101.167929
 21
426.881015
  0
LINE
  5
72B
100
AcDbEntity
  8
M0
100
AcDbLine
 10
103.996054
 20
427.588046
 11
102.228476
 21
425.820468
  0
LINE
  5
72C
100
AcDbEntity
  8
M0
100
AcDbLine
 10
81.272812
 20
429.44371
 11
78.091171
 21
432.625473
  0
LINE
  5
72D
100
AcDbEntity
  8
M0
100
AcDbLine
 10
81.096054
 20
431.388046
 11
79.328476
 21
429.620468
  0
LINE
  5
72E
100
AcDbEntity
  8
M0
100
AcDbLine
 10
104.172812
 20
425.64371
 11
100.991171
 21
428.825473
  0
LINE
  5
72F
100
AcDbEntity
  8
M0
100
AcDbLine
 10
80.035507
 20
432.448715
 11
78.267929
 21
430.681015
  0
ARC
  5
730
100
AcDbEntity
  8
M0
100
AcDbCircle
 10
83.14825
 20
420.465132
 40
0.706146
100
AcDbArc
 50
2.247463
 51
18.629353
  0
ARC
  5
731
100
AcDbEntity
  8
M0
100
AcDbCircle
 10
83.717963
 20
420.484855
 40
0.89999
100
AcDbArc
 50
11.57091
 51
66.454309
  0
ARC
  5
732
100
AcDbEntity
  8
M0
100
AcDbCircle
 10
83.14825
 20
420.132828
 40
1.10768
100
AcDbArc
 50
248.465704
 51
287.487613
  0
ARC
  5
733
100
AcDbEntity
  8
M0
100
AcDbCircle
 10
83.14825
 20
419.966676
 40
1.10768
100
AcDbArc
 50
72.944058
 51
108.768683
  0
ARC
  5
734
100
AcDbEntity
  8
M0
100
AcDbCircle
 10
84.042701
 20
420.02206
 40
1.758441
100
AcDbArc
 50
160.088603
 51
196.481482
  0
ARC
  5
735
100
AcDbEntity
  8
M0
100
AcDbCircle
 10
83.14825
 20
419.662065
 40
0.719992
100
AcDbArc
 50
334.356275
 51
360.0
  0
ARC
  5
736
100
AcDbEntity
  8
M0
100
AcDbCircle
 10
82.980534
 20
419.707804
 40
0.650762
100
AcDbArc
 50
196.481517
 51
248.465722
  0
CIRCLE
  5
737
100
AcDbEntity
  8
M0
100
AcDbCircle
 10
102.582228
 20
406.634352
 40
3.0
  0
ARC
  5
738
100
AcDbEntity
  8
M0
100
AcDbCircle
 10
83.318816
 20
420.522632
 40
0.526148
100
AcDbArc
 50
18.629246
 51
72.943922
  0
CIRCLE
  5
739
100
AcDbEntity
  8
M0
100
AcDbCircle
 10
79.682228
 20
431.034352
 40
3.0
  0
ARC
  5
73A
100
AcDbEntity
  8
M0
100
AcDbCircle
 10
83.001238
 20
420.399297
 40
0.650762
100
AcDbArc
 50
108.768698
 51
160.088638
  0
ARC
  5
73B
100
AcDbEntity
  8
M0
100
AcDbCircle
 10
83.739763
 20
419.599311
 40
0.886144
100
AcDbArc
 50
292.42259
 51
346.150643
  0
CIRCLE
  5
73C
100
AcDbEntity
  8
M0
100
AcDbCircle
 10
79.682228
 20
402.834352
 40
3.0
  0
ARC
  5
73D
100
AcDbEntity
  8
M0
100
AcDbCircle
 10
83.14825
 20
420.36821
 40
1.481521
100
AcDbArc
 50
4.824937
 51
11.570943
  0
LINE
  5
73E
100
AcDbEntity
  8
M0
100
AcDbLine
 10
72.016066
 20
419.8836
 11
73.497588
 21
419.8836
  0
LINE
  5
73F
100
AcDbEntity
  8
M0
100
AcDbLine
 10
80.822121
 20
418.665153
 11
80.581819
 21
419.260531
  0
LINE
  5
740
100
AcDbEntity
  8
M0
100
AcDbLine
 10
74.812957
 20
418.665153
 11
75.546795
 21
418.665153
  0
ARC
  5
741
100
AcDbEntity
  8
M0
100
AcDbCircle
 10
83.314401
 20
420.02206
 40
1.799979
100
AcDbArc
 50
161.72132
 51
190.751551
  0
ARC
  5
742
100
AcDbEntity
  8
M0
100
AcDbCircle
 10
82.788508
 20
420.195766
 40
1.246139
100
AcDbArc
 50
109.456972
 51
161.721309
  0
LINE
  5
743
100
AcDbEntity
  8
M0
100
AcDbLine
 10
84.624521
 20
420.492824
 11
83.853852
 21
420.492824
  0
LINE
  5
744
100
AcDbEntity
  8
M0
100
AcDbLine
 10
73.497588
 20
421.434353
 11
73.497588
 21
420.326673
  0
LINE
  5
745
100
AcDbEntity
  8
M0
100
AcDbLine
 10
80.344434
 20
421.434353
 11
79.444445
 21
421.434353
  0
LINE
  5
746
100
AcDbEntity
  8
M0
100
AcDbLine
 10
72.016066
 20
421.434353
 11
72.016066
 21
420.326673
  0
LINE
  5
747
100
AcDbEntity
  8
M0
100
AcDbLine
 10
79.385891
 20
419.703603
 11
79.894439
 21
420.963588
  0
LINE
  5
748
100
AcDbEntity
  8
M0
100
AcDbLine
 10
74.231426
 20
421.434353
 11
74.231426
 21
418.665153
  0
LINE
  5
749
100
AcDbEntity
  8
M0
100
AcDbLine
 10
78.149844
 20
418.665153
 11
78.966757
 21
418.665153
  0
LINE
  5
74A
100
AcDbEntity
  8
M0
100
AcDbLine
 10
72.016066
 20
419.8836
 11
72.016066
 21
418.665153
  0
LINE
  5
74B
100
AcDbEntity
  8
M0
100
AcDbLine
 10
85.01746
 20
418.665153
 11
85.751297
 21
418.665153
  0
LINE
  5
74C
100
AcDbEntity
  8
M0
100
AcDbLine
 10
87.232819
 20
418.665153
 11
87.966657
 21
418.665153
  0
LINE
  5
74D
100
AcDbEntity
  8
M0
100
AcDbLine
 10
73.497588
 20
419.8836
 11
73.497588
 21
418.665153
  0
TEXT
  5
74E
100
AcDbEntity
  8
M0
100
AcDbText
 10
99.807222
 20
417.634353
 40
2.0
  1
ＯＦＦ
 41
0.625
  7
STANDARD
100
AcDbText
  0
LINE
  5
74F
100
AcDbEntity
  8
M0
100
AcDbLine
 10
75.546795
 20
421.434353
 11
74.812957
 21
421.434353
  0
LINE
  5
750
100
AcDbEntity
  8
M0
100
AcDbLine
 10
73.497588
 20
420.326673
 11
72.016066
 21
420.326673
  0
TEXT
  5
751
100
AcDbEntity
  8
M0
100
AcDbText
 10
78.307223
 20
409.434355
 40
2.0
  1
Ｅ２
 41
0.625
  7
STANDARD
100
AcDbText
  0
LINE
  5
752
100
AcDbEntity
  8
M0
100
AcDbLine
 10
88.548189
 20
418.665153
 11
88.548189
 21
421.434353
  0
ARC
  5
753
100
AcDbEntity
  8
M0
100
AcDbCircle
 10
83.323
 20
419.578174
 40
0.526148
100
AcDbArc
 50
287.487588
 51
334.356243
  0
ARC
  5
754
100
AcDbEntity
  8
M0
100
AcDbCircle
 10
82.79749
 20
419.923906
 40
1.273831
100
AcDbArc
 50
190.75155
 51
252.447271
  0
ARC
  5
755
100
AcDbEntity
  8
M0
100
AcDbCircle
 10
83.14825
 20
419.745141
 40
1.495367
100
AcDbArc
 50
346.150651
 51
356.815254
  0
TEXT
  5
756
100
AcDbEntity
  8
M0
100
AcDbText
 10
71.407223
 20
412.934355
 40
2.0
  1
ＣＯＮＴＡＣＴＯＲ
 41
0.625
  7
STANDARD
100
AcDbText
  0
TEXT
  5
757
100
AcDbEntity
  8
M0
100
AcDbText
 10
78.307223
 20
422.434354
 40
2.0
  1
Ｅ１
 41
0.625
  7
STANDARD
100
AcDbText
  0
ARC
  5
758
100
AcDbEntity
  8
M0
100
AcDbCircle
 10
83.14825
 20
421.032819
 40
2.436895
100
AcDbArc
 50
252.447278
 51
292.42262
  0
LINE
  5
759
100
AcDbEntity
  8
M0
100
AcDbLine
 10
109.782228
 20
433.934352
 11
109.782228
 21
424.134352
  0
LINE
  5
75A
100
AcDbEntity
  8
M0
100
AcDbLine
 10
106.482228
 20
423.134351
 11
106.482228
 21
433.934352
  0
LINE
  5
75B
100
AcDbEntity
  8
M0
100
AcDbLine
 10
109.782228
 20
424.134352
 11
112.282228
 21
424.134352
  0
LINE
  5
75C
100
AcDbEntity
  8
M0
100
AcDbLine
 10
98.682228
 20
433.934352
 11
98.682228
 21
423.134351
  0
LINE
  5
75D
100
AcDbEntity
  8
M0
100
AcDbLine
 10
75.782228
 20
426.934351
 11
83.582228
 21
426.934351
  0
LINE
  5
75E
100
AcDbEntity
  8
M0
100
AcDbLine
 10
112.282228
 20
421.934352
 11
109.782228
 21
421.934352
  0
LINE
  5
75F
100
AcDbEntity
  8
M0
100
AcDbLine
 10
98.682228
 20
423.134351
 11
106.482228
 21
423.134351
  0
LINE
  5
760
100
AcDbEntity
  8
M0
100
AcDbLine
 10
75.782228
 20
434.934352
 11
75.782228
 21
433.934352
  0
LINE
  5
761
100
AcDbEntity
  8
M0
100
AcDbLine
 10
83.582228
 20
433.934352
 11
83.582228
 21
434.934352
  0
LINE
  5
762
100
AcDbEntity
  8
M0
100
AcDbLine
 10
91.282228
 20
404.834353
 11
91.282228
 21
404.734351
  0
LINE
  5
763
100
AcDbEntity
  8
M0
100
AcDbLine
 10
114.282228
 20
423.134351
 11
114.282228
 21
422.934352
  0
LINE
  5
764
100
AcDbEntity
  8
M0
100
AcDbLine
 10
112.282228
 20
424.134352
 11
113.282228
 21
424.134352
  0
LINE
  5
765
100
AcDbEntity
  8
M0
100
AcDbLine
 10
93.182228
 20
404.834353
 11
93.182228
 21
404.734351
  0
LINE
  5
766
100
AcDbEntity
  8
M0
100
AcDbLine
 10
113.282228
 20
421.934352
 11
112.282228
 21
421.934352
  0
ARC
  5
767
100
AcDbEntity
  8
M0
100
AcDbCircle
 10
88.082228
 20
404.234352
 40
0.5
100
AcDbArc
 50
90.0
 51
180.0
  0
ARC
  5
768
100
AcDbEntity
  8
M0
100
AcDbCircle
 10
113.282228
 20
422.934352
 40
1.0
100
AcDbArc
 50
270.0
 51
360.0
  0
LINE
  5
769
100
AcDbEntity
  8
M0
100
AcDbLine
 10
106.332228
 20
430.484352
 11
106.332228
 21
423.984352
  0
ARC
  5
76A
100
AcDbEntity
  8
M0
100
AcDbCircle
 10
108.782228
 20
433.934352
 40
1.0
100
AcDbArc
 50
0.0
 51
90.0
  0
ARC
  5
76B
100
AcDbEntity
  8
M0
100
AcDbCircle
 10
109.782228
 20
421.434352
 40
0.5
100
AcDbArc
 50
90.0
 51
180.0
  0
ARC
  5
76C
100
AcDbEntity
  8
M0
100
AcDbCircle
 10
88.082228
 20
401.334352
 40
0.5
100
AcDbArc
 50
180.0
 51
270.0
  0
ARC
  5
76D
100
AcDbEntity
  8
M0
100
AcDbCircle
 10
113.282228
 20
423.134352
 40
1.0
100
AcDbArc
 50
0.0
 51
90.0
  0
LINE
  5
76E
100
AcDbEntity
  8
M0
100
AcDbLine
 10
67.282228
 20
434.934352
 11
113.282228
 21
434.934352
  0
LINE
  5
76F
100
AcDbEntity
  8
M0
100
AcDbLine
 10
67.282228
 20
420.134352
 11
66.782229
 21
420.134352
  0
LINE
  5
770
100
AcDbEntity
  8
M0
100
AcDbLine
 10
83.582228
 20
426.934351
 11
83.582228
 21
433.934352
  0
LINE
  5
771
100
AcDbEntity
  8
M0
100
AcDbLine
 10
99.332228
 20
430.984352
 11
105.832228
 21
430.984352
  0
LINE
  5
772
100
AcDbEntity
  8
M0
100
AcDbLine
 10
105.832228
 20
423.484352
 11
99.332228
 21
423.484352
  0
LINE
  5
773
100
AcDbEntity
  8
M0
100
AcDbLine
 10
75.782228
 20
433.934352
 11
75.782228
 21
426.934351
  0
LINE
  5
774
100
AcDbEntity
  8
M0
100
AcDbLine
 10
114.282228
 20
416.934353
 11
114.245186
 21
416.934353
  0
LINE
  5
775
100
AcDbEntity
  8
M0
100
AcDbLine
 10
76.432228
 20
434.784352
 11
82.932228
 21
434.784352
  0
ARC
  5
776
100
AcDbEntity
  8
M0
100
AcDbCircle
 10
99.332228
 20
403.384352
 40
0.5
100
AcDbArc
 50
180.0
 51
270.0
  0
LINE
  5
777
100
AcDbEntity
  8
M0
100
AcDbLine
 10
82.932228
 20
399.084352
 11
76.432228
 21
399.084352
  0
ARC
  5
778
100
AcDbEntity
  8
M0
100
AcDbCircle
 10
82.932228
 20
406.084352
 40
0.5
100
AcDbArc
 50
0.0
 51
90.0
  0
ARC
  5
779
100
AcDbEntity
  8
M0
100
AcDbCircle
 10
82.932228
 20
399.584352
 40
0.5
100
AcDbArc
 50
270.0
 51
360.0
  0
LINE
  5
77A
100
AcDbEntity
  8
M0
100
AcDbLine
 10
75.932228
 20
399.584352
 11
75.932228
 21
406.084351
  0
ARC
  5
77B
100
AcDbEntity
  8
M0
100
AcDbCircle
 10
99.332228
 20
409.884352
 40
0.5
100
AcDbArc
 50
90.0
 51
180.0
  0
LINE
  5
77C
100
AcDbEntity
  8
M0
100
AcDbLine
 10
75.932228
 20
427.784352
 11
75.932228
 21
434.284352
  0
ARC
  5
77D
100
AcDbEntity
  8
M0
100
AcDbCircle
 10
76.432228
 20
434.284352
 40
0.5
100
AcDbArc
 50
90.0
 51
180.0
  0
LINE
  5
77E
100
AcDbEntity
  8
M0
100
AcDbLine
 10
83.432228
 20
434.284352
 11
83.432228
 21
427.784352
  0
LINE
  5
77F
100
AcDbEntity
  8
M0
100
AcDbLine
 10
76.432228
 20
406.584352
 11
82.932228
 21
406.584352
  0
LINE
  5
780
100
AcDbEntity
  8
M0
100
AcDbLine
 10
83.432228
 20
406.084352
 11
83.432228
 21
399.584353
  0
LINE
  5
781
100
AcDbEntity
  8
M0
100
AcDbLine
 10
82.932228
 20
427.284352
 11
76.432228
 21
427.284352
  0
ARC
  5
782
100
AcDbEntity
  8
M0
100
AcDbCircle
 10
76.432228
 20
427.784352
 40
0.5
100
AcDbArc
 50
180.0
 51
270.0
  0
ARC
  5
783
100
AcDbEntity
  8
M0
100
AcDbCircle
 10
99.332228
 20
430.484352
 40
0.5
100
AcDbArc
 50
90.0
 51
180.0
  0
ARC
  5
784
100
AcDbEntity
  8
M0
100
AcDbCircle
 10
99.332228
 20
423.984352
 40
0.5
100
AcDbArc
 50
180.0
 51
270.0
  0
LINE
  5
785
100
AcDbEntity
  8
M0
100
AcDbLine
 10
105.832228
 20
402.884353
 11
99.332228
 21
402.884353
  0
ARC
  5
786
100
AcDbEntity
  8
M0
100
AcDbCircle
 10
105.832228
 20
403.384352
 40
0.5
100
AcDbArc
 50
270.0
 51
360.0
  0
LINE
  5
787
100
AcDbEntity
  8
M0
100
AcDbLine
 10
93.182228
 20
404.734351
 11
93.182228
 21
402.93435
  0
LINE
  5
788
100
AcDbEntity
  8
M0
100
AcDbLine
 10
98.832228
 20
403.38435
 11
98.832228
 21
409.884352
  0
ARC
  5
789
100
AcDbEntity
  8
M0
100
AcDbCircle
 10
105.832228
 20
409.884352
 40
0.5
100
AcDbArc
 50
0.0
 51
90.0
  0
ARC
  5
78A
100
AcDbEntity
  8
M0
100
AcDbCircle
 10
82.932228
 20
427.784352
 40
0.5
100
AcDbArc
 50
270.0
 51
360.0
  0
ARC
  5
78B
100
AcDbEntity
  8
M0
100
AcDbCircle
 10
82.932228
 20
434.284352
 40
0.5
100
AcDbArc
 50
0.0
 51
90.0
  0
ARC
  5
78C
100
AcDbEntity
  8
M0
100
AcDbCircle
 10
76.432228
 20
406.084352
 40
0.5
100
AcDbArc
 50
90.0
 51
180.0
  0
LINE
  5
78D
100
AcDbEntity
  8
M0
100
AcDbLine
 10
106.332228
 20
409.884352
 11
106.332228
 21
403.38435
  0
LINE
  5
78E
100
AcDbEntity
  8
M0
100
AcDbLine
 10
99.332228
 20
410.384352
 11
105.832228
 21
410.384352
  0
ARC
  5
78F
100
AcDbEntity
  8
M0
100
AcDbCircle
 10
76.432228
 20
399.584352
 40
0.5
100
AcDbArc
 50
180.0
 51
270.0
  0
LINE
  5
790
100
AcDbEntity
  8
M0
100
AcDbLine
 10
106.482228
 20
432.134352
 11
98.682228
 21
432.134352
  0
LINE
  5
791
100
AcDbEntity
  8
M0
100
AcDbLine
 10
93.182228
 20
401.334353
 11
93.182228
 21
401.83435
  0
LINE
  5
792
100
AcDbEntity
  8
M0
100
AcDbLine
 10
66.282228
 20
399.934352
 11
66.282228
 21
406.434352
  0
LINE
  5
793
100
AcDbEntity
  8
M0
100
AcDbLine
 10
88.082228
 20
404.734351
 11
92.682228
 21
404.734351
  0
LINE
  5
794
100
AcDbEntity
  8
M0
100
AcDbLine
 10
92.682228
 20
400.834352
 11
88.082228
 21
400.834352
  0
LINE
  5
795
100
AcDbEntity
  8
M0
100
AcDbLine
 10
93.482228
 20
404.634351
 11
93.482228
 21
402.93435
  0
LINE
  5
796
100
AcDbEntity
  8
M0
100
AcDbLine
 10
93.182228
 20
404.234352
 11
93.182228
 21
401.83435
  0
LINE
  5
797
100
AcDbEntity
  8
M0
100
AcDbLine
 10
66.782229
 20
413.734352
 11
67.282228
 21
413.734352
  0
LINE
  5
798
100
AcDbEntity
  8
M0
100
AcDbLine
 10
114.282228
 20
433.934352
 11
114.282228
 21
399.934352
  0
LINE
  5
799
100
AcDbEntity
  8
M0
100
AcDbLine
 10
67.282228
 20
413.734352
 11
67.282228
 21
420.134352
  0
LINE
  5
79A
100
AcDbEntity
  8
M0
100
AcDbLine
 10
93.482228
 20
400.434353
 11
87.582228
 21
400.434353
  0
LINE
  5
79B
100
AcDbEntity
  8
M0
100
AcDbLine
 10
69.782227
 20
398.934353
 11
67.282228
 21
398.934353
  0
LINE
  5
79C
100
AcDbEntity
  8
M0
100
AcDbLine
 10
66.282228
 20
399.934352
 11
66.282228
 21
433.934352
  0
LINE
  5
79D
100
AcDbEntity
  8
M0
100
AcDbLine
 10
114.245186
 20
416.934353
 11
114.282228
 21
416.934353
  0
ARC
  5
79E
100
AcDbEntity
  8
M0
100
AcDbCircle
 10
74.782228
 20
399.934352
 40
1.0
100
AcDbArc
 50
270.0
 51
360.0
  0
ARC
  5
79F
100
AcDbEntity
  8
M0
100
AcDbCircle
 10
67.282228
 20
399.934352
 40
1.0
100
AcDbArc
 50
180.0
 51
270.0
  0
ARC
  5
7A0
100
AcDbEntity
  8
M0
100
AcDbCircle
 10
86.582228
 20
399.934352
 40
1.0
100
AcDbArc
 50
270.0
 51
360.0
  0
ARC
  5
7A1
100
AcDbEntity
  8
M0
100
AcDbCircle
 10
113.282228
 20
399.934352
 40
1.0
100
AcDbArc
 50
270.0
 51
360.0
  0
ARC
  5
7A2
100
AcDbEntity
  8
M0
100
AcDbCircle
 10
83.14825
 20
419.177455
 40
2.326127
100
AcDbArc
 50
66.454301
 51
109.456969
  0
ARC
  5
7A3
100
AcDbEntity
  8
M0
100
AcDbCircle
 10
84.582228
 20
399.934352
 40
1.0
100
AcDbArc
 50
180.0
 51
270.0
  0
ARC
  5
7A4
100
AcDbEntity
  8
M0
100
AcDbCircle
 10
66.782228
 20
413.234352
 40
0.5
100
AcDbArc
 50
90.0
 51
180.0
  0
ARC
  5
7A5
100
AcDbEntity
  8
M0
100
AcDbCircle
 10
109.782228
 20
412.434352
 40
0.5
100
AcDbArc
 50
180.0
 51
270.0
  0
ARC
  5
7A6
100
AcDbEntity
  8
M0
100
AcDbCircle
 10
108.782228
 20
399.934352
 40
1.0
100
AcDbArc
 50
270.0
 51
360.0
  0
ARC
  5
7A7
100
AcDbEntity
  8
M0
100
AcDbCircle
 10
113.282228
 20
410.934352
 40
1.0
100
AcDbArc
 50
0.0
 51
90.0
  0
ARC
  5
7A8
100
AcDbEntity
  8
M0
100
AcDbCircle
 10
97.682228
 20
399.934352
 40
1.0
100
AcDbArc
 50
270.0
 51
360.0
  0
ARC
  5
7A9
100
AcDbEntity
  8
M0
100
AcDbCircle
 10
94.482228
 20
399.934352
 40
1.0
100
AcDbArc
 50
180.0
 51
270.0
  0
ARC
  5
7AA
100
AcDbEntity
  8
M0
100
AcDbCircle
 10
113.282228
 20
410.734352
 40
1.0
100
AcDbArc
 50
270.0
 51
360.0
  0
ARC
  5
7AB
100
AcDbEntity
  8
M0
100
AcDbCircle
 10
107.482228
 20
399.934352
 40
1.0
100
AcDbArc
 50
180.0
 51
270.0
  0
ARC
  5
7AC
100
AcDbEntity
  8
M0
100
AcDbCircle
 10
105.832228
 20
423.984352
 40
0.5
100
AcDbArc
 50
270.0
 51
360.0
  0
LINE
  5
7AD
100
AcDbEntity
  8
M0
100
AcDbLine
 10
113.745186
 20
412.134351
 11
109.382227
 21
412.134351
  0
ARC
  5
7AE
100
AcDbEntity
  8
M0
100
AcDbCircle
 10
113.282228
 20
433.934352
 40
1.0
100
AcDbArc
 50
0.0
 51
90.0
  0
LINE
  5
7AF
100
AcDbEntity
  8
M0
100
AcDbLine
 10
112.282228
 20
409.734352
 11
113.282228
 21
409.734352
  0
LINE
  5
7B0
100
AcDbEntity
  8
M0
100
AcDbLine
 10
114.282228
 20
410.934352
 11
114.282228
 21
410.734352
  0
ARC
  5
7B1
100
AcDbEntity
  8
M0
100
AcDbCircle
 10
105.832228
 20
430.484352
 40
0.5
100
AcDbArc
 50
0.0
 51
90.0
  0
LINE
  5
7B2
100
AcDbEntity
  8
M0
100
AcDbLine
 10
112.282228
 20
411.934352
 11
113.282228
 21
411.934352
  0
ARC
  5
7B3
100
AcDbEntity
  8
M0
100
AcDbCircle
 10
97.682228
 20
433.934352
 40
1.0
100
AcDbArc
 50
0.0
 51
90.0
  0
ARC
  5
7B4
100
AcDbEntity
  8
M0
100
AcDbCircle
 10
84.582228
 20
433.934352
 40
1.0
100
AcDbArc
 50
90.0
 51
180.0
  0
LINE
  5
7B5
100
AcDbEntity
  8
M0
100
AcDbLine
 10
98.832228
 20
423.984352
 11
98.832228
 21
430.484352
  0
ARC
  5
7B6
100
AcDbEntity
  8
M0
100
AcDbCircle
 10
67.282228
 20
433.934352
 40
1.0
100
AcDbArc
 50
90.0
 51
180.0
  0
ARC
  5
7B7
100
AcDbEntity
  8
M0
100
AcDbCircle
 10
66.782228
 20
420.634352
 40
0.5
100
AcDbArc
 50
180.0
 51
270.0
  0
ARC
  5
7B8
100
AcDbEntity
  8
M0
100
AcDbCircle
 10
107.482228
 20
433.934352
 40
1.0
100
AcDbArc
 50
90.0
 51
180.0
  0
ARC
  5
7B9
100
AcDbEntity
  8
M0
100
AcDbCircle
 10
74.782228
 20
433.934352
 40
1.0
100
AcDbArc
 50
0.0
 51
90.0
  0
LINE
  5
7BA
100
AcDbEntity
  8
M0
100
AcDbLine
 10
87.582228
 20
404.834353
 11
87.582228
 21
399.934352
  0
LINE
  5
7BB
100
AcDbEntity
  8
M0
100
AcDbLine
 10
83.582228
 20
399.934352
 11
83.582228
 21
406.934351
  0
LINE
  5
7BC
100
AcDbEntity
  8
M0
100
AcDbLine
 10
93.482228
 20
399.934352
 11
93.482228
 21
404.834353
  0
LINE
  5
7BD
100
AcDbEntity
  8
M0
100
AcDbLine
 10
75.782228
 20
406.934351
 11
75.782228
 21
399.934352
  0
LINE
  5
7BE
100
AcDbEntity
  8
M0
100
AcDbLine
 10
113.282228
 20
398.934353
 11
67.282228
 21
398.934353
  0
LINE
  5
7BF
100
AcDbEntity
  8
M0
100
AcDbLine
 10
93.482228
 20
404.834353
 11
87.582228
 21
404.834353
  0
LINE
  5
7C0
100
AcDbEntity
  8
M0
100
AcDbLine
 10
83.582228
 20
406.934351
 11
75.782228
 21
406.934351
  0
LINE
  5
7C1
100
AcDbEntity
  8
M0
100
AcDbLine
 10
109.782228
 20
409.734352
 11
109.782228
 21
399.934352
  0
LINE
  5
7C2
100
AcDbEntity
  8
M0
100
AcDbLine
 10
109.282227
 20
421.434352
 11
109.282227
 21
412.434351
  0
LINE
  5
7C3
100
AcDbEntity
  8
M0
100
AcDbLine
 10
112.282228
 20
409.734352
 11
109.782228
 21
409.734352
  0
LINE
  5
7C4
100
AcDbEntity
  8
M0
100
AcDbLine
 10
106.482228
 20
410.734352
 11
98.682228
 21
410.734352
  0
LINE
  5
7C5
100
AcDbEntity
  8
M0
100
AcDbLine
 10
98.682228
 20
410.734352
 11
98.682228
 21
399.934352
  0
LINE
  5
7C6
100
AcDbEntity
  8
M0
100
AcDbLine
 10
109.782228
 20
411.934352
 11
112.282228
 21
411.934352
  0
LINE
  5
7C7
100
AcDbEntity
  8
M0
100
AcDbLine
 10
106.482228
 20
399.934352
 11
106.482228
 21
410.734352
  0
LINE
  5
7C8
100
AcDbEntity
  8
M0
100
AcDbLine
 10
69.782228
 20
425.434353
 11
96.782228
 21
425.434353
  0
LINE
  5
7C9
100
AcDbEntity
  8
M0
100
AcDbLine
 10
69.282228
 20
424.934353
 11
69.282228
 21
408.934353
  0
LINE
  5
7CA
100
AcDbEntity
  8
M0
100
AcDbLine
 10
69.782228
 20
408.434353
 11
96.782228
 21
408.434353
  0
LINE
  5
7CB
100
AcDbEntity
  8
M0
100
AcDbLine
 10
107.282228
 20
412.934353
 11
107.282228
 21
420.934353
  0
LINE
  5
7CC
100
AcDbEntity
  8
M0
100
AcDbLine
 10
106.782228
 20
412.434353
 11
97.782228
 21
412.434353
  0
LINE
  5
7CD
100
AcDbEntity
  8
M0
100
AcDbLine
 10
106.782228
 20
421.434353
 11
97.782228
 21
421.434353
  0
LINE
  5
7CE
100
AcDbEntity
  8
M0
100
AcDbLine
 10
97.282228
 20
408.934353
 11
97.282228
 21
411.934353
  0
LINE
  5
7CF
100
AcDbEntity
  8
M0
100
AcDbLine
 10
97.282228
 20
421.934353
 11
97.282228
 21
424.934353
  0
ARC
  5
7D0
100
AcDbEntity
  8
M0
100
AcDbCircle
 10
69.782228
 20
424.934353
 40
0.5
100
AcDbArc
 50
90.0
 51
180.0
  0
ARC
  5
7D1
100
AcDbEntity
  8
M0
100
AcDbCircle
 10
96.782228
 20
424.934353
 40
0.5
100
AcDbArc
 50
0.0
 51
90.0
  0
ARC
  5
7D2
100
AcDbEntity
  8
M0
100
AcDbCircle
 10
97.782228
 20
421.934353
 40
0.5
100
AcDbArc
 50
180.0
 51
270.0
  0
ARC
  5
7D3
100
AcDbEntity
  8
M0
100
AcDbCircle
 10
106.782228
 20
420.934353
 40
0.5
100
AcDbArc
 50
0.0
 51
90.0
  0
ARC
  5
7D4
100
AcDbEntity
  8
M0
100
AcDbCircle
 10
106.782228
 20
412.934353
 40
0.5
100
AcDbArc
 50
270.0
 51
360.0
  0
ARC
  5
7D5
100
AcDbEntity
  8
M0
100
AcDbCircle
 10
97.782228
 20
411.934353
 40
0.5
100
AcDbArc
 50
90.0
 51
180.0
  0
ARC
  5
7D6
100
AcDbEntity
  8
M0
100
AcDbCircle
 10
96.782228
 20
408.934353
 40
0.5
100
AcDbArc
 50
270.0
 51
360.0
  0
ARC
  5
7D7
100
AcDbEntity
  8
M0
100
AcDbCircle
 10
69.782228
 20
408.934353
 40
0.5
100
AcDbArc
 50
180.0
 51
270.0
  0
HATCH
  5
7D8
100
AcDbEntity
  8
M0
 62
     7
100
AcDbHatch
 10
0.0
 20
0.0
210
0.0
220
0.0
230
1.0
  2
SOLID
 70
     1
 71
     0
 91
        1
 92
        1
 93
        8
 72
     1
 10
77.665233
 20
418.665153
 11
77.665233
 21
420.963588
 72
     1
 10
77.665233
 20
420.963588
 11
78.786759
 21
420.963588
 72
     1
 10
78.786759
 20
420.963588
 11
78.786759
 21
421.434353
 72
     1
 10
78.786759
 20
421.434353
 11
75.80987
 21
421.434353
 72
     1
 10
75.80987
 20
421.434353
 11
75.80987
 21
420.963588
 72
     1
 10
75.80987
 20
420.963588
 11
76.931395
 21
420.963588
 72
     1
 10
76.931395
 20
420.963588
 11
76.931395
 21
418.665153
 72
     1
 10
76.931395
 20
418.665153
 11
77.665233
 21
418.665153
 97
        0
 75
     0
 76
     1
 98
        1
 10
0.0
 20
0.0
  0
HATCH
  5
7D9
100
AcDbEntity
  8
M0
 62
     7
100
AcDbHatch
 10
0.0
 20
0.0
210
0.0
220
0.0
230
1.0
  2
SOLID
 70
     1
 71
     0
 91
        1
 92
        1
 93
        4
 72
     1
 10
89.282028
 20
418.665153
 11
89.282028
 21
421.434353
 72
     1
 10
89.282028
 20
421.434353
 11
88.548189
 21
421.434353
 72
     1
 10
88.548189
 20
421.434353
 11
88.548189
 21
418.665153
 72
     1
 10
88.548189
 20
418.665153
 11
89.282028
 21
418.665153
 97
        0
 75
     0
 76
     1
 98
        1
 10
0.0
 20
0.0
  0
HATCH
  5
7DA
100
AcDbEntity
  8
M0
 62
     7
100
AcDbHatch
 10
0.0
 20
0.0
210
0.0
220
0.0
230
1.0
  2
SOLID
 70
     1
 71
     0
 91
        1
 92
        1
 93
       20
 72
     2
 10
83.14825
 20
421.032819
 40
2.436895
 50
252.447306
 51
292.422669
 73
     1
 72
     2
 10
83.739763
 20
419.599311
 40
0.886144
 50
292.422669
 51
346.150662
 73
     1
 72
     2
 10
83.14825
 20
419.745141
 40
1.495367
 50
346.150662
 51
356.81526
 73
     1
 72
     1
 10
84.641308
 20
419.662065
 11
83.868242
 21
419.662065
 72
     2
 10
83.14825
 20
419.662065
 40
0.719992
 50
0.0
 51
25.643738
 73
     0
 72
     2
 10
83.323
 20
419.578174
 40
0.526148
 50
25.643738
 51
72.512342
 73
     0
 72
     2
 10
83.14825
 20
420.132828
 40
1.10768
 50
72.512342
 51
111.534322
 73
     0
 72
     2
 10
82.980534
 20
419.707804
 40
0.650762
 50
111.534322
 51
163.518484
 73
     0
 72
     2
 10
84.042701
 20
420.02206
 40
1.758441
 50
163.518484
 51
199.911347
 73
     0
 72
     2
 10
83.001238
 20
420.399297
 40
0.650762
 50
199.911347
 51
251.231339
 73
     0
 72
     2
 10
83.14825
 20
419.966676
 40
1.10768
 50
251.231339
 51
287.055921
 73
     0
 72
     2
 10
83.318816
 20
420.522632
 40
0.526148
 50
287.055921
 51
341.370551
 73
     0
 72
     2
 10
83.14825
 20
420.465132
 40
0.706146
 50
341.370551
 51
357.752539
 73
     0
 72
     1
 10
83.853853
 20
420.492824
 11
84.624521
 21
420.492824
 72
     2
 10
83.14825
 20
420.36821
 40
1.481521
 50
4.824977
 51
11.570993
 73
     1
 72
     2
 10
83.717963
 20
420.484855
 40
0.89999
 50
11.570993
 51
66.454336
 73
     1
 72
     2
 10
83.14825
 20
419.177455
 40
2.326127
 50
66.454336
 51
109.456965
 73
     1
 72
     2
 10
82.788508
 20
420.195766
 40
1.246139
 50
109.456965
 51
161.721239
 73
     1
 72
     2
 10
83.314401
 20
420.02206
 40
1.799979
 50
161.721239
 51
190.751611
 73
     1
 72
     2
 10
82.79749
 20
419.923906
 40
1.273831
 50
190.751611
 51
252.447306
 73
     1
 97
        0
 75
     0
 76
     1
 98
        1
 10
0.0
 20
0.0
  0
HATCH
  5
7DB
100
AcDbEntity
  8
M0
 62
     7
100
AcDbHatch
 10
0.0
 20
0.0
210
0.0
220
0.0
230
1.0
  2
SOLID
 70
     1
 71
     0
 91
        1
 92
        1
 93
        4
 72
     1
 10
75.546795
 20
418.665153
 11
75.546795
 21
421.434353
 72
     1
 10
75.546795
 20
421.434353
 11
74.812957
 21
421.434353
 72
     1
 10
74.812957
 20
421.434353
 11
74.812957
 21
418.665153
 72
     1
 10
74.812957
 20
418.665153
 11
75.546795
 21
418.665153
 97
        0
 75
     0
 76
     1
 98
        1
 10
0.0
 20
0.0
  0
HATCH
  5
7DC
100
AcDbEntity
  8
M0
 62
     7
100
AcDbHatch
 10
0.0
 20
0.0
210
0.0
220
0.0
230
1.0
  2
SOLID
 70
     1
 71
     0
 91
        1
 92
        1
 93
       12
 72
     1
 10
85.751297
 20
418.665153
 11
85.751297
 21
419.8836
 72
     1
 10
85.751297
 20
419.8836
 11
87.232819
 21
419.8836
 72
     1
 10
87.232819
 20
419.8836
 11
87.232819
 21
418.665153
 72
     1
 10
87.232819
 20
418.665153
 11
87.966657
 21
418.665153
 72
     1
 10
87.966657
 20
418.665153
 11
87.966657
 21
421.434353
 72
     1
 10
87.966657
 20
421.434353
 11
87.232819
 21
421.434353
 72
     1
 10
87.232819
 20
421.434353
 11
87.232819
 21
420.326673
 72
     1
 10
87.232819
 20
420.326673
 11
85.751297
 21
420.326673
 72
     1
 10
85.751297
 20
420.326673
 11
85.751297
 21
421.434353
 72
     1
 10
85.751297
 20
421.434353
 11
85.01746
 21
421.434353
 72
     1
 10
85.01746
 20
421.434353
 11
85.01746
 21
418.665153
 72
     1
 10
85.01746
 20
418.665153
 11
85.751297
 21
418.665153
 97
        0
 75
     0
 76
     1
 98
        1
 10
0.0
 20
0.0
  0
HATCH
  5
7DD
100
AcDbEntity
  8
M0
 62
     7
100
AcDbHatch
 10
0.0
 20
0.0
210
0.0
220
0.0
230
1.0
  2
SOLID
 70
     1
 71
     0
 91
        2
 92
        1
 93
        8
 72
     1
 10
79.20706
 20
419.260531
 11
80.581819
 21
419.260531
 72
     1
 10
80.581819
 20
419.260531
 11
80.822121
 21
418.665153
 72
     1
 10
80.822121
 20
418.665153
 11
81.639035
 21
418.665153
 72
     1
 10
81.639035
 20
418.665153
 11
80.344434
 21
421.434353
 72
     1
 10
80.344434
 20
421.434353
 11
79.444445
 21
421.434353
 72
     1
 10
79.444445
 20
421.434353
 11
78.149844
 21
418.665153
 72
     1
 10
78.149844
 20
418.665153
 11
78.966757
 21
418.665153
 72
     1
 10
78.966757
 20
418.665153
 11
79.20706
 21
419.260531
 97
        0
 92
       16
 93
        3
 72
     1
 10
79.894439
 20
420.963588
 11
79.385891
 21
419.703603
 72
     1
 10
79.385891
 20
419.703603
 11
80.402988
 21
419.703603
 72
     1
 10
80.402988
 20
419.703603
 11
79.894439
 21
420.963588
 97
        0
 75
     0
 76
     1
 98
        1
 10
0.0
 20
0.0
  0
HATCH
  5
7DE
100
AcDbEntity
  8
M0
 62
     7
100
AcDbHatch
 10
0.0
 20
0.0
210
0.0
220
0.0
230
1.0
  2
SOLID
 70
     1
 71
     0
 91
        1
 92
        1
 93
        7
 72
     1
 10
100.282228
 20
415.826266
 11
97.282228
 21
414.734355
 72
     1
 10
97.282228
 20
414.734355
 11
100.282228
 21
413.642444
 72
     1
 10
100.282228
 20
413.642444
 11
100.282228
 21
414.234355
 72
     1
 10
100.282228
 20
414.234355
 11
106.282228
 21
414.234355
 72
     1
 10
106.282228
 20
414.234355
 11
106.282228
 21
415.234355
 72
     1
 10
106.282228
 20
415.234355
 11
100.282228
 21
415.234355
 72
     1
 10
100.282228
 20
415.234355
 11
100.282228
 21
415.826266
 97
        0
 75
     0
 76
     1
 98
        1
 10
0.0
 20
0.0
  0
HATCH
  5
7DF
100
AcDbEntity
  8
M0
 62
     7
100
AcDbHatch
 10
0.0
 20
0.0
210
0.0
220
0.0
230
1.0
  2
SOLID
 70
     1
 71
     0
 91
        1
 92
        1
 93
       12
 72
     1
 10
72.016066
 20
418.665153
 11
72.016066
 21
419.8836
 72
     1
 10
72.016066
 20
419.8836
 11
73.497588
 21
419.8836
 72
     1
 10
73.497588
 20
419.8836
 11
73.497588
 21
418.665153
 72
     1
 10
73.497588
 20
418.665153
 11
74.231426
 21
418.665153
 72
     1
 10
74.231426
 20
418.665153
 11
74.231426
 21
421.434353
 72
     1
 10
74.231426
 20
421.434353
 11
73.497588
 21
421.434353
 72
     1
 10
73.497588
 20
421.434353
 11
73.497588
 21
420.326673
 72
     1
 10
73.497588
 20
420.326673
 11
72.016066
 21
420.326673
 72
     1
 10
72.016066
 20
420.326673
 11
72.016066
 21
421.434353
 72
     1
 10
72.016066
 20
421.434353
 11
71.282228
 21
421.434353
 72
     1
 10
71.282228
 20
421.434353
 11
71.282228
 21
418.665153
 72
     1
 10
71.282228
 20
418.665153
 11
72.016066
 21
418.665153
 97
        0
 75
     0
 76
     1
 98
        1
 10
0.0
 20
0.0
  0
LINE
  5
7E0
100
AcDbEntity
  8
M0
100
AcDbLine
 10
153.14443
 20
421.434353
 11
154.439031
 21
418.665153
  0
LINE
  5
7E1
100
AcDbEntity
  8
M0
100
AcDbLine
 10
149.731392
 20
418.665153
 11
150.465229
 21
418.665153
  0
LINE
  5
7E2
100
AcDbEntity
  8
M0
100
AcDbLine
 10
162.082024
 20
421.434353
 11
161.348186
 21
421.434353
  0
LINE
  5
7E3
100
AcDbEntity
  8
M0
100
AcDbLine
 10
153.622118
 20
418.665153
 11
154.439031
 21
418.665153
  0
LINE
  5
7E4
100
AcDbEntity
  8
M0
100
AcDbLine
 10
151.766754
 20
418.665153
 11
152.007057
 21
419.260531
  0
LINE
  5
7E5
100
AcDbEntity
  8
M0
100
AcDbLine
 10
147.612954
 20
421.434353
 11
147.612954
 21
418.665153
  0
LINE
  5
7E6
100
AcDbEntity
  8
M0
100
AcDbLine
 10
179.082224
 20
414.234355
 11
173.082224
 21
414.234355
  0
LINE
  5
7E7
100
AcDbEntity
  8
M0
100
AcDbLine
 10
160.766654
 20
421.434353
 11
160.032816
 21
421.434353
  0
TEXT
  5
7E8
100
AcDbEntity
  8
M0
100
AcDbText
 10
166.207224
 20
409.434355
 40
2.0
  1
５６
 41
0.625
  7
STANDARD
100
AcDbText
  0
LINE
  5
7E9
100
AcDbEntity
  8
M0
100
AcDbLine
 10
160.032816
 20
420.326673
 11
158.551294
 21
420.326673
  0
TEXT
  5
7EA
100
AcDbEntity
  8
M0
100
AcDbText
 10
144.207219
 20
415.434356
 40
2.0
  1
ＬＡＴＣＨＥＤ
 41
0.625
  7
STANDARD
100
AcDbText
  0
LINE
  5
7EB
100
AcDbEntity
  8
M0
100
AcDbLine
 10
160.032816
 20
420.326673
 11
160.032816
 21
421.434353
  0
LINE
  5
7EC
100
AcDbEntity
  8
M0
100
AcDbLine
 10
157.441304
 20
419.662065
 11
156.668238
 21
419.662065
  0
TEXT
  5
7ED
100
AcDbEntity
  8
M0
100
AcDbText
 10
166.207224
 20
422.434354
 40
2.0
  1
５５
 41
0.625
  7
STANDARD
100
AcDbText
  0
LINE
  5
7EE
100
AcDbEntity
  8
M0
100
AcDbLine
 10
170.082224
 20
414.734355
 11
173.082224
 21
413.642444
  0
LINE
  5
7EF
100
AcDbEntity
  8
M0
100
AcDbLine
 10
151.586756
 20
421.434353
 11
148.609866
 21
421.434353
  0
LINE
  5
7F0
100
AcDbEntity
  8
M0
100
AcDbLine
 10
179.082224
 20
415.234355
 11
173.082224
 21
415.234355
  0
LINE
  5
7F1
100
AcDbEntity
  8
M0
100
AcDbLine
 10
152.244441
 20
421.434353
 11
150.94984
 21
418.665153
  0
LINE
  5
7F2
100
AcDbEntity
  8
M0
100
AcDbLine
 10
173.082224
 20
413.642444
 11
173.082224
 21
414.234355
  0
LINE
  5
7F3
100
AcDbEntity
  8
M0
100
AcDbLine
 10
149.731392
 20
420.963588
 11
149.731392
 21
418.665153
  0
LINE
  5
7F4
100
AcDbEntity
  8
M0
100
AcDbLine
 10
173.082224
 20
415.234355
 11
173.082224
 21
415.826266
  0
LINE
  5
7F5
100
AcDbEntity
  8
M0
100
AcDbLine
 10
170.082224
 20
414.734355
 11
173.082224
 21
415.826266
  0
LINE
  5
7F6
100
AcDbEntity
  8
M0
100
AcDbLine
 10
152.007057
 20
419.260531
 11
153.381815
 21
419.260531
  0
LINE
  5
7F7
100
AcDbEntity
  8
M0
100
AcDbLine
 10
153.202985
 20
419.703603
 11
152.694436
 21
420.963588
  0
LINE
  5
7F8
100
AcDbEntity
  8
M0
100
AcDbLine
 10
144.816062
 20
421.434353
 11
144.082224
 21
421.434353
  0
LINE
  5
7F9
100
AcDbEntity
  8
M0
100
AcDbLine
 10
147.031422
 20
421.434353
 11
146.297584
 21
421.434353
  0
LINE
  5
7FA
100
AcDbEntity
  8
M0
100
AcDbLine
 10
146.297584
 20
418.665153
 11
147.031422
 21
418.665153
  0
LINE
  5
7FB
100
AcDbEntity
  8
M0
100
AcDbLine
 10
179.082224
 20
414.234355
 11
179.082224
 21
415.234355
  0
ARC
  5
7FC
100
AcDbEntity
  8
M0
100
AcDbCircle
 10
186.545183
 20
412.634352
 40
0.5
100
AcDbArc
 50
270.0
 51
360.0
  0
ARC
  5
7FD
100
AcDbEntity
  8
M0
100
AcDbCircle
 10
186.545183
 20
421.234352
 40
0.5
100
AcDbArc
 50
0.0
 51
90.0
  0
LINE
  5
7FE
100
AcDbEntity
  8
M0
100
AcDbLine
 10
187.045182
 20
421.234352
 11
187.045182
 21
412.634352
  0
LINE
  5
7FF
100
AcDbEntity
  8
M0
100
AcDbLine
 10
158.551294
 20
418.665153
 11
158.551294
 21
419.8836
  0
LINE
  5
800
100
AcDbEntity
  8
M0
100
AcDbLine
 10
148.609866
 20
420.963588
 11
149.731392
 21
420.963588
  0
LINE
  5
801
100
AcDbEntity
  8
M0
100
AcDbLine
 10
182.182224
 20
421.734352
 11
186.545183
 21
421.734352
  0
LINE
  5
802
100
AcDbEntity
  8
M0
100
AcDbLine
 10
148.609866
 20
421.434353
 11
148.609866
 21
420.963588
  0
LINE
  5
803
100
AcDbEntity
  8
M0
100
AcDbLine
 10
171.482224
 20
401.734352
 11
179.282225
 21
401.734352
  0
LINE
  5
804
100
AcDbEntity
  8
M0
100
AcDbLine
 10
156.282224
 20
400.434353
 11
156.282224
 21
398.934353
  0
ARC
  5
805
100
AcDbEntity
  8
M0
100
AcDbCircle
 10
165.482224
 20
401.334352
 40
0.5
100
AcDbArc
 50
270.0
 51
360.0
  0
LINE
  5
806
100
AcDbEntity
  8
M0
100
AcDbLine
 10
148.682225
 20
399.934352
 11
148.582225
 21
399.934352
  0
LINE
  5
807
100
AcDbEntity
  8
M0
100
AcDbLine
 10
156.382225
 20
400.434353
 11
156.282224
 21
400.434353
  0
ARC
  5
808
100
AcDbEntity
  8
M0
100
AcDbCircle
 10
165.482224
 20
404.234352
 40
0.5
100
AcDbArc
 50
0.0
 51
90.0
  0
LINE
  5
809
100
AcDbEntity
  8
M0
100
AcDbLine
 10
148.682225
 20
398.934353
 11
148.682225
 21
399.934352
  0
LINE
  5
80A
100
AcDbEntity
  8
M0
100
AcDbLine
 10
158.551294
 20
419.8836
 11
160.032816
 21
419.8836
  0
LINE
  5
80B
100
AcDbEntity
  8
M0
100
AcDbLine
 10
158.551294
 20
421.434353
 11
157.817456
 21
421.434353
  0
LINE
  5
80C
100
AcDbEntity
  8
M0
100
AcDbLine
 10
150.465229
 20
420.963588
 11
150.465229
 21
418.665153
  0
LINE
  5
80D
100
AcDbEntity
  8
M0
100
AcDbLine
 10
161.348186
 20
418.665153
 11
162.082024
 21
418.665153
  0
LINE
  5
80E
100
AcDbEntity
  8
M0
100
AcDbLine
 10
150.465229
 20
420.963588
 11
151.586756
 21
420.963588
  0
LINE
  5
80F
100
AcDbEntity
  8
M0
100
AcDbLine
 10
144.082224
 20
418.665153
 11
144.816062
 21
418.665153
  0
LINE
  5
810
100
AcDbEntity
  8
M0
100
AcDbLine
 10
153.202985
 20
419.703603
 11
152.185887
 21
419.703603
  0
LINE
  5
811
100
AcDbEntity
  8
M0
100
AcDbLine
 10
160.766654
 20
418.665153
 11
160.766654
 21
421.434353
  0
LINE
  5
812
100
AcDbEntity
  8
M0
100
AcDbLine
 10
157.817456
 20
421.434353
 11
157.817456
 21
418.665153
  0
LINE
  5
813
100
AcDbEntity
  8
M0
100
AcDbLine
 10
148.346792
 20
421.434353
 11
148.346792
 21
418.665153
  0
LINE
  5
814
100
AcDbEntity
  8
M0
100
AcDbLine
 10
151.586756
 20
421.434353
 11
151.586756
 21
420.963588
  0
LINE
  5
815
100
AcDbEntity
  8
M0
100
AcDbLine
 10
160.032816
 20
418.665153
 11
160.032816
 21
419.8836
  0
LINE
  5
816
100
AcDbEntity
  8
M0
100
AcDbLine
 10
158.551294
 20
420.326673
 11
158.551294
 21
421.434353
  0
LINE
  5
817
100
AcDbEntity
  8
M0
100
AcDbLine
 10
152.835504
 20
404.248715
 11
151.067926
 21
402.481015
  0
LINE
  5
818
100
AcDbEntity
  8
M0
100
AcDbLine
 10
176.79605
 20
406.988046
 11
175.028472
 21
405.220468
  0
LINE
  5
819
100
AcDbEntity
  8
M0
100
AcDbLine
 10
154.072808
 20
401.24371
 11
150.891168
 21
404.425473
  0
LINE
  5
81A
100
AcDbEntity
  8
M0
100
AcDbLine
 10
176.972808
 20
405.04371
 11
173.791167
 21
408.225473
  0
CIRCLE
  5
81B
100
AcDbEntity
  8
M0
100
AcDbCircle
 10
175.382224
 20
427.234352
 40
3.0
  0
LINE
  5
81C
100
AcDbEntity
  8
M0
100
AcDbLine
 10
153.896051
 20
403.188046
 11
152.128472
 21
401.420468
  0
LINE
  5
81D
100
AcDbEntity
  8
M0
100
AcDbLine
 10
175.735503
 20
408.048715
 11
173.967925
 21
406.281015
  0
LINE
  5
81E
100
AcDbEntity
  8
M0
100
AcDbLine
 10
175.735503
 20
428.648715
 11
173.967925
 21
426.881015
  0
LINE
  5
81F
100
AcDbEntity
  8
M0
100
AcDbLine
 10
176.79605
 20
427.588046
 11
175.028472
 21
425.820468
  0
LINE
  5
820
100
AcDbEntity
  8
M0
100
AcDbLine
 10
154.072808
 20
429.44371
 11
150.891168
 21
432.625473
  0
LINE
  5
821
100
AcDbEntity
  8
M0
100
AcDbLine
 10
153.896051
 20
431.388046
 11
152.128472
 21
429.620468
  0
LINE
  5
822
100
AcDbEntity
  8
M0
100
AcDbLine
 10
176.972808
 20
425.64371
 11
173.791167
 21
428.825473
  0
LINE
  5
823
100
AcDbEntity
  8
M0
100
AcDbLine
 10
152.835504
 20
432.448715
 11
151.067926
 21
430.681015
  0
ARC
  5
824
100
AcDbEntity
  8
M0
100
AcDbCircle
 10
155.948246
 20
420.465132
 40
0.706146
100
AcDbArc
 50
2.247463
 51
18.629353
  0
ARC
  5
825
100
AcDbEntity
  8
M0
100
AcDbCircle
 10
156.51796
 20
420.484855
 40
0.89999
100
AcDbArc
 50
11.57091
 51
66.454309
  0
ARC
  5
826
100
AcDbEntity
  8
M0
100
AcDbCircle
 10
155.948246
 20
420.132828
 40
1.10768
100
AcDbArc
 50
248.465704
 51
287.487613
  0
ARC
  5
827
100
AcDbEntity
  8
M0
100
AcDbCircle
 10
155.948246
 20
419.966676
 40
1.10768
100
AcDbArc
 50
72.944058
 51
108.768683
  0
ARC
  5
828
100
AcDbEntity
  8
M0
100
AcDbCircle
 10
156.842697
 20
420.02206
 40
1.758441
100
AcDbArc
 50
160.088603
 51
196.481482
  0
ARC
  5
829
100
AcDbEntity
  8
M0
100
AcDbCircle
 10
155.948246
 20
419.662065
 40
0.719992
100
AcDbArc
 50
334.356275
 51
360.0
  0
ARC
  5
82A
100
AcDbEntity
  8
M0
100
AcDbCircle
 10
155.780531
 20
419.707804
 40
0.650762
100
AcDbArc
 50
196.481517
 51
248.465722
  0
CIRCLE
  5
82B
100
AcDbEntity
  8
M0
100
AcDbCircle
 10
175.382224
 20
406.634352
 40
3.0
  0
ARC
  5
82C
100
AcDbEntity
  8
M0
100
AcDbCircle
 10
156.118813
 20
420.522632
 40
0.526148
100
AcDbArc
 50
18.629246
 51
72.943922
  0
CIRCLE
  5
82D
100
AcDbEntity
  8
M0
100
AcDbCircle
 10
152.482225
 20
431.034352
 40
3.0
  0
ARC
  5
82E
100
AcDbEntity
  8
M0
100
AcDbCircle
 10
155.801234
 20
420.399297
 40
0.650762
100
AcDbArc
 50
108.768698
 51
160.088638
  0
ARC
  5
82F
100
AcDbEntity
  8
M0
100
AcDbCircle
 10
156.539759
 20
419.599311
 40
0.886144
100
AcDbArc
 50
292.42259
 51
346.150643
  0
CIRCLE
  5
830
100
AcDbEntity
  8
M0
100
AcDbCircle
 10
152.482225
 20
402.834352
 40
3.0
  0
ARC
  5
831
100
AcDbEntity
  8
M0
100
AcDbCircle
 10
155.948246
 20
420.36821
 40
1.481521
100
AcDbArc
 50
4.824937
 51
11.570943
  0
LINE
  5
832
100
AcDbEntity
  8
M0
100
AcDbLine
 10
144.816062
 20
419.8836
 11
146.297584
 21
419.8836
  0
LINE
  5
833
100
AcDbEntity
  8
M0
100
AcDbLine
 10
153.622118
 20
418.665153
 11
153.381815
 21
419.260531
  0
LINE
  5
834
100
AcDbEntity
  8
M0
100
AcDbLine
 10
147.612954
 20
418.665153
 11
148.346792
 21
418.665153
  0
ARC
  5
835
100
AcDbEntity
  8
M0
100
AcDbCircle
 10
156.114398
 20
420.02206
 40
1.799979
100
AcDbArc
 50
161.72132
 51
190.751551
  0
ARC
  5
836
100
AcDbEntity
  8
M0
100
AcDbCircle
 10
155.588504
 20
420.195766
 40
1.246139
100
AcDbArc
 50
109.456972
 51
161.721309
  0
LINE
  5
837
100
AcDbEntity
  8
M0
100
AcDbLine
 10
157.424518
 20
420.492824
 11
156.653848
 21
420.492824
  0
LINE
  5
838
100
AcDbEntity
  8
M0
100
AcDbLine
 10
146.297584
 20
421.434353
 11
146.297584
 21
420.326673
  0
LINE
  5
839
100
AcDbEntity
  8
M0
100
AcDbLine
 10
153.14443
 20
421.434353
 11
152.244441
 21
421.434353
  0
LINE
  5
83A
100
AcDbEntity
  8
M0
100
AcDbLine
 10
144.816062
 20
421.434353
 11
144.816062
 21
420.326673
  0
LINE
  5
83B
100
AcDbEntity
  8
M0
100
AcDbLine
 10
152.185887
 20
419.703603
 11
152.694436
 21
420.963588
  0
LINE
  5
83C
100
AcDbEntity
  8
M0
100
AcDbLine
 10
147.031422
 20
421.434353
 11
147.031422
 21
418.665153
  0
LINE
  5
83D
100
AcDbEntity
  8
M0
100
AcDbLine
 10
150.94984
 20
418.665153
 11
151.766754
 21
418.665153
  0
LINE
  5
83E
100
AcDbEntity
  8
M0
100
AcDbLine
 10
144.816062
 20
419.8836
 11
144.816062
 21
418.665153
  0
LINE
  5
83F
100
AcDbEntity
  8
M0
100
AcDbLine
 10
157.817456
 20
418.665153
 11
158.551294
 21
418.665153
  0
LINE
  5
840
100
AcDbEntity
  8
M0
100
AcDbLine
 10
160.032816
 20
418.665153
 11
160.766654
 21
418.665153
  0
LINE
  5
841
100
AcDbEntity
  8
M0
100
AcDbLine
 10
146.297584
 20
419.8836
 11
146.297584
 21
418.665153
  0
TEXT
  5
842
100
AcDbEntity
  8
M0
100
AcDbText
 10
172.607219
 20
417.634353
 40
2.0
  1
ＯＦＦ
 41
0.625
  7
STANDARD
100
AcDbText
  0
LINE
  5
843
100
AcDbEntity
  8
M0
100
AcDbLine
 10
148.346792
 20
421.434353
 11
147.612954
 21
421.434353
  0
LINE
  5
844
100
AcDbEntity
  8
M0
100
AcDbLine
 10
146.297584
 20
420.326673
 11
144.816062
 21
420.326673
  0
TEXT
  5
845
100
AcDbEntity
  8
M0
100
AcDbText
 10
151.107219
 20
409.434355
 40
2.0
  1
Ｅ２
 41
0.625
  7
STANDARD
100
AcDbText
  0
LINE
  5
846
100
AcDbEntity
  8
M0
100
AcDbLine
 10
161.348186
 20
418.665153
 11
161.348186
 21
421.434353
  0
ARC
  5
847
100
AcDbEntity
  8
M0
100
AcDbCircle
 10
156.122997
 20
419.578174
 40
0.526148
100
AcDbArc
 50
287.487588
 51
334.356243
  0
ARC
  5
848
100
AcDbEntity
  8
M0
100
AcDbCircle
 10
155.597486
 20
419.923906
 40
1.273831
100
AcDbArc
 50
190.75155
 51
252.447271
  0
ARC
  5
849
100
AcDbEntity
  8
M0
100
AcDbCircle
 10
155.948246
 20
419.745141
 40
1.495367
100
AcDbArc
 50
346.150651
 51
356.815254
  0
TEXT
  5
84A
100
AcDbEntity
  8
M0
100
AcDbText
 10
144.207219
 20
412.934355
 40
2.0
  1
ＣＯＮＴＡＣＴＯＲ
 41
0.625
  7
STANDARD
100
AcDbText
  0
TEXT
  5
84B
100
AcDbEntity
  8
M0
100
AcDbText
 10
151.107219
 20
422.434354
 40
2.0
  1
Ｅ１
 41
0.625
  7
STANDARD
100
AcDbText
  0
ARC
  5
84C
100
AcDbEntity
  8
M0
100
AcDbCircle
 10
155.948246
 20
421.032819
 40
2.436895
100
AcDbArc
 50
252.447278
 51
292.42262
  0
LINE
  5
84D
100
AcDbEntity
  8
M0
100
AcDbLine
 10
182.582225
 20
433.934352
 11
182.582225
 21
424.134352
  0
LINE
  5
84E
100
AcDbEntity
  8
M0
100
AcDbLine
 10
179.282225
 20
423.134351
 11
179.282225
 21
433.934352
  0
LINE
  5
84F
100
AcDbEntity
  8
M0
100
AcDbLine
 10
182.582225
 20
424.134352
 11
185.082224
 21
424.134352
  0
LINE
  5
850
100
AcDbEntity
  8
M0
100
AcDbLine
 10
171.482224
 20
433.934352
 11
171.482224
 21
423.134351
  0
LINE
  5
851
100
AcDbEntity
  8
M0
100
AcDbLine
 10
148.582225
 20
426.934351
 11
156.382225
 21
426.934351
  0
LINE
  5
852
100
AcDbEntity
  8
M0
100
AcDbLine
 10
185.082224
 20
421.934352
 11
182.582225
 21
421.934352
  0
LINE
  5
853
100
AcDbEntity
  8
M0
100
AcDbLine
 10
171.482224
 20
423.134351
 11
179.282225
 21
423.134351
  0
LINE
  5
854
100
AcDbEntity
  8
M0
100
AcDbLine
 10
148.582225
 20
434.934352
 11
148.582225
 21
433.934352
  0
LINE
  5
855
100
AcDbEntity
  8
M0
100
AcDbLine
 10
156.382225
 20
433.934352
 11
156.382225
 21
434.934352
  0
LINE
  5
856
100
AcDbEntity
  8
M0
100
AcDbLine
 10
164.082225
 20
404.834353
 11
164.082225
 21
404.734351
  0
LINE
  5
857
100
AcDbEntity
  8
M0
100
AcDbLine
 10
187.082225
 20
423.134351
 11
187.082225
 21
422.934352
  0
LINE
  5
858
100
AcDbEntity
  8
M0
100
AcDbLine
 10
185.082224
 20
424.134352
 11
186.082225
 21
424.134352
  0
LINE
  5
859
100
AcDbEntity
  8
M0
100
AcDbLine
 10
165.982224
 20
404.834353
 11
165.982224
 21
404.734351
  0
LINE
  5
85A
100
AcDbEntity
  8
M0
100
AcDbLine
 10
186.082225
 20
421.934352
 11
185.082224
 21
421.934352
  0
ARC
  5
85B
100
AcDbEntity
  8
M0
100
AcDbCircle
 10
160.882224
 20
404.234352
 40
0.5
100
AcDbArc
 50
90.0
 51
180.0
  0
ARC
  5
85C
100
AcDbEntity
  8
M0
100
AcDbCircle
 10
186.082224
 20
422.934352
 40
1.0
100
AcDbArc
 50
270.0
 51
360.0
  0
LINE
  5
85D
100
AcDbEntity
  8
M0
100
AcDbLine
 10
179.132224
 20
430.484352
 11
179.132224
 21
423.984352
  0
ARC
  5
85E
100
AcDbEntity
  8
M0
100
AcDbCircle
 10
181.582224
 20
433.934352
 40
1.0
100
AcDbArc
 50
0.0
 51
90.0
  0
ARC
  5
85F
100
AcDbEntity
  8
M0
100
AcDbCircle
 10
182.582224
 20
421.434352
 40
0.5
100
AcDbArc
 50
90.0
 51
180.0
  0
ARC
  5
860
100
AcDbEntity
  8
M0
100
AcDbCircle
 10
160.882224
 20
401.334352
 40
0.5
100
AcDbArc
 50
180.0
 51
270.0
  0
ARC
  5
861
100
AcDbEntity
  8
M0
100
AcDbCircle
 10
186.082224
 20
423.134352
 40
1.0
100
AcDbArc
 50
0.0
 51
90.0
  0
LINE
  5
862
100
AcDbEntity
  8
M0
100
AcDbLine
 10
140.082224
 20
434.934352
 11
186.082224
 21
434.934352
  0
LINE
  5
863
100
AcDbEntity
  8
M0
100
AcDbLine
 10
140.082224
 20
420.134352
 11
139.582225
 21
420.134352
  0
LINE
  5
864
100
AcDbEntity
  8
M0
100
AcDbLine
 10
156.382225
 20
426.934351
 11
156.382225
 21
433.934352
  0
LINE
  5
865
100
AcDbEntity
  8
M0
100
AcDbLine
 10
172.132224
 20
430.984352
 11
178.632224
 21
430.984352
  0
LINE
  5
866
100
AcDbEntity
  8
M0
100
AcDbLine
 10
178.632224
 20
423.484352
 11
172.132224
 21
423.484352
  0
LINE
  5
867
100
AcDbEntity
  8
M0
100
AcDbLine
 10
148.582225
 20
433.934352
 11
148.582225
 21
426.934351
  0
LINE
  5
868
100
AcDbEntity
  8
M0
100
AcDbLine
 10
187.082225
 20
416.934353
 11
187.045182
 21
416.934353
  0
LINE
  5
869
100
AcDbEntity
  8
M0
100
AcDbLine
 10
149.232224
 20
434.784352
 11
155.732224
 21
434.784352
  0
ARC
  5
86A
100
AcDbEntity
  8
M0
100
AcDbCircle
 10
172.132224
 20
403.384352
 40
0.5
100
AcDbArc
 50
180.0
 51
270.0
  0
LINE
  5
86B
100
AcDbEntity
  8
M0
100
AcDbLine
 10
155.732224
 20
399.084352
 11
149.232225
 21
399.084352
  0
ARC
  5
86C
100
AcDbEntity
  8
M0
100
AcDbCircle
 10
155.732224
 20
406.084352
 40
0.5
100
AcDbArc
 50
0.0
 51
90.0
  0
ARC
  5
86D
100
AcDbEntity
  8
M0
100
AcDbCircle
 10
155.732224
 20
399.584352
 40
0.5
100
AcDbArc
 50
270.0
 51
360.0
  0
LINE
  5
86E
100
AcDbEntity
  8
M0
100
AcDbLine
 10
148.732225
 20
399.584352
 11
148.732225
 21
406.084351
  0
ARC
  5
86F
100
AcDbEntity
  8
M0
100
AcDbCircle
 10
172.132224
 20
409.884352
 40
0.5
100
AcDbArc
 50
90.0
 51
180.0
  0
LINE
  5
870
100
AcDbEntity
  8
M0
100
AcDbLine
 10
148.732225
 20
427.784352
 11
148.732225
 21
434.284352
  0
ARC
  5
871
100
AcDbEntity
  8
M0
100
AcDbCircle
 10
149.232224
 20
434.284352
 40
0.5
100
AcDbArc
 50
90.0
 51
180.0
  0
LINE
  5
872
100
AcDbEntity
  8
M0
100
AcDbLine
 10
156.232224
 20
434.284352
 11
156.232224
 21
427.784352
  0
LINE
  5
873
100
AcDbEntity
  8
M0
100
AcDbLine
 10
149.232224
 20
406.584352
 11
155.732224
 21
406.584352
  0
LINE
  5
874
100
AcDbEntity
  8
M0
100
AcDbLine
 10
156.232224
 20
406.084352
 11
156.232224
 21
399.584353
  0
LINE
  5
875
100
AcDbEntity
  8
M0
100
AcDbLine
 10
155.732224
 20
427.284352
 11
149.232225
 21
427.284352
  0
ARC
  5
876
100
AcDbEntity
  8
M0
100
AcDbCircle
 10
149.232224
 20
427.784352
 40
0.5
100
AcDbArc
 50
180.0
 51
270.0
  0
ARC
  5
877
100
AcDbEntity
  8
M0
100
AcDbCircle
 10
172.132224
 20
430.484352
 40
0.5
100
AcDbArc
 50
90.0
 51
180.0
  0
ARC
  5
878
100
AcDbEntity
  8
M0
100
AcDbCircle
 10
172.132224
 20
423.984352
 40
0.5
100
AcDbArc
 50
180.0
 51
270.0
  0
LINE
  5
879
100
AcDbEntity
  8
M0
100
AcDbLine
 10
178.632224
 20
402.884353
 11
172.132225
 21
402.884353
  0
ARC
  5
87A
100
AcDbEntity
  8
M0
100
AcDbCircle
 10
178.632224
 20
403.384352
 40
0.5
100
AcDbArc
 50
270.0
 51
360.0
  0
LINE
  5
87B
100
AcDbEntity
  8
M0
100
AcDbLine
 10
165.982224
 20
404.734351
 11
165.982224
 21
402.93435
  0
LINE
  5
87C
100
AcDbEntity
  8
M0
100
AcDbLine
 10
171.632225
 20
403.38435
 11
171.632225
 21
409.884352
  0
ARC
  5
87D
100
AcDbEntity
  8
M0
100
AcDbCircle
 10
178.632224
 20
409.884352
 40
0.5
100
AcDbArc
 50
0.0
 51
90.0
  0
ARC
  5
87E
100
AcDbEntity
  8
M0
100
AcDbCircle
 10
155.732224
 20
427.784352
 40
0.5
100
AcDbArc
 50
270.0
 51
360.0
  0
ARC
  5
87F
100
AcDbEntity
  8
M0
100
AcDbCircle
 10
155.732224
 20
434.284352
 40
0.5
100
AcDbArc
 50
0.0
 51
90.0
  0
ARC
  5
880
100
AcDbEntity
  8
M0
100
AcDbCircle
 10
149.232224
 20
406.084352
 40
0.5
100
AcDbArc
 50
90.0
 51
180.0
  0
LINE
  5
881
100
AcDbEntity
  8
M0
100
AcDbLine
 10
179.132224
 20
409.884352
 11
179.132224
 21
403.38435
  0
LINE
  5
882
100
AcDbEntity
  8
M0
100
AcDbLine
 10
172.132224
 20
410.384352
 11
178.632224
 21
410.384352
  0
ARC
  5
883
100
AcDbEntity
  8
M0
100
AcDbCircle
 10
149.232224
 20
399.584352
 40
0.5
100
AcDbArc
 50
180.0
 51
270.0
  0
LINE
  5
884
100
AcDbEntity
  8
M0
100
AcDbLine
 10
179.282225
 20
432.134352
 11
171.482224
 21
432.134352
  0
LINE
  5
885
100
AcDbEntity
  8
M0
100
AcDbLine
 10
165.982224
 20
401.334353
 11
165.982224
 21
401.83435
  0
LINE
  5
886
100
AcDbEntity
  8
M0
100
AcDbLine
 10
139.082224
 20
399.934352
 11
139.082224
 21
406.434352
  0
LINE
  5
887
100
AcDbEntity
  8
M0
100
AcDbLine
 10
160.882225
 20
404.734351
 11
165.482225
 21
404.734351
  0
LINE
  5
888
100
AcDbEntity
  8
M0
100
AcDbLine
 10
165.482225
 20
400.834352
 11
160.882225
 21
400.834352
  0
LINE
  5
889
100
AcDbEntity
  8
M0
100
AcDbLine
 10
166.282224
 20
404.634351
 11
166.282224
 21
402.93435
  0
LINE
  5
88A
100
AcDbEntity
  8
M0
100
AcDbLine
 10
165.982224
 20
404.234352
 11
165.982224
 21
401.83435
  0
LINE
  5
88B
100
AcDbEntity
  8
M0
100
AcDbLine
 10
139.582225
 20
413.734352
 11
140.082224
 21
413.734352
  0
LINE
  5
88C
100
AcDbEntity
  8
M0
100
AcDbLine
 10
187.082225
 20
433.934352
 11
187.082225
 21
399.934352
  0
LINE
  5
88D
100
AcDbEntity
  8
M0
100
AcDbLine
 10
140.082224
 20
413.734352
 11
140.082224
 21
420.134352
  0
LINE
  5
88E
100
AcDbEntity
  8
M0
100
AcDbLine
 10
166.282224
 20
400.434353
 11
160.382224
 21
400.434353
  0
LINE
  5
88F
100
AcDbEntity
  8
M0
100
AcDbLine
 10
142.582224
 20
398.934353
 11
140.082224
 21
398.934353
  0
LINE
  5
890
100
AcDbEntity
  8
M0
100
AcDbLine
 10
139.082224
 20
399.934352
 11
139.082224
 21
433.934352
  0
LINE
  5
891
100
AcDbEntity
  8
M0
100
AcDbLine
 10
187.045182
 20
416.934353
 11
187.082225
 21
416.934353
  0
ARC
  5
892
100
AcDbEntity
  8
M0
100
AcDbCircle
 10
147.582224
 20
399.934352
 40
1.0
100
AcDbArc
 50
270.0
 51
360.0
  0
ARC
  5
893
100
AcDbEntity
  8
M0
100
AcDbCircle
 10
140.082224
 20
399.934352
 40
1.0
100
AcDbArc
 50
180.0
 51
270.0
  0
ARC
  5
894
100
AcDbEntity
  8
M0
100
AcDbCircle
 10
159.382224
 20
399.934352
 40
1.0
100
AcDbArc
 50
270.0
 51
360.0
  0
ARC
  5
895
100
AcDbEntity
  8
M0
100
AcDbCircle
 10
186.082224
 20
399.934352
 40
1.0
100
AcDbArc
 50
270.0
 51
360.0
  0
ARC
  5
896
100
AcDbEntity
  8
M0
100
AcDbCircle
 10
155.948246
 20
419.177455
 40
2.326127
100
AcDbArc
 50
66.454301
 51
109.456969
  0
ARC
  5
897
100
AcDbEntity
  8
M0
100
AcDbCircle
 10
157.382224
 20
399.934352
 40
1.0
100
AcDbArc
 50
180.0
 51
270.0
  0
ARC
  5
898
100
AcDbEntity
  8
M0
100
AcDbCircle
 10
139.582224
 20
413.234352
 40
0.5
100
AcDbArc
 50
90.0
 51
180.0
  0
ARC
  5
899
100
AcDbEntity
  8
M0
100
AcDbCircle
 10
182.582224
 20
412.434352
 40
0.5
100
AcDbArc
 50
180.0
 51
270.0
  0
ARC
  5
89A
100
AcDbEntity
  8
M0
100
AcDbCircle
 10
181.582224
 20
399.934352
 40
1.0
100
AcDbArc
 50
270.0
 51
360.0
  0
ARC
  5
89B
100
AcDbEntity
  8
M0
100
AcDbCircle
 10
186.082224
 20
410.934352
 40
1.0
100
AcDbArc
 50
0.0
 51
90.0
  0
ARC
  5
89C
100
AcDbEntity
  8
M0
100
AcDbCircle
 10
170.482224
 20
399.934352
 40
1.0
100
AcDbArc
 50
270.0
 51
360.0
  0
ARC
  5
89D
100
AcDbEntity
  8
M0
100
AcDbCircle
 10
167.282224
 20
399.934352
 40
1.0
100
AcDbArc
 50
180.0
 51
270.0
  0
ARC
  5
89E
100
AcDbEntity
  8
M0
100
AcDbCircle
 10
186.082224
 20
410.734352
 40
1.0
100
AcDbArc
 50
270.0
 51
360.0
  0
ARC
  5
89F
100
AcDbEntity
  8
M0
100
AcDbCircle
 10
180.282224
 20
399.934352
 40
1.0
100
AcDbArc
 50
180.0
 51
270.0
  0
ARC
  5
8A0
100
AcDbEntity
  8
M0
100
AcDbCircle
 10
178.632224
 20
423.984352
 40
0.5
100
AcDbArc
 50
270.0
 51
360.0
  0
LINE
  5
8A1
100
AcDbEntity
  8
M0
100
AcDbLine
 10
186.545183
 20
412.134351
 11
182.182224
 21
412.134351
  0
ARC
  5
8A2
100
AcDbEntity
  8
M0
100
AcDbCircle
 10
186.082224
 20
433.934352
 40
1.0
100
AcDbArc
 50
0.0
 51
90.0
  0
LINE
  5
8A3
100
AcDbEntity
  8
M0
100
AcDbLine
 10
185.082224
 20
409.734352
 11
186.082225
 21
409.734352
  0
LINE
  5
8A4
100
AcDbEntity
  8
M0
100
AcDbLine
 10
187.082225
 20
410.934352
 11
187.082225
 21
410.734352
  0
ARC
  5
8A5
100
AcDbEntity
  8
M0
100
AcDbCircle
 10
178.632224
 20
430.484352
 40
0.5
100
AcDbArc
 50
0.0
 51
90.0
  0
LINE
  5
8A6
100
AcDbEntity
  8
M0
100
AcDbLine
 10
185.082224
 20
411.934352
 11
186.082225
 21
411.934352
  0
ARC
  5
8A7
100
AcDbEntity
  8
M0
100
AcDbCircle
 10
170.482224
 20
433.934352
 40
1.0
100
AcDbArc
 50
0.0
 51
90.0
  0
ARC
  5
8A8
100
AcDbEntity
  8
M0
100
AcDbCircle
 10
157.382224
 20
433.934352
 40
1.0
100
AcDbArc
 50
90.0
 51
180.0
  0
LINE
  5
8A9
100
AcDbEntity
  8
M0
100
AcDbLine
 10
171.632225
 20
423.984352
 11
171.632225
 21
430.484352
  0
ARC
  5
8AA
100
AcDbEntity
  8
M0
100
AcDbCircle
 10
140.082224
 20
433.934352
 40
1.0
100
AcDbArc
 50
90.0
 51
180.0
  0
ARC
  5
8AB
100
AcDbEntity
  8
M0
100
AcDbCircle
 10
139.582224
 20
420.634352
 40
0.5
100
AcDbArc
 50
180.0
 51
270.0
  0
ARC
  5
8AC
100
AcDbEntity
  8
M0
100
AcDbCircle
 10
180.282224
 20
433.934352
 40
1.0
100
AcDbArc
 50
90.0
 51
180.0
  0
ARC
  5
8AD
100
AcDbEntity
  8
M0
100
AcDbCircle
 10
147.582224
 20
433.934352
 40
1.0
100
AcDbArc
 50
0.0
 51
90.0
  0
LINE
  5
8AE
100
AcDbEntity
  8
M0
100
AcDbLine
 10
160.382224
 20
404.834353
 11
160.382224
 21
399.934352
  0
LINE
  5
8AF
100
AcDbEntity
  8
M0
100
AcDbLine
 10
156.382225
 20
399.934352
 11
156.382225
 21
406.934351
  0
LINE
  5
8B0
100
AcDbEntity
  8
M0
100
AcDbLine
 10
166.282224
 20
399.934352
 11
166.282224
 21
404.834353
  0
LINE
  5
8B1
100
AcDbEntity
  8
M0
100
AcDbLine
 10
148.582225
 20
406.934351
 11
148.582225
 21
399.934352
  0
LINE
  5
8B2
100
AcDbEntity
  8
M0
100
AcDbLine
 10
186.082224
 20
398.934353
 11
140.082224
 21
398.934353
  0
LINE
  5
8B3
100
AcDbEntity
  8
M0
100
AcDbLine
 10
166.282224
 20
404.834353
 11
160.382224
 21
404.834353
  0
LINE
  5
8B4
100
AcDbEntity
  8
M0
100
AcDbLine
 10
156.382225
 20
406.934351
 11
148.582225
 21
406.934351
  0
LINE
  5
8B5
100
AcDbEntity
  8
M0
100
AcDbLine
 10
182.582225
 20
409.734352
 11
182.582225
 21
399.934352
  0
LINE
  5
8B6
100
AcDbEntity
  8
M0
100
AcDbLine
 10
182.082224
 20
421.434352
 11
182.082224
 21
412.434351
  0
LINE
  5
8B7
100
AcDbEntity
  8
M0
100
AcDbLine
 10
185.082224
 20
409.734352
 11
182.582225
 21
409.734352
  0
LINE
  5
8B8
100
AcDbEntity
  8
M0
100
AcDbLine
 10
179.282225
 20
410.734352
 11
171.482224
 21
410.734352
  0
LINE
  5
8B9
100
AcDbEntity
  8
M0
100
AcDbLine
 10
171.482224
 20
410.734352
 11
171.482224
 21
399.934352
  0
LINE
  5
8BA
100
AcDbEntity
  8
M0
100
AcDbLine
 10
182.582225
 20
411.934352
 11
185.082224
 21
411.934352
  0
LINE
  5
8BB
100
AcDbEntity
  8
M0
100
AcDbLine
 10
179.282225
 20
399.934352
 11
179.282225
 21
410.734352
  0
LINE
  5
8BC
100
AcDbEntity
  8
M0
100
AcDbLine
 10
142.582224
 20
425.434353
 11
169.582224
 21
425.434353
  0
LINE
  5
8BD
100
AcDbEntity
  8
M0
100
AcDbLine
 10
142.082224
 20
424.934353
 11
142.082224
 21
408.934353
  0
LINE
  5
8BE
100
AcDbEntity
  8
M0
100
AcDbLine
 10
142.582224
 20
408.434353
 11
169.582224
 21
408.434353
  0
LINE
  5
8BF
100
AcDbEntity
  8
M0
100
AcDbLine
 10
180.082224
 20
412.934353
 11
180.082224
 21
420.934353
  0
LINE
  5
8C0
100
AcDbEntity
  8
M0
100
AcDbLine
 10
179.582224
 20
412.434353
 11
170.582224
 21
412.434353
  0
LINE
  5
8C1
100
AcDbEntity
  8
M0
100
AcDbLine
 10
179.582224
 20
421.434353
 11
170.582224
 21
421.434353
  0
LINE
  5
8C2
100
AcDbEntity
  8
M0
100
AcDbLine
 10
170.082224
 20
408.934353
 11
170.082224
 21
411.934353
  0
LINE
  5
8C3
100
AcDbEntity
  8
M0
100
AcDbLine
 10
170.082224
 20
421.934353
 11
170.082224
 21
424.934353
  0
ARC
  5
8C4
100
AcDbEntity
  8
M0
100
AcDbCircle
 10
142.582224
 20
424.934353
 40
0.5
100
AcDbArc
 50
90.0
 51
180.0
  0
ARC
  5
8C5
100
AcDbEntity
  8
M0
100
AcDbCircle
 10
169.582224
 20
424.934353
 40
0.5
100
AcDbArc
 50
0.0
 51
90.0
  0
ARC
  5
8C6
100
AcDbEntity
  8
M0
100
AcDbCircle
 10
170.582224
 20
421.934353
 40
0.5
100
AcDbArc
 50
180.0
 51
270.0
  0
ARC
  5
8C7
100
AcDbEntity
  8
M0
100
AcDbCircle
 10
179.582224
 20
420.934353
 40
0.5
100
AcDbArc
 50
0.0
 51
90.0
  0
ARC
  5
8C8
100
AcDbEntity
  8
M0
100
AcDbCircle
 10
179.582224
 20
412.934353
 40
0.5
100
AcDbArc
 50
270.0
 51
360.0
  0
ARC
  5
8C9
100
AcDbEntity
  8
M0
100
AcDbCircle
 10
170.582224
 20
411.934353
 40
0.5
100
AcDbArc
 50
90.0
 51
180.0
  0
ARC
  5
8CA
100
AcDbEntity
  8
M0
100
AcDbCircle
 10
169.582224
 20
408.934353
 40
0.5
100
AcDbArc
 50
270.0
 51
360.0
  0
ARC
  5
8CB
100
AcDbEntity
  8
M0
100
AcDbCircle
 10
142.582224
 20
408.934353
 40
0.5
100
AcDbArc
 50
180.0
 51
270.0
  0
HATCH
  5
8CC
100
AcDbEntity
  8
M0
 62
     7
100
AcDbHatch
 10
0.0
 20
0.0
210
0.0
220
0.0
230
1.0
  2
SOLID
 70
     1
 71
     0
 91
        1
 92
        1
 93
        8
 72
     1
 10
150.465229
 20
418.665153
 11
150.465229
 21
420.963588
 72
     1
 10
150.465229
 20
420.963588
 11
151.586756
 21
420.963588
 72
     1
 10
151.586756
 20
420.963588
 11
151.586756
 21
421.434353
 72
     1
 10
151.586756
 20
421.434353
 11
148.609866
 21
421.434353
 72
     1
 10
148.609866
 20
421.434353
 11
148.609866
 21
420.963588
 72
     1
 10
148.609866
 20
420.963588
 11
149.731392
 21
420.963588
 72
     1
 10
149.731392
 20
420.963588
 11
149.731392
 21
418.665153
 72
     1
 10
149.731392
 20
418.665153
 11
150.465229
 21
418.665153
 97
        0
 75
     0
 76
     1
 98
        1
 10
0.0
 20
0.0
  0
HATCH
  5
8CD
100
AcDbEntity
  8
M0
 62
     7
100
AcDbHatch
 10
0.0
 20
0.0
210
0.0
220
0.0
230
1.0
  2
SOLID
 70
     1
 71
     0
 91
        1
 92
        1
 93
        4
 72
     1
 10
162.082024
 20
418.665153
 11
162.082024
 21
421.434353
 72
     1
 10
162.082024
 20
421.434353
 11
161.348186
 21
421.434353
 72
     1
 10
161.348186
 20
421.434353
 11
161.348186
 21
418.665153
 72
     1
 10
161.348186
 20
418.665153
 11
162.082024
 21
418.665153
 97
        0
 75
     0
 76
     1
 98
        1
 10
0.0
 20
0.0
  0
HATCH
  5
8CE
100
AcDbEntity
  8
M0
 62
     7
100
AcDbHatch
 10
0.0
 20
0.0
210
0.0
220
0.0
230
1.0
  2
SOLID
 70
     1
 71
     0
 91
        1
 92
        1
 93
       20
 72
     2
 10
155.948246
 20
421.032819
 40
2.436895
 50
252.447306
 51
292.422669
 73
     1
 72
     2
 10
156.539759
 20
419.599311
 40
0.886144
 50
292.422669
 51
346.150662
 73
     1
 72
     2
 10
155.948246
 20
419.745141
 40
1.495367
 50
346.150662
 51
356.81526
 73
     1
 72
     1
 10
157.441304
 20
419.662065
 11
156.668238
 21
419.662065
 72
     2
 10
155.948246
 20
419.662065
 40
0.719992
 50
0.0
 51
25.643738
 73
     0
 72
     2
 10
156.122997
 20
419.578174
 40
0.526148
 50
25.643738
 51
72.512342
 73
     0
 72
     2
 10
155.948246
 20
420.132828
 40
1.10768
 50
72.512342
 51
111.534322
 73
     0
 72
     2
 10
155.780531
 20
419.707804
 40
0.650762
 50
111.534322
 51
163.518484
 73
     0
 72
     2
 10
156.842697
 20
420.02206
 40
1.758441
 50
163.518484
 51
199.911347
 73
     0
 72
     2
 10
155.801234
 20
420.399297
 40
0.650762
 50
199.911347
 51
251.231339
 73
     0
 72
     2
 10
155.948246
 20
419.966676
 40
1.10768
 50
251.231339
 51
287.055921
 73
     0
 72
     2
 10
156.118813
 20
420.522632
 40
0.526148
 50
287.055921
 51
341.370551
 73
     0
 72
     2
 10
155.948246
 20
420.465132
 40
0.706146
 50
341.370551
 51
357.752539
 73
     0
 72
     1
 10
156.653849
 20
420.492824
 11
157.424517
 21
420.492824
 72
     2
 10
155.948246
 20
420.36821
 40
1.481521
 50
4.824977
 51
11.570993
 73
     1
 72
     2
 10
156.51796
 20
420.484855
 40
0.89999
 50
11.570993
 51
66.454336
 73
     1
 72
     2
 10
155.948246
 20
419.177455
 40
2.326127
 50
66.454336
 51
109.456965
 73
     1
 72
     2
 10
155.588504
 20
420.195766
 40
1.246139
 50
109.456965
 51
161.721239
 73
     1
 72
     2
 10
156.114398
 20
420.02206
 40
1.799979
 50
161.721239
 51
190.751611
 73
     1
 72
     2
 10
155.597486
 20
419.923906
 40
1.273831
 50
190.751611
 51
252.447306
 73
     1
 97
        0
 75
     0
 76
     1
 98
        1
 10
0.0
 20
0.0
  0
HATCH
  5
8CF
100
AcDbEntity
  8
M0
 62
     7
100
AcDbHatch
 10
0.0
 20
0.0
210
0.0
220
0.0
230
1.0
  2
SOLID
 70
     1
 71
     0
 91
        1
 92
        1
 93
        4
 72
     1
 10
148.346792
 20
418.665153
 11
148.346792
 21
421.434353
 72
     1
 10
148.346792
 20
421.434353
 11
147.612954
 21
421.434353
 72
     1
 10
147.612954
 20
421.434353
 11
147.612954
 21
418.665153
 72
     1
 10
147.612954
 20
418.665153
 11
148.346792
 21
418.665153
 97
        0
 75
     0
 76
     1
 98
        1
 10
0.0
 20
0.0
  0
HATCH
  5
8D0
100
AcDbEntity
  8
M0
 62
     7
100
AcDbHatch
 10
0.0
 20
0.0
210
0.0
220
0.0
230
1.0
  2
SOLID
 70
     1
 71
     0
 91
        1
 92
        1
 93
       12
 72
     1
 10
158.551294
 20
418.665153
 11
158.551294
 21
419.8836
 72
     1
 10
158.551294
 20
419.8836
 11
160.032816
 21
419.8836
 72
     1
 10
160.032816
 20
419.8836
 11
160.032816
 21
418.665153
 72
     1
 10
160.032816
 20
418.665153
 11
160.766654
 21
418.665153
 72
     1
 10
160.766654
 20
418.665153
 11
160.766654
 21
421.434353
 72
     1
 10
160.766654
 20
421.434353
 11
160.032816
 21
421.434353
 72
     1
 10
160.032816
 20
421.434353
 11
160.032816
 21
420.326673
 72
     1
 10
160.032816
 20
420.326673
 11
158.551294
 21
420.326673
 72
     1
 10
158.551294
 20
420.326673
 11
158.551294
 21
421.434353
 72
     1
 10
158.551294
 20
421.434353
 11
157.817456
 21
421.434353
 72
     1
 10
157.817456
 20
421.434353
 11
157.817456
 21
418.665153
 72
     1
 10
157.817456
 20
418.665153
 11
158.551294
 21
418.665153
 97
        0
 75
     0
 76
     1
 98
        1
 10
0.0
 20
0.0
  0
HATCH
  5
8D1
100
AcDbEntity
  8
M0
 62
     7
100
AcDbHatch
 10
0.0
 20
0.0
210
0.0
220
0.0
230
1.0
  2
SOLID
 70
     1
 71
     0
 91
        2
 92
        1
 93
        8
 72
     1
 10
152.007057
 20
419.260531
 11
153.381815
 21
419.260531
 72
     1
 10
153.381815
 20
419.260531
 11
153.622118
 21
418.665153
 72
     1
 10
153.622118
 20
418.665153
 11
154.439031
 21
418.665153
 72
     1
 10
154.439031
 20
418.665153
 11
153.14443
 21
421.434353
 72
     1
 10
153.14443
 20
421.434353
 11
152.244441
 21
421.434353
 72
     1
 10
152.244441
 20
421.434353
 11
150.94984
 21
418.665153
 72
     1
 10
150.94984
 20
418.665153
 11
151.766754
 21
418.665153
 72
     1
 10
151.766754
 20
418.665153
 11
152.007057
 21
419.260531
 97
        0
 92
       16
 93
        3
 72
     1
 10
152.694436
 20
420.963588
 11
152.185887
 21
419.703603
 72
     1
 10
152.185887
 20
419.703603
 11
153.202985
 21
419.703603
 72
     1
 10
153.202985
 20
419.703603
 11
152.694436
 21
420.963588
 97
        0
 75
     0
 76
     1
 98
        1
 10
0.0
 20
0.0
  0
HATCH
  5
8D2
100
AcDbEntity
  8
M0
 62
     7
100
AcDbHatch
 10
0.0
 20
0.0
210
0.0
220
0.0
230
1.0
  2
SOLID
 70
     1
 71
     0
 91
        1
 92
        1
 93
        7
 72
     1
 10
173.082224
 20
415.826266
 11
170.082224
 21
414.734355
 72
     1
 10
170.082224
 20
414.734355
 11
173.082224
 21
413.642444
 72
     1
 10
173.082224
 20
413.642444
 11
173.082224
 21
414.234355
 72
     1
 10
173.082224
 20
414.234355
 11
179.082224
 21
414.234355
 72
     1
 10
179.082224
 20
414.234355
 11
179.082224
 21
415.234355
 72
     1
 10
179.082224
 20
415.234355
 11
173.082224
 21
415.234355
 72
     1
 10
173.082224
 20
415.234355
 11
173.082224
 21
415.826266
 97
        0
 75
     0
 76
     1
 98
        1
 10
0.0
 20
0.0
  0
HATCH
  5
8D3
100
AcDbEntity
  8
M0
 62
     7
100
AcDbHatch
 10
0.0
 20
0.0
210
0.0
220
0.0
230
1.0
  2
SOLID
 70
     1
 71
     0
 91
        1
 92
        1
 93
       12
 72
     1
 10
144.816062
 20
418.665153
 11
144.816062
 21
419.8836
 72
     1
 10
144.816062
 20
419.8836
 11
146.297584
 21
419.8836
 72
     1
 10
146.297584
 20
419.8836
 11
146.297584
 21
418.665153
 72
     1
 10
146.297584
 20
418.665153
 11
147.031422
 21
418.665153
 72
     1
 10
147.031422
 20
418.665153
 11
147.031422
 21
421.434353
 72
     1
 10
147.031422
 20
421.434353
 11
146.297584
 21
421.434353
 72
     1
 10
146.297584
 20
421.434353
 11
146.297584
 21
420.326673
 72
     1
 10
146.297584
 20
420.326673
 11
144.816062
 21
420.326673
 72
     1
 10
144.816062
 20
420.326673
 11
144.816062
 21
421.434353
 72
     1
 10
144.816062
 20
421.434353
 11
144.082224
 21
421.434353
 72
     1
 10
144.082224
 20
421.434353
 11
144.082224
 21
418.665153
 72
     1
 10
144.082224
 20
418.665153
 11
144.816062
 21
418.665153
 97
        0
 75
     0
 76
     1
 98
        1
 10
0.0
 20
0.0
  0
LINE
  5
8D4
100
AcDbEntity
  8
M1
 62
     2
100
AcDbLine
 10
20.0
 20
20.0
 11
20.0
 21
570.0
  0
LINE
  5
8D5
100
AcDbEntity
  8
M1
 62
     2
100
AcDbLine
 10
20.0
 20
570.0
 11
400.0
 21
570.0
  0
LINE
  5
8D6
100
AcDbEntity
  8
M1
 62
     2
100
AcDbLine
 10
400.0
 20
570.0
 11
400.0
 21
20.0
  0
LINE
  5
8D7
100
AcDbEntity
  8
M1
 62
     2
100
AcDbLine
 10
400.0
 20
20.0
 11
20.0
 21
20.0
  0
LINE
  5
8D8
100
AcDbEntity
  8
M1
 62
     2
100
AcDbLine
 10
400.0
 20
40.0
 11
200.0
 21
40.0
  0
LINE
  5
8D9
100
AcDbEntity
  8
M1
 62
     2
100
AcDbLine
 10
400.0
 20
60.0
 11
200.0
 21
60.0
  0
LINE
  5
8DA
100
AcDbEntity
  8
M1
 62
     2
100
AcDbLine
 10
400.0
 20
80.0
 11
200.0
 21
80.0
  0
LINE
  5
8DB
100
AcDbEntity
  8
M1
 62
     2
100
AcDbLine
 10
200.0
 20
20.0
 11
200.0
 21
80.0
  0
TEXT
  5
8DC
100
AcDbEntity
  8
M1
 62
     2
100
AcDbText
 10
205.0
 20
25.0
 40
10.0
  1
適　用；
  7
STANDARD
100
AcDbText
  0
TEXT
  5
8DD
100
AcDbEntity
  8
M1
 62
     2
100
AcDbText
 10
205.0
 20
65.0
 40
10.0
  1
登録名：
  7
STANDARD
100
AcDbText
  0
TEXT
  5
8DE
100
AcDbEntity
  8
M1
 62
     2
100
AcDbText
 10
253.0
 20
65.0
 40
10.0
  1
ＤＭＨＳ２０ＲＬＲ００
 41
0.5
  7
STANDARD
100
AcDbText
  0
TEXT
  5
8DF
100
AcDbEntity
  8
M1
 62
     2
100
AcDbText
 10
205.0
 20
45.0
 40
10.0
  1
形　式；
  7
STANDARD
100
AcDbText
  0
TEXT
  5
8E0
100
AcDbEntity
  8
M1
 62
     2
100
AcDbText
 10
253.0
 20
45.0
 40
10.0
  1
ＨＳ２０－ＲＬ
 41
0.5
  7
STANDARD
100
AcDbText
  0
LINE
  5
8E1
100
AcDbEntity
  8
DN0
100
AcDbLine
 10
104.40929
 20
166.874072
 11
136.86929
 21
166.874072
  0
TEXT
  5
8E2
100
AcDbEntity
  8
DN0
100
AcDbText
 10
105.305956
 20
167.674072
 40
8.0
  1
せん孔図
 41
0.833333
  7
STANDARD
100
AcDbText
  0
ENDSEC
  0
SECTION
  2
OBJECTS
  0
DICTIONARY
  5
C
100
AcDbDictionary
  3
ACAD_GROUP
350
D
  3
ACAD_MLINESTYLE
350
E
  3
ACDBVARIABLEDICTIONARY
350
626
  0
DICTIONARY
  5
D
102
{ACAD_REACTORS
330
C
102
}
100
AcDbDictionary
  0
DICTIONARY
  5
E
102
{ACAD_REACTORS
330
C
102
}
100
AcDbDictionary
  3
STANDARD
350
13
  0
DICTIONARY
  5
626
102
{ACAD_REACTORS
330
C
102
}
100
AcDbDictionary
  3
SORTENTS
350
627
  0
MLINESTYLE
  5
13
102
{ACAD_REACTORS
330
E
102
}
100
AcDbMlineStyle
  2
STANDARD
 70
     0
  3

 62
     0
 51
90.0
 52
90.0
 71
     2
 49
0.5
 62
   256
  6
BYLAYER
 49
-0.5
 62
   256
  6
BYLAYER
  0
DICTIONARYVAR
  5
627
102
{ACAD_REACTORS
330
626
102
}
100
DictionaryVariables
280
     0
  1
96
  0
ENDSEC
  0
EOF
