  0
SECTION
  2
HEADER
  9
$ACADVER
  1
AC1014
  9
$INSBASE
 10
0.000000
 20
0.000000
 30
0.0
  9
$VIEWCTR
 10
7.531722
 20
4.5
  9
$VIEWSIZE
 40
9.0
  9
$SNAPMODE
 70
     0
  9
$SNAPUNIT
 10
1.0
 20
1.0
  9
$SNAPBASE
 10
0.0
 20
0.0
  9
$SNAPANG
 50
0.0
  9
$SNAPSTYLE
 70
     0
  9
$SNAPISOPAIR
 70
     0
  9
$GRIDMODE
 70
     0
  9
$GRIDUNIT
 10
0.0
 20
0.0
  9
$ORTHOMODE
 70
     0
  9
$REGENMODE
 70
     1
  9
$FILLMODE
 70
     1
  9
$QTEXTMODE
 70
     0
  9
$DRAGMODE
 70
     2
  9
$LTSCALE
  40
     1.000000
  9
$OSMODE
 70
     0
  9
$ATTMODE
 70
     1
  9
$TEXTSIZE
 40
0.2
  9
$TRACEWID
 40
0.05
  9
$TEXTSTYLE
  7
STANDARD
  9
$CELTYPE
  6
BYLAYER
  9
$CECOLOR
 62
   256
  9
$DIMSCALE
 40
1.0
  9
$DIMASZ
 40
0.18
  9
$DIMEXO
 40
0.0625
  9
$DIMDLI
 40
0.38
  9
$DIMRND
 40
0.0
  9
$DIMDLE
 40
0.0
  9
$DIMEXE
 40
0.18
  9
$DIMTP
 40
0.0
  9
$DIMTM
 40
0.0
  9
$DIMTXT
 40
0.18
  9
$DIMCEN
 40
0.09
  9
$DIMTSZ
 40
0.0
  9
$DIMTOL
 70
     0
  9
$DIMLIM
 70
     0
  9
$DIMTIH
 70
     1
  9
$DIMTOH
 70
     1
  9
$DIMSE1
 70
     0
  9
$DIMSE2
 70
     0
  9
$DIMTAD
 70
     0
  9
$DIMZIN
 70
     0
  9
$DIMBLK
  1

  9
$LUNITS
 70
     2
  9
$LUPREC
 70
     4
  9
$AXISMODE
 70
     0
  9
$AXISUNIT
 10
0.0
 20
0.0
  9
$SKETCHINC
 40
0.1
  9
$FILLETRAD
 40
0.0
  9
$AUNITS
 70
     0
  9
$AUPREC
 70
     0
  9
$MENU
  1
ACAD
  9
$ELEVATION
 40
0.0
  9
$THICKNESS
 40
0.0
  9
$VIEWDIR
 10
0.0
 20
0.0
 30
1.0
  9
$LIMCHECK
 70
     0
  9
$BLIPMODE
 70
     1
  9
$CHAMFERA
 40
0.0
  9
$CHAMFERB
 40
0.0
  9
$FASTZOOM
 70
     1
  9
$SKPOLY
 70
     0
  9
$TDCREATE
 40
0000000.0000000000
  9
$TDUPDATE
 40
0000000.0000000000
  9
$TDINDWG
 40
0.0000000000
  9
$TDUSRTIMER
 40
0.0000000000
  9
$USRTIMER
 70
     1
  9
$ANGBASE
 50
0.0
  9
$ANGDIR
 70
     0
  9
$PDMODE
 70
     0
  9
$PDSIZE
 40
0.0
  9
$PLINEWID
 40
0.0
  9
$COORDS
 70
     0
  9
$USERI1
 70
     0
  9
$USERI2
 70
     0
  9
$USERI3
 70
     0
  9
$USERI4
 70
     0
  9
$USERI5
 70
     0
  9
$USERR1
 40
0.0
  9
$USERR2
 40
0.0
  9
$USERR3
 40
0.0
  9
$USERR4
 40
0.0
  9
$USERR5
 40
0.0
  9
$CLAYER
  8
M0
  9
$EXTMIN
 10
18.181818
 20
18.181818
  9
$EXTMAX
 10
363.636356
 20
518.181807
  9
$LIMMIN
 10
0.0
 20
0.0
  9
$LIMMAX
 10
210.0
 20
297.0
  9
$HANDSEED
  5
7E3
  0
ENDSEC
  0
SECTION
  2
CLASSES
  0
CLASS
  1
DICTIONARYVAR
  2
AcDbDictionaryVar
  3
"AutoCAD"
 90
        0
280
     0
281
     0
  0
CLASS
  1
HATCH
  2
AcDbHatch
  3
"ACAD_SEDONA"
 90
        0
280
     0
281
     1
  0
ENDSEC
  0
SECTION
  2
TABLES
  0
TABLE
  2
VPORT
  5
8
100
AcDbSymbolTable
 70
     2
  0
VPORT
  5
14
100
AcDbSymbolTableRecord
100
AcDbViewportTableRecord
  2
*ACTIVE
 70
     0
 10
0.0
 20
0.0
 11
1.0
 21
1.0
 12
484.0
 22
297.0
 13
0.0
 23
0.0
 14
1.0
 24
1.0
 15
0.0
 25
0.0
 16
0.0
 26
0.0
 36
1.0
 17
0.0
 27
0.0
 37
0.0
 40
594.0
 41
2.0
 42
50.0
 43
0.0
 44
0.0
 50
0.0
 51
0.0
 71
     0
 72
   100
 73
     1
 74
     1
 75
     0
 76
     0
 77
     0
 78
     0
  0
ENDTAB
  0
TABLE
  2
LTYPE
  5
5
100
AcDbSymbolTable
 70
     5
  0
LTYPE
  5
15
100
AcDbSymbolTableRecord
100
AcDbLinetypeTableRecord
  2
BYBLOCK
 70
     0
  3

 72
    65
 73
     0
 40
0.0
  0
LTYPE
  5
16
100
AcDbSymbolTableRecord
100
AcDbLinetypeTableRecord
  2
BYLAYER
 70
     0
  3

 72
    65
 73
     0
 40
0.0
  0
LTYPE
  5
17
100
AcDbSymbolTableRecord
100
AcDbLinetypeTableRecord
  2
CONTINUOUS
 70
    64
  3
Solid line
 72
    65
 73
     0
 40
0.0
  0
LTYPE
  5
18
100
AcDbSymbolTableRecord
100
AcDbLinetypeTableRecord
  2
DASHED
 70
    64
  3
__ __ __ __ __ __ __ __ __ __ __ __ __ __ __ __
 72
    65
 73
     2
 40
0.75
 49
0.5
 74
     0
 49
-0.25
 74
     0
  0
LTYPE
  5
19
100
AcDbSymbolTableRecord
100
AcDbLinetypeTableRecord
  2
DASHDOT
 70
    64
  3
__ . __ . __ . __ . __ . __ . __ . __ . __ . __
 72
    65
 73
     4
 40
1.0
 49
0.5
 74
     0
 49
-0.25
 74
     0
 49
0.0
 74
     0
 49
-0.25
 74
     0
  0
LTYPE
  5
1A
100
AcDbSymbolTableRecord
100
AcDbLinetypeTableRecord
  2
DIVIDE
 70
    64
  3
____ . . ____ . . ____ . . ____ . . ____ . . __
 72
    65
 73
     6
 40
1.25
 49
0.5
 74
     0
 49
-0.25
 74
     0
 49
0.0
 74
     0
 49
-0.25
 74
     0
 49
0.0
 74
     0
 49
-0.25
 74
     0
  0
LTYPE
  5
1B
100
AcDbSymbolTableRecord
100
AcDbLinetypeTableRecord
  2
DOT
 70
    64
  3
. . . . . . . . . . . . . . . . . . . . . . . .
 72
    65
 73
     2
 40
0.25
 49
0.0
 74
     0
 49
-0.25
 74
     0
  0
ENDTAB
  0
TABLE
  2
LAYER
  5
2
100
AcDbSymbolTable
 70
   102
  0
LAYER
  5
F
100
AcDbSymbolTableRecord
100
AcDbLayerTableRecord
  2
0
 70
     0
 62
     7
  6
CONTINUOUS
  0
LAYER
  5
1C
100
AcDbSymbolTableRecord
100
AcDbLayerTableRecord
  2
DEFPOINTS
 70
     0
 62
     7
  6
CONTINUOUS
  0
LAYER
  5
1D
100
AcDbSymbolTableRecord
100
AcDbLayerTableRecord
  2
M0
 70
     0
 62
     3
  6
CONTINUOUS
  0
LAYER
  5
1E
100
AcDbSymbolTableRecord
100
AcDbLayerTableRecord
  2
M1
 70
     0
 62
     3
  6
CONTINUOUS
  0
LAYER
  5
1F
100
AcDbSymbolTableRecord
100
AcDbLayerTableRecord
  2
DD0
 70
     0
 62
     4
  6
CONTINUOUS
  0
LAYER
  5
20
100
AcDbSymbolTableRecord
100
AcDbLayerTableRecord
  2
DN0
 70
     0
 62
     2
  6
CONTINUOUS
  0
ENDTAB
  0
TABLE
  2
STYLE
  5
3
100
AcDbSymbolTable
 70
     2
  0
STYLE
  5
10
100
AcDbSymbolTableRecord
100
AcDbTextStyleTableRecord
  2
STANDARD
 70
     0
 40
0.0
 41
1.0
 50
0.0
 71
     0
 42
0.2
  3
txt
  4
BIGFONT
  0
ENDTAB
  0
TABLE
  2
VIEW
  5
6
100
AcDbSymbolTable
 70
     0
  0
ENDTAB
  0
TABLE
  2
UCS
  5
7
100
AcDbSymbolTable
 70
     0
  0
ENDTAB
  0
TABLE
  2
APPID
  5
9
100
AcDbSymbolTable
 70
     1
  0
APPID
  5
11
100
AcDbSymbolTableRecord
100
AcDbRegAppTableRecord
  2
ACAD
 70
     0
  0
ENDTAB
  0
TABLE
  2
DIMSTYLE
  5
A
100
AcDbSymbolTable
 70
     2
  0
DIMSTYLE
105
27
100
AcDbSymbolTableRecord
100
AcDbDimStyleTableRecord
  2
STANDARD
 70
     0
  3

  4

  5

  6
_OPEN
  7
_OPEN
 40
1.0
 41
5.454545
 42
1.0
 43
8.0
 44
1.0
 45
0.0
 46
0.0
 47
0.0
 48
0.0
140
5.727273
141
0.09
142
0.0
143
0.03937
144
1.0
145
0.0
146
1.0
147
0.6
 71
     0
 72
     0
 73
     1
 74
     1
 75
     0
 76
     0
 77
     3
 78
     8
170
     0
171
     2
172
     0
173
     1
174
     0
175
     0
176
     0
177
     0
178
     0
270
     2
271
     2
272
     4
273
     2
274
     2
340
10
275
     0
280
     0
281
     0
282
     0
283
     1
284
     0
285
     0
286
     0
287
     3
288
     0
  0
DIMSTYLE
105
28
100
AcDbSymbolTableRecord
100
AcDbDimStyleTableRecord
  2
LEADSTYL
 70
     0
  3

  4

  5

  6
_OPEN
  7
_OPEN
 40
1.0
 41
5.454545
 42
0.0625
 43
0.38
 44
0.18
 45
0.0
 46
0.0
 47
0.0
 48
0.0
140
5.727273
141
0.09
142
0.0
143
25.4
144
1.0
145
0.0
146
1.0
147
0.6
 71
     0
 72
     0
 73
     1
 74
     1
 75
     0
 76
     0
 77
     0
 78
     0
170
     0
171
     2
172
     0
173
     1
174
     0
175
     0
176
     0
177
     0
178
     0
270
     2
271
     4
272
     4
273
     2
274
     2
340
10
275
     0
280
     0
281
     0
282
     0
283
     1
284
     0
285
     0
286
     0
287
     3
288
     0
  0
ENDTAB
  0
TABLE
  2
BLOCK_RECORD
  5
1
100
AcDbSymbolTable
 70
    23
  0
BLOCK_RECORD
  5
21
100
AcDbSymbolTableRecord
100
AcDbBlockTableRecord
  2
*MODEL_SPACE
  0
BLOCK_RECORD
  5
24
100
AcDbSymbolTableRecord
100
AcDbBlockTableRecord
  2
*PAPER_SPACE
  0
BLOCK_RECORD
  5
29
100
AcDbSymbolTableRecord
100
AcDbBlockTableRecord
  2
_NONE
  0
BLOCK_RECORD
  5
2D
100
AcDbSymbolTableRecord
100
AcDbBlockTableRecord
  2
_OPEN
  0
BLOCK_RECORD
  5
33
100
AcDbSymbolTableRecord
100
AcDbBlockTableRecord
  2
_CLOSED
  0
BLOCK_RECORD
  5
3A
100
AcDbSymbolTableRecord
100
AcDbBlockTableRecord
  2
_ORIGIN
  0
BLOCK_RECORD
  5
3F
100
AcDbSymbolTableRecord
100
AcDbBlockTableRecord
  2
_DOT
  0
BLOCK_RECORD
  5
47
100
AcDbSymbolTableRecord
100
AcDbBlockTableRecord
  2
_OBLIQUE
  0
BLOCK_RECORD
  5
4B
100
AcDbSymbolTableRecord
100
AcDbBlockTableRecord
  2
DIMS0
  0
BLOCK_RECORD
  5
57
100
AcDbSymbolTableRecord
100
AcDbBlockTableRecord
  2
DIMS1
  0
BLOCK_RECORD
  5
63
100
AcDbSymbolTableRecord
100
AcDbBlockTableRecord
  2
DIMS2
  0
BLOCK_RECORD
  5
6F
100
AcDbSymbolTableRecord
100
AcDbBlockTableRecord
  2
DIMS3
  0
BLOCK_RECORD
  5
7C
100
AcDbSymbolTableRecord
100
AcDbBlockTableRecord
  2
DIMS4
  0
BLOCK_RECORD
  5
88
100
AcDbSymbolTableRecord
100
AcDbBlockTableRecord
  2
DIMS5
  0
BLOCK_RECORD
  5
94
100
AcDbSymbolTableRecord
100
AcDbBlockTableRecord
  2
DIMS6
  0
BLOCK_RECORD
  5
9F
100
AcDbSymbolTableRecord
100
AcDbBlockTableRecord
  2
DIMS7
  0
BLOCK_RECORD
  5
AA
100
AcDbSymbolTableRecord
100
AcDbBlockTableRecord
  2
DIMS8
  0
BLOCK_RECORD
  5
B6
100
AcDbSymbolTableRecord
100
AcDbBlockTableRecord
  2
DIMS9
  0
BLOCK_RECORD
  5
C2
100
AcDbSymbolTableRecord
100
AcDbBlockTableRecord
  2
DIMS10
  0
BLOCK_RECORD
  5
CE
100
AcDbSymbolTableRecord
100
AcDbBlockTableRecord
  2
DIMS11
  0
BLOCK_RECORD
  5
DA
100
AcDbSymbolTableRecord
100
AcDbBlockTableRecord
  2
DIMS12
  0
BLOCK_RECORD
  5
E6
100
AcDbSymbolTableRecord
100
AcDbBlockTableRecord
  2
DIMS13
  0
BLOCK_RECORD
  5
F2
100
AcDbSymbolTableRecord
100
AcDbBlockTableRecord
  2
DIMS14
  0
BLOCK_RECORD
  5
FB
100
AcDbSymbolTableRecord
100
AcDbBlockTableRecord
  2
DIMS15
  0
BLOCK_RECORD
  5
107
100
AcDbSymbolTableRecord
100
AcDbBlockTableRecord
  2
DIMS16
  0
ENDTAB
  0
ENDSEC
  0
SECTION
  2
BLOCKS
  0
BLOCK
  5
22
100
AcDbEntity
  8
0
100
AcDbBlockBegin
  2
*MODEL_SPACE
 70
     0
 10
0.0
 20
0.0
 30
0.0
  3
*MODEL_SPACE
  1

  0
ENDBLK
  5
23
100
AcDbEntity
  8
0
100
AcDbBlockEnd
  0
BLOCK
  5
25
100
AcDbEntity
 67
     1
  8
0
100
AcDbBlockBegin
  2
*PAPER_SPACE
 70
     0
 10
0.0
 20
0.0
 30
0.0
  3
*PAPER_SPACE
  1

  0
ENDBLK
  5
26
100
AcDbEntity
 67
     1
  8
0
100
AcDbBlockEnd
  0
BLOCK
  5
2A
100
AcDbEntity
  8
0
100
AcDbBlockBegin
  2
_NONE
 70
     0
 10
0.0
 20
0.0
  0
CIRCLE
  5
2B
100
AcDbEntity
  8
0
 62
     0
100
AcDbCircle
 10
0.0
 20
0.0
 40
0.25
  0
ENDBLK
  5
2C
100
AcDbEntity
  8
0
100
AcDbBlockEnd
  0
BLOCK
  5
2E
100
AcDbEntity
  8
0
100
AcDbBlockBegin
  2
_OPEN
 70
     0
 10
0.0
 20
0.0
  0
LINE
  5
2F
100
AcDbEntity
  8
0
 62
     0
100
AcDbLine
 10
-0.965926
 20
0.258819
 11
0.0
 21
0.0
  0
LINE
  5
30
100
AcDbEntity
  8
0
 62
     0
100
AcDbLine
 10
0.0
 20
0.0
 11
-0.965926
 21
-0.258819
  0
LINE
  5
31
100
AcDbEntity
  8
0
 62
     0
100
AcDbLine
 10
0.0
 20
0.0
 11
-1.0
 21
0.0
  0
ENDBLK
  5
32
100
AcDbEntity
  8
0
100
AcDbBlockEnd
  0
BLOCK
  5
34
100
AcDbEntity
  8
0
100
AcDbBlockBegin
  2
_CLOSED
 70
     0
 10
0.0
 20
0.0
  0
LINE
  5
35
100
AcDbEntity
  8
0
 62
     0
100
AcDbLine
 10
-0.965926
 20
0.258819
 11
0.0
 21
0.0
  0
LINE
  5
36
100
AcDbEntity
  8
0
 62
     0
100
AcDbLine
 10
0.0
 20
0.0
 11
-0.965926
 21
-0.258819
  0
LINE
  5
37
100
AcDbEntity
  8
0
 62
     0
100
AcDbLine
 10
-0.965926
 20
0.258819
 11
-0.965926
 21
-0.258819
  0
LINE
  5
38
100
AcDbEntity
  8
0
 62
     0
100
AcDbLine
 10
0.0
 20
0.0
 11
-1.0
 21
0.0
  0
ENDBLK
  5
39
100
AcDbEntity
  8
0
100
AcDbBlockEnd
  0
BLOCK
  5
3B
100
AcDbEntity
  8
0
100
AcDbBlockBegin
  2
_ORIGIN
 70
     0
 10
0.0
 20
0.0
  0
CIRCLE
  5
3C
100
AcDbEntity
  8
0
 62
     0
100
AcDbCircle
 10
0.0
 20
0.0
 40
0.5
  0
LINE
  5
3D
100
AcDbEntity
  8
0
 62
     0
100
AcDbLine
 10
0.0
 20
0.0
 11
-1.0
 21
0.0
  0
ENDBLK
  5
3E
100
AcDbEntity
  8
0
100
AcDbBlockEnd
  0
BLOCK
  5
40
100
AcDbEntity
  8
0
100
AcDbBlockBegin
  2
_DOT
 70
     0
 10
0.0
 20
0.0
  0
POLYLINE
  5
41
100
AcDbEntity
  8
0
 62
     0
100
AcDb2dPolyline
 66
     1
 70
     1
 40
0.5
 41
0.5
  0
VERTEX
  5
42
100
AcDbEntity
  8
0
 62
     0
100
AcDbVertex
100
AcDb2dVertex
 10
-0.25
 20
0.0
 42
1.0
  0
VERTEX
  5
43
100
AcDbEntity
  8
0
 62
     0
100
AcDbVertex
100
AcDb2dVertex
 10
0.25
 20
0.0
 42
1.0
  0
SEQEND
  5
44
100
AcDbEntity
  8
0
 62
     0
  0
LINE
  5
45
100
AcDbEntity
  8
0
 62
     0
100
AcDbLine
 10
-0.5
 20
0.0
 11
-1.0
 21
0.0
  0
ENDBLK
  5
46
100
AcDbEntity
  8
0
100
AcDbBlockEnd
  0
BLOCK
  5
48
100
AcDbEntity
  8
0
100
AcDbBlockBegin
  2
_OBLIQUE
 70
     0
 10
0.0
 20
0.0
  0
LINE
  5
49
100
AcDbEntity
  8
0
 62
     0
100
AcDbLine
 10
-0.353553
 20
-0.353553
 11
0.353553
 21
0.353553
  0
ENDBLK
  5
4A
100
AcDbEntity
  8
0
100
AcDbBlockEnd
  0
BLOCK
  5
4C
100
AcDbEntity
  8
DD0
100
AcDbBlockBegin
  2
DIMS0
 70
     0
 10
0.0
 20
0.0
  0
LINE
  5
4D
100
AcDbEntity
  8
DD0
100
AcDbLine
 10
120.866045
 20
432.685149
 11
165.4057
 21
432.685149
  0
LINE
  5
4E
100
AcDbEntity
  8
DD0
100
AcDbLine
 10
124.717099
 20
300.684947
 11
165.4057
 21
300.684947
  0
LINE
  5
4F
100
AcDbEntity
  8
DD0
100
AcDbLine
 10
164.999258
 20
427.416463
 11
163.587518
 21
432.685149
  0
LINE
  5
50
100
AcDbEntity
  8
DD0
100
AcDbLine
 10
163.587518
 20
432.685149
 11
162.175778
 21
427.416463
  0
LINE
  5
51
100
AcDbEntity
  8
DD0
100
AcDbLine
 10
162.175778
 20
305.953633
 11
163.587518
 21
300.684947
  0
LINE
  5
52
100
AcDbEntity
  8
DD0
100
AcDbLine
 10
163.587518
 20
300.684947
 11
164.999258
 21
305.953633
  0
LINE
  5
53
100
AcDbEntity
  8
DD0
100
AcDbLine
 10
163.587518
 20
432.685149
 11
163.587518
 21
300.684947
  0
TEXT
  5
54
100
AcDbEntity
  8
DD0
100
AcDbText
 10
162.496612
 20
361.542627
 40
4.545454
  1
１３２
 50
90.000003
 41
0.666667
  7
STANDARD
100
AcDbText
  0
ENDBLK
  5
55
100
AcDbEntity
  8
DD0
100
AcDbBlockEnd
  0
BLOCK
  5
58
100
AcDbEntity
  8
DD0
100
AcDbBlockBegin
  2
DIMS1
 70
     0
 10
0.0
 20
0.0
  0
LINE
  5
59
100
AcDbEntity
  8
DD0
100
AcDbLine
 10
71.847866
 20
420.503309
 11
71.847866
 21
460.399604
  0
LINE
  5
5A
100
AcDbEntity
  8
DD0
100
AcDbLine
 10
134.647866
 20
420.503309
 11
134.647866
 21
460.399604
  0
LINE
  5
5B
100
AcDbEntity
  8
DD0
100
AcDbLine
 10
77.116552
 20
459.993162
 11
71.847866
 21
458.581422
  0
LINE
  5
5C
100
AcDbEntity
  8
DD0
100
AcDbLine
 10
71.847866
 20
458.581422
 11
77.116552
 21
457.169682
  0
LINE
  5
5D
100
AcDbEntity
  8
DD0
100
AcDbLine
 10
129.37918
 20
457.169682
 11
134.647866
 21
458.581422
  0
LINE
  5
5E
100
AcDbEntity
  8
DD0
100
AcDbLine
 10
134.647866
 20
458.581422
 11
129.37918
 21
459.993162
  0
LINE
  5
5F
100
AcDbEntity
  8
DD0
100
AcDbLine
 10
71.847866
 20
458.581422
 11
134.647866
 21
458.581422
  0
TEXT
  5
60
100
AcDbEntity
  8
DD0
100
AcDbText
 10
99.923626
 20
459.672342
 40
4.545454
  1
６３
 41
0.666667
  7
STANDARD
100
AcDbText
  0
ENDBLK
  5
61
100
AcDbEntity
  8
DD0
100
AcDbBlockEnd
  0
BLOCK
  5
64
100
AcDbEntity
  8
DD0
100
AcDbBlockBegin
  2
DIMS2
 70
     0
 10
0.0
 20
0.0
  0
LINE
  5
65
100
AcDbEntity
  8
DD0
100
AcDbLine
 10
103.247859
 20
414.203316
 11
103.247859
 21
448.33165
  0
LINE
  5
66
100
AcDbEntity
  8
DD0
100
AcDbLine
 10
90.247863
 20
414.203316
 11
90.247863
 21
448.33165
  0
LINE
  5
67
100
AcDbEntity
  8
DD0
100
AcDbLine
 10
108.516545
 20
447.925208
 11
103.247859
 21
446.513468
  0
LINE
  5
68
100
AcDbEntity
  8
DD0
100
AcDbLine
 10
103.247859
 20
446.513468
 11
108.516545
 21
445.101728
  0
LINE
  5
69
100
AcDbEntity
  8
DD0
100
AcDbLine
 10
84.979177
 20
445.101728
 11
90.247863
 21
446.513468
  0
LINE
  5
6A
100
AcDbEntity
  8
DD0
100
AcDbLine
 10
90.247863
 20
446.513468
 11
84.979177
 21
447.925208
  0
LINE
  5
6B
100
AcDbEntity
  8
DD0
100
AcDbLine
 10
109.247859
 20
446.513468
 11
84.247863
 21
446.513468
  0
TEXT
  5
6C
100
AcDbEntity
  8
DD0
100
AcDbText
 10
93.423625
 20
447.604388
 40
4.545454
  1
１３
 41
0.666667
  7
STANDARD
100
AcDbText
  0
ENDBLK
  5
6D
100
AcDbEntity
  8
DD0
100
AcDbBlockEnd
  0
BLOCK
  5
70
100
AcDbEntity
  8
DD0
100
AcDbBlockBegin
  2
DIMS3
 70
     0
 10
0.0
 20
0.0
  0
LINE
  5
71
100
AcDbEntity
  8
DD0
100
AcDbLine
 10
147.147866
 20
419.703332
 11
147.147866
 21
477.831022
  0
LINE
  5
72
100
AcDbEntity
  8
DD0
100
AcDbLine
 10
59.347866
 20
419.703332
 11
59.347866
 21
477.831022
  0
LINE
  5
73
100
AcDbEntity
  8
DD0
100
AcDbLine
 10
141.879179
 20
474.6011
 11
147.147866
 21
476.01284
  0
LINE
  5
74
100
AcDbEntity
  8
DD0
100
AcDbLine
 10
147.147866
 20
476.01284
 11
141.879179
 21
477.424581
  0
LINE
  5
75
100
AcDbEntity
  8
DD0
100
AcDbLine
 10
64.616552
 20
477.424581
 11
59.347866
 21
476.01284
  0
LINE
  5
76
100
AcDbEntity
  8
DD0
100
AcDbLine
 10
59.347866
 20
476.01284
 11
64.616552
 21
474.6011
  0
LINE
  5
77
100
AcDbEntity
  8
DD0
100
AcDbLine
 10
147.147866
 20
476.01284
 11
59.347866
 21
476.01284
  0
TEXT
  5
78
100
AcDbEntity
  8
DD0
100
AcDbText
 10
99.923626
 20
477.103761
 40
4.545454
  1
８８
 41
0.666667
  7
STANDARD
100
AcDbText
  0
TEXT
  5
79
100
AcDbEntity
  8
DD0
100
AcDbText
 10
65.378172
 20
470.012863
 40
4.545454
  1
（補助接点サイドオンユニットを付けた場合）
 41
0.666667
  7
STANDARD
100
AcDbText
  0
ENDBLK
  5
7A
100
AcDbEntity
  8
DD0
100
AcDbBlockEnd
  0
BLOCK
  5
7D
100
AcDbEntity
  8
DD0
100
AcDbBlockBegin
  2
DIMS4
 70
     0
 10
0.0
 20
0.0
  0
LINE
  5
7E
100
AcDbEntity
  8
DD0
100
AcDbLine
 10
342.044115
 20
352.616958
 11
342.044115
 21
282.448641
  0
LINE
  5
7F
100
AcDbEntity
  8
DD0
100
AcDbLine
 10
235.144648
 20
323.621292
 11
235.144648
 21
282.448641
  0
LINE
  5
80
100
AcDbEntity
  8
DD0
100
AcDbLine
 10
336.775429
 20
282.855083
 11
342.044115
 21
284.266823
  0
LINE
  5
81
100
AcDbEntity
  8
DD0
100
AcDbLine
 10
342.044115
 20
284.266823
 11
336.775429
 21
285.678563
  0
LINE
  5
82
100
AcDbEntity
  8
DD0
100
AcDbLine
 10
240.413334
 20
285.678563
 11
235.144648
 21
284.266823
  0
LINE
  5
83
100
AcDbEntity
  8
DD0
100
AcDbLine
 10
235.144648
 20
284.266823
 11
240.413334
 21
282.855083
  0
LINE
  5
84
100
AcDbEntity
  8
DD0
100
AcDbLine
 10
342.044115
 20
284.266823
 11
235.144648
 21
284.266823
  0
TEXT
  5
85
100
AcDbEntity
  8
DD0
100
AcDbText
 10
283.451947
 20
285.357743
 40
4.545454
  1
１０７
 41
0.666667
  7
STANDARD
100
AcDbText
  0
ENDBLK
  5
86
100
AcDbEntity
  8
DD0
100
AcDbBlockEnd
  0
BLOCK
  5
89
100
AcDbEntity
  8
DD0
100
AcDbBlockBegin
  2
DIMS5
 70
     0
 10
0.0
 20
0.0
  0
LINE
  5
8A
100
AcDbEntity
  8
DD0
100
AcDbLine
 10
80.397906
 20
317.366964
 11
80.397906
 21
282.448669
  0
LINE
  5
8B
100
AcDbEntity
  8
DD0
100
AcDbLine
 10
92.897906
 20
317.366964
 11
92.897906
 21
282.448669
  0
LINE
  5
8C
100
AcDbEntity
  8
DD0
100
AcDbLine
 10
75.12922
 20
282.85511
 11
80.397906
 21
284.266851
  0
LINE
  5
8D
100
AcDbEntity
  8
DD0
100
AcDbLine
 10
80.397906
 20
284.266851
 11
75.12922
 21
285.678591
  0
LINE
  5
8E
100
AcDbEntity
  8
DD0
100
AcDbLine
 10
98.166592
 20
285.678591
 11
92.897906
 21
284.266851
  0
LINE
  5
8F
100
AcDbEntity
  8
DD0
100
AcDbLine
 10
92.897906
 20
284.266851
 11
98.166592
 21
282.85511
  0
LINE
  5
90
100
AcDbEntity
  8
DD0
100
AcDbLine
 10
62.600221
 20
284.266851
 11
98.897905
 21
284.266851
  0
TEXT
  5
91
100
AcDbEntity
  8
DD0
100
AcDbText
 10
64.730527
 20
285.357771
 40
4.545454
  1
１２．５
 41
0.666667
  7
STANDARD
100
AcDbText
  0
ENDBLK
  5
92
100
AcDbEntity
  8
DD0
100
AcDbBlockEnd
  0
BLOCK
  5
95
100
AcDbEntity
  8
DD0
100
AcDbBlockBegin
  2
DIMS6
 70
     0
 10
0.0
 20
0.0
  0
LINE
  5
96
100
AcDbEntity
  8
DD0
100
AcDbLine
 10
331.044138
 20
424.003314
 11
331.044138
 21
441.52229
  0
LINE
  5
97
100
AcDbEntity
  8
DD0
100
AcDbLine
 10
336.775429
 20
438.292368
 11
342.044115
 21
439.704109
  0
LINE
  5
98
100
AcDbEntity
  8
DD0
100
AcDbLine
 10
342.044115
 20
439.704109
 11
336.775429
 21
441.115849
  0
LINE
  5
99
100
AcDbEntity
  8
DD0
100
AcDbLine
 10
336.312824
 20
441.115849
 11
331.044138
 21
439.704109
  0
LINE
  5
9A
100
AcDbEntity
  8
DD0
100
AcDbLine
 10
331.044138
 20
439.704109
 11
336.312824
 21
438.292368
  0
LINE
  5
9B
100
AcDbEntity
  8
DD0
100
AcDbLine
 10
342.044115
 20
439.704109
 11
331.044138
 21
439.704109
  0
TEXT
  5
9C
100
AcDbEntity
  8
DD0
100
AcDbText
 10
333.219873
 20
440.795029
 40
4.545454
  1
１１
 41
0.666667
  7
STANDARD
100
AcDbText
  0
ENDBLK
  5
9D
100
AcDbEntity
  8
DD0
100
AcDbBlockEnd
  0
BLOCK
  5
A0
100
AcDbEntity
  8
DD0
100
AcDbBlockBegin
  2
DIMS7
 70
     0
 10
0.0
 20
0.0
  0
LINE
  5
A1
100
AcDbEntity
  8
DD0
100
AcDbLine
 10
228.644127
 20
401.503315
 11
228.644127
 21
460.399604
  0
LINE
  5
A2
100
AcDbEntity
  8
DD0
100
AcDbLine
 10
336.775429
 20
457.169682
 11
342.044115
 21
458.581422
  0
LINE
  5
A3
100
AcDbEntity
  8
DD0
100
AcDbLine
 10
342.044115
 20
458.581422
 11
336.775429
 21
459.993162
  0
LINE
  5
A4
100
AcDbEntity
  8
DD0
100
AcDbLine
 10
233.912813
 20
459.993162
 11
228.644127
 21
458.581422
  0
LINE
  5
A5
100
AcDbEntity
  8
DD0
100
AcDbLine
 10
228.644127
 20
458.581422
 11
233.912813
 21
457.169682
  0
LINE
  5
A6
100
AcDbEntity
  8
DD0
100
AcDbLine
 10
342.044115
 20
458.581422
 11
228.644127
 21
458.581422
  0
TEXT
  5
A7
100
AcDbEntity
  8
DD0
100
AcDbText
 10
280.201686
 20
459.672342
 40
4.545454
  1
１１４
 41
0.666667
  7
STANDARD
100
AcDbText
  0
ENDBLK
  5
A8
100
AcDbEntity
  8
DD0
100
AcDbBlockEnd
  0
BLOCK
  5
AB
100
AcDbEntity
  8
DD0
100
AcDbBlockBegin
  2
DIMS8
 70
     0
 10
0.0
 20
0.0
  0
LINE
  5
AC
100
AcDbEntity
  8
DD0
100
AcDbLine
 10
342.044115
 20
423.75332
 11
342.044115
 21
477.831022
  0
LINE
  5
AD
100
AcDbEntity
  8
DD0
100
AcDbLine
 10
197.344134
 20
392.30332
 11
197.344134
 21
477.831022
  0
LINE
  5
AE
100
AcDbEntity
  8
DD0
100
AcDbLine
 10
336.775429
 20
474.6011
 11
342.044115
 21
476.01284
  0
LINE
  5
AF
100
AcDbEntity
  8
DD0
100
AcDbLine
 10
342.044115
 20
476.01284
 11
336.775429
 21
477.424581
  0
LINE
  5
B0
100
AcDbEntity
  8
DD0
100
AcDbLine
 10
202.61282
 20
477.424581
 11
197.344134
 21
476.01284
  0
LINE
  5
B1
100
AcDbEntity
  8
DD0
100
AcDbLine
 10
197.344134
 20
476.01284
 11
202.61282
 21
474.6011
  0
LINE
  5
B2
100
AcDbEntity
  8
DD0
100
AcDbLine
 10
342.044115
 20
476.01284
 11
197.344134
 21
476.01284
  0
TEXT
  5
B3
100
AcDbEntity
  8
DD0
100
AcDbText
 10
231.824418
 20
477.103761
 40
4.545454
  1
１４５接点ヘッドオンユニットを付けた場合）
 41
0.666667
  7
STANDARD
100
AcDbText
  0
ENDBLK
  5
B4
100
AcDbEntity
  8
DD0
100
AcDbBlockEnd
  0
BLOCK
  5
B7
100
AcDbEntity
  8
DD0
100
AcDbBlockBegin
  2
DIMS9
 70
     0
 10
0.0
 20
0.0
  0
LINE
  5
B8
100
AcDbEntity
  8
DD0
100
AcDbLine
 10
228.644127
 20
401.503315
 11
228.644127
 21
460.399604
  0
LINE
  5
B9
100
AcDbEntity
  8
DD0
100
AcDbLine
 10
223.644127
 20
438.423452
 11
223.644127
 21
460.399604
  0
LINE
  5
BA
100
AcDbEntity
  8
DD0
100
AcDbLine
 10
233.912813
 20
459.993162
 11
228.644127
 21
458.581422
  0
LINE
  5
BB
100
AcDbEntity
  8
DD0
100
AcDbLine
 10
228.644127
 20
458.581422
 11
233.912813
 21
457.169682
  0
LINE
  5
BC
100
AcDbEntity
  8
DD0
100
AcDbLine
 10
218.375441
 20
457.169682
 11
223.644127
 21
458.581422
  0
LINE
  5
BD
100
AcDbEntity
  8
DD0
100
AcDbLine
 10
223.644127
 20
458.581422
 11
218.375441
 21
459.993162
  0
LINE
  5
BE
100
AcDbEntity
  8
DD0
100
AcDbLine
 10
234.644127
 20
458.581422
 11
212.189581
 21
458.581422
  0
TEXT
  5
BF
100
AcDbEntity
  8
DD0
100
AcDbText
 10
213.792608
 20
459.672342
 40
4.545454
  1
５
 41
0.666667
  7
STANDARD
100
AcDbText
  0
ENDBLK
  5
C0
100
AcDbEntity
  8
DD0
100
AcDbBlockEnd
  0
BLOCK
  5
C3
100
AcDbEntity
  8
DD0
100
AcDbBlockBegin
  2
DIMS10
 70
     0
 10
0.0
 20
0.0
  0
LINE
  5
C4
100
AcDbEntity
  8
DD0
100
AcDbLine
 10
82.416033
 20
208.009695
 11
165.4057
 21
208.009695
  0
LINE
  5
C5
100
AcDbEntity
  8
DD0
100
AcDbLine
 10
136.916043
 20
149.009687
 11
165.4057
 21
149.009687
  0
LINE
  5
C6
100
AcDbEntity
  8
DD0
100
AcDbLine
 10
164.999258
 20
202.741008
 11
163.587518
 21
208.009695
  0
LINE
  5
C7
100
AcDbEntity
  8
DD0
100
AcDbLine
 10
163.587518
 20
208.009695
 11
162.175778
 21
202.741008
  0
LINE
  5
C8
100
AcDbEntity
  8
DD0
100
AcDbLine
 10
162.175778
 20
154.278374
 11
163.587518
 21
149.009687
  0
LINE
  5
C9
100
AcDbEntity
  8
DD0
100
AcDbLine
 10
163.587518
 20
149.009687
 11
164.999258
 21
154.278374
  0
LINE
  5
CA
100
AcDbEntity
  8
DD0
100
AcDbLine
 10
163.587518
 20
208.009695
 11
163.587518
 21
149.009687
  0
TEXT
  5
CB
100
AcDbEntity
  8
DD0
100
AcDbText
 10
162.496612
 20
175.185445
 40
4.545454
  1
５９
 50
90.000003
 41
0.666667
  7
STANDARD
100
AcDbText
  0
ENDBLK
  5
CC
100
AcDbEntity
  8
DD0
100
AcDbBlockEnd
  0
BLOCK
  5
CF
100
AcDbEntity
  8
DD0
100
AcDbBlockBegin
  2
DIMS11
 70
     0
 10
0.0
 20
0.0
  0
LINE
  5
D0
100
AcDbEntity
  8
DD0
100
AcDbLine
 10
82.416033
 20
208.009695
 11
165.4057
 21
208.009695
  0
LINE
  5
D1
100
AcDbEntity
  8
DD0
100
AcDbLine
 10
122.018638
 20
222.509691
 11
165.4057
 21
222.509691
  0
LINE
  5
D2
100
AcDbEntity
  8
DD0
100
AcDbLine
 10
162.175778
 20
213.278381
 11
163.587518
 21
208.009695
  0
LINE
  5
D3
100
AcDbEntity
  8
DD0
100
AcDbLine
 10
163.587518
 20
208.009695
 11
164.999258
 21
213.278381
  0
LINE
  5
D4
100
AcDbEntity
  8
DD0
100
AcDbLine
 10
164.999258
 20
217.241005
 11
163.587518
 21
222.509691
  0
LINE
  5
D5
100
AcDbEntity
  8
DD0
100
AcDbLine
 10
163.587518
 20
222.509691
 11
162.175778
 21
217.241005
  0
LINE
  5
D6
100
AcDbEntity
  8
DD0
100
AcDbLine
 10
163.587518
 20
208.009695
 11
163.587518
 21
243.640395
  0
TEXT
  5
D7
100
AcDbEntity
  8
DD0
100
AcDbText
 10
162.496612
 20
227.588883
 40
4.545454
  1
１４．５
 50
90.000003
 41
0.666667
  7
STANDARD
100
AcDbText
  0
ENDBLK
  5
D8
100
AcDbEntity
  8
DD0
100
AcDbBlockEnd
  0
BLOCK
  5
DB
100
AcDbEntity
  8
DD0
100
AcDbBlockBegin
  2
DIMS12
 70
     0
 10
0.0
 20
0.0
  0
LINE
  5
DC
100
AcDbEntity
  8
DD0
100
AcDbLine
 10
76.500444
 20
213.925263
 11
76.500444
 21
237.813299
  0
LINE
  5
DD
100
AcDbEntity
  8
DD0
100
AcDbLine
 10
130.500444
 20
155.425273
 11
130.500444
 21
237.813299
  0
LINE
  5
DE
100
AcDbEntity
  8
DD0
100
AcDbLine
 10
81.76913
 20
237.406858
 11
76.500444
 21
235.995118
  0
LINE
  5
DF
100
AcDbEntity
  8
DD0
100
AcDbLine
 10
76.500444
 20
235.995118
 11
81.76913
 21
234.583377
  0
LINE
  5
E0
100
AcDbEntity
  8
DD0
100
AcDbLine
 10
125.231758
 20
234.583377
 11
130.500444
 21
235.995118
  0
LINE
  5
E1
100
AcDbEntity
  8
DD0
100
AcDbLine
 10
130.500444
 20
235.995118
 11
125.231758
 21
237.406858
  0
LINE
  5
E2
100
AcDbEntity
  8
DD0
100
AcDbLine
 10
76.500444
 20
235.995118
 11
130.500444
 21
235.995118
  0
TEXT
  5
E3
100
AcDbEntity
  8
DD0
100
AcDbText
 10
100.176208
 20
237.086038
 40
4.545454
  1
５４
 41
0.666667
  7
STANDARD
100
AcDbText
  0
ENDBLK
  5
E4
100
AcDbEntity
  8
DD0
100
AcDbBlockEnd
  0
BLOCK
  5
E7
100
AcDbEntity
  8
DD0
100
AcDbBlockBegin
  2
DIMS13
 70
     0
 10
0.0
 20
0.0
  0
LINE
  5
E8
100
AcDbEntity
  8
DD0
100
AcDbLine
 10
76.500444
 20
213.925263
 11
76.500444
 21
237.813299
  0
LINE
  5
E9
100
AcDbEntity
  8
DD0
100
AcDbLine
 10
72.100454
 20
215.327879
 11
72.100454
 21
237.813299
  0
LINE
  5
EA
100
AcDbEntity
  8
DD0
100
AcDbLine
 10
81.76913
 20
237.406858
 11
76.500444
 21
235.995118
  0
LINE
  5
EB
100
AcDbEntity
  8
DD0
100
AcDbLine
 10
76.500444
 20
235.995118
 11
81.76913
 21
234.583377
  0
LINE
  5
EC
100
AcDbEntity
  8
DD0
100
AcDbLine
 10
66.831768
 20
234.583377
 11
72.100454
 21
235.995118
  0
LINE
  5
ED
100
AcDbEntity
  8
DD0
100
AcDbLine
 10
72.100454
 20
235.995118
 11
66.831768
 21
237.406858
  0
LINE
  5
EE
100
AcDbEntity
  8
DD0
100
AcDbLine
 10
82.500443
 20
235.995118
 11
53.373181
 21
235.995118
  0
TEXT
  5
EF
100
AcDbEntity
  8
DD0
100
AcDbText
 10
54.976214
 20
237.086038
 40
4.545454
  1
４．５
 41
0.666667
  7
STANDARD
100
AcDbText
  0
ENDBLK
  5
F0
100
AcDbEntity
  8
DD0
100
AcDbBlockEnd
  0
BLOCK
  5
F3
100
AcDbEntity
  8
DD0
100
AcDbBlockBegin
  2
DIMS14
 70
     0
 10
0.0
 20
0.0
  0
TEXT
  5
F4
100
AcDbEntity
  8
DD0
100
AcDbText
 10
146.434238
 20
127.133745
 40
4.545454
  1
２－Ｍ４ねじ穴
 41
0.666667
  7
STANDARD
100
AcDbText
  0
LINE
  5
F5
100
AcDbEntity
  8
DD0
100
AcDbLine
 10
134.905989
 20
142.996977
 11
131.64882
 21
147.372239
  0
LINE
  5
F6
100
AcDbEntity
  8
DD0
100
AcDbLine
 10
131.64882
 20
147.372239
 11
132.28198
 21
141.954567
  0
LINE
  5
F7
100
AcDbEntity
  8
DD0
100
AcDbLine
 10
131.64882
 20
147.372239
 11
140.122109
 21
126.042838
  0
LINE
  5
F8
100
AcDbEntity
  8
DD0
100
AcDbLine
 10
140.122109
 20
126.042838
 11
177.576665
 21
126.042838
  0
ENDBLK
  5
F9
100
AcDbEntity
  8
DD0
100
AcDbBlockEnd
  0
BLOCK
  5
FC
100
AcDbEntity
  8
DD0
100
AcDbBlockBegin
  2
DIMS15
 70
     0
 10
0.0
 20
0.0
  0
LINE
  5
FD
100
AcDbEntity
  8
DD0
100
AcDbLine
 10
85.31195
 20
432.685149
 11
41.760461
 21
432.685149
  0
LINE
  5
FE
100
AcDbEntity
  8
DD0
100
AcDbLine
 10
88.429681
 20
411.885145
 11
41.760461
 21
411.885145
  0
LINE
  5
FF
100
AcDbEntity
  8
DD0
100
AcDbLine
 10
44.990383
 20
427.416463
 11
43.578643
 21
432.685149
  0
LINE
  5
100
100
AcDbEntity
  8
DD0
100
AcDbLine
 10
43.578643
 20
432.685149
 11
42.166903
 21
427.416463
  0
LINE
  5
101
100
AcDbEntity
  8
DD0
100
AcDbLine
 10
42.166903
 20
417.153831
 11
43.578643
 21
411.885145
  0
LINE
  5
102
100
AcDbEntity
  8
DD0
100
AcDbLine
 10
43.578643
 20
411.885145
 11
44.990383
 21
417.153831
  0
LINE
  5
103
100
AcDbEntity
  8
DD0
100
AcDbLine
 10
43.578643
 20
432.685149
 11
43.578643
 21
411.885145
  0
TEXT
  5
104
100
AcDbEntity
  8
DD0
100
AcDbText
 10
42.487733
 20
418.960894
 40
4.545454
  1
２１
 50
90.000003
 41
0.666667
  7
STANDARD
100
AcDbText
  0
ENDBLK
  5
105
100
AcDbEntity
  8
DD0
100
AcDbBlockEnd
  0
BLOCK
  5
108
100
AcDbEntity
  8
DD0
100
AcDbBlockBegin
  2
DIMS16
 70
     0
 10
0.0
 20
0.0
  0
LINE
  5
109
100
AcDbEntity
  8
DD0
100
AcDbLine
 10
88.429681
 20
411.885145
 11
41.760461
 21
411.885145
  0
LINE
  5
10A
100
AcDbEntity
  8
DD0
100
AcDbLine
 10
78.579724
 20
319.685135
 11
41.760461
 21
319.685135
  0
LINE
  5
10B
100
AcDbEntity
  8
DD0
100
AcDbLine
 10
44.990383
 20
406.616459
 11
43.578643
 21
411.885145
  0
LINE
  5
10C
100
AcDbEntity
  8
DD0
100
AcDbLine
 10
43.578643
 20
411.885145
 11
42.166903
 21
406.616459
  0
LINE
  5
10D
100
AcDbEntity
  8
DD0
100
AcDbLine
 10
42.166903
 20
324.953821
 11
43.578643
 21
319.685135
  0
LINE
  5
10E
100
AcDbEntity
  8
DD0
100
AcDbLine
 10
43.578643
 20
319.685135
 11
44.990383
 21
324.953821
  0
LINE
  5
10F
100
AcDbEntity
  8
DD0
100
AcDbLine
 10
43.578643
 20
411.885145
 11
43.578643
 21
319.685135
  0
TEXT
  5
110
100
AcDbEntity
  8
DD0
100
AcDbText
 10
42.487733
 20
362.460873
 40
4.545454
  1
９２
 50
90.000003
 41
0.666667
  7
STANDARD
100
AcDbText
  0
ENDBLK
  5
111
100
AcDbEntity
  8
DD0
100
AcDbBlockEnd
  0
ENDSEC
  0
SECTION
  2
ENTITIES
  0
INSERT
  5
56
100
AcDbEntity
  8
DD0
100
AcDbBlockReference
  2
DIMS0
 10
0.0
 20
0.0
  0
INSERT
  5
62
100
AcDbEntity
  8
DD0
100
AcDbBlockReference
  2
DIMS1
 10
0.0
 20
0.0
  0
INSERT
  5
6E
100
AcDbEntity
  8
DD0
100
AcDbBlockReference
  2
DIMS2
 10
0.0
 20
0.0
  0
INSERT
  5
7B
100
AcDbEntity
  8
DD0
100
AcDbBlockReference
  2
DIMS3
 10
0.0
 20
0.0
  0
INSERT
  5
87
100
AcDbEntity
  8
DD0
100
AcDbBlockReference
  2
DIMS4
 10
0.0
 20
0.0
  0
INSERT
  5
93
100
AcDbEntity
  8
DD0
100
AcDbBlockReference
  2
DIMS5
 10
0.0
 20
0.0
  0
INSERT
  5
9E
100
AcDbEntity
  8
DD0
100
AcDbBlockReference
  2
DIMS6
 10
0.0
 20
0.0
  0
INSERT
  5
A9
100
AcDbEntity
  8
DD0
100
AcDbBlockReference
  2
DIMS7
 10
0.0
 20
0.0
  0
INSERT
  5
B5
100
AcDbEntity
  8
DD0
100
AcDbBlockReference
  2
DIMS8
 10
0.0
 20
0.0
  0
INSERT
  5
C1
100
AcDbEntity
  8
DD0
100
AcDbBlockReference
  2
DIMS9
 10
0.0
 20
0.0
  0
INSERT
  5
CD
100
AcDbEntity
  8
DD0
100
AcDbBlockReference
  2
DIMS10
 10
0.0
 20
0.0
  0
INSERT
  5
D9
100
AcDbEntity
  8
DD0
100
AcDbBlockReference
  2
DIMS11
 10
0.0
 20
0.0
  0
INSERT
  5
E5
100
AcDbEntity
  8
DD0
100
AcDbBlockReference
  2
DIMS12
 10
0.0
 20
0.0
  0
INSERT
  5
F1
100
AcDbEntity
  8
DD0
100
AcDbBlockReference
  2
DIMS13
 10
0.0
 20
0.0
  0
INSERT
  5
FA
100
AcDbEntity
  8
DD0
100
AcDbBlockReference
  2
DIMS14
 10
0.0
 20
0.0
  0
INSERT
  5
106
100
AcDbEntity
  8
DD0
100
AcDbBlockReference
  2
DIMS15
 10
0.0
 20
0.0
  0
INSERT
  5
112
100
AcDbEntity
  8
DD0
100
AcDbBlockReference
  2
DIMS16
 10
0.0
 20
0.0
  0
CIRCLE
  5
113
100
AcDbEntity
  8
M0
 62
     7
100
AcDbCircle
 10
114.147863
 20
426.78514
 40
3.0
  0
LINE
  5
114
100
AcDbEntity
  8
M0
 62
     7
100
AcDbLine
 10
115.738447
 20
425.194495
 11
112.556806
 21
428.376258
  0
LINE
  5
115
100
AcDbEntity
  8
M0
 62
     7
100
AcDbLine
 10
115.561689
 20
427.138831
 11
113.794111
 21
425.371253
  0
LINE
  5
116
100
AcDbEntity
  8
M0
 62
     7
100
AcDbLine
 10
114.501142
 20
428.1995
 11
112.733564
 21
426.4318
  0
LINE
  5
117
100
AcDbEntity
  8
M0
 62
     7
100
AcDbLine
 10
117.472863
 20
430.61014
 11
110.822863
 21
430.61014
  0
ARC
  5
118
100
AcDbEntity
  8
M0
 62
     7
100
AcDbCircle
 10
117.472863
 20
430.11014
 40
0.5
100
AcDbArc
 50
0.0
 51
90.0
  0
LINE
  5
119
100
AcDbEntity
  8
M0
 62
     7
100
AcDbLine
 10
117.972863
 20
423.46014
 11
117.972863
 21
430.11014
  0
ARC
  5
11A
100
AcDbEntity
  8
M0
 62
     7
100
AcDbCircle
 10
117.472863
 20
423.46014
 40
0.5
100
AcDbArc
 50
270.0
 51
360.0
  0
LINE
  5
11B
100
AcDbEntity
  8
M0
 62
     7
100
AcDbLine
 10
110.822863
 20
422.96014
 11
117.472863
 21
422.96014
  0
LINE
  5
11C
100
AcDbEntity
  8
M0
 62
     7
100
AcDbLine
 10
110.322863
 20
430.11014
 11
110.322863
 21
423.46014
  0
ARC
  5
11D
100
AcDbEntity
  8
M0
 62
     7
100
AcDbCircle
 10
110.822863
 20
430.11014
 40
0.5
100
AcDbArc
 50
90.0
 51
180.0
  0
ARC
  5
11E
100
AcDbEntity
  8
M0
 62
     7
100
AcDbCircle
 10
110.822863
 20
423.46014
 40
0.5
100
AcDbArc
 50
180.0
 51
270.0
  0
LINE
  5
11F
100
AcDbEntity
  8
M0
  6
DASHDOT
 62
     4
100
AcDbLine
 10
122.750448
 20
319.473386
 11
122.750448
 21
337.564466
  0
LINE
  5
120
100
AcDbEntity
  8
M0
  6
DASHDOT
 62
     4
100
AcDbLine
 10
112.538564
 20
328.6834
 11
132.612096
 21
328.683436
  0
CIRCLE
  5
121
100
AcDbEntity
  8
M0
 62
     7
100
AcDbCircle
 10
122.750448
 20
328.683418
 40
3.75
  0
CIRCLE
  5
122
100
AcDbEntity
  8
M0
 62
     7
100
AcDbCircle
 10
122.750448
 20
328.683418
 40
8.3
  0
LINE
  5
123
100
AcDbEntity
  8
M0
 62
     7
100
AcDbLine
 10
127.141089
 20
334.652067
 11
126.528254
 21
334.137837
  0
LINE
  5
124
100
AcDbEntity
  8
M0
 62
     7
100
AcDbLine
 10
128.77801
 20
331.456681
 11
129.390846
 21
331.970911
  0
LINE
  5
125
100
AcDbEntity
  8
M0
 62
     7
100
AcDbLine
 10
129.390846
 20
331.970911
 11
127.141089
 21
334.652067
  0
LINE
  5
126
100
AcDbEntity
  8
M0
 62
     7
100
AcDbLine
 10
126.528254
 20
334.137837
 11
128.77801
 21
331.456681
  0
LINE
  5
127
100
AcDbEntity
  8
M0
 62
     7
100
AcDbLine
 10
127.551503
 20
335.453932
 11
127.551505
 21
336.133244
  0
LINE
  5
128
100
AcDbEntity
  8
M0
 62
     7
100
AcDbLine
 10
127.551505
 20
336.633244
 11
127.551507
 21
337.537968
  0
LINE
  5
129
100
AcDbEntity
  8
M0
 62
     7
100
AcDbLine
 10
127.551505
 20
336.633244
 11
126.051505
 21
336.633246
  0
LINE
  5
12A
100
AcDbEntity
  8
M0
 62
     7
100
AcDbLine
 10
129.551535
 20
336.383256
 11
127.724093
 21
335.32818
  0
LINE
  5
12B
100
AcDbEntity
  8
M0
 62
     7
100
AcDbLine
 10
126.051505
 20
336.298733
 11
126.051505
 21
336.633246
  0
LINE
  5
12C
100
AcDbEntity
  8
M0
 62
     7
100
AcDbLine
 10
127.551505
 20
336.133244
 11
126.409693
 21
336.133246
  0
LINE
  5
12D
100
AcDbEntity
  8
M0
 62
     7
100
AcDbLine
 10
129.551535
 20
336.383256
 11
127.551507
 21
337.537968
  0
TEXT
  5
12E
100
AcDbEntity
  8
M0
 62
     7
100
AcDbText
 10
134.249408
 20
336.008772
 40
2.0
  1
ＴＲＩＰ
 50
90.000563
 41
0.625
  7
STANDARD
100
AcDbText
  0
TEXT
  5
12F
100
AcDbEntity
  8
M0
 62
     7
100
AcDbText
 10
134.250453
 20
322.00024
 40
2.0
  1
ＡＵＴＯ
 50
90.000556
 41
0.583333
  7
STANDARD
100
AcDbText
  0
CIRCLE
  5
130
100
AcDbEntity
  8
M0
 62
     7
100
AcDbCircle
 10
133.200448
 20
328.683418
 40
0.75
  0
LINE
  5
131
100
AcDbEntity
  8
M0
 62
     7
100
AcDbLine
 10
123.350448
 20
331.183418
 11
123.350448
 21
326.183418
  0
LINE
  5
132
100
AcDbEntity
  8
M0
 62
     7
100
AcDbLine
 10
123.350448
 20
331.183418
 11
122.150448
 21
331.183418
  0
LINE
  5
133
100
AcDbEntity
  8
M0
 62
     7
100
AcDbLine
 10
122.150448
 20
331.183418
 11
122.150448
 21
326.183418
  0
LINE
  5
134
100
AcDbEntity
  8
M0
 62
     7
100
AcDbLine
 10
123.350448
 20
326.183418
 11
122.150448
 21
326.183418
  0
LINE
  5
135
100
AcDbEntity
  8
M0
 62
     7
100
AcDbLine
 10
115.440352
 20
332.903904
 11
112.750448
 21
334.456921
  0
ARC
  5
136
100
AcDbEntity
  8
M0
 62
     7
100
AcDbCircle
 10
114.050448
 20
323.183418
 40
0.5
100
AcDbArc
 50
0.0
 51
90.0
  0
LINE
  5
137
100
AcDbEntity
  8
M0
 62
     7
100
AcDbLine
 10
114.550448
 20
321.183418
 11
114.550448
 21
323.183418
  0
LINE
  5
138
100
AcDbEntity
  8
M0
 62
     7
100
AcDbLine
 10
119.19517
 20
321.183418
 11
109.900448
 21
321.183418
  0
LINE
  5
139
100
AcDbEntity
  8
M0
 62
     7
100
AcDbLine
 10
134.900448
 20
321.183418
 11
126.305725
 21
321.183418
  0
ARC
  5
13A
100
AcDbEntity
  8
M0
 62
     7
100
AcDbCircle
 10
119.400448
 20
319.683418
 40
1.5
100
AcDbArc
 50
0.0
 51
42.204142
  0
ARC
  5
13B
100
AcDbEntity
  8
M0
 62
     7
100
AcDbCircle
 10
125.400448
 20
319.683418
 40
1.5
100
AcDbArc
 50
146.969284
 51
180.0
  0
LINE
  5
13C
100
AcDbEntity
  8
M0
 62
     7
100
AcDbLine
 10
130.381359
 20
320.984535
 11
125.419491
 21
320.984519
  0
ARC
  5
13D
100
AcDbEntity
  8
M0
 62
     7
100
AcDbCircle
 10
130.381359
 20
320.484519
 40
0.5
100
AcDbArc
 50
17.13596
 51
90.0
  0
ARC
  5
13E
100
AcDbEntity
  8
M0
 62
     7
100
AcDbCircle
 10
119.381359
 20
320.484519
 40
0.5
100
AcDbArc
 50
17.13596
 51
90.0
  0
LINE
  5
13F
100
AcDbEntity
  8
M0
 62
     7
100
AcDbLine
 10
119.381359
 20
320.984535
 11
114.419491
 21
320.984519
  0
ARC
  5
140
100
AcDbEntity
  8
M0
 62
     7
100
AcDbCircle
 10
125.419491
 20
320.484519
 40
0.5
100
AcDbArc
 50
90.0
 51
162.865076
  0
ARC
  5
141
100
AcDbEntity
  8
M0
 62
     7
100
AcDbCircle
 10
114.419491
 20
320.484519
 40
0.5
100
AcDbArc
 50
90.0
 51
162.865076
  0
ARC
  5
142
100
AcDbEntity
  8
M0
 62
     7
100
AcDbCircle
 10
114.400448
 20
319.683418
 40
1.5
100
AcDbArc
 50
90.0
 51
180.0
  0
ARC
  5
143
100
AcDbEntity
  8
M0
 62
     7
100
AcDbCircle
 10
130.400448
 20
319.683418
 40
1.5
100
AcDbArc
 50
0.0
 51
90.0
  0
LINE
  5
144
100
AcDbEntity
  8
M0
 62
     7
100
AcDbLine
 10
134.899061
 20
343.183417
 11
108.392053
 21
343.183417
  0
LINE
  5
145
100
AcDbEntity
  8
M0
 62
     7
100
AcDbLine
 10
103.992288
 20
343.183417
 11
100.399092
 21
343.183417
  0
LINE
  5
146
100
AcDbEntity
  8
M0
 62
     7
100
AcDbLine
 10
116.550448
 20
342.183418
 11
116.550448
 21
339.883418
  0
LINE
  5
147
100
AcDbEntity
  8
M0
 62
     7
100
AcDbLine
 10
119.750448
 20
339.883418
 11
116.550448
 21
339.883418
  0
LINE
  5
148
100
AcDbEntity
  8
M0
 62
     7
100
AcDbLine
 10
119.750448
 20
339.883418
 11
119.750448
 21
337.683418
  0
ARC
  5
149
100
AcDbEntity
  8
M0
 62
     6
100
AcDbCircle
 10
117.899114
 20
309.684896
 40
2.999997
100
AcDbArc
 50
115.844051
 51
424.156194
  0
LINE
  5
14A
100
AcDbEntity
  8
M0
 62
     6
100
AcDbLine
 10
114.555593
 20
312.384847
 11
114.123968
 21
310.984944
  0
LINE
  5
14B
100
AcDbEntity
  8
M0
 62
     6
100
AcDbLine
 10
114.94013
 20
305.737645
 11
114.123968
 21
308.384969
  0
LINE
  5
14C
100
AcDbEntity
  8
M0
 62
     6
100
AcDbLine
 10
120.85761
 20
305.73763
 11
121.485784
 21
307.774495
  0
LINE
  5
14D
100
AcDbEntity
  8
M0
 62
     6
100
AcDbLine
 10
115.418157
 20
305.384969
 11
120.379827
 21
305.384969
  0
LINE
  5
14E
100
AcDbEntity
  8
M0
 62
     6
100
AcDbLine
 10
114.123968
 20
310.984944
 11
114.123968
 21
308.384969
  0
LINE
  5
14F
100
AcDbEntity
  8
M0
 62
     6
100
AcDbLine
 10
119.48969
 20
308.094075
 11
116.30805
 21
311.275838
  0
LINE
  5
150
100
AcDbEntity
  8
M0
 62
     6
100
AcDbLine
 10
118.252386
 20
311.09908
 11
116.484807
 21
309.33138
  0
LINE
  5
151
100
AcDbEntity
  8
M0
 62
     6
100
AcDbLine
 10
119.312932
 20
310.038411
 11
117.545354
 21
308.270833
  0
ARC
  5
152
100
AcDbEntity
  8
M0
 62
     6
100
AcDbCircle
 10
115.418157
 20
305.884969
 40
0.5
100
AcDbArc
 50
197.128737
 51
270.0
  0
ARC
  5
153
100
AcDbEntity
  8
M0
 62
     6
100
AcDbCircle
 10
120.379827
 20
305.884969
 40
0.5
100
AcDbArc
 50
270.0
 51
342.861308
  0
LINE
  5
154
100
AcDbEntity
  8
M0
  6
DASHDOT
 62
     6
100
AcDbLine
 10
117.399114
 20
309.684896
 11
118.399114
 21
309.684896
  0
LINE
  5
155
100
AcDbEntity
  8
M0
  6
DASHDOT
 62
     6
100
AcDbLine
 10
117.899114
 20
309.184896
 11
117.899114
 21
310.184896
  0
CIRCLE
  5
156
100
AcDbEntity
  8
M0
 62
     6
100
AcDbCircle
 10
116.897893
 20
316.684896
 40
2.999997
  0
LINE
  5
157
100
AcDbEntity
  8
M0
 62
     6
100
AcDbLine
 10
114.047502
 20
320.984518
 11
113.122747
 21
317.984944
  0
LINE
  5
158
100
AcDbEntity
  8
M0
 62
     6
100
AcDbLine
 10
113.938909
 20
312.737645
 11
113.122747
 21
315.384969
  0
LINE
  5
159
100
AcDbEntity
  8
M0
 62
     6
100
AcDbLine
 10
119.842735
 20
320.676402
 11
120.672796
 21
317.984944
  0
LINE
  5
15A
100
AcDbEntity
  8
M0
 62
     6
100
AcDbLine
 10
119.856389
 20
312.73763
 11
120.672796
 21
315.384969
  0
LINE
  5
15B
100
AcDbEntity
  8
M0
 62
     6
100
AcDbLine
 10
114.416936
 20
312.384969
 11
119.378606
 21
312.384969
  0
LINE
  5
15C
100
AcDbEntity
  8
M0
 62
     6
100
AcDbLine
 10
120.672796
 20
315.384969
 11
120.672796
 21
317.984944
  0
LINE
  5
15D
100
AcDbEntity
  8
M0
 62
     6
100
AcDbLine
 10
113.122747
 20
317.984944
 11
113.122747
 21
315.384969
  0
LINE
  5
15E
100
AcDbEntity
  8
M0
 62
     6
100
AcDbLine
 10
118.48847
 20
315.094075
 11
115.306829
 21
318.275838
  0
LINE
  5
15F
100
AcDbEntity
  8
M0
 62
     6
100
AcDbLine
 10
117.251165
 20
318.09908
 11
115.483587
 21
316.33138
  0
LINE
  5
160
100
AcDbEntity
  8
M0
 62
     6
100
AcDbLine
 10
118.311712
 20
317.038411
 11
116.544134
 21
315.270833
  0
ARC
  5
161
100
AcDbEntity
  8
M0
 62
     6
100
AcDbCircle
 10
114.416936
 20
312.884969
 40
0.5
100
AcDbArc
 50
197.128737
 51
270.0
  0
ARC
  5
162
100
AcDbEntity
  8
M0
 62
     6
100
AcDbCircle
 10
119.378606
 20
312.884969
 40
0.5
100
AcDbArc
 50
270.0
 51
342.861308
  0
LINE
  5
163
100
AcDbEntity
  8
M0
  6
DASHDOT
 62
     6
100
AcDbLine
 10
116.397893
 20
316.684896
 11
117.397893
 21
316.684896
  0
LINE
  5
164
100
AcDbEntity
  8
M0
  6
DASHDOT
 62
     6
100
AcDbLine
 10
116.897893
 20
316.184896
 11
116.897893
 21
317.184896
  0
CIRCLE
  5
165
100
AcDbEntity
  8
M0
 62
     7
100
AcDbCircle
 10
128.447863
 20
367.28514
 40
3.0
  0
LINE
  5
166
100
AcDbEntity
  8
M0
 62
     7
100
AcDbLine
 10
130.038446
 20
365.694495
 11
126.856806
 21
368.876258
  0
LINE
  5
167
100
AcDbEntity
  8
M0
 62
     7
100
AcDbLine
 10
129.861689
 20
367.638831
 11
128.09411
 21
365.871253
  0
LINE
  5
168
100
AcDbEntity
  8
M0
 62
     7
100
AcDbLine
 10
128.801142
 20
368.6995
 11
127.033564
 21
366.9318
  0
LINE
  5
169
100
AcDbEntity
  8
M0
 62
     7
100
AcDbLine
 10
131.772863
 20
371.11014
 11
125.122863
 21
371.11014
  0
ARC
  5
16A
100
AcDbEntity
  8
M0
 62
     7
100
AcDbCircle
 10
131.772863
 20
370.61014
 40
0.5
100
AcDbArc
 50
0.0
 51
90.0
  0
LINE
  5
16B
100
AcDbEntity
  8
M0
 62
     7
100
AcDbLine
 10
132.272863
 20
363.96014
 11
132.272863
 21
370.61014
  0
ARC
  5
16C
100
AcDbEntity
  8
M0
 62
     7
100
AcDbCircle
 10
131.772863
 20
363.96014
 40
0.5
100
AcDbArc
 50
270.0
 51
360.0
  0
LINE
  5
16D
100
AcDbEntity
  8
M0
 62
     7
100
AcDbLine
 10
125.122863
 20
363.46014
 11
131.772863
 21
363.46014
  0
LINE
  5
16E
100
AcDbEntity
  8
M0
 62
     7
100
AcDbLine
 10
124.622863
 20
370.61014
 11
124.622863
 21
363.96014
  0
ARC
  5
16F
100
AcDbEntity
  8
M0
 62
     7
100
AcDbCircle
 10
125.122863
 20
370.61014
 40
0.5
100
AcDbArc
 50
90.0
 51
180.0
  0
ARC
  5
170
100
AcDbEntity
  8
M0
 62
     7
100
AcDbCircle
 10
125.122863
 20
363.96014
 40
0.5
100
AcDbArc
 50
180.0
 51
270.0
  0
CIRCLE
  5
171
100
AcDbEntity
  8
M0
 62
     7
100
AcDbCircle
 10
92.347863
 20
426.78514
 40
3.0
  0
LINE
  5
172
100
AcDbEntity
  8
M0
 62
     7
100
AcDbLine
 10
93.938446
 20
425.194495
 11
90.756806
 21
428.376258
  0
LINE
  5
173
100
AcDbEntity
  8
M0
 62
     7
100
AcDbLine
 10
93.761689
 20
427.138831
 11
91.99411
 21
425.371253
  0
LINE
  5
174
100
AcDbEntity
  8
M0
 62
     7
100
AcDbLine
 10
92.701142
 20
428.1995
 11
90.933564
 21
426.4318
  0
LINE
  5
175
100
AcDbEntity
  8
M0
 62
     7
100
AcDbLine
 10
95.672863
 20
430.61014
 11
89.022863
 21
430.61014
  0
ARC
  5
176
100
AcDbEntity
  8
M0
 62
     7
100
AcDbCircle
 10
95.672863
 20
430.11014
 40
0.5
100
AcDbArc
 50
0.0
 51
90.0
  0
LINE
  5
177
100
AcDbEntity
  8
M0
 62
     7
100
AcDbLine
 10
96.172863
 20
423.46014
 11
96.172863
 21
430.11014
  0
ARC
  5
178
100
AcDbEntity
  8
M0
 62
     7
100
AcDbCircle
 10
95.672863
 20
423.46014
 40
0.5
100
AcDbArc
 50
270.0
 51
360.0
  0
LINE
  5
179
100
AcDbEntity
  8
M0
 62
     7
100
AcDbLine
 10
89.022863
 20
422.96014
 11
95.672863
 21
422.96014
  0
LINE
  5
17A
100
AcDbEntity
  8
M0
 62
     7
100
AcDbLine
 10
88.522863
 20
430.11014
 11
88.522863
 21
423.46014
  0
ARC
  5
17B
100
AcDbEntity
  8
M0
 62
     7
100
AcDbCircle
 10
89.022863
 20
430.11014
 40
0.5
100
AcDbArc
 50
90.0
 51
180.0
  0
ARC
  5
17C
100
AcDbEntity
  8
M0
 62
     7
100
AcDbCircle
 10
89.022863
 20
423.46014
 40
0.5
100
AcDbArc
 50
180.0
 51
270.0
  0
ARC
  5
17D
100
AcDbEntity
  8
M0
 62
     7
100
AcDbCircle
 10
110.897863
 20
423.53514
 40
0.5
100
AcDbArc
 50
268.473851
 51
270.0
  0
ARC
  5
17E
100
AcDbEntity
  8
M0
 62
     7
100
AcDbCircle
 10
76.247863
 20
418.18514
 40
2.25
100
AcDbArc
 50
0.0
 51
180.0
  0
ARC
  5
17F
100
AcDbEntity
  8
M0
 62
     7
100
AcDbCircle
 10
76.247863
 20
416.18514
 40
2.25
100
AcDbArc
 50
180.0
 51
360.0
  0
ARC
  5
180
100
AcDbEntity
  8
M0
 62
     7
100
AcDbCircle
 10
76.847863
 20
357.68514
 40
5.0
100
AcDbArc
 50
180.0
 51
270.0
  0
ARC
  5
181
100
AcDbEntity
  8
M0
 62
     7
100
AcDbCircle
 10
76.847863
 20
418.68514
 40
5.0
100
AcDbArc
 50
90.0
 51
180.0
  0
LINE
  5
182
100
AcDbEntity
  8
M0
 62
     7
100
AcDbLine
 10
112.147862
 20
375.98514
 11
94.347863
 21
375.98514
  0
LINE
  5
183
100
AcDbEntity
  8
M0
 62
     7
100
AcDbLine
 10
93.847864
 20
376.48514
 11
93.847864
 21
399.88514
  0
LINE
  5
184
100
AcDbEntity
  8
M0
 62
     7
100
AcDbLine
 10
122.947863
 20
405.58514
 11
83.547863
 21
405.58514
  0
LINE
  5
185
100
AcDbEntity
  8
M0
 62
     7
100
AcDbLine
 10
124.747863
 20
390.68514
 11
122.947863
 21
390.68514
  0
LINE
  5
186
100
AcDbEntity
  8
M0
 62
     7
100
AcDbLine
 10
97.947864
 20
400.385139
 11
94.347863
 21
400.385139
  0
ARC
  5
187
100
AcDbEntity
  8
M0
 62
     7
100
AcDbCircle
 10
81.047863
 20
356.18514
 40
0.5
100
AcDbArc
 50
180.0
 51
270.0
  0
ARC
  5
188
100
AcDbEntity
  8
M0
 62
     7
100
AcDbCircle
 10
125.447863
 20
357.18514
 40
0.5
100
AcDbArc
 50
0.0
 51
90.0
  0
ARC
  5
189
100
AcDbEntity
  8
M0
 62
     7
100
AcDbCircle
 10
82.047863
 20
357.18514
 40
0.5
100
AcDbArc
 50
0.0
 51
36.86993
  0
ARC
  5
18A
100
AcDbEntity
  8
M0
 62
     7
100
AcDbCircle
 10
81.047863
 20
357.18514
 40
0.5
100
AcDbArc
 50
90.0
 51
180.0
  0
CIRCLE
  5
18B
100
AcDbEntity
  8
M0
 62
     7
100
AcDbCircle
 10
75.747863
 20
358.18514
 40
2.25
  0
CIRCLE
  5
18C
100
AcDbEntity
  8
M0
 62
     7
100
AcDbCircle
 10
130.747863
 20
418.18514
 40
2.25
  0
ARC
  5
18D
100
AcDbEntity
  8
M0
 62
     7
100
AcDbCircle
 10
125.447863
 20
356.18514
 40
0.5
100
AcDbArc
 50
270.0
 51
360.0
  0
ARC
  5
18E
100
AcDbEntity
  8
M0
 62
     7
100
AcDbCircle
 10
124.447863
 20
357.18514
 40
0.5
100
AcDbArc
 50
143.130134
 51
180.0
  0
ARC
  5
18F
100
AcDbEntity
  8
M0
 62
     7
100
AcDbCircle
 10
123.247863
 20
422.68514
 40
1.0
100
AcDbArc
 50
90.0
 51
98.626927
  0
ARC
  5
190
100
AcDbEntity
  8
M0
 62
     7
100
AcDbCircle
 10
130.247863
 20
358.18514
 40
2.25
100
AcDbArc
 50
180.0
 51
360.0
  0
ARC
  5
191
100
AcDbEntity
  8
M0
 62
     7
100
AcDbCircle
 10
83.247863
 20
422.68514
 40
1.0
100
AcDbArc
 50
81.373073
 51
90.0
  0
ARC
  5
192
100
AcDbEntity
  8
M0
 62
     7
100
AcDbCircle
 10
129.647863
 20
418.68514
 40
5.0
100
AcDbArc
 50
0.0
 51
90.0
  0
ARC
  5
193
100
AcDbEntity
  8
M0
 62
     7
100
AcDbCircle
 10
82.047863
 20
356.18514
 40
0.5
100
AcDbArc
 50
323.13007
 51
360.0
  0
ARC
  5
194
100
AcDbEntity
  8
M0
 62
     7
100
AcDbCircle
 10
130.247863
 20
360.18514
 40
2.25
100
AcDbArc
 50
0.0
 51
180.0
  0
ARC
  5
195
100
AcDbEntity
  8
M0
 62
     7
100
AcDbCircle
 10
129.647863
 20
357.68514
 40
5.0
100
AcDbArc
 50
270.0
 51
360.0
  0
LINE
  5
196
100
AcDbEntity
  8
M0
 62
     7
100
AcDbLine
 10
82.817093
 20
391.68514
 11
82.817093
 21
390.68514
  0
LINE
  5
197
100
AcDbEntity
  8
M0
 62
     7
100
AcDbLine
 10
82.547862
 20
391.68514
 11
81.947863
 21
391.68514
  0
LINE
  5
198
100
AcDbEntity
  8
M0
 62
     7
100
AcDbLine
 10
82.817093
 20
384.68514
 11
82.817093
 21
385.68514
  0
LINE
  5
199
100
AcDbEntity
  8
M0
 62
     7
100
AcDbLine
 10
82.547862
 20
384.68514
 11
81.947863
 21
384.68514
  0
LINE
  5
19A
100
AcDbEntity
  8
M0
 62
     7
100
AcDbLine
 10
123.678631
 20
384.68514
 11
123.678631
 21
385.68514
  0
LINE
  5
19B
100
AcDbEntity
  8
M0
 62
     7
100
AcDbLine
 10
123.947861
 20
384.68514
 11
124.547864
 21
384.68514
  0
LINE
  5
19C
100
AcDbEntity
  8
M0
 62
     7
100
AcDbLine
 10
123.678631
 20
391.68514
 11
123.678631
 21
390.68514
  0
LINE
  5
19D
100
AcDbEntity
  8
M0
 62
     7
100
AcDbLine
 10
123.947861
 20
391.68514
 11
124.547864
 21
391.68514
  0
LINE
  5
19E
100
AcDbEntity
  8
M0
 62
     7
100
AcDbLine
 10
118.447861
 20
422.685141
 11
118.447861
 21
432.085141
  0
LINE
  5
19F
100
AcDbEntity
  8
M0
 62
     7
100
AcDbLine
 10
120.037323
 20
429.703131
 11
120.247862
 21
422.685141
  0
LINE
  5
1A0
100
AcDbEntity
  8
M0
 62
     7
100
AcDbLine
 10
119.365594
 20
432.68514
 11
119.047864
 21
432.68514
  0
LINE
  5
1A1
100
AcDbEntity
  8
M0
 62
     7
100
AcDbLine
 10
108.247864
 20
355.18514
 11
108.247864
 21
355.685141
  0
LINE
  5
1A2
100
AcDbEntity
  8
M0
 62
     7
100
AcDbLine
 10
108.247864
 20
352.685138
 11
102.881023
 21
352.685138
  0
LINE
  5
1A3
100
AcDbEntity
  8
M0
 62
     7
100
AcDbLine
 10
98.247862
 20
355.685141
 11
98.247862
 21
355.18514
  0
LINE
  5
1A4
100
AcDbEntity
  8
M0
 62
     7
100
AcDbLine
 10
81.747862
 20
385.68514
 11
81.747862
 21
390.68514
  0
LINE
  5
1A5
100
AcDbEntity
  8
M0
 62
     7
100
AcDbLine
 10
82.547862
 20
384.68514
 11
83.547863
 21
384.68514
  0
LINE
  5
1A6
100
AcDbEntity
  8
M0
 62
     7
100
AcDbLine
 10
82.547862
 20
353.68514
 11
82.547862
 21
384.68514
  0
LINE
  5
1A7
100
AcDbEntity
  8
M0
 62
     7
100
AcDbLine
 10
82.547862
 20
391.68514
 11
83.547863
 21
391.68514
  0
LINE
  5
1A8
100
AcDbEntity
  8
M0
 62
     7
100
AcDbLine
 10
81.247863
 20
389.68514
 11
81.747862
 21
389.68514
  0
LINE
  5
1A9
100
AcDbEntity
  8
M0
 62
     7
100
AcDbLine
 10
81.247863
 20
386.68514
 11
81.247863
 21
389.68514
  0
LINE
  5
1AA
100
AcDbEntity
  8
M0
 62
     7
100
AcDbLine
 10
98.747863
 20
354.685139
 11
100.310096
 21
354.685139
  0
LINE
  5
1AB
100
AcDbEntity
  8
M0
 62
     7
100
AcDbLine
 10
81.747862
 20
386.68514
 11
81.247863
 21
386.68514
  0
LINE
  5
1AC
100
AcDbEntity
  8
M0
 62
     7
100
AcDbLine
 10
125.247864
 20
386.68514
 11
125.247864
 21
389.68514
  0
LINE
  5
1AD
100
AcDbEntity
  8
M0
 62
     7
100
AcDbLine
 10
82.747862
 20
390.68514
 11
81.747862
 21
390.68514
  0
LINE
  5
1AE
100
AcDbEntity
  8
M0
 62
     7
100
AcDbLine
 10
125.247864
 20
389.68514
 11
124.747863
 21
389.68514
  0
ARC
  5
1AF
100
AcDbEntity
  8
M0
 62
     7
100
AcDbCircle
 10
81.747863
 20
384.88514
 40
0.5
100
AcDbArc
 50
293.578178
 51
336.421822
  0
ARC
  5
1B0
100
AcDbEntity
  8
M0
 62
     7
100
AcDbCircle
 10
124.747863
 20
384.88514
 40
0.5
100
AcDbArc
 50
203.578178
 51
246.421822
  0
LINE
  5
1B1
100
AcDbEntity
  8
M0
 62
     7
100
AcDbLine
 10
81.047863
 20
355.685141
 11
81.247863
 21
355.685141
  0
LINE
  5
1B2
100
AcDbEntity
  8
M0
 62
     7
100
AcDbLine
 10
81.247863
 20
357.685141
 11
81.047863
 21
357.685141
  0
LINE
  5
1B3
100
AcDbEntity
  8
M0
 62
     7
100
AcDbLine
 10
125.447864
 20
357.685141
 11
125.247863
 21
357.685141
  0
LINE
  5
1B4
100
AcDbEntity
  8
M0
 62
     7
100
AcDbLine
 10
80.547862
 20
357.18514
 11
80.547862
 21
356.185138
  0
ARC
  5
1B5
100
AcDbEntity
  8
M0
 62
     7
100
AcDbCircle
 10
97.347863
 20
432.18514
 40
0.5
100
AcDbArc
 50
0.0
 51
90.0
  0
ARC
  5
1B6
100
AcDbEntity
  8
M0
 62
     7
100
AcDbCircle
 10
109.147863
 20
432.18514
 40
0.5
100
AcDbArc
 50
90.0
 51
180.0
  0
ARC
  5
1B7
100
AcDbEntity
  8
M0
 62
     7
100
AcDbCircle
 10
97.347863
 20
431.68514
 40
1.0
100
AcDbArc
 50
90.0
 51
180.0
  0
LINE
  5
1B8
100
AcDbEntity
  8
M0
 62
     7
100
AcDbLine
 10
100.747863
 20
392.662606
 11
100.747863
 21
392.48514
  0
LINE
  5
1B9
100
AcDbEntity
  8
M0
 62
     7
100
AcDbLine
 10
105.747862
 20
383.18514
 11
105.747862
 21
383.28514
  0
ARC
  5
1BA
100
AcDbEntity
  8
M0
 62
     7
100
AcDbCircle
 10
109.147863
 20
431.68514
 40
1.0
100
AcDbArc
 50
0.0
 51
90.0
  0
LINE
  5
1BB
100
AcDbEntity
  8
M0
 62
     7
100
AcDbLine
 10
105.747862
 20
392.662606
 11
105.747862
 21
392.48514
  0
ARC
  5
1BC
100
AcDbEntity
  8
M0
 62
     7
100
AcDbCircle
 10
98.447863
 20
391.98514
 40
0.5
100
AcDbArc
 50
90.0
 51
180.0
  0
ARC
  5
1BD
100
AcDbEntity
  8
M0
 62
     7
100
AcDbCircle
 10
100.997863
 20
391.98514
 40
0.5
100
AcDbArc
 50
0.0
 51
90.0
  0
LINE
  5
1BE
100
AcDbEntity
  8
M0
 62
     7
100
AcDbLine
 10
125.947861
 20
356.185138
 11
125.947861
 21
357.18514
  0
ARC
  5
1BF
100
AcDbEntity
  8
M0
 62
     7
100
AcDbCircle
 10
98.447863
 20
383.78514
 40
0.5
100
AcDbArc
 50
180.0
 51
270.0
  0
ARC
  5
1C0
100
AcDbEntity
  8
M0
 62
     7
100
AcDbCircle
 10
108.047863
 20
391.98514
 40
0.5
100
AcDbArc
 50
0.0
 51
90.0
  0
ARC
  5
1C1
100
AcDbEntity
  8
M0
 62
     7
100
AcDbCircle
 10
105.497863
 20
391.98514
 40
0.5
100
AcDbArc
 50
90.0
 51
180.0
  0
ARC
  5
1C2
100
AcDbEntity
  8
M0
 62
     7
100
AcDbCircle
 10
108.047863
 20
383.78514
 40
0.5
100
AcDbArc
 50
270.0
 51
360.0
  0
LINE
  5
1C3
100
AcDbEntity
  8
M0
 62
     7
100
AcDbLine
 10
110.947865
 20
422.685141
 11
120.247862
 21
422.685141
  0
LINE
  5
1C4
100
AcDbEntity
  8
M0
 62
     7
100
AcDbLine
 10
120.247862
 20
421.185139
 11
110.947865
 21
421.185139
  0
LINE
  5
1C5
100
AcDbEntity
  8
M0
 62
     7
100
AcDbLine
 10
120.247862
 20
422.685141
 11
120.247862
 21
421.185139
  0
LINE
  5
1C6
100
AcDbEntity
  8
M0
 62
     7
100
AcDbLine
 10
96.347863
 20
431.185141
 11
88.047862
 21
431.185141
  0
LINE
  5
1C7
100
AcDbEntity
  8
M0
 62
     7
100
AcDbLine
 10
118.447861
 20
431.185141
 11
110.147862
 21
431.185141
  0
LINE
  5
1C8
100
AcDbEntity
  8
M0
 62
     7
100
AcDbLine
 10
110.147862
 20
431.685138
 11
110.147862
 21
423.664935
  0
LINE
  5
1C9
100
AcDbEntity
  8
M0
 62
     7
100
AcDbLine
 10
124.747863
 20
386.68514
 11
125.247864
 21
386.68514
  0
LINE
  5
1CA
100
AcDbEntity
  8
M0
 62
     7
100
AcDbLine
 10
108.647863
 20
423.121029
 11
108.647863
 21
431.685138
  0
LINE
  5
1CB
100
AcDbEntity
  8
M0
 62
     7
100
AcDbLine
 10
95.547865
 20
421.185139
 11
86.247864
 21
421.185139
  0
LINE
  5
1CC
100
AcDbEntity
  8
M0
 62
     7
100
AcDbLine
 10
120.247862
 20
421.185139
 11
120.247862
 21
419.185139
  0
LINE
  5
1CD
100
AcDbEntity
  8
M0
 62
     7
100
AcDbLine
 10
86.247864
 20
422.685141
 11
95.547865
 21
422.685141
  0
LINE
  5
1CE
100
AcDbEntity
  8
M0
 62
     7
100
AcDbLine
 10
129.647864
 20
352.685138
 11
125.247863
 21
352.685138
  0
LINE
  5
1CF
100
AcDbEntity
  8
M0
 62
     7
100
AcDbLine
 10
80.547862
 20
358.685139
 11
81.247863
 21
358.685139
  0
LINE
  5
1D0
100
AcDbEntity
  8
M0
 62
     7
100
AcDbLine
 10
80.547862
 20
362.48514
 11
80.547862
 21
358.685139
  0
LINE
  5
1D1
100
AcDbEntity
  8
M0
 62
     7
100
AcDbLine
 10
125.947861
 20
358.685139
 11
125.947861
 21
362.48514
  0
LINE
  5
1D2
100
AcDbEntity
  8
M0
 62
     7
100
AcDbLine
 10
123.947861
 20
358.685139
 11
124.047863
 21
358.685139
  0
LINE
  5
1D3
100
AcDbEntity
  8
M0
 62
     7
100
AcDbLine
 10
127.997866
 20
360.185139
 11
127.997866
 21
358.185138
  0
LINE
  5
1D4
100
AcDbEntity
  8
M0
 62
     7
100
AcDbLine
 10
132.497861
 20
358.185138
 11
132.497861
 21
360.185139
  0
LINE
  5
1D5
100
AcDbEntity
  8
M0
 62
     7
100
AcDbLine
 10
71.847863
 20
357.685141
 11
71.847863
 21
418.68514
  0
LINE
  5
1D6
100
AcDbEntity
  8
M0
 62
     7
100
AcDbLine
 10
86.247864
 20
422.685141
 11
86.247864
 21
419.185139
  0
LINE
  5
1D7
100
AcDbEntity
  8
M0
 62
     7
100
AcDbLine
 10
78.497863
 20
418.185139
 11
78.497863
 21
416.18514
  0
LINE
  5
1D8
100
AcDbEntity
  8
M0
 62
     7
100
AcDbLine
 10
73.997863
 20
416.18514
 11
73.997863
 21
418.185139
  0
ARC
  5
1D9
100
AcDbEntity
  8
M0
 62
     7
100
AcDbCircle
 10
122.947863
 20
404.58514
 40
1.0
100
AcDbArc
 50
0.0
 51
90.0
  0
ARC
  5
1DA
100
AcDbEntity
  8
M0
 62
     7
100
AcDbCircle
 10
122.947863
 20
371.78514
 40
1.0
100
AcDbArc
 50
270.0
 51
360.0
  0
LINE
  5
1DB
100
AcDbEntity
  8
M0
 62
     7
100
AcDbLine
 10
122.947863
 20
384.68514
 11
122.947863
 21
385.68514
  0
LINE
  5
1DC
100
AcDbEntity
  8
M0
 62
     7
100
AcDbLine
 10
124.747863
 20
385.68514
 11
122.947863
 21
385.68514
  0
LINE
  5
1DD
100
AcDbEntity
  8
M0
 62
     7
100
AcDbLine
 10
104.447863
 20
400.385139
 11
102.047863
 21
400.385139
  0
LINE
  5
1DE
100
AcDbEntity
  8
M0
 62
     7
100
AcDbLine
 10
102.047863
 20
401.985139
 11
102.047863
 21
400.385139
  0
LINE
  5
1DF
100
AcDbEntity
  8
M0
 62
     7
100
AcDbLine
 10
82.747862
 20
390.68514
 11
83.547863
 21
390.68514
  0
LINE
  5
1E0
100
AcDbEntity
  8
M0
 62
     7
100
AcDbLine
 10
81.747862
 20
385.68514
 11
83.547863
 21
385.68514
  0
LINE
  5
1E1
100
AcDbEntity
  8
M0
 62
     7
100
AcDbLine
 10
122.947863
 20
391.68514
 11
122.947863
 21
390.68514
  0
LINE
  5
1E2
100
AcDbEntity
  8
M0
 62
     7
100
AcDbLine
 10
83.547863
 20
391.68514
 11
83.547863
 21
390.68514
  0
LINE
  5
1E3
100
AcDbEntity
  8
M0
 62
     7
100
AcDbLine
 10
107.547863
 20
399.38514
 11
98.947863
 21
399.38514
  0
LINE
  5
1E4
100
AcDbEntity
  8
M0
 62
     7
100
AcDbLine
 10
104.447863
 20
401.985139
 11
102.047863
 21
401.985139
  0
LINE
  5
1E5
100
AcDbEntity
  8
M0
 62
     7
100
AcDbLine
 10
104.447863
 20
401.985139
 11
104.447863
 21
400.385139
  0
LINE
  5
1E6
100
AcDbEntity
  8
M0
 62
     7
100
AcDbLine
 10
108.547861
 20
400.385139
 11
112.147862
 21
400.385139
  0
LINE
  5
1E7
100
AcDbEntity
  8
M0
 62
     7
100
AcDbLine
 10
112.647863
 20
376.48514
 11
112.647863
 21
399.88514
  0
LINE
  5
1E8
100
AcDbEntity
  8
M0
 62
     7
100
AcDbLine
 10
124.547864
 20
363.485141
 11
125.447864
 21
363.485141
  0
LINE
  5
1E9
100
AcDbEntity
  8
M0
 62
     7
100
AcDbLine
 10
131.447865
 20
363.485141
 11
132.347865
 21
363.485141
  0
LINE
  5
1EA
100
AcDbEntity
  8
M0
 62
     7
100
AcDbLine
 10
81.047863
 20
412.885141
 11
81.947863
 21
412.885141
  0
LINE
  5
1EB
100
AcDbEntity
  8
M0
 62
     7
100
AcDbLine
 10
125.447864
 20
412.885141
 11
124.547864
 21
412.885141
  0
LINE
  5
1EC
100
AcDbEntity
  8
M0
 62
     7
100
AcDbLine
 10
133.447862
 20
360.48514
 11
133.34786
 21
360.48514
  0
LINE
  5
1ED
100
AcDbEntity
  8
M0
 62
     7
100
AcDbLine
 10
132.347865
 20
412.885141
 11
131.447865
 21
412.885141
  0
LINE
  5
1EE
100
AcDbEntity
  8
M0
 62
     7
100
AcDbLine
 10
133.447862
 20
415.885139
 11
133.34786
 21
415.885139
  0
LINE
  5
1EF
100
AcDbEntity
  8
M0
 62
     7
100
AcDbLine
 10
74.147863
 20
412.885141
 11
75.047863
 21
412.885141
  0
ARC
  5
1F0
100
AcDbEntity
  8
M0
 62
     7
100
AcDbCircle
 10
86.247863
 20
353.68514
 40
1.0
100
AcDbArc
 50
180.0
 51
270.0
  0
LINE
  5
1F1
100
AcDbEntity
  8
M0
 62
     7
100
AcDbLine
 10
86.247863
 20
352.685138
 11
87.132267
 21
352.685138
  0
LINE
  5
1F2
100
AcDbEntity
  8
M0
 62
     7
100
AcDbLine
 10
73.047863
 20
360.48514
 11
73.147863
 21
360.48514
  0
LINE
  5
1F3
100
AcDbEntity
  8
M0
 62
     7
100
AcDbLine
 10
81.947863
 20
363.485141
 11
81.047863
 21
363.485141
  0
LINE
  5
1F4
100
AcDbEntity
  8
M0
 62
     7
100
AcDbLine
 10
75.047863
 20
363.485141
 11
74.147863
 21
363.485141
  0
ARC
  5
1F5
100
AcDbEntity
  8
M0
 62
     7
100
AcDbCircle
 10
108.547863
 20
399.88514
 40
0.5
100
AcDbArc
 50
90.0
 51
180.0
  0
ARC
  5
1F6
100
AcDbEntity
  8
M0
 62
     7
100
AcDbCircle
 10
112.147863
 20
399.88514
 40
0.5
100
AcDbArc
 50
0.0
 51
90.0
  0
ARC
  5
1F7
100
AcDbEntity
  8
M0
 62
     7
100
AcDbCircle
 10
98.947863
 20
399.88514
 40
0.5
100
AcDbArc
 50
180.0
 51
270.0
  0
ARC
  5
1F8
100
AcDbEntity
  8
M0
 62
     7
100
AcDbCircle
 10
107.547863
 20
399.88514
 40
0.5
100
AcDbArc
 50
270.0
 51
360.0
  0
LINE
  5
1F9
100
AcDbEntity
  8
M0
 62
     7
100
AcDbLine
 10
73.047863
 20
415.885139
 11
73.147863
 21
415.885139
  0
ARC
  5
1FA
100
AcDbEntity
  8
M0
 62
     7
100
AcDbCircle
 10
83.547863
 20
404.58514
 40
1.0
100
AcDbArc
 50
90.0
 51
180.0
  0
ARC
  5
1FB
100
AcDbEntity
  8
M0
 62
     7
100
AcDbCircle
 10
83.547863
 20
371.78514
 40
1.0
100
AcDbArc
 50
180.0
 51
270.0
  0
ARC
  5
1FC
100
AcDbEntity
  8
M0
 62
     7
100
AcDbCircle
 10
107.747863
 20
355.18514
 40
0.5
100
AcDbArc
 50
270.0
 51
360.0
  0
ARC
  5
1FD
100
AcDbEntity
  8
M0
 62
     7
100
AcDbCircle
 10
108.247863
 20
354.68514
 40
2.0
100
AcDbArc
 50
270.0
 51
292.57935
  0
ARC
  5
1FE
100
AcDbEntity
  8
M0
 62
     7
100
AcDbCircle
 10
94.347863
 20
399.88514
 40
0.5
100
AcDbArc
 50
90.0
 51
180.0
  0
ARC
  5
1FF
100
AcDbEntity
  8
M0
 62
     7
100
AcDbCircle
 10
97.947863
 20
399.88514
 40
0.5
100
AcDbArc
 50
0.0
 51
90.0
  0
ARC
  5
200
100
AcDbEntity
  8
M0
 62
     7
100
AcDbCircle
 10
112.147863
 20
376.48514
 40
0.5
100
AcDbArc
 50
270.0
 51
360.0
  0
ARC
  5
201
100
AcDbEntity
  8
M0
 62
     7
100
AcDbCircle
 10
94.347863
 20
376.48514
 40
0.5
100
AcDbArc
 50
180.0
 51
270.0
  0
ARC
  5
202
100
AcDbEntity
  8
M0
 62
     7
100
AcDbCircle
 10
87.130133
 20
432.08514
 40
0.6
100
AcDbArc
 50
90.0
 51
178.281642
  0
ARC
  5
203
100
AcDbEntity
  8
M0
 62
     7
100
AcDbCircle
 10
87.447863
 20
432.08514
 40
0.6
100
AcDbArc
 50
0.0
 51
90.0
  0
ARC
  5
204
100
AcDbEntity
  8
M0
 62
     7
100
AcDbCircle
 10
124.447863
 20
356.18514
 40
0.5
100
AcDbArc
 50
180.0
 51
216.869866
  0
ARC
  5
205
100
AcDbEntity
  8
M0
 62
     7
100
AcDbCircle
 10
98.247863
 20
354.68514
 40
2.0
100
AcDbArc
 50
247.42065
 51
270.0
  0
ARC
  5
206
100
AcDbEntity
  8
M0
 62
     7
100
AcDbCircle
 10
98.747863
 20
355.18514
 40
0.5
100
AcDbArc
 50
180.0
 51
270.0
  0
ARC
  5
207
100
AcDbEntity
  8
M0
 62
     7
100
AcDbCircle
 10
119.047863
 20
432.08514
 40
0.6
100
AcDbArc
 50
90.0
 51
180.0
  0
LINE
  5
208
100
AcDbEntity
  8
M0
 62
     7
100
AcDbLine
 10
88.047862
 20
432.085141
 11
88.047862
 21
422.685141
  0
LINE
  5
209
100
AcDbEntity
  8
M0
 62
     7
100
AcDbLine
 10
86.247864
 20
422.685141
 11
86.458402
 21
429.703131
  0
LINE
  5
20A
100
AcDbEntity
  8
M0
 62
     7
100
AcDbLine
 10
87.130133
 20
432.68514
 11
87.447863
 21
432.68514
  0
ARC
  5
20B
100
AcDbEntity
  8
M0
 62
     7
100
AcDbCircle
 10
119.365593
 20
432.08514
 40
0.6
100
AcDbArc
 50
1.718358
 51
90.0
  0
LINE
  5
20C
100
AcDbEntity
  8
M0
 62
     7
100
AcDbLine
 10
125.247863
 20
355.685141
 11
125.447864
 21
355.685141
  0
LINE
  5
20D
100
AcDbEntity
  8
M0
 62
     7
100
AcDbLine
 10
123.947861
 20
391.68514
 11
122.947863
 21
391.68514
  0
LINE
  5
20E
100
AcDbEntity
  8
M0
 62
     7
100
AcDbLine
 10
124.747863
 20
385.68514
 11
124.747863
 21
390.68514
  0
LINE
  5
20F
100
AcDbEntity
  8
M0
 62
     7
100
AcDbLine
 10
122.947863
 20
370.785139
 11
83.547863
 21
370.785139
  0
LINE
  5
210
100
AcDbEntity
  8
M0
 62
     7
100
AcDbLine
 10
123.947861
 20
384.68514
 11
122.947863
 21
384.68514
  0
LINE
  5
211
100
AcDbEntity
  8
M0
 62
     7
100
AcDbLine
 10
123.947861
 20
353.68514
 11
123.947861
 21
384.68514
  0
LINE
  5
212
100
AcDbEntity
  8
M0
 62
     7
100
AcDbLine
 10
83.547863
 20
384.68514
 11
83.547863
 21
385.68514
  0
LINE
  5
213
100
AcDbEntity
  8
M0
 62
     7
100
AcDbLine
 10
108.647863
 20
431.685138
 11
108.647863
 21
432.185139
  0
LINE
  5
214
100
AcDbEntity
  8
M0
 62
     7
100
AcDbLine
 10
97.847863
 20
431.185141
 11
98.947863
 21
431.185141
  0
LINE
  5
215
100
AcDbEntity
  8
M0
 62
     7
100
AcDbLine
 10
108.547861
 20
383.78514
 11
108.547861
 21
391.98514
  0
LINE
  5
216
100
AcDbEntity
  8
M0
 62
     7
100
AcDbLine
 10
107.547863
 20
431.185141
 11
108.647863
 21
431.185141
  0
LINE
  5
217
100
AcDbEntity
  8
M0
 62
     7
100
AcDbLine
 10
97.847863
 20
431.685138
 11
97.847863
 21
423.121029
  0
LINE
  5
218
100
AcDbEntity
  8
M0
 62
     7
100
AcDbLine
 10
96.347863
 20
423.664935
 11
96.347863
 21
431.685138
  0
LINE
  5
219
100
AcDbEntity
  8
M0
 62
     7
100
AcDbLine
 10
97.847863
 20
432.185139
 11
97.847863
 21
431.685138
  0
LINE
  5
21A
100
AcDbEntity
  8
M0
 62
     7
100
AcDbLine
 10
107.047862
 20
392.78514
 11
107.047862
 21
392.48514
  0
LINE
  5
21B
100
AcDbEntity
  8
M0
 62
     7
100
AcDbLine
 10
108.547861
 20
391.98514
 11
108.547861
 21
392.78514
  0
LINE
  5
21C
100
AcDbEntity
  8
M0
 62
     7
100
AcDbLine
 10
99.447864
 20
392.78514
 11
99.447864
 21
392.48514
  0
LINE
  5
21D
100
AcDbEntity
  8
M0
 62
     7
100
AcDbLine
 10
107.047862
 20
383.28514
 11
107.047862
 21
383.18514
  0
LINE
  5
21E
100
AcDbEntity
  8
M0
 62
     7
100
AcDbLine
 10
97.947864
 20
386.38514
 11
97.447863
 21
386.38514
  0
LINE
  5
21F
100
AcDbEntity
  8
M0
 62
     7
100
AcDbLine
 10
108.547861
 20
386.38514
 11
109.047862
 21
386.38514
  0
LINE
  5
220
100
AcDbEntity
  8
M0
 62
     7
100
AcDbLine
 10
108.547861
 20
383.18514
 11
108.547861
 21
383.78514
  0
LINE
  5
221
100
AcDbEntity
  8
M0
 62
     7
100
AcDbLine
 10
97.447863
 20
389.38514
 11
97.947864
 21
389.38514
  0
LINE
  5
222
100
AcDbEntity
  8
M0
 62
     7
100
AcDbLine
 10
100.747863
 20
392.662606
 11
100.747863
 21
392.78514
  0
LINE
  5
223
100
AcDbEntity
  8
M0
 62
     7
100
AcDbLine
 10
81.947863
 20
384.38514
 11
82.547862
 21
384.38514
  0
LINE
  5
224
100
AcDbEntity
  8
M0
 62
     7
100
AcDbLine
 10
100.747863
 20
383.18514
 11
100.747863
 21
383.28514
  0
LINE
  5
225
100
AcDbEntity
  8
M0
 62
     7
100
AcDbLine
 10
105.747862
 20
392.662606
 11
105.747862
 21
392.78514
  0
LINE
  5
226
100
AcDbEntity
  8
M0
 62
     7
100
AcDbLine
 10
97.947864
 20
383.18514
 11
97.947864
 21
383.78514
  0
LINE
  5
227
100
AcDbEntity
  8
M0
 62
     7
100
AcDbLine
 10
99.447864
 20
383.28514
 11
99.447864
 21
383.18514
  0
LINE
  5
228
100
AcDbEntity
  8
M0
 62
     7
100
AcDbLine
 10
124.547864
 20
384.38514
 11
123.947861
 21
384.38514
  0
LINE
  5
229
100
AcDbEntity
  8
M0
 62
     7
100
AcDbLine
 10
104.997864
 20
391.98514
 11
104.997864
 21
384.78514
  0
LINE
  5
22A
100
AcDbEntity
  8
M0
 62
     7
100
AcDbLine
 10
101.497861
 20
391.98514
 11
101.497861
 21
384.78514
  0
LINE
  5
22B
100
AcDbEntity
  8
M0
 62
     7
100
AcDbLine
 10
98.447862
 20
392.48514
 11
100.997864
 21
392.48514
  0
LINE
  5
22C
100
AcDbEntity
  8
M0
 62
     7
100
AcDbLine
 10
108.047864
 20
383.28514
 11
98.447862
 21
383.28514
  0
LINE
  5
22D
100
AcDbEntity
  8
M0
 62
     7
100
AcDbLine
 10
108.047864
 20
392.48514
 11
105.497862
 21
392.48514
  0
LINE
  5
22E
100
AcDbEntity
  8
M0
 62
     7
100
AcDbLine
 10
101.497861
 20
384.78514
 11
104.997864
 21
384.78514
  0
LINE
  5
22F
100
AcDbEntity
  8
M0
 62
     7
100
AcDbLine
 10
93.847864
 20
392.48514
 11
94.047863
 21
392.48514
  0
LINE
  5
230
100
AcDbEntity
  8
M0
 62
     7
100
AcDbLine
 10
94.047863
 20
383.28514
 11
93.847864
 21
383.28514
  0
LINE
  5
231
100
AcDbEntity
  8
M0
 62
     7
100
AcDbLine
 10
97.947864
 20
391.98514
 11
97.947864
 21
392.78514
  0
LINE
  5
232
100
AcDbEntity
  8
M0
 62
     7
100
AcDbLine
 10
109.047862
 20
389.38514
 11
108.547861
 21
389.38514
  0
LINE
  5
233
100
AcDbEntity
  8
M0
 62
     7
100
AcDbLine
 10
99.247864
 20
392.48514
 11
107.247861
 21
392.48514
  0
LINE
  5
234
100
AcDbEntity
  8
M0
 62
     7
100
AcDbLine
 10
97.947864
 20
383.78514
 11
97.947864
 21
391.98514
  0
LINE
  5
235
100
AcDbEntity
  8
M0
 62
     7
100
AcDbLine
 10
112.647863
 20
392.48514
 11
112.447864
 21
392.48514
  0
LINE
  5
236
100
AcDbEntity
  8
M0
 62
     7
100
AcDbLine
 10
112.447864
 20
383.28514
 11
112.647863
 21
383.28514
  0
LINE
  5
237
100
AcDbEntity
  8
M0
 62
     7
100
AcDbLine
 10
133.647865
 20
408.285139
 11
133.34786
 21
408.285139
  0
ARC
  5
238
100
AcDbEntity
  8
M0
 62
     7
100
AcDbCircle
 10
96.547863
 20
422.68514
 40
1.0
100
AcDbArc
 50
90.0
 51
180.0
  0
LINE
  5
239
100
AcDbEntity
  8
M0
 62
     7
100
AcDbLine
 10
133.34786
 20
384.48514
 11
133.647865
 21
384.48514
  0
LINE
  5
23A
100
AcDbEntity
  8
M0
 62
     7
100
AcDbLine
 10
133.647865
 20
391.88514
 11
133.34786
 21
391.88514
  0
ARC
  5
23B
100
AcDbEntity
  8
M0
 62
     7
100
AcDbCircle
 10
109.547863
 20
422.68514
 40
1.0
100
AcDbArc
 50
90.0
 51
180.0
  0
ARC
  5
23C
100
AcDbEntity
  8
M0
 62
     7
100
AcDbCircle
 10
109.547863
 20
353.68514
 40
1.0
100
AcDbArc
 50
180.0
 51
270.0
  0
ARC
  5
23D
100
AcDbEntity
  8
M0
 62
     7
100
AcDbCircle
 10
96.947863
 20
422.68514
 40
1.0
100
AcDbArc
 50
0.0
 51
90.0
  0
ARC
  5
23E
100
AcDbEntity
  8
M0
 62
     7
100
AcDbCircle
 10
96.947863
 20
353.68514
 40
1.0
100
AcDbArc
 50
270.0
 51
360.0
  0
LINE
  5
23F
100
AcDbEntity
  8
M0
 62
     7
100
AcDbLine
 10
112.447864
 20
380.685139
 11
112.447864
 21
394.28514
  0
LINE
  5
240
100
AcDbEntity
  8
M0
 62
     7
100
AcDbLine
 10
111.447862
 20
400.18514
 11
109.947862
 21
400.18514
  0
LINE
  5
241
100
AcDbEntity
  8
M0
 62
     7
100
AcDbLine
 10
111.447862
 20
376.18514
 11
110.947865
 21
376.18514
  0
LINE
  5
242
100
AcDbEntity
  8
M0
 62
     7
100
AcDbLine
 10
133.34786
 20
368.08514
 11
133.647865
 21
368.08514
  0
LINE
  5
243
100
AcDbEntity
  8
M0
 62
     7
100
AcDbLine
 10
132.347865
 20
414.88514
 11
132.347865
 21
392.88514
  0
LINE
  5
244
100
AcDbEntity
  8
M0
 62
     7
100
AcDbLine
 10
96.947862
 20
352.685138
 11
96.547863
 21
352.685138
  0
LINE
  5
245
100
AcDbEntity
  8
M0
 62
     7
100
AcDbLine
 10
96.547863
 20
369.28514
 11
96.947862
 21
369.28514
  0
LINE
  5
246
100
AcDbEntity
  8
M0
 62
     7
100
AcDbLine
 10
96.947862
 20
369.28514
 11
97.947864
 21
369.28514
  0
ARC
  5
247
100
AcDbEntity
  8
M0
 62
     7
100
AcDbCircle
 10
109.947863
 20
422.68514
 40
1.0
100
AcDbArc
 50
0.0
 51
90.0
  0
ARC
  5
248
100
AcDbEntity
  8
M0
 62
     7
100
AcDbCircle
 10
122.547863
 20
422.68514
 40
1.0
100
AcDbArc
 50
90.0
 51
180.0
  0
LINE
  5
249
100
AcDbEntity
  8
M0
 62
     7
100
AcDbLine
 10
132.347865
 20
383.48514
 11
132.347865
 21
361.48514
  0
ARC
  5
24A
100
AcDbEntity
  8
M0
 62
     7
100
AcDbCircle
 10
109.947863
 20
353.68514
 40
1.0
100
AcDbArc
 50
270.0
 51
360.0
  0
ARC
  5
24B
100
AcDbEntity
  8
M0
 62
     7
100
AcDbCircle
 10
122.947863
 20
353.68514
 40
1.0
100
AcDbArc
 50
270.0
 51
360.0
  0
LINE
  5
24C
100
AcDbEntity
  8
M0
 62
     7
100
AcDbLine
 10
96.547863
 20
423.685141
 11
96.947862
 21
423.685141
  0
ARC
  5
24D
100
AcDbEntity
  8
M0
 62
     7
100
AcDbCircle
 10
122.547863
 20
353.68514
 40
1.0
100
AcDbArc
 50
180.0
 51
270.0
  0
ARC
  5
24E
100
AcDbEntity
  8
M0
 62
     7
100
AcDbCircle
 10
122.947863
 20
422.68514
 40
1.0
100
AcDbArc
 50
0.0
 51
90.0
  0
LINE
  5
24F
100
AcDbEntity
  8
M0
 62
     7
100
AcDbLine
 10
133.647865
 20
391.88514
 11
133.647865
 21
384.48514
  0
LINE
  5
250
100
AcDbEntity
  8
M0
 62
     7
100
AcDbLine
 10
125.947861
 20
384.18514
 11
125.947861
 21
392.18514
  0
LINE
  5
251
100
AcDbEntity
  8
M0
 62
     7
100
AcDbLine
 10
123.947861
 20
384.18514
 11
125.947861
 21
384.18514
  0
LINE
  5
252
100
AcDbEntity
  8
M0
 62
     7
100
AcDbLine
 10
72.847863
 20
384.48514
 11
73.147863
 21
384.48514
  0
LINE
  5
253
100
AcDbEntity
  8
M0
 62
     7
100
AcDbLine
 10
72.847863
 20
408.285139
 11
73.147863
 21
408.285139
  0
LINE
  5
254
100
AcDbEntity
  8
M0
 62
     7
100
AcDbLine
 10
132.347865
 20
391.88514
 11
132.347865
 21
384.48514
  0
LINE
  5
255
100
AcDbEntity
  8
M0
 62
     7
100
AcDbLine
 10
132.347865
 20
384.48514
 11
129.347859
 21
384.48514
  0
LINE
  5
256
100
AcDbEntity
  8
M0
 62
     7
100
AcDbLine
 10
72.847863
 20
391.88514
 11
72.847863
 21
384.48514
  0
LINE
  5
257
100
AcDbEntity
  8
M0
 62
     7
100
AcDbLine
 10
129.347859
 20
391.88514
 11
132.347865
 21
391.88514
  0
LINE
  5
258
100
AcDbEntity
  8
M0
 62
     7
100
AcDbLine
 10
123.047864
 20
391.68514
 11
123.047864
 21
390.68514
  0
LINE
  5
259
100
AcDbEntity
  8
M0
 62
     7
100
AcDbLine
 10
123.947861
 20
392.18514
 11
125.947861
 21
392.18514
  0
LINE
  5
25A
100
AcDbEntity
  8
M0
 62
     7
100
AcDbLine
 10
129.347859
 20
384.48514
 11
129.347859
 21
391.88514
  0
LINE
  5
25B
100
AcDbEntity
  8
M0
 62
     7
100
AcDbLine
 10
95.047864
 20
400.18514
 11
96.547863
 21
400.18514
  0
LINE
  5
25C
100
AcDbEntity
  8
M0
 62
     7
100
AcDbLine
 10
94.047863
 20
380.685139
 11
94.047863
 21
394.28514
  0
LINE
  5
25D
100
AcDbEntity
  8
M0
 62
     7
100
AcDbLine
 10
95.047864
 20
376.18514
 11
95.547865
 21
376.18514
  0
LINE
  5
25E
100
AcDbEntity
  8
M0
 62
     7
100
AcDbLine
 10
98.197861
 20
399.18514
 11
108.297864
 21
399.18514
  0
LINE
  5
25F
100
AcDbEntity
  8
M0
 62
     7
100
AcDbLine
 10
108.797862
 20
392.78514
 11
97.697864
 21
392.78514
  0
LINE
  5
260
100
AcDbEntity
  8
M0
 62
     7
100
AcDbLine
 10
98.197861
 20
394.28514
 11
108.297864
 21
394.28514
  0
LINE
  5
261
100
AcDbEntity
  8
M0
 62
     7
100
AcDbLine
 10
108.297864
 20
397.68514
 11
98.197861
 21
397.68514
  0
LINE
  5
262
100
AcDbEntity
  8
M0
 62
     7
100
AcDbLine
 10
73.147863
 20
391.88514
 11
72.847863
 21
391.88514
  0
LINE
  5
263
100
AcDbEntity
  8
M0
 62
     7
100
AcDbLine
 10
123.047864
 20
385.68514
 11
123.047864
 21
384.68514
  0
LINE
  5
264
100
AcDbEntity
  8
M0
 62
     7
100
AcDbLine
 10
73.147863
 20
368.08514
 11
72.847863
 21
368.08514
  0
LINE
  5
265
100
AcDbEntity
  8
M0
 62
     7
100
AcDbLine
 10
74.147863
 20
414.88514
 11
74.147863
 21
392.88514
  0
LINE
  5
266
100
AcDbEntity
  8
M0
 62
     7
100
AcDbLine
 10
124.547864
 20
385.18514
 11
124.547864
 21
384.18514
  0
LINE
  5
267
100
AcDbEntity
  8
M0
 62
     7
100
AcDbLine
 10
124.547864
 20
392.18514
 11
124.547864
 21
391.18514
  0
LINE
  5
268
100
AcDbEntity
  8
M0
 62
     7
100
AcDbLine
 10
74.147863
 20
397.48514
 11
82.547862
 21
397.48514
  0
LINE
  5
269
100
AcDbEntity
  8
M0
 62
     7
100
AcDbLine
 10
124.547864
 20
385.18514
 11
124.847861
 21
385.18514
  0
LINE
  5
26A
100
AcDbEntity
  8
M0
 62
     7
100
AcDbLine
 10
124.847861
 20
391.18514
 11
124.847861
 21
389.68514
  0
LINE
  5
26B
100
AcDbEntity
  8
M0
 62
     7
100
AcDbLine
 10
123.947861
 20
378.88514
 11
132.347865
 21
378.88514
  0
LINE
  5
26C
100
AcDbEntity
  8
M0
 62
     7
100
AcDbLine
 10
124.847861
 20
391.18514
 11
124.547864
 21
391.18514
  0
LINE
  5
26D
100
AcDbEntity
  8
M0
 62
     7
100
AcDbLine
 10
124.847861
 20
386.68514
 11
124.847861
 21
385.18514
  0
LINE
  5
26E
100
AcDbEntity
  8
M0
 62
     7
100
AcDbLine
 10
81.647862
 20
386.68514
 11
81.647862
 21
385.18514
  0
LINE
  5
26F
100
AcDbEntity
  8
M0
 62
     7
100
AcDbLine
 10
81.647862
 20
391.18514
 11
81.647862
 21
389.68514
  0
LINE
  5
270
100
AcDbEntity
  8
M0
 62
     7
100
AcDbLine
 10
81.947863
 20
385.18514
 11
81.647862
 21
385.18514
  0
LINE
  5
271
100
AcDbEntity
  8
M0
 62
     7
100
AcDbLine
 10
81.947863
 20
385.18514
 11
81.947863
 21
384.18514
  0
LINE
  5
272
100
AcDbEntity
  8
M0
 62
     7
100
AcDbLine
 10
82.547862
 20
378.88514
 11
74.147863
 21
378.88514
  0
LINE
  5
273
100
AcDbEntity
  8
M0
 62
     7
100
AcDbLine
 10
81.647862
 20
391.18514
 11
81.947863
 21
391.18514
  0
ARC
  5
274
100
AcDbEntity
  8
M0
 62
     7
100
AcDbCircle
 10
83.947863
 20
422.68514
 40
1.0
100
AcDbArc
 50
0.0
 51
90.0
  0
ARC
  5
275
100
AcDbEntity
  8
M0
 62
     7
100
AcDbCircle
 10
96.547863
 20
353.68514
 40
1.0
100
AcDbArc
 50
180.0
 51
270.0
  0
ARC
  5
276
100
AcDbEntity
  8
M0
 62
     7
100
AcDbCircle
 10
83.547863
 20
422.68514
 40
1.0
100
AcDbArc
 50
90.0
 51
180.0
  0
ARC
  5
277
100
AcDbEntity
  8
M0
 62
     7
100
AcDbCircle
 10
83.947863
 20
353.68514
 40
1.0
100
AcDbArc
 50
270.0
 51
360.0
  0
LINE
  5
278
100
AcDbEntity
  8
M0
 62
     7
100
AcDbLine
 10
83.947862
 20
352.685138
 11
83.747862
 21
352.685138
  0
LINE
  5
279
100
AcDbEntity
  8
M0
 62
     7
100
AcDbLine
 10
83.747862
 20
423.685141
 11
83.947862
 21
423.685141
  0
LINE
  5
27A
100
AcDbEntity
  8
M0
 62
     7
100
AcDbLine
 10
112.647863
 20
393.48514
 11
112.447864
 21
393.48514
  0
ARC
  5
27B
100
AcDbEntity
  8
M0
 62
     7
100
AcDbCircle
 10
82.547863
 20
368.68514
 40
0.6
100
AcDbArc
 50
180.0
 51
270.0
  0
LINE
  5
27C
100
AcDbEntity
  8
M0
 62
     7
100
AcDbLine
 10
81.947863
 20
392.18514
 11
81.947863
 21
391.18514
  0
LINE
  5
27D
100
AcDbEntity
  8
M0
 62
     7
100
AcDbLine
 10
132.347865
 20
397.48514
 11
123.947861
 21
397.48514
  0
ARC
  5
27E
100
AcDbEntity
  8
M0
 62
     7
100
AcDbCircle
 10
123.947863
 20
368.68514
 40
0.6
100
AcDbArc
 50
270.0
 51
360.0
  0
ARC
  5
27F
100
AcDbEntity
  8
M0
 62
     7
100
AcDbCircle
 10
83.547863
 20
353.68514
 40
1.0
100
AcDbArc
 50
180.0
 51
270.0
  0
ARC
  5
280
100
AcDbEntity
  8
M0
 62
     7
100
AcDbCircle
 10
82.547863
 20
407.68514
 40
0.6
100
AcDbArc
 50
90.0
 51
180.0
  0
ARC
  5
281
100
AcDbEntity
  8
M0
 62
     7
100
AcDbCircle
 10
123.947863
 20
407.68514
 40
0.6
100
AcDbArc
 50
0.0
 51
90.0
  0
LINE
  5
282
100
AcDbEntity
  8
M0
 62
     7
100
AcDbLine
 10
110.947865
 20
407.08514
 11
108.547861
 21
407.08514
  0
LINE
  5
283
100
AcDbEntity
  8
M0
 62
     7
100
AcDbLine
 10
110.947865
 20
369.28514
 11
109.947862
 21
369.28514
  0
LINE
  5
284
100
AcDbEntity
  8
M0
 62
     7
100
AcDbLine
 10
109.547863
 20
352.685138
 11
109.947862
 21
352.685138
  0
LINE
  5
285
100
AcDbEntity
  8
M0
 62
     7
100
AcDbLine
 10
109.547863
 20
369.28514
 11
108.547861
 21
369.28514
  0
LINE
  5
286
100
AcDbEntity
  8
M0
 62
     7
100
AcDbLine
 10
109.947862
 20
369.28514
 11
109.547863
 21
369.28514
  0
LINE
  5
287
100
AcDbEntity
  8
M0
 62
     7
100
AcDbLine
 10
129.647863
 20
423.685141
 11
122.547863
 21
423.685141
  0
LINE
  5
288
100
AcDbEntity
  8
M0
 62
     7
100
AcDbLine
 10
123.947861
 20
391.68514
 11
123.947861
 21
422.685141
  0
LINE
  5
289
100
AcDbEntity
  8
M0
 62
     7
100
AcDbLine
 10
109.947862
 20
423.685141
 11
109.547863
 21
423.685141
  0
LINE
  5
28A
100
AcDbEntity
  8
M0
 62
     7
100
AcDbLine
 10
121.547861
 20
370.785139
 11
121.547861
 21
353.68514
  0
ARC
  5
28B
100
AcDbEntity
  8
M0
 62
     7
100
AcDbCircle
 10
97.197863
 20
376.68514
 40
0.5
100
AcDbArc
 50
270.0
 51
360.0
  0
ARC
  5
28C
100
AcDbEntity
  8
M0
 62
     7
100
AcDbCircle
 10
109.297863
 20
376.68514
 40
0.5
100
AcDbArc
 50
180.0
 51
270.0
  0
ARC
  5
28D
100
AcDbEntity
  8
M0
 62
     7
100
AcDbCircle
 10
97.197863
 20
399.18514
 40
1.0
100
AcDbArc
 50
0.0
 51
90.0
  0
ARC
  5
28E
100
AcDbEntity
  8
M0
 62
     7
100
AcDbCircle
 10
97.697863
 20
393.28514
 40
0.5
100
AcDbArc
 50
270.0
 51
360.0
  0
ARC
  5
28F
100
AcDbEntity
  8
M0
 62
     7
100
AcDbCircle
 10
111.447863
 20
377.18514
 40
1.0
100
AcDbArc
 50
270.0
 51
360.0
  0
ARC
  5
290
100
AcDbEntity
  8
M0
 62
     7
100
AcDbCircle
 10
111.447863
 20
380.68514
 40
1.0
100
AcDbArc
 50
0.0
 51
90.0
  0
ARC
  5
291
100
AcDbEntity
  8
M0
 62
     7
100
AcDbCircle
 10
109.297863
 20
399.18514
 40
1.0
100
AcDbArc
 50
90.0
 51
180.0
  0
ARC
  5
292
100
AcDbEntity
  8
M0
 62
     7
100
AcDbCircle
 10
108.797863
 20
393.28514
 40
0.5
100
AcDbArc
 50
180.0
 51
270.0
  0
ARC
  5
293
100
AcDbEntity
  8
M0
 62
     7
100
AcDbCircle
 10
133.647863
 20
392.88514
 40
1.0
100
AcDbArc
 50
270.0
 51
360.0
  0
ARC
  5
294
100
AcDbEntity
  8
M0
 62
     7
100
AcDbCircle
 10
133.647863
 20
407.28514
 40
1.0
100
AcDbArc
 50
0.0
 51
90.0
  0
ARC
  5
295
100
AcDbEntity
  8
M0
 62
     7
100
AcDbCircle
 10
95.047863
 20
399.18514
 40
1.0
100
AcDbArc
 50
90.0
 51
180.0
  0
ARC
  5
296
100
AcDbEntity
  8
M0
 62
     7
100
AcDbCircle
 10
95.047863
 20
377.18514
 40
1.0
100
AcDbArc
 50
180.0
 51
270.0
  0
ARC
  5
297
100
AcDbEntity
  8
M0
 62
     7
100
AcDbCircle
 10
133.647863
 20
369.08514
 40
1.0
100
AcDbArc
 50
270.0
 51
360.0
  0
LINE
  5
298
100
AcDbEntity
  8
M0
 62
     7
100
AcDbLine
 10
108.797862
 20
381.685139
 11
97.697864
 21
381.685139
  0
LINE
  5
299
100
AcDbEntity
  8
M0
 62
     7
100
AcDbLine
 10
97.697864
 20
377.68514
 11
108.797862
 21
377.68514
  0
LINE
  5
29A
100
AcDbEntity
  8
M0
 62
     7
100
AcDbLine
 10
97.697864
 20
383.18514
 11
108.797862
 21
383.18514
  0
LINE
  5
29B
100
AcDbEntity
  8
M0
 62
     7
100
AcDbLine
 10
94.047863
 20
394.28514
 11
94.047863
 21
399.18514
  0
LINE
  5
29C
100
AcDbEntity
  8
M0
 62
     7
100
AcDbLine
 10
95.547865
 20
392.78514
 11
94.047863
 21
394.28514
  0
LINE
  5
29D
100
AcDbEntity
  8
M0
 62
     7
100
AcDbLine
 10
94.047863
 20
377.18514
 11
94.047863
 21
380.685139
  0
ARC
  5
29E
100
AcDbEntity
  8
M0
 62
     7
100
AcDbCircle
 10
86.147863
 20
371.48514
 40
1.0
100
AcDbArc
 50
270.0
 51
315.572996
  0
ARC
  5
29F
100
AcDbEntity
  8
M0
 62
     7
100
AcDbCircle
 10
94.347863
 20
371.48514
 40
1.0
100
AcDbArc
 50
224.427004
 51
270.0
  0
ARC
  5
2A0
100
AcDbEntity
  8
M0
 62
     7
100
AcDbCircle
 10
95.047863
 20
380.68514
 40
1.0
100
AcDbArc
 50
90.0
 51
180.0
  0
ARC
  5
2A1
100
AcDbEntity
  8
M0
 62
     7
100
AcDbCircle
 10
111.447863
 20
399.18514
 40
1.0
100
AcDbArc
 50
0.0
 51
90.0
  0
LINE
  5
2A2
100
AcDbEntity
  8
M0
 62
     7
100
AcDbLine
 10
134.64786
 20
418.68514
 11
134.64786
 21
357.68514
  0
ARC
  5
2A3
100
AcDbEntity
  8
M0
 62
     7
100
AcDbCircle
 10
120.347863
 20
404.88514
 40
1.0
100
AcDbArc
 50
90.0
 51
135.572996
  0
LINE
  5
2A4
100
AcDbEntity
  8
M0
 62
     7
100
AcDbLine
 10
107.347863
 20
405.885139
 11
108.547861
 21
405.885139
  0
LINE
  5
2A5
100
AcDbEntity
  8
M0
 62
     7
100
AcDbLine
 10
120.347863
 20
370.48514
 11
121.547861
 21
370.48514
  0
LINE
  5
2A6
100
AcDbEntity
  8
M0
 62
     7
100
AcDbLine
 10
112.147862
 20
370.48514
 11
110.947865
 21
370.48514
  0
LINE
  5
2A7
100
AcDbEntity
  8
M0
 62
     7
100
AcDbLine
 10
132.347865
 20
405.285139
 11
124.547864
 21
405.285139
  0
LINE
  5
2A8
100
AcDbEntity
  8
M0
 62
     7
100
AcDbLine
 10
99.147862
 20
405.885139
 11
97.947864
 21
405.885139
  0
LINE
  5
2A9
100
AcDbEntity
  8
M0
 62
     7
100
AcDbLine
 10
110.947865
 20
359.18514
 11
113.445833
 21
359.18514
  0
LINE
  5
2AA
100
AcDbEntity
  8
M0
 62
     7
100
AcDbLine
 10
108.547861
 20
417.185141
 11
97.947864
 21
417.185141
  0
ARC
  5
2AB
100
AcDbEntity
  8
M0
 62
     7
100
AcDbCircle
 10
73.147863
 20
407.28514
 40
1.0
100
AcDbArc
 50
0.0
 51
90.0
  0
ARC
  5
2AC
100
AcDbEntity
  8
M0
 62
     7
100
AcDbCircle
 10
73.147863
 20
383.48514
 40
1.0
100
AcDbArc
 50
0.0
 51
90.0
  0
ARC
  5
2AD
100
AcDbEntity
  8
M0
 62
     7
100
AcDbCircle
 10
72.847863
 20
392.88514
 40
1.0
100
AcDbArc
 50
180.0
 51
270.0
  0
ARC
  5
2AE
100
AcDbEntity
  8
M0
 62
     7
100
AcDbCircle
 10
72.847863
 20
407.28514
 40
1.0
100
AcDbArc
 50
90.0
 51
180.0
  0
ARC
  5
2AF
100
AcDbEntity
  8
M0
 62
     7
100
AcDbCircle
 10
133.347863
 20
369.08514
 40
1.0
100
AcDbArc
 50
180.0
 51
270.0
  0
ARC
  5
2B0
100
AcDbEntity
  8
M0
 62
     7
100
AcDbCircle
 10
133.347863
 20
392.88514
 40
1.0
100
AcDbArc
 50
180.0
 51
270.0
  0
ARC
  5
2B1
100
AcDbEntity
  8
M0
 62
     7
100
AcDbCircle
 10
73.147863
 20
369.08514
 40
1.0
100
AcDbArc
 50
270.0
 51
360.0
  0
ARC
  5
2B2
100
AcDbEntity
  8
M0
 62
     7
100
AcDbCircle
 10
73.147863
 20
392.88514
 40
1.0
100
AcDbArc
 50
270.0
 51
360.0
  0
ARC
  5
2B3
100
AcDbEntity
  8
M0
 62
     7
100
AcDbCircle
 10
72.847863
 20
383.48514
 40
1.0
100
AcDbArc
 50
90.0
 51
180.0
  0
ARC
  5
2B4
100
AcDbEntity
  8
M0
 62
     7
100
AcDbCircle
 10
72.847863
 20
369.08514
 40
1.0
100
AcDbArc
 50
180.0
 51
270.0
  0
LINE
  5
2B5
100
AcDbEntity
  8
M0
 62
     7
100
AcDbLine
 10
120.347863
 20
405.885139
 11
121.547861
 21
405.885139
  0
LINE
  5
2B6
100
AcDbEntity
  8
M0
 62
     7
100
AcDbLine
 10
74.147863
 20
391.88514
 11
74.147863
 21
384.48514
  0
LINE
  5
2B7
100
AcDbEntity
  8
M0
 62
     7
100
AcDbLine
 10
83.447863
 20
385.68514
 11
83.447863
 21
384.68514
  0
LINE
  5
2B8
100
AcDbEntity
  8
M0
 62
     7
100
AcDbLine
 10
77.147863
 20
384.48514
 11
77.147863
 21
391.88514
  0
LINE
  5
2B9
100
AcDbEntity
  8
M0
 62
     7
100
AcDbLine
 10
74.147863
 20
384.48514
 11
77.147863
 21
384.48514
  0
LINE
  5
2BA
100
AcDbEntity
  8
M0
 62
     7
100
AcDbLine
 10
80.547862
 20
384.18514
 11
80.547862
 21
392.18514
  0
LINE
  5
2BB
100
AcDbEntity
  8
M0
 62
     7
100
AcDbLine
 10
82.547862
 20
392.18514
 11
80.547862
 21
392.18514
  0
LINE
  5
2BC
100
AcDbEntity
  8
M0
 62
     7
100
AcDbLine
 10
83.447863
 20
391.68514
 11
83.447863
 21
390.68514
  0
LINE
  5
2BD
100
AcDbEntity
  8
M0
 62
     7
100
AcDbLine
 10
82.547862
 20
384.18514
 11
80.547862
 21
384.18514
  0
ARC
  5
2BE
100
AcDbEntity
  8
M0
 62
     7
100
AcDbCircle
 10
133.347863
 20
407.28514
 40
1.0
100
AcDbArc
 50
90.0
 51
180.0
  0
ARC
  5
2BF
100
AcDbEntity
  8
M0
 62
     7
100
AcDbCircle
 10
133.647863
 20
383.48514
 40
1.0
100
AcDbArc
 50
0.0
 51
90.0
  0
LINE
  5
2C0
100
AcDbEntity
  8
M0
 62
     7
100
AcDbLine
 10
121.547861
 20
417.185141
 11
110.947865
 21
417.185141
  0
ARC
  5
2C1
100
AcDbEntity
  8
M0
 62
     7
100
AcDbCircle
 10
133.347863
 20
383.48514
 40
1.0
100
AcDbArc
 50
90.0
 51
180.0
  0
LINE
  5
2C2
100
AcDbEntity
  8
M0
 62
     7
100
AcDbLine
 10
93.847864
 20
393.48514
 11
94.047863
 21
393.48514
  0
LINE
  5
2C3
100
AcDbEntity
  8
M0
 62
     7
100
AcDbLine
 10
77.147863
 20
391.88514
 11
74.147863
 21
391.88514
  0
LINE
  5
2C4
100
AcDbEntity
  8
M0
 62
     7
100
AcDbLine
 10
112.647863
 20
382.885139
 11
112.447864
 21
382.885139
  0
LINE
  5
2C5
100
AcDbEntity
  8
M0
 62
     7
100
AcDbLine
 10
93.847864
 20
382.885139
 11
94.047863
 21
382.885139
  0
LINE
  5
2C6
100
AcDbEntity
  8
M0
 62
     7
100
AcDbLine
 10
98.197861
 20
399.18514
 11
98.197861
 21
393.28514
  0
LINE
  5
2C7
100
AcDbEntity
  8
M0
 62
     7
100
AcDbLine
 10
108.297864
 20
399.18514
 11
108.297864
 21
393.28514
  0
LINE
  5
2C8
100
AcDbEntity
  8
M0
 62
     7
100
AcDbLine
 10
97.697864
 20
384.93514
 11
97.697864
 21
376.68514
  0
LINE
  5
2C9
100
AcDbEntity
  8
M0
 62
     7
100
AcDbLine
 10
97.447863
 20
385.43514
 11
97.697864
 21
384.93514
  0
LINE
  5
2CA
100
AcDbEntity
  8
M0
 62
     7
100
AcDbLine
 10
109.047862
 20
385.43514
 11
108.797862
 21
384.93514
  0
LINE
  5
2CB
100
AcDbEntity
  8
M0
 62
     7
100
AcDbLine
 10
109.047862
 20
390.93514
 11
109.047862
 21
385.43514
  0
LINE
  5
2CC
100
AcDbEntity
  8
M0
 62
     7
100
AcDbLine
 10
108.797862
 20
392.78514
 11
108.797862
 21
391.43514
  0
LINE
  5
2CD
100
AcDbEntity
  8
M0
 62
     7
100
AcDbLine
 10
108.797862
 20
384.93514
 11
108.797862
 21
376.68514
  0
LINE
  5
2CE
100
AcDbEntity
  8
M0
 62
     7
100
AcDbLine
 10
95.047864
 20
381.685139
 11
95.547865
 21
381.685139
  0
LINE
  5
2CF
100
AcDbEntity
  8
M0
 62
     7
100
AcDbLine
 10
97.447863
 20
390.93514
 11
97.447863
 21
385.43514
  0
LINE
  5
2D0
100
AcDbEntity
  8
M0
 62
     7
100
AcDbLine
 10
95.547865
 20
381.685139
 11
95.547865
 21
392.78514
  0
LINE
  5
2D1
100
AcDbEntity
  8
M0
 62
     7
100
AcDbLine
 10
97.697864
 20
391.43514
 11
97.447863
 21
390.93514
  0
LINE
  5
2D2
100
AcDbEntity
  8
M0
 62
     7
100
AcDbLine
 10
97.697864
 20
392.78514
 11
97.697864
 21
391.43514
  0
LINE
  5
2D3
100
AcDbEntity
  8
M0
 62
     7
100
AcDbLine
 10
84.947862
 20
359.18514
 11
87.486904
 21
359.18514
  0
LINE
  5
2D4
100
AcDbEntity
  8
M0
 62
     7
100
AcDbLine
 10
94.347863
 20
370.48514
 11
95.547865
 21
370.48514
  0
LINE
  5
2D5
100
AcDbEntity
  8
M0
 62
     7
100
AcDbLine
 10
112.447864
 20
377.18514
 11
112.447864
 21
380.685139
  0
LINE
  5
2D6
100
AcDbEntity
  8
M0
 62
     7
100
AcDbLine
 10
86.147862
 20
370.48514
 11
84.947862
 21
370.48514
  0
LINE
  5
2D7
100
AcDbEntity
  8
M0
 62
     7
100
AcDbLine
 10
111.447862
 20
381.685139
 11
110.947865
 21
381.685139
  0
LINE
  5
2D8
100
AcDbEntity
  8
M0
 62
     7
100
AcDbLine
 10
110.947865
 20
381.685139
 11
110.947865
 21
392.78514
  0
LINE
  5
2D9
100
AcDbEntity
  8
M0
 62
     7
100
AcDbLine
 10
95.047864
 20
400.18514
 11
97.197863
 21
400.18514
  0
LINE
  5
2DA
100
AcDbEntity
  8
M0
 62
     7
100
AcDbLine
 10
108.797862
 20
391.43514
 11
109.047862
 21
390.93514
  0
LINE
  5
2DB
100
AcDbEntity
  8
M0
 62
     7
100
AcDbLine
 10
112.447864
 20
394.28514
 11
112.447864
 21
399.18514
  0
LINE
  5
2DC
100
AcDbEntity
  8
M0
 62
     7
100
AcDbLine
 10
110.947865
 20
392.78514
 11
112.447864
 21
394.28514
  0
LINE
  5
2DD
100
AcDbEntity
  8
M0
 62
     7
100
AcDbLine
 10
95.047863
 20
376.18514
 11
111.447862
 21
376.18514
  0
LINE
  5
2DE
100
AcDbEntity
  8
M0
 62
     7
100
AcDbLine
 10
111.447862
 20
400.18514
 11
109.297863
 21
400.18514
  0
ELLIPSE
  5
2DF
100
AcDbEntity
  8
M0
 62
     7
100
AcDbEllipse
 10
98.947863
 20
423.101806
 11
1.0
 21
0.0
210
0.0
220
0.0
230
1.0
 40
0.416667
 41
3.141592653589793
 42
4.71238898038469
  0
ELLIPSE
  5
2E0
100
AcDbEntity
  8
M0
 62
     7
100
AcDbEllipse
 10
107.547863
 20
423.101806
 11
1.0
 21
0.0
210
0.0
220
0.0
230
1.0
 40
0.416667
 41
4.71238898038469
 42
6.283185307179586
  0
LINE
  5
2E1
100
AcDbEntity
  8
M0
 62
     7
100
AcDbLine
 10
107.547863
 20
422.685141
 11
98.947863
 21
422.685141
  0
LINE
  5
2E2
100
AcDbEntity
  8
M0
 62
     7
100
AcDbLine
 10
98.947863
 20
431.185141
 11
107.547863
 21
431.185141
  0
LINE
  5
2E3
100
AcDbEntity
  8
M0
 62
     7
100
AcDbLine
 10
84.947862
 20
419.185139
 11
95.547865
 21
419.185139
  0
LINE
  5
2E4
100
AcDbEntity
  8
M0
 62
     7
100
AcDbLine
 10
97.947864
 20
419.185139
 11
108.547861
 21
419.185139
  0
LINE
  5
2E5
100
AcDbEntity
  8
M0
 62
     7
100
AcDbLine
 10
97.947864
 20
430.18514
 11
97.947864
 21
405.58514
  0
LINE
  5
2E6
100
AcDbEntity
  8
M0
 62
     7
100
AcDbLine
 10
108.547861
 20
421.185139
 11
97.947864
 21
421.185139
  0
LINE
  5
2E7
100
AcDbEntity
  8
M0
 62
     7
100
AcDbLine
 10
119.497864
 20
355.685141
 11
119.497864
 21
353.68514
  0
LINE
  5
2E8
100
AcDbEntity
  8
M0
 62
     7
100
AcDbLine
 10
112.247864
 20
352.685138
 11
112.755846
 21
352.685138
  0
LINE
  5
2E9
100
AcDbEntity
  8
M0
 62
     7
100
AcDbLine
 10
112.997862
 20
353.68514
 11
112.997862
 21
355.685141
  0
LINE
  5
2EA
100
AcDbEntity
  8
M0
 62
     7
100
AcDbLine
 10
121.247864
 20
353.68514
 11
121.247864
 21
357.18514
  0
LINE
  5
2EB
100
AcDbEntity
  8
M0
 62
     7
100
AcDbLine
 10
121.247864
 20
357.18514
 11
121.547861
 21
357.18514
  0
LINE
  5
2EC
100
AcDbEntity
  8
M0
 62
     7
100
AcDbLine
 10
73.147863
 20
360.48514
 11
72.847863
 21
360.48514
  0
LINE
  5
2ED
100
AcDbEntity
  8
M0
 62
     7
100
AcDbLine
 10
85.247863
 20
357.18514
 11
84.947862
 21
357.18514
  0
LINE
  5
2EE
100
AcDbEntity
  8
M0
 62
     7
100
AcDbLine
 10
120.247862
 20
359.18514
 11
120.247862
 21
358.185138
  0
LINE
  5
2EF
100
AcDbEntity
  8
M0
 62
     7
100
AcDbLine
 10
72.847863
 20
415.885139
 11
73.147863
 21
415.885139
  0
LINE
  5
2F0
100
AcDbEntity
  8
M0
 62
     7
100
AcDbLine
 10
94.247863
 20
356.685139
 11
94.247863
 21
359.18514
  0
LINE
  5
2F1
100
AcDbEntity
  8
M0
 62
     7
100
AcDbLine
 10
95.547865
 20
355.685141
 11
95.247863
 21
355.685141
  0
LINE
  5
2F2
100
AcDbEntity
  8
M0
 62
     7
100
AcDbLine
 10
119.497864
 20
353.68514
 11
119.497864
 21
353.185139
  0
LINE
  5
2F3
100
AcDbEntity
  8
M0
 62
     7
100
AcDbLine
 10
121.547861
 20
419.185139
 11
110.947865
 21
419.185139
  0
LINE
  5
2F4
100
AcDbEntity
  8
M0
 62
     7
100
AcDbLine
 10
112.247864
 20
356.685139
 11
112.247864
 21
359.18514
  0
LINE
  5
2F5
100
AcDbEntity
  8
M0
 62
     7
100
AcDbLine
 10
86.247864
 20
359.18514
 11
86.247864
 21
358.185138
  0
LINE
  5
2F6
100
AcDbEntity
  8
M0
 62
     7
100
AcDbLine
 10
108.547861
 20
355.685141
 11
103.880277
 21
355.685141
  0
LINE
  5
2F7
100
AcDbEntity
  8
M0
 62
     7
100
AcDbLine
 10
111.247862
 20
355.685141
 11
110.947865
 21
355.685141
  0
ARC
  5
2F8
100
AcDbEntity
  8
M0
 62
     7
100
AcDbCircle
 10
119.997863
 20
353.18514
 40
0.5
100
AcDbArc
 50
180.0
 51
270.0
  0
ARC
  5
2F9
100
AcDbEntity
  8
M0
 62
     7
100
AcDbCircle
 10
112.497863
 20
353.18514
 40
0.5
100
AcDbArc
 50
270.0
 51
306.017821
  0
ARC
  5
2FA
100
AcDbEntity
  8
M0
 62
     7
100
AcDbCircle
 10
116.247863
 20
355.68514
 40
3.25
100
AcDbArc
 50
145.699618
 51
180.0
  0
ARC
  5
2FB
100
AcDbEntity
  8
M0
 62
     7
100
AcDbCircle
 10
98.947863
 20
430.18514
 40
1.0
100
AcDbArc
 50
90.0
 51
180.0
  0
ARC
  5
2FC
100
AcDbEntity
  8
M0
 62
     7
100
AcDbCircle
 10
107.547863
 20
430.18514
 40
1.0
100
AcDbArc
 50
0.0
 51
90.0
  0
ARC
  5
2FD
100
AcDbEntity
  8
M0
 62
     7
100
AcDbCircle
 10
120.247863
 20
353.68514
 40
1.0
100
AcDbArc
 50
270.0
 51
360.0
  0
ARC
  5
2FE
100
AcDbEntity
  8
M0
 62
     7
100
AcDbCircle
 10
86.497863
 20
353.18514
 40
0.5
100
AcDbArc
 50
270.0
 51
360.0
  0
ARC
  5
2FF
100
AcDbEntity
  8
M0
 62
     7
100
AcDbCircle
 10
94.247863
 20
353.68514
 40
1.0
100
AcDbArc
 50
270.0
 51
360.0
  0
ARC
  5
300
100
AcDbEntity
  8
M0
 62
     7
100
AcDbCircle
 10
112.247863
 20
353.68514
 40
1.0
100
AcDbArc
 50
180.0
 51
270.0
  0
ARC
  5
301
100
AcDbEntity
  8
M0
 62
     7
100
AcDbCircle
 10
90.247863
 20
355.68514
 40
3.25
100
AcDbArc
 50
0.0
 51
59.586094
  0
LINE
  5
302
100
AcDbEntity
  8
M0
 62
     7
100
AcDbLine
 10
86.997863
 20
355.68514
 11
86.997863
 21
353.185139
  0
LINE
  5
303
100
AcDbEntity
  8
M0
 62
     7
100
AcDbLine
 10
95.247863
 20
355.685141
 11
95.247863
 21
353.68514
  0
LINE
  5
304
100
AcDbEntity
  8
M0
 62
     7
100
AcDbLine
 10
111.247862
 20
355.685141
 11
111.247862
 21
353.68514
  0
LINE
  5
305
100
AcDbEntity
  8
M0
 62
     7
100
AcDbLine
 10
93.497863
 20
353.185139
 11
93.497863
 21
355.68514
  0
ARC
  5
306
100
AcDbEntity
  8
M0
 62
     7
100
AcDbCircle
 10
111.247863
 20
356.68514
 40
1.0
100
AcDbArc
 50
270.0
 51
360.0
  0
ARC
  5
307
100
AcDbEntity
  8
M0
 62
     7
100
AcDbCircle
 10
85.247863
 20
358.18514
 40
1.0
100
AcDbArc
 50
270.0
 51
360.0
  0
ARC
  5
308
100
AcDbEntity
  8
M0
 62
     7
100
AcDbCircle
 10
93.997863
 20
353.18514
 40
0.5
100
AcDbArc
 50
180.0
 51
270.0
  0
ARC
  5
309
100
AcDbEntity
  8
M0
 62
     7
100
AcDbCircle
 10
95.247863
 20
356.68514
 40
1.0
100
AcDbArc
 50
180.0
 51
270.0
  0
LINE
  5
30A
100
AcDbEntity
  8
M0
 62
     7
100
AcDbLine
 10
85.247863
 20
353.68514
 11
85.247863
 21
357.18514
  0
ARC
  5
30B
100
AcDbEntity
  8
M0
 62
     7
100
AcDbCircle
 10
121.247863
 20
358.18514
 40
1.0
100
AcDbArc
 50
180.0
 51
270.0
  0
ARC
  5
30C
100
AcDbEntity
  8
M0
 62
     7
100
AcDbCircle
 10
72.847863
 20
414.88514
 40
1.0
100
AcDbArc
 50
90.0
 51
180.0
  0
LINE
  5
30D
100
AcDbEntity
  8
M0
 62
     7
100
AcDbLine
 10
83.947862
 20
352.685138
 11
82.447863
 21
352.685138
  0
LINE
  5
30E
100
AcDbEntity
  8
M0
 62
     7
100
AcDbLine
 10
76.847863
 20
423.685141
 11
83.947862
 21
423.685141
  0
LINE
  5
30F
100
AcDbEntity
  8
M0
 62
     7
100
AcDbLine
 10
82.547862
 20
422.68514
 11
82.547862
 21
391.68514
  0
LINE
  5
310
100
AcDbEntity
  8
M0
 62
     7
100
AcDbLine
 10
124.547864
 20
361.08514
 11
124.547864
 21
378.88514
  0
LINE
  5
311
100
AcDbEntity
  8
M0
 62
     7
100
AcDbLine
 10
124.547864
 20
397.48514
 11
124.547864
 21
415.28514
  0
ARC
  5
312
100
AcDbEntity
  8
M0
 62
     7
100
AcDbCircle
 10
72.847863
 20
361.48514
 40
1.0
100
AcDbArc
 50
180.0
 51
270.0
  0
ARC
  5
313
100
AcDbEntity
  8
M0
 62
     7
100
AcDbCircle
 10
73.147863
 20
361.48514
 40
1.0
100
AcDbArc
 50
270.0
 51
360.0
  0
LINE
  5
314
100
AcDbEntity
  8
M0
 62
     7
100
AcDbLine
 10
95.547865
 20
407.08514
 11
97.947864
 21
407.08514
  0
ARC
  5
315
100
AcDbEntity
  8
M0
 62
     7
100
AcDbCircle
 10
82.547863
 20
361.08514
 40
0.6
100
AcDbArc
 50
180.0
 51
270.0
  0
ARC
  5
316
100
AcDbEntity
  8
M0
 62
     7
100
AcDbCircle
 10
123.947863
 20
415.28514
 40
0.6
100
AcDbArc
 50
0.0
 51
90.0
  0
ARC
  5
317
100
AcDbEntity
  8
M0
 62
     7
100
AcDbCircle
 10
73.147863
 20
414.88514
 40
1.0
100
AcDbArc
 50
0.0
 51
90.0
  0
ARC
  5
318
100
AcDbEntity
  8
M0
 62
     7
100
AcDbCircle
 10
82.547863
 20
415.28514
 40
0.6
100
AcDbArc
 50
90.0
 51
180.0
  0
LINE
  5
319
100
AcDbEntity
  8
M0
 62
     7
100
AcDbLine
 10
84.947862
 20
370.785139
 11
84.947862
 21
353.68514
  0
LINE
  5
31A
100
AcDbEntity
  8
M0
 62
     7
100
AcDbLine
 10
95.547865
 20
353.68514
 11
95.547865
 21
370.785139
  0
LINE
  5
31B
100
AcDbEntity
  8
M0
 62
     7
100
AcDbLine
 10
95.547865
 20
369.28514
 11
96.547863
 21
369.28514
  0
LINE
  5
31C
100
AcDbEntity
  8
M0
 62
     7
100
AcDbLine
 10
122.747863
 20
423.685141
 11
122.547863
 21
423.685141
  0
LINE
  5
31D
100
AcDbEntity
  8
M0
 62
     7
100
AcDbLine
 10
121.547861
 20
422.685141
 11
121.547861
 21
405.58514
  0
LINE
  5
31E
100
AcDbEntity
  8
M0
 62
     7
100
AcDbLine
 10
97.947864
 20
353.68514
 11
97.947864
 21
370.785139
  0
LINE
  5
31F
100
AcDbEntity
  8
M0
 62
     7
100
AcDbLine
 10
95.547865
 20
422.68514
 11
95.547865
 21
405.58514
  0
LINE
  5
320
100
AcDbEntity
  8
M0
 62
     7
100
AcDbLine
 10
110.947865
 20
370.785139
 11
110.947865
 21
353.68514
  0
LINE
  5
321
100
AcDbEntity
  8
M0
 62
     7
100
AcDbLine
 10
108.547861
 20
353.68514
 11
108.547861
 21
370.785139
  0
LINE
  5
322
100
AcDbEntity
  8
M0
 62
     7
100
AcDbLine
 10
110.947865
 20
422.68514
 11
110.947865
 21
405.58514
  0
LINE
  5
323
100
AcDbEntity
  8
M0
 62
     7
100
AcDbLine
 10
108.547861
 20
405.58514
 11
108.547861
 21
430.18514
  0
LINE
  5
324
100
AcDbEntity
  8
M0
 62
     7
100
AcDbLine
 10
108.547861
 20
355.685141
 11
108.547861
 21
356.685139
  0
LINE
  5
325
100
AcDbEntity
  8
M0
 62
     7
100
AcDbLine
 10
108.547861
 20
420.68514
 11
108.547861
 21
419.68514
  0
LINE
  5
326
100
AcDbEntity
  8
M0
 62
     7
100
AcDbLine
 10
133.34786
 20
360.48514
 11
133.647865
 21
360.48514
  0
LINE
  5
327
100
AcDbEntity
  8
M0
 62
     7
100
AcDbLine
 10
133.647865
 20
415.885139
 11
133.34786
 21
415.885139
  0
LINE
  5
328
100
AcDbEntity
  8
M0
 62
     7
100
AcDbLine
 10
133.447862
 20
408.285139
 11
133.34786
 21
408.285139
  0
LINE
  5
329
100
AcDbEntity
  8
M0
 62
     7
100
AcDbLine
 10
84.947862
 20
422.685141
 11
84.947862
 21
405.58514
  0
LINE
  5
32A
100
AcDbEntity
  8
M0
 62
     7
100
AcDbLine
 10
73.047863
 20
408.285139
 11
73.147863
 21
408.285139
  0
LINE
  5
32B
100
AcDbEntity
  8
M0
 62
     7
100
AcDbLine
 10
133.447862
 20
368.08514
 11
133.34786
 21
368.08514
  0
LINE
  5
32C
100
AcDbEntity
  8
M0
 62
     7
100
AcDbLine
 10
73.047863
 20
368.08514
 11
73.147863
 21
368.08514
  0
ARC
  5
32D
100
AcDbEntity
  8
M0
 62
     7
100
AcDbCircle
 10
133.347863
 20
361.48514
 40
1.0
100
AcDbArc
 50
180.0
 51
270.0
  0
ARC
  5
32E
100
AcDbEntity
  8
M0
 62
     7
100
AcDbCircle
 10
133.347863
 20
414.88514
 40
1.0
100
AcDbArc
 50
90.0
 51
180.0
  0
ARC
  5
32F
100
AcDbEntity
  8
M0
 62
     7
100
AcDbCircle
 10
123.947863
 20
361.08514
 40
0.6
100
AcDbArc
 50
270.0
 51
360.0
  0
ARC
  5
330
100
AcDbEntity
  8
M0
 62
     7
100
AcDbCircle
 10
133.647863
 20
414.88514
 40
1.0
100
AcDbArc
 50
0.0
 51
90.0
  0
LINE
  5
331
100
AcDbEntity
  8
M0
 62
     7
100
AcDbLine
 10
81.947863
 20
361.085139
 11
81.947863
 21
378.88514
  0
LINE
  5
332
100
AcDbEntity
  8
M0
 62
     7
100
AcDbLine
 10
81.947863
 20
397.48514
 11
81.947863
 21
415.28514
  0
ARC
  5
333
100
AcDbEntity
  8
M0
 62
     7
100
AcDbCircle
 10
133.647863
 20
361.48514
 40
1.0
100
AcDbArc
 50
270.0
 51
360.0
  0
LINE
  5
334
100
AcDbEntity
  8
M0
 62
     7
100
AcDbLine
 10
74.147863
 20
383.48514
 11
74.147863
 21
361.48514
  0
LINE
  5
335
100
AcDbEntity
  8
M0
 62
     7
100
AcDbLine
 10
125.447864
 20
362.48514
 11
125.447864
 21
363.485141
  0
LINE
  5
336
100
AcDbEntity
  8
M0
 62
     7
100
AcDbLine
 10
131.447865
 20
362.48514
 11
125.447864
 21
362.48514
  0
LINE
  5
337
100
AcDbEntity
  8
M0
 62
     7
100
AcDbLine
 10
131.447865
 20
363.485141
 11
131.447865
 21
362.48514
  0
LINE
  5
338
100
AcDbEntity
  8
M0
 62
     7
100
AcDbLine
 10
81.947863
 20
405.285139
 11
74.147863
 21
405.285139
  0
LINE
  5
339
100
AcDbEntity
  8
M0
 62
     7
100
AcDbLine
 10
125.447864
 20
413.885141
 11
131.447865
 21
413.885141
  0
LINE
  5
33A
100
AcDbEntity
  8
M0
 62
     7
100
AcDbLine
 10
125.447864
 20
412.885141
 11
125.447864
 21
413.885141
  0
LINE
  5
33B
100
AcDbEntity
  8
M0
 62
     7
100
AcDbLine
 10
131.447865
 20
413.885141
 11
131.447865
 21
412.885141
  0
LINE
  5
33C
100
AcDbEntity
  8
M0
 62
     7
100
AcDbLine
 10
74.147863
 20
371.085139
 11
81.947863
 21
371.085139
  0
LINE
  5
33D
100
AcDbEntity
  8
M0
 62
     7
100
AcDbLine
 10
124.547864
 20
371.085139
 11
132.347865
 21
371.085139
  0
LINE
  5
33E
100
AcDbEntity
  8
M0
 62
     7
100
AcDbLine
 10
86.147862
 20
405.885139
 11
84.947862
 21
405.885139
  0
LINE
  5
33F
100
AcDbEntity
  8
M0
 62
     7
100
AcDbLine
 10
94.347863
 20
405.885139
 11
95.547865
 21
405.885139
  0
LINE
  5
340
100
AcDbEntity
  8
M0
 62
     7
100
AcDbLine
 10
95.547865
 20
417.185141
 11
84.947862
 21
417.185141
  0
ARC
  5
341
100
AcDbEntity
  8
M0
 62
     7
100
AcDbCircle
 10
99.147863
 20
404.88514
 40
1.0
100
AcDbArc
 50
44.427004
 51
90.0
  0
LINE
  5
342
100
AcDbEntity
  8
M0
 62
     7
100
AcDbLine
 10
112.147862
 20
405.885139
 11
110.947865
 21
405.885139
  0
ARC
  5
343
100
AcDbEntity
  8
M0
 62
     7
100
AcDbCircle
 10
120.347863
 20
371.48514
 40
1.0
100
AcDbArc
 50
224.427004
 51
270.0
  0
ARC
  5
344
100
AcDbEntity
  8
M0
 62
     7
100
AcDbCircle
 10
107.347863
 20
404.88514
 40
1.0
100
AcDbArc
 50
90.0
 51
135.572996
  0
LINE
  5
345
100
AcDbEntity
  8
M0
 62
     7
100
AcDbLine
 10
107.347863
 20
370.48514
 11
108.547861
 21
370.48514
  0
LINE
  5
346
100
AcDbEntity
  8
M0
 62
     7
100
AcDbLine
 10
99.147862
 20
370.48514
 11
97.947864
 21
370.48514
  0
LINE
  5
347
100
AcDbEntity
  8
M0
 62
     7
100
AcDbLine
 10
97.947864
 20
359.18514
 11
100.472145
 21
359.18514
  0
LINE
  5
348
100
AcDbEntity
  8
M0
 62
     7
100
AcDbLine
 10
75.047863
 20
413.885141
 11
81.047863
 21
413.885141
  0
LINE
  5
349
100
AcDbEntity
  8
M0
 62
     7
100
AcDbLine
 10
75.047863
 20
412.885141
 11
75.047863
 21
413.885141
  0
LINE
  5
34A
100
AcDbEntity
  8
M0
 62
     7
100
AcDbLine
 10
81.047863
 20
413.885141
 11
81.047863
 21
412.885141
  0
ARC
  5
34B
100
AcDbEntity
  8
M0
 62
     7
100
AcDbCircle
 10
112.147863
 20
404.88514
 40
1.0
100
AcDbArc
 50
44.427004
 51
90.0
  0
ARC
  5
34C
100
AcDbEntity
  8
M0
 62
     7
100
AcDbCircle
 10
94.347863
 20
404.88514
 40
1.0
100
AcDbArc
 50
90.0
 51
135.572996
  0
ARC
  5
34D
100
AcDbEntity
  8
M0
 62
     7
100
AcDbCircle
 10
107.347863
 20
371.48514
 40
1.0
100
AcDbArc
 50
224.427004
 51
270.0
  0
ARC
  5
34E
100
AcDbEntity
  8
M0
 62
     7
100
AcDbCircle
 10
112.147863
 20
371.48514
 40
1.0
100
AcDbArc
 50
270.0
 51
315.572996
  0
ARC
  5
34F
100
AcDbEntity
  8
M0
 62
     7
100
AcDbCircle
 10
86.147863
 20
404.88514
 40
1.0
100
AcDbArc
 50
44.427004
 51
90.0
  0
ARC
  5
350
100
AcDbEntity
  8
M0
 62
     7
100
AcDbCircle
 10
99.147863
 20
371.48514
 40
1.0
100
AcDbArc
 50
270.0
 51
315.572996
  0
LINE
  5
351
100
AcDbEntity
  8
M0
 62
     7
100
AcDbLine
 10
81.047863
 20
362.48514
 11
75.047863
 21
362.48514
  0
LINE
  5
352
100
AcDbEntity
  8
M0
 62
     7
100
AcDbLine
 10
81.047863
 20
363.485141
 11
81.047863
 21
362.48514
  0
LINE
  5
353
100
AcDbEntity
  8
M0
 62
     7
100
AcDbLine
 10
75.047863
 20
362.48514
 11
75.047863
 21
363.485141
  0
LINE
  5
354
100
AcDbEntity
  8
M0
 62
     7
100
AcDbLine
 10
119.965325
 20
432.103131
 11
119.966416
 21
432.066671
  0
LINE
  5
355
100
AcDbEntity
  8
M0
 62
     7
100
AcDbLine
 10
119.966416
 20
432.066671
 11
119.969665
 21
431.958392
  0
LINE
  5
356
100
AcDbEntity
  8
M0
 62
     7
100
AcDbLine
 10
119.969665
 20
431.958392
 11
119.974969
 21
431.781594
  0
LINE
  5
357
100
AcDbEntity
  8
M0
 62
     7
100
AcDbLine
 10
119.974969
 20
431.781594
 11
119.982167
 21
431.54164
  0
LINE
  5
358
100
AcDbEntity
  8
M0
 62
     7
100
AcDbLine
 10
119.982167
 20
431.54164
 11
119.991044
 21
431.245822
  0
LINE
  5
359
100
AcDbEntity
  8
M0
 62
     7
100
AcDbLine
 10
119.991044
 20
431.245822
 11
120.001322
 21
430.903133
  0
LINE
  5
35A
100
AcDbEntity
  8
M0
 62
     7
100
AcDbLine
 10
120.001322
 20
430.903133
 11
120.012699
 21
430.52398
  0
LINE
  5
35B
100
AcDbEntity
  8
M0
 62
     7
100
AcDbLine
 10
120.012699
 20
430.52398
 11
120.024821
 21
430.119887
  0
LINE
  5
35C
100
AcDbEntity
  8
M0
 62
     7
100
AcDbLine
 10
120.024821
 20
430.119887
 11
120.037323
 21
429.703131
  0
LINE
  5
35D
100
AcDbEntity
  8
M0
 62
     7
100
AcDbLine
 10
86.458402
 20
429.703131
 11
86.472448
 21
430.171348
  0
LINE
  5
35E
100
AcDbEntity
  8
M0
 62
     7
100
AcDbLine
 10
86.472448
 20
430.171348
 11
86.485956
 21
430.621572
  0
LINE
  5
35F
100
AcDbEntity
  8
M0
 62
     7
100
AcDbLine
 10
86.485956
 20
430.621572
 11
86.498404
 21
431.036502
  0
LINE
  5
360
100
AcDbEntity
  8
M0
 62
     7
100
AcDbLine
 10
86.498404
 20
431.036502
 11
86.509314
 21
431.400187
  0
LINE
  5
361
100
AcDbEntity
  8
M0
 62
     7
100
AcDbLine
 10
86.509314
 20
431.400187
 11
86.518268
 21
431.698657
  0
LINE
  5
362
100
AcDbEntity
  8
M0
 62
     7
100
AcDbLine
 10
86.518268
 20
431.698657
 11
86.524923
 21
431.920443
  0
LINE
  5
363
100
AcDbEntity
  8
M0
 62
     7
100
AcDbLine
 10
86.524923
 20
431.920443
 11
86.529019
 21
432.057015
  0
LINE
  5
364
100
AcDbEntity
  8
M0
 62
     7
100
AcDbLine
 10
86.529019
 20
432.057015
 11
86.530403
 21
432.103131
  0
LINE
  5
365
100
AcDbEntity
  8
M0
  6
DASHDOT
 62
     7
100
AcDbLine
 10
89.747863
 20
364.48514
 11
90.747863
 21
364.48514
  0
LINE
  5
366
100
AcDbEntity
  8
M0
  6
DASHDOT
 62
     7
100
AcDbLine
 10
90.247863
 20
363.98514
 11
90.247863
 21
364.98514
  0
LINE
  5
367
100
AcDbEntity
  8
M0
  6
DASHDOT
 62
     7
100
AcDbLine
 10
103.247859
 20
363.98514
 11
103.247859
 21
364.98514
  0
LINE
  5
368
100
AcDbEntity
  8
M0
  6
DASHDOT
 62
     7
100
AcDbLine
 10
102.747859
 20
364.48514
 11
103.747859
 21
364.48514
  0
LINE
  5
369
100
AcDbEntity
  8
M0
  6
DASHDOT
 62
     7
100
AcDbLine
 10
116.24786
 20
363.98514
 11
116.24786
 21
364.98514
  0
LINE
  5
36A
100
AcDbEntity
  8
M0
  6
DASHDOT
 62
     7
100
AcDbLine
 10
115.74786
 20
364.48514
 11
116.74786
 21
364.48514
  0
LINE
  5
36B
100
AcDbEntity
  8
M0
  6
DASHDOT
 62
     7
100
AcDbLine
 10
116.24786
 20
412.38514
 11
116.24786
 21
411.38514
  0
LINE
  5
36C
100
AcDbEntity
  8
M0
  6
DASHDOT
 62
     7
100
AcDbLine
 10
115.74786
 20
411.88514
 11
116.74786
 21
411.88514
  0
LINE
  5
36D
100
AcDbEntity
  8
M0
  6
DASHDOT
 62
     7
100
AcDbLine
 10
102.747859
 20
411.88514
 11
103.747859
 21
411.88514
  0
LINE
  5
36E
100
AcDbEntity
  8
M0
  6
DASHDOT
 62
     7
100
AcDbLine
 10
90.247863
 20
412.38514
 11
90.247863
 21
411.38514
  0
LINE
  5
36F
100
AcDbEntity
  8
M0
  6
DASHDOT
 62
     7
100
AcDbLine
 10
103.247859
 20
412.38514
 11
103.247859
 21
411.38514
  0
LINE
  5
370
100
AcDbEntity
  8
M0
  6
DASHDOT
 62
     7
100
AcDbLine
 10
89.747863
 20
411.88514
 11
90.747863
 21
411.88514
  0
LINE
  5
371
100
AcDbEntity
  8
M0
  6
DASHDOT
 62
     7
100
AcDbLine
 10
128.947863
 20
409.08514
 11
127.947863
 21
409.08514
  0
LINE
  5
372
100
AcDbEntity
  8
M0
  6
DASHDOT
 62
     7
100
AcDbLine
 10
128.447863
 20
408.58514
 11
128.447863
 21
409.58514
  0
LINE
  5
373
100
AcDbEntity
  8
M0
  6
DASHDOT
 62
     7
100
AcDbLine
 10
128.947863
 20
401.48514
 11
127.947863
 21
401.48514
  0
LINE
  5
374
100
AcDbEntity
  8
M0
  6
DASHDOT
 62
     7
100
AcDbLine
 10
128.447863
 20
400.98514
 11
128.447863
 21
401.98514
  0
LINE
  5
375
100
AcDbEntity
  8
M0
  6
DASHDOT
 62
     7
100
AcDbLine
 10
128.947863
 20
374.88514
 11
127.947863
 21
374.88514
  0
LINE
  5
376
100
AcDbEntity
  8
M0
  6
DASHDOT
 62
     7
100
AcDbLine
 10
128.447863
 20
374.38514
 11
128.447863
 21
375.38514
  0
LINE
  5
377
100
AcDbEntity
  8
M0
  6
DASHDOT
 62
     7
100
AcDbLine
 10
128.947863
 20
367.28514
 11
127.947863
 21
367.28514
  0
LINE
  5
378
100
AcDbEntity
  8
M0
  6
DASHDOT
 62
     7
100
AcDbLine
 10
128.447863
 20
366.78514
 11
128.447863
 21
367.78514
  0
LINE
  5
379
100
AcDbEntity
  8
M0
  6
DASHDOT
 62
     7
100
AcDbLine
 10
77.547863
 20
401.48514
 11
78.547863
 21
401.48514
  0
LINE
  5
37A
100
AcDbEntity
  8
M0
  6
DASHDOT
 62
     7
100
AcDbLine
 10
78.047863
 20
400.98514
 11
78.047863
 21
401.98514
  0
LINE
  5
37B
100
AcDbEntity
  8
M0
  6
DASHDOT
 62
     7
100
AcDbLine
 10
77.547863
 20
409.08514
 11
78.547863
 21
409.08514
  0
LINE
  5
37C
100
AcDbEntity
  8
M0
  6
DASHDOT
 62
     7
100
AcDbLine
 10
78.047863
 20
408.58514
 11
78.047863
 21
409.58514
  0
LINE
  5
37D
100
AcDbEntity
  8
M0
  6
DASHDOT
 62
     7
100
AcDbLine
 10
77.547863
 20
367.28514
 11
78.547863
 21
367.28514
  0
LINE
  5
37E
100
AcDbEntity
  8
M0
  6
DASHDOT
 62
     7
100
AcDbLine
 10
78.047863
 20
366.78514
 11
78.047863
 21
367.78514
  0
LINE
  5
37F
100
AcDbEntity
  8
M0
  6
DASHDOT
 62
     7
100
AcDbLine
 10
77.547863
 20
374.88514
 11
78.547863
 21
374.88514
  0
LINE
  5
380
100
AcDbEntity
  8
M0
  6
DASHDOT
 62
     7
100
AcDbLine
 10
78.047863
 20
374.38514
 11
78.047863
 21
375.38514
  0
LINE
  5
381
100
AcDbEntity
  8
M0
  6
DASHDOT
 62
     7
100
AcDbLine
 10
113.647863
 20
426.78514
 11
114.647863
 21
426.78514
  0
LINE
  5
382
100
AcDbEntity
  8
M0
  6
DASHDOT
 62
     7
100
AcDbLine
 10
114.147863
 20
426.28514
 11
114.147863
 21
427.28514
  0
LINE
  5
383
100
AcDbEntity
  8
M0
  6
DASHDOT
 62
     7
100
AcDbLine
 10
102.747863
 20
426.38514
 11
103.747863
 21
426.38514
  0
LINE
  5
384
100
AcDbEntity
  8
M0
  6
DASHDOT
 62
     7
100
AcDbLine
 10
103.247863
 20
425.88514
 11
103.247863
 21
426.88514
  0
LINE
  5
385
100
AcDbEntity
  8
M0
  6
DASHDOT
 62
     7
100
AcDbLine
 10
92.847863
 20
426.78514
 11
91.847863
 21
426.78514
  0
LINE
  5
386
100
AcDbEntity
  8
M0
  6
DASHDOT
 62
     7
100
AcDbLine
 10
92.347863
 20
426.28514
 11
92.347863
 21
427.28514
  0
LINE
  5
387
100
AcDbEntity
  8
M0
 62
     7
100
AcDbLine
 10
125.247863
 20
358.685139
 11
125.947861
 21
358.685139
  0
LINE
  5
388
100
AcDbEntity
  8
M0
 62
     7
100
AcDbLine
 10
118.157843
 20
359.18514
 11
121.547861
 21
359.18514
  0
LINE
  5
389
100
AcDbEntity
  8
M0
 62
     7
100
AcDbLine
 10
99.94545
 20
352.685138
 11
98.247862
 21
352.685138
  0
LINE
  5
38A
100
AcDbEntity
  8
M0
 62
     7
100
AcDbLine
 10
103.575957
 20
354.685139
 11
107.747863
 21
354.685139
  0
LINE
  5
38B
100
AcDbEntity
  8
M0
 62
     7
100
AcDbLine
 10
100.417463
 20
355.685141
 11
97.947864
 21
355.685141
  0
LINE
  5
38C
100
AcDbEntity
  8
M0
 62
     7
100
AcDbLine
 10
105.199545
 20
359.18514
 11
108.547861
 21
359.18514
  0
ARC
  5
38D
100
AcDbEntity
  8
M0
 62
     7
100
AcDbCircle
 10
90.247863
 20
355.68514
 40
3.25
100
AcDbArc
 50
138.466946
 51
180.0
  0
LINE
  5
38E
100
AcDbEntity
  8
M0
 62
     7
100
AcDbLine
 10
92.244463
 20
359.18514
 11
95.547865
 21
359.18514
  0
LINE
  5
38F
100
AcDbEntity
  8
M0
 62
     7
100
AcDbLine
 10
90.123605
 20
352.685138
 11
94.247863
 21
352.685138
  0
LINE
  5
390
100
AcDbEntity
  8
M0
 62
     7
100
AcDbLine
 10
82.447863
 20
358.685139
 11
82.547862
 21
358.685139
  0
LINE
  5
391
100
AcDbEntity
  8
M0
 62
     7
100
AcDbLine
 10
81.247863
 20
352.685138
 11
76.847863
 21
352.685138
  0
LINE
  5
392
100
AcDbEntity
  8
M0
 62
     7
100
AcDbLine
 10
124.047863
 20
352.685138
 11
122.547863
 21
352.685138
  0
LINE
  5
393
100
AcDbEntity
  8
M0
 62
     7
100
AcDbLine
 10
115.693668
 20
352.685138
 11
120.247863
 21
352.685138
  0
LINE
  5
394
100
AcDbEntity
  8
M0
  6
DASHED
 62
     7
100
AcDbLine
 10
59.347866
 20
417.88514
 11
59.347866
 21
358.48514
  0
LINE
  5
395
100
AcDbEntity
  8
M0
  6
DASHED
 62
     7
100
AcDbLine
 10
59.347866
 20
358.48514
 11
71.847866
 21
358.48514
  0
LINE
  5
396
100
AcDbEntity
  8
M0
  6
DASHED
 62
     7
100
AcDbLine
 10
59.347866
 20
417.88514
 11
71.847866
 21
417.88514
  0
LINE
  5
397
100
AcDbEntity
  8
M0
  6
DASHED
 62
     7
100
AcDbLine
 10
147.14786
 20
417.88514
 11
134.64786
 21
417.88514
  0
LINE
  5
398
100
AcDbEntity
  8
M0
  6
DASHED
 62
     7
100
AcDbLine
 10
147.14786
 20
417.88514
 11
147.14786
 21
358.48514
  0
LINE
  5
399
100
AcDbEntity
  8
M0
  6
DASHED
 62
     7
100
AcDbLine
 10
147.14786
 20
358.48514
 11
134.64786
 21
358.48514
  0
LINE
  5
39A
100
AcDbEntity
  8
M0
  6
DASHDOT
 62
     7
100
AcDbLine
 10
103.247861
 20
347.685138
 11
103.247861
 21
436.185141
  0
LINE
  5
39B
100
AcDbEntity
  8
M0
  6
DASHDOT
 62
     7
100
AcDbLine
 10
57.347866
 20
388.18514
 11
149.14786
 21
388.18514
  0
ARC
  5
39C
100
AcDbEntity
  8
M0
 62
   234
100
AcDbCircle
 10
122.247863
 20
342.685138
 40
1.0
100
AcDbArc
 50
90.0
 51
150.113814
  0
ARC
  5
39D
100
AcDbEntity
  8
M0
 62
   234
100
AcDbCircle
 10
105.947863
 20
310.485138
 40
1.0
100
AcDbArc
 50
180.0
 51
270.0
  0
ARC
  5
39E
100
AcDbEntity
  8
M0
 62
   234
100
AcDbCircle
 10
107.947863
 20
310.485138
 40
1.0
100
AcDbArc
 50
270.0
 51
360.0
  0
LINE
  5
39F
100
AcDbEntity
  8
M0
 62
   234
100
AcDbLine
 10
104.947863
 20
310.485138
 11
104.947863
 21
314.685
  0
LINE
  5
3A0
100
AcDbEntity
  8
M0
 62
   234
100
AcDbLine
 10
79.947863
 20
310.485138
 11
79.947863
 21
314.685087
  0
LINE
  5
3A1
100
AcDbEntity
  8
M0
 62
   234
100
AcDbLine
 10
83.947863
 20
314.685073
 11
83.947863
 21
310.485138
  0
ARC
  5
3A2
100
AcDbEntity
  8
M0
 62
   234
100
AcDbCircle
 10
80.947863
 20
310.485138
 40
1.0
100
AcDbArc
 50
180.0
 51
270.0
  0
ARC
  5
3A3
100
AcDbEntity
  8
M0
 62
   234
100
AcDbCircle
 10
93.247863
 20
351.685138
 40
1.0
100
AcDbArc
 50
0.0
 51
90.0
  0
ARC
  5
3A4
100
AcDbEntity
  8
M0
 62
   234
100
AcDbCircle
 10
82.947863
 20
310.485138
 40
1.0
100
AcDbArc
 50
270.0
 51
360.0
  0
LINE
  5
3A5
100
AcDbEntity
  8
M0
 62
   234
100
AcDbLine
 10
82.947863
 20
309.485138
 11
80.947863
 21
309.485138
  0
LINE
  5
3A6
100
AcDbEntity
  8
M0
 62
   234
100
AcDbLine
 10
115.693671
 20
352.685138
 11
124.047863
 21
352.685138
  0
ARC
  5
3A7
100
AcDbEntity
  8
M0
 62
   234
100
AcDbCircle
 10
95.247863
 20
349.685138
 40
1.0
100
AcDbArc
 50
180.0
 51
270.0
  0
ARC
  5
3A8
100
AcDbEntity
  8
M0
 62
   234
100
AcDbCircle
 10
113.247863
 20
351.685138
 40
1.0
100
AcDbArc
 50
124.824371
 51
167.795457
  0
LINE
  5
3A9
100
AcDbEntity
  8
M0
 62
   234
100
AcDbLine
 10
82.447863
 20
360.493532
 11
82.447863
 21
348.562715
  0
LINE
  5
3AA
100
AcDbEntity
  8
M0
 62
   234
100
AcDbLine
 10
125.247863
 20
363.285138
 11
125.247863
 21
343.685138
  0
LINE
  5
3AB
100
AcDbEntity
  8
M0
 62
   234
100
AcDbLine
 10
124.547864
 20
363.285138
 11
125.247863
 21
363.285138
  0
LINE
  5
3AC
100
AcDbEntity
  8
M0
 62
   234
100
AcDbLine
 10
81.247863
 20
363.285138
 11
81.947863
 21
363.285138
  0
LINE
  5
3AD
100
AcDbEntity
  8
M0
 62
   234
100
AcDbLine
 10
108.947863
 20
310.485138
 11
108.947863
 21
314.684986
  0
LINE
  5
3AE
100
AcDbEntity
  8
M0
 62
   234
100
AcDbLine
 10
81.247863
 20
346.803944
 11
81.247863
 21
363.285138
  0
LINE
  5
3AF
100
AcDbEntity
  8
M0
 62
   234
100
AcDbLine
 10
107.947863
 20
309.485138
 11
105.947863
 21
309.485138
  0
LINE
  5
3B0
100
AcDbEntity
  8
M0
 62
   234
100
AcDbLine
 10
124.047863
 20
343.685138
 11
124.047863
 21
360.493532
  0
LINE
  5
3B1
100
AcDbEntity
  8
M0
 62
   234
100
AcDbLine
 10
93.247863
 20
352.685138
 11
90.123605
 21
352.685138
  0
LINE
  5
3B2
100
AcDbEntity
  8
M0
 62
   234
100
AcDbLine
 10
125.247863
 20
343.685138
 11
122.247863
 21
343.685138
  0
LINE
  5
3B3
100
AcDbEntity
  8
M0
 62
   234
100
AcDbLine
 10
94.247863
 20
351.685138
 11
94.247863
 21
349.685138
  0
LINE
  5
3B4
100
AcDbEntity
  8
M0
 62
   234
100
AcDbLine
 10
100.543757
 20
348.685138
 11
107.889658
 21
348.685138
  0
LINE
  5
3B5
100
AcDbEntity
  8
M0
 62
   234
100
AcDbLine
 10
87.208064
 20
352.685138
 11
82.447863
 21
352.685138
  0
LINE
  5
3B6
100
AcDbEntity
  8
M0
100
AcDbLine
 10
308.144509
 20
308.189518
 11
308.144509
 21
345.186374
  0
LINE
  5
3B7
100
AcDbEntity
  8
M0
100
AcDbLine
 10
305.147926
 20
342.189502
 11
233.144509
 21
342.189537
  0
LINE
  5
3B8
100
AcDbEntity
  8
M0
100
AcDbLine
 10
245.644661
 20
321.187366
 11
245.644661
 21
342.189502
  0
LINE
  5
3B9
100
AcDbEntity
  8
M0
100
AcDbLine
 10
259.444466
 20
345.189502
 11
246.444222
 21
345.189487
  0
LINE
  5
3BA
100
AcDbEntity
  8
M0
100
AcDbLine
 10
308.144509
 20
308.189518
 11
300.644509
 21
308.189518
  0
LINE
  5
3BB
100
AcDbEntity
  8
M0
100
AcDbLine
 10
279.589333
 20
300.689472
 11
295.160134
 21
300.689472
  0
ARC
  5
3BC
100
AcDbEntity
  8
M0
100
AcDbCircle
 10
259.444466
 20
343.189502
 40
1.999998
100
AcDbArc
 50
14.479306
 51
89.999563
  0
LINE
  5
3BD
100
AcDbEntity
  8
M0
100
AcDbLine
 10
244.844231
 20
345.189487
 11
236.144493
 21
345.189472
  0
LINE
  5
3BE
100
AcDbEntity
  8
M0
100
AcDbLine
 10
244.844231
 20
352.685138
 11
244.844231
 21
342.189531
  0
LINE
  5
3BF
100
AcDbEntity
  8
M0
100
AcDbLine
 10
246.444222
 20
352.685138
 11
246.444222
 21
342.189531
  0
LINE
  5
3C0
100
AcDbEntity
  8
M0
100
AcDbLine
 10
308.144371
 20
318.689502
 11
308.144371
 21
309.689502
  0
LINE
  5
3C1
100
AcDbEntity
  8
M0
100
AcDbLine
 10
308.144371
 20
342.189487
 11
308.144371
 21
323.689487
  0
LINE
  5
3C2
100
AcDbEntity
  8
M0
100
AcDbLine
 10
245.644661
 20
321.689487
 11
245.644661
 21
335.689487
  0
LINE
  5
3C3
100
AcDbEntity
  8
M0
100
AcDbLine
 10
245.644661
 20
335.689487
 11
245.444451
 21
335.689472
  0
LINE
  5
3C4
100
AcDbEntity
  8
M0
100
AcDbLine
 10
233.144509
 20
327.187336
 11
233.144509
 21
342.187198
  0
LINE
  5
3C5
100
AcDbEntity
  8
M0
100
AcDbLine
 10
251.991829
 20
307.689518
 11
276.179421
 21
307.689518
  0
LINE
  5
3C6
100
AcDbEntity
  8
M0
100
AcDbLine
 10
275.644509
 20
309.687046
 11
277.657692
 21
302.172001
  0
ARC
  5
3C7
100
AcDbEntity
  8
M0
100
AcDbCircle
 10
279.589333
 20
302.689472
 40
2.0
100
AcDbArc
 50
194.996439
 51
270.0
  0
LINE
  5
3C8
100
AcDbEntity
  8
M0
100
AcDbLine
 10
300.644509
 20
308.189518
 11
296.892311
 21
301.689533
  0
ARC
  5
3C9
100
AcDbEntity
  8
M0
100
AcDbCircle
 10
295.160134
 20
302.689472
 40
2.0
100
AcDbArc
 50
269.999563
 51
330.003375
  0
ARC
  5
3CA
100
AcDbEntity
  8
M0
100
AcDbCircle
 10
278.518288
 20
306.687107
 40
2.0
100
AcDbArc
 50
194.99554
 51
270.0
  0
LINE
  5
3CB
100
AcDbEntity
  8
M0
100
AcDbLine
 10
283.144509
 20
304.687092
 11
286.144264
 21
302.687092
  0
LINE
  5
3CC
100
AcDbEntity
  8
M0
100
AcDbLine
 10
246.644627
 20
321.187363
 11
249.66552
 21
309.913074
  0
ARC
  5
3CD
100
AcDbEntity
  8
M0
100
AcDbCircle
 10
252.563286
 20
310.689518
 40
3.0
100
AcDbArc
 50
194.999804
 51
270.0
  0
LINE
  5
3CE
100
AcDbEntity
  8
M0
100
AcDbLine
 10
240.358439
 20
320.389464
 11
242.764198
 21
311.410892
  0
ARC
  5
3CF
100
AcDbEntity
  8
M0
100
AcDbCircle
 10
245.661965
 20
312.187336
 40
3.0
100
AcDbArc
 50
194.999804
 51
270.0
  0
LINE
  5
3D0
100
AcDbEntity
  8
M0
100
AcDbLine
 10
305.144509
 20
304.689502
 11
305.144509
 21
308.189502
  0
LINE
  5
3D1
100
AcDbEntity
  8
M0
100
AcDbLine
 10
297.46946
 20
302.689518
 11
303.144509
 21
302.689518
  0
ARC
  5
3D2
100
AcDbEntity
  8
M0
100
AcDbCircle
 10
303.144509
 20
304.689518
 40
2.0
100
AcDbArc
 50
269.999563
 51
360.0
  0
LINE
  5
3D3
100
AcDbEntity
  8
M0
100
AcDbLine
 10
244.000359
 20
309.689518
 11
240.134972
 21
309.689502
  0
ARC
  5
3D4
100
AcDbEntity
  8
M0
100
AcDbCircle
 10
236.144509
 20
342.189472
 40
3.0
100
AcDbArc
 50
89.999709
 51
179.999709
  0
LINE
  5
3D5
100
AcDbEntity
  8
M0
100
AcDbLine
 10
253.144661
 20
340.189502
 11
253.144661
 21
341.48946
  0
LINE
  5
3D6
100
AcDbEntity
  8
M0
100
AcDbLine
 10
256.344658
 20
340.189502
 11
256.344658
 21
341.489475
  0
LINE
  5
3D7
100
AcDbEntity
  8
M0
100
AcDbLine
 10
253.144661
 20
340.189502
 11
256.344658
 21
340.189502
  0
ARC
  5
3D8
100
AcDbEntity
  8
M0
100
AcDbCircle
 10
257.044655
 20
341.489475
 40
0.7
100
AcDbArc
 50
89.998751
 51
179.998751
  0
ARC
  5
3D9
100
AcDbEntity
  8
M0
100
AcDbCircle
 10
252.444649
 20
341.489475
 40
0.7
100
AcDbArc
 50
0.0
 51
89.998751
  0
LINE
  5
3DA
100
AcDbEntity
  8
M0
100
AcDbLine
 10
233.144661
 20
321.187626
 11
233.144661
 21
322.68761
  0
LINE
  5
3DB
100
AcDbEntity
  8
M0
100
AcDbLine
 10
234.144661
 20
339.689502
 11
243.644661
 21
339.689502
  0
LINE
  5
3DC
100
AcDbEntity
  8
M0
100
AcDbLine
 10
234.144661
 20
332.939518
 11
234.144661
 21
339.689502
  0
ARC
  5
3DD
100
AcDbEntity
  8
M0
100
AcDbCircle
 10
235.144661
 20
332.939518
 40
1.0
100
AcDbArc
 50
179.999126
 51
270.0
  0
ARC
  5
3DE
100
AcDbEntity
  8
M0
100
AcDbCircle
 10
235.144631
 20
324.439518
 40
1.0
100
AcDbArc
 50
89.999126
 51
179.999126
  0
LINE
  5
3DF
100
AcDbEntity
  8
M0
100
AcDbLine
 10
234.144661
 20
324.431705
 11
234.144661
 21
323.687351
  0
LINE
  5
3E0
100
AcDbEntity
  8
M0
100
AcDbLine
 10
247.644661
 20
321.187365
 11
247.644661
 21
342.189502
  0
LINE
  5
3E1
100
AcDbEntity
  8
M0
100
AcDbLine
 10
275.644753
 20
309.687214
 11
265.64904
 21
309.687259
  0
LINE
  5
3E2
100
AcDbEntity
  8
M0
100
AcDbLine
 10
262.649086
 20
311.687275
 11
265.649086
 21
309.687259
  0
LINE
  5
3E3
100
AcDbEntity
  8
M0
100
AcDbLine
 10
262.649071
 20
311.68729
 11
257.649071
 21
311.68732
  0
ARC
  5
3E4
100
AcDbEntity
  8
M0
100
AcDbCircle
 10
257.649086
 20
314.687336
 40
3.0
100
AcDbArc
 50
179.999709
 51
270.0
  0
LINE
  5
3E5
100
AcDbEntity
  8
M0
100
AcDbLine
 10
254.649086
 20
314.687366
 11
254.649178
 21
321.187397
  0
LINE
  5
3E6
100
AcDbEntity
  8
M0
100
AcDbLine
 10
254.649193
 20
321.187382
 11
242.644636
 21
321.187354
  0
LINE
  5
3E7
100
AcDbEntity
  8
M0
100
AcDbLine
 10
245.662041
 20
309.187366
 11
249.860069
 21
309.187366
  0
ARC
  5
3E8
100
AcDbEntity
  8
M0
100
AcDbCircle
 10
240.134987
 20
312.689472
 40
3.0
100
AcDbArc
 50
194.999804
 51
270.0
  0
LINE
  5
3E9
100
AcDbEntity
  8
M0
100
AcDbLine
 10
234.752154
 20
321.187513
 11
237.237236
 21
311.913013
  0
LINE
  5
3EA
100
AcDbEntity
  8
M0
100
AcDbLine
 10
238.744636
 20
323.687276
 11
234.120786
 21
323.687325
  0
LINE
  5
3EB
100
AcDbEntity
  8
M0
100
AcDbLine
 10
233.144554
 20
327.18729
 11
234.082359
 21
323.68732
  0
LINE
  5
3EC
100
AcDbEntity
  8
M0
100
AcDbLine
 10
238.744636
 20
321.187273
 11
233.144676
 21
321.18761
  0
LINE
  5
3ED
100
AcDbEntity
  8
M0
100
AcDbLine
 10
278.518532
 20
304.687214
 11
283.144509
 21
304.687183
  0
LINE
  5
3EE
100
AcDbEntity
  8
M0
100
AcDbLine
 10
286.144264
 20
302.687153
 11
296.31321
 21
302.687107
  0
ARC
  5
3EF
100
AcDbEntity
  8
M0
100
AcDbCircle
 10
296.31321
 20
304.687107
 40
2.0
100
AcDbArc
 50
269.992569
 51
329.999254
  0
LINE
  5
3F0
100
AcDbEntity
  8
M0
100
AcDbLine
 10
305.147926
 20
345.18642
 11
308.144264
 21
345.186359
  0
LINE
  5
3F1
100
AcDbEntity
  8
M0
100
AcDbLine
 10
305.147926
 20
345.186435
 11
305.147926
 21
342.189487
  0
LINE
  5
3F2
100
AcDbEntity
  8
M0
100
AcDbLine
 10
305.147682
 20
343.189518
 11
250.144646
 21
343.189518
  0
LINE
  5
3F3
100
AcDbEntity
  8
M0
100
AcDbLine
 10
250.144646
 20
343.189518
 11
250.144646
 21
342.18729
  0
LINE
  5
3F4
100
AcDbEntity
  8
M0
 62
     7
100
AcDbLine
 10
242.644636
 20
336.989464
 11
242.644636
 21
336.689464
  0
LINE
  5
3F5
100
AcDbEntity
  8
M0
 62
     7
100
AcDbLine
 10
239.944636
 20
334.194238
 11
239.944636
 21
332.321908
  0
LINE
  5
3F6
100
AcDbEntity
  8
M0
 62
     7
100
AcDbLine
 10
239.944636
 20
336.53508
 11
242.644636
 21
336.53508
  0
LINE
  5
3F7
100
AcDbEntity
  8
M0
 62
     7
100
AcDbLine
 10
239.944636
 20
336.989464
 11
239.944636
 21
336.53508
  0
LINE
  5
3F8
100
AcDbEntity
  8
M0
 62
     7
100
AcDbLine
 10
235.644646
 20
332.439464
 11
238.744636
 21
332.439464
  0
LINE
  5
3F9
100
AcDbEntity
  8
M0
 62
     7
100
AcDbLine
 10
238.744636
 20
336.989464
 11
238.744636
 21
320.389464
  0
LINE
  5
3FA
100
AcDbEntity
  8
M0
 62
     7
100
AcDbLine
 10
242.644636
 20
336.689464
 11
244.644636
 21
336.689464
  0
LINE
  5
3FB
100
AcDbEntity
  8
M0
 62
     7
100
AcDbLine
 10
239.944636
 20
336.152396
 11
242.644636
 21
336.152396
  0
LINE
  5
3FC
100
AcDbEntity
  8
M0
 62
     7
100
AcDbLine
 10
242.644636
 20
336.53508
 11
242.644636
 21
336.152396
  0
LINE
  5
3FD
100
AcDbEntity
  8
M0
 62
     7
100
AcDbLine
 10
239.944636
 20
334.194238
 11
242.644636
 21
334.194238
  0
LINE
  5
3FE
100
AcDbEntity
  8
M0
 62
     7
100
AcDbLine
 10
239.944636
 20
334.901345
 11
242.644636
 21
334.901345
  0
LINE
  5
3FF
100
AcDbEntity
  8
M0
 62
     7
100
AcDbLine
 10
239.944636
 20
331.398029
 11
242.644636
 21
331.398029
  0
LINE
  5
400
100
AcDbEntity
  8
M0
 62
     7
100
AcDbLine
 10
239.944636
 20
332.321908
 11
242.644636
 21
332.321908
  0
LINE
  5
401
100
AcDbEntity
  8
M0
 62
     7
100
AcDbLine
 10
242.644636
 20
334.901345
 11
242.644636
 21
334.194238
  0
LINE
  5
402
100
AcDbEntity
  8
M0
 62
     7
100
AcDbLine
 10
242.644636
 20
332.321908
 11
242.644636
 21
331.398029
  0
LINE
  5
403
100
AcDbEntity
  8
M0
 62
     7
100
AcDbLine
 10
239.944636
 20
336.152396
 11
239.944636
 21
334.901345
  0
LINE
  5
404
100
AcDbEntity
  8
M0
 62
     7
100
AcDbLine
 10
238.744636
 20
336.989464
 11
242.644636
 21
336.989464
  0
LINE
  5
405
100
AcDbEntity
  8
M0
 62
     7
100
AcDbLine
 10
239.944636
 20
331.398029
 11
239.944636
 21
329.189464
  0
LINE
  5
406
100
AcDbEntity
  8
M0
 62
     7
100
AcDbLine
 10
244.644636
 20
321.189464
 11
244.644636
 21
336.689464
  0
LINE
  5
407
100
AcDbEntity
  8
M0
 62
     7
100
AcDbLine
 10
245.644661
 20
336.189464
 11
244.644636
 21
336.189464
  0
LINE
  5
408
100
AcDbEntity
  8
M0
 62
     7
100
AcDbLine
 10
242.644636
 20
326.295323
 11
242.644636
 21
320.389464
  0
LINE
  5
409
100
AcDbEntity
  8
M0
 62
     7
100
AcDbLine
 10
239.944636
 20
328.189464
 11
239.944636
 21
325.9809
  0
LINE
  5
40A
100
AcDbEntity
  8
M0
 62
     7
100
AcDbLine
 10
239.944636
 20
325.9809
 11
242.644636
 21
325.9809
  0
LINE
  5
40B
100
AcDbEntity
  8
M0
 62
     7
100
AcDbLine
 10
239.944636
 20
325.057021
 11
242.644636
 21
325.057021
  0
LINE
  5
40C
100
AcDbEntity
  8
M0
 62
     7
100
AcDbLine
 10
242.644636
 20
329.189464
 11
242.644636
 21
328.189464
  0
LINE
  5
40D
100
AcDbEntity
  8
M0
 62
     7
100
AcDbLine
 10
239.944636
 20
329.189464
 11
242.644636
 21
329.189464
  0
LINE
  5
40E
100
AcDbEntity
  8
M0
 62
     7
100
AcDbLine
 10
239.944636
 20
325.057021
 11
239.944636
 21
323.18469
  0
LINE
  5
40F
100
AcDbEntity
  8
M0
 62
     7
100
AcDbLine
 10
239.944636
 20
328.189464
 11
242.644636
 21
328.189464
  0
LINE
  5
410
100
AcDbEntity
  8
M0
 62
     7
100
AcDbLine
 10
244.644636
 20
326.295323
 11
242.644636
 21
326.295323
  0
ARC
  5
411
100
AcDbEntity
  8
M0
 62
     7
100
AcDbCircle
 10
235.644646
 20
331.939464
 40
0.5
100
AcDbArc
 50
90.0
 51
179.998251
  0
LINE
  5
412
100
AcDbEntity
  8
M0
 62
     7
100
AcDbLine
 10
235.144646
 20
325.439464
 11
235.144646
 21
331.939464
  0
ARC
  5
413
100
AcDbEntity
  8
M0
 62
     7
100
AcDbCircle
 10
235.644646
 20
325.439464
 40
0.5
100
AcDbArc
 50
179.998251
 51
270.0
  0
LINE
  5
414
100
AcDbEntity
  8
M0
 62
     7
100
AcDbLine
 10
238.744636
 20
324.939464
 11
235.644646
 21
324.939464
  0
LINE
  5
415
100
AcDbEntity
  8
M0
 62
     7
100
AcDbLine
 10
239.944636
 20
322.477584
 11
242.644636
 21
322.477584
  0
LINE
  5
416
100
AcDbEntity
  8
M0
 62
     7
100
AcDbLine
 10
239.944636
 20
323.18469
 11
242.644636
 21
323.18469
  0
LINE
  5
417
100
AcDbEntity
  8
M0
 62
     7
100
AcDbLine
 10
239.944636
 20
321.226532
 11
242.644636
 21
321.226532
  0
LINE
  5
418
100
AcDbEntity
  8
M0
 62
     7
100
AcDbLine
 10
238.744636
 20
320.389464
 11
242.644636
 21
320.389464
  0
LINE
  5
419
100
AcDbEntity
  8
M0
 62
     7
100
AcDbLine
 10
239.944636
 20
320.843849
 11
242.644636
 21
320.843849
  0
LINE
  5
41A
100
AcDbEntity
  8
M0
 62
     7
100
AcDbLine
 10
244.644636
 20
321.689464
 11
242.644636
 21
321.689464
  0
LINE
  5
41B
100
AcDbEntity
  8
M0
100
AcDbLine
 10
246.443871
 20
347.190052
 11
246.44384
 21
346.939274
  0
LINE
  5
41C
100
AcDbEntity
  8
M0
100
AcDbLine
 10
244.84388
 20
347.190021
 11
244.843849
 21
346.939274
  0
LINE
  5
41D
100
AcDbEntity
  8
M0
 62
     7
100
AcDbLine
 10
234.144661
 20
329.189502
 11
234.144661
 21
327.189502
  0
LINE
  5
41E
100
AcDbEntity
  8
M0
 62
     7
100
AcDbLine
 10
235.144646
 20
329.189502
 11
233.144661
 21
329.189502
  0
ARC
  5
41F
100
AcDbEntity
  8
M0
 62
     7
100
AcDbCircle
 10
234.144661
 20
340.689502
 40
1.0
100
AcDbArc
 50
180.0
 51
270.0
  0
LINE
  5
420
100
AcDbEntity
  8
M0
 62
     7
100
AcDbLine
 10
235.144646
 20
327.189502
 11
233.144661
 21
327.189502
  0
ARC
  5
421
100
AcDbEntity
  8
M0
 62
     7
100
AcDbCircle
 10
234.144661
 20
322.68761
 40
1.0
100
AcDbArc
 50
90.0
 51
180.0
  0
LINE
  5
422
100
AcDbEntity
  8
M0
 62
     7
100
AcDbLine
 10
245.644661
 20
337.689502
 11
238.644661
 21
337.689502
  0
LINE
  5
423
100
AcDbEntity
  8
M0
 62
     7
100
AcDbLine
 10
238.644661
 20
339.689502
 11
238.644661
 21
337.689502
  0
LINE
  5
424
100
AcDbEntity
  8
M0
 62
     7
100
AcDbLine
 10
243.644661
 20
341.039502
 11
245.644661
 21
341.039502
  0
LINE
  5
425
100
AcDbEntity
  8
M0
 62
     7
100
AcDbLine
 10
243.644661
 20
341.039502
 11
243.644661
 21
338.739502
  0
LINE
  5
426
100
AcDbEntity
  8
M0
 62
     7
100
AcDbLine
 10
243.644661
 20
338.739502
 11
245.644661
 21
338.739502
  0
ARC
  5
427
100
AcDbEntity
  8
M0
 62
   234
100
AcDbCircle
 10
294.244126
 20
361.785138
 40
1.5
100
AcDbArc
 50
90.0
 51
180.0
  0
ARC
  5
428
100
AcDbEntity
  8
M0
 62
   234
100
AcDbCircle
 10
307.644126
 20
315.185138
 40
1.7
100
AcDbArc
 50
287.113266
 51
360.0
  0
ARC
  5
429
100
AcDbEntity
  8
M0
 62
   234
100
AcDbCircle
 10
294.244126
 20
345.185138
 40
1.5
100
AcDbArc
 50
180.0
 51
270.0
  0
LINE
  5
42A
100
AcDbEntity
  8
M0
 62
   234
100
AcDbLine
 10
309.344126
 20
343.685138
 11
308.144126
 21
343.685138
  0
LINE
  5
42B
100
AcDbEntity
  8
M0
 62
   234
100
AcDbLine
 10
297.744126
 20
357.885138
 11
297.744126
 21
353.685138
  0
LINE
  5
42C
100
AcDbEntity
  8
M0
 62
   234
100
AcDbLine
 10
298.744126
 20
352.685138
 11
309.344126
 21
352.685138
  0
LINE
  5
42D
100
AcDbEntity
  8
M0
 62
   234
100
AcDbLine
 10
294.244126
 20
363.285138
 11
297.744126
 21
363.285138
  0
LINE
  5
42E
100
AcDbEntity
  8
M0
 62
   234
100
AcDbLine
 10
309.344126
 20
352.685138
 11
309.344126
 21
315.185138
  0
LINE
  5
42F
100
AcDbEntity
  8
M0
 62
   234
100
AcDbLine
 10
309.344126
 20
316.885138
 11
308.144126
 21
316.885138
  0
ARC
  5
430
100
AcDbEntity
  8
M0
 62
   234
100
AcDbCircle
 10
298.744126
 20
353.685138
 40
1.0
100
AcDbArc
 50
180.0
 51
270.0
  0
LINE
  5
431
100
AcDbEntity
  8
M0
 62
   234
100
AcDbLine
 10
292.744126
 20
345.185138
 11
292.744126
 21
361.785138
  0
LINE
  5
432
100
AcDbEntity
  8
M0
 62
   234
100
AcDbLine
 10
308.144126
 20
343.685138
 11
308.144126
 21
315.185138
  0
LINE
  5
433
100
AcDbEntity
  8
M0
 62
   234
100
AcDbLine
 10
305.147926
 20
343.685138
 11
294.244126
 21
343.685138
  0
ARC
  5
434
100
AcDbEntity
  8
M0
 62
   154
100
AcDbCircle
 10
114.59786
 20
342.68514
 40
9.0
100
AcDbArc
 50
120.042201
 51
160.747898
  0
ARC
  5
435
100
AcDbEntity
  8
M0
 62
   154
100
AcDbCircle
 10
107.04786
 20
355.18514
 40
9.0
100
AcDbArc
 50
300.042201
 51
340.747898
  0
LINE
  5
436
100
AcDbEntity
  8
M0
 62
   154
100
AcDbLine
 10
117.813762
 20
358.714865
 11
115.544552
 21
352.217612
  0
LINE
  5
437
100
AcDbEntity
  8
M0
 62
   154
100
AcDbLine
 10
110.09212
 20
350.476052
 11
111.599582
 21
351.347866
  0
LINE
  5
438
100
AcDbEntity
  8
M0
 62
   154
100
AcDbLine
 10
110.046138
 20
346.522413
 11
111.553599
 21
347.394228
  0
LINE
  5
439
100
AcDbEntity
  8
M0
 62
   154
100
AcDbLine
 10
103.831958
 20
339.155414
 11
106.101167
 21
345.652667
  0
ARC
  5
43A
100
AcDbEntity
  8
M0
 62
   154
100
AcDbCircle
 10
110.24786
 20
353.68514
 40
2.7
100
AcDbArc
 50
300.042201
 51
351.333467
  0
ARC
  5
43B
100
AcDbEntity
  8
M0
 62
   154
100
AcDbCircle
 10
111.39786
 20
344.18514
 40
2.7
100
AcDbArc
 50
120.042201
 51
171.333467
  0
ARC
  5
43C
100
AcDbEntity
  8
M0
 62
   154
100
AcDbCircle
 10
112.916681
 20
358.58514
 40
0.8
100
AcDbArc
 50
351.333467
 51
450.0
  0
LINE
  5
43D
100
AcDbEntity
  8
M0
 62
   154
100
AcDbLine
 10
113.707546
 20
358.464593
 11
112.917031
 21
353.278295
  0
LINE
  5
43E
100
AcDbEntity
  8
M0
 62
   154
100
AcDbLine
 10
107.938173
 20
339.405687
 11
108.728688
 21
344.591985
  0
LINE
  5
43F
100
AcDbEntity
  8
M0
 62
   154
100
AcDbLine
 10
118.757839
 20
359.38514
 11
119.44786
 21
359.38514
  0
LINE
  5
440
100
AcDbEntity
  8
M0
 62
   154
100
AcDbLine
 10
112.916681
 20
359.38514
 11
112.54786
 21
359.38514
  0
ARC
  5
441
100
AcDbEntity
  8
M0
 62
   154
100
AcDbCircle
 10
118.757839
 20
358.38514
 40
1.0
100
AcDbArc
 50
90.0
 51
160.747898
  0
ARC
  5
442
100
AcDbEntity
  8
M0
 62
   154
100
AcDbCircle
 10
108.729039
 20
339.28514
 40
0.8
100
AcDbArc
 50
171.333467
 51
270.0
  0
LINE
  5
443
100
AcDbEntity
  8
M0
 62
   154
100
AcDbLine
 10
108.729039
 20
338.48514
 11
109.09786
 21
338.48514
  0
LINE
  5
444
100
AcDbEntity
  8
M0
 62
   154
100
AcDbLine
 10
102.887881
 20
338.48514
 11
102.19786
 21
338.48514
  0
ARC
  5
445
100
AcDbEntity
  8
M0
 62
   154
100
AcDbCircle
 10
102.887881
 20
339.48514
 40
1.0
100
AcDbArc
 50
270.0
 51
340.747898
  0
ARC
  5
446
100
AcDbEntity
  8
M0
 62
   154
100
AcDbCircle
 10
102.19786
 20
337.48514
 40
1.0
100
AcDbArc
 50
90.0
 51
180.0
  0
ARC
  5
447
100
AcDbEntity
  8
M0
 62
   154
100
AcDbCircle
 10
119.44786
 20
360.38514
 40
1.0
100
AcDbArc
 50
270.0
 51
360.0
  0
LINE
  5
448
100
AcDbEntity
  8
M0
 62
   154
100
AcDbLine
 10
120.44786
 20
367.58514
 11
120.44786
 21
360.38514
  0
LINE
  5
449
100
AcDbEntity
  8
M0
 62
   154
100
AcDbLine
 10
112.04786
 20
367.58514
 11
112.04786
 21
359.88514
  0
LINE
  5
44A
100
AcDbEntity
  8
M0
 62
   154
100
AcDbLine
 10
113.04786
 20
368.58514
 11
119.44786
 21
368.58514
  0
ARC
  5
44B
100
AcDbEntity
  8
M0
 62
   154
100
AcDbCircle
 10
112.54786
 20
359.88514
 40
0.5
100
AcDbArc
 50
180.0
 51
270.0
  0
ARC
  5
44C
100
AcDbEntity
  8
M0
 62
   154
100
AcDbCircle
 10
109.09786
 20
337.98514
 40
0.5
100
AcDbArc
 50
0.0
 51
90.0
  0
LINE
  5
44D
100
AcDbEntity
  8
M0
 62
   154
100
AcDbLine
 10
109.59786
 20
330.28514
 11
109.59786
 21
337.98514
  0
LINE
  5
44E
100
AcDbEntity
  8
M0
 62
   154
100
AcDbLine
 10
101.19786
 20
330.28514
 11
101.19786
 21
337.48514
  0
LINE
  5
44F
100
AcDbEntity
  8
M0
 62
   154
100
AcDbLine
 10
108.59786
 20
329.28514
 11
102.19786
 21
329.28514
  0
ARC
  5
450
100
AcDbEntity
  8
M0
 62
   154
100
AcDbCircle
 10
102.19786
 20
330.28514
 40
1.0
100
AcDbArc
 50
180.0
 51
270.0
  0
ARC
  5
451
100
AcDbEntity
  8
M0
 62
   154
100
AcDbCircle
 10
108.59786
 20
330.28514
 40
1.0
100
AcDbArc
 50
270.0
 51
360.0
  0
ARC
  5
452
100
AcDbEntity
  8
M0
 62
   154
100
AcDbCircle
 10
113.04786
 20
367.58514
 40
1.0
100
AcDbArc
 50
90.0
 51
180.0
  0
ARC
  5
453
100
AcDbEntity
  8
M0
 62
   154
100
AcDbCircle
 10
119.44786
 20
367.58514
 40
1.0
100
AcDbArc
 50
6.513776E-012
 51
90.0
  0
ARC
  5
454
100
AcDbEntity
  8
M0
 62
   154
100
AcDbCircle
 10
101.978573
 20
342.659664
 40
9.0
100
AcDbArc
 50
121.042201
 51
161.747898
  0
ARC
  5
455
100
AcDbEntity
  8
M0
 62
   154
100
AcDbCircle
 10
94.211568
 20
355.025994
 40
9.0
100
AcDbArc
 50
301.042201
 51
341.747898
  0
LINE
  5
456
100
AcDbEntity
  8
M0
 62
   154
100
AcDbLine
 10
104.914228
 20
358.743073
 11
102.758757
 21
352.207206
  0
LINE
  5
457
100
AcDbEntity
  8
M0
 62
   154
100
AcDbLine
 10
97.33755
 20
350.370753
 11
98.829566
 21
351.268743
  0
LINE
  5
458
100
AcDbEntity
  8
M0
 62
   154
100
AcDbLine
 10
97.360575
 20
346.416914
 11
98.852591
 21
347.314905
  0
LINE
  5
459
100
AcDbEntity
  8
M0
 62
   154
100
AcDbLine
 10
91.275913
 20
338.942585
 11
93.431384
 21
345.478451
  0
ARC
  5
45A
100
AcDbEntity
  8
M0
 62
   154
100
AcDbCircle
 10
97.437259
 20
353.58207
 40
2.7
100
AcDbArc
 50
301.042201
 51
352.333467
  0
ARC
  5
45B
100
AcDbEntity
  8
M0
 62
   154
100
AcDbCircle
 10
98.752882
 20
344.103587
 40
2.7
100
AcDbArc
 50
121.042201
 51
172.333467
  0
ARC
  5
45C
100
AcDbEntity
  8
M0
 62
   154
100
AcDbCircle
 10
100.020157
 20
358.527901
 40
0.8
100
AcDbArc
 50
352.333467
 51
451.0
  0
LINE
  5
45D
100
AcDbEntity
  8
M0
 62
   154
100
AcDbLine
 10
100.813006
 20
358.421175
 11
100.113125
 21
353.22187
  0
LINE
  5
45E
100
AcDbEntity
  8
M0
 62
   154
100
AcDbLine
 10
95.377135
 20
339.264482
 11
96.077016
 21
344.463787
  0
LINE
  5
45F
100
AcDbEntity
  8
M0
 62
   154
100
AcDbLine
 10
105.846463
 20
359.429722
 11
106.536379
 21
359.441764
  0
LINE
  5
460
100
AcDbEntity
  8
M0
 62
   154
100
AcDbLine
 10
100.006195
 20
359.327779
 11
99.63743
 21
359.321343
  0
ARC
  5
461
100
AcDbEntity
  8
M0
 62
   154
100
AcDbCircle
 10
105.863916
 20
358.429874
 40
1.0
100
AcDbArc
 50
91.0
 51
161.747898
  0
ARC
  5
462
100
AcDbEntity
  8
M0
 62
   154
100
AcDbCircle
 10
96.169984
 20
339.157756
 40
0.8
100
AcDbArc
 50
172.333467
 51
271.0
  0
LINE
  5
463
100
AcDbEntity
  8
M0
 62
   154
100
AcDbLine
 10
96.183946
 20
338.357878
 11
96.552711
 21
338.364315
  0
LINE
  5
464
100
AcDbEntity
  8
M0
 62
   154
100
AcDbLine
 10
90.343678
 20
338.255936
 11
89.653762
 21
338.243893
  0
ARC
  5
465
100
AcDbEntity
  8
M0
 62
   154
100
AcDbCircle
 10
90.326225
 20
339.255784
 40
1.0
100
AcDbArc
 50
271.0
 51
341.747898
  0
ARC
  5
466
100
AcDbEntity
  8
M0
 62
   154
100
AcDbCircle
 10
89.671214
 20
337.244046
 40
1.0
100
AcDbArc
 50
91.0
 51
181.0
  0
ARC
  5
467
100
AcDbEntity
  8
M0
 62
   154
100
AcDbCircle
 10
106.518927
 20
360.441612
 40
1.0
100
AcDbArc
 50
271.0
 51
361.0
  0
LINE
  5
468
100
AcDbEntity
  8
M0
 62
   154
100
AcDbLine
 10
107.393117
 20
367.657968
 11
107.518775
 21
360.459064
  0
LINE
  5
469
100
AcDbEntity
  8
M0
 62
   154
100
AcDbLine
 10
98.994397
 20
367.511368
 11
99.12878
 21
359.81254
  0
LINE
  5
46A
100
AcDbEntity
  8
M0
 62
   154
100
AcDbLine
 10
99.976792
 20
368.528668
 11
106.375817
 21
368.640363
  0
ARC
  5
46B
100
AcDbEntity
  8
M0
 62
   154
100
AcDbCircle
 10
99.628704
 20
359.821266
 40
0.5
100
AcDbArc
 50
181.0
 51
271.0
  0
ARC
  5
46C
100
AcDbEntity
  8
M0
 62
   154
100
AcDbCircle
 10
96.561437
 20
337.864391
 40
0.5
100
AcDbArc
 50
1.0
 51
91.0
  0
LINE
  5
46D
100
AcDbEntity
  8
M0
 62
   154
100
AcDbLine
 10
97.195745
 20
330.17429
 11
97.061361
 21
337.873117
  0
LINE
  5
46E
100
AcDbEntity
  8
M0
 62
   154
100
AcDbLine
 10
88.797024
 20
330.02769
 11
88.671367
 21
337.226593
  0
ARC
  5
46F
100
AcDbEntity
  8
M0
 62
   154
100
AcDbCircle
 10
89.796872
 20
330.045142
 40
1.0
100
AcDbArc
 50
181.0
 51
239.326411
  0
ARC
  5
470
100
AcDbEntity
  8
M0
 62
   154
100
AcDbCircle
 10
96.195897
 20
330.156838
 40
1.0
100
AcDbArc
 50
271.0
 51
361.0
  0
ARC
  5
471
100
AcDbEntity
  8
M0
 62
   154
100
AcDbCircle
 10
99.994244
 20
367.52882
 40
1.0
100
AcDbArc
 50
91.0
 51
181.0
  0
ARC
  5
472
100
AcDbEntity
  8
M0
 62
   154
100
AcDbCircle
 10
106.39327
 20
367.640515
 40
1.0
100
AcDbArc
 50
1.0
 51
91.0
  0
LINE
  5
473
100
AcDbEntity
  8
M0
 62
     2
100
AcDbLine
 10
79.437032
 20
320.645986
 11
81.281881
 21
318.801152
  0
LINE
  5
474
100
AcDbEntity
  8
M0
 62
     2
100
AcDbLine
 10
81.408758
 20
321.403096
 11
78.833684
 21
318.828023
  0
LINE
  5
475
100
AcDbEntity
  8
M0
 62
     2
100
AcDbLine
 10
82.115865
 20
320.695989
 11
79.540792
 21
318.120916
  0
LINE
  5
476
100
AcDbEntity
  8
M0
 62
     2
100
AcDbLine
 10
84.497899
 20
315.885121
 11
84.497899
 21
323.485097
  0
LINE
  5
477
100
AcDbEntity
  8
M0
 62
     2
100
AcDbLine
 10
76.297903
 20
323.485112
 11
76.297903
 21
315.885137
  0
CIRCLE
  5
478
100
AcDbEntity
  8
M0
 62
     2
100
AcDbCircle
 10
80.397909
 20
319.68514
 40
3.499993
  0
ARC
  5
479
100
AcDbEntity
  8
M0
 62
     2
100
AcDbCircle
 10
83.497899
 20
315.885137
 40
1.0
100
AcDbArc
 50
270.0
 51
360.0
  0
ARC
  5
47A
100
AcDbEntity
  8
M0
 62
     2
100
AcDbCircle
 10
83.497899
 20
323.484944
 40
1.0
100
AcDbArc
 50
0.0
 51
90.0
  0
ARC
  5
47B
100
AcDbEntity
  8
M0
 62
     2
100
AcDbCircle
 10
77.297903
 20
323.484944
 40
1.0
100
AcDbArc
 50
90.0
 51
180.0
  0
ARC
  5
47C
100
AcDbEntity
  8
M0
 62
     2
100
AcDbCircle
 10
77.297903
 20
315.885137
 40
1.0
100
AcDbArc
 50
179.999945
 51
270.0
  0
LINE
  5
47D
100
AcDbEntity
  8
M0
 62
     2
100
AcDbLine
 10
77.297903
 20
324.485128
 11
83.497899
 21
324.485128
  0
LINE
  5
47E
100
AcDbEntity
  8
M0
  6
DASHDOT
 62
     2
100
AcDbLine
 10
79.897909
 20
319.68514
 11
80.897909
 21
319.68514
  0
LINE
  5
47F
100
AcDbEntity
  8
M0
  6
DASHDOT
 62
     2
100
AcDbLine
 10
80.397909
 20
319.18514
 11
80.397909
 21
320.18514
  0
ARC
  5
480
100
AcDbEntity
  8
M0
 62
     4
100
AcDbCircle
 10
122.898917
 20
301.684937
 40
1.0
100
AcDbArc
 50
179.9998
 51
270.0
  0
ARC
  5
481
100
AcDbEntity
  8
M0
 62
     4
100
AcDbCircle
 10
122.898917
 20
301.684937
 40
1.0
100
AcDbArc
 50
270.0
 51
359.9998
  0
LINE
  5
482
100
AcDbEntity
  8
M0
 62
     4
100
AcDbLine
 10
113.898947
 20
301.684969
 11
110.898947
 21
301.684979
  0
ARC
  5
483
100
AcDbEntity
  8
M0
 62
     4
100
AcDbCircle
 10
91.149095
 20
343.985036
 40
1.0
100
AcDbArc
 50
0.0
 51
89.998926
  0
LINE
  5
484
100
AcDbEntity
  8
M0
 62
     4
100
AcDbLine
 10
134.899043
 20
342.184896
 11
108.239852
 21
342.184881
  0
LINE
  5
485
100
AcDbEntity
  8
M0
 62
     4
100
AcDbLine
 10
72.399078
 20
343.48482
 11
72.398954
 21
308.185022
  0
LINE
  5
486
100
AcDbEntity
  8
M0
 62
     4
100
AcDbLine
 10
113.898946
 20
305.684969
 11
114.956243
 21
305.684965
  0
LINE
  5
487
100
AcDbEntity
  8
M0
 62
     4
100
AcDbLine
 10
134.898922
 20
303.184896
 11
134.899068
 21
345.184896
  0
LINE
  5
488
100
AcDbEntity
  8
M0
 62
     4
100
AcDbLine
 10
131.044046
 20
337.684909
 11
119.750448
 21
337.684948
  0
LINE
  5
489
100
AcDbEntity
  8
M0
 62
     4
100
AcDbLine
 10
97.898978
 20
310.685025
 11
97.899095
 21
344.185025
  0
LINE
  5
48A
100
AcDbEntity
  8
M0
 62
     4
100
AcDbLine
 10
100.398978
 20
310.685016
 11
100.399095
 21
344.185016
  0
LINE
  5
48B
100
AcDbEntity
  8
M0
 62
     4
100
AcDbLine
 10
87.898978
 20
310.68506
 11
87.899095
 21
344.18506
  0
LINE
  5
48C
100
AcDbEntity
  8
M0
 62
     4
100
AcDbLine
 10
85.398978
 20
310.685068
 11
85.399095
 21
344.185068
  0
LINE
  5
48D
100
AcDbEntity
  8
M0
 62
     4
100
AcDbLine
 10
99.399099
 20
345.185019
 11
98.899099
 21
345.185021
  0
ARC
  5
48E
100
AcDbEntity
  8
M0
 62
     4
100
AcDbCircle
 10
99.399095
 20
344.185019
 40
1.0
100
AcDbArc
 50
359.9998
 51
449.998926
  0
LINE
  5
48F
100
AcDbEntity
  8
M0
 62
     4
100
AcDbLine
 10
91.149083
 20
344.985048
 11
87.499028
 21
344.985035
  0
ARC
  5
490
100
AcDbEntity
  8
M0
 62
     4
100
AcDbCircle
 10
98.899095
 20
344.185021
 40
1.0
100
AcDbArc
 50
89.998926
 51
179.9998
  0
LINE
  5
491
100
AcDbEntity
  8
M0
 62
     4
100
AcDbLine
 10
108.899027
 20
324.684986
 11
101.899027
 21
324.685011
  0
LINE
  5
492
100
AcDbEntity
  8
M0
 62
     4
100
AcDbLine
 10
108.899043
 20
329.184986
 11
101.899043
 21
329.185011
  0
LINE
  5
493
100
AcDbEntity
  8
M0
 62
     4
100
AcDbLine
 10
108.899036
 20
327.184986
 11
101.899036
 21
327.185011
  0
LINE
  5
494
100
AcDbEntity
  8
M0
 62
     4
100
AcDbLine
 10
102.399043
 20
329.185009
 11
102.399043
 21
329.28514
  0
LINE
  5
495
100
AcDbEntity
  8
M0
 62
     4
100
AcDbLine
 10
108.399043
 20
329.184988
 11
108.399043
 21
329.28514
  0
LINE
  5
496
100
AcDbEntity
  8
M0
 62
     4
100
AcDbLine
 10
102.899075
 20
338.48514
 11
102.899088
 21
342.185007
  0
LINE
  5
497
100
AcDbEntity
  8
M0
 62
     4
100
AcDbLine
 10
90.399075
 20
338.258441
 11
90.399088
 21
342.185051
  0
LINE
  5
498
100
AcDbEntity
  8
M0
 62
     4
100
AcDbLine
 10
77.899074
 20
338.042673
 11
77.899088
 21
342.185094
  0
LINE
  5
499
100
AcDbEntity
  8
M0
 62
     4
100
AcDbLine
 10
82.899076
 20
338.677276
 11
82.89908
 21
339.820395
  0
LINE
  5
49A
100
AcDbEntity
  8
M0
 62
     4
100
AcDbLine
 10
102.899088
 20
342.185007
 11
100.399088
 21
342.185016
  0
LINE
  5
49B
100
AcDbEntity
  8
M0
 62
     4
100
AcDbLine
 10
90.399088
 20
342.185051
 11
87.899088
 21
342.18506
  0
LINE
  5
49C
100
AcDbEntity
  8
M0
 62
     4
100
AcDbLine
 10
77.899088
 20
342.185094
 11
75.399088
 21
342.185103
  0
LINE
  5
49D
100
AcDbEntity
  8
M0
 62
     4
100
AcDbLine
 10
96.399043
 20
329.18503
 11
89.399043
 21
329.185054
  0
LINE
  5
49E
100
AcDbEntity
  8
M0
 62
     4
100
AcDbLine
 10
83.899043
 20
329.185074
 11
76.899043
 21
329.185098
  0
LINE
  5
49F
100
AcDbEntity
  8
M0
 62
     4
100
AcDbLine
 10
109.899046
 20
330.184983
 11
109.899085
 21
341.184983
  0
LINE
  5
4A0
100
AcDbEntity
  8
M0
 62
     4
100
AcDbLine
 10
100.899046
 20
330.185014
 11
100.899085
 21
341.185014
  0
LINE
  5
4A1
100
AcDbEntity
  8
M0
 62
     4
100
AcDbLine
 10
97.399046
 20
330.185026
 11
97.399085
 21
341.185026
  0
LINE
  5
4A2
100
AcDbEntity
  8
M0
 62
     4
100
AcDbLine
 10
88.399046
 20
330.185058
 11
88.399085
 21
341.185058
  0
LINE
  5
4A3
100
AcDbEntity
  8
M0
 62
     4
100
AcDbLine
 10
84.899046
 20
330.18507
 11
84.899085
 21
341.18507
  0
LINE
  5
4A4
100
AcDbEntity
  8
M0
 62
     4
100
AcDbLine
 10
75.899046
 20
330.185101
 11
75.899085
 21
341.185101
  0
LINE
  5
4A5
100
AcDbEntity
  8
M0
 62
     4
100
AcDbLine
 10
97.899088
 20
342.185025
 11
95.701073
 21
342.185011
  0
LINE
  5
4A6
100
AcDbEntity
  8
M0
 62
     4
100
AcDbLine
 10
85.399088
 20
342.185068
 11
83.175464
 21
342.185056
  0
LINE
  5
4A7
100
AcDbEntity
  8
M0
 62
     4
100
AcDbLine
 10
110.398966
 20
307.184981
 11
110.39898
 21
319.984908
  0
ARC
  5
4A8
100
AcDbEntity
  8
M0
 62
     4
100
AcDbCircle
 10
110.899085
 20
341.184979
 40
1.0
100
AcDbArc
 50
119.999001
 51
179.9998
  0
ARC
  5
4A9
100
AcDbEntity
  8
M0
 62
     4
100
AcDbCircle
 10
98.399085
 20
341.185023
 40
1.0
100
AcDbArc
 50
119.999001
 51
179.9998
  0
ARC
  5
4AA
100
AcDbEntity
  8
M0
 62
     4
100
AcDbCircle
 10
85.899085
 20
341.185067
 40
1.0
100
AcDbArc
 50
119.999001
 51
179.9998
  0
ARC
  5
4AB
100
AcDbEntity
  8
M0
 62
     4
100
AcDbCircle
 10
99.899085
 20
341.185018
 40
1.0
100
AcDbArc
 50
359.9998
 51
419.999842
  0
ARC
  5
4AC
100
AcDbEntity
  8
M0
 62
     4
100
AcDbCircle
 10
87.399085
 20
341.185061
 40
1.0
100
AcDbArc
 50
359.9998
 51
419.999842
  0
LINE
  5
4AD
100
AcDbEntity
  8
M0
 62
     4
100
AcDbLine
 10
75.399046
 20
330.185103
 11
75.399088
 21
342.185103
  0
ARC
  5
4AE
100
AcDbEntity
  8
M0
 62
     4
100
AcDbCircle
 10
74.899085
 20
341.185105
 40
1.0
100
AcDbArc
 50
359.9998
 51
419.999842
  0
ARC
  5
4AF
100
AcDbEntity
  8
M0
 62
     4
100
AcDbCircle
 10
83.64911
 20
343.985075
 40
1.0
100
AcDbArc
 50
89.998926
 51
93.750712
  0
ARC
  5
4B0
100
AcDbEntity
  8
M0
 62
     4
100
AcDbCircle
 10
86.899095
 20
344.185063
 40
1.0
100
AcDbArc
 50
359.9998
 51
449.998926
  0
ARC
  5
4B1
100
AcDbEntity
  8
M0
 62
     4
100
AcDbCircle
 10
86.399095
 20
344.185065
 40
1.0
100
AcDbArc
 50
89.998926
 51
179.9998
  0
LINE
  5
4B2
100
AcDbEntity
  8
M0
 62
     4
100
AcDbLine
 10
85.399108
 20
343.484795
 11
83.327377
 21
343.484784
  0
LINE
  5
4B3
100
AcDbEntity
  8
M0
 62
     4
100
AcDbLine
 10
83.899036
 20
327.185074
 11
72.399006
 21
327.185114
  0
LINE
  5
4B4
100
AcDbEntity
  8
M0
 62
     4
100
AcDbLine
 10
96.399036
 20
327.18503
 11
89.399036
 21
327.185054
  0
ARC
  5
4B5
100
AcDbEntity
  8
M0
 62
     4
100
AcDbCircle
 10
96.399048
 20
330.68503
 40
1.499996
100
AcDbArc
 50
270.0
 51
359.9998
  0
ARC
  5
4B6
100
AcDbEntity
  8
M0
 62
     4
100
AcDbCircle
 10
83.899048
 20
330.685074
 40
1.499996
100
AcDbArc
 50
270.0
 51
359.9998
  0
ARC
  5
4B7
100
AcDbEntity
  8
M0
 62
     4
100
AcDbCircle
 10
83.899046
 20
330.185074
 40
1.0
100
AcDbArc
 50
270.0
 51
359.9998
  0
ARC
  5
4B8
100
AcDbEntity
  8
M0
 62
     4
100
AcDbCircle
 10
96.399046
 20
330.18503
 40
1.0
100
AcDbArc
 50
270.0
 51
359.9998
  0
ARC
  5
4B9
100
AcDbEntity
  8
M0
 62
     4
100
AcDbCircle
 10
108.899048
 20
330.684986
 40
1.499996
100
AcDbArc
 50
270.0
 51
359.9998
  0
ARC
  5
4BA
100
AcDbEntity
  8
M0
 62
     4
100
AcDbCircle
 10
108.899046
 20
330.184986
 40
1.0
100
AcDbArc
 50
270.0
 51
359.9998
  0
ARC
  5
4BB
100
AcDbEntity
  8
M0
 62
     4
100
AcDbCircle
 10
101.899048
 20
330.685011
 40
1.499996
100
AcDbArc
 50
179.9998
 51
270.0
  0
ARC
  5
4BC
100
AcDbEntity
  8
M0
 62
     4
100
AcDbCircle
 10
89.399048
 20
330.685054
 40
1.499996
100
AcDbArc
 50
179.9998
 51
270.0
  0
ARC
  5
4BD
100
AcDbEntity
  8
M0
 62
     4
100
AcDbCircle
 10
101.899046
 20
330.185011
 40
1.0
100
AcDbArc
 50
179.9998
 51
270.0
  0
ARC
  5
4BE
100
AcDbEntity
  8
M0
 62
     4
100
AcDbCircle
 10
89.399046
 20
330.185054
 40
1.0
100
AcDbArc
 50
179.9998
 51
270.0
  0
ARC
  5
4BF
100
AcDbEntity
  8
M0
 62
     4
100
AcDbCircle
 10
76.899046
 20
330.185098
 40
1.0
100
AcDbArc
 50
179.9998
 51
270.0
  0
ARC
  5
4C0
100
AcDbEntity
  8
M0
 62
     4
100
AcDbCircle
 10
76.899048
 20
330.685098
 40
1.499996
100
AcDbArc
 50
179.9998
 51
270.0
  0
ARC
  5
4C1
100
AcDbEntity
  8
M0
 62
     4
100
AcDbCircle
 10
74.399046
 20
330.185107
 40
1.0
100
AcDbArc
 50
270.0
 51
359.9998
  0
LINE
  5
4C2
100
AcDbEntity
  8
M0
 62
     4
100
AcDbLine
 10
74.399043
 20
329.185107
 11
72.399012
 21
329.185114
  0
LINE
  5
4C3
100
AcDbEntity
  8
M0
 62
     4
100
AcDbLine
 10
110.398992
 20
314.684981
 11
100.398992
 21
314.685016
  0
LINE
  5
4C4
100
AcDbEntity
  8
M0
 62
     4
100
AcDbLine
 10
110.399048
 20
330.684981
 11
110.399088
 21
342.184981
  0
ARC
  5
4C5
100
AcDbEntity
  8
M0
 62
     4
100
AcDbCircle
 10
101.899031
 20
325.685011
 40
1.499996
100
AcDbArc
 50
89.999217
 51
179.9998
  0
ARC
  5
4C6
100
AcDbEntity
  8
M0
 62
     4
100
AcDbCircle
 10
108.899031
 20
325.684986
 40
1.499996
100
AcDbArc
 50
359.9998
 51
449.999217
  0
ARC
  5
4C7
100
AcDbEntity
  8
M0
 62
     4
100
AcDbCircle
 10
96.399031
 20
325.68503
 40
1.499996
100
AcDbArc
 50
359.9998
 51
449.999217
  0
ARC
  5
4C8
100
AcDbEntity
  8
M0
 62
     4
100
AcDbCircle
 10
89.399031
 20
325.685054
 40
1.499996
100
AcDbArc
 50
89.999217
 51
179.9998
  0
ARC
  5
4C9
100
AcDbEntity
  8
M0
 62
     4
100
AcDbCircle
 10
83.899031
 20
325.685074
 40
1.499996
100
AcDbArc
 50
359.9998
 51
449.999217
  0
LINE
  5
4CA
100
AcDbEntity
  8
M0
 62
     4
100
AcDbLine
 10
75.398991
 20
314.185103
 11
75.399033
 21
326.185103
  0
ARC
  5
4CB
100
AcDbEntity
  8
M0
 62
     4
100
AcDbCircle
 10
76.899031
 20
325.685098
 40
1.499996
100
AcDbArc
 50
89.999217
 51
179.9998
  0
ARC
  5
4CC
100
AcDbEntity
  8
M0
 62
     4
100
AcDbCircle
 10
74.399033
 20
326.185107
 40
1.0
100
AcDbArc
 50
359.9998
 51
449.998926
  0
LINE
  5
4CD
100
AcDbEntity
  8
M0
 62
     4
100
AcDbLine
 10
97.898992
 20
314.685025
 11
87.898992
 21
314.68506
  0
LINE
  5
4CE
100
AcDbEntity
  8
M0
 62
     4
100
AcDbLine
 10
85.398992
 20
314.685068
 11
75.398992
 21
314.685103
  0
ARC
  5
4CF
100
AcDbEntity
  8
M0
 62
     4
100
AcDbCircle
 10
108.899022
 20
323.184986
 40
1.499996
100
AcDbArc
 50
359.9998
 51
449.999217
  0
LINE
  5
4D0
100
AcDbEntity
  8
M0
 62
     4
100
AcDbLine
 10
96.399027
 20
324.68503
 11
89.399027
 21
324.685054
  0
LINE
  5
4D1
100
AcDbEntity
  8
M0
 62
     4
100
AcDbLine
 10
83.899027
 20
324.685074
 11
76.899027
 21
324.685098
  0
ARC
  5
4D2
100
AcDbEntity
  8
M0
 62
     4
100
AcDbCircle
 10
101.899022
 20
323.185011
 40
1.499996
100
AcDbArc
 50
89.999217
 51
179.9998
  0
ARC
  5
4D3
100
AcDbEntity
  8
M0
 62
     4
100
AcDbCircle
 10
89.399022
 20
323.185054
 40
1.499996
100
AcDbArc
 50
89.999217
 51
179.9998
  0
ARC
  5
4D4
100
AcDbEntity
  8
M0
 62
     4
100
AcDbCircle
 10
76.899022
 20
323.185098
 40
1.499996
100
AcDbArc
 50
89.999217
 51
179.9998
  0
ARC
  5
4D5
100
AcDbEntity
  8
M0
 62
     4
100
AcDbCircle
 10
96.399022
 20
323.18503
 40
1.499996
100
AcDbArc
 50
359.9998
 51
449.999217
  0
ARC
  5
4D6
100
AcDbEntity
  8
M0
 62
     4
100
AcDbCircle
 10
83.899022
 20
323.185074
 40
1.499996
100
AcDbArc
 50
359.9998
 51
449.999217
  0
LINE
  5
4D7
100
AcDbEntity
  8
M0
 62
     4
100
AcDbLine
 10
109.898996
 20
315.684983
 11
109.899024
 21
323.684983
  0
LINE
  5
4D8
100
AcDbEntity
  8
M0
 62
     4
100
AcDbLine
 10
100.898996
 20
315.685014
 11
100.899024
 21
323.685014
  0
LINE
  5
4D9
100
AcDbEntity
  8
M0
 62
     4
100
AcDbLine
 10
97.398996
 20
315.685026
 11
97.399024
 21
323.685026
  0
LINE
  5
4DA
100
AcDbEntity
  8
M0
 62
     4
100
AcDbLine
 10
88.398996
 20
315.685058
 11
88.399024
 21
323.685058
  0
LINE
  5
4DB
100
AcDbEntity
  8
M0
 62
     4
100
AcDbLine
 10
84.898996
 20
315.68507
 11
84.899024
 21
323.68507
  0
LINE
  5
4DC
100
AcDbEntity
  8
M0
 62
     4
100
AcDbLine
 10
75.898996
 20
315.685101
 11
75.899024
 21
323.685101
  0
ARC
  5
4DD
100
AcDbEntity
  8
M0
 62
     4
100
AcDbCircle
 10
108.899024
 20
323.684986
 40
1.0
100
AcDbArc
 50
359.9998
 51
449.998926
  0
ARC
  5
4DE
100
AcDbEntity
  8
M0
 62
     4
100
AcDbCircle
 10
96.399024
 20
323.68503
 40
1.0
100
AcDbArc
 50
359.9998
 51
449.998926
  0
ARC
  5
4DF
100
AcDbEntity
  8
M0
 62
     4
100
AcDbCircle
 10
83.899024
 20
323.685074
 40
1.0
100
AcDbArc
 50
359.9998
 51
449.998926
  0
ARC
  5
4E0
100
AcDbEntity
  8
M0
 62
     4
100
AcDbCircle
 10
101.899024
 20
323.685011
 40
1.0
100
AcDbArc
 50
89.998926
 51
179.9998
  0
ARC
  5
4E1
100
AcDbEntity
  8
M0
 62
     4
100
AcDbCircle
 10
89.399024
 20
323.685054
 40
1.0
100
AcDbArc
 50
89.998926
 51
179.9998
  0
ARC
  5
4E2
100
AcDbEntity
  8
M0
 62
     4
100
AcDbCircle
 10
76.899024
 20
323.685098
 40
1.0
100
AcDbArc
 50
89.998926
 51
179.9998
  0
ARC
  5
4E3
100
AcDbEntity
  8
M0
 62
     4
100
AcDbCircle
 10
110.898996
 20
315.684979
 40
1.0
100
AcDbArc
 50
179.9998
 51
239.999433
  0
ARC
  5
4E4
100
AcDbEntity
  8
M0
 62
     4
100
AcDbCircle
 10
98.398996
 20
315.685023
 40
1.0
100
AcDbArc
 50
179.9998
 51
239.999433
  0
ARC
  5
4E5
100
AcDbEntity
  8
M0
 62
     4
100
AcDbCircle
 10
85.898996
 20
315.685067
 40
1.0
100
AcDbArc
 50
179.9998
 51
239.999433
  0
ARC
  5
4E6
100
AcDbEntity
  8
M0
 62
     4
100
AcDbCircle
 10
74.898996
 20
315.685105
 40
1.0
100
AcDbArc
 50
300.000925
 51
359.9998
  0
ARC
  5
4E7
100
AcDbEntity
  8
M0
 62
     4
100
AcDbCircle
 10
87.398996
 20
315.685061
 40
1.0
100
AcDbArc
 50
300.000925
 51
359.9998
  0
ARC
  5
4E8
100
AcDbEntity
  8
M0
 62
     4
100
AcDbCircle
 10
99.898996
 20
315.685018
 40
1.0
100
AcDbArc
 50
300.000925
 51
359.9998
  0
LINE
  5
4E9
100
AcDbEntity
  8
M0
 62
     4
100
AcDbLine
 10
99.398975
 20
309.685019
 11
98.898975
 21
309.685021
  0
LINE
  5
4EA
100
AcDbEntity
  8
M0
 62
     4
100
AcDbLine
 10
86.898975
 20
309.685063
 11
86.398975
 21
309.685065
  0
ARC
  5
4EB
100
AcDbEntity
  8
M0
 62
     4
100
AcDbCircle
 10
86.398978
 20
310.685065
 40
1.0
100
AcDbArc
 50
179.9998
 51
270.0
  0
ARC
  5
4EC
100
AcDbEntity
  8
M0
 62
     4
100
AcDbCircle
 10
86.898978
 20
310.685063
 40
1.0
100
AcDbArc
 50
270.0
 51
359.9998
  0
ARC
  5
4ED
100
AcDbEntity
  8
M0
 62
     4
100
AcDbCircle
 10
98.898978
 20
310.685021
 40
1.0
100
AcDbArc
 50
179.9998
 51
270.0
  0
ARC
  5
4EE
100
AcDbEntity
  8
M0
 62
     4
100
AcDbCircle
 10
99.398978
 20
310.685019
 40
1.0
100
AcDbArc
 50
270.0
 51
359.9998
  0
LINE
  5
4EF
100
AcDbEntity
  8
M0
 62
     4
100
AcDbLine
 10
110.39897
 20
308.184981
 11
100.64897
 21
308.185015
  0
LINE
  5
4F0
100
AcDbEntity
  8
M0
 62
     4
100
AcDbLine
 10
79.64897
 20
308.185088
 11
79.648992
 21
314.685088
  0
LINE
  5
4F1
100
AcDbEntity
  8
M0
 62
     4
100
AcDbLine
 10
84.14897
 20
308.185073
 11
84.148992
 21
314.685073
  0
LINE
  5
4F2
100
AcDbEntity
  8
M0
 62
     4
100
AcDbLine
 10
104.64897
 20
308.185001
 11
104.648992
 21
314.685001
  0
LINE
  5
4F3
100
AcDbEntity
  8
M0
 62
     4
100
AcDbLine
 10
109.14897
 20
308.184985
 11
109.148992
 21
314.684985
  0
LINE
  5
4F4
100
AcDbEntity
  8
M0
 62
     4
100
AcDbLine
 10
74.398987
 20
313.185107
 11
72.398957
 21
313.185114
  0
ARC
  5
4F5
100
AcDbEntity
  8
M0
 62
     4
100
AcDbCircle
 10
74.398991
 20
314.185107
 40
1.0
100
AcDbArc
 50
270.0
 51
359.9998
  0
LINE
  5
4F6
100
AcDbEntity
  8
M0
 62
     4
100
AcDbLine
 10
131.898916
 20
303.684921
 11
131.898916
 21
319.984909
  0
LINE
  5
4F7
100
AcDbEntity
  8
M0
 62
     4
100
AcDbLine
 10
134.398936
 20
311.684897
 11
132.898936
 21
311.684903
  0
ARC
  5
4F8
100
AcDbEntity
  8
M0
 62
     4
100
AcDbCircle
 10
134.398938
 20
312.184897
 40
0.5
100
AcDbArc
 50
270.0
 51
359.9998
  0
ARC
  5
4F9
100
AcDbEntity
  8
M0
 62
     4
100
AcDbCircle
 10
132.89894
 20
312.684903
 40
1.0
100
AcDbArc
 50
179.9998
 51
270.0
  0
LINE
  5
4FA
100
AcDbEntity
  8
M0
 62
     4
100
AcDbLine
 10
134.398927
 20
304.684897
 11
132.898927
 21
304.684903
  0
LINE
  5
4FB
100
AcDbEntity
  8
M0
 62
     4
100
AcDbLine
 10
134.39892
 20
302.684897
 11
132.89892
 21
302.684903
  0
ARC
  5
4FC
100
AcDbEntity
  8
M0
 62
     4
100
AcDbCircle
 10
134.398922
 20
303.184897
 40
0.5
100
AcDbArc
 50
270.0
 51
359.9998
  0
ARC
  5
4FD
100
AcDbEntity
  8
M0
 62
     4
100
AcDbCircle
 10
132.898924
 20
303.684903
 40
1.0
100
AcDbArc
 50
179.9998
 51
270.0
  0
ARC
  5
4FE
100
AcDbEntity
  8
M0
 62
     4
100
AcDbCircle
 10
134.398929
 20
305.184897
 40
0.5
100
AcDbArc
 50
270.0
 51
359.9998
  0
ARC
  5
4FF
100
AcDbEntity
  8
M0
 62
     4
100
AcDbCircle
 10
132.89893
 20
305.684903
 40
1.0
100
AcDbArc
 50
179.9998
 51
270.0
  0
LINE
  5
500
100
AcDbEntity
  8
M0
 62
     4
100
AcDbLine
 10
134.398944
 20
309.684897
 11
132.898944
 21
309.684903
  0
ARC
  5
501
100
AcDbEntity
  8
M0
 62
     4
100
AcDbCircle
 10
132.898948
 20
310.684903
 40
1.0
100
AcDbArc
 50
179.9998
 51
270.0
  0
ARC
  5
502
100
AcDbEntity
  8
M0
 62
     4
100
AcDbCircle
 10
134.398946
 20
310.184897
 40
0.5
100
AcDbArc
 50
270.0
 51
359.9998
  0
LINE
  5
503
100
AcDbEntity
  8
M0
 62
     4
100
AcDbLine
 10
123.898917
 20
301.684949
 11
123.898916
 21
319.946171
  0
LINE
  5
504
100
AcDbEntity
  8
M0
 62
     4
100
AcDbLine
 10
130.841191
 20
305.68491
 11
131.8989
 21
305.684906
  0
LINE
  5
505
100
AcDbEntity
  8
M0
 62
     4
100
AcDbLine
 10
131.898924
 20
312.684906
 11
131.149611
 21
312.684665
  0
LINE
  5
506
100
AcDbEntity
  8
M0
 62
     4
100
AcDbLine
 10
124.647994
 20
312.684687
 11
123.898924
 21
312.684934
  0
LINE
  5
507
100
AcDbEntity
  8
M0
 62
     4
100
AcDbLine
 10
120.898901
 20
308.68496
 11
120.8989
 21
319.751531
  0
LINE
  5
508
100
AcDbEntity
  8
M0
 62
     4
100
AcDbLine
 10
122.898937
 20
307.684937
 11
121.898937
 21
307.684941
  0
ARC
  5
509
100
AcDbEntity
  8
M0
 62
     4
100
AcDbCircle
 10
122.898941
 20
308.684937
 40
1.0
100
AcDbArc
 50
270.0
 51
359.9998
  0
ARC
  5
50A
100
AcDbEntity
  8
M0
 62
     4
100
AcDbCircle
 10
121.898941
 20
308.684941
 40
1.0
100
AcDbArc
 50
179.9998
 51
270.0
  0
LINE
  5
50B
100
AcDbEntity
  8
M0
 62
     4
100
AcDbLine
 10
112.898977
 20
310.185003
 11
112.89898
 21
319.984899
  0
LINE
  5
50C
100
AcDbEntity
  8
M0
 62
     4
100
AcDbLine
 10
119.84001
 20
312.684948
 11
120.898955
 21
312.684944
  0
LINE
  5
50D
100
AcDbEntity
  8
M0
 62
     4
100
AcDbLine
 10
114.898946
 20
305.684965
 11
114.898946
 21
305.870756
  0
LINE
  5
50E
100
AcDbEntity
  8
M0
 62
     4
100
AcDbLine
 10
113.898947
 20
301.684969
 11
113.898971
 21
312.866854
  0
LINE
  5
50F
100
AcDbEntity
  8
M0
 62
     4
100
AcDbLine
 10
121.898917
 20
301.684941
 11
121.898937
 21
307.684941
  0
LINE
  5
510
100
AcDbEntity
  8
M0
 62
     4
100
AcDbLine
 10
123.8989
 20
305.684934
 11
124.956227
 21
305.68493
  0
LINE
  5
511
100
AcDbEntity
  8
M0
 62
     4
100
AcDbLine
 10
113.898966
 20
307.184969
 11
110.398966
 21
307.184981
  0
LINE
  5
512
100
AcDbEntity
  8
M0
 62
     4
100
AcDbLine
 10
113.898973
 20
309.184969
 11
110.398973
 21
309.184981
  0
LINE
  5
513
100
AcDbEntity
  8
M0
 62
     4
100
AcDbLine
 10
112.898978
 20
310.684972
 11
112.899015
 21
321.184972
  0
ARC
  5
514
100
AcDbEntity
  8
M0
 62
     4
100
AcDbCircle
 10
111.398977
 20
310.184978
 40
1.0
100
AcDbArc
 50
179.9998
 51
270.0
  0
ARC
  5
515
100
AcDbEntity
  8
M0
 62
     4
100
AcDbCircle
 10
111.898977
 20
310.184976
 40
1.0
100
AcDbArc
 50
270.0
 51
359.9998
  0
LINE
  5
516
100
AcDbEntity
  8
M0
 62
     4
100
AcDbLine
 10
110.898947
 20
301.684979
 11
110.898966
 21
307.184979
  0
LINE
  5
517
100
AcDbEntity
  8
M0
 62
     4
100
AcDbLine
 10
112.749017
 20
328.684973
 11
111.249012
 21
327.184993
  0
LINE
  5
518
100
AcDbEntity
  8
M0
 62
     4
100
AcDbLine
 10
112.749017
 20
328.684973
 11
111.249022
 21
330.184978
  0
LINE
  5
519
100
AcDbEntity
  8
M0
 62
     4
100
AcDbLine
 10
110.399036
 20
327.184981
 11
110.399048
 21
330.684981
  0
LINE
  5
51A
100
AcDbEntity
  8
M0
 62
     4
100
AcDbLine
 10
131.044046
 20
337.684909
 11
131.044062
 21
342.184909
  0
LINE
  5
51B
100
AcDbEntity
  8
M0
 62
     4
100
AcDbLine
 10
112.749079
 20
342.184939
 11
112.749042
 21
327.184698
  0
LINE
  5
51C
100
AcDbEntity
  8
M0
 62
     4
100
AcDbLine
 10
111.249012
 20
327.184703
 11
110.399051
 21
327.184951
  0
LINE
  5
51D
100
AcDbEntity
  8
M0
 62
     4
100
AcDbLine
 10
111.249037
 20
330.184697
 11
110.399062
 21
330.184943
  0
LINE
  5
51E
100
AcDbEntity
  8
M0
 62
     4
100
AcDbLine
 10
112.749006
 20
325.434973
 11
110.39903
 21
325.434981
  0
LINE
  5
51F
100
AcDbEntity
  8
M0
 62
     4
100
AcDbLine
 10
112.749028
 20
331.934973
 11
110.399053
 21
331.934981
  0
LINE
  5
520
100
AcDbEntity
  8
M0
 62
     4
100
AcDbLine
 10
96.899036
 20
327.099243
 11
96.899043
 21
329.270828
  0
LINE
  5
521
100
AcDbEntity
  8
M0
 62
     4
100
AcDbLine
 10
101.399036
 20
327.099228
 11
101.399043
 21
329.270813
  0
LINE
  5
522
100
AcDbEntity
  8
M0
 62
     4
100
AcDbLine
 10
107.399036
 20
327.184992
 11
107.399043
 21
329.184992
  0
ARC
  5
523
100
AcDbEntity
  8
M0
 62
     4
100
AcDbCircle
 10
81.898985
 20
312.685081
 40
2.249995
100
AcDbArc
 50
179.9998
 51
209.868865
  0
LINE
  5
524
100
AcDbEntity
  8
M0
 62
     4
100
AcDbLine
 10
94.398973
 20
309.185037
 11
94.398982
 21
311.685037
  0
ARC
  5
525
100
AcDbEntity
  8
M0
 62
     4
100
AcDbCircle
 10
106.898985
 20
312.684993
 40
2.249995
100
AcDbArc
 50
179.9998
 51
209.868865
  0
LINE
  5
526
100
AcDbEntity
  8
M0
 62
     4
100
AcDbLine
 10
97.399022
 20
323.185026
 11
96.997823
 21
323.184784
  0
LINE
  5
527
100
AcDbEntity
  8
M0
 62
     4
100
AcDbLine
 10
84.899022
 20
323.18507
 11
84.497823
 21
323.184827
  0
ARC
  5
528
100
AcDbEntity
  8
M0
 62
     4
100
AcDbCircle
 10
75.349029
 20
321.685103
 40
1.499996
100
AcDbArc
 50
50.758701
 51
68.48964
  0
ARC
  5
529
100
AcDbEntity
  8
M0
 62
     4
100
AcDbCircle
 10
85.449005
 20
321.685068
 40
1.499996
100
AcDbArc
 50
111.509418
 51
129.358881
  0
ARC
  5
52A
100
AcDbEntity
  8
M0
 62
     4
100
AcDbCircle
 10
87.84906
 20
321.68506
 40
1.499996
100
AcDbArc
 50
50.759521
 51
68.48964
  0
ARC
  5
52B
100
AcDbEntity
  8
M0
 62
     4
100
AcDbCircle
 10
110.449005
 20
321.684981
 40
1.499996
100
AcDbArc
 50
111.509418
 51
129.359701
  0
ARC
  5
52C
100
AcDbEntity
  8
M0
 62
     4
100
AcDbCircle
 10
100.349029
 20
321.685016
 40
1.499996
100
AcDbArc
 50
50.759521
 51
68.48964
  0
LINE
  5
52D
100
AcDbEntity
  8
M0
 62
     4
100
AcDbLine
 10
109.899022
 20
323.184983
 11
109.497792
 21
323.18474
  0
LINE
  5
52E
100
AcDbEntity
  8
M0
 62
     4
100
AcDbLine
 10
120.841206
 20
305.684945
 11
121.8989
 21
305.684941
  0
LINE
  5
52F
100
AcDbEntity
  8
M0
 62
     4
100
AcDbLine
 10
100.64897
 20
308.185015
 11
100.648985
 21
312.685015
  0
LINE
  5
530
100
AcDbEntity
  8
M0
 62
     4
100
AcDbLine
 10
93.39897
 20
308.18504
 11
72.398939
 21
308.185114
  0
LINE
  5
531
100
AcDbEntity
  8
M0
 62
     4
100
AcDbLine
 10
97.898989
 20
313.685025
 11
96.398989
 21
313.68503
  0
ARC
  5
532
100
AcDbEntity
  8
M0
 62
     4
100
AcDbCircle
 10
96.398982
 20
311.68503
 40
1.999995
100
AcDbArc
 50
89.999363
 51
179.9998
  0
ARC
  5
533
100
AcDbEntity
  8
M0
 62
     4
100
AcDbCircle
 10
93.398973
 20
309.18504
 40
1.0
100
AcDbArc
 50
270.0
 51
359.9998
  0
ARC
  5
534
100
AcDbEntity
  8
M0
 62
     4
100
AcDbCircle
 10
99.648985
 20
312.685019
 40
1.0
100
AcDbArc
 50
359.9998
 51
401.408851
  0
LINE
  5
535
100
AcDbEntity
  8
M0
 62
     4
100
AcDbLine
 10
74.399092
 20
343.185107
 11
72.399061
 21
343.185114
  0
ARC
  5
536
100
AcDbEntity
  8
M0
 62
     4
100
AcDbCircle
 10
74.399088
 20
342.185107
 40
1.0
100
AcDbArc
 50
359.9998
 51
449.998926
  0
LINE
  5
537
100
AcDbEntity
  8
M0
 62
     4
100
AcDbLine
 10
134.899068
 20
345.184896
 11
126.399068
 21
345.184925
  0
LINE
  5
538
100
AcDbEntity
  8
M0
 62
     4
100
AcDbLine
 10
125.399062
 20
343.384941
 11
125.399065
 21
344.184929
  0
LINE
  5
539
100
AcDbEntity
  8
M0
 62
     4
100
AcDbLine
 10
109.948012
 20
343.184926
 11
108.392283
 21
343.184926
  0
ARC
  5
53A
100
AcDbEntity
  8
M0
 62
     4
100
AcDbCircle
 10
126.399065
 20
344.184925
 40
1.0
100
AcDbArc
 50
90.0
 51
179.9998
  0
LINE
  5
53B
100
AcDbEntity
  8
M0
 62
     4
100
AcDbLine
 10
97.899107
 20
343.184976
 11
95.838699
 21
343.184965
  0
LINE
  5
53C
100
AcDbEntity
  8
M0
 62
     4
100
AcDbLine
 10
111.898958
 20
304.684976
 11
111.898966
 21
307.184976
  0
LINE
  5
53D
100
AcDbEntity
  8
M0
 62
     4
100
AcDbLine
 10
113.898969
 20
303.684969
 11
110.898954
 21
303.684979
  0
ARC
  5
53E
100
AcDbEntity
  8
M0
 62
     4
100
AcDbCircle
 10
112.898958
 20
304.684972
 40
1.0
100
AcDbArc
 50
179.9998
 51
270.0
  0
ARC
  5
53F
100
AcDbEntity
  8
M0
 62
     4
100
AcDbCircle
 10
112.898958
 20
304.684972
 40
1.0
100
AcDbArc
 50
270.0
 51
359.9998
  0
TEXT
  5
540
100
AcDbEntity
  8
M0
 62
     4
100
AcDbText
 10
79.749253
 20
324.53546
 40
2.800003
  1
２
 50
359.999819
 41
0.535719
  7
STANDARD
100
AcDbText
  0
TEXT
  5
541
100
AcDbEntity
  8
M0
 62
     4
100
AcDbText
 10
92.249253
 20
324.535416
 40
2.800003
  1
４
 50
359.999819
 41
0.535719
  7
STANDARD
100
AcDbText
  0
TEXT
  5
542
100
AcDbEntity
  8
M0
 62
     4
100
AcDbText
 10
104.749087
 20
324.535373
 40
2.800003
  1
６
 50
359.999819
 41
0.535719
  7
STANDARD
100
AcDbText
  0
LINE
  5
543
100
AcDbEntity
  8
M0
 62
     4
100
AcDbLine
 10
76.297826
 20
323.184856
 11
75.899022
 21
323.185101
  0
LINE
  5
544
100
AcDbEntity
  8
M0
 62
     4
100
AcDbLine
 10
88.797826
 20
323.184812
 11
88.399022
 21
323.185058
  0
LINE
  5
545
100
AcDbEntity
  8
M0
 62
     4
100
AcDbLine
 10
101.297795
 20
323.184769
 11
100.899022
 21
323.185014
  0
ARC
  5
546
100
AcDbEntity
  8
M0
 62
     4
100
AcDbCircle
 10
97.946533
 20
321.68478
 40
1.499994
100
AcDbArc
 50
111.509418
 51
129.239628
  0
LINE
  5
547
100
AcDbEntity
  8
M0
 62
     4
100
AcDbLine
 10
115.399435
 20
345.180276
 11
111.399435
 21
345.18029
  0
ARC
  5
548
100
AcDbEntity
  8
M0
 62
     4
100
AcDbCircle
 10
111.399431
 20
344.18029
 40
1.0
100
AcDbArc
 50
89.998926
 51
179.9998
  0
ARC
  5
549
100
AcDbEntity
  8
M0
 62
     4
100
AcDbCircle
 10
115.399431
 20
344.180276
 40
1.0
100
AcDbArc
 50
359.9998
 51
449.998926
  0
LINE
  5
54A
100
AcDbEntity
  8
M0
 62
     4
100
AcDbLine
 10
110.399446
 20
344.180288
 11
110.399443
 21
343.183417
  0
LINE
  5
54B
100
AcDbEntity
  8
M0
 62
     4
100
AcDbLine
 10
116.399446
 20
344.180273
 11
116.399443
 21
343.183417
  0
LINE
  5
54C
100
AcDbEntity
  8
M0
 62
     4
100
AcDbLine
 10
86.399114
 20
345.184988
 11
86.899114
 21
345.184987
  0
LINE
  5
54D
100
AcDbEntity
  8
M0
 62
     4
100
AcDbLine
 10
85.799153
 20
344.985038
 11
83.649113
 21
344.985075
  0
LINE
  5
54E
100
AcDbEntity
  8
M0
 62
     4
100
AcDbLine
 10
112.749042
 20
327.184698
 11
112.749012
 21
323.684942
  0
LINE
  5
54F
100
AcDbEntity
  8
M0
 62
     4
100
AcDbLine
 10
110.399039
 20
323.684935
 11
113.956853
 21
323.684946
  0
LINE
  5
550
100
AcDbEntity
  8
M0
 62
     4
100
AcDbLine
 10
110.39911
 20
339.684896
 11
112.749101
 21
339.684896
  0
LINE
  5
551
100
AcDbEntity
  8
M0
 62
     4
100
AcDbLine
 10
80.197765
 20
343.484769
 11
72.399078
 21
343.48482
  0
LINE
  5
552
100
AcDbEntity
  8
M0
 62
     4
100
AcDbLine
 10
79.794194
 20
342.185225
 11
77.899088
 21
342.18485
  0
LINE
  5
553
100
AcDbEntity
  8
M0
 62
     4
100
AcDbLine
 10
92.601401
 20
343.185016
 11
87.899092
 21
343.184767
  0
LINE
  5
554
100
AcDbEntity
  8
M0
 62
     4
100
AcDbLine
 10
92.268368
 20
342.185171
 11
90.399088
 21
342.184807
  0
LINE
  5
555
100
AcDbEntity
  8
M0
 62
     4
100
AcDbLine
 10
104.95988
 20
343.184899
 11
100.399107
 21
343.185028
  0
LINE
  5
556
100
AcDbEntity
  8
M0
 62
     4
100
AcDbLine
 10
104.610646
 20
342.184963
 11
102.899088
 21
342.184763
  0
LINE
  5
557
100
AcDbEntity
  8
M0
 62
     4
100
AcDbLine
 10
110.398985
 20
321.18492
 11
110.399031
 21
325.684981
  0
ARC
  5
558
100
AcDbEntity
  8
M0
 62
     4
100
AcDbCircle
 10
81.898985
 20
312.685081
 40
2.249995
100
AcDbArc
 50
335.590346
 51
359.9998
  0
ARC
  5
559
100
AcDbEntity
  8
M0
 62
     4
100
AcDbCircle
 10
106.898985
 20
312.684993
 40
2.249995
100
AcDbArc
 50
335.590346
 51
359.9998
  0
LINE
  5
55A
100
AcDbEntity
  8
M0
 62
     4
100
AcDbLine
 10
92.149092
 20
343.184992
 11
92.149095
 21
343.985036
  0
CIRCLE
  5
55B
100
AcDbEntity
  8
M0
 62
     7
100
AcDbCircle
 10
128.447863
 20
409.08514
 40
3.0
  0
LINE
  5
55C
100
AcDbEntity
  8
M0
 62
     7
100
AcDbLine
 10
130.038446
 20
407.494495
 11
126.856806
 21
410.676258
  0
LINE
  5
55D
100
AcDbEntity
  8
M0
 62
     7
100
AcDbLine
 10
129.861689
 20
409.438831
 11
128.09411
 21
407.671253
  0
LINE
  5
55E
100
AcDbEntity
  8
M0
 62
     7
100
AcDbLine
 10
128.801142
 20
410.4995
 11
127.033564
 21
408.7318
  0
LINE
  5
55F
100
AcDbEntity
  8
M0
 62
     7
100
AcDbLine
 10
131.772863
 20
412.91014
 11
125.122863
 21
412.91014
  0
ARC
  5
560
100
AcDbEntity
  8
M0
 62
     7
100
AcDbCircle
 10
131.772863
 20
412.41014
 40
0.5
100
AcDbArc
 50
0.0
 51
90.0
  0
LINE
  5
561
100
AcDbEntity
  8
M0
 62
     7
100
AcDbLine
 10
132.272863
 20
405.76014
 11
132.272863
 21
412.41014
  0
ARC
  5
562
100
AcDbEntity
  8
M0
 62
     7
100
AcDbCircle
 10
131.772863
 20
405.76014
 40
0.5
100
AcDbArc
 50
270.0
 51
360.0
  0
LINE
  5
563
100
AcDbEntity
  8
M0
 62
     7
100
AcDbLine
 10
125.122863
 20
405.26014
 11
131.772863
 21
405.26014
  0
LINE
  5
564
100
AcDbEntity
  8
M0
 62
     7
100
AcDbLine
 10
124.622863
 20
412.41014
 11
124.622863
 21
405.76014
  0
ARC
  5
565
100
AcDbEntity
  8
M0
 62
     7
100
AcDbCircle
 10
125.122863
 20
412.41014
 40
0.5
100
AcDbArc
 50
90.0
 51
180.0
  0
ARC
  5
566
100
AcDbEntity
  8
M0
 62
     7
100
AcDbCircle
 10
125.122863
 20
405.76014
 40
0.5
100
AcDbArc
 50
180.0
 51
270.0
  0
ARC
  5
567
100
AcDbEntity
  8
M0
 62
   154
100
AcDbCircle
 10
89.359677
 20
342.640836
 40
9.0
100
AcDbArc
 50
122.042201
 51
162.747898
  0
ARC
  5
568
100
AcDbEntity
  8
M0
 62
   154
100
AcDbCircle
 10
81.378033
 20
354.86973
 40
9.0
100
AcDbArc
 50
302.042201
 51
342.747898
  0
LINE
  5
569
100
AcDbEntity
  8
M0
 62
   154
100
AcDbLine
 10
92.014191
 20
358.773029
 11
89.973114
 21
352.20054
  0
LINE
  5
56A
100
AcDbEntity
  8
M0
 62
   154
100
AcDbLine
 10
84.584783
 20
350.269754
 11
86.060901
 21
351.193646
  0
LINE
  5
56B
100
AcDbEntity
  8
M0
 62
   154
100
AcDbLine
 10
84.676809
 20
346.316919
 11
86.152926
 21
347.240812
  0
LINE
  5
56C
100
AcDbEntity
  8
M0
 62
   154
100
AcDbLine
 10
78.723519
 20
338.737536
 11
80.764595
 21
345.310025
  0
ARC
  5
56D
100
AcDbEntity
  8
M0
 62
   154
100
AcDbCircle
 10
84.628432
 20
353.482322
 40
2.7
100
AcDbArc
 50
302.042201
 51
353.333467
  0
ARC
  5
56E
100
AcDbEntity
  8
M0
 62
   154
100
AcDbCircle
 10
86.109277
 20
344.028243
 40
2.7
100
AcDbArc
 50
122.042201
 51
173.333467
  0
ARC
  5
56F
100
AcDbEntity
  8
M0
 62
   154
100
AcDbCircle
 10
87.12462
 20
358.472477
 40
0.8
100
AcDbArc
 50
353.333467
 51
452.0
  0
LINE
  5
570
100
AcDbEntity
  8
M0
 62
   154
100
AcDbLine
 10
87.919211
 20
358.379605
 11
87.310177
 21
353.168877
  0
LINE
  5
571
100
AcDbEntity
  8
M0
 62
   154
100
AcDbLine
 10
82.818498
 20
339.13096
 11
83.427533
 21
344.341688
  0
LINE
  5
572
100
AcDbEntity
  8
M0
 62
   154
100
AcDbLine
 10
92.9343
 20
359.475844
 11
93.623901
 21
359.499925
  0
LINE
  5
573
100
AcDbEntity
  8
M0
 62
   154
100
AcDbLine
 10
87.096701
 20
359.27199
 11
86.728104
 21
359.259118
  0
ARC
  5
574
100
AcDbEntity
  8
M0
 62
   154
100
AcDbCircle
 10
92.9692
 20
358.476453
 40
1.0
100
AcDbArc
 50
92.0
 51
162.747898
  0
ARC
  5
575
100
AcDbEntity
  8
M0
 62
   154
100
AcDbCircle
 10
83.613089
 20
339.038088
 40
0.8
100
AcDbArc
 50
173.333467
 51
272.0
  0
LINE
  5
576
100
AcDbEntity
  8
M0
 62
   154
100
AcDbLine
 10
83.641009
 20
338.238575
 11
84.009605
 21
338.251447
  0
LINE
  5
577
100
AcDbEntity
  8
M0
 62
   154
100
AcDbLine
 10
77.803409
 20
338.034722
 11
77.113809
 21
338.01064
  0
ARC
  5
578
100
AcDbEntity
  8
M0
 62
   154
100
AcDbCircle
 10
77.76851
 20
339.034113
 40
1.0
100
AcDbArc
 50
272.0
 51
342.747898
  0
ARC
  5
579
100
AcDbEntity
  8
M0
 62
   154
100
AcDbCircle
 10
77.148708
 20
337.01125
 40
1.0
100
AcDbArc
 50
92.0
 51
182.0
  0
ARC
  5
57A
100
AcDbEntity
  8
M0
 62
   154
100
AcDbCircle
 10
93.589001
 20
360.499316
 40
1.0
100
AcDbArc
 50
272.0
 51
362.0
  0
LINE
  5
57B
100
AcDbEntity
  8
M0
 62
   154
100
AcDbLine
 10
94.337116
 20
367.729829
 11
94.588392
 21
360.534215
  0
LINE
  5
57C
100
AcDbEntity
  8
M0
 62
   154
100
AcDbLine
 10
85.942233
 20
367.436673
 11
86.210959
 21
359.741364
  0
LINE
  5
57D
100
AcDbEntity
  8
M0
 62
   154
100
AcDbLine
 10
86.906724
 20
368.470964
 11
93.302826
 21
368.694321
  0
ARC
  5
57E
100
AcDbEntity
  8
M0
 62
   154
100
AcDbCircle
 10
86.710654
 20
359.758814
 40
0.5
100
AcDbArc
 50
182.0
 51
272.0
  0
ARC
  5
57F
100
AcDbEntity
  8
M0
 62
   154
100
AcDbCircle
 10
84.027055
 20
337.751751
 40
0.5
100
AcDbArc
 50
2.0
 51
92.0
  0
LINE
  5
580
100
AcDbEntity
  8
M0
 62
   154
100
AcDbLine
 10
84.795477
 20
330.073892
 11
84.526751
 21
337.769201
  0
LINE
  5
581
100
AcDbEntity
  8
M0
 62
   154
100
AcDbLine
 10
76.400594
 20
329.780736
 11
76.149317
 21
336.97635
  0
ARC
  5
582
100
AcDbEntity
  8
M0
 62
   154
100
AcDbCircle
 10
77.399985
 20
329.815636
 40
1.0
100
AcDbArc
 50
182.0
 51
219.089724
  0
ARC
  5
583
100
AcDbEntity
  8
M0
 62
   154
100
AcDbCircle
 10
83.796086
 20
330.038992
 40
1.0
100
AcDbArc
 50
312.028533
 51
362.0
  0
ARC
  5
584
100
AcDbEntity
  8
M0
 62
   154
100
AcDbCircle
 10
86.941624
 20
367.471573
 40
1.0
100
AcDbArc
 50
92.0
 51
182.0
  0
ARC
  5
585
100
AcDbEntity
  8
M0
 62
   154
100
AcDbCircle
 10
93.337725
 20
367.69493
 40
1.0
100
AcDbArc
 50
2.0
 51
92.0
  0
CIRCLE
  5
586
100
AcDbEntity
  8
M0
 62
     7
100
AcDbCircle
 10
128.447863
 20
374.88514
 40
3.0
  0
LINE
  5
587
100
AcDbEntity
  8
M0
 62
     7
100
AcDbLine
 10
130.038446
 20
373.294495
 11
126.856806
 21
376.476258
  0
LINE
  5
588
100
AcDbEntity
  8
M0
 62
     7
100
AcDbLine
 10
129.861689
 20
375.238831
 11
128.09411
 21
373.471253
  0
LINE
  5
589
100
AcDbEntity
  8
M0
 62
     7
100
AcDbLine
 10
128.801142
 20
376.2995
 11
127.033564
 21
374.5318
  0
LINE
  5
58A
100
AcDbEntity
  8
M0
 62
     7
100
AcDbLine
 10
131.772863
 20
378.71014
 11
125.122863
 21
378.71014
  0
ARC
  5
58B
100
AcDbEntity
  8
M0
 62
     7
100
AcDbCircle
 10
131.772863
 20
378.21014
 40
0.5
100
AcDbArc
 50
0.0
 51
90.0
  0
LINE
  5
58C
100
AcDbEntity
  8
M0
 62
     7
100
AcDbLine
 10
132.272863
 20
371.56014
 11
132.272863
 21
378.21014
  0
ARC
  5
58D
100
AcDbEntity
  8
M0
 62
     7
100
AcDbCircle
 10
131.772863
 20
371.56014
 40
0.5
100
AcDbArc
 50
270.0
 51
360.0
  0
LINE
  5
58E
100
AcDbEntity
  8
M0
 62
     7
100
AcDbLine
 10
125.122863
 20
371.06014
 11
131.772863
 21
371.06014
  0
LINE
  5
58F
100
AcDbEntity
  8
M0
 62
     7
100
AcDbLine
 10
124.622863
 20
378.21014
 11
124.622863
 21
371.56014
  0
ARC
  5
590
100
AcDbEntity
  8
M0
 62
     7
100
AcDbCircle
 10
125.122863
 20
378.21014
 40
0.5
100
AcDbArc
 50
90.0
 51
180.0
  0
ARC
  5
591
100
AcDbEntity
  8
M0
 62
     7
100
AcDbCircle
 10
125.122863
 20
371.56014
 40
0.5
100
AcDbArc
 50
180.0
 51
270.0
  0
CIRCLE
  5
592
100
AcDbEntity
  8
M0
  6
DASHED
 62
     7
100
AcDbCircle
 10
78.047863
 20
374.88514
 40
3.0
  0
LINE
  5
593
100
AcDbEntity
  8
M0
  6
DASHED
 62
     7
100
AcDbLine
 10
79.638447
 20
373.294495
 11
76.456806
 21
376.476258
  0
LINE
  5
594
100
AcDbEntity
  8
M0
  6
DASHED
 62
     7
100
AcDbLine
 10
79.461689
 20
375.238831
 11
77.694111
 21
373.471253
  0
LINE
  5
595
100
AcDbEntity
  8
M0
  6
DASHED
 62
     7
100
AcDbLine
 10
78.401142
 20
376.2995
 11
76.633564
 21
374.5318
  0
LINE
  5
596
100
AcDbEntity
  8
M0
  6
DASHED
 62
     7
100
AcDbLine
 10
81.372863
 20
378.71014
 11
74.722863
 21
378.71014
  0
ARC
  5
597
100
AcDbEntity
  8
M0
  6
DASHED
 62
     7
100
AcDbCircle
 10
81.372863
 20
378.21014
 40
0.5
100
AcDbArc
 50
0.0
 51
90.0
  0
LINE
  5
598
100
AcDbEntity
  8
M0
  6
DASHED
 62
     7
100
AcDbLine
 10
81.872863
 20
371.56014
 11
81.872863
 21
378.21014
  0
ARC
  5
599
100
AcDbEntity
  8
M0
  6
DASHED
 62
     7
100
AcDbCircle
 10
81.372863
 20
371.56014
 40
0.5
100
AcDbArc
 50
270.0
 51
360.0
  0
LINE
  5
59A
100
AcDbEntity
  8
M0
  6
DASHED
 62
     7
100
AcDbLine
 10
74.722863
 20
371.06014
 11
81.372863
 21
371.06014
  0
LINE
  5
59B
100
AcDbEntity
  8
M0
  6
DASHED
 62
     7
100
AcDbLine
 10
74.222863
 20
378.21014
 11
74.222863
 21
371.56014
  0
ARC
  5
59C
100
AcDbEntity
  8
M0
  6
DASHED
 62
     7
100
AcDbCircle
 10
74.722863
 20
378.21014
 40
0.5
100
AcDbArc
 50
90.0
 51
180.0
  0
ARC
  5
59D
100
AcDbEntity
  8
M0
  6
DASHED
 62
     7
100
AcDbCircle
 10
74.722863
 20
371.56014
 40
0.5
100
AcDbArc
 50
180.0
 51
270.0
  0
CIRCLE
  5
59E
100
AcDbEntity
  8
M0
  6
DASHED
 62
     7
100
AcDbCircle
 10
78.047863
 20
401.48514
 40
3.0
  0
LINE
  5
59F
100
AcDbEntity
  8
M0
  6
DASHED
 62
     7
100
AcDbLine
 10
79.638447
 20
399.894495
 11
76.456806
 21
403.076258
  0
LINE
  5
5A0
100
AcDbEntity
  8
M0
  6
DASHED
 62
     7
100
AcDbLine
 10
79.461689
 20
401.838831
 11
77.694111
 21
400.071253
  0
LINE
  5
5A1
100
AcDbEntity
  8
M0
  6
DASHED
 62
     7
100
AcDbLine
 10
78.401142
 20
402.8995
 11
76.633564
 21
401.1318
  0
LINE
  5
5A2
100
AcDbEntity
  8
M0
  6
DASHED
 62
     7
100
AcDbLine
 10
81.372863
 20
405.31014
 11
74.722863
 21
405.31014
  0
ARC
  5
5A3
100
AcDbEntity
  8
M0
  6
DASHED
 62
     7
100
AcDbCircle
 10
81.372863
 20
404.81014
 40
0.5
100
AcDbArc
 50
0.0
 51
90.0
  0
LINE
  5
5A4
100
AcDbEntity
  8
M0
  6
DASHED
 62
     7
100
AcDbLine
 10
81.872863
 20
398.16014
 11
81.872863
 21
404.81014
  0
ARC
  5
5A5
100
AcDbEntity
  8
M0
  6
DASHED
 62
     7
100
AcDbCircle
 10
81.372863
 20
398.16014
 40
0.5
100
AcDbArc
 50
270.0
 51
360.0
  0
LINE
  5
5A6
100
AcDbEntity
  8
M0
  6
DASHED
 62
     7
100
AcDbLine
 10
74.722863
 20
397.66014
 11
81.372863
 21
397.66014
  0
LINE
  5
5A7
100
AcDbEntity
  8
M0
  6
DASHED
 62
     7
100
AcDbLine
 10
74.222863
 20
404.81014
 11
74.222863
 21
398.16014
  0
ARC
  5
5A8
100
AcDbEntity
  8
M0
  6
DASHED
 62
     7
100
AcDbCircle
 10
74.722863
 20
404.81014
 40
0.5
100
AcDbArc
 50
90.0
 51
180.0
  0
ARC
  5
5A9
100
AcDbEntity
  8
M0
  6
DASHED
 62
     7
100
AcDbCircle
 10
74.722863
 20
398.16014
 40
0.5
100
AcDbArc
 50
180.0
 51
270.0
  0
CIRCLE
  5
5AA
100
AcDbEntity
  8
M0
  6
DASHED
 62
     7
100
AcDbCircle
 10
78.047863
 20
367.28514
 40
3.0
  0
LINE
  5
5AB
100
AcDbEntity
  8
M0
  6
DASHED
 62
     7
100
AcDbLine
 10
79.638447
 20
365.694495
 11
76.456806
 21
368.876258
  0
LINE
  5
5AC
100
AcDbEntity
  8
M0
  6
DASHED
 62
     7
100
AcDbLine
 10
79.461689
 20
367.638831
 11
77.694111
 21
365.871253
  0
LINE
  5
5AD
100
AcDbEntity
  8
M0
  6
DASHED
 62
     7
100
AcDbLine
 10
78.401142
 20
368.6995
 11
76.633564
 21
366.9318
  0
LINE
  5
5AE
100
AcDbEntity
  8
M0
  6
DASHED
 62
     7
100
AcDbLine
 10
81.372863
 20
371.11014
 11
74.722863
 21
371.11014
  0
ARC
  5
5AF
100
AcDbEntity
  8
M0
  6
DASHED
 62
     7
100
AcDbCircle
 10
81.372863
 20
370.61014
 40
0.5
100
AcDbArc
 50
0.0
 51
90.0
  0
LINE
  5
5B0
100
AcDbEntity
  8
M0
  6
DASHED
 62
     7
100
AcDbLine
 10
81.872863
 20
363.96014
 11
81.872863
 21
370.61014
  0
ARC
  5
5B1
100
AcDbEntity
  8
M0
  6
DASHED
 62
     7
100
AcDbCircle
 10
81.372863
 20
363.96014
 40
0.5
100
AcDbArc
 50
270.0
 51
360.0
  0
LINE
  5
5B2
100
AcDbEntity
  8
M0
  6
DASHED
 62
     7
100
AcDbLine
 10
74.722863
 20
363.46014
 11
81.372863
 21
363.46014
  0
LINE
  5
5B3
100
AcDbEntity
  8
M0
  6
DASHED
 62
     7
100
AcDbLine
 10
74.222863
 20
370.61014
 11
74.222863
 21
363.96014
  0
ARC
  5
5B4
100
AcDbEntity
  8
M0
  6
DASHED
 62
     7
100
AcDbCircle
 10
74.722863
 20
370.61014
 40
0.5
100
AcDbArc
 50
90.0
 51
180.0
  0
ARC
  5
5B5
100
AcDbEntity
  8
M0
  6
DASHED
 62
     7
100
AcDbCircle
 10
74.722863
 20
363.96014
 40
0.5
100
AcDbArc
 50
180.0
 51
270.0
  0
LINE
  5
5B6
100
AcDbEntity
  8
M0
 62
     2
100
AcDbLine
 10
91.937017
 20
335.145986
 11
93.781866
 21
333.301152
  0
LINE
  5
5B7
100
AcDbEntity
  8
M0
 62
     2
100
AcDbLine
 10
93.908742
 20
335.903096
 11
91.333669
 21
333.328023
  0
LINE
  5
5B8
100
AcDbEntity
  8
M0
 62
     2
100
AcDbLine
 10
94.61585
 20
335.195989
 11
92.040777
 21
332.620916
  0
CIRCLE
  5
5B9
100
AcDbEntity
  8
M0
 62
     2
100
AcDbCircle
 10
92.897893
 20
334.18514
 40
3.499993
  0
LINE
  5
5BA
100
AcDbEntity
  8
M0
  6
DASHDOT
 62
     2
100
AcDbLine
 10
92.397893
 20
334.18514
 11
93.397893
 21
334.18514
  0
LINE
  5
5BB
100
AcDbEntity
  8
M0
  6
DASHDOT
 62
     2
100
AcDbLine
 10
92.897893
 20
333.68514
 11
92.897893
 21
334.68514
  0
CIRCLE
  5
5BC
100
AcDbEntity
  8
M0
 62
     7
100
AcDbCircle
 10
103.247863
 20
426.38514
 40
2.75
  0
LINE
  5
5BD
100
AcDbEntity
  8
M0
 62
     7
100
AcDbLine
 10
102.947863
 20
424.98514
 11
102.947863
 21
425.3815
  0
LINE
  5
5BE
100
AcDbEntity
  8
M0
 62
     7
100
AcDbLine
 10
103.547863
 20
424.98514
 11
103.547863
 21
425.3815
  0
LINE
  5
5BF
100
AcDbEntity
  8
M0
 62
     7
100
AcDbLine
 10
102.947863
 20
427.78514
 11
102.947863
 21
427.388779
  0
LINE
  5
5C0
100
AcDbEntity
  8
M0
 62
     7
100
AcDbLine
 10
103.547863
 20
427.78514
 11
103.547863
 21
427.388779
  0
ARC
  5
5C1
100
AcDbEntity
  8
M0
 62
     7
100
AcDbCircle
 10
102.222863
 20
425.36014
 40
0.725
100
AcDbArc
 50
0.0
 51
90.0
  0
ARC
  5
5C2
100
AcDbEntity
  8
M0
 62
     7
100
AcDbCircle
 10
102.222863
 20
427.41014
 40
0.725
100
AcDbArc
 50
-90.0
 51
0.0
  0
ARC
  5
5C3
100
AcDbEntity
  8
M0
 62
     7
100
AcDbCircle
 10
104.272863
 20
427.41014
 40
0.725
100
AcDbArc
 50
180.0
 51
270.0
  0
ARC
  5
5C4
100
AcDbEntity
  8
M0
 62
     7
100
AcDbCircle
 10
104.272863
 20
425.36014
 40
0.725
100
AcDbArc
 50
90.0
 51
180.0
  0
LINE
  5
5C5
100
AcDbEntity
  8
M0
 62
     7
100
AcDbLine
 10
104.272863
 20
426.08514
 11
104.672863
 21
426.08514
  0
LINE
  5
5C6
100
AcDbEntity
  8
M0
 62
     7
100
AcDbLine
 10
104.272863
 20
426.68514
 11
104.672863
 21
426.68514
  0
LINE
  5
5C7
100
AcDbEntity
  8
M0
 62
     7
100
AcDbLine
 10
102.947863
 20
427.78514
 11
103.547863
 21
427.78514
  0
LINE
  5
5C8
100
AcDbEntity
  8
M0
 62
     7
100
AcDbLine
 10
102.947863
 20
424.98514
 11
103.547863
 21
424.98514
  0
LINE
  5
5C9
100
AcDbEntity
  8
M0
 62
     7
100
AcDbLine
 10
101.847863
 20
426.68514
 11
102.222863
 21
426.68514
  0
LINE
  5
5CA
100
AcDbEntity
  8
M0
 62
     7
100
AcDbLine
 10
101.847863
 20
426.68514
 11
101.847863
 21
426.08514
  0
LINE
  5
5CB
100
AcDbEntity
  8
M0
 62
     7
100
AcDbLine
 10
101.847863
 20
426.08514
 11
102.222863
 21
426.08514
  0
LINE
  5
5CC
100
AcDbEntity
  8
M0
 62
     7
100
AcDbLine
 10
104.672863
 20
426.68514
 11
104.672863
 21
426.08514
  0
LINE
  5
5CD
100
AcDbEntity
  8
M0
  6
DIVIDE
 62
     7
100
AcDbLine
 10
338.544126
 20
374.685139
 11
338.544126
 21
370.685139
  0
LINE
  5
5CE
100
AcDbEntity
  8
M0
  6
DIVIDE
 62
     7
100
AcDbLine
 10
337.544126
 20
370.685139
 11
338.544126
 21
370.685139
  0
LINE
  5
5CF
100
AcDbEntity
  8
M0
  6
DIVIDE
 62
     7
100
AcDbLine
 10
344.044126
 20
375.685139
 11
337.544126
 21
375.685139
  0
LINE
  5
5D0
100
AcDbEntity
  8
M0
  6
DIVIDE
 62
     7
100
AcDbLine
 10
345.044126
 20
374.685139
 11
338.544126
 21
374.685139
  0
LINE
  5
5D1
100
AcDbEntity
  8
M0
  6
DIVIDE
 62
     7
100
AcDbLine
 10
345.044126
 20
374.685139
 11
345.044126
 21
401.685139
  0
LINE
  5
5D2
100
AcDbEntity
  8
M0
  6
DIVIDE
 62
     7
100
AcDbLine
 10
344.044126
 20
400.685139
 11
344.044126
 21
375.685139
  0
LINE
  5
5D3
100
AcDbEntity
  8
M0
  6
DIVIDE
 62
     7
100
AcDbLine
 10
344.044126
 20
400.685139
 11
337.544126
 21
400.685139
  0
LINE
  5
5D4
100
AcDbEntity
  8
M0
  6
DIVIDE
 62
     7
100
AcDbLine
 10
345.044126
 20
401.685139
 11
338.544126
 21
401.685139
  0
LINE
  5
5D5
100
AcDbEntity
  8
M0
  6
DIVIDE
 62
     7
100
AcDbLine
 10
338.544126
 20
405.685139
 11
338.544126
 21
401.685139
  0
LINE
  5
5D6
100
AcDbEntity
  8
M0
  6
DIVIDE
 62
     7
100
AcDbLine
 10
338.544126
 20
405.685139
 11
337.544126
 21
405.685139
  0
CIRCLE
  5
5D7
100
AcDbEntity
  8
M0
 62
     7
100
AcDbCircle
 10
128.447863
 20
401.48514
 40
3.0
  0
LINE
  5
5D8
100
AcDbEntity
  8
M0
 62
     7
100
AcDbLine
 10
130.038446
 20
399.894495
 11
126.856806
 21
403.076258
  0
LINE
  5
5D9
100
AcDbEntity
  8
M0
 62
     7
100
AcDbLine
 10
129.861689
 20
401.838831
 11
128.09411
 21
400.071253
  0
LINE
  5
5DA
100
AcDbEntity
  8
M0
 62
     7
100
AcDbLine
 10
128.801142
 20
402.8995
 11
127.033564
 21
401.1318
  0
LINE
  5
5DB
100
AcDbEntity
  8
M0
 62
     7
100
AcDbLine
 10
131.772863
 20
405.31014
 11
125.122863
 21
405.31014
  0
ARC
  5
5DC
100
AcDbEntity
  8
M0
 62
     7
100
AcDbCircle
 10
131.772863
 20
404.81014
 40
0.5
100
AcDbArc
 50
0.0
 51
90.0
  0
LINE
  5
5DD
100
AcDbEntity
  8
M0
 62
     7
100
AcDbLine
 10
132.272863
 20
398.16014
 11
132.272863
 21
404.81014
  0
ARC
  5
5DE
100
AcDbEntity
  8
M0
 62
     7
100
AcDbCircle
 10
131.772863
 20
398.16014
 40
0.5
100
AcDbArc
 50
270.0
 51
360.0
  0
LINE
  5
5DF
100
AcDbEntity
  8
M0
 62
     7
100
AcDbLine
 10
125.122863
 20
397.66014
 11
131.772863
 21
397.66014
  0
LINE
  5
5E0
100
AcDbEntity
  8
M0
 62
     7
100
AcDbLine
 10
124.622863
 20
404.81014
 11
124.622863
 21
398.16014
  0
ARC
  5
5E1
100
AcDbEntity
  8
M0
 62
     7
100
AcDbCircle
 10
125.122863
 20
404.81014
 40
0.5
100
AcDbArc
 50
90.0
 51
180.0
  0
ARC
  5
5E2
100
AcDbEntity
  8
M0
 62
     7
100
AcDbCircle
 10
125.122863
 20
398.16014
 40
0.5
100
AcDbArc
 50
180.0
 51
270.0
  0
ARC
  5
5E3
100
AcDbEntity
  8
M0
 62
     7
100
AcDbCircle
 10
94.747863
 20
407.38514
 40
0.5
100
AcDbArc
 50
270.0
 51
360.0
  0
LINE
  5
5E4
100
AcDbEntity
  8
M0
 62
     7
100
AcDbLine
 10
95.247863
 20
416.38514
 11
95.247863
 21
407.38514
  0
ARC
  5
5E5
100
AcDbEntity
  8
M0
 62
     7
100
AcDbCircle
 10
94.747863
 20
416.38514
 40
0.5
100
AcDbArc
 50
0.0
 51
90.0
  0
LINE
  5
5E6
100
AcDbEntity
  8
M0
 62
     7
100
AcDbLine
 10
85.247863
 20
416.38514
 11
85.247863
 21
407.38514
  0
ARC
  5
5E7
100
AcDbEntity
  8
M0
 62
     7
100
AcDbCircle
 10
85.747863
 20
416.38514
 40
0.5
100
AcDbArc
 50
90.0
 51
180.0
  0
ARC
  5
5E8
100
AcDbEntity
  8
M0
 62
     7
100
AcDbCircle
 10
85.747863
 20
407.38514
 40
0.5
100
AcDbArc
 50
180.0
 51
270.0
  0
LINE
  5
5E9
100
AcDbEntity
  8
M0
 62
     7
100
AcDbLine
 10
85.747863
 20
406.88514
 11
94.747863
 21
406.88514
  0
LINE
  5
5EA
100
AcDbEntity
  8
M0
 62
     7
100
AcDbLine
 10
94.747863
 20
416.88514
 11
85.747863
 21
416.88514
  0
CIRCLE
  5
5EB
100
AcDbEntity
  8
M0
 62
     7
100
AcDbCircle
 10
90.247863
 20
411.88514
 40
3.5
  0
LINE
  5
5EC
100
AcDbEntity
  8
M0
 62
     7
100
AcDbLine
 10
91.258734
 20
413.603097
 11
88.683661
 21
411.028023
  0
LINE
  5
5ED
100
AcDbEntity
  8
M0
 62
     7
100
AcDbLine
 10
91.965842
 20
412.895989
 11
89.390769
 21
410.320916
  0
LINE
  5
5EE
100
AcDbEntity
  8
M0
 62
     7
100
AcDbLine
 10
89.287009
 20
412.845986
 11
91.131858
 21
411.001153
  0
ARC
  5
5EF
100
AcDbEntity
  8
M0
 62
     7
100
AcDbCircle
 10
107.747859
 20
407.38514
 40
0.5
100
AcDbArc
 50
270.0
 51
360.0
  0
LINE
  5
5F0
100
AcDbEntity
  8
M0
 62
     7
100
AcDbLine
 10
108.247859
 20
416.38514
 11
108.247859
 21
407.38514
  0
ARC
  5
5F1
100
AcDbEntity
  8
M0
 62
     7
100
AcDbCircle
 10
107.747859
 20
416.38514
 40
0.5
100
AcDbArc
 50
0.0
 51
90.0
  0
LINE
  5
5F2
100
AcDbEntity
  8
M0
 62
     7
100
AcDbLine
 10
98.247859
 20
416.38514
 11
98.247859
 21
407.38514
  0
ARC
  5
5F3
100
AcDbEntity
  8
M0
 62
     7
100
AcDbCircle
 10
98.747859
 20
416.38514
 40
0.5
100
AcDbArc
 50
90.0
 51
180.0
  0
ARC
  5
5F4
100
AcDbEntity
  8
M0
 62
     7
100
AcDbCircle
 10
98.747859
 20
407.38514
 40
0.5
100
AcDbArc
 50
180.0
 51
270.0
  0
LINE
  5
5F5
100
AcDbEntity
  8
M0
 62
     7
100
AcDbLine
 10
98.747859
 20
406.88514
 11
107.747859
 21
406.88514
  0
LINE
  5
5F6
100
AcDbEntity
  8
M0
 62
     7
100
AcDbLine
 10
107.747859
 20
416.88514
 11
98.747859
 21
416.88514
  0
CIRCLE
  5
5F7
100
AcDbEntity
  8
M0
 62
     7
100
AcDbCircle
 10
103.247859
 20
411.88514
 40
3.5
  0
LINE
  5
5F8
100
AcDbEntity
  8
M0
 62
     7
100
AcDbLine
 10
104.258731
 20
413.603097
 11
101.683658
 21
411.028023
  0
LINE
  5
5F9
100
AcDbEntity
  8
M0
 62
     7
100
AcDbLine
 10
104.965839
 20
412.895989
 11
102.390765
 21
410.320916
  0
LINE
  5
5FA
100
AcDbEntity
  8
M0
 62
     7
100
AcDbLine
 10
102.287006
 20
412.845986
 11
104.131854
 21
411.001153
  0
ARC
  5
5FB
100
AcDbEntity
  8
M0
 62
     7
100
AcDbCircle
 10
120.74786
 20
407.38514
 40
0.5
100
AcDbArc
 50
270.0
 51
360.0
  0
LINE
  5
5FC
100
AcDbEntity
  8
M0
 62
     7
100
AcDbLine
 10
121.24786
 20
416.38514
 11
121.24786
 21
407.38514
  0
ARC
  5
5FD
100
AcDbEntity
  8
M0
 62
     7
100
AcDbCircle
 10
120.74786
 20
416.38514
 40
0.5
100
AcDbArc
 50
0.0
 51
90.0
  0
LINE
  5
5FE
100
AcDbEntity
  8
M0
 62
     7
100
AcDbLine
 10
111.24786
 20
416.38514
 11
111.24786
 21
407.38514
  0
ARC
  5
5FF
100
AcDbEntity
  8
M0
 62
     7
100
AcDbCircle
 10
111.74786
 20
416.38514
 40
0.5
100
AcDbArc
 50
90.0
 51
180.0
  0
ARC
  5
600
100
AcDbEntity
  8
M0
 62
     7
100
AcDbCircle
 10
111.74786
 20
407.38514
 40
0.5
100
AcDbArc
 50
180.0
 51
270.0
  0
LINE
  5
601
100
AcDbEntity
  8
M0
 62
     7
100
AcDbLine
 10
111.74786
 20
406.88514
 11
120.74786
 21
406.88514
  0
LINE
  5
602
100
AcDbEntity
  8
M0
 62
     7
100
AcDbLine
 10
120.74786
 20
416.88514
 11
111.74786
 21
416.88514
  0
CIRCLE
  5
603
100
AcDbEntity
  8
M0
 62
     7
100
AcDbCircle
 10
116.24786
 20
411.88514
 40
3.5
  0
LINE
  5
604
100
AcDbEntity
  8
M0
 62
     7
100
AcDbLine
 10
117.258731
 20
413.603097
 11
114.683658
 21
411.028023
  0
LINE
  5
605
100
AcDbEntity
  8
M0
 62
     7
100
AcDbLine
 10
117.965839
 20
412.895989
 11
115.390766
 21
410.320916
  0
LINE
  5
606
100
AcDbEntity
  8
M0
 62
     7
100
AcDbLine
 10
115.287006
 20
412.845986
 11
117.131854
 21
411.001153
  0
CIRCLE
  5
607
100
AcDbEntity
  8
M0
 62
     7
100
AcDbCircle
 10
116.24786
 20
364.48514
 40
3.5
  0
LINE
  5
608
100
AcDbEntity
  8
M0
 62
     7
100
AcDbLine
 10
117.258731
 20
366.203096
 11
114.683658
 21
363.628023
  0
LINE
  5
609
100
AcDbEntity
  8
M0
 62
     7
100
AcDbLine
 10
117.965839
 20
365.495989
 11
115.390766
 21
362.920916
  0
LINE
  5
60A
100
AcDbEntity
  8
M0
 62
     7
100
AcDbLine
 10
115.287006
 20
365.445986
 11
117.131854
 21
363.601152
  0
CIRCLE
  5
60B
100
AcDbEntity
  8
M0
 62
     7
100
AcDbCircle
 10
103.247859
 20
364.48514
 40
3.5
  0
LINE
  5
60C
100
AcDbEntity
  8
M0
 62
     7
100
AcDbLine
 10
104.258731
 20
366.203096
 11
101.683658
 21
363.628023
  0
LINE
  5
60D
100
AcDbEntity
  8
M0
 62
     7
100
AcDbLine
 10
104.965839
 20
365.495989
 11
102.390765
 21
362.920916
  0
LINE
  5
60E
100
AcDbEntity
  8
M0
 62
     7
100
AcDbLine
 10
102.287006
 20
365.445986
 11
104.131854
 21
363.601152
  0
CIRCLE
  5
60F
100
AcDbEntity
  8
M0
 62
     7
100
AcDbCircle
 10
90.247863
 20
364.48514
 40
3.5
  0
LINE
  5
610
100
AcDbEntity
  8
M0
 62
     7
100
AcDbLine
 10
91.258734
 20
366.203096
 11
88.683661
 21
363.628023
  0
LINE
  5
611
100
AcDbEntity
  8
M0
 62
     7
100
AcDbLine
 10
91.965842
 20
365.495989
 11
89.390769
 21
362.920916
  0
LINE
  5
612
100
AcDbEntity
  8
M0
 62
     7
100
AcDbLine
 10
89.287009
 20
365.445986
 11
91.131858
 21
363.601152
  0
LINE
  5
613
100
AcDbEntity
  8
M0
 62
     2
100
AcDbLine
 10
104.437002
 20
320.645986
 11
106.28185
 21
318.801152
  0
LINE
  5
614
100
AcDbEntity
  8
M0
 62
     2
100
AcDbLine
 10
106.408727
 20
321.403096
 11
103.833654
 21
318.828023
  0
LINE
  5
615
100
AcDbEntity
  8
M0
 62
     2
100
AcDbLine
 10
107.115835
 20
320.695989
 11
104.540761
 21
318.120916
  0
LINE
  5
616
100
AcDbEntity
  8
M0
 62
     2
100
AcDbLine
 10
102.297872
 20
314.885137
 11
108.497869
 21
314.885137
  0
LINE
  5
617
100
AcDbEntity
  8
M0
 62
     2
100
AcDbLine
 10
109.497869
 20
315.885121
 11
109.497869
 21
323.485097
  0
LINE
  5
618
100
AcDbEntity
  8
M0
 62
     2
100
AcDbLine
 10
101.297872
 20
323.485112
 11
101.297872
 21
315.885137
  0
CIRCLE
  5
619
100
AcDbEntity
  8
M0
 62
     2
100
AcDbCircle
 10
105.397878
 20
319.68514
 40
3.499993
  0
ARC
  5
61A
100
AcDbEntity
  8
M0
 62
     2
100
AcDbCircle
 10
108.497869
 20
315.885137
 40
1.0
100
AcDbArc
 50
270.0
 51
360.0
  0
ARC
  5
61B
100
AcDbEntity
  8
M0
 62
     2
100
AcDbCircle
 10
108.497869
 20
323.484944
 40
1.0
100
AcDbArc
 50
0.0
 51
90.0
  0
ARC
  5
61C
100
AcDbEntity
  8
M0
 62
     2
100
AcDbCircle
 10
102.297872
 20
323.484944
 40
1.0
100
AcDbArc
 50
90.0
 51
180.0
  0
ARC
  5
61D
100
AcDbEntity
  8
M0
 62
     2
100
AcDbCircle
 10
102.297872
 20
315.885137
 40
1.0
100
AcDbArc
 50
179.999945
 51
270.0
  0
LINE
  5
61E
100
AcDbEntity
  8
M0
 62
     2
100
AcDbLine
 10
102.297872
 20
324.485128
 11
108.497869
 21
324.485128
  0
LINE
  5
61F
100
AcDbEntity
  8
M0
  6
DASHDOT
 62
     2
100
AcDbLine
 10
104.897878
 20
319.68514
 11
105.897878
 21
319.68514
  0
LINE
  5
620
100
AcDbEntity
  8
M0
  6
DASHDOT
 62
     2
100
AcDbLine
 10
105.397878
 20
319.18514
 11
105.397878
 21
320.18514
  0
ARC
  5
621
100
AcDbEntity
  8
M0
 62
     6
100
AcDbCircle
 10
127.899099
 20
309.684896
 40
2.999997
100
AcDbArc
 50
115.844051
 51
424.156194
  0
LINE
  5
622
100
AcDbEntity
  8
M0
 62
     6
100
AcDbLine
 10
124.80161
 20
313.182698
 11
124.123952
 21
310.984944
  0
LINE
  5
623
100
AcDbEntity
  8
M0
 62
     6
100
AcDbLine
 10
124.940114
 20
305.737645
 11
124.123952
 21
308.384969
  0
LINE
  5
624
100
AcDbEntity
  8
M0
 62
     6
100
AcDbLine
 10
130.994924
 20
313.186849
 11
131.674001
 21
310.984944
  0
LINE
  5
625
100
AcDbEntity
  8
M0
 62
     6
100
AcDbLine
 10
130.857595
 20
305.73763
 11
131.674001
 21
308.384969
  0
LINE
  5
626
100
AcDbEntity
  8
M0
 62
     6
100
AcDbLine
 10
125.418142
 20
305.384969
 11
130.379812
 21
305.384969
  0
LINE
  5
627
100
AcDbEntity
  8
M0
 62
     6
100
AcDbLine
 10
131.674001
 20
308.384969
 11
131.674001
 21
310.984944
  0
LINE
  5
628
100
AcDbEntity
  8
M0
 62
     6
100
AcDbLine
 10
124.123952
 20
310.984944
 11
124.123952
 21
308.384969
  0
LINE
  5
629
100
AcDbEntity
  8
M0
 62
     6
100
AcDbLine
 10
129.489675
 20
308.094075
 11
126.308034
 21
311.275838
  0
LINE
  5
62A
100
AcDbEntity
  8
M0
 62
     6
100
AcDbLine
 10
128.25237
 20
311.09908
 11
126.484792
 21
309.33138
  0
LINE
  5
62B
100
AcDbEntity
  8
M0
 62
     6
100
AcDbLine
 10
129.312917
 20
310.038411
 11
127.545339
 21
308.270833
  0
ARC
  5
62C
100
AcDbEntity
  8
M0
 62
     6
100
AcDbCircle
 10
125.418142
 20
305.884969
 40
0.5
100
AcDbArc
 50
197.128737
 51
270.0
  0
ARC
  5
62D
100
AcDbEntity
  8
M0
 62
     6
100
AcDbCircle
 10
130.379812
 20
305.884969
 40
0.5
100
AcDbArc
 50
270.0
 51
342.861308
  0
LINE
  5
62E
100
AcDbEntity
  8
M0
  6
DASHDOT
 62
     6
100
AcDbLine
 10
127.399099
 20
309.684896
 11
128.399099
 21
309.684896
  0
LINE
  5
62F
100
AcDbEntity
  8
M0
  6
DASHDOT
 62
     6
100
AcDbLine
 10
127.899099
 20
309.184896
 11
127.899099
 21
310.184896
  0
LINE
  5
630
100
AcDbEntity
  8
M0
 62
     2
100
AcDbLine
 10
104.436986
 20
335.145986
 11
106.281835
 21
333.301152
  0
LINE
  5
631
100
AcDbEntity
  8
M0
 62
     2
100
AcDbLine
 10
106.408712
 20
335.903096
 11
103.833639
 21
333.328023
  0
LINE
  5
632
100
AcDbEntity
  8
M0
 62
     2
100
AcDbLine
 10
107.115819
 20
335.195989
 11
104.540746
 21
332.620916
  0
CIRCLE
  5
633
100
AcDbEntity
  8
M0
 62
     2
100
AcDbCircle
 10
105.397863
 20
334.18514
 40
3.499993
  0
LINE
  5
634
100
AcDbEntity
  8
M0
  6
DASHDOT
 62
     2
100
AcDbLine
 10
104.897863
 20
334.18514
 11
105.897863
 21
334.18514
  0
LINE
  5
635
100
AcDbEntity
  8
M0
  6
DASHDOT
 62
     2
100
AcDbLine
 10
105.397863
 20
333.68514
 11
105.397863
 21
334.68514
  0
LINE
  5
636
100
AcDbEntity
  8
M0
  6
DASHDOT
 62
     4
100
AcDbLine
 10
113.057348
 20
314.68514
 11
101.738485
 21
314.68514
  0
LINE
  5
637
100
AcDbEntity
  8
M0
 62
     2
100
AcDbLine
 10
91.937032
 20
320.645986
 11
93.781881
 21
318.801152
  0
LINE
  5
638
100
AcDbEntity
  8
M0
 62
     2
100
AcDbLine
 10
93.908758
 20
321.403096
 11
91.333684
 21
318.828023
  0
LINE
  5
639
100
AcDbEntity
  8
M0
 62
     2
100
AcDbLine
 10
94.615865
 20
320.695989
 11
92.040792
 21
318.120916
  0
LINE
  5
63A
100
AcDbEntity
  8
M0
 62
     2
100
AcDbLine
 10
89.797903
 20
314.885137
 11
95.997899
 21
314.885137
  0
LINE
  5
63B
100
AcDbEntity
  8
M0
 62
     2
100
AcDbLine
 10
96.997899
 20
315.885121
 11
96.997899
 21
323.485097
  0
LINE
  5
63C
100
AcDbEntity
  8
M0
 62
     2
100
AcDbLine
 10
88.797903
 20
323.485112
 11
88.797903
 21
315.885137
  0
CIRCLE
  5
63D
100
AcDbEntity
  8
M0
 62
     2
100
AcDbCircle
 10
92.897909
 20
319.68514
 40
3.499993
  0
ARC
  5
63E
100
AcDbEntity
  8
M0
 62
     2
100
AcDbCircle
 10
95.997899
 20
315.885137
 40
1.0
100
AcDbArc
 50
270.0
 51
360.0
  0
ARC
  5
63F
100
AcDbEntity
  8
M0
 62
     2
100
AcDbCircle
 10
95.997899
 20
323.484944
 40
1.0
100
AcDbArc
 50
0.0
 51
90.0
  0
ARC
  5
640
100
AcDbEntity
  8
M0
 62
     2
100
AcDbCircle
 10
89.797903
 20
323.484944
 40
1.0
100
AcDbArc
 50
90.0
 51
180.0
  0
ARC
  5
641
100
AcDbEntity
  8
M0
 62
     2
100
AcDbCircle
 10
89.797903
 20
315.885137
 40
1.0
100
AcDbArc
 50
179.999945
 51
270.0
  0
LINE
  5
642
100
AcDbEntity
  8
M0
 62
     2
100
AcDbLine
 10
89.797903
 20
324.485128
 11
95.997899
 21
324.485128
  0
LINE
  5
643
100
AcDbEntity
  8
M0
 62
     2
100
AcDbLine
 10
77.297917
 20
314.885137
 11
83.497914
 21
314.885137
  0
LINE
  5
644
100
AcDbEntity
  8
M0
  6
DASHDOT
 62
     2
100
AcDbLine
 10
92.397909
 20
319.68514
 11
93.397909
 21
319.68514
  0
LINE
  5
645
100
AcDbEntity
  8
M0
  6
DASHDOT
 62
     2
100
AcDbLine
 10
92.897909
 20
319.18514
 11
92.897909
 21
320.18514
  0
LINE
  5
646
100
AcDbEntity
  8
M0
 62
     2
100
AcDbLine
 10
79.437032
 20
335.145986
 11
81.281881
 21
333.301152
  0
LINE
  5
647
100
AcDbEntity
  8
M0
 62
     2
100
AcDbLine
 10
81.408758
 20
335.903096
 11
78.833684
 21
333.328023
  0
LINE
  5
648
100
AcDbEntity
  8
M0
 62
     2
100
AcDbLine
 10
82.115865
 20
335.195989
 11
79.540792
 21
332.620916
  0
CIRCLE
  5
649
100
AcDbEntity
  8
M0
 62
     2
100
AcDbCircle
 10
80.397909
 20
334.18514
 40
3.499993
  0
LINE
  5
64A
100
AcDbEntity
  8
M0
  6
DASHDOT
 62
     2
100
AcDbLine
 10
79.897909
 20
334.18514
 11
80.897909
 21
334.18514
  0
LINE
  5
64B
100
AcDbEntity
  8
M0
  6
DASHDOT
 62
     2
100
AcDbLine
 10
80.397909
 20
333.68514
 11
80.397909
 21
334.68514
  0
ARC
  5
64C
100
AcDbEntity
  8
M0
 62
     7
100
AcDbCircle
 10
91.272863
 20
356.71014
 40
0.725
100
AcDbArc
 50
256.677021
 51
270.0
  0
ARC
  5
64D
100
AcDbEntity
  8
M0
 62
     7
100
AcDbCircle
 10
91.272863
 20
354.66014
 40
0.725
100
AcDbArc
 50
90.0
 51
123.683498
  0
LINE
  5
64E
100
AcDbEntity
  8
M0
 62
     7
100
AcDbLine
 10
91.272863
 20
355.38514
 11
91.672863
 21
355.38514
  0
LINE
  5
64F
100
AcDbEntity
  8
M0
 62
     7
100
AcDbLine
 10
91.272863
 20
355.98514
 11
91.672863
 21
355.98514
  0
LINE
  5
650
100
AcDbEntity
  8
M0
 62
     7
100
AcDbLine
 10
91.672863
 20
355.98514
 11
91.672863
 21
355.38514
  0
ARC
  5
651
100
AcDbEntity
  8
M0
 62
     7
100
AcDbCircle
 10
90.247863
 20
355.68514
 40
2.75
100
AcDbArc
 50
269.031179
 51
417.203183
  0
HATCH
  5
652
100
AcDbEntity
  8
M0
 62
     7
100
AcDbHatch
 10
0.0
 20
0.0
210
0.0
220
0.0
230
1.0
  2
SOLID
 70
     1
 71
     0
 91
        1
 92
        1
 93
        4
 72
     1
 10
223.644126
 20
436.605262
 11
221.644126
 21
436.605262
 72
     1
 10
221.644126
 20
436.605262
 11
221.644126
 21
418.405262
 72
     1
 10
221.644126
 20
418.405262
 11
223.644126
 21
418.405262
 72
     1
 10
223.644126
 20
418.405262
 11
223.644126
 21
436.605262
 97
        0
 75
     0
 76
     1
 98
        1
 10
0.0
 20
0.0
  0
LINE
  5
655
100
AcDbEntity
  8
M0
100
AcDbLine
 10
123.247976
 20
338.53514
 11
127.247976
 21
338.53514
  0
LINE
  5
656
100
AcDbEntity
  8
M0
100
AcDbLine
 10
127.247976
 20
338.53514
 11
127.247976
 21
341.335139
  0
LINE
  5
657
100
AcDbEntity
  8
M0
100
AcDbLine
 10
127.247976
 20
341.335139
 11
123.247976
 21
341.335139
  0
LINE
  5
658
100
AcDbEntity
  8
M0
100
AcDbLine
 10
123.247976
 20
341.335139
 11
123.247976
 21
338.53514
  0
CIRCLE
  5
659
100
AcDbEntity
  8
M0
  6
DASHED
 62
     7
100
AcDbCircle
 10
78.047863
 20
409.08514
 40
3.0
  0
LINE
  5
65A
100
AcDbEntity
  8
M0
  6
DASHED
 62
     7
100
AcDbLine
 10
79.638447
 20
407.494495
 11
76.456806
 21
410.676258
  0
LINE
  5
65B
100
AcDbEntity
  8
M0
  6
DASHED
 62
     7
100
AcDbLine
 10
79.461689
 20
409.438831
 11
77.694111
 21
407.671253
  0
LINE
  5
65C
100
AcDbEntity
  8
M0
  6
DASHED
 62
     7
100
AcDbLine
 10
78.401142
 20
410.4995
 11
76.633564
 21
408.7318
  0
LINE
  5
65D
100
AcDbEntity
  8
M0
  6
DASHED
 62
     7
100
AcDbLine
 10
81.372863
 20
412.91014
 11
74.722863
 21
412.91014
  0
ARC
  5
65E
100
AcDbEntity
  8
M0
  6
DASHED
 62
     7
100
AcDbCircle
 10
81.372863
 20
412.41014
 40
0.5
100
AcDbArc
 50
0.0
 51
90.0
  0
LINE
  5
65F
100
AcDbEntity
  8
M0
  6
DASHED
 62
     7
100
AcDbLine
 10
81.872863
 20
405.76014
 11
81.872863
 21
412.41014
  0
ARC
  5
660
100
AcDbEntity
  8
M0
  6
DASHED
 62
     7
100
AcDbCircle
 10
81.372863
 20
405.76014
 40
0.5
100
AcDbArc
 50
270.0
 51
360.0
  0
LINE
  5
661
100
AcDbEntity
  8
M0
  6
DASHED
 62
     7
100
AcDbLine
 10
74.722863
 20
405.26014
 11
81.372863
 21
405.26014
  0
LINE
  5
662
100
AcDbEntity
  8
M0
  6
DASHED
 62
     7
100
AcDbLine
 10
74.222863
 20
412.41014
 11
74.222863
 21
405.76014
  0
ARC
  5
663
100
AcDbEntity
  8
M0
  6
DASHED
 62
     7
100
AcDbCircle
 10
74.722863
 20
412.41014
 40
0.5
100
AcDbArc
 50
90.0
 51
180.0
  0
ARC
  5
664
100
AcDbEntity
  8
M0
  6
DASHED
 62
     7
100
AcDbCircle
 10
74.722863
 20
405.76014
 40
0.5
100
AcDbArc
 50
180.0
 51
270.0
  0
LINE
  5
665
100
AcDbEntity
  8
M0
 62
     7
100
AcDbLine
 10
116.547863
 20
354.28514
 11
116.547863
 21
354.6815
  0
ARC
  5
666
100
AcDbEntity
  8
M0
 62
     7
100
AcDbCircle
 10
117.272863
 20
356.71014
 40
0.725
100
AcDbArc
 50
238.778636
 51
270.0
  0
ARC
  5
667
100
AcDbEntity
  8
M0
 62
     7
100
AcDbCircle
 10
117.272863
 20
354.66014
 40
0.725
100
AcDbArc
 50
90.0
 51
180.0
  0
LINE
  5
668
100
AcDbEntity
  8
M0
 62
     7
100
AcDbLine
 10
117.272863
 20
355.38514
 11
117.672863
 21
355.38514
  0
LINE
  5
669
100
AcDbEntity
  8
M0
 62
     7
100
AcDbLine
 10
117.272863
 20
355.98514
 11
117.672863
 21
355.98514
  0
LINE
  5
66A
100
AcDbEntity
  8
M0
 62
     7
100
AcDbLine
 10
116.266653
 20
354.28514
 11
116.547863
 21
354.28514
  0
LINE
  5
66B
100
AcDbEntity
  8
M0
 62
     7
100
AcDbLine
 10
117.672863
 20
355.98514
 11
117.672863
 21
355.38514
  0
ARC
  5
66C
100
AcDbEntity
  8
M0
 62
     7
100
AcDbCircle
 10
116.247863
 20
355.68514
 40
2.75
100
AcDbArc
 50
260.786456
 51
420.70934
  0
LINE
  5
66D
100
AcDbEntity
  8
M0
 62
     7
100
AcDbLine
 10
318.444126
 20
412.18514
 11
318.444126
 21
418.18514
  0
LINE
  5
66E
100
AcDbEntity
  8
M0
 62
     7
100
AcDbLine
 10
306.444126
 20
412.18514
 11
306.444126
 21
418.18514
  0
LINE
  5
66F
100
AcDbEntity
  8
M0
 62
     7
100
AcDbLine
 10
294.444126
 20
412.18514
 11
294.444126
 21
418.18514
  0
LINE
  5
670
100
AcDbEntity
  8
M0
 62
     7
100
AcDbLine
 10
302.444126
 20
412.18514
 11
302.444126
 21
418.18514
  0
LINE
  5
671
100
AcDbEntity
  8
M0
 62
     7
100
AcDbLine
 10
304.444126
 20
412.18514
 11
304.444126
 21
418.18514
  0
LINE
  5
672
100
AcDbEntity
  8
M0
 62
     7
100
AcDbLine
 10
316.444126
 20
412.18514
 11
318.444126
 21
412.18514
  0
LINE
  5
673
100
AcDbEntity
  8
M0
 62
     7
100
AcDbLine
 10
296.444126
 20
412.18514
 11
296.444126
 21
418.18514
  0
LINE
  5
674
100
AcDbEntity
  8
M0
 62
     7
100
AcDbLine
 10
292.444126
 20
412.18514
 11
294.444126
 21
412.18514
  0
LINE
  5
675
100
AcDbEntity
  8
M0
 62
     7
100
AcDbLine
 10
297.744126
 20
354.18514
 11
297.744126
 21
363.68514
  0
LINE
  5
676
100
AcDbEntity
  8
M0
 62
     7
100
AcDbLine
 10
312.444126
 20
412.18514
 11
312.444126
 21
418.18514
  0
LINE
  5
677
100
AcDbEntity
  8
M0
 62
     7
100
AcDbLine
 10
312.444126
 20
412.18514
 11
314.444126
 21
412.18514
  0
LINE
  5
678
100
AcDbEntity
  8
M0
 62
     7
100
AcDbLine
 10
331.044126
 20
357.18514
 11
306.744126
 21
357.18514
  0
LINE
  5
679
100
AcDbEntity
  8
M0
 62
     7
100
AcDbLine
 10
314.444126
 20
412.18514
 11
314.444126
 21
418.18514
  0
LINE
  5
67A
100
AcDbEntity
  8
M0
 62
     7
100
AcDbLine
 10
341.744126
 20
369.88514
 11
341.744126
 21
369.68514
  0
LINE
  5
67B
100
AcDbEntity
  8
M0
 62
     7
100
AcDbLine
 10
342.044126
 20
363.93514
 11
342.044126
 21
354.43514
  0
LINE
  5
67C
100
AcDbEntity
  8
M0
 62
     7
100
AcDbLine
 10
337.544126
 20
399.98514
 11
337.844126
 21
400.48514
  0
LINE
  5
67D
100
AcDbEntity
  8
M0
 62
     7
100
AcDbLine
 10
342.044126
 20
360.18514
 11
342.044126
 21
358.18514
  0
LINE
  5
67E
100
AcDbEntity
  8
M0
 62
     7
100
AcDbLine
 10
292.344126
 20
425.670926
 11
292.344126
 21
419.18514
  0
LINE
  5
67F
100
AcDbEntity
  8
M0
 62
     7
100
AcDbLine
 10
286.13702
 20
432.292246
 11
287.344126
 21
431.08514
  0
LINE
  5
680
100
AcDbEntity
  8
M0
 62
     7
100
AcDbLine
 10
337.544126
 20
403.48514
 11
337.544126
 21
405.98514
  0
LINE
  5
681
100
AcDbEntity
  8
M0
 62
     7
100
AcDbLine
 10
319.244126
 20
419.18514
 11
319.244126
 21
423.18514
  0
ARC
  5
682
100
AcDbEntity
  8
M0
 62
     7
100
AcDbCircle
 10
285.429913
 20
431.58514
 40
1.0
100
AcDbArc
 50
45.0
 51
90.0
  0
ARC
  5
683
100
AcDbEntity
  8
M0
 62
     7
100
AcDbCircle
 10
337.864288
 20
407.288176
 40
1.374538
100
AcDbArc
 50
233.367407
 51
251.438337
  0
ARC
  5
684
100
AcDbEntity
  8
M0
 62
     7
100
AcDbCircle
 10
341.244126
 20
406.68514
 40
0.5
100
AcDbArc
 50
270.0
 51
360.0
  0
ARC
  5
685
100
AcDbEntity
  8
M0
 62
     7
100
AcDbCircle
 10
299.244126
 20
354.18514
 40
1.5
100
AcDbArc
 50
180.0
 51
270.0
  0
LINE
  5
686
100
AcDbEntity
  8
M0
 62
     7
100
AcDbLine
 10
308.444126
 20
412.18514
 11
308.444126
 21
418.18514
  0
LINE
  5
687
100
AcDbEntity
  8
M0
 62
     7
100
AcDbLine
 10
304.444126
 20
412.18514
 11
306.444126
 21
412.18514
  0
LINE
  5
688
100
AcDbEntity
  8
M0
 62
     7
100
AcDbLine
 10
308.444126
 20
412.18514
 11
310.444126
 21
412.18514
  0
ARC
  5
689
100
AcDbEntity
  8
M0
 62
     7
100
AcDbCircle
 10
291.344126
 20
425.670926
 40
1.0
100
AcDbArc
 50
0.0
 51
45.0
  0
ARC
  5
68A
100
AcDbEntity
  8
M0
 62
     7
100
AcDbCircle
 10
305.744126
 20
353.68514
 40
1.0
100
AcDbArc
 50
270.0
 51
360.0
  0
LINE
  5
68B
100
AcDbEntity
  8
M0
 62
     7
100
AcDbLine
 10
297.744126
 20
363.68514
 11
285.544126
 21
363.68514
  0
ARC
  5
68C
100
AcDbEntity
  8
M0
 62
     7
100
AcDbCircle
 10
341.244126
 20
353.18514
 40
0.5
100
AcDbArc
 50
270.0
 51
360.0
  0
LINE
  5
68D
100
AcDbEntity
  8
M0
 62
     7
100
AcDbLine
 10
341.744126
 20
409.48514
 11
341.744126
 21
407.48514
  0
LINE
  5
68E
100
AcDbEntity
  8
M0
 62
     7
100
AcDbLine
 10
306.744126
 20
368.88514
 11
306.744126
 21
353.68514
  0
LINE
  5
68F
100
AcDbEntity
  8
M0
 62
     7
100
AcDbLine
 10
286.544126
 20
407.48514
 11
298.544126
 21
407.48514
  0
LINE
  5
690
100
AcDbEntity
  8
M0
 62
     7
100
AcDbLine
 10
310.444126
 20
412.18514
 11
310.444126
 21
418.18514
  0
LINE
  5
691
100
AcDbEntity
  8
M0
 62
     7
100
AcDbLine
 10
306.444126
 20
419.18514
 11
304.444126
 21
419.18514
  0
LINE
  5
692
100
AcDbEntity
  8
M0
 62
     7
100
AcDbLine
 10
305.744126
 20
368.88514
 11
312.544126
 21
368.88514
  0
ARC
  5
693
100
AcDbEntity
  8
M0
 62
     7
100
AcDbCircle
 10
338.306009
 20
368.242627
 40
2.316399
100
AcDbArc
 50
112.341791
 51
123.008287
  0
ARC
  5
694
100
AcDbEntity
  8
M0
 62
     7
100
AcDbCircle
 10
341.244126
 20
422.68514
 40
0.5
100
AcDbArc
 50
0.0
 51
90.0
  0
ARC
  5
695
100
AcDbEntity
  8
M0
 62
     7
100
AcDbCircle
 10
341.244126
 20
369.88514
 40
0.5
100
AcDbArc
 50
0.0
 51
90.0
  0
ARC
  5
696
100
AcDbEntity
  8
M0
 62
     7
100
AcDbCircle
 10
341.244126
 20
369.68514
 40
0.5
100
AcDbArc
 50
0.0
 51
90.0
  0
LINE
  5
697
100
AcDbEntity
  8
M0
 62
     7
100
AcDbLine
 10
286.544126
 20
409.48514
 11
331.044126
 21
409.48514
  0
ARC
  5
698
100
AcDbEntity
  8
M0
 62
     7
100
AcDbCircle
 10
341.244126
 20
406.48514
 40
0.5
100
AcDbArc
 50
270.0
 51
360.0
  0
ARC
  5
699
100
AcDbEntity
  8
M0
 62
     7
100
AcDbCircle
 10
332.044126
 20
422.18514
 40
1.0
100
AcDbArc
 50
90.0
 51
180.0
  0
LINE
  5
69A
100
AcDbEntity
  8
M0
 62
     7
100
AcDbLine
 10
337.844126
 20
402.48514
 11
337.844126
 21
400.48514
  0
LINE
  5
69B
100
AcDbEntity
  8
M0
 62
     7
100
AcDbLine
 10
296.444126
 20
412.18514
 11
298.444126
 21
412.18514
  0
LINE
  5
69C
100
AcDbEntity
  8
M0
 62
     7
100
AcDbLine
 10
337.544126
 20
405.98514
 11
337.544126
 21
370.38514
  0
LINE
  5
69D
100
AcDbEntity
  8
M0
 62
     7
100
AcDbLine
 10
341.744126
 20
406.68514
 11
341.744126
 21
406.48514
  0
LINE
  5
69E
100
AcDbEntity
  8
M0
 62
     7
100
AcDbLine
 10
337.444126
 20
370.38514
 11
341.244126
 21
370.38514
  0
LINE
  5
69F
100
AcDbEntity
  8
M0
 62
     7
100
AcDbLine
 10
341.244126
 20
405.98514
 11
337.444126
 21
405.98514
  0
LINE
  5
6A0
100
AcDbEntity
  8
M0
 62
     7
100
AcDbLine
 10
305.744126
 20
352.68514
 11
299.244126
 21
352.68514
  0
LINE
  5
6A1
100
AcDbEntity
  8
M0
 62
     7
100
AcDbLine
 10
331.044126
 20
407.48514
 11
331.044126
 21
422.18514
  0
LINE
  5
6A2
100
AcDbEntity
  8
M0
 62
     7
100
AcDbLine
 10
332.044126
 20
423.18514
 11
341.244126
 21
423.18514
  0
LINE
  5
6A3
100
AcDbEntity
  8
M0
 62
     7
100
AcDbLine
 10
310.444126
 20
419.18514
 11
308.444126
 21
419.18514
  0
LINE
  5
6A4
100
AcDbEntity
  8
M0
 62
     7
100
AcDbLine
 10
292.744126
 20
357.18514
 11
274.544126
 21
357.18514
  0
LINE
  5
6A5
100
AcDbEntity
  8
M0
 62
     7
100
AcDbLine
 10
292.744126
 20
352.68514
 11
274.544126
 21
352.68514
  0
LINE
  5
6A6
100
AcDbEntity
  8
M0
 62
     7
100
AcDbLine
 10
274.544126
 20
412.88514
 11
285.544126
 21
412.88514
  0
ARC
  5
6A7
100
AcDbEntity
  8
M0
 62
     7
100
AcDbCircle
 10
263.344126
 20
430.18514
 40
1.0
100
AcDbArc
 50
90.0
 51
180.0
  0
ARC
  5
6A8
100
AcDbEntity
  8
M0
 62
     7
100
AcDbCircle
 10
266.444126
 20
431.68514
 40
1.0
100
AcDbArc
 50
90.0
 51
115.841933
  0
LINE
  5
6A9
100
AcDbEntity
  8
M0
 62
     7
100
AcDbLine
 10
285.544126
 20
363.68514
 11
274.544126
 21
363.68514
  0
LINE
  5
6AA
100
AcDbEntity
  8
M0
 62
     7
100
AcDbLine
 10
266.444126
 20
432.68514
 11
275.844126
 21
432.68514
  0
LINE
  5
6AB
100
AcDbEntity
  8
M0
 62
     7
100
AcDbLine
 10
265.944126
 20
432.58514
 11
285.429913
 21
432.58514
  0
LINE
  5
6AC
100
AcDbEntity
  8
M0
 62
     7
100
AcDbLine
 10
274.544126
 20
419.18514
 11
292.444126
 21
419.18514
  0
LINE
  5
6AD
100
AcDbEntity
  8
M0
 62
     7
100
AcDbLine
 10
262.344126
 20
430.18514
 11
262.344126
 21
422.68514
  0
ARC
  5
6AE
100
AcDbEntity
  8
M0
 62
     7
100
AcDbCircle
 10
265.944126
 20
429.58514
 40
3.0
100
AcDbArc
 50
90.0
 51
180.0
  0
ARC
  5
6AF
100
AcDbEntity
  8
M0
 62
     7
100
AcDbCircle
 10
285.544126
 20
411.88514
 40
1.0
100
AcDbArc
 50
0.0
 51
90.0
  0
LINE
  5
6B0
100
AcDbEntity
  8
M0
 62
     7
100
AcDbLine
 10
338.544126
 20
405.98514
 11
338.544126
 21
404.48514
  0
LINE
  5
6B1
100
AcDbEntity
  8
M0
 62
     7
100
AcDbLine
 10
287.344126
 20
431.08514
 11
292.051233
 21
426.378033
  0
LINE
  5
6B2
100
AcDbEntity
  8
M0
 62
     7
100
AcDbLine
 10
296.444126
 20
417.68514
 11
298.444126
 21
417.68514
  0
LINE
  5
6B3
100
AcDbEntity
  8
M0
 62
     7
100
AcDbLine
 10
304.444126
 20
417.68514
 11
306.444126
 21
417.68514
  0
LINE
  5
6B4
100
AcDbEntity
  8
M0
 62
     7
100
AcDbLine
 10
332.544126
 20
374.58514
 11
302.244126
 21
374.58514
  0
LINE
  5
6B5
100
AcDbEntity
  8
M0
 62
     7
100
AcDbLine
 10
298.444126
 20
419.18514
 11
296.444126
 21
419.18514
  0
LINE
  5
6B6
100
AcDbEntity
  8
M0
 62
     7
100
AcDbLine
 10
339.544126
 20
403.48514
 11
338.544126
 21
404.48514
  0
LINE
  5
6B7
100
AcDbEntity
  8
M0
 62
     7
100
AcDbLine
 10
333.744126
 20
423.18514
 11
341.244126
 21
423.18514
  0
LINE
  5
6B8
100
AcDbEntity
  8
M0
 62
     7
100
AcDbLine
 10
339.544126
 20
403.48514
 11
341.744126
 21
403.48514
  0
LINE
  5
6B9
100
AcDbEntity
  8
M0
 62
     7
100
AcDbLine
 10
341.744126
 20
422.68514
 11
341.744126
 21
403.48514
  0
LINE
  5
6BA
100
AcDbEntity
  8
M0
 62
     7
100
AcDbLine
 10
342.044126
 20
421.93514
 11
342.044126
 21
412.43514
  0
LINE
  5
6BB
100
AcDbEntity
  8
M0
 62
     7
100
AcDbLine
 10
332.044126
 20
423.18514
 11
333.244126
 21
423.18514
  0
LINE
  5
6BC
100
AcDbEntity
  8
M0
 62
     7
100
AcDbLine
 10
337.744126
 20
370.38514
 11
337.744126
 21
370.68514
  0
LINE
  5
6BD
100
AcDbEntity
  8
M0
 62
     7
100
AcDbLine
 10
286.444126
 20
405.601367
 11
286.444126
 21
402.724585
  0
LINE
  5
6BE
100
AcDbEntity
  8
M0
 62
     7
100
AcDbLine
 10
302.244126
 20
374.58514
 11
302.244126
 21
373.945695
  0
LINE
  5
6BF
100
AcDbEntity
  8
M0
 62
     7
100
AcDbLine
 10
331.044126
 20
368.88514
 11
286.544126
 21
368.88514
  0
LINE
  5
6C0
100
AcDbEntity
  8
M0
 62
     7
100
AcDbLine
 10
281.944126
 20
368.08514
 11
281.944126
 21
373.08514
  0
LINE
  5
6C1
100
AcDbEntity
  8
M0
 62
     7
100
AcDbLine
 10
262.944126
 20
422.68514
 11
262.944126
 21
429.58514
  0
LINE
  5
6C2
100
AcDbEntity
  8
M0
 62
     7
100
AcDbLine
 10
316.444126
 20
412.18514
 11
316.444126
 21
418.18514
  0
LINE
  5
6C3
100
AcDbEntity
  8
M0
 62
     7
100
AcDbLine
 10
302.244126
 20
370.18514
 11
341.244126
 21
370.18514
  0
LINE
  5
6C4
100
AcDbEntity
  8
M0
 62
     7
100
AcDbLine
 10
337.844126
 20
402.48514
 11
337.544126
 21
403.48514
  0
LINE
  5
6C5
100
AcDbEntity
  8
M0
 62
     7
100
AcDbLine
 10
341.744126
 20
369.68514
 11
341.744126
 21
369.18514
  0
LINE
  5
6C6
100
AcDbEntity
  8
M0
 62
     7
100
AcDbLine
 10
302.244126
 20
370.468912
 11
302.244126
 21
370.18514
  0
LINE
  5
6C7
100
AcDbEntity
  8
M0
 62
     7
100
AcDbLine
 10
286.544126
 20
411.88514
 11
286.544126
 21
407.48514
  0
LINE
  5
6C8
100
AcDbEntity
  8
M0
 62
     7
100
AcDbLine
 10
332.544126
 20
375.58514
 11
332.544126
 21
374.58514
  0
LINE
  5
6C9
100
AcDbEntity
  8
M0
 62
     7
100
AcDbLine
 10
337.544126
 20
370.88514
 11
337.544126
 21
370.58514
  0
LINE
  5
6CA
100
AcDbEntity
  8
M0
 62
     7
100
AcDbLine
 10
341.744126
 20
422.68514
 11
341.744126
 21
421.93514
  0
LINE
  5
6CB
100
AcDbEntity
  8
M0
 62
     7
100
AcDbLine
 10
333.744126
 20
423.18514
 11
341.244126
 21
423.18514
  0
LINE
  5
6CC
100
AcDbEntity
  8
M0
 62
     7
100
AcDbLine
 10
314.444126
 20
418.18514
 11
314.444126
 21
419.18514
  0
LINE
  5
6CD
100
AcDbEntity
  8
M0
 62
     7
100
AcDbLine
 10
316.444126
 20
419.18514
 11
316.444126
 21
418.18514
  0
LINE
  5
6CE
100
AcDbEntity
  8
M0
 62
     7
100
AcDbLine
 10
304.444126
 20
419.18514
 11
302.444126
 21
419.18514
  0
LINE
  5
6CF
100
AcDbEntity
  8
M0
 62
     7
100
AcDbLine
 10
341.744126
 20
422.68514
 11
341.744126
 21
421.93514
  0
LINE
  5
6D0
100
AcDbEntity
  8
M0
 62
     7
100
AcDbLine
 10
337.544126
 20
370.38514
 11
337.544126
 21
370.58514
  0
LINE
  5
6D1
100
AcDbEntity
  8
M0
 62
     7
100
AcDbLine
 10
292.444126
 20
417.68514
 11
294.444126
 21
417.68514
  0
LINE
  5
6D2
100
AcDbEntity
  8
M0
 62
     7
100
AcDbLine
 10
316.444126
 20
419.18514
 11
314.444126
 21
419.18514
  0
LINE
  5
6D3
100
AcDbEntity
  8
M0
 62
     7
100
AcDbLine
 10
308.444126
 20
419.18514
 11
306.444126
 21
419.18514
  0
LINE
  5
6D4
100
AcDbEntity
  8
M0
 62
     7
100
AcDbLine
 10
319.344126
 20
423.18514
 11
333.244126
 21
423.18514
  0
LINE
  5
6D5
100
AcDbEntity
  8
M0
 62
     7
100
AcDbLine
 10
312.444126
 20
419.18514
 11
310.444126
 21
419.18514
  0
LINE
  5
6D6
100
AcDbEntity
  8
M0
 62
     7
100
AcDbLine
 10
322.444126
 20
418.18514
 11
322.444126
 21
419.18514
  0
LINE
  5
6D7
100
AcDbEntity
  8
M0
 62
     7
100
AcDbLine
 10
319.244126
 20
419.18514
 11
318.444126
 21
419.18514
  0
LINE
  5
6D8
100
AcDbEntity
  8
M0
 62
     7
100
AcDbLine
 10
320.744126
 20
423.18514
 11
341.244126
 21
423.18514
  0
LINE
  5
6D9
100
AcDbEntity
  8
M0
 62
     7
100
AcDbLine
 10
331.044126
 20
353.68514
 11
331.044126
 21
368.88514
  0
LINE
  5
6DA
100
AcDbEntity
  8
M0
 62
     7
100
AcDbLine
 10
341.744126
 20
369.18514
 11
341.744126
 21
353.18514
  0
LINE
  5
6DB
100
AcDbEntity
  8
M0
 62
     7
100
AcDbLine
 10
320.444126
 20
419.18514
 11
320.444126
 21
418.18514
  0
LINE
  5
6DC
100
AcDbEntity
  8
M0
 62
     7
100
AcDbLine
 10
314.444126
 20
419.18514
 11
312.444126
 21
419.18514
  0
LINE
  5
6DD
100
AcDbEntity
  8
M0
 62
     7
100
AcDbLine
 10
318.444126
 20
419.18514
 11
320.444126
 21
419.18514
  0
LINE
  5
6DE
100
AcDbEntity
  8
M0
 62
     7
100
AcDbLine
 10
318.444126
 20
418.18514
 11
318.444126
 21
419.18514
  0
LINE
  5
6DF
100
AcDbEntity
  8
M0
 62
     7
100
AcDbLine
 10
300.444126
 20
419.18514
 11
300.444126
 21
418.18514
  0
LINE
  5
6E0
100
AcDbEntity
  8
M0
 62
     7
100
AcDbLine
 10
341.744126
 20
354.43514
 11
342.044126
 21
354.43514
  0
LINE
  5
6E1
100
AcDbEntity
  8
M0
 62
     7
100
AcDbLine
 10
314.444126
 20
419.18514
 11
316.444126
 21
419.18514
  0
LINE
  5
6E2
100
AcDbEntity
  8
M0
 62
     7
100
AcDbLine
 10
322.444126
 20
412.18514
 11
322.444126
 21
418.18514
  0
LINE
  5
6E3
100
AcDbEntity
  8
M0
 62
     7
100
AcDbLine
 10
310.444126
 20
419.18514
 11
312.444126
 21
419.18514
  0
LINE
  5
6E4
100
AcDbEntity
  8
M0
 62
     7
100
AcDbLine
 10
304.444126
 20
419.18514
 11
304.444126
 21
418.18514
  0
LINE
  5
6E5
100
AcDbEntity
  8
M0
 62
     7
100
AcDbLine
 10
312.444126
 20
419.18514
 11
312.444126
 21
418.18514
  0
LINE
  5
6E6
100
AcDbEntity
  8
M0
 62
     7
100
AcDbLine
 10
292.444126
 20
412.18514
 11
292.444126
 21
418.18514
  0
LINE
  5
6E7
100
AcDbEntity
  8
M0
 62
     7
100
AcDbLine
 10
320.444126
 20
412.18514
 11
322.444126
 21
412.18514
  0
LINE
  5
6E8
100
AcDbEntity
  8
M0
 62
     7
100
AcDbLine
 10
302.444126
 20
419.18514
 11
304.444126
 21
419.18514
  0
LINE
  5
6E9
100
AcDbEntity
  8
M0
 62
     7
100
AcDbLine
 10
322.444126
 20
419.18514
 11
331.044126
 21
419.18514
  0
LINE
  5
6EA
100
AcDbEntity
  8
M0
 62
     7
100
AcDbLine
 10
294.444126
 20
419.18514
 11
292.444126
 21
419.18514
  0
LINE
  5
6EB
100
AcDbEntity
  8
M0
 62
     7
100
AcDbLine
 10
302.444126
 20
418.18514
 11
302.444126
 21
419.18514
  0
LINE
  5
6EC
100
AcDbEntity
  8
M0
 62
     7
100
AcDbLine
 10
310.444126
 20
418.18514
 11
310.444126
 21
419.18514
  0
LINE
  5
6ED
100
AcDbEntity
  8
M0
 62
     7
100
AcDbLine
 10
322.444126
 20
419.18514
 11
320.444126
 21
419.18514
  0
LINE
  5
6EE
100
AcDbEntity
  8
M0
 62
     7
100
AcDbLine
 10
341.744126
 20
422.68514
 11
341.744126
 21
421.93514
  0
LINE
  5
6EF
100
AcDbEntity
  8
M0
 62
     7
100
AcDbLine
 10
320.444126
 20
417.68514
 11
322.444126
 21
417.68514
  0
LINE
  5
6F0
100
AcDbEntity
  8
M0
 62
     7
100
AcDbLine
 10
308.444126
 20
419.18514
 11
308.444126
 21
418.18514
  0
LINE
  5
6F1
100
AcDbEntity
  8
M0
 62
     7
100
AcDbLine
 10
306.444126
 20
419.18514
 11
308.444126
 21
419.18514
  0
LINE
  5
6F2
100
AcDbEntity
  8
M0
 62
     7
100
AcDbLine
 10
298.444126
 20
418.18514
 11
298.444126
 21
419.18514
  0
LINE
  5
6F3
100
AcDbEntity
  8
M0
 62
     7
100
AcDbLine
 10
308.444126
 20
417.68514
 11
310.444126
 21
417.68514
  0
LINE
  5
6F4
100
AcDbEntity
  8
M0
 62
     7
100
AcDbLine
 10
306.444126
 20
418.18514
 11
306.444126
 21
419.18514
  0
LINE
  5
6F5
100
AcDbEntity
  8
M0
 62
     7
100
AcDbLine
 10
312.444126
 20
417.68514
 11
314.444126
 21
417.68514
  0
LINE
  5
6F6
100
AcDbEntity
  8
M0
 62
     7
100
AcDbLine
 10
320.444126
 20
412.18514
 11
320.444126
 21
418.18514
  0
LINE
  5
6F7
100
AcDbEntity
  8
M0
 62
     7
100
AcDbLine
 10
318.444126
 20
419.18514
 11
316.444126
 21
419.18514
  0
LINE
  5
6F8
100
AcDbEntity
  8
M0
 62
     7
100
AcDbLine
 10
302.444126
 20
419.18514
 11
300.444126
 21
419.18514
  0
LINE
  5
6F9
100
AcDbEntity
  8
M0
 62
     7
100
AcDbLine
 10
294.444126
 20
419.18514
 11
296.444126
 21
419.18514
  0
LINE
  5
6FA
100
AcDbEntity
  8
M0
 62
     7
100
AcDbLine
 10
292.444126
 20
419.18514
 11
292.444126
 21
418.18514
  0
LINE
  5
6FB
100
AcDbEntity
  8
M0
 62
     7
100
AcDbLine
 10
338.244126
 20
371.18514
 11
339.744126
 21
371.18514
  0
LINE
  5
6FC
100
AcDbEntity
  8
M0
 62
     7
100
AcDbLine
 10
341.270004
 20
370.383006
 11
339.684126
 21
372.18514
  0
LINE
  5
6FD
100
AcDbEntity
  8
M0
 62
     7
100
AcDbLine
 10
341.744126
 20
414.43514
 11
342.044126
 21
414.43514
  0
LINE
  5
6FE
100
AcDbEntity
  8
M0
 62
     7
100
AcDbLine
 10
286.444126
 20
373.645695
 11
301.944126
 21
373.645695
  0
LINE
  5
6FF
100
AcDbEntity
  8
M0
 62
     7
100
AcDbLine
 10
339.744126
 20
371.18514
 11
339.744126
 21
370.68514
  0
LINE
  5
700
100
AcDbEntity
  8
M0
 62
     7
100
AcDbLine
 10
339.744126
 20
370.68514
 11
339.744126
 21
370.38514
  0
LINE
  5
701
100
AcDbEntity
  8
M0
 62
     7
100
AcDbLine
 10
286.444126
 20
405.601367
 11
301.944126
 21
405.601367
  0
LINE
  5
702
100
AcDbEntity
  8
M0
 62
     7
100
AcDbLine
 10
339.244126
 20
372.68514
 11
339.684126
 21
372.18514
  0
LINE
  5
703
100
AcDbEntity
  8
M0
 62
     7
100
AcDbLine
 10
341.744126
 20
409.48514
 11
341.744126
 21
414.43514
  0
LINE
  5
704
100
AcDbEntity
  8
M0
 62
     7
100
AcDbLine
 10
286.444126
 20
373.645695
 11
286.444126
 21
370.768912
  0
LINE
  5
705
100
AcDbEntity
  8
M0
 62
     7
100
AcDbLine
 10
338.544126
 20
372.18514
 11
338.544126
 21
372.68514
  0
LINE
  5
706
100
AcDbEntity
  8
M0
 62
     7
100
AcDbLine
 10
342.044126
 20
421.93514
 11
341.744126
 21
421.93514
  0
LINE
  5
707
100
AcDbEntity
  8
M0
 62
     7
100
AcDbLine
 10
301.944126
 20
402.724585
 11
286.444126
 21
402.724585
  0
LINE
  5
708
100
AcDbEntity
  8
M0
 62
     7
100
AcDbLine
 10
286.544126
 20
407.48514
 11
331.044126
 21
407.48514
  0
LINE
  5
709
100
AcDbEntity
  8
M0
 62
     7
100
AcDbLine
 10
332.544126
 20
401.78514
 11
332.544126
 21
400.78514
  0
LINE
  5
70A
100
AcDbEntity
  8
M0
 62
     7
100
AcDbLine
 10
341.244126
 20
406.18514
 11
302.244126
 21
406.18514
  0
LINE
  5
70B
100
AcDbEntity
  8
M0
 62
     7
100
AcDbLine
 10
302.244126
 20
402.424585
 11
302.244126
 21
401.78514
  0
LINE
  5
70C
100
AcDbEntity
  8
M0
 62
     7
100
AcDbLine
 10
300.444126
 20
412.18514
 11
302.444126
 21
412.18514
  0
LINE
  5
70D
100
AcDbEntity
  8
M0
 62
     7
100
AcDbLine
 10
281.944126
 20
403.28514
 11
281.944126
 21
408.28514
  0
LINE
  5
70E
100
AcDbEntity
  8
M0
 62
     7
100
AcDbLine
 10
300.444126
 20
412.18514
 11
300.444126
 21
418.18514
  0
LINE
  5
70F
100
AcDbEntity
  8
M0
 62
     7
100
AcDbLine
 10
302.244126
 20
401.78514
 11
332.544126
 21
401.78514
  0
LINE
  5
710
100
AcDbEntity
  8
M0
 62
     7
100
AcDbLine
 10
302.244126
 20
406.18514
 11
302.244126
 21
405.901367
  0
ARC
  5
711
100
AcDbEntity
  8
M0
 62
     7
100
AcDbCircle
 10
301.944126
 20
405.901367
 40
0.3
100
AcDbArc
 50
270.0
 51
360.0
  0
ARC
  5
712
100
AcDbEntity
  8
M0
 62
     7
100
AcDbCircle
 10
301.944126
 20
373.945695
 40
0.3
100
AcDbArc
 50
270.0
 51
360.0
  0
ARC
  5
713
100
AcDbEntity
  8
M0
 62
     7
100
AcDbCircle
 10
301.944126
 20
370.468912
 40
0.3
100
AcDbArc
 50
0.0
 51
90.0
  0
ARC
  5
714
100
AcDbEntity
  8
M0
 62
     7
100
AcDbCircle
 10
338.244126
 20
370.68514
 40
0.5
100
AcDbArc
 50
90.0
 51
180.0
  0
ARC
  5
715
100
AcDbEntity
  8
M0
 62
     7
100
AcDbCircle
 10
285.544126
 20
364.68514
 40
1.0
100
AcDbArc
 50
270.0
 51
360.0
  0
LINE
  5
716
100
AcDbEntity
  8
M0
 62
     7
100
AcDbLine
 10
301.944126
 20
370.768912
 11
286.444126
 21
370.768912
  0
LINE
  5
717
100
AcDbEntity
  8
M0
 62
     7
100
AcDbLine
 10
341.744126
 20
412.43514
 11
342.044126
 21
412.43514
  0
LINE
  5
718
100
AcDbEntity
  8
M0
 62
     7
100
AcDbLine
 10
338.544126
 20
372.68514
 11
339.244126
 21
372.68514
  0
LINE
  5
719
100
AcDbEntity
  8
M0
 62
     7
100
AcDbLine
 10
342.044126
 20
363.93514
 11
341.744126
 21
363.93514
  0
ARC
  5
71A
100
AcDbEntity
  8
M0
 62
     7
100
AcDbCircle
 10
301.944126
 20
402.424585
 40
0.3
100
AcDbArc
 50
0.0
 51
90.0
  0
LINE
  5
71B
100
AcDbEntity
  8
M0
 62
     7
100
AcDbLine
 10
341.444126
 20
352.68514
 11
341.244126
 21
352.68514
  0
LINE
  5
71C
100
AcDbEntity
  8
M0
 62
     7
100
AcDbLine
 10
341.444126
 20
352.726882
 11
341.444126
 21
352.68514
  0
LINE
  5
71D
100
AcDbEntity
  8
M0
 62
     7
100
AcDbLine
 10
316.444126
 20
417.68514
 11
318.444126
 21
417.68514
  0
LINE
  5
71E
100
AcDbEntity
  8
M0
 62
     7
100
AcDbLine
 10
296.444126
 20
419.18514
 11
296.444126
 21
418.18514
  0
LINE
  5
71F
100
AcDbEntity
  8
M0
 62
     7
100
AcDbLine
 10
275.844126
 20
432.68514
 11
275.844126
 21
432.58514
  0
LINE
  5
720
100
AcDbEntity
  8
M0
 62
     7
100
AcDbLine
 10
300.444126
 20
417.68514
 11
302.444126
 21
417.68514
  0
LINE
  5
721
100
AcDbEntity
  8
M0
 62
     7
100
AcDbLine
 10
298.444126
 20
412.18514
 11
298.444126
 21
418.18514
  0
LINE
  5
722
100
AcDbEntity
  8
M0
 62
     7
100
AcDbLine
 10
338.544126
 20
372.18514
 11
338.544126
 21
371.18514
  0
LINE
  5
723
100
AcDbEntity
  8
M0
 62
     7
100
AcDbLine
 10
332.544126
 20
400.78514
 11
332.544126
 21
375.58514
  0
ARC
  5
724
100
AcDbEntity
  8
M0
 62
     7
100
AcDbCircle
 10
332.044126
 20
353.68514
 40
1.0
100
AcDbArc
 50
180.0
 51
270.0
  0
LINE
  5
725
100
AcDbEntity
  8
M0
 62
     7
100
AcDbLine
 10
286.544126
 20
368.88514
 11
286.544126
 21
364.68514
  0
LINE
  5
726
100
AcDbEntity
  8
M0
 62
     7
100
AcDbLine
 10
298.444126
 20
419.18514
 11
300.444126
 21
419.18514
  0
LINE
  5
727
100
AcDbEntity
  8
M0
 62
     7
100
AcDbLine
 10
294.444126
 20
418.18514
 11
294.444126
 21
419.18514
  0
LINE
  5
728
100
AcDbEntity
  8
M0
 62
     7
100
AcDbLine
 10
332.044126
 20
352.68514
 11
341.244126
 21
352.68514
  0
LINE
  5
729
100
AcDbEntity
  8
M0
 62
     7
100
AcDbLine
 10
223.644126
 20
418.405262
 11
223.644126
 21
436.605262
  0
LINE
  5
72A
100
AcDbEntity
  8
M0
  6
DASHED
 62
     7
100
AcDbLine
 10
245.224711
 20
408.483077
 11
246.344127
 21
408.385141
  0
LINE
  5
72B
100
AcDbEntity
  8
M0
 62
     7
100
AcDbLine
 10
233.944127
 20
385.68514
 11
233.944127
 21
384.68514
  0
LINE
  5
72C
100
AcDbEntity
  8
M0
 62
     7
100
AcDbLine
 10
233.944127
 20
390.68514
 11
233.944127
 21
391.68514
  0
LINE
  5
72D
100
AcDbEntity
  8
M0
 62
     7
100
AcDbLine
 10
233.944127
 20
384.68514
 11
232.944128
 21
384.68514
  0
LINE
  5
72E
100
AcDbEntity
  8
M0
 62
     7
100
AcDbLine
 10
232.944128
 20
390.68514
 11
233.944127
 21
390.68514
  0
LINE
  5
72F
100
AcDbEntity
  8
M0
 62
     7
100
AcDbLine
 10
233.944127
 20
384.68514
 11
234.444128
 21
384.68514
  0
LINE
  5
730
100
AcDbEntity
  8
M0
 62
     7
100
AcDbLine
 10
232.944128
 20
385.68514
 11
233.944127
 21
385.68514
  0
LINE
  5
731
100
AcDbEntity
  8
M0
 62
     7
100
AcDbLine
 10
233.944127
 20
391.68514
 11
232.944128
 21
391.68514
  0
LINE
  5
732
100
AcDbEntity
  8
M0
 62
     7
100
AcDbLine
 10
233.944127
 20
391.68514
 11
234.444128
 21
391.68514
  0
LINE
  5
733
100
AcDbEntity
  8
M0
 62
     7
100
AcDbLine
 10
234.444128
 20
385.68514
 11
233.944127
 21
385.68514
  0
LINE
  5
734
100
AcDbEntity
  8
M0
 62
     7
100
AcDbLine
 10
230.644127
 20
399.18514
 11
232.944128
 21
399.18514
  0
ARC
  5
735
100
AcDbEntity
  8
M0
 62
     7
100
AcDbCircle
 10
229.144127
 20
399.68514
 40
0.5
100
AcDbArc
 50
90.0
 51
180.0
  0
ARC
  5
736
100
AcDbEntity
  8
M0
 62
     7
100
AcDbCircle
 10
229.144127
 20
381.18514
 40
0.5
100
AcDbArc
 50
90.0
 51
180.0
  0
LINE
  5
737
100
AcDbEntity
  8
M0
 62
     7
100
AcDbLine
 10
230.144126
 20
376.18514
 11
229.144127
 21
376.18514
  0
ARC
  5
738
100
AcDbEntity
  8
M0
 62
     7
100
AcDbCircle
 10
263.544127
 20
353.68514
 40
1.0
100
AcDbArc
 50
180.0
 51
270.0
  0
LINE
  5
739
100
AcDbEntity
  8
M0
 62
     7
100
AcDbLine
 10
257.644127
 20
355.685141
 11
262.544127
 21
355.685141
  0
LINE
  5
73A
100
AcDbEntity
  8
M0
 62
     7
100
AcDbLine
 10
229.144127
 20
376.18514
 11
232.944128
 21
376.18514
  0
LINE
  5
73B
100
AcDbEntity
  8
M0
 62
     7
100
AcDbLine
 10
228.644126
 20
399.68514
 11
228.644126
 21
376.68514
  0
LINE
  5
73C
100
AcDbEntity
  8
M0
 62
     7
100
AcDbLine
 10
230.644127
 20
376.18514
 11
230.644127
 21
381.685139
  0
LINE
  5
73D
100
AcDbEntity
  8
M0
 62
     7
100
AcDbLine
 10
234.444128
 20
389.68514
 11
233.944127
 21
389.68514
  0
LINE
  5
73E
100
AcDbEntity
  8
M0
 62
     7
100
AcDbLine
 10
234.444128
 20
390.68514
 11
233.944127
 21
390.68514
  0
LINE
  5
73F
100
AcDbEntity
  8
M0
 62
     7
100
AcDbLine
 10
233.944127
 20
386.68514
 11
233.944127
 21
389.68514
  0
LINE
  5
740
100
AcDbEntity
  8
M0
 62
     7
100
AcDbLine
 10
233.944127
 20
386.68514
 11
234.444128
 21
386.68514
  0
ELLIPSE
  5
741
100
AcDbEntity
  8
M0
 62
     7
100
AcDbEllipse
 10
229.144127
 20
394.492247
 11
0.5
 21
0.0
210
0.0
220
0.0
230
1.0
 40
0.414214
 41
3.141592653589793
 42
4.71238898038469
  0
ARC
  5
742
100
AcDbEntity
  8
M0
 62
     7
100
AcDbCircle
 10
257.644127
 20
356.68514
 40
1.0
100
AcDbArc
 50
237.247324
 51
270.0
  0
ELLIPSE
  5
743
100
AcDbEntity
  8
M0
 62
     7
100
AcDbEllipse
 10
229.144127
 20
392.992247
 11
0.5
 21
0.0
210
0.0
220
0.0
230
1.0
 40
0.414214
 41
3.141592653589793
 42
4.71238898038469
  0
LINE
  5
744
100
AcDbEntity
  8
M0
 62
     7
100
AcDbLine
 10
258.744127
 20
421.185139
 11
258.744127
 21
419.185139
  0
LINE
  5
745
100
AcDbEntity
  8
M0
 62
     7
100
AcDbLine
 10
262.344127
 20
422.685141
 11
258.744127
 21
421.185139
  0
LINE
  5
746
100
AcDbEntity
  8
M0
 62
     7
100
AcDbLine
 10
262.544127
 20
421.68514
 11
259.744126
 21
420.518473
  0
LINE
  5
747
100
AcDbEntity
  8
M0
 62
     7
100
AcDbLine
 10
268.044127
 20
419.185139
 11
268.044127
 21
422.685141
  0
LINE
  5
748
100
AcDbEntity
  8
M0
 62
     7
100
AcDbLine
 10
273.044126
 20
392.28514
 11
273.144127
 21
392.28514
  0
LINE
  5
749
100
AcDbEntity
  8
M0
 62
     7
100
AcDbLine
 10
268.044127
 20
422.685141
 11
262.344127
 21
422.685141
  0
LINE
  5
74A
100
AcDbEntity
  8
M0
 62
     7
100
AcDbLine
 10
267.044126
 20
421.68514
 11
262.544127
 21
421.68514
  0
LINE
  5
74B
100
AcDbEntity
  8
M0
 62
     7
100
AcDbLine
 10
259.744126
 20
420.185139
 11
267.044126
 21
420.185139
  0
LINE
  5
74C
100
AcDbEntity
  8
M0
 62
     7
100
AcDbLine
 10
267.044126
 20
420.185139
 11
267.044126
 21
421.68514
  0
LINE
  5
74D
100
AcDbEntity
  8
M0
 62
     7
100
AcDbLine
 10
259.744126
 20
420.518473
 11
259.744126
 21
420.185139
  0
ARC
  5
74E
100
AcDbEntity
  8
M0
 62
     7
100
AcDbCircle
 10
235.244127
 20
391.48514
 40
1.0
100
AcDbArc
 50
168.463041
 51
180.0
  0
LINE
  5
74F
100
AcDbEntity
  8
M0
 62
     7
100
AcDbLine
 10
234.244128
 20
391.48514
 11
234.244128
 21
390.68514
  0
LINE
  5
750
100
AcDbEntity
  8
M0
 62
     7
100
AcDbLine
 10
234.244128
 20
385.68514
 11
234.244128
 21
384.68514
  0
LINE
  5
751
100
AcDbEntity
  8
M0
 62
     7
100
AcDbLine
 10
264.644127
 20
385.48514
 11
264.644127
 21
390.88514
  0
LINE
  5
752
100
AcDbEntity
  8
M0
 62
     7
100
AcDbLine
 10
261.144127
 20
390.88514
 11
261.144127
 21
385.48514
  0
LINE
  5
753
100
AcDbEntity
  8
M0
 62
     7
100
AcDbLine
 10
274.544127
 20
353.68514
 11
274.544127
 21
352.685138
  0
LINE
  5
754
100
AcDbEntity
  8
M0
 62
     7
100
AcDbLine
 10
268.144126
 20
422.685141
 11
263.444127
 21
422.685141
  0
LINE
  5
755
100
AcDbEntity
  8
M0
 62
     7
100
AcDbLine
 10
268.144126
 20
422.685141
 11
268.144126
 21
419.185139
  0
LINE
  5
756
100
AcDbEntity
  8
M0
 62
     7
100
AcDbLine
 10
274.544127
 20
398.28514
 11
274.544127
 21
419.185139
  0
ARC
  5
757
100
AcDbEntity
  8
M0
 62
     7
100
AcDbCircle
 10
229.144127
 20
376.68514
 40
0.5
100
AcDbArc
 50
180.0
 51
270.0
  0
ARC
  5
758
100
AcDbEntity
  8
M0
 62
     7
100
AcDbCircle
 10
254.844127
 20
412.88514
 40
3.0
100
AcDbArc
 50
90.0
 51
180.0
  0
ARC
  5
759
100
AcDbEntity
  8
M0
 62
     7
100
AcDbCircle
 10
254.844127
 20
363.48514
 40
3.0
100
AcDbArc
 50
180.0
 51
270.0
  0
ARC
  5
75A
100
AcDbEntity
  8
M0
 62
     7
100
AcDbCircle
 10
265.801486
 20
412.88514
 40
3.0
100
AcDbArc
 50
45.0
 51
90.0
  0
ARC
  5
75B
100
AcDbEntity
  8
M0
 62
     7
100
AcDbCircle
 10
265.801486
 20
363.48514
 40
3.0
100
AcDbArc
 50
270.0
 51
315.0
  0
ARC
  5
75C
100
AcDbEntity
  8
M0
 62
     7
100
AcDbCircle
 10
235.944127
 20
405.28514
 40
3.0
100
AcDbArc
 50
90.0
 51
180.0
  0
ARC
  5
75D
100
AcDbEntity
  8
M0
 62
     7
100
AcDbCircle
 10
234.444127
 20
383.48514
 40
1.0
100
AcDbArc
 50
0.0
 51
90.0
  0
ARC
  5
75E
100
AcDbEntity
  8
M0
 62
     7
100
AcDbCircle
 10
248.844127
 20
411.28514
 40
3.0
100
AcDbArc
 50
270.0
 51
360.0
  0
ARC
  5
75F
100
AcDbEntity
  8
M0
 62
     7
100
AcDbCircle
 10
248.844127
 20
365.08514
 40
3.0
100
AcDbArc
 50
0.0
 51
90.0
  0
ARC
  5
760
100
AcDbEntity
  8
M0
 62
     7
100
AcDbCircle
 10
260.944127
 20
390.38514
 40
0.5
100
AcDbArc
 50
90.0
 51
180.0
  0
LINE
  5
761
100
AcDbEntity
  8
M0
 62
     7
100
AcDbLine
 10
234.944125
 20
368.256712
 11
234.944125
 21
355.685141
  0
ARC
  5
762
100
AcDbEntity
  8
M0
 62
     7
100
AcDbCircle
 10
260.944127
 20
385.98514
 40
0.5
100
AcDbArc
 50
180.0
 51
270.0
  0
LINE
  5
763
100
AcDbEntity
  8
M0
 62
     7
100
AcDbLine
 10
234.944125
 20
420.68514
 11
234.944125
 21
408.113567
  0
LINE
  5
764
100
AcDbEntity
  8
M0
 62
     7
100
AcDbLine
 10
274.544127
 20
403.28514
 11
281.944127
 21
403.28514
  0
LINE
  5
765
100
AcDbEntity
  8
M0
 62
     7
100
AcDbLine
 10
281.944127
 20
408.285139
 11
274.544127
 21
408.285139
  0
LINE
  5
766
100
AcDbEntity
  8
M0
 62
     7
100
AcDbLine
 10
274.544127
 20
398.28514
 11
273.644127
 21
398.28514
  0
ARC
  5
767
100
AcDbEntity
  8
M0
 62
     7
100
AcDbCircle
 10
233.944127
 20
392.88514
 40
1.0
100
AcDbArc
 50
180.0
 51
270.0
  0
ARC
  5
768
100
AcDbEntity
  8
M0
 62
     7
100
AcDbCircle
 10
252.701486
 20
355.68514
 40
3.0
100
AcDbArc
 50
270.0
 51
315.0
  0
ARC
  5
769
100
AcDbEntity
  8
M0
 62
     7
100
AcDbCircle
 10
235.944127
 20
371.08514
 40
3.0
100
AcDbArc
 50
180.0
 51
270.0
  0
ARC
  5
76A
100
AcDbEntity
  8
M0
 62
     7
100
AcDbCircle
 10
233.944127
 20
383.48514
 40
1.0
100
AcDbArc
 50
90.0
 51
180.0
  0
ARC
  5
76B
100
AcDbEntity
  8
M0
 62
     7
100
AcDbCircle
 10
237.944127
 20
355.68514
 40
3.0
100
AcDbArc
 50
180.0
 51
270.0
  0
ARC
  5
76C
100
AcDbEntity
  8
M0
 62
     7
100
AcDbCircle
 10
252.701486
 20
420.68514
 40
3.0
100
AcDbArc
 50
45.0
 51
90.0
  0
ARC
  5
76D
100
AcDbEntity
  8
M0
 62
     7
100
AcDbCircle
 10
237.944127
 20
420.68514
 40
3.0
100
AcDbArc
 50
90.0
 51
180.0
  0
ARC
  5
76E
100
AcDbEntity
  8
M0
 62
     7
100
AcDbCircle
 10
234.444127
 20
392.88514
 40
1.0
100
AcDbArc
 50
270.0
 51
360.0
  0
LINE
  5
76F
100
AcDbEntity
  8
M0
 62
     7
100
AcDbLine
 10
270.044127
 20
363.485141
 11
267.922806
 21
361.363819
  0
LINE
  5
770
100
AcDbEntity
  8
M0
 62
     7
100
AcDbLine
 10
235.444126
 20
383.48514
 11
235.444126
 21
392.88514
  0
LINE
  5
771
100
AcDbEntity
  8
M0
 62
     7
100
AcDbLine
 10
265.801486
 20
360.48514
 11
254.844127
 21
360.48514
  0
LINE
  5
772
100
AcDbEntity
  8
M0
 62
     7
100
AcDbLine
 10
251.844126
 20
411.285139
 11
251.844126
 21
412.885141
  0
LINE
  5
773
100
AcDbEntity
  8
M0
 62
     7
100
AcDbLine
 10
267.922806
 20
415.00646
 11
270.044127
 21
412.885141
  0
LINE
  5
774
100
AcDbEntity
  8
M0
 62
     7
100
AcDbLine
 10
254.844127
 20
415.885139
 11
265.801486
 21
415.885139
  0
LINE
  5
775
100
AcDbEntity
  8
M0
 62
     7
100
AcDbLine
 10
270.044127
 20
412.885141
 11
274.544127
 21
412.885141
  0
LINE
  5
776
100
AcDbEntity
  8
M0
 62
     7
100
AcDbLine
 10
260.444126
 20
390.38514
 11
260.444126
 21
385.98514
  0
LINE
  5
777
100
AcDbEntity
  8
M0
 62
     7
100
AcDbLine
 10
260.944127
 20
385.48514
 11
273.144127
 21
385.48514
  0
LINE
  5
778
100
AcDbEntity
  8
M0
 62
     7
100
AcDbLine
 10
273.144127
 20
390.88514
 11
260.944127
 21
390.88514
  0
LINE
  5
779
100
AcDbEntity
  8
M0
 62
     7
100
AcDbLine
 10
274.544127
 20
363.68514
 11
270.044127
 21
363.485141
  0
LINE
  5
77A
100
AcDbEntity
  8
M0
 62
     7
100
AcDbLine
 10
274.544127
 20
419.185139
 11
258.444126
 21
419.185139
  0
LINE
  5
77B
100
AcDbEntity
  8
M0
 62
     7
100
AcDbLine
 10
237.944127
 20
352.685138
 11
252.701487
 21
352.685138
  0
LINE
  5
77C
100
AcDbEntity
  8
M0
 62
     7
100
AcDbLine
 10
252.701487
 20
423.685141
 11
237.944127
 21
423.685141
  0
LINE
  5
77D
100
AcDbEntity
  8
M0
 62
     7
100
AcDbLine
 10
258.444126
 20
419.185139
 11
254.822807
 21
422.80646
  0
LINE
  5
77E
100
AcDbEntity
  8
M0
 62
     7
100
AcDbLine
 10
254.822807
 20
353.563819
 11
258.444126
 21
357.18514
  0
LINE
  5
77F
100
AcDbEntity
  8
M0
 62
     7
100
AcDbLine
 10
234.444128
 20
391.88514
 11
234.444128
 21
384.48514
  0
LINE
  5
780
100
AcDbEntity
  8
M0
 62
     7
100
AcDbLine
 10
233.944127
 20
391.88514
 11
234.444128
 21
391.88514
  0
LINE
  5
781
100
AcDbEntity
  8
M0
 62
     7
100
AcDbLine
 10
248.844128
 20
368.08514
 11
235.944127
 21
368.08514
  0
LINE
  5
782
100
AcDbEntity
  8
M0
 62
     7
100
AcDbLine
 10
235.944127
 20
408.285139
 11
248.844128
 21
408.285139
  0
LINE
  5
783
100
AcDbEntity
  8
M0
 62
     7
100
AcDbLine
 10
234.444128
 20
384.48514
 11
233.944127
 21
384.48514
  0
LINE
  5
784
100
AcDbEntity
  8
M0
 62
     7
100
AcDbLine
 10
232.944128
 20
371.085139
 11
232.944128
 21
405.28514
  0
ARC
  5
785
100
AcDbEntity
  8
M0
 62
     7
100
AcDbCircle
 10
273.644127
 20
397.78514
 40
0.5
100
AcDbArc
 50
90.0
 51
180.0
  0
ARC
  5
786
100
AcDbEntity
  8
M0
 62
     7
100
AcDbCircle
 10
273.644127
 20
378.58514
 40
0.5
100
AcDbArc
 50
180.0
 51
270.0
  0
LINE
  5
787
100
AcDbEntity
  8
M0
 62
     7
100
AcDbLine
 10
274.544127
 20
357.18514
 11
258.444126
 21
357.18514
  0
LINE
  5
788
100
AcDbEntity
  8
M0
 62
     7
100
AcDbLine
 10
232.944128
 20
400.18514
 11
229.144127
 21
400.18514
  0
LINE
  5
789
100
AcDbEntity
  8
M0
 62
     7
100
AcDbLine
 10
229.144127
 20
392.78514
 11
232.944128
 21
392.78514
  0
LINE
  5
78A
100
AcDbEntity
  8
M0
 62
     7
100
AcDbLine
 10
230.644127
 20
399.18514
 11
230.644127
 21
392.78514
  0
LINE
  5
78B
100
AcDbEntity
  8
M0
 62
     7
100
AcDbLine
 10
230.644127
 20
394.28514
 11
229.144127
 21
394.28514
  0
LINE
  5
78C
100
AcDbEntity
  8
M0
 62
     7
100
AcDbLine
 10
230.644127
 20
381.685139
 11
229.144127
 21
381.685139
  0
LINE
  5
78D
100
AcDbEntity
  8
M0
 62
     7
100
AcDbLine
 10
263.544127
 20
352.685138
 11
266.544126
 21
352.685138
  0
LINE
  5
78E
100
AcDbEntity
  8
M0
 62
     7
100
AcDbLine
 10
274.544127
 20
352.685138
 11
274.544127
 21
378.08514
  0
LINE
  5
78F
100
AcDbEntity
  8
M0
 62
     7
100
AcDbLine
 10
262.544127
 20
357.18514
 11
262.544127
 21
353.68514
  0
LINE
  5
790
100
AcDbEntity
  8
M0
 62
     7
100
AcDbLine
 10
263.544127
 20
352.685138
 11
274.544127
 21
352.685138
  0
LINE
  5
791
100
AcDbEntity
  8
M0
 62
     7
100
AcDbLine
 10
274.544127
 20
378.08514
 11
273.644127
 21
378.08514
  0
LINE
  5
792
100
AcDbEntity
  8
M0
 62
     7
100
AcDbLine
 10
274.544127
 20
368.08514
 11
281.944127
 21
368.08514
  0
LINE
  5
793
100
AcDbEntity
  8
M0
 62
     7
100
AcDbLine
 10
281.944127
 20
373.085139
 11
274.544127
 21
373.085139
  0
LINE
  5
794
100
AcDbEntity
  8
M0
 62
     7
100
AcDbLine
 10
273.144127
 20
397.78514
 11
273.144127
 21
378.58514
  0
LINE
  5
795
100
AcDbEntity
  8
M0
 62
     7
100
AcDbLine
 10
251.844126
 20
363.485141
 11
251.844126
 21
365.08514
  0
LINE
  5
796
100
AcDbEntity
  8
M0
 62
     7
100
AcDbLine
 10
230.644127
 20
399.18514
 11
230.47048
 21
399.358788
  0
LINE
  5
797
100
AcDbEntity
  8
M0
 62
     7
100
AcDbLine
 10
230.47048
 20
399.358788
 11
230.302108
 21
399.52716
  0
LINE
  5
798
100
AcDbEntity
  8
M0
 62
     7
100
AcDbLine
 10
230.302108
 20
399.52716
 11
230.144126
 21
399.68514
  0
LINE
  5
799
100
AcDbEntity
  8
M0
 62
     7
100
AcDbLine
 10
230.144126
 20
399.68514
 11
230.001339
 21
399.827927
  0
LINE
  5
79A
100
AcDbEntity
  8
M0
 62
     7
100
AcDbLine
 10
230.001339
 20
399.827927
 11
229.87808
 21
399.951184
  0
LINE
  5
79B
100
AcDbEntity
  8
M0
 62
     7
100
AcDbLine
 10
229.87808
 20
399.951184
 11
229.778101
 21
400.051165
  0
LINE
  5
79C
100
AcDbEntity
  8
M0
 62
     7
100
AcDbLine
 10
229.778101
 20
400.051165
 11
229.704433
 21
400.124832
  0
LINE
  5
79D
100
AcDbEntity
  8
M0
 62
     7
100
AcDbLine
 10
229.704433
 20
400.124832
 11
229.65932
 21
400.169947
  0
LINE
  5
79E
100
AcDbEntity
  8
M0
 62
     7
100
AcDbLine
 10
229.65932
 20
400.169947
 11
229.644128
 21
400.18514
  0
LINE
  5
79F
100
AcDbEntity
  8
M0
  6
DASHED
 62
     7
100
AcDbLine
 10
197.344128
 20
390.485133
 11
197.344128
 21
387.685133
  0
LINE
  5
7A0
100
AcDbEntity
  8
M0
  6
DASHED
 62
     7
100
AcDbLine
 10
197.344128
 20
390.485133
 11
198.944127
 21
390.485133
  0
LINE
  5
7A1
100
AcDbEntity
  8
M0
  6
DASHED
 62
     7
100
AcDbLine
 10
198.944127
 20
387.685133
 11
197.344128
 21
387.685133
  0
LINE
  5
7A2
100
AcDbEntity
  8
M0
  6
DASHED
 62
     7
100
AcDbLine
 10
232.444127
 20
406.885127
 11
223.044127
 21
406.885127
  0
LINE
  5
7A3
100
AcDbEntity
  8
M0
  6
DASHED
 62
     7
100
AcDbLine
 10
232.444128
 20
371.485139
 11
227.644126
 21
371.485139
  0
LINE
  5
7A4
100
AcDbEntity
  8
M0
  6
DASHED
 62
     7
100
AcDbLine
 10
198.944127
 20
369.785133
 11
198.944127
 21
408.585133
  0
ARC
  5
7A5
100
AcDbEntity
  8
M0
  6
DASHED
 62
     7
100
AcDbCircle
 10
202.944127
 20
369.785133
 40
4.0
100
AcDbArc
 50
180.0
 51
270.0
  0
ARC
  5
7A6
100
AcDbEntity
  8
M0
  6
DASHED
 62
     7
100
AcDbCircle
 10
218.044127
 20
370.785133
 40
5.0
100
AcDbArc
 50
270.0
 51
360.0
  0
ARC
  5
7A7
100
AcDbEntity
  8
M0
  6
DASHED
 62
     7
100
AcDbCircle
 10
232.444127
 20
371.985139
 40
0.5
100
AcDbArc
 50
270.0
 51
360.0
  0
ARC
  5
7A8
100
AcDbEntity
  8
M0
  6
DASHED
 62
     7
100
AcDbCircle
 10
202.944127
 20
408.585133
 40
4.0
100
AcDbArc
 50
90.0
 51
180.0
  0
ARC
  5
7A9
100
AcDbEntity
  8
M0
  6
DASHED
 62
     7
100
AcDbCircle
 10
218.044127
 20
407.585133
 40
5.0
100
AcDbArc
 50
0.0
 51
90.0
  0
ARC
  5
7AA
100
AcDbEntity
  8
M0
  6
DASHED
 62
     7
100
AcDbCircle
 10
232.444127
 20
406.385127
 40
0.5
100
AcDbArc
 50
0.0
 51
90.0
  0
LINE
  5
7AB
100
AcDbEntity
  8
M0
  6
DASHED
 62
     7
100
AcDbLine
 10
223.044127
 20
406.885127
 11
223.044127
 21
407.585133
  0
LINE
  5
7AC
100
AcDbEntity
  8
M0
  6
DASHED
 62
     7
100
AcDbLine
 10
218.044127
 20
412.585134
 11
202.944127
 21
412.585134
  0
LINE
  5
7AD
100
AcDbEntity
  8
M0
  6
DASHED
 62
     7
100
AcDbLine
 10
230.844127
 20
406.885127
 11
230.844127
 21
408.885133
  0
LINE
  5
7AE
100
AcDbEntity
  8
M0
  6
DASHED
 62
     7
100
AcDbLine
 10
231.244127
 20
408.885133
 11
231.844129
 21
406.885127
  0
LINE
  5
7AF
100
AcDbEntity
  8
M0
  6
DASHED
 62
     7
100
AcDbLine
 10
230.844127
 20
408.885133
 11
231.244127
 21
408.885133
  0
LINE
  5
7B0
100
AcDbEntity
  8
M0
  6
DASHED
 62
     7
100
AcDbLine
 10
232.444128
 20
371.485139
 11
223.044127
 21
371.485139
  0
LINE
  5
7B1
100
AcDbEntity
  8
M0
  6
DASHED
 62
     7
100
AcDbLine
 10
223.044127
 20
371.485139
 11
223.044127
 21
370.785133
  0
LINE
  5
7B2
100
AcDbEntity
  8
M0
  6
DASHED
 62
     7
100
AcDbLine
 10
218.044127
 20
365.785133
 11
202.944127
 21
365.785133
  0
CIRCLE
  5
7B3
100
AcDbEntity
  8
M0
 62
     6
100
AcDbCircle
 10
127.897893
 20
316.684896
 40
2.999997
  0
LINE
  5
7B4
100
AcDbEntity
  8
M0
 62
     6
100
AcDbLine
 10
124.982839
 20
320.774924
 11
124.122747
 21
317.984944
  0
LINE
  5
7B5
100
AcDbEntity
  8
M0
 62
     6
100
AcDbLine
 10
124.938909
 20
312.737645
 11
124.122747
 21
315.384969
  0
LINE
  5
7B6
100
AcDbEntity
  8
M0
 62
     6
100
AcDbLine
 10
130.890813
 20
320.520599
 11
131.672796
 21
317.984944
  0
LINE
  5
7B7
100
AcDbEntity
  8
M0
 62
     6
100
AcDbLine
 10
130.856389
 20
312.73763
 11
131.672796
 21
315.384969
  0
LINE
  5
7B8
100
AcDbEntity
  8
M0
 62
     6
100
AcDbLine
 10
125.416936
 20
312.384969
 11
130.378606
 21
312.384969
  0
LINE
  5
7B9
100
AcDbEntity
  8
M0
 62
     6
100
AcDbLine
 10
131.672796
 20
315.384969
 11
131.672796
 21
317.984944
  0
LINE
  5
7BA
100
AcDbEntity
  8
M0
 62
     6
100
AcDbLine
 10
124.122747
 20
317.984944
 11
124.122747
 21
315.384969
  0
LINE
  5
7BB
100
AcDbEntity
  8
M0
 62
     6
100
AcDbLine
 10
129.48847
 20
315.094075
 11
126.306829
 21
318.275838
  0
LINE
  5
7BC
100
AcDbEntity
  8
M0
 62
     6
100
AcDbLine
 10
128.251165
 20
318.09908
 11
126.483587
 21
316.33138
  0
LINE
  5
7BD
100
AcDbEntity
  8
M0
 62
     6
100
AcDbLine
 10
129.311712
 20
317.038411
 11
127.544134
 21
315.270833
  0
ARC
  5
7BE
100
AcDbEntity
  8
M0
 62
     6
100
AcDbCircle
 10
125.416936
 20
312.884969
 40
0.5
100
AcDbArc
 50
197.128737
 51
270.0
  0
ARC
  5
7BF
100
AcDbEntity
  8
M0
 62
     6
100
AcDbCircle
 10
130.378606
 20
312.884969
 40
0.5
100
AcDbArc
 50
270.0
 51
342.861308
  0
LINE
  5
7C0
100
AcDbEntity
  8
M0
  6
DASHDOT
 62
     6
100
AcDbLine
 10
127.397893
 20
316.684896
 11
128.397893
 21
316.684896
  0
LINE
  5
7C1
100
AcDbEntity
  8
M0
  6
DASHDOT
 62
     6
100
AcDbLine
 10
127.897893
 20
316.184896
 11
127.897893
 21
317.184896
  0
LINE
  5
7C2
100
AcDbEntity
  8
M0
  6
DASHDOT
100
AcDbLine
 10
80.597854
 20
208.009691
 11
72.403045
 21
208.009691
  0
LINE
  5
7C3
100
AcDbEntity
  8
M0
  6
DASHDOT
100
AcDbLine
 10
76.500442
 20
212.107088
 11
76.500457
 21
203.912279
  0
LINE
  5
7C4
100
AcDbEntity
  8
M0
  6
DASHDOT
100
AcDbLine
 10
135.097856
 20
149.009691
 11
125.903047
 21
149.009691
  0
LINE
  5
7C5
100
AcDbEntity
  8
M0
  6
DASHDOT
100
AcDbLine
 10
130.500444
 20
153.607088
 11
130.500459
 21
143.912279
  0
LINE
  5
7C6
100
AcDbEntity
  8
M0
  6
DIVIDE
100
AcDbLine
 10
135.151501
 20
90.509488
 11
72.100451
 21
90.509525
  0
LINE
  5
7C7
100
AcDbEntity
  8
M0
  6
DIVIDE
100
AcDbLine
 10
134.900448
 20
213.509699
 11
134.900448
 21
90.509489
  0
LINE
  5
7C8
100
AcDbEntity
  8
M0
  6
DIVIDE
100
AcDbLine
 10
135.151683
 20
143.509696
 11
134.900448
 21
143.509696
  0
LINE
  5
7C9
100
AcDbEntity
  8
M0
  6
DIVIDE
100
AcDbLine
 10
120.47045
 20
213.509699
 11
134.900448
 21
213.509699
  0
LINE
  5
7CA
100
AcDbEntity
  8
M0
  6
DIVIDE
100
AcDbLine
 10
72.100451
 20
213.509699
 11
86.530452
 21
213.509699
  0
LINE
  5
7CB
100
AcDbEntity
  8
M0
  6
DIVIDE
100
AcDbLine
 10
72.100451
 20
90.509525
 11
72.100451
 21
213.509699
  0
CIRCLE
  5
7CC
100
AcDbEntity
  8
M0
100
AcDbCircle
 10
130.500451
 20
149.009691
 40
2.0
  0
CIRCLE
  5
7CD
100
AcDbEntity
  8
M0
100
AcDbCircle
 10
130.500451
 20
149.009691
 40
1.7
  0
CIRCLE
  5
7CE
100
AcDbEntity
  8
M0
100
AcDbCircle
 10
76.500449
 20
208.009691
 40
2.0
  0
CIRCLE
  5
7CF
100
AcDbEntity
  8
M0
100
AcDbCircle
 10
76.500449
 20
208.009691
 40
1.7
  0
LINE
  5
7D0
100
AcDbEntity
  8
M0
  6
DIVIDE
100
AcDbLine
 10
120.200452
 20
222.509691
 11
86.80045
 21
222.509691
  0
LINE
  5
7D1
100
AcDbEntity
  8
M0
  6
DIVIDE
100
AcDbLine
 10
86.530452
 20
222.509691
 11
86.530452
 21
213.509699
  0
LINE
  5
7D2
100
AcDbEntity
  8
M0
  6
DIVIDE
100
AcDbLine
 10
120.47045
 20
222.509691
 11
120.47045
 21
213.509699
  0
LINE
  5
7D3
100
AcDbEntity
  8
M1
 62
     2
100
AcDbLine
 10
18.181818
 20
18.181818
 11
18.181818
 21
518.181807
  0
LINE
  5
7D4
100
AcDbEntity
  8
M1
 62
     2
100
AcDbLine
 10
18.181818
 20
518.181807
 11
363.636356
 21
518.181807
  0
LINE
  5
7D5
100
AcDbEntity
  8
M1
 62
     2
100
AcDbLine
 10
363.636356
 20
518.181807
 11
363.636356
 21
18.181818
  0
LINE
  5
7D6
100
AcDbEntity
  8
M1
 62
     2
100
AcDbLine
 10
363.636356
 20
18.181818
 11
18.181818
 21
18.181818
  0
LINE
  5
7D7
100
AcDbEntity
  8
M1
 62
     2
100
AcDbLine
 10
363.636356
 20
36.363636
 11
181.818178
 21
36.363636
  0
LINE
  5
7D8
100
AcDbEntity
  8
M1
 62
     2
100
AcDbLine
 10
363.636356
 20
54.545453
 11
181.818178
 21
54.545453
  0
LINE
  5
7D9
100
AcDbEntity
  8
M1
 62
     2
100
AcDbLine
 10
363.636356
 20
72.727271
 11
181.818178
 21
72.727271
  0
LINE
  5
7DA
100
AcDbEntity
  8
M1
 62
     2
100
AcDbLine
 10
181.818178
 20
18.181818
 11
181.818178
 21
72.727271
  0
TEXT
  5
7DB
100
AcDbEntity
  8
M1
 62
     2
100
AcDbText
 10
186.363632
 20
22.727272
 40
9.090909
  1
適　用；
 41
1.0
  7
STANDARD
100
AcDbText
  0
TEXT
  5
7DC
100
AcDbEntity
  8
M1
 62
     2
100
AcDbText
 10
186.363632
 20
59.090908
 40
9.090909
  1
登録名：
 41
1.0
  7
STANDARD
100
AcDbText
  0
TEXT
  5
7DD
100
AcDbEntity
  8
M1
 62
     2
100
AcDbText
 10
229.999995
 20
59.090908
 40
9.090909
  1
ＤＭＨＳ２０ＴＧＲ００
 41
0.5
  7
STANDARD
100
AcDbText
  0
TEXT
  5
7DE
100
AcDbEntity
  8
M1
 62
     2
100
AcDbText
 10
186.363632
 20
40.90909
 40
9.090909
  1
形　式；
 41
1.0
  7
STANDARD
100
AcDbText
  0
TEXT
  5
7DF
100
AcDbEntity
  8
M1
 62
     2
100
AcDbText
 10
229.999995
 20
40.90909
 40
9.090909
  1
ＨＳ２０－ＴＧ
 41
0.5
  7
STANDARD
100
AcDbText
  0
LINE
  5
7E0
100
AcDbEntity
  8
DN0
100
AcDbLine
 10
88.899988
 20
66.746328
 11
118.409086
 21
66.746328
  0
TEXT
  5
7E1
100
AcDbEntity
  8
DN0
100
AcDbText
 10
89.715139
 20
67.473601
 40
7.272727
  1
せん孔図
 41
0.833333
  7
STANDARD
100
AcDbText
  0
ENDSEC
  0
SECTION
  2
OBJECTS
  0
DICTIONARY
  5
C
100
AcDbDictionary
  3
ACAD_GROUP
350
D
  3
ACAD_MLINESTYLE
350
E
  3
ACDBVARIABLEDICTIONARY
350
653
  0
DICTIONARY
  5
D
102
{ACAD_REACTORS
330
C
102
}
100
AcDbDictionary
  0
DICTIONARY
  5
E
102
{ACAD_REACTORS
330
C
102
}
100
AcDbDictionary
  3
STANDARD
350
13
  0
DICTIONARY
  5
653
102
{ACAD_REACTORS
330
C
102
}
100
AcDbDictionary
  3
SORTENTS
350
654
  0
MLINESTYLE
  5
13
102
{ACAD_REACTORS
330
E
102
}
100
AcDbMlineStyle
  2
STANDARD
 70
     0
  3

 62
     0
 51
90.0
 52
90.0
 71
     2
 49
0.5
 62
   256
  6
BYLAYER
 49
-0.5
 62
   256
  6
BYLAYER
  0
DICTIONARYVAR
  5
654
102
{ACAD_REACTORS
330
653
102
}
100
DictionaryVariables
280
     0
  1
96
  0
ENDSEC
  0
EOF
