  0
SECTION
  2
HEADER
  9
$ACADVER
  1
AC1014
  9
$INSBASE
 10
0.000000
 20
0.000000
 30
0.0
  9
$VIEWCTR
 10
7.531722
 20
4.5
  9
$VIEWSIZE
 40
9.0
  9
$SNAPMODE
 70
     0
  9
$SNAPUNIT
 10
1.0
 20
1.0
  9
$SNAPBASE
 10
0.0
 20
0.0
  9
$SNAPANG
 50
0.0
  9
$SNAPSTYLE
 70
     0
  9
$SNAPISOPAIR
 70
     0
  9
$GRIDMODE
 70
     0
  9
$GRIDUNIT
 10
0.0
 20
0.0
  9
$ORTHOMODE
 70
     0
  9
$REGENMODE
 70
     1
  9
$FILLMODE
 70
     1
  9
$QTEXTMODE
 70
     0
  9
$DRAGMODE
 70
     2
  9
$LTSCALE
  40
     1.000000
  9
$OSMODE
 70
     0
  9
$ATTMODE
 70
     1
  9
$TEXTSIZE
 40
0.2
  9
$TRACEWID
 40
0.05
  9
$TEXTSTYLE
  7
STANDARD
  9
$CELTYPE
  6
BYLAYER
  9
$CECOLOR
 62
   256
  9
$DIMSCALE
 40
1.0
  9
$DIMASZ
 40
0.18
  9
$DIMEXO
 40
0.0625
  9
$DIMDLI
 40
0.38
  9
$DIMRND
 40
0.0
  9
$DIMDLE
 40
0.0
  9
$DIMEXE
 40
0.18
  9
$DIMTP
 40
0.0
  9
$DIMTM
 40
0.0
  9
$DIMTXT
 40
0.18
  9
$DIMCEN
 40
0.09
  9
$DIMTSZ
 40
0.0
  9
$DIMTOL
 70
     0
  9
$DIMLIM
 70
     0
  9
$DIMTIH
 70
     1
  9
$DIMTOH
 70
     1
  9
$DIMSE1
 70
     0
  9
$DIMSE2
 70
     0
  9
$DIMTAD
 70
     0
  9
$DIMZIN
 70
     0
  9
$DIMBLK
  1

  9
$LUNITS
 70
     2
  9
$LUPREC
 70
     4
  9
$AXISMODE
 70
     0
  9
$AXISUNIT
 10
0.0
 20
0.0
  9
$SKETCHINC
 40
0.1
  9
$FILLETRAD
 40
0.0
  9
$AUNITS
 70
     0
  9
$AUPREC
 70
     0
  9
$MENU
  1
ACAD
  9
$ELEVATION
 40
0.0
  9
$THICKNESS
 40
0.0
  9
$VIEWDIR
 10
0.0
 20
0.0
 30
1.0
  9
$LIMCHECK
 70
     0
  9
$BLIPMODE
 70
     1
  9
$CHAMFERA
 40
0.0
  9
$CHAMFERB
 40
0.0
  9
$FASTZOOM
 70
     1
  9
$SKPOLY
 70
     0
  9
$TDCREATE
 40
0000000.0000000000
  9
$TDUPDATE
 40
0000000.0000000000
  9
$TDINDWG
 40
0.0000000000
  9
$TDUSRTIMER
 40
0.0000000000
  9
$USRTIMER
 70
     1
  9
$ANGBASE
 50
0.0
  9
$ANGDIR
 70
     0
  9
$PDMODE
 70
     0
  9
$PDSIZE
 40
0.0
  9
$PLINEWID
 40
0.0
  9
$COORDS
 70
     0
  9
$USERI1
 70
     0
  9
$USERI2
 70
     0
  9
$USERI3
 70
     0
  9
$USERI4
 70
     0
  9
$USERI5
 70
     0
  9
$USERR1
 40
0.0
  9
$USERR2
 40
0.0
  9
$USERR3
 40
0.0
  9
$USERR4
 40
0.0
  9
$USERR5
 40
0.0
  9
$CLAYER
  8
M0
  9
$EXTMIN
 10
16.336965
 20
17.593654
  9
$EXTMAX
 10
333.003619
 20
475.92697
  9
$LIMMIN
 10
0.0
 20
0.0
  9
$LIMMAX
 10
210.0
 20
297.0
  9
$HANDSEED
  5
941
  0
ENDSEC
  0
SECTION
  2
CLASSES
  0
CLASS
  1
DICTIONARYVAR
  2
AcDbDictionaryVar
  3
"AutoCAD"
 90
        0
280
     0
281
     0
  0
CLASS
  1
HATCH
  2
AcDbHatch
  3
"ACAD_SEDONA"
 90
        0
280
     0
281
     1
  0
ENDSEC
  0
SECTION
  2
TABLES
  0
TABLE
  2
VPORT
  5
8
100
AcDbSymbolTable
 70
     2
  0
VPORT
  5
14
100
AcDbSymbolTableRecord
100
AcDbViewportTableRecord
  2
*ACTIVE
 70
     0
 10
0.0
 20
0.0
 11
1.0
 21
1.0
 12
484.0
 22
297.0
 13
0.0
 23
0.0
 14
1.0
 24
1.0
 15
0.0
 25
0.0
 16
0.0
 26
0.0
 36
1.0
 17
0.0
 27
0.0
 37
0.0
 40
594.0
 41
2.0
 42
50.0
 43
0.0
 44
0.0
 50
0.0
 51
0.0
 71
     0
 72
   100
 73
     1
 74
     1
 75
     0
 76
     0
 77
     0
 78
     0
  0
ENDTAB
  0
TABLE
  2
LTYPE
  5
5
100
AcDbSymbolTable
 70
     5
  0
LTYPE
  5
15
100
AcDbSymbolTableRecord
100
AcDbLinetypeTableRecord
  2
BYBLOCK
 70
     0
  3

 72
    65
 73
     0
 40
0.0
  0
LTYPE
  5
16
100
AcDbSymbolTableRecord
100
AcDbLinetypeTableRecord
  2
BYLAYER
 70
     0
  3

 72
    65
 73
     0
 40
0.0
  0
LTYPE
  5
17
100
AcDbSymbolTableRecord
100
AcDbLinetypeTableRecord
  2
CONTINUOUS
 70
    64
  3
Solid line
 72
    65
 73
     0
 40
0.0
  0
LTYPE
  5
18
100
AcDbSymbolTableRecord
100
AcDbLinetypeTableRecord
  2
DASHED
 70
    64
  3
__ __ __ __ __ __ __ __ __ __ __ __ __ __ __ __
 72
    65
 73
     2
 40
0.75
 49
0.5
 74
     0
 49
-0.25
 74
     0
  0
LTYPE
  5
19
100
AcDbSymbolTableRecord
100
AcDbLinetypeTableRecord
  2
DASHDOT
 70
    64
  3
__ . __ . __ . __ . __ . __ . __ . __ . __ . __
 72
    65
 73
     4
 40
1.0
 49
0.5
 74
     0
 49
-0.25
 74
     0
 49
0.0
 74
     0
 49
-0.25
 74
     0
  0
LTYPE
  5
1A
100
AcDbSymbolTableRecord
100
AcDbLinetypeTableRecord
  2
DIVIDE
 70
    64
  3
____ . . ____ . . ____ . . ____ . . ____ . . __
 72
    65
 73
     6
 40
1.25
 49
0.5
 74
     0
 49
-0.25
 74
     0
 49
0.0
 74
     0
 49
-0.25
 74
     0
 49
0.0
 74
     0
 49
-0.25
 74
     0
  0
LTYPE
  5
1B
100
AcDbSymbolTableRecord
100
AcDbLinetypeTableRecord
  2
DOT
 70
    64
  3
. . . . . . . . . . . . . . . . . . . . . . . .
 72
    65
 73
     2
 40
0.25
 49
0.0
 74
     0
 49
-0.25
 74
     0
  0
ENDTAB
  0
TABLE
  2
LAYER
  5
2
100
AcDbSymbolTable
 70
   102
  0
LAYER
  5
F
100
AcDbSymbolTableRecord
100
AcDbLayerTableRecord
  2
0
 70
     0
 62
     7
  6
CONTINUOUS
  0
LAYER
  5
1C
100
AcDbSymbolTableRecord
100
AcDbLayerTableRecord
  2
DEFPOINTS
 70
     0
 62
     7
  6
CONTINUOUS
  0
LAYER
  5
1D
100
AcDbSymbolTableRecord
100
AcDbLayerTableRecord
  2
M0
 70
     0
 62
     3
  6
CONTINUOUS
  0
LAYER
  5
1E
100
AcDbSymbolTableRecord
100
AcDbLayerTableRecord
  2
M3
 70
     0
 62
     3
  6
CONTINUOUS
  0
LAYER
  5
1F
100
AcDbSymbolTableRecord
100
AcDbLayerTableRecord
  2
DD0
 70
     0
 62
     4
  6
CONTINUOUS
  0
LAYER
  5
20
100
AcDbSymbolTableRecord
100
AcDbLayerTableRecord
  2
DN0
 70
     0
 62
     2
  6
CONTINUOUS
  0
ENDTAB
  0
TABLE
  2
STYLE
  5
3
100
AcDbSymbolTable
 70
     2
  0
STYLE
  5
10
100
AcDbSymbolTableRecord
100
AcDbTextStyleTableRecord
  2
STANDARD
 70
     0
 40
0.0
 41
1.0
 50
0.0
 71
     0
 42
0.2
  3
txt
  4
BIGFONT
  0
ENDTAB
  0
TABLE
  2
VIEW
  5
6
100
AcDbSymbolTable
 70
     0
  0
ENDTAB
  0
TABLE
  2
UCS
  5
7
100
AcDbSymbolTable
 70
     0
  0
ENDTAB
  0
TABLE
  2
APPID
  5
9
100
AcDbSymbolTable
 70
     1
  0
APPID
  5
11
100
AcDbSymbolTableRecord
100
AcDbRegAppTableRecord
  2
ACAD
 70
     0
  0
ENDTAB
  0
TABLE
  2
DIMSTYLE
  5
A
100
AcDbSymbolTable
 70
     2
  0
DIMSTYLE
105
27
100
AcDbSymbolTableRecord
100
AcDbDimStyleTableRecord
  2
STANDARD
 70
     0
  3

  4

  5

  6
_OPEN
  7
_OPEN
 40
1.0
 41
5.0
 42
1.0
 43
8.0
 44
1.0
 45
0.0
 46
0.0
 47
0.0
 48
0.0
140
5.25
141
0.09
142
0.0
143
0.03937
144
1.0
145
0.0
146
1.0
147
0.6
 71
     0
 72
     0
 73
     1
 74
     1
 75
     0
 76
     0
 77
     3
 78
     8
170
     0
171
     2
172
     0
173
     1
174
     0
175
     0
176
     0
177
     0
178
     0
270
     2
271
     2
272
     4
273
     2
274
     2
340
10
275
     0
280
     0
281
     0
282
     0
283
     1
284
     0
285
     0
286
     0
287
     3
288
     0
  0
DIMSTYLE
105
28
100
AcDbSymbolTableRecord
100
AcDbDimStyleTableRecord
  2
LEADSTYL
 70
     0
  3

  4

  5

  6
_OPEN
  7
_OPEN
 40
1.0
 41
5.0
 42
0.0625
 43
0.38
 44
0.18
 45
0.0
 46
0.0
 47
0.0
 48
0.0
140
5.25
141
0.09
142
0.0
143
25.4
144
1.0
145
0.0
146
1.0
147
0.6
 71
     0
 72
     0
 73
     1
 74
     1
 75
     0
 76
     0
 77
     0
 78
     0
170
     0
171
     2
172
     0
173
     1
174
     0
175
     0
176
     0
177
     0
178
     0
270
     2
271
     4
272
     4
273
     2
274
     2
340
10
275
     0
280
     0
281
     0
282
     0
283
     1
284
     0
285
     0
286
     0
287
     3
288
     0
  0
ENDTAB
  0
TABLE
  2
BLOCK_RECORD
  5
1
100
AcDbSymbolTable
 70
    22
  0
BLOCK_RECORD
  5
21
100
AcDbSymbolTableRecord
100
AcDbBlockTableRecord
  2
*MODEL_SPACE
  0
BLOCK_RECORD
  5
24
100
AcDbSymbolTableRecord
100
AcDbBlockTableRecord
  2
*PAPER_SPACE
  0
BLOCK_RECORD
  5
29
100
AcDbSymbolTableRecord
100
AcDbBlockTableRecord
  2
_NONE
  0
BLOCK_RECORD
  5
2D
100
AcDbSymbolTableRecord
100
AcDbBlockTableRecord
  2
_OPEN
  0
BLOCK_RECORD
  5
33
100
AcDbSymbolTableRecord
100
AcDbBlockTableRecord
  2
_CLOSED
  0
BLOCK_RECORD
  5
3A
100
AcDbSymbolTableRecord
100
AcDbBlockTableRecord
  2
_ORIGIN
  0
BLOCK_RECORD
  5
3F
100
AcDbSymbolTableRecord
100
AcDbBlockTableRecord
  2
_DOT
  0
BLOCK_RECORD
  5
47
100
AcDbSymbolTableRecord
100
AcDbBlockTableRecord
  2
_OBLIQUE
  0
BLOCK_RECORD
  5
4B
100
AcDbSymbolTableRecord
100
AcDbBlockTableRecord
  2
DIMS0
  0
BLOCK_RECORD
  5
57
100
AcDbSymbolTableRecord
100
AcDbBlockTableRecord
  2
DIMS1
  0
BLOCK_RECORD
  5
63
100
AcDbSymbolTableRecord
100
AcDbBlockTableRecord
  2
DIMS2
  0
BLOCK_RECORD
  5
6E
100
AcDbSymbolTableRecord
100
AcDbBlockTableRecord
  2
DIMS3
  0
BLOCK_RECORD
  5
7A
100
AcDbSymbolTableRecord
100
AcDbBlockTableRecord
  2
DIMS4
  0
BLOCK_RECORD
  5
85
100
AcDbSymbolTableRecord
100
AcDbBlockTableRecord
  2
DIMS5
  0
BLOCK_RECORD
  5
91
100
AcDbSymbolTableRecord
100
AcDbBlockTableRecord
  2
DIMS6
  0
BLOCK_RECORD
  5
9D
100
AcDbSymbolTableRecord
100
AcDbBlockTableRecord
  2
DIMS7
  0
BLOCK_RECORD
  5
A9
100
AcDbSymbolTableRecord
100
AcDbBlockTableRecord
  2
DIMS8
  0
BLOCK_RECORD
  5
B6
100
AcDbSymbolTableRecord
100
AcDbBlockTableRecord
  2
DIMS9
  0
BLOCK_RECORD
  5
C2
100
AcDbSymbolTableRecord
100
AcDbBlockTableRecord
  2
DIMS10
  0
BLOCK_RECORD
  5
CE
100
AcDbSymbolTableRecord
100
AcDbBlockTableRecord
  2
DIMS11
  0
BLOCK_RECORD
  5
D7
100
AcDbSymbolTableRecord
100
AcDbBlockTableRecord
  2
DIMS12
  0
BLOCK_RECORD
  5
E3
100
AcDbSymbolTableRecord
100
AcDbBlockTableRecord
  2
DIMS13
  0
BLOCK_RECORD
  5
EF
100
AcDbSymbolTableRecord
100
AcDbBlockTableRecord
  2
DIMS14
  0
BLOCK_RECORD
  5
FB
100
AcDbSymbolTableRecord
100
AcDbBlockTableRecord
  2
DIMS15
  0
ENDTAB
  0
ENDSEC
  0
SECTION
  2
BLOCKS
  0
BLOCK
  5
22
100
AcDbEntity
  8
0
100
AcDbBlockBegin
  2
*MODEL_SPACE
 70
     0
 10
0.0
 20
0.0
 30
0.0
  3
*MODEL_SPACE
  1

  0
ENDBLK
  5
23
100
AcDbEntity
  8
0
100
AcDbBlockEnd
  0
BLOCK
  5
25
100
AcDbEntity
 67
     1
  8
0
100
AcDbBlockBegin
  2
*PAPER_SPACE
 70
     0
 10
0.0
 20
0.0
 30
0.0
  3
*PAPER_SPACE
  1

  0
ENDBLK
  5
26
100
AcDbEntity
 67
     1
  8
0
100
AcDbBlockEnd
  0
BLOCK
  5
2A
100
AcDbEntity
  8
0
100
AcDbBlockBegin
  2
_NONE
 70
     0
 10
0.0
 20
0.0
  0
CIRCLE
  5
2B
100
AcDbEntity
  8
0
 62
     0
100
AcDbCircle
 10
0.0
 20
0.0
 40
0.25
  0
ENDBLK
  5
2C
100
AcDbEntity
  8
0
100
AcDbBlockEnd
  0
BLOCK
  5
2E
100
AcDbEntity
  8
0
100
AcDbBlockBegin
  2
_OPEN
 70
     0
 10
0.0
 20
0.0
  0
LINE
  5
2F
100
AcDbEntity
  8
0
 62
     0
100
AcDbLine
 10
-0.965926
 20
0.258819
 11
0.0
 21
0.0
  0
LINE
  5
30
100
AcDbEntity
  8
0
 62
     0
100
AcDbLine
 10
0.0
 20
0.0
 11
-0.965926
 21
-0.258819
  0
LINE
  5
31
100
AcDbEntity
  8
0
 62
     0
100
AcDbLine
 10
0.0
 20
0.0
 11
-1.0
 21
0.0
  0
ENDBLK
  5
32
100
AcDbEntity
  8
0
100
AcDbBlockEnd
  0
BLOCK
  5
34
100
AcDbEntity
  8
0
100
AcDbBlockBegin
  2
_CLOSED
 70
     0
 10
0.0
 20
0.0
  0
LINE
  5
35
100
AcDbEntity
  8
0
 62
     0
100
AcDbLine
 10
-0.965926
 20
0.258819
 11
0.0
 21
0.0
  0
LINE
  5
36
100
AcDbEntity
  8
0
 62
     0
100
AcDbLine
 10
0.0
 20
0.0
 11
-0.965926
 21
-0.258819
  0
LINE
  5
37
100
AcDbEntity
  8
0
 62
     0
100
AcDbLine
 10
-0.965926
 20
0.258819
 11
-0.965926
 21
-0.258819
  0
LINE
  5
38
100
AcDbEntity
  8
0
 62
     0
100
AcDbLine
 10
0.0
 20
0.0
 11
-1.0
 21
0.0
  0
ENDBLK
  5
39
100
AcDbEntity
  8
0
100
AcDbBlockEnd
  0
BLOCK
  5
3B
100
AcDbEntity
  8
0
100
AcDbBlockBegin
  2
_ORIGIN
 70
     0
 10
0.0
 20
0.0
  0
CIRCLE
  5
3C
100
AcDbEntity
  8
0
 62
     0
100
AcDbCircle
 10
0.0
 20
0.0
 40
0.5
  0
LINE
  5
3D
100
AcDbEntity
  8
0
 62
     0
100
AcDbLine
 10
0.0
 20
0.0
 11
-1.0
 21
0.0
  0
ENDBLK
  5
3E
100
AcDbEntity
  8
0
100
AcDbBlockEnd
  0
BLOCK
  5
40
100
AcDbEntity
  8
0
100
AcDbBlockBegin
  2
_DOT
 70
     0
 10
0.0
 20
0.0
  0
POLYLINE
  5
41
100
AcDbEntity
  8
0
 62
     0
100
AcDb2dPolyline
 66
     1
 70
     1
 40
0.5
 41
0.5
  0
VERTEX
  5
42
100
AcDbEntity
  8
0
 62
     0
100
AcDbVertex
100
AcDb2dVertex
 10
-0.25
 20
0.0
 42
1.0
  0
VERTEX
  5
43
100
AcDbEntity
  8
0
 62
     0
100
AcDbVertex
100
AcDb2dVertex
 10
0.25
 20
0.0
 42
1.0
  0
SEQEND
  5
44
100
AcDbEntity
  8
0
 62
     0
  0
LINE
  5
45
100
AcDbEntity
  8
0
 62
     0
100
AcDbLine
 10
-0.5
 20
0.0
 11
-1.0
 21
0.0
  0
ENDBLK
  5
46
100
AcDbEntity
  8
0
100
AcDbBlockEnd
  0
BLOCK
  5
48
100
AcDbEntity
  8
0
100
AcDbBlockBegin
  2
_OBLIQUE
 70
     0
 10
0.0
 20
0.0
  0
LINE
  5
49
100
AcDbEntity
  8
0
 62
     0
100
AcDbLine
 10
-0.353553
 20
-0.353553
 11
0.353553
 21
0.353553
  0
ENDBLK
  5
4A
100
AcDbEntity
  8
0
100
AcDbBlockEnd
  0
BLOCK
  5
4C
100
AcDbEntity
  8
DD0
100
AcDbBlockBegin
  2
DIMS0
 70
     0
 10
0.0
 20
0.0
  0
LINE
  5
4D
100
AcDbEntity
  8
DD0
100
AcDbLine
 10
166.3425
 20
386.967504
 11
196.869143
 21
386.967504
  0
LINE
  5
4E
100
AcDbEntity
  8
DD0
100
AcDbLine
 10
166.3425
 20
286.967508
 11
196.869143
 21
286.967508
  0
LINE
  5
4F
100
AcDbEntity
  8
DD0
100
AcDbLine
 10
196.496572
 20
382.137875
 11
195.202476
 21
386.967504
  0
LINE
  5
50
100
AcDbEntity
  8
DD0
100
AcDbLine
 10
195.202476
 20
386.967504
 11
193.908381
 21
382.137875
  0
LINE
  5
51
100
AcDbEntity
  8
DD0
100
AcDbLine
 10
193.908381
 20
291.797137
 11
195.202476
 21
286.967508
  0
LINE
  5
52
100
AcDbEntity
  8
DD0
100
AcDbLine
 10
195.202476
 20
286.967508
 11
196.496572
 21
291.797137
  0
LINE
  5
53
100
AcDbEntity
  8
DD0
100
AcDbLine
 10
195.202476
 20
386.967504
 11
195.202476
 21
286.967508
  0
TEXT
  5
54
100
AcDbEntity
  8
DD0
100
AcDbText
 10
194.202479
 20
332.253607
 40
4.166667
  1
１００
 50
90.000003
 41
0.666667
  7
STANDARD
100
AcDbText
  0
ENDBLK
  5
55
100
AcDbEntity
  8
DD0
100
AcDbBlockEnd
  0
BLOCK
  5
58
100
AcDbEntity
  8
DD0
100
AcDbBlockBegin
  2
DIMS1
 70
     0
 10
0.0
 20
0.0
  0
LINE
  5
59
100
AcDbEntity
  8
DD0
100
AcDbLine
 10
240.18513
 20
350.134187
 11
240.18513
 21
394.025126
  0
LINE
  5
5A
100
AcDbEntity
  8
DD0
100
AcDbLine
 10
235.185131
 20
387.054301
 11
235.185131
 21
394.025126
  0
LINE
  5
5B
100
AcDbEntity
  8
DD0
100
AcDbLine
 10
245.014759
 20
393.652554
 11
240.18513
 21
392.358459
  0
LINE
  5
5C
100
AcDbEntity
  8
DD0
100
AcDbLine
 10
240.18513
 20
392.358459
 11
245.014759
 21
391.064364
  0
LINE
  5
5D
100
AcDbEntity
  8
DD0
100
AcDbLine
 10
230.355502
 20
391.064364
 11
235.185131
 21
392.358459
  0
LINE
  5
5E
100
AcDbEntity
  8
DD0
100
AcDbLine
 10
235.185131
 20
392.358459
 11
230.355502
 21
393.652554
  0
LINE
  5
5F
100
AcDbEntity
  8
DD0
100
AcDbLine
 10
245.68513
 20
392.358459
 11
224.685131
 21
392.358459
  0
TEXT
  5
60
100
AcDbEntity
  8
DD0
100
AcDbText
 10
226.154571
 20
393.358469
 40
4.166667
  1
５
 41
0.666667
  7
STANDARD
100
AcDbText
  0
ENDBLK
  5
61
100
AcDbEntity
  8
DD0
100
AcDbBlockEnd
  0
BLOCK
  5
64
100
AcDbEntity
  8
DD0
100
AcDbBlockBegin
  2
DIMS2
 70
     0
 10
0.0
 20
0.0
  0
LINE
  5
65
100
AcDbEntity
  8
DD0
100
AcDbLine
 10
240.18513
 20
350.134187
 11
240.18513
 21
412.961409
  0
LINE
  5
66
100
AcDbEntity
  8
DD0
100
AcDbLine
 10
316.455504
 20
410.000648
 11
321.285133
 21
411.294743
  0
LINE
  5
67
100
AcDbEntity
  8
DD0
100
AcDbLine
 10
321.285133
 20
411.294743
 11
316.455504
 21
412.588838
  0
LINE
  5
68
100
AcDbEntity
  8
DD0
100
AcDbLine
 10
245.014759
 20
412.588838
 11
240.18513
 21
411.294743
  0
LINE
  5
69
100
AcDbEntity
  8
DD0
100
AcDbLine
 10
240.18513
 20
411.294743
 11
245.014759
 21
410.000648
  0
LINE
  5
6A
100
AcDbEntity
  8
DD0
100
AcDbLine
 10
321.285133
 20
411.294743
 11
240.18513
 21
411.294743
  0
TEXT
  5
6B
100
AcDbEntity
  8
DD0
100
AcDbText
 10
277.6879
 20
412.294753
 40
4.166667
  1
８１
 41
0.666667
  7
STANDARD
100
AcDbText
  0
ENDBLK
  5
6C
100
AcDbEntity
  8
DD0
100
AcDbBlockEnd
  0
BLOCK
  5
6F
100
AcDbEntity
  8
DD0
100
AcDbBlockBegin
  2
DIMS3
 70
     0
 10
0.0
 20
0.0
  0
LINE
  5
70
100
AcDbEntity
  8
DD0
100
AcDbLine
 10
321.285133
 20
372.384171
 11
321.285133
 21
420.214878
  0
LINE
  5
71
100
AcDbEntity
  8
DD0
100
AcDbLine
 10
208.885134
 20
340.93418
 11
208.885134
 21
420.214878
  0
LINE
  5
72
100
AcDbEntity
  8
DD0
100
AcDbLine
 10
316.455504
 20
417.254116
 11
321.285133
 21
418.548211
  0
LINE
  5
73
100
AcDbEntity
  8
DD0
100
AcDbLine
 10
321.285133
 20
418.548211
 11
316.455504
 21
419.842307
  0
LINE
  5
74
100
AcDbEntity
  8
DD0
100
AcDbLine
 10
213.714763
 20
419.842307
 11
208.885134
 21
418.548211
  0
LINE
  5
75
100
AcDbEntity
  8
DD0
100
AcDbLine
 10
208.885134
 20
418.548211
 11
213.714763
 21
417.254116
  0
LINE
  5
76
100
AcDbEntity
  8
DD0
100
AcDbLine
 10
321.285133
 20
418.548211
 11
208.885134
 21
418.548211
  0
TEXT
  5
77
100
AcDbEntity
  8
DD0
100
AcDbText
 10
225.371236
 20
419.548221
 40
4.166667
  1
１１２（補助接点ヘッドオンユニットを付けた場合）
 41
0.666667
  7
STANDARD
100
AcDbText
  0
ENDBLK
  5
78
100
AcDbEntity
  8
DD0
100
AcDbBlockEnd
  0
BLOCK
  5
7B
100
AcDbEntity
  8
DD0
100
AcDbBlockBegin
  2
DIMS4
 70
     0
 10
0.0
 20
0.0
  0
LINE
  5
7C
100
AcDbEntity
  8
DD0
100
AcDbLine
 10
310.285124
 20
373.134191
 11
310.285124
 21
390.192627
  0
LINE
  5
7D
100
AcDbEntity
  8
DD0
100
AcDbLine
 10
326.114762
 20
389.820055
 11
321.285133
 21
388.52596
  0
LINE
  5
7E
100
AcDbEntity
  8
DD0
100
AcDbLine
 10
321.285133
 20
388.52596
 11
326.114762
 21
387.231865
  0
LINE
  5
7F
100
AcDbEntity
  8
DD0
100
AcDbLine
 10
305.455495
 20
387.231865
 11
310.285124
 21
388.52596
  0
LINE
  5
80
100
AcDbEntity
  8
DD0
100
AcDbLine
 10
310.285124
 20
388.52596
 11
305.455495
 21
389.820055
  0
LINE
  5
81
100
AcDbEntity
  8
DD0
100
AcDbLine
 10
326.785133
 20
388.52596
 11
304.785124
 21
388.52596
  0
TEXT
  5
82
100
AcDbEntity
  8
DD0
100
AcDbText
 10
311.486116
 20
389.52597
 40
4.166667
  1
１１
 41
0.666667
  7
STANDARD
100
AcDbText
  0
ENDBLK
  5
83
100
AcDbEntity
  8
DD0
100
AcDbBlockEnd
  0
BLOCK
  5
86
100
AcDbEntity
  8
DD0
100
AcDbBlockBegin
  2
DIMS5
 70
     0
 10
0.0
 20
0.0
  0
LINE
  5
87
100
AcDbEntity
  8
DD0
100
AcDbLine
 10
65.975835
 20
283.300846
 11
65.975835
 21
272.269531
  0
LINE
  5
88
100
AcDbEntity
  8
DD0
100
AcDbLine
 10
44.075837
 20
290.800846
 11
44.075837
 21
272.269531
  0
LINE
  5
89
100
AcDbEntity
  8
DD0
100
AcDbLine
 10
61.146206
 20
272.642102
 11
65.975835
 21
273.936197
  0
LINE
  5
8A
100
AcDbEntity
  8
DD0
100
AcDbLine
 10
65.975835
 20
273.936197
 11
61.146206
 21
275.230292
  0
LINE
  5
8B
100
AcDbEntity
  8
DD0
100
AcDbLine
 10
48.905466
 20
275.230292
 11
44.075837
 21
273.936197
  0
LINE
  5
8C
100
AcDbEntity
  8
DD0
100
AcDbLine
 10
44.075837
 20
273.936197
 11
48.905466
 21
272.642102
  0
LINE
  5
8D
100
AcDbEntity
  8
DD0
100
AcDbLine
 10
65.975835
 20
273.936197
 11
44.075837
 21
273.936197
  0
TEXT
  5
8E
100
AcDbEntity
  8
DD0
100
AcDbText
 10
51.978617
 20
274.936207
 40
4.166667
  1
２２
 41
0.666667
  7
STANDARD
100
AcDbText
  0
ENDBLK
  5
8F
100
AcDbEntity
  8
DD0
100
AcDbBlockEnd
  0
BLOCK
  5
92
100
AcDbEntity
  8
DD0
100
AcDbBlockBegin
  2
DIMS6
 70
     0
 10
0.0
 20
0.0
  0
LINE
  5
93
100
AcDbEntity
  8
DD0
100
AcDbLine
 10
65.975835
 20
390.634191
 11
65.975835
 21
400.525141
  0
LINE
  5
94
100
AcDbEntity
  8
DD0
100
AcDbLine
 10
138.775833
 20
390.634191
 11
138.775833
 21
400.525141
  0
LINE
  5
95
100
AcDbEntity
  8
DD0
100
AcDbLine
 10
70.805464
 20
400.152569
 11
65.975835
 21
398.858474
  0
LINE
  5
96
100
AcDbEntity
  8
DD0
100
AcDbLine
 10
65.975835
 20
398.858474
 11
70.805464
 21
397.564379
  0
LINE
  5
97
100
AcDbEntity
  8
DD0
100
AcDbLine
 10
133.946204
 20
397.564379
 11
138.775833
 21
398.858474
  0
LINE
  5
98
100
AcDbEntity
  8
DD0
100
AcDbLine
 10
138.775833
 20
398.858474
 11
133.946204
 21
400.152569
  0
LINE
  5
99
100
AcDbEntity
  8
DD0
100
AcDbLine
 10
65.975835
 20
398.858474
 11
138.775833
 21
398.858474
  0
TEXT
  5
9A
100
AcDbEntity
  8
DD0
100
AcDbText
 10
99.328614
 20
399.858484
 40
4.166667
  1
７３
 41
0.666667
  7
STANDARD
100
AcDbText
  0
ENDBLK
  5
9B
100
AcDbEntity
  8
DD0
100
AcDbBlockEnd
  0
BLOCK
  5
9E
100
AcDbEntity
  8
DD0
100
AcDbBlockBegin
  2
DIMS7
 70
     0
 10
0.0
 20
0.0
  0
LINE
  5
9F
100
AcDbEntity
  8
DD0
100
AcDbLine
 10
170.175825
 20
369.134176
 11
170.175825
 21
413.458439
  0
LINE
  5
A0
100
AcDbEntity
  8
DD0
100
AcDbLine
 10
34.575839
 20
369.134176
 11
34.575839
 21
413.458439
  0
LINE
  5
A1
100
AcDbEntity
  8
DD0
100
AcDbLine
 10
165.346196
 20
410.497677
 11
170.175825
 21
411.791772
  0
LINE
  5
A2
100
AcDbEntity
  8
DD0
100
AcDbLine
 10
170.175825
 20
411.791772
 11
165.346196
 21
413.085868
  0
LINE
  5
A3
100
AcDbEntity
  8
DD0
100
AcDbLine
 10
39.405468
 20
413.085868
 11
34.575839
 21
411.791772
  0
LINE
  5
A4
100
AcDbEntity
  8
DD0
100
AcDbLine
 10
34.575839
 20
411.791772
 11
39.405468
 21
410.497677
  0
LINE
  5
A5
100
AcDbEntity
  8
DD0
100
AcDbLine
 10
170.175825
 20
411.791772
 11
34.575839
 21
411.791772
  0
TEXT
  5
A6
100
AcDbEntity
  8
DD0
100
AcDbText
 10
94.328615
 20
412.791783
 40
4.166667
  1
１３５．５
 41
0.666667
  7
STANDARD
100
AcDbText
  0
ENDBLK
  5
A7
100
AcDbEntity
  8
DD0
100
AcDbBlockEnd
  0
BLOCK
  5
AA
100
AcDbEntity
  8
DD0
100
AcDbBlockBegin
  2
DIMS8
 70
     0
 10
0.0
 20
0.0
  0
LINE
  5
AB
100
AcDbEntity
  8
DD0
100
AcDbLine
 10
22.075841
 20
368.334183
 11
22.075841
 21
428.552941
  0
LINE
  5
AC
100
AcDbEntity
  8
DD0
100
AcDbLine
 10
182.675838
 20
368.334183
 11
182.675838
 21
428.552941
  0
LINE
  5
AD
100
AcDbEntity
  8
DD0
100
AcDbLine
 10
26.90547
 20
428.18037
 11
22.075841
 21
426.886275
  0
LINE
  5
AE
100
AcDbEntity
  8
DD0
100
AcDbLine
 10
22.075841
 20
426.886275
 11
26.90547
 21
425.592179
  0
LINE
  5
AF
100
AcDbEntity
  8
DD0
100
AcDbLine
 10
177.846209
 20
425.592179
 11
182.675838
 21
426.886275
  0
LINE
  5
B0
100
AcDbEntity
  8
DD0
100
AcDbLine
 10
182.675838
 20
426.886275
 11
177.846209
 21
428.18037
  0
LINE
  5
B1
100
AcDbEntity
  8
DD0
100
AcDbLine
 10
22.075841
 20
426.886275
 11
182.675838
 21
426.886275
  0
TEXT
  5
B2
100
AcDbEntity
  8
DD0
100
AcDbText
 10
94.328621
 20
427.886285
 40
4.166667
  1
１６０．５
 41
0.666667
  7
STANDARD
100
AcDbText
  0
TEXT
  5
B3
100
AcDbEntity
  8
DD0
100
AcDbText
 10
67.661955
 20
421.386295
 40
4.166667
  1
（補助接点サイドオンユニットを付けた場合）
 41
0.666667
  7
STANDARD
100
AcDbText
  0
ENDBLK
  5
B4
100
AcDbEntity
  8
DD0
100
AcDbBlockEnd
  0
BLOCK
  5
B7
100
AcDbEntity
  8
DD0
100
AcDbBlockBegin
  2
DIMS9
 70
     0
 10
0.0
 20
0.0
  0
LINE
  5
B8
100
AcDbEntity
  8
DD0
100
AcDbLine
 10
93.142499
 20
236.328853
 11
188.684405
 21
236.328853
  0
LINE
  5
B9
100
AcDbEntity
  8
DD0
100
AcDbLine
 10
44.739906
 20
216.328854
 11
188.684405
 21
216.328854
  0
LINE
  5
BA
100
AcDbEntity
  8
DD0
100
AcDbLine
 10
188.311834
 20
231.499224
 11
187.017739
 21
236.328853
  0
LINE
  5
BB
100
AcDbEntity
  8
DD0
100
AcDbLine
 10
187.017739
 20
236.328853
 11
185.723643
 21
231.499224
  0
LINE
  5
BC
100
AcDbEntity
  8
DD0
100
AcDbLine
 10
185.723643
 20
221.158483
 11
187.017739
 21
216.328854
  0
LINE
  5
BD
100
AcDbEntity
  8
DD0
100
AcDbLine
 10
187.017739
 20
216.328854
 11
188.311834
 21
221.158483
  0
LINE
  5
BE
100
AcDbEntity
  8
DD0
100
AcDbLine
 10
187.017739
 20
236.328853
 11
187.017739
 21
216.328854
  0
TEXT
  5
BF
100
AcDbEntity
  8
DD0
100
AcDbText
 10
186.017741
 20
223.281621
 40
4.166667
  1
２０
 50
90.000003
 41
0.666667
  7
STANDARD
100
AcDbText
  0
ENDBLK
  5
C0
100
AcDbEntity
  8
DD0
100
AcDbBlockEnd
  0
BLOCK
  5
C3
100
AcDbEntity
  8
DD0
100
AcDbBlockBegin
  2
DIMS10
 70
     0
 10
0.0
 20
0.0
  0
LINE
  5
C4
100
AcDbEntity
  8
DD0
100
AcDbLine
 10
44.739906
 20
216.328854
 11
188.684405
 21
216.328854
  0
LINE
  5
C5
100
AcDbEntity
  8
DD0
100
AcDbLine
 10
98.739906
 20
157.328854
 11
188.684405
 21
157.328854
  0
LINE
  5
C6
100
AcDbEntity
  8
DD0
100
AcDbLine
 10
188.311834
 20
211.499225
 11
187.017739
 21
216.328854
  0
LINE
  5
C7
100
AcDbEntity
  8
DD0
100
AcDbLine
 10
187.017739
 20
216.328854
 11
185.723643
 21
211.499225
  0
LINE
  5
C8
100
AcDbEntity
  8
DD0
100
AcDbLine
 10
185.723643
 20
162.158483
 11
187.017739
 21
157.328854
  0
LINE
  5
C9
100
AcDbEntity
  8
DD0
100
AcDbLine
 10
187.017739
 20
157.328854
 11
188.311834
 21
162.158483
  0
LINE
  5
CA
100
AcDbEntity
  8
DD0
100
AcDbLine
 10
187.017739
 20
216.328854
 11
187.017739
 21
157.328854
  0
TEXT
  5
CB
100
AcDbEntity
  8
DD0
100
AcDbText
 10
186.017741
 20
183.781641
 40
4.166667
  1
５９
 50
90.000003
 41
0.666667
  7
STANDARD
100
AcDbText
  0
ENDBLK
  5
CC
100
AcDbEntity
  8
DD0
100
AcDbBlockEnd
  0
BLOCK
  5
CF
100
AcDbEntity
  8
DD0
100
AcDbBlockBegin
  2
DIMS11
 70
     0
 10
0.0
 20
0.0
  0
TEXT
  5
D0
100
AcDbEntity
  8
DD0
100
AcDbText
 10
166.871648
 20
140.578417
 40
4.166667
  1
４－Ｍ４ねじ穴
 41
0.666667
  7
STANDARD
100
AcDbText
  0
LINE
  5
D1
100
AcDbEntity
  8
DD0
100
AcDbLine
 10
165.637707
 20
150.330754
 11
165.775827
 21
155.328846
  0
LINE
  5
D2
100
AcDbEntity
  8
DD0
100
AcDbLine
 10
165.775827
 20
155.328846
 11
163.157166
 21
151.069431
  0
LINE
  5
D3
100
AcDbEntity
  8
DD0
100
AcDbLine
 10
165.775827
 20
155.328846
 11
161.085529
 21
139.57842
  0
LINE
  5
D4
100
AcDbEntity
  8
DD0
100
AcDbLine
 10
161.085529
 20
139.57842
 11
195.418871
 21
139.57842
  0
ENDBLK
  5
D5
100
AcDbEntity
  8
DD0
100
AcDbBlockEnd
  0
BLOCK
  5
D8
100
AcDbEntity
  8
DD0
100
AcDbBlockBegin
  2
DIMS12
 70
     0
 10
0.0
 20
0.0
  0
LINE
  5
D9
100
AcDbEntity
  8
DD0
100
AcDbLine
 10
38.975829
 20
222.092912
 11
38.975829
 21
249.634873
  0
LINE
  5
DA
100
AcDbEntity
  8
DD0
100
AcDbLine
 10
92.975829
 20
163.092912
 11
92.975829
 21
249.634873
  0
LINE
  5
DB
100
AcDbEntity
  8
DD0
100
AcDbLine
 10
43.805457
 20
249.262301
 11
38.975829
 21
247.968206
  0
LINE
  5
DC
100
AcDbEntity
  8
DD0
100
AcDbLine
 10
38.975829
 20
247.968206
 11
43.805457
 21
246.674111
  0
LINE
  5
DD
100
AcDbEntity
  8
DD0
100
AcDbLine
 10
88.1462
 20
246.674111
 11
92.975829
 21
247.968206
  0
LINE
  5
DE
100
AcDbEntity
  8
DD0
100
AcDbLine
 10
92.975829
 20
247.968206
 11
88.1462
 21
249.262301
  0
LINE
  5
DF
100
AcDbEntity
  8
DD0
100
AcDbLine
 10
38.975829
 20
247.968206
 11
92.975829
 21
247.968206
  0
TEXT
  5
E0
100
AcDbEntity
  8
DD0
100
AcDbText
 10
62.928609
 20
248.968216
 40
4.166667
  1
５４
 41
0.666667
  7
STANDARD
100
AcDbText
  0
ENDBLK
  5
E1
100
AcDbEntity
  8
DD0
100
AcDbBlockEnd
  0
BLOCK
  5
E4
100
AcDbEntity
  8
DD0
100
AcDbBlockBegin
  2
DIMS13
 70
     0
 10
0.0
 20
0.0
  0
LINE
  5
E5
100
AcDbEntity
  8
DD0
100
AcDbLine
 10
38.975829
 20
222.092912
 11
38.975829
 21
249.634873
  0
LINE
  5
E6
100
AcDbEntity
  8
DD0
100
AcDbLine
 10
34.575839
 20
223.495525
 11
34.575839
 21
249.634873
  0
LINE
  5
E7
100
AcDbEntity
  8
DD0
100
AcDbLine
 10
43.805457
 20
249.262301
 11
38.975829
 21
247.968206
  0
LINE
  5
E8
100
AcDbEntity
  8
DD0
100
AcDbLine
 10
38.975829
 20
247.968206
 11
43.805457
 21
246.674111
  0
LINE
  5
E9
100
AcDbEntity
  8
DD0
100
AcDbLine
 10
29.74621
 20
246.674111
 11
34.575839
 21
247.968206
  0
LINE
  5
EA
100
AcDbEntity
  8
DD0
100
AcDbLine
 10
34.575839
 20
247.968206
 11
29.74621
 21
249.262301
  0
LINE
  5
EB
100
AcDbEntity
  8
DD0
100
AcDbLine
 10
44.475828
 20
247.968206
 11
20.768378
 21
247.968206
  0
TEXT
  5
EC
100
AcDbEntity
  8
DD0
100
AcDbText
 10
22.721155
 20
248.968216
 40
4.166667
  1
４．５
 41
0.666667
  7
STANDARD
100
AcDbText
  0
ENDBLK
  5
ED
100
AcDbEntity
  8
DD0
100
AcDbBlockEnd
  0
BLOCK
  5
F0
100
AcDbEntity
  8
DD0
100
AcDbBlockBegin
  2
DIMS14
 70
     0
 10
0.0
 20
0.0
  0
LINE
  5
F1
100
AcDbEntity
  8
DD0
100
AcDbLine
 10
92.975829
 20
163.092912
 11
92.975829
 21
249.634873
  0
LINE
  5
F2
100
AcDbEntity
  8
DD0
100
AcDbLine
 10
111.775826
 20
222.092912
 11
111.775826
 21
249.634873
  0
LINE
  5
F3
100
AcDbEntity
  8
DD0
100
AcDbLine
 10
97.805458
 20
249.262301
 11
92.975829
 21
247.968206
  0
LINE
  5
F4
100
AcDbEntity
  8
DD0
100
AcDbLine
 10
92.975829
 20
247.968206
 11
97.805458
 21
246.674111
  0
LINE
  5
F5
100
AcDbEntity
  8
DD0
100
AcDbLine
 10
106.946197
 20
246.674111
 11
111.775826
 21
247.968206
  0
LINE
  5
F6
100
AcDbEntity
  8
DD0
100
AcDbLine
 10
111.775826
 20
247.968206
 11
106.946197
 21
249.262301
  0
LINE
  5
F7
100
AcDbEntity
  8
DD0
100
AcDbLine
 10
92.975829
 20
247.968206
 11
111.775826
 21
247.968206
  0
TEXT
  5
F8
100
AcDbEntity
  8
DD0
100
AcDbText
 10
99.328608
 20
248.968216
 40
4.166667
  1
１９
 41
0.666667
  7
STANDARD
100
AcDbText
  0
ENDBLK
  5
F9
100
AcDbEntity
  8
DD0
100
AcDbBlockEnd
  0
BLOCK
  5
FC
100
AcDbEntity
  8
DD0
100
AcDbBlockBegin
  2
DIMS15
 70
     0
 10
0.0
 20
0.0
  0
LINE
  5
FD
100
AcDbEntity
  8
DD0
100
AcDbLine
 10
111.775826
 20
222.092912
 11
111.775826
 21
249.634873
  0
LINE
  5
FE
100
AcDbEntity
  8
DD0
100
AcDbLine
 10
165.775827
 20
163.092912
 11
165.775827
 21
249.634873
  0
LINE
  5
FF
100
AcDbEntity
  8
DD0
100
AcDbLine
 10
116.605455
 20
249.262301
 11
111.775826
 21
247.968206
  0
LINE
  5
100
100
AcDbEntity
  8
DD0
100
AcDbLine
 10
111.775826
 20
247.968206
 11
116.605455
 21
246.674111
  0
LINE
  5
101
100
AcDbEntity
  8
DD0
100
AcDbLine
 10
160.946198
 20
246.674111
 11
165.775827
 21
247.968206
  0
LINE
  5
102
100
AcDbEntity
  8
DD0
100
AcDbLine
 10
165.775827
 20
247.968206
 11
160.946198
 21
249.262301
  0
LINE
  5
103
100
AcDbEntity
  8
DD0
100
AcDbLine
 10
111.775826
 20
247.968206
 11
165.775827
 21
247.968206
  0
TEXT
  5
104
100
AcDbEntity
  8
DD0
100
AcDbText
 10
135.728613
 20
248.968216
 40
4.166667
  1
５４
 41
0.666667
  7
STANDARD
100
AcDbText
  0
ENDBLK
  5
105
100
AcDbEntity
  8
DD0
100
AcDbBlockEnd
  0
ENDSEC
  0
SECTION
  2
ENTITIES
  0
INSERT
  5
56
100
AcDbEntity
  8
DD0
100
AcDbBlockReference
  2
DIMS0
 10
0.0
 20
0.0
  0
INSERT
  5
62
100
AcDbEntity
  8
DD0
100
AcDbBlockReference
  2
DIMS1
 10
0.0
 20
0.0
  0
INSERT
  5
6D
100
AcDbEntity
  8
DD0
100
AcDbBlockReference
  2
DIMS2
 10
0.0
 20
0.0
  0
INSERT
  5
79
100
AcDbEntity
  8
DD0
100
AcDbBlockReference
  2
DIMS3
 10
0.0
 20
0.0
  0
INSERT
  5
84
100
AcDbEntity
  8
DD0
100
AcDbBlockReference
  2
DIMS4
 10
0.0
 20
0.0
  0
INSERT
  5
90
100
AcDbEntity
  8
DD0
100
AcDbBlockReference
  2
DIMS5
 10
0.0
 20
0.0
  0
INSERT
  5
9C
100
AcDbEntity
  8
DD0
100
AcDbBlockReference
  2
DIMS6
 10
0.0
 20
0.0
  0
INSERT
  5
A8
100
AcDbEntity
  8
DD0
100
AcDbBlockReference
  2
DIMS7
 10
0.0
 20
0.0
  0
INSERT
  5
B5
100
AcDbEntity
  8
DD0
100
AcDbBlockReference
  2
DIMS8
 10
0.0
 20
0.0
  0
INSERT
  5
C1
100
AcDbEntity
  8
DD0
100
AcDbBlockReference
  2
DIMS9
 10
0.0
 20
0.0
  0
INSERT
  5
CD
100
AcDbEntity
  8
DD0
100
AcDbBlockReference
  2
DIMS10
 10
0.0
 20
0.0
  0
INSERT
  5
D6
100
AcDbEntity
  8
DD0
100
AcDbBlockReference
  2
DIMS11
 10
0.0
 20
0.0
  0
INSERT
  5
E2
100
AcDbEntity
  8
DD0
100
AcDbBlockReference
  2
DIMS12
 10
0.0
 20
0.0
  0
INSERT
  5
EE
100
AcDbEntity
  8
DD0
100
AcDbBlockReference
  2
DIMS13
 10
0.0
 20
0.0
  0
INSERT
  5
FA
100
AcDbEntity
  8
DD0
100
AcDbBlockReference
  2
DIMS14
 10
0.0
 20
0.0
  0
INSERT
  5
106
100
AcDbEntity
  8
DD0
100
AcDbBlockReference
  2
DIMS15
 10
0.0
 20
0.0
  0
LINE
  5
107
100
AcDbEntity
  8
M0
100
AcDbLine
 10
62.875835
 20
366.967513
 11
62.875835
 21
373.769688
  0
LINE
  5
108
100
AcDbEntity
  8
M0
100
AcDbLine
 10
69.075835
 20
366.967513
 11
69.075835
 21
373.769688
  0
LINE
  5
109
100
AcDbEntity
  8
M0
100
AcDbLine
 10
70.975835
 20
377.366788
 11
70.975835
 21
385.967513
  0
LINE
  5
10A
100
AcDbEntity
  8
M0
100
AcDbLine
 10
69.900836
 20
375.835936
 11
70.700834
 21
376.678039
  0
LINE
  5
10B
100
AcDbEntity
  8
M0
100
AcDbLine
 10
70.81125
 20
365.967513
 11
70.075835
 21
365.967513
  0
LINE
  5
10C
100
AcDbEntity
  8
M0
100
AcDbLine
 10
60.975835
 20
377.366788
 11
60.975835
 21
385.967513
  0
LINE
  5
10D
100
AcDbEntity
  8
M0
100
AcDbLine
 10
69.975835
 20
386.967513
 11
61.975835
 21
386.967513
  0
LINE
  5
10E
100
AcDbEntity
  8
M0
100
AcDbLine
 10
61.140419
 20
365.967513
 11
61.875835
 21
365.967513
  0
LINE
  5
10F
100
AcDbEntity
  8
M0
100
AcDbLine
 10
69.975835
 20
355.667513
 11
61.975835
 21
355.667513
  0
LINE
  5
110
100
AcDbEntity
  8
M0
100
AcDbLine
 10
60.975835
 20
356.667513
 11
60.975835
 21
356.687717
  0
LINE
  5
111
100
AcDbEntity
  8
M0
100
AcDbLine
 10
60.975835
 20
358.647309
 11
60.975835
 21
363.687717
  0
LINE
  5
112
100
AcDbEntity
  8
M0
100
AcDbLine
 10
70.975835
 20
358.647309
 11
70.975835
 21
363.687717
  0
LINE
  5
113
100
AcDbEntity
  8
M0
100
AcDbLine
 10
70.975835
 20
356.667513
 11
70.975835
 21
356.687717
  0
ARC
  5
114
100
AcDbEntity
  8
M0
100
AcDbCircle
 10
63.275835
 20
357.667513
 40
2.5
100
AcDbArc
 50
156.926082
 51
203.073918
  0
ARC
  5
115
100
AcDbEntity
  8
M0
100
AcDbCircle
 10
61.975835
 20
356.667513
 40
1.0
100
AcDbArc
 50
180.0
 51
270.0
  0
ARC
  5
116
100
AcDbEntity
  8
M0
100
AcDbCircle
 10
69.975835
 20
356.667513
 40
1.0
100
AcDbArc
 50
270.0
 51
360.0
  0
ARC
  5
117
100
AcDbEntity
  8
M0
100
AcDbCircle
 10
70.075835
 20
366.967513
 40
1.0
100
AcDbArc
 50
180.0
 51
270.0
  0
ARC
  5
118
100
AcDbEntity
  8
M0
100
AcDbCircle
 10
61.875835
 20
366.967513
 40
1.0
100
AcDbArc
 50
270.0
 51
360.0
  0
ARC
  5
119
100
AcDbEntity
  8
M0
100
AcDbCircle
 10
63.275835
 20
364.667513
 40
2.5
100
AcDbArc
 50
148.667749
 51
203.073918
  0
ARC
  5
11A
100
AcDbEntity
  8
M0
100
AcDbCircle
 10
68.675835
 20
364.667513
 40
2.5
100
AcDbArc
 50
-23.073918
 51
31.332251
  0
ARC
  5
11B
100
AcDbEntity
  8
M0
100
AcDbCircle
 10
68.675835
 20
357.667513
 40
2.5
100
AcDbArc
 50
-23.073918
 51
23.073918
  0
ARC
  5
11C
100
AcDbEntity
  8
M0
100
AcDbCircle
 10
61.975835
 20
385.967513
 40
1.0
100
AcDbArc
 50
90.0
 51
180.0
  0
ARC
  5
11D
100
AcDbEntity
  8
M0
100
AcDbCircle
 10
61.975835
 20
377.366788
 40
1.0
100
AcDbArc
 50
180.0
 51
223.531199
  0
ARC
  5
11E
100
AcDbEntity
  8
M0
100
AcDbCircle
 10
69.975835
 20
385.967513
 40
1.0
100
AcDbArc
 50
0.0
 51
90.0
  0
ARC
  5
11F
100
AcDbEntity
  8
M0
100
AcDbCircle
 10
69.975835
 20
377.366788
 40
1.0
100
AcDbArc
 50
316.468801
 51
360.0
  0
ARC
  5
120
100
AcDbEntity
  8
M0
100
AcDbCircle
 10
59.875835
 20
373.769688
 40
3.0
100
AcDbArc
 50
0.0
 51
43.531199
  0
ARC
  5
121
100
AcDbEntity
  8
M0
100
AcDbCircle
 10
72.075835
 20
373.769688
 40
3.0
100
AcDbArc
 50
136.468801
 51
180.0
  0
LINE
  5
122
100
AcDbEntity
  8
M0
100
AcDbLine
 10
62.050833
 20
375.835936
 11
61.250835
 21
376.678039
  0
ARC
  5
123
100
AcDbEntity
  8
M0
100
AcDbCircle
 10
129.775835
 20
367.967513
 40
2.0
100
AcDbArc
 50
180.0
 51
270.0
  0
ARC
  5
124
100
AcDbEntity
  8
M0
100
AcDbCircle
 10
123.775835
 20
369.4366
 40
4.0
100
AcDbArc
 50
0.0
 51
31.574191
  0
LINE
  5
125
100
AcDbEntity
  8
M0
100
AcDbLine
 10
122.467983
 20
379.204017
 11
127.183686
 21
371.531009
  0
LINE
  5
126
100
AcDbEntity
  8
M0
100
AcDbLine
 10
127.775835
 20
367.967513
 11
127.775835
 21
369.4366
  0
LINE
  5
127
100
AcDbEntity
  8
M0
100
AcDbLine
 10
129.775835
 20
365.967513
 11
130.61125
 21
365.967513
  0
LINE
  5
128
100
AcDbEntity
  8
M0
100
AcDbLine
 10
120.875835
 20
386.967513
 11
112.875835
 21
386.967513
  0
LINE
  5
129
100
AcDbEntity
  8
M0
100
AcDbLine
 10
121.875835
 20
385.967513
 11
121.875835
 21
381.298426
  0
LINE
  5
12A
100
AcDbEntity
  8
M0
100
AcDbLine
 10
129.775835
 20
355.667513
 11
121.775835
 21
355.667513
  0
LINE
  5
12B
100
AcDbEntity
  8
M0
100
AcDbLine
 10
111.875835
 20
385.967513
 11
111.875835
 21
380.61037
  0
ARC
  5
12C
100
AcDbEntity
  8
M0
100
AcDbCircle
 10
123.075835
 20
364.667513
 40
2.5
100
AcDbArc
 50
156.926082
 51
203.073918
  0
ARC
  5
12D
100
AcDbEntity
  8
M0
100
AcDbCircle
 10
123.075835
 20
357.667513
 40
2.5
100
AcDbArc
 50
156.926082
 51
203.073918
  0
ARC
  5
12E
100
AcDbEntity
  8
M0
100
AcDbCircle
 10
128.475835
 20
364.667513
 40
2.5
100
AcDbArc
 50
-23.073918
 51
31.332251
  0
ARC
  5
12F
100
AcDbEntity
  8
M0
100
AcDbCircle
 10
128.475835
 20
357.667513
 40
2.5
100
AcDbArc
 50
-23.073918
 51
23.073918
  0
LINE
  5
130
100
AcDbEntity
  8
M0
100
AcDbLine
 10
120.775835
 20
363.687717
 11
120.775835
 21
358.647309
  0
LINE
  5
131
100
AcDbEntity
  8
M0
100
AcDbLine
 10
120.775835
 20
356.687717
 11
120.775835
 21
356.667513
  0
LINE
  5
132
100
AcDbEntity
  8
M0
100
AcDbLine
 10
130.775835
 20
363.687717
 11
130.775835
 21
358.647309
  0
LINE
  5
133
100
AcDbEntity
  8
M0
100
AcDbLine
 10
130.775835
 20
356.687717
 11
130.775835
 21
356.667513
  0
LINE
  5
134
100
AcDbEntity
  8
M0
100
AcDbLine
 10
120.775835
 20
365.647309
 11
120.775835
 21
370.967513
  0
ARC
  5
135
100
AcDbEntity
  8
M0
100
AcDbCircle
 10
116.775835
 20
370.967513
 40
4.0
100
AcDbArc
 50
0.0
 51
90.0
  0
ARC
  5
136
100
AcDbEntity
  8
M0
100
AcDbCircle
 10
121.775835
 20
356.667513
 40
1.0
100
AcDbArc
 50
180.0
 51
270.0
  0
ARC
  5
137
100
AcDbEntity
  8
M0
100
AcDbCircle
 10
129.775835
 20
356.667513
 40
1.0
100
AcDbArc
 50
270.0
 51
360.0
  0
ARC
  5
138
100
AcDbEntity
  8
M0
100
AcDbCircle
 10
112.875835
 20
385.967513
 40
1.0
100
AcDbArc
 50
90.0
 51
180.0
  0
ARC
  5
139
100
AcDbEntity
  8
M0
100
AcDbCircle
 10
120.875835
 20
385.967513
 40
1.0
100
AcDbArc
 50
0.0
 51
90.0
  0
ARC
  5
13A
100
AcDbEntity
  8
M0
100
AcDbCircle
 10
115.23139
 20
375.967513
 40
1.0
100
AcDbArc
 50
211.890792
 51
270.0
  0
ARC
  5
13B
100
AcDbEntity
  8
M0
100
AcDbCircle
 10
115.875835
 20
380.61037
 40
4.0
100
AcDbArc
 50
180.0
 51
211.890792
  0
LINE
  5
13C
100
AcDbEntity
  8
M0
100
AcDbLine
 10
116.775835
 20
374.967513
 11
115.23139
 21
374.967513
  0
LINE
  5
13D
100
AcDbEntity
  8
M0
100
AcDbLine
 10
112.479608
 20
378.497163
 11
114.382334
 21
375.439211
  0
ARC
  5
13E
100
AcDbEntity
  8
M0
100
AcDbCircle
 10
125.875835
 20
381.298426
 40
4.0
100
AcDbArc
 50
180.0
 51
211.574191
  0
LINE
  5
13F
100
AcDbEntity
  8
M0
100
AcDbLine
 10
135.675831
 20
366.967513
 11
135.675831
 21
373.769688
  0
LINE
  5
140
100
AcDbEntity
  8
M0
100
AcDbLine
 10
141.875831
 20
366.967513
 11
141.875831
 21
373.769688
  0
LINE
  5
141
100
AcDbEntity
  8
M0
100
AcDbLine
 10
143.775831
 20
377.366788
 11
143.775831
 21
385.967513
  0
LINE
  5
142
100
AcDbEntity
  8
M0
100
AcDbLine
 10
142.700833
 20
375.835936
 11
143.500831
 21
376.678039
  0
LINE
  5
143
100
AcDbEntity
  8
M0
100
AcDbLine
 10
143.611247
 20
365.967513
 11
142.875831
 21
365.967513
  0
LINE
  5
144
100
AcDbEntity
  8
M0
100
AcDbLine
 10
133.775831
 20
377.366788
 11
133.775831
 21
385.967513
  0
LINE
  5
145
100
AcDbEntity
  8
M0
100
AcDbLine
 10
142.775831
 20
386.967513
 11
134.775831
 21
386.967513
  0
LINE
  5
146
100
AcDbEntity
  8
M0
100
AcDbLine
 10
133.940415
 20
365.967513
 11
134.675831
 21
365.967513
  0
LINE
  5
147
100
AcDbEntity
  8
M0
100
AcDbLine
 10
142.775831
 20
355.667513
 11
134.775831
 21
355.667513
  0
LINE
  5
148
100
AcDbEntity
  8
M0
100
AcDbLine
 10
133.775831
 20
356.667513
 11
133.775831
 21
356.687717
  0
LINE
  5
149
100
AcDbEntity
  8
M0
100
AcDbLine
 10
133.775831
 20
358.647309
 11
133.775831
 21
363.687717
  0
LINE
  5
14A
100
AcDbEntity
  8
M0
100
AcDbLine
 10
143.775831
 20
358.647309
 11
143.775831
 21
363.687717
  0
LINE
  5
14B
100
AcDbEntity
  8
M0
100
AcDbLine
 10
143.775831
 20
356.667513
 11
143.775831
 21
356.687717
  0
ARC
  5
14C
100
AcDbEntity
  8
M0
100
AcDbCircle
 10
136.075831
 20
357.667513
 40
2.5
100
AcDbArc
 50
156.926082
 51
203.073918
  0
ARC
  5
14D
100
AcDbEntity
  8
M0
100
AcDbCircle
 10
134.775831
 20
356.667513
 40
1.0
100
AcDbArc
 50
180.0
 51
270.0
  0
ARC
  5
14E
100
AcDbEntity
  8
M0
100
AcDbCircle
 10
142.775831
 20
356.667513
 40
1.0
100
AcDbArc
 50
270.0
 51
360.0
  0
ARC
  5
14F
100
AcDbEntity
  8
M0
100
AcDbCircle
 10
142.875831
 20
366.967513
 40
1.0
100
AcDbArc
 50
180.0
 51
270.0
  0
ARC
  5
150
100
AcDbEntity
  8
M0
100
AcDbCircle
 10
134.675831
 20
366.967513
 40
1.0
100
AcDbArc
 50
270.0
 51
360.0
  0
ARC
  5
151
100
AcDbEntity
  8
M0
100
AcDbCircle
 10
136.075831
 20
364.667513
 40
2.5
100
AcDbArc
 50
148.667749
 51
203.073918
  0
ARC
  5
152
100
AcDbEntity
  8
M0
100
AcDbCircle
 10
141.475831
 20
364.667513
 40
2.5
100
AcDbArc
 50
-23.073918
 51
31.332251
  0
ARC
  5
153
100
AcDbEntity
  8
M0
100
AcDbCircle
 10
141.475831
 20
357.667513
 40
2.5
100
AcDbArc
 50
-23.073918
 51
23.073918
  0
ARC
  5
154
100
AcDbEntity
  8
M0
100
AcDbCircle
 10
134.775831
 20
385.967513
 40
1.0
100
AcDbArc
 50
90.0
 51
180.0
  0
ARC
  5
155
100
AcDbEntity
  8
M0
100
AcDbCircle
 10
134.775831
 20
377.366788
 40
1.0
100
AcDbArc
 50
180.0
 51
223.531199
  0
ARC
  5
156
100
AcDbEntity
  8
M0
100
AcDbCircle
 10
142.775831
 20
385.967513
 40
1.0
100
AcDbArc
 50
0.0
 51
90.0
  0
ARC
  5
157
100
AcDbEntity
  8
M0
100
AcDbCircle
 10
142.775831
 20
377.366788
 40
1.0
100
AcDbArc
 50
316.468801
 51
360.0
  0
ARC
  5
158
100
AcDbEntity
  8
M0
100
AcDbCircle
 10
132.675831
 20
373.769688
 40
3.0
100
AcDbArc
 50
0.0
 51
43.531199
  0
ARC
  5
159
100
AcDbEntity
  8
M0
100
AcDbCircle
 10
144.875831
 20
373.769688
 40
3.0
100
AcDbArc
 50
136.468801
 51
180.0
  0
LINE
  5
15A
100
AcDbEntity
  8
M0
100
AcDbLine
 10
134.850829
 20
375.835936
 11
134.050832
 21
376.678039
  0
ARC
  5
15B
100
AcDbEntity
  8
M0
100
AcDbCircle
 10
74.975838
 20
367.967513
 40
2.0
100
AcDbArc
 50
-90.0
 51
0.0
  0
ARC
  5
15C
100
AcDbEntity
  8
M0
100
AcDbCircle
 10
80.975838
 20
369.4366
 40
4.0
100
AcDbArc
 50
148.425809
 51
180.0
  0
LINE
  5
15D
100
AcDbEntity
  8
M0
100
AcDbLine
 10
82.283689
 20
379.204017
 11
77.567986
 21
371.531009
  0
LINE
  5
15E
100
AcDbEntity
  8
M0
100
AcDbLine
 10
76.975838
 20
367.967513
 11
76.975838
 21
369.4366
  0
LINE
  5
15F
100
AcDbEntity
  8
M0
100
AcDbLine
 10
74.975838
 20
365.967513
 11
74.140422
 21
365.967513
  0
LINE
  5
160
100
AcDbEntity
  8
M0
100
AcDbLine
 10
83.875838
 20
386.967513
 11
91.875838
 21
386.967513
  0
LINE
  5
161
100
AcDbEntity
  8
M0
100
AcDbLine
 10
82.875838
 20
385.967513
 11
82.875838
 21
381.298426
  0
LINE
  5
162
100
AcDbEntity
  8
M0
100
AcDbLine
 10
74.975838
 20
355.667513
 11
82.975838
 21
355.667513
  0
ARC
  5
163
100
AcDbEntity
  8
M0
100
AcDbCircle
 10
81.675838
 20
364.667513
 40
2.5
100
AcDbArc
 50
-23.073918
 51
23.073918
  0
ARC
  5
164
100
AcDbEntity
  8
M0
100
AcDbCircle
 10
81.675838
 20
357.667513
 40
2.5
100
AcDbArc
 50
-23.073918
 51
23.073918
  0
ARC
  5
165
100
AcDbEntity
  8
M0
100
AcDbCircle
 10
76.275838
 20
364.667513
 40
2.5
100
AcDbArc
 50
148.667749
 51
203.073918
  0
ARC
  5
166
100
AcDbEntity
  8
M0
100
AcDbCircle
 10
76.275838
 20
357.667513
 40
2.5
100
AcDbArc
 50
156.926082
 51
203.073918
  0
LINE
  5
167
100
AcDbEntity
  8
M0
100
AcDbLine
 10
83.975838
 20
363.687717
 11
83.975838
 21
358.647309
  0
LINE
  5
168
100
AcDbEntity
  8
M0
100
AcDbLine
 10
83.975838
 20
356.687717
 11
83.975838
 21
356.667513
  0
LINE
  5
169
100
AcDbEntity
  8
M0
100
AcDbLine
 10
73.975838
 20
363.687717
 11
73.975838
 21
358.647309
  0
LINE
  5
16A
100
AcDbEntity
  8
M0
100
AcDbLine
 10
73.975838
 20
356.687717
 11
73.975838
 21
356.667513
  0
LINE
  5
16B
100
AcDbEntity
  8
M0
100
AcDbLine
 10
83.975838
 20
365.647309
 11
83.975838
 21
370.967513
  0
ARC
  5
16C
100
AcDbEntity
  8
M0
100
AcDbCircle
 10
87.975838
 20
370.967513
 40
4.0
100
AcDbArc
 50
90.0
 51
180.0
  0
ARC
  5
16D
100
AcDbEntity
  8
M0
100
AcDbCircle
 10
82.975838
 20
356.667513
 40
1.0
100
AcDbArc
 50
-90.0
 51
0.0
  0
ARC
  5
16E
100
AcDbEntity
  8
M0
100
AcDbCircle
 10
74.975838
 20
356.667513
 40
1.0
100
AcDbArc
 50
180.0
 51
270.0
  0
ARC
  5
16F
100
AcDbEntity
  8
M0
100
AcDbCircle
 10
91.875838
 20
385.967513
 40
1.0
100
AcDbArc
 50
0.0
 51
90.0
  0
ARC
  5
170
100
AcDbEntity
  8
M0
100
AcDbCircle
 10
83.875838
 20
385.967513
 40
1.0
100
AcDbArc
 50
90.0
 51
180.0
  0
ARC
  5
171
100
AcDbEntity
  8
M0
100
AcDbCircle
 10
89.520282
 20
375.967513
 40
1.0
100
AcDbArc
 50
270.0
 51
328.109208
  0
ARC
  5
172
100
AcDbEntity
  8
M0
100
AcDbCircle
 10
88.875838
 20
380.61037
 40
4.0
100
AcDbArc
 50
-31.890792
 51
0.0
  0
LINE
  5
173
100
AcDbEntity
  8
M0
100
AcDbLine
 10
87.975838
 20
374.967513
 11
89.520282
 21
374.967513
  0
LINE
  5
174
100
AcDbEntity
  8
M0
100
AcDbLine
 10
92.272064
 20
378.497163
 11
90.369339
 21
375.439211
  0
ARC
  5
175
100
AcDbEntity
  8
M0
100
AcDbCircle
 10
78.875838
 20
381.298426
 40
4.0
100
AcDbArc
 50
-31.574191
 51
0.0
  0
CIRCLE
  5
176
100
AcDbEntity
  8
M0
100
AcDbCircle
 10
91.175838
 20
357.867513
 40
3.0
  0
LINE
  5
177
100
AcDbEntity
  8
M0
100
AcDbLine
 10
92.766422
 20
356.276868
 11
89.584781
 21
359.458631
  0
LINE
  5
178
100
AcDbEntity
  8
M0
100
AcDbLine
 10
92.589664
 20
358.221204
 11
90.822086
 21
356.453626
  0
LINE
  5
179
100
AcDbEntity
  8
M0
100
AcDbLine
 10
91.529117
 20
359.281873
 11
89.761539
 21
357.514173
  0
LINE
  5
17A
100
AcDbEntity
  8
M0
100
AcDbLine
 10
94.500838
 20
361.692513
 11
87.850838
 21
361.692513
  0
ARC
  5
17B
100
AcDbEntity
  8
M0
100
AcDbCircle
 10
94.500838
 20
361.192513
 40
0.5
100
AcDbArc
 50
0.0
 51
90.0
  0
LINE
  5
17C
100
AcDbEntity
  8
M0
100
AcDbLine
 10
95.000838
 20
354.542513
 11
95.000838
 21
361.192513
  0
ARC
  5
17D
100
AcDbEntity
  8
M0
100
AcDbCircle
 10
94.500838
 20
354.542513
 40
0.5
100
AcDbArc
 50
270.0
 51
360.0
  0
LINE
  5
17E
100
AcDbEntity
  8
M0
100
AcDbLine
 10
87.850838
 20
354.042513
 11
94.500838
 21
354.042513
  0
LINE
  5
17F
100
AcDbEntity
  8
M0
100
AcDbLine
 10
87.350838
 20
361.192513
 11
87.350838
 21
354.542513
  0
ARC
  5
180
100
AcDbEntity
  8
M0
100
AcDbCircle
 10
87.850838
 20
361.192513
 40
0.5
100
AcDbArc
 50
90.0
 51
180.0
  0
ARC
  5
181
100
AcDbEntity
  8
M0
100
AcDbCircle
 10
87.850838
 20
354.542513
 40
0.5
100
AcDbArc
 50
180.0
 51
270.0
  0
LINE
  5
182
100
AcDbEntity
  8
M0
100
AcDbLine
 10
62.875835
 20
306.967513
 11
62.875835
 21
300.165338
  0
LINE
  5
183
100
AcDbEntity
  8
M0
100
AcDbLine
 10
69.075835
 20
306.967513
 11
69.075835
 21
300.165338
  0
LINE
  5
184
100
AcDbEntity
  8
M0
100
AcDbLine
 10
70.975835
 20
296.568238
 11
70.975835
 21
287.967513
  0
LINE
  5
185
100
AcDbEntity
  8
M0
100
AcDbLine
 10
69.900836
 20
298.09909
 11
70.700834
 21
297.256987
  0
LINE
  5
186
100
AcDbEntity
  8
M0
100
AcDbLine
 10
70.81125
 20
307.967513
 11
70.075835
 21
307.967513
  0
LINE
  5
187
100
AcDbEntity
  8
M0
100
AcDbLine
 10
60.975835
 20
296.568238
 11
60.975835
 21
287.967513
  0
LINE
  5
188
100
AcDbEntity
  8
M0
100
AcDbLine
 10
69.975835
 20
286.967513
 11
61.975835
 21
286.967513
  0
LINE
  5
189
100
AcDbEntity
  8
M0
100
AcDbLine
 10
61.140419
 20
307.967513
 11
61.875835
 21
307.967513
  0
LINE
  5
18A
100
AcDbEntity
  8
M0
100
AcDbLine
 10
69.975835
 20
318.267513
 11
61.975835
 21
318.267513
  0
LINE
  5
18B
100
AcDbEntity
  8
M0
100
AcDbLine
 10
60.975835
 20
317.267513
 11
60.975835
 21
317.247309
  0
LINE
  5
18C
100
AcDbEntity
  8
M0
100
AcDbLine
 10
60.975835
 20
315.287717
 11
60.975835
 21
310.247309
  0
LINE
  5
18D
100
AcDbEntity
  8
M0
100
AcDbLine
 10
70.975835
 20
315.287717
 11
70.975835
 21
310.247309
  0
LINE
  5
18E
100
AcDbEntity
  8
M0
100
AcDbLine
 10
70.975835
 20
317.267513
 11
70.975835
 21
317.247309
  0
ARC
  5
18F
100
AcDbEntity
  8
M0
100
AcDbCircle
 10
63.275835
 20
316.267513
 40
2.5
100
AcDbArc
 50
156.926082
 51
203.073918
  0
ARC
  5
190
100
AcDbEntity
  8
M0
100
AcDbCircle
 10
61.975835
 20
317.267513
 40
1.0
100
AcDbArc
 50
90.0
 51
180.0
  0
ARC
  5
191
100
AcDbEntity
  8
M0
100
AcDbCircle
 10
69.975835
 20
317.267513
 40
1.0
100
AcDbArc
 50
3.254286E-012
 51
90.0
  0
ARC
  5
192
100
AcDbEntity
  8
M0
100
AcDbCircle
 10
70.075835
 20
306.967513
 40
1.0
100
AcDbArc
 50
90.0
 51
180.0
  0
ARC
  5
193
100
AcDbEntity
  8
M0
100
AcDbCircle
 10
61.875835
 20
306.967513
 40
1.0
100
AcDbArc
 50
0.0
 51
90.0
  0
ARC
  5
194
100
AcDbEntity
  8
M0
100
AcDbCircle
 10
63.275835
 20
309.267513
 40
2.5
100
AcDbArc
 50
156.926082
 51
211.332251
  0
ARC
  5
195
100
AcDbEntity
  8
M0
100
AcDbCircle
 10
68.675835
 20
309.267513
 40
2.5
100
AcDbArc
 50
328.667749
 51
383.073918
  0
ARC
  5
196
100
AcDbEntity
  8
M0
100
AcDbCircle
 10
68.675835
 20
316.267513
 40
2.5
100
AcDbArc
 50
336.926082
 51
383.073918
  0
ARC
  5
197
100
AcDbEntity
  8
M0
100
AcDbCircle
 10
61.975835
 20
287.967513
 40
1.0
100
AcDbArc
 50
180.0
 51
270.0
  0
ARC
  5
198
100
AcDbEntity
  8
M0
100
AcDbCircle
 10
61.975835
 20
296.568238
 40
1.0
100
AcDbArc
 50
136.468801
 51
180.0
  0
ARC
  5
199
100
AcDbEntity
  8
M0
100
AcDbCircle
 10
69.975835
 20
287.967513
 40
1.0
100
AcDbArc
 50
-90.0
 51
0.0
  0
ARC
  5
19A
100
AcDbEntity
  8
M0
100
AcDbCircle
 10
69.975835
 20
296.568238
 40
1.0
100
AcDbArc
 50
0.0
 51
43.531199
  0
ARC
  5
19B
100
AcDbEntity
  8
M0
100
AcDbCircle
 10
59.875835
 20
300.165338
 40
3.0
100
AcDbArc
 50
-43.531199
 51
0.0
  0
ARC
  5
19C
100
AcDbEntity
  8
M0
100
AcDbCircle
 10
72.075835
 20
300.165338
 40
3.0
100
AcDbArc
 50
180.0
 51
223.531199
  0
LINE
  5
19D
100
AcDbEntity
  8
M0
100
AcDbLine
 10
62.050833
 20
298.09909
 11
61.250835
 21
297.256987
  0
ARC
  5
19E
100
AcDbEntity
  8
M0
100
AcDbCircle
 10
78.975838
 20
304.467513
 40
2.75
100
AcDbArc
 50
137.622878
 51
245.572882
  0
CIRCLE
  5
19F
100
AcDbEntity
  8
M0
  6
DASHED
100
AcDbCircle
 10
113.575835
 20
357.867513
 40
3.0
  0
LINE
  5
1A0
100
AcDbEntity
  8
M0
  6
DASHED
100
AcDbLine
 10
115.166418
 20
356.276868
 11
111.984778
 21
359.458631
  0
LINE
  5
1A1
100
AcDbEntity
  8
M0
  6
DASHED
100
AcDbLine
 10
114.989661
 20
358.221204
 11
113.222082
 21
356.453626
  0
LINE
  5
1A2
100
AcDbEntity
  8
M0
  6
DASHED
100
AcDbLine
 10
113.929114
 20
359.281873
 11
112.161536
 21
357.514173
  0
LINE
  5
1A3
100
AcDbEntity
  8
M0
  6
DASHED
100
AcDbLine
 10
116.900835
 20
361.692513
 11
110.250835
 21
361.692513
  0
ARC
  5
1A4
100
AcDbEntity
  8
M0
  6
DASHED
100
AcDbCircle
 10
116.900835
 20
361.192513
 40
0.5
100
AcDbArc
 50
0.0
 51
90.0
  0
LINE
  5
1A5
100
AcDbEntity
  8
M0
  6
DASHED
100
AcDbLine
 10
117.400835
 20
354.542513
 11
117.400835
 21
361.192513
  0
ARC
  5
1A6
100
AcDbEntity
  8
M0
  6
DASHED
100
AcDbCircle
 10
116.900835
 20
354.542513
 40
0.5
100
AcDbArc
 50
270.0
 51
360.0
  0
LINE
  5
1A7
100
AcDbEntity
  8
M0
  6
DASHED
100
AcDbLine
 10
110.250835
 20
354.042513
 11
116.900835
 21
354.042513
  0
LINE
  5
1A8
100
AcDbEntity
  8
M0
  6
DASHED
100
AcDbLine
 10
109.750835
 20
361.192513
 11
109.750835
 21
354.542513
  0
ARC
  5
1A9
100
AcDbEntity
  8
M0
  6
DASHED
100
AcDbCircle
 10
110.250835
 20
361.192513
 40
0.5
100
AcDbArc
 50
90.0
 51
180.0
  0
ARC
  5
1AA
100
AcDbEntity
  8
M0
  6
DASHED
100
AcDbCircle
 10
110.250835
 20
354.542513
 40
0.5
100
AcDbArc
 50
180.0
 51
270.0
  0
HATCH
  5
1AB
100
AcDbEntity
  8
M0
 62
     7
100
AcDbHatch
 10
0.0
 20
0.0
210
0.0
220
0.0
230
1.0
  2
SOLID
 70
     1
 71
     0
 91
        1
 92
        1
 93
        4
 72
     1
 10
235.185136
 20
385.387635
 11
233.185136
 21
385.387635
 72
     1
 10
233.185136
 20
385.387635
 11
233.185136
 21
367.187635
 72
     1
 10
233.185136
 20
367.187635
 11
235.185136
 21
367.187635
 72
     1
 10
235.185136
 20
367.187635
 11
235.185136
 21
385.387635
 97
        0
 75
     0
 76
     1
 98
        1
 10
0.0
 20
0.0
  0
LINE
  5
1AE
100
AcDbEntity
  8
M0
100
AcDbLine
 10
151.266418
 20
373.976868
 11
148.084778
 21
377.158631
  0
LINE
  5
1AF
100
AcDbEntity
  8
M0
100
AcDbLine
 10
151.089661
 20
375.921204
 11
149.322082
 21
374.153626
  0
LINE
  5
1B0
100
AcDbEntity
  8
M0
100
AcDbLine
 10
150.029114
 20
376.981873
 11
148.261536
 21
375.214173
  0
LINE
  5
1B1
100
AcDbEntity
  8
M0
100
AcDbLine
 10
153.000835
 20
379.392513
 11
146.350835
 21
379.392513
  0
ARC
  5
1B2
100
AcDbEntity
  8
M0
100
AcDbCircle
 10
153.000835
 20
378.892513
 40
0.5
100
AcDbArc
 50
0.0
 51
90.0
  0
LINE
  5
1B3
100
AcDbEntity
  8
M0
100
AcDbLine
 10
153.500835
 20
376.628531
 11
153.500835
 21
378.892513
  0
LINE
  5
1B4
100
AcDbEntity
  8
M0
100
AcDbLine
 10
146.350835
 20
371.742513
 11
150.497969
 21
371.742513
  0
LINE
  5
1B5
100
AcDbEntity
  8
M0
100
AcDbLine
 10
145.850835
 20
378.892513
 11
145.850835
 21
372.242513
  0
ARC
  5
1B6
100
AcDbEntity
  8
M0
100
AcDbCircle
 10
146.350835
 20
378.892513
 40
0.5
100
AcDbArc
 50
90.0
 51
180.0
  0
ARC
  5
1B7
100
AcDbEntity
  8
M0
100
AcDbCircle
 10
146.350835
 20
372.242513
 40
0.5
100
AcDbArc
 50
180.0
 51
270.0
  0
ARC
  5
1B8
100
AcDbEntity
  8
M0
100
AcDbCircle
 10
149.675835
 20
375.567513
 40
3.0
100
AcDbArc
 50
354.126881
 51
662.724737
  0
ARC
  5
1B9
100
AcDbEntity
  8
M0
100
AcDbCircle
 10
147.775834
 20
367.967513
 40
2.0
100
AcDbArc
 50
-90.0
 51
0.0
  0
ARC
  5
1BA
100
AcDbEntity
  8
M0
100
AcDbCircle
 10
153.775834
 20
369.4366
 40
4.0
100
AcDbArc
 50
148.425809
 51
180.0
  0
LINE
  5
1BB
100
AcDbEntity
  8
M0
100
AcDbLine
 10
155.083686
 20
379.204017
 11
150.367983
 21
371.531009
  0
LINE
  5
1BC
100
AcDbEntity
  8
M0
100
AcDbLine
 10
149.775834
 20
367.967513
 11
149.775834
 21
369.4366
  0
LINE
  5
1BD
100
AcDbEntity
  8
M0
100
AcDbLine
 10
147.775834
 20
365.967513
 11
146.940419
 21
365.967513
  0
LINE
  5
1BE
100
AcDbEntity
  8
M0
100
AcDbLine
 10
156.675834
 20
386.967513
 11
164.675834
 21
386.967513
  0
LINE
  5
1BF
100
AcDbEntity
  8
M0
100
AcDbLine
 10
155.675834
 20
385.967513
 11
155.675834
 21
381.298426
  0
LINE
  5
1C0
100
AcDbEntity
  8
M0
100
AcDbLine
 10
147.775834
 20
355.667513
 11
155.775834
 21
355.667513
  0
LINE
  5
1C1
100
AcDbEntity
  8
M0
100
AcDbLine
 10
165.675834
 20
385.967513
 11
165.675834
 21
380.61037
  0
ARC
  5
1C2
100
AcDbEntity
  8
M0
100
AcDbCircle
 10
154.475834
 20
364.667513
 40
2.5
100
AcDbArc
 50
-23.073918
 51
23.073918
  0
ARC
  5
1C3
100
AcDbEntity
  8
M0
100
AcDbCircle
 10
154.475834
 20
357.667513
 40
2.5
100
AcDbArc
 50
-23.073918
 51
23.073918
  0
ARC
  5
1C4
100
AcDbEntity
  8
M0
100
AcDbCircle
 10
149.075834
 20
364.667513
 40
2.5
100
AcDbArc
 50
148.667749
 51
203.073918
  0
ARC
  5
1C5
100
AcDbEntity
  8
M0
100
AcDbCircle
 10
149.075834
 20
357.667513
 40
2.5
100
AcDbArc
 50
156.926082
 51
203.073918
  0
LINE
  5
1C6
100
AcDbEntity
  8
M0
100
AcDbLine
 10
156.775834
 20
363.687717
 11
156.775834
 21
358.647309
  0
LINE
  5
1C7
100
AcDbEntity
  8
M0
100
AcDbLine
 10
156.775834
 20
356.687717
 11
156.775834
 21
356.667513
  0
LINE
  5
1C8
100
AcDbEntity
  8
M0
100
AcDbLine
 10
146.775834
 20
363.687717
 11
146.775834
 21
358.647309
  0
LINE
  5
1C9
100
AcDbEntity
  8
M0
100
AcDbLine
 10
146.775834
 20
356.687717
 11
146.775834
 21
356.667513
  0
LINE
  5
1CA
100
AcDbEntity
  8
M0
100
AcDbLine
 10
156.775834
 20
365.647309
 11
156.775834
 21
370.967513
  0
ARC
  5
1CB
100
AcDbEntity
  8
M0
100
AcDbCircle
 10
160.775834
 20
370.967513
 40
4.0
100
AcDbArc
 50
90.0
 51
180.0
  0
ARC
  5
1CC
100
AcDbEntity
  8
M0
100
AcDbCircle
 10
155.775834
 20
356.667513
 40
1.0
100
AcDbArc
 50
-90.0
 51
0.0
  0
ARC
  5
1CD
100
AcDbEntity
  8
M0
100
AcDbCircle
 10
147.775834
 20
356.667513
 40
1.0
100
AcDbArc
 50
180.0
 51
270.0
  0
ARC
  5
1CE
100
AcDbEntity
  8
M0
100
AcDbCircle
 10
164.675834
 20
385.967513
 40
1.0
100
AcDbArc
 50
0.0
 51
90.0
  0
ARC
  5
1CF
100
AcDbEntity
  8
M0
100
AcDbCircle
 10
156.675834
 20
385.967513
 40
1.0
100
AcDbArc
 50
90.0
 51
180.0
  0
ARC
  5
1D0
100
AcDbEntity
  8
M0
100
AcDbCircle
 10
162.320279
 20
375.967513
 40
1.0
100
AcDbArc
 50
270.0
 51
328.109208
  0
ARC
  5
1D1
100
AcDbEntity
  8
M0
100
AcDbCircle
 10
161.675834
 20
380.61037
 40
4.0
100
AcDbArc
 50
-31.890792
 51
0.0
  0
LINE
  5
1D2
100
AcDbEntity
  8
M0
100
AcDbLine
 10
160.775834
 20
374.967513
 11
162.320279
 21
374.967513
  0
LINE
  5
1D3
100
AcDbEntity
  8
M0
100
AcDbLine
 10
165.072061
 20
378.497163
 11
163.169335
 21
375.439211
  0
ARC
  5
1D4
100
AcDbEntity
  8
M0
100
AcDbCircle
 10
151.675834
 20
381.298426
 40
4.0
100
AcDbArc
 50
-31.574191
 51
0.0
  0
LINE
  5
1D5
100
AcDbEntity
  8
M0
100
AcDbLine
 10
267.985136
 20
294.967073
 11
260.285136
 21
294.967073
  0
LINE
  5
1D6
100
AcDbEntity
  8
M0
100
AcDbLine
 10
267.985154
 20
290.967137
 11
260.285154
 21
290.967426
  0
LINE
  5
1D7
100
AcDbEntity
  8
M0
100
AcDbLine
 10
260.285154
 20
382.9676
 11
267.985154
 21
382.967889
  0
LINE
  5
1D8
100
AcDbEntity
  8
M0
  6
DASHED
100
AcDbLine
 10
285.085135
 20
381.467514
 11
285.085135
 21
374.467514
  0
LINE
  5
1D9
100
AcDbEntity
  8
M0
100
AcDbLine
 10
235.185136
 20
367.187635
 11
235.185136
 21
385.387635
  0
LINE
  5
1DA
100
AcDbEntity
  8
M0
100
AcDbLine
 10
260.285136
 20
378.967953
 11
267.985136
 21
378.967953
  0
LINE
  5
1DB
100
AcDbEntity
  8
M0
  6
DASHED
100
AcDbLine
 10
284.085135
 20
374.467514
 11
284.085135
 21
381.467514
  0
LINE
  5
1DC
100
AcDbEntity
  8
M0
  6
DIVIDE
100
AcDbLine
 10
324.285135
 20
350.467513
 11
317.785135
 21
350.467513
  0
LINE
  5
1DD
100
AcDbEntity
  8
M0
  6
DIVIDE
100
AcDbLine
 10
324.285135
 20
323.467513
 11
317.785135
 21
323.467513
  0
LINE
  5
1DE
100
AcDbEntity
  8
M0
  6
DIVIDE
100
AcDbLine
 10
323.285135
 20
349.467513
 11
316.785135
 21
349.467513
  0
LINE
  5
1DF
100
AcDbEntity
  8
M0
  6
DIVIDE
100
AcDbLine
 10
317.785135
 20
323.467513
 11
317.785135
 21
319.467513
  0
LINE
  5
1E0
100
AcDbEntity
  8
M0
  6
DIVIDE
100
AcDbLine
 10
323.285135
 20
324.467513
 11
316.785135
 21
324.467513
  0
LINE
  5
1E1
100
AcDbEntity
  8
M0
  6
DIVIDE
100
AcDbLine
 10
316.785135
 20
324.467513
 11
316.785135
 21
319.467513
  0
LINE
  5
1E2
100
AcDbEntity
  8
M0
  6
DIVIDE
100
AcDbLine
 10
317.785135
 20
354.467513
 11
316.785135
 21
354.467513
  0
LINE
  5
1E3
100
AcDbEntity
  8
M0
  6
DIVIDE
100
AcDbLine
 10
324.285135
 20
323.467513
 11
324.285135
 21
350.467513
  0
LINE
  5
1E4
100
AcDbEntity
  8
M0
  6
DIVIDE
100
AcDbLine
 10
316.785135
 20
354.467513
 11
316.785135
 21
349.467513
  0
LINE
  5
1E5
100
AcDbEntity
  8
M0
  6
DIVIDE
100
AcDbLine
 10
317.785135
 20
354.467513
 11
317.785135
 21
350.467513
  0
LINE
  5
1E6
100
AcDbEntity
  8
M0
  6
DIVIDE
100
AcDbLine
 10
316.785135
 20
319.467513
 11
317.785135
 21
319.467513
  0
LINE
  5
1E7
100
AcDbEntity
  8
M0
  6
DIVIDE
100
AcDbLine
 10
323.285135
 20
349.467513
 11
323.285135
 21
324.467513
  0
LINE
  5
1E8
100
AcDbEntity
  8
M0
100
AcDbLine
 10
257.985136
 20
386.967513
 11
260.285136
 21
386.967513
  0
LINE
  5
1E9
100
AcDbEntity
  8
M0
100
AcDbLine
 10
267.985136
 20
383.467889
 11
260.285136
 21
383.4676
  0
LINE
  5
1EA
100
AcDbEntity
  8
M0
100
AcDbLine
 10
253.845487
 20
385.307262
 11
255.685087
 21
385.468197
  0
ARC
  5
1EB
100
AcDbEntity
  8
M0
100
AcDbCircle
 10
253.985136
 20
383.713345
 40
1.599998
100
AcDbArc
 50
95.007035
 51
179.999966
  0
LINE
  5
1EC
100
AcDbEntity
  8
M0
100
AcDbLine
 10
267.985136
 20
378.467953
 11
267.985136
 21
383.467889
  0
LINE
  5
1ED
100
AcDbEntity
  8
M0
100
AcDbLine
 10
260.285136
 20
378.467953
 11
267.985136
 21
378.467953
  0
LINE
  5
1EE
100
AcDbEntity
  8
M0
100
AcDbLine
 10
256.985136
 20
385.967476
 11
257.985136
 21
385.967513
  0
LINE
  5
1EF
100
AcDbEntity
  8
M0
100
AcDbLine
 10
252.385175
 20
383.713345
 11
252.385175
 21
378.223019
  0
LINE
  5
1F0
100
AcDbEntity
  8
M0
100
AcDbLine
 10
256.985136
 20
385.468182
 11
255.685087
 21
385.468182
  0
LINE
  5
1F1
100
AcDbEntity
  8
M0
100
AcDbLine
 10
257.985136
 20
375.967513
 11
257.985136
 21
385.967513
  0
LINE
  5
1F2
100
AcDbEntity
  8
M0
100
AcDbLine
 10
256.985136
 20
385.967476
 11
256.985136
 21
375.967476
  0
LINE
  5
1F3
100
AcDbEntity
  8
M0
100
AcDbLine
 10
255.685087
 20
376.468197
 11
255.685087
 21
385.468197
  0
LINE
  5
1F4
100
AcDbEntity
  8
M0
100
AcDbLine
 10
257.985136
 20
386.967513
 11
257.985136
 21
372.467514
  0
LINE
  5
1F5
100
AcDbEntity
  8
M0
100
AcDbLine
 10
253.845487
 20
376.629116
 11
255.685087
 21
376.468197
  0
LINE
  5
1F6
100
AcDbEntity
  8
M0
100
AcDbLine
 10
255.685087
 20
376.468182
 11
256.985136
 21
376.468182
  0
ARC
  5
1F7
100
AcDbEntity
  8
M0
100
AcDbCircle
 10
253.985136
 20
378.223019
 40
1.599998
100
AcDbArc
 50
179.999966
 51
264.99283
  0
LINE
  5
1F8
100
AcDbEntity
  8
M0
100
AcDbLine
 10
256.985136
 20
375.967476
 11
257.985136
 21
375.967513
  0
LINE
  5
1F9
100
AcDbEntity
  8
M0
100
AcDbLine
 10
260.285136
 20
372.467514
 11
260.285136
 21
386.967513
  0
LINE
  5
1FA
100
AcDbEntity
  8
M0
100
AcDbLine
 10
245.485136
 20
334.467513
 11
245.485136
 21
333.467513
  0
LINE
  5
1FB
100
AcDbEntity
  8
M0
100
AcDbLine
 10
245.485136
 20
339.467513
 11
245.485136
 21
340.467513
  0
LINE
  5
1FC
100
AcDbEntity
  8
M0
100
AcDbLine
 10
317.485136
 20
319.967514
 11
318.985136
 21
319.967514
  0
LINE
  5
1FD
100
AcDbEntity
  8
M0
100
AcDbLine
 10
318.985136
 20
319.967514
 11
318.985136
 21
319.167513
  0
LINE
  5
1FE
100
AcDbEntity
  8
M0
100
AcDbLine
 10
320.685137
 20
301.467512
 11
311.285136
 21
301.467512
  0
LINE
  5
1FF
100
AcDbEntity
  8
M0
100
AcDbLine
 10
320.685137
 20
301.509257
 11
320.685137
 21
301.467512
  0
LINE
  5
200
100
AcDbEntity
  8
M0
100
AcDbLine
 10
245.485136
 20
333.467513
 11
244.485138
 21
333.467513
  0
LINE
  5
201
100
AcDbEntity
  8
M0
100
AcDbLine
 10
244.485138
 20
339.467513
 11
245.485136
 21
339.467513
  0
LINE
  5
202
100
AcDbEntity
  8
M0
100
AcDbLine
 10
245.485136
 20
333.467513
 11
245.985137
 21
333.467513
  0
LINE
  5
203
100
AcDbEntity
  8
M0
100
AcDbLine
 10
244.485138
 20
334.467513
 11
245.485136
 21
334.467513
  0
LINE
  5
204
100
AcDbEntity
  8
M0
100
AcDbLine
 10
245.485136
 20
340.467513
 11
244.485138
 21
340.467513
  0
LINE
  5
205
100
AcDbEntity
  8
M0
100
AcDbLine
 10
245.485136
 20
340.467513
 11
245.985137
 21
340.467513
  0
LINE
  5
206
100
AcDbEntity
  8
M0
100
AcDbLine
 10
245.985137
 20
334.467513
 11
245.485136
 21
334.467513
  0
ARC
  5
207
100
AcDbEntity
  8
M0
100
AcDbCircle
 10
313.485136
 20
319.251285
 40
0.3
100
AcDbArc
 50
0.0
 51
90.0
  0
ARC
  5
208
100
AcDbEntity
  8
M0
100
AcDbCircle
 10
313.485136
 20
354.683741
 40
0.3
100
AcDbArc
 50
270.0
 51
360.0
  0
ARC
  5
209
100
AcDbEntity
  8
M0
100
AcDbCircle
 10
317.485136
 20
319.467513
 40
0.5
100
AcDbArc
 50
90.0
 51
180.0
  0
ARC
  5
20A
100
AcDbEntity
  8
M0
100
AcDbCircle
 10
313.485136
 20
351.206958
 40
0.3
100
AcDbArc
 50
0.0
 51
90.0
  0
ARC
  5
20B
100
AcDbEntity
  8
M0
100
AcDbCircle
 10
313.485136
 20
322.728068
 40
0.3
100
AcDbArc
 50
270.0
 51
360.0
  0
LINE
  5
20C
100
AcDbEntity
  8
M0
100
AcDbLine
 10
320.509666
 20
319.166911
 11
318.925136
 21
320.967512
  0
LINE
  5
20D
100
AcDbEntity
  8
M0
100
AcDbLine
 10
317.785136
 20
321.467513
 11
318.485137
 21
321.467513
  0
LINE
  5
20E
100
AcDbEntity
  8
M0
100
AcDbLine
 10
316.985135
 20
319.167513
 11
316.985135
 21
319.467513
  0
LINE
  5
20F
100
AcDbEntity
  8
M0
100
AcDbLine
 10
320.985136
 20
318.667513
 11
320.985136
 21
301.967513
  0
LINE
  5
210
100
AcDbEntity
  8
M0
100
AcDbLine
 10
317.785136
 20
319.967514
 11
317.785136
 21
321.467513
  0
LINE
  5
211
100
AcDbEntity
  8
M0
100
AcDbLine
 10
242.185136
 20
347.967513
 11
244.485138
 21
347.967513
  0
ARC
  5
212
100
AcDbEntity
  8
M0
100
AcDbCircle
 10
240.685136
 20
348.467513
 40
0.5
100
AcDbArc
 50
90.0
 51
180.0
  0
ARC
  5
213
100
AcDbEntity
  8
M0
100
AcDbCircle
 10
240.685136
 20
329.967513
 40
0.5
100
AcDbArc
 50
90.0
 51
180.0
  0
LINE
  5
214
100
AcDbEntity
  8
M0
100
AcDbLine
 10
241.685135
 20
324.967513
 11
240.685137
 21
324.967513
  0
ARC
  5
215
100
AcDbEntity
  8
M0
100
AcDbCircle
 10
275.085136
 20
302.467513
 40
1.0
100
AcDbArc
 50
180.0
 51
270.0
  0
LINE
  5
216
100
AcDbEntity
  8
M0
100
AcDbLine
 10
269.185137
 20
304.467514
 11
274.085136
 21
304.467514
  0
LINE
  5
217
100
AcDbEntity
  8
M0
100
AcDbLine
 10
240.685137
 20
324.967513
 11
244.485138
 21
324.967513
  0
LINE
  5
218
100
AcDbEntity
  8
M0
100
AcDbLine
 10
240.185136
 20
348.467513
 11
240.185136
 21
325.467513
  0
LINE
  5
219
100
AcDbEntity
  8
M0
100
AcDbLine
 10
242.185136
 20
324.967513
 11
242.185136
 21
330.467513
  0
LINE
  5
21A
100
AcDbEntity
  8
M0
100
AcDbLine
 10
321.285136
 20
370.717512
 11
320.985136
 21
370.717512
  0
LINE
  5
21B
100
AcDbEntity
  8
M0
100
AcDbLine
 10
320.985136
 20
361.217513
 11
321.285136
 21
361.217513
  0
LINE
  5
21C
100
AcDbEntity
  8
M0
100
AcDbLine
 10
321.285136
 20
312.717512
 11
320.985136
 21
312.717512
  0
LINE
  5
21D
100
AcDbEntity
  8
M0
100
AcDbLine
 10
320.985136
 20
303.217511
 11
321.285136
 21
303.217511
  0
LINE
  5
21E
100
AcDbEntity
  8
M0
100
AcDbLine
 10
245.985137
 20
338.467513
 11
245.485136
 21
338.467513
  0
LINE
  5
21F
100
AcDbEntity
  8
M0
100
AcDbLine
 10
245.985137
 20
339.467513
 11
245.485136
 21
339.467513
  0
LINE
  5
220
100
AcDbEntity
  8
M0
100
AcDbLine
 10
245.485136
 20
335.467513
 11
245.485136
 21
338.467513
  0
LINE
  5
221
100
AcDbEntity
  8
M0
100
AcDbLine
 10
245.485136
 20
335.467513
 11
245.985137
 21
335.467513
  0
ELLIPSE
  5
222
100
AcDbEntity
  8
M0
100
AcDbEllipse
 10
240.685136
 20
343.27462
 11
0.5
 21
0.0
210
0.0
220
0.0
230
1.0
 40
0.414214
 41
3.141592653589793
 42
4.71238898038469
  0
LINE
  5
223
100
AcDbEntity
  8
M0
100
AcDbLine
 10
297.985136
 20
354.38374
 11
313.485136
 21
354.38374
  0
ARC
  5
224
100
AcDbEntity
  8
M0
100
AcDbCircle
 10
269.185136
 20
305.467513
 40
1.0
100
AcDbArc
 50
237.247324
 51
270.0
  0
ELLIPSE
  5
225
100
AcDbEntity
  8
M0
100
AcDbEllipse
 10
240.685136
 20
341.77462
 11
0.5
 21
0.0
210
0.0
220
0.0
230
1.0
 40
0.414214
 41
3.141592653589793
 42
4.71238898038469
  0
LINE
  5
226
100
AcDbEntity
  8
M0
100
AcDbLine
 10
313.485136
 20
351.506958
 11
297.985136
 21
351.506958
  0
LINE
  5
227
100
AcDbEntity
  8
M0
100
AcDbLine
 10
297.985136
 20
322.428068
 11
313.485136
 21
322.428068
  0
LINE
  5
228
100
AcDbEntity
  8
M0
100
AcDbLine
 10
313.485136
 20
319.551285
 11
297.985136
 21
319.551285
  0
LINE
  5
229
100
AcDbEntity
  8
M0
100
AcDbLine
 10
270.285137
 20
369.967513
 11
270.285137
 21
367.967512
  0
LINE
  5
22A
100
AcDbEntity
  8
M0
100
AcDbLine
 10
273.885136
 20
371.467514
 11
270.285137
 21
369.967513
  0
LINE
  5
22B
100
AcDbEntity
  8
M0
100
AcDbLine
 10
274.085136
 20
370.467514
 11
271.285135
 21
369.300846
  0
LINE
  5
22C
100
AcDbEntity
  8
M0
100
AcDbLine
 10
279.585136
 20
367.967512
 11
279.585136
 21
371.467514
  0
LINE
  5
22D
100
AcDbEntity
  8
M0
100
AcDbLine
 10
273.885136
 20
371.467514
 11
273.885136
 21
380.467511
  0
LINE
  5
22E
100
AcDbEntity
  8
M0
100
AcDbLine
 10
284.585136
 20
341.067513
 11
284.685136
 21
341.067513
  0
LINE
  5
22F
100
AcDbEntity
  8
M0
100
AcDbLine
 10
279.585136
 20
371.467514
 11
273.885136
 21
371.467514
  0
LINE
  5
230
100
AcDbEntity
  8
M0
100
AcDbLine
 10
291.370922
 20
381.467513
 11
274.885136
 21
381.467513
  0
LINE
  5
231
100
AcDbEntity
  8
M0
100
AcDbLine
 10
278.585135
 20
370.467514
 11
274.085136
 21
370.467514
  0
LINE
  5
232
100
AcDbEntity
  8
M0
100
AcDbLine
 10
321.285136
 20
370.717512
 11
321.285136
 21
361.217513
  0
LINE
  5
233
100
AcDbEntity
  8
M0
100
AcDbLine
 10
271.285135
 20
368.967512
 11
278.585135
 21
368.967512
  0
LINE
  5
234
100
AcDbEntity
  8
M0
100
AcDbLine
 10
278.585135
 20
368.967512
 11
278.585135
 21
370.467514
  0
LINE
  5
235
100
AcDbEntity
  8
M0
100
AcDbLine
 10
271.285135
 20
369.300846
 11
271.285135
 21
368.967512
  0
LINE
  5
236
100
AcDbEntity
  8
M0
100
AcDbLine
 10
320.985136
 20
371.967513
 11
320.985136
 21
352.567513
  0
ARC
  5
237
100
AcDbEntity
  8
M0
100
AcDbCircle
 10
291.370922
 20
380.467513
 40
1.0
100
AcDbArc
 50
45.0
 51
90.0
  0
ARC
  5
238
100
AcDbEntity
  8
M0
100
AcDbCircle
 10
274.885136
 20
380.467513
 40
1.0
100
AcDbArc
 50
90.0
 51
180.0
  0
ARC
  5
239
100
AcDbEntity
  8
M0
100
AcDbCircle
 10
295.785136
 20
376.053299
 40
1.0
100
AcDbArc
 50
0.0
 51
45.0
  0
ARC
  5
23A
100
AcDbEntity
  8
M0
100
AcDbCircle
 10
277.385136
 20
378.467513
 40
3.0
100
AcDbArc
 50
90.0
 51
180.0
  0
ELLIPSE
  5
23B
100
AcDbEntity
  8
M0
100
AcDbEllipse
 10
296.185136
 20
351.458515
 11
0.0
 21
20.008998
210
0.0
220
0.0
230
1.0
 40
0.029987
 41
5.682730448278159
 42
6.283185307179586
  0
ARC
  5
23C
100
AcDbEntity
  8
M0
100
AcDbCircle
 10
246.785136
 20
340.267513
 40
1.0
100
AcDbArc
 50
168.463041
 51
180.0
  0
ARC
  5
23D
100
AcDbEntity
  8
M0
100
AcDbCircle
 10
303.085136
 20
302.467513
 40
1.0
100
AcDbArc
 50
270.0
 51
360.0
  0
LINE
  5
23E
100
AcDbEntity
  8
M0
100
AcDbLine
 10
245.785137
 20
340.267513
 11
245.785137
 21
339.467513
  0
LINE
  5
23F
100
AcDbEntity
  8
M0
100
AcDbLine
 10
245.785137
 20
334.467513
 11
245.785137
 21
333.467513
  0
LINE
  5
240
100
AcDbEntity
  8
M0
100
AcDbLine
 10
276.185136
 20
334.267513
 11
276.185136
 21
339.667513
  0
LINE
  5
241
100
AcDbEntity
  8
M0
100
AcDbLine
 10
272.685136
 20
339.667513
 11
272.685136
 21
334.267513
  0
ARC
  5
242
100
AcDbEntity
  8
M0
100
AcDbCircle
 10
320.685136
 20
352.567513
 40
0.3
100
AcDbArc
 50
270.0
 51
360.0
  0
LINE
  5
243
100
AcDbEntity
  8
M0
100
AcDbLine
 10
304.085136
 20
302.467514
 11
304.085136
 21
305.967513
  0
LINE
  5
244
100
AcDbEntity
  8
M0
100
AcDbLine
 10
286.085136
 20
302.467514
 11
286.085136
 21
301.467512
  0
LINE
  5
245
100
AcDbEntity
  8
M0
100
AcDbLine
 10
296.785136
 20
376.053299
 11
296.785136
 21
367.967512
  0
LINE
  5
246
100
AcDbEntity
  8
M0
100
AcDbLine
 10
279.685135
 20
371.467514
 11
274.985136
 21
371.467514
  0
LINE
  5
247
100
AcDbEntity
  8
M0
100
AcDbLine
 10
279.685135
 20
371.467514
 11
279.685135
 21
367.967512
  0
LINE
  5
248
100
AcDbEntity
  8
M0
100
AcDbLine
 10
296.185136
 20
371.467514
 11
279.685135
 21
371.467514
  0
LINE
  5
249
100
AcDbEntity
  8
M0
100
AcDbLine
 10
318.785136
 20
352.267513
 11
320.685137
 21
352.267513
  0
ARC
  5
24A
100
AcDbEntity
  8
M0
100
AcDbCircle
 10
320.485136
 20
318.667513
 40
0.5
100
AcDbArc
 50
0.0
 51
90.0
  0
LINE
  5
24B
100
AcDbEntity
  8
M0
100
AcDbLine
 10
286.085136
 20
347.067513
 11
286.085136
 21
367.967512
  0
ARC
  5
24C
100
AcDbEntity
  8
M0
100
AcDbCircle
 10
320.485136
 20
301.967513
 40
0.5
100
AcDbArc
 50
270.0
 51
360.0
  0
ARC
  5
24D
100
AcDbEntity
  8
M0
100
AcDbCircle
 10
320.485136
 20
355.267513
 40
0.5
100
AcDbArc
 50
270.0
 51
360.0
  0
LINE
  5
24E
100
AcDbEntity
  8
M0
100
AcDbLine
 10
318.785136
 20
352.267513
 11
317.785136
 21
353.267513
  0
LINE
  5
24F
100
AcDbEntity
  8
M0
100
AcDbLine
 10
317.785136
 20
353.267513
 11
317.785136
 21
354.767513
  0
ARC
  5
250
100
AcDbEntity
  8
M0
100
AcDbCircle
 10
240.685136
 20
325.467513
 40
0.5
100
AcDbArc
 50
180.0
 51
270.0
  0
LINE
  5
251
100
AcDbEntity
  8
M0
100
AcDbLine
 10
305.385136
 20
371.467514
 11
310.285136
 21
371.467514
  0
LINE
  5
252
100
AcDbEntity
  8
M0
100
AcDbLine
 10
296.785136
 20
376.053299
 11
296.785136
 21
373.917512
  0
LINE
  5
253
100
AcDbEntity
  8
M0
100
AcDbLine
 10
304.485136
 20
371.167512
 11
304.485136
 21
367.967512
  0
LINE
  5
254
100
AcDbEntity
  8
M0
100
AcDbLine
 10
316.785136
 20
352.267513
 11
316.785136
 21
354.767513
  0
LINE
  5
255
100
AcDbEntity
  8
M0
100
AcDbLine
 10
292.078029
 20
381.17462
 11
296.492243
 21
376.760404
  0
LINE
  5
256
100
AcDbEntity
  8
M0
100
AcDbLine
 10
304.485136
 20
371.167512
 11
304.485136
 21
371.467514
  0
LINE
  5
257
100
AcDbEntity
  8
M0
100
AcDbLine
 10
304.485136
 20
371.467514
 11
310.285136
 21
371.467514
  0
LINE
  5
258
100
AcDbEntity
  8
M0
100
AcDbLine
 10
320.985136
 20
370.967513
 11
320.985136
 21
370.417513
  0
LINE
  5
259
100
AcDbEntity
  8
M0
100
AcDbLine
 10
296.785136
 20
371.467514
 11
296.785136
 21
367.967512
  0
ARC
  5
25A
100
AcDbEntity
  8
M0
100
AcDbCircle
 10
266.385136
 20
361.667513
 40
3.0
100
AcDbArc
 50
90.0
 51
180.0
  0
ARC
  5
25B
100
AcDbEntity
  8
M0
100
AcDbCircle
 10
266.385136
 20
312.267513
 40
3.0
100
AcDbArc
 50
180.0
 51
270.0
  0
ARC
  5
25C
100
AcDbEntity
  8
M0
100
AcDbCircle
 10
277.342495
 20
361.667513
 40
3.0
100
AcDbArc
 50
45.0
 51
90.0
  0
ARC
  5
25D
100
AcDbEntity
  8
M0
100
AcDbCircle
 10
277.342495
 20
312.267513
 40
3.0
100
AcDbArc
 50
270.0
 51
315.0
  0
ARC
  5
25E
100
AcDbEntity
  8
M0
100
AcDbCircle
 10
247.485136
 20
354.067513
 40
3.0
100
AcDbArc
 50
90.0
 51
180.0
  0
ARC
  5
25F
100
AcDbEntity
  8
M0
100
AcDbCircle
 10
245.985136
 20
332.267513
 40
1.0
100
AcDbArc
 50
0.0
 51
90.0
  0
ARC
  5
260
100
AcDbEntity
  8
M0
100
AcDbCircle
 10
260.385136
 20
360.067513
 40
3.0
100
AcDbArc
 50
270.0
 51
360.0
  0
ARC
  5
261
100
AcDbEntity
  8
M0
100
AcDbCircle
 10
260.385136
 20
313.867513
 40
3.0
100
AcDbArc
 50
0.0
 51
90.0
  0
ARC
  5
262
100
AcDbEntity
  8
M0
100
AcDbCircle
 10
272.485136
 20
339.167513
 40
0.5
100
AcDbArc
 50
90.0
 51
180.0
  0
LINE
  5
263
100
AcDbEntity
  8
M0
100
AcDbLine
 10
246.485134
 20
317.039085
 11
246.485134
 21
304.467514
  0
ARC
  5
264
100
AcDbEntity
  8
M0
100
AcDbCircle
 10
272.485136
 20
334.767513
 40
0.5
100
AcDbArc
 50
180.0
 51
270.0
  0
LINE
  5
265
100
AcDbEntity
  8
M0
100
AcDbLine
 10
246.485134
 20
369.467513
 11
246.485134
 21
356.89594
  0
LINE
  5
266
100
AcDbEntity
  8
M0
100
AcDbLine
 10
286.085136
 20
352.067513
 11
293.485136
 21
352.067513
  0
LINE
  5
267
100
AcDbEntity
  8
M0
100
AcDbLine
 10
293.485136
 20
357.067512
 11
286.085136
 21
357.067512
  0
LINE
  5
268
100
AcDbEntity
  8
M0
100
AcDbLine
 10
286.085136
 20
347.067513
 11
285.185136
 21
347.067513
  0
LINE
  5
269
100
AcDbEntity
  8
M0
100
AcDbLine
 10
297.985136
 20
322.428068
 11
297.985136
 21
319.551285
  0
LINE
  5
26A
100
AcDbEntity
  8
M0
100
AcDbLine
 10
297.985136
 20
354.38374
 11
297.985136
 21
351.506958
  0
LINE
  5
26B
100
AcDbEntity
  8
M0
100
AcDbLine
 10
311.285136
 20
372.467514
 11
320.485135
 21
372.467514
  0
ARC
  5
26C
100
AcDbEntity
  8
M0
100
AcDbCircle
 10
245.485136
 20
341.667513
 40
1.0
100
AcDbArc
 50
180.0
 51
270.0
  0
ARC
  5
26D
100
AcDbEntity
  8
M0
100
AcDbCircle
 10
264.242495
 20
304.467513
 40
3.0
100
AcDbArc
 50
270.0
 51
315.0
  0
ARC
  5
26E
100
AcDbEntity
  8
M0
100
AcDbCircle
 10
247.485136
 20
319.867513
 40
3.0
100
AcDbArc
 50
180.0
 51
270.0
  0
ARC
  5
26F
100
AcDbEntity
  8
M0
100
AcDbCircle
 10
245.485136
 20
332.267513
 40
1.0
100
AcDbArc
 50
90.0
 51
180.0
  0
ARC
  5
270
100
AcDbEntity
  8
M0
100
AcDbCircle
 10
249.485136
 20
304.467513
 40
3.0
100
AcDbArc
 50
180.0
 51
270.0
  0
LINE
  5
271
100
AcDbEntity
  8
M0
100
AcDbLine
 10
313.785135
 20
319.167513
 11
320.485135
 21
319.167513
  0
ARC
  5
272
100
AcDbEntity
  8
M0
100
AcDbCircle
 10
264.242495
 20
369.467513
 40
3.0
100
AcDbArc
 50
45.0
 51
90.0
  0
ARC
  5
273
100
AcDbEntity
  8
M0
100
AcDbCircle
 10
249.485136
 20
369.467513
 40
3.0
100
AcDbArc
 50
90.0
 51
180.0
  0
ARC
  5
274
100
AcDbEntity
  8
M0
100
AcDbCircle
 10
245.985136
 20
341.667513
 40
1.0
100
AcDbArc
 50
270.0
 51
360.0
  0
LINE
  5
275
100
AcDbEntity
  8
M0
100
AcDbLine
 10
281.585136
 20
312.267514
 11
279.463815
 21
310.146192
  0
LINE
  5
276
100
AcDbEntity
  8
M0
100
AcDbLine
 10
246.985135
 20
332.267513
 11
246.985135
 21
341.667513
  0
LINE
  5
277
100
AcDbEntity
  8
M0
100
AcDbLine
 10
277.342495
 20
309.267513
 11
266.385136
 21
309.267513
  0
LINE
  5
278
100
AcDbEntity
  8
M0
100
AcDbLine
 10
263.385135
 20
360.067513
 11
263.385135
 21
361.667514
  0
LINE
  5
279
100
AcDbEntity
  8
M0
100
AcDbLine
 10
279.463815
 20
363.788834
 11
281.585136
 21
361.667514
  0
LINE
  5
27A
100
AcDbEntity
  8
M0
100
AcDbLine
 10
266.385136
 20
364.667512
 11
277.342495
 21
364.667512
  0
LINE
  5
27B
100
AcDbEntity
  8
M0
100
AcDbLine
 10
281.585136
 20
361.667514
 11
310.285136
 21
361.667514
  0
LINE
  5
27C
100
AcDbEntity
  8
M0
100
AcDbLine
 10
271.985136
 20
339.167513
 11
271.985136
 21
334.767513
  0
LINE
  5
27D
100
AcDbEntity
  8
M0
100
AcDbLine
 10
272.485137
 20
334.267513
 11
284.685136
 21
334.267513
  0
LINE
  5
27E
100
AcDbEntity
  8
M0
100
AcDbLine
 10
284.685136
 20
339.667513
 11
272.485137
 21
339.667513
  0
LINE
  5
27F
100
AcDbEntity
  8
M0
100
AcDbLine
 10
286.085136
 20
312.467513
 11
281.585136
 21
312.267514
  0
LINE
  5
280
100
AcDbEntity
  8
M0
100
AcDbLine
 10
310.285136
 20
367.967512
 11
269.985135
 21
367.967512
  0
LINE
  5
281
100
AcDbEntity
  8
M0
100
AcDbLine
 10
249.485136
 20
301.467512
 11
264.242496
 21
301.467512
  0
LINE
  5
282
100
AcDbEntity
  8
M0
100
AcDbLine
 10
264.242496
 20
372.467514
 11
249.485136
 21
372.467514
  0
LINE
  5
283
100
AcDbEntity
  8
M0
100
AcDbLine
 10
269.985135
 20
367.967512
 11
266.363816
 21
371.588833
  0
LINE
  5
284
100
AcDbEntity
  8
M0
100
AcDbLine
 10
266.363816
 20
302.346192
 11
269.985135
 21
305.967513
  0
LINE
  5
285
100
AcDbEntity
  8
M0
100
AcDbLine
 10
245.985137
 20
340.667513
 11
245.985137
 21
333.267513
  0
LINE
  5
286
100
AcDbEntity
  8
M0
100
AcDbLine
 10
245.485136
 20
340.667513
 11
245.985137
 21
340.667513
  0
LINE
  5
287
100
AcDbEntity
  8
M0
100
AcDbLine
 10
260.385137
 20
316.867513
 11
247.485136
 21
316.867513
  0
LINE
  5
288
100
AcDbEntity
  8
M0
100
AcDbLine
 10
247.485136
 20
357.067512
 11
260.385137
 21
357.067512
  0
LINE
  5
289
100
AcDbEntity
  8
M0
100
AcDbLine
 10
245.985137
 20
333.267513
 11
245.485136
 21
333.267513
  0
LINE
  5
28A
100
AcDbEntity
  8
M0
100
AcDbLine
 10
244.485138
 20
319.867512
 11
244.485138
 21
354.067513
  0
ARC
  5
28B
100
AcDbEntity
  8
M0
100
AcDbCircle
 10
285.185136
 20
346.567513
 40
0.5
100
AcDbArc
 50
90.0
 51
180.0
  0
ARC
  5
28C
100
AcDbEntity
  8
M0
100
AcDbCircle
 10
316.285136
 20
323.667513
 40
0.5
100
AcDbArc
 50
270.0
 51
360.0
  0
ARC
  5
28D
100
AcDbEntity
  8
M0
100
AcDbCircle
 10
316.285136
 20
350.267513
 40
0.5
100
AcDbArc
 50
0.0
 51
90.0
  0
ARC
  5
28E
100
AcDbEntity
  8
M0
100
AcDbCircle
 10
285.185136
 20
327.367513
 40
0.5
100
AcDbArc
 50
180.0
 51
270.0
  0
LINE
  5
28F
100
AcDbEntity
  8
M0
100
AcDbLine
 10
309.285135
 20
305.967513
 11
269.985135
 21
305.967513
  0
LINE
  5
290
100
AcDbEntity
  8
M0
100
AcDbLine
 10
309.285135
 20
305.967513
 11
309.285135
 21
306.467514
  0
LINE
  5
291
100
AcDbEntity
  8
M0
100
AcDbLine
 10
310.285136
 20
304.467514
 11
309.285135
 21
304.467514
  0
LINE
  5
292
100
AcDbEntity
  8
M0
100
AcDbLine
 10
309.285135
 20
304.967511
 11
309.285135
 21
305.967513
  0
LINE
  5
293
100
AcDbEntity
  8
M0
100
AcDbLine
 10
309.285135
 20
306.467514
 11
310.285136
 21
306.467514
  0
LINE
  5
294
100
AcDbEntity
  8
M0
100
AcDbLine
 10
320.985136
 20
363.517513
 11
320.985136
 21
361.367512
  0
LINE
  5
295
100
AcDbEntity
  8
M0
100
AcDbLine
 10
309.285135
 20
304.467514
 11
309.285135
 21
304.967511
  0
LINE
  5
296
100
AcDbEntity
  8
M0
100
AcDbLine
 10
317.085135
 20
349.267513
 11
317.085135
 21
351.267513
  0
LINE
  5
297
100
AcDbEntity
  8
M0
100
AcDbLine
 10
244.485138
 20
348.967513
 11
240.685137
 21
348.967513
  0
LINE
  5
298
100
AcDbEntity
  8
M0
100
AcDbLine
 10
240.685137
 20
341.567513
 11
244.485138
 21
341.567513
  0
LINE
  5
299
100
AcDbEntity
  8
M0
100
AcDbLine
 10
242.185136
 20
347.967513
 11
242.185136
 21
341.567513
  0
LINE
  5
29A
100
AcDbEntity
  8
M0
100
AcDbLine
 10
242.185136
 20
343.067513
 11
240.685137
 21
343.067513
  0
LINE
  5
29B
100
AcDbEntity
  8
M0
100
AcDbLine
 10
242.185136
 20
330.467513
 11
240.685137
 21
330.467513
  0
LINE
  5
29C
100
AcDbEntity
  8
M0
100
AcDbLine
 10
274.385135
 20
371.467514
 11
274.385135
 21
378.467511
  0
LINE
  5
29D
100
AcDbEntity
  8
M0
100
AcDbLine
 10
275.085136
 20
301.467512
 11
278.085135
 21
301.467512
  0
ARC
  5
29E
100
AcDbEntity
  8
M0
100
AcDbCircle
 10
311.285136
 20
302.467513
 40
1.0
100
AcDbArc
 50
180.0
 51
270.0
  0
ARC
  5
29F
100
AcDbEntity
  8
M0
100
AcDbCircle
 10
320.485136
 20
371.967513
 40
0.5
100
AcDbArc
 50
0.0
 51
90.0
  0
ARC
  5
2A0
100
AcDbEntity
  8
M0
100
AcDbCircle
 10
311.285136
 20
371.467513
 40
1.0
100
AcDbArc
 50
90.0
 51
180.0
  0
LINE
  5
2A1
100
AcDbEntity
  8
M0
100
AcDbLine
 10
286.085136
 20
301.467512
 11
286.085136
 21
326.867513
  0
LINE
  5
2A2
100
AcDbEntity
  8
M0
100
AcDbLine
 10
274.085136
 20
305.967513
 11
274.085136
 21
302.467514
  0
LINE
  5
2A3
100
AcDbEntity
  8
M0
100
AcDbLine
 10
275.085136
 20
301.467512
 11
303.085136
 21
301.467512
  0
LINE
  5
2A4
100
AcDbEntity
  8
M0
100
AcDbLine
 10
316.285137
 20
323.167512
 11
313.785135
 21
323.167512
  0
LINE
  5
2A5
100
AcDbEntity
  8
M0
100
AcDbLine
 10
313.785135
 20
350.767513
 11
316.285137
 21
350.767513
  0
LINE
  5
2A6
100
AcDbEntity
  8
M0
100
AcDbLine
 10
313.785135
 20
351.206958
 11
313.785135
 21
350.767513
  0
LINE
  5
2A7
100
AcDbEntity
  8
M0
100
AcDbLine
 10
313.785135
 20
323.167512
 11
313.785135
 21
322.728067
  0
LINE
  5
2A8
100
AcDbEntity
  8
M0
100
AcDbLine
 10
286.085136
 20
326.867513
 11
285.185136
 21
326.867513
  0
LINE
  5
2A9
100
AcDbEntity
  8
M0
100
AcDbLine
 10
286.085136
 20
316.867513
 11
293.485136
 21
316.867513
  0
LINE
  5
2AA
100
AcDbEntity
  8
M0
100
AcDbLine
 10
293.485136
 20
321.867512
 11
286.085136
 21
321.867512
  0
LINE
  5
2AB
100
AcDbEntity
  8
M0
100
AcDbLine
 10
284.685136
 20
346.567513
 11
284.685136
 21
327.367513
  0
LINE
  5
2AC
100
AcDbEntity
  8
M0
100
AcDbLine
 10
320.485135
 20
354.767513
 11
313.785135
 21
354.767513
  0
LINE
  5
2AD
100
AcDbEntity
  8
M0
100
AcDbLine
 10
263.385135
 20
312.267514
 11
263.385135
 21
313.867513
  0
LINE
  5
2AE
100
AcDbEntity
  8
M0
100
AcDbLine
 10
321.285136
 20
312.717512
 11
321.285136
 21
303.217511
  0
LINE
  5
2AF
100
AcDbEntity
  8
M0
100
AcDbLine
 10
316.785136
 20
348.767513
 11
317.085135
 21
349.267513
  0
LINE
  5
2B0
100
AcDbEntity
  8
M0
100
AcDbLine
 10
317.085135
 20
351.267513
 11
316.785136
 21
352.267513
  0
LINE
  5
2B1
100
AcDbEntity
  8
M0
100
AcDbLine
 10
316.785136
 20
354.767513
 11
316.785136
 21
319.167513
  0
LINE
  5
2B2
100
AcDbEntity
  8
M0
100
AcDbLine
 10
310.285136
 20
361.667514
 11
310.285136
 21
371.467513
  0
LINE
  5
2B3
100
AcDbEntity
  8
M0
100
AcDbLine
 10
293.485136
 20
352.067513
 11
293.485136
 21
357.067512
  0
LINE
  5
2B4
100
AcDbEntity
  8
M0
100
AcDbLine
 10
293.485136
 20
316.867513
 11
293.485136
 21
321.867512
  0
LINE
  5
2B5
100
AcDbEntity
  8
M0
100
AcDbLine
 10
310.285136
 20
312.467513
 11
286.085136
 21
312.467513
  0
LINE
  5
2B6
100
AcDbEntity
  8
M0
100
AcDbLine
 10
310.285136
 20
302.467513
 11
310.285136
 21
312.467513
  0
LINE
  5
2B7
100
AcDbEntity
  8
M0
100
AcDbLine
 10
318.485137
 20
321.467513
 11
318.49182
 21
321.459917
  0
LINE
  5
2B8
100
AcDbEntity
  8
M0
100
AcDbLine
 10
318.49182
 20
321.459917
 11
318.511672
 21
321.437359
  0
LINE
  5
2B9
100
AcDbEntity
  8
M0
100
AcDbLine
 10
318.511672
 20
321.437359
 11
318.544084
 21
321.400525
  0
LINE
  5
2BA
100
AcDbEntity
  8
M0
100
AcDbLine
 10
318.544084
 20
321.400525
 11
318.588076
 21
321.350535
  0
LINE
  5
2BB
100
AcDbEntity
  8
M0
100
AcDbLine
 10
318.588076
 20
321.350535
 11
318.642308
 21
321.288906
  0
LINE
  5
2BC
100
AcDbEntity
  8
M0
100
AcDbLine
 10
318.642308
 20
321.288906
 11
318.705135
 21
321.217512
  0
LINE
  5
2BD
100
AcDbEntity
  8
M0
100
AcDbLine
 10
318.705135
 20
321.217512
 11
318.774648
 21
321.138523
  0
LINE
  5
2BE
100
AcDbEntity
  8
M0
100
AcDbLine
 10
318.774648
 20
321.138523
 11
318.848731
 21
321.054337
  0
LINE
  5
2BF
100
AcDbEntity
  8
M0
100
AcDbLine
 10
318.848731
 20
321.054337
 11
318.925136
 21
320.967512
  0
LINE
  5
2C0
100
AcDbEntity
  8
M0
100
AcDbLine
 10
242.185136
 20
347.967513
 11
242.011489
 21
348.141161
  0
LINE
  5
2C1
100
AcDbEntity
  8
M0
100
AcDbLine
 10
242.011489
 20
348.141161
 11
241.843117
 21
348.309533
  0
LINE
  5
2C2
100
AcDbEntity
  8
M0
100
AcDbLine
 10
241.843117
 20
348.309533
 11
241.685135
 21
348.467513
  0
LINE
  5
2C3
100
AcDbEntity
  8
M0
100
AcDbLine
 10
241.685135
 20
348.467513
 11
241.542348
 21
348.6103
  0
LINE
  5
2C4
100
AcDbEntity
  8
M0
100
AcDbLine
 10
241.542348
 20
348.6103
 11
241.419089
 21
348.733557
  0
LINE
  5
2C5
100
AcDbEntity
  8
M0
100
AcDbLine
 10
241.419089
 20
348.733557
 11
241.31911
 21
348.833538
  0
LINE
  5
2C6
100
AcDbEntity
  8
M0
100
AcDbLine
 10
241.31911
 20
348.833538
 11
241.245443
 21
348.907205
  0
LINE
  5
2C7
100
AcDbEntity
  8
M0
100
AcDbLine
 10
241.245443
 20
348.907205
 11
241.200329
 21
348.95232
  0
LINE
  5
2C8
100
AcDbEntity
  8
M0
100
AcDbLine
 10
241.200329
 20
348.95232
 11
241.185138
 21
348.967513
  0
LINE
  5
2C9
100
AcDbEntity
  8
M0
100
AcDbLine
 10
260.285136
 20
301.467512
 11
260.285136
 21
286.967513
  0
LINE
  5
2CA
100
AcDbEntity
  8
M0
100
AcDbLine
 10
257.985136
 20
286.967513
 11
260.285136
 21
286.967513
  0
LINE
  5
2CB
100
AcDbEntity
  8
M0
100
AcDbLine
 10
267.985136
 20
290.467137
 11
260.285136
 21
290.467426
  0
LINE
  5
2CC
100
AcDbEntity
  8
M0
100
AcDbLine
 10
253.845487
 20
288.627764
 11
255.685087
 21
288.466829
  0
ARC
  5
2CD
100
AcDbEntity
  8
M0
100
AcDbCircle
 10
253.985136
 20
290.221682
 40
1.599998
100
AcDbArc
 50
180.000034
 51
264.992965
  0
LINE
  5
2CE
100
AcDbEntity
  8
M0
100
AcDbLine
 10
267.985136
 20
295.467073
 11
267.985136
 21
290.467137
  0
LINE
  5
2CF
100
AcDbEntity
  8
M0
100
AcDbLine
 10
260.285136
 20
295.467073
 11
267.985136
 21
295.467073
  0
LINE
  5
2D0
100
AcDbEntity
  8
M0
100
AcDbLine
 10
256.985136
 20
287.96755
 11
257.985136
 21
287.967513
  0
LINE
  5
2D1
100
AcDbEntity
  8
M0
100
AcDbLine
 10
252.385175
 20
290.221682
 11
252.385175
 21
295.712007
  0
LINE
  5
2D2
100
AcDbEntity
  8
M0
100
AcDbLine
 10
256.985136
 20
288.466845
 11
255.685087
 21
288.466845
  0
LINE
  5
2D3
100
AcDbEntity
  8
M0
100
AcDbLine
 10
257.985136
 20
297.967513
 11
257.985136
 21
287.967513
  0
LINE
  5
2D4
100
AcDbEntity
  8
M0
100
AcDbLine
 10
256.985136
 20
287.96755
 11
256.985136
 21
297.96755
  0
LINE
  5
2D5
100
AcDbEntity
  8
M0
100
AcDbLine
 10
255.685087
 20
297.466829
 11
255.685087
 21
288.466829
  0
LINE
  5
2D6
100
AcDbEntity
  8
M0
100
AcDbLine
 10
257.985136
 20
286.967513
 11
257.985136
 21
301.467512
  0
LINE
  5
2D7
100
AcDbEntity
  8
M0
100
AcDbLine
 10
253.845487
 20
297.30591
 11
255.685087
 21
297.466829
  0
LINE
  5
2D8
100
AcDbEntity
  8
M0
100
AcDbLine
 10
255.685087
 20
297.466845
 11
256.985136
 21
297.466845
  0
ARC
  5
2D9
100
AcDbEntity
  8
M0
100
AcDbCircle
 10
253.985136
 20
295.712007
 40
1.599998
100
AcDbArc
 50
95.00717
 51
180.000034
  0
LINE
  5
2DA
100
AcDbEntity
  8
M0
100
AcDbLine
 10
256.985136
 20
297.96755
 11
257.985136
 21
297.967513
  0
LINE
  5
2DB
100
AcDbEntity
  8
M0
  6
DASHED
100
AcDbLine
 10
208.885137
 20
339.267506
 11
208.885137
 21
336.467506
  0
LINE
  5
2DC
100
AcDbEntity
  8
M0
  6
DASHED
100
AcDbLine
 10
208.885137
 20
339.267506
 11
210.485136
 21
339.267506
  0
LINE
  5
2DD
100
AcDbEntity
  8
M0
  6
DASHED
100
AcDbLine
 10
210.485136
 20
336.467506
 11
208.885137
 21
336.467506
  0
LINE
  5
2DE
100
AcDbEntity
  8
M0
  6
DASHED
100
AcDbLine
 10
243.985136
 20
355.6675
 11
234.585136
 21
355.6675
  0
LINE
  5
2DF
100
AcDbEntity
  8
M0
  6
DASHED
100
AcDbLine
 10
243.985137
 20
320.267513
 11
239.185136
 21
320.267513
  0
LINE
  5
2E0
100
AcDbEntity
  8
M0
  6
DASHED
100
AcDbLine
 10
210.485136
 20
318.567506
 11
210.485136
 21
357.367506
  0
ARC
  5
2E1
100
AcDbEntity
  8
M0
  6
DASHED
100
AcDbCircle
 10
214.485136
 20
318.567506
 40
4.0
100
AcDbArc
 50
180.0
 51
270.0
  0
ARC
  5
2E2
100
AcDbEntity
  8
M0
  6
DASHED
100
AcDbCircle
 10
229.585136
 20
319.567506
 40
5.0
100
AcDbArc
 50
270.0
 51
360.0
  0
ARC
  5
2E3
100
AcDbEntity
  8
M0
  6
DASHED
100
AcDbCircle
 10
243.985136
 20
320.767512
 40
0.5
100
AcDbArc
 50
270.0
 51
360.0
  0
ARC
  5
2E4
100
AcDbEntity
  8
M0
  6
DASHED
100
AcDbCircle
 10
214.485136
 20
357.367506
 40
4.0
100
AcDbArc
 50
90.0
 51
180.0
  0
ARC
  5
2E5
100
AcDbEntity
  8
M0
  6
DASHED
100
AcDbCircle
 10
229.585136
 20
356.367506
 40
5.0
100
AcDbArc
 50
0.0
 51
90.0
  0
ARC
  5
2E6
100
AcDbEntity
  8
M0
  6
DASHED
100
AcDbCircle
 10
243.985136
 20
355.1675
 40
0.5
100
AcDbArc
 50
0.0
 51
90.0
  0
LINE
  5
2E7
100
AcDbEntity
  8
M0
  6
DASHED
100
AcDbLine
 10
234.585136
 20
355.6675
 11
234.585136
 21
356.367506
  0
LINE
  5
2E8
100
AcDbEntity
  8
M0
  6
DASHED
100
AcDbLine
 10
229.585136
 20
361.367507
 11
214.485136
 21
361.367507
  0
LINE
  5
2E9
100
AcDbEntity
  8
M0
  6
DASHED
100
AcDbLine
 10
242.385136
 20
355.6675
 11
242.385136
 21
357.667506
  0
LINE
  5
2EA
100
AcDbEntity
  8
M0
  6
DASHED
100
AcDbLine
 10
242.785136
 20
357.667506
 11
243.385138
 21
355.6675
  0
LINE
  5
2EB
100
AcDbEntity
  8
M0
  6
DASHED
100
AcDbLine
 10
242.385136
 20
357.667506
 11
242.785136
 21
357.667506
  0
LINE
  5
2EC
100
AcDbEntity
  8
M0
  6
DASHED
100
AcDbLine
 10
243.985137
 20
320.267513
 11
234.585136
 21
320.267513
  0
LINE
  5
2ED
100
AcDbEntity
  8
M0
  6
DASHED
100
AcDbLine
 10
234.585136
 20
320.267513
 11
234.585136
 21
319.567506
  0
LINE
  5
2EE
100
AcDbEntity
  8
M0
  6
DASHED
100
AcDbLine
 10
229.585136
 20
314.567506
 11
214.485136
 21
314.567506
  0
LINE
  5
2EF
100
AcDbEntity
  8
M0
100
AcDbLine
 10
135.675831
 20
306.967513
 11
135.675831
 21
300.165338
  0
LINE
  5
2F0
100
AcDbEntity
  8
M0
100
AcDbLine
 10
141.875831
 20
306.967513
 11
141.875831
 21
300.165338
  0
LINE
  5
2F1
100
AcDbEntity
  8
M0
100
AcDbLine
 10
143.775831
 20
296.568238
 11
143.775831
 21
287.967513
  0
LINE
  5
2F2
100
AcDbEntity
  8
M0
100
AcDbLine
 10
142.700833
 20
298.09909
 11
143.500831
 21
297.256987
  0
LINE
  5
2F3
100
AcDbEntity
  8
M0
100
AcDbLine
 10
143.611247
 20
307.967513
 11
142.875831
 21
307.967513
  0
LINE
  5
2F4
100
AcDbEntity
  8
M0
100
AcDbLine
 10
133.775831
 20
296.568238
 11
133.775831
 21
287.967513
  0
LINE
  5
2F5
100
AcDbEntity
  8
M0
100
AcDbLine
 10
142.775831
 20
286.967513
 11
134.775831
 21
286.967513
  0
LINE
  5
2F6
100
AcDbEntity
  8
M0
100
AcDbLine
 10
133.940415
 20
307.967513
 11
134.675831
 21
307.967513
  0
LINE
  5
2F7
100
AcDbEntity
  8
M0
100
AcDbLine
 10
142.775831
 20
318.267513
 11
134.775831
 21
318.267513
  0
LINE
  5
2F8
100
AcDbEntity
  8
M0
100
AcDbLine
 10
133.775831
 20
317.267513
 11
133.775831
 21
317.247309
  0
LINE
  5
2F9
100
AcDbEntity
  8
M0
100
AcDbLine
 10
133.775831
 20
315.287717
 11
133.775831
 21
310.247309
  0
LINE
  5
2FA
100
AcDbEntity
  8
M0
100
AcDbLine
 10
143.775831
 20
315.287717
 11
143.775831
 21
310.247309
  0
LINE
  5
2FB
100
AcDbEntity
  8
M0
100
AcDbLine
 10
143.775831
 20
317.267513
 11
143.775831
 21
317.247309
  0
ARC
  5
2FC
100
AcDbEntity
  8
M0
100
AcDbCircle
 10
136.075831
 20
316.267513
 40
2.5
100
AcDbArc
 50
156.926082
 51
203.073918
  0
ARC
  5
2FD
100
AcDbEntity
  8
M0
100
AcDbCircle
 10
134.775831
 20
317.267513
 40
1.0
100
AcDbArc
 50
90.0
 51
180.0
  0
ARC
  5
2FE
100
AcDbEntity
  8
M0
100
AcDbCircle
 10
142.775831
 20
317.267513
 40
1.0
100
AcDbArc
 50
3.254286E-012
 51
90.0
  0
ARC
  5
2FF
100
AcDbEntity
  8
M0
100
AcDbCircle
 10
142.875831
 20
306.967513
 40
1.0
100
AcDbArc
 50
90.0
 51
180.0
  0
ARC
  5
300
100
AcDbEntity
  8
M0
100
AcDbCircle
 10
134.675831
 20
306.967513
 40
1.0
100
AcDbArc
 50
0.0
 51
90.0
  0
ARC
  5
301
100
AcDbEntity
  8
M0
100
AcDbCircle
 10
136.075831
 20
309.267513
 40
2.5
100
AcDbArc
 50
156.926082
 51
211.332251
  0
ARC
  5
302
100
AcDbEntity
  8
M0
100
AcDbCircle
 10
141.475831
 20
309.267513
 40
2.5
100
AcDbArc
 50
328.667749
 51
383.073918
  0
ARC
  5
303
100
AcDbEntity
  8
M0
100
AcDbCircle
 10
141.475831
 20
316.267513
 40
2.5
100
AcDbArc
 50
336.926082
 51
383.073918
  0
ARC
  5
304
100
AcDbEntity
  8
M0
100
AcDbCircle
 10
134.775831
 20
287.967513
 40
1.0
100
AcDbArc
 50
180.0
 51
270.0
  0
ARC
  5
305
100
AcDbEntity
  8
M0
100
AcDbCircle
 10
134.775831
 20
296.568238
 40
1.0
100
AcDbArc
 50
136.468801
 51
180.0
  0
ARC
  5
306
100
AcDbEntity
  8
M0
100
AcDbCircle
 10
142.775831
 20
287.967513
 40
1.0
100
AcDbArc
 50
-90.0
 51
0.0
  0
ARC
  5
307
100
AcDbEntity
  8
M0
100
AcDbCircle
 10
142.775831
 20
296.568238
 40
1.0
100
AcDbArc
 50
0.0
 51
43.531199
  0
ARC
  5
308
100
AcDbEntity
  8
M0
100
AcDbCircle
 10
132.675831
 20
300.165338
 40
3.0
100
AcDbArc
 50
-43.531199
 51
0.0
  0
ARC
  5
309
100
AcDbEntity
  8
M0
100
AcDbCircle
 10
144.875831
 20
300.165338
 40
3.0
100
AcDbArc
 50
180.0
 51
223.531199
  0
LINE
  5
30A
100
AcDbEntity
  8
M0
100
AcDbLine
 10
134.850829
 20
298.09909
 11
134.050832
 21
297.256987
  0
CIRCLE
  5
30B
100
AcDbEntity
  8
M0
100
AcDbCircle
 10
163.975834
 20
323.667513
 40
3.0
  0
LINE
  5
30C
100
AcDbEntity
  8
M0
100
AcDbLine
 10
165.566418
 20
322.076868
 11
162.384777
 21
325.258631
  0
LINE
  5
30D
100
AcDbEntity
  8
M0
100
AcDbLine
 10
165.38966
 20
324.021204
 11
163.622082
 21
322.253626
  0
LINE
  5
30E
100
AcDbEntity
  8
M0
100
AcDbLine
 10
164.329113
 20
325.081873
 11
162.561535
 21
323.314173
  0
LINE
  5
30F
100
AcDbEntity
  8
M0
100
AcDbLine
 10
167.300834
 20
327.492513
 11
160.650834
 21
327.492513
  0
ARC
  5
310
100
AcDbEntity
  8
M0
100
AcDbCircle
 10
167.300834
 20
326.992513
 40
0.5
100
AcDbArc
 50
0.0
 51
90.0
  0
LINE
  5
311
100
AcDbEntity
  8
M0
100
AcDbLine
 10
167.800834
 20
320.342513
 11
167.800834
 21
326.992513
  0
ARC
  5
312
100
AcDbEntity
  8
M0
100
AcDbCircle
 10
167.300834
 20
320.342513
 40
0.5
100
AcDbArc
 50
270.0
 51
360.0
  0
LINE
  5
313
100
AcDbEntity
  8
M0
100
AcDbLine
 10
160.650834
 20
319.842513
 11
167.300834
 21
319.842513
  0
LINE
  5
314
100
AcDbEntity
  8
M0
100
AcDbLine
 10
160.150834
 20
326.992513
 11
160.150834
 21
320.342513
  0
ARC
  5
315
100
AcDbEntity
  8
M0
100
AcDbCircle
 10
160.650834
 20
326.992513
 40
0.5
100
AcDbArc
 50
90.0
 51
180.0
  0
ARC
  5
316
100
AcDbEntity
  8
M0
100
AcDbCircle
 10
160.650834
 20
320.342513
 40
0.5
100
AcDbArc
 50
180.0
 51
270.0
  0
CIRCLE
  5
317
100
AcDbEntity
  8
M0
100
AcDbCircle
 10
163.975834
 20
350.267513
 40
3.0
  0
LINE
  5
318
100
AcDbEntity
  8
M0
100
AcDbLine
 10
165.566418
 20
348.676868
 11
162.384778
 21
351.858631
  0
LINE
  5
319
100
AcDbEntity
  8
M0
100
AcDbLine
 10
165.38966
 20
350.621204
 11
163.622082
 21
348.853626
  0
LINE
  5
31A
100
AcDbEntity
  8
M0
100
AcDbLine
 10
164.329113
 20
351.681873
 11
162.561535
 21
349.914173
  0
LINE
  5
31B
100
AcDbEntity
  8
M0
100
AcDbLine
 10
167.300834
 20
354.092513
 11
160.650834
 21
354.092513
  0
ARC
  5
31C
100
AcDbEntity
  8
M0
100
AcDbCircle
 10
167.300834
 20
353.592513
 40
0.5
100
AcDbArc
 50
0.0
 51
90.0
  0
LINE
  5
31D
100
AcDbEntity
  8
M0
100
AcDbLine
 10
167.800834
 20
346.942513
 11
167.800834
 21
353.592513
  0
ARC
  5
31E
100
AcDbEntity
  8
M0
100
AcDbCircle
 10
167.300834
 20
346.942513
 40
0.5
100
AcDbArc
 50
270.0
 51
360.0
  0
LINE
  5
31F
100
AcDbEntity
  8
M0
100
AcDbLine
 10
160.650834
 20
346.442513
 11
167.300834
 21
346.442513
  0
LINE
  5
320
100
AcDbEntity
  8
M0
100
AcDbLine
 10
160.150834
 20
353.592513
 11
160.150834
 21
346.942513
  0
ARC
  5
321
100
AcDbEntity
  8
M0
100
AcDbCircle
 10
160.650834
 20
353.592513
 40
0.5
100
AcDbArc
 50
90.0
 51
180.0
  0
ARC
  5
322
100
AcDbEntity
  8
M0
100
AcDbCircle
 10
160.650834
 20
346.942513
 40
0.5
100
AcDbArc
 50
180.0
 51
270.0
  0
CIRCLE
  5
323
100
AcDbEntity
  8
M0
  6
DASHED
100
AcDbCircle
 10
113.575835
 20
350.267513
 40
3.0
  0
LINE
  5
324
100
AcDbEntity
  8
M0
  6
DASHED
100
AcDbLine
 10
115.166418
 20
348.676868
 11
111.984778
 21
351.858631
  0
LINE
  5
325
100
AcDbEntity
  8
M0
  6
DASHED
100
AcDbLine
 10
114.989661
 20
350.621204
 11
113.222082
 21
348.853626
  0
LINE
  5
326
100
AcDbEntity
  8
M0
  6
DASHED
100
AcDbLine
 10
113.929114
 20
351.681873
 11
112.161536
 21
349.914173
  0
LINE
  5
327
100
AcDbEntity
  8
M0
  6
DASHED
100
AcDbLine
 10
116.900835
 20
354.092513
 11
110.250835
 21
354.092513
  0
ARC
  5
328
100
AcDbEntity
  8
M0
  6
DASHED
100
AcDbCircle
 10
116.900835
 20
353.592513
 40
0.5
100
AcDbArc
 50
0.0
 51
90.0
  0
LINE
  5
329
100
AcDbEntity
  8
M0
  6
DASHED
100
AcDbLine
 10
117.400835
 20
346.942513
 11
117.400835
 21
353.592513
  0
ARC
  5
32A
100
AcDbEntity
  8
M0
  6
DASHED
100
AcDbCircle
 10
116.900835
 20
346.942513
 40
0.5
100
AcDbArc
 50
270.0
 51
360.0
  0
LINE
  5
32B
100
AcDbEntity
  8
M0
  6
DASHED
100
AcDbLine
 10
110.250835
 20
346.442513
 11
116.900835
 21
346.442513
  0
LINE
  5
32C
100
AcDbEntity
  8
M0
  6
DASHED
100
AcDbLine
 10
109.750835
 20
353.592513
 11
109.750835
 21
346.942513
  0
ARC
  5
32D
100
AcDbEntity
  8
M0
  6
DASHED
100
AcDbCircle
 10
110.250835
 20
353.592513
 40
0.5
100
AcDbArc
 50
90.0
 51
180.0
  0
ARC
  5
32E
100
AcDbEntity
  8
M0
  6
DASHED
100
AcDbCircle
 10
110.250835
 20
346.942513
 40
0.5
100
AcDbArc
 50
180.0
 51
270.0
  0
CIRCLE
  5
32F
100
AcDbEntity
  8
M0
100
AcDbCircle
 10
163.975834
 20
316.067513
 40
3.0
  0
LINE
  5
330
100
AcDbEntity
  8
M0
100
AcDbLine
 10
165.566418
 20
314.476868
 11
162.384777
 21
317.658631
  0
LINE
  5
331
100
AcDbEntity
  8
M0
100
AcDbLine
 10
165.38966
 20
316.421204
 11
163.622082
 21
314.653626
  0
LINE
  5
332
100
AcDbEntity
  8
M0
100
AcDbLine
 10
164.329113
 20
317.481873
 11
162.561535
 21
315.714173
  0
LINE
  5
333
100
AcDbEntity
  8
M0
100
AcDbLine
 10
167.300834
 20
319.892513
 11
160.650834
 21
319.892513
  0
ARC
  5
334
100
AcDbEntity
  8
M0
100
AcDbCircle
 10
167.300834
 20
319.392513
 40
0.5
100
AcDbArc
 50
0.0
 51
90.0
  0
LINE
  5
335
100
AcDbEntity
  8
M0
100
AcDbLine
 10
167.800834
 20
312.742513
 11
167.800834
 21
319.392513
  0
ARC
  5
336
100
AcDbEntity
  8
M0
100
AcDbCircle
 10
167.300834
 20
312.742513
 40
0.5
100
AcDbArc
 50
270.0
 51
360.0
  0
LINE
  5
337
100
AcDbEntity
  8
M0
100
AcDbLine
 10
160.650834
 20
312.242513
 11
167.300834
 21
312.242513
  0
LINE
  5
338
100
AcDbEntity
  8
M0
100
AcDbLine
 10
160.150834
 20
319.392513
 11
160.150834
 21
312.742513
  0
ARC
  5
339
100
AcDbEntity
  8
M0
100
AcDbCircle
 10
160.650834
 20
319.392513
 40
0.5
100
AcDbArc
 50
90.0
 51
180.0
  0
ARC
  5
33A
100
AcDbEntity
  8
M0
100
AcDbCircle
 10
160.650834
 20
312.742513
 40
0.5
100
AcDbArc
 50
180.0
 51
270.0
  0
ARC
  5
33B
100
AcDbEntity
  8
M0
100
AcDbCircle
 10
151.775835
 20
304.467513
 40
2.75
100
AcDbArc
 50
137.622878
 51
245.572882
  0
ARC
  5
33C
100
AcDbEntity
  8
M0
100
AcDbCircle
 10
74.975838
 20
305.967513
 40
2.0
100
AcDbArc
 50
0.0
 51
90.0
  0
ARC
  5
33D
100
AcDbEntity
  8
M0
100
AcDbCircle
 10
80.975838
 20
304.498426
 40
4.0
100
AcDbArc
 50
180.0
 51
211.574191
  0
LINE
  5
33E
100
AcDbEntity
  8
M0
100
AcDbLine
 10
82.283689
 20
294.731009
 11
77.567986
 21
302.404017
  0
LINE
  5
33F
100
AcDbEntity
  8
M0
100
AcDbLine
 10
76.975838
 20
305.967513
 11
76.975838
 21
304.498426
  0
LINE
  5
340
100
AcDbEntity
  8
M0
100
AcDbLine
 10
74.975838
 20
307.967513
 11
74.140422
 21
307.967513
  0
LINE
  5
341
100
AcDbEntity
  8
M0
100
AcDbLine
 10
83.875838
 20
286.967513
 11
91.875838
 21
286.967513
  0
LINE
  5
342
100
AcDbEntity
  8
M0
100
AcDbLine
 10
82.875838
 20
287.967513
 11
82.875838
 21
292.6366
  0
LINE
  5
343
100
AcDbEntity
  8
M0
100
AcDbLine
 10
74.975838
 20
318.267513
 11
82.975838
 21
318.267513
  0
LINE
  5
344
100
AcDbEntity
  8
M0
100
AcDbLine
 10
92.875838
 20
287.967513
 11
92.875838
 21
293.324656
  0
ARC
  5
345
100
AcDbEntity
  8
M0
100
AcDbCircle
 10
81.675838
 20
309.267513
 40
2.5
100
AcDbArc
 50
336.926082
 51
383.073918
  0
ARC
  5
346
100
AcDbEntity
  8
M0
100
AcDbCircle
 10
81.675838
 20
316.267513
 40
2.5
100
AcDbArc
 50
336.926082
 51
383.073918
  0
ARC
  5
347
100
AcDbEntity
  8
M0
100
AcDbCircle
 10
76.275838
 20
309.267513
 40
2.5
100
AcDbArc
 50
156.926082
 51
211.332251
  0
ARC
  5
348
100
AcDbEntity
  8
M0
100
AcDbCircle
 10
76.275838
 20
316.267513
 40
2.5
100
AcDbArc
 50
156.926082
 51
203.073918
  0
LINE
  5
349
100
AcDbEntity
  8
M0
100
AcDbLine
 10
83.975838
 20
310.247309
 11
83.975838
 21
315.287717
  0
LINE
  5
34A
100
AcDbEntity
  8
M0
100
AcDbLine
 10
83.975838
 20
317.247309
 11
83.975838
 21
317.267513
  0
LINE
  5
34B
100
AcDbEntity
  8
M0
100
AcDbLine
 10
73.975838
 20
310.247309
 11
73.975838
 21
315.287717
  0
LINE
  5
34C
100
AcDbEntity
  8
M0
100
AcDbLine
 10
73.975838
 20
317.247309
 11
73.975838
 21
317.267513
  0
LINE
  5
34D
100
AcDbEntity
  8
M0
100
AcDbLine
 10
83.975838
 20
308.287717
 11
83.975838
 21
302.967513
  0
ARC
  5
34E
100
AcDbEntity
  8
M0
100
AcDbCircle
 10
87.975838
 20
302.967513
 40
4.0
100
AcDbArc
 50
180.0
 51
270.0
  0
ARC
  5
34F
100
AcDbEntity
  8
M0
100
AcDbCircle
 10
82.975838
 20
317.267513
 40
1.0
100
AcDbArc
 50
0.0
 51
90.0
  0
ARC
  5
350
100
AcDbEntity
  8
M0
100
AcDbCircle
 10
74.975838
 20
317.267513
 40
1.0
100
AcDbArc
 50
90.0
 51
180.0
  0
ARC
  5
351
100
AcDbEntity
  8
M0
100
AcDbCircle
 10
91.875838
 20
287.967513
 40
1.0
100
AcDbArc
 50
270.0
 51
360.0
  0
ARC
  5
352
100
AcDbEntity
  8
M0
100
AcDbCircle
 10
83.875838
 20
287.967513
 40
1.0
100
AcDbArc
 50
180.0
 51
270.0
  0
ARC
  5
353
100
AcDbEntity
  8
M0
100
AcDbCircle
 10
89.520282
 20
297.967513
 40
1.0
100
AcDbArc
 50
31.890792
 51
90.0
  0
ARC
  5
354
100
AcDbEntity
  8
M0
100
AcDbCircle
 10
88.875838
 20
293.324656
 40
4.0
100
AcDbArc
 50
0.0
 51
31.890792
  0
LINE
  5
355
100
AcDbEntity
  8
M0
100
AcDbLine
 10
87.975838
 20
298.967513
 11
89.520282
 21
298.967513
  0
LINE
  5
356
100
AcDbEntity
  8
M0
100
AcDbLine
 10
92.272064
 20
295.437863
 11
90.369339
 21
298.495815
  0
ARC
  5
357
100
AcDbEntity
  8
M0
100
AcDbCircle
 10
78.875838
 20
292.6366
 40
4.0
100
AcDbArc
 50
0.0
 51
31.574191
  0
LINE
  5
358
100
AcDbEntity
  8
M0
  6
DASHDOT
100
AcDbLine
 10
138.775831
 20
380.467513
 11
138.775831
 21
381.467513
  0
CIRCLE
  5
359
100
AcDbEntity
  8
M0
100
AcDbCircle
 10
138.775831
 20
380.967513
 40
4.499996
  0
LINE
  5
35A
100
AcDbEntity
  8
M0
  6
DASHDOT
100
AcDbLine
 10
138.275831
 20
380.967513
 11
139.275831
 21
380.967513
  0
LINE
  5
35B
100
AcDbEntity
  8
M0
100
AcDbLine
 10
139.242735
 20
382.848647
 11
136.894758
 21
380.500655
  0
LINE
  5
35C
100
AcDbEntity
  8
M0
100
AcDbLine
 10
140.656935
 20
381.434432
 11
138.308958
 21
379.08644
  0
LINE
  5
35D
100
AcDbEntity
  8
M0
100
AcDbLine
 10
136.706877
 20
383.036422
 11
140.969847
 21
378.773482
  0
LINE
  5
35E
100
AcDbEntity
  8
M0
  6
DASHDOT
100
AcDbLine
 10
160.675834
 20
380.467513
 11
160.675834
 21
381.467513
  0
CIRCLE
  5
35F
100
AcDbEntity
  8
M0
100
AcDbCircle
 10
160.675834
 20
380.967513
 40
4.499996
  0
LINE
  5
360
100
AcDbEntity
  8
M0
  6
DASHDOT
100
AcDbLine
 10
160.175834
 20
380.967513
 11
161.175834
 21
380.967513
  0
LINE
  5
361
100
AcDbEntity
  8
M0
100
AcDbLine
 10
161.142738
 20
382.848647
 11
158.794761
 21
380.500655
  0
LINE
  5
362
100
AcDbEntity
  8
M0
100
AcDbLine
 10
162.556938
 20
381.434432
 11
160.208961
 21
379.08644
  0
LINE
  5
363
100
AcDbEntity
  8
M0
100
AcDbLine
 10
158.60688
 20
383.036422
 11
162.86985
 21
378.773482
  0
LINE
  5
364
100
AcDbEntity
  8
M0
  6
DASHDOT
100
AcDbLine
 10
116.875835
 20
380.467513
 11
116.875835
 21
381.467513
  0
CIRCLE
  5
365
100
AcDbEntity
  8
M0
100
AcDbCircle
 10
116.875835
 20
380.967513
 40
4.499996
  0
LINE
  5
366
100
AcDbEntity
  8
M0
  6
DASHDOT
100
AcDbLine
 10
116.375835
 20
380.967513
 11
117.375835
 21
380.967513
  0
LINE
  5
367
100
AcDbEntity
  8
M0
100
AcDbLine
 10
117.342738
 20
382.848647
 11
114.994762
 21
380.500655
  0
LINE
  5
368
100
AcDbEntity
  8
M0
100
AcDbLine
 10
118.756938
 20
381.434432
 11
116.408961
 21
379.08644
  0
LINE
  5
369
100
AcDbEntity
  8
M0
100
AcDbLine
 10
114.80688
 20
383.036422
 11
119.06985
 21
378.773482
  0
ARC
  5
36A
100
AcDbEntity
  8
M0
100
AcDbCircle
 10
125.775835
 20
304.467513
 40
2.75
100
AcDbArc
 50
294.427107
 51
402.37713
  0
CIRCLE
  5
36B
100
AcDbEntity
  8
M0
  6
DASHED
100
AcDbCircle
 10
113.575835
 20
316.067513
 40
3.0
  0
LINE
  5
36C
100
AcDbEntity
  8
M0
  6
DASHED
100
AcDbLine
 10
115.166418
 20
314.476868
 11
111.984778
 21
317.658631
  0
LINE
  5
36D
100
AcDbEntity
  8
M0
  6
DASHED
100
AcDbLine
 10
114.989661
 20
316.421204
 11
113.222082
 21
314.653626
  0
LINE
  5
36E
100
AcDbEntity
  8
M0
  6
DASHED
100
AcDbLine
 10
113.929114
 20
317.481873
 11
112.161536
 21
315.714173
  0
LINE
  5
36F
100
AcDbEntity
  8
M0
  6
DASHED
100
AcDbLine
 10
116.900835
 20
319.892513
 11
110.250835
 21
319.892513
  0
ARC
  5
370
100
AcDbEntity
  8
M0
  6
DASHED
100
AcDbCircle
 10
116.900835
 20
319.392513
 40
0.5
100
AcDbArc
 50
0.0
 51
90.0
  0
LINE
  5
371
100
AcDbEntity
  8
M0
  6
DASHED
100
AcDbLine
 10
117.400835
 20
312.742513
 11
117.400835
 21
319.392513
  0
ARC
  5
372
100
AcDbEntity
  8
M0
  6
DASHED
100
AcDbCircle
 10
116.900835
 20
312.742513
 40
0.5
100
AcDbArc
 50
270.0
 51
360.0
  0
LINE
  5
373
100
AcDbEntity
  8
M0
  6
DASHED
100
AcDbLine
 10
110.250835
 20
312.242513
 11
116.900835
 21
312.242513
  0
LINE
  5
374
100
AcDbEntity
  8
M0
  6
DASHED
100
AcDbLine
 10
109.750835
 20
319.392513
 11
109.750835
 21
312.742513
  0
ARC
  5
375
100
AcDbEntity
  8
M0
  6
DASHED
100
AcDbCircle
 10
110.250835
 20
319.392513
 40
0.5
100
AcDbArc
 50
90.0
 51
180.0
  0
ARC
  5
376
100
AcDbEntity
  8
M0
  6
DASHED
100
AcDbCircle
 10
110.250835
 20
312.742513
 40
0.5
100
AcDbArc
 50
180.0
 51
270.0
  0
LINE
  5
377
100
AcDbEntity
  8
M0
100
AcDbLine
 10
129.466418
 20
373.976868
 11
126.284777
 21
377.158631
  0
LINE
  5
378
100
AcDbEntity
  8
M0
100
AcDbLine
 10
129.28966
 20
375.921204
 11
127.522082
 21
374.153626
  0
LINE
  5
379
100
AcDbEntity
  8
M0
100
AcDbLine
 10
128.229113
 20
376.981873
 11
126.461535
 21
375.214173
  0
LINE
  5
37A
100
AcDbEntity
  8
M0
100
AcDbLine
 10
131.200834
 20
379.392513
 11
124.550834
 21
379.392513
  0
ARC
  5
37B
100
AcDbEntity
  8
M0
100
AcDbCircle
 10
131.200834
 20
378.892513
 40
0.5
100
AcDbArc
 50
0.0
 51
90.0
  0
LINE
  5
37C
100
AcDbEntity
  8
M0
100
AcDbLine
 10
131.700834
 20
372.242513
 11
131.700834
 21
378.892513
  0
ARC
  5
37D
100
AcDbEntity
  8
M0
100
AcDbCircle
 10
131.200834
 20
372.242513
 40
0.5
100
AcDbArc
 50
270.0
 51
360.0
  0
LINE
  5
37E
100
AcDbEntity
  8
M0
100
AcDbLine
 10
127.053699
 20
371.742513
 11
131.200834
 21
371.742513
  0
LINE
  5
37F
100
AcDbEntity
  8
M0
100
AcDbLine
 10
124.050834
 20
378.892513
 11
124.050834
 21
376.628531
  0
ARC
  5
380
100
AcDbEntity
  8
M0
100
AcDbCircle
 10
124.550834
 20
378.892513
 40
0.5
100
AcDbArc
 50
90.0
 51
180.0
  0
ARC
  5
381
100
AcDbEntity
  8
M0
100
AcDbCircle
 10
127.875834
 20
375.567513
 40
3.0
100
AcDbArc
 50
237.275263
 51
545.873119
  0
CIRCLE
  5
382
100
AcDbEntity
  8
M0
  6
DASHED
100
AcDbCircle
 10
113.575835
 20
323.667513
 40
3.0
  0
LINE
  5
383
100
AcDbEntity
  8
M0
  6
DASHED
100
AcDbLine
 10
115.166418
 20
322.076868
 11
111.984778
 21
325.258631
  0
LINE
  5
384
100
AcDbEntity
  8
M0
  6
DASHED
100
AcDbLine
 10
114.989661
 20
324.021204
 11
113.222082
 21
322.253626
  0
LINE
  5
385
100
AcDbEntity
  8
M0
  6
DASHED
100
AcDbLine
 10
113.929114
 20
325.081873
 11
112.161536
 21
323.314173
  0
LINE
  5
386
100
AcDbEntity
  8
M0
  6
DASHED
100
AcDbLine
 10
116.900835
 20
327.492513
 11
110.250835
 21
327.492513
  0
ARC
  5
387
100
AcDbEntity
  8
M0
  6
DASHED
100
AcDbCircle
 10
116.900835
 20
326.992513
 40
0.5
100
AcDbArc
 50
0.0
 51
90.0
  0
LINE
  5
388
100
AcDbEntity
  8
M0
  6
DASHED
100
AcDbLine
 10
117.400835
 20
320.342513
 11
117.400835
 21
326.992513
  0
ARC
  5
389
100
AcDbEntity
  8
M0
  6
DASHED
100
AcDbCircle
 10
116.900835
 20
320.342513
 40
0.5
100
AcDbArc
 50
270.0
 51
360.0
  0
LINE
  5
38A
100
AcDbEntity
  8
M0
  6
DASHED
100
AcDbLine
 10
110.250835
 20
319.842513
 11
116.900835
 21
319.842513
  0
LINE
  5
38B
100
AcDbEntity
  8
M0
  6
DASHED
100
AcDbLine
 10
109.750835
 20
326.992513
 11
109.750835
 21
320.342513
  0
ARC
  5
38C
100
AcDbEntity
  8
M0
  6
DASHED
100
AcDbCircle
 10
110.250835
 20
326.992513
 40
0.5
100
AcDbArc
 50
90.0
 51
180.0
  0
ARC
  5
38D
100
AcDbEntity
  8
M0
  6
DASHED
100
AcDbCircle
 10
110.250835
 20
320.342513
 40
0.5
100
AcDbArc
 50
180.0
 51
270.0
  0
LINE
  5
38E
100
AcDbEntity
  8
M0
  6
DASHDOT
100
AcDbLine
 10
160.675834
 20
292.467513
 11
160.675834
 21
293.467513
  0
CIRCLE
  5
38F
100
AcDbEntity
  8
M0
100
AcDbCircle
 10
160.675834
 20
292.967513
 40
4.499996
  0
LINE
  5
390
100
AcDbEntity
  8
M0
  6
DASHDOT
100
AcDbLine
 10
160.175834
 20
292.967513
 11
161.175834
 21
292.967513
  0
LINE
  5
391
100
AcDbEntity
  8
M0
100
AcDbLine
 10
161.142738
 20
294.848647
 11
158.794761
 21
292.500655
  0
LINE
  5
392
100
AcDbEntity
  8
M0
100
AcDbLine
 10
162.556938
 20
293.434432
 11
160.208961
 21
291.08644
  0
LINE
  5
393
100
AcDbEntity
  8
M0
100
AcDbLine
 10
158.60688
 20
295.036422
 11
162.86985
 21
290.773482
  0
CIRCLE
  5
394
100
AcDbEntity
  8
M0
100
AcDbCircle
 10
125.775835
 20
360.667513
 40
3.5
  0
LINE
  5
395
100
AcDbEntity
  8
M0
100
AcDbLine
 10
126.786706
 20
362.38547
 11
124.211633
 21
359.810397
  0
LINE
  5
396
100
AcDbEntity
  8
M0
100
AcDbLine
 10
127.493814
 20
361.678362
 11
124.91874
 21
359.103289
  0
LINE
  5
397
100
AcDbEntity
  8
M0
100
AcDbLine
 10
124.814981
 20
361.628359
 11
126.659829
 21
359.783526
  0
CIRCLE
  5
398
100
AcDbEntity
  8
M0
100
AcDbCircle
 10
138.775831
 20
360.667513
 40
3.5
  0
LINE
  5
399
100
AcDbEntity
  8
M0
100
AcDbLine
 10
139.786703
 20
362.38547
 11
137.211629
 21
359.810397
  0
LINE
  5
39A
100
AcDbEntity
  8
M0
100
AcDbLine
 10
140.49381
 20
361.678362
 11
137.918737
 21
359.103289
  0
LINE
  5
39B
100
AcDbEntity
  8
M0
100
AcDbLine
 10
137.814977
 20
361.628359
 11
139.659826
 21
359.783526
  0
CIRCLE
  5
39C
100
AcDbEntity
  8
M0
100
AcDbCircle
 10
151.775831
 20
360.667513
 40
3.5
  0
LINE
  5
39D
100
AcDbEntity
  8
M0
100
AcDbLine
 10
152.786703
 20
362.38547
 11
150.21163
 21
359.810397
  0
LINE
  5
39E
100
AcDbEntity
  8
M0
100
AcDbLine
 10
153.493811
 20
361.678362
 11
150.918737
 21
359.103289
  0
LINE
  5
39F
100
AcDbEntity
  8
M0
100
AcDbLine
 10
150.814978
 20
361.628359
 11
152.659826
 21
359.783526
  0
CIRCLE
  5
3A0
100
AcDbEntity
  8
M0
100
AcDbCircle
 10
151.775831
 20
313.267513
 40
3.5
  0
LINE
  5
3A1
100
AcDbEntity
  8
M0
100
AcDbLine
 10
152.786703
 20
314.985469
 11
150.21163
 21
312.410396
  0
LINE
  5
3A2
100
AcDbEntity
  8
M0
100
AcDbLine
 10
153.493811
 20
314.278362
 11
150.918737
 21
311.703289
  0
LINE
  5
3A3
100
AcDbEntity
  8
M0
100
AcDbLine
 10
150.814978
 20
314.228359
 11
152.659826
 21
312.383525
  0
CIRCLE
  5
3A4
100
AcDbEntity
  8
M0
100
AcDbCircle
 10
138.775831
 20
313.267513
 40
3.5
  0
LINE
  5
3A5
100
AcDbEntity
  8
M0
100
AcDbLine
 10
139.786703
 20
314.985469
 11
137.211629
 21
312.410396
  0
LINE
  5
3A6
100
AcDbEntity
  8
M0
100
AcDbLine
 10
140.49381
 20
314.278362
 11
137.918737
 21
311.703289
  0
LINE
  5
3A7
100
AcDbEntity
  8
M0
100
AcDbLine
 10
137.814977
 20
314.228359
 11
139.659826
 21
312.383525
  0
CIRCLE
  5
3A8
100
AcDbEntity
  8
M0
100
AcDbCircle
 10
125.775835
 20
313.267513
 40
3.5
  0
LINE
  5
3A9
100
AcDbEntity
  8
M0
100
AcDbLine
 10
126.786706
 20
314.985469
 11
124.211633
 21
312.410396
  0
LINE
  5
3AA
100
AcDbEntity
  8
M0
100
AcDbLine
 10
127.493814
 20
314.278362
 11
124.91874
 21
311.703289
  0
LINE
  5
3AB
100
AcDbEntity
  8
M0
100
AcDbLine
 10
124.814981
 20
314.228359
 11
126.659829
 21
312.383525
  0
ARC
  5
3AC
100
AcDbEntity
  8
M0
100
AcDbCircle
 10
129.775835
 20
305.967513
 40
2.0
100
AcDbArc
 50
90.0
 51
180.0
  0
ARC
  5
3AD
100
AcDbEntity
  8
M0
100
AcDbCircle
 10
123.775835
 20
304.498426
 40
4.0
100
AcDbArc
 50
-31.574191
 51
0.0
  0
LINE
  5
3AE
100
AcDbEntity
  8
M0
100
AcDbLine
 10
122.467983
 20
294.731009
 11
127.183686
 21
302.404017
  0
LINE
  5
3AF
100
AcDbEntity
  8
M0
100
AcDbLine
 10
127.775835
 20
305.967513
 11
127.775835
 21
304.498426
  0
LINE
  5
3B0
100
AcDbEntity
  8
M0
100
AcDbLine
 10
129.775835
 20
307.967513
 11
130.61125
 21
307.967513
  0
LINE
  5
3B1
100
AcDbEntity
  8
M0
100
AcDbLine
 10
120.875835
 20
286.967513
 11
112.875835
 21
286.967513
  0
LINE
  5
3B2
100
AcDbEntity
  8
M0
100
AcDbLine
 10
121.875835
 20
287.967513
 11
121.875835
 21
292.6366
  0
LINE
  5
3B3
100
AcDbEntity
  8
M0
100
AcDbLine
 10
129.775835
 20
318.267513
 11
121.775835
 21
318.267513
  0
LINE
  5
3B4
100
AcDbEntity
  8
M0
100
AcDbLine
 10
111.875835
 20
287.967513
 11
111.875835
 21
293.324656
  0
ARC
  5
3B5
100
AcDbEntity
  8
M0
100
AcDbCircle
 10
123.075835
 20
309.267513
 40
2.5
100
AcDbArc
 50
156.926082
 51
203.073918
  0
ARC
  5
3B6
100
AcDbEntity
  8
M0
100
AcDbCircle
 10
123.075835
 20
316.267513
 40
2.5
100
AcDbArc
 50
156.926082
 51
203.073918
  0
ARC
  5
3B7
100
AcDbEntity
  8
M0
100
AcDbCircle
 10
128.475835
 20
309.267513
 40
2.5
100
AcDbArc
 50
328.667749
 51
383.073918
  0
ARC
  5
3B8
100
AcDbEntity
  8
M0
100
AcDbCircle
 10
128.475835
 20
316.267513
 40
2.5
100
AcDbArc
 50
336.926082
 51
383.073918
  0
LINE
  5
3B9
100
AcDbEntity
  8
M0
100
AcDbLine
 10
120.775835
 20
310.247309
 11
120.775835
 21
315.287717
  0
LINE
  5
3BA
100
AcDbEntity
  8
M0
100
AcDbLine
 10
120.775835
 20
317.247309
 11
120.775835
 21
317.267513
  0
LINE
  5
3BB
100
AcDbEntity
  8
M0
100
AcDbLine
 10
130.775835
 20
310.247309
 11
130.775835
 21
315.287717
  0
LINE
  5
3BC
100
AcDbEntity
  8
M0
100
AcDbLine
 10
130.775835
 20
317.247309
 11
130.775835
 21
317.267513
  0
LINE
  5
3BD
100
AcDbEntity
  8
M0
100
AcDbLine
 10
120.775835
 20
308.287717
 11
120.775835
 21
302.967513
  0
ARC
  5
3BE
100
AcDbEntity
  8
M0
100
AcDbCircle
 10
116.775835
 20
302.967513
 40
4.0
100
AcDbArc
 50
-90.0
 51
8.14222E-013
  0
ARC
  5
3BF
100
AcDbEntity
  8
M0
100
AcDbCircle
 10
121.775835
 20
317.267513
 40
1.0
100
AcDbArc
 50
90.0
 51
180.0
  0
ARC
  5
3C0
100
AcDbEntity
  8
M0
100
AcDbCircle
 10
129.775835
 20
317.267513
 40
1.0
100
AcDbArc
 50
0.0
 51
90.0
  0
ARC
  5
3C1
100
AcDbEntity
  8
M0
100
AcDbCircle
 10
112.875835
 20
287.967513
 40
1.0
100
AcDbArc
 50
180.0
 51
270.0
  0
ARC
  5
3C2
100
AcDbEntity
  8
M0
100
AcDbCircle
 10
120.875835
 20
287.967513
 40
1.0
100
AcDbArc
 50
-90.0
 51
0.0
  0
ARC
  5
3C3
100
AcDbEntity
  8
M0
100
AcDbCircle
 10
115.23139
 20
297.967513
 40
1.0
100
AcDbArc
 50
90.0
 51
148.109208
  0
ARC
  5
3C4
100
AcDbEntity
  8
M0
100
AcDbCircle
 10
115.875835
 20
293.324656
 40
4.0
100
AcDbArc
 50
148.109208
 51
180.0
  0
LINE
  5
3C5
100
AcDbEntity
  8
M0
100
AcDbLine
 10
116.775835
 20
298.967513
 11
115.23139
 21
298.967513
  0
LINE
  5
3C6
100
AcDbEntity
  8
M0
100
AcDbLine
 10
112.479608
 20
295.437863
 11
114.382334
 21
298.495815
  0
ARC
  5
3C7
100
AcDbEntity
  8
M0
100
AcDbCircle
 10
125.875835
 20
292.6366
 40
4.0
100
AcDbArc
 50
148.425809
 51
180.0
  0
CIRCLE
  5
3C8
100
AcDbEntity
  8
M0
100
AcDbCircle
 10
163.975834
 20
357.867513
 40
3.0
  0
LINE
  5
3C9
100
AcDbEntity
  8
M0
100
AcDbLine
 10
165.566418
 20
356.276868
 11
162.384778
 21
359.458631
  0
LINE
  5
3CA
100
AcDbEntity
  8
M0
100
AcDbLine
 10
165.38966
 20
358.221204
 11
163.622082
 21
356.453626
  0
LINE
  5
3CB
100
AcDbEntity
  8
M0
100
AcDbLine
 10
164.329113
 20
359.281873
 11
162.561535
 21
357.514173
  0
LINE
  5
3CC
100
AcDbEntity
  8
M0
100
AcDbLine
 10
167.300834
 20
361.692513
 11
160.650834
 21
361.692513
  0
ARC
  5
3CD
100
AcDbEntity
  8
M0
100
AcDbCircle
 10
167.300834
 20
361.192513
 40
0.5
100
AcDbArc
 50
0.0
 51
90.0
  0
LINE
  5
3CE
100
AcDbEntity
  8
M0
100
AcDbLine
 10
167.800834
 20
354.542513
 11
167.800834
 21
361.192513
  0
ARC
  5
3CF
100
AcDbEntity
  8
M0
100
AcDbCircle
 10
167.300834
 20
354.542513
 40
0.5
100
AcDbArc
 50
270.0
 51
360.0
  0
LINE
  5
3D0
100
AcDbEntity
  8
M0
100
AcDbLine
 10
160.650834
 20
354.042513
 11
167.300834
 21
354.042513
  0
LINE
  5
3D1
100
AcDbEntity
  8
M0
100
AcDbLine
 10
160.150834
 20
361.192513
 11
160.150834
 21
354.542513
  0
ARC
  5
3D2
100
AcDbEntity
  8
M0
100
AcDbCircle
 10
160.650834
 20
361.192513
 40
0.5
100
AcDbArc
 50
90.0
 51
180.0
  0
ARC
  5
3D3
100
AcDbEntity
  8
M0
100
AcDbCircle
 10
160.650834
 20
354.542513
 40
0.5
100
AcDbArc
 50
180.0
 51
270.0
  0
LINE
  5
3D4
100
AcDbEntity
  8
M0
  6
DASHDOT
100
AcDbLine
 10
87.875838
 20
380.467513
 11
87.875838
 21
381.467513
  0
CIRCLE
  5
3D5
100
AcDbEntity
  8
M0
100
AcDbCircle
 10
87.875838
 20
380.967513
 40
4.499996
  0
LINE
  5
3D6
100
AcDbEntity
  8
M0
  6
DASHDOT
100
AcDbLine
 10
87.375838
 20
380.967513
 11
88.375838
 21
380.967513
  0
LINE
  5
3D7
100
AcDbEntity
  8
M0
100
AcDbLine
 10
88.342741
 20
382.848647
 11
85.994765
 21
380.500655
  0
LINE
  5
3D8
100
AcDbEntity
  8
M0
100
AcDbLine
 10
89.756941
 20
381.434432
 11
87.408965
 21
379.08644
  0
LINE
  5
3D9
100
AcDbEntity
  8
M0
100
AcDbLine
 10
85.806883
 20
383.036422
 11
90.069853
 21
378.773482
  0
LINE
  5
3DA
100
AcDbEntity
  8
M0
  6
DASHDOT
100
AcDbLine
 10
116.875835
 20
292.467513
 11
116.875835
 21
293.467513
  0
CIRCLE
  5
3DB
100
AcDbEntity
  8
M0
100
AcDbCircle
 10
116.875835
 20
292.967513
 40
4.499996
  0
LINE
  5
3DC
100
AcDbEntity
  8
M0
  6
DASHDOT
100
AcDbLine
 10
116.375835
 20
292.967513
 11
117.375835
 21
292.967513
  0
LINE
  5
3DD
100
AcDbEntity
  8
M0
100
AcDbLine
 10
117.342738
 20
294.848647
 11
114.994762
 21
292.500655
  0
LINE
  5
3DE
100
AcDbEntity
  8
M0
100
AcDbLine
 10
118.756938
 20
293.434432
 11
116.408961
 21
291.08644
  0
LINE
  5
3DF
100
AcDbEntity
  8
M0
100
AcDbLine
 10
114.80688
 20
295.036422
 11
119.06985
 21
290.773482
  0
LINE
  5
3E0
100
AcDbEntity
  8
M0
  6
DASHDOT
100
AcDbLine
 10
65.975835
 20
380.467513
 11
65.975835
 21
381.467513
  0
CIRCLE
  5
3E1
100
AcDbEntity
  8
M0
100
AcDbCircle
 10
65.975835
 20
380.967513
 40
4.499996
  0
LINE
  5
3E2
100
AcDbEntity
  8
M0
  6
DASHDOT
100
AcDbLine
 10
65.475835
 20
380.967513
 11
66.475835
 21
380.967513
  0
LINE
  5
3E3
100
AcDbEntity
  8
M0
100
AcDbLine
 10
66.442738
 20
382.848647
 11
64.094762
 21
380.500655
  0
LINE
  5
3E4
100
AcDbEntity
  8
M0
100
AcDbLine
 10
67.856938
 20
381.434432
 11
65.508961
 21
379.08644
  0
LINE
  5
3E5
100
AcDbEntity
  8
M0
100
AcDbLine
 10
63.90688
 20
383.036422
 11
68.16985
 21
378.773482
  0
LINE
  5
3E6
100
AcDbEntity
  8
M0
  6
DASHDOT
100
AcDbLine
 10
138.775831
 20
292.467513
 11
138.775831
 21
293.467513
  0
CIRCLE
  5
3E7
100
AcDbEntity
  8
M0
100
AcDbCircle
 10
138.775831
 20
292.967513
 40
4.499996
  0
LINE
  5
3E8
100
AcDbEntity
  8
M0
  6
DASHDOT
100
AcDbLine
 10
138.275831
 20
292.967513
 11
139.275831
 21
292.967513
  0
LINE
  5
3E9
100
AcDbEntity
  8
M0
100
AcDbLine
 10
139.242735
 20
294.848647
 11
136.894758
 21
292.500655
  0
LINE
  5
3EA
100
AcDbEntity
  8
M0
100
AcDbLine
 10
140.656935
 20
293.434432
 11
138.308958
 21
291.08644
  0
LINE
  5
3EB
100
AcDbEntity
  8
M0
100
AcDbLine
 10
136.706877
 20
295.036422
 11
140.969847
 21
290.773482
  0
ARC
  5
3EC
100
AcDbEntity
  8
M0
100
AcDbCircle
 10
147.775834
 20
305.967513
 40
2.0
100
AcDbArc
 50
1.628444E-012
 51
90.0
  0
ARC
  5
3ED
100
AcDbEntity
  8
M0
100
AcDbCircle
 10
153.775834
 20
304.498426
 40
4.0
100
AcDbArc
 50
180.0
 51
211.574191
  0
LINE
  5
3EE
100
AcDbEntity
  8
M0
100
AcDbLine
 10
155.083686
 20
294.731009
 11
150.367983
 21
302.404017
  0
LINE
  5
3EF
100
AcDbEntity
  8
M0
100
AcDbLine
 10
149.775834
 20
305.967513
 11
149.775834
 21
304.498426
  0
LINE
  5
3F0
100
AcDbEntity
  8
M0
100
AcDbLine
 10
147.775834
 20
307.967513
 11
146.940419
 21
307.967513
  0
LINE
  5
3F1
100
AcDbEntity
  8
M0
100
AcDbLine
 10
156.675834
 20
286.967513
 11
164.675834
 21
286.967513
  0
LINE
  5
3F2
100
AcDbEntity
  8
M0
100
AcDbLine
 10
155.675834
 20
287.967513
 11
155.675834
 21
292.6366
  0
LINE
  5
3F3
100
AcDbEntity
  8
M0
100
AcDbLine
 10
147.775834
 20
318.267513
 11
155.775834
 21
318.267513
  0
LINE
  5
3F4
100
AcDbEntity
  8
M0
100
AcDbLine
 10
165.675834
 20
287.967513
 11
165.675834
 21
293.324656
  0
ARC
  5
3F5
100
AcDbEntity
  8
M0
100
AcDbCircle
 10
154.475834
 20
309.267513
 40
2.5
100
AcDbArc
 50
336.926082
 51
383.073918
  0
ARC
  5
3F6
100
AcDbEntity
  8
M0
100
AcDbCircle
 10
154.475834
 20
316.267513
 40
2.5
100
AcDbArc
 50
336.926082
 51
383.073918
  0
ARC
  5
3F7
100
AcDbEntity
  8
M0
100
AcDbCircle
 10
149.075834
 20
309.267513
 40
2.5
100
AcDbArc
 50
156.926082
 51
211.332251
  0
ARC
  5
3F8
100
AcDbEntity
  8
M0
100
AcDbCircle
 10
149.075834
 20
316.267513
 40
2.5
100
AcDbArc
 50
156.926082
 51
203.073918
  0
LINE
  5
3F9
100
AcDbEntity
  8
M0
100
AcDbLine
 10
156.775834
 20
310.247309
 11
156.775834
 21
315.287717
  0
LINE
  5
3FA
100
AcDbEntity
  8
M0
100
AcDbLine
 10
156.775834
 20
317.247309
 11
156.775834
 21
317.267513
  0
LINE
  5
3FB
100
AcDbEntity
  8
M0
100
AcDbLine
 10
146.775834
 20
310.247309
 11
146.775834
 21
315.287717
  0
LINE
  5
3FC
100
AcDbEntity
  8
M0
100
AcDbLine
 10
146.775834
 20
317.247309
 11
146.775834
 21
317.267513
  0
LINE
  5
3FD
100
AcDbEntity
  8
M0
100
AcDbLine
 10
156.775834
 20
308.287717
 11
156.775834
 21
302.967513
  0
ARC
  5
3FE
100
AcDbEntity
  8
M0
100
AcDbCircle
 10
160.775834
 20
302.967513
 40
4.0
100
AcDbArc
 50
180.0
 51
270.0
  0
ARC
  5
3FF
100
AcDbEntity
  8
M0
100
AcDbCircle
 10
155.775834
 20
317.267513
 40
1.0
100
AcDbArc
 50
0.0
 51
90.0
  0
ARC
  5
400
100
AcDbEntity
  8
M0
100
AcDbCircle
 10
147.775834
 20
317.267513
 40
1.0
100
AcDbArc
 50
90.0
 51
180.0
  0
ARC
  5
401
100
AcDbEntity
  8
M0
100
AcDbCircle
 10
164.675834
 20
287.967513
 40
1.0
100
AcDbArc
 50
270.0
 51
360.0
  0
ARC
  5
402
100
AcDbEntity
  8
M0
100
AcDbCircle
 10
156.675834
 20
287.967513
 40
1.0
100
AcDbArc
 50
180.0
 51
270.0
  0
ARC
  5
403
100
AcDbEntity
  8
M0
100
AcDbCircle
 10
162.320279
 20
297.967513
 40
1.0
100
AcDbArc
 50
31.890792
 51
90.0
  0
ARC
  5
404
100
AcDbEntity
  8
M0
100
AcDbCircle
 10
161.675834
 20
293.324656
 40
4.0
100
AcDbArc
 50
0.0
 51
31.890792
  0
LINE
  5
405
100
AcDbEntity
  8
M0
100
AcDbLine
 10
160.775834
 20
298.967513
 11
162.320279
 21
298.967513
  0
LINE
  5
406
100
AcDbEntity
  8
M0
100
AcDbLine
 10
165.072061
 20
295.437863
 11
163.169335
 21
298.495815
  0
ARC
  5
407
100
AcDbEntity
  8
M0
100
AcDbCircle
 10
151.675834
 20
292.6366
 40
4.0
100
AcDbArc
 50
0.0
 51
31.574191
  0
LINE
  5
408
100
AcDbEntity
  8
M0
  6
DASHDOT
100
AcDbLine
 10
44.075838
 20
292.467513
 11
44.075838
 21
293.467513
  0
CIRCLE
  5
409
100
AcDbEntity
  8
M0
100
AcDbCircle
 10
44.075838
 20
292.967513
 40
4.499996
  0
LINE
  5
40A
100
AcDbEntity
  8
M0
  6
DASHDOT
100
AcDbLine
 10
43.575838
 20
292.967513
 11
44.575838
 21
292.967513
  0
LINE
  5
40B
100
AcDbEntity
  8
M0
100
AcDbLine
 10
44.542742
 20
294.848647
 11
42.194765
 21
292.500655
  0
LINE
  5
40C
100
AcDbEntity
  8
M0
100
AcDbLine
 10
45.956942
 20
293.434432
 11
43.608965
 21
291.08644
  0
LINE
  5
40D
100
AcDbEntity
  8
M0
100
AcDbLine
 10
42.006884
 20
295.036422
 11
46.269854
 21
290.773482
  0
ARC
  5
40E
100
AcDbEntity
  8
M0
100
AcDbCircle
 10
56.975838
 20
367.967513
 40
2.0
100
AcDbArc
 50
180.0
 51
270.0
  0
ARC
  5
40F
100
AcDbEntity
  8
M0
100
AcDbCircle
 10
50.975838
 20
369.4366
 40
4.0
100
AcDbArc
 50
1.628444E-012
 51
31.574191
  0
LINE
  5
410
100
AcDbEntity
  8
M0
100
AcDbLine
 10
49.667987
 20
379.204017
 11
54.38369
 21
371.531009
  0
LINE
  5
411
100
AcDbEntity
  8
M0
100
AcDbLine
 10
54.975838
 20
367.967513
 11
54.975838
 21
369.4366
  0
LINE
  5
412
100
AcDbEntity
  8
M0
100
AcDbLine
 10
56.975838
 20
365.967513
 11
57.811254
 21
365.967513
  0
LINE
  5
413
100
AcDbEntity
  8
M0
100
AcDbLine
 10
48.075838
 20
386.967513
 11
40.075838
 21
386.967513
  0
LINE
  5
414
100
AcDbEntity
  8
M0
100
AcDbLine
 10
49.075838
 20
385.967513
 11
49.075838
 21
381.298426
  0
LINE
  5
415
100
AcDbEntity
  8
M0
100
AcDbLine
 10
56.975838
 20
355.667513
 11
48.975838
 21
355.667513
  0
LINE
  5
416
100
AcDbEntity
  8
M0
100
AcDbLine
 10
39.075838
 20
385.967513
 11
39.075838
 21
380.61037
  0
ARC
  5
417
100
AcDbEntity
  8
M0
100
AcDbCircle
 10
50.275838
 20
364.667513
 40
2.5
100
AcDbArc
 50
156.926082
 51
203.073918
  0
ARC
  5
418
100
AcDbEntity
  8
M0
100
AcDbCircle
 10
50.275838
 20
357.667513
 40
2.5
100
AcDbArc
 50
156.926082
 51
203.073918
  0
ARC
  5
419
100
AcDbEntity
  8
M0
100
AcDbCircle
 10
55.675838
 20
364.667513
 40
2.5
100
AcDbArc
 50
-23.073918
 51
31.332251
  0
ARC
  5
41A
100
AcDbEntity
  8
M0
100
AcDbCircle
 10
55.675838
 20
357.667513
 40
2.5
100
AcDbArc
 50
-23.073918
 51
23.073918
  0
LINE
  5
41B
100
AcDbEntity
  8
M0
100
AcDbLine
 10
47.975838
 20
363.687717
 11
47.975838
 21
358.647309
  0
LINE
  5
41C
100
AcDbEntity
  8
M0
100
AcDbLine
 10
47.975838
 20
356.687717
 11
47.975838
 21
356.667513
  0
LINE
  5
41D
100
AcDbEntity
  8
M0
100
AcDbLine
 10
57.975838
 20
363.687717
 11
57.975838
 21
358.647309
  0
LINE
  5
41E
100
AcDbEntity
  8
M0
100
AcDbLine
 10
57.975838
 20
356.687717
 11
57.975838
 21
356.667513
  0
LINE
  5
41F
100
AcDbEntity
  8
M0
100
AcDbLine
 10
47.975838
 20
365.647309
 11
47.975838
 21
370.967513
  0
ARC
  5
420
100
AcDbEntity
  8
M0
100
AcDbCircle
 10
43.975838
 20
370.967513
 40
4.0
100
AcDbArc
 50
0.0
 51
90.0
  0
ARC
  5
421
100
AcDbEntity
  8
M0
100
AcDbCircle
 10
48.975838
 20
356.667513
 40
1.0
100
AcDbArc
 50
180.0
 51
270.0
  0
ARC
  5
422
100
AcDbEntity
  8
M0
100
AcDbCircle
 10
56.975838
 20
356.667513
 40
1.0
100
AcDbArc
 50
270.0
 51
360.0
  0
ARC
  5
423
100
AcDbEntity
  8
M0
100
AcDbCircle
 10
40.075838
 20
385.967513
 40
1.0
100
AcDbArc
 50
90.0
 51
180.0
  0
ARC
  5
424
100
AcDbEntity
  8
M0
100
AcDbCircle
 10
48.075838
 20
385.967513
 40
1.0
100
AcDbArc
 50
0.0
 51
90.0
  0
ARC
  5
425
100
AcDbEntity
  8
M0
100
AcDbCircle
 10
42.431394
 20
375.967513
 40
1.0
100
AcDbArc
 50
211.890792
 51
270.0
  0
ARC
  5
426
100
AcDbEntity
  8
M0
100
AcDbCircle
 10
43.075838
 20
380.61037
 40
4.0
100
AcDbArc
 50
180.0
 51
211.890792
  0
LINE
  5
427
100
AcDbEntity
  8
M0
100
AcDbLine
 10
43.975838
 20
374.967513
 11
42.431394
 21
374.967513
  0
LINE
  5
428
100
AcDbEntity
  8
M0
100
AcDbLine
 10
39.679612
 20
378.497163
 11
41.582337
 21
375.439211
  0
ARC
  5
429
100
AcDbEntity
  8
M0
100
AcDbCircle
 10
53.075838
 20
381.298426
 40
4.0
100
AcDbArc
 50
180.0
 51
211.574191
  0
LINE
  5
42A
100
AcDbEntity
  8
M0
  6
DASHDOT
100
AcDbLine
 10
65.975838
 20
388.967513
 11
65.975838
 21
284.967513
  0
LINE
  5
42B
100
AcDbEntity
  8
M0
  6
DASHDOT
100
AcDbLine
 10
29.575838
 20
336.967513
 11
102.375835
 21
336.967513
  0
ARC
  5
42C
100
AcDbEntity
  8
M0
100
AcDbCircle
 10
73.625838
 20
372.317513
 40
0.5
100
AcDbArc
 50
268.473851
 51
270.0
  0
ARC
  5
42D
100
AcDbEntity
  8
M0
100
AcDbCircle
 10
38.975838
 20
366.967513
 40
2.25
100
AcDbArc
 50
0.0
 51
180.0
  0
ARC
  5
42E
100
AcDbEntity
  8
M0
100
AcDbCircle
 10
38.975838
 20
364.967513
 40
2.25
100
AcDbArc
 50
180.0
 51
360.0
  0
ARC
  5
42F
100
AcDbEntity
  8
M0
100
AcDbCircle
 10
39.575838
 20
306.467513
 40
5.0
100
AcDbArc
 50
180.0
 51
270.0
  0
ARC
  5
430
100
AcDbEntity
  8
M0
100
AcDbCircle
 10
39.575838
 20
367.467513
 40
5.0
100
AcDbArc
 50
90.0
 51
180.0
  0
LINE
  5
431
100
AcDbEntity
  8
M0
100
AcDbLine
 10
74.875838
 20
324.767513
 11
57.075838
 21
324.767513
  0
LINE
  5
432
100
AcDbEntity
  8
M0
100
AcDbLine
 10
56.575839
 20
325.267513
 11
56.575839
 21
348.667513
  0
LINE
  5
433
100
AcDbEntity
  8
M0
100
AcDbLine
 10
85.675838
 20
354.367513
 11
46.275838
 21
354.367513
  0
LINE
  5
434
100
AcDbEntity
  8
M0
100
AcDbLine
 10
87.475839
 20
339.467513
 11
85.675838
 21
339.467513
  0
LINE
  5
435
100
AcDbEntity
  8
M0
100
AcDbLine
 10
60.67584
 20
349.167512
 11
57.075838
 21
349.167512
  0
ARC
  5
436
100
AcDbEntity
  8
M0
100
AcDbCircle
 10
43.775838
 20
304.967513
 40
0.5
100
AcDbArc
 50
180.0
 51
270.0
  0
ARC
  5
437
100
AcDbEntity
  8
M0
100
AcDbCircle
 10
88.175838
 20
305.967513
 40
0.5
100
AcDbArc
 50
0.0
 51
90.0
  0
ARC
  5
438
100
AcDbEntity
  8
M0
100
AcDbCircle
 10
44.775838
 20
305.967513
 40
0.5
100
AcDbArc
 50
0.0
 51
90.0
  0
ARC
  5
439
100
AcDbEntity
  8
M0
100
AcDbCircle
 10
43.775838
 20
305.967513
 40
0.5
100
AcDbArc
 50
90.0
 51
180.0
  0
CIRCLE
  5
43A
100
AcDbEntity
  8
M0
100
AcDbCircle
 10
38.475838
 20
306.967513
 40
2.25
  0
CIRCLE
  5
43B
100
AcDbEntity
  8
M0
100
AcDbCircle
 10
93.475838
 20
366.967513
 40
2.25
  0
ARC
  5
43C
100
AcDbEntity
  8
M0
100
AcDbCircle
 10
88.175838
 20
304.967513
 40
0.5
100
AcDbArc
 50
270.0
 51
360.0
  0
ARC
  5
43D
100
AcDbEntity
  8
M0
100
AcDbCircle
 10
87.175838
 20
305.967513
 40
0.5
100
AcDbArc
 50
90.0
 51
180.0
  0
ARC
  5
43E
100
AcDbEntity
  8
M0
100
AcDbCircle
 10
85.975838
 20
371.467513
 40
1.0
100
AcDbArc
 50
90.0
 51
98.626927
  0
ARC
  5
43F
100
AcDbEntity
  8
M0
100
AcDbCircle
 10
92.975838
 20
306.967513
 40
2.25
100
AcDbArc
 50
180.0
 51
360.0
  0
ARC
  5
440
100
AcDbEntity
  8
M0
100
AcDbCircle
 10
45.975838
 20
371.467513
 40
1.0
100
AcDbArc
 50
81.373073
 51
90.0
  0
ARC
  5
441
100
AcDbEntity
  8
M0
100
AcDbCircle
 10
92.375838
 20
367.467513
 40
5.0
100
AcDbArc
 50
0.0
 51
90.0
  0
ARC
  5
442
100
AcDbEntity
  8
M0
100
AcDbCircle
 10
44.775838
 20
304.967513
 40
0.5
100
AcDbArc
 50
270.0
 51
360.0
  0
ARC
  5
443
100
AcDbEntity
  8
M0
100
AcDbCircle
 10
92.975838
 20
308.967513
 40
2.25
100
AcDbArc
 50
0.0
 51
180.0
  0
ARC
  5
444
100
AcDbEntity
  8
M0
100
AcDbCircle
 10
92.375838
 20
306.467513
 40
5.0
100
AcDbArc
 50
270.0
 51
360.0
  0
LINE
  5
445
100
AcDbEntity
  8
M0
100
AcDbLine
 10
45.545068
 20
340.467513
 11
45.545068
 21
339.467513
  0
LINE
  5
446
100
AcDbEntity
  8
M0
100
AcDbLine
 10
45.275838
 20
340.467513
 11
44.675839
 21
340.467513
  0
LINE
  5
447
100
AcDbEntity
  8
M0
100
AcDbLine
 10
45.545068
 20
333.467513
 11
45.545068
 21
334.467513
  0
LINE
  5
448
100
AcDbEntity
  8
M0
100
AcDbLine
 10
45.275838
 20
333.467513
 11
44.675839
 21
333.467513
  0
LINE
  5
449
100
AcDbEntity
  8
M0
100
AcDbLine
 10
86.406606
 20
333.467513
 11
86.406606
 21
334.467513
  0
LINE
  5
44A
100
AcDbEntity
  8
M0
100
AcDbLine
 10
86.675836
 20
333.467513
 11
87.275839
 21
333.467513
  0
LINE
  5
44B
100
AcDbEntity
  8
M0
100
AcDbLine
 10
86.406606
 20
340.467513
 11
86.406606
 21
339.467513
  0
LINE
  5
44C
100
AcDbEntity
  8
M0
100
AcDbLine
 10
86.675836
 20
340.467513
 11
87.275839
 21
340.467513
  0
LINE
  5
44D
100
AcDbEntity
  8
M0
100
AcDbLine
 10
81.175836
 20
377.401409
 11
81.175836
 21
380.867514
  0
LINE
  5
44E
100
AcDbEntity
  8
M0
100
AcDbLine
 10
82.093569
 20
381.467513
 11
81.775839
 21
381.467513
  0
LINE
  5
44F
100
AcDbEntity
  8
M0
100
AcDbLine
 10
70.975839
 20
303.967513
 11
70.975839
 21
304.467514
  0
LINE
  5
450
100
AcDbEntity
  8
M0
100
AcDbLine
 10
70.975839
 20
301.467512
 11
69.075835
 21
301.467512
  0
LINE
  5
451
100
AcDbEntity
  8
M0
100
AcDbLine
 10
60.975837
 20
304.467514
 11
60.975837
 21
303.967513
  0
LINE
  5
452
100
AcDbEntity
  8
M0
100
AcDbLine
 10
44.475837
 20
334.467513
 11
44.475837
 21
339.467513
  0
LINE
  5
453
100
AcDbEntity
  8
M0
100
AcDbLine
 10
45.275838
 20
333.467513
 11
46.275838
 21
333.467513
  0
LINE
  5
454
100
AcDbEntity
  8
M0
100
AcDbLine
 10
45.275838
 20
302.467513
 11
45.275838
 21
333.467513
  0
LINE
  5
455
100
AcDbEntity
  8
M0
100
AcDbLine
 10
45.275838
 20
340.467513
 11
46.275838
 21
340.467513
  0
LINE
  5
456
100
AcDbEntity
  8
M0
100
AcDbLine
 10
43.975838
 20
338.467513
 11
44.475837
 21
338.467513
  0
LINE
  5
457
100
AcDbEntity
  8
M0
100
AcDbLine
 10
43.975838
 20
335.467513
 11
43.975838
 21
338.467513
  0
LINE
  5
458
100
AcDbEntity
  8
M0
100
AcDbLine
 10
61.475838
 20
303.467512
 11
62.875835
 21
303.467512
  0
LINE
  5
459
100
AcDbEntity
  8
M0
100
AcDbLine
 10
44.475837
 20
335.467513
 11
43.975838
 21
335.467513
  0
LINE
  5
45A
100
AcDbEntity
  8
M0
100
AcDbLine
 10
87.97584
 20
335.467513
 11
87.97584
 21
338.467513
  0
LINE
  5
45B
100
AcDbEntity
  8
M0
100
AcDbLine
 10
45.475837
 20
339.467513
 11
44.475837
 21
339.467513
  0
LINE
  5
45C
100
AcDbEntity
  8
M0
100
AcDbLine
 10
87.97584
 20
338.467513
 11
87.475839
 21
338.467513
  0
ARC
  5
45D
100
AcDbEntity
  8
M0
100
AcDbCircle
 10
44.475838
 20
333.667513
 40
0.5
100
AcDbArc
 50
293.578178
 51
336.421822
  0
ARC
  5
45E
100
AcDbEntity
  8
M0
100
AcDbCircle
 10
87.475838
 20
333.667513
 40
0.5
100
AcDbArc
 50
203.578178
 51
246.421822
  0
LINE
  5
45F
100
AcDbEntity
  8
M0
100
AcDbLine
 10
43.775838
 20
304.467514
 11
44.775839
 21
304.467514
  0
LINE
  5
460
100
AcDbEntity
  8
M0
100
AcDbLine
 10
44.775839
 20
306.467514
 11
43.775838
 21
306.467514
  0
LINE
  5
461
100
AcDbEntity
  8
M0
100
AcDbLine
 10
88.175839
 20
306.467514
 11
87.175837
 21
306.467514
  0
LINE
  5
462
100
AcDbEntity
  8
M0
100
AcDbLine
 10
43.275837
 20
305.967513
 11
43.275837
 21
304.967511
  0
ARC
  5
463
100
AcDbEntity
  8
M0
100
AcDbCircle
 10
60.075838
 20
380.967513
 40
0.5
100
AcDbArc
 50
0.0
 51
90.0
  0
ARC
  5
464
100
AcDbEntity
  8
M0
100
AcDbCircle
 10
71.875838
 20
380.967513
 40
0.5
100
AcDbArc
 50
90.0
 51
180.0
  0
ARC
  5
465
100
AcDbEntity
  8
M0
100
AcDbCircle
 10
60.075838
 20
380.467513
 40
1.0
100
AcDbArc
 50
90.0
 51
180.0
  0
LINE
  5
466
100
AcDbEntity
  8
M0
100
AcDbLine
 10
63.475838
 20
341.44498
 11
63.475838
 21
341.267513
  0
LINE
  5
467
100
AcDbEntity
  8
M0
100
AcDbLine
 10
68.475837
 20
331.967513
 11
68.475837
 21
332.067513
  0
ARC
  5
468
100
AcDbEntity
  8
M0
100
AcDbCircle
 10
71.875838
 20
380.467513
 40
1.0
100
AcDbArc
 50
0.0
 51
90.0
  0
LINE
  5
469
100
AcDbEntity
  8
M0
100
AcDbLine
 10
68.475837
 20
341.44498
 11
68.475837
 21
341.267513
  0
ARC
  5
46A
100
AcDbEntity
  8
M0
100
AcDbCircle
 10
61.175838
 20
340.767513
 40
0.5
100
AcDbArc
 50
90.0
 51
180.0
  0
ARC
  5
46B
100
AcDbEntity
  8
M0
100
AcDbCircle
 10
63.725838
 20
340.767513
 40
0.5
100
AcDbArc
 50
0.0
 51
90.0
  0
LINE
  5
46C
100
AcDbEntity
  8
M0
100
AcDbLine
 10
88.675837
 20
304.967511
 11
88.675837
 21
305.967513
  0
ARC
  5
46D
100
AcDbEntity
  8
M0
100
AcDbCircle
 10
61.175838
 20
332.567513
 40
0.5
100
AcDbArc
 50
180.0
 51
270.0
  0
ARC
  5
46E
100
AcDbEntity
  8
M0
100
AcDbCircle
 10
70.775838
 20
340.767513
 40
0.5
100
AcDbArc
 50
0.0
 51
90.0
  0
ARC
  5
46F
100
AcDbEntity
  8
M0
100
AcDbCircle
 10
68.225838
 20
340.767513
 40
0.5
100
AcDbArc
 50
90.0
 51
180.0
  0
ARC
  5
470
100
AcDbEntity
  8
M0
100
AcDbCircle
 10
70.775838
 20
332.567513
 40
0.5
100
AcDbArc
 50
270.0
 51
360.0
  0
LINE
  5
471
100
AcDbEntity
  8
M0
100
AcDbLine
 10
73.67584
 20
371.467514
 11
77.528963
 21
371.467514
  0
LINE
  5
472
100
AcDbEntity
  8
M0
100
AcDbLine
 10
77.011228
 20
369.967513
 11
73.67584
 21
369.967513
  0
LINE
  5
473
100
AcDbEntity
  8
M0
100
AcDbLine
 10
59.075839
 20
379.967514
 11
50.775838
 21
379.967514
  0
LINE
  5
474
100
AcDbEntity
  8
M0
100
AcDbLine
 10
81.175836
 20
379.967514
 11
72.875837
 21
379.967514
  0
LINE
  5
475
100
AcDbEntity
  8
M0
100
AcDbLine
 10
72.875837
 20
380.467511
 11
72.875837
 21
372.447308
  0
LINE
  5
476
100
AcDbEntity
  8
M0
100
AcDbLine
 10
87.475839
 20
335.467513
 11
87.97584
 21
335.467513
  0
LINE
  5
477
100
AcDbEntity
  8
M0
100
AcDbLine
 10
71.375838
 20
371.903402
 11
71.375838
 21
380.467511
  0
LINE
  5
478
100
AcDbEntity
  8
M0
100
AcDbLine
 10
58.27584
 20
369.967513
 11
54.940448
 21
369.967513
  0
LINE
  5
479
100
AcDbEntity
  8
M0
100
AcDbLine
 10
54.421907
 20
371.467514
 11
58.27584
 21
371.467514
  0
LINE
  5
47A
100
AcDbEntity
  8
M0
100
AcDbLine
 10
92.37584
 20
301.467512
 11
85.275838
 21
301.467512
  0
LINE
  5
47B
100
AcDbEntity
  8
M0
100
AcDbLine
 10
43.275837
 20
307.467513
 11
45.275838
 21
307.467513
  0
LINE
  5
47C
100
AcDbEntity
  8
M0
100
AcDbLine
 10
43.275837
 20
311.267514
 11
43.275837
 21
307.467513
  0
LINE
  5
47D
100
AcDbEntity
  8
M0
100
AcDbLine
 10
88.675837
 20
307.467513
 11
88.675837
 21
311.267514
  0
LINE
  5
47E
100
AcDbEntity
  8
M0
100
AcDbLine
 10
86.675836
 20
307.467513
 11
88.675837
 21
307.467513
  0
LINE
  5
47F
100
AcDbEntity
  8
M0
100
AcDbLine
 10
90.725842
 20
308.967512
 11
90.725842
 21
306.967512
  0
LINE
  5
480
100
AcDbEntity
  8
M0
100
AcDbLine
 10
95.225836
 20
306.967512
 11
95.225836
 21
308.967512
  0
LINE
  5
481
100
AcDbEntity
  8
M0
100
AcDbLine
 10
34.575838
 20
306.467514
 11
34.575838
 21
367.467513
  0
LINE
  5
482
100
AcDbEntity
  8
M0
100
AcDbLine
 10
41.225838
 20
366.967512
 11
41.225838
 21
364.967514
  0
LINE
  5
483
100
AcDbEntity
  8
M0
100
AcDbLine
 10
36.725838
 20
364.967514
 11
36.725838
 21
366.967512
  0
ARC
  5
484
100
AcDbEntity
  8
M0
100
AcDbCircle
 10
85.675838
 20
353.367513
 40
1.0
100
AcDbArc
 50
0.0
 51
90.0
  0
ARC
  5
485
100
AcDbEntity
  8
M0
100
AcDbCircle
 10
85.675838
 20
320.567513
 40
1.0
100
AcDbArc
 50
270.0
 51
360.0
  0
LINE
  5
486
100
AcDbEntity
  8
M0
100
AcDbLine
 10
85.675838
 20
333.467513
 11
85.675838
 21
334.467513
  0
LINE
  5
487
100
AcDbEntity
  8
M0
100
AcDbLine
 10
87.475839
 20
334.467513
 11
85.675838
 21
334.467513
  0
LINE
  5
488
100
AcDbEntity
  8
M0
100
AcDbLine
 10
67.175838
 20
349.167512
 11
64.775838
 21
349.167512
  0
LINE
  5
489
100
AcDbEntity
  8
M0
100
AcDbLine
 10
64.775838
 20
350.767513
 11
64.775838
 21
349.167512
  0
LINE
  5
48A
100
AcDbEntity
  8
M0
100
AcDbLine
 10
45.475837
 20
339.467513
 11
46.275838
 21
339.467513
  0
LINE
  5
48B
100
AcDbEntity
  8
M0
100
AcDbLine
 10
44.475837
 20
334.467513
 11
46.275838
 21
334.467513
  0
LINE
  5
48C
100
AcDbEntity
  8
M0
100
AcDbLine
 10
85.675838
 20
340.467513
 11
85.675838
 21
339.467513
  0
LINE
  5
48D
100
AcDbEntity
  8
M0
100
AcDbLine
 10
46.275838
 20
340.467513
 11
46.275838
 21
339.467513
  0
LINE
  5
48E
100
AcDbEntity
  8
M0
100
AcDbLine
 10
70.275838
 20
348.167513
 11
61.675838
 21
348.167513
  0
LINE
  5
48F
100
AcDbEntity
  8
M0
100
AcDbLine
 10
67.175838
 20
350.767513
 11
64.775838
 21
350.767513
  0
LINE
  5
490
100
AcDbEntity
  8
M0
100
AcDbLine
 10
67.175838
 20
350.767513
 11
67.175838
 21
349.167512
  0
LINE
  5
491
100
AcDbEntity
  8
M0
100
AcDbLine
 10
71.275836
 20
349.167512
 11
74.875838
 21
349.167512
  0
LINE
  5
492
100
AcDbEntity
  8
M0
100
AcDbLine
 10
75.375839
 20
325.267513
 11
75.375839
 21
348.667513
  0
LINE
  5
493
100
AcDbEntity
  8
M0
100
AcDbLine
 10
87.275839
 20
312.267514
 11
88.175839
 21
312.267514
  0
LINE
  5
494
100
AcDbEntity
  8
M0
100
AcDbLine
 10
94.17584
 20
312.267514
 11
95.075841
 21
312.267514
  0
LINE
  5
495
100
AcDbEntity
  8
M0
100
AcDbLine
 10
43.775838
 20
361.667514
 11
44.675839
 21
361.667514
  0
LINE
  5
496
100
AcDbEntity
  8
M0
100
AcDbLine
 10
88.175839
 20
361.667514
 11
87.275839
 21
361.667514
  0
LINE
  5
497
100
AcDbEntity
  8
M0
100
AcDbLine
 10
96.175837
 20
309.267513
 11
96.075835
 21
309.267513
  0
LINE
  5
498
100
AcDbEntity
  8
M0
100
AcDbLine
 10
95.075841
 20
361.667514
 11
94.17584
 21
361.667514
  0
LINE
  5
499
100
AcDbEntity
  8
M0
100
AcDbLine
 10
96.175837
 20
364.667512
 11
96.075835
 21
364.667512
  0
LINE
  5
49A
100
AcDbEntity
  8
M0
100
AcDbLine
 10
36.875838
 20
361.667514
 11
37.775838
 21
361.667514
  0
LINE
  5
49B
100
AcDbEntity
  8
M0
100
AcDbLine
 10
53.808129
 20
301.467512
 11
56.975838
 21
301.467512
  0
LINE
  5
49C
100
AcDbEntity
  8
M0
100
AcDbLine
 10
35.775838
 20
309.267513
 11
35.875838
 21
309.267513
  0
LINE
  5
49D
100
AcDbEntity
  8
M0
100
AcDbLine
 10
44.675839
 20
312.267514
 11
43.775838
 21
312.267514
  0
LINE
  5
49E
100
AcDbEntity
  8
M0
100
AcDbLine
 10
37.775838
 20
312.267514
 11
36.875838
 21
312.267514
  0
ARC
  5
49F
100
AcDbEntity
  8
M0
100
AcDbCircle
 10
71.275838
 20
348.667513
 40
0.5
100
AcDbArc
 50
90.0
 51
180.0
  0
ARC
  5
4A0
100
AcDbEntity
  8
M0
100
AcDbCircle
 10
74.875838
 20
348.667513
 40
0.5
100
AcDbArc
 50
0.0
 51
90.0
  0
ARC
  5
4A1
100
AcDbEntity
  8
M0
100
AcDbCircle
 10
61.675838
 20
348.667513
 40
0.5
100
AcDbArc
 50
180.0
 51
270.0
  0
ARC
  5
4A2
100
AcDbEntity
  8
M0
100
AcDbCircle
 10
70.275838
 20
348.667513
 40
0.5
100
AcDbArc
 50
270.0
 51
360.0
  0
LINE
  5
4A3
100
AcDbEntity
  8
M0
100
AcDbLine
 10
35.775838
 20
364.667512
 11
35.875838
 21
364.667512
  0
ARC
  5
4A4
100
AcDbEntity
  8
M0
100
AcDbCircle
 10
46.275838
 20
353.367513
 40
1.0
100
AcDbArc
 50
90.0
 51
180.0
  0
ARC
  5
4A5
100
AcDbEntity
  8
M0
100
AcDbCircle
 10
46.275838
 20
320.567513
 40
1.0
100
AcDbArc
 50
180.0
 51
270.0
  0
ARC
  5
4A6
100
AcDbEntity
  8
M0
100
AcDbCircle
 10
70.475838
 20
303.967513
 40
0.5
100
AcDbArc
 50
270.0
 51
360.0
  0
ARC
  5
4A7
100
AcDbEntity
  8
M0
100
AcDbCircle
 10
70.975838
 20
303.467513
 40
2.0
100
AcDbArc
 50
270.0
 51
292.57935
  0
ARC
  5
4A8
100
AcDbEntity
  8
M0
100
AcDbCircle
 10
57.075838
 20
348.667513
 40
0.5
100
AcDbArc
 50
90.0
 51
180.0
  0
ARC
  5
4A9
100
AcDbEntity
  8
M0
100
AcDbCircle
 10
60.675838
 20
348.667513
 40
0.5
100
AcDbArc
 50
0.0
 51
90.0
  0
ARC
  5
4AA
100
AcDbEntity
  8
M0
100
AcDbCircle
 10
74.875838
 20
325.267513
 40
0.5
100
AcDbArc
 50
270.0
 51
360.0
  0
ARC
  5
4AB
100
AcDbEntity
  8
M0
100
AcDbCircle
 10
57.075838
 20
325.267513
 40
0.5
100
AcDbArc
 50
180.0
 51
270.0
  0
ARC
  5
4AC
100
AcDbEntity
  8
M0
100
AcDbCircle
 10
49.858108
 20
380.867513
 40
0.6
100
AcDbArc
 50
90.0
 51
178.281642
  0
ARC
  5
4AD
100
AcDbEntity
  8
M0
100
AcDbCircle
 10
50.175838
 20
380.867513
 40
0.6
100
AcDbArc
 50
0.0
 51
90.0
  0
ARC
  5
4AE
100
AcDbEntity
  8
M0
100
AcDbCircle
 10
87.175838
 20
304.967513
 40
0.5
100
AcDbArc
 50
180.0
 51
270.0
  0
ARC
  5
4AF
100
AcDbEntity
  8
M0
100
AcDbCircle
 10
60.975838
 20
303.467513
 40
2.0
100
AcDbArc
 50
247.42065
 51
270.0
  0
ARC
  5
4B0
100
AcDbEntity
  8
M0
100
AcDbCircle
 10
61.475838
 20
303.967513
 40
0.5
100
AcDbArc
 50
180.0
 51
270.0
  0
ARC
  5
4B1
100
AcDbEntity
  8
M0
100
AcDbCircle
 10
81.775838
 20
380.867513
 40
0.6
100
AcDbArc
 50
90.0
 51
180.0
  0
LINE
  5
4B2
100
AcDbEntity
  8
M0
100
AcDbLine
 10
50.775838
 20
380.867514
 11
50.775838
 21
377.401412
  0
LINE
  5
4B3
100
AcDbEntity
  8
M0
100
AcDbLine
 10
49.858109
 20
381.467513
 11
50.175839
 21
381.467513
  0
ARC
  5
4B4
100
AcDbEntity
  8
M0
100
AcDbCircle
 10
82.093568
 20
380.867513
 40
0.6
100
AcDbArc
 50
1.718358
 51
90.0
  0
LINE
  5
4B5
100
AcDbEntity
  8
M0
100
AcDbLine
 10
87.175837
 20
304.467514
 11
88.175839
 21
304.467514
  0
LINE
  5
4B6
100
AcDbEntity
  8
M0
100
AcDbLine
 10
86.675836
 20
340.467513
 11
85.675838
 21
340.467513
  0
LINE
  5
4B7
100
AcDbEntity
  8
M0
100
AcDbLine
 10
87.475839
 20
334.467513
 11
87.475839
 21
339.467513
  0
LINE
  5
4B8
100
AcDbEntity
  8
M0
100
AcDbLine
 10
85.675838
 20
319.567512
 11
46.275838
 21
319.567512
  0
LINE
  5
4B9
100
AcDbEntity
  8
M0
100
AcDbLine
 10
86.675836
 20
333.467513
 11
85.675838
 21
333.467513
  0
LINE
  5
4BA
100
AcDbEntity
  8
M0
100
AcDbLine
 10
86.675836
 20
302.467513
 11
86.675836
 21
333.467513
  0
LINE
  5
4BB
100
AcDbEntity
  8
M0
100
AcDbLine
 10
46.275838
 20
333.467513
 11
46.275838
 21
334.467513
  0
LINE
  5
4BC
100
AcDbEntity
  8
M0
100
AcDbLine
 10
71.375838
 20
380.467511
 11
71.375838
 21
380.967512
  0
LINE
  5
4BD
100
AcDbEntity
  8
M0
100
AcDbLine
 10
60.575838
 20
379.967514
 11
60.975835
 21
379.967514
  0
LINE
  5
4BE
100
AcDbEntity
  8
M0
100
AcDbLine
 10
71.275836
 20
332.567513
 11
71.275836
 21
340.767513
  0
LINE
  5
4BF
100
AcDbEntity
  8
M0
100
AcDbLine
 10
70.975835
 20
379.967514
 11
71.375838
 21
379.967514
  0
LINE
  5
4C0
100
AcDbEntity
  8
M0
100
AcDbLine
 10
60.575838
 20
380.467511
 11
60.575838
 21
371.903402
  0
LINE
  5
4C1
100
AcDbEntity
  8
M0
100
AcDbLine
 10
59.075839
 20
372.447308
 11
59.075839
 21
380.467511
  0
LINE
  5
4C2
100
AcDbEntity
  8
M0
100
AcDbLine
 10
60.575838
 20
380.967512
 11
60.575838
 21
380.467511
  0
LINE
  5
4C3
100
AcDbEntity
  8
M0
100
AcDbLine
 10
69.775837
 20
341.567513
 11
69.775837
 21
341.267513
  0
LINE
  5
4C4
100
AcDbEntity
  8
M0
100
AcDbLine
 10
71.275836
 20
340.767513
 11
71.275836
 21
341.567513
  0
LINE
  5
4C5
100
AcDbEntity
  8
M0
100
AcDbLine
 10
62.175839
 20
341.567513
 11
62.175839
 21
341.267513
  0
LINE
  5
4C6
100
AcDbEntity
  8
M0
100
AcDbLine
 10
69.775837
 20
332.067513
 11
69.775837
 21
331.967513
  0
LINE
  5
4C7
100
AcDbEntity
  8
M0
100
AcDbLine
 10
60.67584
 20
335.167513
 11
60.175838
 21
335.167513
  0
LINE
  5
4C8
100
AcDbEntity
  8
M0
100
AcDbLine
 10
71.275836
 20
335.167513
 11
71.775837
 21
335.167513
  0
LINE
  5
4C9
100
AcDbEntity
  8
M0
100
AcDbLine
 10
71.275836
 20
331.967513
 11
71.275836
 21
332.567513
  0
LINE
  5
4CA
100
AcDbEntity
  8
M0
100
AcDbLine
 10
60.175838
 20
338.167513
 11
60.67584
 21
338.167513
  0
LINE
  5
4CB
100
AcDbEntity
  8
M0
100
AcDbLine
 10
63.475838
 20
341.44498
 11
63.475838
 21
341.567513
  0
LINE
  5
4CC
100
AcDbEntity
  8
M0
100
AcDbLine
 10
44.675839
 20
333.167513
 11
45.275838
 21
333.167513
  0
LINE
  5
4CD
100
AcDbEntity
  8
M0
100
AcDbLine
 10
63.475838
 20
331.967513
 11
63.475838
 21
332.067513
  0
LINE
  5
4CE
100
AcDbEntity
  8
M0
100
AcDbLine
 10
68.475837
 20
341.44498
 11
68.475837
 21
341.567513
  0
LINE
  5
4CF
100
AcDbEntity
  8
M0
100
AcDbLine
 10
60.67584
 20
331.967513
 11
60.67584
 21
332.567513
  0
LINE
  5
4D0
100
AcDbEntity
  8
M0
100
AcDbLine
 10
62.175839
 20
332.067513
 11
62.175839
 21
331.967513
  0
LINE
  5
4D1
100
AcDbEntity
  8
M0
100
AcDbLine
 10
87.275839
 20
333.167513
 11
86.675836
 21
333.167513
  0
LINE
  5
4D2
100
AcDbEntity
  8
M0
100
AcDbLine
 10
67.72584
 20
340.767513
 11
67.72584
 21
333.567513
  0
LINE
  5
4D3
100
AcDbEntity
  8
M0
100
AcDbLine
 10
64.225836
 20
340.767513
 11
64.225836
 21
333.567513
  0
LINE
  5
4D4
100
AcDbEntity
  8
M0
100
AcDbLine
 10
61.175837
 20
341.267513
 11
63.725839
 21
341.267513
  0
LINE
  5
4D5
100
AcDbEntity
  8
M0
100
AcDbLine
 10
70.775839
 20
332.067513
 11
61.175837
 21
332.067513
  0
LINE
  5
4D6
100
AcDbEntity
  8
M0
100
AcDbLine
 10
70.775839
 20
341.267513
 11
68.225837
 21
341.267513
  0
LINE
  5
4D7
100
AcDbEntity
  8
M0
100
AcDbLine
 10
64.225836
 20
333.567513
 11
67.72584
 21
333.567513
  0
LINE
  5
4D8
100
AcDbEntity
  8
M0
100
AcDbLine
 10
56.575839
 20
341.267513
 11
56.775839
 21
341.267513
  0
LINE
  5
4D9
100
AcDbEntity
  8
M0
100
AcDbLine
 10
56.775839
 20
332.067513
 11
56.575839
 21
332.067513
  0
LINE
  5
4DA
100
AcDbEntity
  8
M0
100
AcDbLine
 10
60.67584
 20
340.767513
 11
60.67584
 21
341.567513
  0
LINE
  5
4DB
100
AcDbEntity
  8
M0
100
AcDbLine
 10
71.775837
 20
338.167513
 11
71.275836
 21
338.167513
  0
LINE
  5
4DC
100
AcDbEntity
  8
M0
100
AcDbLine
 10
61.975839
 20
341.267513
 11
69.975837
 21
341.267513
  0
LINE
  5
4DD
100
AcDbEntity
  8
M0
100
AcDbLine
 10
60.67584
 20
332.567513
 11
60.67584
 21
340.767513
  0
LINE
  5
4DE
100
AcDbEntity
  8
M0
100
AcDbLine
 10
75.375839
 20
341.267513
 11
75.175839
 21
341.267513
  0
LINE
  5
4DF
100
AcDbEntity
  8
M0
100
AcDbLine
 10
75.175839
 20
332.067513
 11
75.375839
 21
332.067513
  0
LINE
  5
4E0
100
AcDbEntity
  8
M0
100
AcDbLine
 10
96.37584
 20
357.067512
 11
96.075835
 21
357.067512
  0
ARC
  5
4E1
100
AcDbEntity
  8
M0
100
AcDbCircle
 10
59.275838
 20
371.467513
 40
1.0
100
AcDbArc
 50
90.0
 51
180.0
  0
LINE
  5
4E2
100
AcDbEntity
  8
M0
100
AcDbLine
 10
96.075835
 20
333.267513
 11
96.37584
 21
333.267513
  0
LINE
  5
4E3
100
AcDbEntity
  8
M0
100
AcDbLine
 10
96.37584
 20
340.667513
 11
96.075835
 21
340.667513
  0
ARC
  5
4E4
100
AcDbEntity
  8
M0
100
AcDbCircle
 10
72.275838
 20
371.467513
 40
1.0
100
AcDbArc
 50
90.0
 51
180.0
  0
ARC
  5
4E5
100
AcDbEntity
  8
M0
100
AcDbCircle
 10
72.275838
 20
302.467513
 40
1.0
100
AcDbArc
 50
180.0
 51
270.0
  0
ARC
  5
4E6
100
AcDbEntity
  8
M0
100
AcDbCircle
 10
59.675838
 20
371.467513
 40
1.0
100
AcDbArc
 50
0.0
 51
90.0
  0
ARC
  5
4E7
100
AcDbEntity
  8
M0
100
AcDbCircle
 10
59.675838
 20
302.467513
 40
1.0
100
AcDbArc
 50
270.0
 51
360.0
  0
LINE
  5
4E8
100
AcDbEntity
  8
M0
100
AcDbLine
 10
75.175839
 20
329.467512
 11
75.175839
 21
343.067513
  0
LINE
  5
4E9
100
AcDbEntity
  8
M0
100
AcDbLine
 10
74.175837
 20
348.967513
 11
72.675838
 21
348.967513
  0
LINE
  5
4EA
100
AcDbEntity
  8
M0
100
AcDbLine
 10
74.175837
 20
324.967513
 11
73.67584
 21
324.967513
  0
LINE
  5
4EB
100
AcDbEntity
  8
M0
100
AcDbLine
 10
96.075835
 20
316.867513
 11
96.37584
 21
316.867513
  0
LINE
  5
4EC
100
AcDbEntity
  8
M0
100
AcDbLine
 10
95.075841
 20
363.667513
 11
95.075841
 21
341.667513
  0
LINE
  5
4ED
100
AcDbEntity
  8
M0
100
AcDbLine
 10
59.675837
 20
301.467512
 11
59.275838
 21
301.467512
  0
LINE
  5
4EE
100
AcDbEntity
  8
M0
100
AcDbLine
 10
59.275838
 20
318.067513
 11
59.675837
 21
318.067513
  0
LINE
  5
4EF
100
AcDbEntity
  8
M0
100
AcDbLine
 10
59.675837
 20
318.067513
 11
60.67584
 21
318.067513
  0
ARC
  5
4F0
100
AcDbEntity
  8
M0
100
AcDbCircle
 10
72.675838
 20
371.467513
 40
1.0
100
AcDbArc
 50
0.0
 51
90.0
  0
ARC
  5
4F1
100
AcDbEntity
  8
M0
100
AcDbCircle
 10
85.275838
 20
371.467513
 40
1.0
100
AcDbArc
 50
90.0
 51
180.0
  0
LINE
  5
4F2
100
AcDbEntity
  8
M0
100
AcDbLine
 10
95.075841
 20
332.267513
 11
95.075841
 21
310.267513
  0
ARC
  5
4F3
100
AcDbEntity
  8
M0
100
AcDbCircle
 10
72.675838
 20
302.467513
 40
1.0
100
AcDbArc
 50
270.0
 51
360.0
  0
ARC
  5
4F4
100
AcDbEntity
  8
M0
100
AcDbCircle
 10
85.675838
 20
302.467513
 40
1.0
100
AcDbArc
 50
270.0
 51
360.0
  0
LINE
  5
4F5
100
AcDbEntity
  8
M0
100
AcDbLine
 10
59.275838
 20
372.467514
 11
59.675837
 21
372.467514
  0
ARC
  5
4F6
100
AcDbEntity
  8
M0
100
AcDbCircle
 10
85.275838
 20
302.467513
 40
1.0
100
AcDbArc
 50
180.0
 51
270.0
  0
ARC
  5
4F7
100
AcDbEntity
  8
M0
100
AcDbCircle
 10
85.675838
 20
371.467513
 40
1.0
100
AcDbArc
 50
0.0
 51
90.0
  0
LINE
  5
4F8
100
AcDbEntity
  8
M0
100
AcDbLine
 10
96.37584
 20
340.667513
 11
96.37584
 21
333.267513
  0
LINE
  5
4F9
100
AcDbEntity
  8
M0
100
AcDbLine
 10
88.675837
 20
332.967513
 11
88.675837
 21
340.967513
  0
LINE
  5
4FA
100
AcDbEntity
  8
M0
100
AcDbLine
 10
86.675836
 20
332.967513
 11
88.675837
 21
332.967513
  0
LINE
  5
4FB
100
AcDbEntity
  8
M0
100
AcDbLine
 10
35.575838
 20
333.267513
 11
35.875838
 21
333.267513
  0
LINE
  5
4FC
100
AcDbEntity
  8
M0
100
AcDbLine
 10
35.575838
 20
357.067512
 11
35.875838
 21
357.067512
  0
LINE
  5
4FD
100
AcDbEntity
  8
M0
100
AcDbLine
 10
95.075841
 20
340.667513
 11
95.075841
 21
333.267513
  0
LINE
  5
4FE
100
AcDbEntity
  8
M0
100
AcDbLine
 10
95.075841
 20
333.267513
 11
92.075835
 21
333.267513
  0
LINE
  5
4FF
100
AcDbEntity
  8
M0
100
AcDbLine
 10
35.575838
 20
340.667513
 11
35.575838
 21
333.267513
  0
LINE
  5
500
100
AcDbEntity
  8
M0
100
AcDbLine
 10
92.075835
 20
340.667513
 11
95.075841
 21
340.667513
  0
LINE
  5
501
100
AcDbEntity
  8
M0
100
AcDbLine
 10
85.77584
 20
340.467513
 11
85.77584
 21
339.467513
  0
LINE
  5
502
100
AcDbEntity
  8
M0
100
AcDbLine
 10
86.675836
 20
340.967513
 11
88.675837
 21
340.967513
  0
LINE
  5
503
100
AcDbEntity
  8
M0
100
AcDbLine
 10
92.075835
 20
333.267513
 11
92.075835
 21
340.667513
  0
LINE
  5
504
100
AcDbEntity
  8
M0
100
AcDbLine
 10
57.775839
 20
348.967513
 11
59.275838
 21
348.967513
  0
LINE
  5
505
100
AcDbEntity
  8
M0
100
AcDbLine
 10
56.775839
 20
329.467512
 11
56.775839
 21
343.067513
  0
LINE
  5
506
100
AcDbEntity
  8
M0
100
AcDbLine
 10
57.775839
 20
324.967513
 11
58.27584
 21
324.967513
  0
LINE
  5
507
100
AcDbEntity
  8
M0
100
AcDbLine
 10
60.925836
 20
347.967513
 11
71.02584
 21
347.967513
  0
LINE
  5
508
100
AcDbEntity
  8
M0
100
AcDbLine
 10
71.525837
 20
341.567513
 11
60.425839
 21
341.567513
  0
LINE
  5
509
100
AcDbEntity
  8
M0
100
AcDbLine
 10
60.925836
 20
343.067513
 11
71.02584
 21
343.067513
  0
LINE
  5
50A
100
AcDbEntity
  8
M0
100
AcDbLine
 10
71.02584
 20
346.467513
 11
60.925836
 21
346.467513
  0
LINE
  5
50B
100
AcDbEntity
  8
M0
100
AcDbLine
 10
35.875838
 20
340.667513
 11
35.575838
 21
340.667513
  0
LINE
  5
50C
100
AcDbEntity
  8
M0
100
AcDbLine
 10
85.77584
 20
334.467513
 11
85.77584
 21
333.467513
  0
LINE
  5
50D
100
AcDbEntity
  8
M0
100
AcDbLine
 10
35.875838
 20
316.867513
 11
35.575838
 21
316.867513
  0
LINE
  5
50E
100
AcDbEntity
  8
M0
100
AcDbLine
 10
36.875838
 20
363.667513
 11
36.875838
 21
341.667513
  0
LINE
  5
50F
100
AcDbEntity
  8
M0
100
AcDbLine
 10
87.275839
 20
333.967513
 11
87.275839
 21
332.967513
  0
LINE
  5
510
100
AcDbEntity
  8
M0
100
AcDbLine
 10
87.275839
 20
340.967513
 11
87.275839
 21
339.967513
  0
LINE
  5
511
100
AcDbEntity
  8
M0
100
AcDbLine
 10
36.875838
 20
346.267513
 11
45.275838
 21
346.267513
  0
LINE
  5
512
100
AcDbEntity
  8
M0
100
AcDbLine
 10
87.275839
 20
333.967513
 11
87.575837
 21
333.967513
  0
LINE
  5
513
100
AcDbEntity
  8
M0
100
AcDbLine
 10
87.575837
 20
339.967513
 11
87.575837
 21
338.467513
  0
LINE
  5
514
100
AcDbEntity
  8
M0
100
AcDbLine
 10
86.675836
 20
327.667513
 11
95.075841
 21
327.667513
  0
LINE
  5
515
100
AcDbEntity
  8
M0
100
AcDbLine
 10
87.575837
 20
339.967513
 11
87.275839
 21
339.967513
  0
LINE
  5
516
100
AcDbEntity
  8
M0
100
AcDbLine
 10
87.575837
 20
335.467513
 11
87.575837
 21
333.967513
  0
LINE
  5
517
100
AcDbEntity
  8
M0
100
AcDbLine
 10
44.375837
 20
335.467513
 11
44.375837
 21
333.967513
  0
LINE
  5
518
100
AcDbEntity
  8
M0
100
AcDbLine
 10
44.375837
 20
339.967513
 11
44.375837
 21
338.467513
  0
LINE
  5
519
100
AcDbEntity
  8
M0
100
AcDbLine
 10
44.675839
 20
333.967513
 11
44.375837
 21
333.967513
  0
LINE
  5
51A
100
AcDbEntity
  8
M0
100
AcDbLine
 10
44.675839
 20
333.967513
 11
44.675839
 21
332.967513
  0
LINE
  5
51B
100
AcDbEntity
  8
M0
100
AcDbLine
 10
45.275838
 20
327.667513
 11
36.875838
 21
327.667513
  0
LINE
  5
51C
100
AcDbEntity
  8
M0
100
AcDbLine
 10
44.375837
 20
339.967513
 11
44.675839
 21
339.967513
  0
ARC
  5
51D
100
AcDbEntity
  8
M0
100
AcDbCircle
 10
46.675838
 20
371.467513
 40
1.0
100
AcDbArc
 50
0.0
 51
90.0
  0
ARC
  5
51E
100
AcDbEntity
  8
M0
100
AcDbCircle
 10
59.275838
 20
302.467513
 40
1.0
100
AcDbArc
 50
180.0
 51
270.0
  0
ARC
  5
51F
100
AcDbEntity
  8
M0
100
AcDbCircle
 10
46.275838
 20
371.467513
 40
1.0
100
AcDbArc
 50
90.0
 51
180.0
  0
ARC
  5
520
100
AcDbEntity
  8
M0
100
AcDbCircle
 10
46.675838
 20
302.467513
 40
1.0
100
AcDbArc
 50
270.0
 51
360.0
  0
LINE
  5
521
100
AcDbEntity
  8
M0
100
AcDbLine
 10
46.675837
 20
301.467512
 11
46.475838
 21
301.467512
  0
LINE
  5
522
100
AcDbEntity
  8
M0
100
AcDbLine
 10
46.475838
 20
372.467514
 11
46.675837
 21
372.467514
  0
LINE
  5
523
100
AcDbEntity
  8
M0
100
AcDbLine
 10
75.375839
 20
342.267513
 11
75.175839
 21
342.267513
  0
ARC
  5
524
100
AcDbEntity
  8
M0
100
AcDbCircle
 10
45.275838
 20
317.467513
 40
0.6
100
AcDbArc
 50
180.0
 51
270.0
  0
LINE
  5
525
100
AcDbEntity
  8
M0
100
AcDbLine
 10
44.675839
 20
340.967513
 11
44.675839
 21
339.967513
  0
LINE
  5
526
100
AcDbEntity
  8
M0
100
AcDbLine
 10
95.075841
 20
346.267513
 11
86.675836
 21
346.267513
  0
ARC
  5
527
100
AcDbEntity
  8
M0
100
AcDbCircle
 10
86.675838
 20
317.467513
 40
0.6
100
AcDbArc
 50
270.0
 51
360.0
  0
ARC
  5
528
100
AcDbEntity
  8
M0
100
AcDbCircle
 10
46.275838
 20
302.467513
 40
1.0
100
AcDbArc
 50
180.0
 51
270.0
  0
ARC
  5
529
100
AcDbEntity
  8
M0
100
AcDbCircle
 10
45.275838
 20
356.467513
 40
0.6
100
AcDbArc
 50
90.0
 51
180.0
  0
ARC
  5
52A
100
AcDbEntity
  8
M0
100
AcDbCircle
 10
86.675838
 20
356.467513
 40
0.6
100
AcDbArc
 50
0.0
 51
90.0
  0
LINE
  5
52B
100
AcDbEntity
  8
M0
100
AcDbLine
 10
73.67584
 20
355.867513
 11
71.275836
 21
355.867513
  0
LINE
  5
52C
100
AcDbEntity
  8
M0
100
AcDbLine
 10
73.67584
 20
318.067513
 11
72.675838
 21
318.067513
  0
LINE
  5
52D
100
AcDbEntity
  8
M0
100
AcDbLine
 10
72.275838
 20
301.467512
 11
72.675838
 21
301.467512
  0
LINE
  5
52E
100
AcDbEntity
  8
M0
100
AcDbLine
 10
72.275838
 20
318.067513
 11
71.275836
 21
318.067513
  0
LINE
  5
52F
100
AcDbEntity
  8
M0
100
AcDbLine
 10
72.675838
 20
318.067513
 11
72.275838
 21
318.067513
  0
LINE
  5
530
100
AcDbEntity
  8
M0
100
AcDbLine
 10
92.375838
 20
372.467514
 11
85.275839
 21
372.467514
  0
LINE
  5
531
100
AcDbEntity
  8
M0
100
AcDbLine
 10
86.675836
 20
340.467513
 11
86.675836
 21
371.467514
  0
LINE
  5
532
100
AcDbEntity
  8
M0
100
AcDbLine
 10
72.675838
 20
372.467514
 11
72.275838
 21
372.467514
  0
LINE
  5
533
100
AcDbEntity
  8
M0
100
AcDbLine
 10
84.275837
 20
319.567512
 11
84.275837
 21
302.467514
  0
ARC
  5
534
100
AcDbEntity
  8
M0
100
AcDbCircle
 10
59.925838
 20
325.467513
 40
0.5
100
AcDbArc
 50
270.0
 51
360.0
  0
ARC
  5
535
100
AcDbEntity
  8
M0
100
AcDbCircle
 10
72.025838
 20
325.467513
 40
0.5
100
AcDbArc
 50
180.0
 51
270.0
  0
ARC
  5
536
100
AcDbEntity
  8
M0
100
AcDbCircle
 10
59.925838
 20
347.967513
 40
1.0
100
AcDbArc
 50
0.0
 51
90.0
  0
ARC
  5
537
100
AcDbEntity
  8
M0
100
AcDbCircle
 10
60.425838
 20
342.067513
 40
0.5
100
AcDbArc
 50
270.0
 51
360.0
  0
ARC
  5
538
100
AcDbEntity
  8
M0
100
AcDbCircle
 10
74.175838
 20
325.967513
 40
1.0
100
AcDbArc
 50
270.0
 51
360.0
  0
ARC
  5
539
100
AcDbEntity
  8
M0
100
AcDbCircle
 10
74.175838
 20
329.467513
 40
1.0
100
AcDbArc
 50
0.0
 51
90.0
  0
ARC
  5
53A
100
AcDbEntity
  8
M0
100
AcDbCircle
 10
72.025838
 20
347.967513
 40
1.0
100
AcDbArc
 50
90.0
 51
180.0
  0
ARC
  5
53B
100
AcDbEntity
  8
M0
100
AcDbCircle
 10
71.525838
 20
342.067513
 40
0.5
100
AcDbArc
 50
180.0
 51
270.0
  0
ARC
  5
53C
100
AcDbEntity
  8
M0
100
AcDbCircle
 10
96.375838
 20
341.667513
 40
1.0
100
AcDbArc
 50
270.0
 51
360.0
  0
ARC
  5
53D
100
AcDbEntity
  8
M0
100
AcDbCircle
 10
96.375838
 20
356.067513
 40
1.0
100
AcDbArc
 50
0.0
 51
90.0
  0
ARC
  5
53E
100
AcDbEntity
  8
M0
100
AcDbCircle
 10
57.775838
 20
347.967513
 40
1.0
100
AcDbArc
 50
90.0
 51
180.0
  0
ARC
  5
53F
100
AcDbEntity
  8
M0
100
AcDbCircle
 10
57.775838
 20
325.967513
 40
1.0
100
AcDbArc
 50
180.0
 51
270.0
  0
ARC
  5
540
100
AcDbEntity
  8
M0
100
AcDbCircle
 10
96.375838
 20
317.867513
 40
1.0
100
AcDbArc
 50
270.0
 51
360.0
  0
LINE
  5
541
100
AcDbEntity
  8
M0
100
AcDbLine
 10
71.525837
 20
330.467513
 11
60.425839
 21
330.467513
  0
LINE
  5
542
100
AcDbEntity
  8
M0
100
AcDbLine
 10
60.425839
 20
326.467513
 11
71.525837
 21
326.467513
  0
LINE
  5
543
100
AcDbEntity
  8
M0
100
AcDbLine
 10
60.425839
 20
331.967513
 11
71.525837
 21
331.967513
  0
LINE
  5
544
100
AcDbEntity
  8
M0
100
AcDbLine
 10
56.775839
 20
343.067513
 11
56.775839
 21
347.967513
  0
LINE
  5
545
100
AcDbEntity
  8
M0
100
AcDbLine
 10
58.27584
 20
341.567513
 11
56.775839
 21
343.067513
  0
LINE
  5
546
100
AcDbEntity
  8
M0
100
AcDbLine
 10
56.775839
 20
325.967513
 11
56.775839
 21
329.467512
  0
ARC
  5
547
100
AcDbEntity
  8
M0
100
AcDbCircle
 10
48.875838
 20
320.267513
 40
1.0
100
AcDbArc
 50
270.0
 51
315.572996
  0
ARC
  5
548
100
AcDbEntity
  8
M0
100
AcDbCircle
 10
57.075838
 20
320.267513
 40
1.0
100
AcDbArc
 50
224.427004
 51
270.0
  0
ARC
  5
549
100
AcDbEntity
  8
M0
100
AcDbCircle
 10
57.775838
 20
329.467513
 40
1.0
100
AcDbArc
 50
90.0
 51
180.0
  0
ARC
  5
54A
100
AcDbEntity
  8
M0
100
AcDbCircle
 10
74.175838
 20
347.967513
 40
1.0
100
AcDbArc
 50
0.0
 51
90.0
  0
LINE
  5
54B
100
AcDbEntity
  8
M0
100
AcDbLine
 10
97.375835
 20
367.467513
 11
97.375835
 21
306.467513
  0
ARC
  5
54C
100
AcDbEntity
  8
M0
100
AcDbCircle
 10
83.075838
 20
353.667513
 40
1.0
100
AcDbArc
 50
90.0
 51
135.572996
  0
LINE
  5
54D
100
AcDbEntity
  8
M0
100
AcDbLine
 10
70.075838
 20
354.667512
 11
71.275836
 21
354.667512
  0
LINE
  5
54E
100
AcDbEntity
  8
M0
100
AcDbLine
 10
83.075839
 20
319.267513
 11
84.275837
 21
319.267513
  0
LINE
  5
54F
100
AcDbEntity
  8
M0
100
AcDbLine
 10
74.875838
 20
319.267513
 11
73.67584
 21
319.267513
  0
LINE
  5
550
100
AcDbEntity
  8
M0
100
AcDbLine
 10
95.075841
 20
354.067513
 11
87.275839
 21
354.067513
  0
LINE
  5
551
100
AcDbEntity
  8
M0
100
AcDbLine
 10
61.875837
 20
354.667512
 11
60.67584
 21
354.667512
  0
LINE
  5
552
100
AcDbEntity
  8
M0
100
AcDbLine
 10
73.67584
 20
307.967514
 11
74.140422
 21
307.967514
  0
LINE
  5
553
100
AcDbEntity
  8
M0
100
AcDbLine
 10
71.275836
 20
365.967514
 11
70.81125
 21
365.967514
  0
ARC
  5
554
100
AcDbEntity
  8
M0
100
AcDbCircle
 10
35.875838
 20
356.067513
 40
1.0
100
AcDbArc
 50
0.0
 51
90.0
  0
ARC
  5
555
100
AcDbEntity
  8
M0
100
AcDbCircle
 10
35.875838
 20
332.267513
 40
1.0
100
AcDbArc
 50
0.0
 51
90.0
  0
ARC
  5
556
100
AcDbEntity
  8
M0
100
AcDbCircle
 10
35.575838
 20
341.667513
 40
1.0
100
AcDbArc
 50
180.0
 51
270.0
  0
ARC
  5
557
100
AcDbEntity
  8
M0
100
AcDbCircle
 10
35.575838
 20
356.067513
 40
1.0
100
AcDbArc
 50
90.0
 51
180.0
  0
ARC
  5
558
100
AcDbEntity
  8
M0
100
AcDbCircle
 10
96.075838
 20
317.867513
 40
1.0
100
AcDbArc
 50
180.0
 51
270.0
  0
ARC
  5
559
100
AcDbEntity
  8
M0
100
AcDbCircle
 10
96.075838
 20
341.667513
 40
1.0
100
AcDbArc
 50
180.0
 51
270.0
  0
ARC
  5
55A
100
AcDbEntity
  8
M0
100
AcDbCircle
 10
35.875838
 20
317.867513
 40
1.0
100
AcDbArc
 50
270.0
 51
360.0
  0
ARC
  5
55B
100
AcDbEntity
  8
M0
100
AcDbCircle
 10
35.875838
 20
341.667513
 40
1.0
100
AcDbArc
 50
270.0
 51
360.0
  0
ARC
  5
55C
100
AcDbEntity
  8
M0
100
AcDbCircle
 10
35.575838
 20
332.267513
 40
1.0
100
AcDbArc
 50
90.0
 51
180.0
  0
ARC
  5
55D
100
AcDbEntity
  8
M0
100
AcDbCircle
 10
35.575838
 20
317.867513
 40
1.0
100
AcDbArc
 50
180.0
 51
270.0
  0
LINE
  5
55E
100
AcDbEntity
  8
M0
100
AcDbLine
 10
83.075839
 20
354.667512
 11
84.275837
 21
354.667512
  0
LINE
  5
55F
100
AcDbEntity
  8
M0
100
AcDbLine
 10
36.875838
 20
340.667513
 11
36.875838
 21
333.267513
  0
LINE
  5
560
100
AcDbEntity
  8
M0
100
AcDbLine
 10
46.175838
 20
334.467513
 11
46.175838
 21
333.467513
  0
LINE
  5
561
100
AcDbEntity
  8
M0
100
AcDbLine
 10
39.875839
 20
333.267513
 11
39.875839
 21
340.667513
  0
LINE
  5
562
100
AcDbEntity
  8
M0
100
AcDbLine
 10
36.875838
 20
333.267513
 11
39.875839
 21
333.267513
  0
LINE
  5
563
100
AcDbEntity
  8
M0
100
AcDbLine
 10
43.275837
 20
332.967513
 11
43.275837
 21
340.967513
  0
LINE
  5
564
100
AcDbEntity
  8
M0
100
AcDbLine
 10
45.275838
 20
340.967513
 11
43.275837
 21
340.967513
  0
LINE
  5
565
100
AcDbEntity
  8
M0
100
AcDbLine
 10
46.175838
 20
340.467513
 11
46.175838
 21
339.467513
  0
LINE
  5
566
100
AcDbEntity
  8
M0
100
AcDbLine
 10
45.275838
 20
332.967513
 11
43.275837
 21
332.967513
  0
ARC
  5
567
100
AcDbEntity
  8
M0
100
AcDbCircle
 10
96.075838
 20
356.067513
 40
1.0
100
AcDbArc
 50
90.0
 51
180.0
  0
ARC
  5
568
100
AcDbEntity
  8
M0
100
AcDbCircle
 10
96.375838
 20
332.267513
 40
1.0
100
AcDbArc
 50
0.0
 51
90.0
  0
LINE
  5
569
100
AcDbEntity
  8
M0
100
AcDbLine
 10
84.275837
 20
365.967514
 11
83.975838
 21
365.967514
  0
ARC
  5
56A
100
AcDbEntity
  8
M0
100
AcDbCircle
 10
96.075838
 20
332.267513
 40
1.0
100
AcDbArc
 50
90.0
 51
180.0
  0
LINE
  5
56B
100
AcDbEntity
  8
M0
100
AcDbLine
 10
56.575839
 20
342.267513
 11
56.775839
 21
342.267513
  0
LINE
  5
56C
100
AcDbEntity
  8
M0
100
AcDbLine
 10
39.875839
 20
340.667513
 11
36.875838
 21
340.667513
  0
LINE
  5
56D
100
AcDbEntity
  8
M0
100
AcDbLine
 10
75.375839
 20
331.667512
 11
75.175839
 21
331.667512
  0
LINE
  5
56E
100
AcDbEntity
  8
M0
100
AcDbLine
 10
56.575839
 20
331.667512
 11
56.775839
 21
331.667512
  0
LINE
  5
56F
100
AcDbEntity
  8
M0
100
AcDbLine
 10
60.925836
 20
347.967513
 11
60.925836
 21
342.067513
  0
LINE
  5
570
100
AcDbEntity
  8
M0
100
AcDbLine
 10
71.02584
 20
347.967513
 11
71.02584
 21
342.067513
  0
LINE
  5
571
100
AcDbEntity
  8
M0
100
AcDbLine
 10
60.425839
 20
333.717513
 11
60.425839
 21
325.467513
  0
LINE
  5
572
100
AcDbEntity
  8
M0
100
AcDbLine
 10
60.175838
 20
334.217513
 11
60.425839
 21
333.717513
  0
LINE
  5
573
100
AcDbEntity
  8
M0
100
AcDbLine
 10
71.775837
 20
334.217513
 11
71.525837
 21
333.717513
  0
LINE
  5
574
100
AcDbEntity
  8
M0
100
AcDbLine
 10
71.775837
 20
339.717513
 11
71.775837
 21
334.217513
  0
LINE
  5
575
100
AcDbEntity
  8
M0
100
AcDbLine
 10
71.525837
 20
341.567513
 11
71.525837
 21
340.217513
  0
LINE
  5
576
100
AcDbEntity
  8
M0
100
AcDbLine
 10
71.525837
 20
333.717513
 11
71.525837
 21
325.467513
  0
LINE
  5
577
100
AcDbEntity
  8
M0
100
AcDbLine
 10
57.775839
 20
330.467513
 11
58.27584
 21
330.467513
  0
LINE
  5
578
100
AcDbEntity
  8
M0
100
AcDbLine
 10
60.175838
 20
339.717513
 11
60.175838
 21
334.217513
  0
LINE
  5
579
100
AcDbEntity
  8
M0
100
AcDbLine
 10
58.27584
 20
330.467513
 11
58.27584
 21
341.567513
  0
LINE
  5
57A
100
AcDbEntity
  8
M0
100
AcDbLine
 10
60.425839
 20
340.217513
 11
60.175838
 21
339.717513
  0
LINE
  5
57B
100
AcDbEntity
  8
M0
100
AcDbLine
 10
60.425839
 20
341.567513
 11
60.425839
 21
340.217513
  0
LINE
  5
57C
100
AcDbEntity
  8
M0
100
AcDbLine
 10
47.675837
 20
307.967514
 11
47.975838
 21
307.967514
  0
LINE
  5
57D
100
AcDbEntity
  8
M0
100
AcDbLine
 10
57.075838
 20
319.267513
 11
58.27584
 21
319.267513
  0
LINE
  5
57E
100
AcDbEntity
  8
M0
100
AcDbLine
 10
75.175839
 20
325.967513
 11
75.175839
 21
329.467512
  0
LINE
  5
57F
100
AcDbEntity
  8
M0
100
AcDbLine
 10
48.875837
 20
319.267513
 11
47.675837
 21
319.267513
  0
LINE
  5
580
100
AcDbEntity
  8
M0
100
AcDbLine
 10
74.175837
 20
330.467513
 11
73.67584
 21
330.467513
  0
LINE
  5
581
100
AcDbEntity
  8
M0
100
AcDbLine
 10
73.67584
 20
330.467513
 11
73.67584
 21
341.567513
  0
LINE
  5
582
100
AcDbEntity
  8
M0
100
AcDbLine
 10
57.775839
 20
348.967513
 11
59.925838
 21
348.967513
  0
LINE
  5
583
100
AcDbEntity
  8
M0
100
AcDbLine
 10
71.525837
 20
340.217513
 11
71.775837
 21
339.717513
  0
LINE
  5
584
100
AcDbEntity
  8
M0
100
AcDbLine
 10
75.175839
 20
343.067513
 11
75.175839
 21
347.967513
  0
LINE
  5
585
100
AcDbEntity
  8
M0
100
AcDbLine
 10
73.67584
 20
341.567513
 11
75.175839
 21
343.067513
  0
LINE
  5
586
100
AcDbEntity
  8
M0
100
AcDbLine
 10
57.775838
 20
324.967513
 11
74.175837
 21
324.967513
  0
LINE
  5
587
100
AcDbEntity
  8
M0
100
AcDbLine
 10
74.175837
 20
348.967513
 11
72.025838
 21
348.967513
  0
ELLIPSE
  5
588
100
AcDbEntity
  8
M0
100
AcDbEllipse
 10
61.675838
 20
371.88418
 11
1.0
 21
0.0
210
0.0
220
0.0
230
1.0
 40
0.416667
 41
3.141592653589793
 42
4.71238898038469
  0
ELLIPSE
  5
589
100
AcDbEntity
  8
M0
100
AcDbEllipse
 10
70.275838
 20
371.88418
 11
1.0
 21
0.0
210
0.0
220
0.0
230
1.0
 40
0.416667
 41
4.71238898038469
 42
6.283185307179586
  0
LINE
  5
58A
100
AcDbEntity
  8
M0
100
AcDbLine
 10
70.275838
 20
371.467514
 11
69.075835
 21
371.467514
  0
LINE
  5
58B
100
AcDbEntity
  8
M0
100
AcDbLine
 10
47.675837
 20
367.967512
 11
47.975838
 21
367.967512
  0
LINE
  5
58C
100
AcDbEntity
  8
M0
100
AcDbLine
 10
60.67584
 20
367.967512
 11
62.875835
 21
367.967512
  0
LINE
  5
58D
100
AcDbEntity
  8
M0
100
AcDbLine
 10
60.67584
 20
378.967513
 11
60.67584
 21
354.367513
  0
LINE
  5
58E
100
AcDbEntity
  8
M0
100
AcDbLine
 10
71.275836
 20
369.967513
 11
69.075835
 21
369.967513
  0
LINE
  5
58F
100
AcDbEntity
  8
M0
100
AcDbLine
 10
75.725837
 20
301.967513
 11
75.725837
 21
302.467514
  0
LINE
  5
590
100
AcDbEntity
  8
M0
100
AcDbLine
 10
74.975839
 20
301.467512
 11
78.143547
 21
301.467512
  0
LINE
  5
591
100
AcDbEntity
  8
M0
100
AcDbLine
 10
75.725837
 20
302.467514
 11
75.725837
 21
304.467514
  0
LINE
  5
592
100
AcDbEntity
  8
M0
100
AcDbLine
 10
83.975839
 20
305.967513
 11
84.275837
 21
305.967513
  0
LINE
  5
593
100
AcDbEntity
  8
M0
100
AcDbLine
 10
35.875838
 20
309.267513
 11
35.575838
 21
309.267513
  0
LINE
  5
594
100
AcDbEntity
  8
M0
100
AcDbLine
 10
47.975839
 20
305.967513
 11
47.675837
 21
305.967513
  0
LINE
  5
595
100
AcDbEntity
  8
M0
100
AcDbLine
 10
35.575838
 20
364.667512
 11
35.875838
 21
364.667512
  0
LINE
  5
596
100
AcDbEntity
  8
M0
100
AcDbLine
 10
56.975838
 20
305.467512
 11
56.975838
 21
307.967514
  0
LINE
  5
597
100
AcDbEntity
  8
M0
100
AcDbLine
 10
58.27584
 20
304.467514
 11
57.975839
 21
304.467514
  0
LINE
  5
598
100
AcDbEntity
  8
M0
100
AcDbLine
 10
84.275837
 20
367.967512
 11
83.975838
 21
367.967512
  0
LINE
  5
599
100
AcDbEntity
  8
M0
100
AcDbLine
 10
74.975839
 20
305.467512
 11
74.975839
 21
307.967514
  0
LINE
  5
59A
100
AcDbEntity
  8
M0
100
AcDbLine
 10
71.275836
 20
304.467514
 11
69.075835
 21
304.467514
  0
LINE
  5
59B
100
AcDbEntity
  8
M0
100
AcDbLine
 10
73.975837
 20
304.467514
 11
73.67584
 21
304.467514
  0
ARC
  5
59C
100
AcDbEntity
  8
M0
100
AcDbCircle
 10
75.225838
 20
301.967513
 40
0.5
100
AcDbArc
 50
270.0
 51
360.0
  0
ARC
  5
59D
100
AcDbEntity
  8
M0
100
AcDbCircle
 10
78.975838
 20
304.467513
 40
3.25
100
AcDbArc
 50
132.76855
 51
180.0
  0
ARC
  5
59E
100
AcDbEntity
  8
M0
100
AcDbCircle
 10
61.675838
 20
378.967513
 40
1.0
100
AcDbArc
 50
134.427281
 51
180.0
  0
ARC
  5
59F
100
AcDbEntity
  8
M0
100
AcDbCircle
 10
70.275838
 20
378.967513
 40
1.0
100
AcDbArc
 50
0.0
 51
45.573273
  0
ARC
  5
5A0
100
AcDbEntity
  8
M0
100
AcDbCircle
 10
56.975838
 20
302.467513
 40
1.0
100
AcDbArc
 50
270.0
 51
360.0
  0
ARC
  5
5A1
100
AcDbEntity
  8
M0
100
AcDbCircle
 10
74.975838
 20
302.467513
 40
1.0
100
AcDbArc
 50
180.0
 51
270.0
  0
ARC
  5
5A2
100
AcDbEntity
  8
M0
100
AcDbCircle
 10
52.975838
 20
304.467513
 40
3.25
100
AcDbArc
 50
0.0
 51
47.231455
  0
LINE
  5
5A3
100
AcDbEntity
  8
M0
100
AcDbLine
 10
57.975839
 20
304.467514
 11
57.975839
 21
302.467514
  0
LINE
  5
5A4
100
AcDbEntity
  8
M0
100
AcDbLine
 10
73.975837
 20
304.467514
 11
73.975837
 21
302.467514
  0
LINE
  5
5A5
100
AcDbEntity
  8
M0
100
AcDbLine
 10
56.225839
 20
301.967513
 11
56.225839
 21
304.467513
  0
ARC
  5
5A6
100
AcDbEntity
  8
M0
100
AcDbCircle
 10
73.975838
 20
305.467513
 40
1.0
100
AcDbArc
 50
270.0
 51
360.0
  0
ARC
  5
5A7
100
AcDbEntity
  8
M0
100
AcDbCircle
 10
56.725838
 20
301.967513
 40
0.5
100
AcDbArc
 50
180.0
 51
270.0
  0
ARC
  5
5A8
100
AcDbEntity
  8
M0
100
AcDbCircle
 10
57.975838
 20
305.467513
 40
1.0
100
AcDbArc
 50
180.0
 51
270.0
  0
ARC
  5
5A9
100
AcDbEntity
  8
M0
100
AcDbCircle
 10
35.575838
 20
363.667513
 40
1.0
100
AcDbArc
 50
90.0
 51
180.0
  0
LINE
  5
5AA
100
AcDbEntity
  8
M0
100
AcDbLine
 10
46.675837
 20
301.467512
 11
39.575838
 21
301.467512
  0
LINE
  5
5AB
100
AcDbEntity
  8
M0
100
AcDbLine
 10
39.575838
 20
372.467514
 11
46.675837
 21
372.467514
  0
LINE
  5
5AC
100
AcDbEntity
  8
M0
100
AcDbLine
 10
45.275838
 20
371.467513
 11
45.275838
 21
340.467513
  0
LINE
  5
5AD
100
AcDbEntity
  8
M0
100
AcDbLine
 10
87.275839
 20
309.867513
 11
87.275839
 21
327.667513
  0
LINE
  5
5AE
100
AcDbEntity
  8
M0
100
AcDbLine
 10
87.275839
 20
346.267513
 11
87.275839
 21
364.067513
  0
ARC
  5
5AF
100
AcDbEntity
  8
M0
100
AcDbCircle
 10
35.575838
 20
310.267513
 40
1.0
100
AcDbArc
 50
180.0
 51
270.0
  0
ARC
  5
5B0
100
AcDbEntity
  8
M0
100
AcDbCircle
 10
35.875838
 20
310.267513
 40
1.0
100
AcDbArc
 50
270.0
 51
360.0
  0
LINE
  5
5B1
100
AcDbEntity
  8
M0
100
AcDbLine
 10
58.27584
 20
355.867513
 11
60.67584
 21
355.867513
  0
ARC
  5
5B2
100
AcDbEntity
  8
M0
100
AcDbCircle
 10
45.275838
 20
309.867513
 40
0.6
100
AcDbArc
 50
180.0
 51
270.0
  0
ARC
  5
5B3
100
AcDbEntity
  8
M0
100
AcDbCircle
 10
86.675838
 20
364.067513
 40
0.6
100
AcDbArc
 50
0.0
 51
90.0
  0
ARC
  5
5B4
100
AcDbEntity
  8
M0
100
AcDbCircle
 10
35.875838
 20
363.667513
 40
1.0
100
AcDbArc
 50
0.0
 51
90.0
  0
ARC
  5
5B5
100
AcDbEntity
  8
M0
100
AcDbCircle
 10
45.275838
 20
364.067513
 40
0.6
100
AcDbArc
 50
90.0
 51
180.0
  0
LINE
  5
5B6
100
AcDbEntity
  8
M0
100
AcDbLine
 10
47.675837
 20
319.567512
 11
47.675837
 21
302.467514
  0
LINE
  5
5B7
100
AcDbEntity
  8
M0
100
AcDbLine
 10
58.27584
 20
302.467514
 11
58.27584
 21
319.567512
  0
LINE
  5
5B8
100
AcDbEntity
  8
M0
100
AcDbLine
 10
58.27584
 20
318.067513
 11
59.275838
 21
318.067513
  0
LINE
  5
5B9
100
AcDbEntity
  8
M0
100
AcDbLine
 10
85.475838
 20
372.467514
 11
85.275839
 21
372.467514
  0
LINE
  5
5BA
100
AcDbEntity
  8
M0
100
AcDbLine
 10
84.275837
 20
371.467514
 11
84.275837
 21
354.367513
  0
LINE
  5
5BB
100
AcDbEntity
  8
M0
100
AcDbLine
 10
60.67584
 20
302.467513
 11
60.67584
 21
319.567512
  0
LINE
  5
5BC
100
AcDbEntity
  8
M0
100
AcDbLine
 10
58.27584
 20
371.467513
 11
58.27584
 21
354.367513
  0
LINE
  5
5BD
100
AcDbEntity
  8
M0
100
AcDbLine
 10
73.67584
 20
319.567512
 11
73.67584
 21
302.467513
  0
LINE
  5
5BE
100
AcDbEntity
  8
M0
100
AcDbLine
 10
71.275836
 20
302.467513
 11
71.275836
 21
319.567512
  0
LINE
  5
5BF
100
AcDbEntity
  8
M0
100
AcDbLine
 10
73.67584
 20
371.467513
 11
73.67584
 21
354.367513
  0
LINE
  5
5C0
100
AcDbEntity
  8
M0
100
AcDbLine
 10
71.275836
 20
354.367513
 11
71.275836
 21
378.967513
  0
LINE
  5
5C1
100
AcDbEntity
  8
M0
100
AcDbLine
 10
71.275836
 20
304.467514
 11
71.275836
 21
305.467512
  0
LINE
  5
5C2
100
AcDbEntity
  8
M0
100
AcDbLine
 10
71.275836
 20
369.467513
 11
71.275836
 21
368.467513
  0
LINE
  5
5C3
100
AcDbEntity
  8
M0
100
AcDbLine
 10
96.075835
 20
309.267513
 11
96.37584
 21
309.267513
  0
LINE
  5
5C4
100
AcDbEntity
  8
M0
100
AcDbLine
 10
96.37584
 20
364.667512
 11
96.075835
 21
364.667512
  0
LINE
  5
5C5
100
AcDbEntity
  8
M0
100
AcDbLine
 10
96.175837
 20
357.067512
 11
96.075835
 21
357.067512
  0
LINE
  5
5C6
100
AcDbEntity
  8
M0
100
AcDbLine
 10
47.675837
 20
371.467514
 11
47.675837
 21
354.367513
  0
LINE
  5
5C7
100
AcDbEntity
  8
M0
100
AcDbLine
 10
35.775838
 20
357.067512
 11
35.875838
 21
357.067512
  0
LINE
  5
5C8
100
AcDbEntity
  8
M0
100
AcDbLine
 10
96.175837
 20
316.867513
 11
96.075835
 21
316.867513
  0
LINE
  5
5C9
100
AcDbEntity
  8
M0
100
AcDbLine
 10
35.775838
 20
316.867513
 11
35.875838
 21
316.867513
  0
ARC
  5
5CA
100
AcDbEntity
  8
M0
100
AcDbCircle
 10
96.075838
 20
310.267513
 40
1.0
100
AcDbArc
 50
180.0
 51
270.0
  0
ARC
  5
5CB
100
AcDbEntity
  8
M0
100
AcDbCircle
 10
96.075838
 20
363.667513
 40
1.0
100
AcDbArc
 50
90.0
 51
180.0
  0
ARC
  5
5CC
100
AcDbEntity
  8
M0
100
AcDbCircle
 10
86.675838
 20
309.867513
 40
0.6
100
AcDbArc
 50
270.0
 51
360.0
  0
ARC
  5
5CD
100
AcDbEntity
  8
M0
100
AcDbCircle
 10
96.375838
 20
363.667513
 40
1.0
100
AcDbArc
 50
0.0
 51
90.0
  0
LINE
  5
5CE
100
AcDbEntity
  8
M0
100
AcDbLine
 10
44.675839
 20
309.867512
 11
44.675839
 21
327.667513
  0
LINE
  5
5CF
100
AcDbEntity
  8
M0
100
AcDbLine
 10
44.675839
 20
346.267513
 11
44.675839
 21
364.067513
  0
ARC
  5
5D0
100
AcDbEntity
  8
M0
100
AcDbCircle
 10
96.375838
 20
310.267513
 40
1.0
100
AcDbArc
 50
270.0
 51
360.0
  0
LINE
  5
5D1
100
AcDbEntity
  8
M0
100
AcDbLine
 10
36.875838
 20
332.267513
 11
36.875838
 21
310.267513
  0
LINE
  5
5D2
100
AcDbEntity
  8
M0
100
AcDbLine
 10
88.175839
 20
311.267514
 11
88.175839
 21
312.267514
  0
LINE
  5
5D3
100
AcDbEntity
  8
M0
100
AcDbLine
 10
94.17584
 20
311.267514
 11
88.175839
 21
311.267514
  0
LINE
  5
5D4
100
AcDbEntity
  8
M0
100
AcDbLine
 10
94.17584
 20
312.267514
 11
94.17584
 21
311.267514
  0
LINE
  5
5D5
100
AcDbEntity
  8
M0
100
AcDbLine
 10
44.675839
 20
354.067513
 11
36.875838
 21
354.067513
  0
LINE
  5
5D6
100
AcDbEntity
  8
M0
100
AcDbLine
 10
88.175839
 20
362.667514
 11
94.17584
 21
362.667514
  0
LINE
  5
5D7
100
AcDbEntity
  8
M0
100
AcDbLine
 10
88.175839
 20
361.667514
 11
88.175839
 21
362.667514
  0
LINE
  5
5D8
100
AcDbEntity
  8
M0
100
AcDbLine
 10
94.17584
 20
362.667514
 11
94.17584
 21
361.667514
  0
LINE
  5
5D9
100
AcDbEntity
  8
M0
100
AcDbLine
 10
36.875838
 20
319.867512
 11
44.675839
 21
319.867512
  0
LINE
  5
5DA
100
AcDbEntity
  8
M0
100
AcDbLine
 10
87.275839
 20
319.867512
 11
95.075841
 21
319.867512
  0
LINE
  5
5DB
100
AcDbEntity
  8
M0
100
AcDbLine
 10
48.875837
 20
354.667512
 11
47.675837
 21
354.667512
  0
LINE
  5
5DC
100
AcDbEntity
  8
M0
100
AcDbLine
 10
57.075838
 20
354.667512
 11
58.27584
 21
354.667512
  0
LINE
  5
5DD
100
AcDbEntity
  8
M0
100
AcDbLine
 10
58.27584
 20
365.967514
 11
57.811253
 21
365.967514
  0
ARC
  5
5DE
100
AcDbEntity
  8
M0
100
AcDbCircle
 10
61.875838
 20
353.667513
 40
1.0
100
AcDbArc
 50
44.427004
 51
90.0
  0
LINE
  5
5DF
100
AcDbEntity
  8
M0
100
AcDbLine
 10
74.875838
 20
354.667512
 11
73.67584
 21
354.667512
  0
ARC
  5
5E0
100
AcDbEntity
  8
M0
100
AcDbCircle
 10
83.075838
 20
320.267513
 40
1.0
100
AcDbArc
 50
224.427004
 51
270.0
  0
ARC
  5
5E1
100
AcDbEntity
  8
M0
100
AcDbCircle
 10
70.075838
 20
353.667513
 40
1.0
100
AcDbArc
 50
90.0
 51
135.572996
  0
LINE
  5
5E2
100
AcDbEntity
  8
M0
100
AcDbLine
 10
70.075838
 20
319.267513
 11
71.275836
 21
319.267513
  0
LINE
  5
5E3
100
AcDbEntity
  8
M0
100
AcDbLine
 10
61.875837
 20
319.267513
 11
60.67584
 21
319.267513
  0
LINE
  5
5E4
100
AcDbEntity
  8
M0
100
AcDbLine
 10
60.67584
 20
307.967514
 11
61.140419
 21
307.967514
  0
LINE
  5
5E5
100
AcDbEntity
  8
M0
100
AcDbLine
 10
37.775838
 20
362.667514
 11
43.775838
 21
362.667514
  0
LINE
  5
5E6
100
AcDbEntity
  8
M0
100
AcDbLine
 10
37.775838
 20
361.667514
 11
37.775838
 21
362.667514
  0
LINE
  5
5E7
100
AcDbEntity
  8
M0
100
AcDbLine
 10
43.775838
 20
362.667514
 11
43.775838
 21
361.667514
  0
ARC
  5
5E8
100
AcDbEntity
  8
M0
100
AcDbCircle
 10
74.875838
 20
353.667513
 40
1.0
100
AcDbArc
 50
44.427004
 51
90.0
  0
ARC
  5
5E9
100
AcDbEntity
  8
M0
100
AcDbCircle
 10
57.075838
 20
353.667513
 40
1.0
100
AcDbArc
 50
90.0
 51
135.572996
  0
ARC
  5
5EA
100
AcDbEntity
  8
M0
100
AcDbCircle
 10
70.075838
 20
320.267513
 40
1.0
100
AcDbArc
 50
224.427004
 51
270.0
  0
ARC
  5
5EB
100
AcDbEntity
  8
M0
100
AcDbCircle
 10
74.875838
 20
320.267513
 40
1.0
100
AcDbArc
 50
270.0
 51
315.572996
  0
ARC
  5
5EC
100
AcDbEntity
  8
M0
100
AcDbCircle
 10
48.875838
 20
353.667513
 40
1.0
100
AcDbArc
 50
44.427004
 51
90.0
  0
ARC
  5
5ED
100
AcDbEntity
  8
M0
100
AcDbCircle
 10
61.875838
 20
320.267513
 40
1.0
100
AcDbArc
 50
270.0
 51
315.572996
  0
LINE
  5
5EE
100
AcDbEntity
  8
M0
100
AcDbLine
 10
43.775838
 20
311.267514
 11
37.775838
 21
311.267514
  0
LINE
  5
5EF
100
AcDbEntity
  8
M0
100
AcDbLine
 10
43.775838
 20
312.267514
 11
43.775838
 21
311.267514
  0
LINE
  5
5F0
100
AcDbEntity
  8
M0
100
AcDbLine
 10
37.775838
 20
311.267514
 11
37.775838
 21
312.267514
  0
LINE
  5
5F1
100
AcDbEntity
  8
M0
100
AcDbLine
 10
82.6933
 20
380.885504
 11
82.694391
 21
380.849045
  0
LINE
  5
5F2
100
AcDbEntity
  8
M0
100
AcDbLine
 10
82.694391
 20
380.849045
 11
82.69764
 21
380.740765
  0
LINE
  5
5F3
100
AcDbEntity
  8
M0
100
AcDbLine
 10
82.69764
 20
380.740765
 11
82.702945
 21
380.563967
  0
LINE
  5
5F4
100
AcDbEntity
  8
M0
100
AcDbLine
 10
82.702945
 20
380.563967
 11
82.710142
 21
380.324013
  0
LINE
  5
5F5
100
AcDbEntity
  8
M0
100
AcDbLine
 10
82.710142
 20
380.324013
 11
82.714634
 21
380.174309
  0
LINE
  5
5F6
100
AcDbEntity
  8
M0
100
AcDbLine
 10
49.237042
 20
380.174308
 11
49.237289
 21
380.18256
  0
LINE
  5
5F7
100
AcDbEntity
  8
M0
100
AcDbLine
 10
49.237289
 20
380.18256
 11
49.246243
 21
380.481031
  0
LINE
  5
5F8
100
AcDbEntity
  8
M0
100
AcDbLine
 10
49.246243
 20
380.481031
 11
49.252898
 21
380.702816
  0
LINE
  5
5F9
100
AcDbEntity
  8
M0
100
AcDbLine
 10
49.252898
 20
380.702816
 11
49.256994
 21
380.839389
  0
LINE
  5
5FA
100
AcDbEntity
  8
M0
100
AcDbLine
 10
49.256994
 20
380.839389
 11
49.258378
 21
380.885504
  0
LINE
  5
5FB
100
AcDbEntity
  8
M0
  6
DASHDOT
100
AcDbLine
 10
52.475838
 20
313.267513
 11
53.475838
 21
313.267513
  0
LINE
  5
5FC
100
AcDbEntity
  8
M0
  6
DASHDOT
100
AcDbLine
 10
52.975838
 20
312.767513
 11
52.975838
 21
313.767513
  0
LINE
  5
5FD
100
AcDbEntity
  8
M0
  6
DASHDOT
100
AcDbLine
 10
65.975835
 20
312.767513
 11
65.975835
 21
313.767513
  0
LINE
  5
5FE
100
AcDbEntity
  8
M0
  6
DASHDOT
100
AcDbLine
 10
65.475835
 20
313.267513
 11
66.475835
 21
313.267513
  0
LINE
  5
5FF
100
AcDbEntity
  8
M0
  6
DASHDOT
100
AcDbLine
 10
78.975835
 20
312.767513
 11
78.975835
 21
313.767513
  0
LINE
  5
600
100
AcDbEntity
  8
M0
  6
DASHDOT
100
AcDbLine
 10
78.475835
 20
313.267513
 11
79.475835
 21
313.267513
  0
LINE
  5
601
100
AcDbEntity
  8
M0
  6
DASHDOT
100
AcDbLine
 10
78.975835
 20
361.167513
 11
78.975835
 21
360.167513
  0
LINE
  5
602
100
AcDbEntity
  8
M0
  6
DASHDOT
100
AcDbLine
 10
78.475835
 20
360.667513
 11
79.475835
 21
360.667513
  0
LINE
  5
603
100
AcDbEntity
  8
M0
  6
DASHDOT
100
AcDbLine
 10
65.475835
 20
360.667513
 11
66.475835
 21
360.667513
  0
LINE
  5
604
100
AcDbEntity
  8
M0
  6
DASHDOT
100
AcDbLine
 10
52.975838
 20
361.167513
 11
52.975838
 21
360.167513
  0
LINE
  5
605
100
AcDbEntity
  8
M0
  6
DASHDOT
100
AcDbLine
 10
65.975835
 20
361.167513
 11
65.975835
 21
360.167513
  0
LINE
  5
606
100
AcDbEntity
  8
M0
  6
DASHDOT
100
AcDbLine
 10
52.475838
 20
360.667513
 11
53.475838
 21
360.667513
  0
LINE
  5
607
100
AcDbEntity
  8
M0
  6
DASHDOT
100
AcDbLine
 10
91.675838
 20
357.867513
 11
90.675838
 21
357.867513
  0
LINE
  5
608
100
AcDbEntity
  8
M0
  6
DASHDOT
100
AcDbLine
 10
91.175838
 20
357.367513
 11
91.175838
 21
358.367513
  0
LINE
  5
609
100
AcDbEntity
  8
M0
  6
DASHDOT
100
AcDbLine
 10
91.675838
 20
350.267513
 11
90.675838
 21
350.267513
  0
LINE
  5
60A
100
AcDbEntity
  8
M0
  6
DASHDOT
100
AcDbLine
 10
91.175838
 20
349.767513
 11
91.175838
 21
350.767513
  0
LINE
  5
60B
100
AcDbEntity
  8
M0
  6
DASHDOT
100
AcDbLine
 10
91.675838
 20
323.667513
 11
90.675838
 21
323.667513
  0
LINE
  5
60C
100
AcDbEntity
  8
M0
  6
DASHDOT
100
AcDbLine
 10
91.175838
 20
323.167513
 11
91.175838
 21
324.167513
  0
LINE
  5
60D
100
AcDbEntity
  8
M0
  6
DASHDOT
100
AcDbLine
 10
91.675838
 20
316.067513
 11
90.675838
 21
316.067513
  0
LINE
  5
60E
100
AcDbEntity
  8
M0
  6
DASHDOT
100
AcDbLine
 10
91.175838
 20
315.567513
 11
91.175838
 21
316.567513
  0
LINE
  5
60F
100
AcDbEntity
  8
M0
  6
DASHDOT
100
AcDbLine
 10
40.275838
 20
350.267513
 11
41.275838
 21
350.267513
  0
LINE
  5
610
100
AcDbEntity
  8
M0
  6
DASHDOT
100
AcDbLine
 10
40.775838
 20
349.767513
 11
40.775838
 21
350.767513
  0
LINE
  5
611
100
AcDbEntity
  8
M0
  6
DASHDOT
100
AcDbLine
 10
40.275838
 20
357.867513
 11
41.275838
 21
357.867513
  0
LINE
  5
612
100
AcDbEntity
  8
M0
  6
DASHDOT
100
AcDbLine
 10
40.775838
 20
357.367513
 11
40.775838
 21
358.367513
  0
LINE
  5
613
100
AcDbEntity
  8
M0
  6
DASHDOT
100
AcDbLine
 10
40.275838
 20
316.067513
 11
41.275838
 21
316.067513
  0
LINE
  5
614
100
AcDbEntity
  8
M0
  6
DASHDOT
100
AcDbLine
 10
40.775838
 20
315.567513
 11
40.775838
 21
316.567513
  0
LINE
  5
615
100
AcDbEntity
  8
M0
  6
DASHDOT
100
AcDbLine
 10
40.275838
 20
323.667513
 11
41.275838
 21
323.667513
  0
LINE
  5
616
100
AcDbEntity
  8
M0
  6
DASHDOT
100
AcDbLine
 10
40.775838
 20
323.167513
 11
40.775838
 21
324.167513
  0
LINE
  5
617
100
AcDbEntity
  8
M0
  6
DASHDOT
100
AcDbLine
 10
76.375838
 20
375.567513
 11
77.375838
 21
375.567513
  0
LINE
  5
618
100
AcDbEntity
  8
M0
  6
DASHDOT
100
AcDbLine
 10
76.875838
 20
375.067513
 11
76.875838
 21
376.067513
  0
LINE
  5
619
100
AcDbEntity
  8
M0
  6
DASHDOT
100
AcDbLine
 10
55.575838
 20
375.567513
 11
54.575838
 21
375.567513
  0
LINE
  5
61A
100
AcDbEntity
  8
M0
  6
DASHDOT
100
AcDbLine
 10
55.075838
 20
375.067513
 11
55.075838
 21
376.067513
  0
LINE
  5
61B
100
AcDbEntity
  8
M0
100
AcDbLine
 10
62.875835
 20
371.467514
 11
61.675838
 21
371.467514
  0
LINE
  5
61C
100
AcDbEntity
  8
M0
100
AcDbLine
 10
62.875835
 20
369.967513
 11
60.67584
 21
369.967513
  0
LINE
  5
61D
100
AcDbEntity
  8
M0
100
AcDbLine
 10
69.075835
 20
367.967512
 11
71.275836
 21
367.967512
  0
LINE
  5
61E
100
AcDbEntity
  8
M0
100
AcDbLine
 10
61.140419
 20
365.967514
 11
60.67584
 21
365.967514
  0
LINE
  5
61F
100
AcDbEntity
  8
M0
100
AcDbLine
 10
47.975838
 20
365.967514
 11
47.675837
 21
365.967514
  0
LINE
  5
620
100
AcDbEntity
  8
M0
100
AcDbLine
 10
54.975838
 20
367.967512
 11
58.27584
 21
367.967512
  0
LINE
  5
621
100
AcDbEntity
  8
M0
100
AcDbLine
 10
74.140422
 20
365.967514
 11
73.67584
 21
365.967514
  0
LINE
  5
622
100
AcDbEntity
  8
M0
100
AcDbLine
 10
76.975838
 20
367.967512
 11
73.67584
 21
367.967512
  0
LINE
  5
623
100
AcDbEntity
  8
M0
100
AcDbLine
 10
83.975838
 20
307.967514
 11
84.275837
 21
307.967514
  0
LINE
  5
624
100
AcDbEntity
  8
M0
100
AcDbLine
 10
62.875835
 20
301.467512
 11
60.975837
 21
301.467512
  0
LINE
  5
625
100
AcDbEntity
  8
M0
100
AcDbLine
 10
69.075835
 20
303.467512
 11
70.475838
 21
303.467512
  0
LINE
  5
626
100
AcDbEntity
  8
M0
100
AcDbLine
 10
62.875835
 20
304.467514
 11
60.67584
 21
304.467514
  0
LINE
  5
627
100
AcDbEntity
  8
M0
100
AcDbLine
 10
70.811251
 20
307.967514
 11
71.275836
 21
307.967514
  0
LINE
  5
628
100
AcDbEntity
  8
M0
100
AcDbLine
 10
57.811254
 20
307.967514
 11
58.27584
 21
307.967514
  0
LINE
  5
629
100
AcDbEntity
  8
M0
100
AcDbLine
 10
130.575835
 20
348.967513
 11
132.725834
 21
348.967513
  0
LINE
  5
62A
100
AcDbEntity
  8
M0
100
AcDbLine
 10
146.475836
 20
330.467513
 11
146.475836
 21
341.567513
  0
LINE
  5
62B
100
AcDbEntity
  8
M0
100
AcDbLine
 10
147.975836
 20
343.067513
 11
147.975836
 21
347.967513
  0
LINE
  5
62C
100
AcDbEntity
  8
M0
100
AcDbLine
 10
144.325833
 20
340.217513
 11
144.575834
 21
339.717513
  0
LINE
  5
62D
100
AcDbEntity
  8
M0
100
AcDbLine
 10
147.975836
 20
325.967513
 11
147.975836
 21
329.467512
  0
LINE
  5
62E
100
AcDbEntity
  8
M0
100
AcDbLine
 10
129.875835
 20
319.267513
 11
131.075836
 21
319.267513
  0
LINE
  5
62F
100
AcDbEntity
  8
M0
100
AcDbLine
 10
146.975834
 20
330.467513
 11
146.475836
 21
330.467513
  0
LINE
  5
630
100
AcDbEntity
  8
M0
100
AcDbLine
 10
121.675834
 20
319.267513
 11
120.475834
 21
319.267513
  0
LINE
  5
631
100
AcDbEntity
  8
M0
100
AcDbLine
 10
133.475836
 20
367.967512
 11
135.675831
 21
367.967512
  0
LINE
  5
632
100
AcDbEntity
  8
M0
100
AcDbLine
 10
120.475834
 20
367.967512
 11
120.775835
 21
367.967512
  0
LINE
  5
633
100
AcDbEntity
  8
M0
100
AcDbLine
 10
144.075833
 20
369.967513
 11
141.875831
 21
369.967513
  0
LINE
  5
634
100
AcDbEntity
  8
M0
100
AcDbLine
 10
133.475836
 20
378.967513
 11
133.475836
 21
354.367513
  0
LINE
  5
635
100
AcDbEntity
  8
M0
100
AcDbLine
 10
130.575835
 20
324.967513
 11
146.975834
 21
324.967513
  0
LINE
  5
636
100
AcDbEntity
  8
M0
100
AcDbLine
 10
146.475836
 20
341.567513
 11
147.975836
 21
343.067513
  0
LINE
  5
637
100
AcDbEntity
  8
M0
100
AcDbLine
 10
143.075835
 20
371.467514
 11
141.875831
 21
371.467514
  0
LINE
  5
638
100
AcDbEntity
  8
M0
100
AcDbLine
 10
146.975834
 20
348.967513
 11
144.825834
 21
348.967513
  0
LINE
  5
639
100
AcDbEntity
  8
M0
100
AcDbLine
 10
132.975835
 20
334.217513
 11
133.225835
 21
333.717513
  0
LINE
  5
63A
100
AcDbEntity
  8
M0
100
AcDbLine
 10
133.225835
 20
333.717513
 11
133.225835
 21
325.467513
  0
LINE
  5
63B
100
AcDbEntity
  8
M0
100
AcDbLine
 10
144.575834
 20
339.717513
 11
144.575834
 21
334.217513
  0
LINE
  5
63C
100
AcDbEntity
  8
M0
100
AcDbLine
 10
144.575834
 20
334.217513
 11
144.325833
 21
333.717513
  0
LINE
  5
63D
100
AcDbEntity
  8
M0
100
AcDbLine
 10
129.375835
 20
331.667512
 11
129.575835
 21
331.667512
  0
LINE
  5
63E
100
AcDbEntity
  8
M0
100
AcDbLine
 10
148.175835
 20
331.667512
 11
147.975836
 21
331.667512
  0
LINE
  5
63F
100
AcDbEntity
  8
M0
100
AcDbLine
 10
143.825836
 20
347.967513
 11
143.825836
 21
342.067513
  0
LINE
  5
640
100
AcDbEntity
  8
M0
100
AcDbLine
 10
133.725833
 20
347.967513
 11
133.725833
 21
342.067513
  0
LINE
  5
641
100
AcDbEntity
  8
M0
100
AcDbLine
 10
133.225835
 20
340.217513
 11
132.975835
 21
339.717513
  0
LINE
  5
642
100
AcDbEntity
  8
M0
100
AcDbLine
 10
131.075836
 20
330.467513
 11
131.075836
 21
341.567513
  0
LINE
  5
643
100
AcDbEntity
  8
M0
100
AcDbLine
 10
120.475834
 20
307.967514
 11
120.775835
 21
307.967514
  0
LINE
  5
644
100
AcDbEntity
  8
M0
100
AcDbLine
 10
133.225835
 20
341.567513
 11
133.225835
 21
340.217513
  0
LINE
  5
645
100
AcDbEntity
  8
M0
100
AcDbLine
 10
144.325833
 20
333.717513
 11
144.325833
 21
325.467513
  0
LINE
  5
646
100
AcDbEntity
  8
M0
100
AcDbLine
 10
144.325833
 20
341.567513
 11
144.325833
 21
340.217513
  0
LINE
  5
647
100
AcDbEntity
  8
M0
100
AcDbLine
 10
132.975835
 20
339.717513
 11
132.975835
 21
334.217513
  0
LINE
  5
648
100
AcDbEntity
  8
M0
100
AcDbLine
 10
130.575835
 20
330.467513
 11
131.075836
 21
330.467513
  0
LINE
  5
649
100
AcDbEntity
  8
M0
100
AcDbLine
 10
146.775834
 20
304.467514
 11
146.775834
 21
302.467514
  0
LINE
  5
64A
100
AcDbEntity
  8
M0
100
AcDbLine
 10
130.775835
 20
304.467514
 11
130.775835
 21
302.467514
  0
LINE
  5
64B
100
AcDbEntity
  8
M0
100
AcDbLine
 10
119.475834
 20
301.467512
 11
112.375835
 21
301.467512
  0
LINE
  5
64C
100
AcDbEntity
  8
M0
100
AcDbLine
 10
129.025835
 20
301.967513
 11
129.025835
 21
304.467513
  0
ARC
  5
64D
100
AcDbEntity
  8
M0
100
AcDbCircle
 10
151.775835
 20
304.467513
 40
3.25
100
AcDbArc
 50
132.76855
 51
180.0
  0
ARC
  5
64E
100
AcDbEntity
  8
M0
100
AcDbCircle
 10
148.025835
 20
301.967513
 40
0.5
100
AcDbArc
 50
270.0
 51
360.0
  0
ELLIPSE
  5
64F
100
AcDbEntity
  8
M0
100
AcDbEllipse
 10
143.075835
 20
371.88418
 11
1.0
 21
0.0
210
0.0
220
0.0
230
1.0
 40
0.416667
 41
4.71238898038469
 42
6.283185307179586
  0
ELLIPSE
  5
650
100
AcDbEntity
  8
M0
100
AcDbEllipse
 10
134.475835
 20
371.88418
 11
1.0
 21
0.0
210
0.0
220
0.0
230
1.0
 40
0.416667
 41
3.141592653589793
 42
4.71238898038469
  0
LINE
  5
651
100
AcDbEntity
  8
M0
100
AcDbLine
 10
120.475834
 20
319.567512
 11
120.475834
 21
302.467514
  0
LINE
  5
652
100
AcDbEntity
  8
M0
100
AcDbLine
 10
131.075836
 20
355.867513
 11
133.475836
 21
355.867513
  0
LINE
  5
653
100
AcDbEntity
  8
M0
100
AcDbLine
 10
131.075836
 20
318.067513
 11
132.075835
 21
318.067513
  0
LINE
  5
654
100
AcDbEntity
  8
M0
100
AcDbLine
 10
131.075836
 20
302.467514
 11
131.075836
 21
319.567512
  0
LINE
  5
655
100
AcDbEntity
  8
M0
100
AcDbLine
 10
118.075834
 20
371.467513
 11
118.075834
 21
340.467513
  0
LINE
  5
656
100
AcDbEntity
  8
M0
100
AcDbLine
 10
112.375835
 20
372.467514
 11
119.475834
 21
372.467514
  0
LINE
  5
657
100
AcDbEntity
  8
M0
100
AcDbLine
 10
160.075835
 20
346.267513
 11
160.075835
 21
364.067513
  0
LINE
  5
658
100
AcDbEntity
  8
M0
100
AcDbLine
 10
160.075835
 20
309.867513
 11
160.075835
 21
327.667513
  0
LINE
  5
659
100
AcDbEntity
  8
M0
100
AcDbLine
 10
120.775835
 20
305.967513
 11
120.475834
 21
305.967513
  0
LINE
  5
65A
100
AcDbEntity
  8
M0
100
AcDbLine
 10
108.675834
 20
309.267513
 11
108.375835
 21
309.267513
  0
LINE
  5
65B
100
AcDbEntity
  8
M0
100
AcDbLine
 10
129.775835
 20
305.467512
 11
129.775835
 21
307.967514
  0
LINE
  5
65C
100
AcDbEntity
  8
M0
100
AcDbLine
 10
108.375835
 20
364.667512
 11
108.675834
 21
364.667512
  0
LINE
  5
65D
100
AcDbEntity
  8
M0
100
AcDbLine
 10
147.775836
 20
301.467512
 11
150.943543
 21
301.467512
  0
LINE
  5
65E
100
AcDbEntity
  8
M0
100
AcDbLine
 10
148.525834
 20
301.967513
 11
148.525834
 21
302.467514
  0
LINE
  5
65F
100
AcDbEntity
  8
M0
100
AcDbLine
 10
156.775836
 20
305.967513
 11
157.075833
 21
305.967513
  0
LINE
  5
660
100
AcDbEntity
  8
M0
100
AcDbLine
 10
148.525834
 20
302.467514
 11
148.525834
 21
304.467514
  0
ARC
  5
661
100
AcDbEntity
  8
M0
100
AcDbCircle
 10
168.875835
 20
356.067513
 40
1.0
100
AcDbArc
 50
90.0
 51
180.0
  0
LINE
  5
662
100
AcDbEntity
  8
M0
100
AcDbLine
 10
146.775834
 20
304.467514
 11
146.475836
 21
304.467514
  0
ARC
  5
663
100
AcDbEntity
  8
M0
100
AcDbCircle
 10
168.875835
 20
332.267513
 40
1.0
100
AcDbArc
 50
90.0
 51
180.0
  0
ARC
  5
664
100
AcDbEntity
  8
M0
100
AcDbCircle
 10
169.175835
 20
332.267513
 40
1.0
100
AcDbArc
 50
0.0
 51
90.0
  0
LINE
  5
665
100
AcDbEntity
  8
M0
100
AcDbLine
 10
157.075833
 20
367.967512
 11
156.775834
 21
367.967512
  0
LINE
  5
666
100
AcDbEntity
  8
M0
100
AcDbLine
 10
131.075836
 20
304.467514
 11
130.775835
 21
304.467514
  0
LINE
  5
667
100
AcDbEntity
  8
M0
100
AcDbLine
 10
144.075833
 20
304.467514
 11
141.875831
 21
304.467514
  0
LINE
  5
668
100
AcDbEntity
  8
M0
100
AcDbLine
 10
147.775836
 20
305.467512
 11
147.775836
 21
307.967514
  0
LINE
  5
669
100
AcDbEntity
  8
M0
100
AcDbLine
 10
109.675835
 20
340.667513
 11
109.675835
 21
333.267513
  0
LINE
  5
66A
100
AcDbEntity
  8
M0
100
AcDbLine
 10
155.875835
 20
354.667512
 11
157.075833
 21
354.667512
  0
ARC
  5
66B
100
AcDbEntity
  8
M0
100
AcDbCircle
 10
159.475835
 20
317.467513
 40
0.6
100
AcDbArc
 50
270.0
 51
360.0
  0
LINE
  5
66C
100
AcDbEntity
  8
M0
100
AcDbLine
 10
118.975835
 20
334.467513
 11
118.975835
 21
333.467513
  0
LINE
  5
66D
100
AcDbEntity
  8
M0
100
AcDbLine
 10
134.675834
 20
354.667512
 11
133.475836
 21
354.667512
  0
LINE
  5
66E
100
AcDbEntity
  8
M0
100
AcDbLine
 10
167.875837
 20
354.067513
 11
160.075835
 21
354.067513
  0
LINE
  5
66F
100
AcDbEntity
  8
M0
100
AcDbLine
 10
144.075833
 20
365.967514
 11
143.611246
 21
365.967514
  0
LINE
  5
670
100
AcDbEntity
  8
M0
100
AcDbLine
 10
146.475836
 20
307.967514
 11
146.940418
 21
307.967514
  0
ARC
  5
671
100
AcDbEntity
  8
M0
100
AcDbCircle
 10
132.725835
 20
347.967513
 40
1.0
100
AcDbArc
 50
0.0
 51
90.0
  0
ARC
  5
672
100
AcDbEntity
  8
M0
100
AcDbCircle
 10
144.825835
 20
325.467513
 40
0.5
100
AcDbArc
 50
180.0
 51
270.0
  0
ARC
  5
673
100
AcDbEntity
  8
M0
100
AcDbCircle
 10
146.975835
 20
325.967513
 40
1.0
100
AcDbArc
 50
270.0
 51
360.0
  0
ARC
  5
674
100
AcDbEntity
  8
M0
100
AcDbCircle
 10
133.225835
 20
342.067513
 40
0.5
100
AcDbArc
 50
270.0
 51
360.0
  0
ARC
  5
675
100
AcDbEntity
  8
M0
100
AcDbCircle
 10
118.075835
 20
356.467513
 40
0.6
100
AcDbArc
 50
90.0
 51
180.0
  0
ARC
  5
676
100
AcDbEntity
  8
M0
100
AcDbCircle
 10
119.075835
 20
302.467513
 40
1.0
100
AcDbArc
 50
180.0
 51
270.0
  0
ARC
  5
677
100
AcDbEntity
  8
M0
100
AcDbCircle
 10
132.725835
 20
325.467513
 40
0.5
100
AcDbArc
 50
270.0
 51
360.0
  0
ARC
  5
678
100
AcDbEntity
  8
M0
100
AcDbCircle
 10
159.475835
 20
356.467513
 40
0.6
100
AcDbArc
 50
0.0
 51
90.0
  0
LINE
  5
679
100
AcDbEntity
  8
M0
100
AcDbLine
 10
157.075833
 20
319.567512
 11
157.075833
 21
302.467514
  0
LINE
  5
67A
100
AcDbEntity
  8
M0
100
AcDbLine
 10
145.475834
 20
372.467514
 11
145.075835
 21
372.467514
  0
LINE
  5
67B
100
AcDbEntity
  8
M0
100
AcDbLine
 10
133.225835
 20
326.467513
 11
144.325833
 21
326.467513
  0
LINE
  5
67C
100
AcDbEntity
  8
M0
100
AcDbLine
 10
144.325833
 20
330.467513
 11
133.225835
 21
330.467513
  0
LINE
  5
67D
100
AcDbEntity
  8
M0
100
AcDbLine
 10
145.475834
 20
318.067513
 11
145.075835
 21
318.067513
  0
LINE
  5
67E
100
AcDbEntity
  8
M0
100
AcDbLine
 10
145.075835
 20
318.067513
 11
144.075833
 21
318.067513
  0
LINE
  5
67F
100
AcDbEntity
  8
M0
100
AcDbLine
 10
159.475833
 20
340.467513
 11
159.475833
 21
371.467514
  0
LINE
  5
680
100
AcDbEntity
  8
M0
100
AcDbLine
 10
165.175835
 20
372.467514
 11
158.075835
 21
372.467514
  0
LINE
  5
681
100
AcDbEntity
  8
M0
100
AcDbLine
 10
142.875835
 20
354.667512
 11
144.075833
 21
354.667512
  0
LINE
  5
682
100
AcDbEntity
  8
M0
100
AcDbLine
 10
170.175831
 20
367.467513
 11
170.175831
 21
306.467513
  0
LINE
  5
683
100
AcDbEntity
  8
M0
100
AcDbLine
 10
147.675834
 20
319.267513
 11
146.475836
 21
319.267513
  0
LINE
  5
684
100
AcDbEntity
  8
M0
100
AcDbLine
 10
155.875835
 20
319.267513
 11
157.075833
 21
319.267513
  0
LINE
  5
685
100
AcDbEntity
  8
M0
100
AcDbLine
 10
129.575835
 20
343.067513
 11
129.575835
 21
347.967513
  0
LINE
  5
686
100
AcDbEntity
  8
M0
100
AcDbLine
 10
133.225835
 20
331.967513
 11
144.325833
 21
331.967513
  0
LINE
  5
687
100
AcDbEntity
  8
M0
100
AcDbLine
 10
129.575835
 20
325.967513
 11
129.575835
 21
329.467512
  0
LINE
  5
688
100
AcDbEntity
  8
M0
100
AcDbLine
 10
131.075836
 20
341.567513
 11
129.575835
 21
343.067513
  0
ARC
  5
689
100
AcDbEntity
  8
M0
100
AcDbCircle
 10
108.375835
 20
332.267513
 40
1.0
100
AcDbArc
 50
90.0
 51
180.0
  0
ARC
  5
68A
100
AcDbEntity
  8
M0
100
AcDbCircle
 10
108.675835
 20
341.667513
 40
1.0
100
AcDbArc
 50
270.0
 51
360.0
  0
LINE
  5
68B
100
AcDbEntity
  8
M0
100
AcDbLine
 10
112.675835
 20
333.267513
 11
112.675835
 21
340.667513
  0
ARC
  5
68C
100
AcDbEntity
  8
M0
100
AcDbCircle
 10
108.375835
 20
317.867513
 40
1.0
100
AcDbArc
 50
180.0
 51
270.0
  0
ARC
  5
68D
100
AcDbEntity
  8
M0
100
AcDbCircle
 10
168.875835
 20
317.867513
 40
1.0
100
AcDbArc
 50
180.0
 51
270.0
  0
ARC
  5
68E
100
AcDbEntity
  8
M0
100
AcDbCircle
 10
108.375835
 20
356.067513
 40
1.0
100
AcDbArc
 50
90.0
 51
180.0
  0
ARC
  5
68F
100
AcDbEntity
  8
M0
100
AcDbCircle
 10
108.675835
 20
317.867513
 40
1.0
100
AcDbArc
 50
270.0
 51
360.0
  0
ARC
  5
690
100
AcDbEntity
  8
M0
100
AcDbCircle
 10
168.875835
 20
341.667513
 40
1.0
100
AcDbArc
 50
180.0
 51
270.0
  0
LINE
  5
691
100
AcDbEntity
  8
M0
100
AcDbLine
 10
157.075833
 20
365.967514
 11
156.775834
 21
365.967514
  0
LINE
  5
692
100
AcDbEntity
  8
M0
100
AcDbLine
 10
118.075834
 20
332.967513
 11
116.075834
 21
332.967513
  0
LINE
  5
693
100
AcDbEntity
  8
M0
100
AcDbLine
 10
112.675835
 20
340.667513
 11
109.675835
 21
340.667513
  0
LINE
  5
694
100
AcDbEntity
  8
M0
100
AcDbLine
 10
129.375835
 20
342.267513
 11
129.575835
 21
342.267513
  0
LINE
  5
695
100
AcDbEntity
  8
M0
100
AcDbLine
 10
116.075834
 20
332.967513
 11
116.075834
 21
340.967513
  0
LINE
  5
696
100
AcDbEntity
  8
M0
100
AcDbLine
 10
109.675835
 20
333.267513
 11
112.675835
 21
333.267513
  0
LINE
  5
697
100
AcDbEntity
  8
M0
100
AcDbLine
 10
118.975835
 20
340.467513
 11
118.975835
 21
339.467513
  0
LINE
  5
698
100
AcDbEntity
  8
M0
100
AcDbLine
 10
118.075834
 20
340.967513
 11
116.075834
 21
340.967513
  0
ARC
  5
699
100
AcDbEntity
  8
M0
100
AcDbCircle
 10
130.575835
 20
347.967513
 40
1.0
100
AcDbArc
 50
90.0
 51
180.0
  0
ARC
  5
69A
100
AcDbEntity
  8
M0
100
AcDbCircle
 10
169.175835
 20
356.067513
 40
1.0
100
AcDbArc
 50
0.0
 51
90.0
  0
ARC
  5
69B
100
AcDbEntity
  8
M0
100
AcDbCircle
 10
169.175835
 20
317.867513
 40
1.0
100
AcDbArc
 50
270.0
 51
360.0
  0
ARC
  5
69C
100
AcDbEntity
  8
M0
100
AcDbCircle
 10
130.575835
 20
325.967513
 40
1.0
100
AcDbArc
 50
180.0
 51
270.0
  0
ARC
  5
69D
100
AcDbEntity
  8
M0
100
AcDbCircle
 10
144.825835
 20
347.967513
 40
1.0
100
AcDbArc
 50
90.0
 51
180.0
  0
ARC
  5
69E
100
AcDbEntity
  8
M0
100
AcDbCircle
 10
146.975835
 20
329.467513
 40
1.0
100
AcDbArc
 50
0.0
 51
90.0
  0
ARC
  5
69F
100
AcDbEntity
  8
M0
100
AcDbCircle
 10
169.175835
 20
341.667513
 40
1.0
100
AcDbArc
 50
270.0
 51
360.0
  0
ARC
  5
6A0
100
AcDbEntity
  8
M0
100
AcDbCircle
 10
144.325835
 20
342.067513
 40
0.5
100
AcDbArc
 50
180.0
 51
270.0
  0
ARC
  5
6A1
100
AcDbEntity
  8
M0
100
AcDbCircle
 10
108.675835
 20
356.067513
 40
1.0
100
AcDbArc
 50
0.0
 51
90.0
  0
ARC
  5
6A2
100
AcDbEntity
  8
M0
100
AcDbCircle
 10
155.875835
 20
353.667513
 40
1.0
100
AcDbArc
 50
90.0
 51
135.572996
  0
ARC
  5
6A3
100
AcDbEntity
  8
M0
100
AcDbCircle
 10
108.375835
 20
341.667513
 40
1.0
100
AcDbArc
 50
180.0
 51
270.0
  0
ARC
  5
6A4
100
AcDbEntity
  8
M0
100
AcDbCircle
 10
108.675835
 20
332.267513
 40
1.0
100
AcDbArc
 50
0.0
 51
90.0
  0
ARC
  5
6A5
100
AcDbEntity
  8
M0
100
AcDbCircle
 10
129.875835
 20
320.267513
 40
1.0
100
AcDbArc
 50
224.427004
 51
270.0
  0
ARC
  5
6A6
100
AcDbEntity
  8
M0
100
AcDbCircle
 10
121.675835
 20
320.267513
 40
1.0
100
AcDbArc
 50
270.0
 51
315.572996
  0
ARC
  5
6A7
100
AcDbEntity
  8
M0
100
AcDbCircle
 10
146.975835
 20
347.967513
 40
1.0
100
AcDbArc
 50
0.0
 51
90.0
  0
LINE
  5
6A8
100
AcDbEntity
  8
M0
  6
DASHDOT
100
AcDbLine
 10
164.475834
 20
357.867513
 11
163.475834
 21
357.867513
  0
LINE
  5
6A9
100
AcDbEntity
  8
M0
  6
DASHDOT
100
AcDbLine
 10
125.275835
 20
360.667513
 11
126.275835
 21
360.667513
  0
LINE
  5
6AA
100
AcDbEntity
  8
M0
  6
DASHDOT
100
AcDbLine
 10
164.475834
 20
350.267513
 11
163.475834
 21
350.267513
  0
LINE
  5
6AB
100
AcDbEntity
  8
M0
  6
DASHDOT
100
AcDbLine
 10
163.975834
 20
357.367513
 11
163.975834
 21
358.367513
  0
LINE
  5
6AC
100
AcDbEntity
  8
M0
  6
DASHDOT
100
AcDbLine
 10
138.275831
 20
360.667513
 11
139.275831
 21
360.667513
  0
LINE
  5
6AD
100
AcDbEntity
  8
M0
  6
DASHDOT
100
AcDbLine
 10
151.275831
 20
360.667513
 11
152.275831
 21
360.667513
  0
LINE
  5
6AE
100
AcDbEntity
  8
M0
  6
DASHDOT
100
AcDbLine
 10
138.775831
 20
361.167513
 11
138.775831
 21
360.167513
  0
LINE
  5
6AF
100
AcDbEntity
  8
M0
  6
DASHDOT
100
AcDbLine
 10
125.775835
 20
361.167513
 11
125.775835
 21
360.167513
  0
LINE
  5
6B0
100
AcDbEntity
  8
M0
  6
DASHDOT
100
AcDbLine
 10
113.075835
 20
350.267513
 11
114.075835
 21
350.267513
  0
LINE
  5
6B1
100
AcDbEntity
  8
M0
  6
DASHDOT
100
AcDbLine
 10
163.975834
 20
315.567513
 11
163.975834
 21
316.567513
  0
ARC
  5
6B2
100
AcDbEntity
  8
M0
100
AcDbCircle
 10
155.875835
 20
320.267513
 40
1.0
100
AcDbArc
 50
224.427004
 51
270.0
  0
ARC
  5
6B3
100
AcDbEntity
  8
M0
100
AcDbCircle
 10
134.675835
 20
353.667513
 40
1.0
100
AcDbArc
 50
44.427004
 51
90.0
  0
LINE
  5
6B4
100
AcDbEntity
  8
M0
  6
DASHDOT
100
AcDbLine
 10
164.475834
 20
323.667513
 11
163.475834
 21
323.667513
  0
LINE
  5
6B5
100
AcDbEntity
  8
M0
  6
DASHDOT
100
AcDbLine
 10
163.975834
 20
349.767513
 11
163.975834
 21
350.767513
  0
LINE
  5
6B6
100
AcDbEntity
  8
M0
  6
DASHDOT
100
AcDbLine
 10
164.475834
 20
316.067513
 11
163.475834
 21
316.067513
  0
LINE
  5
6B7
100
AcDbEntity
  8
M0
  6
DASHDOT
100
AcDbLine
 10
163.975834
 20
323.167513
 11
163.975834
 21
324.167513
  0
LINE
  5
6B8
100
AcDbEntity
  8
M0
100
AcDbLine
 10
122.037286
 20
380.18256
 11
122.046239
 21
380.481031
  0
LINE
  5
6B9
100
AcDbEntity
  8
M0
100
AcDbLine
 10
122.037038
 20
380.174308
 11
122.037286
 21
380.18256
  0
LINE
  5
6BA
100
AcDbEntity
  8
M0
100
AcDbLine
 10
122.052895
 20
380.702816
 11
122.05699
 21
380.839389
  0
LINE
  5
6BB
100
AcDbEntity
  8
M0
100
AcDbLine
 10
122.046239
 20
380.481031
 11
122.052895
 21
380.702816
  0
LINE
  5
6BC
100
AcDbEntity
  8
M0
100
AcDbLine
 10
155.497636
 20
380.740765
 11
155.502941
 21
380.563967
  0
LINE
  5
6BD
100
AcDbEntity
  8
M0
100
AcDbLine
 10
155.494388
 20
380.849045
 11
155.497636
 21
380.740765
  0
LINE
  5
6BE
100
AcDbEntity
  8
M0
100
AcDbLine
 10
155.510138
 20
380.324013
 11
155.514631
 21
380.174309
  0
LINE
  5
6BF
100
AcDbEntity
  8
M0
100
AcDbLine
 10
155.502941
 20
380.563967
 11
155.510138
 21
380.324013
  0
LINE
  5
6C0
100
AcDbEntity
  8
M0
  6
DASHDOT
100
AcDbLine
 10
151.775831
 20
312.767513
 11
151.775831
 21
313.767513
  0
LINE
  5
6C1
100
AcDbEntity
  8
M0
  6
DASHDOT
100
AcDbLine
 10
138.275831
 20
313.267513
 11
139.275831
 21
313.267513
  0
LINE
  5
6C2
100
AcDbEntity
  8
M0
  6
DASHDOT
100
AcDbLine
 10
151.775831
 20
361.167513
 11
151.775831
 21
360.167513
  0
LINE
  5
6C3
100
AcDbEntity
  8
M0
  6
DASHDOT
100
AcDbLine
 10
151.275831
 20
313.267513
 11
152.275831
 21
313.267513
  0
LINE
  5
6C4
100
AcDbEntity
  8
M0
  6
DASHDOT
100
AcDbLine
 10
125.275835
 20
313.267513
 11
126.275835
 21
313.267513
  0
LINE
  5
6C5
100
AcDbEntity
  8
M0
100
AcDbLine
 10
122.05699
 20
380.839389
 11
122.058374
 21
380.885504
  0
LINE
  5
6C6
100
AcDbEntity
  8
M0
  6
DASHDOT
100
AcDbLine
 10
138.775831
 20
312.767513
 11
138.775831
 21
313.767513
  0
LINE
  5
6C7
100
AcDbEntity
  8
M0
  6
DASHDOT
100
AcDbLine
 10
125.775835
 20
312.767513
 11
125.775835
 21
313.767513
  0
LINE
  5
6C8
100
AcDbEntity
  8
M0
100
AcDbLine
 10
133.940416
 20
365.967514
 11
133.475836
 21
365.967514
  0
LINE
  5
6C9
100
AcDbEntity
  8
M0
100
AcDbLine
 10
141.875831
 20
367.967512
 11
144.075833
 21
367.967512
  0
LINE
  5
6CA
100
AcDbEntity
  8
M0
100
AcDbLine
 10
127.775835
 20
367.967512
 11
131.075836
 21
367.967512
  0
LINE
  5
6CB
100
AcDbEntity
  8
M0
100
AcDbLine
 10
120.775835
 20
365.967514
 11
120.475834
 21
365.967514
  0
LINE
  5
6CC
100
AcDbEntity
  8
M0
  6
DASHDOT
100
AcDbLine
 10
127.875834
 20
375.067513
 11
127.875834
 21
376.067513
  0
LINE
  5
6CD
100
AcDbEntity
  8
M0
  6
DASHDOT
100
AcDbLine
 10
128.375834
 20
375.567513
 11
127.375834
 21
375.567513
  0
LINE
  5
6CE
100
AcDbEntity
  8
M0
100
AcDbLine
 10
135.675831
 20
369.967513
 11
133.475836
 21
369.967513
  0
LINE
  5
6CF
100
AcDbEntity
  8
M0
100
AcDbLine
 10
135.675831
 20
371.467514
 11
134.475834
 21
371.467514
  0
LINE
  5
6D0
100
AcDbEntity
  8
M0
100
AcDbLine
 10
135.675831
 20
304.467514
 11
133.475836
 21
304.467514
  0
LINE
  5
6D1
100
AcDbEntity
  8
M0
100
AcDbLine
 10
141.875831
 20
303.467512
 11
143.275834
 21
303.467512
  0
LINE
  5
6D2
100
AcDbEntity
  8
M0
100
AcDbLine
 10
130.611251
 20
307.967514
 11
131.075836
 21
307.967514
  0
LINE
  5
6D3
100
AcDbEntity
  8
M0
100
AcDbLine
 10
143.611247
 20
307.967514
 11
144.075833
 21
307.967514
  0
LINE
  5
6D4
100
AcDbEntity
  8
M0
100
AcDbLine
 10
149.775834
 20
367.967512
 11
146.475836
 21
367.967512
  0
LINE
  5
6D5
100
AcDbEntity
  8
M0
100
AcDbLine
 10
146.940419
 20
365.967514
 11
146.475836
 21
365.967514
  0
LINE
  5
6D6
100
AcDbEntity
  8
M0
100
AcDbLine
 10
135.675831
 20
301.467512
 11
133.775834
 21
301.467512
  0
LINE
  5
6D7
100
AcDbEntity
  8
M0
100
AcDbLine
 10
156.775834
 20
307.967514
 11
157.075833
 21
307.967514
  0
ARC
  5
6D8
100
AcDbEntity
  8
M0
100
AcDbCircle
 10
121.675835
 20
353.667513
 40
1.0
100
AcDbArc
 50
44.427004
 51
90.0
  0
ARC
  5
6D9
100
AcDbEntity
  8
M0
100
AcDbCircle
 10
147.675835
 20
320.267513
 40
1.0
100
AcDbArc
 50
270.0
 51
315.572996
  0
LINE
  5
6DA
100
AcDbEntity
  8
M0
  6
DASHDOT
100
AcDbLine
 10
113.575835
 20
349.767513
 11
113.575835
 21
350.767513
  0
ARC
  5
6DB
100
AcDbEntity
  8
M0
100
AcDbCircle
 10
134.675835
 20
320.267513
 40
1.0
100
AcDbArc
 50
270.0
 51
315.572996
  0
ARC
  5
6DC
100
AcDbEntity
  8
M0
100
AcDbCircle
 10
147.675835
 20
353.667513
 40
1.0
100
AcDbArc
 50
44.427004
 51
90.0
  0
ARC
  5
6DD
100
AcDbEntity
  8
M0
100
AcDbCircle
 10
142.875835
 20
353.667513
 40
1.0
100
AcDbArc
 50
90.0
 51
135.572996
  0
ARC
  5
6DE
100
AcDbEntity
  8
M0
100
AcDbCircle
 10
142.875835
 20
320.267513
 40
1.0
100
AcDbArc
 50
224.427004
 51
270.0
  0
ARC
  5
6DF
100
AcDbEntity
  8
M0
100
AcDbCircle
 10
129.875835
 20
353.667513
 40
1.0
100
AcDbArc
 50
90.0
 51
135.572996
  0
LINE
  5
6E0
100
AcDbEntity
  8
M0
  6
DASHDOT
100
AcDbLine
 10
113.575835
 20
323.167513
 11
113.575835
 21
324.167513
  0
LINE
  5
6E1
100
AcDbEntity
  8
M0
  6
DASHDOT
100
AcDbLine
 10
113.075835
 20
323.667513
 11
114.075835
 21
323.667513
  0
LINE
  5
6E2
100
AcDbEntity
  8
M0
  6
DASHDOT
100
AcDbLine
 10
149.675835
 20
375.067513
 11
149.675835
 21
376.067513
  0
LINE
  5
6E3
100
AcDbEntity
  8
M0
  6
DASHDOT
100
AcDbLine
 10
149.175835
 20
375.567513
 11
150.175835
 21
375.567513
  0
LINE
  5
6E4
100
AcDbEntity
  8
M0
  6
DASHDOT
100
AcDbLine
 10
113.575835
 20
357.367513
 11
113.575835
 21
358.367513
  0
LINE
  5
6E5
100
AcDbEntity
  8
M0
  6
DASHDOT
100
AcDbLine
 10
113.075835
 20
357.867513
 11
114.075835
 21
357.867513
  0
LINE
  5
6E6
100
AcDbEntity
  8
M0
  6
DASHDOT
100
AcDbLine
 10
113.575835
 20
315.567513
 11
113.575835
 21
316.567513
  0
LINE
  5
6E7
100
AcDbEntity
  8
M0
  6
DASHDOT
100
AcDbLine
 10
113.075835
 20
316.067513
 11
114.075835
 21
316.067513
  0
LINE
  5
6E8
100
AcDbEntity
  8
M0
100
AcDbLine
 10
160.975836
 20
311.267514
 11
160.975836
 21
312.267514
  0
LINE
  5
6E9
100
AcDbEntity
  8
M0
100
AcDbLine
 10
109.675835
 20
332.267513
 11
109.675835
 21
310.267513
  0
LINE
  5
6EA
100
AcDbEntity
  8
M0
100
AcDbLine
 10
166.975837
 20
312.267514
 11
166.975837
 21
311.267514
  0
LINE
  5
6EB
100
AcDbEntity
  8
M0
100
AcDbLine
 10
166.975837
 20
311.267514
 11
160.975836
 21
311.267514
  0
LINE
  5
6EC
100
AcDbEntity
  8
M0
100
AcDbLine
 10
108.575835
 20
316.867513
 11
108.675834
 21
316.867513
  0
LINE
  5
6ED
100
AcDbEntity
  8
M0
100
AcDbLine
 10
168.975833
 20
316.867513
 11
168.875832
 21
316.867513
  0
LINE
  5
6EE
100
AcDbEntity
  8
M0
100
AcDbLine
 10
117.475835
 20
346.267513
 11
117.475835
 21
364.067513
  0
LINE
  5
6EF
100
AcDbEntity
  8
M0
100
AcDbLine
 10
117.475835
 20
309.867512
 11
117.475835
 21
327.667513
  0
ARC
  5
6F0
100
AcDbEntity
  8
M0
100
AcDbCircle
 10
125.775835
 20
304.467513
 40
3.25
100
AcDbArc
 50
0.0
 51
47.231455
  0
ARC
  5
6F1
100
AcDbEntity
  8
M0
100
AcDbCircle
 10
147.775835
 20
302.467513
 40
1.0
100
AcDbArc
 50
180.0
 51
270.0
  0
ARC
  5
6F2
100
AcDbEntity
  8
M0
100
AcDbCircle
 10
129.525835
 20
301.967513
 40
0.5
100
AcDbArc
 50
180.0
 51
270.0
  0
ARC
  5
6F3
100
AcDbEntity
  8
M0
100
AcDbCircle
 10
146.775835
 20
305.467513
 40
1.0
100
AcDbArc
 50
270.0
 51
360.0
  0
ARC
  5
6F4
100
AcDbEntity
  8
M0
100
AcDbCircle
 10
134.475835
 20
378.967513
 40
1.0
100
AcDbArc
 50
134.427281
 51
180.0
  0
LINE
  5
6F5
100
AcDbEntity
  8
M0
100
AcDbLine
 10
117.475835
 20
354.067513
 11
109.675835
 21
354.067513
  0
ARC
  5
6F6
100
AcDbEntity
  8
M0
100
AcDbCircle
 10
129.775835
 20
302.467513
 40
1.0
100
AcDbArc
 50
270.0
 51
360.0
  0
ARC
  5
6F7
100
AcDbEntity
  8
M0
100
AcDbCircle
 10
143.075835
 20
378.967513
 40
1.0
100
AcDbArc
 50
0.0
 51
45.573273
  0
LINE
  5
6F8
100
AcDbEntity
  8
M0
100
AcDbLine
 10
146.475836
 20
319.567512
 11
146.475836
 21
302.467513
  0
LINE
  5
6F9
100
AcDbEntity
  8
M0
100
AcDbLine
 10
131.075836
 20
371.467513
 11
131.075836
 21
354.367513
  0
LINE
  5
6FA
100
AcDbEntity
  8
M0
100
AcDbLine
 10
146.475836
 20
371.467513
 11
146.475836
 21
354.367513
  0
LINE
  5
6FB
100
AcDbEntity
  8
M0
100
AcDbLine
 10
144.075833
 20
302.467513
 11
144.075833
 21
319.567512
  0
LINE
  5
6FC
100
AcDbEntity
  8
M0
100
AcDbLine
 10
158.275835
 20
372.467514
 11
158.075835
 21
372.467514
  0
ARC
  5
6FD
100
AcDbEntity
  8
M0
100
AcDbCircle
 10
130.575835
 20
329.467513
 40
1.0
100
AcDbArc
 50
90.0
 51
180.0
  0
LINE
  5
6FE
100
AcDbEntity
  8
M0
100
AcDbLine
 10
133.475836
 20
302.467513
 11
133.475836
 21
319.567512
  0
LINE
  5
6FF
100
AcDbEntity
  8
M0
100
AcDbLine
 10
157.075833
 20
371.467514
 11
157.075833
 21
354.367513
  0
LINE
  5
700
100
AcDbEntity
  8
M0
100
AcDbLine
 10
168.975833
 20
357.067512
 11
168.875832
 21
357.067512
  0
LINE
  5
701
100
AcDbEntity
  8
M0
100
AcDbLine
 10
169.175837
 20
364.667512
 11
168.875832
 21
364.667512
  0
LINE
  5
702
100
AcDbEntity
  8
M0
100
AcDbLine
 10
108.575835
 20
357.067512
 11
108.675834
 21
357.067512
  0
LINE
  5
703
100
AcDbEntity
  8
M0
100
AcDbLine
 10
120.475834
 20
371.467514
 11
120.475834
 21
354.367513
  0
LINE
  5
704
100
AcDbEntity
  8
M0
100
AcDbLine
 10
144.075833
 20
304.467514
 11
144.075833
 21
305.467512
  0
LINE
  5
705
100
AcDbEntity
  8
M0
100
AcDbLine
 10
144.075833
 20
354.367513
 11
144.075833
 21
378.967513
  0
LINE
  5
706
100
AcDbEntity
  8
M0
100
AcDbLine
 10
168.875832
 20
309.267513
 11
169.175837
 21
309.267513
  0
LINE
  5
707
100
AcDbEntity
  8
M0
100
AcDbLine
 10
144.075833
 20
369.467513
 11
144.075833
 21
368.467513
  0
LINE
  5
708
100
AcDbEntity
  8
M0
100
AcDbLine
 10
147.675834
 20
354.667512
 11
146.475836
 21
354.667512
  0
LINE
  5
709
100
AcDbEntity
  8
M0
100
AcDbLine
 10
131.075836
 20
365.967514
 11
130.61125
 21
365.967514
  0
LINE
  5
70A
100
AcDbEntity
  8
M0
100
AcDbLine
 10
134.675834
 20
319.267513
 11
133.475836
 21
319.267513
  0
LINE
  5
70B
100
AcDbEntity
  8
M0
100
AcDbLine
 10
142.875835
 20
319.267513
 11
144.075833
 21
319.267513
  0
LINE
  5
70C
100
AcDbEntity
  8
M0
100
AcDbLine
 10
160.075835
 20
319.867512
 11
167.875837
 21
319.867512
  0
LINE
  5
70D
100
AcDbEntity
  8
M0
100
AcDbLine
 10
109.675835
 20
319.867512
 11
117.475835
 21
319.867512
  0
LINE
  5
70E
100
AcDbEntity
  8
M0
100
AcDbLine
 10
129.875835
 20
354.667512
 11
131.075836
 21
354.667512
  0
LINE
  5
70F
100
AcDbEntity
  8
M0
100
AcDbLine
 10
121.675834
 20
354.667512
 11
120.475834
 21
354.667512
  0
LINE
  5
710
100
AcDbEntity
  8
M0
100
AcDbLine
 10
116.575835
 20
312.267514
 11
116.575835
 21
311.267514
  0
LINE
  5
711
100
AcDbEntity
  8
M0
100
AcDbLine
 10
116.575835
 20
311.267514
 11
110.575835
 21
311.267514
  0
LINE
  5
712
100
AcDbEntity
  8
M0
100
AcDbLine
 10
155.493296
 20
380.885504
 11
155.494388
 21
380.849045
  0
LINE
  5
713
100
AcDbEntity
  8
M0
100
AcDbLine
 10
110.575835
 20
311.267514
 11
110.575835
 21
312.267514
  0
LINE
  5
714
100
AcDbEntity
  8
M0
100
AcDbLine
 10
110.575835
 20
362.667514
 11
116.575835
 21
362.667514
  0
LINE
  5
715
100
AcDbEntity
  8
M0
100
AcDbLine
 10
133.475836
 20
307.967514
 11
133.940415
 21
307.967514
  0
LINE
  5
716
100
AcDbEntity
  8
M0
100
AcDbLine
 10
116.575835
 20
362.667514
 11
116.575835
 21
361.667514
  0
LINE
  5
717
100
AcDbEntity
  8
M0
100
AcDbLine
 10
110.575835
 20
361.667514
 11
110.575835
 21
362.667514
  0
ARC
  5
718
100
AcDbEntity
  8
M0
100
AcDbCircle
 10
159.475835
 20
364.067513
 40
0.6
100
AcDbArc
 50
0.0
 51
90.0
  0
ARC
  5
719
100
AcDbEntity
  8
M0
100
AcDbCircle
 10
118.075835
 20
309.867513
 40
0.6
100
AcDbArc
 50
180.0
 51
270.0
  0
ARC
  5
71A
100
AcDbEntity
  8
M0
100
AcDbCircle
 10
118.075835
 20
364.067513
 40
0.6
100
AcDbArc
 50
90.0
 51
180.0
  0
ARC
  5
71B
100
AcDbEntity
  8
M0
100
AcDbCircle
 10
108.675835
 20
363.667513
 40
1.0
100
AcDbArc
 50
0.0
 51
90.0
  0
ARC
  5
71C
100
AcDbEntity
  8
M0
100
AcDbCircle
 10
108.375835
 20
363.667513
 40
1.0
100
AcDbArc
 50
90.0
 51
180.0
  0
ARC
  5
71D
100
AcDbEntity
  8
M0
100
AcDbCircle
 10
130.775835
 20
305.467513
 40
1.0
100
AcDbArc
 50
180.0
 51
270.0
  0
ARC
  5
71E
100
AcDbEntity
  8
M0
100
AcDbCircle
 10
108.675835
 20
310.267513
 40
1.0
100
AcDbArc
 50
270.0
 51
360.0
  0
ARC
  5
71F
100
AcDbEntity
  8
M0
100
AcDbCircle
 10
108.375835
 20
310.267513
 40
1.0
100
AcDbArc
 50
180.0
 51
270.0
  0
LINE
  5
720
100
AcDbEntity
  8
M0
100
AcDbLine
 10
160.975836
 20
362.667514
 11
166.975837
 21
362.667514
  0
ARC
  5
721
100
AcDbEntity
  8
M0
100
AcDbCircle
 10
169.175835
 20
310.267513
 40
1.0
100
AcDbArc
 50
270.0
 51
360.0
  0
LINE
  5
722
100
AcDbEntity
  8
M0
100
AcDbLine
 10
166.975837
 20
362.667514
 11
166.975837
 21
361.667514
  0
LINE
  5
723
100
AcDbEntity
  8
M0
100
AcDbLine
 10
160.975836
 20
361.667514
 11
160.975836
 21
362.667514
  0
ARC
  5
724
100
AcDbEntity
  8
M0
100
AcDbCircle
 10
168.875835
 20
363.667513
 40
1.0
100
AcDbArc
 50
90.0
 51
180.0
  0
ARC
  5
725
100
AcDbEntity
  8
M0
100
AcDbCircle
 10
168.875835
 20
310.267513
 40
1.0
100
AcDbArc
 50
180.0
 51
270.0
  0
ARC
  5
726
100
AcDbEntity
  8
M0
100
AcDbCircle
 10
169.175835
 20
363.667513
 40
1.0
100
AcDbArc
 50
0.0
 51
90.0
  0
ARC
  5
727
100
AcDbEntity
  8
M0
100
AcDbCircle
 10
159.475835
 20
309.867513
 40
0.6
100
AcDbArc
 50
270.0
 51
360.0
  0
LINE
  5
728
100
AcDbEntity
  8
M0
100
AcDbLine
 10
137.575835
 20
350.767513
 11
137.575835
 21
349.167512
  0
LINE
  5
729
100
AcDbEntity
  8
M0
100
AcDbLine
 10
139.975834
 20
349.167512
 11
137.575835
 21
349.167512
  0
LINE
  5
72A
100
AcDbEntity
  8
M0
100
AcDbLine
 10
117.275834
 20
334.467513
 11
119.075834
 21
334.467513
  0
LINE
  5
72B
100
AcDbEntity
  8
M0
100
AcDbLine
 10
118.275834
 20
339.467513
 11
119.075834
 21
339.467513
  0
LINE
  5
72C
100
AcDbEntity
  8
M0
100
AcDbLine
 10
109.525835
 20
364.967514
 11
109.525835
 21
366.967512
  0
LINE
  5
72D
100
AcDbEntity
  8
M0
100
AcDbLine
 10
114.025835
 20
366.967512
 11
114.025835
 21
364.967514
  0
LINE
  5
72E
100
AcDbEntity
  8
M0
100
AcDbLine
 10
160.275835
 20
334.467513
 11
158.475834
 21
334.467513
  0
LINE
  5
72F
100
AcDbEntity
  8
M0
100
AcDbLine
 10
158.475834
 20
333.467513
 11
158.475834
 21
334.467513
  0
LINE
  5
730
100
AcDbEntity
  8
M0
100
AcDbLine
 10
144.075833
 20
349.167512
 11
147.675834
 21
349.167512
  0
LINE
  5
731
100
AcDbEntity
  8
M0
100
AcDbLine
 10
139.975834
 20
350.767513
 11
139.975834
 21
349.167512
  0
LINE
  5
732
100
AcDbEntity
  8
M0
100
AcDbLine
 10
160.075835
 20
312.267514
 11
160.975836
 21
312.267514
  0
LINE
  5
733
100
AcDbEntity
  8
M0
100
AcDbLine
 10
148.175835
 20
325.267513
 11
148.175835
 21
348.667513
  0
LINE
  5
734
100
AcDbEntity
  8
M0
100
AcDbLine
 10
119.075834
 20
340.467513
 11
119.075834
 21
339.467513
  0
LINE
  5
735
100
AcDbEntity
  8
M0
100
AcDbLine
 10
158.475834
 20
340.467513
 11
158.475834
 21
339.467513
  0
LINE
  5
736
100
AcDbEntity
  8
M0
100
AcDbLine
 10
139.975834
 20
350.767513
 11
137.575835
 21
350.767513
  0
LINE
  5
737
100
AcDbEntity
  8
M0
100
AcDbLine
 10
143.075835
 20
348.167513
 11
134.475834
 21
348.167513
  0
LINE
  5
738
100
AcDbEntity
  8
M0
100
AcDbLine
 10
144.175835
 20
371.903402
 11
144.175835
 21
380.467511
  0
LINE
  5
739
100
AcDbEntity
  8
M0
100
AcDbLine
 10
160.275835
 20
335.467513
 11
160.775836
 21
335.467513
  0
LINE
  5
73A
100
AcDbEntity
  8
M0
100
AcDbLine
 10
127.221903
 20
371.467514
 11
131.075836
 21
371.467514
  0
LINE
  5
73B
100
AcDbEntity
  8
M0
100
AcDbLine
 10
131.075836
 20
369.967513
 11
127.740445
 21
369.967513
  0
LINE
  5
73C
100
AcDbEntity
  8
M0
100
AcDbLine
 10
131.875835
 20
379.967514
 11
123.575834
 21
379.967514
  0
LINE
  5
73D
100
AcDbEntity
  8
M0
100
AcDbLine
 10
149.811224
 20
369.967513
 11
146.475836
 21
369.967513
  0
LINE
  5
73E
100
AcDbEntity
  8
M0
100
AcDbLine
 10
145.675834
 20
380.467511
 11
145.675834
 21
372.447308
  0
LINE
  5
73F
100
AcDbEntity
  8
M0
100
AcDbLine
 10
153.975833
 20
379.967514
 11
145.675834
 21
379.967514
  0
LINE
  5
740
100
AcDbEntity
  8
M0
100
AcDbLine
 10
163.525838
 20
308.967512
 11
163.525838
 21
306.967512
  0
LINE
  5
741
100
AcDbEntity
  8
M0
100
AcDbLine
 10
159.475833
 20
307.467513
 11
161.475833
 21
307.467513
  0
LINE
  5
742
100
AcDbEntity
  8
M0
100
AcDbLine
 10
107.375835
 20
306.467514
 11
107.375835
 21
367.467513
  0
LINE
  5
743
100
AcDbEntity
  8
M0
100
AcDbLine
 10
168.025832
 20
306.967512
 11
168.025832
 21
308.967512
  0
LINE
  5
744
100
AcDbEntity
  8
M0
100
AcDbLine
 10
116.075834
 20
307.467513
 11
118.075834
 21
307.467513
  0
LINE
  5
745
100
AcDbEntity
  8
M0
100
AcDbLine
 10
165.175836
 20
301.467512
 11
158.075835
 21
301.467512
  0
LINE
  5
746
100
AcDbEntity
  8
M0
100
AcDbLine
 10
161.475833
 20
307.467513
 11
161.475833
 21
311.267514
  0
LINE
  5
747
100
AcDbEntity
  8
M0
100
AcDbLine
 10
116.075834
 20
311.267514
 11
116.075834
 21
307.467513
  0
ARC
  5
748
100
AcDbEntity
  8
M0
100
AcDbCircle
 10
144.075835
 20
348.667513
 40
0.5
100
AcDbArc
 50
90.0
 51
180.0
  0
ARC
  5
749
100
AcDbEntity
  8
M0
100
AcDbCircle
 10
158.475835
 20
320.567513
 40
1.0
100
AcDbArc
 50
270.0
 51
360.0
  0
ARC
  5
74A
100
AcDbEntity
  8
M0
100
AcDbCircle
 10
134.475835
 20
348.667513
 40
0.5
100
AcDbArc
 50
180.0
 51
270.0
  0
ARC
  5
74B
100
AcDbEntity
  8
M0
100
AcDbCircle
 10
147.675835
 20
348.667513
 40
0.5
100
AcDbArc
 50
0.0
 51
90.0
  0
ARC
  5
74C
100
AcDbEntity
  8
M0
100
AcDbCircle
 10
141.025835
 20
340.767513
 40
0.5
100
AcDbArc
 50
90.0
 51
180.0
  0
ARC
  5
74D
100
AcDbEntity
  8
M0
100
AcDbCircle
 10
143.575835
 20
340.767513
 40
0.5
100
AcDbArc
 50
0.0
 51
90.0
  0
ARC
  5
74E
100
AcDbEntity
  8
M0
100
AcDbCircle
 10
158.475835
 20
353.367513
 40
1.0
100
AcDbArc
 50
0.0
 51
90.0
  0
ARC
  5
74F
100
AcDbEntity
  8
M0
100
AcDbCircle
 10
143.575835
 20
332.567513
 40
0.5
100
AcDbArc
 50
270.0
 51
360.0
  0
LINE
  5
750
100
AcDbEntity
  8
M0
100
AcDbLine
 10
160.275835
 20
334.467513
 11
160.275835
 21
339.467513
  0
LINE
  5
751
100
AcDbEntity
  8
M0
100
AcDbLine
 10
159.475833
 20
340.467513
 11
158.475834
 21
340.467513
  0
LINE
  5
752
100
AcDbEntity
  8
M0
100
AcDbLine
 10
159.475833
 20
333.467513
 11
158.475834
 21
333.467513
  0
LINE
  5
753
100
AcDbEntity
  8
M0
100
AcDbLine
 10
158.475834
 20
319.567512
 11
119.075834
 21
319.567512
  0
LINE
  5
754
100
AcDbEntity
  8
M0
100
AcDbLine
 10
123.575834
 20
380.867514
 11
123.575834
 21
377.401412
  0
ARC
  5
755
100
AcDbEntity
  8
M0
100
AcDbCircle
 10
143.075835
 20
348.667513
 40
0.5
100
AcDbArc
 50
270.0
 51
360.0
  0
LINE
  5
756
100
AcDbEntity
  8
M0
100
AcDbLine
 10
159.975834
 20
304.467514
 11
160.975836
 21
304.467514
  0
LINE
  5
757
100
AcDbEntity
  8
M0
100
AcDbLine
 10
122.658105
 20
381.467513
 11
122.975835
 21
381.467513
  0
LINE
  5
758
100
AcDbEntity
  8
M0
100
AcDbLine
 10
168.975833
 20
364.667512
 11
168.875832
 21
364.667512
  0
LINE
  5
759
100
AcDbEntity
  8
M0
100
AcDbLine
 10
167.875837
 20
361.667514
 11
166.975837
 21
361.667514
  0
LINE
  5
75A
100
AcDbEntity
  8
M0
100
AcDbLine
 10
126.608125
 20
301.467512
 11
129.775835
 21
301.467512
  0
LINE
  5
75B
100
AcDbEntity
  8
M0
100
AcDbLine
 10
109.675835
 20
361.667514
 11
110.575835
 21
361.667514
  0
LINE
  5
75C
100
AcDbEntity
  8
M0
100
AcDbLine
 10
116.575835
 20
361.667514
 11
117.475835
 21
361.667514
  0
LINE
  5
75D
100
AcDbEntity
  8
M0
100
AcDbLine
 10
166.975837
 20
312.267514
 11
167.875837
 21
312.267514
  0
LINE
  5
75E
100
AcDbEntity
  8
M0
100
AcDbLine
 10
168.975833
 20
309.267513
 11
168.875832
 21
309.267513
  0
LINE
  5
75F
100
AcDbEntity
  8
M0
100
AcDbLine
 10
160.975836
 20
361.667514
 11
160.075835
 21
361.667514
  0
ARC
  5
760
100
AcDbEntity
  8
M0
100
AcDbCircle
 10
133.975835
 20
340.767513
 40
0.5
100
AcDbArc
 50
90.0
 51
180.0
  0
ARC
  5
761
100
AcDbEntity
  8
M0
100
AcDbCircle
 10
144.675835
 20
380.467513
 40
1.0
100
AcDbArc
 50
0.0
 51
90.0
  0
ARC
  5
762
100
AcDbEntity
  8
M0
100
AcDbCircle
 10
133.975835
 20
332.567513
 40
0.5
100
AcDbArc
 50
180.0
 51
270.0
  0
ARC
  5
763
100
AcDbEntity
  8
M0
100
AcDbCircle
 10
136.525835
 20
340.767513
 40
0.5
100
AcDbArc
 50
0.0
 51
90.0
  0
LINE
  5
764
100
AcDbEntity
  8
M0
100
AcDbLine
 10
117.475835
 20
312.267514
 11
116.575835
 21
312.267514
  0
LINE
  5
765
100
AcDbEntity
  8
M0
100
AcDbLine
 10
108.575835
 20
309.267513
 11
108.675834
 21
309.267513
  0
LINE
  5
766
100
AcDbEntity
  8
M0
100
AcDbLine
 10
108.575835
 20
364.667512
 11
108.675834
 21
364.667512
  0
LINE
  5
767
100
AcDbEntity
  8
M0
100
AcDbLine
 10
110.575835
 20
312.267514
 11
109.675835
 21
312.267514
  0
LINE
  5
768
100
AcDbEntity
  8
M0
100
AcDbLine
 10
118.075834
 20
302.467513
 11
118.075834
 21
333.467513
  0
LINE
  5
769
100
AcDbEntity
  8
M0
100
AcDbLine
 10
118.075834
 20
333.467513
 11
119.075834
 21
333.467513
  0
LINE
  5
76A
100
AcDbEntity
  8
M0
100
AcDbLine
 10
116.775835
 20
338.467513
 11
117.275834
 21
338.467513
  0
LINE
  5
76B
100
AcDbEntity
  8
M0
100
AcDbLine
 10
118.075834
 20
340.467513
 11
119.075834
 21
340.467513
  0
LINE
  5
76C
100
AcDbEntity
  8
M0
100
AcDbLine
 10
143.775835
 20
301.467512
 11
141.875831
 21
301.467512
  0
LINE
  5
76D
100
AcDbEntity
  8
M0
100
AcDbLine
 10
143.775835
 20
303.967513
 11
143.775835
 21
304.467514
  0
LINE
  5
76E
100
AcDbEntity
  8
M0
100
AcDbLine
 10
117.275834
 20
334.467513
 11
117.275834
 21
339.467513
  0
LINE
  5
76F
100
AcDbEntity
  8
M0
100
AcDbLine
 10
133.775834
 20
304.467514
 11
133.775834
 21
303.967513
  0
LINE
  5
770
100
AcDbEntity
  8
M0
100
AcDbLine
 10
160.775836
 20
338.467513
 11
160.275835
 21
338.467513
  0
LINE
  5
771
100
AcDbEntity
  8
M0
100
AcDbLine
 10
118.275834
 20
339.467513
 11
117.275834
 21
339.467513
  0
LINE
  5
772
100
AcDbEntity
  8
M0
100
AcDbLine
 10
117.575835
 20
306.467514
 11
116.575835
 21
306.467514
  0
LINE
  5
773
100
AcDbEntity
  8
M0
100
AcDbLine
 10
116.575835
 20
304.467514
 11
117.575835
 21
304.467514
  0
LINE
  5
774
100
AcDbEntity
  8
M0
100
AcDbLine
 10
134.275835
 20
303.467512
 11
135.675831
 21
303.467512
  0
LINE
  5
775
100
AcDbEntity
  8
M0
100
AcDbLine
 10
116.775835
 20
335.467513
 11
116.775835
 21
338.467513
  0
LINE
  5
776
100
AcDbEntity
  8
M0
100
AcDbLine
 10
160.775836
 20
335.467513
 11
160.775836
 21
338.467513
  0
LINE
  5
777
100
AcDbEntity
  8
M0
100
AcDbLine
 10
117.275834
 20
335.467513
 11
116.775835
 21
335.467513
  0
LINE
  5
778
100
AcDbEntity
  8
M0
100
AcDbLine
 10
133.475836
 20
349.167512
 11
129.875835
 21
349.167512
  0
LINE
  5
779
100
AcDbEntity
  8
M0
100
AcDbLine
 10
160.275835
 20
339.467513
 11
158.475834
 21
339.467513
  0
LINE
  5
77A
100
AcDbEntity
  8
M0
100
AcDbLine
 10
118.075834
 20
340.467513
 11
117.475835
 21
340.467513
  0
LINE
  5
77B
100
AcDbEntity
  8
M0
100
AcDbLine
 10
118.345065
 20
340.467513
 11
118.345065
 21
339.467513
  0
LINE
  5
77C
100
AcDbEntity
  8
M0
100
AcDbLine
 10
147.675834
 20
324.767513
 11
129.875835
 21
324.767513
  0
LINE
  5
77D
100
AcDbEntity
  8
M0
  6
DASHDOT
100
AcDbLine
 10
138.775834
 20
388.967513
 11
138.775834
 21
284.967513
  0
LINE
  5
77E
100
AcDbEntity
  8
M0
100
AcDbLine
 10
158.475834
 20
354.367513
 11
119.075834
 21
354.367513
  0
LINE
  5
77F
100
AcDbEntity
  8
M0
100
AcDbLine
 10
129.375835
 20
325.267513
 11
129.375835
 21
348.667513
  0
LINE
  5
780
100
AcDbEntity
  8
M0
100
AcDbLine
 10
159.475833
 20
340.467513
 11
160.075835
 21
340.467513
  0
LINE
  5
781
100
AcDbEntity
  8
M0
100
AcDbLine
 10
159.206602
 20
340.467513
 11
159.206602
 21
339.467513
  0
LINE
  5
782
100
AcDbEntity
  8
M0
100
AcDbLine
 10
154.893566
 20
381.467513
 11
154.575836
 21
381.467513
  0
LINE
  5
783
100
AcDbEntity
  8
M0
100
AcDbLine
 10
153.975833
 20
377.401409
 11
153.975833
 21
380.867514
  0
LINE
  5
784
100
AcDbEntity
  8
M0
100
AcDbLine
 10
118.075834
 20
333.467513
 11
117.475835
 21
333.467513
  0
LINE
  5
785
100
AcDbEntity
  8
M0
100
AcDbLine
 10
118.345065
 20
333.467513
 11
118.345065
 21
334.467513
  0
LINE
  5
786
100
AcDbEntity
  8
M0
100
AcDbLine
 10
159.475833
 20
333.467513
 11
160.075835
 21
333.467513
  0
LINE
  5
787
100
AcDbEntity
  8
M0
100
AcDbLine
 10
159.206602
 20
333.467513
 11
159.206602
 21
334.467513
  0
ARC
  5
788
100
AcDbEntity
  8
M0
100
AcDbCircle
 10
165.175835
 20
306.467513
 40
5.0
100
AcDbArc
 50
270.0
 51
360.0
  0
ARC
  5
789
100
AcDbEntity
  8
M0
100
AcDbCircle
 10
165.775835
 20
308.967513
 40
2.25
100
AcDbArc
 50
0.0
 51
180.0
  0
ARC
  5
78A
100
AcDbEntity
  8
M0
100
AcDbCircle
 10
160.275835
 20
333.667513
 40
0.5
100
AcDbArc
 50
203.578178
 51
246.421822
  0
ARC
  5
78B
100
AcDbEntity
  8
M0
100
AcDbCircle
 10
117.275835
 20
333.667513
 40
0.5
100
AcDbArc
 50
293.578178
 51
336.421822
  0
ARC
  5
78C
100
AcDbEntity
  8
M0
100
AcDbCircle
 10
118.775835
 20
371.467513
 40
1.0
100
AcDbArc
 50
81.373073
 51
90.0
  0
ARC
  5
78D
100
AcDbEntity
  8
M0
100
AcDbCircle
 10
165.775835
 20
306.967513
 40
2.25
100
AcDbArc
 50
180.0
 51
360.0
  0
ARC
  5
78E
100
AcDbEntity
  8
M0
100
AcDbCircle
 10
117.575835
 20
304.967513
 40
0.5
100
AcDbArc
 50
270.0
 51
360.0
  0
ARC
  5
78F
100
AcDbEntity
  8
M0
100
AcDbCircle
 10
165.175835
 20
367.467513
 40
5.0
100
AcDbArc
 50
0.0
 51
90.0
  0
LINE
  5
790
100
AcDbEntity
  8
M0
100
AcDbLine
 10
141.275834
 20
341.44498
 11
141.275834
 21
341.267513
  0
LINE
  5
791
100
AcDbEntity
  8
M0
100
AcDbLine
 10
141.275834
 20
331.967513
 11
141.275834
 21
332.067513
  0
LINE
  5
792
100
AcDbEntity
  8
M0
100
AcDbLine
 10
146.475836
 20
371.467514
 11
150.32896
 21
371.467514
  0
LINE
  5
793
100
AcDbEntity
  8
M0
100
AcDbLine
 10
161.475833
 20
304.967511
 11
161.475833
 21
305.967513
  0
ARC
  5
794
100
AcDbEntity
  8
M0
100
AcDbCircle
 10
144.675835
 20
380.967513
 40
0.5
100
AcDbArc
 50
90.0
 51
180.0
  0
ARC
  5
795
100
AcDbEntity
  8
M0
100
AcDbCircle
 10
132.875835
 20
380.967513
 40
0.5
100
AcDbArc
 50
0.0
 51
90.0
  0
LINE
  5
796
100
AcDbEntity
  8
M0
100
AcDbLine
 10
136.275835
 20
341.44498
 11
136.275835
 21
341.267513
  0
ARC
  5
797
100
AcDbEntity
  8
M0
100
AcDbCircle
 10
132.875835
 20
380.467513
 40
1.0
100
AcDbArc
 50
90.0
 51
180.0
  0
ARC
  5
798
100
AcDbEntity
  8
M0
100
AcDbCircle
 10
111.775835
 20
366.967513
 40
2.25
100
AcDbArc
 50
0.0
 51
180.0
  0
ARC
  5
799
100
AcDbEntity
  8
M0
100
AcDbCircle
 10
146.425835
 20
372.317513
 40
0.5
100
AcDbArc
 50
268.473851
 51
270.0
  0
ARC
  5
79A
100
AcDbEntity
  8
M0
100
AcDbCircle
 10
112.375835
 20
306.467513
 40
5.0
100
AcDbArc
 50
180.0
 51
270.0
  0
ARC
  5
79B
100
AcDbEntity
  8
M0
100
AcDbCircle
 10
111.775835
 20
364.967513
 40
2.25
100
AcDbArc
 50
180.0
 51
360.0
  0
LINE
  5
79C
100
AcDbEntity
  8
M0
100
AcDbLine
 10
116.075834
 20
305.967513
 11
116.075834
 21
304.967511
  0
LINE
  5
79D
100
AcDbEntity
  8
M0
100
AcDbLine
 10
160.975836
 20
306.467514
 11
159.975834
 21
306.467514
  0
CIRCLE
  5
79E
100
AcDbEntity
  8
M0
100
AcDbCircle
 10
166.275835
 20
366.967513
 40
2.25
  0
CIRCLE
  5
79F
100
AcDbEntity
  8
M0
100
AcDbCircle
 10
111.275835
 20
306.967513
 40
2.25
  0
ARC
  5
7A0
100
AcDbEntity
  8
M0
100
AcDbCircle
 10
160.975835
 20
304.967513
 40
0.5
100
AcDbArc
 50
270.0
 51
360.0
  0
ARC
  5
7A1
100
AcDbEntity
  8
M0
100
AcDbCircle
 10
116.575835
 20
305.967513
 40
0.5
100
AcDbArc
 50
90.0
 51
180.0
  0
ARC
  5
7A2
100
AcDbEntity
  8
M0
100
AcDbCircle
 10
158.775835
 20
371.467513
 40
1.0
100
AcDbArc
 50
90.0
 51
98.626927
  0
ARC
  5
7A3
100
AcDbEntity
  8
M0
100
AcDbCircle
 10
159.975835
 20
305.967513
 40
0.5
100
AcDbArc
 50
90.0
 51
180.0
  0
ARC
  5
7A4
100
AcDbEntity
  8
M0
100
AcDbCircle
 10
116.575835
 20
304.967513
 40
0.5
100
AcDbArc
 50
180.0
 51
270.0
  0
ARC
  5
7A5
100
AcDbEntity
  8
M0
100
AcDbCircle
 10
112.375835
 20
367.467513
 40
5.0
100
AcDbArc
 50
90.0
 51
180.0
  0
ARC
  5
7A6
100
AcDbEntity
  8
M0
100
AcDbCircle
 10
117.575835
 20
305.967513
 40
0.5
100
AcDbArc
 50
0.0
 51
90.0
  0
LINE
  5
7A7
100
AcDbEntity
  8
M0
100
AcDbLine
 10
133.725833
 20
343.067513
 11
143.825836
 21
343.067513
  0
LINE
  5
7A8
100
AcDbEntity
  8
M0
100
AcDbLine
 10
144.325833
 20
341.567513
 11
133.225835
 21
341.567513
  0
LINE
  5
7A9
100
AcDbEntity
  8
M0
100
AcDbLine
 10
108.675834
 20
340.667513
 11
108.375835
 21
340.667513
  0
LINE
  5
7AA
100
AcDbEntity
  8
M0
100
AcDbLine
 10
143.825836
 20
346.467513
 11
133.725833
 21
346.467513
  0
LINE
  5
7AB
100
AcDbEntity
  8
M0
100
AcDbLine
 10
129.575835
 20
329.467512
 11
129.575835
 21
343.067513
  0
LINE
  5
7AC
100
AcDbEntity
  8
M0
100
AcDbLine
 10
130.575835
 20
348.967513
 11
132.075835
 21
348.967513
  0
LINE
  5
7AD
100
AcDbEntity
  8
M0
100
AcDbLine
 10
133.725833
 20
347.967513
 11
143.825836
 21
347.967513
  0
LINE
  5
7AE
100
AcDbEntity
  8
M0
100
AcDbLine
 10
130.575835
 20
324.967513
 11
131.075836
 21
324.967513
  0
LINE
  5
7AF
100
AcDbEntity
  8
M0
100
AcDbLine
 10
109.675835
 20
346.267513
 11
118.075834
 21
346.267513
  0
LINE
  5
7B0
100
AcDbEntity
  8
M0
100
AcDbLine
 10
160.075835
 20
340.967513
 11
160.075835
 21
339.967513
  0
LINE
  5
7B1
100
AcDbEntity
  8
M0
100
AcDbLine
 10
160.375833
 20
339.967513
 11
160.375833
 21
338.467513
  0
LINE
  5
7B2
100
AcDbEntity
  8
M0
100
AcDbLine
 10
160.075835
 20
333.967513
 11
160.375833
 21
333.967513
  0
LINE
  5
7B3
100
AcDbEntity
  8
M0
100
AcDbLine
 10
108.675834
 20
316.867513
 11
108.375835
 21
316.867513
  0
LINE
  5
7B4
100
AcDbEntity
  8
M0
100
AcDbLine
 10
158.575836
 20
334.467513
 11
158.575836
 21
333.467513
  0
LINE
  5
7B5
100
AcDbEntity
  8
M0
100
AcDbLine
 10
160.075835
 20
333.967513
 11
160.075835
 21
332.967513
  0
LINE
  5
7B6
100
AcDbEntity
  8
M0
100
AcDbLine
 10
109.675835
 20
363.667513
 11
109.675835
 21
341.667513
  0
LINE
  5
7B7
100
AcDbEntity
  8
M0
100
AcDbLine
 10
161.475833
 20
332.967513
 11
161.475833
 21
340.967513
  0
LINE
  5
7B8
100
AcDbEntity
  8
M0
100
AcDbLine
 10
169.175837
 20
340.667513
 11
169.175837
 21
333.267513
  0
LINE
  5
7B9
100
AcDbEntity
  8
M0
100
AcDbLine
 10
108.375835
 20
333.267513
 11
108.675834
 21
333.267513
  0
LINE
  5
7BA
100
AcDbEntity
  8
M0
100
AcDbLine
 10
159.475833
 20
332.967513
 11
161.475833
 21
332.967513
  0
LINE
  5
7BB
100
AcDbEntity
  8
M0
100
AcDbLine
 10
132.475834
 20
318.067513
 11
133.475836
 21
318.067513
  0
LINE
  5
7BC
100
AcDbEntity
  8
M0
100
AcDbLine
 10
132.075835
 20
318.067513
 11
132.475834
 21
318.067513
  0
LINE
  5
7BD
100
AcDbEntity
  8
M0
100
AcDbLine
 10
132.075835
 20
372.467514
 11
132.475834
 21
372.467514
  0
LINE
  5
7BE
100
AcDbEntity
  8
M0
100
AcDbLine
 10
167.875837
 20
332.267513
 11
167.875837
 21
310.267513
  0
LINE
  5
7BF
100
AcDbEntity
  8
M0
100
AcDbLine
 10
158.575836
 20
340.467513
 11
158.575836
 21
339.467513
  0
LINE
  5
7C0
100
AcDbEntity
  8
M0
100
AcDbLine
 10
164.875831
 20
340.667513
 11
167.875837
 21
340.667513
  0
LINE
  5
7C1
100
AcDbEntity
  8
M0
100
AcDbLine
 10
164.875831
 20
333.267513
 11
164.875831
 21
340.667513
  0
LINE
  5
7C2
100
AcDbEntity
  8
M0
100
AcDbLine
 10
159.475833
 20
340.967513
 11
161.475833
 21
340.967513
  0
LINE
  5
7C3
100
AcDbEntity
  8
M0
100
AcDbLine
 10
167.875837
 20
340.667513
 11
167.875837
 21
333.267513
  0
LINE
  5
7C4
100
AcDbEntity
  8
M0
100
AcDbLine
 10
108.375835
 20
357.067512
 11
108.675834
 21
357.067512
  0
LINE
  5
7C5
100
AcDbEntity
  8
M0
100
AcDbLine
 10
108.375835
 20
340.667513
 11
108.375835
 21
333.267513
  0
LINE
  5
7C6
100
AcDbEntity
  8
M0
100
AcDbLine
 10
167.875837
 20
333.267513
 11
164.875831
 21
333.267513
  0
ARC
  5
7C7
100
AcDbEntity
  8
M0
100
AcDbCircle
 10
158.075835
 20
302.467513
 40
1.0
100
AcDbArc
 50
180.0
 51
270.0
  0
ARC
  5
7C8
100
AcDbEntity
  8
M0
100
AcDbCircle
 10
158.475835
 20
302.467513
 40
1.0
100
AcDbArc
 50
270.0
 51
360.0
  0
ARC
  5
7C9
100
AcDbEntity
  8
M0
100
AcDbCircle
 10
119.475835
 20
371.467513
 40
1.0
100
AcDbArc
 50
0.0
 51
90.0
  0
ARC
  5
7CA
100
AcDbEntity
  8
M0
100
AcDbCircle
 10
158.475835
 20
371.467513
 40
1.0
100
AcDbArc
 50
0.0
 51
90.0
  0
ARC
  5
7CB
100
AcDbEntity
  8
M0
100
AcDbCircle
 10
145.475835
 20
371.467513
 40
1.0
100
AcDbArc
 50
0.0
 51
90.0
  0
ARC
  5
7CC
100
AcDbEntity
  8
M0
100
AcDbCircle
 10
132.475835
 20
302.467513
 40
1.0
100
AcDbArc
 50
270.0
 51
360.0
  0
ARC
  5
7CD
100
AcDbEntity
  8
M0
100
AcDbCircle
 10
145.475835
 20
302.467513
 40
1.0
100
AcDbArc
 50
270.0
 51
360.0
  0
ARC
  5
7CE
100
AcDbEntity
  8
M0
100
AcDbCircle
 10
158.075835
 20
371.467513
 40
1.0
100
AcDbArc
 50
90.0
 51
180.0
  0
LINE
  5
7CF
100
AcDbEntity
  8
M0
100
AcDbLine
 10
146.475836
 20
355.867513
 11
144.075833
 21
355.867513
  0
LINE
  5
7D0
100
AcDbEntity
  8
M0
100
AcDbLine
 10
167.875837
 20
346.267513
 11
159.475833
 21
346.267513
  0
LINE
  5
7D1
100
AcDbEntity
  8
M0
100
AcDbLine
 10
145.075835
 20
301.467512
 11
145.475834
 21
301.467512
  0
LINE
  5
7D2
100
AcDbEntity
  8
M0
100
AcDbLine
 10
146.475836
 20
318.067513
 11
145.475834
 21
318.067513
  0
ARC
  5
7D3
100
AcDbEntity
  8
M0
100
AcDbCircle
 10
119.075835
 20
371.467513
 40
1.0
100
AcDbArc
 50
90.0
 51
180.0
  0
ARC
  5
7D4
100
AcDbEntity
  8
M0
100
AcDbCircle
 10
132.075835
 20
302.467513
 40
1.0
100
AcDbArc
 50
180.0
 51
270.0
  0
ARC
  5
7D5
100
AcDbEntity
  8
M0
100
AcDbCircle
 10
118.075835
 20
317.467513
 40
0.6
100
AcDbArc
 50
180.0
 51
270.0
  0
ARC
  5
7D6
100
AcDbEntity
  8
M0
100
AcDbCircle
 10
119.475835
 20
302.467513
 40
1.0
100
AcDbArc
 50
270.0
 51
360.0
  0
LINE
  5
7D7
100
AcDbEntity
  8
M0
100
AcDbLine
 10
117.475835
 20
333.967513
 11
117.175834
 21
333.967513
  0
LINE
  5
7D8
100
AcDbEntity
  8
M0
100
AcDbLine
 10
117.175834
 20
339.967513
 11
117.175834
 21
338.467513
  0
LINE
  5
7D9
100
AcDbEntity
  8
M0
100
AcDbLine
 10
118.075834
 20
327.667513
 11
109.675835
 21
327.667513
  0
LINE
  5
7DA
100
AcDbEntity
  8
M0
100
AcDbLine
 10
117.475835
 20
333.967513
 11
117.475835
 21
332.967513
  0
LINE
  5
7DB
100
AcDbEntity
  8
M0
100
AcDbLine
 10
160.375833
 20
339.967513
 11
160.075835
 21
339.967513
  0
LINE
  5
7DC
100
AcDbEntity
  8
M0
100
AcDbLine
 10
159.475833
 20
327.667513
 11
167.875837
 21
327.667513
  0
LINE
  5
7DD
100
AcDbEntity
  8
M0
100
AcDbLine
 10
117.175834
 20
335.467513
 11
117.175834
 21
333.967513
  0
LINE
  5
7DE
100
AcDbEntity
  8
M0
100
AcDbLine
 10
160.375833
 20
335.467513
 11
160.375833
 21
333.967513
  0
ARC
  5
7DF
100
AcDbEntity
  8
M0
100
AcDbCircle
 10
145.075835
 20
371.467513
 40
1.0
100
AcDbArc
 50
90.0
 51
180.0
  0
LINE
  5
7E0
100
AcDbEntity
  8
M0
100
AcDbLine
 10
117.475835
 20
340.967513
 11
117.475835
 21
339.967513
  0
ARC
  5
7E1
100
AcDbEntity
  8
M0
100
AcDbCircle
 10
132.475835
 20
371.467513
 40
1.0
100
AcDbArc
 50
0.0
 51
90.0
  0
ARC
  5
7E2
100
AcDbEntity
  8
M0
100
AcDbCircle
 10
145.075835
 20
302.467513
 40
1.0
100
AcDbArc
 50
180.0
 51
270.0
  0
LINE
  5
7E3
100
AcDbEntity
  8
M0
100
AcDbLine
 10
119.475834
 20
301.467512
 11
119.275834
 21
301.467512
  0
LINE
  5
7E4
100
AcDbEntity
  8
M0
100
AcDbLine
 10
117.175834
 20
339.967513
 11
117.475835
 21
339.967513
  0
LINE
  5
7E5
100
AcDbEntity
  8
M0
100
AcDbLine
 10
148.175835
 20
342.267513
 11
147.975836
 21
342.267513
  0
LINE
  5
7E6
100
AcDbEntity
  8
M0
100
AcDbLine
 10
119.275834
 20
372.467514
 11
119.475834
 21
372.467514
  0
LINE
  5
7E7
100
AcDbEntity
  8
M0
100
AcDbLine
 10
141.275834
 20
341.44498
 11
141.275834
 21
341.567513
  0
LINE
  5
7E8
100
AcDbEntity
  8
M0
100
AcDbLine
 10
136.275835
 20
331.967513
 11
136.275835
 21
332.067513
  0
LINE
  5
7E9
100
AcDbEntity
  8
M0
100
AcDbLine
 10
134.975835
 20
332.067513
 11
134.975835
 21
331.967513
  0
LINE
  5
7EA
100
AcDbEntity
  8
M0
100
AcDbLine
 10
133.475836
 20
331.967513
 11
133.475836
 21
332.567513
  0
LINE
  5
7EB
100
AcDbEntity
  8
M0
100
AcDbLine
 10
132.975835
 20
338.167513
 11
133.475836
 21
338.167513
  0
LINE
  5
7EC
100
AcDbEntity
  8
M0
100
AcDbLine
 10
144.075833
 20
331.967513
 11
144.075833
 21
332.567513
  0
LINE
  5
7ED
100
AcDbEntity
  8
M0
100
AcDbLine
 10
117.475835
 20
333.167513
 11
118.075834
 21
333.167513
  0
LINE
  5
7EE
100
AcDbEntity
  8
M0
100
AcDbLine
 10
136.275835
 20
341.44498
 11
136.275835
 21
341.567513
  0
LINE
  5
7EF
100
AcDbEntity
  8
M0
100
AcDbLine
 10
143.575836
 20
341.267513
 11
141.025833
 21
341.267513
  0
LINE
  5
7F0
100
AcDbEntity
  8
M0
100
AcDbLine
 10
143.575836
 20
332.067513
 11
133.975833
 21
332.067513
  0
LINE
  5
7F1
100
AcDbEntity
  8
M0
100
AcDbLine
 10
129.375835
 20
341.267513
 11
129.575835
 21
341.267513
  0
LINE
  5
7F2
100
AcDbEntity
  8
M0
100
AcDbLine
 10
137.025833
 20
333.567513
 11
140.525836
 21
333.567513
  0
LINE
  5
7F3
100
AcDbEntity
  8
M0
100
AcDbLine
 10
140.525836
 20
340.767513
 11
140.525836
 21
333.567513
  0
LINE
  5
7F4
100
AcDbEntity
  8
M0
100
AcDbLine
 10
160.075835
 20
333.167513
 11
159.475833
 21
333.167513
  0
LINE
  5
7F5
100
AcDbEntity
  8
M0
100
AcDbLine
 10
133.975833
 20
341.267513
 11
136.525835
 21
341.267513
  0
LINE
  5
7F6
100
AcDbEntity
  8
M0
100
AcDbLine
 10
137.025833
 20
340.767513
 11
137.025833
 21
333.567513
  0
LINE
  5
7F7
100
AcDbEntity
  8
M0
100
AcDbLine
 10
144.075833
 20
332.567513
 11
144.075833
 21
340.767513
  0
LINE
  5
7F8
100
AcDbEntity
  8
M0
100
AcDbLine
 10
133.375834
 20
379.967514
 11
133.775831
 21
379.967514
  0
LINE
  5
7F9
100
AcDbEntity
  8
M0
100
AcDbLine
 10
133.375834
 20
380.467511
 11
133.375834
 21
371.903402
  0
LINE
  5
7FA
100
AcDbEntity
  8
M0
100
AcDbLine
 10
143.775831
 20
379.967514
 11
144.175835
 21
379.967514
  0
LINE
  5
7FB
100
AcDbEntity
  8
M0
100
AcDbLine
 10
159.475833
 20
302.467513
 11
159.475833
 21
333.467513
  0
ARC
  5
7FC
100
AcDbEntity
  8
M0
100
AcDbCircle
 10
160.975835
 20
305.967513
 40
0.5
100
AcDbArc
 50
0.0
 51
90.0
  0
LINE
  5
7FD
100
AcDbEntity
  8
M0
100
AcDbLine
 10
144.175835
 20
380.467511
 11
144.175835
 21
380.967512
  0
LINE
  5
7FE
100
AcDbEntity
  8
M0
100
AcDbLine
 10
119.075834
 20
333.467513
 11
119.075834
 21
334.467513
  0
LINE
  5
7FF
100
AcDbEntity
  8
M0
100
AcDbLine
 10
142.575834
 20
332.067513
 11
142.575834
 21
331.967513
  0
LINE
  5
800
100
AcDbEntity
  8
M0
100
AcDbLine
 10
134.975835
 20
341.567513
 11
134.975835
 21
341.267513
  0
LINE
  5
801
100
AcDbEntity
  8
M0
100
AcDbLine
 10
144.075833
 20
335.167513
 11
144.575834
 21
335.167513
  0
LINE
  5
802
100
AcDbEntity
  8
M0
100
AcDbLine
 10
133.475836
 20
335.167513
 11
132.975835
 21
335.167513
  0
LINE
  5
803
100
AcDbEntity
  8
M0
100
AcDbLine
 10
133.375834
 20
380.967512
 11
133.375834
 21
380.467511
  0
LINE
  5
804
100
AcDbEntity
  8
M0
100
AcDbLine
 10
131.875835
 20
372.447308
 11
131.875835
 21
380.467511
  0
LINE
  5
805
100
AcDbEntity
  8
M0
100
AcDbLine
 10
144.075833
 20
340.767513
 11
144.075833
 21
341.567513
  0
LINE
  5
806
100
AcDbEntity
  8
M0
100
AcDbLine
 10
142.575834
 20
341.567513
 11
142.575834
 21
341.267513
  0
ARC
  5
807
100
AcDbEntity
  8
M0
100
AcDbCircle
 10
133.775835
 20
303.467513
 40
2.0
100
AcDbArc
 50
247.42065
 51
270.0
  0
ARC
  5
808
100
AcDbEntity
  8
M0
100
AcDbCircle
 10
159.975835
 20
304.967513
 40
0.5
100
AcDbArc
 50
180.0
 51
270.0
  0
ARC
  5
809
100
AcDbEntity
  8
M0
100
AcDbCircle
 10
154.575835
 20
380.867513
 40
0.6
100
AcDbArc
 50
90.0
 51
180.0
  0
ARC
  5
80A
100
AcDbEntity
  8
M0
100
AcDbCircle
 10
134.275835
 20
303.967513
 40
0.5
100
AcDbArc
 50
180.0
 51
270.0
  0
ARC
  5
80B
100
AcDbEntity
  8
M0
100
AcDbCircle
 10
129.875835
 20
325.267513
 40
0.5
100
AcDbArc
 50
180.0
 51
270.0
  0
ARC
  5
80C
100
AcDbEntity
  8
M0
100
AcDbCircle
 10
147.675835
 20
325.267513
 40
0.5
100
AcDbArc
 50
270.0
 51
360.0
  0
ARC
  5
80D
100
AcDbEntity
  8
M0
100
AcDbCircle
 10
122.975835
 20
380.867513
 40
0.6
100
AcDbArc
 50
0.0
 51
90.0
  0
ARC
  5
80E
100
AcDbEntity
  8
M0
100
AcDbCircle
 10
122.658105
 20
380.867513
 40
0.6
100
AcDbArc
 50
90.0
 51
178.281642
  0
LINE
  5
80F
100
AcDbEntity
  8
M0
100
AcDbLine
 10
168.875832
 20
316.867513
 11
169.175837
 21
316.867513
  0
LINE
  5
810
100
AcDbEntity
  8
M0
100
AcDbLine
 10
146.975834
 20
324.967513
 11
146.475836
 21
324.967513
  0
LINE
  5
811
100
AcDbEntity
  8
M0
100
AcDbLine
 10
132.475834
 20
301.467512
 11
132.075835
 21
301.467512
  0
LINE
  5
812
100
AcDbEntity
  8
M0
100
AcDbLine
 10
167.875837
 20
363.667513
 11
167.875837
 21
341.667513
  0
ARC
  5
813
100
AcDbEntity
  8
M0
100
AcDbCircle
 10
132.075835
 20
371.467513
 40
1.0
100
AcDbArc
 50
90.0
 51
180.0
  0
ARC
  5
814
100
AcDbEntity
  8
M0
100
AcDbCircle
 10
154.893565
 20
380.867513
 40
0.6
100
AcDbArc
 50
1.718358
 51
90.0
  0
LINE
  5
815
100
AcDbEntity
  8
M0
100
AcDbLine
 10
146.975834
 20
348.967513
 11
145.475834
 21
348.967513
  0
LINE
  5
816
100
AcDbEntity
  8
M0
100
AcDbLine
 10
147.975836
 20
329.467512
 11
147.975836
 21
343.067513
  0
LINE
  5
817
100
AcDbEntity
  8
M0
100
AcDbLine
 10
148.175835
 20
341.267513
 11
147.975836
 21
341.267513
  0
LINE
  5
818
100
AcDbEntity
  8
M0
100
AcDbLine
 10
133.475836
 20
332.567513
 11
133.475836
 21
340.767513
  0
LINE
  5
819
100
AcDbEntity
  8
M0
100
AcDbLine
 10
169.175837
 20
357.067512
 11
168.875832
 21
357.067512
  0
LINE
  5
81A
100
AcDbEntity
  8
M0
100
AcDbLine
 10
147.975836
 20
332.067513
 11
148.175835
 21
332.067513
  0
LINE
  5
81B
100
AcDbEntity
  8
M0
100
AcDbLine
 10
133.475836
 20
340.767513
 11
133.475836
 21
341.567513
  0
LINE
  5
81C
100
AcDbEntity
  8
M0
100
AcDbLine
 10
129.575835
 20
332.067513
 11
129.375835
 21
332.067513
  0
LINE
  5
81D
100
AcDbEntity
  8
M0
100
AcDbLine
 10
134.775836
 20
341.267513
 11
142.775833
 21
341.267513
  0
LINE
  5
81E
100
AcDbEntity
  8
M0
100
AcDbLine
 10
144.575834
 20
338.167513
 11
144.075833
 21
338.167513
  0
ARC
  5
81F
100
AcDbEntity
  8
M0
100
AcDbCircle
 10
143.775835
 20
303.467513
 40
2.0
100
AcDbArc
 50
270.0
 51
292.57935
  0
ARC
  5
820
100
AcDbEntity
  8
M0
100
AcDbCircle
 10
143.275835
 20
303.967513
 40
0.5
100
AcDbArc
 50
270.0
 51
360.0
  0
ARC
  5
821
100
AcDbEntity
  8
M0
100
AcDbCircle
 10
133.475835
 20
348.667513
 40
0.5
100
AcDbArc
 50
0.0
 51
90.0
  0
ARC
  5
822
100
AcDbEntity
  8
M0
100
AcDbCircle
 10
129.875835
 20
348.667513
 40
0.5
100
AcDbArc
 50
90.0
 51
180.0
  0
LINE
  5
823
100
AcDbEntity
  8
M0
100
AcDbLine
 10
169.175837
 20
340.667513
 11
168.875832
 21
340.667513
  0
LINE
  5
824
100
AcDbEntity
  8
M0
100
AcDbLine
 10
168.875832
 20
333.267513
 11
169.175837
 21
333.267513
  0
ARC
  5
825
100
AcDbEntity
  8
M0
100
AcDbCircle
 10
119.075835
 20
320.567513
 40
1.0
100
AcDbArc
 50
180.0
 51
270.0
  0
ARC
  5
826
100
AcDbEntity
  8
M0
100
AcDbCircle
 10
119.075835
 20
353.367513
 40
1.0
100
AcDbArc
 50
90.0
 51
180.0
  0
LINE
  5
827
100
AcDbEntity
  8
M0
100
AcDbLine
 10
107.375835
 20
361.267513
 11
107.375835
 21
336.967513
  0
LINE
  5
828
100
AcDbEntity
  8
M0
100
AcDbLine
 10
107.375835
 20
354.367513
 11
102.375835
 21
354.367513
  0
LINE
  5
829
100
AcDbEntity
  8
M0
100
AcDbLine
 10
104.775835
 20
362.367514
 11
99.975835
 21
362.367514
  0
LINE
  5
82A
100
AcDbEntity
  8
M0
100
AcDbLine
 10
97.375835
 20
354.367513
 11
102.375835
 21
354.367513
  0
LINE
  5
82B
100
AcDbEntity
  8
M0
100
AcDbLine
 10
107.375835
 20
358.467513
 11
102.375835
 21
358.467513
  0
LINE
  5
82C
100
AcDbEntity
  8
M0
100
AcDbLine
 10
97.375835
 20
319.567513
 11
102.375835
 21
319.567513
  0
ARC
  5
82D
100
AcDbEntity
  8
M0
100
AcDbCircle
 10
106.875835
 20
361.267513
 40
0.5
100
AcDbArc
 50
23.578178
 51
90.0
  0
LINE
  5
82E
100
AcDbEntity
  8
M0
100
AcDbLine
 10
104.775835
 20
311.567512
 11
99.975835
 21
311.567512
  0
ARC
  5
82F
100
AcDbEntity
  8
M0
100
AcDbCircle
 10
99.975835
 20
361.767513
 40
0.6
100
AcDbArc
 50
90.0
 51
180.0
  0
ARC
  5
830
100
AcDbEntity
  8
M0
100
AcDbCircle
 10
97.875835
 20
361.267513
 40
0.5
100
AcDbArc
 50
90.0
 51
156.421822
  0
LINE
  5
831
100
AcDbEntity
  8
M0
100
AcDbLine
 10
97.375835
 20
336.967513
 11
97.375835
 21
312.667513
  0
ARC
  5
832
100
AcDbEntity
  8
M0
100
AcDbCircle
 10
104.775835
 20
361.767513
 40
0.6
100
AcDbArc
 50
0.0
 51
90.0
  0
LINE
  5
833
100
AcDbEntity
  8
M0
100
AcDbLine
 10
107.375835
 20
312.667513
 11
107.375835
 21
336.967513
  0
LINE
  5
834
100
AcDbEntity
  8
M0
100
AcDbLine
 10
107.375835
 20
315.467513
 11
102.375835
 21
315.467513
  0
ARC
  5
835
100
AcDbEntity
  8
M0
100
AcDbCircle
 10
104.775835
 20
312.167513
 40
0.6
100
AcDbArc
 50
270.0
 51
360.0
  0
LINE
  5
836
100
AcDbEntity
  8
M0
  6
DASHDOT
100
AcDbLine
 10
102.375835
 20
366.967513
 11
102.375835
 21
307.967513
  0
ARC
  5
837
100
AcDbEntity
  8
M0
100
AcDbCircle
 10
106.875835
 20
312.667513
 40
0.5
100
AcDbArc
 50
270.0
 51
336.421822
  0
LINE
  5
838
100
AcDbEntity
  8
M0
100
AcDbLine
 10
107.375835
 20
319.567513
 11
102.375835
 21
319.567513
  0
LINE
  5
839
100
AcDbEntity
  8
M0
100
AcDbLine
 10
97.375835
 20
358.467513
 11
102.375835
 21
358.467513
  0
ARC
  5
83A
100
AcDbEntity
  8
M0
100
AcDbCircle
 10
97.875835
 20
312.667513
 40
0.5
100
AcDbArc
 50
203.578178
 51
270.0
  0
LINE
  5
83B
100
AcDbEntity
  8
M0
100
AcDbLine
 10
97.375835
 20
336.967513
 11
97.375835
 21
361.267513
  0
LINE
  5
83C
100
AcDbEntity
  8
M0
100
AcDbLine
 10
97.875835
 20
312.167515
 11
106.875835
 21
312.167515
  0
ARC
  5
83D
100
AcDbEntity
  8
M0
100
AcDbCircle
 10
99.975835
 20
312.167513
 40
0.6
100
AcDbArc
 50
180.0
 51
270.0
  0
LINE
  5
83E
100
AcDbEntity
  8
M0
100
AcDbLine
 10
97.875835
 20
361.767512
 11
106.875835
 21
361.767512
  0
LINE
  5
83F
100
AcDbEntity
  8
M0
100
AcDbLine
 10
97.375835
 20
315.467513
 11
102.375835
 21
315.467513
  0
LINE
  5
840
100
AcDbEntity
  8
M0
  6
DASHDOT
100
AcDbLine
 10
44.075838
 20
380.467513
 11
44.075838
 21
381.467513
  0
CIRCLE
  5
841
100
AcDbEntity
  8
M0
100
AcDbCircle
 10
44.075838
 20
380.967513
 40
4.499996
  0
LINE
  5
842
100
AcDbEntity
  8
M0
  6
DASHDOT
100
AcDbLine
 10
43.575838
 20
380.967513
 11
44.575838
 21
380.967513
  0
LINE
  5
843
100
AcDbEntity
  8
M0
100
AcDbLine
 10
44.542742
 20
382.848647
 11
42.194765
 21
380.500655
  0
LINE
  5
844
100
AcDbEntity
  8
M0
100
AcDbLine
 10
45.956942
 20
381.434432
 11
43.608965
 21
379.08644
  0
LINE
  5
845
100
AcDbEntity
  8
M0
100
AcDbLine
 10
42.006884
 20
383.036422
 11
46.269854
 21
378.773482
  0
LINE
  5
846
100
AcDbEntity
  8
M0
100
AcDbLine
 10
78.466422
 20
373.976868
 11
75.284781
 21
377.158631
  0
LINE
  5
847
100
AcDbEntity
  8
M0
100
AcDbLine
 10
78.289664
 20
375.921204
 11
76.522086
 21
374.153626
  0
LINE
  5
848
100
AcDbEntity
  8
M0
100
AcDbLine
 10
77.229117
 20
376.981873
 11
75.461539
 21
375.214173
  0
LINE
  5
849
100
AcDbEntity
  8
M0
100
AcDbLine
 10
80.200838
 20
379.392513
 11
73.550838
 21
379.392513
  0
ARC
  5
84A
100
AcDbEntity
  8
M0
100
AcDbCircle
 10
80.200838
 20
378.892513
 40
0.5
100
AcDbArc
 50
0.0
 51
90.0
  0
LINE
  5
84B
100
AcDbEntity
  8
M0
100
AcDbLine
 10
80.700838
 20
376.628531
 11
80.700838
 21
378.892513
  0
LINE
  5
84C
100
AcDbEntity
  8
M0
100
AcDbLine
 10
73.550838
 20
371.742513
 11
77.697973
 21
371.742513
  0
LINE
  5
84D
100
AcDbEntity
  8
M0
100
AcDbLine
 10
73.050838
 20
378.892513
 11
73.050838
 21
372.242513
  0
ARC
  5
84E
100
AcDbEntity
  8
M0
100
AcDbCircle
 10
73.550838
 20
378.892513
 40
0.5
100
AcDbArc
 50
90.0
 51
180.0
  0
ARC
  5
84F
100
AcDbEntity
  8
M0
100
AcDbCircle
 10
73.550838
 20
372.242513
 40
0.5
100
AcDbArc
 50
180.0
 51
270.0
  0
ARC
  5
850
100
AcDbEntity
  8
M0
100
AcDbCircle
 10
76.875838
 20
375.567513
 40
3.0
100
AcDbArc
 50
354.126881
 51
662.724737
  0
CIRCLE
  5
851
100
AcDbEntity
  8
M0
  6
DASHED
100
AcDbCircle
 10
40.775838
 20
357.867513
 40
3.0
  0
LINE
  5
852
100
AcDbEntity
  8
M0
  6
DASHED
100
AcDbLine
 10
42.366422
 20
356.276868
 11
39.184781
 21
359.458631
  0
LINE
  5
853
100
AcDbEntity
  8
M0
  6
DASHED
100
AcDbLine
 10
42.189664
 20
358.221204
 11
40.422086
 21
356.453626
  0
LINE
  5
854
100
AcDbEntity
  8
M0
  6
DASHED
100
AcDbLine
 10
41.129117
 20
359.281873
 11
39.361539
 21
357.514173
  0
LINE
  5
855
100
AcDbEntity
  8
M0
  6
DASHED
100
AcDbLine
 10
44.100838
 20
361.692513
 11
37.450838
 21
361.692513
  0
ARC
  5
856
100
AcDbEntity
  8
M0
  6
DASHED
100
AcDbCircle
 10
44.100838
 20
361.192513
 40
0.5
100
AcDbArc
 50
0.0
 51
90.0
  0
LINE
  5
857
100
AcDbEntity
  8
M0
  6
DASHED
100
AcDbLine
 10
44.600838
 20
354.542513
 11
44.600838
 21
361.192513
  0
ARC
  5
858
100
AcDbEntity
  8
M0
  6
DASHED
100
AcDbCircle
 10
44.100838
 20
354.542513
 40
0.5
100
AcDbArc
 50
270.0
 51
360.0
  0
LINE
  5
859
100
AcDbEntity
  8
M0
  6
DASHED
100
AcDbLine
 10
37.450838
 20
354.042513
 11
44.100838
 21
354.042513
  0
LINE
  5
85A
100
AcDbEntity
  8
M0
  6
DASHED
100
AcDbLine
 10
36.950838
 20
361.192513
 11
36.950838
 21
354.542513
  0
ARC
  5
85B
100
AcDbEntity
  8
M0
  6
DASHED
100
AcDbCircle
 10
37.450838
 20
361.192513
 40
0.5
100
AcDbArc
 50
90.0
 51
180.0
  0
ARC
  5
85C
100
AcDbEntity
  8
M0
  6
DASHED
100
AcDbCircle
 10
37.450838
 20
354.542513
 40
0.5
100
AcDbArc
 50
180.0
 51
270.0
  0
CIRCLE
  5
85D
100
AcDbEntity
  8
M0
  6
DASHED
100
AcDbCircle
 10
40.775838
 20
323.667513
 40
3.0
  0
LINE
  5
85E
100
AcDbEntity
  8
M0
  6
DASHED
100
AcDbLine
 10
42.366422
 20
322.076868
 11
39.184781
 21
325.258631
  0
LINE
  5
85F
100
AcDbEntity
  8
M0
  6
DASHED
100
AcDbLine
 10
42.189664
 20
324.021204
 11
40.422086
 21
322.253626
  0
LINE
  5
860
100
AcDbEntity
  8
M0
  6
DASHED
100
AcDbLine
 10
41.129117
 20
325.081873
 11
39.361539
 21
323.314173
  0
LINE
  5
861
100
AcDbEntity
  8
M0
  6
DASHED
100
AcDbLine
 10
44.100838
 20
327.492513
 11
37.450838
 21
327.492513
  0
ARC
  5
862
100
AcDbEntity
  8
M0
  6
DASHED
100
AcDbCircle
 10
44.100838
 20
326.992513
 40
0.5
100
AcDbArc
 50
0.0
 51
90.0
  0
LINE
  5
863
100
AcDbEntity
  8
M0
  6
DASHED
100
AcDbLine
 10
44.600838
 20
320.342513
 11
44.600838
 21
326.992513
  0
ARC
  5
864
100
AcDbEntity
  8
M0
  6
DASHED
100
AcDbCircle
 10
44.100838
 20
320.342513
 40
0.5
100
AcDbArc
 50
270.0
 51
360.0
  0
LINE
  5
865
100
AcDbEntity
  8
M0
  6
DASHED
100
AcDbLine
 10
37.450838
 20
319.842513
 11
44.100838
 21
319.842513
  0
LINE
  5
866
100
AcDbEntity
  8
M0
  6
DASHED
100
AcDbLine
 10
36.950838
 20
326.992513
 11
36.950838
 21
320.342513
  0
ARC
  5
867
100
AcDbEntity
  8
M0
  6
DASHED
100
AcDbCircle
 10
37.450838
 20
326.992513
 40
0.5
100
AcDbArc
 50
90.0
 51
180.0
  0
ARC
  5
868
100
AcDbEntity
  8
M0
  6
DASHED
100
AcDbCircle
 10
37.450838
 20
320.342513
 40
0.5
100
AcDbArc
 50
180.0
 51
270.0
  0
LINE
  5
869
100
AcDbEntity
  8
M0
  6
DASHDOT
100
AcDbLine
 10
65.975835
 20
292.467513
 11
65.975835
 21
293.467513
  0
CIRCLE
  5
86A
100
AcDbEntity
  8
M0
100
AcDbCircle
 10
65.975835
 20
292.967513
 40
4.499996
  0
LINE
  5
86B
100
AcDbEntity
  8
M0
  6
DASHDOT
100
AcDbLine
 10
65.475835
 20
292.967513
 11
66.475835
 21
292.967513
  0
LINE
  5
86C
100
AcDbEntity
  8
M0
100
AcDbLine
 10
66.442738
 20
294.848647
 11
64.094762
 21
292.500655
  0
LINE
  5
86D
100
AcDbEntity
  8
M0
100
AcDbLine
 10
67.856938
 20
293.434432
 11
65.508961
 21
291.08644
  0
LINE
  5
86E
100
AcDbEntity
  8
M0
100
AcDbLine
 10
63.90688
 20
295.036422
 11
68.16985
 21
290.773482
  0
ARC
  5
86F
100
AcDbEntity
  8
M0
100
AcDbCircle
 10
56.975838
 20
305.967513
 40
2.0
100
AcDbArc
 50
90.0
 51
180.0
  0
ARC
  5
870
100
AcDbEntity
  8
M0
100
AcDbCircle
 10
50.975838
 20
304.498426
 40
4.0
100
AcDbArc
 50
-31.574191
 51
0.0
  0
LINE
  5
871
100
AcDbEntity
  8
M0
100
AcDbLine
 10
49.667987
 20
294.731009
 11
54.38369
 21
302.404017
  0
LINE
  5
872
100
AcDbEntity
  8
M0
100
AcDbLine
 10
54.975838
 20
305.967513
 11
54.975838
 21
304.498426
  0
LINE
  5
873
100
AcDbEntity
  8
M0
100
AcDbLine
 10
56.975838
 20
307.967513
 11
57.811254
 21
307.967513
  0
LINE
  5
874
100
AcDbEntity
  8
M0
100
AcDbLine
 10
48.075838
 20
286.967513
 11
40.075838
 21
286.967513
  0
LINE
  5
875
100
AcDbEntity
  8
M0
100
AcDbLine
 10
49.075838
 20
287.967513
 11
49.075838
 21
292.6366
  0
LINE
  5
876
100
AcDbEntity
  8
M0
100
AcDbLine
 10
56.975838
 20
318.267513
 11
48.975838
 21
318.267513
  0
LINE
  5
877
100
AcDbEntity
  8
M0
100
AcDbLine
 10
39.075838
 20
287.967513
 11
39.075838
 21
293.324656
  0
ARC
  5
878
100
AcDbEntity
  8
M0
100
AcDbCircle
 10
50.275838
 20
309.267513
 40
2.5
100
AcDbArc
 50
156.926082
 51
203.073918
  0
ARC
  5
879
100
AcDbEntity
  8
M0
100
AcDbCircle
 10
50.275838
 20
316.267513
 40
2.5
100
AcDbArc
 50
156.926082
 51
203.073918
  0
ARC
  5
87A
100
AcDbEntity
  8
M0
100
AcDbCircle
 10
55.675838
 20
309.267513
 40
2.5
100
AcDbArc
 50
328.667749
 51
383.073918
  0
ARC
  5
87B
100
AcDbEntity
  8
M0
100
AcDbCircle
 10
55.675838
 20
316.267513
 40
2.5
100
AcDbArc
 50
336.926082
 51
383.073918
  0
LINE
  5
87C
100
AcDbEntity
  8
M0
100
AcDbLine
 10
47.975838
 20
310.247309
 11
47.975838
 21
315.287717
  0
LINE
  5
87D
100
AcDbEntity
  8
M0
100
AcDbLine
 10
47.975838
 20
317.247309
 11
47.975838
 21
317.267513
  0
LINE
  5
87E
100
AcDbEntity
  8
M0
100
AcDbLine
 10
57.975838
 20
310.247309
 11
57.975838
 21
315.287717
  0
LINE
  5
87F
100
AcDbEntity
  8
M0
100
AcDbLine
 10
57.975838
 20
317.247309
 11
57.975838
 21
317.267513
  0
LINE
  5
880
100
AcDbEntity
  8
M0
100
AcDbLine
 10
47.975838
 20
308.287717
 11
47.975838
 21
302.967513
  0
ARC
  5
881
100
AcDbEntity
  8
M0
100
AcDbCircle
 10
43.975838
 20
302.967513
 40
4.0
100
AcDbArc
 50
-90.0
 51
8.14222E-013
  0
ARC
  5
882
100
AcDbEntity
  8
M0
100
AcDbCircle
 10
48.975838
 20
317.267513
 40
1.0
100
AcDbArc
 50
90.0
 51
180.0
  0
ARC
  5
883
100
AcDbEntity
  8
M0
100
AcDbCircle
 10
56.975838
 20
317.267513
 40
1.0
100
AcDbArc
 50
0.0
 51
90.0
  0
ARC
  5
884
100
AcDbEntity
  8
M0
100
AcDbCircle
 10
40.075838
 20
287.967513
 40
1.0
100
AcDbArc
 50
180.0
 51
270.0
  0
ARC
  5
885
100
AcDbEntity
  8
M0
100
AcDbCircle
 10
48.075838
 20
287.967513
 40
1.0
100
AcDbArc
 50
-90.0
 51
0.0
  0
ARC
  5
886
100
AcDbEntity
  8
M0
100
AcDbCircle
 10
42.431394
 20
297.967513
 40
1.0
100
AcDbArc
 50
90.0
 51
148.109208
  0
ARC
  5
887
100
AcDbEntity
  8
M0
100
AcDbCircle
 10
43.075838
 20
293.324656
 40
4.0
100
AcDbArc
 50
148.109208
 51
180.0
  0
LINE
  5
888
100
AcDbEntity
  8
M0
100
AcDbLine
 10
43.975838
 20
298.967513
 11
42.431394
 21
298.967513
  0
LINE
  5
889
100
AcDbEntity
  8
M0
100
AcDbLine
 10
39.679612
 20
295.437863
 11
41.582337
 21
298.495815
  0
ARC
  5
88A
100
AcDbEntity
  8
M0
100
AcDbCircle
 10
53.075838
 20
292.6366
 40
4.0
100
AcDbArc
 50
148.425809
 51
180.0
  0
LINE
  5
88B
100
AcDbEntity
  8
M0
  6
DASHDOT
100
AcDbLine
 10
102.375835
 20
336.967513
 11
175.175831
 21
336.967513
  0
LINE
  5
88C
100
AcDbEntity
  8
M0
100
AcDbLine
 10
56.666422
 20
373.976868
 11
53.484781
 21
377.158631
  0
LINE
  5
88D
100
AcDbEntity
  8
M0
100
AcDbLine
 10
56.489664
 20
375.921204
 11
54.722086
 21
374.153626
  0
LINE
  5
88E
100
AcDbEntity
  8
M0
100
AcDbLine
 10
55.429117
 20
376.981873
 11
53.661539
 21
375.214173
  0
LINE
  5
88F
100
AcDbEntity
  8
M0
100
AcDbLine
 10
58.400838
 20
379.392513
 11
51.750838
 21
379.392513
  0
ARC
  5
890
100
AcDbEntity
  8
M0
100
AcDbCircle
 10
58.400838
 20
378.892513
 40
0.5
100
AcDbArc
 50
0.0
 51
90.0
  0
LINE
  5
891
100
AcDbEntity
  8
M0
100
AcDbLine
 10
58.900838
 20
372.242513
 11
58.900838
 21
378.892513
  0
ARC
  5
892
100
AcDbEntity
  8
M0
100
AcDbCircle
 10
58.400838
 20
372.242513
 40
0.5
100
AcDbArc
 50
270.0
 51
360.0
  0
LINE
  5
893
100
AcDbEntity
  8
M0
100
AcDbLine
 10
54.253703
 20
371.742513
 11
58.400838
 21
371.742513
  0
LINE
  5
894
100
AcDbEntity
  8
M0
100
AcDbLine
 10
51.250838
 20
378.892513
 11
51.250838
 21
376.628531
  0
ARC
  5
895
100
AcDbEntity
  8
M0
100
AcDbCircle
 10
51.750838
 20
378.892513
 40
0.5
100
AcDbArc
 50
90.0
 51
180.0
  0
ARC
  5
896
100
AcDbEntity
  8
M0
100
AcDbCircle
 10
55.075838
 20
375.567513
 40
3.0
100
AcDbArc
 50
237.275263
 51
545.873119
  0
CIRCLE
  5
897
100
AcDbEntity
  8
M0
  6
DASHED
100
AcDbCircle
 10
40.775838
 20
316.067513
 40
3.0
  0
LINE
  5
898
100
AcDbEntity
  8
M0
  6
DASHED
100
AcDbLine
 10
42.366422
 20
314.476868
 11
39.184781
 21
317.658631
  0
LINE
  5
899
100
AcDbEntity
  8
M0
  6
DASHED
100
AcDbLine
 10
42.189664
 20
316.421204
 11
40.422086
 21
314.653626
  0
LINE
  5
89A
100
AcDbEntity
  8
M0
  6
DASHED
100
AcDbLine
 10
41.129117
 20
317.481873
 11
39.361539
 21
315.714173
  0
LINE
  5
89B
100
AcDbEntity
  8
M0
  6
DASHED
100
AcDbLine
 10
44.100838
 20
319.892513
 11
37.450838
 21
319.892513
  0
ARC
  5
89C
100
AcDbEntity
  8
M0
  6
DASHED
100
AcDbCircle
 10
44.100838
 20
319.392513
 40
0.5
100
AcDbArc
 50
0.0
 51
90.0
  0
LINE
  5
89D
100
AcDbEntity
  8
M0
  6
DASHED
100
AcDbLine
 10
44.600838
 20
312.742513
 11
44.600838
 21
319.392513
  0
ARC
  5
89E
100
AcDbEntity
  8
M0
  6
DASHED
100
AcDbCircle
 10
44.100838
 20
312.742513
 40
0.5
100
AcDbArc
 50
270.0
 51
360.0
  0
LINE
  5
89F
100
AcDbEntity
  8
M0
  6
DASHED
100
AcDbLine
 10
37.450838
 20
312.242513
 11
44.100838
 21
312.242513
  0
LINE
  5
8A0
100
AcDbEntity
  8
M0
  6
DASHED
100
AcDbLine
 10
36.950838
 20
319.392513
 11
36.950838
 21
312.742513
  0
ARC
  5
8A1
100
AcDbEntity
  8
M0
  6
DASHED
100
AcDbCircle
 10
37.450838
 20
319.392513
 40
0.5
100
AcDbArc
 50
90.0
 51
180.0
  0
ARC
  5
8A2
100
AcDbEntity
  8
M0
  6
DASHED
100
AcDbCircle
 10
37.450838
 20
312.742513
 40
0.5
100
AcDbArc
 50
180.0
 51
270.0
  0
ARC
  5
8A3
100
AcDbEntity
  8
M0
100
AcDbCircle
 10
52.975838
 20
304.467513
 40
2.75
100
AcDbArc
 50
294.427107
 51
402.37713
  0
CIRCLE
  5
8A4
100
AcDbEntity
  8
M0
100
AcDbCircle
 10
52.975838
 20
360.667513
 40
3.5
  0
LINE
  5
8A5
100
AcDbEntity
  8
M0
100
AcDbLine
 10
53.98671
 20
362.38547
 11
51.411636
 21
359.810397
  0
LINE
  5
8A6
100
AcDbEntity
  8
M0
100
AcDbLine
 10
54.693817
 20
361.678362
 11
52.118744
 21
359.103289
  0
LINE
  5
8A7
100
AcDbEntity
  8
M0
100
AcDbLine
 10
52.014984
 20
361.628359
 11
53.859833
 21
359.783526
  0
CIRCLE
  5
8A8
100
AcDbEntity
  8
M0
100
AcDbCircle
 10
65.975835
 20
360.667513
 40
3.5
  0
LINE
  5
8A9
100
AcDbEntity
  8
M0
100
AcDbLine
 10
66.986706
 20
362.38547
 11
64.411633
 21
359.810397
  0
LINE
  5
8AA
100
AcDbEntity
  8
M0
100
AcDbLine
 10
67.693814
 20
361.678362
 11
65.118741
 21
359.103289
  0
LINE
  5
8AB
100
AcDbEntity
  8
M0
100
AcDbLine
 10
65.014981
 20
361.628359
 11
66.859829
 21
359.783526
  0
CIRCLE
  5
8AC
100
AcDbEntity
  8
M0
100
AcDbCircle
 10
78.975835
 20
360.667513
 40
3.5
  0
LINE
  5
8AD
100
AcDbEntity
  8
M0
100
AcDbLine
 10
79.986707
 20
362.38547
 11
77.411633
 21
359.810397
  0
LINE
  5
8AE
100
AcDbEntity
  8
M0
100
AcDbLine
 10
80.693814
 20
361.678362
 11
78.118741
 21
359.103289
  0
LINE
  5
8AF
100
AcDbEntity
  8
M0
100
AcDbLine
 10
78.014981
 20
361.628359
 11
79.85983
 21
359.783526
  0
CIRCLE
  5
8B0
100
AcDbEntity
  8
M0
100
AcDbCircle
 10
78.975835
 20
313.267513
 40
3.5
  0
LINE
  5
8B1
100
AcDbEntity
  8
M0
100
AcDbLine
 10
79.986707
 20
314.985469
 11
77.411633
 21
312.410396
  0
LINE
  5
8B2
100
AcDbEntity
  8
M0
100
AcDbLine
 10
80.693814
 20
314.278362
 11
78.118741
 21
311.703289
  0
LINE
  5
8B3
100
AcDbEntity
  8
M0
100
AcDbLine
 10
78.014981
 20
314.228359
 11
79.85983
 21
312.383525
  0
CIRCLE
  5
8B4
100
AcDbEntity
  8
M0
100
AcDbCircle
 10
65.975835
 20
313.267513
 40
3.5
  0
LINE
  5
8B5
100
AcDbEntity
  8
M0
100
AcDbLine
 10
66.986706
 20
314.985469
 11
64.411633
 21
312.410396
  0
LINE
  5
8B6
100
AcDbEntity
  8
M0
100
AcDbLine
 10
67.693814
 20
314.278362
 11
65.118741
 21
311.703289
  0
LINE
  5
8B7
100
AcDbEntity
  8
M0
100
AcDbLine
 10
65.014981
 20
314.228359
 11
66.859829
 21
312.383525
  0
CIRCLE
  5
8B8
100
AcDbEntity
  8
M0
100
AcDbCircle
 10
52.975838
 20
313.267513
 40
3.5
  0
LINE
  5
8B9
100
AcDbEntity
  8
M0
100
AcDbLine
 10
53.98671
 20
314.985469
 11
51.411636
 21
312.410396
  0
LINE
  5
8BA
100
AcDbEntity
  8
M0
100
AcDbLine
 10
54.693817
 20
314.278362
 11
52.118744
 21
311.703289
  0
LINE
  5
8BB
100
AcDbEntity
  8
M0
100
AcDbLine
 10
52.014984
 20
314.228359
 11
53.859833
 21
312.383525
  0
CIRCLE
  5
8BC
100
AcDbEntity
  8
M0
100
AcDbCircle
 10
91.175838
 20
316.067513
 40
3.0
  0
LINE
  5
8BD
100
AcDbEntity
  8
M0
100
AcDbLine
 10
92.766422
 20
314.476868
 11
89.584781
 21
317.658631
  0
LINE
  5
8BE
100
AcDbEntity
  8
M0
100
AcDbLine
 10
92.589664
 20
316.421204
 11
90.822086
 21
314.653626
  0
LINE
  5
8BF
100
AcDbEntity
  8
M0
100
AcDbLine
 10
91.529117
 20
317.481873
 11
89.761539
 21
315.714173
  0
LINE
  5
8C0
100
AcDbEntity
  8
M0
100
AcDbLine
 10
94.500838
 20
319.892513
 11
87.850838
 21
319.892513
  0
ARC
  5
8C1
100
AcDbEntity
  8
M0
100
AcDbCircle
 10
94.500838
 20
319.392513
 40
0.5
100
AcDbArc
 50
0.0
 51
90.0
  0
LINE
  5
8C2
100
AcDbEntity
  8
M0
100
AcDbLine
 10
95.000838
 20
312.742513
 11
95.000838
 21
319.392513
  0
ARC
  5
8C3
100
AcDbEntity
  8
M0
100
AcDbCircle
 10
94.500838
 20
312.742513
 40
0.5
100
AcDbArc
 50
270.0
 51
360.0
  0
LINE
  5
8C4
100
AcDbEntity
  8
M0
100
AcDbLine
 10
87.850838
 20
312.242513
 11
94.500838
 21
312.242513
  0
LINE
  5
8C5
100
AcDbEntity
  8
M0
100
AcDbLine
 10
87.350838
 20
319.392513
 11
87.350838
 21
312.742513
  0
ARC
  5
8C6
100
AcDbEntity
  8
M0
100
AcDbCircle
 10
87.850838
 20
319.392513
 40
0.5
100
AcDbArc
 50
90.0
 51
180.0
  0
ARC
  5
8C7
100
AcDbEntity
  8
M0
100
AcDbCircle
 10
87.850838
 20
312.742513
 40
0.5
100
AcDbArc
 50
180.0
 51
270.0
  0
CIRCLE
  5
8C8
100
AcDbEntity
  8
M0
100
AcDbCircle
 10
91.175838
 20
350.267513
 40
3.0
  0
LINE
  5
8C9
100
AcDbEntity
  8
M0
100
AcDbLine
 10
92.766422
 20
348.676868
 11
89.584781
 21
351.858631
  0
LINE
  5
8CA
100
AcDbEntity
  8
M0
100
AcDbLine
 10
92.589664
 20
350.621204
 11
90.822086
 21
348.853626
  0
LINE
  5
8CB
100
AcDbEntity
  8
M0
100
AcDbLine
 10
91.529117
 20
351.681873
 11
89.761539
 21
349.914173
  0
LINE
  5
8CC
100
AcDbEntity
  8
M0
100
AcDbLine
 10
94.500838
 20
354.092513
 11
87.850838
 21
354.092513
  0
ARC
  5
8CD
100
AcDbEntity
  8
M0
100
AcDbCircle
 10
94.500838
 20
353.592513
 40
0.5
100
AcDbArc
 50
0.0
 51
90.0
  0
LINE
  5
8CE
100
AcDbEntity
  8
M0
100
AcDbLine
 10
95.000838
 20
346.942513
 11
95.000838
 21
353.592513
  0
ARC
  5
8CF
100
AcDbEntity
  8
M0
100
AcDbCircle
 10
94.500838
 20
346.942513
 40
0.5
100
AcDbArc
 50
270.0
 51
360.0
  0
LINE
  5
8D0
100
AcDbEntity
  8
M0
100
AcDbLine
 10
87.850838
 20
346.442513
 11
94.500838
 21
346.442513
  0
LINE
  5
8D1
100
AcDbEntity
  8
M0
100
AcDbLine
 10
87.350838
 20
353.592513
 11
87.350838
 21
346.942513
  0
ARC
  5
8D2
100
AcDbEntity
  8
M0
100
AcDbCircle
 10
87.850838
 20
353.592513
 40
0.5
100
AcDbArc
 50
90.0
 51
180.0
  0
ARC
  5
8D3
100
AcDbEntity
  8
M0
100
AcDbCircle
 10
87.850838
 20
346.942513
 40
0.5
100
AcDbArc
 50
180.0
 51
270.0
  0
LINE
  5
8D4
100
AcDbEntity
  8
M0
  6
DASHED
100
AcDbLine
 10
22.075841
 20
366.667513
 11
34.575841
 21
366.667513
  0
LINE
  5
8D5
100
AcDbEntity
  8
M0
  6
DASHED
100
AcDbLine
 10
22.075841
 20
366.667513
 11
22.075841
 21
307.267513
  0
LINE
  5
8D6
100
AcDbEntity
  8
M0
  6
DASHED
100
AcDbLine
 10
22.075841
 20
307.267513
 11
34.575841
 21
307.267513
  0
LINE
  5
8D7
100
AcDbEntity
  8
M0
  6
DASHED
100
AcDbLine
 10
182.675831
 20
366.667513
 11
170.175831
 21
366.667513
  0
LINE
  5
8D8
100
AcDbEntity
  8
M0
  6
DASHED
100
AcDbLine
 10
182.675831
 20
366.667513
 11
182.675831
 21
307.267513
  0
LINE
  5
8D9
100
AcDbEntity
  8
M0
  6
DASHED
100
AcDbLine
 10
182.675831
 20
307.267513
 11
170.175831
 21
307.267513
  0
CIRCLE
  5
8DA
100
AcDbEntity
  8
M0
100
AcDbCircle
 10
160.675834
 20
380.967513
 40
5.0
  0
CIRCLE
  5
8DB
100
AcDbEntity
  8
M0
100
AcDbCircle
 10
138.775831
 20
380.967544
 40
5.0
  0
CIRCLE
  5
8DC
100
AcDbEntity
  8
M0
100
AcDbCircle
 10
116.875835
 20
380.967544
 40
5.0
  0
CIRCLE
  5
8DD
100
AcDbEntity
  8
M0
100
AcDbCircle
 10
160.675834
 20
292.967544
 40
5.0
  0
CIRCLE
  5
8DE
100
AcDbEntity
  8
M0
100
AcDbCircle
 10
138.775831
 20
292.967544
 40
5.0
  0
CIRCLE
  5
8DF
100
AcDbEntity
  8
M0
100
AcDbCircle
 10
116.875835
 20
292.967544
 40
5.0
  0
CIRCLE
  5
8E0
100
AcDbEntity
  8
M0
100
AcDbCircle
 10
44.075838
 20
292.967544
 40
5.0
  0
CIRCLE
  5
8E1
100
AcDbEntity
  8
M0
100
AcDbCircle
 10
65.975835
 20
292.967544
 40
5.0
  0
CIRCLE
  5
8E2
100
AcDbEntity
  8
M0
100
AcDbCircle
 10
87.875838
 20
292.967544
 40
5.0
  0
CIRCLE
  5
8E3
100
AcDbEntity
  8
M0
100
AcDbCircle
 10
44.075838
 20
380.967544
 40
5.0
  0
CIRCLE
  5
8E4
100
AcDbEntity
  8
M0
100
AcDbCircle
 10
65.975835
 20
380.967544
 40
5.0
  0
CIRCLE
  5
8E5
100
AcDbEntity
  8
M0
100
AcDbCircle
 10
87.875838
 20
380.967544
 40
5.0
  0
CIRCLE
  5
8E6
100
AcDbEntity
  8
M0
100
AcDbCircle
 10
91.175838
 20
323.667513
 40
3.0
  0
LINE
  5
8E7
100
AcDbEntity
  8
M0
100
AcDbLine
 10
92.766422
 20
322.076868
 11
89.584781
 21
325.258631
  0
LINE
  5
8E8
100
AcDbEntity
  8
M0
100
AcDbLine
 10
92.589664
 20
324.021204
 11
90.822086
 21
322.253626
  0
LINE
  5
8E9
100
AcDbEntity
  8
M0
100
AcDbLine
 10
91.529117
 20
325.081873
 11
89.761539
 21
323.314173
  0
LINE
  5
8EA
100
AcDbEntity
  8
M0
100
AcDbLine
 10
94.500838
 20
327.492513
 11
87.850838
 21
327.492513
  0
ARC
  5
8EB
100
AcDbEntity
  8
M0
100
AcDbCircle
 10
94.500838
 20
326.992513
 40
0.5
100
AcDbArc
 50
0.0
 51
90.0
  0
LINE
  5
8EC
100
AcDbEntity
  8
M0
100
AcDbLine
 10
95.000838
 20
320.342513
 11
95.000838
 21
326.992513
  0
ARC
  5
8ED
100
AcDbEntity
  8
M0
100
AcDbCircle
 10
94.500838
 20
320.342513
 40
0.5
100
AcDbArc
 50
270.0
 51
360.0
  0
LINE
  5
8EE
100
AcDbEntity
  8
M0
100
AcDbLine
 10
87.850838
 20
319.842513
 11
94.500838
 21
319.842513
  0
LINE
  5
8EF
100
AcDbEntity
  8
M0
100
AcDbLine
 10
87.350838
 20
326.992513
 11
87.350838
 21
320.342513
  0
ARC
  5
8F0
100
AcDbEntity
  8
M0
100
AcDbCircle
 10
87.850838
 20
326.992513
 40
0.5
100
AcDbArc
 50
90.0
 51
180.0
  0
ARC
  5
8F1
100
AcDbEntity
  8
M0
100
AcDbCircle
 10
87.850838
 20
320.342513
 40
0.5
100
AcDbArc
 50
180.0
 51
270.0
  0
CIRCLE
  5
8F2
100
AcDbEntity
  8
M0
  6
DASHED
100
AcDbCircle
 10
40.775838
 20
350.267513
 40
3.0
  0
LINE
  5
8F3
100
AcDbEntity
  8
M0
  6
DASHED
100
AcDbLine
 10
42.366422
 20
348.676868
 11
39.184781
 21
351.858631
  0
LINE
  5
8F4
100
AcDbEntity
  8
M0
  6
DASHED
100
AcDbLine
 10
42.189664
 20
350.621204
 11
40.422086
 21
348.853626
  0
LINE
  5
8F5
100
AcDbEntity
  8
M0
  6
DASHED
100
AcDbLine
 10
41.129117
 20
351.681873
 11
39.361539
 21
349.914173
  0
LINE
  5
8F6
100
AcDbEntity
  8
M0
  6
DASHED
100
AcDbLine
 10
44.100838
 20
354.092513
 11
37.450838
 21
354.092513
  0
ARC
  5
8F7
100
AcDbEntity
  8
M0
  6
DASHED
100
AcDbCircle
 10
44.100838
 20
353.592513
 40
0.5
100
AcDbArc
 50
0.0
 51
90.0
  0
LINE
  5
8F8
100
AcDbEntity
  8
M0
  6
DASHED
100
AcDbLine
 10
44.600838
 20
346.942513
 11
44.600838
 21
353.592513
  0
ARC
  5
8F9
100
AcDbEntity
  8
M0
  6
DASHED
100
AcDbCircle
 10
44.100838
 20
346.942513
 40
0.5
100
AcDbArc
 50
270.0
 51
360.0
  0
LINE
  5
8FA
100
AcDbEntity
  8
M0
  6
DASHED
100
AcDbLine
 10
37.450838
 20
346.442513
 11
44.100838
 21
346.442513
  0
LINE
  5
8FB
100
AcDbEntity
  8
M0
  6
DASHED
100
AcDbLine
 10
36.950838
 20
353.592513
 11
36.950838
 21
346.942513
  0
ARC
  5
8FC
100
AcDbEntity
  8
M0
  6
DASHED
100
AcDbCircle
 10
37.450838
 20
353.592513
 40
0.5
100
AcDbArc
 50
90.0
 51
180.0
  0
ARC
  5
8FD
100
AcDbEntity
  8
M0
  6
DASHED
100
AcDbCircle
 10
37.450838
 20
346.942513
 40
0.5
100
AcDbArc
 50
180.0
 51
270.0
  0
LINE
  5
8FE
100
AcDbEntity
  8
M0
  6
DASHDOT
100
AcDbLine
 10
87.875838
 20
292.467513
 11
87.875838
 21
293.467513
  0
CIRCLE
  5
8FF
100
AcDbEntity
  8
M0
100
AcDbCircle
 10
87.875838
 20
292.967513
 40
4.499996
  0
LINE
  5
900
100
AcDbEntity
  8
M0
  6
DASHDOT
100
AcDbLine
 10
87.375838
 20
292.967513
 11
88.375838
 21
292.967513
  0
LINE
  5
901
100
AcDbEntity
  8
M0
100
AcDbLine
 10
88.342741
 20
294.848647
 11
85.994765
 21
292.500655
  0
LINE
  5
902
100
AcDbEntity
  8
M0
100
AcDbLine
 10
89.756941
 20
293.434432
 11
87.408965
 21
291.08644
  0
LINE
  5
903
100
AcDbEntity
  8
M0
100
AcDbLine
 10
85.806883
 20
295.036422
 11
90.069853
 21
290.773482
  0
CIRCLE
  5
904
100
AcDbEntity
  8
M0
 62
     7
100
AcDbCircle
 10
92.975834
 20
157.328848
 40
2.0
  0
CIRCLE
  5
905
100
AcDbEntity
  8
M0
 62
     7
100
AcDbCircle
 10
38.975835
 20
216.328848
 40
2.0
  0
CIRCLE
  5
906
100
AcDbEntity
  8
M0
 62
     7
100
AcDbCircle
 10
38.975835
 20
216.32884
 40
1.7
  0
CIRCLE
  5
907
100
AcDbEntity
  8
M0
 62
     7
100
AcDbCircle
 10
92.975834
 20
157.328848
 40
1.7
  0
CIRCLE
  5
908
100
AcDbEntity
  8
M0
 62
     7
100
AcDbCircle
 10
165.775828
 20
157.328848
 40
2.0
  0
CIRCLE
  5
909
100
AcDbEntity
  8
M0
 62
     7
100
AcDbCircle
 10
111.775829
 20
216.328848
 40
2.0
  0
CIRCLE
  5
90A
100
AcDbEntity
  8
M0
 62
     7
100
AcDbCircle
 10
111.775829
 20
216.32884
 40
1.7
  0
CIRCLE
  5
90B
100
AcDbEntity
  8
M0
 62
     7
100
AcDbCircle
 10
165.775828
 20
157.328848
 40
1.7
  0
LINE
  5
90C
100
AcDbEntity
  8
M0
  6
DIVIDE
 62
     7
100
AcDbLine
 10
107.375832
 20
211.628849
 11
97.375832
 21
211.628849
  0
LINE
  5
90D
100
AcDbEntity
  8
M0
  6
DIVIDE
 62
     7
100
AcDbLine
 10
107.375832
 20
160.828846
 11
97.375832
 21
160.828846
  0
LINE
  5
90E
100
AcDbEntity
  8
M0
  6
DASHDOT
 62
     7
100
AcDbLine
 10
43.07324
 20
216.328848
 11
34.878431
 21
216.328848
  0
LINE
  5
90F
100
AcDbEntity
  8
M0
  6
DASHDOT
 62
     7
100
AcDbLine
 10
38.975828
 20
220.426245
 11
38.975843
 21
212.231436
  0
LINE
  5
910
100
AcDbEntity
  8
M0
  6
DASHDOT
 62
     7
100
AcDbLine
 10
97.07324
 20
157.328848
 11
88.878431
 21
157.328848
  0
LINE
  5
911
100
AcDbEntity
  8
M0
  6
DASHDOT
 62
     7
100
AcDbLine
 10
92.975828
 20
161.426245
 11
92.975843
 21
152.231436
  0
LINE
  5
912
100
AcDbEntity
  8
M0
  6
DIVIDE
 62
     7
100
AcDbLine
 10
97.375832
 20
221.828849
 11
97.375832
 21
211.628849
  0
LINE
  5
913
100
AcDbEntity
  8
M0
  6
DIVIDE
 62
     7
100
AcDbLine
 10
170.175826
 20
150.828846
 11
164.275829
 21
150.828846
  0
LINE
  5
914
100
AcDbEntity
  8
M0
  6
DIVIDE
 62
     7
100
AcDbLine
 10
164.275829
 20
221.828849
 11
170.175826
 21
221.828849
  0
LINE
  5
915
100
AcDbEntity
  8
M0
  6
DIVIDE
 62
     7
100
AcDbLine
 10
170.175826
 20
221.828849
 11
170.175826
 21
150.828846
  0
LINE
  5
916
100
AcDbEntity
  8
M0
  6
DIVIDE
 62
     7
100
AcDbLine
 10
107.375832
 20
221.828849
 11
107.375832
 21
211.628849
  0
LINE
  5
917
100
AcDbEntity
  8
M0
  6
DASHDOT
 62
     7
100
AcDbLine
 10
169.873234
 20
157.328848
 11
161.678425
 21
157.328848
  0
LINE
  5
918
100
AcDbEntity
  8
M0
  6
DASHDOT
 62
     7
100
AcDbLine
 10
165.775822
 20
161.426245
 11
165.775837
 21
152.231436
  0
LINE
  5
919
100
AcDbEntity
  8
M0
  6
DASHDOT
 62
     7
100
AcDbLine
 10
115.873234
 20
216.328848
 11
107.678425
 21
216.328848
  0
LINE
  5
91A
100
AcDbEntity
  8
M0
  6
DASHDOT
 62
     7
100
AcDbLine
 10
111.775822
 20
220.426245
 11
111.775837
 21
212.231436
  0
LINE
  5
91B
100
AcDbEntity
  8
M0
  6
DIVIDE
 62
     7
100
AcDbLine
 10
113.275829
 20
221.828849
 11
107.375832
 21
221.828849
  0
LINE
  5
91C
100
AcDbEntity
  8
M0
  6
DIVIDE
 62
     7
100
AcDbLine
 10
107.375832
 20
160.828846
 11
107.375832
 21
150.828846
  0
LINE
  5
91D
100
AcDbEntity
  8
M0
  6
DIVIDE
 62
     7
100
AcDbLine
 10
97.375832
 20
150.828846
 11
91.475835
 21
150.828846
  0
LINE
  5
91E
100
AcDbEntity
  8
M0
  6
DIVIDE
 62
     7
100
AcDbLine
 10
34.575838
 20
221.828849
 11
34.575838
 21
150.828846
  0
LINE
  5
91F
100
AcDbEntity
  8
M0
  6
DIVIDE
 62
     7
100
AcDbLine
 10
40.475835
 20
221.828849
 11
34.575838
 21
221.828849
  0
LINE
  5
920
100
AcDbEntity
  8
M0
  6
DIVIDE
 62
     7
100
AcDbLine
 10
91.475835
 20
221.828849
 11
97.375832
 21
221.828849
  0
LINE
  5
921
100
AcDbEntity
  8
M0
  6
DIVIDE
 62
     7
100
AcDbLine
 10
97.375832
 20
160.828846
 11
97.375832
 21
150.828846
  0
LINE
  5
922
100
AcDbEntity
  8
M0
  6
DIVIDE
 62
     7
100
AcDbLine
 10
40.475835
 20
150.828846
 11
34.575838
 21
150.828846
  0
LINE
  5
923
100
AcDbEntity
  8
M0
  6
DIVIDE
 62
     7
100
AcDbLine
 10
113.275829
 20
150.828846
 11
107.375832
 21
150.828846
  0
LINE
  5
924
100
AcDbEntity
  8
M0
  6
DASHDOT
 62
     7
100
AcDbLine
 10
102.375835
 20
242.16529
 11
102.375835
 21
129.025894
  0
LINE
  5
925
100
AcDbEntity
  8
M0
  6
DIVIDE
 62
     7
100
AcDbLine
 10
40.475835
 20
221.828849
 11
40.475835
 21
236.328846
  0
LINE
  5
926
100
AcDbEntity
  8
M0
  6
DIVIDE
 62
     7
100
AcDbLine
 10
91.475835
 20
221.828849
 11
91.475835
 21
236.328846
  0
LINE
  5
927
100
AcDbEntity
  8
M0
  6
DIVIDE
 62
     7
100
AcDbLine
 10
91.475835
 20
236.328846
 11
40.475835
 21
236.328846
  0
LINE
  5
928
100
AcDbEntity
  8
M0
  6
DIVIDE
 62
     7
100
AcDbLine
 10
40.475835
 20
136.328846
 11
91.475835
 21
136.328846
  0
LINE
  5
929
100
AcDbEntity
  8
M0
  6
DIVIDE
 62
     7
100
AcDbLine
 10
40.475835
 20
136.328846
 11
40.475835
 21
150.828846
  0
LINE
  5
92A
100
AcDbEntity
  8
M0
  6
DIVIDE
 62
     7
100
AcDbLine
 10
91.475835
 20
136.328846
 11
91.475835
 21
150.828846
  0
LINE
  5
92B
100
AcDbEntity
  8
M0
  6
DIVIDE
 62
     7
100
AcDbLine
 10
113.275829
 20
221.828849
 11
113.275829
 21
236.328846
  0
LINE
  5
92C
100
AcDbEntity
  8
M0
  6
DIVIDE
 62
     7
100
AcDbLine
 10
164.275829
 20
236.328846
 11
113.275829
 21
236.328846
  0
LINE
  5
92D
100
AcDbEntity
  8
M0
  6
DIVIDE
 62
     7
100
AcDbLine
 10
164.275829
 20
221.828849
 11
164.275829
 21
236.328846
  0
LINE
  5
92E
100
AcDbEntity
  8
M0
  6
DIVIDE
 62
     7
100
AcDbLine
 10
164.275829
 20
136.328846
 11
164.275829
 21
150.828846
  0
LINE
  5
92F
100
AcDbEntity
  8
M0
  6
DIVIDE
 62
     7
100
AcDbLine
 10
113.275829
 20
136.328846
 11
164.275829
 21
136.328846
  0
LINE
  5
930
100
AcDbEntity
  8
M0
  6
DIVIDE
 62
     7
100
AcDbLine
 10
113.275829
 20
136.328846
 11
113.275829
 21
150.828846
  0
LINE
  5
931
100
AcDbEntity
  8
M3
 62
     2
100
AcDbLine
 10
333.003619
 20
67.593652
 11
166.336959
 21
67.593652
  0
LINE
  5
932
100
AcDbEntity
  8
M3
 62
     2
100
AcDbLine
 10
16.336965
 20
17.593654
 11
16.336965
 21
475.92697
  0
LINE
  5
933
100
AcDbEntity
  8
M3
 62
     2
100
AcDbLine
 10
333.003619
 20
17.593654
 11
16.336965
 21
17.593654
  0
LINE
  5
934
100
AcDbEntity
  8
M3
 62
     2
100
AcDbLine
 10
333.003619
 20
34.26032
 11
166.336959
 21
34.26032
  0
TEXT
  5
935
100
AcDbEntity
  8
M3
 62
     2
100
AcDbText
 10
169.948066
 20
38.426987
 40
8.333333
  1
形　式；
 41
1.0
  7
STANDARD
100
AcDbText
  0
LINE
  5
936
100
AcDbEntity
  8
M3
 62
     2
100
AcDbLine
 10
333.003619
 20
50.926986
 11
166.336959
 21
50.926986
  0
TEXT
  5
937
100
AcDbEntity
  8
M3
 62
     2
100
AcDbText
 10
169.948066
 20
55.093653
 40
8.333333
  1
登録名：
 41
1.0
  7
STANDARD
100
AcDbText
  0
LINE
  5
938
100
AcDbEntity
  8
M3
 62
     2
100
AcDbLine
 10
166.336959
 20
17.593654
 11
166.336959
 21
67.593652
  0
TEXT
  5
939
100
AcDbEntity
  8
M3
 62
     2
100
AcDbText
 10
169.948066
 20
21.760321
 40
8.333333
  1
適　用；
 41
1.0
  7
STANDARD
100
AcDbText
  0
LINE
  5
93A
100
AcDbEntity
  8
M3
 62
     2
100
AcDbLine
 10
16.336965
 20
475.92697
 11
333.003619
 21
475.92697
  0
LINE
  5
93B
100
AcDbEntity
  8
M3
 62
     2
100
AcDbLine
 10
333.003619
 20
475.92697
 11
333.003619
 21
17.593654
  0
TEXT
  5
93C
100
AcDbEntity
  8
M3
 62
     2
100
AcDbText
 10
210.22585
 20
55.093653
 40
8.333333
  1
ＤＭＨＳ２５ＲＲ００
 41
0.5
  7
STANDARD
100
AcDbText
  0
TEXT
  5
93D
100
AcDbEntity
  8
M3
 62
     2
100
AcDbText
 10
210.22585
 20
38.426987
 40
8.333333
  1
ＨＳ２５－Ｒ
 41
0.5
  7
STANDARD
100
AcDbText
  0
LINE
  5
93E
100
AcDbEntity
  8
DN0
100
AcDbLine
 10
89.966226
 20
104.662417
 11
117.016226
 21
104.662417
  0
TEXT
  5
93F
100
AcDbEntity
  8
DN0
100
AcDbText
 10
90.713448
 20
105.329083
 40
6.666666
  1
せん孔図
 41
0.833333
  7
STANDARD
100
AcDbText
  0
ENDSEC
  0
SECTION
  2
OBJECTS
  0
DICTIONARY
  5
C
100
AcDbDictionary
  3
ACAD_GROUP
350
D
  3
ACAD_MLINESTYLE
350
E
  3
ACDBVARIABLEDICTIONARY
350
1AC
  0
DICTIONARY
  5
D
102
{ACAD_REACTORS
330
C
102
}
100
AcDbDictionary
  0
DICTIONARY
  5
E
102
{ACAD_REACTORS
330
C
102
}
100
AcDbDictionary
  3
STANDARD
350
13
  0
DICTIONARY
  5
1AC
102
{ACAD_REACTORS
330
C
102
}
100
AcDbDictionary
  3
SORTENTS
350
1AD
  0
MLINESTYLE
  5
13
102
{ACAD_REACTORS
330
E
102
}
100
AcDbMlineStyle
  2
STANDARD
 70
     0
  3

 62
     0
 51
90.0
 52
90.0
 71
     2
 49
0.5
 62
   256
  6
BYLAYER
 49
-0.5
 62
   256
  6
BYLAYER
  0
DICTIONARYVAR
  5
1AD
102
{ACAD_REACTORS
330
1AC
102
}
100
DictionaryVariables
280
     0
  1
96
  0
ENDSEC
  0
EOF
