  0
SECTION
  2
HEADER
  9
$ACADVER
  1
AC1009
  9
$INSBASE
 10
0.000000
 20
0.000000
 30
0.0
  9
$VIEWCTR
 10
7.531722
 20
4.5
  9
$VIEWSIZE
 40
9.0
  9
$SNAPMODE
 70
     0
  9
$SNAPUNIT
 10
1.0
 20
1.0
  9
$SNAPBASE
 10
0.0
 20
0.0
  9
$SNAPANG
 50
0.0
  9
$SNAPSTYLE
 70
     0
  9
$SNAPISOPAIR
 70
     0
  9
$GRIDMODE
 70
     0
  9
$GRIDUNIT
 10
0.0
 20
0.0
  9
$ORTHOMODE
 70
     0
  9
$REGENMODE
 70
     1
  9
$FILLMODE
 70
     1
  9
$QTEXTMODE
 70
     0
  9
$DRAGMODE
 70
     2
  9
$LTSCALE
  40
     1.000000
  9
$OSMODE
 70
     0
  9
$ATTMODE
 70
     1
  9
$TEXTSIZE
 40
0.2
  9
$TRACEWID
 40
0.05
  9
$TEXTSTYLE
  7
STANDARD
  9
$CELTYPE
  6
BYLAYER
  9
$CECOLOR
 62
   256
  9
$DIMSCALE
 40
1.0
  9
$DIMASZ
 40
0.18
  9
$DIMEXO
 40
0.0625
  9
$DIMDLI
 40
0.38
  9
$DIMRND
 40
0.0
  9
$DIMDLE
 40
0.0
  9
$DIMEXE
 40
0.18
  9
$DIMTP
 40
0.0
  9
$DIMTM
 40
0.0
  9
$DIMTXT
 40
0.18
  9
$DIMCEN
 40
0.09
  9
$DIMTSZ
 40
0.0
  9
$DIMTOL
 70
     0
  9
$DIMLIM
 70
     0
  9
$DIMTIH
 70
     1
  9
$DIMTOH
 70
     1
  9
$DIMSE1
 70
     0
  9
$DIMSE2
 70
     0
  9
$DIMTAD
 70
     0
  9
$DIMZIN
 70
     0
  9
$DIMBLK
  1

  9
$LUNITS
 70
     2
  9
$LUPREC
 70
     4
  9
$AXISMODE
 70
     0
  9
$AXISUNIT
 10
0.0
 20
0.0
  9
$SKETCHINC
 40
0.1
  9
$FILLETRAD
 40
0.0
  9
$AUNITS
 70
     0
  9
$AUPREC
 70
     0
  9
$MENU
  1
ACAD
  9
$ELEVATION
 40
0.0
  9
$THICKNESS
 40
0.0
  9
$VIEWDIR
 10
0.0
 20
0.0
 30
1.0
  9
$LIMCHECK
 70
     0
  9
$BLIPMODE
 70
     1
  9
$CHAMFERA
 40
0.0
  9
$CHAMFERB
 40
0.0
  9
$FASTZOOM
 70
     1
  9
$SKPOLY
 70
     0
  9
$TDCREATE
 40
0000000.0000000000
  9
$TDUPDATE
 40
0000000.0000000000
  9
$TDINDWG
 40
0.0000000000
  9
$TDUSRTIMER
 40
0.0000000000
  9
$USRTIMER
 70
     1
  9
$ANGBASE
 50
0.0
  9
$ANGDIR
 70
     0
  9
$PDMODE
 70
     0
  9
$PDSIZE
 40
0.0
  9
$PLINEWID
 40
0.0
  9
$COORDS
 70
     0
  9
$USERI1
 70
     0
  9
$USERI2
 70
     0
  9
$USERI3
 70
     0
  9
$USERI4
 70
     0
  9
$USERI5
 70
     0
  9
$USERR1
 40
0.0
  9
$USERR2
 40
0.0
  9
$USERR3
 40
0.0
  9
$USERR4
 40
0.0
  9
$USERR5
 40
0.0
  9
$CLAYER
  8
M0
  9
$EXTMIN
 10
16.336965
 20
17.593654
  9
$EXTMAX
 10
333.003619
 20
475.92697
  9
$LIMMIN
 10
0.0
 20
0.0
  9
$LIMMAX
 10
210.0
 20
297.0
  0
ENDSEC
  0
SECTION
  2
TABLES
  0
TABLE
  2
VPORT
  0
VPORT
  2
*ACTIVE
 70
     0
 10
0.0
 20
0.0
 11
1.0
 21
1.0
 12
484.0
 22
297.0
 13
0.0
 23
0.0
 14
1.0
 24
1.0
 15
0.0
 25
0.0
 16
0.0
 26
0.0
 36
1.0
 17
0.0
 27
0.0
 37
0.0
 40
594.0
 41
2.0
 42
50.0
 43
0.0
 44
0.0
 50
0.0
 51
0.0
 71
     0
 72
   100
 73
     1
 74
     1
 75
     0
 76
     0
 77
     0
 78
     0
  0
ENDTAB
  0
TABLE
  2
LTYPE
 70
     5
  0
LTYPE
  2
CONTINUOUS
 70
    64
  3
Solid line
 72
    65
 73
     0
 40
0.0
  0
LTYPE
  2
DASHED
 70
    64
  3
__ __ __ __ __ __ __ __ __ __ __ __ __ __ __ __
 72
    65
 73
     2
 40
0.75
 49
0.5
 49
-0.25
  0
LTYPE
  2
DASHDOT
 70
    64
  3
__ . __ . __ . __ . __ . __ . __ . __ . __ . __
 72
    65
 73
     4
 40
1.0
 49
0.5
 49
-0.25
 49
0.0
 49
-0.25
  0
LTYPE
  2
DIVIDE
 70
    64
  3
____ . . ____ . . ____ . . ____ . . ____ . . __
 72
    65
 73
     6
 40
1.25
 49
0.5
 49
-0.25
 49
0.0
 49
-0.25
 49
0.0
 49
-0.25
  0
LTYPE
  2
DOT
 70
    64
  3
. . . . . . . . . . . . . . . . . . . . . . . .
 72
    65
 73
     2
 40
0.25
 49
0.0
 49
-0.25
  0
ENDTAB
  0
TABLE
  2
LAYER
 70
   102
  0
LAYER
  2
0
 70
     0
 62
     7
  6
CONTINUOUS
  0
LAYER
  2
M0
 70
     0
 62
     3
  6
CONTINUOUS
  0
LAYER
  2
M3
 70
     0
 62
     3
  6
CONTINUOUS
  0
LAYER
  2
DD0
 70
     0
 62
     4
  6
CONTINUOUS
  0
LAYER
  2
DN0
 70
     0
 62
     2
  6
CONTINUOUS
  0
ENDTAB
  0
TABLE
  2
STYLE
 70
     2
  0
STYLE
  2
STANDARD
 70
     0
 40
0.0
 41
1.0
 50
0.0
 71
     0
 42
0.2
  3
txt
  4
BIGFONT
  0
ENDTAB
  0
TABLE
  2
VIEW
 70
     0
  0
ENDTAB
  0
TABLE
  2
DIMSTYLE
 70
     2
  0
DIMSTYLE
  2
STANDARD
 70
     0
  3

  4

  5

  6
_OPEN
  7
_OPEN
 40
1.0
 41
5.0
 42
1.0
 43
8.0
 44
1.0
 45
0.0
 46
0.0
 47
0.0
 48
0.0
140
5.25
141
0.09
142
0.0
143
0.03937
144
1.0
145
0.0
146
1.0
147
0.6
 71
     0
 72
     0
 73
     1
 74
     1
 75
     0
 76
     0
 77
     3
 78
     8
170
     0
171
     2
172
     0
173
     1
174
     0
175
     0
176
     0
177
     0
178
     0
  0
ENDTAB
  0
ENDSEC
  0
SECTION
  2
BLOCKS
  0
BLOCK
  8
DD0
  2
DIMS0
 70
     0
 10
0.0
 20
0.0
  0
LINE
  8
DD0
 10
212.651333
 20
358.873404
 11
212.651333
 21
420.605325
  0
LINE
  8
DD0
 10
288.921707
 20
417.644563
 11
293.751336
 21
418.938658
  0
LINE
  8
DD0
 10
293.751336
 20
418.938658
 11
288.921707
 21
420.232753
  0
LINE
  8
DD0
 10
217.480962
 20
420.232753
 11
212.651333
 21
418.938658
  0
LINE
  8
DD0
 10
212.651333
 20
418.938658
 11
217.480962
 21
417.644563
  0
LINE
  8
DD0
 10
293.751336
 20
418.938658
 11
212.651333
 21
418.938658
  0
TEXT
  8
DD0
 10
250.154103
 20
419.938668
 40
4.166667
  1
８１
 41
0.666667
  7
STANDARD
  0
ENDBLK
  8
DD0
  0
BLOCK
  8
DD0
  2
DIMS1
 70
     0
 10
0.0
 20
0.0
  0
LINE
  8
DD0
 10
293.751336
 20
381.123413
 11
293.751336
 21
429.133335
  0
LINE
  8
DD0
 10
181.351337
 20
349.673397
 11
181.351337
 21
429.133335
  0
LINE
  8
DD0
 10
288.921707
 20
426.172573
 11
293.751336
 21
427.466668
  0
LINE
  8
DD0
 10
293.751336
 20
427.466668
 11
288.921707
 21
428.760763
  0
LINE
  8
DD0
 10
186.180966
 20
428.760763
 11
181.351337
 21
427.466668
  0
LINE
  8
DD0
 10
181.351337
 20
427.466668
 11
186.180966
 21
426.172573
  0
LINE
  8
DD0
 10
293.751336
 20
427.466668
 11
181.351337
 21
427.466668
  0
TEXT
  8
DD0
 10
197.837439
 20
428.466678
 40
4.166667
  1
１１２（補助接点ヘッドオンユニットを付けた場合）
 41
0.666667
  7
STANDARD
  0
ENDBLK
  8
DD0
  0
BLOCK
  8
DD0
  2
DIMS2
 70
     0
 10
0.0
 20
0.0
  0
LINE
  8
DD0
 10
212.651333
 20
358.873404
 11
212.651333
 21
405.681365
  0
LINE
  8
DD0
 10
207.651334
 20
395.793518
 11
207.651334
 21
405.681365
  0
LINE
  8
DD0
 10
217.480962
 20
405.308794
 11
212.651333
 21
404.014699
  0
LINE
  8
DD0
 10
212.651333
 20
404.014699
 11
217.480962
 21
402.720603
  0
LINE
  8
DD0
 10
202.821705
 20
402.720603
 11
207.651334
 21
404.014699
  0
LINE
  8
DD0
 10
207.651334
 20
404.014699
 11
202.821705
 21
405.308794
  0
LINE
  8
DD0
 10
218.151333
 20
404.014699
 11
197.151334
 21
404.014699
  0
TEXT
  8
DD0
 10
198.620774
 20
405.014709
 40
4.166667
  1
５
 41
0.666667
  7
STANDARD
  0
ENDBLK
  8
DD0
  0
BLOCK
  8
DD0
  2
DIMS3
 70
     0
 10
0.0
 20
0.0
  0
LINE
  8
DD0
 10
52.291032
 20
377.0734
 11
52.291032
 21
429.133335
  0
LINE
  8
DD0
 10
140.091026
 20
377.0734
 11
140.091026
 21
429.133335
  0
LINE
  8
DD0
 10
57.120661
 20
428.760763
 11
52.291032
 21
427.466668
  0
LINE
  8
DD0
 10
52.291032
 20
427.466668
 11
57.120661
 21
426.172573
  0
LINE
  8
DD0
 10
135.261397
 20
426.172573
 11
140.091026
 21
427.466668
  0
LINE
  8
DD0
 10
140.091026
 20
427.466668
 11
135.261397
 21
428.760763
  0
LINE
  8
DD0
 10
52.291032
 20
427.466668
 11
140.091026
 21
427.466668
  0
TEXT
  8
DD0
 10
93.143808
 20
428.466678
 40
4.166667
  1
８８
 41
0.666667
  7
STANDARD
  0
TEXT
  8
DD0
 10
61.477142
 20
421.966689
 40
4.166667
  1
（補助接点サイドオンユニットを付けた場合）
 41
0.666667
  7
STANDARD
  0
ENDBLK
  8
DD0
  0
BLOCK
  8
DD0
  2
DIMS4
 70
     0
 10
0.0
 20
0.0
  0
LINE
  8
DD0
 10
293.751336
 20
310.290083
 11
293.751336
 21
289.72088
  0
LINE
  8
DD0
 10
282.751326
 20
309.540062
 11
282.751326
 21
289.72088
  0
LINE
  8
DD0
 10
298.580965
 20
292.681642
 11
293.751336
 21
291.387546
  0
LINE
  8
DD0
 10
293.751336
 20
291.387546
 11
298.580965
 21
290.093451
  0
LINE
  8
DD0
 10
277.921698
 20
290.093451
 11
282.751326
 21
291.387546
  0
LINE
  8
DD0
 10
282.751326
 20
291.387546
 11
277.921698
 21
292.681642
  0
LINE
  8
DD0
 10
299.251336
 20
291.387546
 11
277.251327
 21
291.387546
  0
TEXT
  8
DD0
 10
285.204099
 20
292.387557
 40
4.166667
  1
１１
 41
0.666667
  7
STANDARD
  0
ENDBLK
  8
DD0
  0
BLOCK
  8
DD0
  2
DIMS5
 70
     0
 10
0.0
 20
0.0
  0
LINE
  8
DD0
 10
123.757701
 20
395.706746
 11
162.22367
 21
395.706746
  0
LINE
  8
DD0
 10
123.757701
 20
295.70675
 11
162.22367
 21
295.70675
  0
LINE
  8
DD0
 10
161.851098
 20
390.877117
 11
160.557003
 21
395.706746
  0
LINE
  8
DD0
 10
160.557003
 20
395.706746
 11
159.262908
 21
390.877117
  0
LINE
  8
DD0
 10
159.262908
 20
300.536379
 11
160.557003
 21
295.70675
  0
LINE
  8
DD0
 10
160.557003
 20
295.70675
 11
161.851098
 21
300.536379
  0
LINE
  8
DD0
 10
160.557003
 20
395.706746
 11
160.557003
 21
295.70675
  0
TEXT
  8
DD0
 10
159.557006
 20
340.992849
 40
4.166667
  1
１００
 50
90.000003
 41
0.666667
  7
STANDARD
  0
ENDBLK
  8
DD0
  0
BLOCK
  8
DD0
  2
DIMS6
 70
     0
 10
0.0
 20
0.0
  0
LINE
  8
DD0
 10
96.191027
 20
292.809996
 11
96.191027
 21
280.538319
  0
LINE
  8
DD0
 10
74.291029
 20
299.540063
 11
74.291029
 21
280.538319
  0
LINE
  8
DD0
 10
91.361398
 20
280.91089
 11
96.191027
 21
282.204986
  0
LINE
  8
DD0
 10
96.191027
 20
282.204986
 11
91.361398
 21
283.499081
  0
LINE
  8
DD0
 10
79.120658
 20
283.499081
 11
74.291029
 21
282.204986
  0
LINE
  8
DD0
 10
74.291029
 20
282.204986
 11
79.120658
 21
280.91089
  0
LINE
  8
DD0
 10
96.191027
 20
282.204986
 11
74.291029
 21
282.204986
  0
TEXT
  8
DD0
 10
82.193809
 20
283.204996
 40
4.166667
  1
２２
 41
0.666667
  7
STANDARD
  0
ENDBLK
  8
DD0
  0
BLOCK
  8
DD0
  2
DIMS7
 70
     0
 10
0.0
 20
0.0
  0
LINE
  8
DD0
 10
64.791028
 20
377.873418
 11
64.791028
 21
413.295653
  0
LINE
  8
DD0
 10
127.591026
 20
377.873418
 11
127.591026
 21
413.295653
  0
LINE
  8
DD0
 10
69.620657
 20
412.923082
 11
64.791028
 21
411.628987
  0
LINE
  8
DD0
 10
64.791028
 20
411.628987
 11
69.620657
 21
410.334891
  0
LINE
  8
DD0
 10
122.761397
 20
410.334891
 11
127.591026
 21
411.628987
  0
LINE
  8
DD0
 10
127.591026
 20
411.628987
 11
122.761397
 21
412.923082
  0
LINE
  8
DD0
 10
64.791028
 20
411.628987
 11
127.591026
 21
411.628987
  0
TEXT
  8
DD0
 10
93.143808
 20
412.628997
 40
4.166667
  1
６３
 41
0.666667
  7
STANDARD
  0
ENDBLK
  8
DD0
  0
BLOCK
  8
DD0
  2
DIMS8
 70
     0
 10
0.0
 20
0.0
  0
TEXT
  8
DD0
 10
121.792457
 20
136.336486
 40
4.166667
  1
２－Ｍ４ねじ穴
 41
0.666667
  7
STANDARD
  0
LINE
  8
DD0
 10
126.955699
 20
156.619169
 11
124.553536
 21
161.004327
  0
LINE
  8
DD0
 10
124.553536
 20
161.004327
 11
124.441291
 21
156.005587
  0
LINE
  8
DD0
 10
124.553536
 20
161.004327
 11
128.800006
 21
143.602645
  0
ENDBLK
  8
DD0
  0
BLOCK
  8
DD0
  2
DIMS9
 70
     0
 10
0.0
 20
0.0
  0
LINE
  8
DD0
 10
74.955098
 20
221.468421
 11
145.549056
 21
221.468421
  0
LINE
  8
DD0
 10
128.955098
 20
162.468421
 11
145.549056
 21
162.468421
  0
LINE
  8
DD0
 10
145.176485
 20
216.638792
 11
143.88239
 21
221.468421
  0
LINE
  8
DD0
 10
143.88239
 20
221.468421
 11
142.588294
 21
216.638792
  0
LINE
  8
DD0
 10
142.588294
 20
167.298049
 11
143.88239
 21
162.468421
  0
LINE
  8
DD0
 10
143.88239
 20
162.468421
 11
145.176485
 21
167.298049
  0
LINE
  8
DD0
 10
143.88239
 20
221.468421
 11
143.88239
 21
162.468421
  0
TEXT
  8
DD0
 10
142.882392
 20
188.921207
 40
4.166667
  1
５９
 50
90.000003
 41
0.666667
  7
STANDARD
  0
ENDBLK
  8
DD0
  0
BLOCK
  8
DD0
  2
DIMS10
 70
     0
 10
0.0
 20
0.0
  0
LINE
  8
DD0
 10
69.191021
 20
227.232479
 11
69.191021
 21
250.81425
  0
LINE
  8
DD0
 10
123.191015
 20
168.232479
 11
123.191015
 21
250.81425
  0
LINE
  8
DD0
 10
74.02065
 20
250.441678
 11
69.191021
 21
249.147583
  0
LINE
  8
DD0
 10
69.191021
 20
249.147583
 11
74.02065
 21
247.853488
  0
LINE
  8
DD0
 10
118.361386
 20
247.853488
 11
123.191015
 21
249.147583
  0
LINE
  8
DD0
 10
123.191015
 20
249.147583
 11
118.361386
 21
250.441678
  0
LINE
  8
DD0
 10
69.191021
 20
249.147583
 11
123.191015
 21
249.147583
  0
TEXT
  8
DD0
 10
93.143801
 20
250.147593
 40
4.166667
  1
５４
 41
0.666667
  7
STANDARD
  0
ENDBLK
  8
DD0
  0
BLOCK
  8
DD0
  2
DIMS11
 70
     0
 10
0.0
 20
0.0
  0
LINE
  8
DD0
 10
123.357692
 20
241.46842
 11
145.549056
 21
241.46842
  0
LINE
  8
DD0
 10
74.955098
 20
221.468421
 11
145.549056
 21
221.468421
  0
LINE
  8
DD0
 10
145.176485
 20
236.638791
 11
143.88239
 21
241.46842
  0
LINE
  8
DD0
 10
143.88239
 20
241.46842
 11
142.588294
 21
236.638791
  0
LINE
  8
DD0
 10
142.588294
 20
226.29805
 11
143.88239
 21
221.468421
  0
LINE
  8
DD0
 10
143.88239
 20
221.468421
 11
145.176485
 21
226.29805
  0
LINE
  8
DD0
 10
143.88239
 20
241.46842
 11
143.88239
 21
221.468421
  0
TEXT
  8
DD0
 10
142.882392
 20
228.421188
 40
4.166667
  1
２０
 50
90.000003
 41
0.666667
  7
STANDARD
  0
ENDBLK
  8
DD0
  0
ENDSEC
  0
SECTION
  2
ENTITIES
  0
INSERT
  8
DD0
  2
DIMS0
 10
0.0
 20
0.0
  0
INSERT
  8
DD0
  2
DIMS1
 10
0.0
 20
0.0
  0
INSERT
  8
DD0
  2
DIMS2
 10
0.0
 20
0.0
  0
INSERT
  8
DD0
  2
DIMS3
 10
0.0
 20
0.0
  0
INSERT
  8
DD0
  2
DIMS4
 10
0.0
 20
0.0
  0
INSERT
  8
DD0
  2
DIMS5
 10
0.0
 20
0.0
  0
INSERT
  8
DD0
  2
DIMS6
 10
0.0
 20
0.0
  0
INSERT
  8
DD0
  2
DIMS7
 10
0.0
 20
0.0
  0
INSERT
  8
DD0
  2
DIMS8
 10
0.0
 20
0.0
  0
INSERT
  8
DD0
  2
DIMS9
 10
0.0
 20
0.0
  0
INSERT
  8
DD0
  2
DIMS10
 10
0.0
 20
0.0
  0
INSERT
  8
DD0
  2
DIMS11
 10
0.0
 20
0.0
  0
LINE
  8
M0
 62
   154
 10
93.091026
 20
315.706741
 11
93.091026
 21
308.904567
  0
LINE
  8
M0
 62
   154
 10
99.291026
 20
315.706741
 11
99.291026
 21
308.904567
  0
LINE
  8
M0
 62
   154
 10
101.191026
 20
305.307466
 11
101.191026
 21
296.706741
  0
LINE
  8
M0
 62
   154
 10
100.116028
 20
306.838318
 11
100.916025
 21
305.996215
  0
LINE
  8
M0
 62
   154
 10
101.026442
 20
316.706741
 11
100.291026
 21
316.706741
  0
LINE
  8
M0
 62
   154
 10
91.191026
 20
305.307466
 11
91.191026
 21
296.706741
  0
LINE
  8
M0
 62
   154
 10
100.191026
 20
295.706741
 11
92.191026
 21
295.706741
  0
LINE
  8
M0
 62
   154
 10
91.35561
 20
316.706741
 11
92.091026
 21
316.706741
  0
LINE
  8
M0
 62
   154
 10
100.191026
 20
327.006741
 11
92.191026
 21
327.006741
  0
LINE
  8
M0
 62
   154
 10
91.191026
 20
326.006741
 11
91.191026
 21
325.986537
  0
LINE
  8
M0
 62
   154
 10
91.191026
 20
324.026945
 11
91.191026
 21
318.986537
  0
LINE
  8
M0
 62
   154
 10
101.191026
 20
324.026945
 11
101.191026
 21
318.986537
  0
LINE
  8
M0
 62
   154
 10
101.191026
 20
326.006741
 11
101.191026
 21
325.986537
  0
ARC
  8
M0
 62
   154
 10
93.491026
 20
325.006741
 40
2.5
 50
156.926082
 51
203.073918
  0
ARC
  8
M0
 62
   154
 10
92.191026
 20
326.006741
 40
1.0
 50
90.0
 51
180.0
  0
ARC
  8
M0
 62
   154
 10
100.191026
 20
326.006741
 40
1.0
 50
3.254286E-012
 51
90.0
  0
ARC
  8
M0
 62
   154
 10
100.291026
 20
315.706741
 40
1.0
 50
90.0
 51
180.0
  0
ARC
  8
M0
 62
   154
 10
92.091026
 20
315.706741
 40
1.0
 50
0.0
 51
90.0
  0
ARC
  8
M0
 62
   154
 10
93.491026
 20
318.006741
 40
2.5
 50
156.926082
 51
211.332251
  0
ARC
  8
M0
 62
   154
 10
98.891026
 20
318.006741
 40
2.5
 50
328.667749
 51
383.073918
  0
ARC
  8
M0
 62
   154
 10
98.891026
 20
325.006741
 40
2.5
 50
336.926082
 51
383.073918
  0
ARC
  8
M0
 62
   154
 10
92.191026
 20
296.706741
 40
1.0
 50
180.0
 51
270.0
  0
ARC
  8
M0
 62
   154
 10
92.191026
 20
305.307466
 40
1.0
 50
136.468801
 51
180.0
  0
ARC
  8
M0
 62
   154
 10
100.191026
 20
296.706741
 40
1.0
 50
-90.0
 51
0.0
  0
ARC
  8
M0
 62
   154
 10
100.191026
 20
305.307466
 40
1.0
 50
0.0
 51
43.531199
  0
ARC
  8
M0
 62
   154
 10
90.091026
 20
308.904567
 40
3.0
 50
-43.531199
 51
0.0
  0
ARC
  8
M0
 62
   154
 10
102.291026
 20
308.904567
 40
3.0
 50
180.0
 51
223.531199
  0
LINE
  8
M0
 62
   154
 10
92.266024
 20
306.838318
 11
91.466027
 21
305.996215
  0
ARC
  8
M0
 62
   154
 10
87.191029
 20
376.706741
 40
2.0
 50
180.0
 51
270.0
  0
ARC
  8
M0
 62
   154
 10
81.191029
 20
378.175828
 40
4.0
 50
1.628444E-012
 51
31.574191
  0
LINE
  8
M0
 62
   154
 10
79.883178
 20
387.943246
 11
84.598881
 21
380.270237
  0
LINE
  8
M0
 62
   154
 10
85.191029
 20
376.706741
 11
85.191029
 21
378.175828
  0
LINE
  8
M0
 62
   154
 10
87.191029
 20
374.706741
 11
88.026445
 21
374.706741
  0
LINE
  8
M0
 62
   154
 10
78.291029
 20
395.706741
 11
70.291029
 21
395.706741
  0
LINE
  8
M0
 62
   154
 10
79.291029
 20
394.706741
 11
79.291029
 21
390.037654
  0
LINE
  8
M0
 62
   154
 10
87.191029
 20
364.406741
 11
79.191029
 21
364.406741
  0
LINE
  8
M0
 62
   154
 10
69.291029
 20
394.706741
 11
69.291029
 21
389.349599
  0
ARC
  8
M0
 62
   154
 10
80.491029
 20
373.406741
 40
2.5
 50
156.926082
 51
203.073918
  0
ARC
  8
M0
 62
   154
 10
80.491029
 20
366.406741
 40
2.5
 50
156.926082
 51
203.073918
  0
ARC
  8
M0
 62
   154
 10
85.891029
 20
373.406741
 40
2.5
 50
-23.073918
 51
31.332251
  0
ARC
  8
M0
 62
   154
 10
85.891029
 20
366.406741
 40
2.5
 50
-23.073918
 51
23.073918
  0
LINE
  8
M0
 62
   154
 10
78.191029
 20
372.426945
 11
78.191029
 21
367.386537
  0
LINE
  8
M0
 62
   154
 10
78.191029
 20
365.426945
 11
78.191029
 21
365.406741
  0
LINE
  8
M0
 62
   154
 10
88.191029
 20
372.426945
 11
88.191029
 21
367.386537
  0
LINE
  8
M0
 62
   154
 10
88.191029
 20
365.426945
 11
88.191029
 21
365.406741
  0
LINE
  8
M0
 62
   154
 10
78.191029
 20
374.386537
 11
78.191029
 21
379.706741
  0
ARC
  8
M0
 62
   154
 10
74.191029
 20
379.706741
 40
4.0
 50
0.0
 51
90.0
  0
ARC
  8
M0
 62
   154
 10
79.191029
 20
365.406741
 40
1.0
 50
180.0
 51
270.0
  0
ARC
  8
M0
 62
   154
 10
87.191029
 20
365.406741
 40
1.0
 50
270.0
 51
360.0
  0
ARC
  8
M0
 62
   154
 10
70.291029
 20
394.706741
 40
1.0
 50
90.0
 51
180.0
  0
ARC
  8
M0
 62
   154
 10
78.291029
 20
394.706741
 40
1.0
 50
0.0
 51
90.0
  0
ARC
  8
M0
 62
   154
 10
72.646585
 20
384.706741
 40
1.0
 50
211.890792
 51
270.0
  0
ARC
  8
M0
 62
   154
 10
73.291029
 20
389.349599
 40
4.0
 50
180.0
 51
211.890792
  0
LINE
  8
M0
 62
   154
 10
74.191029
 20
383.706741
 11
72.646585
 21
383.706741
  0
LINE
  8
M0
 62
   154
 10
69.894803
 20
387.236391
 11
71.797528
 21
384.178439
  0
ARC
  8
M0
 62
   154
 10
83.291029
 20
390.037654
 40
4.0
 50
180.0
 51
211.574191
  0
LINE
  8
M0
  6
DASHDOT
 62
     7
 10
118.091029
 20
389.206741
 11
118.091029
 21
390.206741
  0
CIRCLE
  8
M0
 62
     7
 10
118.091029
 20
389.706741
 40
4.499996
  0
LINE
  8
M0
  6
DASHDOT
 62
     7
 10
117.591029
 20
389.706741
 11
118.591029
 21
389.706741
  0
LINE
  8
M0
 62
     7
 10
118.557933
 20
391.587875
 11
116.209956
 21
389.239883
  0
LINE
  8
M0
 62
     7
 10
119.972133
 20
390.17366
 11
117.624156
 21
387.825668
  0
LINE
  8
M0
 62
     7
 10
116.022075
 20
391.77565
 11
120.285045
 21
387.512711
  0
LINE
  8
M0
  6
DASHED
 62
     7
 10
140.091026
 20
375.406741
 11
140.091026
 21
316.006741
  0
LINE
  8
M0
  6
DASHED
 62
     7
 10
140.091026
 20
375.406741
 11
127.591026
 21
375.406741
  0
LINE
  8
M0
  6
DASHED
 62
     7
 10
140.091026
 20
316.006741
 11
127.591026
 21
316.006741
  0
LINE
  8
M0
  6
DASHED
 62
     7
 10
52.291032
 20
375.406741
 11
64.791032
 21
375.406741
  0
LINE
  8
M0
  6
DASHED
 62
     7
 10
52.291032
 20
375.406741
 11
52.291032
 21
316.006741
  0
LINE
  8
M0
  6
DASHED
 62
     7
 10
52.291032
 20
316.006741
 11
64.791032
 21
316.006741
  0
LINE
  8
M0
 62
     7
 10
207.651338
 20
375.926863
 11
207.651338
 21
394.126863
  0
LINE
  8
M0
  6
DIVIDE
 62
     7
 10
70.691027
 20
141.468417
 11
70.691027
 21
155.968417
  0
LINE
  8
M0
  6
DIVIDE
 62
     7
 10
121.691027
 20
141.468417
 11
121.691027
 21
155.968417
  0
LINE
  8
M0
  6
DIVIDE
 62
     7
 10
70.691027
 20
141.468417
 11
121.691027
 21
141.468417
  0
LINE
  8
M0
  6
DIVIDE
 62
     7
 10
121.691027
 20
241.468417
 11
70.691027
 21
241.468417
  0
LINE
  8
M0
  6
DIVIDE
 62
     7
 10
70.691027
 20
226.968419
 11
70.691027
 21
241.468417
  0
LINE
  8
M0
  6
DIVIDE
 62
     7
 10
121.691027
 20
226.968419
 11
121.691027
 21
241.468417
  0
LINE
  8
M0
 62
     7
 10
232.751338
 20
381.206742
 11
232.751338
 21
395.706741
  0
LINE
  8
M0
 62
     7
 10
217.951338
 20
343.206741
 11
217.951338
 21
342.206741
  0
LINE
  8
M0
 62
     7
 10
217.951338
 20
348.206741
 11
217.951338
 21
349.206741
  0
LINE
  8
M0
 62
     7
 10
289.951339
 20
328.706742
 11
291.451338
 21
328.706742
  0
LINE
  8
M0
 62
     7
 10
291.451338
 20
328.706742
 11
291.451338
 21
327.906741
  0
LINE
  8
M0
 62
     7
 10
293.151339
 20
310.20674
 11
283.751338
 21
310.20674
  0
LINE
  8
M0
 62
     7
 10
293.151339
 20
310.248485
 11
293.151339
 21
310.20674
  0
LINE
  8
M0
 62
     7
 10
217.951338
 20
342.206741
 11
216.95134
 21
342.206741
  0
LINE
  8
M0
 62
     7
 10
216.95134
 20
348.206741
 11
217.951338
 21
348.206741
  0
LINE
  8
M0
 62
     7
 10
217.951338
 20
342.206741
 11
218.451339
 21
342.206741
  0
LINE
  8
M0
 62
     7
 10
216.95134
 20
343.206741
 11
217.951338
 21
343.206741
  0
LINE
  8
M0
 62
     7
 10
217.951338
 20
349.206741
 11
216.95134
 21
349.206741
  0
LINE
  8
M0
 62
     7
 10
217.951338
 20
349.206741
 11
218.451339
 21
349.206741
  0
LINE
  8
M0
 62
     7
 10
218.451339
 20
343.206741
 11
217.951338
 21
343.206741
  0
ARC
  8
M0
 62
     7
 10
285.951338
 20
327.990513
 40
0.3
 50
0.0
 51
90.0
  0
ARC
  8
M0
 62
     7
 10
285.951338
 20
363.422969
 40
0.3
 50
270.0
 51
360.0
  0
ARC
  8
M0
 62
     7
 10
289.951338
 20
328.206741
 40
0.5
 50
90.0
 51
180.0
  0
ARC
  8
M0
 62
     7
 10
285.951338
 20
359.946186
 40
0.3
 50
0.0
 51
90.0
  0
ARC
  8
M0
 62
     7
 10
285.951338
 20
331.467296
 40
0.3
 50
270.0
 51
360.0
  0
LINE
  8
M0
 62
     7
 10
292.975869
 20
327.90614
 11
291.391339
 21
329.70674
  0
LINE
  8
M0
 62
     7
 10
290.251338
 20
330.206741
 11
290.951339
 21
330.206741
  0
LINE
  8
M0
 62
     7
 10
289.451338
 20
327.906741
 11
289.451338
 21
328.206741
  0
LINE
  8
M0
 62
     7
 10
293.451339
 20
327.406741
 11
293.451339
 21
310.706741
  0
LINE
  8
M0
 62
     7
 10
290.251338
 20
328.706742
 11
290.251338
 21
330.206741
  0
LINE
  8
M0
 62
     7
 10
214.651338
 20
356.706741
 11
216.95134
 21
356.706741
  0
ARC
  8
M0
 62
     7
 10
213.151338
 20
357.206741
 40
0.5
 50
90.0
 51
180.0
  0
ARC
  8
M0
 62
     7
 10
213.151338
 20
338.706741
 40
0.5
 50
90.0
 51
180.0
  0
LINE
  8
M0
 62
     7
 10
214.151337
 20
333.706741
 11
213.151339
 21
333.706741
  0
ARC
  8
M0
 62
     7
 10
247.551338
 20
311.206741
 40
1.0
 50
180.0
 51
270.0
  0
LINE
  8
M0
 62
     7
 10
241.651339
 20
313.206742
 11
246.551338
 21
313.206742
  0
LINE
  8
M0
 62
     7
 10
213.151339
 20
333.706741
 11
216.95134
 21
333.706741
  0
LINE
  8
M0
 62
     7
 10
212.651338
 20
357.206741
 11
212.651338
 21
334.206741
  0
LINE
  8
M0
 62
     7
 10
214.651338
 20
333.706741
 11
214.651338
 21
339.206741
  0
LINE
  8
M0
 62
     7
 10
293.751338
 20
379.45674
 11
293.451339
 21
379.45674
  0
LINE
  8
M0
 62
     7
 10
293.451339
 20
369.956742
 11
293.751338
 21
369.956742
  0
LINE
  8
M0
 62
     7
 10
293.751338
 20
321.45674
 11
293.451339
 21
321.45674
  0
LINE
  8
M0
 62
     7
 10
293.451339
 20
311.956739
 11
293.751338
 21
311.956739
  0
LINE
  8
M0
 62
     7
 10
218.451339
 20
347.206741
 11
217.951338
 21
347.206741
  0
LINE
  8
M0
 62
     7
 10
218.451339
 20
348.206741
 11
217.951338
 21
348.206741
  0
LINE
  8
M0
 62
     7
 10
217.951338
 20
344.206741
 11
217.951338
 21
347.206741
  0
LINE
  8
M0
 62
     7
 10
217.951338
 20
344.206741
 11
218.451339
 21
344.206741
  0
POLYLINE
  8
M0
 62
     7
 66
     1
  0
VERTEX
  8
M0
 62
     7
 10
212.651338
 20
352.013848
  0
VERTEX
  8
M0
 62
     7
 10
212.658934
 20
351.977884
  0
VERTEX
  8
M0
 62
     7
 10
212.681492
 20
351.943013
  0
VERTEX
  8
M0
 62
     7
 10
212.718325
 20
351.910294
  0
VERTEX
  8
M0
 62
     7
 10
212.768316
 20
351.880722
  0
VERTEX
  8
M0
 62
     7
 10
212.829944
 20
351.855195
  0
VERTEX
  8
M0
 62
     7
 10
212.901338
 20
351.834488
  0
VERTEX
  8
M0
 62
     7
 10
212.980328
 20
351.819231
  0
VERTEX
  8
M0
 62
     7
 10
213.064514
 20
351.809887
  0
VERTEX
  8
M0
 62
     7
 10
213.151338
 20
351.806741
  0
SEQEND
  8
M0
 62
     7
  0
LINE
  8
M0
 62
     7
 10
270.451338
 20
363.122968
 11
285.951338
 21
363.122968
  0
ARC
  8
M0
 62
     7
 10
241.651338
 20
314.206741
 40
1.0
 50
237.247324
 51
270.0
  0
POLYLINE
  8
M0
 62
     7
 66
     1
  0
VERTEX
  8
M0
 62
     7
 10
212.651338
 20
350.513848
  0
VERTEX
  8
M0
 62
     7
 10
212.658934
 20
350.477884
  0
VERTEX
  8
M0
 62
     7
 10
212.681492
 20
350.443013
  0
VERTEX
  8
M0
 62
     7
 10
212.718325
 20
350.410294
  0
VERTEX
  8
M0
 62
     7
 10
212.768316
 20
350.380722
  0
VERTEX
  8
M0
 62
     7
 10
212.829944
 20
350.355195
  0
VERTEX
  8
M0
 62
     7
 10
212.901338
 20
350.334488
  0
VERTEX
  8
M0
 62
     7
 10
212.980328
 20
350.319231
  0
VERTEX
  8
M0
 62
     7
 10
213.064514
 20
350.309887
  0
VERTEX
  8
M0
 62
     7
 10
213.151338
 20
350.306741
  0
SEQEND
  8
M0
 62
     7
  0
LINE
  8
M0
 62
     7
 10
285.951338
 20
360.246186
 11
270.451338
 21
360.246186
  0
LINE
  8
M0
 62
     7
 10
270.451338
 20
331.167296
 11
285.951338
 21
331.167296
  0
LINE
  8
M0
 62
     7
 10
285.951338
 20
328.290513
 11
270.451338
 21
328.290513
  0
LINE
  8
M0
 62
     7
 10
242.751339
 20
378.706741
 11
242.751339
 21
376.70674
  0
LINE
  8
M0
 62
     7
 10
246.351338
 20
380.206742
 11
242.751339
 21
378.706741
  0
LINE
  8
M0
 62
     7
 10
246.551338
 20
379.206742
 11
243.751337
 21
378.040074
  0
LINE
  8
M0
 62
     7
 10
252.051338
 20
376.70674
 11
252.051338
 21
380.206742
  0
LINE
  8
M0
 62
     7
 10
246.351338
 20
380.206742
 11
246.351338
 21
389.20674
  0
LINE
  8
M0
 62
     7
 10
257.051338
 20
349.806741
 11
257.151338
 21
349.806741
  0
LINE
  8
M0
 62
     7
 10
252.051338
 20
380.206742
 11
246.351338
 21
380.206742
  0
LINE
  8
M0
 62
     7
 10
263.837125
 20
390.206742
 11
247.351339
 21
390.206742
  0
LINE
  8
M0
 62
     7
 10
251.051338
 20
379.206742
 11
246.551338
 21
379.206742
  0
LINE
  8
M0
 62
     7
 10
293.751338
 20
379.45674
 11
293.751338
 21
369.956742
  0
LINE
  8
M0
 62
     7
 10
243.751337
 20
377.70674
 11
251.051338
 21
377.70674
  0
LINE
  8
M0
 62
     7
 10
251.051338
 20
377.70674
 11
251.051338
 21
379.206742
  0
LINE
  8
M0
 62
     7
 10
243.751337
 20
378.040074
 11
243.751337
 21
377.70674
  0
LINE
  8
M0
 62
     7
 10
293.451339
 20
380.706741
 11
293.451339
 21
361.306741
  0
ARC
  8
M0
 62
     7
 10
263.837125
 20
389.206741
 40
1.0
 50
45.0
 51
90.0
  0
ARC
  8
M0
 62
     7
 10
247.351338
 20
389.206741
 40
1.0
 50
90.0
 51
180.0
  0
ARC
  8
M0
 62
     7
 10
268.251338
 20
384.792527
 40
1.0
 50
0.0
 51
45.0
  0
ARC
  8
M0
 62
     7
 10
249.851338
 20
387.206741
 40
3.0
 50
90.0
 51
180.0
  0
POLYLINE
  8
M0
 62
     7
 66
     1
  0
VERTEX
  8
M0
 62
     7
 10
268.990349
 20
376.706741
  0
VERTEX
  8
M0
 62
     7
 10
268.899234
 20
378.419101
  0
VERTEX
  8
M0
 62
     7
 10
268.800588
 20
379.577815
  0
VERTEX
  8
M0
 62
     7
 10
268.697406
 20
380.147675
  0
VERTEX
  8
M0
 62
     7
 10
268.651338
 20
380.206741
  0
SEQEND
  8
M0
 62
     7
  0
ARC
  8
M0
 62
     7
 10
219.251338
 20
349.006741
 40
1.0
 50
168.463041
 51
180.0
  0
ARC
  8
M0
 62
     7
 10
275.551338
 20
311.206741
 40
1.0
 50
270.0
 51
360.0
  0
LINE
  8
M0
 62
     7
 10
218.25134
 20
349.006741
 11
218.25134
 21
348.206741
  0
LINE
  8
M0
 62
     7
 10
218.25134
 20
343.206741
 11
218.25134
 21
342.206741
  0
LINE
  8
M0
 62
     7
 10
248.651338
 20
343.006741
 11
248.651338
 21
348.406741
  0
LINE
  8
M0
 62
     7
 10
245.151339
 20
348.406741
 11
245.151339
 21
343.006741
  0
ARC
  8
M0
 62
     7
 10
293.151338
 20
361.306741
 40
0.3
 50
270.0
 51
360.0
  0
LINE
  8
M0
 62
     7
 10
276.551338
 20
311.206742
 11
276.551338
 21
314.706741
  0
LINE
  8
M0
 62
     7
 10
258.551338
 20
311.206742
 11
258.551338
 21
310.20674
  0
LINE
  8
M0
 62
     7
 10
269.251338
 20
384.792528
 11
269.251338
 21
376.70674
  0
LINE
  8
M0
 62
     7
 10
252.151338
 20
380.206742
 11
247.451338
 21
380.206742
  0
LINE
  8
M0
 62
     7
 10
252.151338
 20
380.206742
 11
252.151338
 21
376.70674
  0
LINE
  8
M0
 62
     7
 10
268.651338
 20
380.206742
 11
252.151338
 21
380.206742
  0
LINE
  8
M0
 62
     7
 10
291.251339
 20
361.006741
 11
293.151339
 21
361.006741
  0
ARC
  8
M0
 62
     7
 10
292.951338
 20
327.406741
 40
0.5
 50
0.0
 51
90.0
  0
LINE
  8
M0
 62
     7
 10
258.551338
 20
355.806741
 11
258.551338
 21
376.70674
  0
ARC
  8
M0
 62
     7
 10
292.951338
 20
310.706741
 40
0.5
 50
270.0
 51
360.0
  0
ARC
  8
M0
 62
     7
 10
292.951338
 20
364.006741
 40
0.5
 50
270.0
 51
360.0
  0
LINE
  8
M0
 62
     7
 10
291.251339
 20
361.006741
 11
290.251338
 21
362.006741
  0
LINE
  8
M0
 62
     7
 10
290.251338
 20
362.006741
 11
290.251338
 21
363.506741
  0
ARC
  8
M0
 62
     7
 10
213.151338
 20
334.206741
 40
0.5
 50
180.0
 51
270.0
  0
LINE
  8
M0
 62
     7
 10
277.851338
 20
380.206742
 11
282.751338
 21
380.206742
  0
LINE
  8
M0
 62
     7
 10
269.251338
 20
384.792528
 11
269.251338
 21
382.65674
  0
LINE
  8
M0
 62
     7
 10
276.951339
 20
379.90674
 11
276.951339
 21
376.70674
  0
LINE
  8
M0
 62
     7
 10
289.251338
 20
361.006741
 11
289.251338
 21
363.506741
  0
LINE
  8
M0
 62
     7
 10
264.544231
 20
389.913848
 11
268.958445
 21
385.499632
  0
LINE
  8
M0
 62
     7
 10
276.951339
 20
379.90674
 11
276.951339
 21
380.206742
  0
LINE
  8
M0
 62
     7
 10
276.951339
 20
380.206742
 11
282.751338
 21
380.206742
  0
LINE
  8
M0
 62
     7
 10
293.451339
 20
379.706741
 11
293.451339
 21
379.156741
  0
LINE
  8
M0
 62
     7
 10
269.251338
 20
380.206742
 11
269.251338
 21
376.70674
  0
ARC
  8
M0
 62
     7
 10
238.851338
 20
370.406741
 40
3.0
 50
90.0
 51
180.0
  0
ARC
  8
M0
 62
     7
 10
238.851338
 20
321.006741
 40
3.0
 50
180.0
 51
270.0
  0
ARC
  8
M0
 62
     7
 10
249.808697
 20
370.406741
 40
3.0
 50
45.0
 51
90.0
  0
ARC
  8
M0
 62
     7
 10
249.808697
 20
321.006741
 40
3.0
 50
270.0
 51
315.0
  0
ARC
  8
M0
 62
     7
 10
219.951338
 20
362.806741
 40
3.0
 50
90.0
 51
180.0
  0
ARC
  8
M0
 62
     7
 10
218.451338
 20
341.006741
 40
1.0
 50
0.0
 51
90.0
  0
ARC
  8
M0
 62
     7
 10
232.851338
 20
368.806741
 40
3.0
 50
270.0
 51
360.0
  0
ARC
  8
M0
 62
     7
 10
232.851338
 20
322.606741
 40
3.0
 50
0.0
 51
90.0
  0
ARC
  8
M0
 62
     7
 10
244.951338
 20
347.906741
 40
0.5
 50
90.0
 51
180.0
  0
LINE
  8
M0
 62
     7
 10
218.951337
 20
325.778313
 11
218.951337
 21
313.206742
  0
ARC
  8
M0
 62
     7
 10
244.951338
 20
343.506741
 40
0.5
 50
180.0
 51
270.0
  0
LINE
  8
M0
 62
     7
 10
218.951337
 20
378.206741
 11
218.951337
 21
365.635168
  0
LINE
  8
M0
 62
     7
 10
258.551338
 20
360.806741
 11
265.951338
 21
360.806741
  0
LINE
  8
M0
 62
     7
 10
265.951338
 20
365.80674
 11
258.551338
 21
365.80674
  0
LINE
  8
M0
 62
     7
 10
258.551338
 20
355.806741
 11
257.651338
 21
355.806741
  0
LINE
  8
M0
 62
     7
 10
270.451338
 20
331.167296
 11
270.451338
 21
328.290513
  0
LINE
  8
M0
 62
     7
 10
270.451338
 20
363.122968
 11
270.451338
 21
360.246186
  0
LINE
  8
M0
 62
     7
 10
283.751338
 20
381.206742
 11
292.951338
 21
381.206742
  0
ARC
  8
M0
 62
     7
 10
217.951338
 20
350.406741
 40
1.0
 50
180.0
 51
270.0
  0
ARC
  8
M0
 62
     7
 10
236.708697
 20
313.206741
 40
3.0
 50
270.0
 51
315.0
  0
ARC
  8
M0
 62
     7
 10
219.951338
 20
328.606741
 40
3.0
 50
180.0
 51
270.0
  0
ARC
  8
M0
 62
     7
 10
217.951338
 20
341.006741
 40
1.0
 50
90.0
 51
180.0
  0
ARC
  8
M0
 62
     7
 10
221.951338
 20
313.206741
 40
3.0
 50
180.0
 51
270.0
  0
LINE
  8
M0
 62
     7
 10
286.251338
 20
327.906741
 11
292.951338
 21
327.906741
  0
ARC
  8
M0
 62
     7
 10
236.708697
 20
378.206741
 40
3.0
 50
45.0
 51
90.0
  0
ARC
  8
M0
 62
     7
 10
221.951338
 20
378.206741
 40
3.0
 50
90.0
 51
180.0
  0
ARC
  8
M0
 62
     7
 10
218.451338
 20
350.406741
 40
1.0
 50
270.0
 51
360.0
  0
LINE
  8
M0
 62
     7
 10
254.051338
 20
321.006742
 11
251.930017
 21
318.88542
  0
LINE
  8
M0
 62
     7
 10
219.451338
 20
341.006741
 11
219.451338
 21
350.406741
  0
LINE
  8
M0
 62
     7
 10
249.808697
 20
318.006741
 11
238.851338
 21
318.006741
  0
LINE
  8
M0
 62
     7
 10
235.851338
 20
368.806741
 11
235.851338
 21
370.406742
  0
LINE
  8
M0
 62
     7
 10
251.930017
 20
372.528062
 11
254.051338
 21
370.406742
  0
LINE
  8
M0
 62
     7
 10
238.851338
 20
373.40674
 11
249.808697
 21
373.40674
  0
LINE
  8
M0
 62
     7
 10
254.051338
 20
370.406742
 11
282.751338
 21
370.406742
  0
LINE
  8
M0
 62
     7
 10
244.451338
 20
347.906741
 11
244.451338
 21
343.506741
  0
LINE
  8
M0
 62
     7
 10
244.951339
 20
343.006741
 11
257.151338
 21
343.006741
  0
LINE
  8
M0
 62
     7
 10
257.151338
 20
348.406741
 11
244.951339
 21
348.406741
  0
LINE
  8
M0
 62
     7
 10
258.551338
 20
321.206741
 11
254.051338
 21
321.006742
  0
LINE
  8
M0
 62
     7
 10
282.751338
 20
376.70674
 11
242.451338
 21
376.70674
  0
LINE
  8
M0
 62
     7
 10
221.951339
 20
310.20674
 11
236.708698
 21
310.20674
  0
LINE
  8
M0
 62
     7
 10
236.708698
 20
381.206742
 11
221.951339
 21
381.206742
  0
LINE
  8
M0
 62
     7
 10
242.451338
 20
376.70674
 11
238.830018
 21
380.328061
  0
LINE
  8
M0
 62
     7
 10
238.830018
 20
311.08542
 11
242.451338
 21
314.706741
  0
LINE
  8
M0
 62
     7
 10
218.451339
 20
349.406741
 11
218.451339
 21
342.006741
  0
LINE
  8
M0
 62
     7
 10
217.951338
 20
349.406741
 11
218.451339
 21
349.406741
  0
LINE
  8
M0
 62
     7
 10
232.851339
 20
325.606741
 11
219.951339
 21
325.606741
  0
LINE
  8
M0
 62
     7
 10
219.951339
 20
365.80674
 11
232.851339
 21
365.80674
  0
LINE
  8
M0
 62
     7
 10
218.451339
 20
342.006741
 11
217.951338
 21
342.006741
  0
LINE
  8
M0
 62
     7
 10
216.95134
 20
328.60674
 11
216.95134
 21
362.806741
  0
ARC
  8
M0
 62
     7
 10
257.651338
 20
355.306741
 40
0.5
 50
90.0
 51
180.0
  0
ARC
  8
M0
 62
     7
 10
288.751338
 20
332.406741
 40
0.5
 50
270.0
 51
360.0
  0
ARC
  8
M0
 62
     7
 10
288.751338
 20
359.006741
 40
0.5
 50
0.0
 51
90.0
  0
ARC
  8
M0
 62
     7
 10
257.651338
 20
336.106741
 40
0.5
 50
180.0
 51
270.0
  0
LINE
  8
M0
 62
     7
 10
281.751338
 20
314.706741
 11
242.451338
 21
314.706741
  0
LINE
  8
M0
 62
     7
 10
281.751338
 20
314.706741
 11
281.751338
 21
315.206742
  0
LINE
  8
M0
 62
     7
 10
282.751338
 20
313.206742
 11
281.751338
 21
313.206742
  0
LINE
  8
M0
 62
     7
 10
281.751338
 20
313.706739
 11
281.751338
 21
314.706741
  0
LINE
  8
M0
 62
     7
 10
281.751338
 20
315.206742
 11
282.751338
 21
315.206742
  0
LINE
  8
M0
 62
     7
 10
293.451339
 20
372.256741
 11
293.451339
 21
370.10674
  0
LINE
  8
M0
 62
     7
 10
281.751338
 20
313.206742
 11
281.751338
 21
313.706739
  0
LINE
  8
M0
 62
     7
 10
289.551338
 20
358.006741
 11
289.551338
 21
360.006741
  0
LINE
  8
M0
 62
     7
 10
216.95134
 20
357.706741
 11
213.151339
 21
357.706741
  0
LINE
  8
M0
 62
     7
 10
213.151339
 20
350.306741
 11
216.95134
 21
350.306741
  0
LINE
  8
M0
 62
     7
 10
214.651338
 20
356.706741
 11
214.651338
 21
350.306741
  0
LINE
  8
M0
 62
     7
 10
214.651338
 20
351.806741
 11
213.151339
 21
351.806741
  0
LINE
  8
M0
 62
     7
 10
214.651338
 20
339.206741
 11
213.151339
 21
339.206741
  0
LINE
  8
M0
 62
     7
 10
246.851338
 20
380.206742
 11
246.851338
 21
387.206739
  0
LINE
  8
M0
 62
     7
 10
247.551338
 20
310.20674
 11
250.551338
 21
310.20674
  0
ARC
  8
M0
 62
     7
 10
283.751338
 20
311.206741
 40
1.0
 50
180.0
 51
270.0
  0
ARC
  8
M0
 62
     7
 10
292.951338
 20
380.706741
 40
0.5
 50
0.0
 51
90.0
  0
ARC
  8
M0
 62
     7
 10
283.751338
 20
380.206741
 40
1.0
 50
90.0
 51
180.0
  0
LINE
  8
M0
 62
     7
 10
258.551338
 20
310.20674
 11
258.551338
 21
335.606741
  0
LINE
  8
M0
 62
     7
 10
246.551338
 20
314.706741
 11
246.551338
 21
311.206742
  0
LINE
  8
M0
 62
     7
 10
247.551338
 20
310.20674
 11
275.551338
 21
310.20674
  0
LINE
  8
M0
 62
     7
 10
288.751339
 20
331.90674
 11
286.251338
 21
331.90674
  0
LINE
  8
M0
 62
     7
 10
286.251338
 20
359.506741
 11
288.751339
 21
359.506741
  0
LINE
  8
M0
 62
     7
 10
286.251338
 20
359.946186
 11
286.251338
 21
359.506741
  0
LINE
  8
M0
 62
     7
 10
286.251338
 20
331.90674
 11
286.251338
 21
331.467295
  0
LINE
  8
M0
 62
     7
 10
258.551338
 20
335.606741
 11
257.651338
 21
335.606741
  0
LINE
  8
M0
 62
     7
 10
258.551338
 20
325.606741
 11
265.951338
 21
325.606741
  0
LINE
  8
M0
 62
     7
 10
265.951338
 20
330.60674
 11
258.551338
 21
330.60674
  0
LINE
  8
M0
 62
     7
 10
257.151338
 20
355.306741
 11
257.151338
 21
336.106741
  0
LINE
  8
M0
 62
     7
 10
292.951338
 20
363.506741
 11
286.251338
 21
363.506741
  0
LINE
  8
M0
 62
     7
 10
235.851338
 20
321.006742
 11
235.851338
 21
322.606741
  0
LINE
  8
M0
 62
     7
 10
293.751338
 20
321.45674
 11
293.751338
 21
311.956739
  0
LINE
  8
M0
 62
     7
 10
289.251338
 20
357.506741
 11
289.551338
 21
358.006741
  0
LINE
  8
M0
 62
     7
 10
289.551338
 20
360.006741
 11
289.251338
 21
361.006741
  0
LINE
  8
M0
 62
     7
 10
289.251338
 20
363.506741
 11
289.251338
 21
327.906741
  0
LINE
  8
M0
 62
     7
 10
282.751338
 20
370.406742
 11
282.751338
 21
380.206741
  0
LINE
  8
M0
 62
     7
 10
265.951338
 20
360.806741
 11
265.951338
 21
365.80674
  0
LINE
  8
M0
 62
     7
 10
265.951338
 20
325.606741
 11
265.951338
 21
330.60674
  0
LINE
  8
M0
 62
     7
 10
282.751338
 20
321.206741
 11
258.551338
 21
321.206741
  0
LINE
  8
M0
 62
     7
 10
282.751338
 20
311.206741
 11
282.751338
 21
321.206741
  0
LINE
  8
M0
 62
     7
 10
290.951339
 20
330.206741
 11
290.958022
 21
330.199145
  0
LINE
  8
M0
 62
     7
 10
290.958022
 20
330.199145
 11
290.977874
 21
330.176587
  0
LINE
  8
M0
 62
     7
 10
290.977874
 20
330.176587
 11
291.010286
 21
330.139753
  0
LINE
  8
M0
 62
     7
 10
291.010286
 20
330.139753
 11
291.054278
 21
330.089763
  0
LINE
  8
M0
 62
     7
 10
291.054278
 20
330.089763
 11
291.108511
 21
330.028134
  0
LINE
  8
M0
 62
     7
 10
291.108511
 20
330.028134
 11
291.171338
 21
329.956741
  0
LINE
  8
M0
 62
     7
 10
291.171338
 20
329.956741
 11
291.24085
 21
329.877751
  0
LINE
  8
M0
 62
     7
 10
291.24085
 20
329.877751
 11
291.314933
 21
329.793565
  0
LINE
  8
M0
 62
     7
 10
291.314933
 20
329.793565
 11
291.391339
 21
329.70674
  0
LINE
  8
M0
 62
     7
 10
214.651338
 20
356.706741
 11
214.477691
 21
356.880389
  0
LINE
  8
M0
 62
     7
 10
214.477691
 20
356.880389
 11
214.309319
 21
357.048761
  0
LINE
  8
M0
 62
     7
 10
214.309319
 20
357.048761
 11
214.151337
 21
357.206741
  0
LINE
  8
M0
 62
     7
 10
214.151337
 20
357.206741
 11
214.008551
 21
357.349528
  0
LINE
  8
M0
 62
     7
 10
214.008551
 20
357.349528
 11
213.885292
 21
357.472785
  0
LINE
  8
M0
 62
     7
 10
213.885292
 20
357.472785
 11
213.785313
 21
357.572766
  0
LINE
  8
M0
 62
     7
 10
213.785313
 20
357.572766
 11
213.711645
 21
357.646433
  0
LINE
  8
M0
 62
     7
 10
213.711645
 20
357.646433
 11
213.666532
 21
357.691548
  0
LINE
  8
M0
 62
     7
 10
213.666532
 20
357.691548
 11
213.65134
 21
357.706741
  0
LINE
  8
M0
 62
     7
 10
232.751338
 20
310.20674
 11
232.751338
 21
295.706741
  0
LINE
  8
M0
  6
DIVIDE
 62
     7
 10
296.751338
 20
359.206741
 11
290.251338
 21
359.206741
  0
LINE
  8
M0
  6
DIVIDE
 62
     7
 10
296.751338
 20
332.206741
 11
290.251338
 21
332.206741
  0
LINE
  8
M0
  6
DIVIDE
 62
     7
 10
295.751338
 20
358.206741
 11
289.251338
 21
358.206741
  0
LINE
  8
M0
  6
DIVIDE
 62
     7
 10
290.251338
 20
332.206741
 11
290.251338
 21
328.206741
  0
LINE
  8
M0
  6
DIVIDE
 62
     7
 10
295.751338
 20
333.206741
 11
289.251338
 21
333.206741
  0
LINE
  8
M0
  6
DIVIDE
 62
     7
 10
289.251338
 20
333.206741
 11
289.251338
 21
328.206741
  0
LINE
  8
M0
  6
DIVIDE
 62
     7
 10
290.251338
 20
363.206741
 11
289.251338
 21
363.206741
  0
LINE
  8
M0
  6
DIVIDE
 62
     7
 10
296.751338
 20
332.206741
 11
296.751338
 21
359.206741
  0
LINE
  8
M0
  6
DIVIDE
 62
     7
 10
289.251338
 20
363.206741
 11
289.251338
 21
358.206741
  0
LINE
  8
M0
  6
DIVIDE
 62
     7
 10
290.251338
 20
363.206741
 11
290.251338
 21
359.206741
  0
LINE
  8
M0
  6
DIVIDE
 62
     7
 10
289.251338
 20
328.206741
 11
290.251338
 21
328.206741
  0
LINE
  8
M0
  6
DIVIDE
 62
     7
 10
295.751338
 20
358.206741
 11
295.751338
 21
333.206741
  0
CIRCLE
  8
M0
 62
     7
 10
121.391029
 20
324.806741
 40
3.0
  0
LINE
  8
M0
 62
     7
 10
122.981613
 20
323.216096
 11
119.799972
 21
326.397859
  0
LINE
  8
M0
 62
     7
 10
122.804855
 20
325.160432
 11
121.037277
 21
323.392854
  0
LINE
  8
M0
 62
     7
 10
121.744308
 20
326.221101
 11
119.97673
 21
324.453401
  0
LINE
  8
M0
 62
     7
 10
124.716029
 20
328.631741
 11
118.066029
 21
328.631741
  0
ARC
  8
M0
 62
     7
 10
124.716029
 20
328.131741
 40
0.5
 50
0.0
 51
90.0
  0
LINE
  8
M0
 62
     7
 10
125.216029
 20
321.481741
 11
125.216029
 21
328.131741
  0
ARC
  8
M0
 62
     7
 10
124.716029
 20
321.481741
 40
0.5
 50
270.0
 51
360.0
  0
LINE
  8
M0
 62
     7
 10
118.066029
 20
320.981741
 11
124.716029
 21
320.981741
  0
LINE
  8
M0
 62
     7
 10
117.566029
 20
328.131741
 11
117.566029
 21
321.481741
  0
ARC
  8
M0
 62
     7
 10
118.066029
 20
328.131741
 40
0.5
 50
90.0
 51
180.0
  0
ARC
  8
M0
 62
     7
 10
118.066029
 20
321.481741
 40
0.5
 50
180.0
 51
270.0
  0
CIRCLE
  8
M0
  6
DASHED
 62
     7
 10
70.991029
 20
366.606741
 40
3.0
  0
LINE
  8
M0
  6
DASHED
 62
     7
 10
72.581613
 20
365.016096
 11
69.399973
 21
368.197859
  0
LINE
  8
M0
  6
DASHED
 62
     7
 10
72.404855
 20
366.960432
 11
70.637277
 21
365.192854
  0
LINE
  8
M0
  6
DASHED
 62
     7
 10
71.344309
 20
368.021101
 11
69.57673
 21
366.253401
  0
LINE
  8
M0
  6
DASHED
 62
     7
 10
74.316029
 20
370.431741
 11
67.666029
 21
370.431741
  0
ARC
  8
M0
  6
DASHED
 62
     7
 10
74.316029
 20
369.931741
 40
0.5
 50
0.0
 51
90.0
  0
LINE
  8
M0
  6
DASHED
 62
     7
 10
74.816029
 20
363.281741
 11
74.816029
 21
369.931741
  0
ARC
  8
M0
  6
DASHED
 62
     7
 10
74.316029
 20
363.281741
 40
0.5
 50
270.0
 51
360.0
  0
LINE
  8
M0
  6
DASHED
 62
     7
 10
67.666029
 20
362.781741
 11
74.316029
 21
362.781741
  0
LINE
  8
M0
  6
DASHED
 62
     7
 10
67.166029
 20
369.931741
 11
67.166029
 21
363.281741
  0
ARC
  8
M0
  6
DASHED
 62
     7
 10
67.666029
 20
369.931741
 40
0.5
 50
90.0
 51
180.0
  0
ARC
  8
M0
  6
DASHED
 62
     7
 10
67.666029
 20
363.281741
 40
0.5
 50
180.0
 51
270.0
  0
CIRCLE
  8
M0
  6
DASHED
 62
     7
 10
70.991029
 20
324.806741
 40
3.0
  0
LINE
  8
M0
  6
DASHED
 62
     7
 10
72.581613
 20
323.216096
 11
69.399973
 21
326.397859
  0
LINE
  8
M0
  6
DASHED
 62
     7
 10
72.404855
 20
325.160432
 11
70.637277
 21
323.392854
  0
LINE
  8
M0
  6
DASHED
 62
     7
 10
71.344309
 20
326.221101
 11
69.57673
 21
324.453401
  0
LINE
  8
M0
  6
DASHED
 62
     7
 10
74.316029
 20
328.631741
 11
67.666029
 21
328.631741
  0
ARC
  8
M0
  6
DASHED
 62
     7
 10
74.316029
 20
328.131741
 40
0.5
 50
0.0
 51
90.0
  0
LINE
  8
M0
  6
DASHED
 62
     7
 10
74.816029
 20
321.481741
 11
74.816029
 21
328.131741
  0
ARC
  8
M0
  6
DASHED
 62
     7
 10
74.316029
 20
321.481741
 40
0.5
 50
270.0
 51
360.0
  0
LINE
  8
M0
  6
DASHED
 62
     7
 10
67.666029
 20
320.981741
 11
74.316029
 21
320.981741
  0
LINE
  8
M0
  6
DASHED
 62
     7
 10
67.166029
 20
328.131741
 11
67.166029
 21
321.481741
  0
ARC
  8
M0
  6
DASHED
 62
     7
 10
67.666029
 20
328.131741
 40
0.5
 50
90.0
 51
180.0
  0
ARC
  8
M0
  6
DASHED
 62
     7
 10
67.666029
 20
321.481741
 40
0.5
 50
180.0
 51
270.0
  0
CIRCLE
  8
M0
 62
     7
 10
121.391029
 20
359.006741
 40
3.0
  0
LINE
  8
M0
 62
     7
 10
122.981613
 20
357.416096
 11
119.799972
 21
360.597859
  0
LINE
  8
M0
 62
     7
 10
122.804855
 20
359.360432
 11
121.037277
 21
357.592854
  0
LINE
  8
M0
 62
     7
 10
121.744308
 20
360.421101
 11
119.97673
 21
358.653401
  0
LINE
  8
M0
 62
     7
 10
124.716029
 20
362.831741
 11
118.066029
 21
362.831741
  0
ARC
  8
M0
 62
     7
 10
124.716029
 20
362.331741
 40
0.5
 50
0.0
 51
90.0
  0
LINE
  8
M0
 62
     7
 10
125.216029
 20
355.681741
 11
125.216029
 21
362.331741
  0
ARC
  8
M0
 62
     7
 10
124.716029
 20
355.681741
 40
0.5
 50
270.0
 51
360.0
  0
LINE
  8
M0
 62
     7
 10
118.066029
 20
355.181741
 11
124.716029
 21
355.181741
  0
LINE
  8
M0
 62
     7
 10
117.566029
 20
362.331741
 11
117.566029
 21
355.681741
  0
ARC
  8
M0
 62
     7
 10
118.066029
 20
362.331741
 40
0.5
 50
90.0
 51
180.0
  0
ARC
  8
M0
 62
     7
 10
118.066029
 20
355.681741
 40
0.5
 50
180.0
 51
270.0
  0
ARC
  8
M0
 62
     7
 10
109.191029
 20
313.206741
 40
2.75
 50
137.622878
 51
245.572882
  0
LINE
  8
M0
 62
     7
 10
230.451338
 20
395.706741
 11
232.751338
 21
395.706741
  0
LINE
  8
M0
 62
     7
 10
240.451338
 20
392.207117
 11
232.751338
 21
392.206828
  0
LINE
  8
M0
 62
     7
 10
226.31169
 20
394.046491
 11
228.151289
 21
394.207425
  0
ARC
  8
M0
 62
     7
 10
226.451338
 20
392.452573
 40
1.599998
 50
95.007035
 51
179.999966
  0
LINE
  8
M0
 62
     7
 10
240.451338
 20
387.207181
 11
240.451338
 21
392.207117
  0
LINE
  8
M0
 62
     7
 10
232.751338
 20
387.207181
 11
240.451338
 21
387.207181
  0
LINE
  8
M0
 62
     7
 10
229.451338
 20
394.706704
 11
230.451338
 21
394.706741
  0
LINE
  8
M0
 62
     7
 10
224.851378
 20
392.452573
 11
224.851378
 21
386.962247
  0
LINE
  8
M0
 62
     7
 10
229.451338
 20
394.20741
 11
228.151289
 21
394.20741
  0
LINE
  8
M0
 62
     7
 10
230.451338
 20
384.706741
 11
230.451338
 21
394.706741
  0
LINE
  8
M0
 62
     7
 10
229.451338
 20
394.706704
 11
229.451338
 21
384.706704
  0
LINE
  8
M0
 62
     7
 10
228.151289
 20
385.207425
 11
228.151289
 21
394.207425
  0
LINE
  8
M0
 62
     7
 10
230.451338
 20
395.706741
 11
230.451338
 21
381.206742
  0
LINE
  8
M0
 62
     7
 10
226.31169
 20
385.368344
 11
228.151289
 21
385.207425
  0
LINE
  8
M0
 62
     7
 10
228.151289
 20
385.20741
 11
229.451338
 21
385.20741
  0
ARC
  8
M0
 62
     7
 10
226.451338
 20
386.962247
 40
1.599998
 50
179.999966
 51
264.99283
  0
LINE
  8
M0
 62
     7
 10
229.451338
 20
384.706704
 11
230.451338
 21
384.706741
  0
CIRCLE
  8
M0
  6
DASHED
 62
     7
 10
70.991029
 20
359.006741
 40
3.0
  0
LINE
  8
M0
  6
DASHED
 62
     7
 10
72.581613
 20
357.416096
 11
69.399973
 21
360.597859
  0
LINE
  8
M0
  6
DASHED
 62
     7
 10
72.404855
 20
359.360432
 11
70.637277
 21
357.592854
  0
LINE
  8
M0
  6
DASHED
 62
     7
 10
71.344309
 20
360.421101
 11
69.57673
 21
358.653401
  0
LINE
  8
M0
  6
DASHED
 62
     7
 10
74.316029
 20
362.831741
 11
67.666029
 21
362.831741
  0
ARC
  8
M0
  6
DASHED
 62
     7
 10
74.316029
 20
362.331741
 40
0.5
 50
0.0
 51
90.0
  0
LINE
  8
M0
  6
DASHED
 62
     7
 10
74.816029
 20
355.681741
 11
74.816029
 21
362.331741
  0
ARC
  8
M0
  6
DASHED
 62
     7
 10
74.316029
 20
355.681741
 40
0.5
 50
270.0
 51
360.0
  0
LINE
  8
M0
  6
DASHED
 62
     7
 10
67.666029
 20
355.181741
 11
74.316029
 21
355.181741
  0
LINE
  8
M0
  6
DASHED
 62
     7
 10
67.166029
 20
362.331741
 11
67.166029
 21
355.681741
  0
ARC
  8
M0
  6
DASHED
 62
     7
 10
67.666029
 20
362.331741
 40
0.5
 50
90.0
 51
180.0
  0
ARC
  8
M0
  6
DASHED
 62
     7
 10
67.666029
 20
355.681741
 40
0.5
 50
180.0
 51
270.0
  0
CIRCLE
  8
M0
 62
     7
 10
121.391029
 20
366.606741
 40
3.0
  0
LINE
  8
M0
 62
     7
 10
122.981613
 20
365.016096
 11
119.799972
 21
368.197859
  0
LINE
  8
M0
 62
     7
 10
122.804855
 20
366.960432
 11
121.037277
 21
365.192854
  0
LINE
  8
M0
 62
     7
 10
121.744308
 20
368.021101
 11
119.97673
 21
366.253401
  0
LINE
  8
M0
 62
     7
 10
124.716029
 20
370.431741
 11
118.066029
 21
370.431741
  0
ARC
  8
M0
 62
     7
 10
124.716029
 20
369.931741
 40
0.5
 50
0.0
 51
90.0
  0
LINE
  8
M0
 62
     7
 10
125.216029
 20
363.281741
 11
125.216029
 21
369.931741
  0
ARC
  8
M0
 62
     7
 10
124.716029
 20
363.281741
 40
0.5
 50
270.0
 51
360.0
  0
LINE
  8
M0
 62
     7
 10
118.066029
 20
362.781741
 11
124.716029
 21
362.781741
  0
LINE
  8
M0
 62
     7
 10
117.566029
 20
369.931741
 11
117.566029
 21
363.281741
  0
ARC
  8
M0
 62
     7
 10
118.066029
 20
369.931741
 40
0.5
 50
90.0
 51
180.0
  0
ARC
  8
M0
 62
     7
 10
118.066029
 20
363.281741
 40
0.5
 50
180.0
 51
270.0
  0
CIRCLE
  8
M0
 62
     7
 10
121.391029
 20
332.406741
 40
3.0
  0
LINE
  8
M0
 62
     7
 10
122.981613
 20
330.816096
 11
119.799972
 21
333.997859
  0
LINE
  8
M0
 62
     7
 10
122.804855
 20
332.760432
 11
121.037277
 21
330.992854
  0
LINE
  8
M0
 62
     7
 10
121.744308
 20
333.821101
 11
119.97673
 21
332.053401
  0
LINE
  8
M0
 62
     7
 10
124.716029
 20
336.231741
 11
118.066029
 21
336.231741
  0
ARC
  8
M0
 62
     7
 10
124.716029
 20
335.731741
 40
0.5
 50
0.0
 51
90.0
  0
LINE
  8
M0
 62
     7
 10
125.216029
 20
329.081741
 11
125.216029
 21
335.731741
  0
ARC
  8
M0
 62
     7
 10
124.716029
 20
329.081741
 40
0.5
 50
270.0
 51
360.0
  0
LINE
  8
M0
 62
     7
 10
118.066029
 20
328.581741
 11
124.716029
 21
328.581741
  0
LINE
  8
M0
 62
     7
 10
117.566029
 20
335.731741
 11
117.566029
 21
329.081741
  0
ARC
  8
M0
 62
     7
 10
118.066029
 20
335.731741
 40
0.5
 50
90.0
 51
180.0
  0
ARC
  8
M0
 62
     7
 10
118.066029
 20
329.081741
 40
0.5
 50
180.0
 51
270.0
  0
LINE
  8
M0
 62
   154
 10
93.091026
 20
375.706741
 11
93.091026
 21
382.508916
  0
LINE
  8
M0
 62
   154
 10
99.291026
 20
375.706741
 11
99.291026
 21
382.508916
  0
LINE
  8
M0
 62
   154
 10
101.191026
 20
386.106017
 11
101.191026
 21
394.706741
  0
LINE
  8
M0
 62
   154
 10
100.116028
 20
384.575164
 11
100.916025
 21
385.417267
  0
LINE
  8
M0
 62
   154
 10
101.026442
 20
374.706741
 11
100.291026
 21
374.706741
  0
LINE
  8
M0
 62
   154
 10
91.191026
 20
386.106017
 11
91.191026
 21
394.706741
  0
LINE
  8
M0
 62
   154
 10
100.191026
 20
395.706741
 11
92.191026
 21
395.706741
  0
LINE
  8
M0
 62
   154
 10
91.35561
 20
374.706741
 11
92.091026
 21
374.706741
  0
LINE
  8
M0
 62
   154
 10
100.191026
 20
364.406741
 11
92.191026
 21
364.406741
  0
LINE
  8
M0
 62
   154
 10
91.191026
 20
365.406741
 11
91.191026
 21
365.426945
  0
LINE
  8
M0
 62
   154
 10
91.191026
 20
367.386537
 11
91.191026
 21
372.426945
  0
LINE
  8
M0
 62
   154
 10
101.191026
 20
367.386537
 11
101.191026
 21
372.426945
  0
LINE
  8
M0
 62
   154
 10
101.191026
 20
365.406741
 11
101.191026
 21
365.426945
  0
ARC
  8
M0
 62
   154
 10
93.491026
 20
366.406741
 40
2.5
 50
156.926082
 51
203.073918
  0
ARC
  8
M0
 62
   154
 10
92.191026
 20
365.406741
 40
1.0
 50
180.0
 51
270.0
  0
ARC
  8
M0
 62
   154
 10
100.191026
 20
365.406741
 40
1.0
 50
270.0
 51
360.0
  0
ARC
  8
M0
 62
   154
 10
100.291026
 20
375.706741
 40
1.0
 50
180.0
 51
270.0
  0
ARC
  8
M0
 62
   154
 10
92.091026
 20
375.706741
 40
1.0
 50
270.0
 51
360.0
  0
ARC
  8
M0
 62
   154
 10
93.491026
 20
373.406741
 40
2.5
 50
148.667749
 51
203.073918
  0
ARC
  8
M0
 62
   154
 10
98.891026
 20
373.406741
 40
2.5
 50
-23.073918
 51
31.332251
  0
ARC
  8
M0
 62
   154
 10
98.891026
 20
366.406741
 40
2.5
 50
-23.073918
 51
23.073918
  0
ARC
  8
M0
 62
   154
 10
92.191026
 20
394.706741
 40
1.0
 50
90.0
 51
180.0
  0
ARC
  8
M0
 62
   154
 10
92.191026
 20
386.106017
 40
1.0
 50
180.0
 51
223.531199
  0
ARC
  8
M0
 62
   154
 10
100.191026
 20
394.706741
 40
1.0
 50
0.0
 51
90.0
  0
ARC
  8
M0
 62
   154
 10
100.191026
 20
386.106017
 40
1.0
 50
316.468801
 51
360.0
  0
ARC
  8
M0
 62
   154
 10
90.091026
 20
382.508916
 40
3.0
 50
0.0
 51
43.531199
  0
ARC
  8
M0
 62
   154
 10
102.291026
 20
382.508916
 40
3.0
 50
136.468801
 51
180.0
  0
LINE
  8
M0
 62
   154
 10
92.266024
 20
384.575164
 11
91.466027
 21
385.417267
  0
ARC
  8
M0
 62
   154
 10
87.191029
 20
314.706741
 40
2.0
 50
90.0
 51
180.0
  0
ARC
  8
M0
 62
   154
 10
81.191029
 20
313.237654
 40
4.0
 50
-31.574191
 51
0.0
  0
LINE
  8
M0
 62
   154
 10
79.883178
 20
303.470237
 11
84.598881
 21
311.143245
  0
LINE
  8
M0
 62
   154
 10
85.191029
 20
314.706741
 11
85.191029
 21
313.237654
  0
LINE
  8
M0
 62
   154
 10
87.191029
 20
316.706741
 11
88.026445
 21
316.706741
  0
LINE
  8
M0
 62
   154
 10
78.291029
 20
295.706741
 11
70.291029
 21
295.706741
  0
LINE
  8
M0
 62
   154
 10
79.291029
 20
296.706741
 11
79.291029
 21
301.375828
  0
LINE
  8
M0
 62
   154
 10
87.191029
 20
327.006741
 11
79.191029
 21
327.006741
  0
LINE
  8
M0
 62
   154
 10
69.291029
 20
296.706741
 11
69.291029
 21
302.063884
  0
ARC
  8
M0
 62
   154
 10
80.491029
 20
318.006741
 40
2.5
 50
156.926082
 51
203.073918
  0
ARC
  8
M0
 62
   154
 10
80.491029
 20
325.006741
 40
2.5
 50
156.926082
 51
203.073918
  0
ARC
  8
M0
 62
   154
 10
85.891029
 20
318.006741
 40
2.5
 50
328.667749
 51
383.073918
  0
ARC
  8
M0
 62
   154
 10
85.891029
 20
325.006741
 40
2.5
 50
336.926082
 51
383.073918
  0
LINE
  8
M0
 62
   154
 10
78.191029
 20
318.986537
 11
78.191029
 21
324.026945
  0
LINE
  8
M0
 62
   154
 10
78.191029
 20
325.986537
 11
78.191029
 21
326.006741
  0
LINE
  8
M0
 62
   154
 10
88.191029
 20
318.986537
 11
88.191029
 21
324.026945
  0
LINE
  8
M0
 62
   154
 10
88.191029
 20
325.986537
 11
88.191029
 21
326.006741
  0
LINE
  8
M0
 62
   154
 10
78.191029
 20
317.026945
 11
78.191029
 21
311.706741
  0
ARC
  8
M0
 62
   154
 10
74.191029
 20
311.706741
 40
4.0
 50
-90.0
 51
8.14222E-013
  0
ARC
  8
M0
 62
   154
 10
79.191029
 20
326.006741
 40
1.0
 50
90.0
 51
180.0
  0
ARC
  8
M0
 62
   154
 10
87.191029
 20
326.006741
 40
1.0
 50
0.0
 51
90.0
  0
ARC
  8
M0
 62
   154
 10
70.291029
 20
296.706741
 40
1.0
 50
180.0
 51
270.0
  0
ARC
  8
M0
 62
   154
 10
78.291029
 20
296.706741
 40
1.0
 50
-90.0
 51
0.0
  0
ARC
  8
M0
 62
   154
 10
72.646585
 20
306.706741
 40
1.0
 50
90.0
 51
148.109208
  0
ARC
  8
M0
 62
   154
 10
73.291029
 20
302.063884
 40
4.0
 50
148.109208
 51
180.0
  0
LINE
  8
M0
 62
   154
 10
74.191029
 20
307.706741
 11
72.646585
 21
307.706741
  0
LINE
  8
M0
 62
   154
 10
69.894803
 20
304.177091
 11
71.797528
 21
307.235043
  0
ARC
  8
M0
 62
   154
 10
83.291029
 20
301.375828
 40
4.0
 50
148.425809
 51
180.0
  0
LINE
  8
M0
 62
     7
 10
86.881613
 20
382.716096
 11
83.699972
 21
385.897859
  0
LINE
  8
M0
 62
     7
 10
86.704855
 20
384.660432
 11
84.937277
 21
382.892854
  0
LINE
  8
M0
 62
     7
 10
85.644308
 20
385.721101
 11
83.87673
 21
383.953401
  0
LINE
  8
M0
 62
     7
 10
88.616029
 20
388.131741
 11
81.966023
 21
388.131741
  0
ARC
  8
M0
 62
     7
 10
88.616029
 20
387.631741
 40
0.5
 50
0.0
 51
90.0
  0
LINE
  8
M0
 62
     7
 10
89.116029
 20
380.981741
 11
89.116029
 21
387.631741
  0
ARC
  8
M0
 62
     7
 10
88.616029
 20
380.981741
 40
0.5
 50
270.0
 51
360.0
  0
LINE
  8
M0
 62
     7
 10
84.45948
 20
380.481741
 11
88.616029
 21
380.481741
  0
ARC
  8
M0
 62
     7
 10
85.291029
 20
384.306741
 40
3.0
 50
237.275263
 51
545.873119
  0
ARC
  8
M0
 62
   154
 10
105.191029
 20
376.706741
 40
2.0
 50
-90.0
 51
0.0
  0
ARC
  8
M0
 62
   154
 10
111.191029
 20
378.175828
 40
4.0
 50
148.425809
 51
180.0
  0
LINE
  8
M0
 62
   154
 10
112.498881
 20
387.943246
 11
107.783178
 21
380.270237
  0
LINE
  8
M0
 62
   154
 10
107.191029
 20
376.706741
 11
107.191029
 21
378.175828
  0
LINE
  8
M0
 62
   154
 10
105.191029
 20
374.706741
 11
104.355613
 21
374.706741
  0
LINE
  8
M0
 62
   154
 10
114.091029
 20
395.706741
 11
122.091029
 21
395.706741
  0
LINE
  8
M0
 62
   154
 10
113.091029
 20
394.706741
 11
113.091029
 21
390.037654
  0
LINE
  8
M0
 62
   154
 10
105.191029
 20
364.406741
 11
113.191029
 21
364.406741
  0
LINE
  8
M0
 62
   154
 10
123.091029
 20
394.706741
 11
123.091029
 21
389.349599
  0
ARC
  8
M0
 62
   154
 10
111.891029
 20
373.406741
 40
2.5
 50
-23.073918
 51
23.073918
  0
ARC
  8
M0
 62
   154
 10
111.891029
 20
366.406741
 40
2.5
 50
-23.073918
 51
23.073918
  0
ARC
  8
M0
 62
   154
 10
106.491029
 20
373.406741
 40
2.5
 50
148.667749
 51
203.073918
  0
ARC
  8
M0
 62
   154
 10
106.491029
 20
366.406741
 40
2.5
 50
156.926082
 51
203.073918
  0
LINE
  8
M0
 62
   154
 10
114.191029
 20
372.426945
 11
114.191029
 21
367.386537
  0
LINE
  8
M0
 62
   154
 10
114.191029
 20
365.426945
 11
114.191029
 21
365.406741
  0
LINE
  8
M0
 62
   154
 10
104.191029
 20
372.426945
 11
104.191029
 21
367.386537
  0
LINE
  8
M0
 62
   154
 10
104.191029
 20
365.426945
 11
104.191029
 21
365.406741
  0
LINE
  8
M0
 62
   154
 10
114.191029
 20
374.386537
 11
114.191029
 21
379.706741
  0
ARC
  8
M0
 62
   154
 10
118.191029
 20
379.706741
 40
4.0
 50
90.0
 51
180.0
  0
ARC
  8
M0
 62
   154
 10
113.191029
 20
365.406741
 40
1.0
 50
-90.0
 51
0.0
  0
ARC
  8
M0
 62
   154
 10
105.191029
 20
365.406741
 40
1.0
 50
180.0
 51
270.0
  0
ARC
  8
M0
 62
   154
 10
122.091029
 20
394.706741
 40
1.0
 50
0.0
 51
90.0
  0
ARC
  8
M0
 62
   154
 10
114.091029
 20
394.706741
 40
1.0
 50
90.0
 51
180.0
  0
ARC
  8
M0
 62
   154
 10
119.735474
 20
384.706741
 40
1.0
 50
270.0
 51
328.109208
  0
ARC
  8
M0
 62
   154
 10
119.091029
 20
389.349599
 40
4.0
 50
-31.890792
 51
0.0
  0
LINE
  8
M0
 62
   154
 10
118.191029
 20
383.706741
 11
119.735474
 21
383.706741
  0
LINE
  8
M0
 62
   154
 10
122.487256
 20
387.236391
 11
120.58453
 21
384.178439
  0
ARC
  8
M0
 62
   154
 10
109.091029
 20
390.037654
 40
4.0
 50
-31.574191
 51
0.0
  0
LINE
  8
M0
 62
     7
 10
230.451338
 20
295.706741
 11
232.751338
 21
295.706741
  0
LINE
  8
M0
 62
     7
 10
240.451338
 20
299.206365
 11
232.751338
 21
299.206655
  0
LINE
  8
M0
 62
     7
 10
226.31169
 20
297.366992
 11
228.151289
 21
297.206057
  0
ARC
  8
M0
 62
     7
 10
226.451338
 20
298.96091
 40
1.599998
 50
180.000034
 51
264.992965
  0
LINE
  8
M0
 62
     7
 10
240.451338
 20
304.206302
 11
240.451338
 21
299.206365
  0
LINE
  8
M0
 62
     7
 10
232.751338
 20
304.206302
 11
240.451338
 21
304.206302
  0
LINE
  8
M0
 62
     7
 10
229.451338
 20
296.706779
 11
230.451338
 21
296.706741
  0
LINE
  8
M0
 62
     7
 10
224.851378
 20
298.96091
 11
224.851378
 21
304.451236
  0
LINE
  8
M0
 62
     7
 10
229.451338
 20
297.206073
 11
228.151289
 21
297.206073
  0
LINE
  8
M0
 62
     7
 10
230.451338
 20
306.706741
 11
230.451338
 21
296.706741
  0
LINE
  8
M0
 62
     7
 10
229.451338
 20
296.706779
 11
229.451338
 21
306.706779
  0
LINE
  8
M0
 62
     7
 10
228.151289
 20
306.206057
 11
228.151289
 21
297.206057
  0
LINE
  8
M0
 62
     7
 10
230.451338
 20
295.706741
 11
230.451338
 21
310.20674
  0
LINE
  8
M0
 62
     7
 10
226.31169
 20
306.045138
 11
228.151289
 21
306.206057
  0
LINE
  8
M0
 62
     7
 10
228.151289
 20
306.206073
 11
229.451338
 21
306.206073
  0
ARC
  8
M0
 62
     7
 10
226.451338
 20
304.451236
 40
1.599998
 50
95.00717
 51
180.000034
  0
LINE
  8
M0
 62
     7
 10
229.451338
 20
306.706779
 11
230.451338
 21
306.706741
  0
LINE
  8
M0
 62
     7
 10
108.681613
 20
382.716096
 11
105.499973
 21
385.897859
  0
LINE
  8
M0
 62
     7
 10
108.504855
 20
384.660432
 11
106.737277
 21
382.892854
  0
LINE
  8
M0
 62
     7
 10
107.444309
 20
385.721101
 11
105.67673
 21
383.953401
  0
LINE
  8
M0
 62
     7
 10
110.416029
 20
388.131741
 11
103.766029
 21
388.131741
  0
LINE
  8
M0
 62
     7
 10
103.766029
 20
380.481741
 11
107.913164
 21
380.481741
  0
LINE
  8
M0
 62
     7
 10
103.266029
 20
387.631741
 11
103.266029
 21
380.981741
  0
ARC
  8
M0
 62
     7
 10
103.766029
 20
387.631741
 40
0.5
 50
90.0
 51
180.0
  0
ARC
  8
M0
 62
     7
 10
103.766029
 20
380.981741
 40
0.5
 50
180.0
 51
270.0
  0
ARC
  8
M0
 62
     7
 10
107.091029
 20
384.306741
 40
3.0
 50
354.126881
 51
662.724737
  0
LINE
  8
M0
 62
     7
 10
110.916029
 20
387.631741
 11
110.916029
 21
385.367759
  0
ARC
  8
M0
 62
     7
 10
110.416029
 20
387.631741
 40
0.5
 50
0.0
 51
90.0
  0
LINE
  8
M0
 62
     7
 10
81.466023
 20
387.631741
 11
81.466023
 21
385.367759
  0
ARC
  8
M0
 62
     7
 10
81.966023
 20
387.631741
 40
0.5
 50
90.0
 51
180.0
  0
LINE
  8
M0
  6
DASHDOT
 62
     7
 10
96.191026
 20
301.206741
 11
96.191026
 21
302.206741
  0
CIRCLE
  8
M0
 62
     7
 10
96.191026
 20
301.706741
 40
4.499996
  0
LINE
  8
M0
  6
DASHDOT
 62
     7
 10
95.691026
 20
301.706741
 11
96.691026
 21
301.706741
  0
LINE
  8
M0
 62
     7
 10
96.65793
 20
303.587875
 11
94.309953
 21
301.239883
  0
LINE
  8
M0
 62
     7
 10
98.07213
 20
302.17366
 11
95.724153
 21
299.825668
  0
LINE
  8
M0
 62
     7
 10
94.122072
 20
303.77565
 11
98.385042
 21
299.51271
  0
LINE
  8
M0
  6
DASHDOT
 62
     7
 10
118.091029
 20
301.206741
 11
118.091029
 21
302.206741
  0
CIRCLE
  8
M0
 62
     7
 10
118.091029
 20
301.706741
 40
4.499996
  0
LINE
  8
M0
  6
DASHDOT
 62
     7
 10
117.591029
 20
301.706741
 11
118.591029
 21
301.706741
  0
LINE
  8
M0
 62
     7
 10
118.557933
 20
303.587875
 11
116.209956
 21
301.239883
  0
LINE
  8
M0
 62
     7
 10
119.972133
 20
302.17366
 11
117.624156
 21
299.825668
  0
LINE
  8
M0
 62
     7
 10
116.022075
 20
303.77565
 11
120.285045
 21
299.51271
  0
LINE
  8
M0
  6
DASHDOT
 62
     7
 10
74.291029
 20
301.206741
 11
74.291029
 21
302.206741
  0
CIRCLE
  8
M0
 62
     7
 10
74.291029
 20
301.706741
 40
4.499996
  0
LINE
  8
M0
  6
DASHDOT
 62
     7
 10
73.791029
 20
301.706741
 11
74.791029
 21
301.706741
  0
LINE
  8
M0
 62
     7
 10
74.757933
 20
303.587875
 11
72.409956
 21
301.239883
  0
LINE
  8
M0
 62
     7
 10
76.172133
 20
302.17366
 11
73.824156
 21
299.825668
  0
LINE
  8
M0
 62
     7
 10
72.222075
 20
303.77565
 11
76.485045
 21
299.51271
  0
CIRCLE
  8
M0
 62
     7
 10
83.191029
 20
369.406741
 40
3.5
  0
LINE
  8
M0
 62
     7
 10
84.201901
 20
371.124698
 11
81.626828
 21
368.549625
  0
LINE
  8
M0
 62
     7
 10
84.909009
 20
370.41759
 11
82.333935
 21
367.842517
  0
LINE
  8
M0
 62
     7
 10
82.230176
 20
370.367587
 11
84.075024
 21
368.522754
  0
CIRCLE
  8
M0
 62
     7
 10
96.191026
 20
369.406741
 40
3.5
  0
LINE
  8
M0
 62
     7
 10
97.201898
 20
371.124698
 11
94.626824
 21
368.549625
  0
LINE
  8
M0
 62
     7
 10
97.909005
 20
370.41759
 11
95.333932
 21
367.842517
  0
LINE
  8
M0
 62
     7
 10
95.230172
 20
370.367587
 11
97.075021
 21
368.522754
  0
CIRCLE
  8
M0
 62
     7
 10
109.191026
 20
369.406741
 40
3.5
  0
LINE
  8
M0
 62
     7
 10
110.201898
 20
371.124698
 11
107.626825
 21
368.549625
  0
LINE
  8
M0
 62
     7
 10
110.909005
 20
370.41759
 11
108.333932
 21
367.842517
  0
LINE
  8
M0
 62
     7
 10
108.230172
 20
370.367587
 11
110.075021
 21
368.522754
  0
CIRCLE
  8
M0
 62
     7
 10
109.191026
 20
322.006741
 40
3.5
  0
LINE
  8
M0
 62
     7
 10
110.201898
 20
323.724698
 11
107.626825
 21
321.149624
  0
LINE
  8
M0
 62
     7
 10
110.909005
 20
323.01759
 11
108.333932
 21
320.442517
  0
LINE
  8
M0
 62
     7
 10
108.230172
 20
322.967587
 11
110.075021
 21
321.122754
  0
CIRCLE
  8
M0
 62
     7
 10
96.191026
 20
322.006741
 40
3.5
  0
LINE
  8
M0
 62
     7
 10
97.201898
 20
323.724698
 11
94.626824
 21
321.149624
  0
LINE
  8
M0
 62
     7
 10
97.909005
 20
323.01759
 11
95.333932
 21
320.442517
  0
LINE
  8
M0
 62
     7
 10
95.230172
 20
322.967587
 11
97.075021
 21
321.122754
  0
CIRCLE
  8
M0
 62
     7
 10
83.191029
 20
322.006741
 40
3.5
  0
LINE
  8
M0
 62
     7
 10
84.201901
 20
323.724698
 11
81.626828
 21
321.149624
  0
LINE
  8
M0
 62
     7
 10
84.909009
 20
323.01759
 11
82.333935
 21
320.442517
  0
LINE
  8
M0
 62
     7
 10
82.230176
 20
322.967587
 11
84.075024
 21
321.122754
  0
ARC
  8
M0
 62
   154
 10
105.191029
 20
314.706741
 40
2.0
 50
0.0
 51
90.0
  0
ARC
  8
M0
 62
   154
 10
111.191029
 20
313.237654
 40
4.0
 50
180.0
 51
211.574191
  0
LINE
  8
M0
 62
   154
 10
112.498881
 20
303.470237
 11
107.783178
 21
311.143245
  0
LINE
  8
M0
 62
   154
 10
107.191029
 20
314.706741
 11
107.191029
 21
313.237654
  0
LINE
  8
M0
 62
   154
 10
105.191029
 20
316.706741
 11
104.355613
 21
316.706741
  0
LINE
  8
M0
 62
   154
 10
114.091029
 20
295.706741
 11
122.091029
 21
295.706741
  0
LINE
  8
M0
 62
   154
 10
113.091029
 20
296.706741
 11
113.091029
 21
301.375828
  0
LINE
  8
M0
 62
   154
 10
105.191029
 20
327.006741
 11
113.191029
 21
327.006741
  0
LINE
  8
M0
 62
   154
 10
123.091029
 20
296.706741
 11
123.091029
 21
302.063884
  0
ARC
  8
M0
 62
   154
 10
111.891029
 20
318.006741
 40
2.5
 50
336.926082
 51
383.073918
  0
ARC
  8
M0
 62
   154
 10
111.891029
 20
325.006741
 40
2.5
 50
336.926082
 51
383.073918
  0
ARC
  8
M0
 62
   154
 10
106.491029
 20
318.006741
 40
2.5
 50
156.926082
 51
211.332251
  0
ARC
  8
M0
 62
   154
 10
106.491029
 20
325.006741
 40
2.5
 50
156.926082
 51
203.073918
  0
LINE
  8
M0
 62
   154
 10
114.191029
 20
318.986537
 11
114.191029
 21
324.026945
  0
LINE
  8
M0
 62
   154
 10
114.191029
 20
325.986537
 11
114.191029
 21
326.006741
  0
LINE
  8
M0
 62
   154
 10
104.191029
 20
318.986537
 11
104.191029
 21
324.026945
  0
LINE
  8
M0
 62
   154
 10
104.191029
 20
325.986537
 11
104.191029
 21
326.006741
  0
LINE
  8
M0
 62
   154
 10
114.191029
 20
317.026945
 11
114.191029
 21
311.706741
  0
ARC
  8
M0
 62
   154
 10
118.191029
 20
311.706741
 40
4.0
 50
180.0
 51
270.0
  0
ARC
  8
M0
 62
   154
 10
113.191029
 20
326.006741
 40
1.0
 50
0.0
 51
90.0
  0
ARC
  8
M0
 62
   154
 10
105.191029
 20
326.006741
 40
1.0
 50
90.0
 51
180.0
  0
ARC
  8
M0
 62
   154
 10
122.091029
 20
296.706741
 40
1.0
 50
270.0
 51
360.0
  0
ARC
  8
M0
 62
   154
 10
114.091029
 20
296.706741
 40
1.0
 50
180.0
 51
270.0
  0
ARC
  8
M0
 62
   154
 10
119.735474
 20
306.706741
 40
1.0
 50
31.890792
 51
90.0
  0
ARC
  8
M0
 62
   154
 10
119.091029
 20
302.063884
 40
4.0
 50
0.0
 51
31.890792
  0
LINE
  8
M0
 62
   154
 10
118.191029
 20
307.706741
 11
119.735474
 21
307.706741
  0
LINE
  8
M0
 62
   154
 10
122.487256
 20
304.177091
 11
120.58453
 21
307.235043
  0
ARC
  8
M0
 62
   154
 10
109.091029
 20
301.375828
 40
4.0
 50
0.0
 51
31.574191
  0
SOLID
  8
M0
 62
     7
 10
207.651338
 20
394.126863
 11
205.651338
 21
394.126863
 12
207.651338
 22
375.926863
 13
205.651338
 23
375.926863
  0
CIRCLE
  8
M0
  6
DASHED
 62
     7
 10
70.991029
 20
332.406741
 40
3.0
  0
LINE
  8
M0
  6
DASHED
 62
     7
 10
72.581613
 20
330.816096
 11
69.399973
 21
333.997859
  0
LINE
  8
M0
  6
DASHED
 62
     7
 10
72.404855
 20
332.760432
 11
70.637277
 21
330.992854
  0
LINE
  8
M0
  6
DASHED
 62
     7
 10
71.344309
 20
333.821101
 11
69.57673
 21
332.053401
  0
LINE
  8
M0
  6
DASHED
 62
     7
 10
74.316029
 20
336.231741
 11
67.666029
 21
336.231741
  0
ARC
  8
M0
  6
DASHED
 62
     7
 10
74.316029
 20
335.731741
 40
0.5
 50
0.0
 51
90.0
  0
LINE
  8
M0
  6
DASHED
 62
     7
 10
74.816029
 20
329.081741
 11
74.816029
 21
335.731741
  0
ARC
  8
M0
  6
DASHED
 62
     7
 10
74.316029
 20
329.081741
 40
0.5
 50
270.0
 51
360.0
  0
LINE
  8
M0
  6
DASHED
 62
     7
 10
67.666029
 20
328.581741
 11
74.316029
 21
328.581741
  0
LINE
  8
M0
  6
DASHED
 62
     7
 10
67.166029
 20
335.731741
 11
67.166029
 21
329.081741
  0
ARC
  8
M0
  6
DASHED
 62
     7
 10
67.666029
 20
335.731741
 40
0.5
 50
90.0
 51
180.0
  0
ARC
  8
M0
  6
DASHED
 62
     7
 10
67.666029
 20
329.081741
 40
0.5
 50
180.0
 51
270.0
  0
LINE
  8
M0
  6
DASHDOT
 62
     7
 10
96.191029
 20
397.199714
 11
96.191029
 21
294.476663
  0
LINE
  8
M0
  6
DASHDOT
 62
     7
 10
59.79103
 20
345.706741
 11
132.591026
 21
345.706741
  0
ARC
  8
M0
 62
     7
 10
103.841029
 20
381.056741
 40
0.5
 50
268.473851
 51
270.0
  0
ARC
  8
M0
 62
     7
 10
69.191029
 20
375.706741
 40
2.25
 50
0.0
 51
180.0
  0
ARC
  8
M0
 62
     7
 10
69.191029
 20
373.706741
 40
2.25
 50
180.0
 51
360.0
  0
ARC
  8
M0
 62
     7
 10
69.791029
 20
315.206741
 40
5.0
 50
180.0
 51
270.0
  0
ARC
  8
M0
 62
     7
 10
69.791029
 20
376.206741
 40
5.0
 50
90.0
 51
180.0
  0
LINE
  8
M0
 62
     7
 10
105.091029
 20
333.506741
 11
87.29103
 21
333.506741
  0
LINE
  8
M0
 62
     7
 10
86.79103
 20
334.006741
 11
86.79103
 21
357.406741
  0
LINE
  8
M0
 62
     7
 10
115.891029
 20
363.106741
 11
76.491029
 21
363.106741
  0
LINE
  8
M0
 62
     7
 10
117.69103
 20
348.206741
 11
115.891029
 21
348.206741
  0
LINE
  8
M0
 62
     7
 10
90.891031
 20
357.906741
 11
87.29103
 21
357.906741
  0
ARC
  8
M0
 62
     7
 10
73.991029
 20
313.706741
 40
0.5
 50
180.0
 51
270.0
  0
ARC
  8
M0
 62
     7
 10
118.391029
 20
314.706741
 40
0.5
 50
0.0
 51
90.0
  0
ARC
  8
M0
 62
     7
 10
74.991029
 20
314.706741
 40
0.5
 50
0.0
 51
90.0
  0
ARC
  8
M0
 62
     7
 10
73.991029
 20
314.706741
 40
0.5
 50
90.0
 51
180.0
  0
CIRCLE
  8
M0
 62
     7
 10
68.691029
 20
315.706741
 40
2.25
  0
CIRCLE
  8
M0
 62
     7
 10
123.691029
 20
375.706741
 40
2.25
  0
ARC
  8
M0
 62
     7
 10
118.391029
 20
313.706741
 40
0.5
 50
270.0
 51
360.0
  0
ARC
  8
M0
 62
     7
 10
117.391029
 20
314.706741
 40
0.5
 50
90.0
 51
180.0
  0
ARC
  8
M0
 62
     7
 10
116.191029
 20
380.206741
 40
1.0
 50
90.0
 51
98.626927
  0
ARC
  8
M0
 62
     7
 10
123.191029
 20
315.706741
 40
2.25
 50
180.0
 51
360.0
  0
ARC
  8
M0
 62
     7
 10
76.191029
 20
380.206741
 40
1.0
 50
81.373073
 51
90.0
  0
ARC
  8
M0
 62
     7
 10
122.591029
 20
376.206741
 40
5.0
 50
0.0
 51
90.0
  0
ARC
  8
M0
 62
     7
 10
74.991029
 20
313.706741
 40
0.5
 50
270.0
 51
360.0
  0
ARC
  8
M0
 62
     7
 10
123.191029
 20
317.706741
 40
2.25
 50
0.0
 51
180.0
  0
ARC
  8
M0
 62
     7
 10
122.591029
 20
315.206741
 40
5.0
 50
270.0
 51
360.0
  0
LINE
  8
M0
 62
     7
 10
75.76026
 20
349.206741
 11
75.76026
 21
348.206741
  0
LINE
  8
M0
 62
     7
 10
75.491029
 20
349.206741
 11
74.89103
 21
349.206741
  0
LINE
  8
M0
 62
     7
 10
75.76026
 20
342.206741
 11
75.76026
 21
343.206741
  0
LINE
  8
M0
 62
     7
 10
75.491029
 20
342.206741
 11
74.89103
 21
342.206741
  0
LINE
  8
M0
 62
     7
 10
116.621797
 20
342.206741
 11
116.621797
 21
343.206741
  0
LINE
  8
M0
 62
     7
 10
116.891028
 20
342.206741
 11
117.49103
 21
342.206741
  0
LINE
  8
M0
 62
     7
 10
116.621797
 20
349.206741
 11
116.621797
 21
348.206741
  0
LINE
  8
M0
 62
     7
 10
116.891028
 20
349.206741
 11
117.49103
 21
349.206741
  0
LINE
  8
M0
 62
     7
 10
101.19103
 20
312.706741
 11
101.19103
 21
313.206742
  0
LINE
  8
M0
 62
     7
 10
101.19103
 20
310.20674
 11
99.291026
 21
310.20674
  0
LINE
  8
M0
 62
     7
 10
91.191028
 20
313.206742
 11
91.191028
 21
312.706741
  0
LINE
  8
M0
 62
     7
 10
74.691029
 20
343.206741
 11
74.691029
 21
348.206741
  0
LINE
  8
M0
 62
     7
 10
75.491029
 20
342.206741
 11
76.491029
 21
342.206741
  0
LINE
  8
M0
 62
     7
 10
75.491029
 20
311.206741
 11
75.491029
 21
342.206741
  0
LINE
  8
M0
 62
     7
 10
75.491029
 20
349.206741
 11
76.491029
 21
349.206741
  0
LINE
  8
M0
 62
     7
 10
74.191029
 20
347.206741
 11
74.691029
 21
347.206741
  0
LINE
  8
M0
 62
     7
 10
74.191029
 20
344.206741
 11
74.191029
 21
347.206741
  0
LINE
  8
M0
 62
     7
 10
91.69103
 20
312.20674
 11
93.091026
 21
312.20674
  0
LINE
  8
M0
 62
     7
 10
74.691029
 20
344.206741
 11
74.191029
 21
344.206741
  0
LINE
  8
M0
 62
     7
 10
118.191031
 20
344.206741
 11
118.191031
 21
347.206741
  0
LINE
  8
M0
 62
     7
 10
75.691029
 20
348.206741
 11
74.691029
 21
348.206741
  0
LINE
  8
M0
 62
     7
 10
118.191031
 20
347.206741
 11
117.69103
 21
347.206741
  0
ARC
  8
M0
 62
     7
 10
74.691029
 20
342.406741
 40
0.5
 50
293.578178
 51
336.421822
  0
ARC
  8
M0
 62
     7
 10
117.691029
 20
342.406741
 40
0.5
 50
203.578178
 51
246.421822
  0
LINE
  8
M0
 62
     7
 10
73.99103
 20
313.206742
 11
74.99103
 21
313.206742
  0
LINE
  8
M0
 62
     7
 10
74.99103
 20
315.206742
 11
73.99103
 21
315.206742
  0
LINE
  8
M0
 62
     7
 10
118.391031
 20
315.206742
 11
117.391029
 21
315.206742
  0
LINE
  8
M0
 62
     7
 10
73.491029
 20
314.706741
 11
73.491029
 21
313.706739
  0
ARC
  8
M0
 62
     7
 10
90.291029
 20
389.706741
 40
0.5
 50
0.0
 51
90.0
  0
ARC
  8
M0
 62
     7
 10
102.091029
 20
389.706741
 40
0.5
 50
90.0
 51
180.0
  0
ARC
  8
M0
 62
     7
 10
90.291029
 20
389.206741
 40
1.0
 50
90.0
 51
180.0
  0
LINE
  8
M0
 62
     7
 10
93.69103
 20
350.184208
 11
93.69103
 21
350.006741
  0
LINE
  8
M0
 62
     7
 10
98.691029
 20
340.706741
 11
98.691029
 21
340.806741
  0
ARC
  8
M0
 62
     7
 10
102.091029
 20
389.206741
 40
1.0
 50
0.0
 51
90.0
  0
LINE
  8
M0
 62
     7
 10
98.691029
 20
350.184208
 11
98.691029
 21
350.006741
  0
ARC
  8
M0
 62
     7
 10
91.391029
 20
349.506741
 40
0.5
 50
90.0
 51
180.0
  0
ARC
  8
M0
 62
     7
 10
93.941029
 20
349.506741
 40
0.5
 50
0.0
 51
90.0
  0
LINE
  8
M0
 62
     7
 10
118.891028
 20
313.706739
 11
118.891028
 21
314.706741
  0
ARC
  8
M0
 62
     7
 10
91.391029
 20
341.306741
 40
0.5
 50
180.0
 51
270.0
  0
ARC
  8
M0
 62
     7
 10
100.991029
 20
349.506741
 40
0.5
 50
0.0
 51
90.0
  0
ARC
  8
M0
 62
     7
 10
98.441029
 20
349.506741
 40
0.5
 50
90.0
 51
180.0
  0
ARC
  8
M0
 62
     7
 10
100.991029
 20
341.306741
 40
0.5
 50
270.0
 51
360.0
  0
LINE
  8
M0
 62
     7
 10
103.891031
 20
380.206742
 11
107.744154
 21
380.206742
  0
LINE
  8
M0
 62
     7
 10
107.191029
 20
378.706741
 11
103.891031
 21
378.706741
  0
LINE
  8
M0
 62
     7
 10
89.29103
 20
388.706742
 11
81.291022
 21
388.706742
  0
LINE
  8
M0
 62
     7
 10
111.09103
 20
388.706742
 11
103.091029
 21
388.706742
  0
LINE
  8
M0
 62
     7
 10
103.091029
 20
389.20674
 11
103.091029
 21
381.186536
  0
LINE
  8
M0
 62
     7
 10
117.69103
 20
344.206741
 11
118.191031
 21
344.206741
  0
LINE
  8
M0
 62
     7
 10
101.591029
 20
380.642631
 11
101.591029
 21
389.20674
  0
LINE
  8
M0
 62
     7
 10
88.491031
 20
378.706741
 11
85.155639
 21
378.706741
  0
LINE
  8
M0
 62
     7
 10
84.637098
 20
380.206742
 11
88.491031
 21
380.206742
  0
LINE
  8
M0
 62
     7
 10
122.591031
 20
310.20674
 11
115.491029
 21
310.20674
  0
LINE
  8
M0
 62
     7
 10
73.491029
 20
316.206741
 11
75.491029
 21
316.206741
  0
LINE
  8
M0
 62
     7
 10
73.491029
 20
320.006742
 11
73.491029
 21
316.206741
  0
LINE
  8
M0
 62
     7
 10
118.891028
 20
316.206741
 11
118.891028
 21
320.006742
  0
LINE
  8
M0
 62
     7
 10
116.891028
 20
316.206741
 11
118.891028
 21
316.206741
  0
LINE
  8
M0
 62
     7
 10
120.941033
 20
317.70674
 11
120.941033
 21
315.70674
  0
LINE
  8
M0
 62
     7
 10
125.441027
 20
315.70674
 11
125.441027
 21
317.70674
  0
LINE
  8
M0
 62
     7
 10
64.79103
 20
315.206742
 11
64.79103
 21
376.206741
  0
LINE
  8
M0
 62
     7
 10
71.441029
 20
375.70674
 11
71.441029
 21
373.706742
  0
LINE
  8
M0
 62
     7
 10
66.94103
 20
373.706742
 11
66.94103
 21
375.70674
  0
ARC
  8
M0
 62
     7
 10
115.891029
 20
362.106741
 40
1.0
 50
0.0
 51
90.0
  0
ARC
  8
M0
 62
     7
 10
115.891029
 20
329.306741
 40
1.0
 50
270.0
 51
360.0
  0
LINE
  8
M0
 62
     7
 10
115.891029
 20
342.206741
 11
115.891029
 21
343.206741
  0
LINE
  8
M0
 62
     7
 10
117.69103
 20
343.206741
 11
115.891029
 21
343.206741
  0
LINE
  8
M0
 62
     7
 10
97.391029
 20
357.906741
 11
94.991029
 21
357.906741
  0
LINE
  8
M0
 62
     7
 10
94.991029
 20
359.506741
 11
94.991029
 21
357.906741
  0
LINE
  8
M0
 62
     7
 10
75.691029
 20
348.206741
 11
76.491029
 21
348.206741
  0
LINE
  8
M0
 62
     7
 10
74.691029
 20
343.206741
 11
76.491029
 21
343.206741
  0
LINE
  8
M0
 62
     7
 10
115.891029
 20
349.206741
 11
115.891029
 21
348.206741
  0
LINE
  8
M0
 62
     7
 10
76.491029
 20
349.206741
 11
76.491029
 21
348.206741
  0
LINE
  8
M0
 62
     7
 10
100.491029
 20
356.906741
 11
91.891029
 21
356.906741
  0
LINE
  8
M0
 62
     7
 10
97.391029
 20
359.506741
 11
94.991029
 21
359.506741
  0
LINE
  8
M0
 62
     7
 10
97.391029
 20
359.506741
 11
97.391029
 21
357.906741
  0
LINE
  8
M0
 62
     7
 10
101.491028
 20
357.906741
 11
105.091029
 21
357.906741
  0
LINE
  8
M0
 62
     7
 10
105.59103
 20
334.006741
 11
105.59103
 21
357.406741
  0
LINE
  8
M0
 62
     7
 10
117.49103
 20
321.006742
 11
118.391031
 21
321.006742
  0
LINE
  8
M0
 62
     7
 10
124.391032
 20
321.006742
 11
125.291032
 21
321.006742
  0
LINE
  8
M0
 62
     7
 10
73.99103
 20
370.406742
 11
74.89103
 21
370.406742
  0
LINE
  8
M0
 62
     7
 10
118.391031
 20
370.406742
 11
117.49103
 21
370.406742
  0
LINE
  8
M0
 62
     7
 10
126.391028
 20
318.006741
 11
126.291027
 21
318.006741
  0
LINE
  8
M0
 62
     7
 10
125.291032
 20
370.406742
 11
124.391032
 21
370.406742
  0
LINE
  8
M0
 62
     7
 10
126.391028
 20
373.40674
 11
126.291027
 21
373.40674
  0
LINE
  8
M0
 62
     7
 10
67.091029
 20
370.406742
 11
67.99103
 21
370.406742
  0
LINE
  8
M0
 62
     7
 10
84.02332
 20
310.20674
 11
87.191029
 21
310.20674
  0
LINE
  8
M0
 62
     7
 10
65.991029
 20
318.006741
 11
66.091029
 21
318.006741
  0
LINE
  8
M0
 62
     7
 10
74.89103
 20
321.006742
 11
73.99103
 21
321.006742
  0
LINE
  8
M0
 62
     7
 10
67.99103
 20
321.006742
 11
67.091029
 21
321.006742
  0
ARC
  8
M0
 62
     7
 10
101.491029
 20
357.406741
 40
0.5
 50
90.0
 51
180.0
  0
ARC
  8
M0
 62
     7
 10
105.091029
 20
357.406741
 40
0.5
 50
0.0
 51
90.0
  0
ARC
  8
M0
 62
     7
 10
91.891029
 20
357.406741
 40
0.5
 50
180.0
 51
270.0
  0
ARC
  8
M0
 62
     7
 10
100.491029
 20
357.406741
 40
0.5
 50
270.0
 51
360.0
  0
LINE
  8
M0
 62
     7
 10
65.991029
 20
373.40674
 11
66.091029
 21
373.40674
  0
ARC
  8
M0
 62
     7
 10
76.491029
 20
362.106741
 40
1.0
 50
90.0
 51
180.0
  0
ARC
  8
M0
 62
     7
 10
76.491029
 20
329.306741
 40
1.0
 50
180.0
 51
270.0
  0
ARC
  8
M0
 62
     7
 10
100.691029
 20
312.706741
 40
0.5
 50
270.0
 51
360.0
  0
ARC
  8
M0
 62
     7
 10
101.191029
 20
312.206741
 40
2.0
 50
270.0
 51
292.57935
  0
ARC
  8
M0
 62
     7
 10
87.291029
 20
357.406741
 40
0.5
 50
90.0
 51
180.0
  0
ARC
  8
M0
 62
     7
 10
90.891029
 20
357.406741
 40
0.5
 50
0.0
 51
90.0
  0
ARC
  8
M0
 62
     7
 10
105.091029
 20
334.006741
 40
0.5
 50
270.0
 51
360.0
  0
ARC
  8
M0
 62
     7
 10
87.291029
 20
334.006741
 40
0.5
 50
180.0
 51
270.0
  0
ARC
  8
M0
 62
     7
 10
117.391029
 20
313.706741
 40
0.5
 50
180.0
 51
270.0
  0
ARC
  8
M0
 62
     7
 10
91.191029
 20
312.206741
 40
2.0
 50
247.42065
 51
270.0
  0
ARC
  8
M0
 62
     7
 10
91.691029
 20
312.706741
 40
0.5
 50
180.0
 51
270.0
  0
LINE
  8
M0
 62
     7
 10
117.391029
 20
313.206742
 11
118.391031
 21
313.206742
  0
LINE
  8
M0
 62
     7
 10
116.891028
 20
349.206741
 11
115.891029
 21
349.206741
  0
LINE
  8
M0
 62
     7
 10
117.69103
 20
343.206741
 11
117.69103
 21
348.206741
  0
LINE
  8
M0
 62
     7
 10
115.891029
 20
328.306741
 11
76.491029
 21
328.306741
  0
LINE
  8
M0
 62
     7
 10
116.891028
 20
342.206741
 11
115.891029
 21
342.206741
  0
LINE
  8
M0
 62
     7
 10
116.891028
 20
311.206741
 11
116.891028
 21
342.206741
  0
LINE
  8
M0
 62
     7
 10
76.491029
 20
342.206741
 11
76.491029
 21
343.206741
  0
LINE
  8
M0
 62
     7
 10
101.591029
 20
389.20674
 11
101.591029
 21
389.706741
  0
LINE
  8
M0
 62
     7
 10
90.791029
 20
388.706742
 11
91.191026
 21
388.706742
  0
LINE
  8
M0
 62
     7
 10
101.491028
 20
341.306741
 11
101.491028
 21
349.506741
  0
LINE
  8
M0
 62
     7
 10
101.191026
 20
388.706742
 11
101.591029
 21
388.706742
  0
LINE
  8
M0
 62
     7
 10
90.791029
 20
389.20674
 11
90.791029
 21
380.642631
  0
LINE
  8
M0
 62
     7
 10
89.29103
 20
381.186536
 11
89.29103
 21
389.20674
  0
LINE
  8
M0
 62
     7
 10
90.791029
 20
389.706741
 11
90.791029
 21
389.20674
  0
LINE
  8
M0
 62
     7
 10
99.991028
 20
350.306741
 11
99.991028
 21
350.006741
  0
LINE
  8
M0
 62
     7
 10
101.491028
 20
349.506741
 11
101.491028
 21
350.306741
  0
LINE
  8
M0
 62
     7
 10
92.39103
 20
350.306741
 11
92.39103
 21
350.006741
  0
LINE
  8
M0
 62
     7
 10
99.991028
 20
340.806741
 11
99.991028
 21
340.706741
  0
LINE
  8
M0
 62
     7
 10
90.891031
 20
343.906741
 11
90.39103
 21
343.906741
  0
LINE
  8
M0
 62
     7
 10
101.491028
 20
343.906741
 11
101.991029
 21
343.906741
  0
LINE
  8
M0
 62
     7
 10
101.491028
 20
340.706741
 11
101.491028
 21
341.306741
  0
LINE
  8
M0
 62
     7
 10
90.39103
 20
346.906741
 11
90.891031
 21
346.906741
  0
LINE
  8
M0
 62
     7
 10
93.69103
 20
350.184208
 11
93.69103
 21
350.306741
  0
LINE
  8
M0
 62
     7
 10
74.89103
 20
341.906741
 11
75.491029
 21
341.906741
  0
LINE
  8
M0
 62
     7
 10
93.69103
 20
340.706741
 11
93.69103
 21
340.806741
  0
LINE
  8
M0
 62
     7
 10
98.691029
 20
350.184208
 11
98.691029
 21
350.306741
  0
LINE
  8
M0
 62
     7
 10
90.891031
 20
340.706741
 11
90.891031
 21
341.306741
  0
LINE
  8
M0
 62
     7
 10
92.39103
 20
340.806741
 11
92.39103
 21
340.706741
  0
LINE
  8
M0
 62
     7
 10
117.49103
 20
341.906741
 11
116.891028
 21
341.906741
  0
LINE
  8
M0
 62
     7
 10
97.941031
 20
349.506741
 11
97.941031
 21
342.306741
  0
LINE
  8
M0
 62
     7
 10
94.441028
 20
349.506741
 11
94.441028
 21
342.306741
  0
LINE
  8
M0
 62
     7
 10
91.391028
 20
350.006741
 11
93.94103
 21
350.006741
  0
LINE
  8
M0
 62
     7
 10
100.99103
 20
340.806741
 11
91.391028
 21
340.806741
  0
LINE
  8
M0
 62
     7
 10
100.99103
 20
350.006741
 11
98.441028
 21
350.006741
  0
LINE
  8
M0
 62
     7
 10
94.441028
 20
342.306741
 11
97.941031
 21
342.306741
  0
LINE
  8
M0
 62
     7
 10
86.79103
 20
350.006741
 11
86.99103
 21
350.006741
  0
LINE
  8
M0
 62
     7
 10
86.99103
 20
340.806741
 11
86.79103
 21
340.806741
  0
LINE
  8
M0
 62
     7
 10
90.891031
 20
349.506741
 11
90.891031
 21
350.306741
  0
LINE
  8
M0
 62
     7
 10
101.991029
 20
346.906741
 11
101.491028
 21
346.906741
  0
LINE
  8
M0
 62
     7
 10
92.191031
 20
350.006741
 11
100.191028
 21
350.006741
  0
LINE
  8
M0
 62
     7
 10
90.891031
 20
341.306741
 11
90.891031
 21
349.506741
  0
LINE
  8
M0
 62
     7
 10
105.59103
 20
350.006741
 11
105.39103
 21
350.006741
  0
LINE
  8
M0
 62
     7
 10
105.39103
 20
340.806741
 11
105.59103
 21
340.806741
  0
LINE
  8
M0
 62
     7
 10
126.591032
 20
365.80674
 11
126.291027
 21
365.80674
  0
ARC
  8
M0
 62
     7
 10
89.491029
 20
380.206741
 40
1.0
 50
90.0
 51
180.0
  0
LINE
  8
M0
 62
     7
 10
126.291027
 20
342.006741
 11
126.591032
 21
342.006741
  0
LINE
  8
M0
 62
     7
 10
126.591032
 20
349.406741
 11
126.291027
 21
349.406741
  0
ARC
  8
M0
 62
     7
 10
102.491029
 20
380.206741
 40
1.0
 50
90.0
 51
180.0
  0
ARC
  8
M0
 62
     7
 10
102.491029
 20
311.206741
 40
1.0
 50
180.0
 51
270.0
  0
ARC
  8
M0
 62
     7
 10
89.891029
 20
380.206741
 40
1.0
 50
0.0
 51
90.0
  0
ARC
  8
M0
 62
     7
 10
89.891029
 20
311.206741
 40
1.0
 50
270.0
 51
360.0
  0
LINE
  8
M0
 62
     7
 10
105.39103
 20
338.206741
 11
105.39103
 21
351.806741
  0
LINE
  8
M0
 62
     7
 10
104.391028
 20
357.706741
 11
102.891029
 21
357.706741
  0
LINE
  8
M0
 62
     7
 10
104.391028
 20
333.706741
 11
103.891031
 21
333.706741
  0
LINE
  8
M0
 62
     7
 10
126.291027
 20
325.606741
 11
126.591032
 21
325.606741
  0
LINE
  8
M0
 62
     7
 10
125.291032
 20
372.406741
 11
125.291032
 21
350.406741
  0
LINE
  8
M0
 62
     7
 10
89.891029
 20
310.20674
 11
89.49103
 21
310.20674
  0
LINE
  8
M0
 62
     7
 10
89.49103
 20
326.806741
 11
89.891029
 21
326.806741
  0
LINE
  8
M0
 62
     7
 10
89.891029
 20
326.806741
 11
90.891031
 21
326.806741
  0
ARC
  8
M0
 62
     7
 10
102.891029
 20
380.206741
 40
1.0
 50
0.0
 51
90.0
  0
ARC
  8
M0
 62
     7
 10
115.491029
 20
380.206741
 40
1.0
 50
90.0
 51
180.0
  0
LINE
  8
M0
 62
     7
 10
125.291032
 20
341.006741
 11
125.291032
 21
319.006741
  0
ARC
  8
M0
 62
     7
 10
102.891029
 20
311.206741
 40
1.0
 50
270.0
 51
360.0
  0
ARC
  8
M0
 62
     7
 10
115.891029
 20
311.206741
 40
1.0
 50
270.0
 51
360.0
  0
LINE
  8
M0
 62
     7
 10
89.49103
 20
381.206742
 11
89.891029
 21
381.206742
  0
ARC
  8
M0
 62
     7
 10
115.491029
 20
311.206741
 40
1.0
 50
180.0
 51
270.0
  0
ARC
  8
M0
 62
     7
 10
115.891029
 20
380.206741
 40
1.0
 50
0.0
 51
90.0
  0
LINE
  8
M0
 62
     7
 10
126.591032
 20
349.406741
 11
126.591032
 21
342.006741
  0
LINE
  8
M0
 62
     7
 10
118.891028
 20
341.706741
 11
118.891028
 21
349.706741
  0
LINE
  8
M0
 62
     7
 10
116.891028
 20
341.706741
 11
118.891028
 21
341.706741
  0
LINE
  8
M0
 62
     7
 10
65.79103
 20
342.006741
 11
66.091029
 21
342.006741
  0
LINE
  8
M0
 62
     7
 10
65.79103
 20
365.80674
 11
66.091029
 21
365.80674
  0
LINE
  8
M0
 62
     7
 10
125.291032
 20
349.406741
 11
125.291032
 21
342.006741
  0
LINE
  8
M0
 62
     7
 10
125.291032
 20
342.006741
 11
122.291026
 21
342.006741
  0
LINE
  8
M0
 62
     7
 10
65.79103
 20
349.406741
 11
65.79103
 21
342.006741
  0
LINE
  8
M0
 62
     7
 10
122.291026
 20
349.406741
 11
125.291032
 21
349.406741
  0
LINE
  8
M0
 62
     7
 10
115.991031
 20
349.206741
 11
115.991031
 21
348.206741
  0
LINE
  8
M0
 62
     7
 10
116.891028
 20
349.706741
 11
118.891028
 21
349.706741
  0
LINE
  8
M0
 62
     7
 10
122.291026
 20
342.006741
 11
122.291026
 21
349.406741
  0
LINE
  8
M0
 62
     7
 10
87.99103
 20
357.706741
 11
89.49103
 21
357.706741
  0
LINE
  8
M0
 62
     7
 10
86.99103
 20
338.206741
 11
86.99103
 21
351.806741
  0
LINE
  8
M0
 62
     7
 10
87.99103
 20
333.706741
 11
88.491031
 21
333.706741
  0
LINE
  8
M0
 62
     7
 10
91.141028
 20
356.706741
 11
101.241031
 21
356.706741
  0
LINE
  8
M0
 62
     7
 10
101.741028
 20
350.306741
 11
90.64103
 21
350.306741
  0
LINE
  8
M0
 62
     7
 10
91.141028
 20
351.806741
 11
101.241031
 21
351.806741
  0
LINE
  8
M0
 62
     7
 10
101.241031
 20
355.206741
 11
91.141028
 21
355.206741
  0
LINE
  8
M0
 62
     7
 10
66.091029
 20
349.406741
 11
65.79103
 21
349.406741
  0
LINE
  8
M0
 62
     7
 10
115.991031
 20
343.206741
 11
115.991031
 21
342.206741
  0
LINE
  8
M0
 62
     7
 10
66.091029
 20
325.606741
 11
65.79103
 21
325.606741
  0
LINE
  8
M0
 62
     7
 10
67.091029
 20
372.406741
 11
67.091029
 21
350.406741
  0
LINE
  8
M0
 62
     7
 10
117.49103
 20
342.706741
 11
117.49103
 21
341.706741
  0
LINE
  8
M0
 62
     7
 10
117.49103
 20
349.706741
 11
117.49103
 21
348.706741
  0
LINE
  8
M0
 62
     7
 10
67.091029
 20
355.006741
 11
75.491029
 21
355.006741
  0
LINE
  8
M0
 62
     7
 10
117.49103
 20
342.706741
 11
117.791028
 21
342.706741
  0
LINE
  8
M0
 62
     7
 10
117.791028
 20
348.706741
 11
117.791028
 21
347.206741
  0
LINE
  8
M0
 62
     7
 10
116.891028
 20
336.406741
 11
125.291032
 21
336.406741
  0
LINE
  8
M0
 62
     7
 10
117.791028
 20
348.706741
 11
117.49103
 21
348.706741
  0
LINE
  8
M0
 62
     7
 10
117.791028
 20
344.206741
 11
117.791028
 21
342.706741
  0
LINE
  8
M0
 62
     7
 10
74.591029
 20
344.206741
 11
74.591029
 21
342.706741
  0
LINE
  8
M0
 62
     7
 10
74.591029
 20
348.706741
 11
74.591029
 21
347.206741
  0
LINE
  8
M0
 62
     7
 10
74.89103
 20
342.706741
 11
74.591029
 21
342.706741
  0
LINE
  8
M0
 62
     7
 10
74.89103
 20
342.706741
 11
74.89103
 21
341.706741
  0
LINE
  8
M0
 62
     7
 10
75.491029
 20
336.406741
 11
67.091029
 21
336.406741
  0
LINE
  8
M0
 62
     7
 10
74.591029
 20
348.706741
 11
74.89103
 21
348.706741
  0
ARC
  8
M0
 62
     7
 10
76.891029
 20
380.206741
 40
1.0
 50
0.0
 51
90.0
  0
ARC
  8
M0
 62
     7
 10
89.491029
 20
311.206741
 40
1.0
 50
180.0
 51
270.0
  0
ARC
  8
M0
 62
     7
 10
76.491029
 20
380.206741
 40
1.0
 50
90.0
 51
180.0
  0
ARC
  8
M0
 62
     7
 10
76.891029
 20
311.206741
 40
1.0
 50
270.0
 51
360.0
  0
LINE
  8
M0
 62
     7
 10
76.891029
 20
310.20674
 11
76.691029
 21
310.20674
  0
LINE
  8
M0
 62
     7
 10
76.691029
 20
381.206742
 11
76.891029
 21
381.206742
  0
LINE
  8
M0
 62
     7
 10
105.59103
 20
351.006741
 11
105.39103
 21
351.006741
  0
ARC
  8
M0
 62
     7
 10
75.491029
 20
326.206741
 40
0.6
 50
180.0
 51
270.0
  0
LINE
  8
M0
 62
     7
 10
74.89103
 20
349.706741
 11
74.89103
 21
348.706741
  0
LINE
  8
M0
 62
     7
 10
125.291032
 20
355.006741
 11
116.891028
 21
355.006741
  0
ARC
  8
M0
 62
     7
 10
116.891029
 20
326.206741
 40
0.6
 50
270.0
 51
360.0
  0
ARC
  8
M0
 62
     7
 10
76.491029
 20
311.206741
 40
1.0
 50
180.0
 51
270.0
  0
ARC
  8
M0
 62
     7
 10
75.491029
 20
365.206741
 40
0.6
 50
90.0
 51
180.0
  0
ARC
  8
M0
 62
     7
 10
116.891029
 20
365.206741
 40
0.6
 50
0.0
 51
90.0
  0
LINE
  8
M0
 62
     7
 10
103.891031
 20
364.606741
 11
101.491028
 21
364.606741
  0
LINE
  8
M0
 62
     7
 10
103.891031
 20
326.806741
 11
102.891029
 21
326.806741
  0
LINE
  8
M0
 62
     7
 10
102.49103
 20
310.20674
 11
102.891029
 21
310.20674
  0
LINE
  8
M0
 62
     7
 10
102.49103
 20
326.806741
 11
101.491028
 21
326.806741
  0
LINE
  8
M0
 62
     7
 10
102.891029
 20
326.806741
 11
102.49103
 21
326.806741
  0
LINE
  8
M0
 62
     7
 10
122.591029
 20
381.206742
 11
115.49103
 21
381.206742
  0
LINE
  8
M0
 62
     7
 10
116.891028
 20
349.206741
 11
116.891028
 21
380.206742
  0
LINE
  8
M0
 62
     7
 10
102.891029
 20
381.206742
 11
102.49103
 21
381.206742
  0
LINE
  8
M0
 62
     7
 10
114.491028
 20
328.306741
 11
114.491028
 21
311.206742
  0
ARC
  8
M0
 62
     7
 10
90.141029
 20
334.206741
 40
0.5
 50
270.0
 51
360.0
  0
ARC
  8
M0
 62
     7
 10
102.241029
 20
334.206741
 40
0.5
 50
180.0
 51
270.0
  0
ARC
  8
M0
 62
     7
 10
90.141029
 20
356.706741
 40
1.0
 50
0.0
 51
90.0
  0
ARC
  8
M0
 62
     7
 10
90.641029
 20
350.806741
 40
0.5
 50
270.0
 51
360.0
  0
ARC
  8
M0
 62
     7
 10
104.391029
 20
334.706741
 40
1.0
 50
270.0
 51
360.0
  0
ARC
  8
M0
 62
     7
 10
104.391029
 20
338.206741
 40
1.0
 50
0.0
 51
90.0
  0
ARC
  8
M0
 62
     7
 10
102.241029
 20
356.706741
 40
1.0
 50
90.0
 51
180.0
  0
ARC
  8
M0
 62
     7
 10
101.741029
 20
350.806741
 40
0.5
 50
180.0
 51
270.0
  0
ARC
  8
M0
 62
     7
 10
126.591029
 20
350.406741
 40
1.0
 50
270.0
 51
360.0
  0
ARC
  8
M0
 62
     7
 10
126.591029
 20
364.806741
 40
1.0
 50
0.0
 51
90.0
  0
ARC
  8
M0
 62
     7
 10
87.991029
 20
356.706741
 40
1.0
 50
90.0
 51
180.0
  0
ARC
  8
M0
 62
     7
 10
87.991029
 20
334.706741
 40
1.0
 50
180.0
 51
270.0
  0
ARC
  8
M0
 62
     7
 10
126.591029
 20
326.606741
 40
1.0
 50
270.0
 51
360.0
  0
LINE
  8
M0
 62
     7
 10
101.741028
 20
339.206741
 11
90.64103
 21
339.206741
  0
LINE
  8
M0
 62
     7
 10
90.64103
 20
335.206741
 11
101.741028
 21
335.206741
  0
LINE
  8
M0
 62
     7
 10
90.64103
 20
340.706741
 11
101.741028
 21
340.706741
  0
LINE
  8
M0
 62
     7
 10
86.99103
 20
351.806741
 11
86.99103
 21
356.706741
  0
LINE
  8
M0
 62
     7
 10
88.491031
 20
350.306741
 11
86.99103
 21
351.806741
  0
LINE
  8
M0
 62
     7
 10
86.99103
 20
334.706741
 11
86.99103
 21
338.206741
  0
ARC
  8
M0
 62
     7
 10
79.091029
 20
329.006741
 40
1.0
 50
270.0
 51
315.572996
  0
ARC
  8
M0
 62
     7
 10
87.291029
 20
329.006741
 40
1.0
 50
224.427004
 51
270.0
  0
ARC
  8
M0
 62
     7
 10
87.991029
 20
338.206741
 40
1.0
 50
90.0
 51
180.0
  0
ARC
  8
M0
 62
     7
 10
104.391029
 20
356.706741
 40
1.0
 50
0.0
 51
90.0
  0
LINE
  8
M0
 62
     7
 10
127.591026
 20
376.206741
 11
127.591026
 21
315.206741
  0
ARC
  8
M0
 62
     7
 10
113.291029
 20
362.406741
 40
1.0
 50
90.0
 51
135.572996
  0
LINE
  8
M0
 62
     7
 10
100.29103
 20
363.406741
 11
101.491028
 21
363.406741
  0
LINE
  8
M0
 62
     7
 10
113.29103
 20
328.006741
 11
114.491028
 21
328.006741
  0
LINE
  8
M0
 62
     7
 10
105.091029
 20
328.006741
 11
103.891031
 21
328.006741
  0
LINE
  8
M0
 62
     7
 10
125.291032
 20
362.806741
 11
117.49103
 21
362.806741
  0
LINE
  8
M0
 62
     7
 10
92.091029
 20
363.406741
 11
90.891031
 21
363.406741
  0
LINE
  8
M0
 62
     7
 10
103.891031
 20
316.706742
 11
105.091029
 21
316.706742
  0
LINE
  8
M0
 62
     7
 10
101.491028
 20
374.706742
 11
100.291026
 21
374.706742
  0
ARC
  8
M0
 62
     7
 10
66.091029
 20
364.806741
 40
1.0
 50
0.0
 51
90.0
  0
ARC
  8
M0
 62
     7
 10
66.091029
 20
341.006741
 40
1.0
 50
0.0
 51
90.0
  0
ARC
  8
M0
 62
     7
 10
65.791029
 20
350.406741
 40
1.0
 50
180.0
 51
270.0
  0
ARC
  8
M0
 62
     7
 10
65.791029
 20
364.806741
 40
1.0
 50
90.0
 51
180.0
  0
ARC
  8
M0
 62
     7
 10
126.291029
 20
326.606741
 40
1.0
 50
180.0
 51
270.0
  0
ARC
  8
M0
 62
     7
 10
126.291029
 20
350.406741
 40
1.0
 50
180.0
 51
270.0
  0
ARC
  8
M0
 62
     7
 10
66.091029
 20
326.606741
 40
1.0
 50
270.0
 51
360.0
  0
ARC
  8
M0
 62
     7
 10
66.091029
 20
350.406741
 40
1.0
 50
270.0
 51
360.0
  0
ARC
  8
M0
 62
     7
 10
65.791029
 20
341.006741
 40
1.0
 50
90.0
 51
180.0
  0
ARC
  8
M0
 62
     7
 10
65.791029
 20
326.606741
 40
1.0
 50
180.0
 51
270.0
  0
LINE
  8
M0
 62
     7
 10
113.29103
 20
363.406741
 11
114.491028
 21
363.406741
  0
LINE
  8
M0
 62
     7
 10
67.091029
 20
349.406741
 11
67.091029
 21
342.006741
  0
LINE
  8
M0
 62
     7
 10
76.391029
 20
343.206741
 11
76.391029
 21
342.206741
  0
LINE
  8
M0
 62
     7
 10
70.09103
 20
342.006741
 11
70.09103
 21
349.406741
  0
LINE
  8
M0
 62
     7
 10
67.091029
 20
342.006741
 11
70.09103
 21
342.006741
  0
LINE
  8
M0
 62
     7
 10
73.491029
 20
341.706741
 11
73.491029
 21
349.706741
  0
LINE
  8
M0
 62
     7
 10
75.491029
 20
349.706741
 11
73.491029
 21
349.706741
  0
LINE
  8
M0
 62
     7
 10
76.391029
 20
349.206741
 11
76.391029
 21
348.206741
  0
LINE
  8
M0
 62
     7
 10
75.491029
 20
341.706741
 11
73.491029
 21
341.706741
  0
ARC
  8
M0
 62
     7
 10
126.291029
 20
364.806741
 40
1.0
 50
90.0
 51
180.0
  0
ARC
  8
M0
 62
     7
 10
126.591029
 20
341.006741
 40
1.0
 50
0.0
 51
90.0
  0
LINE
  8
M0
 62
     7
 10
114.491028
 20
374.706742
 11
114.291029
 21
374.706742
  0
ARC
  8
M0
 62
     7
 10
126.291029
 20
341.006741
 40
1.0
 50
90.0
 51
180.0
  0
LINE
  8
M0
 62
     7
 10
86.79103
 20
351.006741
 11
86.99103
 21
351.006741
  0
LINE
  8
M0
 62
     7
 10
70.09103
 20
349.406741
 11
67.091029
 21
349.406741
  0
LINE
  8
M0
 62
     7
 10
105.59103
 20
340.406741
 11
105.39103
 21
340.406741
  0
LINE
  8
M0
 62
     7
 10
86.79103
 20
340.406741
 11
86.99103
 21
340.406741
  0
LINE
  8
M0
 62
     7
 10
91.141028
 20
356.706741
 11
91.141028
 21
350.806741
  0
LINE
  8
M0
 62
     7
 10
101.241031
 20
356.706741
 11
101.241031
 21
350.806741
  0
LINE
  8
M0
 62
     7
 10
90.64103
 20
342.456741
 11
90.64103
 21
334.206741
  0
LINE
  8
M0
 62
     7
 10
90.39103
 20
342.956741
 11
90.64103
 21
342.456741
  0
LINE
  8
M0
 62
     7
 10
101.991029
 20
342.956741
 11
101.741028
 21
342.456741
  0
LINE
  8
M0
 62
     7
 10
101.991029
 20
348.456741
 11
101.991029
 21
342.956741
  0
LINE
  8
M0
 62
     7
 10
101.741028
 20
350.306741
 11
101.741028
 21
348.956741
  0
LINE
  8
M0
 62
     7
 10
101.741028
 20
342.456741
 11
101.741028
 21
334.206741
  0
LINE
  8
M0
 62
     7
 10
87.99103
 20
339.206741
 11
88.491031
 21
339.206741
  0
LINE
  8
M0
 62
     7
 10
90.39103
 20
348.456741
 11
90.39103
 21
342.956741
  0
LINE
  8
M0
 62
     7
 10
88.491031
 20
339.206741
 11
88.491031
 21
350.306741
  0
LINE
  8
M0
 62
     7
 10
90.64103
 20
348.956741
 11
90.39103
 21
348.456741
  0
LINE
  8
M0
 62
     7
 10
90.64103
 20
350.306741
 11
90.64103
 21
348.956741
  0
LINE
  8
M0
 62
     7
 10
77.891029
 20
316.706742
 11
78.091029
 21
316.706742
  0
LINE
  8
M0
 62
     7
 10
87.29103
 20
328.006741
 11
88.491031
 21
328.006741
  0
LINE
  8
M0
 62
     7
 10
105.39103
 20
334.706741
 11
105.39103
 21
338.206741
  0
LINE
  8
M0
 62
     7
 10
79.091029
 20
328.006741
 11
77.891029
 21
328.006741
  0
LINE
  8
M0
 62
     7
 10
104.391028
 20
339.206741
 11
103.891031
 21
339.206741
  0
LINE
  8
M0
 62
     7
 10
103.891031
 20
339.206741
 11
103.891031
 21
350.306741
  0
LINE
  8
M0
 62
     7
 10
87.99103
 20
357.706741
 11
90.141029
 21
357.706741
  0
LINE
  8
M0
 62
     7
 10
101.741028
 20
348.956741
 11
101.991029
 21
348.456741
  0
LINE
  8
M0
 62
     7
 10
105.39103
 20
351.806741
 11
105.39103
 21
356.706741
  0
LINE
  8
M0
 62
     7
 10
103.891031
 20
350.306741
 11
105.39103
 21
351.806741
  0
LINE
  8
M0
 62
     7
 10
87.991029
 20
333.706741
 11
104.391028
 21
333.706741
  0
LINE
  8
M0
 62
     7
 10
104.391028
 20
357.706741
 11
102.241029
 21
357.706741
  0
POLYLINE
  8
M0
 62
     7
 66
     1
  0
VERTEX
  8
M0
 62
     7
 10
90.891029
 20
380.623408
  0
VERTEX
  8
M0
 62
     7
 10
90.906222
 20
380.551054
  0
VERTEX
  8
M0
 62
     7
 10
90.951337
 20
380.480899
  0
VERTEX
  8
M0
 62
     7
 10
91.025004
 20
380.415074
  0
VERTEX
  8
M0
 62
     7
 10
91.124985
 20
380.355579
  0
VERTEX
  8
M0
 62
     7
 10
91.248242
 20
380.304222
  0
VERTEX
  8
M0
 62
     7
 10
91.391029
 20
380.262564
  0
VERTEX
  8
M0
 62
     7
 10
91.549009
 20
380.231869
  0
VERTEX
  8
M0
 62
     7
 10
91.717381
 20
380.213071
  0
VERTEX
  8
M0
 62
     7
 10
91.891029
 20
380.206741
  0
SEQEND
  8
M0
 62
     7
  0
POLYLINE
  8
M0
 62
     7
 66
     1
  0
VERTEX
  8
M0
 62
     7
 10
100.491029
 20
380.206741
  0
VERTEX
  8
M0
 62
     7
 10
100.664678
 20
380.213071
  0
VERTEX
  8
M0
 62
     7
 10
100.83305
 20
380.231869
  0
VERTEX
  8
M0
 62
     7
 10
100.991029
 20
380.262564
  0
VERTEX
  8
M0
 62
     7
 10
101.133817
 20
380.304222
  0
VERTEX
  8
M0
 62
     7
 10
101.257074
 20
380.355579
  0
VERTEX
  8
M0
 62
     7
 10
101.357055
 20
380.415074
  0
VERTEX
  8
M0
 62
     7
 10
101.430722
 20
380.480899
  0
VERTEX
  8
M0
 62
     7
 10
101.475837
 20
380.551054
  0
VERTEX
  8
M0
 62
     7
 10
101.491029
 20
380.623408
  0
SEQEND
  8
M0
 62
     7
  0
LINE
  8
M0
 62
     7
 10
100.491029
 20
380.206742
 11
99.291026
 21
380.206742
  0
LINE
  8
M0
 62
     7
 10
77.891029
 20
376.70674
 11
78.091029
 21
376.70674
  0
LINE
  8
M0
 62
     7
 10
90.891031
 20
376.70674
 11
93.091026
 21
376.70674
  0
LINE
  8
M0
 62
     7
 10
90.891031
 20
387.706741
 11
90.891031
 21
363.106741
  0
LINE
  8
M0
 62
     7
 10
101.491028
 20
378.706741
 11
99.291026
 21
378.706741
  0
LINE
  8
M0
 62
     7
 10
105.941029
 20
310.706741
 11
105.941029
 21
311.206742
  0
LINE
  8
M0
 62
     7
 10
105.191031
 20
310.20674
 11
108.358738
 21
310.20674
  0
LINE
  8
M0
 62
     7
 10
105.941029
 20
311.206742
 11
105.941029
 21
313.206742
  0
LINE
  8
M0
 62
     7
 10
114.291029
 20
314.706741
 11
114.491028
 21
314.706741
  0
LINE
  8
M0
 62
     7
 10
66.091029
 20
318.006741
 11
65.79103
 21
318.006741
  0
LINE
  8
M0
 62
     7
 10
78.091029
 20
314.706741
 11
77.891029
 21
314.706741
  0
LINE
  8
M0
 62
     7
 10
65.79103
 20
373.40674
 11
66.091029
 21
373.40674
  0
LINE
  8
M0
 62
     7
 10
87.19103
 20
314.20674
 11
87.19103
 21
316.706742
  0
LINE
  8
M0
 62
     7
 10
88.491031
 20
313.206742
 11
88.19103
 21
313.206742
  0
LINE
  8
M0
 62
     7
 10
114.491028
 20
376.70674
 11
114.291029
 21
376.70674
  0
LINE
  8
M0
 62
     7
 10
105.191031
 20
314.20674
 11
105.191031
 21
316.706742
  0
LINE
  8
M0
 62
     7
 10
101.491028
 20
313.206742
 11
99.291026
 21
313.206742
  0
LINE
  8
M0
 62
     7
 10
104.191029
 20
313.206742
 11
103.891031
 21
313.206742
  0
ARC
  8
M0
 62
     7
 10
105.441029
 20
310.706741
 40
0.5
 50
270.0
 51
360.0
  0
ARC
  8
M0
 62
     7
 10
109.191029
 20
313.206741
 40
3.25
 50
132.76855
 51
180.0
  0
ARC
  8
M0
 62
     7
 10
91.891029
 20
387.706741
 40
1.0
 50
134.427281
 51
180.0
  0
ARC
  8
M0
 62
     7
 10
100.491029
 20
387.706741
 40
1.0
 50
0.0
 51
45.573273
  0
ARC
  8
M0
 62
     7
 10
87.191029
 20
311.206741
 40
1.0
 50
270.0
 51
360.0
  0
ARC
  8
M0
 62
     7
 10
105.191029
 20
311.206741
 40
1.0
 50
180.0
 51
270.0
  0
ARC
  8
M0
 62
     7
 10
83.191029
 20
313.206741
 40
3.25
 50
0.0
 51
47.231455
  0
LINE
  8
M0
 62
     7
 10
88.19103
 20
313.206742
 11
88.19103
 21
311.206742
  0
LINE
  8
M0
 62
     7
 10
104.191029
 20
313.206742
 11
104.191029
 21
311.206742
  0
LINE
  8
M0
 62
     7
 10
86.44103
 20
310.706741
 11
86.44103
 21
313.206741
  0
ARC
  8
M0
 62
     7
 10
104.191029
 20
314.206741
 40
1.0
 50
270.0
 51
360.0
  0
ARC
  8
M0
 62
     7
 10
86.941029
 20
310.706741
 40
0.5
 50
180.0
 51
270.0
  0
ARC
  8
M0
 62
     7
 10
88.191029
 20
314.206741
 40
1.0
 50
180.0
 51
270.0
  0
ARC
  8
M0
 62
     7
 10
65.791029
 20
372.406741
 40
1.0
 50
90.0
 51
180.0
  0
LINE
  8
M0
 62
     7
 10
76.891029
 20
310.20674
 11
69.791029
 21
310.20674
  0
LINE
  8
M0
 62
     7
 10
69.791029
 20
381.206742
 11
76.891029
 21
381.206742
  0
LINE
  8
M0
 62
     7
 10
75.491029
 20
380.206741
 11
75.491029
 21
349.206741
  0
LINE
  8
M0
 62
     7
 10
117.49103
 20
318.606741
 11
117.49103
 21
336.406741
  0
LINE
  8
M0
 62
     7
 10
117.49103
 20
355.006741
 11
117.49103
 21
372.806741
  0
ARC
  8
M0
 62
     7
 10
65.791029
 20
319.006741
 40
1.0
 50
180.0
 51
270.0
  0
ARC
  8
M0
 62
     7
 10
66.091029
 20
319.006741
 40
1.0
 50
270.0
 51
360.0
  0
LINE
  8
M0
 62
     7
 10
88.491031
 20
364.606741
 11
90.891031
 21
364.606741
  0
ARC
  8
M0
 62
     7
 10
75.491029
 20
318.606741
 40
0.6
 50
180.0
 51
270.0
  0
ARC
  8
M0
 62
     7
 10
116.891029
 20
372.806741
 40
0.6
 50
0.0
 51
90.0
  0
ARC
  8
M0
 62
     7
 10
66.091029
 20
372.406741
 40
1.0
 50
0.0
 51
90.0
  0
ARC
  8
M0
 62
     7
 10
75.491029
 20
372.806741
 40
0.6
 50
90.0
 51
180.0
  0
LINE
  8
M0
 62
     7
 10
77.891029
 20
328.306741
 11
77.891029
 21
311.206742
  0
LINE
  8
M0
 62
     7
 10
88.491031
 20
311.206742
 11
88.491031
 21
328.306741
  0
LINE
  8
M0
 62
     7
 10
88.491031
 20
326.806741
 11
89.49103
 21
326.806741
  0
LINE
  8
M0
 62
     7
 10
115.69103
 20
381.206742
 11
115.49103
 21
381.206742
  0
LINE
  8
M0
 62
     7
 10
114.491028
 20
380.206742
 11
114.491028
 21
363.106741
  0
LINE
  8
M0
 62
     7
 10
90.891031
 20
311.206741
 11
90.891031
 21
328.306741
  0
LINE
  8
M0
 62
     7
 10
88.491031
 20
380.206741
 11
88.491031
 21
363.106741
  0
LINE
  8
M0
 62
     7
 10
103.891031
 20
328.306741
 11
103.891031
 21
311.206741
  0
LINE
  8
M0
 62
     7
 10
101.491028
 20
311.206741
 11
101.491028
 21
328.306741
  0
LINE
  8
M0
 62
     7
 10
103.891031
 20
380.206741
 11
103.891031
 21
363.106741
  0
LINE
  8
M0
 62
     7
 10
101.491028
 20
363.106741
 11
101.491028
 21
387.706741
  0
LINE
  8
M0
 62
     7
 10
101.491028
 20
313.206742
 11
101.491028
 21
314.20674
  0
LINE
  8
M0
 62
     7
 10
101.491028
 20
378.206741
 11
101.491028
 21
377.206741
  0
LINE
  8
M0
 62
     7
 10
126.291027
 20
318.006741
 11
126.591032
 21
318.006741
  0
LINE
  8
M0
 62
     7
 10
126.591032
 20
373.40674
 11
126.291027
 21
373.40674
  0
LINE
  8
M0
 62
     7
 10
126.391028
 20
365.80674
 11
126.291027
 21
365.80674
  0
LINE
  8
M0
 62
     7
 10
77.891029
 20
380.206742
 11
77.891029
 21
363.106741
  0
LINE
  8
M0
 62
     7
 10
65.991029
 20
365.80674
 11
66.091029
 21
365.80674
  0
LINE
  8
M0
 62
     7
 10
126.391028
 20
325.606741
 11
126.291027
 21
325.606741
  0
LINE
  8
M0
 62
     7
 10
65.991029
 20
325.606741
 11
66.091029
 21
325.606741
  0
ARC
  8
M0
 62
     7
 10
126.291029
 20
319.006741
 40
1.0
 50
180.0
 51
270.0
  0
ARC
  8
M0
 62
     7
 10
126.291029
 20
372.406741
 40
1.0
 50
90.0
 51
180.0
  0
ARC
  8
M0
 62
     7
 10
116.891029
 20
318.606741
 40
0.6
 50
270.0
 51
360.0
  0
ARC
  8
M0
 62
     7
 10
126.591029
 20
372.406741
 40
1.0
 50
0.0
 51
90.0
  0
LINE
  8
M0
 62
     7
 10
74.89103
 20
318.60674
 11
74.89103
 21
336.406741
  0
LINE
  8
M0
 62
     7
 10
74.89103
 20
355.006741
 11
74.89103
 21
372.806741
  0
ARC
  8
M0
 62
     7
 10
126.591029
 20
319.006741
 40
1.0
 50
270.0
 51
360.0
  0
LINE
  8
M0
 62
     7
 10
67.091029
 20
341.006741
 11
67.091029
 21
319.006741
  0
LINE
  8
M0
 62
     7
 10
118.391031
 20
320.006742
 11
118.391031
 21
321.006742
  0
LINE
  8
M0
 62
     7
 10
124.391032
 20
320.006742
 11
118.391031
 21
320.006742
  0
LINE
  8
M0
 62
     7
 10
124.391032
 20
321.006742
 11
124.391032
 21
320.006742
  0
LINE
  8
M0
 62
     7
 10
74.89103
 20
362.806741
 11
67.091029
 21
362.806741
  0
LINE
  8
M0
 62
     7
 10
118.391031
 20
371.406742
 11
124.391032
 21
371.406742
  0
LINE
  8
M0
 62
     7
 10
118.391031
 20
370.406742
 11
118.391031
 21
371.406742
  0
LINE
  8
M0
 62
     7
 10
124.391032
 20
371.406742
 11
124.391032
 21
370.406742
  0
LINE
  8
M0
 62
     7
 10
67.091029
 20
328.60674
 11
74.89103
 21
328.60674
  0
LINE
  8
M0
 62
     7
 10
117.49103
 20
328.60674
 11
125.291032
 21
328.60674
  0
LINE
  8
M0
 62
     7
 10
79.091029
 20
363.406741
 11
77.891029
 21
363.406741
  0
LINE
  8
M0
 62
     7
 10
87.29103
 20
363.406741
 11
88.491031
 21
363.406741
  0
LINE
  8
M0
 62
     7
 10
88.491031
 20
374.706742
 11
87.291029
 21
374.706742
  0
ARC
  8
M0
 62
     7
 10
92.091029
 20
362.406741
 40
1.0
 50
44.427004
 51
90.0
  0
LINE
  8
M0
 62
     7
 10
105.091029
 20
363.406741
 11
103.891031
 21
363.406741
  0
ARC
  8
M0
 62
     7
 10
113.291029
 20
329.006741
 40
1.0
 50
224.427004
 51
270.0
  0
ARC
  8
M0
 62
     7
 10
100.291029
 20
362.406741
 40
1.0
 50
90.0
 51
135.572996
  0
LINE
  8
M0
 62
     7
 10
100.29103
 20
328.006741
 11
101.491028
 21
328.006741
  0
LINE
  8
M0
 62
     7
 10
92.091029
 20
328.006741
 11
90.891031
 21
328.006741
  0
LINE
  8
M0
 62
     7
 10
90.891031
 20
316.706742
 11
92.091026
 21
316.706742
  0
LINE
  8
M0
 62
     7
 10
67.99103
 20
371.406742
 11
73.99103
 21
371.406742
  0
LINE
  8
M0
 62
     7
 10
67.99103
 20
370.406742
 11
67.99103
 21
371.406742
  0
LINE
  8
M0
 62
     7
 10
73.99103
 20
371.406742
 11
73.99103
 21
370.406742
  0
ARC
  8
M0
 62
     7
 10
105.091029
 20
362.406741
 40
1.0
 50
44.427004
 51
90.0
  0
ARC
  8
M0
 62
     7
 10
87.291029
 20
362.406741
 40
1.0
 50
90.0
 51
135.572996
  0
ARC
  8
M0
 62
     7
 10
100.291029
 20
329.006741
 40
1.0
 50
224.427004
 51
270.0
  0
ARC
  8
M0
 62
     7
 10
105.091029
 20
329.006741
 40
1.0
 50
270.0
 51
315.572996
  0
ARC
  8
M0
 62
     7
 10
79.091029
 20
362.406741
 40
1.0
 50
44.427004
 51
90.0
  0
ARC
  8
M0
 62
     7
 10
92.091029
 20
329.006741
 40
1.0
 50
270.0
 51
315.572996
  0
LINE
  8
M0
 62
     7
 10
73.99103
 20
320.006742
 11
67.99103
 21
320.006742
  0
LINE
  8
M0
 62
     7
 10
73.99103
 20
321.006742
 11
73.99103
 21
320.006742
  0
LINE
  8
M0
 62
     7
 10
67.99103
 20
320.006742
 11
67.99103
 21
321.006742
  0
LINE
  8
M0
  6
DASHDOT
 62
     7
 10
63.942529
 20
375.706741
 11
74.43953
 21
375.706741
  0
LINE
  8
M0
  6
DASHDOT
 62
     7
 10
69.191029
 20
370.45824
 11
69.191029
 21
380.955242
  0
LINE
  8
M0
  6
DASHDOT
 62
     7
 10
117.942529
 20
316.706741
 11
128.43953
 21
316.706741
  0
LINE
  8
M0
  6
DASHDOT
 62
     7
 10
123.191029
 20
310.45824
 11
123.191029
 21
320.955242
  0
LINE
  8
M0
  6
DASHDOT
 62
     7
 10
82.691029
 20
322.006741
 11
83.691029
 21
322.006741
  0
LINE
  8
M0
  6
DASHDOT
 62
     7
 10
83.191029
 20
321.506741
 11
83.191029
 21
322.506741
  0
LINE
  8
M0
  6
DASHDOT
 62
     7
 10
96.191026
 20
321.506741
 11
96.191026
 21
322.506741
  0
LINE
  8
M0
  6
DASHDOT
 62
     7
 10
95.691026
 20
322.006741
 11
96.691026
 21
322.006741
  0
LINE
  8
M0
  6
DASHDOT
 62
     7
 10
109.191026
 20
321.506741
 11
109.191026
 21
322.506741
  0
LINE
  8
M0
  6
DASHDOT
 62
     7
 10
108.691026
 20
322.006741
 11
109.691026
 21
322.006741
  0
LINE
  8
M0
  6
DASHDOT
 62
     7
 10
109.191026
 20
369.906741
 11
109.191026
 21
368.906741
  0
LINE
  8
M0
  6
DASHDOT
 62
     7
 10
108.691026
 20
369.406741
 11
109.691026
 21
369.406741
  0
LINE
  8
M0
  6
DASHDOT
 62
     7
 10
95.691026
 20
369.406741
 11
96.691026
 21
369.406741
  0
LINE
  8
M0
  6
DASHDOT
 62
     7
 10
83.191029
 20
369.906741
 11
83.191029
 21
368.906741
  0
LINE
  8
M0
  6
DASHDOT
 62
     7
 10
96.191026
 20
369.906741
 11
96.191026
 21
368.906741
  0
LINE
  8
M0
  6
DASHDOT
 62
     7
 10
82.691029
 20
369.406741
 11
83.691029
 21
369.406741
  0
LINE
  8
M0
  6
DASHDOT
 62
     7
 10
121.891029
 20
366.606741
 11
120.891029
 21
366.606741
  0
LINE
  8
M0
  6
DASHDOT
 62
     7
 10
121.391029
 20
366.106741
 11
121.391029
 21
367.106741
  0
LINE
  8
M0
  6
DASHDOT
 62
     7
 10
121.891029
 20
359.006741
 11
120.891029
 21
359.006741
  0
LINE
  8
M0
  6
DASHDOT
 62
     7
 10
121.391029
 20
358.506741
 11
121.391029
 21
359.506741
  0
LINE
  8
M0
  6
DASHDOT
 62
     7
 10
121.891029
 20
332.406741
 11
120.891029
 21
332.406741
  0
LINE
  8
M0
  6
DASHDOT
 62
     7
 10
121.391029
 20
331.906741
 11
121.391029
 21
332.906741
  0
LINE
  8
M0
  6
DASHDOT
 62
     7
 10
121.891029
 20
324.806741
 11
120.891029
 21
324.806741
  0
LINE
  8
M0
  6
DASHDOT
 62
     7
 10
121.391029
 20
324.306741
 11
121.391029
 21
325.306741
  0
LINE
  8
M0
  6
DASHDOT
 62
     7
 10
70.491029
 20
359.006741
 11
71.491029
 21
359.006741
  0
LINE
  8
M0
  6
DASHDOT
 62
     7
 10
70.991029
 20
358.506741
 11
70.991029
 21
359.506741
  0
LINE
  8
M0
  6
DASHDOT
 62
     7
 10
70.491029
 20
366.606741
 11
71.491029
 21
366.606741
  0
LINE
  8
M0
  6
DASHDOT
 62
     7
 10
70.991029
 20
366.106741
 11
70.991029
 21
367.106741
  0
LINE
  8
M0
  6
DASHDOT
 62
     7
 10
70.491029
 20
324.806741
 11
71.491029
 21
324.806741
  0
LINE
  8
M0
  6
DASHDOT
 62
     7
 10
70.991029
 20
324.306741
 11
70.991029
 21
325.306741
  0
LINE
  8
M0
  6
DASHDOT
 62
     7
 10
70.491029
 20
332.406741
 11
71.491029
 21
332.406741
  0
LINE
  8
M0
  6
DASHDOT
 62
     7
 10
70.991029
 20
331.906741
 11
70.991029
 21
332.906741
  0
LINE
  8
M0
  6
DASHDOT
 62
     7
 10
106.591029
 20
384.306741
 11
107.591029
 21
384.306741
  0
LINE
  8
M0
  6
DASHDOT
 62
     7
 10
107.091029
 20
383.806741
 11
107.091029
 21
384.806741
  0
LINE
  8
M0
  6
DASHDOT
 62
     7
 10
85.791029
 20
384.306741
 11
84.791029
 21
384.306741
  0
LINE
  8
M0
  6
DASHDOT
 62
     7
 10
85.291029
 20
383.806741
 11
85.291029
 21
384.806741
  0
LINE
  8
M0
 62
     7
 10
92.091026
 20
374.706742
 11
90.891031
 21
374.706742
  0
LINE
  8
M0
 62
     7
 10
99.291026
 20
376.70674
 11
101.491028
 21
376.70674
  0
LINE
  8
M0
 62
     7
 10
93.091026
 20
378.706741
 11
90.891031
 21
378.706741
  0
LINE
  8
M0
 62
     7
 10
93.091026
 20
380.206742
 11
91.891029
 21
380.206742
  0
LINE
  8
M0
 62
     7
 10
78.091029
 20
374.706742
 11
77.891029
 21
374.706742
  0
LINE
  8
M0
 62
     7
 10
85.191029
 20
376.70674
 11
88.491031
 21
376.70674
  0
LINE
  8
M0
 62
     7
 10
105.091029
 20
374.706742
 11
103.891031
 21
374.706742
  0
LINE
  8
M0
 62
     7
 10
107.191029
 20
376.70674
 11
103.891031
 21
376.70674
  0
LINE
  8
M0
 62
     7
 10
87.291029
 20
316.706742
 11
88.491031
 21
316.706742
  0
LINE
  8
M0
 62
     7
 10
100.291026
 20
316.706742
 11
101.491028
 21
316.706742
  0
LINE
  8
M0
 62
     7
 10
93.091026
 20
313.206742
 11
90.891031
 21
313.206742
  0
LINE
  8
M0
 62
     7
 10
99.291026
 20
312.20674
 11
100.691029
 21
312.20674
  0
LINE
  8
M0
 62
     7
 10
93.091026
 20
310.20674
 11
91.191028
 21
310.20674
  0
LINE
  8
M0
 62
     7
 10
114.291029
 20
316.706742
 11
114.491028
 21
316.706742
  0
LINE
  8
M0
 62
     7
 10
111.09103
 20
389.20674
 11
111.09103
 21
385.652506
  0
LINE
  8
M0
 62
     7
 10
112.59103
 20
388.093183
 11
112.59103
 21
389.20674
  0
LINE
  8
M0
 62
     7
 10
112.59103
 20
389.20674
 11
112.59103
 21
389.706741
  0
ARC
  8
M0
 62
     7
 10
112.091029
 20
389.706741
 40
0.5
 50
0.0
 51
90.0
  0
ARC
  8
M0
 62
     7
 10
112.091029
 20
389.206741
 40
1.0
 50
90.0
 51
180.0
  0
LINE
  8
M0
 62
     7
 10
79.791023
 20
388.093183
 11
79.791023
 21
389.20674
  0
ARC
  8
M0
 62
     7
 10
80.291023
 20
389.706741
 40
0.5
 50
90.0
 51
180.0
  0
ARC
  8
M0
 62
     7
 10
80.291023
 20
389.206741
 40
1.0
 50
0.0
 51
90.0
  0
LINE
  8
M0
 62
     7
 10
79.791023
 20
389.20674
 11
79.791023
 21
389.706741
  0
LINE
  8
M0
 62
     7
 10
81.291022
 20
389.20674
 11
81.291022
 21
385.652506
  0
ARC
  8
M0
 62
     7
 10
83.191029
 20
313.206741
 40
2.75
 50
294.427107
 51
402.37713
  0
CIRCLE
  8
M0
 62
     7
 10
123.191026
 20
162.468418
 40
2.0
  0
CIRCLE
  8
M0
 62
     7
 10
69.191027
 20
221.468418
 40
2.0
  0
CIRCLE
  8
M0
 62
     7
 10
69.191027
 20
221.468411
 40
1.7
  0
CIRCLE
  8
M0
 62
     7
 10
123.191026
 20
162.468418
 40
1.7
  0
LINE
  8
M0
  6
DASHDOT
 62
     7
 10
74.291029
 20
389.206741
 11
74.291029
 21
390.206741
  0
CIRCLE
  8
M0
 62
     7
 10
74.291029
 20
389.706741
 40
4.499996
  0
LINE
  8
M0
  6
DASHDOT
 62
     7
 10
73.791029
 20
389.706741
 11
74.791029
 21
389.706741
  0
LINE
  8
M0
 62
     7
 10
74.757933
 20
391.587875
 11
72.409956
 21
389.239883
  0
LINE
  8
M0
 62
     7
 10
76.172133
 20
390.17366
 11
73.824156
 21
387.825668
  0
LINE
  8
M0
 62
     7
 10
72.222075
 20
391.77565
 11
76.485045
 21
387.512711
  0
LINE
  8
M0
  6
DASHED
 62
     7
 10
181.351339
 20
348.006734
 11
181.351339
 21
345.206735
  0
LINE
  8
M0
  6
DASHED
 62
     7
 10
181.351339
 20
348.006734
 11
182.951338
 21
348.006734
  0
LINE
  8
M0
  6
DASHED
 62
     7
 10
182.951338
 20
345.206735
 11
181.351339
 21
345.206735
  0
LINE
  8
M0
  6
DASHED
 62
     7
 10
216.451338
 20
364.406728
 11
207.051338
 21
364.406728
  0
LINE
  8
M0
  6
DASHED
 62
     7
 10
216.451339
 20
329.006741
 11
211.651338
 21
329.006741
  0
LINE
  8
M0
  6
DASHED
 62
     7
 10
182.951338
 20
327.306735
 11
182.951338
 21
366.106734
  0
ARC
  8
M0
  6
DASHED
 62
     7
 10
186.951338
 20
327.306735
 40
4.0
 50
180.0
 51
270.0
  0
ARC
  8
M0
  6
DASHED
 62
     7
 10
202.051338
 20
328.306735
 40
5.0
 50
270.0
 51
360.0
  0
ARC
  8
M0
  6
DASHED
 62
     7
 10
216.451338
 20
329.506741
 40
0.5
 50
270.0
 51
360.0
  0
ARC
  8
M0
  6
DASHED
 62
     7
 10
186.951338
 20
366.106735
 40
4.0
 50
90.0
 51
180.0
  0
ARC
  8
M0
  6
DASHED
 62
     7
 10
202.051338
 20
365.106735
 40
5.0
 50
0.0
 51
90.0
  0
ARC
  8
M0
  6
DASHED
 62
     7
 10
216.451338
 20
363.906729
 40
0.5
 50
0.0
 51
90.0
  0
LINE
  8
M0
  6
DASHED
 62
     7
 10
207.051338
 20
364.406728
 11
207.051338
 21
365.106734
  0
LINE
  8
M0
  6
DASHED
 62
     7
 10
202.051338
 20
370.106735
 11
186.951338
 21
370.106735
  0
LINE
  8
M0
  6
DASHED
 62
     7
 10
214.851338
 20
364.406728
 11
214.851338
 21
366.406734
  0
LINE
  8
M0
  6
DASHED
 62
     7
 10
215.251338
 20
366.406734
 11
215.85134
 21
364.406728
  0
LINE
  8
M0
  6
DASHED
 62
     7
 10
214.851338
 20
366.406734
 11
215.251338
 21
366.406734
  0
LINE
  8
M0
  6
DASHED
 62
     7
 10
216.451339
 20
329.006741
 11
207.051338
 21
329.006741
  0
LINE
  8
M0
  6
DASHED
 62
     7
 10
207.051338
 20
329.006741
 11
207.051338
 21
328.306734
  0
LINE
  8
M0
  6
DASHED
 62
     7
 10
202.051338
 20
323.306735
 11
186.951338
 21
323.306735
  0
LINE
  8
M0
  6
DASHDOT
 62
     7
 10
96.191027
 20
245.706722
 11
96.191027
 21
136.23156
  0
LINE
  8
M0
 62
     7
 10
96.366214
 20
217.343417
 11
96.278651
 21
217.343419
  0
LINE
  8
M0
 62
     7
 10
96.278651
 20
217.343419
 11
96.191043
 21
217.343419
  0
LINE
  8
M0
 62
     7
 10
96.191043
 20
217.343419
 11
96.103436
 21
217.343419
  0
LINE
  8
M0
 62
     7
 10
96.103436
 20
217.343419
 11
96.015869
 21
217.34342
  0
LINE
  8
M0
  6
DIVIDE
 62
     7
 10
64.79103
 20
155.968417
 11
70.691027
 21
155.968417
  0
LINE
  8
M0
  6
DIVIDE
 62
     7
 10
64.79103
 20
226.968419
 11
64.79103
 21
155.968417
  0
LINE
  8
M0
  6
DIVIDE
 62
     7
 10
70.691027
 20
226.968419
 11
64.79103
 21
226.968419
  0
LINE
  8
M0
  6
DASHDOT
 62
     7
 10
73.288431
 20
221.468418
 11
65.093622
 21
221.468418
  0
LINE
  8
M0
  6
DASHDOT
 62
     7
 10
69.191019
 20
225.565815
 11
69.191034
 21
217.371006
  0
LINE
  8
M0
  6
DASHDOT
 62
     7
 10
127.288431
 20
162.468418
 11
119.093622
 21
162.468418
  0
LINE
  8
M0
  6
DASHDOT
 62
     7
 10
123.191019
 20
166.565815
 11
123.191034
 21
157.371006
  0
LINE
  8
M0
  6
DIVIDE
 62
     7
 10
127.591023
 20
172.368419
 11
127.591023
 21
169.368418
  0
LINE
  8
M0
  6
DIVIDE
 62
     7
 10
127.591023
 20
214.568418
 11
127.591023
 21
210.568418
  0
LINE
  8
M0
  6
DIVIDE
 62
     7
 10
127.591023
 20
167.768419
 11
127.591023
 21
155.968417
  0
LINE
  8
M0
  6
DIVIDE
 62
     7
 10
127.591023
 20
169.368418
 11
127.591023
 21
167.768419
  0
LINE
  8
M0
  6
DIVIDE
 62
     7
 10
127.591023
 20
216.168419
 11
127.591023
 21
214.568418
  0
LINE
  8
M0
  6
DIVIDE
 62
     7
 10
127.591023
 20
218.168418
 11
127.591023
 21
216.168419
  0
LINE
  8
M0
  6
DIVIDE
 62
     7
 10
127.591023
 20
155.968417
 11
121.691027
 21
155.968417
  0
LINE
  8
M0
  6
DIVIDE
 62
     7
 10
127.591023
 20
226.968419
 11
127.591023
 21
218.168418
  0
LINE
  8
M0
  6
DIVIDE
 62
     7
 10
127.591023
 20
186.768419
 11
127.591023
 21
196.168418
  0
LINE
  8
M0
  6
DIVIDE
 62
     7
 10
121.691027
 20
226.968419
 11
127.591023
 21
226.968419
  0
LINE
  8
M0
  6
DIVIDE
 62
     7
 10
127.591023
 20
165.768419
 11
127.591023
 21
161.96842
  0
LINE
  8
M0
  6
DIVIDE
 62
     7
 10
127.591023
 20
186.768419
 11
127.591023
 21
174.368418
  0
LINE
  8
M0
  6
DIVIDE
 62
     7
 10
127.591023
 20
210.568418
 11
127.591023
 21
208.568418
  0
LINE
  8
M0
  6
DIVIDE
 62
     7
 10
127.591023
 20
208.568418
 11
127.591023
 21
196.168418
  0
LINE
  8
M0
  6
DIVIDE
 62
     7
 10
127.591023
 20
174.368418
 11
127.591023
 21
172.368419
  0
LINE
  8
M0
  6
DASHDOT
 62
     7
 10
96.191026
 20
389.206741
 11
96.191026
 21
390.206741
  0
CIRCLE
  8
M0
 62
     7
 10
96.191026
 20
389.706741
 40
4.499996
  0
LINE
  8
M0
  6
DASHDOT
 62
     7
 10
95.691026
 20
389.706741
 11
96.691026
 21
389.706741
  0
LINE
  8
M0
 62
     7
 10
96.65793
 20
391.587875
 11
94.309953
 21
389.239883
  0
LINE
  8
M0
 62
     7
 10
98.07213
 20
390.17366
 11
95.724153
 21
387.825668
  0
LINE
  8
M0
 62
     7
 10
94.122072
 20
391.77565
 11
98.385042
 21
387.512711
  0
LINE
  8
M3
 62
     2
 10
333.003619
 20
67.593652
 11
166.336959
 21
67.593652
  0
LINE
  8
M3
 62
     2
 10
16.336965
 20
17.593654
 11
16.336965
 21
475.92697
  0
LINE
  8
M3
 62
     2
 10
333.003619
 20
17.593654
 11
16.336965
 21
17.593654
  0
LINE
  8
M3
 62
     2
 10
333.003619
 20
34.26032
 11
166.336959
 21
34.26032
  0
TEXT
  8
M3
 62
     2
 10
169.948066
 20
38.426987
 40
8.333333
  1
形　式；
 41
1.0
  7
STANDARD
  0
LINE
  8
M3
 62
     2
 10
333.003619
 20
50.926986
 11
166.336959
 21
50.926986
  0
TEXT
  8
M3
 62
     2
 10
169.948066
 20
55.093653
 40
8.333333
  1
登録名：
 41
1.0
  7
STANDARD
  0
LINE
  8
M3
 62
     2
 10
166.336959
 20
17.593654
 11
166.336959
 21
67.593652
  0
TEXT
  8
M3
 62
     2
 10
169.948066
 20
21.760321
 40
8.333333
  1
適　用；
 41
1.0
  7
STANDARD
  0
LINE
  8
M3
 62
     2
 10
16.336965
 20
475.92697
 11
333.003619
 21
475.92697
  0
LINE
  8
M3
 62
     2
 10
333.003619
 20
475.92697
 11
333.003619
 21
17.593654
  0
TEXT
  8
M3
 62
     2
 10
210.22585
 20
38.426987
 40
8.333333
  1
ＨＳ２５
 41
0.5
  7
STANDARD
  0
TEXT
  8
M3
 62
     2
 10
210.22585
 20
55.093653
 40
8.333333
  1
ＤＭＨＳ２５Ｒ００
 41
0.5
  7
STANDARD
  0
LINE
  8
DN0
 10
91.143429
 20
122.533669
 11
118.193428
 21
122.533669
  0
TEXT
  8
DN0
 10
91.890651
 20
123.200335
 40
6.666666
  1
せん孔図
 41
0.833333
  7
STANDARD
  0
ENDSEC
  0
EOF
