  0
SECTION
  2
HEADER
  9
$ACADVER
  1
AC1014
  9
$INSBASE
 10
0.000000
 20
0.000000
 30
0.0
  9
$VIEWCTR
 10
7.531722
 20
4.5
  9
$VIEWSIZE
 40
9.0
  9
$SNAPMODE
 70
     0
  9
$SNAPUNIT
 10
1.0
 20
1.0
  9
$SNAPBASE
 10
0.0
 20
0.0
  9
$SNAPANG
 50
0.0
  9
$SNAPSTYLE
 70
     0
  9
$SNAPISOPAIR
 70
     0
  9
$GRIDMODE
 70
     0
  9
$GRIDUNIT
 10
0.0
 20
0.0
  9
$ORTHOMODE
 70
     0
  9
$REGENMODE
 70
     1
  9
$FILLMODE
 70
     1
  9
$QTEXTMODE
 70
     0
  9
$DRAGMODE
 70
     2
  9
$LTSCALE
  40
     1.000000
  9
$OSMODE
 70
     0
  9
$ATTMODE
 70
     1
  9
$TEXTSIZE
 40
0.2
  9
$TRACEWID
 40
0.05
  9
$TEXTSTYLE
  7
STANDARD
  9
$CELTYPE
  6
BYLAYER
  9
$CECOLOR
 62
   256
  9
$DIMSCALE
 40
1.0
  9
$DIMASZ
 40
0.18
  9
$DIMEXO
 40
0.0625
  9
$DIMDLI
 40
0.38
  9
$DIMRND
 40
0.0
  9
$DIMDLE
 40
0.0
  9
$DIMEXE
 40
0.18
  9
$DIMTP
 40
0.0
  9
$DIMTM
 40
0.0
  9
$DIMTXT
 40
0.18
  9
$DIMCEN
 40
0.09
  9
$DIMTSZ
 40
0.0
  9
$DIMTOL
 70
     0
  9
$DIMLIM
 70
     0
  9
$DIMTIH
 70
     1
  9
$DIMTOH
 70
     1
  9
$DIMSE1
 70
     0
  9
$DIMSE2
 70
     0
  9
$DIMTAD
 70
     0
  9
$DIMZIN
 70
     0
  9
$DIMBLK
  1

  9
$LUNITS
 70
     2
  9
$LUPREC
 70
     4
  9
$AXISMODE
 70
     0
  9
$AXISUNIT
 10
0.0
 20
0.0
  9
$SKETCHINC
 40
0.1
  9
$FILLETRAD
 40
0.0
  9
$AUNITS
 70
     0
  9
$AUPREC
 70
     0
  9
$MENU
  1
ACAD
  9
$ELEVATION
 40
0.0
  9
$THICKNESS
 40
0.0
  9
$VIEWDIR
 10
0.0
 20
0.0
 30
1.0
  9
$LIMCHECK
 70
     0
  9
$BLIPMODE
 70
     1
  9
$CHAMFERA
 40
0.0
  9
$CHAMFERB
 40
0.0
  9
$FASTZOOM
 70
     1
  9
$SKPOLY
 70
     0
  9
$TDCREATE
 40
0000000.0000000000
  9
$TDUPDATE
 40
0000000.0000000000
  9
$TDINDWG
 40
0.0000000000
  9
$TDUSRTIMER
 40
0.0000000000
  9
$USRTIMER
 70
     1
  9
$ANGBASE
 50
0.0
  9
$ANGDIR
 70
     0
  9
$PDMODE
 70
     0
  9
$PDSIZE
 40
0.0
  9
$PLINEWID
 40
0.0
  9
$COORDS
 70
     0
  9
$USERI1
 70
     0
  9
$USERI2
 70
     0
  9
$USERI3
 70
     0
  9
$USERI4
 70
     0
  9
$USERI5
 70
     0
  9
$USERR1
 40
0.0
  9
$USERR2
 40
0.0
  9
$USERR3
 40
0.0
  9
$USERR4
 40
0.0
  9
$USERR5
 40
0.0
  9
$CLAYER
  8
M1
  9
$EXTMIN
 10
-3.552714E-015
 20
-3.552714E-015
  9
$EXTMAX
 10
316.666654
 20
458.333316
  9
$LIMMIN
 10
0.0
 20
0.0
  9
$LIMMAX
 10
841.0
 20
594.0
  9
$HANDSEED
  5
690
  0
ENDSEC
  0
SECTION
  2
CLASSES
  0
CLASS
  1
LWPOLYLINE
  2
AcDbPolyline
  3
"AutoCAD"
 90
        0
280
     0
281
     1
  0
CLASS
  1
DICTIONARYVAR
  2
AcDbDictionaryVar
  3
"AutoCAD"
 90
        0
280
     0
281
     0
  0
CLASS
  1
HATCH
  2
AcDbHatch
  3
"ACAD_SEDONA"
 90
        0
280
     0
281
     1
  0
ENDSEC
  0
SECTION
  2
TABLES
  0
TABLE
  2
VPORT
  5
8
100
AcDbSymbolTable
 70
     2
  0
VPORT
  5
14
100
AcDbSymbolTableRecord
100
AcDbViewportTableRecord
  2
*ACTIVE
 70
     0
 10
0.0
 20
0.0
 11
1.0
 21
1.0
 12
484.0
 22
297.0
 13
0.0
 23
0.0
 14
1.0
 24
1.0
 15
0.0
 25
0.0
 16
0.0
 26
0.0
 36
1.0
 17
0.0
 27
0.0
 37
0.0
 40
594.0
 41
2.0
 42
50.0
 43
0.0
 44
0.0
 50
0.0
 51
0.0
 71
     0
 72
   100
 73
     1
 74
     1
 75
     0
 76
     0
 77
     0
 78
     0
  0
ENDTAB
  0
TABLE
  2
LTYPE
  5
5
100
AcDbSymbolTable
 70
     5
  0
LTYPE
  5
15
100
AcDbSymbolTableRecord
100
AcDbLinetypeTableRecord
  2
BYBLOCK
 70
     0
  3

 72
    65
 73
     0
 40
0.0
  0
LTYPE
  5
16
100
AcDbSymbolTableRecord
100
AcDbLinetypeTableRecord
  2
BYLAYER
 70
     0
  3

 72
    65
 73
     0
 40
0.0
  0
LTYPE
  5
17
100
AcDbSymbolTableRecord
100
AcDbLinetypeTableRecord
  2
CONTINUOUS
 70
    64
  3
Solid line
 72
    65
 73
     0
 40
0.0
  0
LTYPE
  5
18
100
AcDbSymbolTableRecord
100
AcDbLinetypeTableRecord
  2
DASHED
 70
    64
  3
__ __ __ __ __ __ __ __ __ __ __ __ __ __ __ __
 72
    65
 73
     2
 40
0.75
 49
0.5
 74
     0
 49
-0.25
 74
     0
  0
LTYPE
  5
19
100
AcDbSymbolTableRecord
100
AcDbLinetypeTableRecord
  2
DASHDOT
 70
    64
  3
__ . __ . __ . __ . __ . __ . __ . __ . __ . __
 72
    65
 73
     4
 40
1.0
 49
0.5
 74
     0
 49
-0.25
 74
     0
 49
0.0
 74
     0
 49
-0.25
 74
     0
  0
LTYPE
  5
1A
100
AcDbSymbolTableRecord
100
AcDbLinetypeTableRecord
  2
DIVIDE
 70
    64
  3
____ . . ____ . . ____ . . ____ . . ____ . . __
 72
    65
 73
     6
 40
1.25
 49
0.5
 74
     0
 49
-0.25
 74
     0
 49
0.0
 74
     0
 49
-0.25
 74
     0
 49
0.0
 74
     0
 49
-0.25
 74
     0
  0
LTYPE
  5
1B
100
AcDbSymbolTableRecord
100
AcDbLinetypeTableRecord
  2
DOT
 70
    64
  3
. . . . . . . . . . . . . . . . . . . . . . . .
 72
    65
 73
     2
 40
0.25
 49
0.0
 74
     0
 49
-0.25
 74
     0
  0
ENDTAB
  0
TABLE
  2
LAYER
  5
2
100
AcDbSymbolTable
 70
   102
  0
LAYER
  5
F
100
AcDbSymbolTableRecord
100
AcDbLayerTableRecord
  2
0
 70
     0
 62
     7
  6
CONTINUOUS
  0
LAYER
  5
1C
100
AcDbSymbolTableRecord
100
AcDbLayerTableRecord
  2
DEFPOINTS
 70
     0
 62
     7
  6
CONTINUOUS
  0
LAYER
  5
1D
100
AcDbSymbolTableRecord
100
AcDbLayerTableRecord
  2
M1
 70
     0
 62
     3
  6
CONTINUOUS
  0
LAYER
  5
1E
100
AcDbSymbolTableRecord
100
AcDbLayerTableRecord
  2
M2
 70
     0
 62
     3
  6
CONTINUOUS
  0
LAYER
  5
1F
100
AcDbSymbolTableRecord
100
AcDbLayerTableRecord
  2
DD0
 70
     0
 62
     4
  6
CONTINUOUS
  0
LAYER
  5
20
100
AcDbSymbolTableRecord
100
AcDbLayerTableRecord
  2
DN0
 70
     0
 62
     2
  6
CONTINUOUS
  0
ENDTAB
  0
TABLE
  2
STYLE
  5
3
100
AcDbSymbolTable
 70
     2
  0
STYLE
  5
10
100
AcDbSymbolTableRecord
100
AcDbTextStyleTableRecord
  2
STANDARD
 70
     0
 40
0.0
 41
1.0
 50
0.0
 71
     0
 42
0.2
  3
txt
  4
BIGFONT
  0
ENDTAB
  0
TABLE
  2
VIEW
  5
6
100
AcDbSymbolTable
 70
     0
  0
ENDTAB
  0
TABLE
  2
UCS
  5
7
100
AcDbSymbolTable
 70
     0
  0
ENDTAB
  0
TABLE
  2
APPID
  5
9
100
AcDbSymbolTable
 70
     1
  0
APPID
  5
11
100
AcDbSymbolTableRecord
100
AcDbRegAppTableRecord
  2
ACAD
 70
     0
  0
ENDTAB
  0
TABLE
  2
DIMSTYLE
  5
A
100
AcDbSymbolTable
 70
     2
  0
DIMSTYLE
105
27
100
AcDbSymbolTableRecord
100
AcDbDimStyleTableRecord
  2
STANDARD
 70
     0
  3

  4

  5

  6
_OPEN
  7
_OPEN
 40
1.0
 41
3.0
 42
1.0
 43
8.0
 44
1.0
 45
0.0
 46
0.0
 47
0.0
 48
0.0
140
3.15
141
0.09
142
0.0
143
0.03937
144
1.0
145
0.0
146
1.0
147
0.6
 71
     0
 72
     0
 73
     1
 74
     1
 75
     0
 76
     0
 77
     3
 78
     8
170
     0
171
     2
172
     0
173
     1
174
     0
175
     0
176
     0
177
     0
178
     0
270
     2
271
     2
272
     4
273
     2
274
     2
340
10
275
     0
280
     0
281
     0
282
     0
283
     1
284
     0
285
     0
286
     0
287
     3
288
     0
  0
DIMSTYLE
105
28
100
AcDbSymbolTableRecord
100
AcDbDimStyleTableRecord
  2
LEADSTYL
 70
     0
  3

  4

  5

  6
_OPEN
  7
_OPEN
 40
1.0
 41
3.0
 42
0.0625
 43
0.38
 44
0.18
 45
0.0
 46
0.0
 47
0.0
 48
0.0
140
3.15
141
0.09
142
0.0
143
25.4
144
1.0
145
0.0
146
1.0
147
0.6
 71
     0
 72
     0
 73
     1
 74
     1
 75
     0
 76
     0
 77
     0
 78
     0
170
     0
171
     2
172
     0
173
     1
174
     0
175
     0
176
     0
177
     0
178
     0
270
     2
271
     4
272
     4
273
     2
274
     2
340
10
275
     0
280
     0
281
     0
282
     0
283
     1
284
     0
285
     0
286
     0
287
     3
288
     0
  0
ENDTAB
  0
TABLE
  2
BLOCK_RECORD
  5
1
100
AcDbSymbolTable
 70
    25
  0
BLOCK_RECORD
  5
21
100
AcDbSymbolTableRecord
100
AcDbBlockTableRecord
  2
*MODEL_SPACE
  0
BLOCK_RECORD
  5
24
100
AcDbSymbolTableRecord
100
AcDbBlockTableRecord
  2
*PAPER_SPACE
  0
BLOCK_RECORD
  5
29
100
AcDbSymbolTableRecord
100
AcDbBlockTableRecord
  2
_NONE
  0
BLOCK_RECORD
  5
2D
100
AcDbSymbolTableRecord
100
AcDbBlockTableRecord
  2
_OPEN
  0
BLOCK_RECORD
  5
33
100
AcDbSymbolTableRecord
100
AcDbBlockTableRecord
  2
_CLOSED
  0
BLOCK_RECORD
  5
3A
100
AcDbSymbolTableRecord
100
AcDbBlockTableRecord
  2
_ORIGIN
  0
BLOCK_RECORD
  5
3F
100
AcDbSymbolTableRecord
100
AcDbBlockTableRecord
  2
_DOT
  0
BLOCK_RECORD
  5
47
100
AcDbSymbolTableRecord
100
AcDbBlockTableRecord
  2
_OBLIQUE
  0
BLOCK_RECORD
  5
4B
100
AcDbSymbolTableRecord
100
AcDbBlockTableRecord
  2
DIMS0
  0
BLOCK_RECORD
  5
57
100
AcDbSymbolTableRecord
100
AcDbBlockTableRecord
  2
DIMS1
  0
BLOCK_RECORD
  5
63
100
AcDbSymbolTableRecord
100
AcDbBlockTableRecord
  2
DIMS2
  0
BLOCK_RECORD
  5
6D
100
AcDbSymbolTableRecord
100
AcDbBlockTableRecord
  2
DIMS3
  0
BLOCK_RECORD
  5
78
100
AcDbSymbolTableRecord
100
AcDbBlockTableRecord
  2
DIMS4
  0
BLOCK_RECORD
  5
83
100
AcDbSymbolTableRecord
100
AcDbBlockTableRecord
  2
DIMS5
  0
BLOCK_RECORD
  5
8F
100
AcDbSymbolTableRecord
100
AcDbBlockTableRecord
  2
DIMS6
  0
BLOCK_RECORD
  5
98
100
AcDbSymbolTableRecord
100
AcDbBlockTableRecord
  2
DIMS7
  0
BLOCK_RECORD
  5
A4
100
AcDbSymbolTableRecord
100
AcDbBlockTableRecord
  2
DIMS8
  0
BLOCK_RECORD
  5
B0
100
AcDbSymbolTableRecord
100
AcDbBlockTableRecord
  2
DIMS9
  0
BLOCK_RECORD
  5
BC
100
AcDbSymbolTableRecord
100
AcDbBlockTableRecord
  2
DIMS10
  0
BLOCK_RECORD
  5
C8
100
AcDbSymbolTableRecord
100
AcDbBlockTableRecord
  2
DIMS11
  0
BLOCK_RECORD
  5
D4
100
AcDbSymbolTableRecord
100
AcDbBlockTableRecord
  2
DIMS12
  0
BLOCK_RECORD
  5
E0
100
AcDbSymbolTableRecord
100
AcDbBlockTableRecord
  2
DIMS13
  0
BLOCK_RECORD
  5
EC
100
AcDbSymbolTableRecord
100
AcDbBlockTableRecord
  2
DIMS14
  0
BLOCK_RECORD
  5
F8
100
AcDbSymbolTableRecord
100
AcDbBlockTableRecord
  2
DIMS15
  0
BLOCK_RECORD
  5
104
100
AcDbSymbolTableRecord
100
AcDbBlockTableRecord
  2
DIMS16
  0
BLOCK_RECORD
  5
110
100
AcDbSymbolTableRecord
100
AcDbBlockTableRecord
  2
DIMS17
  0
BLOCK_RECORD
  5
11D
100
AcDbSymbolTableRecord
100
AcDbBlockTableRecord
  2
DIMS18
  0
ENDTAB
  0
ENDSEC
  0
SECTION
  2
BLOCKS
  0
BLOCK
  5
22
100
AcDbEntity
  8
0
100
AcDbBlockBegin
  2
*MODEL_SPACE
 70
     0
 10
0.0
 20
0.0
 30
0.0
  3
*MODEL_SPACE
  1

  0
ENDBLK
  5
23
100
AcDbEntity
  8
0
100
AcDbBlockEnd
  0
BLOCK
  5
25
100
AcDbEntity
 67
     1
  8
0
100
AcDbBlockBegin
  2
*PAPER_SPACE
 70
     0
 10
0.0
 20
0.0
 30
0.0
  3
*PAPER_SPACE
  1

  0
ENDBLK
  5
26
100
AcDbEntity
 67
     1
  8
0
100
AcDbBlockEnd
  0
BLOCK
  5
2A
100
AcDbEntity
  8
0
100
AcDbBlockBegin
  2
_NONE
 70
     0
 10
0.0
 20
0.0
  0
CIRCLE
  5
2B
100
AcDbEntity
  8
0
 62
     0
100
AcDbCircle
 10
0.0
 20
0.0
 40
0.25
  0
ENDBLK
  5
2C
100
AcDbEntity
  8
0
100
AcDbBlockEnd
  0
BLOCK
  5
2E
100
AcDbEntity
  8
0
100
AcDbBlockBegin
  2
_OPEN
 70
     0
 10
0.0
 20
0.0
  0
LINE
  5
2F
100
AcDbEntity
  8
0
 62
     0
100
AcDbLine
 10
-0.965926
 20
0.258819
 11
0.0
 21
0.0
  0
LINE
  5
30
100
AcDbEntity
  8
0
 62
     0
100
AcDbLine
 10
0.0
 20
0.0
 11
-0.965926
 21
-0.258819
  0
LINE
  5
31
100
AcDbEntity
  8
0
 62
     0
100
AcDbLine
 10
0.0
 20
0.0
 11
-1.0
 21
0.0
  0
ENDBLK
  5
32
100
AcDbEntity
  8
0
100
AcDbBlockEnd
  0
BLOCK
  5
34
100
AcDbEntity
  8
0
100
AcDbBlockBegin
  2
_CLOSED
 70
     0
 10
0.0
 20
0.0
  0
LINE
  5
35
100
AcDbEntity
  8
0
 62
     0
100
AcDbLine
 10
-0.965926
 20
0.258819
 11
0.0
 21
0.0
  0
LINE
  5
36
100
AcDbEntity
  8
0
 62
     0
100
AcDbLine
 10
0.0
 20
0.0
 11
-0.965926
 21
-0.258819
  0
LINE
  5
37
100
AcDbEntity
  8
0
 62
     0
100
AcDbLine
 10
-0.965926
 20
0.258819
 11
-0.965926
 21
-0.258819
  0
LINE
  5
38
100
AcDbEntity
  8
0
 62
     0
100
AcDbLine
 10
0.0
 20
0.0
 11
-1.0
 21
0.0
  0
ENDBLK
  5
39
100
AcDbEntity
  8
0
100
AcDbBlockEnd
  0
BLOCK
  5
3B
100
AcDbEntity
  8
0
100
AcDbBlockBegin
  2
_ORIGIN
 70
     0
 10
0.0
 20
0.0
  0
CIRCLE
  5
3C
100
AcDbEntity
  8
0
 62
     0
100
AcDbCircle
 10
0.0
 20
0.0
 40
0.5
  0
LINE
  5
3D
100
AcDbEntity
  8
0
 62
     0
100
AcDbLine
 10
0.0
 20
0.0
 11
-1.0
 21
0.0
  0
ENDBLK
  5
3E
100
AcDbEntity
  8
0
100
AcDbBlockEnd
  0
BLOCK
  5
40
100
AcDbEntity
  8
0
100
AcDbBlockBegin
  2
_DOT
 70
     0
 10
0.0
 20
0.0
  0
POLYLINE
  5
41
100
AcDbEntity
  8
0
 62
     0
100
AcDb2dPolyline
 66
     1
 70
     1
 40
0.5
 41
0.5
  0
VERTEX
  5
42
100
AcDbEntity
  8
0
 62
     0
100
AcDbVertex
100
AcDb2dVertex
 10
-0.25
 20
0.0
 42
1.0
  0
VERTEX
  5
43
100
AcDbEntity
  8
0
 62
     0
100
AcDbVertex
100
AcDb2dVertex
 10
0.25
 20
0.0
 42
1.0
  0
SEQEND
  5
44
100
AcDbEntity
  8
0
 62
     0
  0
LINE
  5
45
100
AcDbEntity
  8
0
 62
     0
100
AcDbLine
 10
-0.5
 20
0.0
 11
-1.0
 21
0.0
  0
ENDBLK
  5
46
100
AcDbEntity
  8
0
100
AcDbBlockEnd
  0
BLOCK
  5
48
100
AcDbEntity
  8
0
100
AcDbBlockBegin
  2
_OBLIQUE
 70
     0
 10
0.0
 20
0.0
  0
LINE
  5
49
100
AcDbEntity
  8
0
 62
     0
100
AcDbLine
 10
-0.353553
 20
-0.353553
 11
0.353553
 21
0.353553
  0
ENDBLK
  5
4A
100
AcDbEntity
  8
0
100
AcDbBlockEnd
  0
BLOCK
  5
4C
100
AcDbEntity
  8
DD0
100
AcDbBlockBegin
  2
DIMS0
 70
     0
 10
0.0
 20
0.0
  0
LINE
  5
4D
100
AcDbEntity
  8
DD0
100
AcDbLine
 10
299.63739
 20
285.033997
 11
299.63739
 21
275.000458
  0
LINE
  5
4E
100
AcDbEntity
  8
DD0
100
AcDbLine
 10
221.63739
 20
294.584015
 11
221.63739
 21
275.000458
  0
LINE
  5
4F
100
AcDbEntity
  8
DD0
100
AcDbLine
 10
296.739613
 20
275.224001
 11
299.63739
 21
276.000458
  0
LINE
  5
50
100
AcDbEntity
  8
DD0
100
AcDbLine
 10
299.63739
 20
276.000458
 11
296.739613
 21
276.776915
  0
LINE
  5
51
100
AcDbEntity
  8
DD0
100
AcDbLine
 10
224.535168
 20
276.776915
 11
221.63739
 21
276.000458
  0
LINE
  5
52
100
AcDbEntity
  8
DD0
100
AcDbLine
 10
221.63739
 20
276.000458
 11
224.535168
 21
275.224001
  0
LINE
  5
53
100
AcDbEntity
  8
DD0
100
AcDbLine
 10
299.63739
 20
276.000458
 11
221.63739
 21
276.000458
  0
TEXT
  5
54
100
AcDbEntity
  8
DD0
100
AcDbText
 10
251.809051
 20
276.600464
 40
2.5
  1
７８（補助ａ端子）
 41
0.666667
  7
STANDARD
100
AcDbText
  0
ENDBLK
  5
55
100
AcDbEntity
  8
DD0
100
AcDbBlockEnd
  0
BLOCK
  5
58
100
AcDbEntity
  8
DD0
100
AcDbBlockBegin
  2
DIMS1
 70
     0
 10
0.0
 20
0.0
  0
LINE
  5
59
100
AcDbEntity
  8
DD0
100
AcDbLine
 10
299.63739
 20
285.033997
 11
299.63739
 21
269.708191
  0
LINE
  5
5A
100
AcDbEntity
  8
DD0
100
AcDbLine
 10
201.737381
 20
301.68399
 11
201.737381
 21
269.708191
  0
LINE
  5
5B
100
AcDbEntity
  8
DD0
100
AcDbLine
 10
296.739613
 20
269.931734
 11
299.63739
 21
270.708191
  0
LINE
  5
5C
100
AcDbEntity
  8
DD0
100
AcDbLine
 10
299.63739
 20
270.708191
 11
296.739613
 21
271.484648
  0
LINE
  5
5D
100
AcDbEntity
  8
DD0
100
AcDbLine
 10
204.635158
 20
271.484648
 11
201.737381
 21
270.708191
  0
LINE
  5
5E
100
AcDbEntity
  8
DD0
100
AcDbLine
 10
201.737381
 20
270.708191
 11
204.635158
 21
269.931734
  0
LINE
  5
5F
100
AcDbEntity
  8
DD0
100
AcDbLine
 10
299.63739
 20
270.708191
 11
201.737381
 21
270.708191
  0
TEXT
  5
60
100
AcDbEntity
  8
DD0
100
AcDbText
 10
241.859039
 20
271.308197
 40
2.5
  1
９８（補助ｂ端子）
 41
0.666667
  7
STANDARD
100
AcDbText
  0
ENDBLK
  5
61
100
AcDbEntity
  8
DD0
100
AcDbBlockEnd
  0
BLOCK
  5
64
100
AcDbEntity
  8
DD0
100
AcDbBlockBegin
  2
DIMS2
 70
     0
 10
0.0
 20
0.0
  0
LINE
  5
65
100
AcDbEntity
  8
DD0
100
AcDbLine
 10
288.63739
 20
354.783997
 11
288.63739
 21
364.306946
  0
LWPOLYLINE
  5
66
100
AcDbEntity
  8
DD0
100
AcDbPolyline
 90
        2
 70
     1
 43
0.5
 10
299.38739
 20
363.306946
 42
1.0
 10
299.88739
 20
363.306946
 42
1.0
  0
LINE
  5
67
100
AcDbEntity
  8
DD0
100
AcDbLine
 10
291.535168
 20
364.083403
 11
288.63739
 21
363.306946
  0
LINE
  5
68
100
AcDbEntity
  8
DD0
100
AcDbLine
 10
288.63739
 20
363.306946
 11
291.535168
 21
362.530489
  0
LINE
  5
69
100
AcDbEntity
  8
DD0
100
AcDbLine
 10
299.63739
 20
363.306946
 11
280.33739
 21
363.306946
  0
TEXT
  5
6A
100
AcDbEntity
  8
DD0
100
AcDbText
 10
281.219054
 20
363.906952
 40
2.5
  1
１１
 41
0.666667
  7
STANDARD
100
AcDbText
  0
ENDBLK
  5
6B
100
AcDbEntity
  8
DD0
100
AcDbBlockEnd
  0
BLOCK
  5
6E
100
AcDbEntity
  8
DD0
100
AcDbBlockBegin
  2
DIMS3
 70
     0
 10
0.0
 20
0.0
  0
LINE
  5
6F
100
AcDbEntity
  8
DD0
100
AcDbLine
 10
230.237381
 20
365.18399
 11
230.237381
 21
370.306946
  0
LINE
  5
70
100
AcDbEntity
  8
DD0
100
AcDbLine
 10
296.739613
 20
368.530489
 11
299.63739
 21
369.306946
  0
LINE
  5
71
100
AcDbEntity
  8
DD0
100
AcDbLine
 10
299.63739
 20
369.306946
 11
296.739613
 21
370.083403
  0
LINE
  5
72
100
AcDbEntity
  8
DD0
100
AcDbLine
 10
233.135158
 20
370.083403
 11
230.237381
 21
369.306946
  0
LINE
  5
73
100
AcDbEntity
  8
DD0
100
AcDbLine
 10
230.237381
 20
369.306946
 11
233.135158
 21
368.530489
  0
LINE
  5
74
100
AcDbEntity
  8
DD0
100
AcDbLine
 10
299.63739
 20
369.306946
 11
230.237381
 21
369.306946
  0
TEXT
  5
75
100
AcDbEntity
  8
DD0
100
AcDbText
 10
256.109039
 20
369.906952
 40
2.5
  1
７０（コイル端子）
 41
0.666667
  7
STANDARD
100
AcDbText
  0
ENDBLK
  5
76
100
AcDbEntity
  8
DD0
100
AcDbBlockEnd
  0
BLOCK
  5
79
100
AcDbEntity
  8
DD0
100
AcDbBlockBegin
  2
DIMS4
 70
     0
 10
0.0
 20
0.0
  0
LINE
  5
7A
100
AcDbEntity
  8
DD0
100
AcDbLine
 10
186.237381
 20
332.283997
 11
186.237381
 21
395.743683
  0
LINE
  5
7B
100
AcDbEntity
  8
DD0
100
AcDbLine
 10
296.739613
 20
393.967226
 11
299.63739
 21
394.743683
  0
LINE
  5
7C
100
AcDbEntity
  8
DD0
100
AcDbLine
 10
299.63739
 20
394.743683
 11
296.739613
 21
395.52014
  0
LINE
  5
7D
100
AcDbEntity
  8
DD0
100
AcDbLine
 10
189.135158
 20
395.52014
 11
186.237381
 21
394.743683
  0
LINE
  5
7E
100
AcDbEntity
  8
DD0
100
AcDbLine
 10
186.237381
 20
394.743683
 11
189.135158
 21
393.967226
  0
LINE
  5
7F
100
AcDbEntity
  8
DD0
100
AcDbLine
 10
299.63739
 20
394.743683
 11
186.237381
 21
394.743683
  0
TEXT
  5
80
100
AcDbEntity
  8
DD0
100
AcDbText
 10
240.109039
 20
395.343689
 40
2.5
  1
１１４
 41
0.666667
  7
STANDARD
100
AcDbText
  0
ENDBLK
  5
81
100
AcDbEntity
  8
DD0
100
AcDbBlockEnd
  0
BLOCK
  5
84
100
AcDbEntity
  8
DD0
100
AcDbBlockBegin
  2
DIMS5
 70
     0
 10
0.0
 20
0.0
  0
LINE
  5
85
100
AcDbEntity
  8
DD0
100
AcDbLine
 10
299.63739
 20
354.533997
 11
299.63739
 21
406.899414
  0
LINE
  5
86
100
AcDbEntity
  8
DD0
100
AcDbLine
 10
154.937393
 20
323.083984
 11
154.937393
 21
406.899414
  0
LINE
  5
87
100
AcDbEntity
  8
DD0
100
AcDbLine
 10
296.739613
 20
405.122957
 11
299.63739
 21
405.899414
  0
LINE
  5
88
100
AcDbEntity
  8
DD0
100
AcDbLine
 10
299.63739
 20
405.899414
 11
296.739613
 21
406.675871
  0
LINE
  5
89
100
AcDbEntity
  8
DD0
100
AcDbLine
 10
157.835171
 20
406.675871
 11
154.937393
 21
405.899414
  0
LINE
  5
8A
100
AcDbEntity
  8
DD0
100
AcDbLine
 10
154.937393
 20
405.899414
 11
157.835171
 21
405.122957
  0
LINE
  5
8B
100
AcDbEntity
  8
DD0
100
AcDbLine
 10
299.63739
 20
405.899414
 11
154.937393
 21
405.899414
  0
TEXT
  5
8C
100
AcDbEntity
  8
DD0
100
AcDbText
 10
206.459045
 20
406.49942
 40
2.5
  1
１４５接点ヘッドオンユニットを付けた場合）
 41
0.666667
  7
STANDARD
100
AcDbText
  0
ENDBLK
  5
8D
100
AcDbEntity
  8
DD0
100
AcDbBlockEnd
  0
BLOCK
  5
90
100
AcDbEntity
  8
DD0
100
AcDbBlockBegin
  2
DIMS6
 70
     0
 10
0.0
 20
0.0
  0
LINE
  5
91
100
AcDbEntity
  8
DD0
100
AcDbLine
 10
302.63739
 20
334.283997
 11
302.63739
 21
364.306946
  0
LINE
  5
92
100
AcDbEntity
  8
DD0
100
AcDbLine
 10
305.535168
 20
364.083403
 11
302.63739
 21
363.306946
  0
LINE
  5
93
100
AcDbEntity
  8
DD0
100
AcDbLine
 10
302.63739
 20
363.306946
 11
305.535168
 21
362.530489
  0
LINE
  5
94
100
AcDbEntity
  8
DD0
100
AcDbLine
 10
299.63739
 20
363.306946
 11
308.93739
 21
363.306946
  0
TEXT
  5
95
100
AcDbEntity
  8
DD0
100
AcDbText
 10
306.109039
 20
363.906952
 40
2.5
  1
３
 41
0.666667
  7
STANDARD
100
AcDbText
  0
ENDBLK
  5
96
100
AcDbEntity
  8
DD0
100
AcDbBlockEnd
  0
BLOCK
  5
99
100
AcDbEntity
  8
DD0
100
AcDbBlockBegin
  2
DIMS7
 70
     0
 10
0.0
 20
0.0
  0
LINE
  5
9A
100
AcDbEntity
  8
DD0
100
AcDbLine
 10
204.037384
 20
370.783997
 11
204.037384
 21
382.306946
  0
LINE
  5
9B
100
AcDbEntity
  8
DD0
100
AcDbLine
 10
299.63739
 20
354.533997
 11
299.63739
 21
382.306946
  0
LINE
  5
9C
100
AcDbEntity
  8
DD0
100
AcDbLine
 10
206.935162
 20
382.083403
 11
204.037384
 21
381.306946
  0
LINE
  5
9D
100
AcDbEntity
  8
DD0
100
AcDbLine
 10
204.037384
 20
381.306946
 11
206.935162
 21
380.530489
  0
LINE
  5
9E
100
AcDbEntity
  8
DD0
100
AcDbLine
 10
296.739613
 20
380.530489
 11
299.63739
 21
381.306946
  0
LINE
  5
9F
100
AcDbEntity
  8
DD0
100
AcDbLine
 10
299.63739
 20
381.306946
 11
296.739613
 21
382.083403
  0
LINE
  5
A0
100
AcDbEntity
  8
DD0
100
AcDbLine
 10
204.037384
 20
381.306946
 11
299.63739
 21
381.306946
  0
TEXT
  5
A1
100
AcDbEntity
  8
DD0
100
AcDbText
 10
245.009048
 20
381.906952
 40
2.5
  1
９６（主端子）
 41
0.666667
  7
STANDARD
100
AcDbText
  0
ENDBLK
  5
A2
100
AcDbEntity
  8
DD0
100
AcDbBlockEnd
  0
BLOCK
  5
A5
100
AcDbEntity
  8
DD0
100
AcDbBlockBegin
  2
DIMS8
 70
     0
 10
0.0
 20
0.0
  0
LINE
  5
A6
100
AcDbEntity
  8
DD0
100
AcDbLine
 10
186.237381
 20
332.283997
 11
186.237381
 21
395.743683
  0
LINE
  5
A7
100
AcDbEntity
  8
DD0
100
AcDbLine
 10
181.237381
 20
369.204132
 11
181.237381
 21
395.743683
  0
LINE
  5
A8
100
AcDbEntity
  8
DD0
100
AcDbLine
 10
189.135158
 20
395.52014
 11
186.237381
 21
394.743683
  0
LINE
  5
A9
100
AcDbEntity
  8
DD0
100
AcDbLine
 10
186.237381
 20
394.743683
 11
189.135158
 21
393.967226
  0
LINE
  5
AA
100
AcDbEntity
  8
DD0
100
AcDbLine
 10
178.339604
 20
393.967226
 11
181.237381
 21
394.743683
  0
LINE
  5
AB
100
AcDbEntity
  8
DD0
100
AcDbLine
 10
181.237381
 20
394.743683
 11
178.339604
 21
395.52014
  0
LINE
  5
AC
100
AcDbEntity
  8
DD0
100
AcDbLine
 10
189.537381
 20
394.743683
 11
174.937381
 21
394.743683
  0
TEXT
  5
AD
100
AcDbEntity
  8
DD0
100
AcDbText
 10
175.819045
 20
395.343689
 40
2.5
  1
５
 41
0.666667
  7
STANDARD
100
AcDbText
  0
ENDBLK
  5
AE
100
AcDbEntity
  8
DD0
100
AcDbBlockEnd
  0
BLOCK
  5
B1
100
AcDbEntity
  8
DD0
100
AcDbBlockBegin
  2
DIMS9
 70
     0
 10
0.0
 20
0.0
  0
LINE
  5
B2
100
AcDbEntity
  8
DD0
100
AcDbLine
 10
89.127075
 20
369.783997
 11
124.164421
 21
369.783997
  0
LINE
  5
B3
100
AcDbEntity
  8
DD0
100
AcDbLine
 10
89.127075
 20
269.783997
 11
124.164421
 21
269.783997
  0
LINE
  5
B4
100
AcDbEntity
  8
DD0
100
AcDbLine
 10
123.940878
 20
366.886219
 11
123.164421
 21
369.783997
  0
LINE
  5
B5
100
AcDbEntity
  8
DD0
100
AcDbLine
 10
123.164421
 20
369.783997
 11
122.387964
 21
366.886219
  0
LINE
  5
B6
100
AcDbEntity
  8
DD0
100
AcDbLine
 10
122.387964
 20
272.681774
 11
123.164421
 21
269.783997
  0
LINE
  5
B7
100
AcDbEntity
  8
DD0
100
AcDbLine
 10
123.164421
 20
269.783997
 11
123.940878
 21
272.681774
  0
LINE
  5
B8
100
AcDbEntity
  8
DD0
100
AcDbLine
 10
123.164421
 20
369.783997
 11
123.164421
 21
269.783997
  0
TEXT
  5
B9
100
AcDbEntity
  8
DD0
100
AcDbText
 10
122.564423
 20
316.955657
 40
2.5
  1
１００
 50
90.000003
 41
0.666667
  7
STANDARD
100
AcDbText
  0
ENDBLK
  5
BA
100
AcDbEntity
  8
DD0
100
AcDbBlockEnd
  0
BLOCK
  5
BD
100
AcDbEntity
  8
DD0
100
AcDbBlockBegin
  2
DIMS10
 70
     0
 10
0.0
 20
0.0
  0
LINE
  5
BE
100
AcDbEntity
  8
DD0
100
AcDbLine
 10
89.127075
 20
369.783997
 11
115.940887
 21
369.783997
  0
LINE
  5
BF
100
AcDbEntity
  8
DD0
100
AcDbLine
 10
85.627106
 20
363.783997
 11
115.940887
 21
363.783997
  0
LINE
  5
C0
100
AcDbEntity
  8
DD0
100
AcDbLine
 10
114.16443
 20
372.681774
 11
114.940887
 21
369.783997
  0
LINE
  5
C1
100
AcDbEntity
  8
DD0
100
AcDbLine
 10
114.940887
 20
369.783997
 11
115.717345
 21
372.681774
  0
LINE
  5
C2
100
AcDbEntity
  8
DD0
100
AcDbLine
 10
115.717345
 20
360.886219
 11
114.940887
 21
363.783997
  0
LINE
  5
C3
100
AcDbEntity
  8
DD0
100
AcDbLine
 10
114.940887
 20
363.783997
 11
114.16443
 21
360.886219
  0
LINE
  5
C4
100
AcDbEntity
  8
DD0
100
AcDbLine
 10
114.940887
 20
373.083997
 11
114.940887
 21
360.483997
  0
TEXT
  5
C5
100
AcDbEntity
  8
DD0
100
AcDbText
 10
114.340889
 20
365.955657
 40
2.5
  1
６
 50
90.000003
 41
0.666667
  7
STANDARD
100
AcDbText
  0
ENDBLK
  5
C6
100
AcDbEntity
  8
DD0
100
AcDbBlockEnd
  0
BLOCK
  5
C9
100
AcDbEntity
  8
DD0
100
AcDbBlockBegin
  2
DIMS11
 70
     0
 10
0.0
 20
0.0
  0
LINE
  5
CA
100
AcDbEntity
  8
DD0
100
AcDbLine
 10
85.627106
 20
363.783997
 11
115.940887
 21
363.783997
  0
LINE
  5
CB
100
AcDbEntity
  8
DD0
100
AcDbLine
 10
85.627106
 20
275.783997
 11
115.940887
 21
275.783997
  0
LINE
  5
CC
100
AcDbEntity
  8
DD0
100
AcDbLine
 10
115.717345
 20
360.886219
 11
114.940887
 21
363.783997
  0
LINE
  5
CD
100
AcDbEntity
  8
DD0
100
AcDbLine
 10
114.940887
 20
363.783997
 11
114.16443
 21
360.886219
  0
LINE
  5
CE
100
AcDbEntity
  8
DD0
100
AcDbLine
 10
114.16443
 20
278.681774
 11
114.940887
 21
275.783997
  0
LINE
  5
CF
100
AcDbEntity
  8
DD0
100
AcDbLine
 10
114.940887
 20
275.783997
 11
115.717345
 21
278.681774
  0
LINE
  5
D0
100
AcDbEntity
  8
DD0
100
AcDbLine
 10
114.940887
 20
363.783997
 11
114.940887
 21
275.783997
  0
TEXT
  5
D1
100
AcDbEntity
  8
DD0
100
AcDbText
 10
114.340889
 20
317.955657
 40
2.5
  1
８８
 50
90.000003
 41
0.666667
  7
STANDARD
100
AcDbText
  0
ENDBLK
  5
D2
100
AcDbEntity
  8
DD0
100
AcDbBlockEnd
  0
BLOCK
  5
D5
100
AcDbEntity
  8
DD0
100
AcDbBlockBegin
  2
DIMS12
 70
     0
 10
0.0
 20
0.0
  0
LINE
  5
D6
100
AcDbEntity
  8
DD0
100
AcDbLine
 10
40.327106
 20
274.283997
 11
40.327106
 21
264.135712
  0
LINE
  5
D7
100
AcDbEntity
  8
DD0
100
AcDbLine
 10
62.227077
 20
266.18457
 11
62.227077
 21
264.135712
  0
LINE
  5
D8
100
AcDbEntity
  8
DD0
100
AcDbLine
 10
43.224884
 20
265.912169
 11
40.327106
 21
265.135712
  0
LINE
  5
D9
100
AcDbEntity
  8
DD0
100
AcDbLine
 10
40.327106
 20
265.135712
 11
43.224884
 21
264.359255
  0
LINE
  5
DA
100
AcDbEntity
  8
DD0
100
AcDbLine
 10
59.3293
 20
264.359255
 11
62.227077
 21
265.135712
  0
LINE
  5
DB
100
AcDbEntity
  8
DD0
100
AcDbLine
 10
62.227077
 20
265.135712
 11
59.3293
 21
265.912169
  0
LINE
  5
DC
100
AcDbEntity
  8
DD0
100
AcDbLine
 10
40.327106
 20
265.135712
 11
62.227077
 21
265.135712
  0
TEXT
  5
DD
100
AcDbEntity
  8
DD0
100
AcDbText
 10
49.44876
 20
265.735718
 40
2.5
  1
２２
 41
0.666667
  7
STANDARD
100
AcDbText
  0
ENDBLK
  5
DE
100
AcDbEntity
  8
DD0
100
AcDbBlockEnd
  0
BLOCK
  5
E1
100
AcDbEntity
  8
DD0
100
AcDbBlockBegin
  2
DIMS13
 70
     0
 10
0.0
 20
0.0
  0
LINE
  5
E2
100
AcDbEntity
  8
DD0
100
AcDbLine
 10
40.324478
 20
170.088181
 11
105.770996
 21
170.088181
  0
LINE
  5
E3
100
AcDbEntity
  8
DD0
100
AcDbLine
 10
88.727074
 20
190.088181
 11
105.770996
 21
190.088181
  0
LINE
  5
E4
100
AcDbEntity
  8
DD0
100
AcDbLine
 10
103.994539
 20
172.985958
 11
104.770996
 21
170.088181
  0
LINE
  5
E5
100
AcDbEntity
  8
DD0
100
AcDbLine
 10
104.770996
 20
170.088181
 11
105.547453
 21
172.985958
  0
LINE
  5
E6
100
AcDbEntity
  8
DD0
100
AcDbLine
 10
105.547453
 20
187.190403
 11
104.770996
 21
190.088181
  0
LINE
  5
E7
100
AcDbEntity
  8
DD0
100
AcDbLine
 10
104.770996
 20
190.088181
 11
103.994539
 21
187.190403
  0
LINE
  5
E8
100
AcDbEntity
  8
DD0
100
AcDbLine
 10
104.770996
 20
170.088181
 11
104.770996
 21
190.088181
  0
TEXT
  5
E9
100
AcDbEntity
  8
DD0
100
AcDbText
 10
104.170998
 20
178.259841
 40
2.5
  1
２０
 50
90.000003
 41
0.666667
  7
STANDARD
100
AcDbText
  0
ENDBLK
  5
EA
100
AcDbEntity
  8
DD0
100
AcDbBlockEnd
  0
BLOCK
  5
ED
100
AcDbEntity
  8
DD0
100
AcDbBlockBegin
  2
DIMS14
 70
     0
 10
0.0
 20
0.0
  0
LINE
  5
EE
100
AcDbEntity
  8
DD0
100
AcDbLine
 10
35.227066
 20
175.185577
 11
35.227066
 21
202.621811
  0
LINE
  5
EF
100
AcDbEntity
  8
DD0
100
AcDbLine
 10
30.827078
 20
176.588181
 11
30.827078
 21
202.621811
  0
LINE
  5
F0
100
AcDbEntity
  8
DD0
100
AcDbLine
 10
38.124844
 20
202.398268
 11
35.227066
 21
201.621811
  0
LINE
  5
F1
100
AcDbEntity
  8
DD0
100
AcDbLine
 10
35.227066
 20
201.621811
 11
38.124844
 21
200.845354
  0
LINE
  5
F2
100
AcDbEntity
  8
DD0
100
AcDbLine
 10
27.9293
 20
200.845354
 11
30.827078
 21
201.621811
  0
LINE
  5
F3
100
AcDbEntity
  8
DD0
100
AcDbLine
 10
30.827078
 20
201.621811
 11
27.9293
 21
202.398268
  0
LINE
  5
F4
100
AcDbEntity
  8
DD0
100
AcDbLine
 10
38.527066
 20
201.621811
 11
20.527078
 21
201.621811
  0
TEXT
  5
F5
100
AcDbEntity
  8
DD0
100
AcDbText
 10
21.408746
 20
202.221817
 40
2.5
  1
４．５
 41
0.666667
  7
STANDARD
100
AcDbText
  0
ENDBLK
  5
F6
100
AcDbEntity
  8
DD0
100
AcDbBlockEnd
  0
BLOCK
  5
F9
100
AcDbEntity
  8
DD0
100
AcDbBlockBegin
  2
DIMS15
 70
     0
 10
0.0
 20
0.0
  0
LINE
  5
FA
100
AcDbEntity
  8
DD0
100
AcDbLine
 10
40.324478
 20
170.088181
 11
105.770996
 21
170.088181
  0
LINE
  5
FB
100
AcDbEntity
  8
DD0
100
AcDbLine
 10
94.324478
 20
111.088181
 11
105.770996
 21
111.088181
  0
LINE
  5
FC
100
AcDbEntity
  8
DD0
100
AcDbLine
 10
105.547453
 20
167.190403
 11
104.770996
 21
170.088181
  0
LINE
  5
FD
100
AcDbEntity
  8
DD0
100
AcDbLine
 10
104.770996
 20
170.088181
 11
103.994539
 21
167.190403
  0
LINE
  5
FE
100
AcDbEntity
  8
DD0
100
AcDbLine
 10
103.994539
 20
113.985958
 11
104.770996
 21
111.088181
  0
LINE
  5
FF
100
AcDbEntity
  8
DD0
100
AcDbLine
 10
104.770996
 20
111.088181
 11
105.547453
 21
113.985958
  0
LINE
  5
100
100
AcDbEntity
  8
DD0
100
AcDbLine
 10
104.770996
 20
170.088181
 11
104.770996
 21
111.088181
  0
TEXT
  5
101
100
AcDbEntity
  8
DD0
100
AcDbText
 10
104.170998
 20
138.759841
 40
2.5
  1
５９
 50
90.000003
 41
0.666667
  7
STANDARD
100
AcDbText
  0
ENDBLK
  5
102
100
AcDbEntity
  8
DD0
100
AcDbBlockEnd
  0
BLOCK
  5
105
100
AcDbEntity
  8
DD0
100
AcDbBlockBegin
  2
DIMS16
 70
     0
 10
0.0
 20
0.0
  0
LINE
  5
106
100
AcDbEntity
  8
DD0
100
AcDbLine
 10
35.227066
 20
175.185577
 11
35.227066
 21
202.621811
  0
LINE
  5
107
100
AcDbEntity
  8
DD0
100
AcDbLine
 10
89.227066
 20
116.185577
 11
89.227066
 21
202.621811
  0
LINE
  5
108
100
AcDbEntity
  8
DD0
100
AcDbLine
 10
38.124844
 20
202.398268
 11
35.227066
 21
201.621811
  0
LINE
  5
109
100
AcDbEntity
  8
DD0
100
AcDbLine
 10
35.227066
 20
201.621811
 11
38.124844
 21
200.845354
  0
LINE
  5
10A
100
AcDbEntity
  8
DD0
100
AcDbLine
 10
86.329289
 20
200.845354
 11
89.227066
 21
201.621811
  0
LINE
  5
10B
100
AcDbEntity
  8
DD0
100
AcDbLine
 10
89.227066
 20
201.621811
 11
86.329289
 21
202.398268
  0
LINE
  5
10C
100
AcDbEntity
  8
DD0
100
AcDbLine
 10
35.227066
 20
201.621811
 11
89.227066
 21
201.621811
  0
TEXT
  5
10D
100
AcDbEntity
  8
DD0
100
AcDbText
 10
60.398734
 20
202.221817
 40
2.5
  1
５４
 41
0.666667
  7
STANDARD
100
AcDbText
  0
ENDBLK
  5
10E
100
AcDbEntity
  8
DD0
100
AcDbBlockEnd
  0
BLOCK
  5
111
100
AcDbEntity
  8
DD0
100
AcDbBlockBegin
  2
DIMS17
 70
     0
 10
0.0
 20
0.0
  0
LINE
  5
112
100
AcDbEntity
  8
DD0
100
AcDbLine
 10
106.127075
 20
350.484009
 11
106.127075
 21
395.743683
  0
LINE
  5
113
100
AcDbEntity
  8
DD0
100
AcDbLine
 10
18.32708
 20
350.484009
 11
18.32708
 21
395.743683
  0
LINE
  5
114
100
AcDbEntity
  8
DD0
100
AcDbLine
 10
103.229298
 20
393.967226
 11
106.127075
 21
394.743683
  0
LINE
  5
115
100
AcDbEntity
  8
DD0
100
AcDbLine
 10
106.127075
 20
394.743683
 11
103.229298
 21
395.52014
  0
LINE
  5
116
100
AcDbEntity
  8
DD0
100
AcDbLine
 10
21.224857
 20
395.52014
 11
18.32708
 21
394.743683
  0
LINE
  5
117
100
AcDbEntity
  8
DD0
100
AcDbLine
 10
18.32708
 20
394.743683
 11
21.224857
 21
393.967226
  0
LINE
  5
118
100
AcDbEntity
  8
DD0
100
AcDbLine
 10
106.127075
 20
394.743683
 11
18.32708
 21
394.743683
  0
TEXT
  5
119
100
AcDbEntity
  8
DD0
100
AcDbText
 10
60.398746
 20
395.343689
 40
2.5
  1
８８
 41
0.666667
  7
STANDARD
100
AcDbText
  0
TEXT
  5
11A
100
AcDbEntity
  8
DD0
100
AcDbText
 10
41.398746
 20
391.443695
 40
2.5
  1
（補助接点サイドオンユニットを付けた場合）
 41
0.666667
  7
STANDARD
100
AcDbText
  0
ENDBLK
  5
11B
100
AcDbEntity
  8
DD0
100
AcDbBlockEnd
  0
BLOCK
  5
11E
100
AcDbEntity
  8
DD0
100
AcDbBlockBegin
  2
DIMS18
 70
     0
 10
0.0
 20
0.0
  0
LINE
  5
11F
100
AcDbEntity
  8
DD0
100
AcDbLine
 10
93.627075
 20
351.283997
 11
93.627075
 21
382.306946
  0
LINE
  5
120
100
AcDbEntity
  8
DD0
100
AcDbLine
 10
30.827078
 20
351.283997
 11
30.827078
 21
382.306946
  0
LINE
  5
121
100
AcDbEntity
  8
DD0
100
AcDbLine
 10
90.729298
 20
380.530489
 11
93.627075
 21
381.306946
  0
LINE
  5
122
100
AcDbEntity
  8
DD0
100
AcDbLine
 10
93.627075
 20
381.306946
 11
90.729298
 21
382.083403
  0
LINE
  5
123
100
AcDbEntity
  8
DD0
100
AcDbLine
 10
33.724855
 20
382.083403
 11
30.827078
 21
381.306946
  0
LINE
  5
124
100
AcDbEntity
  8
DD0
100
AcDbLine
 10
30.827078
 20
381.306946
 11
33.724855
 21
380.530489
  0
LINE
  5
125
100
AcDbEntity
  8
DD0
100
AcDbLine
 10
93.627075
 20
381.306946
 11
30.827078
 21
381.306946
  0
TEXT
  5
126
100
AcDbEntity
  8
DD0
100
AcDbText
 10
60.398746
 20
381.906952
 40
2.5
  1
６３
 41
0.666667
  7
STANDARD
100
AcDbText
  0
ENDBLK
  5
127
100
AcDbEntity
  8
DD0
100
AcDbBlockEnd
  0
ENDSEC
  0
SECTION
  2
ENTITIES
  0
INSERT
  5
56
100
AcDbEntity
  8
DD0
100
AcDbBlockReference
  2
DIMS0
 10
0.0
 20
0.0
  0
INSERT
  5
62
100
AcDbEntity
  8
DD0
100
AcDbBlockReference
  2
DIMS1
 10
0.0
 20
0.0
  0
INSERT
  5
6C
100
AcDbEntity
  8
DD0
100
AcDbBlockReference
  2
DIMS2
 10
0.0
 20
0.0
  0
INSERT
  5
77
100
AcDbEntity
  8
DD0
100
AcDbBlockReference
  2
DIMS3
 10
0.0
 20
0.0
  0
INSERT
  5
82
100
AcDbEntity
  8
DD0
100
AcDbBlockReference
  2
DIMS4
 10
0.0
 20
0.0
  0
INSERT
  5
8E
100
AcDbEntity
  8
DD0
100
AcDbBlockReference
  2
DIMS5
 10
0.0
 20
0.0
  0
INSERT
  5
97
100
AcDbEntity
  8
DD0
100
AcDbBlockReference
  2
DIMS6
 10
0.0
 20
0.0
  0
INSERT
  5
A3
100
AcDbEntity
  8
DD0
100
AcDbBlockReference
  2
DIMS7
 10
0.0
 20
0.0
  0
INSERT
  5
AF
100
AcDbEntity
  8
DD0
100
AcDbBlockReference
  2
DIMS8
 10
0.0
 20
0.0
  0
INSERT
  5
BB
100
AcDbEntity
  8
DD0
100
AcDbBlockReference
  2
DIMS9
 10
0.0
 20
0.0
  0
INSERT
  5
C7
100
AcDbEntity
  8
DD0
100
AcDbBlockReference
  2
DIMS10
 10
0.0
 20
0.0
  0
INSERT
  5
D3
100
AcDbEntity
  8
DD0
100
AcDbBlockReference
  2
DIMS11
 10
0.0
 20
0.0
  0
INSERT
  5
DF
100
AcDbEntity
  8
DD0
100
AcDbBlockReference
  2
DIMS12
 10
0.0
 20
0.0
  0
INSERT
  5
EB
100
AcDbEntity
  8
DD0
100
AcDbBlockReference
  2
DIMS13
 10
0.0
 20
0.0
  0
INSERT
  5
F7
100
AcDbEntity
  8
DD0
100
AcDbBlockReference
  2
DIMS14
 10
0.0
 20
0.0
  0
INSERT
  5
103
100
AcDbEntity
  8
DD0
100
AcDbBlockReference
  2
DIMS15
 10
0.0
 20
0.0
  0
INSERT
  5
10F
100
AcDbEntity
  8
DD0
100
AcDbBlockReference
  2
DIMS16
 10
0.0
 20
0.0
  0
INSERT
  5
11C
100
AcDbEntity
  8
DD0
100
AcDbBlockReference
  2
DIMS17
 10
0.0
 20
0.0
  0
INSERT
  5
128
100
AcDbEntity
  8
DD0
100
AcDbBlockReference
  2
DIMS18
 10
0.0
 20
0.0
  0
HATCH
  5
129
100
AcDbEntity
  8
M1
 62
     7
100
AcDbHatch
 10
0.0
 20
0.0
210
0.0
220
0.0
230
1.0
  2
SOLID
 70
     1
 71
     0
 91
        1
 92
        1
 93
        4
 72
     1
 10
181.237386
 20
368.204127
 11
179.237386
 21
368.204127
 72
     1
 10
179.237386
 20
368.204127
 11
179.237386
 21
350.004127
 72
     1
 10
179.237386
 20
350.004127
 11
181.237386
 21
350.004127
 72
     1
 10
181.237386
 20
350.004127
 11
181.237386
 21
368.204127
 97
        0
 75
     0
 76
     1
 98
        1
 10
0.0
 20
0.0
  0
LINE
  5
12C
100
AcDbEntity
  8
M1
 62
     7
100
AcDbLine
 10
276.037386
 20
343.784005
 11
276.037386
 21
349.784005
  0
LINE
  5
12D
100
AcDbEntity
  8
M1
 62
     7
100
AcDbLine
 10
264.037386
 20
343.784005
 11
264.037386
 21
349.784005
  0
LINE
  5
12E
100
AcDbEntity
  8
M1
 62
     7
100
AcDbLine
 10
252.037386
 20
343.784005
 11
252.037386
 21
349.784005
  0
LINE
  5
12F
100
AcDbEntity
  8
M1
 62
     7
100
AcDbLine
 10
260.037386
 20
343.784005
 11
260.037386
 21
349.784005
  0
LINE
  5
130
100
AcDbEntity
  8
M1
 62
     7
100
AcDbLine
 10
262.037386
 20
343.784005
 11
262.037386
 21
349.784005
  0
LINE
  5
131
100
AcDbEntity
  8
M1
 62
     7
100
AcDbLine
 10
274.037386
 20
343.784005
 11
276.037386
 21
343.784005
  0
LINE
  5
132
100
AcDbEntity
  8
M1
 62
     7
100
AcDbLine
 10
254.037386
 20
343.784005
 11
254.037386
 21
349.784005
  0
LINE
  5
133
100
AcDbEntity
  8
M1
 62
     7
100
AcDbLine
 10
250.037386
 20
343.784005
 11
252.037386
 21
343.784005
  0
LINE
  5
134
100
AcDbEntity
  8
M1
 62
     7
100
AcDbLine
 10
255.337386
 20
285.784005
 11
255.337386
 21
295.284005
  0
LINE
  5
135
100
AcDbEntity
  8
M1
 62
     7
100
AcDbLine
 10
270.037386
 20
343.784005
 11
270.037386
 21
349.784005
  0
LINE
  5
136
100
AcDbEntity
  8
M1
 62
     7
100
AcDbLine
 10
270.037386
 20
343.784005
 11
272.037386
 21
343.784005
  0
LINE
  5
137
100
AcDbEntity
  8
M1
 62
     7
100
AcDbLine
 10
288.637386
 20
288.784005
 11
264.337386
 21
288.784005
  0
LINE
  5
138
100
AcDbEntity
  8
M1
 62
     7
100
AcDbLine
 10
272.037386
 20
343.784005
 11
272.037386
 21
349.784005
  0
LINE
  5
139
100
AcDbEntity
  8
M1
 62
     7
100
AcDbLine
 10
299.337386
 20
301.484005
 11
299.337386
 21
301.284005
  0
LINE
  5
13A
100
AcDbEntity
  8
M1
 62
     7
100
AcDbLine
 10
299.637386
 20
295.534005
 11
299.637386
 21
286.034005
  0
LINE
  5
13B
100
AcDbEntity
  8
M1
 62
     7
100
AcDbLine
 10
295.137386
 20
331.584005
 11
295.437386
 21
332.084005
  0
LINE
  5
13C
100
AcDbEntity
  8
M1
 62
     7
100
AcDbLine
 10
299.637386
 20
291.784005
 11
299.637386
 21
289.784005
  0
LINE
  5
13D
100
AcDbEntity
  8
M1
 62
     7
100
AcDbLine
 10
249.937386
 20
357.269791
 11
249.937386
 21
350.784005
  0
LINE
  5
13E
100
AcDbEntity
  8
M1
 62
     7
100
AcDbLine
 10
243.730279
 20
363.891112
 11
244.937386
 21
362.684005
  0
LINE
  5
13F
100
AcDbEntity
  8
M1
 62
     7
100
AcDbLine
 10
255.123172
 20
287.284005
 11
253.537386
 21
287.284005
  0
LINE
  5
140
100
AcDbEntity
  8
M1
 62
     7
100
AcDbLine
 10
253.537386
 20
288.784005
 11
253.537386
 21
285.284005
  0
LINE
  5
141
100
AcDbEntity
  8
M1
 62
     7
100
AcDbLine
 10
295.137386
 20
335.084005
 11
295.137386
 21
337.584005
  0
LINE
  5
142
100
AcDbEntity
  8
M1
 62
     7
100
AcDbLine
 10
276.837386
 20
350.784005
 11
276.837386
 21
354.784005
  0
ARC
  5
143
100
AcDbEntity
  8
M1
 62
     7
100
AcDbCircle
 10
243.023172
 20
363.184005
 40
1.0
100
AcDbArc
 50
45.0
 51
90.0
  0
ARC
  5
144
100
AcDbEntity
  8
M1
 62
     7
100
AcDbCircle
 10
255.123172
 20
288.284005
 40
1.0
100
AcDbArc
 50
270.0
 51
282.369393
  0
ARC
  5
145
100
AcDbEntity
  8
M1
 62
     7
100
AcDbCircle
 10
252.537386
 20
285.284005
 40
1.0
100
AcDbArc
 50
270.0
 51
360.0
  0
ARC
  5
146
100
AcDbEntity
  8
M1
 62
     7
100
AcDbCircle
 10
295.457547
 20
338.887042
 40
1.374538
100
AcDbArc
 50
233.367407
 51
251.438337
  0
ARC
  5
147
100
AcDbEntity
  8
M1
 62
     7
100
AcDbCircle
 10
298.837386
 20
338.284005
 40
0.5
100
AcDbArc
 50
270.0
 51
360.0
  0
ARC
  5
148
100
AcDbEntity
  8
M1
 62
     7
100
AcDbCircle
 10
256.837386
 20
285.784005
 40
1.5
100
AcDbArc
 50
180.0
 51
270.0
  0
LINE
  5
149
100
AcDbEntity
  8
M1
 62
     7
100
AcDbLine
 10
266.037386
 20
343.784005
 11
266.037386
 21
349.784005
  0
LINE
  5
14A
100
AcDbEntity
  8
M1
 62
     7
100
AcDbLine
 10
262.037386
 20
343.784005
 11
264.037386
 21
343.784005
  0
LINE
  5
14B
100
AcDbEntity
  8
M1
 62
     7
100
AcDbLine
 10
266.037386
 20
343.784005
 11
268.037386
 21
343.784005
  0
ARC
  5
14C
100
AcDbEntity
  8
M1
 62
     7
100
AcDbCircle
 10
248.937386
 20
357.269791
 40
1.0
100
AcDbArc
 50
0.0
 51
45.0
  0
ARC
  5
14D
100
AcDbEntity
  8
M1
 62
     7
100
AcDbCircle
 10
263.337386
 20
285.284005
 40
1.0
100
AcDbArc
 50
270.0
 51
360.0
  0
LINE
  5
14E
100
AcDbEntity
  8
M1
 62
     7
100
AcDbLine
 10
255.337386
 20
295.284005
 11
243.137386
 21
295.284005
  0
ARC
  5
14F
100
AcDbEntity
  8
M1
 62
     7
100
AcDbCircle
 10
298.837386
 20
284.784005
 40
0.5
100
AcDbArc
 50
270.0
 51
360.0
  0
LINE
  5
150
100
AcDbEntity
  8
M1
 62
     7
100
AcDbLine
 10
299.337386
 20
341.084005
 11
299.337386
 21
339.084005
  0
LINE
  5
151
100
AcDbEntity
  8
M1
 62
     7
100
AcDbLine
 10
264.337386
 20
300.484005
 11
264.337386
 21
285.284005
  0
LINE
  5
152
100
AcDbEntity
  8
M1
 62
     7
100
AcDbLine
 10
244.137386
 20
339.084005
 11
256.137386
 21
339.084005
  0
LINE
  5
153
100
AcDbEntity
  8
M1
 62
     7
100
AcDbLine
 10
268.037386
 20
343.784005
 11
268.037386
 21
349.784005
  0
LINE
  5
154
100
AcDbEntity
  8
M1
 62
     7
100
AcDbLine
 10
264.037386
 20
350.784005
 11
262.037386
 21
350.784005
  0
LINE
  5
155
100
AcDbEntity
  8
M1
 62
     7
100
AcDbLine
 10
263.337386
 20
300.484005
 11
270.137386
 21
300.484005
  0
ARC
  5
156
100
AcDbEntity
  8
M1
 62
     7
100
AcDbCircle
 10
295.899268
 20
299.841492
 40
2.316399
100
AcDbArc
 50
112.341791
 51
123.008287
  0
ARC
  5
157
100
AcDbEntity
  8
M1
 62
     7
100
AcDbCircle
 10
298.837386
 20
354.284005
 40
0.5
100
AcDbArc
 50
0.0
 51
90.0
  0
ARC
  5
158
100
AcDbEntity
  8
M1
 62
     7
100
AcDbCircle
 10
298.837386
 20
301.484005
 40
0.5
100
AcDbArc
 50
0.0
 51
90.0
  0
ARC
  5
159
100
AcDbEntity
  8
M1
 62
     7
100
AcDbCircle
 10
298.837386
 20
301.284005
 40
0.5
100
AcDbArc
 50
0.0
 51
90.0
  0
LINE
  5
15A
100
AcDbEntity
  8
M1
 62
     7
100
AcDbLine
 10
244.137386
 20
341.084005
 11
288.637386
 21
341.084005
  0
ARC
  5
15B
100
AcDbEntity
  8
M1
 62
     7
100
AcDbCircle
 10
298.837386
 20
338.084005
 40
0.5
100
AcDbArc
 50
270.0
 51
360.0
  0
ARC
  5
15C
100
AcDbEntity
  8
M1
 62
     7
100
AcDbCircle
 10
289.637386
 20
353.784005
 40
1.0
100
AcDbArc
 50
90.0
 51
180.0
  0
LINE
  5
15D
100
AcDbEntity
  8
M1
 62
     7
100
AcDbLine
 10
295.437386
 20
334.084005
 11
295.437386
 21
332.084005
  0
LINE
  5
15E
100
AcDbEntity
  8
M1
 62
     7
100
AcDbLine
 10
254.037386
 20
343.784005
 11
256.037386
 21
343.784005
  0
LINE
  5
15F
100
AcDbEntity
  8
M1
 62
     7
100
AcDbLine
 10
295.137386
 20
337.584005
 11
295.137386
 21
301.984005
  0
LINE
  5
160
100
AcDbEntity
  8
M1
 62
     7
100
AcDbLine
 10
299.337386
 20
338.284005
 11
299.337386
 21
338.084005
  0
LINE
  5
161
100
AcDbEntity
  8
M1
 62
     7
100
AcDbLine
 10
295.037386
 20
301.984005
 11
298.837386
 21
301.984005
  0
LINE
  5
162
100
AcDbEntity
  8
M1
 62
     7
100
AcDbLine
 10
298.837386
 20
337.584005
 11
295.037386
 21
337.584005
  0
LINE
  5
163
100
AcDbEntity
  8
M1
 62
     7
100
AcDbLine
 10
263.337386
 20
284.284005
 11
256.837386
 21
284.284005
  0
LINE
  5
164
100
AcDbEntity
  8
M1
 62
     7
100
AcDbLine
 10
288.637386
 20
339.084005
 11
288.637386
 21
353.784005
  0
LINE
  5
165
100
AcDbEntity
  8
M1
 62
     7
100
AcDbLine
 10
289.637386
 20
354.784005
 11
298.837386
 21
354.784005
  0
LINE
  5
166
100
AcDbEntity
  8
M1
 62
     7
100
AcDbLine
 10
268.037386
 20
350.784005
 11
266.037386
 21
350.784005
  0
LINE
  5
167
100
AcDbEntity
  8
M1
 62
     7
100
AcDbLine
 10
255.337386
 20
288.784005
 11
232.137386
 21
288.784005
  0
LINE
  5
168
100
AcDbEntity
  8
M1
 62
     7
100
AcDbLine
 10
252.537386
 20
284.284005
 11
232.137386
 21
284.284005
  0
LINE
  5
169
100
AcDbEntity
  8
M1
 62
     7
100
AcDbLine
 10
232.137386
 20
344.484005
 11
243.137386
 21
344.484005
  0
ARC
  5
16A
100
AcDbEntity
  8
M1
 62
     7
100
AcDbCircle
 10
220.937386
 20
361.784005
 40
1.0
100
AcDbArc
 50
90.0
 51
180.0
  0
ARC
  5
16B
100
AcDbEntity
  8
M1
 62
     7
100
AcDbCircle
 10
224.037386
 20
363.284005
 40
1.0
100
AcDbArc
 50
90.0
 51
115.841933
  0
LINE
  5
16C
100
AcDbEntity
  8
M1
 62
     7
100
AcDbLine
 10
243.137386
 20
295.284005
 11
232.137386
 21
295.284005
  0
LINE
  5
16D
100
AcDbEntity
  8
M1
 62
     7
100
AcDbLine
 10
224.037386
 20
364.284005
 11
233.437386
 21
364.284005
  0
LINE
  5
16E
100
AcDbEntity
  8
M1
 62
     7
100
AcDbLine
 10
223.537386
 20
364.184005
 11
243.023172
 21
364.184005
  0
LINE
  5
16F
100
AcDbEntity
  8
M1
 62
     7
100
AcDbLine
 10
232.137386
 20
350.784005
 11
250.037386
 21
350.784005
  0
LINE
  5
170
100
AcDbEntity
  8
M1
 62
     7
100
AcDbLine
 10
219.937386
 20
361.784005
 11
219.937386
 21
354.284005
  0
ARC
  5
171
100
AcDbEntity
  8
M1
 62
     7
100
AcDbCircle
 10
223.537386
 20
361.184005
 40
3.0
100
AcDbArc
 50
90.0
 51
180.0
  0
ARC
  5
172
100
AcDbEntity
  8
M1
 62
     7
100
AcDbCircle
 10
243.137386
 20
343.484005
 40
1.0
100
AcDbArc
 50
0.0
 51
90.0
  0
LINE
  5
173
100
AcDbEntity
  8
M1
 62
     7
100
AcDbLine
 10
296.137386
 20
337.584005
 11
296.137386
 21
336.084005
  0
LINE
  5
174
100
AcDbEntity
  8
M1
 62
     7
100
AcDbLine
 10
244.937386
 20
362.684005
 11
249.644492
 21
357.976898
  0
LINE
  5
175
100
AcDbEntity
  8
M1
 62
     7
100
AcDbLine
 10
254.037386
 20
349.284005
 11
256.037386
 21
349.284005
  0
LINE
  5
176
100
AcDbEntity
  8
M1
 62
     7
100
AcDbLine
 10
262.037386
 20
349.284005
 11
264.037386
 21
349.284005
  0
LINE
  5
177
100
AcDbEntity
  8
M1
 62
     7
100
AcDbLine
 10
290.137386
 20
306.184005
 11
259.837386
 21
306.184005
  0
LINE
  5
178
100
AcDbEntity
  8
M1
 62
     7
100
AcDbLine
 10
256.037386
 20
350.784005
 11
254.037386
 21
350.784005
  0
LINE
  5
179
100
AcDbEntity
  8
M1
 62
     7
100
AcDbLine
 10
297.137386
 20
335.084005
 11
296.137386
 21
336.084005
  0
LINE
  5
17A
100
AcDbEntity
  8
M1
 62
     7
100
AcDbLine
 10
291.337386
 20
354.784005
 11
298.837386
 21
354.784005
  0
LINE
  5
17B
100
AcDbEntity
  8
M1
 62
     7
100
AcDbLine
 10
297.137386
 20
335.084005
 11
299.337386
 21
335.084005
  0
LINE
  5
17C
100
AcDbEntity
  8
M1
 62
     7
100
AcDbLine
 10
299.337386
 20
354.284005
 11
299.337386
 21
335.084005
  0
LINE
  5
17D
100
AcDbEntity
  8
M1
 62
     7
100
AcDbLine
 10
299.637386
 20
353.534005
 11
299.637386
 21
344.034005
  0
LINE
  5
17E
100
AcDbEntity
  8
M1
 62
     7
100
AcDbLine
 10
289.637386
 20
354.784005
 11
290.837386
 21
354.784005
  0
LINE
  5
17F
100
AcDbEntity
  8
M1
 62
     7
100
AcDbLine
 10
295.337386
 20
301.984005
 11
295.337386
 21
302.284005
  0
LINE
  5
180
100
AcDbEntity
  8
M1
 62
     7
100
AcDbLine
 10
244.037386
 20
337.200233
 11
244.037386
 21
334.32345
  0
LINE
  5
181
100
AcDbEntity
  8
M1
 62
     7
100
AcDbLine
 10
259.837386
 20
306.184005
 11
259.837386
 21
305.54456
  0
LINE
  5
182
100
AcDbEntity
  8
M1
 62
     7
100
AcDbLine
 10
288.637386
 20
300.484005
 11
244.137386
 21
300.484005
  0
LINE
  5
183
100
AcDbEntity
  8
M1
 62
     7
100
AcDbLine
 10
239.537386
 20
299.684005
 11
239.537386
 21
304.684005
  0
LINE
  5
184
100
AcDbEntity
  8
M1
 62
     7
100
AcDbLine
 10
220.537386
 20
354.284005
 11
220.537386
 21
361.184005
  0
LINE
  5
185
100
AcDbEntity
  8
M1
 62
     7
100
AcDbLine
 10
274.037386
 20
343.784005
 11
274.037386
 21
349.784005
  0
LINE
  5
186
100
AcDbEntity
  8
M1
 62
     7
100
AcDbLine
 10
259.837386
 20
301.784005
 11
298.837386
 21
301.784005
  0
LINE
  5
187
100
AcDbEntity
  8
M1
 62
     7
100
AcDbLine
 10
295.437386
 20
334.084005
 11
295.137386
 21
335.084005
  0
LINE
  5
188
100
AcDbEntity
  8
M1
 62
     7
100
AcDbLine
 10
299.337386
 20
301.284005
 11
299.337386
 21
300.784005
  0
LINE
  5
189
100
AcDbEntity
  8
M1
 62
     7
100
AcDbLine
 10
259.837386
 20
302.067777
 11
259.837386
 21
301.784005
  0
LINE
  5
18A
100
AcDbEntity
  8
M1
 62
     7
100
AcDbLine
 10
244.137386
 20
343.484005
 11
244.137386
 21
339.084005
  0
LINE
  5
18B
100
AcDbEntity
  8
M1
 62
     7
100
AcDbLine
 10
290.137386
 20
307.184005
 11
290.137386
 21
306.184005
  0
LINE
  5
18C
100
AcDbEntity
  8
M1
 62
     7
100
AcDbLine
 10
295.137386
 20
302.484005
 11
295.137386
 21
302.184005
  0
LINE
  5
18D
100
AcDbEntity
  8
M1
 62
     7
100
AcDbLine
 10
299.337386
 20
354.284005
 11
299.337386
 21
353.534005
  0
LINE
  5
18E
100
AcDbEntity
  8
M1
 62
     7
100
AcDbLine
 10
291.337386
 20
354.784005
 11
298.837386
 21
354.784005
  0
LINE
  5
18F
100
AcDbEntity
  8
M1
 62
     7
100
AcDbLine
 10
272.037386
 20
349.784005
 11
272.037386
 21
350.784005
  0
LINE
  5
190
100
AcDbEntity
  8
M1
 62
     7
100
AcDbLine
 10
274.037386
 20
350.784005
 11
274.037386
 21
349.784005
  0
LINE
  5
191
100
AcDbEntity
  8
M1
 62
     7
100
AcDbLine
 10
262.037386
 20
350.784005
 11
260.037386
 21
350.784005
  0
LINE
  5
192
100
AcDbEntity
  8
M1
 62
     7
100
AcDbLine
 10
299.337386
 20
354.284005
 11
299.337386
 21
353.534005
  0
LINE
  5
193
100
AcDbEntity
  8
M1
 62
     7
100
AcDbLine
 10
295.137386
 20
301.984005
 11
295.137386
 21
302.184005
  0
LINE
  5
194
100
AcDbEntity
  8
M1
 62
     7
100
AcDbLine
 10
250.037386
 20
349.284005
 11
252.037386
 21
349.284005
  0
LINE
  5
195
100
AcDbEntity
  8
M1
 62
     7
100
AcDbLine
 10
274.037386
 20
350.784005
 11
272.037386
 21
350.784005
  0
LINE
  5
196
100
AcDbEntity
  8
M1
 62
     7
100
AcDbLine
 10
266.037386
 20
350.784005
 11
264.037386
 21
350.784005
  0
LINE
  5
197
100
AcDbEntity
  8
M1
 62
     7
100
AcDbLine
 10
276.937386
 20
354.784005
 11
290.837386
 21
354.784005
  0
LINE
  5
198
100
AcDbEntity
  8
M1
 62
     7
100
AcDbLine
 10
270.037386
 20
350.784005
 11
268.037386
 21
350.784005
  0
LINE
  5
199
100
AcDbEntity
  8
M1
 62
     7
100
AcDbLine
 10
280.037386
 20
349.784005
 11
280.037386
 21
350.784005
  0
LINE
  5
19A
100
AcDbEntity
  8
M1
 62
     7
100
AcDbLine
 10
276.837386
 20
350.784005
 11
276.037386
 21
350.784005
  0
LINE
  5
19B
100
AcDbEntity
  8
M1
 62
     7
100
AcDbLine
 10
278.337386
 20
354.784005
 11
298.837386
 21
354.784005
  0
LINE
  5
19C
100
AcDbEntity
  8
M1
 62
     7
100
AcDbLine
 10
288.637386
 20
285.284005
 11
288.637386
 21
300.484005
  0
LINE
  5
19D
100
AcDbEntity
  8
M1
 62
     7
100
AcDbLine
 10
299.337386
 20
300.784005
 11
299.337386
 21
284.784005
  0
LINE
  5
19E
100
AcDbEntity
  8
M1
 62
     7
100
AcDbLine
 10
278.037386
 20
350.784005
 11
278.037386
 21
349.784005
  0
LINE
  5
19F
100
AcDbEntity
  8
M1
 62
     7
100
AcDbLine
 10
272.037386
 20
350.784005
 11
270.037386
 21
350.784005
  0
LINE
  5
1A0
100
AcDbEntity
  8
M1
 62
     7
100
AcDbLine
 10
276.037386
 20
350.784005
 11
278.037386
 21
350.784005
  0
LINE
  5
1A1
100
AcDbEntity
  8
M1
 62
     7
100
AcDbLine
 10
276.037386
 20
349.784005
 11
276.037386
 21
350.784005
  0
LINE
  5
1A2
100
AcDbEntity
  8
M1
 62
     7
100
AcDbLine
 10
258.037386
 20
350.784005
 11
258.037386
 21
349.784005
  0
LINE
  5
1A3
100
AcDbEntity
  8
M1
 62
     7
100
AcDbLine
 10
299.337386
 20
286.034005
 11
299.637386
 21
286.034005
  0
LINE
  5
1A4
100
AcDbEntity
  8
M1
 62
     7
100
AcDbLine
 10
272.037386
 20
350.784005
 11
274.037386
 21
350.784005
  0
LINE
  5
1A5
100
AcDbEntity
  8
M1
 62
     7
100
AcDbLine
 10
280.037386
 20
343.784005
 11
280.037386
 21
349.784005
  0
LINE
  5
1A6
100
AcDbEntity
  8
M1
 62
     7
100
AcDbLine
 10
268.037386
 20
350.784005
 11
270.037386
 21
350.784005
  0
LINE
  5
1A7
100
AcDbEntity
  8
M1
 62
     7
100
AcDbLine
 10
262.037386
 20
350.784005
 11
262.037386
 21
349.784005
  0
LINE
  5
1A8
100
AcDbEntity
  8
M1
 62
     7
100
AcDbLine
 10
270.037386
 20
350.784005
 11
270.037386
 21
349.784005
  0
LINE
  5
1A9
100
AcDbEntity
  8
M1
 62
     7
100
AcDbLine
 10
250.037386
 20
343.784005
 11
250.037386
 21
349.784005
  0
LINE
  5
1AA
100
AcDbEntity
  8
M1
 62
     7
100
AcDbLine
 10
278.037386
 20
343.784005
 11
280.037386
 21
343.784005
  0
LINE
  5
1AB
100
AcDbEntity
  8
M1
 62
     7
100
AcDbLine
 10
260.037386
 20
350.784005
 11
262.037386
 21
350.784005
  0
LINE
  5
1AC
100
AcDbEntity
  8
M1
 62
     7
100
AcDbLine
 10
280.037386
 20
350.784005
 11
288.637386
 21
350.784005
  0
LINE
  5
1AD
100
AcDbEntity
  8
M1
 62
     7
100
AcDbLine
 10
252.037386
 20
350.784005
 11
250.037386
 21
350.784005
  0
LINE
  5
1AE
100
AcDbEntity
  8
M1
 62
     7
100
AcDbLine
 10
260.037386
 20
349.784005
 11
260.037386
 21
350.784005
  0
LINE
  5
1AF
100
AcDbEntity
  8
M1
 62
     7
100
AcDbLine
 10
268.037386
 20
349.784005
 11
268.037386
 21
350.784005
  0
LINE
  5
1B0
100
AcDbEntity
  8
M1
 62
     7
100
AcDbLine
 10
280.037386
 20
350.784005
 11
278.037386
 21
350.784005
  0
LINE
  5
1B1
100
AcDbEntity
  8
M1
 62
     7
100
AcDbLine
 10
299.337386
 20
354.284005
 11
299.337386
 21
353.534005
  0
LINE
  5
1B2
100
AcDbEntity
  8
M1
 62
     7
100
AcDbLine
 10
278.037386
 20
349.284005
 11
280.037386
 21
349.284005
  0
LINE
  5
1B3
100
AcDbEntity
  8
M1
 62
     7
100
AcDbLine
 10
266.037386
 20
350.784005
 11
266.037386
 21
349.784005
  0
LINE
  5
1B4
100
AcDbEntity
  8
M1
 62
     7
100
AcDbLine
 10
264.037386
 20
350.784005
 11
266.037386
 21
350.784005
  0
LINE
  5
1B5
100
AcDbEntity
  8
M1
 62
     7
100
AcDbLine
 10
256.037386
 20
349.784005
 11
256.037386
 21
350.784005
  0
LINE
  5
1B6
100
AcDbEntity
  8
M1
 62
     7
100
AcDbLine
 10
266.037386
 20
349.284005
 11
268.037386
 21
349.284005
  0
LINE
  5
1B7
100
AcDbEntity
  8
M1
 62
     7
100
AcDbLine
 10
264.037386
 20
349.784005
 11
264.037386
 21
350.784005
  0
LINE
  5
1B8
100
AcDbEntity
  8
M1
 62
     7
100
AcDbLine
 10
270.037386
 20
349.284005
 11
272.037386
 21
349.284005
  0
LINE
  5
1B9
100
AcDbEntity
  8
M1
 62
     7
100
AcDbLine
 10
278.037386
 20
343.784005
 11
278.037386
 21
349.784005
  0
LINE
  5
1BA
100
AcDbEntity
  8
M1
 62
     7
100
AcDbLine
 10
276.037386
 20
350.784005
 11
274.037386
 21
350.784005
  0
LINE
  5
1BB
100
AcDbEntity
  8
M1
 62
     7
100
AcDbLine
 10
260.037386
 20
350.784005
 11
258.037386
 21
350.784005
  0
LINE
  5
1BC
100
AcDbEntity
  8
M1
 62
     7
100
AcDbLine
 10
252.037386
 20
350.784005
 11
254.037386
 21
350.784005
  0
LINE
  5
1BD
100
AcDbEntity
  8
M1
 62
     7
100
AcDbLine
 10
250.037386
 20
350.784005
 11
250.037386
 21
349.784005
  0
LINE
  5
1BE
100
AcDbEntity
  8
M1
 62
     7
100
AcDbLine
 10
295.837386
 20
302.784005
 11
297.337386
 21
302.784005
  0
LINE
  5
1BF
100
AcDbEntity
  8
M1
 62
     7
100
AcDbLine
 10
298.863263
 20
301.981872
 11
297.277386
 21
303.784005
  0
LINE
  5
1C0
100
AcDbEntity
  8
M1
 62
     7
100
AcDbLine
 10
299.337386
 20
346.034005
 11
299.637386
 21
346.034005
  0
LINE
  5
1C1
100
AcDbEntity
  8
M1
 62
     7
100
AcDbLine
 10
244.037386
 20
305.24456
 11
259.537386
 21
305.24456
  0
LINE
  5
1C2
100
AcDbEntity
  8
M1
 62
     7
100
AcDbLine
 10
297.337386
 20
302.784005
 11
297.337386
 21
302.284005
  0
LINE
  5
1C3
100
AcDbEntity
  8
M1
 62
     7
100
AcDbLine
 10
297.337386
 20
302.284005
 11
297.337386
 21
301.984005
  0
LINE
  5
1C4
100
AcDbEntity
  8
M1
 62
     7
100
AcDbLine
 10
244.037386
 20
337.200233
 11
259.537386
 21
337.200233
  0
LINE
  5
1C5
100
AcDbEntity
  8
M1
 62
     7
100
AcDbLine
 10
296.837386
 20
304.284005
 11
297.277386
 21
303.784005
  0
LINE
  5
1C6
100
AcDbEntity
  8
M1
 62
     7
100
AcDbLine
 10
299.337386
 20
341.084005
 11
299.337386
 21
346.034005
  0
LINE
  5
1C7
100
AcDbEntity
  8
M1
 62
     7
100
AcDbLine
 10
244.037386
 20
305.24456
 11
244.037386
 21
302.367777
  0
LINE
  5
1C8
100
AcDbEntity
  8
M1
 62
     7
100
AcDbLine
 10
296.137386
 20
303.784005
 11
296.137386
 21
304.284005
  0
LINE
  5
1C9
100
AcDbEntity
  8
M1
 62
     7
100
AcDbLine
 10
299.637386
 20
353.534005
 11
299.337386
 21
353.534005
  0
LINE
  5
1CA
100
AcDbEntity
  8
M1
 62
     7
100
AcDbLine
 10
259.537386
 20
334.32345
 11
244.037386
 21
334.32345
  0
LINE
  5
1CB
100
AcDbEntity
  8
M1
 62
     7
100
AcDbLine
 10
244.137386
 20
339.084005
 11
288.637386
 21
339.084005
  0
LINE
  5
1CC
100
AcDbEntity
  8
M1
 62
     7
100
AcDbLine
 10
290.137386
 20
333.384005
 11
290.137386
 21
332.384005
  0
LINE
  5
1CD
100
AcDbEntity
  8
M1
 62
     7
100
AcDbLine
 10
298.837386
 20
337.784005
 11
259.837386
 21
337.784005
  0
LINE
  5
1CE
100
AcDbEntity
  8
M1
 62
     7
100
AcDbLine
 10
259.837386
 20
334.02345
 11
259.837386
 21
333.384005
  0
LINE
  5
1CF
100
AcDbEntity
  8
M1
 62
     7
100
AcDbLine
 10
258.037386
 20
343.784005
 11
260.037386
 21
343.784005
  0
LINE
  5
1D0
100
AcDbEntity
  8
M1
 62
     7
100
AcDbLine
 10
239.537386
 20
334.884005
 11
239.537386
 21
339.884005
  0
LINE
  5
1D1
100
AcDbEntity
  8
M1
 62
     7
100
AcDbLine
 10
258.037386
 20
343.784005
 11
258.037386
 21
349.784005
  0
LINE
  5
1D2
100
AcDbEntity
  8
M1
 62
     7
100
AcDbLine
 10
259.837386
 20
333.384005
 11
290.137386
 21
333.384005
  0
LINE
  5
1D3
100
AcDbEntity
  8
M1
 62
     7
100
AcDbLine
 10
259.837386
 20
337.784005
 11
259.837386
 21
337.500233
  0
ARC
  5
1D4
100
AcDbEntity
  8
M1
 62
     7
100
AcDbCircle
 10
259.537386
 20
337.500233
 40
0.3
100
AcDbArc
 50
270.0
 51
360.0
  0
ARC
  5
1D5
100
AcDbEntity
  8
M1
 62
     7
100
AcDbCircle
 10
259.537386
 20
305.54456
 40
0.3
100
AcDbArc
 50
270.0
 51
360.0
  0
ARC
  5
1D6
100
AcDbEntity
  8
M1
 62
     7
100
AcDbCircle
 10
259.537386
 20
302.067777
 40
0.3
100
AcDbArc
 50
0.0
 51
90.0
  0
ARC
  5
1D7
100
AcDbEntity
  8
M1
 62
     7
100
AcDbCircle
 10
295.837386
 20
302.284005
 40
0.5
100
AcDbArc
 50
90.0
 51
180.0
  0
ARC
  5
1D8
100
AcDbEntity
  8
M1
 62
     7
100
AcDbCircle
 10
243.137386
 20
296.284005
 40
1.0
100
AcDbArc
 50
270.0
 51
360.0
  0
LINE
  5
1D9
100
AcDbEntity
  8
M1
 62
     7
100
AcDbLine
 10
259.537386
 20
302.367777
 11
244.037386
 21
302.367777
  0
LINE
  5
1DA
100
AcDbEntity
  8
M1
 62
     7
100
AcDbLine
 10
299.337386
 20
344.034005
 11
299.637386
 21
344.034005
  0
LINE
  5
1DB
100
AcDbEntity
  8
M1
 62
     7
100
AcDbLine
 10
296.137386
 20
304.284005
 11
296.837386
 21
304.284005
  0
LINE
  5
1DC
100
AcDbEntity
  8
M1
 62
     7
100
AcDbLine
 10
299.637386
 20
295.534005
 11
299.337386
 21
295.534005
  0
ARC
  5
1DD
100
AcDbEntity
  8
M1
 62
     7
100
AcDbCircle
 10
259.537386
 20
334.02345
 40
0.3
100
AcDbArc
 50
0.0
 51
90.0
  0
LINE
  5
1DE
100
AcDbEntity
  8
M1
 62
     7
100
AcDbLine
 10
299.037386
 20
284.284005
 11
298.837386
 21
284.284005
  0
LINE
  5
1DF
100
AcDbEntity
  8
M1
 62
     7
100
AcDbLine
 10
299.037386
 20
284.325747
 11
299.037386
 21
284.284005
  0
LINE
  5
1E0
100
AcDbEntity
  8
M1
 62
     7
100
AcDbLine
 10
274.037386
 20
349.284005
 11
276.037386
 21
349.284005
  0
LINE
  5
1E1
100
AcDbEntity
  8
M1
 62
     7
100
AcDbLine
 10
254.037386
 20
350.784005
 11
254.037386
 21
349.784005
  0
LINE
  5
1E2
100
AcDbEntity
  8
M1
 62
     7
100
AcDbLine
 10
233.437386
 20
364.284005
 11
233.437386
 21
364.184005
  0
LINE
  5
1E3
100
AcDbEntity
  8
M1
 62
     7
100
AcDbLine
 10
258.037386
 20
349.284005
 11
260.037386
 21
349.284005
  0
LINE
  5
1E4
100
AcDbEntity
  8
M1
 62
     7
100
AcDbLine
 10
256.037386
 20
343.784005
 11
256.037386
 21
349.784005
  0
LINE
  5
1E5
100
AcDbEntity
  8
M1
 62
     7
100
AcDbLine
 10
296.137386
 20
303.784005
 11
296.137386
 21
302.784005
  0
LINE
  5
1E6
100
AcDbEntity
  8
M1
 62
     7
100
AcDbLine
 10
290.137386
 20
332.384005
 11
290.137386
 21
307.184005
  0
ARC
  5
1E7
100
AcDbEntity
  8
M1
 62
     7
100
AcDbCircle
 10
289.637386
 20
285.284005
 40
1.0
100
AcDbArc
 50
180.0
 51
270.0
  0
LINE
  5
1E8
100
AcDbEntity
  8
M1
 62
     7
100
AcDbLine
 10
244.137386
 20
300.484005
 11
244.137386
 21
296.284005
  0
LINE
  5
1E9
100
AcDbEntity
  8
M1
 62
     7
100
AcDbLine
 10
256.037386
 20
350.784005
 11
258.037386
 21
350.784005
  0
LINE
  5
1EA
100
AcDbEntity
  8
M1
 62
     7
100
AcDbLine
 10
252.037386
 20
349.784005
 11
252.037386
 21
350.784005
  0
LINE
  5
1EB
100
AcDbEntity
  8
M1
 62
     7
100
AcDbLine
 10
289.637386
 20
284.284005
 11
298.837386
 21
284.284005
  0
LINE
  5
1EC
100
AcDbEntity
  8
M1
  6
DASHED
 62
     7
100
AcDbLine
 10
222.637386
 20
314.684006
 11
222.637386
 21
295.584006
  0
LINE
  5
1ED
100
AcDbEntity
  8
M1
  6
DASHED
 62
     7
100
AcDbLine
 10
223.137386
 20
295.084006
 11
225.637386
 21
295.084006
  0
LINE
  5
1EE
100
AcDbEntity
  8
M1
  6
DASHED
 62
     7
100
AcDbLine
 10
221.637386
 20
314.684006
 11
221.637386
 21
295.584006
  0
LINE
  5
1EF
100
AcDbEntity
  8
M1
  6
DASHED
 62
     7
100
AcDbLine
 10
221.637386
 20
314.684006
 11
222.637386
 21
314.684006
  0
ARC
  5
1F0
100
AcDbEntity
  8
M1
  6
DASHED
 62
     7
100
AcDbCircle
 10
223.137386
 20
295.584006
 40
1.5
100
AcDbArc
 50
180.0
 51
270.0
  0
ARC
  5
1F1
100
AcDbEntity
  8
M1
  6
DASHED
 62
     7
100
AcDbCircle
 10
223.137386
 20
295.584006
 40
0.5
100
AcDbArc
 50
180.0
 51
270.0
  0
LINE
  5
1F2
100
AcDbEntity
  8
M1
  6
DASHED
 62
     7
100
AcDbLine
 10
223.137386
 20
294.084006
 11
225.637386
 21
294.084006
  0
LINE
  5
1F3
100
AcDbEntity
  8
M1
 62
     7
100
AcDbLine
 10
181.237386
 20
350.004127
 11
181.237386
 21
368.204127
  0
LINE
  5
1F4
100
AcDbEntity
  8
M1
  6
DASHED
 62
     7
100
AcDbLine
 10
201.737386
 20
314.684006
 11
201.737386
 21
302.684006
  0
LINE
  5
1F5
100
AcDbEntity
  8
M1
  6
DASHED
 62
     7
100
AcDbLine
 10
231.237386
 20
364.184005
 11
231.237386
 21
357.284006
  0
LINE
  5
1F6
100
AcDbEntity
  8
M1
  6
DASHED
 62
     7
100
AcDbLine
 10
230.237386
 20
357.284006
 11
230.237386
 21
364.184005
  0
LINE
  5
1F7
100
AcDbEntity
  8
M1
  6
DASHED
 62
     7
100
AcDbLine
 10
202.737386
 20
302.684006
 11
201.737386
 21
302.684006
  0
LINE
  5
1F8
100
AcDbEntity
  8
M1
  6
DASHED
 62
     7
100
AcDbLine
 10
225.637386
 20
294.084006
 11
225.637386
 21
295.084006
  0
LINE
  5
1F9
100
AcDbEntity
  8
M1
  6
DASHED
 62
     7
100
AcDbLine
 10
202.737386
 20
314.684006
 11
201.737386
 21
314.684006
  0
LINE
  5
1FA
100
AcDbEntity
  8
M1
  6
DASHED
 62
     7
100
AcDbLine
 10
202.737386
 20
314.684006
 11
202.737386
 21
302.684006
  0
LINE
  5
1FB
100
AcDbEntity
  8
M1
  6
DASHED
 62
     7
100
AcDbLine
 10
199.687386
 20
309.484006
 11
199.687386
 21
303.484006
  0
LINE
  5
1FC
100
AcDbEntity
  8
M1
  6
DASHED
 62
     7
100
AcDbLine
 10
197.387386
 20
304.484006
 11
197.387386
 21
308.484006
  0
LINE
  5
1FD
100
AcDbEntity
  8
M1
  6
DASHED
 62
     7
100
AcDbLine
 10
199.687386
 20
309.334006
 11
200.737386
 21
309.334006
  0
LINE
  5
1FE
100
AcDbEntity
  8
M1
  6
DASHED
 62
     7
100
AcDbLine
 10
200.737386
 20
303.634006
 11
199.687386
 21
303.634006
  0
LINE
  5
1FF
100
AcDbEntity
  8
M1
  6
DASHED
 62
     7
100
AcDbLine
 10
201.737386
 20
310.309006
 11
200.737386
 21
310.309006
  0
LINE
  5
200
100
AcDbEntity
  8
M1
  6
DASHED
 62
     7
100
AcDbLine
 10
198.387386
 20
303.484006
 11
199.687386
 21
303.484006
  0
LINE
  5
201
100
AcDbEntity
  8
M1
  6
DASHED
 62
     7
100
AcDbLine
 10
201.737386
 20
302.659006
 11
200.737386
 21
302.659006
  0
LINE
  5
202
100
AcDbEntity
  8
M1
  6
DASHED
 62
     7
100
AcDbLine
 10
208.187386
 20
308.234006
 11
202.737386
 21
308.234006
  0
LINE
  5
203
100
AcDbEntity
  8
M1
  6
DASHED
 62
     7
100
AcDbLine
 10
200.737386
 20
310.309006
 11
200.737386
 21
302.659006
  0
LINE
  5
204
100
AcDbEntity
  8
M1
  6
DASHED
 62
     7
100
AcDbLine
 10
202.737386
 20
304.734006
 11
208.187386
 21
304.734006
  0
LINE
  5
205
100
AcDbEntity
  8
M1
  6
DASHED
 62
     7
100
AcDbLine
 10
208.187386
 20
308.234006
 11
208.187386
 21
304.734006
  0
ARC
  5
206
100
AcDbEntity
  8
M1
  6
DASHED
 62
     7
100
AcDbCircle
 10
198.387386
 20
308.484006
 40
1.0
100
AcDbArc
 50
90.0
 51
180.0
  0
ARC
  5
207
100
AcDbEntity
  8
M1
  6
DASHED
 62
     7
100
AcDbCircle
 10
198.387386
 20
304.484006
 40
1.0
100
AcDbArc
 50
180.0
 51
270.0
  0
LINE
  5
208
100
AcDbEntity
  8
M1
  6
DASHED
 62
     7
100
AcDbLine
 10
198.387386
 20
309.484006
 11
199.687386
 21
309.484006
  0
LINE
  5
209
100
AcDbEntity
  8
M1
  6
DASHED
 62
     7
100
AcDbLine
 10
200.737386
 20
307.909006
 11
200.737386
 21
305.059006
  0
LINE
  5
20A
100
AcDbEntity
  8
M1
  6
DASHED
 62
     7
100
AcDbLine
 10
205.137386
 20
338.484006
 11
205.137386
 21
348.484006
  0
LINE
  5
20B
100
AcDbEntity
  8
M1
  6
DASHED
 62
     7
100
AcDbLine
 10
205.137386
 20
346.784006
 11
203.937386
 21
346.784006
  0
LINE
  5
20C
100
AcDbEntity
  8
M1
  6
DASHED
 62
     7
100
AcDbLine
 10
213.677386
 20
345.484006
 11
207.537386
 21
345.484006
  0
LINE
  5
20D
100
AcDbEntity
  8
M1
  6
DASHED
 62
     7
100
AcDbLine
 10
203.937386
 20
346.984006
 11
203.937386
 21
339.984006
  0
ARC
  5
20E
100
AcDbEntity
  8
M1
  6
DASHED
 62
     7
100
AcDbCircle
 10
202.931273
 20
345.591017
 40
1.3
100
AcDbArc
 50
95.0
 51
164.11915
  0
ARC
  5
20F
100
AcDbEntity
  8
M1
  6
DASHED
 62
     7
100
AcDbCircle
 10
202.931273
 20
341.376995
 40
1.3
100
AcDbArc
 50
195.88085
 51
265.0
  0
LINE
  5
210
100
AcDbEntity
  8
M1
  6
DASHED
 62
     7
100
AcDbLine
 10
206.337386
 20
348.484006
 11
206.337386
 21
338.484006
  0
LINE
  5
211
100
AcDbEntity
  8
M1
  6
DASHED
 62
     7
100
AcDbLine
 10
206.337386
 20
338.484006
 11
205.137386
 21
338.484006
  0
LINE
  5
212
100
AcDbEntity
  8
M1
  6
DASHED
 62
     7
100
AcDbLine
 10
206.337386
 20
348.484006
 11
205.137386
 21
348.484006
  0
LINE
  5
213
100
AcDbEntity
  8
M1
  6
DASHED
 62
     7
100
AcDbLine
 10
213.677386
 20
345.484006
 11
213.677386
 21
341.484006
  0
LINE
  5
214
100
AcDbEntity
  8
M1
  6
DASHED
 62
     7
100
AcDbLine
 10
205.137386
 20
340.184006
 11
203.937386
 21
340.184006
  0
LINE
  5
215
100
AcDbEntity
  8
M1
  6
DASHED
 62
     7
100
AcDbLine
 10
213.677386
 20
341.484006
 11
207.537386
 21
341.484006
  0
ARC
  5
216
100
AcDbEntity
  8
M1
  6
DASHED
 62
     7
100
AcDbCircle
 10
210.337386
 20
343.484006
 40
9.0
100
AcDbArc
 50
164.11915
 51
195.88085
  0
LINE
  5
217
100
AcDbEntity
  8
M1
  6
DASHED
 62
     7
100
AcDbLine
 10
202.81797
 20
346.88607
 11
203.937386
 21
346.984006
  0
LINE
  5
218
100
AcDbEntity
  8
M1
  6
DASHED
 62
     7
100
AcDbLine
 10
202.81797
 20
340.081942
 11
203.937386
 21
339.984006
  0
LINE
  5
219
100
AcDbEntity
  8
M1
  6
DASHED
 62
     7
100
AcDbLine
 10
221.637386
 20
314.684006
 11
222.637386
 21
314.684006
  0
LINE
  5
21A
100
AcDbEntity
  8
M1
  6
DASHED
 62
     7
100
AcDbLine
 10
207.537386
 20
326.284006
 11
207.537386
 21
348.784006
  0
LINE
  5
21B
100
AcDbEntity
  8
M1
  6
DASHED
 62
     7
100
AcDbLine
 10
206.337386
 20
326.284006
 11
206.337386
 21
348.784006
  0
LINE
  5
21C
100
AcDbEntity
  8
M1
 62
     7
100
AcDbLine
 10
191.537386
 20
317.284005
 11
191.537386
 21
316.284005
  0
LINE
  5
21D
100
AcDbEntity
  8
M1
 62
     7
100
AcDbLine
 10
191.537386
 20
322.284005
 11
191.537386
 21
323.284005
  0
LINE
  5
21E
100
AcDbEntity
  8
M1
 62
     7
100
AcDbLine
 10
191.537386
 20
316.284005
 11
190.537388
 21
316.284005
  0
LINE
  5
21F
100
AcDbEntity
  8
M1
 62
     7
100
AcDbLine
 10
190.537388
 20
322.284005
 11
191.537386
 21
322.284005
  0
LINE
  5
220
100
AcDbEntity
  8
M1
 62
     7
100
AcDbLine
 10
191.537386
 20
316.284005
 11
192.037387
 21
316.284005
  0
LINE
  5
221
100
AcDbEntity
  8
M1
 62
     7
100
AcDbLine
 10
190.537388
 20
317.284005
 11
191.537386
 21
317.284005
  0
LINE
  5
222
100
AcDbEntity
  8
M1
 62
     7
100
AcDbLine
 10
191.537386
 20
323.284005
 11
190.537388
 21
323.284005
  0
LINE
  5
223
100
AcDbEntity
  8
M1
 62
     7
100
AcDbLine
 10
191.537386
 20
323.284005
 11
192.037387
 21
323.284005
  0
LINE
  5
224
100
AcDbEntity
  8
M1
 62
     7
100
AcDbLine
 10
192.037387
 20
317.284005
 11
191.537386
 21
317.284005
  0
LINE
  5
225
100
AcDbEntity
  8
M1
 62
     7
100
AcDbLine
 10
188.237386
 20
330.784005
 11
190.537388
 21
330.784005
  0
ARC
  5
226
100
AcDbEntity
  8
M1
 62
     7
100
AcDbCircle
 10
186.737386
 20
331.284005
 40
0.5
100
AcDbArc
 50
90.0
 51
180.0
  0
ARC
  5
227
100
AcDbEntity
  8
M1
 62
     7
100
AcDbCircle
 10
186.737386
 20
312.784005
 40
0.5
100
AcDbArc
 50
90.0
 51
180.0
  0
LINE
  5
228
100
AcDbEntity
  8
M1
 62
     7
100
AcDbLine
 10
187.737385
 20
307.784005
 11
186.737387
 21
307.784005
  0
ARC
  5
229
100
AcDbEntity
  8
M1
 62
     7
100
AcDbCircle
 10
221.137386
 20
285.284005
 40
1.0
100
AcDbArc
 50
180.0
 51
270.0
  0
LINE
  5
22A
100
AcDbEntity
  8
M1
 62
     7
100
AcDbLine
 10
215.237387
 20
287.284006
 11
220.137386
 21
287.284006
  0
LINE
  5
22B
100
AcDbEntity
  8
M1
 62
     7
100
AcDbLine
 10
186.737387
 20
307.784005
 11
190.537388
 21
307.784005
  0
LINE
  5
22C
100
AcDbEntity
  8
M1
 62
     7
100
AcDbLine
 10
186.237386
 20
331.284005
 11
186.237386
 21
308.284005
  0
LINE
  5
22D
100
AcDbEntity
  8
M1
 62
     7
100
AcDbLine
 10
188.237386
 20
307.784005
 11
188.237386
 21
313.284005
  0
LINE
  5
22E
100
AcDbEntity
  8
M1
 62
     7
100
AcDbLine
 10
192.037387
 20
321.284005
 11
191.537386
 21
321.284005
  0
LINE
  5
22F
100
AcDbEntity
  8
M1
 62
     7
100
AcDbLine
 10
192.037387
 20
322.284005
 11
191.537386
 21
322.284005
  0
LINE
  5
230
100
AcDbEntity
  8
M1
 62
     7
100
AcDbLine
 10
191.537386
 20
318.284005
 11
191.537386
 21
321.284005
  0
LINE
  5
231
100
AcDbEntity
  8
M1
 62
     7
100
AcDbLine
 10
191.537386
 20
318.284005
 11
192.037387
 21
318.284005
  0
ELLIPSE
  5
232
100
AcDbEntity
  8
M1
 62
     7
100
AcDbEllipse
 10
186.737386
 20
326.091112
 11
0.5
 21
0.0
210
0.0
220
0.0
230
1.0
 40
0.414214
 41
3.141592653589793
 42
4.71238898038469
  0
ARC
  5
233
100
AcDbEntity
  8
M1
 62
     7
100
AcDbCircle
 10
215.237386
 20
288.284005
 40
1.0
100
AcDbArc
 50
237.247324
 51
270.0
  0
ELLIPSE
  5
234
100
AcDbEntity
  8
M1
 62
     7
100
AcDbEllipse
 10
186.737386
 20
324.591112
 11
0.5
 21
0.0
210
0.0
220
0.0
230
1.0
 40
0.414214
 41
3.141592653589793
 42
4.71238898038469
  0
LINE
  5
235
100
AcDbEntity
  8
M1
 62
     7
100
AcDbLine
 10
216.337387
 20
352.784005
 11
216.337387
 21
350.784004
  0
LINE
  5
236
100
AcDbEntity
  8
M1
 62
     7
100
AcDbLine
 10
219.937386
 20
354.284006
 11
216.337387
 21
352.784005
  0
LINE
  5
237
100
AcDbEntity
  8
M1
 62
     7
100
AcDbLine
 10
220.137386
 20
353.284006
 11
217.337385
 21
352.117338
  0
LINE
  5
238
100
AcDbEntity
  8
M1
 62
     7
100
AcDbLine
 10
225.637386
 20
350.784004
 11
225.637386
 21
354.284006
  0
LINE
  5
239
100
AcDbEntity
  8
M1
 62
     7
100
AcDbLine
 10
230.637386
 20
323.884005
 11
230.737386
 21
323.884005
  0
LINE
  5
23A
100
AcDbEntity
  8
M1
 62
     7
100
AcDbLine
 10
225.637386
 20
354.284006
 11
219.937386
 21
354.284006
  0
LINE
  5
23B
100
AcDbEntity
  8
M1
 62
     7
100
AcDbLine
 10
224.637386
 20
353.284006
 11
220.137386
 21
353.284006
  0
LINE
  5
23C
100
AcDbEntity
  8
M1
 62
     7
100
AcDbLine
 10
217.337385
 20
351.784005
 11
224.637386
 21
351.784005
  0
LINE
  5
23D
100
AcDbEntity
  8
M1
 62
     7
100
AcDbLine
 10
224.637386
 20
351.784005
 11
224.637386
 21
353.284006
  0
LINE
  5
23E
100
AcDbEntity
  8
M1
 62
     7
100
AcDbLine
 10
217.337385
 20
352.117338
 11
217.337385
 21
351.784005
  0
ARC
  5
23F
100
AcDbEntity
  8
M1
 62
     7
100
AcDbCircle
 10
192.837386
 20
323.084005
 40
1.0
100
AcDbArc
 50
168.463041
 51
180.0
  0
LINE
  5
240
100
AcDbEntity
  8
M1
 62
     7
100
AcDbLine
 10
191.837387
 20
323.084005
 11
191.837387
 21
322.284005
  0
LINE
  5
241
100
AcDbEntity
  8
M1
 62
     7
100
AcDbLine
 10
191.837387
 20
317.284005
 11
191.837387
 21
316.284005
  0
LINE
  5
242
100
AcDbEntity
  8
M1
 62
     7
100
AcDbLine
 10
222.237386
 20
317.084005
 11
222.237386
 21
322.484005
  0
LINE
  5
243
100
AcDbEntity
  8
M1
 62
     7
100
AcDbLine
 10
218.737386
 20
322.484005
 11
218.737386
 21
317.084005
  0
LINE
  5
244
100
AcDbEntity
  8
M1
 62
     7
100
AcDbLine
 10
232.137386
 20
285.284006
 11
232.137386
 21
284.284004
  0
LINE
  5
245
100
AcDbEntity
  8
M1
 62
     7
100
AcDbLine
 10
225.737386
 20
354.284006
 11
221.037386
 21
354.284006
  0
LINE
  5
246
100
AcDbEntity
  8
M1
 62
     7
100
AcDbLine
 10
225.737386
 20
354.284006
 11
225.737386
 21
350.784004
  0
LINE
  5
247
100
AcDbEntity
  8
M1
 62
     7
100
AcDbLine
 10
232.137386
 20
329.884005
 11
232.137386
 21
350.784004
  0
ARC
  5
248
100
AcDbEntity
  8
M1
 62
     7
100
AcDbCircle
 10
186.737386
 20
308.284005
 40
0.5
100
AcDbArc
 50
180.0
 51
270.0
  0
ARC
  5
249
100
AcDbEntity
  8
M1
 62
     7
100
AcDbCircle
 10
212.437386
 20
344.484005
 40
3.0
100
AcDbArc
 50
90.0
 51
180.0
  0
ARC
  5
24A
100
AcDbEntity
  8
M1
 62
     7
100
AcDbCircle
 10
212.437386
 20
295.084005
 40
3.0
100
AcDbArc
 50
180.0
 51
270.0
  0
ARC
  5
24B
100
AcDbEntity
  8
M1
 62
     7
100
AcDbCircle
 10
223.394745
 20
344.484005
 40
3.0
100
AcDbArc
 50
45.0
 51
90.0
  0
ARC
  5
24C
100
AcDbEntity
  8
M1
 62
     7
100
AcDbCircle
 10
223.394745
 20
295.084005
 40
3.0
100
AcDbArc
 50
270.0
 51
315.0
  0
ARC
  5
24D
100
AcDbEntity
  8
M1
 62
     7
100
AcDbCircle
 10
193.537386
 20
336.884005
 40
3.0
100
AcDbArc
 50
90.0
 51
180.0
  0
ARC
  5
24E
100
AcDbEntity
  8
M1
 62
     7
100
AcDbCircle
 10
192.037386
 20
315.084005
 40
1.0
100
AcDbArc
 50
0.0
 51
90.0
  0
ARC
  5
24F
100
AcDbEntity
  8
M1
 62
     7
100
AcDbCircle
 10
206.437386
 20
342.884005
 40
3.0
100
AcDbArc
 50
270.0
 51
360.0
  0
ARC
  5
250
100
AcDbEntity
  8
M1
 62
     7
100
AcDbCircle
 10
206.437386
 20
296.684005
 40
3.0
100
AcDbArc
 50
0.0
 51
90.0
  0
ARC
  5
251
100
AcDbEntity
  8
M1
 62
     7
100
AcDbCircle
 10
218.537386
 20
321.984005
 40
0.5
100
AcDbArc
 50
90.0
 51
180.0
  0
LINE
  5
252
100
AcDbEntity
  8
M1
 62
     7
100
AcDbLine
 10
192.537384
 20
299.855578
 11
192.537384
 21
287.284006
  0
ARC
  5
253
100
AcDbEntity
  8
M1
 62
     7
100
AcDbCircle
 10
218.537386
 20
317.584005
 40
0.5
100
AcDbArc
 50
180.0
 51
270.0
  0
LINE
  5
254
100
AcDbEntity
  8
M1
 62
     7
100
AcDbLine
 10
192.537384
 20
352.284006
 11
192.537384
 21
339.712432
  0
LINE
  5
255
100
AcDbEntity
  8
M1
 62
     7
100
AcDbLine
 10
232.137386
 20
334.884005
 11
239.537386
 21
334.884005
  0
LINE
  5
256
100
AcDbEntity
  8
M1
 62
     7
100
AcDbLine
 10
239.537386
 20
339.884004
 11
232.137386
 21
339.884004
  0
LINE
  5
257
100
AcDbEntity
  8
M1
 62
     7
100
AcDbLine
 10
232.137386
 20
329.884005
 11
231.237386
 21
329.884005
  0
ARC
  5
258
100
AcDbEntity
  8
M1
 62
     7
100
AcDbCircle
 10
191.537386
 20
324.484005
 40
1.0
100
AcDbArc
 50
180.0
 51
270.0
  0
ARC
  5
259
100
AcDbEntity
  8
M1
 62
     7
100
AcDbCircle
 10
210.294745
 20
287.284005
 40
3.0
100
AcDbArc
 50
270.0
 51
315.0
  0
ARC
  5
25A
100
AcDbEntity
  8
M1
 62
     7
100
AcDbCircle
 10
193.537386
 20
302.684005
 40
3.0
100
AcDbArc
 50
180.0
 51
270.0
  0
ARC
  5
25B
100
AcDbEntity
  8
M1
 62
     7
100
AcDbCircle
 10
191.537386
 20
315.084005
 40
1.0
100
AcDbArc
 50
90.0
 51
180.0
  0
ARC
  5
25C
100
AcDbEntity
  8
M1
 62
     7
100
AcDbCircle
 10
195.537386
 20
287.284005
 40
3.0
100
AcDbArc
 50
180.0
 51
270.0
  0
ARC
  5
25D
100
AcDbEntity
  8
M1
 62
     7
100
AcDbCircle
 10
210.294745
 20
352.284005
 40
3.0
100
AcDbArc
 50
45.0
 51
90.0
  0
ARC
  5
25E
100
AcDbEntity
  8
M1
 62
     7
100
AcDbCircle
 10
195.537386
 20
352.284005
 40
3.0
100
AcDbArc
 50
90.0
 51
180.0
  0
ARC
  5
25F
100
AcDbEntity
  8
M1
 62
     7
100
AcDbCircle
 10
192.037386
 20
324.484005
 40
1.0
100
AcDbArc
 50
270.0
 51
360.0
  0
LINE
  5
260
100
AcDbEntity
  8
M1
 62
     7
100
AcDbLine
 10
227.637386
 20
295.084006
 11
225.516065
 21
292.962684
  0
LINE
  5
261
100
AcDbEntity
  8
M1
 62
     7
100
AcDbLine
 10
193.037385
 20
315.084005
 11
193.037385
 21
324.484005
  0
LINE
  5
262
100
AcDbEntity
  8
M1
 62
     7
100
AcDbLine
 10
223.394745
 20
292.084005
 11
212.437386
 21
292.084005
  0
LINE
  5
263
100
AcDbEntity
  8
M1
 62
     7
100
AcDbLine
 10
209.437385
 20
342.884005
 11
209.437385
 21
344.484006
  0
LINE
  5
264
100
AcDbEntity
  8
M1
 62
     7
100
AcDbLine
 10
225.516065
 20
346.605326
 11
227.637386
 21
344.484006
  0
LINE
  5
265
100
AcDbEntity
  8
M1
 62
     7
100
AcDbLine
 10
212.437386
 20
347.484004
 11
223.394745
 21
347.484004
  0
LINE
  5
266
100
AcDbEntity
  8
M1
 62
     7
100
AcDbLine
 10
227.637386
 20
344.484006
 11
232.137386
 21
344.484006
  0
LINE
  5
267
100
AcDbEntity
  8
M1
 62
     7
100
AcDbLine
 10
218.037386
 20
321.984005
 11
218.037386
 21
317.584005
  0
LINE
  5
268
100
AcDbEntity
  8
M1
 62
     7
100
AcDbLine
 10
218.537387
 20
317.084005
 11
230.737386
 21
317.084005
  0
LINE
  5
269
100
AcDbEntity
  8
M1
 62
     7
100
AcDbLine
 10
230.737386
 20
322.484005
 11
218.537387
 21
322.484005
  0
LINE
  5
26A
100
AcDbEntity
  8
M1
 62
     7
100
AcDbLine
 10
232.137386
 20
295.284006
 11
227.637386
 21
295.084006
  0
LINE
  5
26B
100
AcDbEntity
  8
M1
 62
     7
100
AcDbLine
 10
232.137386
 20
350.784004
 11
216.037385
 21
350.784004
  0
LINE
  5
26C
100
AcDbEntity
  8
M1
 62
     7
100
AcDbLine
 10
195.537387
 20
284.284004
 11
210.294746
 21
284.284004
  0
LINE
  5
26D
100
AcDbEntity
  8
M1
 62
     7
100
AcDbLine
 10
210.294746
 20
355.284006
 11
195.537387
 21
355.284006
  0
LINE
  5
26E
100
AcDbEntity
  8
M1
 62
     7
100
AcDbLine
 10
216.037385
 20
350.784004
 11
212.416066
 21
354.405326
  0
LINE
  5
26F
100
AcDbEntity
  8
M1
 62
     7
100
AcDbLine
 10
212.416066
 20
285.162684
 11
216.037385
 21
288.784005
  0
LINE
  5
270
100
AcDbEntity
  8
M1
 62
     7
100
AcDbLine
 10
192.037387
 20
323.484005
 11
192.037387
 21
316.084005
  0
LINE
  5
271
100
AcDbEntity
  8
M1
 62
     7
100
AcDbLine
 10
191.537386
 20
323.484005
 11
192.037387
 21
323.484005
  0
LINE
  5
272
100
AcDbEntity
  8
M1
 62
     7
100
AcDbLine
 10
206.437387
 20
299.684006
 11
193.537386
 21
299.684006
  0
LINE
  5
273
100
AcDbEntity
  8
M1
 62
     7
100
AcDbLine
 10
193.537386
 20
339.884004
 11
206.437387
 21
339.884004
  0
LINE
  5
274
100
AcDbEntity
  8
M1
 62
     7
100
AcDbLine
 10
192.037387
 20
316.084005
 11
191.537386
 21
316.084005
  0
LINE
  5
275
100
AcDbEntity
  8
M1
 62
     7
100
AcDbLine
 10
190.537388
 20
302.684004
 11
190.537388
 21
336.884005
  0
ARC
  5
276
100
AcDbEntity
  8
M1
 62
     7
100
AcDbCircle
 10
231.237386
 20
329.384005
 40
0.5
100
AcDbArc
 50
90.0
 51
180.0
  0
ARC
  5
277
100
AcDbEntity
  8
M1
 62
     7
100
AcDbCircle
 10
231.237386
 20
310.184005
 40
0.5
100
AcDbArc
 50
180.0
 51
270.0
  0
LINE
  5
278
100
AcDbEntity
  8
M1
 62
     7
100
AcDbLine
 10
232.137386
 20
288.784005
 11
216.037385
 21
288.784005
  0
LINE
  5
279
100
AcDbEntity
  8
M1
 62
     7
100
AcDbLine
 10
190.537388
 20
331.784005
 11
186.737387
 21
331.784005
  0
LINE
  5
27A
100
AcDbEntity
  8
M1
 62
     7
100
AcDbLine
 10
186.737387
 20
324.384005
 11
190.537388
 21
324.384005
  0
LINE
  5
27B
100
AcDbEntity
  8
M1
 62
     7
100
AcDbLine
 10
188.237386
 20
330.784005
 11
188.237386
 21
324.384005
  0
LINE
  5
27C
100
AcDbEntity
  8
M1
 62
     7
100
AcDbLine
 10
188.237386
 20
325.884005
 11
186.737387
 21
325.884005
  0
LINE
  5
27D
100
AcDbEntity
  8
M1
 62
     7
100
AcDbLine
 10
188.237386
 20
313.284005
 11
186.737387
 21
313.284005
  0
LINE
  5
27E
100
AcDbEntity
  8
M1
 62
     7
100
AcDbLine
 10
221.137386
 20
284.284004
 11
224.137385
 21
284.284004
  0
LINE
  5
27F
100
AcDbEntity
  8
M1
 62
     7
100
AcDbLine
 10
232.137386
 20
284.284004
 11
232.137386
 21
309.684005
  0
LINE
  5
280
100
AcDbEntity
  8
M1
 62
     7
100
AcDbLine
 10
220.137386
 20
288.784005
 11
220.137386
 21
285.284006
  0
LINE
  5
281
100
AcDbEntity
  8
M1
 62
     7
100
AcDbLine
 10
221.137386
 20
284.284004
 11
232.137386
 21
284.284004
  0
LINE
  5
282
100
AcDbEntity
  8
M1
 62
     7
100
AcDbLine
 10
232.137386
 20
309.684005
 11
231.237386
 21
309.684005
  0
LINE
  5
283
100
AcDbEntity
  8
M1
 62
     7
100
AcDbLine
 10
232.137386
 20
299.684006
 11
239.537386
 21
299.684006
  0
LINE
  5
284
100
AcDbEntity
  8
M1
 62
     7
100
AcDbLine
 10
239.537386
 20
304.684005
 11
232.137386
 21
304.684005
  0
LINE
  5
285
100
AcDbEntity
  8
M1
 62
     7
100
AcDbLine
 10
230.737386
 20
329.384005
 11
230.737386
 21
310.184005
  0
LINE
  5
286
100
AcDbEntity
  8
M1
 62
     7
100
AcDbLine
 10
209.437385
 20
295.084006
 11
209.437385
 21
296.684005
  0
LINE
  5
287
100
AcDbEntity
  8
M1
 62
     7
100
AcDbLine
 10
188.237386
 20
330.784005
 11
188.063739
 21
330.957653
  0
LINE
  5
288
100
AcDbEntity
  8
M1
 62
     7
100
AcDbLine
 10
188.063739
 20
330.957653
 11
187.895367
 21
331.126025
  0
LINE
  5
289
100
AcDbEntity
  8
M1
 62
     7
100
AcDbLine
 10
187.895367
 20
331.126025
 11
187.737385
 21
331.284005
  0
LINE
  5
28A
100
AcDbEntity
  8
M1
 62
     7
100
AcDbLine
 10
187.737385
 20
331.284005
 11
187.594598
 21
331.426793
  0
LINE
  5
28B
100
AcDbEntity
  8
M1
 62
     7
100
AcDbLine
 10
187.594598
 20
331.426793
 11
187.47134
 21
331.550049
  0
LINE
  5
28C
100
AcDbEntity
  8
M1
 62
     7
100
AcDbLine
 10
187.47134
 20
331.550049
 11
187.37136
 21
331.650031
  0
LINE
  5
28D
100
AcDbEntity
  8
M1
 62
     7
100
AcDbLine
 10
187.37136
 20
331.650031
 11
187.297693
 21
331.723697
  0
LINE
  5
28E
100
AcDbEntity
  8
M1
 62
     7
100
AcDbLine
 10
187.297693
 20
331.723697
 11
187.252579
 21
331.768812
  0
LINE
  5
28F
100
AcDbEntity
  8
M1
 62
     7
100
AcDbLine
 10
187.252579
 20
331.768812
 11
187.237388
 21
331.784005
  0
LINE
  5
290
100
AcDbEntity
  8
M1
  6
DASHED
 62
     7
100
AcDbLine
 10
206.337386
 20
326.284006
 11
207.537386
 21
326.284006
  0
LINE
  5
291
100
AcDbEntity
  8
M1
  6
DASHED
 62
     7
100
AcDbLine
 10
207.537386
 20
348.784006
 11
206.337386
 21
348.784006
  0
LINE
  5
292
100
AcDbEntity
  8
M1
  6
DASHED
 62
     7
100
AcDbLine
 10
219.587386
 20
301.884006
 11
219.587386
 21
295.884006
  0
LINE
  5
293
100
AcDbEntity
  8
M1
  6
DASHED
 62
     7
100
AcDbLine
 10
217.287386
 20
296.884006
 11
217.287386
 21
300.884006
  0
LINE
  5
294
100
AcDbEntity
  8
M1
  6
DASHED
 62
     7
100
AcDbLine
 10
219.587386
 20
301.734006
 11
220.637386
 21
301.734006
  0
LINE
  5
295
100
AcDbEntity
  8
M1
  6
DASHED
 62
     7
100
AcDbLine
 10
220.637386
 20
296.034006
 11
219.587386
 21
296.034006
  0
LINE
  5
296
100
AcDbEntity
  8
M1
  6
DASHED
 62
     7
100
AcDbLine
 10
221.637386
 20
302.709006
 11
220.637386
 21
302.709006
  0
LINE
  5
297
100
AcDbEntity
  8
M1
  6
DASHED
 62
     7
100
AcDbLine
 10
218.287386
 20
295.884006
 11
219.587386
 21
295.884006
  0
LINE
  5
298
100
AcDbEntity
  8
M1
  6
DASHED
 62
     7
100
AcDbLine
 10
221.637386
 20
295.059006
 11
220.637386
 21
295.059006
  0
LINE
  5
299
100
AcDbEntity
  8
M1
  6
DASHED
 62
     7
100
AcDbLine
 10
228.087386
 20
300.634006
 11
222.637386
 21
300.634006
  0
LINE
  5
29A
100
AcDbEntity
  8
M1
  6
DASHED
 62
     7
100
AcDbLine
 10
220.637386
 20
302.709006
 11
220.637386
 21
295.059006
  0
LINE
  5
29B
100
AcDbEntity
  8
M1
  6
DASHED
 62
     7
100
AcDbLine
 10
222.637386
 20
297.134006
 11
228.087386
 21
297.134006
  0
LINE
  5
29C
100
AcDbEntity
  8
M1
  6
DASHED
 62
     7
100
AcDbLine
 10
228.087386
 20
300.634006
 11
228.087386
 21
297.134006
  0
ARC
  5
29D
100
AcDbEntity
  8
M1
  6
DASHED
 62
     7
100
AcDbCircle
 10
218.287386
 20
300.884006
 40
1.0
100
AcDbArc
 50
90.0
 51
180.0
  0
ARC
  5
29E
100
AcDbEntity
  8
M1
  6
DASHED
 62
     7
100
AcDbCircle
 10
218.287386
 20
296.884006
 40
1.0
100
AcDbArc
 50
180.0
 51
270.0
  0
LINE
  5
29F
100
AcDbEntity
  8
M1
  6
DASHED
 62
     7
100
AcDbLine
 10
218.287386
 20
301.884006
 11
219.587386
 21
301.884006
  0
LINE
  5
2A0
100
AcDbEntity
  8
M1
  6
DASHED
 62
     7
100
AcDbLine
 10
220.637386
 20
300.309006
 11
220.637386
 21
297.459006
  0
LINE
  5
2A1
100
AcDbEntity
  8
M1
  6
DASHED
 62
     7
100
AcDbLine
 10
154.937387
 20
322.083999
 11
154.937387
 21
319.283999
  0
LINE
  5
2A2
100
AcDbEntity
  8
M1
  6
DASHED
 62
     7
100
AcDbLine
 10
154.937387
 20
322.083999
 11
156.537386
 21
322.083999
  0
LINE
  5
2A3
100
AcDbEntity
  8
M1
  6
DASHED
 62
     7
100
AcDbLine
 10
156.537386
 20
319.283999
 11
154.937387
 21
319.283999
  0
LINE
  5
2A4
100
AcDbEntity
  8
M1
  6
DASHED
 62
     7
100
AcDbLine
 10
190.037386
 20
338.483992
 11
180.637386
 21
338.483992
  0
LINE
  5
2A5
100
AcDbEntity
  8
M1
  6
DASHED
 62
     7
100
AcDbLine
 10
190.037387
 20
303.084005
 11
185.237386
 21
303.084005
  0
LINE
  5
2A6
100
AcDbEntity
  8
M1
  6
DASHED
 62
     7
100
AcDbLine
 10
156.537386
 20
301.383999
 11
156.537386
 21
340.183999
  0
ARC
  5
2A7
100
AcDbEntity
  8
M1
  6
DASHED
 62
     7
100
AcDbCircle
 10
160.537386
 20
301.383999
 40
4.0
100
AcDbArc
 50
180.0
 51
270.0
  0
ARC
  5
2A8
100
AcDbEntity
  8
M1
  6
DASHED
 62
     7
100
AcDbCircle
 10
175.637386
 20
302.383999
 40
5.0
100
AcDbArc
 50
270.0
 51
360.0
  0
ARC
  5
2A9
100
AcDbEntity
  8
M1
  6
DASHED
 62
     7
100
AcDbCircle
 10
190.037386
 20
303.584005
 40
0.5
100
AcDbArc
 50
270.0
 51
360.0
  0
ARC
  5
2AA
100
AcDbEntity
  8
M1
  6
DASHED
 62
     7
100
AcDbCircle
 10
160.537386
 20
340.183999
 40
4.0
100
AcDbArc
 50
90.0
 51
180.0
  0
ARC
  5
2AB
100
AcDbEntity
  8
M1
  6
DASHED
 62
     7
100
AcDbCircle
 10
175.637386
 20
339.183999
 40
5.0
100
AcDbArc
 50
0.0
 51
90.0
  0
ARC
  5
2AC
100
AcDbEntity
  8
M1
  6
DASHED
 62
     7
100
AcDbCircle
 10
190.037386
 20
337.983993
 40
0.5
100
AcDbArc
 50
0.0
 51
90.0
  0
LINE
  5
2AD
100
AcDbEntity
  8
M1
  6
DASHED
 62
     7
100
AcDbLine
 10
180.637386
 20
338.483992
 11
180.637386
 21
339.183998
  0
LINE
  5
2AE
100
AcDbEntity
  8
M1
  6
DASHED
 62
     7
100
AcDbLine
 10
175.637386
 20
344.183999
 11
160.537386
 21
344.183999
  0
LINE
  5
2AF
100
AcDbEntity
  8
M1
  6
DASHED
 62
     7
100
AcDbLine
 10
188.437386
 20
338.483992
 11
188.437386
 21
340.483998
  0
LINE
  5
2B0
100
AcDbEntity
  8
M1
  6
DASHED
 62
     7
100
AcDbLine
 10
188.837386
 20
340.483998
 11
189.437388
 21
338.483992
  0
LINE
  5
2B1
100
AcDbEntity
  8
M1
  6
DASHED
 62
     7
100
AcDbLine
 10
188.437386
 20
340.483998
 11
188.837386
 21
340.483998
  0
LINE
  5
2B2
100
AcDbEntity
  8
M1
  6
DASHED
 62
     7
100
AcDbLine
 10
190.037387
 20
303.084005
 11
180.637386
 21
303.084005
  0
LINE
  5
2B3
100
AcDbEntity
  8
M1
  6
DASHED
 62
     7
100
AcDbLine
 10
180.637386
 20
303.084005
 11
180.637386
 21
302.383999
  0
LINE
  5
2B4
100
AcDbEntity
  8
M1
  6
DASHED
 62
     7
100
AcDbLine
 10
175.637386
 20
297.383999
 11
160.537386
 21
297.383999
  0
LINE
  5
2B5
100
AcDbEntity
  8
M1
  6
DIVIDE
 62
     7
100
AcDbLine
 10
296.137385
 20
306.284004
 11
296.137385
 21
302.284004
  0
LINE
  5
2B6
100
AcDbEntity
  8
M1
  6
DIVIDE
 62
     7
100
AcDbLine
 10
295.137385
 20
302.284004
 11
296.137385
 21
302.284004
  0
LINE
  5
2B7
100
AcDbEntity
  8
M1
  6
DIVIDE
 62
     7
100
AcDbLine
 10
301.637385
 20
307.284004
 11
295.137385
 21
307.284004
  0
LINE
  5
2B8
100
AcDbEntity
  8
M1
  6
DIVIDE
 62
     7
100
AcDbLine
 10
302.637385
 20
306.284004
 11
296.137385
 21
306.284004
  0
LINE
  5
2B9
100
AcDbEntity
  8
M1
  6
DIVIDE
 62
     7
100
AcDbLine
 10
302.637385
 20
306.284004
 11
302.637385
 21
333.284004
  0
LINE
  5
2BA
100
AcDbEntity
  8
M1
  6
DIVIDE
 62
     7
100
AcDbLine
 10
301.637385
 20
332.284004
 11
301.637385
 21
307.284004
  0
LINE
  5
2BB
100
AcDbEntity
  8
M1
  6
DIVIDE
 62
     7
100
AcDbLine
 10
301.637385
 20
332.284004
 11
295.137385
 21
332.284004
  0
LINE
  5
2BC
100
AcDbEntity
  8
M1
  6
DIVIDE
 62
     7
100
AcDbLine
 10
302.637385
 20
333.284004
 11
296.137385
 21
333.284004
  0
LINE
  5
2BD
100
AcDbEntity
  8
M1
  6
DIVIDE
 62
     7
100
AcDbLine
 10
296.137385
 20
337.284004
 11
296.137385
 21
333.284004
  0
LINE
  5
2BE
100
AcDbEntity
  8
M1
  6
DIVIDE
 62
     7
100
AcDbLine
 10
296.137385
 20
337.284004
 11
295.137385
 21
337.284004
  0
ARC
  5
2BF
100
AcDbEntity
  8
M1
 62
   154
100
AcDbCircle
 10
64.927074
 20
340.484005
 40
2.5
100
AcDbArc
 50
-23.073918
 51
23.073918
  0
ARC
  5
2C0
100
AcDbEntity
  8
M1
 62
   154
100
AcDbCircle
 10
64.927074
 20
347.484005
 40
2.5
100
AcDbArc
 50
-23.073918
 51
31.332251
  0
ARC
  5
2C1
100
AcDbEntity
  8
M1
 62
   154
100
AcDbCircle
 10
63.227074
 20
363.148783
 40
6.0
100
AcDbArc
 50
180.0
 51
205.629247
  0
ARC
  5
2C2
100
AcDbEntity
  8
M1
 62
   154
100
AcDbCircle
 10
58.627074
 20
349.784005
 40
1.0
100
AcDbArc
 50
270.0
 51
360.0
  0
ARC
  5
2C3
100
AcDbEntity
  8
M1
 62
   154
100
AcDbCircle
 10
66.227074
 20
339.484005
 40
1.0
100
AcDbArc
 50
270.0
 51
360.0
  0
ARC
  5
2C4
100
AcDbEntity
  8
M1
 62
   154
100
AcDbCircle
 10
59.527074
 20
340.484005
 40
2.5
100
AcDbArc
 50
156.926082
 51
203.073918
  0
ARC
  5
2C5
100
AcDbEntity
  8
M1
 62
   154
100
AcDbCircle
 10
59.527074
 20
347.484005
 40
2.5
100
AcDbArc
 50
148.667749
 51
203.073918
  0
ARC
  5
2C6
100
AcDbEntity
  8
M1
 62
   154
100
AcDbCircle
 10
65.827074
 20
349.784005
 40
1.0
100
AcDbArc
 50
180.0
 51
270.0
  0
ARC
  5
2C7
100
AcDbEntity
  8
M1
 62
   154
100
AcDbCircle
 10
70.827074
 20
355.416597
 40
6.0
100
AcDbArc
 50
154.370753
 51
180.0
  0
ARC
  5
2C8
100
AcDbEntity
  8
M1
 62
   154
100
AcDbCircle
 10
58.227074
 20
368.784005
 40
1.0
100
AcDbArc
 50
90.0
 51
180.0
  0
ARC
  5
2C9
100
AcDbEntity
  8
M1
 62
   154
100
AcDbCircle
 10
53.627074
 20
355.416597
 40
6.0
100
AcDbArc
 50
5.428147E-013
 51
25.629247
  0
ARC
  5
2CA
100
AcDbEntity
  8
M1
 62
   154
100
AcDbCircle
 10
61.227074
 20
363.148783
 40
6.0
100
AcDbArc
 50
-25.629247
 51
0.0
  0
ARC
  5
2CB
100
AcDbEntity
  8
M1
 62
   154
100
AcDbCircle
 10
66.227074
 20
368.784005
 40
1.0
100
AcDbArc
 50
0.0
 51
90.0
  0
LINE
  5
2CC
100
AcDbEntity
  8
M1
 62
   154
100
AcDbLine
 10
67.227074
 20
362.460297
 11
67.227074
 21
368.784005
  0
LINE
  5
2CD
100
AcDbEntity
  8
M1
 62
   154
100
AcDbLine
 10
66.227074
 20
338.484005
 11
58.227074
 21
338.484005
  0
LINE
  5
2CE
100
AcDbEntity
  8
M1
 62
   154
100
AcDbLine
 10
67.227074
 20
341.463801
 11
67.227074
 21
346.50421
  0
LINE
  5
2CF
100
AcDbEntity
  8
M1
 62
   154
100
AcDbLine
 10
57.227074
 20
339.484005
 11
57.227074
 21
339.50421
  0
LINE
  5
2D0
100
AcDbEntity
  8
M1
 62
   154
100
AcDbLine
 10
67.06249
 20
348.784005
 11
65.827074
 21
348.784005
  0
LINE
  5
2D1
100
AcDbEntity
  8
M1
 62
   154
100
AcDbLine
 10
57.227074
 20
341.463801
 11
57.227074
 21
346.50421
  0
LINE
  5
2D2
100
AcDbEntity
  8
M1
 62
   154
100
AcDbLine
 10
57.227074
 20
363.148783
 11
57.227074
 21
368.784005
  0
LINE
  5
2D3
100
AcDbEntity
  8
M1
 62
   154
100
AcDbLine
 10
66.227074
 20
369.784005
 11
58.227074
 21
369.784005
  0
LINE
  5
2D4
100
AcDbEntity
  8
M1
 62
   154
100
AcDbLine
 10
59.627074
 20
349.784005
 11
59.627074
 21
355.416597
  0
LINE
  5
2D5
100
AcDbEntity
  8
M1
 62
   154
100
AcDbLine
 10
59.036745
 20
358.011873
 11
57.817403
 21
360.553506
  0
ARC
  5
2D6
100
AcDbEntity
  8
M1
 62
   154
100
AcDbCircle
 10
58.227074
 20
339.484005
 40
1.0
100
AcDbArc
 50
180.0
 51
270.0
  0
LINE
  5
2D7
100
AcDbEntity
  8
M1
 62
   154
100
AcDbLine
 10
57.391658
 20
348.784005
 11
58.627074
 21
348.784005
  0
LINE
  5
2D8
100
AcDbEntity
  8
M1
 62
   154
100
AcDbLine
 10
65.417403
 20
358.011873
 11
66.636745
 21
360.553506
  0
LINE
  5
2D9
100
AcDbEntity
  8
M1
 62
   154
100
AcDbLine
 10
64.827074
 20
349.784005
 11
64.827074
 21
355.416597
  0
LINE
  5
2DA
100
AcDbEntity
  8
M1
 62
   154
100
AcDbLine
 10
67.227074
 20
339.484005
 11
67.227074
 21
339.50421
  0
LINE
  5
2DB
100
AcDbEntity
  8
M1
 62
   154
100
AcDbLine
 10
64.827074
 20
289.784005
 11
64.827074
 21
284.151414
  0
LINE
  5
2DC
100
AcDbEntity
  8
M1
 62
   154
100
AcDbLine
 10
57.227074
 20
298.104209
 11
57.227074
 21
293.063801
  0
ARC
  5
2DD
100
AcDbEntity
  8
M1
 62
   154
100
AcDbCircle
 10
58.627074
 20
289.784005
 40
1.0
100
AcDbArc
 50
0.0
 51
90.0
  0
LINE
  5
2DE
100
AcDbEntity
  8
M1
 62
   154
100
AcDbLine
 10
59.627074
 20
289.784005
 11
59.627074
 21
284.151414
  0
LINE
  5
2DF
100
AcDbEntity
  8
M1
 62
   154
100
AcDbLine
 10
65.417403
 20
281.556138
 11
66.636745
 21
279.014504
  0
LINE
  5
2E0
100
AcDbEntity
  8
M1
 62
   154
100
AcDbLine
 10
59.036745
 20
281.556138
 11
57.817403
 21
279.014504
  0
LINE
  5
2E1
100
AcDbEntity
  8
M1
 62
   154
100
AcDbLine
 10
67.227074
 20
300.084005
 11
67.227074
 21
300.063801
  0
ARC
  5
2E2
100
AcDbEntity
  8
M1
 62
   154
100
AcDbCircle
 10
66.227074
 20
300.084005
 40
1.0
100
AcDbArc
 50
0.0
 51
90.0
  0
ARC
  5
2E3
100
AcDbEntity
  8
M1
 62
   154
100
AcDbCircle
 10
61.227074
 20
276.419228
 40
6.0
100
AcDbArc
 50
1.085629E-012
 51
25.629247
  0
ARC
  5
2E4
100
AcDbEntity
  8
M1
 62
   154
100
AcDbCircle
 10
53.627074
 20
284.151414
 40
6.0
100
AcDbArc
 50
-25.629247
 51
0.0
  0
ARC
  5
2E5
100
AcDbEntity
  8
M1
 62
   154
100
AcDbCircle
 10
70.827074
 20
284.151414
 40
6.0
100
AcDbArc
 50
180.0
 51
205.629247
  0
ARC
  5
2E6
100
AcDbEntity
  8
M1
 62
   154
100
AcDbCircle
 10
66.227074
 20
270.784005
 40
1.0
100
AcDbArc
 50
270.0
 51
360.0
  0
ARC
  5
2E7
100
AcDbEntity
  8
M1
 62
   154
100
AcDbCircle
 10
58.227074
 20
270.784005
 40
1.0
100
AcDbArc
 50
180.0
 51
270.0
  0
ARC
  5
2E8
100
AcDbEntity
  8
M1
 62
   154
100
AcDbCircle
 10
63.227074
 20
276.419228
 40
6.0
100
AcDbArc
 50
154.370753
 51
180.0
  0
ARC
  5
2E9
100
AcDbEntity
  8
M1
 62
   154
100
AcDbCircle
 10
59.527074
 20
299.084005
 40
2.5
100
AcDbArc
 50
156.926082
 51
203.073918
  0
ARC
  5
2EA
100
AcDbEntity
  8
M1
 62
   154
100
AcDbCircle
 10
65.827074
 20
289.784005
 40
1.0
100
AcDbArc
 50
90.0
 51
180.0
  0
LINE
  5
2EB
100
AcDbEntity
  8
M1
 62
   154
100
AcDbLine
 10
67.227074
 20
276.419228
 11
67.227074
 21
270.784005
  0
ARC
  5
2EC
100
AcDbEntity
  8
M1
 62
   154
100
AcDbCircle
 10
64.927074
 20
299.084005
 40
2.5
100
AcDbArc
 50
336.926082
 51
383.073918
  0
ARC
  5
2ED
100
AcDbEntity
  8
M1
 62
   154
100
AcDbCircle
 10
58.227074
 20
300.084005
 40
1.0
100
AcDbArc
 50
90.0
 51
180.0
  0
ARC
  5
2EE
100
AcDbEntity
  8
M1
 62
   154
100
AcDbCircle
 10
59.527074
 20
292.084005
 40
2.5
100
AcDbArc
 50
156.926082
 51
211.332251
  0
LINE
  5
2EF
100
AcDbEntity
  8
M1
 62
   154
100
AcDbLine
 10
57.227074
 20
300.084005
 11
57.227074
 21
300.063801
  0
LINE
  5
2F0
100
AcDbEntity
  8
M1
 62
   154
100
AcDbLine
 10
58.227074
 20
269.784005
 11
66.227074
 21
269.784005
  0
ARC
  5
2F1
100
AcDbEntity
  8
M1
 62
   154
100
AcDbCircle
 10
64.927074
 20
292.084005
 40
2.5
100
AcDbArc
 50
328.667749
 51
383.073918
  0
LINE
  5
2F2
100
AcDbEntity
  8
M1
 62
   154
100
AcDbLine
 10
67.06249
 20
290.784005
 11
65.827074
 21
290.784005
  0
LINE
  5
2F3
100
AcDbEntity
  8
M1
 62
   154
100
AcDbLine
 10
58.227074
 20
301.084005
 11
66.227074
 21
301.084005
  0
LINE
  5
2F4
100
AcDbEntity
  8
M1
 62
   154
100
AcDbLine
 10
57.227074
 20
277.107714
 11
57.227074
 21
270.784005
  0
LINE
  5
2F5
100
AcDbEntity
  8
M1
 62
   154
100
AcDbLine
 10
67.227074
 20
298.104209
 11
67.227074
 21
293.063801
  0
LINE
  5
2F6
100
AcDbEntity
  8
M1
 62
   154
100
AcDbLine
 10
57.391658
 20
290.784005
 11
58.627074
 21
290.784005
  0
LINE
  5
2F7
100
AcDbEntity
  8
M1
 62
   154
100
AcDbLine
 10
44.227077
 20
291.104209
 11
44.227077
 21
285.784005
  0
LINE
  5
2F8
100
AcDbEntity
  8
M1
 62
   154
100
AcDbLine
 10
54.227077
 20
293.063801
 11
54.227077
 21
298.104209
  0
LINE
  5
2F9
100
AcDbEntity
  8
M1
  6
DOT
 62
   154
100
AcDbLine
 10
45.327077
 20
275.458753
 11
45.327077
 21
276.584005
  0
LINE
  5
2FA
100
AcDbEntity
  8
M1
 62
   154
100
AcDbLine
 10
44.227077
 20
300.063801
 11
44.227077
 21
300.084005
  0
LINE
  5
2FB
100
AcDbEntity
  8
M1
 62
   154
100
AcDbLine
 10
45.327077
 20
270.784005
 11
45.327077
 21
275.458753
  0
LINE
  5
2FC
100
AcDbEntity
  8
M1
 62
   154
100
AcDbLine
 10
44.227077
 20
293.063801
 11
44.227077
 21
298.104209
  0
ARC
  5
2FD
100
AcDbEntity
  8
M1
 62
   154
100
AcDbCircle
 10
44.327077
 20
270.784005
 40
1.0
100
AcDbArc
 50
-90.0
 51
0.0
  0
ARC
  5
2FE
100
AcDbEntity
  8
M1
 62
   154
100
AcDbCircle
 10
47.227077
 20
289.054313
 40
4.0
100
AcDbArc
 50
-24.549867
 51
1.628444E-012
  0
ARC
  5
2FF
100
AcDbEntity
  8
M1
 62
   154
100
AcDbCircle
 10
53.227077
 20
288.784005
 40
2.0
100
AcDbArc
 50
90.0
 51
180.0
  0
LINE
  5
300
100
AcDbEntity
  8
M1
 62
   154
100
AcDbLine
 10
54.227077
 20
300.063801
 11
54.227077
 21
300.084005
  0
ARC
  5
301
100
AcDbEntity
  8
M1
 62
   154
100
AcDbCircle
 10
46.527077
 20
292.084005
 40
2.5
100
AcDbArc
 50
156.926082
 51
203.073918
  0
ARC
  5
302
100
AcDbEntity
  8
M1
 62
   154
100
AcDbCircle
 10
53.227077
 20
300.084005
 40
1.0
100
AcDbArc
 50
0.0
 51
90.0
  0
ARC
  5
303
100
AcDbEntity
  8
M1
 62
   154
100
AcDbCircle
 10
30.016969
 20
289.886318
 40
20.0
100
AcDbArc
 50
328.57602
 51
335.450133
  0
LINE
  5
304
100
AcDbEntity
  8
M1
 62
   154
100
AcDbLine
 10
51.227077
 20
288.784005
 11
51.227077
 21
289.054313
  0
ARC
  5
305
100
AcDbEntity
  8
M1
 62
   154
100
AcDbCircle
 10
49.327077
 20
275.458753
 40
4.0
100
AcDbArc
 50
148.57602
 51
180.0
  0
ARC
  5
306
100
AcDbEntity
  8
M1
 62
   154
100
AcDbCircle
 10
46.527077
 20
299.084005
 40
2.5
100
AcDbArc
 50
156.926082
 51
203.073918
  0
ARC
  5
307
100
AcDbEntity
  8
M1
 62
   154
100
AcDbCircle
 10
45.227077
 20
300.084005
 40
1.0
100
AcDbArc
 50
90.0
 51
180.0
  0
LINE
  5
308
100
AcDbEntity
  8
M1
 62
   154
100
AcDbLine
 10
50.865477
 20
287.392373
 11
48.208969
 21
281.576617
  0
LINE
  5
309
100
AcDbEntity
  8
M1
 62
   154
100
AcDbLine
 10
45.913747
 20
277.54422
 11
47.083622
 21
279.458982
  0
ARC
  5
30A
100
AcDbEntity
  8
M1
 62
   154
100
AcDbCircle
 10
51.927077
 20
292.084005
 40
2.5
100
AcDbArc
 50
328.667749
 51
383.073918
  0
LINE
  5
30B
100
AcDbEntity
  8
M1
 62
   154
100
AcDbLine
 10
53.227077
 20
290.784005
 11
54.062493
 21
290.784005
  0
ARC
  5
30C
100
AcDbEntity
  8
M1
 62
   154
100
AcDbCircle
 10
51.927077
 20
299.084005
 40
2.5
100
AcDbArc
 50
336.926082
 51
383.073918
  0
LINE
  5
30D
100
AcDbEntity
  8
M1
  6
DOT
 62
   154
100
AcDbLine
 10
45.327077
 20
276.584005
 11
45.913747
 21
277.54422
  0
LINE
  5
30E
100
AcDbEntity
  8
M1
 62
   154
100
AcDbLine
 10
53.227077
 20
301.084005
 11
45.227077
 21
301.084005
  0
LINE
  5
30F
100
AcDbEntity
  8
M1
  6
DOT
 62
   154
100
AcDbLine
 10
35.327077
 20
277.284005
 11
35.930851
 21
278.254355
  0
LINE
  5
310
100
AcDbEntity
  8
M1
 62
   154
100
AcDbLine
 10
35.327077
 20
270.784005
 11
35.327077
 21
276.141148
  0
LINE
  5
311
100
AcDbEntity
  8
M1
  6
DOT
 62
   154
100
AcDbLine
 10
38.682633
 20
281.784005
 11
38.127077
 21
281.784005
  0
ARC
  5
312
100
AcDbEntity
  8
M1
 62
   154
100
AcDbCircle
 10
39.327077
 20
276.141148
 40
4.0
100
AcDbArc
 50
148.109208
 51
180.0
  0
ARC
  5
313
100
AcDbEntity
  8
M1
 62
   154
100
AcDbCircle
 10
38.682633
 20
280.784005
 40
1.0
100
AcDbArc
 50
90.0
 51
148.109208
  0
LINE
  5
314
100
AcDbEntity
  8
M1
  6
DOT
 62
   154
100
AcDbLine
 10
35.327077
 20
276.141148
 11
35.327077
 21
277.284005
  0
LINE
  5
315
100
AcDbEntity
  8
M1
 62
   154
100
AcDbLine
 10
35.930851
 20
278.254355
 11
37.833576
 21
281.312307
  0
ARC
  5
316
100
AcDbEntity
  8
M1
 62
   154
100
AcDbCircle
 10
40.227077
 20
285.784005
 40
4.0
100
AcDbArc
 50
-90.0
 51
1.628444E-012
  0
ARC
  5
317
100
AcDbEntity
  8
M1
 62
   154
100
AcDbCircle
 10
36.327077
 20
270.784005
 40
1.0
100
AcDbArc
 50
180.0
 51
270.0
  0
LINE
  5
318
100
AcDbEntity
  8
M1
 62
   154
100
AcDbLine
 10
44.327077
 20
269.784005
 11
36.327077
 21
269.784005
  0
LINE
  5
319
100
AcDbEntity
  8
M1
  6
DOT
 62
   154
100
AcDbLine
 10
37.833576
 20
281.312307
 11
38.127077
 21
281.784005
  0
LINE
  5
31A
100
AcDbEntity
  8
M1
 62
   154
100
AcDbLine
 10
40.227077
 20
281.784005
 11
38.682633
 21
281.784005
  0
ARC
  5
31B
100
AcDbEntity
  8
M1
 62
   154
100
AcDbCircle
 10
71.227074
 20
300.084005
 40
1.0
100
AcDbArc
 50
90.0
 51
180.0
  0
ARC
  5
31C
100
AcDbEntity
  8
M1
 62
   154
100
AcDbCircle
 10
77.927074
 20
292.084005
 40
2.5
100
AcDbArc
 50
336.926082
 51
383.073918
  0
ARC
  5
31D
100
AcDbEntity
  8
M1
 62
   154
100
AcDbCircle
 10
75.127074
 20
275.458753
 40
4.0
100
AcDbArc
 50
0.0
 51
31.42398
  0
ARC
  5
31E
100
AcDbEntity
  8
M1
 62
   154
100
AcDbCircle
 10
94.437182
 20
289.886318
 40
20.0
100
AcDbArc
 50
204.549867
 51
211.42398
  0
ARC
  5
31F
100
AcDbEntity
  8
M1
 62
   154
100
AcDbCircle
 10
77.927074
 20
299.084005
 40
2.5
100
AcDbArc
 50
336.926082
 51
383.073918
  0
ARC
  5
320
100
AcDbEntity
  8
M1
 62
   154
100
AcDbCircle
 10
77.227074
 20
289.054313
 40
4.0
100
AcDbArc
 50
180.0
 51
204.549867
  0
ARC
  5
321
100
AcDbEntity
  8
M1
 62
   154
100
AcDbCircle
 10
80.127074
 20
270.784005
 40
1.0
100
AcDbArc
 50
180.0
 51
270.0
  0
ARC
  5
322
100
AcDbEntity
  8
M1
 62
   154
100
AcDbCircle
 10
71.227074
 20
288.784005
 40
2.0
100
AcDbArc
 50
0.0
 51
90.0
  0
LINE
  5
323
100
AcDbEntity
  8
M1
 62
   154
100
AcDbLine
 10
84.227074
 20
281.784005
 11
85.771519
 21
281.784005
  0
LINE
  5
324
100
AcDbEntity
  8
M1
 62
   154
100
AcDbLine
 10
80.127074
 20
269.784005
 11
88.127074
 21
269.784005
  0
ARC
  5
325
100
AcDbEntity
  8
M1
 62
   154
100
AcDbCircle
 10
84.227074
 20
285.784005
 40
4.0
100
AcDbArc
 50
180.0
 51
270.0
  0
LINE
  5
326
100
AcDbEntity
  8
M1
 62
   154
100
AcDbLine
 10
88.523301
 20
278.254355
 11
86.620575
 21
281.312307
  0
ARC
  5
327
100
AcDbEntity
  8
M1
 62
   154
100
AcDbCircle
 10
88.127074
 20
270.784005
 40
1.0
100
AcDbArc
 50
270.0
 51
360.0
  0
ARC
  5
328
100
AcDbEntity
  8
M1
 62
   154
100
AcDbCircle
 10
72.527074
 20
292.084005
 40
2.5
100
AcDbArc
 50
156.926082
 51
211.332251
  0
ARC
  5
329
100
AcDbEntity
  8
M1
 62
   154
100
AcDbCircle
 10
79.227074
 20
300.084005
 40
1.0
100
AcDbArc
 50
0.0
 51
90.0
  0
ARC
  5
32A
100
AcDbEntity
  8
M1
 62
   154
100
AcDbCircle
 10
85.127074
 20
276.141148
 40
4.0
100
AcDbArc
 50
0.0
 51
31.890792
  0
ARC
  5
32B
100
AcDbEntity
  8
M1
 62
   154
100
AcDbCircle
 10
72.527074
 20
299.084005
 40
2.5
100
AcDbArc
 50
156.926082
 51
203.073918
  0
LINE
  5
32C
100
AcDbEntity
  8
M1
 62
   154
100
AcDbLine
 10
70.227074
 20
300.063801
 11
70.227074
 21
300.084005
  0
LINE
  5
32D
100
AcDbEntity
  8
M1
 62
   154
100
AcDbLine
 10
80.227074
 20
293.063801
 11
80.227074
 21
298.104209
  0
LINE
  5
32E
100
AcDbEntity
  8
M1
 62
   154
100
AcDbLine
 10
73.588674
 20
287.392373
 11
76.245182
 21
281.576617
  0
LINE
  5
32F
100
AcDbEntity
  8
M1
 62
   154
100
AcDbLine
 10
73.227074
 20
288.784005
 11
73.227074
 21
289.054313
  0
LINE
  5
330
100
AcDbEntity
  8
M1
 62
   154
100
AcDbLine
 10
78.540405
 20
277.54422
 11
77.370529
 21
279.458982
  0
LINE
  5
331
100
AcDbEntity
  8
M1
 62
   154
100
AcDbLine
 10
70.227074
 20
293.063801
 11
70.227074
 21
298.104209
  0
LINE
  5
332
100
AcDbEntity
  8
M1
 62
   154
100
AcDbLine
 10
80.227074
 20
291.104209
 11
80.227074
 21
285.784005
  0
LINE
  5
333
100
AcDbEntity
  8
M1
 62
   154
100
AcDbLine
 10
80.227074
 20
300.063801
 11
80.227074
 21
300.084005
  0
LINE
  5
334
100
AcDbEntity
  8
M1
  6
DOT
 62
   154
100
AcDbLine
 10
79.127074
 20
275.458753
 11
79.127074
 21
276.584005
  0
LINE
  5
335
100
AcDbEntity
  8
M1
 62
   154
100
AcDbLine
 10
79.127074
 20
270.784005
 11
79.127074
 21
275.458753
  0
LINE
  5
336
100
AcDbEntity
  8
M1
  6
DOT
 62
   154
100
AcDbLine
 10
86.620575
 20
281.312307
 11
86.327074
 21
281.784005
  0
LINE
  5
337
100
AcDbEntity
  8
M1
  6
DOT
 62
   154
100
AcDbLine
 10
85.771519
 20
281.784005
 11
86.327074
 21
281.784005
  0
LINE
  5
338
100
AcDbEntity
  8
M1
  6
DOT
 62
   154
100
AcDbLine
 10
89.127074
 20
276.141148
 11
89.127074
 21
277.284005
  0
ARC
  5
339
100
AcDbEntity
  8
M1
 62
   154
100
AcDbCircle
 10
85.771519
 20
280.784005
 40
1.0
100
AcDbArc
 50
31.890792
 51
90.0
  0
LINE
  5
33A
100
AcDbEntity
  8
M1
  6
DOT
 62
   154
100
AcDbLine
 10
79.127074
 20
276.584005
 11
78.540405
 21
277.54422
  0
LINE
  5
33B
100
AcDbEntity
  8
M1
 62
   154
100
AcDbLine
 10
71.227074
 20
290.784005
 11
70.391658
 21
290.784005
  0
LINE
  5
33C
100
AcDbEntity
  8
M1
  6
DOT
 62
   154
100
AcDbLine
 10
89.127074
 20
277.284005
 11
88.523301
 21
278.254355
  0
LINE
  5
33D
100
AcDbEntity
  8
M1
 62
   154
100
AcDbLine
 10
71.227074
 20
301.084005
 11
79.227074
 21
301.084005
  0
LINE
  5
33E
100
AcDbEntity
  8
M1
 62
   154
100
AcDbLine
 10
89.127074
 20
270.784005
 11
89.127074
 21
276.141148
  0
ARC
  5
33F
100
AcDbEntity
  8
M1
 62
   154
100
AcDbCircle
 10
72.527074
 20
340.484005
 40
2.5
100
AcDbArc
 50
156.926082
 51
203.073918
  0
ARC
  5
340
100
AcDbEntity
  8
M1
 62
   154
100
AcDbCircle
 10
75.127074
 20
364.109258
 40
4.0
100
AcDbArc
 50
-31.42398
 51
0.0
  0
ARC
  5
341
100
AcDbEntity
  8
M1
 62
   154
100
AcDbCircle
 10
71.227074
 20
339.484005
 40
1.0
100
AcDbArc
 50
180.0
 51
270.0
  0
ARC
  5
342
100
AcDbEntity
  8
M1
 62
   154
100
AcDbCircle
 10
94.437182
 20
349.681692
 40
20.0
100
AcDbArc
 50
148.57602
 51
155.450133
  0
ARC
  5
343
100
AcDbEntity
  8
M1
 62
   154
100
AcDbCircle
 10
80.127074
 20
368.784005
 40
1.0
100
AcDbArc
 50
90.0
 51
180.0
  0
ARC
  5
344
100
AcDbEntity
  8
M1
 62
   154
100
AcDbCircle
 10
77.227074
 20
350.513697
 40
4.0
100
AcDbArc
 50
155.450133
 51
180.0
  0
ARC
  5
345
100
AcDbEntity
  8
M1
 62
   154
100
AcDbCircle
 10
71.227074
 20
350.784005
 40
2.0
100
AcDbArc
 50
-90.0
 51
0.0
  0
ARC
  5
346
100
AcDbEntity
  8
M1
 62
   154
100
AcDbCircle
 10
79.227074
 20
339.484005
 40
1.0
100
AcDbArc
 50
-90.0
 51
3.256888E-012
  0
ARC
  5
347
100
AcDbEntity
  8
M1
 62
   154
100
AcDbCircle
 10
77.927074
 20
340.484005
 40
2.5
100
AcDbArc
 50
-23.073918
 51
23.073918
  0
ARC
  5
348
100
AcDbEntity
  8
M1
 62
   154
100
AcDbCircle
 10
77.927074
 20
347.484005
 40
2.5
100
AcDbArc
 50
-23.073918
 51
23.073918
  0
LINE
  5
349
100
AcDbEntity
  8
M1
 62
   154
100
AcDbLine
 10
73.588674
 20
352.175638
 11
76.245182
 21
357.991394
  0
LINE
  5
34A
100
AcDbEntity
  8
M1
 62
   154
100
AcDbLine
 10
78.540405
 20
362.023791
 11
77.370529
 21
360.109029
  0
LINE
  5
34B
100
AcDbEntity
  8
M1
 62
   154
100
AcDbLine
 10
79.127074
 20
368.784005
 11
79.127074
 21
364.109258
  0
LINE
  5
34C
100
AcDbEntity
  8
M1
 62
   154
100
AcDbLine
 10
71.227074
 20
348.784005
 11
70.391658
 21
348.784005
  0
LINE
  5
34D
100
AcDbEntity
  8
M1
 62
   154
100
AcDbLine
 10
73.227074
 20
350.784005
 11
73.227074
 21
350.513697
  0
LINE
  5
34E
100
AcDbEntity
  8
M1
 62
   154
100
AcDbLine
 10
80.227074
 20
348.463801
 11
80.227074
 21
353.784005
  0
LINE
  5
34F
100
AcDbEntity
  8
M1
 62
   154
100
AcDbLine
 10
70.227074
 20
346.50421
 11
70.227074
 21
341.463801
  0
ARC
  5
350
100
AcDbEntity
  8
M1
 62
   154
100
AcDbCircle
 10
72.527074
 20
347.484005
 40
2.5
100
AcDbArc
 50
148.667749
 51
203.073918
  0
LINE
  5
351
100
AcDbEntity
  8
M1
 62
   154
100
AcDbLine
 10
80.227074
 20
339.50421
 11
80.227074
 21
339.484005
  0
LINE
  5
352
100
AcDbEntity
  8
M1
 62
   154
100
AcDbLine
 10
71.227074
 20
338.484005
 11
79.227074
 21
338.484005
  0
LINE
  5
353
100
AcDbEntity
  8
M1
 62
   154
100
AcDbLine
 10
80.227074
 20
346.50421
 11
80.227074
 21
341.463801
  0
LINE
  5
354
100
AcDbEntity
  8
M1
 62
   154
100
AcDbLine
 10
70.227074
 20
339.50421
 11
70.227074
 21
339.484005
  0
LINE
  5
355
100
AcDbEntity
  8
M1
 62
   154
100
AcDbLine
 10
89.127074
 20
368.784005
 11
89.127074
 21
363.426863
  0
LINE
  5
356
100
AcDbEntity
  8
M1
  6
DOT
 62
   154
100
AcDbLine
 10
89.127074
 20
362.284005
 11
88.523301
 21
361.313655
  0
ARC
  5
357
100
AcDbEntity
  8
M1
 62
   154
100
AcDbCircle
 10
85.127074
 20
363.426863
 40
4.0
100
AcDbArc
 50
-31.890792
 51
0.0
  0
ARC
  5
358
100
AcDbEntity
  8
M1
 62
   154
100
AcDbCircle
 10
85.771519
 20
358.784005
 40
1.0
100
AcDbArc
 50
270.0
 51
328.109208
  0
ARC
  5
359
100
AcDbEntity
  8
M1
 62
   154
100
AcDbCircle
 10
88.127074
 20
368.784005
 40
1.0
100
AcDbArc
 50
0.0
 51
90.0
  0
LINE
  5
35A
100
AcDbEntity
  8
M1
 62
   154
100
AcDbLine
 10
84.227074
 20
357.784005
 11
85.771519
 21
357.784005
  0
LINE
  5
35B
100
AcDbEntity
  8
M1
 62
   154
100
AcDbLine
 10
88.523301
 20
361.313655
 11
86.620575
 21
358.255704
  0
LINE
  5
35C
100
AcDbEntity
  8
M1
  6
DOT
 62
   154
100
AcDbLine
 10
89.127074
 20
363.426863
 11
89.127074
 21
362.284005
  0
LINE
  5
35D
100
AcDbEntity
  8
M1
  6
DOT
 62
   154
100
AcDbLine
 10
85.771519
 20
357.784005
 11
86.327074
 21
357.784005
  0
LINE
  5
35E
100
AcDbEntity
  8
M1
  6
DOT
 62
   154
100
AcDbLine
 10
86.620575
 20
358.255704
 11
86.327074
 21
357.784005
  0
LINE
  5
35F
100
AcDbEntity
  8
M1
 62
   154
100
AcDbLine
 10
80.127074
 20
369.784005
 11
88.127074
 21
369.784005
  0
ARC
  5
360
100
AcDbEntity
  8
M1
 62
   154
100
AcDbCircle
 10
84.227074
 20
353.784005
 40
4.0
100
AcDbArc
 50
90.0
 51
180.0
  0
ARC
  5
361
100
AcDbEntity
  8
M1
 62
   154
100
AcDbCircle
 10
49.327077
 20
364.109258
 40
4.0
100
AcDbArc
 50
180.0
 51
211.42398
  0
ARC
  5
362
100
AcDbEntity
  8
M1
 62
   154
100
AcDbCircle
 10
51.927077
 20
347.484005
 40
2.5
100
AcDbArc
 50
-23.073918
 51
31.332251
  0
ARC
  5
363
100
AcDbEntity
  8
M1
 62
   154
100
AcDbCircle
 10
51.927077
 20
340.484005
 40
2.5
100
AcDbArc
 50
-23.073918
 51
23.073918
  0
ARC
  5
364
100
AcDbEntity
  8
M1
 62
   154
100
AcDbCircle
 10
53.227077
 20
339.484005
 40
1.0
100
AcDbArc
 50
270.0
 51
360.0
  0
ARC
  5
365
100
AcDbEntity
  8
M1
 62
   154
100
AcDbCircle
 10
53.227077
 20
350.784005
 40
2.0
100
AcDbArc
 50
180.0
 51
270.0
  0
ARC
  5
366
100
AcDbEntity
  8
M1
 62
   154
100
AcDbCircle
 10
46.527077
 20
340.484005
 40
2.5
100
AcDbArc
 50
156.926082
 51
203.073918
  0
LINE
  5
367
100
AcDbEntity
  8
M1
 62
   154
100
AcDbLine
 10
51.227077
 20
350.784005
 11
51.227077
 21
350.513697
  0
LINE
  5
368
100
AcDbEntity
  8
M1
 62
   154
100
AcDbLine
 10
45.913747
 20
362.023791
 11
47.083622
 21
360.109029
  0
ARC
  5
369
100
AcDbEntity
  8
M1
 62
   154
100
AcDbCircle
 10
47.227077
 20
350.513697
 40
4.0
100
AcDbArc
 50
0.0
 51
24.549867
  0
ARC
  5
36A
100
AcDbEntity
  8
M1
 62
   154
100
AcDbCircle
 10
30.016969
 20
349.681692
 40
20.0
100
AcDbArc
 50
24.549867
 51
31.42398
  0
ARC
  5
36B
100
AcDbEntity
  8
M1
 62
   154
100
AcDbCircle
 10
45.227077
 20
339.484005
 40
1.0
100
AcDbArc
 50
180.0
 51
270.0
  0
LINE
  5
36C
100
AcDbEntity
  8
M1
 62
   154
100
AcDbLine
 10
53.227077
 20
348.784005
 11
54.062493
 21
348.784005
  0
LINE
  5
36D
100
AcDbEntity
  8
M1
 62
   154
100
AcDbLine
 10
44.227077
 20
346.50421
 11
44.227077
 21
341.463801
  0
LINE
  5
36E
100
AcDbEntity
  8
M1
 62
   154
100
AcDbLine
 10
54.227077
 20
346.50421
 11
54.227077
 21
341.463801
  0
LINE
  5
36F
100
AcDbEntity
  8
M1
 62
   154
100
AcDbLine
 10
50.865477
 20
352.175638
 11
48.208969
 21
357.991394
  0
LINE
  5
370
100
AcDbEntity
  8
M1
 62
   154
100
AcDbLine
 10
44.227077
 20
339.50421
 11
44.227077
 21
339.484005
  0
LINE
  5
371
100
AcDbEntity
  8
M1
 62
   154
100
AcDbLine
 10
54.227077
 20
339.50421
 11
54.227077
 21
339.484005
  0
LINE
  5
372
100
AcDbEntity
  8
M1
  6
DOT
 62
   154
100
AcDbLine
 10
45.327077
 20
362.984005
 11
45.913747
 21
362.023791
  0
ARC
  5
373
100
AcDbEntity
  8
M1
 62
   154
100
AcDbCircle
 10
46.527077
 20
347.484005
 40
2.5
100
AcDbArc
 50
156.926082
 51
203.073918
  0
LINE
  5
374
100
AcDbEntity
  8
M1
 62
   154
100
AcDbLine
 10
53.227077
 20
338.484005
 11
45.227077
 21
338.484005
  0
LINE
  5
375
100
AcDbEntity
  8
M1
 62
   154
100
AcDbLine
 10
45.327077
 20
368.784005
 11
45.327077
 21
364.109258
  0
LINE
  5
376
100
AcDbEntity
  8
M1
 62
   154
100
AcDbLine
 10
44.227077
 20
348.463801
 11
44.227077
 21
353.784005
  0
ARC
  5
377
100
AcDbEntity
  8
M1
 62
   154
100
AcDbCircle
 10
44.327077
 20
368.784005
 40
1.0
100
AcDbArc
 50
0.0
 51
90.0
  0
LINE
  5
378
100
AcDbEntity
  8
M1
  6
DOT
 62
   154
100
AcDbLine
 10
45.327077
 20
364.109258
 11
45.327077
 21
362.984005
  0
LINE
  5
379
100
AcDbEntity
  8
M1
 62
   154
100
AcDbLine
 10
35.930851
 20
361.313655
 11
37.833576
 21
358.255704
  0
ARC
  5
37A
100
AcDbEntity
  8
M1
 62
   154
100
AcDbCircle
 10
36.327077
 20
368.784005
 40
1.0
100
AcDbArc
 50
90.0
 51
180.0
  0
ARC
  5
37B
100
AcDbEntity
  8
M1
 62
   154
100
AcDbCircle
 10
38.682633
 20
358.784005
 40
1.0
100
AcDbArc
 50
211.890792
 51
270.0
  0
LINE
  5
37C
100
AcDbEntity
  8
M1
  6
DOT
 62
   154
100
AcDbLine
 10
35.327077
 20
363.426863
 11
35.327077
 21
362.284005
  0
LINE
  5
37D
100
AcDbEntity
  8
M1
  6
DOT
 62
   154
100
AcDbLine
 10
38.682633
 20
357.784005
 11
38.127077
 21
357.784005
  0
LINE
  5
37E
100
AcDbEntity
  8
M1
 62
   154
100
AcDbLine
 10
40.227077
 20
357.784005
 11
38.682633
 21
357.784005
  0
ARC
  5
37F
100
AcDbEntity
  8
M1
 62
   154
100
AcDbCircle
 10
40.227077
 20
353.784005
 40
4.0
100
AcDbArc
 50
0.0
 51
90.0
  0
LINE
  5
380
100
AcDbEntity
  8
M1
  6
DOT
 62
   154
100
AcDbLine
 10
35.327077
 20
362.284005
 11
35.930851
 21
361.313655
  0
LINE
  5
381
100
AcDbEntity
  8
M1
 62
   154
100
AcDbLine
 10
44.327077
 20
369.784005
 11
36.327077
 21
369.784005
  0
LINE
  5
382
100
AcDbEntity
  8
M1
  6
DOT
 62
   154
100
AcDbLine
 10
37.833576
 20
358.255704
 11
38.127077
 21
357.784005
  0
ARC
  5
383
100
AcDbEntity
  8
M1
 62
   154
100
AcDbCircle
 10
39.327077
 20
363.426863
 40
4.0
100
AcDbArc
 50
180.0
 51
211.890792
  0
LINE
  5
384
100
AcDbEntity
  8
M1
 62
   154
100
AcDbLine
 10
35.327077
 20
368.784005
 11
35.327077
 21
363.426863
  0
CIRCLE
  5
385
100
AcDbEntity
  8
M1
 62
     7
100
AcDbCircle
 10
84.127105
 20
363.784005
 40
5.0
  0
CIRCLE
  5
386
100
AcDbEntity
  8
M1
 62
     7
100
AcDbCircle
 10
84.127105
 20
363.784005
 40
4.499996
  0
LINE
  5
387
100
AcDbEntity
  8
M1
 62
     7
100
AcDbLine
 10
82.058151
 20
365.852914
 11
86.321121
 21
361.589975
  0
LINE
  5
388
100
AcDbEntity
  8
M1
 62
     7
100
AcDbLine
 10
84.594009
 20
365.66514
 11
82.246032
 21
363.317148
  0
LINE
  5
389
100
AcDbEntity
  8
M1
 62
     7
100
AcDbLine
 10
86.008209
 20
364.250924
 11
83.660232
 21
361.902932
  0
LINE
  5
38A
100
AcDbEntity
  8
M1
  6
DASHDOT
 62
     7
100
AcDbLine
 10
83.627105
 20
363.784005
 11
84.627105
 21
363.784005
  0
LINE
  5
38B
100
AcDbEntity
  8
M1
  6
DASHDOT
 62
     7
100
AcDbLine
 10
84.127105
 20
363.284005
 11
84.127105
 21
364.284005
  0
CIRCLE
  5
38C
100
AcDbEntity
  8
M1
 62
     7
100
AcDbCircle
 10
40.327108
 20
363.784005
 40
5.0
  0
CIRCLE
  5
38D
100
AcDbEntity
  8
M1
 62
     7
100
AcDbCircle
 10
40.327108
 20
363.784005
 40
4.499996
  0
LINE
  5
38E
100
AcDbEntity
  8
M1
 62
     7
100
AcDbLine
 10
38.258154
 20
365.852914
 11
42.521124
 21
361.589975
  0
LINE
  5
38F
100
AcDbEntity
  8
M1
 62
     7
100
AcDbLine
 10
40.794012
 20
365.66514
 11
38.446035
 21
363.317148
  0
LINE
  5
390
100
AcDbEntity
  8
M1
 62
     7
100
AcDbLine
 10
42.208212
 20
364.250924
 11
39.860235
 21
361.902932
  0
LINE
  5
391
100
AcDbEntity
  8
M1
  6
DASHDOT
 62
     7
100
AcDbLine
 10
39.827108
 20
363.784005
 11
40.827108
 21
363.784005
  0
LINE
  5
392
100
AcDbEntity
  8
M1
  6
DASHDOT
 62
     7
100
AcDbLine
 10
40.327108
 20
363.284005
 11
40.327108
 21
364.284005
  0
CIRCLE
  5
393
100
AcDbEntity
  8
M1
 62
     7
100
AcDbCircle
 10
62.227105
 20
363.784005
 40
5.0
  0
CIRCLE
  5
394
100
AcDbEntity
  8
M1
 62
     7
100
AcDbCircle
 10
62.227105
 20
363.784005
 40
4.499996
  0
LINE
  5
395
100
AcDbEntity
  8
M1
 62
     7
100
AcDbLine
 10
60.15815
 20
365.852914
 11
64.42112
 21
361.589975
  0
LINE
  5
396
100
AcDbEntity
  8
M1
 62
     7
100
AcDbLine
 10
62.694009
 20
365.66514
 11
60.346032
 21
363.317148
  0
LINE
  5
397
100
AcDbEntity
  8
M1
 62
     7
100
AcDbLine
 10
64.108208
 20
364.250924
 11
61.760232
 21
361.902932
  0
LINE
  5
398
100
AcDbEntity
  8
M1
  6
DASHDOT
 62
     7
100
AcDbLine
 10
61.727105
 20
363.784005
 11
62.727105
 21
363.784005
  0
LINE
  5
399
100
AcDbEntity
  8
M1
  6
DASHDOT
 62
     7
100
AcDbLine
 10
62.227105
 20
363.284005
 11
62.227105
 21
364.284005
  0
CIRCLE
  5
39A
100
AcDbEntity
  8
M1
 62
     7
100
AcDbCircle
 10
62.227105
 20
275.784005
 40
5.0
  0
CIRCLE
  5
39B
100
AcDbEntity
  8
M1
 62
     7
100
AcDbCircle
 10
62.227105
 20
275.784005
 40
4.499996
  0
LINE
  5
39C
100
AcDbEntity
  8
M1
 62
     7
100
AcDbLine
 10
60.15815
 20
277.852914
 11
64.42112
 21
273.589974
  0
LINE
  5
39D
100
AcDbEntity
  8
M1
 62
     7
100
AcDbLine
 10
62.694009
 20
277.665139
 11
60.346032
 21
275.317147
  0
LINE
  5
39E
100
AcDbEntity
  8
M1
 62
     7
100
AcDbLine
 10
64.108208
 20
276.250924
 11
61.760232
 21
273.902932
  0
LINE
  5
39F
100
AcDbEntity
  8
M1
  6
DASHDOT
 62
     7
100
AcDbLine
 10
61.727105
 20
275.784005
 11
62.727105
 21
275.784005
  0
LINE
  5
3A0
100
AcDbEntity
  8
M1
  6
DASHDOT
 62
     7
100
AcDbLine
 10
62.227105
 20
275.284005
 11
62.227105
 21
276.284005
  0
LINE
  5
3A1
100
AcDbEntity
  8
M1
 62
     7
100
AcDbLine
 10
38.258154
 20
277.852914
 11
42.521124
 21
273.589974
  0
LINE
  5
3A2
100
AcDbEntity
  8
M1
 62
     7
100
AcDbLine
 10
40.794012
 20
277.665139
 11
38.446035
 21
275.317147
  0
LINE
  5
3A3
100
AcDbEntity
  8
M1
 62
     7
100
AcDbLine
 10
42.208212
 20
276.250924
 11
39.860235
 21
273.902932
  0
LINE
  5
3A4
100
AcDbEntity
  8
M1
  6
DASHDOT
 62
     7
100
AcDbLine
 10
39.827108
 20
275.784005
 11
40.827108
 21
275.784005
  0
LINE
  5
3A5
100
AcDbEntity
  8
M1
  6
DASHDOT
 62
     7
100
AcDbLine
 10
40.327108
 20
275.284005
 11
40.327108
 21
276.284005
  0
CIRCLE
  5
3A6
100
AcDbEntity
  8
M1
 62
     7
100
AcDbCircle
 10
84.127105
 20
275.784005
 40
5.0
  0
CIRCLE
  5
3A7
100
AcDbEntity
  8
M1
 62
     7
100
AcDbCircle
 10
84.127105
 20
275.784005
 40
4.499996
  0
LINE
  5
3A8
100
AcDbEntity
  8
M1
 62
     7
100
AcDbLine
 10
82.058151
 20
277.852914
 11
86.321121
 21
273.589974
  0
LINE
  5
3A9
100
AcDbEntity
  8
M1
 62
     7
100
AcDbLine
 10
84.594009
 20
277.665139
 11
82.246032
 21
275.317147
  0
LINE
  5
3AA
100
AcDbEntity
  8
M1
 62
     7
100
AcDbLine
 10
86.008209
 20
276.250924
 11
83.660232
 21
273.902932
  0
LINE
  5
3AB
100
AcDbEntity
  8
M1
  6
DASHDOT
 62
     7
100
AcDbLine
 10
83.627105
 20
275.784005
 11
84.627105
 21
275.784005
  0
LINE
  5
3AC
100
AcDbEntity
  8
M1
  6
DASHDOT
 62
     7
100
AcDbLine
 10
84.127105
 20
275.284005
 11
84.127105
 21
276.284005
  0
LINE
  5
3AD
100
AcDbEntity
  8
M1
 62
     7
100
AcDbLine
 10
214.037386
 20
361.784445
 11
206.337386
 21
361.784445
  0
LINE
  5
3AE
100
AcDbEntity
  8
M1
 62
     7
100
AcDbLine
 10
214.037404
 20
365.784381
 11
206.337404
 21
365.784092
  0
LINE
  5
3AF
100
AcDbEntity
  8
M1
 62
     7
100
AcDbLine
 10
203.037386
 20
368.783968
 11
204.037386
 21
368.784005
  0
LINE
  5
3B0
100
AcDbEntity
  8
M1
 62
     7
100
AcDbLine
 10
206.337386
 20
361.284445
 11
214.037386
 21
361.284445
  0
LINE
  5
3B1
100
AcDbEntity
  8
M1
 62
     7
100
AcDbLine
 10
203.037386
 20
368.284674
 11
201.737337
 21
368.284674
  0
LINE
  5
3B2
100
AcDbEntity
  8
M1
 62
     7
100
AcDbLine
 10
198.437425
 20
366.529837
 11
198.437425
 21
361.039511
  0
LINE
  5
3B3
100
AcDbEntity
  8
M1
 62
     7
100
AcDbLine
 10
214.037386
 20
366.284381
 11
206.337386
 21
366.284092
  0
LINE
  5
3B4
100
AcDbEntity
  8
M1
 62
     7
100
AcDbLine
 10
204.037386
 20
369.784005
 11
206.337386
 21
369.784005
  0
LINE
  5
3B5
100
AcDbEntity
  8
M1
 62
     7
100
AcDbLine
 10
214.037386
 20
361.284445
 11
214.037386
 21
366.284381
  0
LINE
  5
3B6
100
AcDbEntity
  8
M1
 62
     7
100
AcDbLine
 10
199.897737
 20
368.123755
 11
201.737337
 21
368.284689
  0
ARC
  5
3B7
100
AcDbEntity
  8
M1
 62
     7
100
AcDbCircle
 10
200.037386
 20
366.529837
 40
1.599998
100
AcDbArc
 50
95.007035
 51
179.999966
  0
LINE
  5
3B8
100
AcDbEntity
  8
M1
 62
     7
100
AcDbLine
 10
199.897737
 20
359.445608
 11
201.737337
 21
359.284689
  0
LINE
  5
3B9
100
AcDbEntity
  8
M1
 62
     7
100
AcDbLine
 10
201.737337
 20
359.284674
 11
203.037386
 21
359.284674
  0
LINE
  5
3BA
100
AcDbEntity
  8
M1
 62
     7
100
AcDbLine
 10
203.037386
 20
368.783968
 11
203.037386
 21
358.783968
  0
ARC
  5
3BB
100
AcDbEntity
  8
M1
 62
     7
100
AcDbCircle
 10
200.037386
 20
361.039511
 40
1.599998
100
AcDbArc
 50
179.999966
 51
264.99283
  0
LINE
  5
3BC
100
AcDbEntity
  8
M1
 62
     7
100
AcDbLine
 10
201.737337
 20
359.284689
 11
201.737337
 21
368.284689
  0
LINE
  5
3BD
100
AcDbEntity
  8
M1
 62
     7
100
AcDbLine
 10
204.037386
 20
358.784005
 11
204.037386
 21
368.784005
  0
LINE
  5
3BE
100
AcDbEntity
  8
M1
 62
     7
100
AcDbLine
 10
203.037386
 20
358.783968
 11
204.037386
 21
358.784005
  0
LINE
  5
3BF
100
AcDbEntity
  8
M1
 62
     7
100
AcDbLine
 10
206.337386
 20
355.284006
 11
206.337386
 21
369.784005
  0
LINE
  5
3C0
100
AcDbEntity
  8
M1
 62
     7
100
AcDbLine
 10
204.037386
 20
369.784005
 11
204.037386
 21
355.284006
  0
LINE
  5
3C1
100
AcDbEntity
  8
M1
 62
     7
100
AcDbLine
 10
214.037404
 20
273.783629
 11
206.337404
 21
273.783919
  0
LINE
  5
3C2
100
AcDbEntity
  8
M1
 62
     7
100
AcDbLine
 10
206.337386
 20
277.783566
 11
214.037386
 21
277.783566
  0
LINE
  5
3C3
100
AcDbEntity
  8
M1
 62
     7
100
AcDbLine
 10
201.737337
 20
280.283321
 11
201.737337
 21
271.283321
  0
LINE
  5
3C4
100
AcDbEntity
  8
M1
 62
     7
100
AcDbLine
 10
199.897737
 20
280.122402
 11
201.737337
 21
280.283321
  0
LINE
  5
3C5
100
AcDbEntity
  8
M1
 62
     7
100
AcDbLine
 10
204.037386
 20
280.784005
 11
204.037386
 21
270.784005
  0
LINE
  5
3C6
100
AcDbEntity
  8
M1
 62
     7
100
AcDbLine
 10
203.037386
 20
270.784043
 11
203.037386
 21
280.784043
  0
ARC
  5
3C7
100
AcDbEntity
  8
M1
 62
     7
100
AcDbCircle
 10
200.037386
 20
273.038174
 40
1.599998
100
AcDbArc
 50
180.000034
 51
264.992965
  0
ARC
  5
3C8
100
AcDbEntity
  8
M1
 62
     7
100
AcDbCircle
 10
200.037386
 20
278.5285
 40
1.599998
100
AcDbArc
 50
95.00717
 51
180.000034
  0
LINE
  5
3C9
100
AcDbEntity
  8
M1
 62
     7
100
AcDbLine
 10
201.737337
 20
280.283337
 11
203.037386
 21
280.283337
  0
LINE
  5
3CA
100
AcDbEntity
  8
M1
 62
     7
100
AcDbLine
 10
203.037386
 20
280.784043
 11
204.037386
 21
280.784005
  0
LINE
  5
3CB
100
AcDbEntity
  8
M1
 62
     7
100
AcDbLine
 10
199.897737
 20
271.444256
 11
201.737337
 21
271.283321
  0
LINE
  5
3CC
100
AcDbEntity
  8
M1
 62
     7
100
AcDbLine
 10
214.037386
 20
278.283566
 11
214.037386
 21
273.283629
  0
LINE
  5
3CD
100
AcDbEntity
  8
M1
 62
     7
100
AcDbLine
 10
204.037386
 20
269.784005
 11
206.337386
 21
269.784005
  0
LINE
  5
3CE
100
AcDbEntity
  8
M1
 62
     7
100
AcDbLine
 10
214.037386
 20
273.283629
 11
206.337386
 21
273.283919
  0
LINE
  5
3CF
100
AcDbEntity
  8
M1
 62
     7
100
AcDbLine
 10
198.437425
 20
273.038174
 11
198.437425
 21
278.5285
  0
LINE
  5
3D0
100
AcDbEntity
  8
M1
 62
     7
100
AcDbLine
 10
203.037386
 20
271.283337
 11
201.737337
 21
271.283337
  0
LINE
  5
3D1
100
AcDbEntity
  8
M1
 62
     7
100
AcDbLine
 10
206.337386
 20
278.283566
 11
214.037386
 21
278.283566
  0
LINE
  5
3D2
100
AcDbEntity
  8
M1
 62
     7
100
AcDbLine
 10
203.037386
 20
270.784043
 11
204.037386
 21
270.784005
  0
LINE
  5
3D3
100
AcDbEntity
  8
M1
 62
     7
100
AcDbLine
 10
206.337386
 20
284.284004
 11
206.337386
 21
269.784005
  0
LINE
  5
3D4
100
AcDbEntity
  8
M1
 62
     7
100
AcDbLine
 10
204.037386
 20
269.784005
 11
204.037386
 21
284.284004
  0
LINE
  5
3D5
100
AcDbEntity
  8
M1
  6
DIVIDE
 62
     7
100
AcDbLine
 10
36.727074
 20
175.58818
 11
36.727074
 21
190.088177
  0
LINE
  5
3D6
100
AcDbEntity
  8
M1
  6
DIVIDE
 62
     7
100
AcDbLine
 10
87.727074
 20
175.58818
 11
87.727074
 21
190.088177
  0
LINE
  5
3D7
100
AcDbEntity
  8
M1
  6
DIVIDE
 62
     7
100
AcDbLine
 10
87.727074
 20
190.088177
 11
36.727074
 21
190.088177
  0
LINE
  5
3D8
100
AcDbEntity
  8
M1
  6
DIVIDE
 62
     7
100
AcDbLine
 10
87.727074
 20
90.088177
 11
87.727074
 21
104.588177
  0
LINE
  5
3D9
100
AcDbEntity
  8
M1
  6
DIVIDE
 62
     7
100
AcDbLine
 10
36.727074
 20
90.088177
 11
87.727074
 21
90.088177
  0
LINE
  5
3DA
100
AcDbEntity
  8
M1
  6
DIVIDE
 62
     7
100
AcDbLine
 10
36.727074
 20
90.088177
 11
36.727074
 21
104.588177
  0
CIRCLE
  5
3DB
100
AcDbEntity
  8
M1
 62
     7
100
AcDbCircle
 10
40.327077
 20
275.784036
 40
5.0
  0
CIRCLE
  5
3DC
100
AcDbEntity
  8
M1
 62
     7
100
AcDbCircle
 10
40.327077
 20
275.784036
 40
4.499996
  0
LINE
  5
3DD
100
AcDbEntity
  8
M1
  6
DIVIDE
 62
     7
100
AcDbLine
 10
30.827077
 20
104.588177
 11
36.727074
 21
104.588177
  0
LINE
  5
3DE
100
AcDbEntity
  8
M1
  6
DIVIDE
 62
     7
100
AcDbLine
 10
30.827077
 20
175.58818
 11
30.827077
 21
104.588177
  0
LINE
  5
3DF
100
AcDbEntity
  8
M1
  6
DIVIDE
 62
     7
100
AcDbLine
 10
36.727074
 20
175.58818
 11
30.827077
 21
175.58818
  0
LINE
  5
3E0
100
AcDbEntity
  8
M1
  6
DASHDOT
 62
     7
100
AcDbLine
 10
39.324479
 20
170.088179
 11
31.12967
 21
170.088179
  0
LINE
  5
3E1
100
AcDbEntity
  8
M1
  6
DASHDOT
 62
     7
100
AcDbLine
 10
35.227067
 20
174.185576
 11
35.227082
 21
165.990767
  0
LINE
  5
3E2
100
AcDbEntity
  8
M1
  6
DASHDOT
 62
     7
100
AcDbLine
 10
93.324479
 20
111.088179
 11
85.12967
 21
111.088179
  0
LINE
  5
3E3
100
AcDbEntity
  8
M1
  6
DASHDOT
 62
     7
100
AcDbLine
 10
89.227067
 20
115.185576
 11
89.227082
 21
105.990767
  0
LINE
  5
3E4
100
AcDbEntity
  8
M1
  6
DIVIDE
 62
     7
100
AcDbLine
 10
93.627071
 20
104.588177
 11
87.727074
 21
104.588177
  0
LINE
  5
3E5
100
AcDbEntity
  8
M1
  6
DIVIDE
 62
     7
100
AcDbLine
 10
87.727074
 20
175.58818
 11
93.627071
 21
175.58818
  0
LINE
  5
3E6
100
AcDbEntity
  8
M1
  6
DIVIDE
 62
     7
100
AcDbLine
 10
93.627071
 20
175.58818
 11
93.627071
 21
104.588177
  0
CIRCLE
  5
3E7
100
AcDbEntity
  8
M1
 62
     7
100
AcDbCircle
 10
89.227074
 20
111.088179
 40
2.0
  0
CIRCLE
  5
3E8
100
AcDbEntity
  8
M1
 62
     7
100
AcDbCircle
 10
35.227074
 20
170.088179
 40
2.0
  0
CIRCLE
  5
3E9
100
AcDbEntity
  8
M1
 62
     7
100
AcDbCircle
 10
35.227074
 20
170.088171
 40
1.7
  0
CIRCLE
  5
3EA
100
AcDbEntity
  8
M1
 62
     7
100
AcDbCircle
 10
89.227074
 20
111.088179
 40
1.7
  0
LINE
  5
3EB
100
AcDbEntity
  8
M1
 62
     7
100
AcDbLine
 10
41.527077
 20
289.284005
 11
39.727077
 21
289.284005
  0
LINE
  5
3EC
100
AcDbEntity
  8
M1
 62
     7
100
AcDbLine
 10
39.727077
 20
290.284005
 11
41.527077
 21
290.284005
  0
ARC
  5
3ED
100
AcDbEntity
  8
M1
 62
     7
100
AcDbCircle
 10
85.227077
 20
285.284005
 40
1.0
100
AcDbArc
 50
270.0
 51
360.0
  0
LINE
  5
3EE
100
AcDbEntity
  8
M1
 62
     7
100
AcDbLine
 10
38.227077
 20
285.284005
 11
38.227077
 21
294.084006
  0
ARC
  5
3EF
100
AcDbEntity
  8
M1
 62
     7
100
AcDbCircle
 10
39.227077
 20
285.284005
 40
1.0
100
AcDbArc
 50
180.0
 51
270.0
  0
LINE
  5
3F0
100
AcDbEntity
  8
M1
 62
     7
100
AcDbLine
 10
84.727077
 20
289.284005
 11
82.927077
 21
289.284005
  0
LINE
  5
3F1
100
AcDbEntity
  8
M1
 62
     7
100
AcDbLine
 10
86.227077
 20
294.084006
 11
86.227077
 21
285.284005
  0
LINE
  5
3F2
100
AcDbEntity
  8
M1
 62
     7
100
AcDbLine
 10
84.727077
 20
294.084006
 11
84.727077
 21
289.284005
  0
LINE
  5
3F3
100
AcDbEntity
  8
M1
 62
     7
100
AcDbLine
 10
82.927077
 20
290.284005
 11
84.727077
 21
290.284005
  0
LINE
  5
3F4
100
AcDbEntity
  8
M1
 62
     7
100
AcDbLine
 10
39.727077
 20
289.284005
 11
39.727077
 21
294.084006
  0
ARC
  5
3F5
100
AcDbEntity
  8
M1
 62
     7
100
AcDbCircle
 10
57.227077
 20
286.284005
 40
2.0
100
AcDbArc
 50
247.42065
 51
270.0
  0
ARC
  5
3F6
100
AcDbEntity
  8
M1
 62
     7
100
AcDbCircle
 10
43.727077
 20
288.784005
 40
4.5
100
AcDbArc
 50
270.0
 51
272.675797
  0
ARC
  5
3F7
100
AcDbEntity
  8
M1
 62
     7
100
AcDbCircle
 10
88.627077
 20
349.784005
 40
5.0
100
AcDbArc
 50
6.513776E-013
 51
90.0
  0
ARC
  5
3F8
100
AcDbEntity
  8
M1
 62
     7
100
AcDbCircle
 10
35.827077
 20
349.784005
 40
5.0
100
AcDbArc
 50
90.0
 51
180.0
  0
LINE
  5
3F9
100
AcDbEntity
  8
M1
 62
     7
100
AcDbLine
 10
43.793103
 20
354.784005
 11
44.100061
 21
354.784005
  0
LINE
  5
3FA
100
AcDbEntity
  8
M1
 62
     7
100
AcDbLine
 10
35.827077
 20
354.784005
 11
41.661052
 21
354.784005
  0
LINE
  5
3FB
100
AcDbEntity
  8
M1
 62
     7
100
AcDbLine
 10
82.793103
 20
354.784005
 11
88.627077
 21
354.784005
  0
LINE
  5
3FC
100
AcDbEntity
  8
M1
 62
     7
100
AcDbLine
 10
80.354091
 20
354.784005
 11
80.661052
 21
354.784005
  0
ARC
  5
3FD
100
AcDbEntity
  8
M1
 62
     7
100
AcDbCircle
 10
80.727077
 20
288.784005
 40
4.5
100
AcDbArc
 50
267.324162
 51
270.0
  0
LINE
  5
3FE
100
AcDbEntity
  8
M1
  6
DASHED
 62
     7
100
AcDbLine
 10
106.127074
 20
349.484005
 11
106.127074
 21
290.084005
  0
LINE
  5
3FF
100
AcDbEntity
  8
M1
  6
DASHED
 62
     7
100
AcDbLine
 10
106.127074
 20
349.484005
 11
93.627074
 21
349.484005
  0
LINE
  5
400
100
AcDbEntity
  8
M1
  6
DASHED
 62
     7
100
AcDbLine
 10
106.127074
 20
290.084005
 11
93.627074
 21
290.084005
  0
LINE
  5
401
100
AcDbEntity
  8
M1
  6
DASHED
 62
     7
100
AcDbLine
 10
18.32708
 20
349.484005
 11
30.82708
 21
349.484005
  0
LINE
  5
402
100
AcDbEntity
  8
M1
  6
DASHED
 62
     7
100
AcDbLine
 10
18.32708
 20
349.484005
 11
18.32708
 21
290.084005
  0
LINE
  5
403
100
AcDbEntity
  8
M1
  6
DASHED
 62
     7
100
AcDbLine
 10
18.32708
 20
290.084005
 11
30.82708
 21
290.084005
  0
CIRCLE
  5
404
100
AcDbEntity
  8
M1
 62
     7
100
AcDbCircle
 10
87.427077
 20
306.484005
 40
3.0
  0
LINE
  5
405
100
AcDbEntity
  8
M1
 62
     7
100
AcDbLine
 10
89.017661
 20
304.89336
 11
85.83602
 21
308.075123
  0
LINE
  5
406
100
AcDbEntity
  8
M1
 62
     7
100
AcDbLine
 10
88.840903
 20
306.837696
 11
87.073325
 21
305.070118
  0
LINE
  5
407
100
AcDbEntity
  8
M1
 62
     7
100
AcDbLine
 10
87.780356
 20
307.898365
 11
86.012778
 21
306.130665
  0
LINE
  5
408
100
AcDbEntity
  8
M1
 62
     7
100
AcDbLine
 10
90.752077
 20
310.309005
 11
84.102077
 21
310.309005
  0
ARC
  5
409
100
AcDbEntity
  8
M1
 62
     7
100
AcDbCircle
 10
90.752077
 20
309.809005
 40
0.5
100
AcDbArc
 50
0.0
 51
90.0
  0
LINE
  5
40A
100
AcDbEntity
  8
M1
 62
     7
100
AcDbLine
 10
91.252077
 20
303.159005
 11
91.252077
 21
309.809005
  0
ARC
  5
40B
100
AcDbEntity
  8
M1
 62
     7
100
AcDbCircle
 10
90.752077
 20
303.159005
 40
0.5
100
AcDbArc
 50
270.0
 51
360.0
  0
LINE
  5
40C
100
AcDbEntity
  8
M1
 62
     7
100
AcDbLine
 10
84.102077
 20
302.659005
 11
90.752077
 21
302.659005
  0
LINE
  5
40D
100
AcDbEntity
  8
M1
 62
     7
100
AcDbLine
 10
83.602077
 20
309.809005
 11
83.602077
 21
303.159005
  0
ARC
  5
40E
100
AcDbEntity
  8
M1
 62
     7
100
AcDbCircle
 10
84.102077
 20
309.809005
 40
0.5
100
AcDbArc
 50
90.0
 51
180.0
  0
ARC
  5
40F
100
AcDbEntity
  8
M1
 62
     7
100
AcDbCircle
 10
84.102077
 20
303.159005
 40
0.5
100
AcDbArc
 50
180.0
 51
270.0
  0
CIRCLE
  5
410
100
AcDbEntity
  8
M1
 62
     7
100
AcDbCircle
 10
87.427077
 20
333.084005
 40
3.0
  0
LINE
  5
411
100
AcDbEntity
  8
M1
 62
     7
100
AcDbLine
 10
89.017661
 20
331.49336
 11
85.83602
 21
334.675123
  0
LINE
  5
412
100
AcDbEntity
  8
M1
 62
     7
100
AcDbLine
 10
88.840903
 20
333.437696
 11
87.073325
 21
331.670118
  0
LINE
  5
413
100
AcDbEntity
  8
M1
 62
     7
100
AcDbLine
 10
87.780356
 20
334.498365
 11
86.012778
 21
332.730665
  0
LINE
  5
414
100
AcDbEntity
  8
M1
 62
     7
100
AcDbLine
 10
90.752077
 20
336.909005
 11
84.102077
 21
336.909005
  0
ARC
  5
415
100
AcDbEntity
  8
M1
 62
     7
100
AcDbCircle
 10
90.752077
 20
336.409005
 40
0.5
100
AcDbArc
 50
0.0
 51
90.0
  0
LINE
  5
416
100
AcDbEntity
  8
M1
 62
     7
100
AcDbLine
 10
91.252077
 20
329.759005
 11
91.252077
 21
336.409005
  0
ARC
  5
417
100
AcDbEntity
  8
M1
 62
     7
100
AcDbCircle
 10
90.752077
 20
329.759005
 40
0.5
100
AcDbArc
 50
270.0
 51
360.0
  0
LINE
  5
418
100
AcDbEntity
  8
M1
 62
     7
100
AcDbLine
 10
84.102077
 20
329.259005
 11
90.752077
 21
329.259005
  0
LINE
  5
419
100
AcDbEntity
  8
M1
 62
     7
100
AcDbLine
 10
83.602077
 20
336.409005
 11
83.602077
 21
329.759005
  0
ARC
  5
41A
100
AcDbEntity
  8
M1
 62
     7
100
AcDbCircle
 10
84.102077
 20
336.409005
 40
0.5
100
AcDbArc
 50
90.0
 51
180.0
  0
ARC
  5
41B
100
AcDbEntity
  8
M1
 62
     7
100
AcDbCircle
 10
84.102077
 20
329.759005
 40
0.5
100
AcDbArc
 50
180.0
 51
270.0
  0
CIRCLE
  5
41C
100
AcDbEntity
  8
M1
  6
DASHED
 62
     7
100
AcDbCircle
 10
37.027077
 20
333.084005
 40
3.0
  0
LINE
  5
41D
100
AcDbEntity
  8
M1
  6
DASHED
 62
     7
100
AcDbLine
 10
38.617661
 20
331.49336
 11
35.43602
 21
334.675123
  0
LINE
  5
41E
100
AcDbEntity
  8
M1
  6
DASHED
 62
     7
100
AcDbLine
 10
38.440903
 20
333.437696
 11
36.673325
 21
331.670118
  0
LINE
  5
41F
100
AcDbEntity
  8
M1
  6
DASHED
 62
     7
100
AcDbLine
 10
37.380356
 20
334.498365
 11
35.612778
 21
332.730665
  0
LINE
  5
420
100
AcDbEntity
  8
M1
  6
DASHED
 62
     7
100
AcDbLine
 10
40.352077
 20
336.909005
 11
33.702077
 21
336.909005
  0
ARC
  5
421
100
AcDbEntity
  8
M1
  6
DASHED
 62
     7
100
AcDbCircle
 10
40.352077
 20
336.409005
 40
0.5
100
AcDbArc
 50
0.0
 51
90.0
  0
LINE
  5
422
100
AcDbEntity
  8
M1
  6
DASHED
 62
     7
100
AcDbLine
 10
40.852077
 20
329.759005
 11
40.852077
 21
336.409005
  0
ARC
  5
423
100
AcDbEntity
  8
M1
  6
DASHED
 62
     7
100
AcDbCircle
 10
40.352077
 20
329.759005
 40
0.5
100
AcDbArc
 50
270.0
 51
360.0
  0
LINE
  5
424
100
AcDbEntity
  8
M1
  6
DASHED
 62
     7
100
AcDbLine
 10
33.702077
 20
329.259005
 11
40.352077
 21
329.259005
  0
LINE
  5
425
100
AcDbEntity
  8
M1
  6
DASHED
 62
     7
100
AcDbLine
 10
33.202077
 20
336.409005
 11
33.202077
 21
329.759005
  0
ARC
  5
426
100
AcDbEntity
  8
M1
  6
DASHED
 62
     7
100
AcDbCircle
 10
33.702077
 20
336.409005
 40
0.5
100
AcDbArc
 50
90.0
 51
180.0
  0
ARC
  5
427
100
AcDbEntity
  8
M1
  6
DASHED
 62
     7
100
AcDbCircle
 10
33.702077
 20
329.759005
 40
0.5
100
AcDbArc
 50
180.0
 51
270.0
  0
CIRCLE
  5
428
100
AcDbEntity
  8
M1
  6
DASHED
 62
     7
100
AcDbCircle
 10
37.027077
 20
298.884005
 40
3.0
  0
LINE
  5
429
100
AcDbEntity
  8
M1
  6
DASHED
 62
     7
100
AcDbLine
 10
38.617661
 20
297.29336
 11
35.43602
 21
300.475123
  0
LINE
  5
42A
100
AcDbEntity
  8
M1
  6
DASHED
 62
     7
100
AcDbLine
 10
38.440903
 20
299.237696
 11
36.673325
 21
297.470118
  0
LINE
  5
42B
100
AcDbEntity
  8
M1
  6
DASHED
 62
     7
100
AcDbLine
 10
37.380356
 20
300.298365
 11
35.612778
 21
298.530665
  0
LINE
  5
42C
100
AcDbEntity
  8
M1
  6
DASHED
 62
     7
100
AcDbLine
 10
40.352077
 20
302.709005
 11
33.702077
 21
302.709005
  0
ARC
  5
42D
100
AcDbEntity
  8
M1
  6
DASHED
 62
     7
100
AcDbCircle
 10
40.352077
 20
302.209005
 40
0.5
100
AcDbArc
 50
0.0
 51
90.0
  0
LINE
  5
42E
100
AcDbEntity
  8
M1
  6
DASHED
 62
     7
100
AcDbLine
 10
40.852077
 20
295.559005
 11
40.852077
 21
302.209005
  0
ARC
  5
42F
100
AcDbEntity
  8
M1
  6
DASHED
 62
     7
100
AcDbCircle
 10
40.352077
 20
295.559005
 40
0.5
100
AcDbArc
 50
270.0
 51
360.0
  0
LINE
  5
430
100
AcDbEntity
  8
M1
  6
DASHED
 62
     7
100
AcDbLine
 10
33.702077
 20
295.059005
 11
40.352077
 21
295.059005
  0
LINE
  5
431
100
AcDbEntity
  8
M1
  6
DASHED
 62
     7
100
AcDbLine
 10
33.202077
 20
302.209005
 11
33.202077
 21
295.559005
  0
ARC
  5
432
100
AcDbEntity
  8
M1
  6
DASHED
 62
     7
100
AcDbCircle
 10
33.702077
 20
302.209005
 40
0.5
100
AcDbArc
 50
90.0
 51
180.0
  0
ARC
  5
433
100
AcDbEntity
  8
M1
  6
DASHED
 62
     7
100
AcDbCircle
 10
33.702077
 20
295.559005
 40
0.5
100
AcDbArc
 50
180.0
 51
270.0
  0
CIRCLE
  5
434
100
AcDbEntity
  8
M1
 62
     7
100
AcDbCircle
 10
49.227077
 20
343.484005
 40
3.5
  0
LINE
  5
435
100
AcDbEntity
  8
M1
 62
     7
100
AcDbLine
 10
50.237949
 20
345.201962
 11
47.662876
 21
342.626889
  0
LINE
  5
436
100
AcDbEntity
  8
M1
 62
     7
100
AcDbLine
 10
50.945056
 20
344.494854
 11
48.369983
 21
341.919781
  0
LINE
  5
437
100
AcDbEntity
  8
M1
 62
     7
100
AcDbLine
 10
48.266223
 20
344.444851
 11
50.111072
 21
342.600018
  0
LINE
  5
438
100
AcDbEntity
  8
M1
 62
     7
100
AcDbLine
 10
63.237945
 20
345.201962
 11
60.662872
 21
342.626889
  0
LINE
  5
439
100
AcDbEntity
  8
M1
 62
     7
100
AcDbLine
 10
63.945053
 20
344.494854
 11
61.36998
 21
341.919781
  0
LINE
  5
43A
100
AcDbEntity
  8
M1
 62
     7
100
AcDbLine
 10
61.26622
 20
344.444851
 11
63.111069
 21
342.600018
  0
CIRCLE
  5
43B
100
AcDbEntity
  8
M1
 62
     7
100
AcDbCircle
 10
75.227074
 20
343.484005
 40
3.5
  0
LINE
  5
43C
100
AcDbEntity
  8
M1
 62
     7
100
AcDbLine
 10
76.237946
 20
345.201962
 11
73.662872
 21
342.626889
  0
LINE
  5
43D
100
AcDbEntity
  8
M1
 62
     7
100
AcDbLine
 10
76.945053
 20
344.494854
 11
74.36998
 21
341.919781
  0
LINE
  5
43E
100
AcDbEntity
  8
M1
 62
     7
100
AcDbLine
 10
74.26622
 20
344.444851
 11
76.111069
 21
342.600018
  0
CIRCLE
  5
43F
100
AcDbEntity
  8
M1
 62
     7
100
AcDbCircle
 10
75.227074
 20
296.084005
 40
3.5
  0
LINE
  5
440
100
AcDbEntity
  8
M1
 62
     7
100
AcDbLine
 10
76.237946
 20
297.801962
 11
73.662872
 21
295.226888
  0
LINE
  5
441
100
AcDbEntity
  8
M1
 62
     7
100
AcDbLine
 10
76.945053
 20
297.094854
 11
74.36998
 21
294.519781
  0
LINE
  5
442
100
AcDbEntity
  8
M1
 62
     7
100
AcDbLine
 10
74.26622
 20
297.044851
 11
76.111069
 21
295.200018
  0
CIRCLE
  5
443
100
AcDbEntity
  8
M1
 62
     7
100
AcDbCircle
 10
62.227074
 20
296.084005
 40
3.5
  0
LINE
  5
444
100
AcDbEntity
  8
M1
 62
     7
100
AcDbLine
 10
63.237945
 20
297.801962
 11
60.662872
 21
295.226888
  0
LINE
  5
445
100
AcDbEntity
  8
M1
 62
     7
100
AcDbLine
 10
63.945053
 20
297.094854
 11
61.36998
 21
294.519781
  0
LINE
  5
446
100
AcDbEntity
  8
M1
 62
     7
100
AcDbLine
 10
61.26622
 20
297.044851
 11
63.111069
 21
295.200018
  0
CIRCLE
  5
447
100
AcDbEntity
  8
M1
 62
     7
100
AcDbCircle
 10
49.227077
 20
296.084005
 40
3.5
  0
LINE
  5
448
100
AcDbEntity
  8
M1
 62
     7
100
AcDbLine
 10
50.237949
 20
297.801962
 11
47.662876
 21
295.226888
  0
LINE
  5
449
100
AcDbEntity
  8
M1
 62
     7
100
AcDbLine
 10
50.945056
 20
297.094854
 11
48.369983
 21
294.519781
  0
LINE
  5
44A
100
AcDbEntity
  8
M1
 62
     7
100
AcDbLine
 10
48.266223
 20
297.044851
 11
50.111072
 21
295.200018
  0
CIRCLE
  5
44B
100
AcDbEntity
  8
M1
 62
     7
100
AcDbCircle
 10
87.427077
 20
298.884005
 40
3.0
  0
LINE
  5
44C
100
AcDbEntity
  8
M1
 62
     7
100
AcDbLine
 10
89.017661
 20
297.29336
 11
85.83602
 21
300.475123
  0
LINE
  5
44D
100
AcDbEntity
  8
M1
 62
     7
100
AcDbLine
 10
88.840903
 20
299.237696
 11
87.073325
 21
297.470118
  0
LINE
  5
44E
100
AcDbEntity
  8
M1
 62
     7
100
AcDbLine
 10
87.780356
 20
300.298365
 11
86.012778
 21
298.530665
  0
LINE
  5
44F
100
AcDbEntity
  8
M1
 62
     7
100
AcDbLine
 10
90.752077
 20
302.709005
 11
84.102077
 21
302.709005
  0
ARC
  5
450
100
AcDbEntity
  8
M1
 62
     7
100
AcDbCircle
 10
90.752077
 20
302.209005
 40
0.5
100
AcDbArc
 50
0.0
 51
90.0
  0
LINE
  5
451
100
AcDbEntity
  8
M1
 62
     7
100
AcDbLine
 10
91.252077
 20
295.559005
 11
91.252077
 21
302.209005
  0
ARC
  5
452
100
AcDbEntity
  8
M1
 62
     7
100
AcDbCircle
 10
90.752077
 20
295.559005
 40
0.5
100
AcDbArc
 50
270.0
 51
360.0
  0
LINE
  5
453
100
AcDbEntity
  8
M1
 62
     7
100
AcDbLine
 10
84.102077
 20
295.059005
 11
90.752077
 21
295.059005
  0
LINE
  5
454
100
AcDbEntity
  8
M1
 62
     7
100
AcDbLine
 10
83.602077
 20
302.209005
 11
83.602077
 21
295.559005
  0
ARC
  5
455
100
AcDbEntity
  8
M1
 62
     7
100
AcDbCircle
 10
84.102077
 20
302.209005
 40
0.5
100
AcDbArc
 50
90.0
 51
180.0
  0
ARC
  5
456
100
AcDbEntity
  8
M1
 62
     7
100
AcDbCircle
 10
84.102077
 20
295.559005
 40
0.5
100
AcDbArc
 50
180.0
 51
270.0
  0
CIRCLE
  5
457
100
AcDbEntity
  8
M1
  6
DASHED
 62
     7
100
AcDbCircle
 10
37.027077
 20
340.684005
 40
3.0
  0
LINE
  5
458
100
AcDbEntity
  8
M1
  6
DASHED
 62
     7
100
AcDbLine
 10
38.617661
 20
339.09336
 11
35.43602
 21
342.275123
  0
LINE
  5
459
100
AcDbEntity
  8
M1
  6
DASHED
 62
     7
100
AcDbLine
 10
38.440903
 20
341.037696
 11
36.673325
 21
339.270118
  0
LINE
  5
45A
100
AcDbEntity
  8
M1
  6
DASHED
 62
     7
100
AcDbLine
 10
37.380356
 20
342.098365
 11
35.612778
 21
340.330665
  0
LINE
  5
45B
100
AcDbEntity
  8
M1
  6
DASHED
 62
     7
100
AcDbLine
 10
40.352077
 20
344.509005
 11
33.702077
 21
344.509005
  0
ARC
  5
45C
100
AcDbEntity
  8
M1
  6
DASHED
 62
     7
100
AcDbCircle
 10
40.352077
 20
344.009005
 40
0.5
100
AcDbArc
 50
0.0
 51
90.0
  0
LINE
  5
45D
100
AcDbEntity
  8
M1
  6
DASHED
 62
     7
100
AcDbLine
 10
40.852077
 20
337.359005
 11
40.852077
 21
344.009005
  0
ARC
  5
45E
100
AcDbEntity
  8
M1
  6
DASHED
 62
     7
100
AcDbCircle
 10
40.352077
 20
337.359005
 40
0.5
100
AcDbArc
 50
270.0
 51
360.0
  0
LINE
  5
45F
100
AcDbEntity
  8
M1
  6
DASHED
 62
     7
100
AcDbLine
 10
33.702077
 20
336.859005
 11
40.352077
 21
336.859005
  0
LINE
  5
460
100
AcDbEntity
  8
M1
  6
DASHED
 62
     7
100
AcDbLine
 10
33.202077
 20
344.009005
 11
33.202077
 21
337.359005
  0
ARC
  5
461
100
AcDbEntity
  8
M1
  6
DASHED
 62
     7
100
AcDbCircle
 10
33.702077
 20
344.009005
 40
0.5
100
AcDbArc
 50
90.0
 51
180.0
  0
ARC
  5
462
100
AcDbEntity
  8
M1
  6
DASHED
 62
     7
100
AcDbCircle
 10
33.702077
 20
337.359005
 40
0.5
100
AcDbArc
 50
180.0
 51
270.0
  0
CIRCLE
  5
463
100
AcDbEntity
  8
M1
  6
DASHED
 62
     7
100
AcDbCircle
 10
37.027077
 20
306.484005
 40
3.0
  0
LINE
  5
464
100
AcDbEntity
  8
M1
  6
DASHED
 62
     7
100
AcDbLine
 10
38.617661
 20
304.89336
 11
35.43602
 21
308.075123
  0
LINE
  5
465
100
AcDbEntity
  8
M1
  6
DASHED
 62
     7
100
AcDbLine
 10
38.440903
 20
306.837696
 11
36.673325
 21
305.070118
  0
LINE
  5
466
100
AcDbEntity
  8
M1
  6
DASHED
 62
     7
100
AcDbLine
 10
37.380356
 20
307.898365
 11
35.612778
 21
306.130665
  0
LINE
  5
467
100
AcDbEntity
  8
M1
  6
DASHED
 62
     7
100
AcDbLine
 10
40.352077
 20
310.309005
 11
33.702077
 21
310.309005
  0
ARC
  5
468
100
AcDbEntity
  8
M1
  6
DASHED
 62
     7
100
AcDbCircle
 10
40.352077
 20
309.809005
 40
0.5
100
AcDbArc
 50
0.0
 51
90.0
  0
LINE
  5
469
100
AcDbEntity
  8
M1
  6
DASHED
 62
     7
100
AcDbLine
 10
40.852077
 20
303.159005
 11
40.852077
 21
309.809005
  0
ARC
  5
46A
100
AcDbEntity
  8
M1
  6
DASHED
 62
     7
100
AcDbCircle
 10
40.352077
 20
303.159005
 40
0.5
100
AcDbArc
 50
270.0
 51
360.0
  0
LINE
  5
46B
100
AcDbEntity
  8
M1
  6
DASHED
 62
     7
100
AcDbLine
 10
33.702077
 20
302.659005
 11
40.352077
 21
302.659005
  0
LINE
  5
46C
100
AcDbEntity
  8
M1
  6
DASHED
 62
     7
100
AcDbLine
 10
33.202077
 20
309.809005
 11
33.202077
 21
303.159005
  0
ARC
  5
46D
100
AcDbEntity
  8
M1
  6
DASHED
 62
     7
100
AcDbCircle
 10
33.702077
 20
309.809005
 40
0.5
100
AcDbArc
 50
90.0
 51
180.0
  0
ARC
  5
46E
100
AcDbEntity
  8
M1
  6
DASHED
 62
     7
100
AcDbCircle
 10
33.702077
 20
303.159005
 40
0.5
100
AcDbArc
 50
180.0
 51
270.0
  0
CIRCLE
  5
46F
100
AcDbEntity
  8
M1
 62
     7
100
AcDbCircle
 10
73.127077
 20
358.384005
 40
3.0
  0
LINE
  5
470
100
AcDbEntity
  8
M1
 62
     7
100
AcDbLine
 10
74.717661
 20
356.79336
 11
71.53602
 21
359.975123
  0
LINE
  5
471
100
AcDbEntity
  8
M1
 62
     7
100
AcDbLine
 10
74.540903
 20
358.737696
 11
72.773325
 21
356.970118
  0
LINE
  5
472
100
AcDbEntity
  8
M1
 62
     7
100
AcDbLine
 10
73.480356
 20
359.798365
 11
71.712778
 21
358.030665
  0
LINE
  5
473
100
AcDbEntity
  8
M1
 62
     7
100
AcDbLine
 10
76.452077
 20
362.209005
 11
69.802077
 21
362.209005
  0
ARC
  5
474
100
AcDbEntity
  8
M1
 62
     7
100
AcDbCircle
 10
76.452077
 20
361.709005
 40
0.5
100
AcDbArc
 50
0.0
 51
90.0
  0
LINE
  5
475
100
AcDbEntity
  8
M1
 62
     7
100
AcDbLine
 10
76.952077
 20
359.391023
 11
76.952077
 21
361.709005
  0
LINE
  5
476
100
AcDbEntity
  8
M1
 62
     7
100
AcDbLine
 10
69.802077
 20
354.559005
 11
74.677343
 21
354.559005
  0
LINE
  5
477
100
AcDbEntity
  8
M1
 62
     7
100
AcDbLine
 10
69.302077
 20
361.709005
 11
69.302077
 21
355.059005
  0
ARC
  5
478
100
AcDbEntity
  8
M1
 62
     7
100
AcDbCircle
 10
69.802077
 20
361.709005
 40
0.5
100
AcDbArc
 50
90.0
 51
180.0
  0
ARC
  5
479
100
AcDbEntity
  8
M1
 62
     7
100
AcDbCircle
 10
69.802077
 20
355.059005
 40
0.5
100
AcDbArc
 50
180.0
 51
270.0
  0
CIRCLE
  5
47A
100
AcDbEntity
  8
M1
 62
     7
100
AcDbCircle
 10
87.427077
 20
340.684005
 40
3.0
  0
LINE
  5
47B
100
AcDbEntity
  8
M1
 62
     7
100
AcDbLine
 10
89.017661
 20
339.09336
 11
85.83602
 21
342.275123
  0
LINE
  5
47C
100
AcDbEntity
  8
M1
 62
     7
100
AcDbLine
 10
88.840903
 20
341.037696
 11
87.073325
 21
339.270118
  0
LINE
  5
47D
100
AcDbEntity
  8
M1
 62
     7
100
AcDbLine
 10
87.780356
 20
342.098365
 11
86.012778
 21
340.330665
  0
LINE
  5
47E
100
AcDbEntity
  8
M1
 62
     7
100
AcDbLine
 10
90.752077
 20
344.509005
 11
84.102077
 21
344.509005
  0
ARC
  5
47F
100
AcDbEntity
  8
M1
 62
     7
100
AcDbCircle
 10
90.752077
 20
344.009005
 40
0.5
100
AcDbArc
 50
0.0
 51
90.0
  0
LINE
  5
480
100
AcDbEntity
  8
M1
 62
     7
100
AcDbLine
 10
91.252077
 20
337.359005
 11
91.252077
 21
344.009005
  0
ARC
  5
481
100
AcDbEntity
  8
M1
 62
     7
100
AcDbCircle
 10
90.752077
 20
337.359005
 40
0.5
100
AcDbArc
 50
270.0
 51
360.0
  0
LINE
  5
482
100
AcDbEntity
  8
M1
 62
     7
100
AcDbLine
 10
84.102077
 20
336.859005
 11
90.752077
 21
336.859005
  0
LINE
  5
483
100
AcDbEntity
  8
M1
 62
     7
100
AcDbLine
 10
83.602077
 20
344.009005
 11
83.602077
 21
337.359005
  0
ARC
  5
484
100
AcDbEntity
  8
M1
 62
     7
100
AcDbCircle
 10
84.102077
 20
344.009005
 40
0.5
100
AcDbArc
 50
90.0
 51
180.0
  0
ARC
  5
485
100
AcDbEntity
  8
M1
 62
     7
100
AcDbCircle
 10
84.102077
 20
337.359005
 40
0.5
100
AcDbArc
 50
180.0
 51
270.0
  0
LINE
  5
486
100
AcDbEntity
  8
M1
  6
DASHDOT
 62
     7
100
AcDbLine
 10
62.227077
 20
367.784006
 11
62.227077
 21
267.18456
  0
LINE
  5
487
100
AcDbEntity
  8
M1
  6
DASHDOT
 62
     7
100
AcDbLine
 10
16.32708
 20
319.784005
 11
108.127074
 21
319.784005
  0
ARC
  5
488
100
AcDbEntity
  8
M1
 62
     7
100
AcDbCircle
 10
69.877077
 20
355.134005
 40
0.5
100
AcDbArc
 50
268.473851
 51
270.0
  0
ARC
  5
489
100
AcDbEntity
  8
M1
 62
     7
100
AcDbCircle
 10
35.227077
 20
349.784005
 40
2.25
100
AcDbArc
 50
0.0
 51
180.0
  0
ARC
  5
48A
100
AcDbEntity
  8
M1
 62
     7
100
AcDbCircle
 10
35.227077
 20
347.784005
 40
2.25
100
AcDbArc
 50
180.0
 51
360.0
  0
ARC
  5
48B
100
AcDbEntity
  8
M1
 62
     7
100
AcDbCircle
 10
35.827077
 20
289.284005
 40
5.0
100
AcDbArc
 50
180.0
 51
270.0
  0
LINE
  5
48C
100
AcDbEntity
  8
M1
 62
     7
100
AcDbLine
 10
71.127077
 20
307.584005
 11
53.327077
 21
307.584005
  0
LINE
  5
48D
100
AcDbEntity
  8
M1
 62
     7
100
AcDbLine
 10
52.827078
 20
308.084005
 11
52.827078
 21
331.484006
  0
LINE
  5
48E
100
AcDbEntity
  8
M1
 62
     7
100
AcDbLine
 10
81.927077
 20
337.184005
 11
42.527077
 21
337.184005
  0
LINE
  5
48F
100
AcDbEntity
  8
M1
 62
     7
100
AcDbLine
 10
83.727078
 20
322.284005
 11
81.927077
 21
322.284005
  0
LINE
  5
490
100
AcDbEntity
  8
M1
 62
     7
100
AcDbLine
 10
56.927079
 20
331.984005
 11
53.327077
 21
331.984005
  0
CIRCLE
  5
491
100
AcDbEntity
  8
M1
 62
     7
100
AcDbCircle
 10
34.727077
 20
289.784005
 40
2.25
  0
CIRCLE
  5
492
100
AcDbEntity
  8
M1
 62
     7
100
AcDbCircle
 10
89.727077
 20
349.784005
 40
2.25
  0
ARC
  5
493
100
AcDbEntity
  8
M1
 62
     7
100
AcDbCircle
 10
89.227077
 20
289.784005
 40
2.25
100
AcDbArc
 50
180.0
 51
360.0
  0
ARC
  5
494
100
AcDbEntity
  8
M1
 62
     7
100
AcDbCircle
 10
89.227077
 20
291.784005
 40
2.25
100
AcDbArc
 50
0.0
 51
180.0
  0
ARC
  5
495
100
AcDbEntity
  8
M1
 62
     7
100
AcDbCircle
 10
88.627077
 20
289.284005
 40
5.0
100
AcDbArc
 50
270.0
 51
360.0
  0
LINE
  5
496
100
AcDbEntity
  8
M1
 62
     7
100
AcDbLine
 10
41.796307
 20
323.284005
 11
41.796307
 21
322.284005
  0
LINE
  5
497
100
AcDbEntity
  8
M1
 62
     7
100
AcDbLine
 10
41.527077
 20
323.284005
 11
40.927078
 21
323.284005
  0
LINE
  5
498
100
AcDbEntity
  8
M1
 62
     7
100
AcDbLine
 10
41.796307
 20
316.284005
 11
41.796307
 21
317.284005
  0
LINE
  5
499
100
AcDbEntity
  8
M1
 62
     7
100
AcDbLine
 10
41.527077
 20
316.284005
 11
40.927078
 21
316.284005
  0
LINE
  5
49A
100
AcDbEntity
  8
M1
 62
     7
100
AcDbLine
 10
82.657845
 20
316.284005
 11
82.657845
 21
317.284005
  0
LINE
  5
49B
100
AcDbEntity
  8
M1
 62
     7
100
AcDbLine
 10
82.927076
 20
316.284005
 11
83.527078
 21
316.284005
  0
LINE
  5
49C
100
AcDbEntity
  8
M1
 62
     7
100
AcDbLine
 10
82.657845
 20
323.284005
 11
82.657845
 21
322.284005
  0
LINE
  5
49D
100
AcDbEntity
  8
M1
 62
     7
100
AcDbLine
 10
82.927076
 20
323.284005
 11
83.527078
 21
323.284005
  0
LINE
  5
49E
100
AcDbEntity
  8
M1
 62
     7
100
AcDbLine
 10
77.427076
 20
360.201021
 11
77.427076
 21
363.684007
  0
LINE
  5
49F
100
AcDbEntity
  8
M1
 62
     7
100
AcDbLine
 10
78.344808
 20
364.284006
 11
78.027078
 21
364.284006
  0
LINE
  5
4A0
100
AcDbEntity
  8
M1
 62
     7
100
AcDbLine
 10
67.227078
 20
286.784005
 11
67.227078
 21
287.284006
  0
LINE
  5
4A1
100
AcDbEntity
  8
M1
 62
     7
100
AcDbLine
 10
67.227078
 20
284.284004
 11
64.827074
 21
284.284004
  0
LINE
  5
4A2
100
AcDbEntity
  8
M1
 62
     7
100
AcDbLine
 10
57.227076
 20
287.284006
 11
57.227076
 21
286.784005
  0
LINE
  5
4A3
100
AcDbEntity
  8
M1
 62
     7
100
AcDbLine
 10
40.727076
 20
317.284005
 11
40.727076
 21
322.284005
  0
LINE
  5
4A4
100
AcDbEntity
  8
M1
 62
     7
100
AcDbLine
 10
41.527077
 20
316.284005
 11
42.527077
 21
316.284005
  0
LINE
  5
4A5
100
AcDbEntity
  8
M1
 62
     7
100
AcDbLine
 10
41.527077
 20
285.284005
 11
41.527077
 21
316.284005
  0
LINE
  5
4A6
100
AcDbEntity
  8
M1
 62
     7
100
AcDbLine
 10
41.527077
 20
323.284005
 11
42.527077
 21
323.284005
  0
LINE
  5
4A7
100
AcDbEntity
  8
M1
 62
     7
100
AcDbLine
 10
40.227077
 20
321.284005
 11
40.727076
 21
321.284005
  0
LINE
  5
4A8
100
AcDbEntity
  8
M1
 62
     7
100
AcDbLine
 10
40.227077
 20
318.284005
 11
40.227077
 21
321.284005
  0
LINE
  5
4A9
100
AcDbEntity
  8
M1
 62
     7
100
AcDbLine
 10
57.727077
 20
286.284004
 11
59.627074
 21
286.284004
  0
LINE
  5
4AA
100
AcDbEntity
  8
M1
 62
     7
100
AcDbLine
 10
40.727076
 20
318.284005
 11
40.227077
 21
318.284005
  0
LINE
  5
4AB
100
AcDbEntity
  8
M1
 62
     7
100
AcDbLine
 10
84.227079
 20
318.284005
 11
84.227079
 21
321.284005
  0
LINE
  5
4AC
100
AcDbEntity
  8
M1
 62
     7
100
AcDbLine
 10
41.727077
 20
322.284005
 11
40.727076
 21
322.284005
  0
LINE
  5
4AD
100
AcDbEntity
  8
M1
 62
     7
100
AcDbLine
 10
84.227079
 20
321.284005
 11
83.727078
 21
321.284005
  0
ARC
  5
4AE
100
AcDbEntity
  8
M1
 62
     7
100
AcDbCircle
 10
40.727077
 20
316.484005
 40
0.5
100
AcDbArc
 50
293.578178
 51
336.421822
  0
ARC
  5
4AF
100
AcDbEntity
  8
M1
 62
     7
100
AcDbCircle
 10
83.727077
 20
316.484005
 40
0.5
100
AcDbArc
 50
203.578178
 51
246.421822
  0
ARC
  5
4B0
100
AcDbEntity
  8
M1
 62
     7
100
AcDbCircle
 10
56.327077
 20
363.784005
 40
0.5
100
AcDbArc
 50
0.0
 51
90.0
  0
ARC
  5
4B1
100
AcDbEntity
  8
M1
 62
     7
100
AcDbCircle
 10
68.127077
 20
363.784005
 40
0.5
100
AcDbArc
 50
90.0
 51
180.0
  0
ARC
  5
4B2
100
AcDbEntity
  8
M1
 62
     7
100
AcDbCircle
 10
56.327077
 20
363.284005
 40
1.0
100
AcDbArc
 50
90.0
 51
180.0
  0
LINE
  5
4B3
100
AcDbEntity
  8
M1
 62
     7
100
AcDbLine
 10
59.727078
 20
324.261472
 11
59.727078
 21
324.084005
  0
LINE
  5
4B4
100
AcDbEntity
  8
M1
 62
     7
100
AcDbLine
 10
64.727077
 20
314.784005
 11
64.727077
 21
314.884005
  0
ARC
  5
4B5
100
AcDbEntity
  8
M1
 62
     7
100
AcDbCircle
 10
68.127077
 20
363.284005
 40
1.0
100
AcDbArc
 50
0.0
 51
90.0
  0
LINE
  5
4B6
100
AcDbEntity
  8
M1
 62
     7
100
AcDbLine
 10
64.727077
 20
324.261472
 11
64.727077
 21
324.084005
  0
ARC
  5
4B7
100
AcDbEntity
  8
M1
 62
     7
100
AcDbCircle
 10
57.427077
 20
323.584005
 40
0.5
100
AcDbArc
 50
90.0
 51
180.0
  0
ARC
  5
4B8
100
AcDbEntity
  8
M1
 62
     7
100
AcDbCircle
 10
59.977077
 20
323.584005
 40
0.5
100
AcDbArc
 50
0.0
 51
90.0
  0
ARC
  5
4B9
100
AcDbEntity
  8
M1
 62
     7
100
AcDbCircle
 10
57.427077
 20
315.384005
 40
0.5
100
AcDbArc
 50
180.0
 51
270.0
  0
ARC
  5
4BA
100
AcDbEntity
  8
M1
 62
     7
100
AcDbCircle
 10
67.027077
 20
323.584005
 40
0.5
100
AcDbArc
 50
0.0
 51
90.0
  0
ARC
  5
4BB
100
AcDbEntity
  8
M1
 62
     7
100
AcDbCircle
 10
64.477077
 20
323.584005
 40
0.5
100
AcDbArc
 50
90.0
 51
180.0
  0
ARC
  5
4BC
100
AcDbEntity
  8
M1
 62
     7
100
AcDbCircle
 10
67.027077
 20
315.384005
 40
0.5
100
AcDbArc
 50
270.0
 51
360.0
  0
LINE
  5
4BD
100
AcDbEntity
  8
M1
 62
     7
100
AcDbLine
 10
69.927079
 20
354.284006
 11
74.55173
 21
354.284006
  0
LINE
  5
4BE
100
AcDbEntity
  8
M1
 62
     7
100
AcDbLine
 10
73.866563
 20
352.784005
 11
69.927079
 21
352.784005
  0
LINE
  5
4BF
100
AcDbEntity
  8
M1
 62
     7
100
AcDbLine
 10
55.327078
 20
362.784006
 11
47.027077
 21
362.784006
  0
LINE
  5
4C0
100
AcDbEntity
  8
M1
 62
     7
100
AcDbLine
 10
77.427076
 20
362.784006
 11
69.127077
 21
362.784006
  0
LINE
  5
4C1
100
AcDbEntity
  8
M1
 62
     7
100
AcDbLine
 10
69.127077
 20
363.284004
 11
69.127077
 21
355.2638
  0
LINE
  5
4C2
100
AcDbEntity
  8
M1
 62
     7
100
AcDbLine
 10
83.727078
 20
318.284005
 11
84.227079
 21
318.284005
  0
LINE
  5
4C3
100
AcDbEntity
  8
M1
 62
     7
100
AcDbLine
 10
67.627077
 20
354.719895
 11
67.627077
 21
363.284004
  0
LINE
  5
4C4
100
AcDbEntity
  8
M1
 62
     7
100
AcDbLine
 10
54.527079
 20
352.784005
 11
50.587589
 21
352.784005
  0
LINE
  5
4C5
100
AcDbEntity
  8
M1
 62
     7
100
AcDbLine
 10
49.902422
 20
354.284006
 11
54.527079
 21
354.284006
  0
LINE
  5
4C6
100
AcDbEntity
  8
M1
 62
     7
100
AcDbLine
 10
88.627079
 20
284.284004
 11
80.727077
 21
284.284004
  0
LINE
  5
4C7
100
AcDbEntity
  8
M1
 62
     7
100
AcDbLine
 10
86.977081
 20
291.784004
 11
86.977081
 21
289.784004
  0
LINE
  5
4C8
100
AcDbEntity
  8
M1
 62
     7
100
AcDbLine
 10
91.477075
 20
289.784004
 11
91.477075
 21
291.784004
  0
LINE
  5
4C9
100
AcDbEntity
  8
M1
 62
     7
100
AcDbLine
 10
30.827077
 20
289.284006
 11
30.827077
 21
350.284005
  0
LINE
  5
4CA
100
AcDbEntity
  8
M1
 62
     7
100
AcDbLine
 10
37.477077
 20
349.784004
 11
37.477077
 21
347.784006
  0
LINE
  5
4CB
100
AcDbEntity
  8
M1
 62
     7
100
AcDbLine
 10
32.977077
 20
347.784006
 11
32.977077
 21
349.784004
  0
ARC
  5
4CC
100
AcDbEntity
  8
M1
 62
     7
100
AcDbCircle
 10
81.927077
 20
336.184005
 40
1.0
100
AcDbArc
 50
0.0
 51
90.0
  0
ARC
  5
4CD
100
AcDbEntity
  8
M1
 62
     7
100
AcDbCircle
 10
81.927077
 20
303.384005
 40
1.0
100
AcDbArc
 50
270.0
 51
360.0
  0
LINE
  5
4CE
100
AcDbEntity
  8
M1
 62
     7
100
AcDbLine
 10
81.927077
 20
316.284005
 11
81.927077
 21
317.284005
  0
LINE
  5
4CF
100
AcDbEntity
  8
M1
 62
     7
100
AcDbLine
 10
83.727078
 20
317.284005
 11
81.927077
 21
317.284005
  0
LINE
  5
4D0
100
AcDbEntity
  8
M1
 62
     7
100
AcDbLine
 10
63.427077
 20
331.984005
 11
61.027077
 21
331.984005
  0
LINE
  5
4D1
100
AcDbEntity
  8
M1
 62
     7
100
AcDbLine
 10
61.027077
 20
333.584005
 11
61.027077
 21
331.984005
  0
LINE
  5
4D2
100
AcDbEntity
  8
M1
 62
     7
100
AcDbLine
 10
41.727077
 20
322.284005
 11
42.527077
 21
322.284005
  0
LINE
  5
4D3
100
AcDbEntity
  8
M1
 62
     7
100
AcDbLine
 10
40.727076
 20
317.284005
 11
42.527077
 21
317.284005
  0
LINE
  5
4D4
100
AcDbEntity
  8
M1
 62
     7
100
AcDbLine
 10
81.927077
 20
323.284005
 11
81.927077
 21
322.284005
  0
LINE
  5
4D5
100
AcDbEntity
  8
M1
 62
     7
100
AcDbLine
 10
42.527077
 20
323.284005
 11
42.527077
 21
322.284005
  0
LINE
  5
4D6
100
AcDbEntity
  8
M1
 62
     7
100
AcDbLine
 10
66.527077
 20
330.984005
 11
57.927077
 21
330.984005
  0
LINE
  5
4D7
100
AcDbEntity
  8
M1
 62
     7
100
AcDbLine
 10
63.427077
 20
333.584005
 11
61.027077
 21
333.584005
  0
LINE
  5
4D8
100
AcDbEntity
  8
M1
 62
     7
100
AcDbLine
 10
63.427077
 20
333.584005
 11
63.427077
 21
331.984005
  0
LINE
  5
4D9
100
AcDbEntity
  8
M1
 62
     7
100
AcDbLine
 10
67.527076
 20
331.984005
 11
71.127077
 21
331.984005
  0
LINE
  5
4DA
100
AcDbEntity
  8
M1
 62
     7
100
AcDbLine
 10
71.627078
 20
308.084005
 11
71.627078
 21
331.484006
  0
LINE
  5
4DB
100
AcDbEntity
  8
M1
 62
     7
100
AcDbLine
 10
83.527078
 20
295.084006
 11
84.427079
 21
295.084006
  0
LINE
  5
4DC
100
AcDbEntity
  8
M1
 62
     7
100
AcDbLine
 10
90.42708
 20
295.084006
 11
91.32708
 21
295.084006
  0
LINE
  5
4DD
100
AcDbEntity
  8
M1
 62
     7
100
AcDbLine
 10
40.027078
 20
344.484006
 11
40.927078
 21
344.484006
  0
LINE
  5
4DE
100
AcDbEntity
  8
M1
 62
     7
100
AcDbLine
 10
84.427079
 20
344.484006
 11
83.527078
 21
344.484006
  0
LINE
  5
4DF
100
AcDbEntity
  8
M1
 62
     7
100
AcDbLine
 10
92.427076
 20
292.084005
 11
92.327074
 21
292.084005
  0
LINE
  5
4E0
100
AcDbEntity
  8
M1
 62
     7
100
AcDbLine
 10
91.32708
 20
344.484006
 11
90.42708
 21
344.484006
  0
LINE
  5
4E1
100
AcDbEntity
  8
M1
 62
     7
100
AcDbLine
 10
92.427076
 20
347.484004
 11
92.327074
 21
347.484004
  0
LINE
  5
4E2
100
AcDbEntity
  8
M1
 62
     7
100
AcDbLine
 10
33.127077
 20
344.484006
 11
34.027078
 21
344.484006
  0
LINE
  5
4E3
100
AcDbEntity
  8
M1
 62
     7
100
AcDbLine
 10
49.445643
 20
284.284004
 11
53.227077
 21
284.284004
  0
LINE
  5
4E4
100
AcDbEntity
  8
M1
 62
     7
100
AcDbLine
 10
32.027077
 20
292.084005
 11
32.127077
 21
292.084005
  0
LINE
  5
4E5
100
AcDbEntity
  8
M1
 62
     7
100
AcDbLine
 10
40.927078
 20
295.084006
 11
40.027078
 21
295.084006
  0
LINE
  5
4E6
100
AcDbEntity
  8
M1
 62
     7
100
AcDbLine
 10
34.027078
 20
295.084006
 11
33.127077
 21
295.084006
  0
ARC
  5
4E7
100
AcDbEntity
  8
M1
 62
     7
100
AcDbCircle
 10
67.527077
 20
331.484005
 40
0.5
100
AcDbArc
 50
90.0
 51
180.0
  0
ARC
  5
4E8
100
AcDbEntity
  8
M1
 62
     7
100
AcDbCircle
 10
71.127077
 20
331.484005
 40
0.5
100
AcDbArc
 50
0.0
 51
90.0
  0
ARC
  5
4E9
100
AcDbEntity
  8
M1
 62
     7
100
AcDbCircle
 10
57.927077
 20
331.484005
 40
0.5
100
AcDbArc
 50
180.0
 51
270.0
  0
ARC
  5
4EA
100
AcDbEntity
  8
M1
 62
     7
100
AcDbCircle
 10
66.527077
 20
331.484005
 40
0.5
100
AcDbArc
 50
270.0
 51
360.0
  0
LINE
  5
4EB
100
AcDbEntity
  8
M1
 62
     7
100
AcDbLine
 10
32.027077
 20
347.484004
 11
32.127077
 21
347.484004
  0
ARC
  5
4EC
100
AcDbEntity
  8
M1
 62
     7
100
AcDbCircle
 10
42.527077
 20
336.184005
 40
1.0
100
AcDbArc
 50
90.0
 51
180.0
  0
ARC
  5
4ED
100
AcDbEntity
  8
M1
 62
     7
100
AcDbCircle
 10
42.527077
 20
303.384005
 40
1.0
100
AcDbArc
 50
180.0
 51
270.0
  0
ARC
  5
4EE
100
AcDbEntity
  8
M1
 62
     7
100
AcDbCircle
 10
66.727077
 20
286.784005
 40
0.5
100
AcDbArc
 50
270.0
 51
360.0
  0
ARC
  5
4EF
100
AcDbEntity
  8
M1
 62
     7
100
AcDbCircle
 10
67.227077
 20
286.284005
 40
2.0
100
AcDbArc
 50
270.0
 51
292.57935
  0
ARC
  5
4F0
100
AcDbEntity
  8
M1
 62
     7
100
AcDbCircle
 10
53.327077
 20
331.484005
 40
0.5
100
AcDbArc
 50
90.0
 51
180.0
  0
ARC
  5
4F1
100
AcDbEntity
  8
M1
 62
     7
100
AcDbCircle
 10
56.927077
 20
331.484005
 40
0.5
100
AcDbArc
 50
0.0
 51
90.0
  0
ARC
  5
4F2
100
AcDbEntity
  8
M1
 62
     7
100
AcDbCircle
 10
71.127077
 20
308.084005
 40
0.5
100
AcDbArc
 50
270.0
 51
360.0
  0
ARC
  5
4F3
100
AcDbEntity
  8
M1
 62
     7
100
AcDbCircle
 10
53.327077
 20
308.084005
 40
0.5
100
AcDbArc
 50
180.0
 51
270.0
  0
ARC
  5
4F4
100
AcDbEntity
  8
M1
 62
     7
100
AcDbCircle
 10
46.109347
 20
363.684005
 40
0.6
100
AcDbArc
 50
90.0
 51
178.281642
  0
ARC
  5
4F5
100
AcDbEntity
  8
M1
 62
     7
100
AcDbCircle
 10
46.427077
 20
363.684005
 40
0.6
100
AcDbArc
 50
0.0
 51
90.0
  0
ARC
  5
4F6
100
AcDbEntity
  8
M1
 62
     7
100
AcDbCircle
 10
57.227077
 20
286.284005
 40
2.0
100
AcDbArc
 50
247.42065
 51
270.0
  0
ARC
  5
4F7
100
AcDbEntity
  8
M1
 62
     7
100
AcDbCircle
 10
57.727077
 20
286.784005
 40
0.5
100
AcDbArc
 50
180.0
 51
270.0
  0
ARC
  5
4F8
100
AcDbEntity
  8
M1
 62
     7
100
AcDbCircle
 10
78.027077
 20
363.684005
 40
0.6
100
AcDbArc
 50
90.0
 51
180.0
  0
LINE
  5
4F9
100
AcDbEntity
  8
M1
 62
     7
100
AcDbLine
 10
47.027077
 20
363.684007
 11
47.027077
 21
360.201578
  0
LINE
  5
4FA
100
AcDbEntity
  8
M1
 62
     7
100
AcDbLine
 10
46.109348
 20
364.284006
 11
46.427078
 21
364.284006
  0
ARC
  5
4FB
100
AcDbEntity
  8
M1
 62
     7
100
AcDbCircle
 10
78.344807
 20
363.684005
 40
0.6
100
AcDbArc
 50
1.718358
 51
90.0
  0
LINE
  5
4FC
100
AcDbEntity
  8
M1
 62
     7
100
AcDbLine
 10
82.927076
 20
323.284005
 11
81.927077
 21
323.284005
  0
LINE
  5
4FD
100
AcDbEntity
  8
M1
 62
     7
100
AcDbLine
 10
83.727078
 20
317.284005
 11
83.727078
 21
322.284005
  0
LINE
  5
4FE
100
AcDbEntity
  8
M1
 62
     7
100
AcDbLine
 10
81.927077
 20
302.384005
 11
42.527077
 21
302.384005
  0
LINE
  5
4FF
100
AcDbEntity
  8
M1
 62
     7
100
AcDbLine
 10
82.927076
 20
316.284005
 11
81.927077
 21
316.284005
  0
LINE
  5
500
100
AcDbEntity
  8
M1
 62
     7
100
AcDbLine
 10
82.927076
 20
285.284005
 11
82.927076
 21
316.284005
  0
LINE
  5
501
100
AcDbEntity
  8
M1
 62
     7
100
AcDbLine
 10
42.527077
 20
316.284005
 11
42.527077
 21
317.284005
  0
LINE
  5
502
100
AcDbEntity
  8
M1
 62
     7
100
AcDbLine
 10
67.627077
 20
363.284004
 11
67.627077
 21
363.784005
  0
LINE
  5
503
100
AcDbEntity
  8
M1
 62
     7
100
AcDbLine
 10
56.827077
 20
362.784006
 11
57.227074
 21
362.784006
  0
LINE
  5
504
100
AcDbEntity
  8
M1
 62
     7
100
AcDbLine
 10
67.527076
 20
315.384005
 11
67.527076
 21
323.584005
  0
LINE
  5
505
100
AcDbEntity
  8
M1
 62
     7
100
AcDbLine
 10
67.227074
 20
362.784006
 11
67.627077
 21
362.784006
  0
LINE
  5
506
100
AcDbEntity
  8
M1
 62
     7
100
AcDbLine
 10
56.827077
 20
363.284004
 11
56.827077
 21
354.719895
  0
LINE
  5
507
100
AcDbEntity
  8
M1
 62
     7
100
AcDbLine
 10
55.327078
 20
355.2638
 11
55.327078
 21
363.284004
  0
LINE
  5
508
100
AcDbEntity
  8
M1
 62
     7
100
AcDbLine
 10
56.827077
 20
363.784005
 11
56.827077
 21
363.284004
  0
LINE
  5
509
100
AcDbEntity
  8
M1
 62
     7
100
AcDbLine
 10
66.027076
 20
324.384005
 11
66.027076
 21
324.084005
  0
LINE
  5
50A
100
AcDbEntity
  8
M1
 62
     7
100
AcDbLine
 10
67.527076
 20
323.584005
 11
67.527076
 21
324.384005
  0
LINE
  5
50B
100
AcDbEntity
  8
M1
 62
     7
100
AcDbLine
 10
58.427078
 20
324.384005
 11
58.427078
 21
324.084005
  0
LINE
  5
50C
100
AcDbEntity
  8
M1
 62
     7
100
AcDbLine
 10
66.027076
 20
314.884005
 11
66.027076
 21
314.784005
  0
LINE
  5
50D
100
AcDbEntity
  8
M1
 62
     7
100
AcDbLine
 10
56.927079
 20
317.984005
 11
56.427078
 21
317.984005
  0
LINE
  5
50E
100
AcDbEntity
  8
M1
 62
     7
100
AcDbLine
 10
67.527076
 20
317.984005
 11
68.027077
 21
317.984005
  0
LINE
  5
50F
100
AcDbEntity
  8
M1
 62
     7
100
AcDbLine
 10
67.527076
 20
314.784005
 11
67.527076
 21
315.384005
  0
LINE
  5
510
100
AcDbEntity
  8
M1
 62
     7
100
AcDbLine
 10
56.427078
 20
320.984005
 11
56.927079
 21
320.984005
  0
LINE
  5
511
100
AcDbEntity
  8
M1
 62
     7
100
AcDbLine
 10
59.727078
 20
324.261472
 11
59.727078
 21
324.384005
  0
LINE
  5
512
100
AcDbEntity
  8
M1
 62
     7
100
AcDbLine
 10
40.927078
 20
315.984005
 11
41.527077
 21
315.984005
  0
LINE
  5
513
100
AcDbEntity
  8
M1
 62
     7
100
AcDbLine
 10
59.727078
 20
314.784005
 11
59.727078
 21
314.884005
  0
LINE
  5
514
100
AcDbEntity
  8
M1
 62
     7
100
AcDbLine
 10
64.727077
 20
324.261472
 11
64.727077
 21
324.384005
  0
LINE
  5
515
100
AcDbEntity
  8
M1
 62
     7
100
AcDbLine
 10
56.927079
 20
314.784005
 11
56.927079
 21
315.384005
  0
LINE
  5
516
100
AcDbEntity
  8
M1
 62
     7
100
AcDbLine
 10
58.427078
 20
314.884005
 11
58.427078
 21
314.784005
  0
LINE
  5
517
100
AcDbEntity
  8
M1
 62
     7
100
AcDbLine
 10
83.527078
 20
315.984005
 11
82.927076
 21
315.984005
  0
LINE
  5
518
100
AcDbEntity
  8
M1
 62
     7
100
AcDbLine
 10
63.977079
 20
323.584005
 11
63.977079
 21
316.384005
  0
LINE
  5
519
100
AcDbEntity
  8
M1
 62
     7
100
AcDbLine
 10
60.477075
 20
323.584005
 11
60.477075
 21
316.384005
  0
LINE
  5
51A
100
AcDbEntity
  8
M1
 62
     7
100
AcDbLine
 10
57.427076
 20
324.084005
 11
59.977078
 21
324.084005
  0
LINE
  5
51B
100
AcDbEntity
  8
M1
 62
     7
100
AcDbLine
 10
67.027078
 20
314.884005
 11
57.427076
 21
314.884005
  0
LINE
  5
51C
100
AcDbEntity
  8
M1
 62
     7
100
AcDbLine
 10
67.027078
 20
324.084005
 11
64.477076
 21
324.084005
  0
LINE
  5
51D
100
AcDbEntity
  8
M1
 62
     7
100
AcDbLine
 10
60.477075
 20
316.384005
 11
63.977079
 21
316.384005
  0
LINE
  5
51E
100
AcDbEntity
  8
M1
 62
     7
100
AcDbLine
 10
52.827078
 20
324.084005
 11
53.027078
 21
324.084005
  0
LINE
  5
51F
100
AcDbEntity
  8
M1
 62
     7
100
AcDbLine
 10
53.027078
 20
314.884005
 11
52.827078
 21
314.884005
  0
LINE
  5
520
100
AcDbEntity
  8
M1
 62
     7
100
AcDbLine
 10
56.927079
 20
323.584005
 11
56.927079
 21
324.384005
  0
LINE
  5
521
100
AcDbEntity
  8
M1
 62
     7
100
AcDbLine
 10
68.027077
 20
320.984005
 11
67.527076
 21
320.984005
  0
LINE
  5
522
100
AcDbEntity
  8
M1
 62
     7
100
AcDbLine
 10
58.227078
 20
324.084005
 11
66.227076
 21
324.084005
  0
LINE
  5
523
100
AcDbEntity
  8
M1
 62
     7
100
AcDbLine
 10
56.927079
 20
315.384005
 11
56.927079
 21
323.584005
  0
LINE
  5
524
100
AcDbEntity
  8
M1
 62
     7
100
AcDbLine
 10
71.627078
 20
324.084005
 11
71.427078
 21
324.084005
  0
LINE
  5
525
100
AcDbEntity
  8
M1
 62
     7
100
AcDbLine
 10
71.427078
 20
314.884005
 11
71.627078
 21
314.884005
  0
LINE
  5
526
100
AcDbEntity
  8
M1
 62
     7
100
AcDbLine
 10
92.62708
 20
339.884004
 11
92.327074
 21
339.884004
  0
ARC
  5
527
100
AcDbEntity
  8
M1
 62
     7
100
AcDbCircle
 10
55.527077
 20
354.284005
 40
1.0
100
AcDbArc
 50
90.0
 51
180.0
  0
LINE
  5
528
100
AcDbEntity
  8
M1
 62
     7
100
AcDbLine
 10
92.327074
 20
316.084005
 11
92.62708
 21
316.084005
  0
LINE
  5
529
100
AcDbEntity
  8
M1
 62
     7
100
AcDbLine
 10
92.62708
 20
323.484005
 11
92.327074
 21
323.484005
  0
ARC
  5
52A
100
AcDbEntity
  8
M1
 62
     7
100
AcDbCircle
 10
68.527077
 20
354.284005
 40
1.0
100
AcDbArc
 50
90.0
 51
180.0
  0
ARC
  5
52B
100
AcDbEntity
  8
M1
 62
     7
100
AcDbCircle
 10
68.527077
 20
285.284005
 40
1.0
100
AcDbArc
 50
180.0
 51
270.0
  0
ARC
  5
52C
100
AcDbEntity
  8
M1
 62
     7
100
AcDbCircle
 10
55.927077
 20
354.284005
 40
1.0
100
AcDbArc
 50
0.0
 51
90.0
  0
ARC
  5
52D
100
AcDbEntity
  8
M1
 62
     7
100
AcDbCircle
 10
55.927077
 20
285.284005
 40
1.0
100
AcDbArc
 50
270.0
 51
360.0
  0
LINE
  5
52E
100
AcDbEntity
  8
M1
 62
     7
100
AcDbLine
 10
71.427078
 20
312.284005
 11
71.427078
 21
325.884005
  0
LINE
  5
52F
100
AcDbEntity
  8
M1
 62
     7
100
AcDbLine
 10
70.427076
 20
331.784005
 11
68.927077
 21
331.784005
  0
LINE
  5
530
100
AcDbEntity
  8
M1
 62
     7
100
AcDbLine
 10
70.427076
 20
307.784005
 11
69.927079
 21
307.784005
  0
LINE
  5
531
100
AcDbEntity
  8
M1
 62
     7
100
AcDbLine
 10
92.327074
 20
299.684006
 11
92.62708
 21
299.684006
  0
LINE
  5
532
100
AcDbEntity
  8
M1
 62
     7
100
AcDbLine
 10
91.32708
 20
346.484005
 11
91.32708
 21
324.484005
  0
LINE
  5
533
100
AcDbEntity
  8
M1
 62
     7
100
AcDbLine
 10
55.927077
 20
284.284004
 11
55.527077
 21
284.284004
  0
LINE
  5
534
100
AcDbEntity
  8
M1
 62
     7
100
AcDbLine
 10
55.527077
 20
300.884005
 11
55.927077
 21
300.884005
  0
LINE
  5
535
100
AcDbEntity
  8
M1
 62
     7
100
AcDbLine
 10
55.927077
 20
300.884005
 11
56.927079
 21
300.884005
  0
ARC
  5
536
100
AcDbEntity
  8
M1
 62
     7
100
AcDbCircle
 10
68.927077
 20
354.284005
 40
1.0
100
AcDbArc
 50
0.0
 51
90.0
  0
ARC
  5
537
100
AcDbEntity
  8
M1
 62
     7
100
AcDbCircle
 10
81.527077
 20
354.284005
 40
1.0
100
AcDbArc
 50
90.0
 51
180.0
  0
LINE
  5
538
100
AcDbEntity
  8
M1
 62
     7
100
AcDbLine
 10
91.32708
 20
315.084005
 11
91.32708
 21
293.084005
  0
ARC
  5
539
100
AcDbEntity
  8
M1
 62
     7
100
AcDbCircle
 10
68.927077
 20
285.284005
 40
1.0
100
AcDbArc
 50
270.0
 51
360.0
  0
ARC
  5
53A
100
AcDbEntity
  8
M1
 62
     7
100
AcDbCircle
 10
81.927077
 20
285.284005
 40
1.0
100
AcDbArc
 50
270.0
 51
360.0
  0
LINE
  5
53B
100
AcDbEntity
  8
M1
 62
     7
100
AcDbLine
 10
55.527077
 20
355.284006
 11
55.927077
 21
355.284006
  0
ARC
  5
53C
100
AcDbEntity
  8
M1
 62
     7
100
AcDbCircle
 10
81.527077
 20
285.284005
 40
1.0
100
AcDbArc
 50
180.0
 51
270.0
  0
ARC
  5
53D
100
AcDbEntity
  8
M1
 62
     7
100
AcDbCircle
 10
81.927077
 20
354.284005
 40
1.0
100
AcDbArc
 50
0.0
 51
90.0
  0
LINE
  5
53E
100
AcDbEntity
  8
M1
 62
     7
100
AcDbLine
 10
92.62708
 20
323.484005
 11
92.62708
 21
316.084005
  0
LINE
  5
53F
100
AcDbEntity
  8
M1
 62
     7
100
AcDbLine
 10
84.927076
 20
315.784005
 11
84.927076
 21
323.784005
  0
LINE
  5
540
100
AcDbEntity
  8
M1
 62
     7
100
AcDbLine
 10
82.927076
 20
315.784005
 11
84.927076
 21
315.784005
  0
LINE
  5
541
100
AcDbEntity
  8
M1
 62
     7
100
AcDbLine
 10
31.827078
 20
316.084005
 11
32.127077
 21
316.084005
  0
LINE
  5
542
100
AcDbEntity
  8
M1
 62
     7
100
AcDbLine
 10
31.827078
 20
339.884004
 11
32.127077
 21
339.884004
  0
LINE
  5
543
100
AcDbEntity
  8
M1
 62
     7
100
AcDbLine
 10
91.32708
 20
323.484005
 11
91.32708
 21
316.084005
  0
LINE
  5
544
100
AcDbEntity
  8
M1
 62
     7
100
AcDbLine
 10
91.32708
 20
316.084005
 11
88.327074
 21
316.084005
  0
LINE
  5
545
100
AcDbEntity
  8
M1
 62
     7
100
AcDbLine
 10
31.827078
 20
323.484005
 11
31.827078
 21
316.084005
  0
LINE
  5
546
100
AcDbEntity
  8
M1
 62
     7
100
AcDbLine
 10
88.327074
 20
323.484005
 11
91.32708
 21
323.484005
  0
LINE
  5
547
100
AcDbEntity
  8
M1
 62
     7
100
AcDbLine
 10
82.027079
 20
323.284005
 11
82.027079
 21
322.284005
  0
LINE
  5
548
100
AcDbEntity
  8
M1
 62
     7
100
AcDbLine
 10
82.927076
 20
323.784005
 11
84.927076
 21
323.784005
  0
LINE
  5
549
100
AcDbEntity
  8
M1
 62
     7
100
AcDbLine
 10
88.327074
 20
316.084005
 11
88.327074
 21
323.484005
  0
LINE
  5
54A
100
AcDbEntity
  8
M1
 62
     7
100
AcDbLine
 10
54.027078
 20
331.784005
 11
55.527077
 21
331.784005
  0
LINE
  5
54B
100
AcDbEntity
  8
M1
 62
     7
100
AcDbLine
 10
53.027078
 20
312.284005
 11
53.027078
 21
325.884005
  0
LINE
  5
54C
100
AcDbEntity
  8
M1
 62
     7
100
AcDbLine
 10
54.027078
 20
307.784005
 11
54.527079
 21
307.784005
  0
LINE
  5
54D
100
AcDbEntity
  8
M1
 62
     7
100
AcDbLine
 10
57.177075
 20
330.784005
 11
67.277079
 21
330.784005
  0
LINE
  5
54E
100
AcDbEntity
  8
M1
 62
     7
100
AcDbLine
 10
67.777076
 20
324.384005
 11
56.677078
 21
324.384005
  0
LINE
  5
54F
100
AcDbEntity
  8
M1
 62
     7
100
AcDbLine
 10
57.177075
 20
325.884005
 11
67.277079
 21
325.884005
  0
LINE
  5
550
100
AcDbEntity
  8
M1
 62
     7
100
AcDbLine
 10
67.277079
 20
329.284005
 11
57.177075
 21
329.284005
  0
LINE
  5
551
100
AcDbEntity
  8
M1
 62
     7
100
AcDbLine
 10
32.127077
 20
323.484005
 11
31.827078
 21
323.484005
  0
LINE
  5
552
100
AcDbEntity
  8
M1
 62
     7
100
AcDbLine
 10
82.027079
 20
317.284005
 11
82.027079
 21
316.284005
  0
LINE
  5
553
100
AcDbEntity
  8
M1
 62
     7
100
AcDbLine
 10
32.127077
 20
299.684006
 11
31.827078
 21
299.684006
  0
LINE
  5
554
100
AcDbEntity
  8
M1
 62
     7
100
AcDbLine
 10
33.127077
 20
346.484005
 11
33.127077
 21
324.484005
  0
LINE
  5
555
100
AcDbEntity
  8
M1
 62
     7
100
AcDbLine
 10
83.527078
 20
316.784005
 11
83.527078
 21
315.784005
  0
LINE
  5
556
100
AcDbEntity
  8
M1
 62
     7
100
AcDbLine
 10
83.527078
 20
323.784005
 11
83.527078
 21
322.784005
  0
LINE
  5
557
100
AcDbEntity
  8
M1
 62
     7
100
AcDbLine
 10
33.127077
 20
329.084005
 11
41.527077
 21
329.084005
  0
LINE
  5
558
100
AcDbEntity
  8
M1
 62
     7
100
AcDbLine
 10
83.527078
 20
316.784005
 11
83.827076
 21
316.784005
  0
LINE
  5
559
100
AcDbEntity
  8
M1
 62
     7
100
AcDbLine
 10
83.827076
 20
322.784005
 11
83.827076
 21
321.284005
  0
LINE
  5
55A
100
AcDbEntity
  8
M1
 62
     7
100
AcDbLine
 10
82.927076
 20
310.484005
 11
91.32708
 21
310.484005
  0
LINE
  5
55B
100
AcDbEntity
  8
M1
 62
     7
100
AcDbLine
 10
83.827076
 20
322.784005
 11
83.527078
 21
322.784005
  0
LINE
  5
55C
100
AcDbEntity
  8
M1
 62
     7
100
AcDbLine
 10
83.827076
 20
318.284005
 11
83.827076
 21
316.784005
  0
LINE
  5
55D
100
AcDbEntity
  8
M1
 62
     7
100
AcDbLine
 10
40.627077
 20
318.284005
 11
40.627077
 21
316.784005
  0
LINE
  5
55E
100
AcDbEntity
  8
M1
 62
     7
100
AcDbLine
 10
40.627077
 20
322.784005
 11
40.627077
 21
321.284005
  0
LINE
  5
55F
100
AcDbEntity
  8
M1
 62
     7
100
AcDbLine
 10
40.927078
 20
316.784005
 11
40.627077
 21
316.784005
  0
LINE
  5
560
100
AcDbEntity
  8
M1
 62
     7
100
AcDbLine
 10
40.927078
 20
316.784005
 11
40.927078
 21
315.784005
  0
LINE
  5
561
100
AcDbEntity
  8
M1
 62
     7
100
AcDbLine
 10
41.527077
 20
310.484005
 11
33.127077
 21
310.484005
  0
LINE
  5
562
100
AcDbEntity
  8
M1
 62
     7
100
AcDbLine
 10
40.627077
 20
322.784005
 11
40.927078
 21
322.784005
  0
ARC
  5
563
100
AcDbEntity
  8
M1
 62
     7
100
AcDbCircle
 10
42.927077
 20
354.284005
 40
1.0
100
AcDbArc
 50
0.0
 51
90.0
  0
ARC
  5
564
100
AcDbEntity
  8
M1
 62
     7
100
AcDbCircle
 10
55.527077
 20
285.284005
 40
1.0
100
AcDbArc
 50
180.0
 51
270.0
  0
ARC
  5
565
100
AcDbEntity
  8
M1
 62
     7
100
AcDbCircle
 10
42.527077
 20
354.284005
 40
1.0
100
AcDbArc
 50
90.0
 51
180.0
  0
ARC
  5
566
100
AcDbEntity
  8
M1
 62
     7
100
AcDbCircle
 10
42.927077
 20
285.284005
 40
1.0
100
AcDbArc
 50
270.0
 51
360.0
  0
LINE
  5
567
100
AcDbEntity
  8
M1
 62
     7
100
AcDbLine
 10
42.927076
 20
284.284004
 11
42.727077
 21
284.284004
  0
LINE
  5
568
100
AcDbEntity
  8
M1
 62
     7
100
AcDbLine
 10
42.527077
 20
355.284006
 11
42.927076
 21
355.284006
  0
LINE
  5
569
100
AcDbEntity
  8
M1
 62
     7
100
AcDbLine
 10
71.627078
 20
325.084005
 11
71.427078
 21
325.084005
  0
ARC
  5
56A
100
AcDbEntity
  8
M1
 62
     7
100
AcDbCircle
 10
41.527077
 20
300.284005
 40
0.6
100
AcDbArc
 50
180.0
 51
270.0
  0
LINE
  5
56B
100
AcDbEntity
  8
M1
 62
     7
100
AcDbLine
 10
40.927078
 20
323.784005
 11
40.927078
 21
322.784005
  0
LINE
  5
56C
100
AcDbEntity
  8
M1
 62
     7
100
AcDbLine
 10
91.32708
 20
329.084005
 11
82.927076
 21
329.084005
  0
ARC
  5
56D
100
AcDbEntity
  8
M1
 62
     7
100
AcDbCircle
 10
82.927077
 20
300.284005
 40
0.6
100
AcDbArc
 50
270.0
 51
360.0
  0
ARC
  5
56E
100
AcDbEntity
  8
M1
 62
     7
100
AcDbCircle
 10
42.527077
 20
285.284005
 40
1.0
100
AcDbArc
 50
180.0
 51
270.0
  0
ARC
  5
56F
100
AcDbEntity
  8
M1
 62
     7
100
AcDbCircle
 10
41.527077
 20
339.284005
 40
0.6
100
AcDbArc
 50
90.0
 51
180.0
  0
ARC
  5
570
100
AcDbEntity
  8
M1
 62
     7
100
AcDbCircle
 10
82.927077
 20
339.284005
 40
0.6
100
AcDbArc
 50
0.0
 51
90.0
  0
LINE
  5
571
100
AcDbEntity
  8
M1
 62
     7
100
AcDbLine
 10
69.927079
 20
338.684005
 11
67.527076
 21
338.684005
  0
LINE
  5
572
100
AcDbEntity
  8
M1
 62
     7
100
AcDbLine
 10
69.927079
 20
300.884005
 11
68.927077
 21
300.884005
  0
LINE
  5
573
100
AcDbEntity
  8
M1
 62
     7
100
AcDbLine
 10
68.527078
 20
284.284004
 11
68.927077
 21
284.284004
  0
LINE
  5
574
100
AcDbEntity
  8
M1
 62
     7
100
AcDbLine
 10
68.527078
 20
300.884005
 11
67.527076
 21
300.884005
  0
LINE
  5
575
100
AcDbEntity
  8
M1
 62
     7
100
AcDbLine
 10
68.927077
 20
300.884005
 11
68.527078
 21
300.884005
  0
LINE
  5
576
100
AcDbEntity
  8
M1
 62
     7
100
AcDbLine
 10
82.927076
 20
323.284005
 11
82.927076
 21
354.284006
  0
LINE
  5
577
100
AcDbEntity
  8
M1
 62
     7
100
AcDbLine
 10
68.927077
 20
355.284006
 11
68.527078
 21
355.284006
  0
LINE
  5
578
100
AcDbEntity
  8
M1
 62
     7
100
AcDbLine
 10
80.527076
 20
302.384005
 11
80.527076
 21
285.284006
  0
ARC
  5
579
100
AcDbEntity
  8
M1
 62
     7
100
AcDbCircle
 10
56.177077
 20
308.284005
 40
0.5
100
AcDbArc
 50
270.0
 51
360.0
  0
ARC
  5
57A
100
AcDbEntity
  8
M1
 62
     7
100
AcDbCircle
 10
68.277077
 20
308.284005
 40
0.5
100
AcDbArc
 50
180.0
 51
270.0
  0
ARC
  5
57B
100
AcDbEntity
  8
M1
 62
     7
100
AcDbCircle
 10
56.177077
 20
330.784005
 40
1.0
100
AcDbArc
 50
0.0
 51
90.0
  0
ARC
  5
57C
100
AcDbEntity
  8
M1
 62
     7
100
AcDbCircle
 10
56.677077
 20
324.884005
 40
0.5
100
AcDbArc
 50
270.0
 51
360.0
  0
ARC
  5
57D
100
AcDbEntity
  8
M1
 62
     7
100
AcDbCircle
 10
70.427077
 20
308.784005
 40
1.0
100
AcDbArc
 50
270.0
 51
360.0
  0
ARC
  5
57E
100
AcDbEntity
  8
M1
 62
     7
100
AcDbCircle
 10
70.427077
 20
312.284005
 40
1.0
100
AcDbArc
 50
0.0
 51
90.0
  0
ARC
  5
57F
100
AcDbEntity
  8
M1
 62
     7
100
AcDbCircle
 10
68.277077
 20
330.784005
 40
1.0
100
AcDbArc
 50
90.0
 51
180.0
  0
ARC
  5
580
100
AcDbEntity
  8
M1
 62
     7
100
AcDbCircle
 10
67.777077
 20
324.884005
 40
0.5
100
AcDbArc
 50
180.0
 51
270.0
  0
ARC
  5
581
100
AcDbEntity
  8
M1
 62
     7
100
AcDbCircle
 10
92.627077
 20
324.484005
 40
1.0
100
AcDbArc
 50
270.0
 51
360.0
  0
ARC
  5
582
100
AcDbEntity
  8
M1
 62
     7
100
AcDbCircle
 10
92.627077
 20
338.884005
 40
1.0
100
AcDbArc
 50
0.0
 51
90.0
  0
ARC
  5
583
100
AcDbEntity
  8
M1
 62
     7
100
AcDbCircle
 10
54.027077
 20
330.784005
 40
1.0
100
AcDbArc
 50
90.0
 51
180.0
  0
ARC
  5
584
100
AcDbEntity
  8
M1
 62
     7
100
AcDbCircle
 10
54.027077
 20
308.784005
 40
1.0
100
AcDbArc
 50
180.0
 51
270.0
  0
ARC
  5
585
100
AcDbEntity
  8
M1
 62
     7
100
AcDbCircle
 10
92.627077
 20
300.684005
 40
1.0
100
AcDbArc
 50
270.0
 51
360.0
  0
LINE
  5
586
100
AcDbEntity
  8
M1
 62
     7
100
AcDbLine
 10
67.777076
 20
313.284005
 11
56.677078
 21
313.284005
  0
LINE
  5
587
100
AcDbEntity
  8
M1
 62
     7
100
AcDbLine
 10
56.677078
 20
309.284005
 11
67.777076
 21
309.284005
  0
LINE
  5
588
100
AcDbEntity
  8
M1
 62
     7
100
AcDbLine
 10
56.677078
 20
314.784005
 11
67.777076
 21
314.784005
  0
LINE
  5
589
100
AcDbEntity
  8
M1
 62
     7
100
AcDbLine
 10
53.027078
 20
325.884005
 11
53.027078
 21
330.784005
  0
LINE
  5
58A
100
AcDbEntity
  8
M1
 62
     7
100
AcDbLine
 10
54.527079
 20
324.384005
 11
53.027078
 21
325.884005
  0
LINE
  5
58B
100
AcDbEntity
  8
M1
 62
     7
100
AcDbLine
 10
53.027078
 20
308.784005
 11
53.027078
 21
312.284005
  0
ARC
  5
58C
100
AcDbEntity
  8
M1
 62
     7
100
AcDbCircle
 10
45.127077
 20
303.084005
 40
1.0
100
AcDbArc
 50
270.0
 51
315.572996
  0
ARC
  5
58D
100
AcDbEntity
  8
M1
 62
     7
100
AcDbCircle
 10
53.327077
 20
303.084005
 40
1.0
100
AcDbArc
 50
224.427004
 51
270.0
  0
ARC
  5
58E
100
AcDbEntity
  8
M1
 62
     7
100
AcDbCircle
 10
54.027077
 20
312.284005
 40
1.0
100
AcDbArc
 50
90.0
 51
180.0
  0
ARC
  5
58F
100
AcDbEntity
  8
M1
 62
     7
100
AcDbCircle
 10
70.427077
 20
330.784005
 40
1.0
100
AcDbArc
 50
0.0
 51
90.0
  0
LINE
  5
590
100
AcDbEntity
  8
M1
 62
     7
100
AcDbLine
 10
93.627074
 20
350.284005
 11
93.627074
 21
289.284005
  0
ARC
  5
591
100
AcDbEntity
  8
M1
 62
     7
100
AcDbCircle
 10
79.327077
 20
336.484005
 40
1.0
100
AcDbArc
 50
90.0
 51
135.572996
  0
LINE
  5
592
100
AcDbEntity
  8
M1
 62
     7
100
AcDbLine
 10
66.327078
 20
337.484005
 11
67.527076
 21
337.484005
  0
LINE
  5
593
100
AcDbEntity
  8
M1
 62
     7
100
AcDbLine
 10
79.327078
 20
302.084005
 11
80.527076
 21
302.084005
  0
LINE
  5
594
100
AcDbEntity
  8
M1
 62
     7
100
AcDbLine
 10
71.127077
 20
302.084005
 11
69.927079
 21
302.084005
  0
LINE
  5
595
100
AcDbEntity
  8
M1
 62
     7
100
AcDbLine
 10
91.32708
 20
336.884005
 11
83.527078
 21
336.884005
  0
LINE
  5
596
100
AcDbEntity
  8
M1
 62
     7
100
AcDbLine
 10
58.127077
 20
337.484005
 11
56.927079
 21
337.484005
  0
LINE
  5
597
100
AcDbEntity
  8
M1
 62
     7
100
AcDbLine
 10
69.927079
 20
290.784006
 11
70.391658
 21
290.784006
  0
LINE
  5
598
100
AcDbEntity
  8
M1
 62
     7
100
AcDbLine
 10
67.527076
 20
348.784006
 11
67.062489
 21
348.784006
  0
ARC
  5
599
100
AcDbEntity
  8
M1
 62
     7
100
AcDbCircle
 10
32.127077
 20
338.884005
 40
1.0
100
AcDbArc
 50
0.0
 51
90.0
  0
ARC
  5
59A
100
AcDbEntity
  8
M1
 62
     7
100
AcDbCircle
 10
32.127077
 20
315.084005
 40
1.0
100
AcDbArc
 50
0.0
 51
90.0
  0
ARC
  5
59B
100
AcDbEntity
  8
M1
 62
     7
100
AcDbCircle
 10
31.827077
 20
324.484005
 40
1.0
100
AcDbArc
 50
180.0
 51
270.0
  0
ARC
  5
59C
100
AcDbEntity
  8
M1
 62
     7
100
AcDbCircle
 10
31.827077
 20
338.884005
 40
1.0
100
AcDbArc
 50
90.0
 51
180.0
  0
ARC
  5
59D
100
AcDbEntity
  8
M1
 62
     7
100
AcDbCircle
 10
92.327077
 20
300.684005
 40
1.0
100
AcDbArc
 50
180.0
 51
270.0
  0
ARC
  5
59E
100
AcDbEntity
  8
M1
 62
     7
100
AcDbCircle
 10
92.327077
 20
324.484005
 40
1.0
100
AcDbArc
 50
180.0
 51
270.0
  0
ARC
  5
59F
100
AcDbEntity
  8
M1
 62
     7
100
AcDbCircle
 10
32.127077
 20
300.684005
 40
1.0
100
AcDbArc
 50
270.0
 51
360.0
  0
ARC
  5
5A0
100
AcDbEntity
  8
M1
 62
     7
100
AcDbCircle
 10
32.127077
 20
324.484005
 40
1.0
100
AcDbArc
 50
270.0
 51
360.0
  0
ARC
  5
5A1
100
AcDbEntity
  8
M1
 62
     7
100
AcDbCircle
 10
31.827077
 20
315.084005
 40
1.0
100
AcDbArc
 50
90.0
 51
180.0
  0
ARC
  5
5A2
100
AcDbEntity
  8
M1
 62
     7
100
AcDbCircle
 10
31.827077
 20
300.684005
 40
1.0
100
AcDbArc
 50
180.0
 51
270.0
  0
LINE
  5
5A3
100
AcDbEntity
  8
M1
 62
     7
100
AcDbLine
 10
79.327078
 20
337.484005
 11
80.527076
 21
337.484005
  0
LINE
  5
5A4
100
AcDbEntity
  8
M1
 62
     7
100
AcDbLine
 10
33.127077
 20
323.484005
 11
33.127077
 21
316.084005
  0
LINE
  5
5A5
100
AcDbEntity
  8
M1
 62
     7
100
AcDbLine
 10
42.427077
 20
317.284005
 11
42.427077
 21
316.284005
  0
LINE
  5
5A6
100
AcDbEntity
  8
M1
 62
     7
100
AcDbLine
 10
36.127078
 20
316.084005
 11
36.127078
 21
323.484005
  0
LINE
  5
5A7
100
AcDbEntity
  8
M1
 62
     7
100
AcDbLine
 10
33.127077
 20
316.084005
 11
36.127078
 21
316.084005
  0
LINE
  5
5A8
100
AcDbEntity
  8
M1
 62
     7
100
AcDbLine
 10
39.527077
 20
315.784005
 11
39.527077
 21
323.784005
  0
LINE
  5
5A9
100
AcDbEntity
  8
M1
 62
     7
100
AcDbLine
 10
41.527077
 20
323.784005
 11
39.527077
 21
323.784005
  0
LINE
  5
5AA
100
AcDbEntity
  8
M1
 62
     7
100
AcDbLine
 10
42.427077
 20
323.284005
 11
42.427077
 21
322.284005
  0
LINE
  5
5AB
100
AcDbEntity
  8
M1
 62
     7
100
AcDbLine
 10
41.527077
 20
315.784005
 11
39.527077
 21
315.784005
  0
ARC
  5
5AC
100
AcDbEntity
  8
M1
 62
     7
100
AcDbCircle
 10
92.327077
 20
338.884005
 40
1.0
100
AcDbArc
 50
90.0
 51
180.0
  0
ARC
  5
5AD
100
AcDbEntity
  8
M1
 62
     7
100
AcDbCircle
 10
92.627077
 20
315.084005
 40
1.0
100
AcDbArc
 50
0.0
 51
90.0
  0
LINE
  5
5AE
100
AcDbEntity
  8
M1
 62
     7
100
AcDbLine
 10
80.527076
 20
348.784006
 11
80.227074
 21
348.784006
  0
ARC
  5
5AF
100
AcDbEntity
  8
M1
 62
     7
100
AcDbCircle
 10
92.327077
 20
315.084005
 40
1.0
100
AcDbArc
 50
90.0
 51
180.0
  0
LINE
  5
5B0
100
AcDbEntity
  8
M1
 62
     7
100
AcDbLine
 10
52.827078
 20
325.084005
 11
53.027078
 21
325.084005
  0
LINE
  5
5B1
100
AcDbEntity
  8
M1
 62
     7
100
AcDbLine
 10
36.127078
 20
323.484005
 11
33.127077
 21
323.484005
  0
LINE
  5
5B2
100
AcDbEntity
  8
M1
 62
     7
100
AcDbLine
 10
71.627078
 20
314.484005
 11
71.427078
 21
314.484005
  0
LINE
  5
5B3
100
AcDbEntity
  8
M1
 62
     7
100
AcDbLine
 10
52.827078
 20
314.484005
 11
53.027078
 21
314.484005
  0
LINE
  5
5B4
100
AcDbEntity
  8
M1
 62
     7
100
AcDbLine
 10
57.177075
 20
330.784005
 11
57.177075
 21
324.884005
  0
LINE
  5
5B5
100
AcDbEntity
  8
M1
 62
     7
100
AcDbLine
 10
67.277079
 20
330.784005
 11
67.277079
 21
324.884005
  0
LINE
  5
5B6
100
AcDbEntity
  8
M1
 62
     7
100
AcDbLine
 10
56.677078
 20
316.534005
 11
56.677078
 21
308.284005
  0
LINE
  5
5B7
100
AcDbEntity
  8
M1
 62
     7
100
AcDbLine
 10
56.427078
 20
317.034005
 11
56.677078
 21
316.534005
  0
LINE
  5
5B8
100
AcDbEntity
  8
M1
 62
     7
100
AcDbLine
 10
68.027077
 20
317.034005
 11
67.777076
 21
316.534005
  0
LINE
  5
5B9
100
AcDbEntity
  8
M1
 62
     7
100
AcDbLine
 10
68.027077
 20
322.534005
 11
68.027077
 21
317.034005
  0
LINE
  5
5BA
100
AcDbEntity
  8
M1
 62
     7
100
AcDbLine
 10
67.777076
 20
324.384005
 11
67.777076
 21
323.034005
  0
LINE
  5
5BB
100
AcDbEntity
  8
M1
 62
     7
100
AcDbLine
 10
67.777076
 20
316.534005
 11
67.777076
 21
308.284005
  0
LINE
  5
5BC
100
AcDbEntity
  8
M1
 62
     7
100
AcDbLine
 10
54.027078
 20
313.284005
 11
54.527079
 21
313.284005
  0
LINE
  5
5BD
100
AcDbEntity
  8
M1
 62
     7
100
AcDbLine
 10
56.427078
 20
322.534005
 11
56.427078
 21
317.034005
  0
LINE
  5
5BE
100
AcDbEntity
  8
M1
 62
     7
100
AcDbLine
 10
54.527079
 20
313.284005
 11
54.527079
 21
324.384005
  0
LINE
  5
5BF
100
AcDbEntity
  8
M1
 62
     7
100
AcDbLine
 10
56.677078
 20
323.034005
 11
56.427078
 21
322.534005
  0
LINE
  5
5C0
100
AcDbEntity
  8
M1
 62
     7
100
AcDbLine
 10
56.677078
 20
324.384005
 11
56.677078
 21
323.034005
  0
LINE
  5
5C1
100
AcDbEntity
  8
M1
 62
     7
100
AcDbLine
 10
43.927077
 20
290.784006
 11
44.227077
 21
290.784006
  0
LINE
  5
5C2
100
AcDbEntity
  8
M1
 62
     7
100
AcDbLine
 10
53.327077
 20
302.084005
 11
54.527079
 21
302.084005
  0
LINE
  5
5C3
100
AcDbEntity
  8
M1
 62
     7
100
AcDbLine
 10
71.427078
 20
308.784005
 11
71.427078
 21
312.284005
  0
LINE
  5
5C4
100
AcDbEntity
  8
M1
 62
     7
100
AcDbLine
 10
45.127076
 20
302.084005
 11
43.927077
 21
302.084005
  0
LINE
  5
5C5
100
AcDbEntity
  8
M1
 62
     7
100
AcDbLine
 10
70.427076
 20
313.284005
 11
69.927079
 21
313.284005
  0
LINE
  5
5C6
100
AcDbEntity
  8
M1
 62
     7
100
AcDbLine
 10
69.927079
 20
313.284005
 11
69.927079
 21
324.384005
  0
LINE
  5
5C7
100
AcDbEntity
  8
M1
 62
     7
100
AcDbLine
 10
54.027078
 20
331.784005
 11
56.177077
 21
331.784005
  0
LINE
  5
5C8
100
AcDbEntity
  8
M1
 62
     7
100
AcDbLine
 10
67.777076
 20
323.034005
 11
68.027077
 21
322.534005
  0
LINE
  5
5C9
100
AcDbEntity
  8
M1
 62
     7
100
AcDbLine
 10
71.427078
 20
325.884005
 11
71.427078
 21
330.784005
  0
LINE
  5
5CA
100
AcDbEntity
  8
M1
 62
     7
100
AcDbLine
 10
69.927079
 20
324.384005
 11
71.427078
 21
325.884005
  0
LINE
  5
5CB
100
AcDbEntity
  8
M1
 62
     7
100
AcDbLine
 10
54.027077
 20
307.784005
 11
70.427076
 21
307.784005
  0
LINE
  5
5CC
100
AcDbEntity
  8
M1
 62
     7
100
AcDbLine
 10
70.427076
 20
331.784005
 11
68.277077
 21
331.784005
  0
ELLIPSE
  5
5CD
100
AcDbEntity
  8
M1
 62
     7
100
AcDbEllipse
 10
57.927077
 20
354.700672
 11
1.0
 21
0.0
210
0.0
220
0.0
230
1.0
 40
0.416667
 41
3.141592653589793
 42
4.71238898038469
  0
ELLIPSE
  5
5CE
100
AcDbEntity
  8
M1
 62
     7
100
AcDbEllipse
 10
66.527077
 20
354.700672
 11
1.0
 21
0.0
210
0.0
220
0.0
230
1.0
 40
0.416667
 41
4.71238898038469
 42
6.283185307179586
  0
LINE
  5
5CF
100
AcDbEntity
  8
M1
 62
     7
100
AcDbLine
 10
66.527077
 20
354.284006
 11
64.827074
 21
354.284006
  0
LINE
  5
5D0
100
AcDbEntity
  8
M1
 62
     7
100
AcDbLine
 10
43.927077
 20
350.784004
 11
44.227077
 21
350.784004
  0
LINE
  5
5D1
100
AcDbEntity
  8
M1
 62
     7
100
AcDbLine
 10
56.927079
 20
350.784004
 11
59.627074
 21
350.784004
  0
LINE
  5
5D2
100
AcDbEntity
  8
M1
 62
     7
100
AcDbLine
 10
56.927079
 20
361.784005
 11
56.927079
 21
337.184005
  0
LINE
  5
5D3
100
AcDbEntity
  8
M1
 62
     7
100
AcDbLine
 10
67.527076
 20
352.784005
 11
64.827074
 21
352.784005
  0
LINE
  5
5D4
100
AcDbEntity
  8
M1
 62
     7
100
AcDbLine
 10
71.977076
 20
284.784005
 11
71.977076
 21
285.284006
  0
LINE
  5
5D5
100
AcDbEntity
  8
M1
 62
     7
100
AcDbLine
 10
71.227079
 20
284.284004
 11
75.008508
 21
284.284004
  0
LINE
  5
5D6
100
AcDbEntity
  8
M1
 62
     7
100
AcDbLine
 10
71.977076
 20
285.284006
 11
71.977076
 21
287.284006
  0
LINE
  5
5D7
100
AcDbEntity
  8
M1
 62
     7
100
AcDbLine
 10
80.227078
 20
288.784005
 11
80.527076
 21
288.784005
  0
LINE
  5
5D8
100
AcDbEntity
  8
M1
 62
     7
100
AcDbLine
 10
32.127077
 20
292.084005
 11
31.827078
 21
292.084005
  0
LINE
  5
5D9
100
AcDbEntity
  8
M1
 62
     7
100
AcDbLine
 10
44.227078
 20
288.784005
 11
43.927077
 21
288.784005
  0
LINE
  5
5DA
100
AcDbEntity
  8
M1
 62
     7
100
AcDbLine
 10
31.827078
 20
347.484004
 11
32.127077
 21
347.484004
  0
LINE
  5
5DB
100
AcDbEntity
  8
M1
 62
     7
100
AcDbLine
 10
53.227078
 20
288.284004
 11
53.227078
 21
290.784006
  0
LINE
  5
5DC
100
AcDbEntity
  8
M1
 62
     7
100
AcDbLine
 10
54.527079
 20
287.284006
 11
54.227078
 21
287.284006
  0
LINE
  5
5DD
100
AcDbEntity
  8
M1
 62
     7
100
AcDbLine
 10
80.527076
 20
350.784004
 11
80.227074
 21
350.784004
  0
LINE
  5
5DE
100
AcDbEntity
  8
M1
 62
     7
100
AcDbLine
 10
71.227079
 20
288.284004
 11
71.227079
 21
290.784006
  0
LINE
  5
5DF
100
AcDbEntity
  8
M1
 62
     7
100
AcDbLine
 10
67.527076
 20
287.284006
 11
64.827074
 21
287.284006
  0
LINE
  5
5E0
100
AcDbEntity
  8
M1
 62
     7
100
AcDbLine
 10
70.227077
 20
287.284006
 11
69.927079
 21
287.284006
  0
ARC
  5
5E1
100
AcDbEntity
  8
M1
 62
     7
100
AcDbCircle
 10
71.477077
 20
284.784005
 40
0.5
100
AcDbArc
 50
270.0
 51
360.0
  0
ARC
  5
5E2
100
AcDbEntity
  8
M1
 62
     7
100
AcDbCircle
 10
75.227077
 20
287.284005
 40
3.25
100
AcDbArc
 50
132.768597
 51
180.0
  0
ARC
  5
5E3
100
AcDbEntity
  8
M1
 62
     7
100
AcDbCircle
 10
57.927077
 20
361.784005
 40
1.0
100
AcDbArc
 50
134.427281
 51
180.0
  0
ARC
  5
5E4
100
AcDbEntity
  8
M1
 62
     7
100
AcDbCircle
 10
66.527077
 20
361.784005
 40
1.0
100
AcDbArc
 50
0.0
 51
45.573273
  0
ARC
  5
5E5
100
AcDbEntity
  8
M1
 62
     7
100
AcDbCircle
 10
53.227077
 20
285.284005
 40
1.0
100
AcDbArc
 50
270.0
 51
360.0
  0
ARC
  5
5E6
100
AcDbEntity
  8
M1
 62
     7
100
AcDbCircle
 10
71.227077
 20
285.284005
 40
1.0
100
AcDbArc
 50
180.0
 51
270.0
  0
ARC
  5
5E7
100
AcDbEntity
  8
M1
 62
     7
100
AcDbCircle
 10
49.227077
 20
287.284005
 40
3.25
100
AcDbArc
 50
0.0
 51
47.231455
  0
LINE
  5
5E8
100
AcDbEntity
  8
M1
 62
     7
100
AcDbLine
 10
54.227078
 20
287.284006
 11
54.227078
 21
285.284006
  0
LINE
  5
5E9
100
AcDbEntity
  8
M1
 62
     7
100
AcDbLine
 10
70.227077
 20
287.284006
 11
70.227077
 21
285.284006
  0
LINE
  5
5EA
100
AcDbEntity
  8
M1
 62
     7
100
AcDbLine
 10
52.477078
 20
284.784005
 11
52.477078
 21
287.284005
  0
ARC
  5
5EB
100
AcDbEntity
  8
M1
 62
     7
100
AcDbCircle
 10
70.227077
 20
288.284005
 40
1.0
100
AcDbArc
 50
270.0
 51
360.0
  0
ARC
  5
5EC
100
AcDbEntity
  8
M1
 62
     7
100
AcDbCircle
 10
52.977077
 20
284.784005
 40
0.5
100
AcDbArc
 50
180.0
 51
270.0
  0
ARC
  5
5ED
100
AcDbEntity
  8
M1
 62
     7
100
AcDbCircle
 10
54.227077
 20
288.284005
 40
1.0
100
AcDbArc
 50
180.0
 51
270.0
  0
ARC
  5
5EE
100
AcDbEntity
  8
M1
 62
     7
100
AcDbCircle
 10
31.827077
 20
346.484005
 40
1.0
100
AcDbArc
 50
90.0
 51
180.0
  0
LINE
  5
5EF
100
AcDbEntity
  8
M1
 62
     7
100
AcDbLine
 10
43.727077
 20
284.284004
 11
35.827077
 21
284.284004
  0
LINE
  5
5F0
100
AcDbEntity
  8
M1
 62
     7
100
AcDbLine
 10
41.527077
 20
354.284005
 11
41.527077
 21
323.284005
  0
LINE
  5
5F1
100
AcDbEntity
  8
M1
 62
     7
100
AcDbLine
 10
83.527078
 20
292.684005
 11
83.527078
 21
310.484005
  0
LINE
  5
5F2
100
AcDbEntity
  8
M1
 62
     7
100
AcDbLine
 10
83.527078
 20
329.084005
 11
83.527078
 21
346.884005
  0
ARC
  5
5F3
100
AcDbEntity
  8
M1
 62
     7
100
AcDbCircle
 10
31.827077
 20
293.084005
 40
1.0
100
AcDbArc
 50
180.0
 51
270.0
  0
ARC
  5
5F4
100
AcDbEntity
  8
M1
 62
     7
100
AcDbCircle
 10
32.127077
 20
293.084005
 40
1.0
100
AcDbArc
 50
270.0
 51
360.0
  0
LINE
  5
5F5
100
AcDbEntity
  8
M1
 62
     7
100
AcDbLine
 10
54.527079
 20
338.684005
 11
56.927079
 21
338.684005
  0
ARC
  5
5F6
100
AcDbEntity
  8
M1
 62
     7
100
AcDbCircle
 10
41.527077
 20
292.684005
 40
0.6
100
AcDbArc
 50
180.0
 51
270.0
  0
ARC
  5
5F7
100
AcDbEntity
  8
M1
 62
     7
100
AcDbCircle
 10
82.927077
 20
346.884005
 40
0.6
100
AcDbArc
 50
0.0
 51
90.0
  0
ARC
  5
5F8
100
AcDbEntity
  8
M1
 62
     7
100
AcDbCircle
 10
32.127077
 20
346.484005
 40
1.0
100
AcDbArc
 50
0.0
 51
90.0
  0
ARC
  5
5F9
100
AcDbEntity
  8
M1
 62
     7
100
AcDbCircle
 10
41.527077
 20
346.884005
 40
0.6
100
AcDbArc
 50
90.0
 51
180.0
  0
LINE
  5
5FA
100
AcDbEntity
  8
M1
 62
     7
100
AcDbLine
 10
43.927077
 20
302.384005
 11
43.927077
 21
285.284006
  0
LINE
  5
5FB
100
AcDbEntity
  8
M1
 62
     7
100
AcDbLine
 10
54.527079
 20
285.284006
 11
54.527079
 21
302.384005
  0
LINE
  5
5FC
100
AcDbEntity
  8
M1
 62
     7
100
AcDbLine
 10
54.527079
 20
300.884005
 11
55.527077
 21
300.884005
  0
LINE
  5
5FD
100
AcDbEntity
  8
M1
 62
     7
100
AcDbLine
 10
81.927077
 20
355.284006
 11
81.527078
 21
355.284006
  0
LINE
  5
5FE
100
AcDbEntity
  8
M1
 62
     7
100
AcDbLine
 10
80.527076
 20
354.284006
 11
80.527076
 21
337.184005
  0
LINE
  5
5FF
100
AcDbEntity
  8
M1
 62
     7
100
AcDbLine
 10
56.927079
 20
285.284005
 11
56.927079
 21
302.384005
  0
LINE
  5
600
100
AcDbEntity
  8
M1
 62
     7
100
AcDbLine
 10
54.527079
 20
354.284005
 11
54.527079
 21
337.184005
  0
LINE
  5
601
100
AcDbEntity
  8
M1
 62
     7
100
AcDbLine
 10
69.927079
 20
302.384005
 11
69.927079
 21
285.284005
  0
LINE
  5
602
100
AcDbEntity
  8
M1
 62
     7
100
AcDbLine
 10
67.527076
 20
285.284005
 11
67.527076
 21
302.384005
  0
LINE
  5
603
100
AcDbEntity
  8
M1
 62
     7
100
AcDbLine
 10
69.927079
 20
354.284005
 11
69.927079
 21
337.184005
  0
LINE
  5
604
100
AcDbEntity
  8
M1
 62
     7
100
AcDbLine
 10
67.527076
 20
337.184005
 11
67.527076
 21
361.784005
  0
LINE
  5
605
100
AcDbEntity
  8
M1
 62
     7
100
AcDbLine
 10
67.527076
 20
287.284006
 11
67.527076
 21
288.284004
  0
LINE
  5
606
100
AcDbEntity
  8
M1
 62
     7
100
AcDbLine
 10
67.527076
 20
352.284006
 11
67.527076
 21
351.284005
  0
LINE
  5
607
100
AcDbEntity
  8
M1
 62
     7
100
AcDbLine
 10
92.327074
 20
292.084005
 11
92.62708
 21
292.084005
  0
LINE
  5
608
100
AcDbEntity
  8
M1
 62
     7
100
AcDbLine
 10
92.62708
 20
347.484004
 11
92.327074
 21
347.484004
  0
LINE
  5
609
100
AcDbEntity
  8
M1
 62
     7
100
AcDbLine
 10
92.427076
 20
339.884004
 11
92.327074
 21
339.884004
  0
LINE
  5
60A
100
AcDbEntity
  8
M1
 62
     7
100
AcDbLine
 10
43.927077
 20
354.284006
 11
43.927077
 21
337.184005
  0
LINE
  5
60B
100
AcDbEntity
  8
M1
 62
     7
100
AcDbLine
 10
32.027077
 20
339.884004
 11
32.127077
 21
339.884004
  0
LINE
  5
60C
100
AcDbEntity
  8
M1
 62
     7
100
AcDbLine
 10
92.427076
 20
299.684006
 11
92.327074
 21
299.684006
  0
LINE
  5
60D
100
AcDbEntity
  8
M1
 62
     7
100
AcDbLine
 10
32.027077
 20
299.684006
 11
32.127077
 21
299.684006
  0
ARC
  5
60E
100
AcDbEntity
  8
M1
 62
     7
100
AcDbCircle
 10
92.327077
 20
293.084005
 40
1.0
100
AcDbArc
 50
180.0
 51
270.0
  0
ARC
  5
60F
100
AcDbEntity
  8
M1
 62
     7
100
AcDbCircle
 10
92.327077
 20
346.484005
 40
1.0
100
AcDbArc
 50
90.0
 51
180.0
  0
ARC
  5
610
100
AcDbEntity
  8
M1
 62
     7
100
AcDbCircle
 10
82.927077
 20
292.684005
 40
0.6
100
AcDbArc
 50
270.0
 51
360.0
  0
ARC
  5
611
100
AcDbEntity
  8
M1
 62
     7
100
AcDbCircle
 10
92.627077
 20
346.484005
 40
1.0
100
AcDbArc
 50
0.0
 51
90.0
  0
LINE
  5
612
100
AcDbEntity
  8
M1
 62
     7
100
AcDbLine
 10
40.927078
 20
292.684004
 11
40.927078
 21
310.484005
  0
LINE
  5
613
100
AcDbEntity
  8
M1
 62
     7
100
AcDbLine
 10
40.927078
 20
329.084005
 11
40.927078
 21
346.884005
  0
ARC
  5
614
100
AcDbEntity
  8
M1
 62
     7
100
AcDbCircle
 10
92.627077
 20
293.084005
 40
1.0
100
AcDbArc
 50
270.0
 51
360.0
  0
LINE
  5
615
100
AcDbEntity
  8
M1
 62
     7
100
AcDbLine
 10
33.127077
 20
315.084005
 11
33.127077
 21
293.084006
  0
LINE
  5
616
100
AcDbEntity
  8
M1
 62
     7
100
AcDbLine
 10
84.427079
 20
294.084006
 11
84.427079
 21
295.084006
  0
LINE
  5
617
100
AcDbEntity
  8
M1
 62
     7
100
AcDbLine
 10
90.42708
 20
294.084006
 11
84.427079
 21
294.084006
  0
LINE
  5
618
100
AcDbEntity
  8
M1
 62
     7
100
AcDbLine
 10
90.42708
 20
295.084006
 11
90.42708
 21
294.084006
  0
LINE
  5
619
100
AcDbEntity
  8
M1
 62
     7
100
AcDbLine
 10
40.927078
 20
336.884005
 11
33.127077
 21
336.884005
  0
LINE
  5
61A
100
AcDbEntity
  8
M1
 62
     7
100
AcDbLine
 10
84.427079
 20
345.484006
 11
90.42708
 21
345.484006
  0
LINE
  5
61B
100
AcDbEntity
  8
M1
 62
     7
100
AcDbLine
 10
84.427079
 20
344.484006
 11
84.427079
 21
345.484006
  0
LINE
  5
61C
100
AcDbEntity
  8
M1
 62
     7
100
AcDbLine
 10
90.42708
 20
345.484006
 11
90.42708
 21
344.484006
  0
LINE
  5
61D
100
AcDbEntity
  8
M1
 62
     7
100
AcDbLine
 10
33.127077
 20
302.684004
 11
40.927078
 21
302.684004
  0
LINE
  5
61E
100
AcDbEntity
  8
M1
 62
     7
100
AcDbLine
 10
83.527078
 20
302.684004
 11
91.32708
 21
302.684004
  0
LINE
  5
61F
100
AcDbEntity
  8
M1
 62
     7
100
AcDbLine
 10
45.127076
 20
337.484005
 11
43.927077
 21
337.484005
  0
LINE
  5
620
100
AcDbEntity
  8
M1
 62
     7
100
AcDbLine
 10
53.327077
 20
337.484005
 11
54.527079
 21
337.484005
  0
LINE
  5
621
100
AcDbEntity
  8
M1
 62
     7
100
AcDbLine
 10
54.527079
 20
348.784006
 11
54.062493
 21
348.784006
  0
ARC
  5
622
100
AcDbEntity
  8
M1
 62
     7
100
AcDbCircle
 10
58.127077
 20
336.484005
 40
1.0
100
AcDbArc
 50
44.427004
 51
90.0
  0
LINE
  5
623
100
AcDbEntity
  8
M1
 62
     7
100
AcDbLine
 10
71.127077
 20
337.484005
 11
69.927079
 21
337.484005
  0
ARC
  5
624
100
AcDbEntity
  8
M1
 62
     7
100
AcDbCircle
 10
79.327077
 20
303.084005
 40
1.0
100
AcDbArc
 50
224.427004
 51
270.0
  0
ARC
  5
625
100
AcDbEntity
  8
M1
 62
     7
100
AcDbCircle
 10
66.327077
 20
336.484005
 40
1.0
100
AcDbArc
 50
90.0
 51
135.572996
  0
LINE
  5
626
100
AcDbEntity
  8
M1
 62
     7
100
AcDbLine
 10
66.327078
 20
302.084005
 11
67.527076
 21
302.084005
  0
LINE
  5
627
100
AcDbEntity
  8
M1
 62
     7
100
AcDbLine
 10
58.127077
 20
302.084005
 11
56.927079
 21
302.084005
  0
LINE
  5
628
100
AcDbEntity
  8
M1
 62
     7
100
AcDbLine
 10
56.927079
 20
290.784006
 11
57.391658
 21
290.784006
  0
LINE
  5
629
100
AcDbEntity
  8
M1
 62
     7
100
AcDbLine
 10
34.027078
 20
345.484006
 11
40.027078
 21
345.484006
  0
LINE
  5
62A
100
AcDbEntity
  8
M1
 62
     7
100
AcDbLine
 10
34.027078
 20
344.484006
 11
34.027078
 21
345.484006
  0
LINE
  5
62B
100
AcDbEntity
  8
M1
 62
     7
100
AcDbLine
 10
40.027078
 20
345.484006
 11
40.027078
 21
344.484006
  0
ARC
  5
62C
100
AcDbEntity
  8
M1
 62
     7
100
AcDbCircle
 10
71.127077
 20
336.484005
 40
1.0
100
AcDbArc
 50
44.427004
 51
90.0
  0
ARC
  5
62D
100
AcDbEntity
  8
M1
 62
     7
100
AcDbCircle
 10
53.327077
 20
336.484005
 40
1.0
100
AcDbArc
 50
90.0
 51
135.572996
  0
ARC
  5
62E
100
AcDbEntity
  8
M1
 62
     7
100
AcDbCircle
 10
66.327077
 20
303.084005
 40
1.0
100
AcDbArc
 50
224.427004
 51
270.0
  0
ARC
  5
62F
100
AcDbEntity
  8
M1
 62
     7
100
AcDbCircle
 10
71.127077
 20
303.084005
 40
1.0
100
AcDbArc
 50
270.0
 51
315.572996
  0
ARC
  5
630
100
AcDbEntity
  8
M1
 62
     7
100
AcDbCircle
 10
45.127077
 20
336.484005
 40
1.0
100
AcDbArc
 50
44.427004
 51
90.0
  0
ARC
  5
631
100
AcDbEntity
  8
M1
 62
     7
100
AcDbCircle
 10
58.127077
 20
303.084005
 40
1.0
100
AcDbArc
 50
270.0
 51
315.572996
  0
LINE
  5
632
100
AcDbEntity
  8
M1
 62
     7
100
AcDbLine
 10
40.027078
 20
294.084006
 11
34.027078
 21
294.084006
  0
LINE
  5
633
100
AcDbEntity
  8
M1
 62
     7
100
AcDbLine
 10
40.027078
 20
295.084006
 11
40.027078
 21
294.084006
  0
LINE
  5
634
100
AcDbEntity
  8
M1
 62
     7
100
AcDbLine
 10
34.027078
 20
294.084006
 11
34.027078
 21
295.084006
  0
LINE
  5
635
100
AcDbEntity
  8
M1
 62
     7
100
AcDbLine
 10
78.944539
 20
363.701996
 11
78.945631
 21
363.665537
  0
LINE
  5
636
100
AcDbEntity
  8
M1
 62
     7
100
AcDbLine
 10
78.945631
 20
363.665537
 11
78.948879
 21
363.557257
  0
LINE
  5
637
100
AcDbEntity
  8
M1
 62
     7
100
AcDbLine
 10
78.948879
 20
363.557257
 11
78.954184
 21
363.380459
  0
LINE
  5
638
100
AcDbEntity
  8
M1
 62
     7
100
AcDbLine
 10
78.954184
 20
363.380459
 11
78.961381
 21
363.140506
  0
LINE
  5
639
100
AcDbEntity
  8
M1
 62
     7
100
AcDbLine
 10
78.961381
 20
363.140506
 11
78.966027
 21
362.985676
  0
LINE
  5
63A
100
AcDbEntity
  8
M1
 62
     7
100
AcDbLine
 10
45.488127
 20
362.985666
 11
45.488528
 21
362.999053
  0
LINE
  5
63B
100
AcDbEntity
  8
M1
 62
     7
100
AcDbLine
 10
45.488528
 20
362.999053
 11
45.497482
 21
363.297523
  0
LINE
  5
63C
100
AcDbEntity
  8
M1
 62
     7
100
AcDbLine
 10
45.497482
 20
363.297523
 11
45.504137
 21
363.519308
  0
LINE
  5
63D
100
AcDbEntity
  8
M1
 62
     7
100
AcDbLine
 10
45.504137
 20
363.519308
 11
45.508233
 21
363.655881
  0
LINE
  5
63E
100
AcDbEntity
  8
M1
 62
     7
100
AcDbLine
 10
45.508233
 20
363.655881
 11
45.509617
 21
363.701996
  0
LINE
  5
63F
100
AcDbEntity
  8
M1
  6
DASHDOT
 62
     7
100
AcDbLine
 10
48.727077
 20
296.084005
 11
49.727077
 21
296.084005
  0
LINE
  5
640
100
AcDbEntity
  8
M1
  6
DASHDOT
 62
     7
100
AcDbLine
 10
49.227077
 20
295.584005
 11
49.227077
 21
296.584005
  0
LINE
  5
641
100
AcDbEntity
  8
M1
  6
DASHDOT
 62
     7
100
AcDbLine
 10
62.227074
 20
295.584005
 11
62.227074
 21
296.584005
  0
LINE
  5
642
100
AcDbEntity
  8
M1
  6
DASHDOT
 62
     7
100
AcDbLine
 10
61.727074
 20
296.084005
 11
62.727074
 21
296.084005
  0
LINE
  5
643
100
AcDbEntity
  8
M1
  6
DASHDOT
 62
     7
100
AcDbLine
 10
75.227074
 20
295.584005
 11
75.227074
 21
296.584005
  0
LINE
  5
644
100
AcDbEntity
  8
M1
  6
DASHDOT
 62
     7
100
AcDbLine
 10
74.727074
 20
296.084005
 11
75.727074
 21
296.084005
  0
LINE
  5
645
100
AcDbEntity
  8
M1
  6
DASHDOT
 62
     7
100
AcDbLine
 10
75.227074
 20
343.984005
 11
75.227074
 21
342.984005
  0
LINE
  5
646
100
AcDbEntity
  8
M1
  6
DASHDOT
 62
     7
100
AcDbLine
 10
74.727074
 20
343.484005
 11
75.727074
 21
343.484005
  0
LINE
  5
647
100
AcDbEntity
  8
M1
  6
DASHDOT
 62
     7
100
AcDbLine
 10
61.727074
 20
343.484005
 11
62.727074
 21
343.484005
  0
LINE
  5
648
100
AcDbEntity
  8
M1
  6
DASHDOT
 62
     7
100
AcDbLine
 10
49.227077
 20
343.984005
 11
49.227077
 21
342.984005
  0
LINE
  5
649
100
AcDbEntity
  8
M1
  6
DASHDOT
 62
     7
100
AcDbLine
 10
62.227074
 20
343.984005
 11
62.227074
 21
342.984005
  0
LINE
  5
64A
100
AcDbEntity
  8
M1
  6
DASHDOT
 62
     7
100
AcDbLine
 10
48.727077
 20
343.484005
 11
49.727077
 21
343.484005
  0
LINE
  5
64B
100
AcDbEntity
  8
M1
  6
DASHDOT
 62
     7
100
AcDbLine
 10
87.927077
 20
340.684005
 11
86.927077
 21
340.684005
  0
LINE
  5
64C
100
AcDbEntity
  8
M1
  6
DASHDOT
 62
     7
100
AcDbLine
 10
87.427077
 20
340.184005
 11
87.427077
 21
341.184005
  0
LINE
  5
64D
100
AcDbEntity
  8
M1
  6
DASHDOT
 62
     7
100
AcDbLine
 10
87.927077
 20
333.084005
 11
86.927077
 21
333.084005
  0
LINE
  5
64E
100
AcDbEntity
  8
M1
  6
DASHDOT
 62
     7
100
AcDbLine
 10
87.427077
 20
332.584005
 11
87.427077
 21
333.584005
  0
LINE
  5
64F
100
AcDbEntity
  8
M1
  6
DASHDOT
 62
     7
100
AcDbLine
 10
87.927077
 20
306.484005
 11
86.927077
 21
306.484005
  0
LINE
  5
650
100
AcDbEntity
  8
M1
  6
DASHDOT
 62
     7
100
AcDbLine
 10
87.427077
 20
305.984005
 11
87.427077
 21
306.984005
  0
LINE
  5
651
100
AcDbEntity
  8
M1
  6
DASHDOT
 62
     7
100
AcDbLine
 10
87.927077
 20
298.884005
 11
86.927077
 21
298.884005
  0
LINE
  5
652
100
AcDbEntity
  8
M1
  6
DASHDOT
 62
     7
100
AcDbLine
 10
87.427077
 20
298.384005
 11
87.427077
 21
299.384005
  0
LINE
  5
653
100
AcDbEntity
  8
M1
  6
DASHDOT
 62
     7
100
AcDbLine
 10
36.527077
 20
333.084005
 11
37.527077
 21
333.084005
  0
LINE
  5
654
100
AcDbEntity
  8
M1
  6
DASHDOT
 62
     7
100
AcDbLine
 10
37.027077
 20
332.584005
 11
37.027077
 21
333.584005
  0
LINE
  5
655
100
AcDbEntity
  8
M1
  6
DASHDOT
 62
     7
100
AcDbLine
 10
36.527077
 20
340.684005
 11
37.527077
 21
340.684005
  0
LINE
  5
656
100
AcDbEntity
  8
M1
  6
DASHDOT
 62
     7
100
AcDbLine
 10
37.027077
 20
340.184005
 11
37.027077
 21
341.184005
  0
LINE
  5
657
100
AcDbEntity
  8
M1
  6
DASHDOT
 62
     7
100
AcDbLine
 10
36.527077
 20
298.884005
 11
37.527077
 21
298.884005
  0
LINE
  5
658
100
AcDbEntity
  8
M1
  6
DASHDOT
 62
     7
100
AcDbLine
 10
37.027077
 20
298.384005
 11
37.027077
 21
299.384005
  0
LINE
  5
659
100
AcDbEntity
  8
M1
  6
DASHDOT
 62
     7
100
AcDbLine
 10
36.527077
 20
306.484005
 11
37.527077
 21
306.484005
  0
LINE
  5
65A
100
AcDbEntity
  8
M1
  6
DASHDOT
 62
     7
100
AcDbLine
 10
37.027077
 20
305.984005
 11
37.027077
 21
306.984005
  0
LINE
  5
65B
100
AcDbEntity
  8
M1
  6
DASHDOT
 62
     7
100
AcDbLine
 10
72.627077
 20
358.384005
 11
73.627077
 21
358.384005
  0
LINE
  5
65C
100
AcDbEntity
  8
M1
  6
DASHDOT
 62
     7
100
AcDbLine
 10
73.127077
 20
357.884005
 11
73.127077
 21
358.884005
  0
LINE
  5
65D
100
AcDbEntity
  8
M1
  6
DASHDOT
 62
     7
100
AcDbLine
 10
51.827077
 20
358.384005
 11
50.827077
 21
358.384005
  0
LINE
  5
65E
100
AcDbEntity
  8
M1
  6
DASHDOT
 62
     7
100
AcDbLine
 10
51.327077
 20
357.884005
 11
51.327077
 21
358.884005
  0
CIRCLE
  5
65F
100
AcDbEntity
  8
M1
 62
     7
100
AcDbCircle
 10
51.327077
 20
358.384005
 40
3.0
  0
LINE
  5
660
100
AcDbEntity
  8
M1
 62
     7
100
AcDbLine
 10
52.917661
 20
356.79336
 11
49.73602
 21
359.975123
  0
LINE
  5
661
100
AcDbEntity
  8
M1
 62
     7
100
AcDbLine
 10
52.740903
 20
358.737696
 11
50.973325
 21
356.970118
  0
LINE
  5
662
100
AcDbEntity
  8
M1
 62
     7
100
AcDbLine
 10
51.680356
 20
359.798365
 11
49.912778
 21
358.030665
  0
LINE
  5
663
100
AcDbEntity
  8
M1
 62
     7
100
AcDbLine
 10
54.652077
 20
362.209005
 11
48.002077
 21
362.209005
  0
ARC
  5
664
100
AcDbEntity
  8
M1
 62
     7
100
AcDbCircle
 10
54.652077
 20
361.709005
 40
0.5
100
AcDbArc
 50
0.0
 51
90.0
  0
LINE
  5
665
100
AcDbEntity
  8
M1
 62
     7
100
AcDbLine
 10
55.152077
 20
355.059005
 11
55.152077
 21
361.709005
  0
ARC
  5
666
100
AcDbEntity
  8
M1
 62
     7
100
AcDbCircle
 10
54.652077
 20
355.059005
 40
0.5
100
AcDbArc
 50
270.0
 51
360.0
  0
LINE
  5
667
100
AcDbEntity
  8
M1
 62
     7
100
AcDbLine
 10
49.776808
 20
354.559005
 11
54.652077
 21
354.559005
  0
LINE
  5
668
100
AcDbEntity
  8
M1
 62
     7
100
AcDbLine
 10
47.502077
 20
361.709005
 11
47.502077
 21
359.391018
  0
ARC
  5
669
100
AcDbEntity
  8
M1
 62
     7
100
AcDbCircle
 10
48.002077
 20
361.709005
 40
0.5
100
AcDbArc
 50
90.0
 51
180.0
  0
CIRCLE
  5
66A
100
AcDbEntity
  8
M1
 62
     7
100
AcDbCircle
 10
62.227074
 20
343.484005
 40
3.5
  0
LINE
  5
66B
100
AcDbEntity
  8
M1
 62
     7
100
AcDbLine
 10
44.227077
 20
348.784006
 11
43.927077
 21
348.784006
  0
LINE
  5
66C
100
AcDbEntity
  8
M1
 62
     7
100
AcDbLine
 10
51.227077
 20
350.784004
 11
54.527079
 21
350.784004
  0
LINE
  5
66D
100
AcDbEntity
  8
M1
 62
     7
100
AcDbLine
 10
57.391659
 20
348.784006
 11
56.927079
 21
348.784006
  0
LINE
  5
66E
100
AcDbEntity
  8
M1
 62
     7
100
AcDbLine
 10
64.827074
 20
350.784004
 11
67.527076
 21
350.784004
  0
LINE
  5
66F
100
AcDbEntity
  8
M1
 62
     7
100
AcDbLine
 10
59.627074
 20
352.784005
 11
56.927079
 21
352.784005
  0
LINE
  5
670
100
AcDbEntity
  8
M1
 62
     7
100
AcDbLine
 10
59.627074
 20
354.284006
 11
57.927077
 21
354.284006
  0
LINE
  5
671
100
AcDbEntity
  8
M1
 62
     7
100
AcDbLine
 10
70.391659
 20
348.784006
 11
69.927079
 21
348.784006
  0
LINE
  5
672
100
AcDbEntity
  8
M1
 62
     7
100
AcDbLine
 10
73.227074
 20
350.784004
 11
69.927079
 21
350.784004
  0
LINE
  5
673
100
AcDbEntity
  8
M1
 62
     7
100
AcDbLine
 10
54.062493
 20
290.784006
 11
54.527079
 21
290.784006
  0
ARC
  5
674
100
AcDbEntity
  8
M1
 62
     7
100
AcDbCircle
 10
49.227077
 20
287.284005
 40
2.75
100
AcDbArc
 50
277.155433
 51
403.395501
  0
LINE
  5
675
100
AcDbEntity
  8
M1
 62
     7
100
AcDbLine
 10
59.627074
 20
284.284004
 11
57.227076
 21
284.284004
  0
LINE
  5
676
100
AcDbEntity
  8
M1
 62
     7
100
AcDbLine
 10
59.627074
 20
287.284006
 11
56.927079
 21
287.284006
  0
LINE
  5
677
100
AcDbEntity
  8
M1
 62
     7
100
AcDbLine
 10
64.827074
 20
286.284004
 11
66.727077
 21
286.284004
  0
LINE
  5
678
100
AcDbEntity
  8
M1
 62
     7
100
AcDbLine
 10
67.06249
 20
290.784006
 11
67.527076
 21
290.784006
  0
ARC
  5
679
100
AcDbEntity
  8
M1
 62
     7
100
AcDbCircle
 10
75.227077
 20
287.284005
 40
2.75
100
AcDbArc
 50
137.622952
 51
262.844496
  0
LINE
  5
67A
100
AcDbEntity
  8
M1
 62
     7
100
AcDbLine
 10
80.227074
 20
290.784006
 11
80.527076
 21
290.784006
  0
LINE
  5
67B
100
AcDbEntity
  8
M2
 62
     2
100
AcDbLine
 10
316.666654
 20
49.999998
 11
149.999994
 21
49.999998
  0
LINE
  5
67C
100
AcDbEntity
  8
M2
 62
     2
100
AcDbLine
 10
-3.552714E-015
 20
-3.552714E-015
 11
-3.552714E-015
 21
458.333316
  0
LINE
  5
67D
100
AcDbEntity
  8
M2
 62
     2
100
AcDbLine
 10
316.666654
 20
-3.552714E-015
 11
-3.552714E-015
 21
-3.552714E-015
  0
LINE
  5
67E
100
AcDbEntity
  8
M2
 62
     2
100
AcDbLine
 10
316.666654
 20
16.666666
 11
149.999994
 21
16.666666
  0
TEXT
  5
67F
100
AcDbEntity
  8
M2
 62
     2
100
AcDbText
 10
153.055552
 20
20.833333
 40
8.333333
  1
形　式；
 41
1.0
  7
STANDARD
100
AcDbText
  0
LINE
  5
680
100
AcDbEntity
  8
M2
 62
     2
100
AcDbLine
 10
316.666654
 20
33.333332
 11
149.999994
 21
33.333332
  0
TEXT
  5
681
100
AcDbEntity
  8
M2
 62
     2
100
AcDbText
 10
153.055552
 20
37.500001
 40
8.333333
  1
登録名：
 41
1.0
  7
STANDARD
100
AcDbText
  0
LINE
  5
682
100
AcDbEntity
  8
M2
 62
     2
100
AcDbLine
 10
149.999994
 20
-3.552714E-015
 11
149.999994
 21
49.999998
  0
TEXT
  5
683
100
AcDbEntity
  8
M2
 62
     2
100
AcDbText
 10
153.055552
 20
4.166667
 40
8.333333
  1
適　用；
 41
1.0
  7
STANDARD
100
AcDbText
  0
LINE
  5
684
100
AcDbEntity
  8
M2
 62
     2
100
AcDbLine
 10
-3.552714E-015
 20
458.333316
 11
316.666654
 21
458.333316
  0
LINE
  5
685
100
AcDbEntity
  8
M2
 62
     2
100
AcDbLine
 10
316.666654
 20
458.333316
 11
316.666654
 21
-3.552714E-015
  0
TEXT
  5
686
100
AcDbEntity
  8
M2
 62
     2
100
AcDbText
 10
193.611109
 20
37.500001
 40
8.333333
  1
ＤＭＨＳ２５ＧＲ００
 41
0.5
  7
STANDARD
100
AcDbText
  0
TEXT
  5
687
100
AcDbEntity
  8
M2
 62
     2
100
AcDbText
 10
193.611109
 20
20.833333
 40
8.333333
  1
ＨＳ２５－Ｇ
 41
0.5
  7
STANDARD
100
AcDbText
  0
LINE
  5
688
100
AcDbEntity
  8
DN0
100
AcDbLine
 10
241.490945
 20
249.553339
 11
257.72093
 21
249.553339
  0
TEXT
  5
689
100
AcDbEntity
  8
DN0
100
AcDbText
 10
241.939279
 20
249.953339
 40
4.0
  1
取付状態
 41
0.833333
  7
STANDARD
100
AcDbText
  0
LINE
  5
68A
100
AcDbEntity
  8
DN0
100
AcDbLine
 10
50.93923
 20
81.248232
 11
67.169234
 21
81.248232
  0
TEXT
  5
68B
100
AcDbEntity
  8
DN0
100
AcDbText
 10
51.387563
 20
81.648232
 40
4.0
  1
せん孔図
 41
0.833333
  7
STANDARD
100
AcDbText
  0
TEXT
  5
68C
100
AcDbEntity
  8
DN0
100
AcDbText
 10
12.714801
 20
97.98336
 40
2.5
  1
５４ｘ５６
 41
0.666667
  7
STANDARD
100
AcDbText
  0
TEXT
  5
68D
100
AcDbEntity
  8
DN0
100
AcDbText
 10
12.714801
 20
94.083359
 40
2.5
  1
５４ｘ６０
 41
0.666667
  7
STANDARD
100
AcDbText
  0
TEXT
  5
68E
100
AcDbEntity
  8
DN0
100
AcDbText
 10
12.714801
 20
90.183357
 40
2.5
  1
も取付可能
 41
0.666667
  7
STANDARD
100
AcDbText
  0
ENDSEC
  0
SECTION
  2
OBJECTS
  0
DICTIONARY
  5
C
100
AcDbDictionary
  3
ACAD_GROUP
350
D
  3
ACAD_MLINESTYLE
350
E
  3
ACDBVARIABLEDICTIONARY
350
12A
  0
DICTIONARY
  5
D
102
{ACAD_REACTORS
330
C
102
}
100
AcDbDictionary
  0
DICTIONARY
  5
E
102
{ACAD_REACTORS
330
C
102
}
100
AcDbDictionary
  3
STANDARD
350
13
  0
DICTIONARY
  5
12A
102
{ACAD_REACTORS
330
C
102
}
100
AcDbDictionary
  3
SORTENTS
350
12B
  0
MLINESTYLE
  5
13
102
{ACAD_REACTORS
330
E
102
}
100
AcDbMlineStyle
  2
STANDARD
 70
     0
  3

 62
     0
 51
90.0
 52
90.0
 71
     2
 49
0.5
 62
   256
  6
BYLAYER
 49
-0.5
 62
   256
  6
BYLAYER
  0
DICTIONARYVAR
  5
12B
102
{ACAD_REACTORS
330
12A
102
}
100
DictionaryVariables
280
     0
  1
96
  0
ENDSEC
  0
EOF
