  0
SECTION
  2
HEADER
  9
$ACADVER
  1
AC1014
  9
$INSBASE
 10
0.000000
 20
0.000000
 30
0.0
  9
$VIEWCTR
 10
7.531722
 20
4.5
  9
$VIEWSIZE
 40
9.0
  9
$SNAPMODE
 70
     0
  9
$SNAPUNIT
 10
1.0
 20
1.0
  9
$SNAPBASE
 10
0.0
 20
0.0
  9
$SNAPANG
 50
0.0
  9
$SNAPSTYLE
 70
     0
  9
$SNAPISOPAIR
 70
     0
  9
$GRIDMODE
 70
     0
  9
$GRIDUNIT
 10
0.0
 20
0.0
  9
$ORTHOMODE
 70
     0
  9
$REGENMODE
 70
     1
  9
$FILLMODE
 70
     1
  9
$QTEXTMODE
 70
     0
  9
$DRAGMODE
 70
     2
  9
$LTSCALE
  40
     1.000000
  9
$OSMODE
 70
     0
  9
$ATTMODE
 70
     1
  9
$TEXTSIZE
 40
0.2
  9
$TRACEWID
 40
0.05
  9
$TEXTSTYLE
  7
STANDARD
  9
$CELTYPE
  6
BYLAYER
  9
$CECOLOR
 62
   256
  9
$DIMSCALE
 40
1.0
  9
$DIMASZ
 40
0.18
  9
$DIMEXO
 40
0.0625
  9
$DIMDLI
 40
0.38
  9
$DIMRND
 40
0.0
  9
$DIMDLE
 40
0.0
  9
$DIMEXE
 40
0.18
  9
$DIMTP
 40
0.0
  9
$DIMTM
 40
0.0
  9
$DIMTXT
 40
0.18
  9
$DIMCEN
 40
0.09
  9
$DIMTSZ
 40
0.0
  9
$DIMTOL
 70
     0
  9
$DIMLIM
 70
     0
  9
$DIMTIH
 70
     1
  9
$DIMTOH
 70
     1
  9
$DIMSE1
 70
     0
  9
$DIMSE2
 70
     0
  9
$DIMTAD
 70
     0
  9
$DIMZIN
 70
     0
  9
$DIMBLK
  1

  9
$LUNITS
 70
     2
  9
$LUPREC
 70
     4
  9
$AXISMODE
 70
     0
  9
$AXISUNIT
 10
0.0
 20
0.0
  9
$SKETCHINC
 40
0.1
  9
$FILLETRAD
 40
0.0
  9
$AUNITS
 70
     0
  9
$AUPREC
 70
     0
  9
$MENU
  1
ACAD
  9
$ELEVATION
 40
0.0
  9
$THICKNESS
 40
0.0
  9
$VIEWDIR
 10
0.0
 20
0.0
 30
1.0
  9
$LIMCHECK
 70
     0
  9
$BLIPMODE
 70
     1
  9
$CHAMFERA
 40
0.0
  9
$CHAMFERB
 40
0.0
  9
$FASTZOOM
 70
     1
  9
$SKPOLY
 70
     0
  9
$TDCREATE
 40
0000000.0000000000
  9
$TDUPDATE
 40
0000000.0000000000
  9
$TDINDWG
 40
0.0000000000
  9
$TDUSRTIMER
 40
0.0000000000
  9
$USRTIMER
 70
     1
  9
$ANGBASE
 50
0.0
  9
$ANGDIR
 70
     0
  9
$PDMODE
 70
     0
  9
$PDSIZE
 40
0.0
  9
$PLINEWID
 40
0.0
  9
$COORDS
 70
     0
  9
$USERI1
 70
     0
  9
$USERI2
 70
     0
  9
$USERI3
 70
     0
  9
$USERI4
 70
     0
  9
$USERI5
 70
     0
  9
$USERR1
 40
0.0
  9
$USERR2
 40
0.0
  9
$USERR3
 40
0.0
  9
$USERR4
 40
0.0
  9
$USERR5
 40
0.0
  9
$CLAYER
  8
M0
  9
$EXTMIN
 10
20.0
 20
20.0
  9
$EXTMAX
 10
400.0
 20
570.0
  9
$LIMMIN
 10
0.0
 20
0.0
  9
$LIMMAX
 10
210.0
 20
297.0
  9
$HANDSEED
  5
9C9
  0
ENDSEC
  0
SECTION
  2
CLASSES
  0
CLASS
  1
DICTIONARYVAR
  2
AcDbDictionaryVar
  3
"AutoCAD"
 90
        0
280
     0
281
     0
  0
CLASS
  1
HATCH
  2
AcDbHatch
  3
"ACAD_SEDONA"
 90
        0
280
     0
281
     1
  0
ENDSEC
  0
SECTION
  2
TABLES
  0
TABLE
  2
VPORT
  5
8
100
AcDbSymbolTable
 70
     2
  0
VPORT
  5
14
100
AcDbSymbolTableRecord
100
AcDbViewportTableRecord
  2
*ACTIVE
 70
     0
 10
0.0
 20
0.0
 11
1.0
 21
1.0
 12
484.0
 22
297.0
 13
0.0
 23
0.0
 14
1.0
 24
1.0
 15
0.0
 25
0.0
 16
0.0
 26
0.0
 36
1.0
 17
0.0
 27
0.0
 37
0.0
 40
594.0
 41
2.0
 42
50.0
 43
0.0
 44
0.0
 50
0.0
 51
0.0
 71
     0
 72
   100
 73
     1
 74
     1
 75
     0
 76
     0
 77
     0
 78
     0
  0
ENDTAB
  0
TABLE
  2
LTYPE
  5
5
100
AcDbSymbolTable
 70
     5
  0
LTYPE
  5
15
100
AcDbSymbolTableRecord
100
AcDbLinetypeTableRecord
  2
BYBLOCK
 70
     0
  3

 72
    65
 73
     0
 40
0.0
  0
LTYPE
  5
16
100
AcDbSymbolTableRecord
100
AcDbLinetypeTableRecord
  2
BYLAYER
 70
     0
  3

 72
    65
 73
     0
 40
0.0
  0
LTYPE
  5
17
100
AcDbSymbolTableRecord
100
AcDbLinetypeTableRecord
  2
CONTINUOUS
 70
    64
  3
Solid line
 72
    65
 73
     0
 40
0.0
  0
LTYPE
  5
18
100
AcDbSymbolTableRecord
100
AcDbLinetypeTableRecord
  2
DASHED
 70
    64
  3
__ __ __ __ __ __ __ __ __ __ __ __ __ __ __ __
 72
    65
 73
     2
 40
0.75
 49
0.5
 74
     0
 49
-0.25
 74
     0
  0
LTYPE
  5
19
100
AcDbSymbolTableRecord
100
AcDbLinetypeTableRecord
  2
DASHDOT
 70
    64
  3
__ . __ . __ . __ . __ . __ . __ . __ . __ . __
 72
    65
 73
     4
 40
1.0
 49
0.5
 74
     0
 49
-0.25
 74
     0
 49
0.0
 74
     0
 49
-0.25
 74
     0
  0
LTYPE
  5
1A
100
AcDbSymbolTableRecord
100
AcDbLinetypeTableRecord
  2
DIVIDE
 70
    64
  3
____ . . ____ . . ____ . . ____ . . ____ . . __
 72
    65
 73
     6
 40
1.25
 49
0.5
 74
     0
 49
-0.25
 74
     0
 49
0.0
 74
     0
 49
-0.25
 74
     0
 49
0.0
 74
     0
 49
-0.25
 74
     0
  0
LTYPE
  5
1B
100
AcDbSymbolTableRecord
100
AcDbLinetypeTableRecord
  2
DOT
 70
    64
  3
. . . . . . . . . . . . . . . . . . . . . . . .
 72
    65
 73
     2
 40
0.25
 49
0.0
 74
     0
 49
-0.25
 74
     0
  0
ENDTAB
  0
TABLE
  2
LAYER
  5
2
100
AcDbSymbolTable
 70
   102
  0
LAYER
  5
F
100
AcDbSymbolTableRecord
100
AcDbLayerTableRecord
  2
0
 70
     0
 62
     7
  6
CONTINUOUS
  0
LAYER
  5
1C
100
AcDbSymbolTableRecord
100
AcDbLayerTableRecord
  2
DEFPOINTS
 70
     0
 62
     7
  6
CONTINUOUS
  0
LAYER
  5
1D
100
AcDbSymbolTableRecord
100
AcDbLayerTableRecord
  2
M0
 70
     0
 62
     3
  6
CONTINUOUS
  0
LAYER
  5
1E
100
AcDbSymbolTableRecord
100
AcDbLayerTableRecord
  2
M1
 70
     0
 62
     3
  6
CONTINUOUS
  0
LAYER
  5
1F
100
AcDbSymbolTableRecord
100
AcDbLayerTableRecord
  2
DD0
 70
     0
 62
     4
  6
CONTINUOUS
  0
LAYER
  5
20
100
AcDbSymbolTableRecord
100
AcDbLayerTableRecord
  2
DN0
 70
     0
 62
     2
  6
CONTINUOUS
  0
ENDTAB
  0
TABLE
  2
STYLE
  5
3
100
AcDbSymbolTable
 70
     2
  0
STYLE
  5
10
100
AcDbSymbolTableRecord
100
AcDbTextStyleTableRecord
  2
STANDARD
 70
     0
 40
0.0
 41
1.0
 50
0.0
 71
     0
 42
0.2
  3
txt
  4
BIGFONT
  0
ENDTAB
  0
TABLE
  2
VIEW
  5
6
100
AcDbSymbolTable
 70
     0
  0
ENDTAB
  0
TABLE
  2
UCS
  5
7
100
AcDbSymbolTable
 70
     0
  0
ENDTAB
  0
TABLE
  2
APPID
  5
9
100
AcDbSymbolTable
 70
     1
  0
APPID
  5
11
100
AcDbSymbolTableRecord
100
AcDbRegAppTableRecord
  2
ACAD
 70
     0
  0
ENDTAB
  0
TABLE
  2
DIMSTYLE
  5
A
100
AcDbSymbolTable
 70
     2
  0
DIMSTYLE
105
27
100
AcDbSymbolTableRecord
100
AcDbDimStyleTableRecord
  2
STANDARD
 70
     0
  3

  4

  5

  6
_OPEN
  7
_OPEN
 40
1.0
 41
6.0
 42
1.0
 43
8.0
 44
1.0
 45
0.0
 46
0.0
 47
0.0
 48
0.0
140
6.3
141
0.09
142
0.0
143
0.03937
144
1.0
145
0.0
146
1.0
147
0.6
 71
     0
 72
     0
 73
     1
 74
     1
 75
     0
 76
     0
 77
     3
 78
     8
170
     0
171
     2
172
     0
173
     1
174
     0
175
     0
176
     0
177
     0
178
     0
270
     2
271
     2
272
     4
273
     2
274
     2
340
10
275
     0
280
     0
281
     0
282
     0
283
     1
284
     0
285
     0
286
     0
287
     3
288
     0
  0
DIMSTYLE
105
28
100
AcDbSymbolTableRecord
100
AcDbDimStyleTableRecord
  2
LEADSTYL
 70
     0
  3

  4

  5

  6
_OPEN
  7
_OPEN
 40
1.0
 41
6.0
 42
0.0625
 43
0.38
 44
0.18
 45
0.0
 46
0.0
 47
0.0
 48
0.0
140
6.3
141
0.09
142
0.0
143
25.4
144
1.0
145
0.0
146
1.0
147
0.6
 71
     0
 72
     0
 73
     1
 74
     1
 75
     0
 76
     0
 77
     0
 78
     0
170
     0
171
     2
172
     0
173
     1
174
     0
175
     0
176
     0
177
     0
178
     0
270
     2
271
     4
272
     4
273
     2
274
     2
340
10
275
     0
280
     0
281
     0
282
     0
283
     1
284
     0
285
     0
286
     0
287
     3
288
     0
  0
ENDTAB
  0
TABLE
  2
BLOCK_RECORD
  5
1
100
AcDbSymbolTable
 70
    25
  0
BLOCK_RECORD
  5
21
100
AcDbSymbolTableRecord
100
AcDbBlockTableRecord
  2
*MODEL_SPACE
  0
BLOCK_RECORD
  5
24
100
AcDbSymbolTableRecord
100
AcDbBlockTableRecord
  2
*PAPER_SPACE
  0
BLOCK_RECORD
  5
29
100
AcDbSymbolTableRecord
100
AcDbBlockTableRecord
  2
_NONE
  0
BLOCK_RECORD
  5
2D
100
AcDbSymbolTableRecord
100
AcDbBlockTableRecord
  2
_OPEN
  0
BLOCK_RECORD
  5
33
100
AcDbSymbolTableRecord
100
AcDbBlockTableRecord
  2
_CLOSED
  0
BLOCK_RECORD
  5
3A
100
AcDbSymbolTableRecord
100
AcDbBlockTableRecord
  2
_ORIGIN
  0
BLOCK_RECORD
  5
3F
100
AcDbSymbolTableRecord
100
AcDbBlockTableRecord
  2
_DOT
  0
BLOCK_RECORD
  5
47
100
AcDbSymbolTableRecord
100
AcDbBlockTableRecord
  2
_OBLIQUE
  0
BLOCK_RECORD
  5
4B
100
AcDbSymbolTableRecord
100
AcDbBlockTableRecord
  2
DIMS0
  0
BLOCK_RECORD
  5
58
100
AcDbSymbolTableRecord
100
AcDbBlockTableRecord
  2
DIMS1
  0
BLOCK_RECORD
  5
64
100
AcDbSymbolTableRecord
100
AcDbBlockTableRecord
  2
DIMS2
  0
BLOCK_RECORD
  5
70
100
AcDbSymbolTableRecord
100
AcDbBlockTableRecord
  2
DIMS3
  0
BLOCK_RECORD
  5
7C
100
AcDbSymbolTableRecord
100
AcDbBlockTableRecord
  2
DIMS4
  0
BLOCK_RECORD
  5
88
100
AcDbSymbolTableRecord
100
AcDbBlockTableRecord
  2
DIMS5
  0
BLOCK_RECORD
  5
94
100
AcDbSymbolTableRecord
100
AcDbBlockTableRecord
  2
DIMS6
  0
BLOCK_RECORD
  5
A0
100
AcDbSymbolTableRecord
100
AcDbBlockTableRecord
  2
DIMS7
  0
BLOCK_RECORD
  5
AC
100
AcDbSymbolTableRecord
100
AcDbBlockTableRecord
  2
DIMS8
  0
BLOCK_RECORD
  5
B8
100
AcDbSymbolTableRecord
100
AcDbBlockTableRecord
  2
DIMS9
  0
BLOCK_RECORD
  5
C3
100
AcDbSymbolTableRecord
100
AcDbBlockTableRecord
  2
DIMS10
  0
BLOCK_RECORD
  5
CF
100
AcDbSymbolTableRecord
100
AcDbBlockTableRecord
  2
DIMS11
  0
BLOCK_RECORD
  5
DB
100
AcDbSymbolTableRecord
100
AcDbBlockTableRecord
  2
DIMS12
  0
BLOCK_RECORD
  5
E4
100
AcDbSymbolTableRecord
100
AcDbBlockTableRecord
  2
DIMS13
  0
BLOCK_RECORD
  5
F0
100
AcDbSymbolTableRecord
100
AcDbBlockTableRecord
  2
DIMS14
  0
BLOCK_RECORD
  5
FC
100
AcDbSymbolTableRecord
100
AcDbBlockTableRecord
  2
DIMS15
  0
BLOCK_RECORD
  5
108
100
AcDbSymbolTableRecord
100
AcDbBlockTableRecord
  2
DIMS16
  0
BLOCK_RECORD
  5
114
100
AcDbSymbolTableRecord
100
AcDbBlockTableRecord
  2
DIMS17
  0
BLOCK_RECORD
  5
120
100
AcDbSymbolTableRecord
100
AcDbBlockTableRecord
  2
DIMS18
  0
ENDTAB
  0
ENDSEC
  0
SECTION
  2
BLOCKS
  0
BLOCK
  5
22
100
AcDbEntity
  8
0
100
AcDbBlockBegin
  2
*MODEL_SPACE
 70
     0
 10
0.0
 20
0.0
 30
0.0
  3
*MODEL_SPACE
  1

  0
ENDBLK
  5
23
100
AcDbEntity
  8
0
100
AcDbBlockEnd
  0
BLOCK
  5
25
100
AcDbEntity
 67
     1
  8
0
100
AcDbBlockBegin
  2
*PAPER_SPACE
 70
     0
 10
0.0
 20
0.0
 30
0.0
  3
*PAPER_SPACE
  1

  0
ENDBLK
  5
26
100
AcDbEntity
 67
     1
  8
0
100
AcDbBlockEnd
  0
BLOCK
  5
2A
100
AcDbEntity
  8
0
100
AcDbBlockBegin
  2
_NONE
 70
     0
 10
0.0
 20
0.0
  0
CIRCLE
  5
2B
100
AcDbEntity
  8
0
 62
     0
100
AcDbCircle
 10
0.0
 20
0.0
 40
0.25
  0
ENDBLK
  5
2C
100
AcDbEntity
  8
0
100
AcDbBlockEnd
  0
BLOCK
  5
2E
100
AcDbEntity
  8
0
100
AcDbBlockBegin
  2
_OPEN
 70
     0
 10
0.0
 20
0.0
  0
LINE
  5
2F
100
AcDbEntity
  8
0
 62
     0
100
AcDbLine
 10
-0.965926
 20
0.258819
 11
0.0
 21
0.0
  0
LINE
  5
30
100
AcDbEntity
  8
0
 62
     0
100
AcDbLine
 10
0.0
 20
0.0
 11
-0.965926
 21
-0.258819
  0
LINE
  5
31
100
AcDbEntity
  8
0
 62
     0
100
AcDbLine
 10
0.0
 20
0.0
 11
-1.0
 21
0.0
  0
ENDBLK
  5
32
100
AcDbEntity
  8
0
100
AcDbBlockEnd
  0
BLOCK
  5
34
100
AcDbEntity
  8
0
100
AcDbBlockBegin
  2
_CLOSED
 70
     0
 10
0.0
 20
0.0
  0
LINE
  5
35
100
AcDbEntity
  8
0
 62
     0
100
AcDbLine
 10
-0.965926
 20
0.258819
 11
0.0
 21
0.0
  0
LINE
  5
36
100
AcDbEntity
  8
0
 62
     0
100
AcDbLine
 10
0.0
 20
0.0
 11
-0.965926
 21
-0.258819
  0
LINE
  5
37
100
AcDbEntity
  8
0
 62
     0
100
AcDbLine
 10
-0.965926
 20
0.258819
 11
-0.965926
 21
-0.258819
  0
LINE
  5
38
100
AcDbEntity
  8
0
 62
     0
100
AcDbLine
 10
0.0
 20
0.0
 11
-1.0
 21
0.0
  0
ENDBLK
  5
39
100
AcDbEntity
  8
0
100
AcDbBlockEnd
  0
BLOCK
  5
3B
100
AcDbEntity
  8
0
100
AcDbBlockBegin
  2
_ORIGIN
 70
     0
 10
0.0
 20
0.0
  0
CIRCLE
  5
3C
100
AcDbEntity
  8
0
 62
     0
100
AcDbCircle
 10
0.0
 20
0.0
 40
0.5
  0
LINE
  5
3D
100
AcDbEntity
  8
0
 62
     0
100
AcDbLine
 10
0.0
 20
0.0
 11
-1.0
 21
0.0
  0
ENDBLK
  5
3E
100
AcDbEntity
  8
0
100
AcDbBlockEnd
  0
BLOCK
  5
40
100
AcDbEntity
  8
0
100
AcDbBlockBegin
  2
_DOT
 70
     0
 10
0.0
 20
0.0
  0
POLYLINE
  5
41
100
AcDbEntity
  8
0
 62
     0
100
AcDb2dPolyline
 66
     1
 70
     1
 40
0.5
 41
0.5
  0
VERTEX
  5
42
100
AcDbEntity
  8
0
 62
     0
100
AcDbVertex
100
AcDb2dVertex
 10
-0.25
 20
0.0
 42
1.0
  0
VERTEX
  5
43
100
AcDbEntity
  8
0
 62
     0
100
AcDbVertex
100
AcDb2dVertex
 10
0.25
 20
0.0
 42
1.0
  0
SEQEND
  5
44
100
AcDbEntity
  8
0
 62
     0
  0
LINE
  5
45
100
AcDbEntity
  8
0
 62
     0
100
AcDbLine
 10
-0.5
 20
0.0
 11
-1.0
 21
0.0
  0
ENDBLK
  5
46
100
AcDbEntity
  8
0
100
AcDbBlockEnd
  0
BLOCK
  5
48
100
AcDbEntity
  8
0
100
AcDbBlockBegin
  2
_OBLIQUE
 70
     0
 10
0.0
 20
0.0
  0
LINE
  5
49
100
AcDbEntity
  8
0
 62
     0
100
AcDbLine
 10
-0.353553
 20
-0.353553
 11
0.353553
 21
0.353553
  0
ENDBLK
  5
4A
100
AcDbEntity
  8
0
100
AcDbBlockEnd
  0
BLOCK
  5
4C
100
AcDbEntity
  8
DD0
100
AcDbBlockBegin
  2
DIMS0
 70
     0
 10
0.0
 20
0.0
  0
LINE
  5
4D
100
AcDbEntity
  8
DD0
100
AcDbLine
 10
42.293095
 20
435.639832
 11
42.293095
 21
498.32724
  0
LINE
  5
4E
100
AcDbEntity
  8
DD0
100
AcDbLine
 10
202.893082
 20
435.639832
 11
202.893082
 21
498.32724
  0
LINE
  5
4F
100
AcDbEntity
  8
DD0
100
AcDbLine
 10
48.08865
 20
497.880154
 11
42.293095
 21
496.32724
  0
LINE
  5
50
100
AcDbEntity
  8
DD0
100
AcDbLine
 10
42.293095
 20
496.32724
 11
48.08865
 21
494.774326
  0
LINE
  5
51
100
AcDbEntity
  8
DD0
100
AcDbLine
 10
197.097527
 20
494.774326
 11
202.893082
 21
496.32724
  0
LINE
  5
52
100
AcDbEntity
  8
DD0
100
AcDbLine
 10
202.893082
 20
496.32724
 11
197.097527
 21
497.880154
  0
LINE
  5
53
100
AcDbEntity
  8
DD0
100
AcDbLine
 10
42.293095
 20
496.32724
 11
202.893082
 21
496.32724
  0
TEXT
  5
54
100
AcDbEntity
  8
DD0
100
AcDbText
 10
112.936423
 20
497.527252
 40
5.0
  1
１６０．５
 41
0.666667
  7
STANDARD
100
AcDbText
  0
TEXT
  5
55
100
AcDbEntity
  8
DD0
100
AcDbText
 10
80.936423
 20
489.727264
 40
5.0
  1
（補助接点サイドオンユニットを付けた場合）
 41
0.666667
  7
STANDARD
100
AcDbText
  0
ENDBLK
  5
56
100
AcDbEntity
  8
DD0
100
AcDbBlockEnd
  0
BLOCK
  5
59
100
AcDbEntity
  8
DD0
100
AcDbBlockBegin
  2
DIMS1
 70
     0
 10
0.0
 20
0.0
  0
LINE
  5
5A
100
AcDbEntity
  8
DD0
100
AcDbLine
 10
86.193092
 20
457.939819
 11
86.193092
 21
470.302795
  0
LINE
  5
5B
100
AcDbEntity
  8
DD0
100
AcDbLine
 10
158.993088
 20
457.939819
 11
158.993088
 21
470.302795
  0
LINE
  5
5C
100
AcDbEntity
  8
DD0
100
AcDbLine
 10
91.988647
 20
469.85571
 11
86.193092
 21
468.302795
  0
LINE
  5
5D
100
AcDbEntity
  8
DD0
100
AcDbLine
 10
86.193092
 20
468.302795
 11
91.988647
 21
466.749881
  0
LINE
  5
5E
100
AcDbEntity
  8
DD0
100
AcDbLine
 10
153.197533
 20
466.749881
 11
158.993088
 21
468.302795
  0
LINE
  5
5F
100
AcDbEntity
  8
DD0
100
AcDbLine
 10
158.993088
 20
468.302795
 11
153.197533
 21
469.85571
  0
LINE
  5
60
100
AcDbEntity
  8
DD0
100
AcDbLine
 10
86.193092
 20
468.302795
 11
158.993088
 21
468.302795
  0
TEXT
  5
61
100
AcDbEntity
  8
DD0
100
AcDbText
 10
118.93643
 20
469.502808
 40
5.0
  1
７３
 41
0.666667
  7
STANDARD
100
AcDbText
  0
ENDBLK
  5
62
100
AcDbEntity
  8
DD0
100
AcDbBlockEnd
  0
BLOCK
  5
65
100
AcDbEntity
  8
DD0
100
AcDbBlockBegin
  2
DIMS2
 70
     0
 10
0.0
 20
0.0
  0
LINE
  5
66
100
AcDbEntity
  8
DD0
100
AcDbLine
 10
86.193092
 20
349.939819
 11
86.193092
 21
336.505493
  0
LINE
  5
67
100
AcDbEntity
  8
DD0
100
AcDbLine
 10
64.293091
 20
357.439819
 11
64.293091
 21
336.505493
  0
LINE
  5
68
100
AcDbEntity
  8
DD0
100
AcDbLine
 10
80.397537
 20
336.952579
 11
86.193092
 21
338.505493
  0
LINE
  5
69
100
AcDbEntity
  8
DD0
100
AcDbLine
 10
86.193092
 20
338.505493
 11
80.397537
 21
340.058407
  0
LINE
  5
6A
100
AcDbEntity
  8
DD0
100
AcDbLine
 10
70.088646
 20
340.058407
 11
64.293091
 21
338.505493
  0
LINE
  5
6B
100
AcDbEntity
  8
DD0
100
AcDbLine
 10
64.293091
 20
338.505493
 11
70.088646
 21
336.952579
  0
LINE
  5
6C
100
AcDbEntity
  8
DD0
100
AcDbLine
 10
86.193092
 20
338.505493
 11
64.293091
 21
338.505493
  0
TEXT
  5
6D
100
AcDbEntity
  8
DD0
100
AcDbText
 10
71.586424
 20
339.705505
 40
5.0
  1
２２
 41
0.666667
  7
STANDARD
100
AcDbText
  0
ENDBLK
  5
6E
100
AcDbEntity
  8
DD0
100
AcDbBlockEnd
  0
BLOCK
  5
71
100
AcDbEntity
  8
DD0
100
AcDbBlockBegin
  2
DIMS3
 70
     0
 10
0.0
 20
0.0
  0
LINE
  5
72
100
AcDbEntity
  8
DD0
100
AcDbLine
 10
190.393082
 20
436.439819
 11
190.393082
 21
481.365082
  0
LINE
  5
73
100
AcDbEntity
  8
DD0
100
AcDbLine
 10
54.793091
 20
436.439819
 11
54.793091
 21
481.365082
  0
LINE
  5
74
100
AcDbEntity
  8
DD0
100
AcDbLine
 10
184.597527
 20
477.812167
 11
190.393082
 21
479.365082
  0
LINE
  5
75
100
AcDbEntity
  8
DD0
100
AcDbLine
 10
190.393082
 20
479.365082
 11
184.597527
 21
480.917996
  0
LINE
  5
76
100
AcDbEntity
  8
DD0
100
AcDbLine
 10
60.588646
 20
480.917996
 11
54.793091
 21
479.365082
  0
LINE
  5
77
100
AcDbEntity
  8
DD0
100
AcDbLine
 10
54.793091
 20
479.365082
 11
60.588646
 21
477.812167
  0
LINE
  5
78
100
AcDbEntity
  8
DD0
100
AcDbLine
 10
190.393082
 20
479.365082
 11
54.793091
 21
479.365082
  0
TEXT
  5
79
100
AcDbEntity
  8
DD0
100
AcDbText
 10
112.936423
 20
480.565094
 40
5.0
  1
１３５．５
 41
0.666667
  7
STANDARD
100
AcDbText
  0
ENDBLK
  5
7A
100
AcDbEntity
  8
DD0
100
AcDbBlockEnd
  0
BLOCK
  5
7D
100
AcDbEntity
  8
DD0
100
AcDbBlockBegin
  2
DIMS4
 70
     0
 10
0.0
 20
0.0
  0
LINE
  5
7E
100
AcDbEntity
  8
DD0
100
AcDbLine
 10
61.793091
 20
447.939819
 11
33.527626
 21
447.939819
  0
LINE
  5
7F
100
AcDbEntity
  8
DD0
100
AcDbLine
 10
61.793091
 20
359.939819
 11
33.527626
 21
359.939819
  0
LINE
  5
80
100
AcDbEntity
  8
DD0
100
AcDbLine
 10
37.08054
 20
442.144264
 11
35.527626
 21
447.939819
  0
LINE
  5
81
100
AcDbEntity
  8
DD0
100
AcDbLine
 10
35.527626
 20
447.939819
 11
33.974712
 21
442.144264
  0
LINE
  5
82
100
AcDbEntity
  8
DD0
100
AcDbLine
 10
33.974712
 20
365.735374
 11
35.527626
 21
359.939819
  0
LINE
  5
83
100
AcDbEntity
  8
DD0
100
AcDbLine
 10
35.527626
 20
359.939819
 11
37.08054
 21
365.735374
  0
LINE
  5
84
100
AcDbEntity
  8
DD0
100
AcDbLine
 10
35.527626
 20
447.939819
 11
35.527626
 21
359.939819
  0
TEXT
  5
85
100
AcDbEntity
  8
DD0
100
AcDbText
 10
34.327625
 20
400.283141
 40
5.0
  1
８８
 50
90.000003
 41
0.666667
  7
STANDARD
100
AcDbText
  0
ENDBLK
  5
86
100
AcDbEntity
  8
DD0
100
AcDbBlockEnd
  0
BLOCK
  5
89
100
AcDbEntity
  8
DD0
100
AcDbBlockBegin
  2
DIMS5
 70
     0
 10
0.0
 20
0.0
  0
LINE
  5
8A
100
AcDbEntity
  8
DD0
100
AcDbLine
 10
66.293091
 20
453.939819
 11
33.527626
 21
453.939819
  0
LINE
  5
8B
100
AcDbEntity
  8
DD0
100
AcDbLine
 10
61.793091
 20
447.939819
 11
33.527626
 21
447.939819
  0
LINE
  5
8C
100
AcDbEntity
  8
DD0
100
AcDbLine
 10
33.974712
 20
459.735374
 11
35.527626
 21
453.939819
  0
LINE
  5
8D
100
AcDbEntity
  8
DD0
100
AcDbLine
 10
35.527626
 20
453.939819
 11
37.08054
 21
459.735374
  0
LINE
  5
8E
100
AcDbEntity
  8
DD0
100
AcDbLine
 10
37.08054
 20
442.144264
 11
35.527626
 21
447.939819
  0
LINE
  5
8F
100
AcDbEntity
  8
DD0
100
AcDbLine
 10
35.527626
 20
447.939819
 11
33.974712
 21
442.144264
  0
LINE
  5
90
100
AcDbEntity
  8
DD0
100
AcDbLine
 10
35.527626
 20
460.539819
 11
35.527626
 21
441.339819
  0
TEXT
  5
91
100
AcDbEntity
  8
DD0
100
AcDbText
 10
34.327625
 20
449.283141
 40
5.0
  1
６
 50
90.000003
 41
0.666667
  7
STANDARD
100
AcDbText
  0
ENDBLK
  5
92
100
AcDbEntity
  8
DD0
100
AcDbBlockEnd
  0
BLOCK
  5
95
100
AcDbEntity
  8
DD0
100
AcDbBlockBegin
  2
DIMS6
 70
     0
 10
0.0
 20
0.0
  0
LINE
  5
96
100
AcDbEntity
  8
DD0
100
AcDbLine
 10
186.893082
 20
453.939819
 11
213.703369
 21
453.939819
  0
LINE
  5
97
100
AcDbEntity
  8
DD0
100
AcDbLine
 10
186.893082
 20
353.939819
 11
213.703369
 21
353.939819
  0
LINE
  5
98
100
AcDbEntity
  8
DD0
100
AcDbLine
 10
213.256283
 20
448.144264
 11
211.703369
 21
453.939819
  0
LINE
  5
99
100
AcDbEntity
  8
DD0
100
AcDbLine
 10
211.703369
 20
453.939819
 11
210.150455
 21
448.144264
  0
LINE
  5
9A
100
AcDbEntity
  8
DD0
100
AcDbLine
 10
210.150455
 20
359.735374
 11
211.703369
 21
353.939819
  0
LINE
  5
9B
100
AcDbEntity
  8
DD0
100
AcDbLine
 10
211.703369
 20
353.939819
 11
213.256283
 21
359.735374
  0
LINE
  5
9C
100
AcDbEntity
  8
DD0
100
AcDbLine
 10
211.703369
 20
453.939819
 11
211.703369
 21
353.939819
  0
TEXT
  5
9D
100
AcDbEntity
  8
DD0
100
AcDbText
 10
210.503372
 20
398.283141
 40
5.0
  1
１００
 50
90.000003
 41
0.666667
  7
STANDARD
100
AcDbText
  0
ENDBLK
  5
9E
100
AcDbEntity
  8
DD0
100
AcDbBlockEnd
  0
BLOCK
  5
A1
100
AcDbEntity
  8
DD0
100
AcDbBlockBegin
  2
DIMS7
 70
     0
 10
0.0
 20
0.0
  0
LINE
  5
A2
100
AcDbEntity
  8
DD0
100
AcDbLine
 10
281.333191
 20
455.039825
 11
281.333191
 21
470.302795
  0
LINE
  5
A3
100
AcDbEntity
  8
DD0
100
AcDbLine
 10
376.933197
 20
438.789825
 11
376.933197
 21
470.302795
  0
LINE
  5
A4
100
AcDbEntity
  8
DD0
100
AcDbLine
 10
287.128746
 20
469.85571
 11
281.333191
 21
468.302795
  0
LINE
  5
A5
100
AcDbEntity
  8
DD0
100
AcDbLine
 10
281.333191
 20
468.302795
 11
287.128746
 21
466.749881
  0
LINE
  5
A6
100
AcDbEntity
  8
DD0
100
AcDbLine
 10
371.137642
 20
466.749881
 11
376.933197
 21
468.302795
  0
LINE
  5
A7
100
AcDbEntity
  8
DD0
100
AcDbLine
 10
376.933197
 20
468.302795
 11
371.137642
 21
469.85571
  0
LINE
  5
A8
100
AcDbEntity
  8
DD0
100
AcDbLine
 10
281.333191
 20
468.302795
 11
376.933197
 21
468.302795
  0
TEXT
  5
A9
100
AcDbEntity
  8
DD0
100
AcDbText
 10
315.4765
 20
469.502808
 40
5.0
  1
９６（主端子）
 41
0.666667
  7
STANDARD
100
AcDbText
  0
ENDBLK
  5
AA
100
AcDbEntity
  8
DD0
100
AcDbBlockEnd
  0
BLOCK
  5
AD
100
AcDbEntity
  8
DD0
100
AcDbBlockBegin
  2
DIMS8
 70
     0
 10
0.0
 20
0.0
  0
LINE
  5
AE
100
AcDbEntity
  8
DD0
100
AcDbLine
 10
365.933197
 20
366.539825
 11
365.933197
 21
336.505493
  0
LINE
  5
AF
100
AcDbEntity
  8
DD0
100
AcDbLine
 10
376.933197
 20
367.289825
 11
376.933197
 21
336.505493
  0
LINE
  5
B0
100
AcDbEntity
  8
DD0
100
AcDbLine
 10
360.137642
 20
336.952579
 11
365.933197
 21
338.505493
  0
LINE
  5
B1
100
AcDbEntity
  8
DD0
100
AcDbLine
 10
365.933197
 20
338.505493
 11
360.137642
 21
340.058407
  0
LINE
  5
B2
100
AcDbEntity
  8
DD0
100
AcDbLine
 10
382.728752
 20
340.058407
 11
376.933197
 21
338.505493
  0
LINE
  5
B3
100
AcDbEntity
  8
DD0
100
AcDbLine
 10
376.933197
 20
338.505493
 11
382.728752
 21
336.952579
  0
LINE
  5
B4
100
AcDbEntity
  8
DD0
100
AcDbLine
 10
359.333197
 20
338.505493
 11
383.533197
 21
338.505493
  0
TEXT
  5
B5
100
AcDbEntity
  8
DD0
100
AcDbText
 10
367.776518
 20
339.705505
 40
5.0
  1
１１
 41
0.666667
  7
STANDARD
100
AcDbText
  0
ENDBLK
  5
B6
100
AcDbEntity
  8
DD0
100
AcDbBlockEnd
  0
BLOCK
  5
B9
100
AcDbEntity
  8
DD0
100
AcDbBlockBegin
  2
DIMS9
 70
     0
 10
0.0
 20
0.0
  0
LINE
  5
BA
100
AcDbEntity
  8
DD0
100
AcDbLine
 10
263.533203
 20
416.539825
 11
263.533203
 21
481.365082
  0
LINE
  5
BB
100
AcDbEntity
  8
DD0
100
AcDbLine
 10
371.137642
 20
477.812167
 11
376.933197
 21
479.365082
  0
LINE
  5
BC
100
AcDbEntity
  8
DD0
100
AcDbLine
 10
376.933197
 20
479.365082
 11
371.137642
 21
480.917996
  0
LINE
  5
BD
100
AcDbEntity
  8
DD0
100
AcDbLine
 10
269.328758
 20
480.917996
 11
263.533203
 21
479.365082
  0
LINE
  5
BE
100
AcDbEntity
  8
DD0
100
AcDbLine
 10
263.533203
 20
479.365082
 11
269.328758
 21
477.812167
  0
LINE
  5
BF
100
AcDbEntity
  8
DD0
100
AcDbLine
 10
376.933197
 20
479.365082
 11
263.533203
 21
479.365082
  0
TEXT
  5
C0
100
AcDbEntity
  8
DD0
100
AcDbText
 10
314.576536
 20
480.565094
 40
5.0
  1
１１４
 41
0.666667
  7
STANDARD
100
AcDbText
  0
ENDBLK
  5
C1
100
AcDbEntity
  8
DD0
100
AcDbBlockEnd
  0
BLOCK
  5
C4
100
AcDbEntity
  8
DD0
100
AcDbBlockBegin
  2
DIMS10
 70
     0
 10
0.0
 20
0.0
  0
LINE
  5
C5
100
AcDbEntity
  8
DD0
100
AcDbLine
 10
376.933197
 20
438.789825
 11
376.933197
 21
498.32724
  0
LINE
  5
C6
100
AcDbEntity
  8
DD0
100
AcDbLine
 10
232.2332
 20
407.339844
 11
232.2332
 21
498.32724
  0
LINE
  5
C7
100
AcDbEntity
  8
DD0
100
AcDbLine
 10
371.137642
 20
494.774326
 11
376.933197
 21
496.32724
  0
LINE
  5
C8
100
AcDbEntity
  8
DD0
100
AcDbLine
 10
376.933197
 20
496.32724
 11
371.137642
 21
497.880154
  0
LINE
  5
C9
100
AcDbEntity
  8
DD0
100
AcDbLine
 10
238.028755
 20
497.880154
 11
232.2332
 21
496.32724
  0
LINE
  5
CA
100
AcDbEntity
  8
DD0
100
AcDbLine
 10
232.2332
 20
496.32724
 11
238.028755
 21
494.774326
  0
LINE
  5
CB
100
AcDbEntity
  8
DD0
100
AcDbLine
 10
376.933197
 20
496.32724
 11
232.2332
 21
496.32724
  0
TEXT
  5
CC
100
AcDbEntity
  8
DD0
100
AcDbText
 10
256.926512
 20
497.527252
 40
5.0
  1
１４５（補助接点ヘッドオンユニットを付けた場合）
 41
0.666667
  7
STANDARD
100
AcDbText
  0
ENDBLK
  5
CD
100
AcDbEntity
  8
DD0
100
AcDbBlockEnd
  0
BLOCK
  5
D0
100
AcDbEntity
  8
DD0
100
AcDbBlockBegin
  2
DIMS11
 70
     0
 10
0.0
 20
0.0
  0
LINE
  5
D1
100
AcDbEntity
  8
DD0
100
AcDbLine
 10
263.533203
 20
416.539825
 11
263.533203
 21
481.365082
  0
LINE
  5
D2
100
AcDbEntity
  8
DD0
100
AcDbLine
 10
258.533203
 20
453.459961
 11
258.533203
 21
481.365082
  0
LINE
  5
D3
100
AcDbEntity
  8
DD0
100
AcDbLine
 10
269.328758
 20
480.917996
 11
263.533203
 21
479.365082
  0
LINE
  5
D4
100
AcDbEntity
  8
DD0
100
AcDbLine
 10
263.533203
 20
479.365082
 11
269.328758
 21
477.812167
  0
LINE
  5
D5
100
AcDbEntity
  8
DD0
100
AcDbLine
 10
252.737648
 20
477.812167
 11
258.533203
 21
479.365082
  0
LINE
  5
D6
100
AcDbEntity
  8
DD0
100
AcDbLine
 10
258.533203
 20
479.365082
 11
252.737648
 21
480.917996
  0
LINE
  5
D7
100
AcDbEntity
  8
DD0
100
AcDbLine
 10
270.133203
 20
479.365082
 11
245.933203
 21
479.365082
  0
TEXT
  5
D8
100
AcDbEntity
  8
DD0
100
AcDbText
 10
247.696532
 20
480.565094
 40
5.0
  1
５
 41
0.666667
  7
STANDARD
100
AcDbText
  0
ENDBLK
  5
D9
100
AcDbEntity
  8
DD0
100
AcDbBlockEnd
  0
BLOCK
  5
DC
100
AcDbEntity
  8
DD0
100
AcDbBlockBegin
  2
DIMS12
 70
     0
 10
0.0
 20
0.0
  0
TEXT
  5
DD
100
AcDbEntity
  8
DD0
100
AcDbText
 10
186.9812
 20
136.512573
 40
5.0
  1
４－Ｍ４ねじ穴
 41
0.666667
  7
STANDARD
100
AcDbText
  0
LINE
  5
DE
100
AcDbEntity
  8
DD0
100
AcDbLine
 10
186.756809
 20
173.48165
 11
185.993088
 21
179.432846
  0
LINE
  5
DF
100
AcDbEntity
  8
DD0
100
AcDbLine
 10
185.993088
 20
179.432846
 11
183.678891
 21
173.897099
  0
LINE
  5
E0
100
AcDbEntity
  8
DD0
100
AcDbLine
 10
185.993088
 20
179.432846
 11
180.037857
 21
135.312576
  0
LINE
  5
E1
100
AcDbEntity
  8
DD0
100
AcDbLine
 10
180.037857
 20
135.312576
 11
221.237869
 21
135.312576
  0
ENDBLK
  5
E2
100
AcDbEntity
  8
DD0
100
AcDbBlockEnd
  0
BLOCK
  5
E5
100
AcDbEntity
  8
DD0
100
AcDbBlockBegin
  2
DIMS13
 70
     0
 10
0.0
 20
0.0
  0
LINE
  5
E6
100
AcDbEntity
  8
DD0
100
AcDbLine
 10
113.693092
 20
260.432831
 11
213.703369
 21
260.432831
  0
LINE
  5
E7
100
AcDbEntity
  8
DD0
100
AcDbLine
 10
65.290497
 20
240.432846
 11
213.703369
 21
240.432846
  0
LINE
  5
E8
100
AcDbEntity
  8
DD0
100
AcDbLine
 10
213.256283
 20
254.637276
 11
211.703369
 21
260.432831
  0
LINE
  5
E9
100
AcDbEntity
  8
DD0
100
AcDbLine
 10
211.703369
 20
260.432831
 11
210.150455
 21
254.637276
  0
LINE
  5
EA
100
AcDbEntity
  8
DD0
100
AcDbLine
 10
210.150455
 20
246.228401
 11
211.703369
 21
240.432846
  0
LINE
  5
EB
100
AcDbEntity
  8
DD0
100
AcDbLine
 10
211.703369
 20
240.432846
 11
213.256283
 21
246.228401
  0
LINE
  5
EC
100
AcDbEntity
  8
DD0
100
AcDbLine
 10
211.703369
 20
260.432831
 11
211.703369
 21
240.432846
  0
TEXT
  5
ED
100
AcDbEntity
  8
DD0
100
AcDbText
 10
210.503372
 20
246.776167
 40
5.0
  1
２０
 50
90.000003
 41
0.666667
  7
STANDARD
100
AcDbText
  0
ENDBLK
  5
EE
100
AcDbEntity
  8
DD0
100
AcDbBlockEnd
  0
BLOCK
  5
F1
100
AcDbEntity
  8
DD0
100
AcDbBlockBegin
  2
DIMS14
 70
     0
 10
0.0
 20
0.0
  0
LINE
  5
F2
100
AcDbEntity
  8
DD0
100
AcDbLine
 10
65.290497
 20
240.432846
 11
213.703369
 21
240.432846
  0
LINE
  5
F3
100
AcDbEntity
  8
DD0
100
AcDbLine
 10
119.290497
 20
181.432846
 11
213.703369
 21
181.432846
  0
LINE
  5
F4
100
AcDbEntity
  8
DD0
100
AcDbLine
 10
213.256283
 20
234.637291
 11
211.703369
 21
240.432846
  0
LINE
  5
F5
100
AcDbEntity
  8
DD0
100
AcDbLine
 10
211.703369
 20
240.432846
 11
210.150455
 21
234.637291
  0
LINE
  5
F6
100
AcDbEntity
  8
DD0
100
AcDbLine
 10
210.150455
 20
187.228401
 11
211.703369
 21
181.432846
  0
LINE
  5
F7
100
AcDbEntity
  8
DD0
100
AcDbLine
 10
211.703369
 20
181.432846
 11
213.256283
 21
187.228401
  0
LINE
  5
F8
100
AcDbEntity
  8
DD0
100
AcDbLine
 10
211.703369
 20
240.432846
 11
211.703369
 21
181.432846
  0
TEXT
  5
F9
100
AcDbEntity
  8
DD0
100
AcDbText
 10
210.503372
 20
207.276182
 40
5.0
  1
５９
 50
90.000003
 41
0.666667
  7
STANDARD
100
AcDbText
  0
ENDBLK
  5
FA
100
AcDbEntity
  8
DD0
100
AcDbBlockEnd
  0
BLOCK
  5
FD
100
AcDbEntity
  8
DD0
100
AcDbBlockBegin
  2
DIMS15
 70
     0
 10
0.0
 20
0.0
  0
LINE
  5
FE
100
AcDbEntity
  8
DD0
100
AcDbLine
 10
59.193085
 20
246.530243
 11
59.193085
 21
278.909637
  0
LINE
  5
FF
100
AcDbEntity
  8
DD0
100
AcDbLine
 10
113.193085
 20
187.530243
 11
113.193085
 21
278.909637
  0
LINE
  5
100
100
AcDbEntity
  8
DD0
100
AcDbLine
 10
64.98864
 20
278.462552
 11
59.193085
 21
276.909637
  0
LINE
  5
101
100
AcDbEntity
  8
DD0
100
AcDbLine
 10
59.193085
 20
276.909637
 11
64.98864
 21
275.356723
  0
LINE
  5
102
100
AcDbEntity
  8
DD0
100
AcDbLine
 10
107.39753
 20
275.356723
 11
113.193085
 21
276.909637
  0
LINE
  5
103
100
AcDbEntity
  8
DD0
100
AcDbLine
 10
113.193085
 20
276.909637
 11
107.39753
 21
278.462552
  0
LINE
  5
104
100
AcDbEntity
  8
DD0
100
AcDbLine
 10
59.193085
 20
276.909637
 11
113.193085
 21
276.909637
  0
TEXT
  5
105
100
AcDbEntity
  8
DD0
100
AcDbText
 10
82.536421
 20
278.10965
 40
5.0
  1
５４
 41
0.666667
  7
STANDARD
100
AcDbText
  0
ENDBLK
  5
106
100
AcDbEntity
  8
DD0
100
AcDbBlockEnd
  0
BLOCK
  5
109
100
AcDbEntity
  8
DD0
100
AcDbBlockBegin
  2
DIMS16
 70
     0
 10
0.0
 20
0.0
  0
LINE
  5
10A
100
AcDbEntity
  8
DD0
100
AcDbLine
 10
59.193085
 20
246.530243
 11
59.193085
 21
278.909637
  0
LINE
  5
10B
100
AcDbEntity
  8
DD0
100
AcDbLine
 10
54.793095
 20
247.932846
 11
54.793095
 21
278.909637
  0
LINE
  5
10C
100
AcDbEntity
  8
DD0
100
AcDbLine
 10
64.98864
 20
278.462552
 11
59.193085
 21
276.909637
  0
LINE
  5
10D
100
AcDbEntity
  8
DD0
100
AcDbLine
 10
59.193085
 20
276.909637
 11
64.98864
 21
275.356723
  0
LINE
  5
10E
100
AcDbEntity
  8
DD0
100
AcDbLine
 10
48.99754
 20
275.356723
 11
54.793095
 21
276.909637
  0
LINE
  5
10F
100
AcDbEntity
  8
DD0
100
AcDbLine
 10
54.793095
 20
276.909637
 11
48.99754
 21
278.462552
  0
LINE
  5
110
100
AcDbEntity
  8
DD0
100
AcDbLine
 10
65.793085
 20
276.909637
 11
38.224144
 21
276.909637
  0
TEXT
  5
111
100
AcDbEntity
  8
DD0
100
AcDbText
 10
40.567477
 20
278.10965
 40
5.0
  1
４．５
 41
0.666667
  7
STANDARD
100
AcDbText
  0
ENDBLK
  5
112
100
AcDbEntity
  8
DD0
100
AcDbBlockEnd
  0
BLOCK
  5
115
100
AcDbEntity
  8
DD0
100
AcDbBlockBegin
  2
DIMS17
 70
     0
 10
0.0
 20
0.0
  0
LINE
  5
116
100
AcDbEntity
  8
DD0
100
AcDbLine
 10
113.193085
 20
187.530243
 11
113.193085
 21
278.909637
  0
LINE
  5
117
100
AcDbEntity
  8
DD0
100
AcDbLine
 10
131.993073
 20
246.530243
 11
131.993073
 21
278.909637
  0
LINE
  5
118
100
AcDbEntity
  8
DD0
100
AcDbLine
 10
118.98864
 20
278.462552
 11
113.193085
 21
276.909637
  0
LINE
  5
119
100
AcDbEntity
  8
DD0
100
AcDbLine
 10
113.193085
 20
276.909637
 11
118.98864
 21
275.356723
  0
LINE
  5
11A
100
AcDbEntity
  8
DD0
100
AcDbLine
 10
126.197518
 20
275.356723
 11
131.993073
 21
276.909637
  0
LINE
  5
11B
100
AcDbEntity
  8
DD0
100
AcDbLine
 10
131.993073
 20
276.909637
 11
126.197518
 21
278.462552
  0
LINE
  5
11C
100
AcDbEntity
  8
DD0
100
AcDbLine
 10
113.193085
 20
276.909637
 11
131.993073
 21
276.909637
  0
TEXT
  5
11D
100
AcDbEntity
  8
DD0
100
AcDbText
 10
118.936415
 20
278.10965
 40
5.0
  1
１９
 41
0.666667
  7
STANDARD
100
AcDbText
  0
ENDBLK
  5
11E
100
AcDbEntity
  8
DD0
100
AcDbBlockEnd
  0
BLOCK
  5
121
100
AcDbEntity
  8
DD0
100
AcDbBlockBegin
  2
DIMS18
 70
     0
 10
0.0
 20
0.0
  0
LINE
  5
122
100
AcDbEntity
  8
DD0
100
AcDbLine
 10
131.993073
 20
246.530243
 11
131.993073
 21
278.909637
  0
LINE
  5
123
100
AcDbEntity
  8
DD0
100
AcDbLine
 10
185.993073
 20
187.530243
 11
185.993073
 21
278.909637
  0
LINE
  5
124
100
AcDbEntity
  8
DD0
100
AcDbLine
 10
137.788627
 20
278.462552
 11
131.993073
 21
276.909637
  0
LINE
  5
125
100
AcDbEntity
  8
DD0
100
AcDbLine
 10
131.993073
 20
276.909637
 11
137.788627
 21
275.356723
  0
LINE
  5
126
100
AcDbEntity
  8
DD0
100
AcDbLine
 10
180.197518
 20
275.356723
 11
185.993073
 21
276.909637
  0
LINE
  5
127
100
AcDbEntity
  8
DD0
100
AcDbLine
 10
185.993073
 20
276.909637
 11
180.197518
 21
278.462552
  0
LINE
  5
128
100
AcDbEntity
  8
DD0
100
AcDbLine
 10
131.993073
 20
276.909637
 11
185.993073
 21
276.909637
  0
TEXT
  5
129
100
AcDbEntity
  8
DD0
100
AcDbText
 10
155.336409
 20
278.10965
 40
5.0
  1
５４
 41
0.666667
  7
STANDARD
100
AcDbText
  0
ENDBLK
  5
12A
100
AcDbEntity
  8
DD0
100
AcDbBlockEnd
  0
ENDSEC
  0
SECTION
  2
ENTITIES
  0
INSERT
  5
57
100
AcDbEntity
  8
DD0
100
AcDbBlockReference
  2
DIMS0
 10
0.0
 20
0.0
  0
INSERT
  5
63
100
AcDbEntity
  8
DD0
100
AcDbBlockReference
  2
DIMS1
 10
0.0
 20
0.0
  0
INSERT
  5
6F
100
AcDbEntity
  8
DD0
100
AcDbBlockReference
  2
DIMS2
 10
0.0
 20
0.0
  0
INSERT
  5
7B
100
AcDbEntity
  8
DD0
100
AcDbBlockReference
  2
DIMS3
 10
0.0
 20
0.0
  0
INSERT
  5
87
100
AcDbEntity
  8
DD0
100
AcDbBlockReference
  2
DIMS4
 10
0.0
 20
0.0
  0
INSERT
  5
93
100
AcDbEntity
  8
DD0
100
AcDbBlockReference
  2
DIMS5
 10
0.0
 20
0.0
  0
INSERT
  5
9F
100
AcDbEntity
  8
DD0
100
AcDbBlockReference
  2
DIMS6
 10
0.0
 20
0.0
  0
INSERT
  5
AB
100
AcDbEntity
  8
DD0
100
AcDbBlockReference
  2
DIMS7
 10
0.0
 20
0.0
  0
INSERT
  5
B7
100
AcDbEntity
  8
DD0
100
AcDbBlockReference
  2
DIMS8
 10
0.0
 20
0.0
  0
INSERT
  5
C2
100
AcDbEntity
  8
DD0
100
AcDbBlockReference
  2
DIMS9
 10
0.0
 20
0.0
  0
INSERT
  5
CE
100
AcDbEntity
  8
DD0
100
AcDbBlockReference
  2
DIMS10
 10
0.0
 20
0.0
  0
INSERT
  5
DA
100
AcDbEntity
  8
DD0
100
AcDbBlockReference
  2
DIMS11
 10
0.0
 20
0.0
  0
INSERT
  5
E3
100
AcDbEntity
  8
DD0
100
AcDbBlockReference
  2
DIMS12
 10
0.0
 20
0.0
  0
INSERT
  5
EF
100
AcDbEntity
  8
DD0
100
AcDbBlockReference
  2
DIMS13
 10
0.0
 20
0.0
  0
INSERT
  5
FB
100
AcDbEntity
  8
DD0
100
AcDbBlockReference
  2
DIMS14
 10
0.0
 20
0.0
  0
INSERT
  5
107
100
AcDbEntity
  8
DD0
100
AcDbBlockReference
  2
DIMS15
 10
0.0
 20
0.0
  0
INSERT
  5
113
100
AcDbEntity
  8
DD0
100
AcDbBlockReference
  2
DIMS16
 10
0.0
 20
0.0
  0
INSERT
  5
11F
100
AcDbEntity
  8
DD0
100
AcDbBlockReference
  2
DIMS17
 10
0.0
 20
0.0
  0
INSERT
  5
12B
100
AcDbEntity
  8
DD0
100
AcDbBlockReference
  2
DIMS18
 10
0.0
 20
0.0
  0
CIRCLE
  5
12C
100
AcDbEntity
  8
M0
100
AcDbCircle
 10
64.293091
 20
359.939862
 40
5.0
  0
CIRCLE
  5
12D
100
AcDbEntity
  8
M0
100
AcDbCircle
 10
86.193088
 20
359.939862
 40
5.0
  0
CIRCLE
  5
12E
100
AcDbEntity
  8
M0
100
AcDbCircle
 10
158.993084
 20
359.939862
 40
5.0
  0
CIRCLE
  5
12F
100
AcDbEntity
  8
M0
100
AcDbCircle
 10
137.093088
 20
359.939862
 40
5.0
  0
CIRCLE
  5
130
100
AcDbEntity
  8
M0
100
AcDbCircle
 10
86.193088
 20
447.939862
 40
5.0
  0
CIRCLE
  5
131
100
AcDbEntity
  8
M0
100
AcDbCircle
 10
108.093091
 20
447.939862
 40
5.0
  0
CIRCLE
  5
132
100
AcDbEntity
  8
M0
100
AcDbCircle
 10
108.093091
 20
359.939862
 40
5.0
  0
CIRCLE
  5
133
100
AcDbEntity
  8
M0
100
AcDbCircle
 10
64.293091
 20
447.939862
 40
5.0
  0
CIRCLE
  5
134
100
AcDbEntity
  8
M0
100
AcDbCircle
 10
180.893087
 20
359.939862
 40
5.0
  0
LINE
  5
135
100
AcDbEntity
  8
M0
  6
DASHED
100
AcDbLine
 10
202.893085
 20
433.639831
 11
190.393085
 21
433.639831
  0
LINE
  5
136
100
AcDbEntity
  8
M0
  6
DASHED
100
AcDbLine
 10
202.893085
 20
433.639831
 11
202.893085
 21
374.239831
  0
LINE
  5
137
100
AcDbEntity
  8
M0
  6
DASHED
100
AcDbLine
 10
42.293094
 20
433.639831
 11
42.293094
 21
374.239831
  0
LINE
  5
138
100
AcDbEntity
  8
M0
  6
DASHED
100
AcDbLine
 10
42.293094
 20
374.239831
 11
54.793094
 21
374.239831
  0
CIRCLE
  5
139
100
AcDbEntity
  8
M0
100
AcDbCircle
 10
158.993084
 20
447.939862
 40
5.0
  0
CIRCLE
  5
13A
100
AcDbEntity
  8
M0
100
AcDbCircle
 10
137.093088
 20
447.939862
 40
5.0
  0
LINE
  5
13B
100
AcDbEntity
  8
M0
  6
DASHED
100
AcDbLine
 10
202.893085
 20
374.239831
 11
190.393085
 21
374.239831
  0
CIRCLE
  5
13C
100
AcDbEntity
  8
M0
100
AcDbCircle
 10
180.893087
 20
447.939831
 40
5.0
  0
LINE
  5
13D
100
AcDbEntity
  8
M0
  6
DASHED
100
AcDbLine
 10
42.293094
 20
433.639831
 11
54.793094
 21
433.639831
  0
LINE
  5
13E
100
AcDbEntity
  8
M0
 62
     7
100
AcDbLine
 10
277.193552
 20
442.701441
 11
279.033152
 21
442.540521
  0
LINE
  5
13F
100
AcDbEntity
  8
M0
 62
     7
100
AcDbLine
 10
279.033152
 20
442.540506
 11
280.333201
 21
442.540506
  0
LINE
  5
140
100
AcDbEntity
  8
M0
 62
     7
100
AcDbLine
 10
291.333201
 20
445.040277
 11
283.633201
 21
445.040277
  0
LINE
  5
141
100
AcDbEntity
  8
M0
 62
     7
100
AcDbLine
 10
279.033152
 20
442.540521
 11
279.033152
 21
451.540521
  0
LINE
  5
142
100
AcDbEntity
  8
M0
 62
     7
100
AcDbLine
 10
281.333201
 20
442.039838
 11
281.333201
 21
452.039838
  0
LINE
  5
143
100
AcDbEntity
  8
M0
  6
DIVIDE
 62
     7
100
AcDbLine
 10
372.4332
 20
385.539837
 11
373.4332
 21
385.539837
  0
LINE
  5
144
100
AcDbEntity
  8
M0
  6
DIVIDE
 62
     7
100
AcDbLine
 10
378.9332
 20
390.539837
 11
372.4332
 21
390.539837
  0
LINE
  5
145
100
AcDbEntity
  8
M0
  6
DIVIDE
 62
     7
100
AcDbLine
 10
379.9332
 20
389.539837
 11
373.4332
 21
389.539837
  0
LINE
  5
146
100
AcDbEntity
  8
M0
 62
     7
100
AcDbLine
 10
280.333201
 20
452.0398
 11
281.333201
 21
452.039838
  0
LINE
  5
147
100
AcDbEntity
  8
M0
  6
DIVIDE
 62
     7
100
AcDbLine
 10
378.9332
 20
415.539837
 11
378.9332
 21
390.539837
  0
LINE
  5
148
100
AcDbEntity
  8
M0
 62
     7
100
AcDbLine
 10
291.333201
 20
444.540277
 11
291.333201
 21
449.540213
  0
LINE
  5
149
100
AcDbEntity
  8
M0
  6
DIVIDE
 62
     7
100
AcDbLine
 10
379.9332
 20
416.539837
 11
373.4332
 21
416.539837
  0
LINE
  5
14A
100
AcDbEntity
  8
M0
 62
     7
100
AcDbLine
 10
291.333201
 20
449.540213
 11
283.633201
 21
449.539924
  0
ARC
  5
14B
100
AcDbEntity
  8
M0
 62
     7
100
AcDbCircle
 10
277.333201
 20
449.785669
 40
1.599998
100
AcDbArc
 50
95.007035
 51
179.999966
  0
LINE
  5
14C
100
AcDbEntity
  8
M0
 62
     7
100
AcDbLine
 10
280.333201
 20
452.0398
 11
280.333201
 21
442.0398
  0
ARC
  5
14D
100
AcDbEntity
  8
M0
 62
     7
100
AcDbCircle
 10
277.333201
 20
361.784332
 40
1.599998
100
AcDbArc
 50
95.00717
 51
180.000034
  0
ARC
  5
14E
100
AcDbEntity
  8
M0
 62
     7
100
AcDbCircle
 10
277.333201
 20
444.295343
 40
1.599998
100
AcDbArc
 50
179.999966
 51
264.99283
  0
LINE
  5
14F
100
AcDbEntity
  8
M0
 62
     7
100
AcDbLine
 10
283.633201
 20
444.540277
 11
291.333201
 21
444.540277
  0
LINE
  5
150
100
AcDbEntity
  8
M0
 62
     7
100
AcDbLine
 10
280.333201
 20
451.540506
 11
279.033152
 21
451.540506
  0
LINE
  5
151
100
AcDbEntity
  8
M0
 62
     7
100
AcDbLine
 10
275.73324
 20
449.785669
 11
275.73324
 21
444.295343
  0
LINE
  5
152
100
AcDbEntity
  8
M0
  6
DIVIDE
 62
     7
100
AcDbLine
 10
373.4332
 20
389.539837
 11
373.4332
 21
385.539837
  0
LINE
  5
153
100
AcDbEntity
  8
M0
 62
     7
100
AcDbLine
 10
281.333201
 20
453.039838
 11
283.633201
 21
453.039838
  0
ARC
  5
154
100
AcDbEntity
  8
M0
 62
     7
100
AcDbCircle
 10
277.333201
 20
356.294006
 40
1.599998
100
AcDbArc
 50
180.000034
 51
264.992965
  0
LINE
  5
155
100
AcDbEntity
  8
M0
 62
     7
100
AcDbLine
 10
277.193552
 20
451.379587
 11
279.033152
 21
451.540521
  0
LINE
  5
156
100
AcDbEntity
  8
M0
  6
DIVIDE
 62
     7
100
AcDbLine
 10
379.9332
 20
389.539837
 11
379.9332
 21
416.539837
  0
LINE
  5
157
100
AcDbEntity
  8
M0
 62
     7
100
AcDbLine
 10
280.333201
 20
442.0398
 11
281.333201
 21
442.039838
  0
LINE
  5
158
100
AcDbEntity
  8
M0
 62
     7
100
AcDbLine
 10
279.033152
 20
363.539154
 11
279.033152
 21
354.539154
  0
LINE
  5
159
100
AcDbEntity
  8
M0
 62
     7
100
AcDbLine
 10
281.333201
 20
453.039838
 11
281.333201
 21
438.539839
  0
LINE
  5
15A
100
AcDbEntity
  8
M0
 62
     7
100
AcDbLine
 10
283.633201
 20
438.539839
 11
283.633201
 21
453.039838
  0
LINE
  5
15B
100
AcDbEntity
  8
M0
 62
     7
100
AcDbLine
 10
281.333201
 20
353.039837
 11
281.333201
 21
367.539837
  0
LINE
  5
15C
100
AcDbEntity
  8
M0
 62
     7
100
AcDbLine
 10
291.333219
 20
357.039462
 11
283.633219
 21
357.039751
  0
LINE
  5
15D
100
AcDbEntity
  8
M0
 62
     7
100
AcDbLine
 10
277.193552
 20
363.378235
 11
279.033152
 21
363.539154
  0
LINE
  5
15E
100
AcDbEntity
  8
M0
 62
     7
100
AcDbLine
 10
277.193552
 20
354.700088
 11
279.033152
 21
354.539154
  0
LINE
  5
15F
100
AcDbEntity
  8
M0
 62
     7
100
AcDbLine
 10
280.333201
 20
354.039875
 11
280.333201
 21
364.039875
  0
LINE
  5
160
100
AcDbEntity
  8
M0
 62
     7
100
AcDbLine
 10
281.333201
 20
364.039837
 11
281.333201
 21
354.039837
  0
LINE
  5
161
100
AcDbEntity
  8
M0
 62
     7
100
AcDbLine
 10
280.333201
 20
364.039875
 11
281.333201
 21
364.039837
  0
LINE
  5
162
100
AcDbEntity
  8
M0
 62
     7
100
AcDbLine
 10
279.033152
 20
363.539169
 11
280.333201
 21
363.539169
  0
LINE
  5
163
100
AcDbEntity
  8
M0
 62
     7
100
AcDbLine
 10
280.333201
 20
354.539169
 11
279.033152
 21
354.539169
  0
LINE
  5
164
100
AcDbEntity
  8
M0
  6
DIVIDE
 62
     7
100
AcDbLine
 10
373.4332
 20
420.539837
 11
373.4332
 21
416.539837
  0
LINE
  5
165
100
AcDbEntity
  8
M0
 62
     7
100
AcDbLine
 10
283.633201
 20
361.539398
 11
291.333201
 21
361.539398
  0
LINE
  5
166
100
AcDbEntity
  8
M0
  6
DIVIDE
 62
     7
100
AcDbLine
 10
378.9332
 20
415.539837
 11
372.4332
 21
415.539837
  0
LINE
  5
167
100
AcDbEntity
  8
M0
 62
     7
100
AcDbLine
 10
291.333219
 20
449.040213
 11
283.633219
 21
449.039924
  0
LINE
  5
168
100
AcDbEntity
  8
M0
 62
     7
100
AcDbLine
 10
281.333201
 20
353.039837
 11
283.633201
 21
353.039837
  0
LINE
  5
169
100
AcDbEntity
  8
M0
 62
     7
100
AcDbLine
 10
283.633201
 20
367.539837
 11
283.633201
 21
353.039837
  0
LINE
  5
16A
100
AcDbEntity
  8
M0
 62
     7
100
AcDbLine
 10
291.333201
 20
356.539462
 11
283.633201
 21
356.539751
  0
LINE
  5
16B
100
AcDbEntity
  8
M0
 62
     7
100
AcDbLine
 10
291.333201
 20
361.539398
 11
291.333201
 21
356.539462
  0
LINE
  5
16C
100
AcDbEntity
  8
M0
 62
     7
100
AcDbLine
 10
283.633201
 20
361.039398
 11
291.333201
 21
361.039398
  0
LINE
  5
16D
100
AcDbEntity
  8
M0
  6
DIVIDE
 62
     7
100
AcDbLine
 10
373.4332
 20
420.539837
 11
372.4332
 21
420.539837
  0
LINE
  5
16E
100
AcDbEntity
  8
M0
 62
     7
100
AcDbLine
 10
280.333201
 20
354.039875
 11
281.333201
 21
354.039837
  0
LINE
  5
16F
100
AcDbEntity
  8
M0
 62
     7
100
AcDbLine
 10
275.73324
 20
356.294006
 11
275.73324
 21
361.784332
  0
LINE
  5
170
100
AcDbEntity
  8
M0
100
AcDbLine
 10
127.593088
 20
428.239831
 11
127.593088
 21
403.939831
  0
LINE
  5
171
100
AcDbEntity
  8
M0
100
AcDbLine
 10
127.593088
 20
421.339831
 11
122.593088
 21
421.339831
  0
LINE
  5
172
100
AcDbEntity
  8
M0
100
AcDbLine
 10
124.993088
 20
429.339832
 11
120.193088
 21
429.339832
  0
LINE
  5
173
100
AcDbEntity
  8
M0
100
AcDbLine
 10
117.593088
 20
421.339831
 11
122.593088
 21
421.339831
  0
LINE
  5
174
100
AcDbEntity
  8
M0
100
AcDbLine
 10
127.593088
 20
425.439831
 11
122.593088
 21
425.439831
  0
LINE
  5
175
100
AcDbEntity
  8
M0
100
AcDbLine
 10
117.593088
 20
386.539831
 11
122.593088
 21
386.539831
  0
ARC
  5
176
100
AcDbEntity
  8
M0
100
AcDbCircle
 10
127.093088
 20
428.239831
 40
0.5
100
AcDbArc
 50
23.578178
 51
90.0
  0
LINE
  5
177
100
AcDbEntity
  8
M0
100
AcDbLine
 10
124.993088
 20
378.53983
 11
120.193088
 21
378.53983
  0
ARC
  5
178
100
AcDbEntity
  8
M0
100
AcDbCircle
 10
120.193088
 20
428.739831
 40
0.6
100
AcDbArc
 50
90.0
 51
180.0
  0
ARC
  5
179
100
AcDbEntity
  8
M0
100
AcDbCircle
 10
118.093088
 20
428.239831
 40
0.5
100
AcDbArc
 50
90.0
 51
156.421822
  0
LINE
  5
17A
100
AcDbEntity
  8
M0
100
AcDbLine
 10
117.593088
 20
403.939831
 11
117.593088
 21
379.639831
  0
ARC
  5
17B
100
AcDbEntity
  8
M0
100
AcDbCircle
 10
124.993088
 20
428.739831
 40
0.6
100
AcDbArc
 50
0.0
 51
90.0
  0
LINE
  5
17C
100
AcDbEntity
  8
M0
100
AcDbLine
 10
127.593088
 20
379.639831
 11
127.593088
 21
403.939831
  0
LINE
  5
17D
100
AcDbEntity
  8
M0
100
AcDbLine
 10
127.593088
 20
382.439831
 11
122.593088
 21
382.439831
  0
ARC
  5
17E
100
AcDbEntity
  8
M0
100
AcDbCircle
 10
124.993088
 20
379.139831
 40
0.6
100
AcDbArc
 50
270.0
 51
360.0
  0
LINE
  5
17F
100
AcDbEntity
  8
M0
  6
DASHDOT
100
AcDbLine
 10
122.593088
 20
433.939831
 11
122.593088
 21
374.939831
  0
ARC
  5
180
100
AcDbEntity
  8
M0
100
AcDbCircle
 10
127.093088
 20
379.639831
 40
0.5
100
AcDbArc
 50
270.0
 51
336.421822
  0
LINE
  5
181
100
AcDbEntity
  8
M0
100
AcDbLine
 10
127.593088
 20
386.539831
 11
122.593088
 21
386.539831
  0
LINE
  5
182
100
AcDbEntity
  8
M0
100
AcDbLine
 10
117.593088
 20
425.439831
 11
122.593088
 21
425.439831
  0
ARC
  5
183
100
AcDbEntity
  8
M0
100
AcDbCircle
 10
118.093088
 20
379.639831
 40
0.5
100
AcDbArc
 50
203.578178
 51
270.0
  0
LINE
  5
184
100
AcDbEntity
  8
M0
100
AcDbLine
 10
117.593088
 20
403.939831
 11
117.593088
 21
428.239831
  0
LINE
  5
185
100
AcDbEntity
  8
M0
100
AcDbLine
 10
118.093088
 20
379.139833
 11
127.093088
 21
379.139833
  0
ARC
  5
186
100
AcDbEntity
  8
M0
100
AcDbCircle
 10
120.193088
 20
379.139831
 40
0.6
100
AcDbArc
 50
180.0
 51
270.0
  0
LINE
  5
187
100
AcDbEntity
  8
M0
100
AcDbLine
 10
118.093088
 20
428.73983
 11
127.093088
 21
428.73983
  0
LINE
  5
188
100
AcDbEntity
  8
M0
100
AcDbLine
 10
117.593088
 20
382.439831
 11
122.593088
 21
382.439831
  0
ARC
  5
189
100
AcDbEntity
  8
M0
100
AcDbCircle
 10
99.193091
 20
371.439831
 40
2.75
100
AcDbArc
 50
137.622878
 51
245.572882
  0
CIRCLE
  5
18A
100
AcDbEntity
  8
M0
100
AcDbCircle
 10
111.393091
 20
424.839831
 40
3.0
  0
LINE
  5
18B
100
AcDbEntity
  8
M0
100
AcDbLine
 10
112.983675
 20
423.249186
 11
109.802034
 21
426.430949
  0
LINE
  5
18C
100
AcDbEntity
  8
M0
100
AcDbLine
 10
112.806917
 20
425.193522
 11
111.039339
 21
423.425944
  0
LINE
  5
18D
100
AcDbEntity
  8
M0
100
AcDbLine
 10
111.74637
 20
426.254191
 11
109.978792
 21
424.486491
  0
LINE
  5
18E
100
AcDbEntity
  8
M0
100
AcDbLine
 10
114.718091
 20
428.664831
 11
108.068091
 21
428.664831
  0
ARC
  5
18F
100
AcDbEntity
  8
M0
100
AcDbCircle
 10
114.718091
 20
428.164831
 40
0.5
100
AcDbArc
 50
0.0
 51
90.0
  0
LINE
  5
190
100
AcDbEntity
  8
M0
100
AcDbLine
 10
115.218091
 20
421.514831
 11
115.218091
 21
428.164831
  0
ARC
  5
191
100
AcDbEntity
  8
M0
100
AcDbCircle
 10
114.718091
 20
421.514831
 40
0.5
100
AcDbArc
 50
270.0
 51
360.0
  0
LINE
  5
192
100
AcDbEntity
  8
M0
100
AcDbLine
 10
108.068091
 20
421.014831
 11
114.718091
 21
421.014831
  0
LINE
  5
193
100
AcDbEntity
  8
M0
100
AcDbLine
 10
107.568091
 20
428.164831
 11
107.568091
 21
421.514831
  0
ARC
  5
194
100
AcDbEntity
  8
M0
100
AcDbCircle
 10
108.068091
 20
428.164831
 40
0.5
100
AcDbArc
 50
90.0
 51
180.0
  0
ARC
  5
195
100
AcDbEntity
  8
M0
100
AcDbCircle
 10
108.068091
 20
421.514831
 40
0.5
100
AcDbArc
 50
180.0
 51
270.0
  0
ARC
  5
196
100
AcDbEntity
  8
M0
100
AcDbCircle
 10
73.193091
 20
371.439831
 40
2.75
100
AcDbArc
 50
294.427107
 51
402.37713
  0
CIRCLE
  5
197
100
AcDbEntity
  8
M0
100
AcDbCircle
 10
111.393091
 20
390.639831
 40
3.0
  0
LINE
  5
198
100
AcDbEntity
  8
M0
100
AcDbLine
 10
112.983675
 20
389.049186
 11
109.802034
 21
392.230949
  0
LINE
  5
199
100
AcDbEntity
  8
M0
100
AcDbLine
 10
112.806917
 20
390.993522
 11
111.039339
 21
389.225944
  0
LINE
  5
19A
100
AcDbEntity
  8
M0
100
AcDbLine
 10
111.74637
 20
392.054191
 11
109.978792
 21
390.286491
  0
LINE
  5
19B
100
AcDbEntity
  8
M0
100
AcDbLine
 10
114.718091
 20
394.464831
 11
108.068091
 21
394.464831
  0
ARC
  5
19C
100
AcDbEntity
  8
M0
100
AcDbCircle
 10
114.718091
 20
393.964831
 40
0.5
100
AcDbArc
 50
0.0
 51
90.0
  0
LINE
  5
19D
100
AcDbEntity
  8
M0
100
AcDbLine
 10
115.218091
 20
387.314831
 11
115.218091
 21
393.964831
  0
ARC
  5
19E
100
AcDbEntity
  8
M0
100
AcDbCircle
 10
114.718091
 20
387.314831
 40
0.5
100
AcDbArc
 50
270.0
 51
360.0
  0
LINE
  5
19F
100
AcDbEntity
  8
M0
100
AcDbLine
 10
108.068091
 20
386.814831
 11
114.718091
 21
386.814831
  0
LINE
  5
1A0
100
AcDbEntity
  8
M0
100
AcDbLine
 10
107.568091
 20
393.964831
 11
107.568091
 21
387.314831
  0
ARC
  5
1A1
100
AcDbEntity
  8
M0
100
AcDbCircle
 10
108.068091
 20
393.964831
 40
0.5
100
AcDbArc
 50
90.0
 51
180.0
  0
ARC
  5
1A2
100
AcDbEntity
  8
M0
100
AcDbCircle
 10
108.068091
 20
387.314831
 40
0.5
100
AcDbArc
 50
180.0
 51
270.0
  0
CIRCLE
  5
1A3
100
AcDbEntity
  8
M0
100
AcDbCircle
 10
111.393091
 20
417.239831
 40
3.0
  0
LINE
  5
1A4
100
AcDbEntity
  8
M0
100
AcDbLine
 10
112.983675
 20
415.649186
 11
109.802034
 21
418.830949
  0
LINE
  5
1A5
100
AcDbEntity
  8
M0
100
AcDbLine
 10
112.806917
 20
417.593522
 11
111.039339
 21
415.825944
  0
LINE
  5
1A6
100
AcDbEntity
  8
M0
100
AcDbLine
 10
111.74637
 20
418.654191
 11
109.978792
 21
416.886491
  0
LINE
  5
1A7
100
AcDbEntity
  8
M0
100
AcDbLine
 10
114.718091
 20
421.064831
 11
108.068091
 21
421.064831
  0
ARC
  5
1A8
100
AcDbEntity
  8
M0
100
AcDbCircle
 10
114.718091
 20
420.564831
 40
0.5
100
AcDbArc
 50
0.0
 51
90.0
  0
LINE
  5
1A9
100
AcDbEntity
  8
M0
100
AcDbLine
 10
115.218091
 20
413.914831
 11
115.218091
 21
420.564831
  0
ARC
  5
1AA
100
AcDbEntity
  8
M0
100
AcDbCircle
 10
114.718091
 20
413.914831
 40
0.5
100
AcDbArc
 50
270.0
 51
360.0
  0
LINE
  5
1AB
100
AcDbEntity
  8
M0
100
AcDbLine
 10
108.068091
 20
413.414831
 11
114.718091
 21
413.414831
  0
LINE
  5
1AC
100
AcDbEntity
  8
M0
100
AcDbLine
 10
107.568091
 20
420.564831
 11
107.568091
 21
413.914831
  0
ARC
  5
1AD
100
AcDbEntity
  8
M0
100
AcDbCircle
 10
108.068091
 20
420.564831
 40
0.5
100
AcDbArc
 50
90.0
 51
180.0
  0
ARC
  5
1AE
100
AcDbEntity
  8
M0
100
AcDbCircle
 10
108.068091
 20
413.914831
 40
0.5
100
AcDbArc
 50
180.0
 51
270.0
  0
CIRCLE
  5
1AF
100
AcDbEntity
  8
M0
100
AcDbCircle
 10
111.393091
 20
383.039831
 40
3.0
  0
LINE
  5
1B0
100
AcDbEntity
  8
M0
100
AcDbLine
 10
112.983675
 20
381.449186
 11
109.802034
 21
384.630949
  0
LINE
  5
1B1
100
AcDbEntity
  8
M0
100
AcDbLine
 10
112.806917
 20
383.393522
 11
111.039339
 21
381.625944
  0
LINE
  5
1B2
100
AcDbEntity
  8
M0
100
AcDbLine
 10
111.74637
 20
384.454191
 11
109.978792
 21
382.686491
  0
LINE
  5
1B3
100
AcDbEntity
  8
M0
100
AcDbLine
 10
114.718091
 20
386.864831
 11
108.068091
 21
386.864831
  0
ARC
  5
1B4
100
AcDbEntity
  8
M0
100
AcDbCircle
 10
114.718091
 20
386.364831
 40
0.5
100
AcDbArc
 50
0.0
 51
90.0
  0
LINE
  5
1B5
100
AcDbEntity
  8
M0
100
AcDbLine
 10
115.218091
 20
379.714831
 11
115.218091
 21
386.364831
  0
ARC
  5
1B6
100
AcDbEntity
  8
M0
100
AcDbCircle
 10
114.718091
 20
379.714831
 40
0.5
100
AcDbArc
 50
270.0
 51
360.0
  0
LINE
  5
1B7
100
AcDbEntity
  8
M0
100
AcDbLine
 10
108.068091
 20
379.214831
 11
114.718091
 21
379.214831
  0
LINE
  5
1B8
100
AcDbEntity
  8
M0
100
AcDbLine
 10
107.568091
 20
386.364831
 11
107.568091
 21
379.714831
  0
ARC
  5
1B9
100
AcDbEntity
  8
M0
100
AcDbCircle
 10
108.068091
 20
386.364831
 40
0.5
100
AcDbArc
 50
90.0
 51
180.0
  0
ARC
  5
1BA
100
AcDbEntity
  8
M0
100
AcDbCircle
 10
108.068091
 20
379.714831
 40
0.5
100
AcDbArc
 50
180.0
 51
270.0
  0
CIRCLE
  5
1BB
100
AcDbEntity
  8
M0
100
AcDbCircle
 10
73.193091
 20
427.639831
 40
3.5
  0
LINE
  5
1BC
100
AcDbEntity
  8
M0
100
AcDbLine
 10
74.203963
 20
429.357788
 11
71.62889
 21
426.782715
  0
LINE
  5
1BD
100
AcDbEntity
  8
M0
100
AcDbLine
 10
74.91107
 20
428.65068
 11
72.335997
 21
426.075607
  0
LINE
  5
1BE
100
AcDbEntity
  8
M0
100
AcDbLine
 10
72.232237
 20
428.600677
 11
74.077086
 21
426.755844
  0
CIRCLE
  5
1BF
100
AcDbEntity
  8
M0
100
AcDbCircle
 10
86.193088
 20
427.639831
 40
3.5
  0
LINE
  5
1C0
100
AcDbEntity
  8
M0
100
AcDbLine
 10
87.203959
 20
429.357788
 11
84.628886
 21
426.782715
  0
LINE
  5
1C1
100
AcDbEntity
  8
M0
100
AcDbLine
 10
87.911067
 20
428.65068
 11
85.335994
 21
426.075607
  0
LINE
  5
1C2
100
AcDbEntity
  8
M0
100
AcDbLine
 10
85.232234
 20
428.600677
 11
87.077083
 21
426.755844
  0
CIRCLE
  5
1C3
100
AcDbEntity
  8
M0
100
AcDbCircle
 10
99.193088
 20
427.639831
 40
3.5
  0
LINE
  5
1C4
100
AcDbEntity
  8
M0
100
AcDbLine
 10
100.20396
 20
429.357788
 11
97.628886
 21
426.782715
  0
LINE
  5
1C5
100
AcDbEntity
  8
M0
100
AcDbLine
 10
100.911067
 20
428.65068
 11
98.335994
 21
426.075607
  0
LINE
  5
1C6
100
AcDbEntity
  8
M0
100
AcDbLine
 10
98.232234
 20
428.600677
 11
100.077083
 21
426.755844
  0
CIRCLE
  5
1C7
100
AcDbEntity
  8
M0
100
AcDbCircle
 10
99.193088
 20
380.239831
 40
3.5
  0
LINE
  5
1C8
100
AcDbEntity
  8
M0
100
AcDbLine
 10
100.20396
 20
381.957787
 11
97.628886
 21
379.382714
  0
LINE
  5
1C9
100
AcDbEntity
  8
M0
100
AcDbLine
 10
100.911067
 20
381.25068
 11
98.335994
 21
378.675607
  0
LINE
  5
1CA
100
AcDbEntity
  8
M0
100
AcDbLine
 10
98.232234
 20
381.200677
 11
100.077083
 21
379.355843
  0
CIRCLE
  5
1CB
100
AcDbEntity
  8
M0
100
AcDbCircle
 10
86.193088
 20
380.239831
 40
3.5
  0
LINE
  5
1CC
100
AcDbEntity
  8
M0
100
AcDbLine
 10
87.203959
 20
381.957787
 11
84.628886
 21
379.382714
  0
LINE
  5
1CD
100
AcDbEntity
  8
M0
100
AcDbLine
 10
87.911067
 20
381.25068
 11
85.335994
 21
378.675607
  0
LINE
  5
1CE
100
AcDbEntity
  8
M0
100
AcDbLine
 10
85.232234
 20
381.200677
 11
87.077083
 21
379.355843
  0
CIRCLE
  5
1CF
100
AcDbEntity
  8
M0
100
AcDbCircle
 10
73.193091
 20
380.239831
 40
3.5
  0
LINE
  5
1D0
100
AcDbEntity
  8
M0
100
AcDbLine
 10
74.203963
 20
381.957787
 11
71.62889
 21
379.382714
  0
LINE
  5
1D1
100
AcDbEntity
  8
M0
100
AcDbLine
 10
74.91107
 20
381.25068
 11
72.335997
 21
378.675607
  0
LINE
  5
1D2
100
AcDbEntity
  8
M0
100
AcDbLine
 10
72.232237
 20
381.200677
 11
74.077086
 21
379.355843
  0
CIRCLE
  5
1D3
100
AcDbEntity
  8
M0
  6
DASHED
100
AcDbCircle
 10
60.993091
 20
417.239831
 40
3.0
  0
LINE
  5
1D4
100
AcDbEntity
  8
M0
  6
DASHED
100
AcDbLine
 10
62.583675
 20
415.649186
 11
59.402034
 21
418.830949
  0
LINE
  5
1D5
100
AcDbEntity
  8
M0
  6
DASHED
100
AcDbLine
 10
62.406917
 20
417.593522
 11
60.639339
 21
415.825944
  0
LINE
  5
1D6
100
AcDbEntity
  8
M0
  6
DASHED
100
AcDbLine
 10
61.34637
 20
418.654191
 11
59.578792
 21
416.886491
  0
LINE
  5
1D7
100
AcDbEntity
  8
M0
  6
DASHED
100
AcDbLine
 10
64.318091
 20
421.064831
 11
57.668091
 21
421.064831
  0
ARC
  5
1D8
100
AcDbEntity
  8
M0
  6
DASHED
100
AcDbCircle
 10
64.318091
 20
420.564831
 40
0.5
100
AcDbArc
 50
0.0
 51
90.0
  0
LINE
  5
1D9
100
AcDbEntity
  8
M0
  6
DASHED
100
AcDbLine
 10
64.818091
 20
413.914831
 11
64.818091
 21
420.564831
  0
ARC
  5
1DA
100
AcDbEntity
  8
M0
  6
DASHED
100
AcDbCircle
 10
64.318091
 20
413.914831
 40
0.5
100
AcDbArc
 50
270.0
 51
360.0
  0
LINE
  5
1DB
100
AcDbEntity
  8
M0
  6
DASHED
100
AcDbLine
 10
57.668091
 20
413.414831
 11
64.318091
 21
413.414831
  0
LINE
  5
1DC
100
AcDbEntity
  8
M0
  6
DASHED
100
AcDbLine
 10
57.168091
 20
420.564831
 11
57.168091
 21
413.914831
  0
ARC
  5
1DD
100
AcDbEntity
  8
M0
  6
DASHED
100
AcDbCircle
 10
57.668091
 20
420.564831
 40
0.5
100
AcDbArc
 50
90.0
 51
180.0
  0
ARC
  5
1DE
100
AcDbEntity
  8
M0
  6
DASHED
100
AcDbCircle
 10
57.668091
 20
413.914831
 40
0.5
100
AcDbArc
 50
180.0
 51
270.0
  0
CIRCLE
  5
1DF
100
AcDbEntity
  8
M0
  6
DASHED
100
AcDbCircle
 10
60.993091
 20
383.039831
 40
3.0
  0
LINE
  5
1E0
100
AcDbEntity
  8
M0
  6
DASHED
100
AcDbLine
 10
62.583675
 20
381.449186
 11
59.402035
 21
384.630949
  0
LINE
  5
1E1
100
AcDbEntity
  8
M0
  6
DASHED
100
AcDbLine
 10
62.406917
 20
383.393522
 11
60.639339
 21
381.625944
  0
LINE
  5
1E2
100
AcDbEntity
  8
M0
  6
DASHED
100
AcDbLine
 10
61.34637
 20
384.454191
 11
59.578792
 21
382.686491
  0
LINE
  5
1E3
100
AcDbEntity
  8
M0
  6
DASHED
100
AcDbLine
 10
64.318091
 20
386.864831
 11
57.668091
 21
386.864831
  0
ARC
  5
1E4
100
AcDbEntity
  8
M0
  6
DASHED
100
AcDbCircle
 10
64.318091
 20
386.364831
 40
0.5
100
AcDbArc
 50
0.0
 51
90.0
  0
LINE
  5
1E5
100
AcDbEntity
  8
M0
  6
DASHED
100
AcDbLine
 10
64.818091
 20
379.714831
 11
64.818091
 21
386.364831
  0
ARC
  5
1E6
100
AcDbEntity
  8
M0
  6
DASHED
100
AcDbCircle
 10
64.318091
 20
379.714831
 40
0.5
100
AcDbArc
 50
270.0
 51
360.0
  0
LINE
  5
1E7
100
AcDbEntity
  8
M0
  6
DASHED
100
AcDbLine
 10
57.668091
 20
379.214831
 11
64.318091
 21
379.214831
  0
LINE
  5
1E8
100
AcDbEntity
  8
M0
  6
DASHED
100
AcDbLine
 10
57.168091
 20
386.364831
 11
57.168091
 21
379.714831
  0
ARC
  5
1E9
100
AcDbEntity
  8
M0
  6
DASHED
100
AcDbCircle
 10
57.668091
 20
386.364831
 40
0.5
100
AcDbArc
 50
90.0
 51
180.0
  0
ARC
  5
1EA
100
AcDbEntity
  8
M0
  6
DASHED
100
AcDbCircle
 10
57.668091
 20
379.714831
 40
0.5
100
AcDbArc
 50
180.0
 51
270.0
  0
LINE
  5
1EB
100
AcDbEntity
  8
M0
  6
DASHDOT
100
AcDbLine
 10
122.593088
 20
403.939831
 11
195.393085
 21
403.939831
  0
LINE
  5
1EC
100
AcDbEntity
  8
M0
100
AcDbLine
 10
76.883675
 20
440.949186
 11
73.702034
 21
444.130949
  0
LINE
  5
1ED
100
AcDbEntity
  8
M0
100
AcDbLine
 10
76.706917
 20
442.893522
 11
74.939339
 21
441.125944
  0
LINE
  5
1EE
100
AcDbEntity
  8
M0
100
AcDbLine
 10
75.64637
 20
443.954191
 11
73.878792
 21
442.186491
  0
LINE
  5
1EF
100
AcDbEntity
  8
M0
100
AcDbLine
 10
78.618091
 20
446.364831
 11
71.968091
 21
446.364831
  0
ARC
  5
1F0
100
AcDbEntity
  8
M0
100
AcDbCircle
 10
78.618091
 20
445.864831
 40
0.5
100
AcDbArc
 50
0.0
 51
90.0
  0
LINE
  5
1F1
100
AcDbEntity
  8
M0
100
AcDbLine
 10
79.118091
 20
439.214831
 11
79.118091
 21
445.864831
  0
ARC
  5
1F2
100
AcDbEntity
  8
M0
100
AcDbCircle
 10
78.618091
 20
439.214831
 40
0.5
100
AcDbArc
 50
270.0
 51
360.0
  0
LINE
  5
1F3
100
AcDbEntity
  8
M0
100
AcDbLine
 10
74.470956
 20
438.714831
 11
78.618091
 21
438.714831
  0
LINE
  5
1F4
100
AcDbEntity
  8
M0
100
AcDbLine
 10
71.468091
 20
445.864831
 11
71.468091
 21
443.600849
  0
ARC
  5
1F5
100
AcDbEntity
  8
M0
100
AcDbCircle
 10
71.968091
 20
445.864831
 40
0.5
100
AcDbArc
 50
90.0
 51
180.0
  0
ARC
  5
1F6
100
AcDbEntity
  8
M0
100
AcDbCircle
 10
75.293091
 20
442.539831
 40
3.0
100
AcDbArc
 50
237.275263
 51
545.873119
  0
CIRCLE
  5
1F7
100
AcDbEntity
  8
M0
  6
DASHED
100
AcDbCircle
 10
60.993091
 20
424.839831
 40
3.0
  0
LINE
  5
1F8
100
AcDbEntity
  8
M0
  6
DASHED
100
AcDbLine
 10
62.583675
 20
423.249186
 11
59.402034
 21
426.430949
  0
LINE
  5
1F9
100
AcDbEntity
  8
M0
  6
DASHED
100
AcDbLine
 10
62.406917
 20
425.193522
 11
60.639339
 21
423.425944
  0
LINE
  5
1FA
100
AcDbEntity
  8
M0
  6
DASHED
100
AcDbLine
 10
61.34637
 20
426.254191
 11
59.578792
 21
424.486491
  0
LINE
  5
1FB
100
AcDbEntity
  8
M0
  6
DASHED
100
AcDbLine
 10
64.318091
 20
428.664831
 11
57.668091
 21
428.664831
  0
ARC
  5
1FC
100
AcDbEntity
  8
M0
  6
DASHED
100
AcDbCircle
 10
64.318091
 20
428.164831
 40
0.5
100
AcDbArc
 50
0.0
 51
90.0
  0
LINE
  5
1FD
100
AcDbEntity
  8
M0
  6
DASHED
100
AcDbLine
 10
64.818091
 20
421.514831
 11
64.818091
 21
428.164831
  0
ARC
  5
1FE
100
AcDbEntity
  8
M0
  6
DASHED
100
AcDbCircle
 10
64.318091
 20
421.514831
 40
0.5
100
AcDbArc
 50
270.0
 51
360.0
  0
LINE
  5
1FF
100
AcDbEntity
  8
M0
  6
DASHED
100
AcDbLine
 10
57.668091
 20
421.014831
 11
64.318091
 21
421.014831
  0
LINE
  5
200
100
AcDbEntity
  8
M0
  6
DASHED
100
AcDbLine
 10
57.168091
 20
428.164831
 11
57.168091
 21
421.514831
  0
ARC
  5
201
100
AcDbEntity
  8
M0
  6
DASHED
100
AcDbCircle
 10
57.668091
 20
428.164831
 40
0.5
100
AcDbArc
 50
90.0
 51
180.0
  0
ARC
  5
202
100
AcDbEntity
  8
M0
  6
DASHED
100
AcDbCircle
 10
57.668091
 20
421.514831
 40
0.5
100
AcDbArc
 50
180.0
 51
270.0
  0
LINE
  5
203
100
AcDbEntity
  8
M0
100
AcDbLine
 10
98.683675
 20
440.949186
 11
95.502035
 21
444.130949
  0
LINE
  5
204
100
AcDbEntity
  8
M0
100
AcDbLine
 10
98.506917
 20
442.893522
 11
96.739339
 21
441.125944
  0
LINE
  5
205
100
AcDbEntity
  8
M0
100
AcDbLine
 10
97.44637
 20
443.954191
 11
95.678792
 21
442.186491
  0
LINE
  5
206
100
AcDbEntity
  8
M0
100
AcDbLine
 10
100.418091
 20
446.364831
 11
93.768091
 21
446.364831
  0
ARC
  5
207
100
AcDbEntity
  8
M0
100
AcDbCircle
 10
100.418091
 20
445.864831
 40
0.5
100
AcDbArc
 50
0.0
 51
90.0
  0
LINE
  5
208
100
AcDbEntity
  8
M0
100
AcDbLine
 10
100.918091
 20
443.600849
 11
100.918091
 21
445.864831
  0
LINE
  5
209
100
AcDbEntity
  8
M0
100
AcDbLine
 10
93.768091
 20
438.714831
 11
97.915226
 21
438.714831
  0
LINE
  5
20A
100
AcDbEntity
  8
M0
100
AcDbLine
 10
93.268091
 20
445.864831
 11
93.268091
 21
439.214831
  0
ARC
  5
20B
100
AcDbEntity
  8
M0
100
AcDbCircle
 10
93.768091
 20
445.864831
 40
0.5
100
AcDbArc
 50
90.0
 51
180.0
  0
ARC
  5
20C
100
AcDbEntity
  8
M0
100
AcDbCircle
 10
93.768091
 20
439.214831
 40
0.5
100
AcDbArc
 50
180.0
 51
270.0
  0
ARC
  5
20D
100
AcDbEntity
  8
M0
100
AcDbCircle
 10
97.093091
 20
442.539831
 40
3.0
100
AcDbArc
 50
354.126881
 51
662.724737
  0
LINE
  5
20E
100
AcDbEntity
  8
M0
  6
DASHDOT
100
AcDbLine
 10
86.193091
 20
455.939831
 11
86.193091
 21
351.939831
  0
LINE
  5
20F
100
AcDbEntity
  8
M0
  6
DASHDOT
100
AcDbLine
 10
49.793091
 20
403.939831
 11
122.593088
 21
403.939831
  0
ARC
  5
210
100
AcDbEntity
  8
M0
100
AcDbCircle
 10
93.843091
 20
439.289831
 40
0.5
100
AcDbArc
 50
268.473851
 51
270.0
  0
ARC
  5
211
100
AcDbEntity
  8
M0
100
AcDbCircle
 10
59.193091
 20
433.939831
 40
2.25
100
AcDbArc
 50
0.0
 51
180.0
  0
ARC
  5
212
100
AcDbEntity
  8
M0
100
AcDbCircle
 10
59.193091
 20
431.939831
 40
2.25
100
AcDbArc
 50
180.0
 51
360.0
  0
ARC
  5
213
100
AcDbEntity
  8
M0
100
AcDbCircle
 10
59.793091
 20
373.439831
 40
5.0
100
AcDbArc
 50
180.0
 51
270.0
  0
ARC
  5
214
100
AcDbEntity
  8
M0
100
AcDbCircle
 10
59.793091
 20
434.439831
 40
5.0
100
AcDbArc
 50
90.0
 51
180.0
  0
LINE
  5
215
100
AcDbEntity
  8
M0
100
AcDbLine
 10
95.093091
 20
391.739831
 11
77.293091
 21
391.739831
  0
LINE
  5
216
100
AcDbEntity
  8
M0
100
AcDbLine
 10
76.793092
 20
392.239831
 11
76.793092
 21
415.639831
  0
LINE
  5
217
100
AcDbEntity
  8
M0
100
AcDbLine
 10
105.893091
 20
421.339831
 11
66.493091
 21
421.339831
  0
LINE
  5
218
100
AcDbEntity
  8
M0
100
AcDbLine
 10
107.693092
 20
406.439831
 11
105.893091
 21
406.439831
  0
LINE
  5
219
100
AcDbEntity
  8
M0
100
AcDbLine
 10
80.893093
 20
416.13983
 11
77.293091
 21
416.13983
  0
ARC
  5
21A
100
AcDbEntity
  8
M0
100
AcDbCircle
 10
63.993091
 20
371.939831
 40
0.5
100
AcDbArc
 50
180.0
 51
270.0
  0
ARC
  5
21B
100
AcDbEntity
  8
M0
100
AcDbCircle
 10
108.393091
 20
372.939831
 40
0.5
100
AcDbArc
 50
0.0
 51
90.0
  0
ARC
  5
21C
100
AcDbEntity
  8
M0
100
AcDbCircle
 10
64.993091
 20
372.939831
 40
0.5
100
AcDbArc
 50
0.0
 51
90.0
  0
ARC
  5
21D
100
AcDbEntity
  8
M0
100
AcDbCircle
 10
63.993091
 20
372.939831
 40
0.5
100
AcDbArc
 50
90.0
 51
180.0
  0
CIRCLE
  5
21E
100
AcDbEntity
  8
M0
100
AcDbCircle
 10
58.693091
 20
373.939831
 40
2.25
  0
CIRCLE
  5
21F
100
AcDbEntity
  8
M0
100
AcDbCircle
 10
113.693091
 20
433.939831
 40
2.25
  0
ARC
  5
220
100
AcDbEntity
  8
M0
100
AcDbCircle
 10
108.393091
 20
371.939831
 40
0.5
100
AcDbArc
 50
270.0
 51
360.0
  0
ARC
  5
221
100
AcDbEntity
  8
M0
100
AcDbCircle
 10
107.393091
 20
372.939831
 40
0.5
100
AcDbArc
 50
90.0
 51
180.0
  0
ARC
  5
222
100
AcDbEntity
  8
M0
100
AcDbCircle
 10
106.193091
 20
438.439831
 40
1.0
100
AcDbArc
 50
90.0
 51
98.626927
  0
ARC
  5
223
100
AcDbEntity
  8
M0
100
AcDbCircle
 10
113.193091
 20
373.939831
 40
2.25
100
AcDbArc
 50
180.0
 51
360.0
  0
ARC
  5
224
100
AcDbEntity
  8
M0
100
AcDbCircle
 10
66.193091
 20
438.439831
 40
1.0
100
AcDbArc
 50
81.373073
 51
90.0
  0
ARC
  5
225
100
AcDbEntity
  8
M0
100
AcDbCircle
 10
112.593091
 20
434.439831
 40
5.0
100
AcDbArc
 50
0.0
 51
90.0
  0
ARC
  5
226
100
AcDbEntity
  8
M0
100
AcDbCircle
 10
64.993091
 20
371.939831
 40
0.5
100
AcDbArc
 50
270.0
 51
360.0
  0
ARC
  5
227
100
AcDbEntity
  8
M0
100
AcDbCircle
 10
113.193091
 20
375.939831
 40
2.25
100
AcDbArc
 50
0.0
 51
180.0
  0
ARC
  5
228
100
AcDbEntity
  8
M0
100
AcDbCircle
 10
112.593091
 20
373.439831
 40
5.0
100
AcDbArc
 50
270.0
 51
360.0
  0
LINE
  5
229
100
AcDbEntity
  8
M0
100
AcDbLine
 10
65.762321
 20
407.439831
 11
65.762321
 21
406.439831
  0
LINE
  5
22A
100
AcDbEntity
  8
M0
100
AcDbLine
 10
65.493091
 20
407.439831
 11
64.893092
 21
407.439831
  0
LINE
  5
22B
100
AcDbEntity
  8
M0
100
AcDbLine
 10
65.762321
 20
400.439831
 11
65.762321
 21
401.439831
  0
LINE
  5
22C
100
AcDbEntity
  8
M0
100
AcDbLine
 10
65.493091
 20
400.439831
 11
64.893092
 21
400.439831
  0
LINE
  5
22D
100
AcDbEntity
  8
M0
100
AcDbLine
 10
106.623859
 20
400.439831
 11
106.623859
 21
401.439831
  0
LINE
  5
22E
100
AcDbEntity
  8
M0
100
AcDbLine
 10
106.89309
 20
400.439831
 11
107.493092
 21
400.439831
  0
LINE
  5
22F
100
AcDbEntity
  8
M0
100
AcDbLine
 10
106.623859
 20
407.439831
 11
106.623859
 21
406.439831
  0
LINE
  5
230
100
AcDbEntity
  8
M0
100
AcDbLine
 10
106.89309
 20
407.439831
 11
107.493092
 21
407.439831
  0
LINE
  5
231
100
AcDbEntity
  8
M0
100
AcDbLine
 10
101.39309
 20
444.373727
 11
101.39309
 21
447.839833
  0
LINE
  5
232
100
AcDbEntity
  8
M0
100
AcDbLine
 10
102.310822
 20
448.439831
 11
101.993092
 21
448.439831
  0
LINE
  5
233
100
AcDbEntity
  8
M0
100
AcDbLine
 10
91.193092
 20
370.939831
 11
91.193092
 21
371.439832
  0
LINE
  5
234
100
AcDbEntity
  8
M0
100
AcDbLine
 10
91.193092
 20
368.43983
 11
89.293088
 21
368.43983
  0
LINE
  5
235
100
AcDbEntity
  8
M0
100
AcDbLine
 10
81.19309
 20
371.439832
 11
81.19309
 21
370.939831
  0
LINE
  5
236
100
AcDbEntity
  8
M0
100
AcDbLine
 10
64.69309
 20
401.439831
 11
64.69309
 21
406.439831
  0
LINE
  5
237
100
AcDbEntity
  8
M0
100
AcDbLine
 10
65.493091
 20
400.439831
 11
66.493091
 21
400.439831
  0
LINE
  5
238
100
AcDbEntity
  8
M0
100
AcDbLine
 10
65.493091
 20
369.439831
 11
65.493091
 21
400.439831
  0
LINE
  5
239
100
AcDbEntity
  8
M0
100
AcDbLine
 10
65.493091
 20
407.439831
 11
66.493091
 21
407.439831
  0
LINE
  5
23A
100
AcDbEntity
  8
M0
100
AcDbLine
 10
64.193091
 20
405.439831
 11
64.69309
 21
405.439831
  0
LINE
  5
23B
100
AcDbEntity
  8
M0
100
AcDbLine
 10
64.193091
 20
402.439831
 11
64.193091
 21
405.439831
  0
LINE
  5
23C
100
AcDbEntity
  8
M0
100
AcDbLine
 10
81.693091
 20
370.43983
 11
83.093088
 21
370.43983
  0
LINE
  5
23D
100
AcDbEntity
  8
M0
100
AcDbLine
 10
64.69309
 20
402.439831
 11
64.193091
 21
402.439831
  0
LINE
  5
23E
100
AcDbEntity
  8
M0
100
AcDbLine
 10
108.193093
 20
402.439831
 11
108.193093
 21
405.439831
  0
LINE
  5
23F
100
AcDbEntity
  8
M0
100
AcDbLine
 10
65.693091
 20
406.439831
 11
64.69309
 21
406.439831
  0
LINE
  5
240
100
AcDbEntity
  8
M0
100
AcDbLine
 10
108.193093
 20
405.439831
 11
107.693092
 21
405.439831
  0
ARC
  5
241
100
AcDbEntity
  8
M0
100
AcDbCircle
 10
64.693091
 20
400.639831
 40
0.5
100
AcDbArc
 50
293.578178
 51
336.421822
  0
ARC
  5
242
100
AcDbEntity
  8
M0
100
AcDbCircle
 10
107.693091
 20
400.639831
 40
0.5
100
AcDbArc
 50
203.578178
 51
246.421822
  0
LINE
  5
243
100
AcDbEntity
  8
M0
100
AcDbLine
 10
63.993092
 20
371.439832
 11
64.993092
 21
371.439832
  0
LINE
  5
244
100
AcDbEntity
  8
M0
100
AcDbLine
 10
64.993092
 20
373.439832
 11
63.993092
 21
373.439832
  0
LINE
  5
245
100
AcDbEntity
  8
M0
100
AcDbLine
 10
108.393093
 20
373.439832
 11
107.393091
 21
373.439832
  0
LINE
  5
246
100
AcDbEntity
  8
M0
100
AcDbLine
 10
63.493091
 20
372.939831
 11
63.493091
 21
371.939829
  0
ARC
  5
247
100
AcDbEntity
  8
M0
100
AcDbCircle
 10
80.293091
 20
447.939831
 40
0.5
100
AcDbArc
 50
0.0
 51
90.0
  0
ARC
  5
248
100
AcDbEntity
  8
M0
100
AcDbCircle
 10
92.093091
 20
447.939831
 40
0.5
100
AcDbArc
 50
90.0
 51
180.0
  0
ARC
  5
249
100
AcDbEntity
  8
M0
100
AcDbCircle
 10
80.293091
 20
447.439831
 40
1.0
100
AcDbArc
 50
90.0
 51
180.0
  0
LINE
  5
24A
100
AcDbEntity
  8
M0
100
AcDbLine
 10
83.693092
 20
408.417298
 11
83.693092
 21
408.239831
  0
LINE
  5
24B
100
AcDbEntity
  8
M0
100
AcDbLine
 10
88.693091
 20
398.939831
 11
88.693091
 21
399.039831
  0
ARC
  5
24C
100
AcDbEntity
  8
M0
100
AcDbCircle
 10
92.093091
 20
447.439831
 40
1.0
100
AcDbArc
 50
0.0
 51
90.0
  0
LINE
  5
24D
100
AcDbEntity
  8
M0
100
AcDbLine
 10
88.693091
 20
408.417298
 11
88.693091
 21
408.239831
  0
ARC
  5
24E
100
AcDbEntity
  8
M0
100
AcDbCircle
 10
81.393091
 20
407.739831
 40
0.5
100
AcDbArc
 50
90.0
 51
180.0
  0
ARC
  5
24F
100
AcDbEntity
  8
M0
100
AcDbCircle
 10
83.943091
 20
407.739831
 40
0.5
100
AcDbArc
 50
0.0
 51
90.0
  0
LINE
  5
250
100
AcDbEntity
  8
M0
100
AcDbLine
 10
108.89309
 20
371.939829
 11
108.89309
 21
372.939831
  0
ARC
  5
251
100
AcDbEntity
  8
M0
100
AcDbCircle
 10
81.393091
 20
399.539831
 40
0.5
100
AcDbArc
 50
180.0
 51
270.0
  0
ARC
  5
252
100
AcDbEntity
  8
M0
100
AcDbCircle
 10
90.993091
 20
407.739831
 40
0.5
100
AcDbArc
 50
0.0
 51
90.0
  0
ARC
  5
253
100
AcDbEntity
  8
M0
100
AcDbCircle
 10
88.443091
 20
407.739831
 40
0.5
100
AcDbArc
 50
90.0
 51
180.0
  0
ARC
  5
254
100
AcDbEntity
  8
M0
100
AcDbCircle
 10
90.993091
 20
399.539831
 40
0.5
100
AcDbArc
 50
270.0
 51
360.0
  0
LINE
  5
255
100
AcDbEntity
  8
M0
100
AcDbLine
 10
93.893093
 20
438.439832
 11
97.746216
 21
438.439832
  0
LINE
  5
256
100
AcDbEntity
  8
M0
100
AcDbLine
 10
97.228481
 20
436.939831
 11
93.893093
 21
436.939831
  0
LINE
  5
257
100
AcDbEntity
  8
M0
100
AcDbLine
 10
79.293092
 20
446.939832
 11
70.993091
 21
446.939832
  0
LINE
  5
258
100
AcDbEntity
  8
M0
100
AcDbLine
 10
101.39309
 20
446.939832
 11
93.093091
 21
446.939832
  0
LINE
  5
259
100
AcDbEntity
  8
M0
100
AcDbLine
 10
93.093091
 20
447.439829
 11
93.093091
 21
439.419626
  0
LINE
  5
25A
100
AcDbEntity
  8
M0
100
AcDbLine
 10
107.693092
 20
402.439831
 11
108.193093
 21
402.439831
  0
LINE
  5
25B
100
AcDbEntity
  8
M0
100
AcDbLine
 10
91.593091
 20
438.87572
 11
91.593091
 21
447.439829
  0
LINE
  5
25C
100
AcDbEntity
  8
M0
100
AcDbLine
 10
78.493093
 20
436.939831
 11
75.157701
 21
436.939831
  0
LINE
  5
25D
100
AcDbEntity
  8
M0
100
AcDbLine
 10
74.63916
 20
438.439832
 11
78.493093
 21
438.439832
  0
LINE
  5
25E
100
AcDbEntity
  8
M0
100
AcDbLine
 10
112.593093
 20
368.43983
 11
105.493091
 21
368.43983
  0
LINE
  5
25F
100
AcDbEntity
  8
M0
100
AcDbLine
 10
63.493091
 20
374.439831
 11
65.493091
 21
374.439831
  0
LINE
  5
260
100
AcDbEntity
  8
M0
100
AcDbLine
 10
63.493091
 20
378.239832
 11
63.493091
 21
374.439831
  0
LINE
  5
261
100
AcDbEntity
  8
M0
100
AcDbLine
 10
108.89309
 20
374.439831
 11
108.89309
 21
378.239832
  0
LINE
  5
262
100
AcDbEntity
  8
M0
100
AcDbLine
 10
106.89309
 20
374.439831
 11
108.89309
 21
374.439831
  0
LINE
  5
263
100
AcDbEntity
  8
M0
100
AcDbLine
 10
110.943095
 20
375.93983
 11
110.943095
 21
373.93983
  0
LINE
  5
264
100
AcDbEntity
  8
M0
100
AcDbLine
 10
115.443089
 20
373.93983
 11
115.443089
 21
375.93983
  0
LINE
  5
265
100
AcDbEntity
  8
M0
100
AcDbLine
 10
54.793091
 20
373.439832
 11
54.793091
 21
434.439831
  0
LINE
  5
266
100
AcDbEntity
  8
M0
100
AcDbLine
 10
61.443091
 20
433.93983
 11
61.443091
 21
431.939832
  0
LINE
  5
267
100
AcDbEntity
  8
M0
100
AcDbLine
 10
56.943092
 20
431.939832
 11
56.943092
 21
433.93983
  0
ARC
  5
268
100
AcDbEntity
  8
M0
100
AcDbCircle
 10
105.893091
 20
420.339831
 40
1.0
100
AcDbArc
 50
0.0
 51
90.0
  0
ARC
  5
269
100
AcDbEntity
  8
M0
100
AcDbCircle
 10
105.893091
 20
387.539831
 40
1.0
100
AcDbArc
 50
270.0
 51
360.0
  0
LINE
  5
26A
100
AcDbEntity
  8
M0
100
AcDbLine
 10
105.893091
 20
400.439831
 11
105.893091
 21
401.439831
  0
LINE
  5
26B
100
AcDbEntity
  8
M0
100
AcDbLine
 10
107.693092
 20
401.439831
 11
105.893091
 21
401.439831
  0
LINE
  5
26C
100
AcDbEntity
  8
M0
100
AcDbLine
 10
87.393091
 20
416.13983
 11
84.993091
 21
416.13983
  0
LINE
  5
26D
100
AcDbEntity
  8
M0
100
AcDbLine
 10
84.993091
 20
417.739831
 11
84.993091
 21
416.13983
  0
LINE
  5
26E
100
AcDbEntity
  8
M0
100
AcDbLine
 10
65.693091
 20
406.439831
 11
66.493091
 21
406.439831
  0
LINE
  5
26F
100
AcDbEntity
  8
M0
100
AcDbLine
 10
64.69309
 20
401.439831
 11
66.493091
 21
401.439831
  0
LINE
  5
270
100
AcDbEntity
  8
M0
100
AcDbLine
 10
105.893091
 20
407.439831
 11
105.893091
 21
406.439831
  0
LINE
  5
271
100
AcDbEntity
  8
M0
100
AcDbLine
 10
66.493091
 20
407.439831
 11
66.493091
 21
406.439831
  0
LINE
  5
272
100
AcDbEntity
  8
M0
100
AcDbLine
 10
90.493091
 20
415.139831
 11
81.893091
 21
415.139831
  0
LINE
  5
273
100
AcDbEntity
  8
M0
100
AcDbLine
 10
87.393091
 20
417.739831
 11
84.993091
 21
417.739831
  0
LINE
  5
274
100
AcDbEntity
  8
M0
100
AcDbLine
 10
87.393091
 20
417.739831
 11
87.393091
 21
416.13983
  0
LINE
  5
275
100
AcDbEntity
  8
M0
100
AcDbLine
 10
91.49309
 20
416.13983
 11
95.093091
 21
416.13983
  0
LINE
  5
276
100
AcDbEntity
  8
M0
100
AcDbLine
 10
95.593092
 20
392.239831
 11
95.593092
 21
415.639831
  0
LINE
  5
277
100
AcDbEntity
  8
M0
100
AcDbLine
 10
107.493092
 20
379.239832
 11
108.393093
 21
379.239832
  0
LINE
  5
278
100
AcDbEntity
  8
M0
100
AcDbLine
 10
114.393094
 20
379.239832
 11
115.293094
 21
379.239832
  0
LINE
  5
279
100
AcDbEntity
  8
M0
100
AcDbLine
 10
63.993092
 20
428.639832
 11
64.893092
 21
428.639832
  0
LINE
  5
27A
100
AcDbEntity
  8
M0
100
AcDbLine
 10
108.393093
 20
428.639832
 11
107.493092
 21
428.639832
  0
LINE
  5
27B
100
AcDbEntity
  8
M0
100
AcDbLine
 10
116.39309
 20
376.239831
 11
116.293088
 21
376.239831
  0
LINE
  5
27C
100
AcDbEntity
  8
M0
100
AcDbLine
 10
115.293094
 20
428.639832
 11
114.393094
 21
428.639832
  0
LINE
  5
27D
100
AcDbEntity
  8
M0
100
AcDbLine
 10
116.39309
 20
431.63983
 11
116.293088
 21
431.63983
  0
LINE
  5
27E
100
AcDbEntity
  8
M0
100
AcDbLine
 10
57.093091
 20
428.639832
 11
57.993092
 21
428.639832
  0
LINE
  5
27F
100
AcDbEntity
  8
M0
100
AcDbLine
 10
74.025382
 20
368.43983
 11
77.193091
 21
368.43983
  0
LINE
  5
280
100
AcDbEntity
  8
M0
100
AcDbLine
 10
55.993091
 20
376.239831
 11
56.093091
 21
376.239831
  0
LINE
  5
281
100
AcDbEntity
  8
M0
100
AcDbLine
 10
64.893092
 20
379.239832
 11
63.993092
 21
379.239832
  0
LINE
  5
282
100
AcDbEntity
  8
M0
100
AcDbLine
 10
57.993092
 20
379.239832
 11
57.093091
 21
379.239832
  0
ARC
  5
283
100
AcDbEntity
  8
M0
100
AcDbCircle
 10
91.493091
 20
415.639831
 40
0.5
100
AcDbArc
 50
90.0
 51
180.0
  0
ARC
  5
284
100
AcDbEntity
  8
M0
100
AcDbCircle
 10
95.093091
 20
415.639831
 40
0.5
100
AcDbArc
 50
0.0
 51
90.0
  0
ARC
  5
285
100
AcDbEntity
  8
M0
100
AcDbCircle
 10
81.893091
 20
415.639831
 40
0.5
100
AcDbArc
 50
180.0
 51
270.0
  0
ARC
  5
286
100
AcDbEntity
  8
M0
100
AcDbCircle
 10
90.493091
 20
415.639831
 40
0.5
100
AcDbArc
 50
270.0
 51
360.0
  0
LINE
  5
287
100
AcDbEntity
  8
M0
100
AcDbLine
 10
55.993091
 20
431.63983
 11
56.093091
 21
431.63983
  0
ARC
  5
288
100
AcDbEntity
  8
M0
100
AcDbCircle
 10
66.493091
 20
420.339831
 40
1.0
100
AcDbArc
 50
90.0
 51
180.0
  0
ARC
  5
289
100
AcDbEntity
  8
M0
100
AcDbCircle
 10
66.493091
 20
387.539831
 40
1.0
100
AcDbArc
 50
180.0
 51
270.0
  0
ARC
  5
28A
100
AcDbEntity
  8
M0
100
AcDbCircle
 10
90.693091
 20
370.939831
 40
0.5
100
AcDbArc
 50
270.0
 51
360.0
  0
ARC
  5
28B
100
AcDbEntity
  8
M0
100
AcDbCircle
 10
91.193091
 20
370.439831
 40
2.0
100
AcDbArc
 50
270.0
 51
292.57935
  0
ARC
  5
28C
100
AcDbEntity
  8
M0
100
AcDbCircle
 10
77.293091
 20
415.639831
 40
0.5
100
AcDbArc
 50
90.0
 51
180.0
  0
ARC
  5
28D
100
AcDbEntity
  8
M0
100
AcDbCircle
 10
80.893091
 20
415.639831
 40
0.5
100
AcDbArc
 50
0.0
 51
90.0
  0
ARC
  5
28E
100
AcDbEntity
  8
M0
100
AcDbCircle
 10
95.093091
 20
392.239831
 40
0.5
100
AcDbArc
 50
270.0
 51
360.0
  0
ARC
  5
28F
100
AcDbEntity
  8
M0
100
AcDbCircle
 10
77.293091
 20
392.239831
 40
0.5
100
AcDbArc
 50
180.0
 51
270.0
  0
ARC
  5
290
100
AcDbEntity
  8
M0
100
AcDbCircle
 10
70.075361
 20
447.839831
 40
0.6
100
AcDbArc
 50
90.0
 51
178.281642
  0
ARC
  5
291
100
AcDbEntity
  8
M0
100
AcDbCircle
 10
70.393091
 20
447.839831
 40
0.6
100
AcDbArc
 50
0.0
 51
90.0
  0
ARC
  5
292
100
AcDbEntity
  8
M0
100
AcDbCircle
 10
107.393091
 20
371.939831
 40
0.5
100
AcDbArc
 50
180.0
 51
270.0
  0
ARC
  5
293
100
AcDbEntity
  8
M0
100
AcDbCircle
 10
81.193091
 20
370.439831
 40
2.0
100
AcDbArc
 50
247.42065
 51
270.0
  0
ARC
  5
294
100
AcDbEntity
  8
M0
100
AcDbCircle
 10
81.693091
 20
370.939831
 40
0.5
100
AcDbArc
 50
180.0
 51
270.0
  0
ARC
  5
295
100
AcDbEntity
  8
M0
100
AcDbCircle
 10
101.993091
 20
447.839831
 40
0.6
100
AcDbArc
 50
90.0
 51
180.0
  0
LINE
  5
296
100
AcDbEntity
  8
M0
100
AcDbLine
 10
70.993091
 20
447.839833
 11
70.993091
 21
444.37373
  0
LINE
  5
297
100
AcDbEntity
  8
M0
100
AcDbLine
 10
70.075362
 20
448.439831
 11
70.393092
 21
448.439831
  0
ARC
  5
298
100
AcDbEntity
  8
M0
100
AcDbCircle
 10
102.310821
 20
447.839831
 40
0.6
100
AcDbArc
 50
1.718358
 51
90.0
  0
LINE
  5
299
100
AcDbEntity
  8
M0
100
AcDbLine
 10
107.393091
 20
371.439832
 11
108.393093
 21
371.439832
  0
LINE
  5
29A
100
AcDbEntity
  8
M0
100
AcDbLine
 10
106.89309
 20
407.439831
 11
105.893091
 21
407.439831
  0
LINE
  5
29B
100
AcDbEntity
  8
M0
100
AcDbLine
 10
107.693092
 20
401.439831
 11
107.693092
 21
406.439831
  0
LINE
  5
29C
100
AcDbEntity
  8
M0
100
AcDbLine
 10
105.893091
 20
386.53983
 11
66.493091
 21
386.53983
  0
LINE
  5
29D
100
AcDbEntity
  8
M0
100
AcDbLine
 10
106.89309
 20
400.439831
 11
105.893091
 21
400.439831
  0
LINE
  5
29E
100
AcDbEntity
  8
M0
100
AcDbLine
 10
106.89309
 20
369.439831
 11
106.89309
 21
400.439831
  0
LINE
  5
29F
100
AcDbEntity
  8
M0
100
AcDbLine
 10
66.493091
 20
400.439831
 11
66.493091
 21
401.439831
  0
LINE
  5
2A0
100
AcDbEntity
  8
M0
100
AcDbLine
 10
91.593091
 20
447.439829
 11
91.593091
 21
447.93983
  0
LINE
  5
2A1
100
AcDbEntity
  8
M0
100
AcDbLine
 10
80.793091
 20
446.939832
 11
81.193088
 21
446.939832
  0
LINE
  5
2A2
100
AcDbEntity
  8
M0
100
AcDbLine
 10
91.49309
 20
399.539831
 11
91.49309
 21
407.739831
  0
LINE
  5
2A3
100
AcDbEntity
  8
M0
100
AcDbLine
 10
91.193088
 20
446.939832
 11
91.593091
 21
446.939832
  0
LINE
  5
2A4
100
AcDbEntity
  8
M0
100
AcDbLine
 10
80.793091
 20
447.439829
 11
80.793091
 21
438.87572
  0
LINE
  5
2A5
100
AcDbEntity
  8
M0
100
AcDbLine
 10
79.293092
 20
439.419626
 11
79.293092
 21
447.439829
  0
LINE
  5
2A6
100
AcDbEntity
  8
M0
100
AcDbLine
 10
80.793091
 20
447.93983
 11
80.793091
 21
447.439829
  0
LINE
  5
2A7
100
AcDbEntity
  8
M0
100
AcDbLine
 10
89.99309
 20
408.539831
 11
89.99309
 21
408.239831
  0
LINE
  5
2A8
100
AcDbEntity
  8
M0
100
AcDbLine
 10
91.49309
 20
407.739831
 11
91.49309
 21
408.539831
  0
LINE
  5
2A9
100
AcDbEntity
  8
M0
100
AcDbLine
 10
82.393092
 20
408.539831
 11
82.393092
 21
408.239831
  0
LINE
  5
2AA
100
AcDbEntity
  8
M0
100
AcDbLine
 10
89.99309
 20
399.039831
 11
89.99309
 21
398.939831
  0
LINE
  5
2AB
100
AcDbEntity
  8
M0
100
AcDbLine
 10
80.893093
 20
402.139831
 11
80.393092
 21
402.139831
  0
LINE
  5
2AC
100
AcDbEntity
  8
M0
100
AcDbLine
 10
91.49309
 20
402.139831
 11
91.993091
 21
402.139831
  0
LINE
  5
2AD
100
AcDbEntity
  8
M0
100
AcDbLine
 10
91.49309
 20
398.939831
 11
91.49309
 21
399.539831
  0
LINE
  5
2AE
100
AcDbEntity
  8
M0
100
AcDbLine
 10
80.393092
 20
405.139831
 11
80.893093
 21
405.139831
  0
LINE
  5
2AF
100
AcDbEntity
  8
M0
100
AcDbLine
 10
83.693092
 20
408.417298
 11
83.693092
 21
408.539831
  0
LINE
  5
2B0
100
AcDbEntity
  8
M0
100
AcDbLine
 10
64.893092
 20
400.139831
 11
65.493091
 21
400.139831
  0
LINE
  5
2B1
100
AcDbEntity
  8
M0
100
AcDbLine
 10
83.693092
 20
398.939831
 11
83.693092
 21
399.039831
  0
LINE
  5
2B2
100
AcDbEntity
  8
M0
100
AcDbLine
 10
88.693091
 20
408.417298
 11
88.693091
 21
408.539831
  0
LINE
  5
2B3
100
AcDbEntity
  8
M0
100
AcDbLine
 10
80.893093
 20
398.939831
 11
80.893093
 21
399.539831
  0
LINE
  5
2B4
100
AcDbEntity
  8
M0
100
AcDbLine
 10
82.393092
 20
399.039831
 11
82.393092
 21
398.939831
  0
LINE
  5
2B5
100
AcDbEntity
  8
M0
100
AcDbLine
 10
107.493092
 20
400.139831
 11
106.89309
 21
400.139831
  0
LINE
  5
2B6
100
AcDbEntity
  8
M0
100
AcDbLine
 10
87.943093
 20
407.739831
 11
87.943093
 21
400.539831
  0
LINE
  5
2B7
100
AcDbEntity
  8
M0
100
AcDbLine
 10
84.44309
 20
407.739831
 11
84.44309
 21
400.539831
  0
LINE
  5
2B8
100
AcDbEntity
  8
M0
100
AcDbLine
 10
81.39309
 20
408.239831
 11
83.943092
 21
408.239831
  0
LINE
  5
2B9
100
AcDbEntity
  8
M0
100
AcDbLine
 10
90.993092
 20
399.039831
 11
81.39309
 21
399.039831
  0
LINE
  5
2BA
100
AcDbEntity
  8
M0
100
AcDbLine
 10
90.993092
 20
408.239831
 11
88.44309
 21
408.239831
  0
LINE
  5
2BB
100
AcDbEntity
  8
M0
100
AcDbLine
 10
84.44309
 20
400.539831
 11
87.943093
 21
400.539831
  0
LINE
  5
2BC
100
AcDbEntity
  8
M0
100
AcDbLine
 10
76.793092
 20
408.239831
 11
76.993092
 21
408.239831
  0
LINE
  5
2BD
100
AcDbEntity
  8
M0
100
AcDbLine
 10
76.993092
 20
399.039831
 11
76.793092
 21
399.039831
  0
LINE
  5
2BE
100
AcDbEntity
  8
M0
100
AcDbLine
 10
80.893093
 20
407.739831
 11
80.893093
 21
408.539831
  0
LINE
  5
2BF
100
AcDbEntity
  8
M0
100
AcDbLine
 10
91.993091
 20
405.139831
 11
91.49309
 21
405.139831
  0
LINE
  5
2C0
100
AcDbEntity
  8
M0
100
AcDbLine
 10
82.193092
 20
408.239831
 11
90.19309
 21
408.239831
  0
LINE
  5
2C1
100
AcDbEntity
  8
M0
100
AcDbLine
 10
80.893093
 20
399.539831
 11
80.893093
 21
407.739831
  0
LINE
  5
2C2
100
AcDbEntity
  8
M0
100
AcDbLine
 10
95.593092
 20
408.239831
 11
95.393092
 21
408.239831
  0
LINE
  5
2C3
100
AcDbEntity
  8
M0
100
AcDbLine
 10
95.393092
 20
399.039831
 11
95.593092
 21
399.039831
  0
LINE
  5
2C4
100
AcDbEntity
  8
M0
100
AcDbLine
 10
116.593094
 20
424.03983
 11
116.293088
 21
424.03983
  0
ARC
  5
2C5
100
AcDbEntity
  8
M0
100
AcDbCircle
 10
79.493091
 20
438.439831
 40
1.0
100
AcDbArc
 50
90.0
 51
180.0
  0
LINE
  5
2C6
100
AcDbEntity
  8
M0
100
AcDbLine
 10
116.293088
 20
400.239831
 11
116.593094
 21
400.239831
  0
LINE
  5
2C7
100
AcDbEntity
  8
M0
100
AcDbLine
 10
116.593094
 20
407.639831
 11
116.293088
 21
407.639831
  0
ARC
  5
2C8
100
AcDbEntity
  8
M0
100
AcDbCircle
 10
92.493091
 20
438.439831
 40
1.0
100
AcDbArc
 50
90.0
 51
180.0
  0
ARC
  5
2C9
100
AcDbEntity
  8
M0
100
AcDbCircle
 10
92.493091
 20
369.439831
 40
1.0
100
AcDbArc
 50
180.0
 51
270.0
  0
ARC
  5
2CA
100
AcDbEntity
  8
M0
100
AcDbCircle
 10
79.893091
 20
438.439831
 40
1.0
100
AcDbArc
 50
0.0
 51
90.0
  0
ARC
  5
2CB
100
AcDbEntity
  8
M0
100
AcDbCircle
 10
79.893091
 20
369.439831
 40
1.0
100
AcDbArc
 50
270.0
 51
360.0
  0
LINE
  5
2CC
100
AcDbEntity
  8
M0
100
AcDbLine
 10
95.393092
 20
396.43983
 11
95.393092
 21
410.039831
  0
LINE
  5
2CD
100
AcDbEntity
  8
M0
100
AcDbLine
 10
94.39309
 20
415.939831
 11
92.893091
 21
415.939831
  0
LINE
  5
2CE
100
AcDbEntity
  8
M0
100
AcDbLine
 10
94.39309
 20
391.939831
 11
93.893093
 21
391.939831
  0
LINE
  5
2CF
100
AcDbEntity
  8
M0
100
AcDbLine
 10
116.293088
 20
383.839831
 11
116.593094
 21
383.839831
  0
LINE
  5
2D0
100
AcDbEntity
  8
M0
100
AcDbLine
 10
115.293094
 20
430.639831
 11
115.293094
 21
408.639831
  0
LINE
  5
2D1
100
AcDbEntity
  8
M0
100
AcDbLine
 10
79.893091
 20
368.43983
 11
79.493091
 21
368.43983
  0
LINE
  5
2D2
100
AcDbEntity
  8
M0
100
AcDbLine
 10
79.493091
 20
385.039831
 11
79.893091
 21
385.039831
  0
LINE
  5
2D3
100
AcDbEntity
  8
M0
100
AcDbLine
 10
79.893091
 20
385.039831
 11
80.893093
 21
385.039831
  0
ARC
  5
2D4
100
AcDbEntity
  8
M0
100
AcDbCircle
 10
92.893091
 20
438.439831
 40
1.0
100
AcDbArc
 50
0.0
 51
90.0
  0
ARC
  5
2D5
100
AcDbEntity
  8
M0
100
AcDbCircle
 10
105.493091
 20
438.439831
 40
1.0
100
AcDbArc
 50
90.0
 51
180.0
  0
LINE
  5
2D6
100
AcDbEntity
  8
M0
100
AcDbLine
 10
115.293094
 20
399.239831
 11
115.293094
 21
377.239831
  0
ARC
  5
2D7
100
AcDbEntity
  8
M0
100
AcDbCircle
 10
92.893091
 20
369.439831
 40
1.0
100
AcDbArc
 50
270.0
 51
360.0
  0
ARC
  5
2D8
100
AcDbEntity
  8
M0
100
AcDbCircle
 10
105.893091
 20
369.439831
 40
1.0
100
AcDbArc
 50
270.0
 51
360.0
  0
LINE
  5
2D9
100
AcDbEntity
  8
M0
100
AcDbLine
 10
79.493091
 20
439.439832
 11
79.893091
 21
439.439832
  0
ARC
  5
2DA
100
AcDbEntity
  8
M0
100
AcDbCircle
 10
105.493091
 20
369.439831
 40
1.0
100
AcDbArc
 50
180.0
 51
270.0
  0
ARC
  5
2DB
100
AcDbEntity
  8
M0
100
AcDbCircle
 10
105.893091
 20
438.439831
 40
1.0
100
AcDbArc
 50
0.0
 51
90.0
  0
LINE
  5
2DC
100
AcDbEntity
  8
M0
100
AcDbLine
 10
116.593094
 20
407.639831
 11
116.593094
 21
400.239831
  0
LINE
  5
2DD
100
AcDbEntity
  8
M0
100
AcDbLine
 10
108.89309
 20
399.939831
 11
108.89309
 21
407.939831
  0
LINE
  5
2DE
100
AcDbEntity
  8
M0
100
AcDbLine
 10
106.89309
 20
399.939831
 11
108.89309
 21
399.939831
  0
LINE
  5
2DF
100
AcDbEntity
  8
M0
100
AcDbLine
 10
55.793092
 20
400.239831
 11
56.093091
 21
400.239831
  0
LINE
  5
2E0
100
AcDbEntity
  8
M0
100
AcDbLine
 10
55.793092
 20
424.03983
 11
56.093091
 21
424.03983
  0
LINE
  5
2E1
100
AcDbEntity
  8
M0
100
AcDbLine
 10
115.293094
 20
407.639831
 11
115.293094
 21
400.239831
  0
LINE
  5
2E2
100
AcDbEntity
  8
M0
100
AcDbLine
 10
115.293094
 20
400.239831
 11
112.293088
 21
400.239831
  0
LINE
  5
2E3
100
AcDbEntity
  8
M0
100
AcDbLine
 10
55.793092
 20
407.639831
 11
55.793092
 21
400.239831
  0
LINE
  5
2E4
100
AcDbEntity
  8
M0
100
AcDbLine
 10
112.293088
 20
407.639831
 11
115.293094
 21
407.639831
  0
LINE
  5
2E5
100
AcDbEntity
  8
M0
100
AcDbLine
 10
105.993093
 20
407.439831
 11
105.993093
 21
406.439831
  0
LINE
  5
2E6
100
AcDbEntity
  8
M0
100
AcDbLine
 10
106.89309
 20
407.939831
 11
108.89309
 21
407.939831
  0
LINE
  5
2E7
100
AcDbEntity
  8
M0
100
AcDbLine
 10
112.293088
 20
400.239831
 11
112.293088
 21
407.639831
  0
LINE
  5
2E8
100
AcDbEntity
  8
M0
100
AcDbLine
 10
77.993092
 20
415.939831
 11
79.493091
 21
415.939831
  0
LINE
  5
2E9
100
AcDbEntity
  8
M0
100
AcDbLine
 10
76.993092
 20
396.43983
 11
76.993092
 21
410.039831
  0
LINE
  5
2EA
100
AcDbEntity
  8
M0
100
AcDbLine
 10
77.993092
 20
391.939831
 11
78.493093
 21
391.939831
  0
LINE
  5
2EB
100
AcDbEntity
  8
M0
100
AcDbLine
 10
81.14309
 20
414.939831
 11
91.243093
 21
414.939831
  0
LINE
  5
2EC
100
AcDbEntity
  8
M0
100
AcDbLine
 10
91.74309
 20
408.539831
 11
80.643092
 21
408.539831
  0
LINE
  5
2ED
100
AcDbEntity
  8
M0
100
AcDbLine
 10
81.14309
 20
410.039831
 11
91.243093
 21
410.039831
  0
LINE
  5
2EE
100
AcDbEntity
  8
M0
100
AcDbLine
 10
91.243093
 20
413.439831
 11
81.14309
 21
413.439831
  0
LINE
  5
2EF
100
AcDbEntity
  8
M0
100
AcDbLine
 10
56.093091
 20
407.639831
 11
55.793092
 21
407.639831
  0
LINE
  5
2F0
100
AcDbEntity
  8
M0
100
AcDbLine
 10
105.993093
 20
401.439831
 11
105.993093
 21
400.439831
  0
LINE
  5
2F1
100
AcDbEntity
  8
M0
100
AcDbLine
 10
56.093091
 20
383.839831
 11
55.793092
 21
383.839831
  0
LINE
  5
2F2
100
AcDbEntity
  8
M0
100
AcDbLine
 10
57.093091
 20
430.639831
 11
57.093091
 21
408.639831
  0
LINE
  5
2F3
100
AcDbEntity
  8
M0
100
AcDbLine
 10
107.493092
 20
400.939831
 11
107.493092
 21
399.939831
  0
LINE
  5
2F4
100
AcDbEntity
  8
M0
100
AcDbLine
 10
107.493092
 20
407.939831
 11
107.493092
 21
406.939831
  0
LINE
  5
2F5
100
AcDbEntity
  8
M0
100
AcDbLine
 10
57.093091
 20
413.239831
 11
65.493091
 21
413.239831
  0
LINE
  5
2F6
100
AcDbEntity
  8
M0
100
AcDbLine
 10
107.493092
 20
400.939831
 11
107.79309
 21
400.939831
  0
LINE
  5
2F7
100
AcDbEntity
  8
M0
100
AcDbLine
 10
107.79309
 20
406.939831
 11
107.79309
 21
405.439831
  0
LINE
  5
2F8
100
AcDbEntity
  8
M0
100
AcDbLine
 10
106.89309
 20
394.639831
 11
115.293094
 21
394.639831
  0
LINE
  5
2F9
100
AcDbEntity
  8
M0
100
AcDbLine
 10
107.79309
 20
406.939831
 11
107.493092
 21
406.939831
  0
LINE
  5
2FA
100
AcDbEntity
  8
M0
100
AcDbLine
 10
107.79309
 20
402.439831
 11
107.79309
 21
400.939831
  0
LINE
  5
2FB
100
AcDbEntity
  8
M0
100
AcDbLine
 10
64.593091
 20
402.439831
 11
64.593091
 21
400.939831
  0
LINE
  5
2FC
100
AcDbEntity
  8
M0
100
AcDbLine
 10
64.593091
 20
406.939831
 11
64.593091
 21
405.439831
  0
LINE
  5
2FD
100
AcDbEntity
  8
M0
100
AcDbLine
 10
64.893092
 20
400.939831
 11
64.593091
 21
400.939831
  0
LINE
  5
2FE
100
AcDbEntity
  8
M0
100
AcDbLine
 10
64.893092
 20
400.939831
 11
64.893092
 21
399.939831
  0
LINE
  5
2FF
100
AcDbEntity
  8
M0
100
AcDbLine
 10
65.493091
 20
394.639831
 11
57.093091
 21
394.639831
  0
LINE
  5
300
100
AcDbEntity
  8
M0
100
AcDbLine
 10
64.593091
 20
406.939831
 11
64.893092
 21
406.939831
  0
ARC
  5
301
100
AcDbEntity
  8
M0
100
AcDbCircle
 10
66.893091
 20
438.439831
 40
1.0
100
AcDbArc
 50
0.0
 51
90.0
  0
ARC
  5
302
100
AcDbEntity
  8
M0
100
AcDbCircle
 10
79.493091
 20
369.439831
 40
1.0
100
AcDbArc
 50
180.0
 51
270.0
  0
ARC
  5
303
100
AcDbEntity
  8
M0
100
AcDbCircle
 10
66.493091
 20
438.439831
 40
1.0
100
AcDbArc
 50
90.0
 51
180.0
  0
ARC
  5
304
100
AcDbEntity
  8
M0
100
AcDbCircle
 10
66.893091
 20
369.439831
 40
1.0
100
AcDbArc
 50
270.0
 51
360.0
  0
LINE
  5
305
100
AcDbEntity
  8
M0
100
AcDbLine
 10
66.89309
 20
368.43983
 11
66.693091
 21
368.43983
  0
LINE
  5
306
100
AcDbEntity
  8
M0
100
AcDbLine
 10
66.693091
 20
439.439832
 11
66.89309
 21
439.439832
  0
LINE
  5
307
100
AcDbEntity
  8
M0
100
AcDbLine
 10
95.593092
 20
409.239831
 11
95.393092
 21
409.239831
  0
ARC
  5
308
100
AcDbEntity
  8
M0
100
AcDbCircle
 10
65.493091
 20
384.439831
 40
0.6
100
AcDbArc
 50
180.0
 51
270.0
  0
LINE
  5
309
100
AcDbEntity
  8
M0
100
AcDbLine
 10
64.893092
 20
407.939831
 11
64.893092
 21
406.939831
  0
LINE
  5
30A
100
AcDbEntity
  8
M0
100
AcDbLine
 10
115.293094
 20
413.239831
 11
106.89309
 21
413.239831
  0
ARC
  5
30B
100
AcDbEntity
  8
M0
100
AcDbCircle
 10
106.893091
 20
384.439831
 40
0.6
100
AcDbArc
 50
270.0
 51
360.0
  0
ARC
  5
30C
100
AcDbEntity
  8
M0
100
AcDbCircle
 10
66.493091
 20
369.439831
 40
1.0
100
AcDbArc
 50
180.0
 51
270.0
  0
ARC
  5
30D
100
AcDbEntity
  8
M0
100
AcDbCircle
 10
65.493091
 20
423.439831
 40
0.6
100
AcDbArc
 50
90.0
 51
180.0
  0
ARC
  5
30E
100
AcDbEntity
  8
M0
100
AcDbCircle
 10
106.893091
 20
423.439831
 40
0.6
100
AcDbArc
 50
0.0
 51
90.0
  0
LINE
  5
30F
100
AcDbEntity
  8
M0
100
AcDbLine
 10
93.893093
 20
422.839831
 11
91.49309
 21
422.839831
  0
LINE
  5
310
100
AcDbEntity
  8
M0
100
AcDbLine
 10
93.893093
 20
385.039831
 11
92.893091
 21
385.039831
  0
LINE
  5
311
100
AcDbEntity
  8
M0
100
AcDbLine
 10
92.493092
 20
368.43983
 11
92.893091
 21
368.43983
  0
LINE
  5
312
100
AcDbEntity
  8
M0
100
AcDbLine
 10
92.493092
 20
385.039831
 11
91.49309
 21
385.039831
  0
LINE
  5
313
100
AcDbEntity
  8
M0
100
AcDbLine
 10
92.893091
 20
385.039831
 11
92.493092
 21
385.039831
  0
LINE
  5
314
100
AcDbEntity
  8
M0
100
AcDbLine
 10
112.593091
 20
439.439832
 11
105.493092
 21
439.439832
  0
LINE
  5
315
100
AcDbEntity
  8
M0
100
AcDbLine
 10
106.89309
 20
407.439831
 11
106.89309
 21
438.439832
  0
LINE
  5
316
100
AcDbEntity
  8
M0
100
AcDbLine
 10
92.893091
 20
439.439832
 11
92.493092
 21
439.439832
  0
LINE
  5
317
100
AcDbEntity
  8
M0
100
AcDbLine
 10
104.49309
 20
386.53983
 11
104.49309
 21
369.439832
  0
ARC
  5
318
100
AcDbEntity
  8
M0
100
AcDbCircle
 10
80.143091
 20
392.439831
 40
0.5
100
AcDbArc
 50
270.0
 51
360.0
  0
ARC
  5
319
100
AcDbEntity
  8
M0
100
AcDbCircle
 10
92.243091
 20
392.439831
 40
0.5
100
AcDbArc
 50
180.0
 51
270.0
  0
ARC
  5
31A
100
AcDbEntity
  8
M0
100
AcDbCircle
 10
80.143091
 20
414.939831
 40
1.0
100
AcDbArc
 50
0.0
 51
90.0
  0
ARC
  5
31B
100
AcDbEntity
  8
M0
100
AcDbCircle
 10
80.643091
 20
409.039831
 40
0.5
100
AcDbArc
 50
270.0
 51
360.0
  0
ARC
  5
31C
100
AcDbEntity
  8
M0
100
AcDbCircle
 10
94.393091
 20
392.939831
 40
1.0
100
AcDbArc
 50
270.0
 51
360.0
  0
ARC
  5
31D
100
AcDbEntity
  8
M0
100
AcDbCircle
 10
94.393091
 20
396.439831
 40
1.0
100
AcDbArc
 50
0.0
 51
90.0
  0
ARC
  5
31E
100
AcDbEntity
  8
M0
100
AcDbCircle
 10
92.243091
 20
414.939831
 40
1.0
100
AcDbArc
 50
90.0
 51
180.0
  0
ARC
  5
31F
100
AcDbEntity
  8
M0
100
AcDbCircle
 10
91.743091
 20
409.039831
 40
0.5
100
AcDbArc
 50
180.0
 51
270.0
  0
ARC
  5
320
100
AcDbEntity
  8
M0
100
AcDbCircle
 10
116.593091
 20
408.639831
 40
1.0
100
AcDbArc
 50
270.0
 51
360.0
  0
ARC
  5
321
100
AcDbEntity
  8
M0
100
AcDbCircle
 10
116.593091
 20
423.039831
 40
1.0
100
AcDbArc
 50
0.0
 51
90.0
  0
ARC
  5
322
100
AcDbEntity
  8
M0
100
AcDbCircle
 10
77.993091
 20
414.939831
 40
1.0
100
AcDbArc
 50
90.0
 51
180.0
  0
ARC
  5
323
100
AcDbEntity
  8
M0
100
AcDbCircle
 10
77.993091
 20
392.939831
 40
1.0
100
AcDbArc
 50
180.0
 51
270.0
  0
ARC
  5
324
100
AcDbEntity
  8
M0
100
AcDbCircle
 10
116.593091
 20
384.839831
 40
1.0
100
AcDbArc
 50
270.0
 51
360.0
  0
LINE
  5
325
100
AcDbEntity
  8
M0
100
AcDbLine
 10
91.74309
 20
397.439831
 11
80.643092
 21
397.439831
  0
LINE
  5
326
100
AcDbEntity
  8
M0
100
AcDbLine
 10
80.643092
 20
393.439831
 11
91.74309
 21
393.439831
  0
LINE
  5
327
100
AcDbEntity
  8
M0
100
AcDbLine
 10
80.643092
 20
398.939831
 11
91.74309
 21
398.939831
  0
LINE
  5
328
100
AcDbEntity
  8
M0
100
AcDbLine
 10
76.993092
 20
410.039831
 11
76.993092
 21
414.939831
  0
LINE
  5
329
100
AcDbEntity
  8
M0
100
AcDbLine
 10
78.493093
 20
408.539831
 11
76.993092
 21
410.039831
  0
LINE
  5
32A
100
AcDbEntity
  8
M0
100
AcDbLine
 10
76.993092
 20
392.939831
 11
76.993092
 21
396.43983
  0
ARC
  5
32B
100
AcDbEntity
  8
M0
100
AcDbCircle
 10
69.093091
 20
387.239831
 40
1.0
100
AcDbArc
 50
270.0
 51
315.572996
  0
ARC
  5
32C
100
AcDbEntity
  8
M0
100
AcDbCircle
 10
77.293091
 20
387.239831
 40
1.0
100
AcDbArc
 50
224.427004
 51
270.0
  0
ARC
  5
32D
100
AcDbEntity
  8
M0
100
AcDbCircle
 10
77.993091
 20
396.439831
 40
1.0
100
AcDbArc
 50
90.0
 51
180.0
  0
ARC
  5
32E
100
AcDbEntity
  8
M0
100
AcDbCircle
 10
94.393091
 20
414.939831
 40
1.0
100
AcDbArc
 50
0.0
 51
90.0
  0
LINE
  5
32F
100
AcDbEntity
  8
M0
100
AcDbLine
 10
117.593088
 20
434.439831
 11
117.593088
 21
373.439831
  0
ARC
  5
330
100
AcDbEntity
  8
M0
100
AcDbCircle
 10
103.293091
 20
420.639831
 40
1.0
100
AcDbArc
 50
90.0
 51
135.572996
  0
LINE
  5
331
100
AcDbEntity
  8
M0
100
AcDbLine
 10
90.293092
 20
421.63983
 11
91.49309
 21
421.63983
  0
LINE
  5
332
100
AcDbEntity
  8
M0
100
AcDbLine
 10
103.293092
 20
386.239831
 11
104.49309
 21
386.239831
  0
LINE
  5
333
100
AcDbEntity
  8
M0
100
AcDbLine
 10
95.093091
 20
386.239831
 11
93.893093
 21
386.239831
  0
LINE
  5
334
100
AcDbEntity
  8
M0
100
AcDbLine
 10
115.293094
 20
421.039831
 11
107.493092
 21
421.039831
  0
LINE
  5
335
100
AcDbEntity
  8
M0
100
AcDbLine
 10
82.093091
 20
421.63983
 11
80.893093
 21
421.63983
  0
LINE
  5
336
100
AcDbEntity
  8
M0
100
AcDbLine
 10
93.893093
 20
374.939832
 11
94.357675
 21
374.939832
  0
LINE
  5
337
100
AcDbEntity
  8
M0
100
AcDbLine
 10
91.49309
 20
432.939832
 11
91.028503
 21
432.939832
  0
ARC
  5
338
100
AcDbEntity
  8
M0
100
AcDbCircle
 10
56.093091
 20
423.039831
 40
1.0
100
AcDbArc
 50
0.0
 51
90.0
  0
ARC
  5
339
100
AcDbEntity
  8
M0
100
AcDbCircle
 10
56.093091
 20
399.239831
 40
1.0
100
AcDbArc
 50
0.0
 51
90.0
  0
ARC
  5
33A
100
AcDbEntity
  8
M0
100
AcDbCircle
 10
55.793091
 20
408.639831
 40
1.0
100
AcDbArc
 50
180.0
 51
270.0
  0
ARC
  5
33B
100
AcDbEntity
  8
M0
100
AcDbCircle
 10
55.793091
 20
423.039831
 40
1.0
100
AcDbArc
 50
90.0
 51
180.0
  0
ARC
  5
33C
100
AcDbEntity
  8
M0
100
AcDbCircle
 10
116.293091
 20
384.839831
 40
1.0
100
AcDbArc
 50
180.0
 51
270.0
  0
ARC
  5
33D
100
AcDbEntity
  8
M0
100
AcDbCircle
 10
116.293091
 20
408.639831
 40
1.0
100
AcDbArc
 50
180.0
 51
270.0
  0
ARC
  5
33E
100
AcDbEntity
  8
M0
100
AcDbCircle
 10
56.093091
 20
384.839831
 40
1.0
100
AcDbArc
 50
270.0
 51
360.0
  0
ARC
  5
33F
100
AcDbEntity
  8
M0
100
AcDbCircle
 10
56.093091
 20
408.639831
 40
1.0
100
AcDbArc
 50
270.0
 51
360.0
  0
ARC
  5
340
100
AcDbEntity
  8
M0
100
AcDbCircle
 10
55.793091
 20
399.239831
 40
1.0
100
AcDbArc
 50
90.0
 51
180.0
  0
ARC
  5
341
100
AcDbEntity
  8
M0
100
AcDbCircle
 10
55.793091
 20
384.839831
 40
1.0
100
AcDbArc
 50
180.0
 51
270.0
  0
LINE
  5
342
100
AcDbEntity
  8
M0
100
AcDbLine
 10
103.293092
 20
421.63983
 11
104.49309
 21
421.63983
  0
LINE
  5
343
100
AcDbEntity
  8
M0
100
AcDbLine
 10
57.093091
 20
407.639831
 11
57.093091
 21
400.239831
  0
LINE
  5
344
100
AcDbEntity
  8
M0
100
AcDbLine
 10
66.393091
 20
401.439831
 11
66.393091
 21
400.439831
  0
LINE
  5
345
100
AcDbEntity
  8
M0
100
AcDbLine
 10
60.093092
 20
400.239831
 11
60.093092
 21
407.639831
  0
LINE
  5
346
100
AcDbEntity
  8
M0
100
AcDbLine
 10
57.093091
 20
400.239831
 11
60.093092
 21
400.239831
  0
LINE
  5
347
100
AcDbEntity
  8
M0
100
AcDbLine
 10
63.493091
 20
399.939831
 11
63.493091
 21
407.939831
  0
LINE
  5
348
100
AcDbEntity
  8
M0
100
AcDbLine
 10
65.493091
 20
407.939831
 11
63.493091
 21
407.939831
  0
LINE
  5
349
100
AcDbEntity
  8
M0
100
AcDbLine
 10
66.393091
 20
407.439831
 11
66.393091
 21
406.439831
  0
LINE
  5
34A
100
AcDbEntity
  8
M0
100
AcDbLine
 10
65.493091
 20
399.939831
 11
63.493091
 21
399.939831
  0
ARC
  5
34B
100
AcDbEntity
  8
M0
100
AcDbCircle
 10
116.293091
 20
423.039831
 40
1.0
100
AcDbArc
 50
90.0
 51
180.0
  0
ARC
  5
34C
100
AcDbEntity
  8
M0
100
AcDbCircle
 10
116.593091
 20
399.239831
 40
1.0
100
AcDbArc
 50
0.0
 51
90.0
  0
LINE
  5
34D
100
AcDbEntity
  8
M0
100
AcDbLine
 10
104.49309
 20
432.939832
 11
104.193091
 21
432.939832
  0
ARC
  5
34E
100
AcDbEntity
  8
M0
100
AcDbCircle
 10
116.293091
 20
399.239831
 40
1.0
100
AcDbArc
 50
90.0
 51
180.0
  0
LINE
  5
34F
100
AcDbEntity
  8
M0
100
AcDbLine
 10
76.793092
 20
409.239831
 11
76.993092
 21
409.239831
  0
LINE
  5
350
100
AcDbEntity
  8
M0
100
AcDbLine
 10
60.093092
 20
407.639831
 11
57.093091
 21
407.639831
  0
LINE
  5
351
100
AcDbEntity
  8
M0
100
AcDbLine
 10
95.593092
 20
398.63983
 11
95.393092
 21
398.63983
  0
LINE
  5
352
100
AcDbEntity
  8
M0
100
AcDbLine
 10
76.793092
 20
398.63983
 11
76.993092
 21
398.63983
  0
LINE
  5
353
100
AcDbEntity
  8
M0
100
AcDbLine
 10
81.14309
 20
414.939831
 11
81.14309
 21
409.039831
  0
LINE
  5
354
100
AcDbEntity
  8
M0
100
AcDbLine
 10
91.243093
 20
414.939831
 11
91.243093
 21
409.039831
  0
LINE
  5
355
100
AcDbEntity
  8
M0
100
AcDbLine
 10
80.643092
 20
400.689831
 11
80.643092
 21
392.439831
  0
LINE
  5
356
100
AcDbEntity
  8
M0
100
AcDbLine
 10
80.393092
 20
401.189831
 11
80.643092
 21
400.689831
  0
LINE
  5
357
100
AcDbEntity
  8
M0
100
AcDbLine
 10
91.993091
 20
401.189831
 11
91.74309
 21
400.689831
  0
LINE
  5
358
100
AcDbEntity
  8
M0
100
AcDbLine
 10
91.993091
 20
406.689831
 11
91.993091
 21
401.189831
  0
LINE
  5
359
100
AcDbEntity
  8
M0
100
AcDbLine
 10
91.74309
 20
408.539831
 11
91.74309
 21
407.189831
  0
LINE
  5
35A
100
AcDbEntity
  8
M0
100
AcDbLine
 10
91.74309
 20
400.689831
 11
91.74309
 21
392.439831
  0
LINE
  5
35B
100
AcDbEntity
  8
M0
100
AcDbLine
 10
77.993092
 20
397.439831
 11
78.493093
 21
397.439831
  0
LINE
  5
35C
100
AcDbEntity
  8
M0
100
AcDbLine
 10
80.393092
 20
406.689831
 11
80.393092
 21
401.189831
  0
LINE
  5
35D
100
AcDbEntity
  8
M0
100
AcDbLine
 10
78.493093
 20
397.439831
 11
78.493093
 21
408.539831
  0
LINE
  5
35E
100
AcDbEntity
  8
M0
100
AcDbLine
 10
80.643092
 20
407.189831
 11
80.393092
 21
406.689831
  0
LINE
  5
35F
100
AcDbEntity
  8
M0
100
AcDbLine
 10
80.643092
 20
408.539831
 11
80.643092
 21
407.189831
  0
LINE
  5
360
100
AcDbEntity
  8
M0
100
AcDbLine
 10
67.893091
 20
374.939832
 11
68.193091
 21
374.939832
  0
LINE
  5
361
100
AcDbEntity
  8
M0
100
AcDbLine
 10
77.293091
 20
386.239831
 11
78.493093
 21
386.239831
  0
LINE
  5
362
100
AcDbEntity
  8
M0
100
AcDbLine
 10
95.393092
 20
392.939831
 11
95.393092
 21
396.43983
  0
LINE
  5
363
100
AcDbEntity
  8
M0
100
AcDbLine
 10
69.09309
 20
386.239831
 11
67.893091
 21
386.239831
  0
LINE
  5
364
100
AcDbEntity
  8
M0
100
AcDbLine
 10
94.39309
 20
397.439831
 11
93.893093
 21
397.439831
  0
LINE
  5
365
100
AcDbEntity
  8
M0
100
AcDbLine
 10
93.893093
 20
397.439831
 11
93.893093
 21
408.539831
  0
LINE
  5
366
100
AcDbEntity
  8
M0
100
AcDbLine
 10
77.993092
 20
415.939831
 11
80.143091
 21
415.939831
  0
LINE
  5
367
100
AcDbEntity
  8
M0
100
AcDbLine
 10
91.74309
 20
407.189831
 11
91.993091
 21
406.689831
  0
LINE
  5
368
100
AcDbEntity
  8
M0
100
AcDbLine
 10
95.393092
 20
410.039831
 11
95.393092
 21
414.939831
  0
LINE
  5
369
100
AcDbEntity
  8
M0
100
AcDbLine
 10
93.893093
 20
408.539831
 11
95.393092
 21
410.039831
  0
LINE
  5
36A
100
AcDbEntity
  8
M0
100
AcDbLine
 10
77.993091
 20
391.939831
 11
94.39309
 21
391.939831
  0
LINE
  5
36B
100
AcDbEntity
  8
M0
100
AcDbLine
 10
94.39309
 20
415.939831
 11
92.243091
 21
415.939831
  0
ELLIPSE
  5
36C
100
AcDbEntity
  8
M0
100
AcDbEllipse
 10
81.893091
 20
438.856498
 11
1.0
 21
0.0
210
0.0
220
0.0
230
1.0
 40
0.416667
 41
3.141592653589793
 42
4.71238898038469
  0
ELLIPSE
  5
36D
100
AcDbEntity
  8
M0
100
AcDbEllipse
 10
90.493091
 20
438.856498
 11
1.0
 21
0.0
210
0.0
220
0.0
230
1.0
 40
0.416667
 41
4.71238898038469
 42
6.283185307179586
  0
LINE
  5
36E
100
AcDbEntity
  8
M0
100
AcDbLine
 10
90.493091
 20
438.439832
 11
89.293088
 21
438.439832
  0
LINE
  5
36F
100
AcDbEntity
  8
M0
100
AcDbLine
 10
67.893091
 20
434.93983
 11
68.193091
 21
434.93983
  0
LINE
  5
370
100
AcDbEntity
  8
M0
100
AcDbLine
 10
80.893093
 20
434.93983
 11
83.093088
 21
434.93983
  0
LINE
  5
371
100
AcDbEntity
  8
M0
100
AcDbLine
 10
80.893093
 20
445.939831
 11
80.893093
 21
421.339831
  0
LINE
  5
372
100
AcDbEntity
  8
M0
100
AcDbLine
 10
91.49309
 20
436.939831
 11
89.293088
 21
436.939831
  0
LINE
  5
373
100
AcDbEntity
  8
M0
100
AcDbLine
 10
95.94309
 20
368.939831
 11
95.94309
 21
369.439832
  0
LINE
  5
374
100
AcDbEntity
  8
M0
100
AcDbLine
 10
95.193093
 20
368.43983
 11
98.3608
 21
368.43983
  0
LINE
  5
375
100
AcDbEntity
  8
M0
100
AcDbLine
 10
95.94309
 20
369.439832
 11
95.94309
 21
371.439832
  0
LINE
  5
376
100
AcDbEntity
  8
M0
100
AcDbLine
 10
104.193092
 20
372.939831
 11
104.49309
 21
372.939831
  0
LINE
  5
377
100
AcDbEntity
  8
M0
100
AcDbLine
 10
56.093091
 20
376.239831
 11
55.793092
 21
376.239831
  0
LINE
  5
378
100
AcDbEntity
  8
M0
100
AcDbLine
 10
68.193092
 20
372.939831
 11
67.893091
 21
372.939831
  0
LINE
  5
379
100
AcDbEntity
  8
M0
100
AcDbLine
 10
55.793092
 20
431.63983
 11
56.093091
 21
431.63983
  0
LINE
  5
37A
100
AcDbEntity
  8
M0
100
AcDbLine
 10
77.193092
 20
372.43983
 11
77.193092
 21
374.939832
  0
LINE
  5
37B
100
AcDbEntity
  8
M0
100
AcDbLine
 10
78.493093
 20
371.439832
 11
78.193092
 21
371.439832
  0
LINE
  5
37C
100
AcDbEntity
  8
M0
100
AcDbLine
 10
104.49309
 20
434.93983
 11
104.193091
 21
434.93983
  0
LINE
  5
37D
100
AcDbEntity
  8
M0
100
AcDbLine
 10
95.193093
 20
372.43983
 11
95.193093
 21
374.939832
  0
LINE
  5
37E
100
AcDbEntity
  8
M0
100
AcDbLine
 10
91.49309
 20
371.439832
 11
89.293088
 21
371.439832
  0
LINE
  5
37F
100
AcDbEntity
  8
M0
100
AcDbLine
 10
94.193091
 20
371.439832
 11
93.893093
 21
371.439832
  0
ARC
  5
380
100
AcDbEntity
  8
M0
100
AcDbCircle
 10
95.443091
 20
368.939831
 40
0.5
100
AcDbArc
 50
270.0
 51
360.0
  0
ARC
  5
381
100
AcDbEntity
  8
M0
100
AcDbCircle
 10
99.193091
 20
371.439831
 40
3.25
100
AcDbArc
 50
132.76855
 51
180.0
  0
ARC
  5
382
100
AcDbEntity
  8
M0
100
AcDbCircle
 10
81.893091
 20
445.939831
 40
1.0
100
AcDbArc
 50
134.427281
 51
180.0
  0
ARC
  5
383
100
AcDbEntity
  8
M0
100
AcDbCircle
 10
90.493091
 20
445.939831
 40
1.0
100
AcDbArc
 50
0.0
 51
45.573273
  0
ARC
  5
384
100
AcDbEntity
  8
M0
100
AcDbCircle
 10
77.193091
 20
369.439831
 40
1.0
100
AcDbArc
 50
270.0
 51
360.0
  0
ARC
  5
385
100
AcDbEntity
  8
M0
100
AcDbCircle
 10
95.193091
 20
369.439831
 40
1.0
100
AcDbArc
 50
180.0
 51
270.0
  0
ARC
  5
386
100
AcDbEntity
  8
M0
100
AcDbCircle
 10
73.193091
 20
371.439831
 40
3.25
100
AcDbArc
 50
0.0
 51
47.231455
  0
LINE
  5
387
100
AcDbEntity
  8
M0
100
AcDbLine
 10
78.193092
 20
371.439832
 11
78.193092
 21
369.439832
  0
LINE
  5
388
100
AcDbEntity
  8
M0
100
AcDbLine
 10
94.193091
 20
371.439832
 11
94.193091
 21
369.439832
  0
LINE
  5
389
100
AcDbEntity
  8
M0
100
AcDbLine
 10
76.443092
 20
368.939831
 11
76.443092
 21
371.439831
  0
ARC
  5
38A
100
AcDbEntity
  8
M0
100
AcDbCircle
 10
94.193091
 20
372.439831
 40
1.0
100
AcDbArc
 50
270.0
 51
360.0
  0
ARC
  5
38B
100
AcDbEntity
  8
M0
100
AcDbCircle
 10
76.943091
 20
368.939831
 40
0.5
100
AcDbArc
 50
180.0
 51
270.0
  0
ARC
  5
38C
100
AcDbEntity
  8
M0
100
AcDbCircle
 10
78.193091
 20
372.439831
 40
1.0
100
AcDbArc
 50
180.0
 51
270.0
  0
ARC
  5
38D
100
AcDbEntity
  8
M0
100
AcDbCircle
 10
55.793091
 20
430.639831
 40
1.0
100
AcDbArc
 50
90.0
 51
180.0
  0
LINE
  5
38E
100
AcDbEntity
  8
M0
100
AcDbLine
 10
66.89309
 20
368.43983
 11
59.793091
 21
368.43983
  0
LINE
  5
38F
100
AcDbEntity
  8
M0
100
AcDbLine
 10
59.793091
 20
439.439832
 11
66.89309
 21
439.439832
  0
LINE
  5
390
100
AcDbEntity
  8
M0
100
AcDbLine
 10
65.493091
 20
438.439831
 11
65.493091
 21
407.439831
  0
LINE
  5
391
100
AcDbEntity
  8
M0
100
AcDbLine
 10
107.493092
 20
376.839831
 11
107.493092
 21
394.639831
  0
LINE
  5
392
100
AcDbEntity
  8
M0
100
AcDbLine
 10
107.493092
 20
413.239831
 11
107.493092
 21
431.039831
  0
ARC
  5
393
100
AcDbEntity
  8
M0
100
AcDbCircle
 10
55.793091
 20
377.239831
 40
1.0
100
AcDbArc
 50
180.0
 51
270.0
  0
ARC
  5
394
100
AcDbEntity
  8
M0
100
AcDbCircle
 10
56.093091
 20
377.239831
 40
1.0
100
AcDbArc
 50
270.0
 51
360.0
  0
LINE
  5
395
100
AcDbEntity
  8
M0
100
AcDbLine
 10
78.493093
 20
422.839831
 11
80.893093
 21
422.839831
  0
ARC
  5
396
100
AcDbEntity
  8
M0
100
AcDbCircle
 10
65.493091
 20
376.839831
 40
0.6
100
AcDbArc
 50
180.0
 51
270.0
  0
ARC
  5
397
100
AcDbEntity
  8
M0
100
AcDbCircle
 10
106.893091
 20
431.039831
 40
0.6
100
AcDbArc
 50
0.0
 51
90.0
  0
ARC
  5
398
100
AcDbEntity
  8
M0
100
AcDbCircle
 10
56.093091
 20
430.639831
 40
1.0
100
AcDbArc
 50
0.0
 51
90.0
  0
ARC
  5
399
100
AcDbEntity
  8
M0
100
AcDbCircle
 10
65.493091
 20
431.039831
 40
0.6
100
AcDbArc
 50
90.0
 51
180.0
  0
LINE
  5
39A
100
AcDbEntity
  8
M0
100
AcDbLine
 10
67.893091
 20
386.53983
 11
67.893091
 21
369.439832
  0
LINE
  5
39B
100
AcDbEntity
  8
M0
100
AcDbLine
 10
78.493093
 20
369.439832
 11
78.493093
 21
386.53983
  0
LINE
  5
39C
100
AcDbEntity
  8
M0
100
AcDbLine
 10
78.493093
 20
385.039831
 11
79.493091
 21
385.039831
  0
LINE
  5
39D
100
AcDbEntity
  8
M0
100
AcDbLine
 10
105.693092
 20
439.439832
 11
105.493092
 21
439.439832
  0
LINE
  5
39E
100
AcDbEntity
  8
M0
100
AcDbLine
 10
104.49309
 20
438.439832
 11
104.49309
 21
421.339831
  0
LINE
  5
39F
100
AcDbEntity
  8
M0
100
AcDbLine
 10
80.893093
 20
369.439831
 11
80.893093
 21
386.53983
  0
LINE
  5
3A0
100
AcDbEntity
  8
M0
100
AcDbLine
 10
78.493093
 20
438.439831
 11
78.493093
 21
421.339831
  0
LINE
  5
3A1
100
AcDbEntity
  8
M0
100
AcDbLine
 10
93.893093
 20
386.53983
 11
93.893093
 21
369.439831
  0
LINE
  5
3A2
100
AcDbEntity
  8
M0
100
AcDbLine
 10
91.49309
 20
369.439831
 11
91.49309
 21
386.53983
  0
LINE
  5
3A3
100
AcDbEntity
  8
M0
100
AcDbLine
 10
93.893093
 20
438.439831
 11
93.893093
 21
421.339831
  0
LINE
  5
3A4
100
AcDbEntity
  8
M0
100
AcDbLine
 10
91.49309
 20
421.339831
 11
91.49309
 21
445.939831
  0
LINE
  5
3A5
100
AcDbEntity
  8
M0
100
AcDbLine
 10
91.49309
 20
371.439832
 11
91.49309
 21
372.43983
  0
LINE
  5
3A6
100
AcDbEntity
  8
M0
100
AcDbLine
 10
91.49309
 20
436.439831
 11
91.49309
 21
435.439831
  0
LINE
  5
3A7
100
AcDbEntity
  8
M0
100
AcDbLine
 10
116.293088
 20
376.239831
 11
116.593094
 21
376.239831
  0
LINE
  5
3A8
100
AcDbEntity
  8
M0
100
AcDbLine
 10
116.593094
 20
431.63983
 11
116.293088
 21
431.63983
  0
LINE
  5
3A9
100
AcDbEntity
  8
M0
100
AcDbLine
 10
116.39309
 20
424.03983
 11
116.293088
 21
424.03983
  0
LINE
  5
3AA
100
AcDbEntity
  8
M0
100
AcDbLine
 10
67.893091
 20
438.439832
 11
67.893091
 21
421.339831
  0
LINE
  5
3AB
100
AcDbEntity
  8
M0
100
AcDbLine
 10
55.993091
 20
424.03983
 11
56.093091
 21
424.03983
  0
LINE
  5
3AC
100
AcDbEntity
  8
M0
100
AcDbLine
 10
116.39309
 20
383.839831
 11
116.293088
 21
383.839831
  0
LINE
  5
3AD
100
AcDbEntity
  8
M0
100
AcDbLine
 10
55.993091
 20
383.839831
 11
56.093091
 21
383.839831
  0
ARC
  5
3AE
100
AcDbEntity
  8
M0
100
AcDbCircle
 10
116.293091
 20
377.239831
 40
1.0
100
AcDbArc
 50
180.0
 51
270.0
  0
ARC
  5
3AF
100
AcDbEntity
  8
M0
100
AcDbCircle
 10
116.293091
 20
430.639831
 40
1.0
100
AcDbArc
 50
90.0
 51
180.0
  0
ARC
  5
3B0
100
AcDbEntity
  8
M0
100
AcDbCircle
 10
106.893091
 20
376.839831
 40
0.6
100
AcDbArc
 50
270.0
 51
360.0
  0
ARC
  5
3B1
100
AcDbEntity
  8
M0
100
AcDbCircle
 10
116.593091
 20
430.639831
 40
1.0
100
AcDbArc
 50
0.0
 51
90.0
  0
LINE
  5
3B2
100
AcDbEntity
  8
M0
100
AcDbLine
 10
64.893092
 20
376.83983
 11
64.893092
 21
394.639831
  0
LINE
  5
3B3
100
AcDbEntity
  8
M0
100
AcDbLine
 10
64.893092
 20
413.239831
 11
64.893092
 21
431.039831
  0
ARC
  5
3B4
100
AcDbEntity
  8
M0
100
AcDbCircle
 10
116.593091
 20
377.239831
 40
1.0
100
AcDbArc
 50
270.0
 51
360.0
  0
LINE
  5
3B5
100
AcDbEntity
  8
M0
100
AcDbLine
 10
57.093091
 20
399.239831
 11
57.093091
 21
377.239831
  0
LINE
  5
3B6
100
AcDbEntity
  8
M0
100
AcDbLine
 10
108.393093
 20
378.239832
 11
108.393093
 21
379.239832
  0
LINE
  5
3B7
100
AcDbEntity
  8
M0
100
AcDbLine
 10
114.393094
 20
378.239832
 11
108.393093
 21
378.239832
  0
LINE
  5
3B8
100
AcDbEntity
  8
M0
100
AcDbLine
 10
114.393094
 20
379.239832
 11
114.393094
 21
378.239832
  0
LINE
  5
3B9
100
AcDbEntity
  8
M0
100
AcDbLine
 10
64.893092
 20
421.039831
 11
57.093091
 21
421.039831
  0
LINE
  5
3BA
100
AcDbEntity
  8
M0
100
AcDbLine
 10
108.393093
 20
429.639832
 11
114.393094
 21
429.639832
  0
LINE
  5
3BB
100
AcDbEntity
  8
M0
100
AcDbLine
 10
108.393093
 20
428.639832
 11
108.393093
 21
429.639832
  0
LINE
  5
3BC
100
AcDbEntity
  8
M0
100
AcDbLine
 10
114.393094
 20
429.639832
 11
114.393094
 21
428.639832
  0
LINE
  5
3BD
100
AcDbEntity
  8
M0
100
AcDbLine
 10
57.093091
 20
386.83983
 11
64.893092
 21
386.83983
  0
LINE
  5
3BE
100
AcDbEntity
  8
M0
100
AcDbLine
 10
107.493092
 20
386.83983
 11
115.293094
 21
386.83983
  0
LINE
  5
3BF
100
AcDbEntity
  8
M0
100
AcDbLine
 10
69.09309
 20
421.63983
 11
67.893091
 21
421.63983
  0
LINE
  5
3C0
100
AcDbEntity
  8
M0
100
AcDbLine
 10
77.293091
 20
421.63983
 11
78.493093
 21
421.63983
  0
LINE
  5
3C1
100
AcDbEntity
  8
M0
100
AcDbLine
 10
78.493093
 20
432.939832
 11
78.028507
 21
432.939832
  0
ARC
  5
3C2
100
AcDbEntity
  8
M0
100
AcDbCircle
 10
82.093091
 20
420.639831
 40
1.0
100
AcDbArc
 50
44.427004
 51
90.0
  0
LINE
  5
3C3
100
AcDbEntity
  8
M0
100
AcDbLine
 10
95.093091
 20
421.63983
 11
93.893093
 21
421.63983
  0
ARC
  5
3C4
100
AcDbEntity
  8
M0
100
AcDbCircle
 10
103.293091
 20
387.239831
 40
1.0
100
AcDbArc
 50
224.427004
 51
270.0
  0
ARC
  5
3C5
100
AcDbEntity
  8
M0
100
AcDbCircle
 10
90.293091
 20
420.639831
 40
1.0
100
AcDbArc
 50
90.0
 51
135.572996
  0
LINE
  5
3C6
100
AcDbEntity
  8
M0
100
AcDbLine
 10
90.293092
 20
386.239831
 11
91.49309
 21
386.239831
  0
LINE
  5
3C7
100
AcDbEntity
  8
M0
100
AcDbLine
 10
82.093091
 20
386.239831
 11
80.893093
 21
386.239831
  0
LINE
  5
3C8
100
AcDbEntity
  8
M0
100
AcDbLine
 10
80.893093
 20
374.939832
 11
81.357672
 21
374.939832
  0
LINE
  5
3C9
100
AcDbEntity
  8
M0
100
AcDbLine
 10
57.993092
 20
429.639832
 11
63.993092
 21
429.639832
  0
LINE
  5
3CA
100
AcDbEntity
  8
M0
100
AcDbLine
 10
57.993092
 20
428.639832
 11
57.993092
 21
429.639832
  0
LINE
  5
3CB
100
AcDbEntity
  8
M0
100
AcDbLine
 10
63.993092
 20
429.639832
 11
63.993092
 21
428.639832
  0
ARC
  5
3CC
100
AcDbEntity
  8
M0
100
AcDbCircle
 10
95.093091
 20
420.639831
 40
1.0
100
AcDbArc
 50
44.427004
 51
90.0
  0
ARC
  5
3CD
100
AcDbEntity
  8
M0
100
AcDbCircle
 10
77.293091
 20
420.639831
 40
1.0
100
AcDbArc
 50
90.0
 51
135.572996
  0
ARC
  5
3CE
100
AcDbEntity
  8
M0
100
AcDbCircle
 10
90.293091
 20
387.239831
 40
1.0
100
AcDbArc
 50
224.427004
 51
270.0
  0
ARC
  5
3CF
100
AcDbEntity
  8
M0
100
AcDbCircle
 10
95.093091
 20
387.239831
 40
1.0
100
AcDbArc
 50
270.0
 51
315.572996
  0
ARC
  5
3D0
100
AcDbEntity
  8
M0
100
AcDbCircle
 10
69.093091
 20
420.639831
 40
1.0
100
AcDbArc
 50
44.427004
 51
90.0
  0
ARC
  5
3D1
100
AcDbEntity
  8
M0
100
AcDbCircle
 10
82.093091
 20
387.239831
 40
1.0
100
AcDbArc
 50
270.0
 51
315.572996
  0
LINE
  5
3D2
100
AcDbEntity
  8
M0
100
AcDbLine
 10
63.993092
 20
378.239832
 11
57.993092
 21
378.239832
  0
LINE
  5
3D3
100
AcDbEntity
  8
M0
100
AcDbLine
 10
63.993092
 20
379.239832
 11
63.993092
 21
378.239832
  0
LINE
  5
3D4
100
AcDbEntity
  8
M0
100
AcDbLine
 10
57.993092
 20
378.239832
 11
57.993092
 21
379.239832
  0
LINE
  5
3D5
100
AcDbEntity
  8
M0
100
AcDbLine
 10
102.910553
 20
447.857822
 11
102.911645
 21
447.821363
  0
LINE
  5
3D6
100
AcDbEntity
  8
M0
100
AcDbLine
 10
102.911645
 20
447.821363
 11
102.914893
 21
447.713083
  0
LINE
  5
3D7
100
AcDbEntity
  8
M0
100
AcDbLine
 10
102.914893
 20
447.713083
 11
102.920198
 21
447.536285
  0
LINE
  5
3D8
100
AcDbEntity
  8
M0
100
AcDbLine
 10
102.920198
 20
447.536285
 11
102.927395
 21
447.296331
  0
LINE
  5
3D9
100
AcDbEntity
  8
M0
100
AcDbLine
 10
102.927395
 20
447.296331
 11
102.931888
 21
447.146627
  0
LINE
  5
3DA
100
AcDbEntity
  8
M0
100
AcDbLine
 10
69.454295
 20
447.146626
 11
69.454542
 21
447.154878
  0
LINE
  5
3DB
100
AcDbEntity
  8
M0
100
AcDbLine
 10
69.454542
 20
447.154878
 11
69.463496
 21
447.453349
  0
LINE
  5
3DC
100
AcDbEntity
  8
M0
100
AcDbLine
 10
69.463496
 20
447.453349
 11
69.470151
 21
447.675134
  0
LINE
  5
3DD
100
AcDbEntity
  8
M0
100
AcDbLine
 10
69.470151
 20
447.675134
 11
69.474247
 21
447.811707
  0
LINE
  5
3DE
100
AcDbEntity
  8
M0
100
AcDbLine
 10
69.474247
 20
447.811707
 11
69.475631
 21
447.857822
  0
LINE
  5
3DF
100
AcDbEntity
  8
M0
  6
DASHDOT
100
AcDbLine
 10
72.693091
 20
380.239831
 11
73.693091
 21
380.239831
  0
LINE
  5
3E0
100
AcDbEntity
  8
M0
  6
DASHDOT
100
AcDbLine
 10
73.193091
 20
379.739831
 11
73.193091
 21
380.739831
  0
LINE
  5
3E1
100
AcDbEntity
  8
M0
  6
DASHDOT
100
AcDbLine
 10
86.193088
 20
379.739831
 11
86.193088
 21
380.739831
  0
LINE
  5
3E2
100
AcDbEntity
  8
M0
  6
DASHDOT
100
AcDbLine
 10
85.693088
 20
380.239831
 11
86.693088
 21
380.239831
  0
LINE
  5
3E3
100
AcDbEntity
  8
M0
  6
DASHDOT
100
AcDbLine
 10
99.193088
 20
379.739831
 11
99.193088
 21
380.739831
  0
LINE
  5
3E4
100
AcDbEntity
  8
M0
  6
DASHDOT
100
AcDbLine
 10
98.693088
 20
380.239831
 11
99.693088
 21
380.239831
  0
LINE
  5
3E5
100
AcDbEntity
  8
M0
  6
DASHDOT
100
AcDbLine
 10
99.193088
 20
428.139831
 11
99.193088
 21
427.139831
  0
LINE
  5
3E6
100
AcDbEntity
  8
M0
  6
DASHDOT
100
AcDbLine
 10
98.693088
 20
427.639831
 11
99.693088
 21
427.639831
  0
LINE
  5
3E7
100
AcDbEntity
  8
M0
  6
DASHDOT
100
AcDbLine
 10
85.693088
 20
427.639831
 11
86.693088
 21
427.639831
  0
LINE
  5
3E8
100
AcDbEntity
  8
M0
  6
DASHDOT
100
AcDbLine
 10
73.193091
 20
428.139831
 11
73.193091
 21
427.139831
  0
LINE
  5
3E9
100
AcDbEntity
  8
M0
  6
DASHDOT
100
AcDbLine
 10
86.193088
 20
428.139831
 11
86.193088
 21
427.139831
  0
LINE
  5
3EA
100
AcDbEntity
  8
M0
  6
DASHDOT
100
AcDbLine
 10
72.693091
 20
427.639831
 11
73.693091
 21
427.639831
  0
LINE
  5
3EB
100
AcDbEntity
  8
M0
  6
DASHDOT
100
AcDbLine
 10
111.893091
 20
424.839831
 11
110.893091
 21
424.839831
  0
LINE
  5
3EC
100
AcDbEntity
  8
M0
  6
DASHDOT
100
AcDbLine
 10
111.393091
 20
424.339831
 11
111.393091
 21
425.339831
  0
LINE
  5
3ED
100
AcDbEntity
  8
M0
  6
DASHDOT
100
AcDbLine
 10
111.893091
 20
417.239831
 11
110.893091
 21
417.239831
  0
LINE
  5
3EE
100
AcDbEntity
  8
M0
  6
DASHDOT
100
AcDbLine
 10
111.393091
 20
416.739831
 11
111.393091
 21
417.739831
  0
LINE
  5
3EF
100
AcDbEntity
  8
M0
  6
DASHDOT
100
AcDbLine
 10
111.893091
 20
390.639831
 11
110.893091
 21
390.639831
  0
LINE
  5
3F0
100
AcDbEntity
  8
M0
  6
DASHDOT
100
AcDbLine
 10
111.393091
 20
390.139831
 11
111.393091
 21
391.139831
  0
LINE
  5
3F1
100
AcDbEntity
  8
M0
  6
DASHDOT
100
AcDbLine
 10
111.893091
 20
383.039831
 11
110.893091
 21
383.039831
  0
LINE
  5
3F2
100
AcDbEntity
  8
M0
  6
DASHDOT
100
AcDbLine
 10
111.393091
 20
382.539831
 11
111.393091
 21
383.539831
  0
LINE
  5
3F3
100
AcDbEntity
  8
M0
  6
DASHDOT
100
AcDbLine
 10
60.493091
 20
417.239831
 11
61.493091
 21
417.239831
  0
LINE
  5
3F4
100
AcDbEntity
  8
M0
  6
DASHDOT
100
AcDbLine
 10
60.993091
 20
416.739831
 11
60.993091
 21
417.739831
  0
LINE
  5
3F5
100
AcDbEntity
  8
M0
  6
DASHDOT
100
AcDbLine
 10
60.493091
 20
424.839831
 11
61.493091
 21
424.839831
  0
LINE
  5
3F6
100
AcDbEntity
  8
M0
  6
DASHDOT
100
AcDbLine
 10
60.993091
 20
424.339831
 11
60.993091
 21
425.339831
  0
LINE
  5
3F7
100
AcDbEntity
  8
M0
  6
DASHDOT
100
AcDbLine
 10
60.493091
 20
383.039831
 11
61.493091
 21
383.039831
  0
LINE
  5
3F8
100
AcDbEntity
  8
M0
  6
DASHDOT
100
AcDbLine
 10
60.993091
 20
382.539831
 11
60.993091
 21
383.539831
  0
LINE
  5
3F9
100
AcDbEntity
  8
M0
  6
DASHDOT
100
AcDbLine
 10
60.493091
 20
390.639831
 11
61.493091
 21
390.639831
  0
LINE
  5
3FA
100
AcDbEntity
  8
M0
  6
DASHDOT
100
AcDbLine
 10
60.993091
 20
390.139831
 11
60.993091
 21
391.139831
  0
LINE
  5
3FB
100
AcDbEntity
  8
M0
  6
DASHDOT
100
AcDbLine
 10
96.593091
 20
442.539831
 11
97.593091
 21
442.539831
  0
LINE
  5
3FC
100
AcDbEntity
  8
M0
  6
DASHDOT
100
AcDbLine
 10
97.093091
 20
442.039831
 11
97.093091
 21
443.039831
  0
LINE
  5
3FD
100
AcDbEntity
  8
M0
  6
DASHDOT
100
AcDbLine
 10
75.793091
 20
442.539831
 11
74.793091
 21
442.539831
  0
LINE
  5
3FE
100
AcDbEntity
  8
M0
  6
DASHDOT
100
AcDbLine
 10
75.293091
 20
442.039831
 11
75.293091
 21
443.039831
  0
LINE
  5
3FF
100
AcDbEntity
  8
M0
100
AcDbLine
 10
83.093088
 20
438.439832
 11
81.893091
 21
438.439832
  0
LINE
  5
400
100
AcDbEntity
  8
M0
100
AcDbLine
 10
83.093088
 20
436.939831
 11
80.893093
 21
436.939831
  0
LINE
  5
401
100
AcDbEntity
  8
M0
100
AcDbLine
 10
89.293088
 20
434.93983
 11
91.49309
 21
434.93983
  0
LINE
  5
402
100
AcDbEntity
  8
M0
100
AcDbLine
 10
81.357673
 20
432.939832
 11
80.893093
 21
432.939832
  0
LINE
  5
403
100
AcDbEntity
  8
M0
100
AcDbLine
 10
68.193091
 20
432.939832
 11
67.893091
 21
432.939832
  0
LINE
  5
404
100
AcDbEntity
  8
M0
100
AcDbLine
 10
75.193091
 20
434.93983
 11
78.493093
 21
434.93983
  0
LINE
  5
405
100
AcDbEntity
  8
M0
100
AcDbLine
 10
94.357676
 20
432.939832
 11
93.893093
 21
432.939832
  0
LINE
  5
406
100
AcDbEntity
  8
M0
100
AcDbLine
 10
97.193091
 20
434.93983
 11
93.893093
 21
434.93983
  0
LINE
  5
407
100
AcDbEntity
  8
M0
100
AcDbLine
 10
104.193091
 20
374.939832
 11
104.49309
 21
374.939832
  0
LINE
  5
408
100
AcDbEntity
  8
M0
100
AcDbLine
 10
83.093088
 20
368.43983
 11
81.19309
 21
368.43983
  0
LINE
  5
409
100
AcDbEntity
  8
M0
100
AcDbLine
 10
89.293088
 20
370.43983
 11
90.693091
 21
370.43983
  0
LINE
  5
40A
100
AcDbEntity
  8
M0
100
AcDbLine
 10
83.093088
 20
371.439832
 11
80.893093
 21
371.439832
  0
LINE
  5
40B
100
AcDbEntity
  8
M0
100
AcDbLine
 10
91.028504
 20
374.939832
 11
91.49309
 21
374.939832
  0
LINE
  5
40C
100
AcDbEntity
  8
M0
100
AcDbLine
 10
78.028507
 20
374.939832
 11
78.493093
 21
374.939832
  0
LINE
  5
40D
100
AcDbEntity
  8
M0
100
AcDbLine
 10
150.793089
 20
415.939831
 11
152.943088
 21
415.939831
  0
LINE
  5
40E
100
AcDbEntity
  8
M0
100
AcDbLine
 10
166.693089
 20
397.439831
 11
166.693089
 21
408.539831
  0
LINE
  5
40F
100
AcDbEntity
  8
M0
100
AcDbLine
 10
168.193089
 20
410.039831
 11
168.193089
 21
414.939831
  0
LINE
  5
410
100
AcDbEntity
  8
M0
100
AcDbLine
 10
164.543087
 20
407.189831
 11
164.793087
 21
406.689831
  0
LINE
  5
411
100
AcDbEntity
  8
M0
100
AcDbLine
 10
168.193089
 20
392.939831
 11
168.193089
 21
396.43983
  0
LINE
  5
412
100
AcDbEntity
  8
M0
100
AcDbLine
 10
150.093088
 20
386.239831
 11
151.29309
 21
386.239831
  0
LINE
  5
413
100
AcDbEntity
  8
M0
100
AcDbLine
 10
167.193087
 20
397.439831
 11
166.693089
 21
397.439831
  0
LINE
  5
414
100
AcDbEntity
  8
M0
100
AcDbLine
 10
141.893087
 20
386.239831
 11
140.693087
 21
386.239831
  0
LINE
  5
415
100
AcDbEntity
  8
M0
100
AcDbLine
 10
153.693089
 20
434.93983
 11
155.893084
 21
434.93983
  0
LINE
  5
416
100
AcDbEntity
  8
M0
100
AcDbLine
 10
140.693087
 20
434.93983
 11
140.993088
 21
434.93983
  0
LINE
  5
417
100
AcDbEntity
  8
M0
100
AcDbLine
 10
164.293086
 20
436.939831
 11
162.093084
 21
436.939831
  0
LINE
  5
418
100
AcDbEntity
  8
M0
100
AcDbLine
 10
153.693089
 20
445.939831
 11
153.693089
 21
421.339831
  0
LINE
  5
419
100
AcDbEntity
  8
M0
100
AcDbLine
 10
150.793088
 20
391.939831
 11
167.193087
 21
391.939831
  0
LINE
  5
41A
100
AcDbEntity
  8
M0
100
AcDbLine
 10
166.693089
 20
408.539831
 11
168.193089
 21
410.039831
  0
LINE
  5
41B
100
AcDbEntity
  8
M0
100
AcDbLine
 10
163.293088
 20
438.439832
 11
162.093084
 21
438.439832
  0
LINE
  5
41C
100
AcDbEntity
  8
M0
100
AcDbLine
 10
167.193087
 20
415.939831
 11
165.043088
 21
415.939831
  0
LINE
  5
41D
100
AcDbEntity
  8
M0
100
AcDbLine
 10
153.193088
 20
401.189831
 11
153.443089
 21
400.689831
  0
LINE
  5
41E
100
AcDbEntity
  8
M0
100
AcDbLine
 10
153.443089
 20
400.689831
 11
153.443089
 21
392.439831
  0
LINE
  5
41F
100
AcDbEntity
  8
M0
100
AcDbLine
 10
164.793087
 20
406.689831
 11
164.793087
 21
401.189831
  0
LINE
  5
420
100
AcDbEntity
  8
M0
100
AcDbLine
 10
164.793087
 20
401.189831
 11
164.543087
 21
400.689831
  0
LINE
  5
421
100
AcDbEntity
  8
M0
100
AcDbLine
 10
149.593089
 20
398.63983
 11
149.793088
 21
398.63983
  0
LINE
  5
422
100
AcDbEntity
  8
M0
100
AcDbLine
 10
168.393088
 20
398.63983
 11
168.193089
 21
398.63983
  0
LINE
  5
423
100
AcDbEntity
  8
M0
100
AcDbLine
 10
164.043089
 20
414.939831
 11
164.043089
 21
409.039831
  0
LINE
  5
424
100
AcDbEntity
  8
M0
100
AcDbLine
 10
153.943086
 20
414.939831
 11
153.943086
 21
409.039831
  0
LINE
  5
425
100
AcDbEntity
  8
M0
100
AcDbLine
 10
153.443089
 20
407.189831
 11
153.193088
 21
406.689831
  0
LINE
  5
426
100
AcDbEntity
  8
M0
100
AcDbLine
 10
151.29309
 20
397.439831
 11
151.29309
 21
408.539831
  0
LINE
  5
427
100
AcDbEntity
  8
M0
100
AcDbLine
 10
140.693087
 20
374.939832
 11
140.993088
 21
374.939832
  0
LINE
  5
428
100
AcDbEntity
  8
M0
100
AcDbLine
 10
153.443089
 20
408.539831
 11
153.443089
 21
407.189831
  0
LINE
  5
429
100
AcDbEntity
  8
M0
100
AcDbLine
 10
164.543087
 20
400.689831
 11
164.543087
 21
392.439831
  0
LINE
  5
42A
100
AcDbEntity
  8
M0
100
AcDbLine
 10
164.543087
 20
408.539831
 11
164.543087
 21
407.189831
  0
LINE
  5
42B
100
AcDbEntity
  8
M0
100
AcDbLine
 10
153.193088
 20
406.689831
 11
153.193088
 21
401.189831
  0
LINE
  5
42C
100
AcDbEntity
  8
M0
100
AcDbLine
 10
150.793089
 20
397.439831
 11
151.29309
 21
397.439831
  0
LINE
  5
42D
100
AcDbEntity
  8
M0
100
AcDbLine
 10
166.993087
 20
371.439832
 11
166.993087
 21
369.439832
  0
LINE
  5
42E
100
AcDbEntity
  8
M0
100
AcDbLine
 10
150.993088
 20
371.439832
 11
150.993088
 21
369.439832
  0
LINE
  5
42F
100
AcDbEntity
  8
M0
100
AcDbLine
 10
139.693087
 20
368.43983
 11
132.593088
 21
368.43983
  0
LINE
  5
430
100
AcDbEntity
  8
M0
100
AcDbLine
 10
149.243088
 20
368.939831
 11
149.243088
 21
371.439831
  0
ARC
  5
431
100
AcDbEntity
  8
M0
100
AcDbCircle
 10
171.993088
 20
371.439831
 40
3.25
100
AcDbArc
 50
132.76855
 51
180.0
  0
ARC
  5
432
100
AcDbEntity
  8
M0
100
AcDbCircle
 10
168.243088
 20
368.939831
 40
0.5
100
AcDbArc
 50
270.0
 51
360.0
  0
ELLIPSE
  5
433
100
AcDbEntity
  8
M0
100
AcDbEllipse
 10
163.293088
 20
438.856498
 11
1.0
 21
0.0
210
0.0
220
0.0
230
1.0
 40
0.416667
 41
4.71238898038469
 42
6.283185307179586
  0
ELLIPSE
  5
434
100
AcDbEntity
  8
M0
100
AcDbEllipse
 10
154.693088
 20
438.856498
 11
1.0
 21
0.0
210
0.0
220
0.0
230
1.0
 40
0.416667
 41
3.141592653589793
 42
4.71238898038469
  0
LINE
  5
435
100
AcDbEntity
  8
M0
100
AcDbLine
 10
140.693087
 20
386.53983
 11
140.693087
 21
369.439832
  0
LINE
  5
436
100
AcDbEntity
  8
M0
100
AcDbLine
 10
151.29309
 20
422.839831
 11
153.693089
 21
422.839831
  0
LINE
  5
437
100
AcDbEntity
  8
M0
100
AcDbLine
 10
151.29309
 20
385.039831
 11
152.293088
 21
385.039831
  0
LINE
  5
438
100
AcDbEntity
  8
M0
100
AcDbLine
 10
151.29309
 20
369.439832
 11
151.29309
 21
386.53983
  0
LINE
  5
439
100
AcDbEntity
  8
M0
100
AcDbLine
 10
138.293087
 20
438.439831
 11
138.293087
 21
407.439831
  0
LINE
  5
43A
100
AcDbEntity
  8
M0
100
AcDbLine
 10
132.593088
 20
439.439832
 11
139.693087
 21
439.439832
  0
LINE
  5
43B
100
AcDbEntity
  8
M0
100
AcDbLine
 10
180.293089
 20
413.239831
 11
180.293089
 21
431.039831
  0
LINE
  5
43C
100
AcDbEntity
  8
M0
100
AcDbLine
 10
180.293089
 20
376.839831
 11
180.293089
 21
394.639831
  0
LINE
  5
43D
100
AcDbEntity
  8
M0
100
AcDbLine
 10
140.993088
 20
372.939831
 11
140.693087
 21
372.939831
  0
LINE
  5
43E
100
AcDbEntity
  8
M0
100
AcDbLine
 10
128.893088
 20
376.239831
 11
128.593088
 21
376.239831
  0
LINE
  5
43F
100
AcDbEntity
  8
M0
100
AcDbLine
 10
149.993088
 20
372.43983
 11
149.993088
 21
374.939832
  0
LINE
  5
440
100
AcDbEntity
  8
M0
100
AcDbLine
 10
128.593088
 20
431.63983
 11
128.893088
 21
431.63983
  0
LINE
  5
441
100
AcDbEntity
  8
M0
100
AcDbLine
 10
167.993089
 20
368.43983
 11
171.160797
 21
368.43983
  0
LINE
  5
442
100
AcDbEntity
  8
M0
100
AcDbLine
 10
168.743087
 20
368.939831
 11
168.743087
 21
369.439832
  0
LINE
  5
443
100
AcDbEntity
  8
M0
100
AcDbLine
 10
176.993089
 20
372.939831
 11
177.293086
 21
372.939831
  0
LINE
  5
444
100
AcDbEntity
  8
M0
100
AcDbLine
 10
168.743087
 20
369.439832
 11
168.743087
 21
371.439832
  0
ARC
  5
445
100
AcDbEntity
  8
M0
100
AcDbCircle
 10
189.093088
 20
423.039831
 40
1.0
100
AcDbArc
 50
90.0
 51
180.0
  0
LINE
  5
446
100
AcDbEntity
  8
M0
100
AcDbLine
 10
166.993087
 20
371.439832
 11
166.693089
 21
371.439832
  0
ARC
  5
447
100
AcDbEntity
  8
M0
100
AcDbCircle
 10
189.093088
 20
399.239831
 40
1.0
100
AcDbArc
 50
90.0
 51
180.0
  0
ARC
  5
448
100
AcDbEntity
  8
M0
100
AcDbCircle
 10
189.393088
 20
399.239831
 40
1.0
100
AcDbArc
 50
0.0
 51
90.0
  0
LINE
  5
449
100
AcDbEntity
  8
M0
100
AcDbLine
 10
177.293086
 20
434.93983
 11
176.993087
 21
434.93983
  0
LINE
  5
44A
100
AcDbEntity
  8
M0
100
AcDbLine
 10
151.29309
 20
371.439832
 11
150.993088
 21
371.439832
  0
LINE
  5
44B
100
AcDbEntity
  8
M0
100
AcDbLine
 10
164.293086
 20
371.439832
 11
162.093084
 21
371.439832
  0
LINE
  5
44C
100
AcDbEntity
  8
M0
100
AcDbLine
 10
167.993089
 20
372.43983
 11
167.993089
 21
374.939832
  0
LINE
  5
44D
100
AcDbEntity
  8
M0
100
AcDbLine
 10
129.893088
 20
407.639831
 11
129.893088
 21
400.239831
  0
LINE
  5
44E
100
AcDbEntity
  8
M0
100
AcDbLine
 10
176.093088
 20
421.63983
 11
177.293086
 21
421.63983
  0
ARC
  5
44F
100
AcDbEntity
  8
M0
100
AcDbCircle
 10
179.693088
 20
384.439831
 40
0.6
100
AcDbArc
 50
270.0
 51
360.0
  0
LINE
  5
450
100
AcDbEntity
  8
M0
100
AcDbLine
 10
139.193088
 20
401.439831
 11
139.193088
 21
400.439831
  0
LINE
  5
451
100
AcDbEntity
  8
M0
100
AcDbLine
 10
154.893087
 20
421.63983
 11
153.693089
 21
421.63983
  0
LINE
  5
452
100
AcDbEntity
  8
M0
100
AcDbLine
 10
188.09309
 20
421.039831
 11
180.293089
 21
421.039831
  0
LINE
  5
453
100
AcDbEntity
  8
M0
100
AcDbLine
 10
164.293086
 20
432.939832
 11
163.8285
 21
432.939832
  0
LINE
  5
454
100
AcDbEntity
  8
M0
100
AcDbLine
 10
166.693089
 20
374.939832
 11
167.157671
 21
374.939832
  0
ARC
  5
455
100
AcDbEntity
  8
M0
100
AcDbCircle
 10
152.943088
 20
414.939831
 40
1.0
100
AcDbArc
 50
0.0
 51
90.0
  0
ARC
  5
456
100
AcDbEntity
  8
M0
100
AcDbCircle
 10
165.043088
 20
392.439831
 40
0.5
100
AcDbArc
 50
180.0
 51
270.0
  0
ARC
  5
457
100
AcDbEntity
  8
M0
100
AcDbCircle
 10
167.193088
 20
392.939831
 40
1.0
100
AcDbArc
 50
270.0
 51
360.0
  0
ARC
  5
458
100
AcDbEntity
  8
M0
100
AcDbCircle
 10
153.443088
 20
409.039831
 40
0.5
100
AcDbArc
 50
270.0
 51
360.0
  0
ARC
  5
459
100
AcDbEntity
  8
M0
100
AcDbCircle
 10
138.293088
 20
423.439831
 40
0.6
100
AcDbArc
 50
90.0
 51
180.0
  0
ARC
  5
45A
100
AcDbEntity
  8
M0
100
AcDbCircle
 10
139.293088
 20
369.439831
 40
1.0
100
AcDbArc
 50
180.0
 51
270.0
  0
ARC
  5
45B
100
AcDbEntity
  8
M0
100
AcDbCircle
 10
152.943088
 20
392.439831
 40
0.5
100
AcDbArc
 50
270.0
 51
360.0
  0
ARC
  5
45C
100
AcDbEntity
  8
M0
100
AcDbCircle
 10
179.693088
 20
423.439831
 40
0.6
100
AcDbArc
 50
0.0
 51
90.0
  0
LINE
  5
45D
100
AcDbEntity
  8
M0
100
AcDbLine
 10
177.293086
 20
386.53983
 11
177.293086
 21
369.439832
  0
LINE
  5
45E
100
AcDbEntity
  8
M0
100
AcDbLine
 10
165.693087
 20
439.439832
 11
165.293088
 21
439.439832
  0
LINE
  5
45F
100
AcDbEntity
  8
M0
100
AcDbLine
 10
153.443089
 20
393.439831
 11
164.543087
 21
393.439831
  0
LINE
  5
460
100
AcDbEntity
  8
M0
100
AcDbLine
 10
164.543087
 20
397.439831
 11
153.443089
 21
397.439831
  0
LINE
  5
461
100
AcDbEntity
  8
M0
100
AcDbLine
 10
165.693087
 20
385.039831
 11
165.293088
 21
385.039831
  0
LINE
  5
462
100
AcDbEntity
  8
M0
100
AcDbLine
 10
165.293088
 20
385.039831
 11
164.293086
 21
385.039831
  0
LINE
  5
463
100
AcDbEntity
  8
M0
100
AcDbLine
 10
179.693086
 20
407.439831
 11
179.693086
 21
438.439832
  0
LINE
  5
464
100
AcDbEntity
  8
M0
100
AcDbLine
 10
185.393088
 20
439.439832
 11
178.293088
 21
439.439832
  0
LINE
  5
465
100
AcDbEntity
  8
M0
100
AcDbLine
 10
163.093088
 20
421.63983
 11
164.293086
 21
421.63983
  0
LINE
  5
466
100
AcDbEntity
  8
M0
100
AcDbLine
 10
190.393085
 20
434.439831
 11
190.393085
 21
373.439831
  0
LINE
  5
467
100
AcDbEntity
  8
M0
100
AcDbLine
 10
167.893087
 20
386.239831
 11
166.693089
 21
386.239831
  0
LINE
  5
468
100
AcDbEntity
  8
M0
100
AcDbLine
 10
176.093088
 20
386.239831
 11
177.293086
 21
386.239831
  0
LINE
  5
469
100
AcDbEntity
  8
M0
100
AcDbLine
 10
149.793088
 20
410.039831
 11
149.793088
 21
414.939831
  0
LINE
  5
46A
100
AcDbEntity
  8
M0
100
AcDbLine
 10
153.443089
 20
398.939831
 11
164.543087
 21
398.939831
  0
LINE
  5
46B
100
AcDbEntity
  8
M0
100
AcDbLine
 10
149.793088
 20
392.939831
 11
149.793088
 21
396.43983
  0
LINE
  5
46C
100
AcDbEntity
  8
M0
100
AcDbLine
 10
151.29309
 20
408.539831
 11
149.793088
 21
410.039831
  0
ARC
  5
46D
100
AcDbEntity
  8
M0
100
AcDbCircle
 10
128.593088
 20
399.239831
 40
1.0
100
AcDbArc
 50
90.0
 51
180.0
  0
ARC
  5
46E
100
AcDbEntity
  8
M0
100
AcDbCircle
 10
128.893088
 20
408.639831
 40
1.0
100
AcDbArc
 50
270.0
 51
360.0
  0
LINE
  5
46F
100
AcDbEntity
  8
M0
100
AcDbLine
 10
132.893088
 20
400.239831
 11
132.893088
 21
407.639831
  0
ARC
  5
470
100
AcDbEntity
  8
M0
100
AcDbCircle
 10
128.593088
 20
384.839831
 40
1.0
100
AcDbArc
 50
180.0
 51
270.0
  0
ARC
  5
471
100
AcDbEntity
  8
M0
100
AcDbCircle
 10
189.093088
 20
384.839831
 40
1.0
100
AcDbArc
 50
180.0
 51
270.0
  0
ARC
  5
472
100
AcDbEntity
  8
M0
100
AcDbCircle
 10
128.593088
 20
423.039831
 40
1.0
100
AcDbArc
 50
90.0
 51
180.0
  0
ARC
  5
473
100
AcDbEntity
  8
M0
100
AcDbCircle
 10
128.893088
 20
384.839831
 40
1.0
100
AcDbArc
 50
270.0
 51
360.0
  0
ARC
  5
474
100
AcDbEntity
  8
M0
100
AcDbCircle
 10
189.093088
 20
408.639831
 40
1.0
100
AcDbArc
 50
180.0
 51
270.0
  0
LINE
  5
475
100
AcDbEntity
  8
M0
100
AcDbLine
 10
177.293086
 20
432.939832
 11
176.993087
 21
432.939832
  0
LINE
  5
476
100
AcDbEntity
  8
M0
100
AcDbLine
 10
138.293087
 20
399.939831
 11
136.293087
 21
399.939831
  0
LINE
  5
477
100
AcDbEntity
  8
M0
100
AcDbLine
 10
132.893088
 20
407.639831
 11
129.893088
 21
407.639831
  0
LINE
  5
478
100
AcDbEntity
  8
M0
100
AcDbLine
 10
149.593089
 20
409.239831
 11
149.793088
 21
409.239831
  0
LINE
  5
479
100
AcDbEntity
  8
M0
100
AcDbLine
 10
136.293087
 20
399.939831
 11
136.293087
 21
407.939831
  0
LINE
  5
47A
100
AcDbEntity
  8
M0
100
AcDbLine
 10
129.893088
 20
400.239831
 11
132.893088
 21
400.239831
  0
LINE
  5
47B
100
AcDbEntity
  8
M0
100
AcDbLine
 10
139.193088
 20
407.439831
 11
139.193088
 21
406.439831
  0
LINE
  5
47C
100
AcDbEntity
  8
M0
100
AcDbLine
 10
138.293087
 20
407.939831
 11
136.293087
 21
407.939831
  0
ARC
  5
47D
100
AcDbEntity
  8
M0
100
AcDbCircle
 10
150.793088
 20
414.939831
 40
1.0
100
AcDbArc
 50
90.0
 51
180.0
  0
ARC
  5
47E
100
AcDbEntity
  8
M0
100
AcDbCircle
 10
189.393088
 20
423.039831
 40
1.0
100
AcDbArc
 50
0.0
 51
90.0
  0
ARC
  5
47F
100
AcDbEntity
  8
M0
100
AcDbCircle
 10
189.393088
 20
384.839831
 40
1.0
100
AcDbArc
 50
270.0
 51
360.0
  0
ARC
  5
480
100
AcDbEntity
  8
M0
100
AcDbCircle
 10
150.793088
 20
392.939831
 40
1.0
100
AcDbArc
 50
180.0
 51
270.0
  0
ARC
  5
481
100
AcDbEntity
  8
M0
100
AcDbCircle
 10
165.043088
 20
414.939831
 40
1.0
100
AcDbArc
 50
90.0
 51
180.0
  0
ARC
  5
482
100
AcDbEntity
  8
M0
100
AcDbCircle
 10
167.193088
 20
396.439831
 40
1.0
100
AcDbArc
 50
0.0
 51
90.0
  0
ARC
  5
483
100
AcDbEntity
  8
M0
100
AcDbCircle
 10
189.393088
 20
408.639831
 40
1.0
100
AcDbArc
 50
270.0
 51
360.0
  0
ARC
  5
484
100
AcDbEntity
  8
M0
100
AcDbCircle
 10
164.543088
 20
409.039831
 40
0.5
100
AcDbArc
 50
180.0
 51
270.0
  0
ARC
  5
485
100
AcDbEntity
  8
M0
100
AcDbCircle
 10
128.893088
 20
423.039831
 40
1.0
100
AcDbArc
 50
0.0
 51
90.0
  0
ARC
  5
486
100
AcDbEntity
  8
M0
100
AcDbCircle
 10
176.093088
 20
420.639831
 40
1.0
100
AcDbArc
 50
90.0
 51
135.572996
  0
ARC
  5
487
100
AcDbEntity
  8
M0
100
AcDbCircle
 10
128.593088
 20
408.639831
 40
1.0
100
AcDbArc
 50
180.0
 51
270.0
  0
ARC
  5
488
100
AcDbEntity
  8
M0
100
AcDbCircle
 10
128.893088
 20
399.239831
 40
1.0
100
AcDbArc
 50
0.0
 51
90.0
  0
ARC
  5
489
100
AcDbEntity
  8
M0
100
AcDbCircle
 10
150.093088
 20
387.239831
 40
1.0
100
AcDbArc
 50
224.427004
 51
270.0
  0
ARC
  5
48A
100
AcDbEntity
  8
M0
100
AcDbCircle
 10
141.893088
 20
387.239831
 40
1.0
100
AcDbArc
 50
270.0
 51
315.572996
  0
ARC
  5
48B
100
AcDbEntity
  8
M0
100
AcDbCircle
 10
167.193088
 20
414.939831
 40
1.0
100
AcDbArc
 50
0.0
 51
90.0
  0
LINE
  5
48C
100
AcDbEntity
  8
M0
  6
DASHDOT
100
AcDbLine
 10
184.693088
 20
424.839831
 11
183.693088
 21
424.839831
  0
LINE
  5
48D
100
AcDbEntity
  8
M0
  6
DASHDOT
100
AcDbLine
 10
145.493088
 20
427.639831
 11
146.493088
 21
427.639831
  0
LINE
  5
48E
100
AcDbEntity
  8
M0
  6
DASHDOT
100
AcDbLine
 10
184.693088
 20
417.239831
 11
183.693088
 21
417.239831
  0
LINE
  5
48F
100
AcDbEntity
  8
M0
  6
DASHDOT
100
AcDbLine
 10
184.193088
 20
424.339831
 11
184.193088
 21
425.339831
  0
LINE
  5
490
100
AcDbEntity
  8
M0
  6
DASHDOT
100
AcDbLine
 10
158.493084
 20
427.639831
 11
159.493084
 21
427.639831
  0
LINE
  5
491
100
AcDbEntity
  8
M0
  6
DASHDOT
100
AcDbLine
 10
171.493085
 20
427.639831
 11
172.493085
 21
427.639831
  0
LINE
  5
492
100
AcDbEntity
  8
M0
  6
DASHDOT
100
AcDbLine
 10
158.993084
 20
428.139831
 11
158.993084
 21
427.139831
  0
LINE
  5
493
100
AcDbEntity
  8
M0
  6
DASHDOT
100
AcDbLine
 10
145.993088
 20
428.139831
 11
145.993088
 21
427.139831
  0
LINE
  5
494
100
AcDbEntity
  8
M0
  6
DASHDOT
100
AcDbLine
 10
133.293088
 20
417.239831
 11
134.293088
 21
417.239831
  0
LINE
  5
495
100
AcDbEntity
  8
M0
  6
DASHDOT
100
AcDbLine
 10
184.193087
 20
382.539831
 11
184.193087
 21
383.539831
  0
ARC
  5
496
100
AcDbEntity
  8
M0
100
AcDbCircle
 10
176.093088
 20
387.239831
 40
1.0
100
AcDbArc
 50
224.427004
 51
270.0
  0
ARC
  5
497
100
AcDbEntity
  8
M0
100
AcDbCircle
 10
154.893088
 20
420.639831
 40
1.0
100
AcDbArc
 50
44.427004
 51
90.0
  0
LINE
  5
498
100
AcDbEntity
  8
M0
  6
DASHDOT
100
AcDbLine
 10
184.693087
 20
390.639831
 11
183.693087
 21
390.639831
  0
LINE
  5
499
100
AcDbEntity
  8
M0
  6
DASHDOT
100
AcDbLine
 10
184.193088
 20
416.739831
 11
184.193088
 21
417.739831
  0
LINE
  5
49A
100
AcDbEntity
  8
M0
  6
DASHDOT
100
AcDbLine
 10
184.693087
 20
383.039831
 11
183.693087
 21
383.039831
  0
LINE
  5
49B
100
AcDbEntity
  8
M0
  6
DASHDOT
100
AcDbLine
 10
184.193087
 20
390.139831
 11
184.193087
 21
391.139831
  0
LINE
  5
49C
100
AcDbEntity
  8
M0
100
AcDbLine
 10
142.254539
 20
447.154878
 11
142.263493
 21
447.453349
  0
LINE
  5
49D
100
AcDbEntity
  8
M0
100
AcDbLine
 10
142.254291
 20
447.146626
 11
142.254539
 21
447.154878
  0
LINE
  5
49E
100
AcDbEntity
  8
M0
100
AcDbLine
 10
142.270148
 20
447.675134
 11
142.274244
 21
447.811707
  0
LINE
  5
49F
100
AcDbEntity
  8
M0
100
AcDbLine
 10
142.263493
 20
447.453349
 11
142.270148
 21
447.675134
  0
LINE
  5
4A0
100
AcDbEntity
  8
M0
100
AcDbLine
 10
175.714889
 20
447.713083
 11
175.720194
 21
447.536285
  0
LINE
  5
4A1
100
AcDbEntity
  8
M0
100
AcDbLine
 10
175.711641
 20
447.821363
 11
175.714889
 21
447.713083
  0
LINE
  5
4A2
100
AcDbEntity
  8
M0
100
AcDbLine
 10
175.727392
 20
447.296331
 11
175.731884
 21
447.146627
  0
LINE
  5
4A3
100
AcDbEntity
  8
M0
100
AcDbLine
 10
175.720194
 20
447.536285
 11
175.727392
 21
447.296331
  0
LINE
  5
4A4
100
AcDbEntity
  8
M0
  6
DASHDOT
100
AcDbLine
 10
171.993085
 20
379.739831
 11
171.993085
 21
380.739831
  0
LINE
  5
4A5
100
AcDbEntity
  8
M0
  6
DASHDOT
100
AcDbLine
 10
158.493084
 20
380.239831
 11
159.493084
 21
380.239831
  0
LINE
  5
4A6
100
AcDbEntity
  8
M0
  6
DASHDOT
100
AcDbLine
 10
171.993085
 20
428.139831
 11
171.993085
 21
427.139831
  0
LINE
  5
4A7
100
AcDbEntity
  8
M0
  6
DASHDOT
100
AcDbLine
 10
171.493085
 20
380.239831
 11
172.493085
 21
380.239831
  0
LINE
  5
4A8
100
AcDbEntity
  8
M0
  6
DASHDOT
100
AcDbLine
 10
145.493088
 20
380.239831
 11
146.493088
 21
380.239831
  0
LINE
  5
4A9
100
AcDbEntity
  8
M0
100
AcDbLine
 10
142.274244
 20
447.811707
 11
142.275628
 21
447.857822
  0
LINE
  5
4AA
100
AcDbEntity
  8
M0
  6
DASHDOT
100
AcDbLine
 10
158.993084
 20
379.739831
 11
158.993084
 21
380.739831
  0
LINE
  5
4AB
100
AcDbEntity
  8
M0
  6
DASHDOT
100
AcDbLine
 10
145.993088
 20
379.739831
 11
145.993088
 21
380.739831
  0
LINE
  5
4AC
100
AcDbEntity
  8
M0
100
AcDbLine
 10
154.157669
 20
432.939832
 11
153.693089
 21
432.939832
  0
LINE
  5
4AD
100
AcDbEntity
  8
M0
100
AcDbLine
 10
162.093084
 20
434.93983
 11
164.293086
 21
434.93983
  0
LINE
  5
4AE
100
AcDbEntity
  8
M0
100
AcDbLine
 10
147.993088
 20
434.93983
 11
151.29309
 21
434.93983
  0
LINE
  5
4AF
100
AcDbEntity
  8
M0
100
AcDbLine
 10
140.993088
 20
432.939832
 11
140.693087
 21
432.939832
  0
LINE
  5
4B0
100
AcDbEntity
  8
M0
  6
DASHDOT
100
AcDbLine
 10
148.093087
 20
442.039831
 11
148.093087
 21
443.039831
  0
LINE
  5
4B1
100
AcDbEntity
  8
M0
  6
DASHDOT
100
AcDbLine
 10
148.593087
 20
442.539831
 11
147.593087
 21
442.539831
  0
LINE
  5
4B2
100
AcDbEntity
  8
M0
100
AcDbLine
 10
155.893084
 20
436.939831
 11
153.693089
 21
436.939831
  0
LINE
  5
4B3
100
AcDbEntity
  8
M0
100
AcDbLine
 10
155.893084
 20
438.439832
 11
154.693088
 21
438.439832
  0
LINE
  5
4B4
100
AcDbEntity
  8
M0
100
AcDbLine
 10
155.893084
 20
371.439832
 11
153.693089
 21
371.439832
  0
LINE
  5
4B5
100
AcDbEntity
  8
M0
100
AcDbLine
 10
162.093084
 20
370.43983
 11
163.493087
 21
370.43983
  0
LINE
  5
4B6
100
AcDbEntity
  8
M0
100
AcDbLine
 10
150.828504
 20
374.939832
 11
151.29309
 21
374.939832
  0
LINE
  5
4B7
100
AcDbEntity
  8
M0
100
AcDbLine
 10
163.8285
 20
374.939832
 11
164.293086
 21
374.939832
  0
LINE
  5
4B8
100
AcDbEntity
  8
M0
100
AcDbLine
 10
169.993087
 20
434.93983
 11
166.693089
 21
434.93983
  0
LINE
  5
4B9
100
AcDbEntity
  8
M0
100
AcDbLine
 10
167.157672
 20
432.939832
 11
166.693089
 21
432.939832
  0
LINE
  5
4BA
100
AcDbEntity
  8
M0
100
AcDbLine
 10
155.893084
 20
368.43983
 11
153.993087
 21
368.43983
  0
LINE
  5
4BB
100
AcDbEntity
  8
M0
100
AcDbLine
 10
176.993087
 20
374.939832
 11
177.293086
 21
374.939832
  0
ARC
  5
4BC
100
AcDbEntity
  8
M0
100
AcDbCircle
 10
141.893088
 20
420.639831
 40
1.0
100
AcDbArc
 50
44.427004
 51
90.0
  0
ARC
  5
4BD
100
AcDbEntity
  8
M0
100
AcDbCircle
 10
167.893088
 20
387.239831
 40
1.0
100
AcDbArc
 50
270.0
 51
315.572996
  0
LINE
  5
4BE
100
AcDbEntity
  8
M0
  6
DASHDOT
100
AcDbLine
 10
133.793088
 20
416.739831
 11
133.793088
 21
417.739831
  0
ARC
  5
4BF
100
AcDbEntity
  8
M0
100
AcDbCircle
 10
154.893088
 20
387.239831
 40
1.0
100
AcDbArc
 50
270.0
 51
315.572996
  0
ARC
  5
4C0
100
AcDbEntity
  8
M0
100
AcDbCircle
 10
167.893088
 20
420.639831
 40
1.0
100
AcDbArc
 50
44.427004
 51
90.0
  0
ARC
  5
4C1
100
AcDbEntity
  8
M0
100
AcDbCircle
 10
163.093088
 20
420.639831
 40
1.0
100
AcDbArc
 50
90.0
 51
135.572996
  0
ARC
  5
4C2
100
AcDbEntity
  8
M0
100
AcDbCircle
 10
163.093088
 20
387.239831
 40
1.0
100
AcDbArc
 50
224.427004
 51
270.0
  0
ARC
  5
4C3
100
AcDbEntity
  8
M0
100
AcDbCircle
 10
150.093088
 20
420.639831
 40
1.0
100
AcDbArc
 50
90.0
 51
135.572996
  0
LINE
  5
4C4
100
AcDbEntity
  8
M0
  6
DASHDOT
100
AcDbLine
 10
133.793088
 20
390.139831
 11
133.793088
 21
391.139831
  0
LINE
  5
4C5
100
AcDbEntity
  8
M0
  6
DASHDOT
100
AcDbLine
 10
133.293088
 20
390.639831
 11
134.293088
 21
390.639831
  0
LINE
  5
4C6
100
AcDbEntity
  8
M0
  6
DASHDOT
100
AcDbLine
 10
169.893088
 20
442.039831
 11
169.893088
 21
443.039831
  0
LINE
  5
4C7
100
AcDbEntity
  8
M0
  6
DASHDOT
100
AcDbLine
 10
169.393088
 20
442.539831
 11
170.393088
 21
442.539831
  0
LINE
  5
4C8
100
AcDbEntity
  8
M0
  6
DASHDOT
100
AcDbLine
 10
133.793088
 20
424.339831
 11
133.793088
 21
425.339831
  0
LINE
  5
4C9
100
AcDbEntity
  8
M0
  6
DASHDOT
100
AcDbLine
 10
133.293088
 20
424.839831
 11
134.293088
 21
424.839831
  0
LINE
  5
4CA
100
AcDbEntity
  8
M0
  6
DASHDOT
100
AcDbLine
 10
133.793088
 20
382.539831
 11
133.793088
 21
383.539831
  0
LINE
  5
4CB
100
AcDbEntity
  8
M0
  6
DASHDOT
100
AcDbLine
 10
133.293088
 20
383.039831
 11
134.293088
 21
383.039831
  0
LINE
  5
4CC
100
AcDbEntity
  8
M0
100
AcDbLine
 10
181.193089
 20
378.239832
 11
181.193089
 21
379.239832
  0
LINE
  5
4CD
100
AcDbEntity
  8
M0
100
AcDbLine
 10
129.893088
 20
399.239831
 11
129.893088
 21
377.239831
  0
LINE
  5
4CE
100
AcDbEntity
  8
M0
100
AcDbLine
 10
187.19309
 20
379.239832
 11
187.19309
 21
378.239832
  0
LINE
  5
4CF
100
AcDbEntity
  8
M0
100
AcDbLine
 10
187.19309
 20
378.239832
 11
181.193089
 21
378.239832
  0
LINE
  5
4D0
100
AcDbEntity
  8
M0
100
AcDbLine
 10
128.793088
 20
383.839831
 11
128.893088
 21
383.839831
  0
LINE
  5
4D1
100
AcDbEntity
  8
M0
100
AcDbLine
 10
189.193087
 20
383.839831
 11
189.093085
 21
383.839831
  0
LINE
  5
4D2
100
AcDbEntity
  8
M0
100
AcDbLine
 10
137.693088
 20
413.239831
 11
137.693088
 21
431.039831
  0
LINE
  5
4D3
100
AcDbEntity
  8
M0
100
AcDbLine
 10
137.693088
 20
376.83983
 11
137.693088
 21
394.639831
  0
ARC
  5
4D4
100
AcDbEntity
  8
M0
100
AcDbCircle
 10
145.993088
 20
371.439831
 40
3.25
100
AcDbArc
 50
0.0
 51
47.231455
  0
ARC
  5
4D5
100
AcDbEntity
  8
M0
100
AcDbCircle
 10
167.993088
 20
369.439831
 40
1.0
100
AcDbArc
 50
180.0
 51
270.0
  0
ARC
  5
4D6
100
AcDbEntity
  8
M0
100
AcDbCircle
 10
149.743088
 20
368.939831
 40
0.5
100
AcDbArc
 50
180.0
 51
270.0
  0
ARC
  5
4D7
100
AcDbEntity
  8
M0
100
AcDbCircle
 10
166.993088
 20
372.439831
 40
1.0
100
AcDbArc
 50
270.0
 51
360.0
  0
ARC
  5
4D8
100
AcDbEntity
  8
M0
100
AcDbCircle
 10
154.693088
 20
445.939831
 40
1.0
100
AcDbArc
 50
134.427281
 51
180.0
  0
LINE
  5
4D9
100
AcDbEntity
  8
M0
100
AcDbLine
 10
137.693088
 20
421.039831
 11
129.893088
 21
421.039831
  0
ARC
  5
4DA
100
AcDbEntity
  8
M0
100
AcDbCircle
 10
149.993088
 20
369.439831
 40
1.0
100
AcDbArc
 50
270.0
 51
360.0
  0
ARC
  5
4DB
100
AcDbEntity
  8
M0
100
AcDbCircle
 10
163.293088
 20
445.939831
 40
1.0
100
AcDbArc
 50
0.0
 51
45.573273
  0
LINE
  5
4DC
100
AcDbEntity
  8
M0
100
AcDbLine
 10
166.693089
 20
386.53983
 11
166.693089
 21
369.439831
  0
LINE
  5
4DD
100
AcDbEntity
  8
M0
100
AcDbLine
 10
151.29309
 20
438.439831
 11
151.29309
 21
421.339831
  0
LINE
  5
4DE
100
AcDbEntity
  8
M0
100
AcDbLine
 10
166.693089
 20
438.439831
 11
166.693089
 21
421.339831
  0
LINE
  5
4DF
100
AcDbEntity
  8
M0
100
AcDbLine
 10
164.293086
 20
369.439831
 11
164.293086
 21
386.53983
  0
LINE
  5
4E0
100
AcDbEntity
  8
M0
100
AcDbLine
 10
178.493088
 20
439.439832
 11
178.293088
 21
439.439832
  0
ARC
  5
4E1
100
AcDbEntity
  8
M0
100
AcDbCircle
 10
150.793088
 20
396.439831
 40
1.0
100
AcDbArc
 50
90.0
 51
180.0
  0
LINE
  5
4E2
100
AcDbEntity
  8
M0
100
AcDbLine
 10
153.693089
 20
369.439831
 11
153.693089
 21
386.53983
  0
LINE
  5
4E3
100
AcDbEntity
  8
M0
100
AcDbLine
 10
177.293086
 20
438.439832
 11
177.293086
 21
421.339831
  0
LINE
  5
4E4
100
AcDbEntity
  8
M0
100
AcDbLine
 10
189.193087
 20
424.03983
 11
189.093085
 21
424.03983
  0
LINE
  5
4E5
100
AcDbEntity
  8
M0
100
AcDbLine
 10
189.39309
 20
431.63983
 11
189.093085
 21
431.63983
  0
LINE
  5
4E6
100
AcDbEntity
  8
M0
100
AcDbLine
 10
128.793088
 20
424.03983
 11
128.893088
 21
424.03983
  0
LINE
  5
4E7
100
AcDbEntity
  8
M0
100
AcDbLine
 10
140.693087
 20
438.439832
 11
140.693087
 21
421.339831
  0
LINE
  5
4E8
100
AcDbEntity
  8
M0
100
AcDbLine
 10
164.293086
 20
371.439832
 11
164.293086
 21
372.43983
  0
LINE
  5
4E9
100
AcDbEntity
  8
M0
100
AcDbLine
 10
164.293086
 20
421.339831
 11
164.293086
 21
445.939831
  0
LINE
  5
4EA
100
AcDbEntity
  8
M0
100
AcDbLine
 10
189.093085
 20
376.239831
 11
189.39309
 21
376.239831
  0
LINE
  5
4EB
100
AcDbEntity
  8
M0
100
AcDbLine
 10
164.293086
 20
436.439831
 11
164.293086
 21
435.439831
  0
LINE
  5
4EC
100
AcDbEntity
  8
M0
100
AcDbLine
 10
167.893087
 20
421.63983
 11
166.693089
 21
421.63983
  0
LINE
  5
4ED
100
AcDbEntity
  8
M0
100
AcDbLine
 10
151.29309
 20
432.939832
 11
150.828503
 21
432.939832
  0
LINE
  5
4EE
100
AcDbEntity
  8
M0
100
AcDbLine
 10
154.893087
 20
386.239831
 11
153.693089
 21
386.239831
  0
LINE
  5
4EF
100
AcDbEntity
  8
M0
100
AcDbLine
 10
163.093088
 20
386.239831
 11
164.293086
 21
386.239831
  0
LINE
  5
4F0
100
AcDbEntity
  8
M0
100
AcDbLine
 10
180.293089
 20
386.83983
 11
188.09309
 21
386.83983
  0
LINE
  5
4F1
100
AcDbEntity
  8
M0
100
AcDbLine
 10
129.893088
 20
386.83983
 11
137.693088
 21
386.83983
  0
LINE
  5
4F2
100
AcDbEntity
  8
M0
100
AcDbLine
 10
150.093088
 20
421.63983
 11
151.29309
 21
421.63983
  0
LINE
  5
4F3
100
AcDbEntity
  8
M0
100
AcDbLine
 10
141.893087
 20
421.63983
 11
140.693087
 21
421.63983
  0
LINE
  5
4F4
100
AcDbEntity
  8
M0
100
AcDbLine
 10
136.793088
 20
379.239832
 11
136.793088
 21
378.239832
  0
LINE
  5
4F5
100
AcDbEntity
  8
M0
100
AcDbLine
 10
136.793088
 20
378.239832
 11
130.793088
 21
378.239832
  0
LINE
  5
4F6
100
AcDbEntity
  8
M0
100
AcDbLine
 10
175.71055
 20
447.857822
 11
175.711641
 21
447.821363
  0
LINE
  5
4F7
100
AcDbEntity
  8
M0
100
AcDbLine
 10
130.793088
 20
378.239832
 11
130.793088
 21
379.239832
  0
LINE
  5
4F8
100
AcDbEntity
  8
M0
100
AcDbLine
 10
130.793088
 20
429.639832
 11
136.793088
 21
429.639832
  0
LINE
  5
4F9
100
AcDbEntity
  8
M0
100
AcDbLine
 10
153.693089
 20
374.939832
 11
154.157668
 21
374.939832
  0
LINE
  5
4FA
100
AcDbEntity
  8
M0
100
AcDbLine
 10
136.793088
 20
429.639832
 11
136.793088
 21
428.639832
  0
LINE
  5
4FB
100
AcDbEntity
  8
M0
100
AcDbLine
 10
130.793088
 20
428.639832
 11
130.793088
 21
429.639832
  0
ARC
  5
4FC
100
AcDbEntity
  8
M0
100
AcDbCircle
 10
179.693088
 20
431.039831
 40
0.6
100
AcDbArc
 50
0.0
 51
90.0
  0
ARC
  5
4FD
100
AcDbEntity
  8
M0
100
AcDbCircle
 10
138.293088
 20
376.839831
 40
0.6
100
AcDbArc
 50
180.0
 51
270.0
  0
ARC
  5
4FE
100
AcDbEntity
  8
M0
100
AcDbCircle
 10
138.293088
 20
431.039831
 40
0.6
100
AcDbArc
 50
90.0
 51
180.0
  0
ARC
  5
4FF
100
AcDbEntity
  8
M0
100
AcDbCircle
 10
128.893088
 20
430.639831
 40
1.0
100
AcDbArc
 50
0.0
 51
90.0
  0
ARC
  5
500
100
AcDbEntity
  8
M0
100
AcDbCircle
 10
128.593088
 20
430.639831
 40
1.0
100
AcDbArc
 50
90.0
 51
180.0
  0
ARC
  5
501
100
AcDbEntity
  8
M0
100
AcDbCircle
 10
150.993088
 20
372.439831
 40
1.0
100
AcDbArc
 50
180.0
 51
270.0
  0
ARC
  5
502
100
AcDbEntity
  8
M0
100
AcDbCircle
 10
128.893088
 20
377.239831
 40
1.0
100
AcDbArc
 50
270.0
 51
360.0
  0
ARC
  5
503
100
AcDbEntity
  8
M0
100
AcDbCircle
 10
128.593088
 20
377.239831
 40
1.0
100
AcDbArc
 50
180.0
 51
270.0
  0
LINE
  5
504
100
AcDbEntity
  8
M0
100
AcDbLine
 10
181.193089
 20
429.639832
 11
187.19309
 21
429.639832
  0
ARC
  5
505
100
AcDbEntity
  8
M0
100
AcDbCircle
 10
189.393088
 20
377.239831
 40
1.0
100
AcDbArc
 50
270.0
 51
360.0
  0
LINE
  5
506
100
AcDbEntity
  8
M0
100
AcDbLine
 10
187.19309
 20
429.639832
 11
187.19309
 21
428.639832
  0
LINE
  5
507
100
AcDbEntity
  8
M0
100
AcDbLine
 10
181.193089
 20
428.639832
 11
181.193089
 21
429.639832
  0
ARC
  5
508
100
AcDbEntity
  8
M0
100
AcDbCircle
 10
189.093088
 20
430.639831
 40
1.0
100
AcDbArc
 50
90.0
 51
180.0
  0
ARC
  5
509
100
AcDbEntity
  8
M0
100
AcDbCircle
 10
189.093088
 20
377.239831
 40
1.0
100
AcDbArc
 50
180.0
 51
270.0
  0
ARC
  5
50A
100
AcDbEntity
  8
M0
100
AcDbCircle
 10
189.393088
 20
430.639831
 40
1.0
100
AcDbArc
 50
0.0
 51
90.0
  0
ARC
  5
50B
100
AcDbEntity
  8
M0
100
AcDbCircle
 10
179.693088
 20
376.839831
 40
0.6
100
AcDbArc
 50
270.0
 51
360.0
  0
LINE
  5
50C
100
AcDbEntity
  8
M0
100
AcDbLine
 10
157.793088
 20
417.739831
 11
157.793088
 21
416.13983
  0
LINE
  5
50D
100
AcDbEntity
  8
M0
100
AcDbLine
 10
160.193087
 20
416.13983
 11
157.793088
 21
416.13983
  0
LINE
  5
50E
100
AcDbEntity
  8
M0
100
AcDbLine
 10
137.493087
 20
401.439831
 11
139.293088
 21
401.439831
  0
LINE
  5
50F
100
AcDbEntity
  8
M0
100
AcDbLine
 10
138.493087
 20
406.439831
 11
139.293088
 21
406.439831
  0
LINE
  5
510
100
AcDbEntity
  8
M0
100
AcDbLine
 10
129.743088
 20
431.939832
 11
129.743088
 21
433.93983
  0
LINE
  5
511
100
AcDbEntity
  8
M0
100
AcDbLine
 10
134.243088
 20
433.93983
 11
134.243088
 21
431.939832
  0
LINE
  5
512
100
AcDbEntity
  8
M0
100
AcDbLine
 10
180.493088
 20
401.439831
 11
178.693088
 21
401.439831
  0
LINE
  5
513
100
AcDbEntity
  8
M0
100
AcDbLine
 10
178.693088
 20
400.439831
 11
178.693088
 21
401.439831
  0
LINE
  5
514
100
AcDbEntity
  8
M0
100
AcDbLine
 10
164.293086
 20
416.13983
 11
167.893087
 21
416.13983
  0
LINE
  5
515
100
AcDbEntity
  8
M0
100
AcDbLine
 10
160.193087
 20
417.739831
 11
160.193087
 21
416.13983
  0
LINE
  5
516
100
AcDbEntity
  8
M0
100
AcDbLine
 10
180.293089
 20
379.239832
 11
181.193089
 21
379.239832
  0
LINE
  5
517
100
AcDbEntity
  8
M0
100
AcDbLine
 10
168.393088
 20
392.239831
 11
168.393088
 21
415.639831
  0
LINE
  5
518
100
AcDbEntity
  8
M0
100
AcDbLine
 10
139.293088
 20
407.439831
 11
139.293088
 21
406.439831
  0
LINE
  5
519
100
AcDbEntity
  8
M0
100
AcDbLine
 10
178.693088
 20
407.439831
 11
178.693088
 21
406.439831
  0
LINE
  5
51A
100
AcDbEntity
  8
M0
100
AcDbLine
 10
160.193087
 20
417.739831
 11
157.793088
 21
417.739831
  0
LINE
  5
51B
100
AcDbEntity
  8
M0
100
AcDbLine
 10
163.293088
 20
415.139831
 11
154.693088
 21
415.139831
  0
LINE
  5
51C
100
AcDbEntity
  8
M0
100
AcDbLine
 10
164.393088
 20
438.87572
 11
164.393088
 21
447.439829
  0
LINE
  5
51D
100
AcDbEntity
  8
M0
100
AcDbLine
 10
180.493088
 20
402.439831
 11
180.993089
 21
402.439831
  0
LINE
  5
51E
100
AcDbEntity
  8
M0
100
AcDbLine
 10
147.439157
 20
438.439832
 11
151.29309
 21
438.439832
  0
LINE
  5
51F
100
AcDbEntity
  8
M0
100
AcDbLine
 10
151.29309
 20
436.939831
 11
147.957698
 21
436.939831
  0
LINE
  5
520
100
AcDbEntity
  8
M0
100
AcDbLine
 10
152.093088
 20
446.939832
 11
143.793087
 21
446.939832
  0
LINE
  5
521
100
AcDbEntity
  8
M0
100
AcDbLine
 10
170.028478
 20
436.939831
 11
166.693089
 21
436.939831
  0
LINE
  5
522
100
AcDbEntity
  8
M0
100
AcDbLine
 10
165.893087
 20
447.439829
 11
165.893087
 21
439.419626
  0
LINE
  5
523
100
AcDbEntity
  8
M0
100
AcDbLine
 10
174.193086
 20
446.939832
 11
165.893087
 21
446.939832
  0
LINE
  5
524
100
AcDbEntity
  8
M0
100
AcDbLine
 10
183.743091
 20
375.93983
 11
183.743091
 21
373.93983
  0
LINE
  5
525
100
AcDbEntity
  8
M0
100
AcDbLine
 10
179.693086
 20
374.439831
 11
181.693086
 21
374.439831
  0
LINE
  5
526
100
AcDbEntity
  8
M0
100
AcDbLine
 10
127.593088
 20
373.439832
 11
127.593088
 21
434.439831
  0
LINE
  5
527
100
AcDbEntity
  8
M0
100
AcDbLine
 10
188.243085
 20
373.93983
 11
188.243085
 21
375.93983
  0
LINE
  5
528
100
AcDbEntity
  8
M0
100
AcDbLine
 10
136.293087
 20
374.439831
 11
138.293087
 21
374.439831
  0
LINE
  5
529
100
AcDbEntity
  8
M0
100
AcDbLine
 10
185.393089
 20
368.43983
 11
178.293088
 21
368.43983
  0
LINE
  5
52A
100
AcDbEntity
  8
M0
100
AcDbLine
 10
181.693086
 20
374.439831
 11
181.693086
 21
378.239832
  0
LINE
  5
52B
100
AcDbEntity
  8
M0
100
AcDbLine
 10
136.293087
 20
378.239832
 11
136.293087
 21
374.439831
  0
ARC
  5
52C
100
AcDbEntity
  8
M0
100
AcDbCircle
 10
164.293088
 20
415.639831
 40
0.5
100
AcDbArc
 50
90.0
 51
180.0
  0
ARC
  5
52D
100
AcDbEntity
  8
M0
100
AcDbCircle
 10
178.693088
 20
387.539831
 40
1.0
100
AcDbArc
 50
270.0
 51
360.0
  0
ARC
  5
52E
100
AcDbEntity
  8
M0
100
AcDbCircle
 10
154.693088
 20
415.639831
 40
0.5
100
AcDbArc
 50
180.0
 51
270.0
  0
ARC
  5
52F
100
AcDbEntity
  8
M0
100
AcDbCircle
 10
167.893088
 20
415.639831
 40
0.5
100
AcDbArc
 50
0.0
 51
90.0
  0
ARC
  5
530
100
AcDbEntity
  8
M0
100
AcDbCircle
 10
161.243088
 20
407.739831
 40
0.5
100
AcDbArc
 50
90.0
 51
180.0
  0
ARC
  5
531
100
AcDbEntity
  8
M0
100
AcDbCircle
 10
163.793088
 20
407.739831
 40
0.5
100
AcDbArc
 50
0.0
 51
90.0
  0
ARC
  5
532
100
AcDbEntity
  8
M0
100
AcDbCircle
 10
178.693088
 20
420.339831
 40
1.0
100
AcDbArc
 50
0.0
 51
90.0
  0
ARC
  5
533
100
AcDbEntity
  8
M0
100
AcDbCircle
 10
163.793088
 20
399.539831
 40
0.5
100
AcDbArc
 50
270.0
 51
360.0
  0
LINE
  5
534
100
AcDbEntity
  8
M0
100
AcDbLine
 10
180.493088
 20
401.439831
 11
180.493088
 21
406.439831
  0
LINE
  5
535
100
AcDbEntity
  8
M0
100
AcDbLine
 10
179.693086
 20
407.439831
 11
178.693088
 21
407.439831
  0
LINE
  5
536
100
AcDbEntity
  8
M0
100
AcDbLine
 10
179.693086
 20
400.439831
 11
178.693088
 21
400.439831
  0
LINE
  5
537
100
AcDbEntity
  8
M0
100
AcDbLine
 10
178.693088
 20
386.53983
 11
139.293088
 21
386.53983
  0
LINE
  5
538
100
AcDbEntity
  8
M0
100
AcDbLine
 10
143.793087
 20
447.839833
 11
143.793087
 21
444.37373
  0
ARC
  5
539
100
AcDbEntity
  8
M0
100
AcDbCircle
 10
163.293088
 20
415.639831
 40
0.5
100
AcDbArc
 50
270.0
 51
360.0
  0
LINE
  5
53A
100
AcDbEntity
  8
M0
100
AcDbLine
 10
180.193087
 20
371.439832
 11
181.193089
 21
371.439832
  0
LINE
  5
53B
100
AcDbEntity
  8
M0
100
AcDbLine
 10
142.875358
 20
448.439831
 11
143.193088
 21
448.439831
  0
LINE
  5
53C
100
AcDbEntity
  8
M0
100
AcDbLine
 10
189.193087
 20
431.63983
 11
189.093085
 21
431.63983
  0
LINE
  5
53D
100
AcDbEntity
  8
M0
100
AcDbLine
 10
188.09309
 20
428.639832
 11
187.19309
 21
428.639832
  0
LINE
  5
53E
100
AcDbEntity
  8
M0
100
AcDbLine
 10
146.825379
 20
368.43983
 11
149.993088
 21
368.43983
  0
LINE
  5
53F
100
AcDbEntity
  8
M0
100
AcDbLine
 10
129.893088
 20
428.639832
 11
130.793088
 21
428.639832
  0
LINE
  5
540
100
AcDbEntity
  8
M0
100
AcDbLine
 10
136.793088
 20
428.639832
 11
137.693088
 21
428.639832
  0
LINE
  5
541
100
AcDbEntity
  8
M0
100
AcDbLine
 10
187.19309
 20
379.239832
 11
188.09309
 21
379.239832
  0
LINE
  5
542
100
AcDbEntity
  8
M0
100
AcDbLine
 10
189.193087
 20
376.239831
 11
189.093085
 21
376.239831
  0
LINE
  5
543
100
AcDbEntity
  8
M0
100
AcDbLine
 10
181.193089
 20
428.639832
 11
180.293089
 21
428.639832
  0
ARC
  5
544
100
AcDbEntity
  8
M0
100
AcDbCircle
 10
154.193088
 20
407.739831
 40
0.5
100
AcDbArc
 50
90.0
 51
180.0
  0
ARC
  5
545
100
AcDbEntity
  8
M0
100
AcDbCircle
 10
164.893088
 20
447.439831
 40
1.0
100
AcDbArc
 50
0.0
 51
90.0
  0
ARC
  5
546
100
AcDbEntity
  8
M0
100
AcDbCircle
 10
154.193088
 20
399.539831
 40
0.5
100
AcDbArc
 50
180.0
 51
270.0
  0
ARC
  5
547
100
AcDbEntity
  8
M0
100
AcDbCircle
 10
156.743088
 20
407.739831
 40
0.5
100
AcDbArc
 50
0.0
 51
90.0
  0
LINE
  5
548
100
AcDbEntity
  8
M0
100
AcDbLine
 10
137.693088
 20
379.239832
 11
136.793088
 21
379.239832
  0
LINE
  5
549
100
AcDbEntity
  8
M0
100
AcDbLine
 10
128.793088
 20
376.239831
 11
128.893088
 21
376.239831
  0
LINE
  5
54A
100
AcDbEntity
  8
M0
100
AcDbLine
 10
128.793088
 20
431.63983
 11
128.893088
 21
431.63983
  0
LINE
  5
54B
100
AcDbEntity
  8
M0
100
AcDbLine
 10
130.793088
 20
379.239832
 11
129.893088
 21
379.239832
  0
LINE
  5
54C
100
AcDbEntity
  8
M0
100
AcDbLine
 10
138.293087
 20
369.439831
 11
138.293087
 21
400.439831
  0
LINE
  5
54D
100
AcDbEntity
  8
M0
100
AcDbLine
 10
138.293087
 20
400.439831
 11
139.293088
 21
400.439831
  0
LINE
  5
54E
100
AcDbEntity
  8
M0
100
AcDbLine
 10
136.993088
 20
405.439831
 11
137.493087
 21
405.439831
  0
LINE
  5
54F
100
AcDbEntity
  8
M0
100
AcDbLine
 10
138.293087
 20
407.439831
 11
139.293088
 21
407.439831
  0
LINE
  5
550
100
AcDbEntity
  8
M0
100
AcDbLine
 10
163.993088
 20
368.43983
 11
162.093084
 21
368.43983
  0
LINE
  5
551
100
AcDbEntity
  8
M0
100
AcDbLine
 10
163.993088
 20
370.939831
 11
163.993088
 21
371.439832
  0
LINE
  5
552
100
AcDbEntity
  8
M0
100
AcDbLine
 10
137.493087
 20
401.439831
 11
137.493087
 21
406.439831
  0
LINE
  5
553
100
AcDbEntity
  8
M0
100
AcDbLine
 10
153.993087
 20
371.439832
 11
153.993087
 21
370.939831
  0
LINE
  5
554
100
AcDbEntity
  8
M0
100
AcDbLine
 10
180.993089
 20
405.439831
 11
180.493088
 21
405.439831
  0
LINE
  5
555
100
AcDbEntity
  8
M0
100
AcDbLine
 10
138.493087
 20
406.439831
 11
137.493087
 21
406.439831
  0
LINE
  5
556
100
AcDbEntity
  8
M0
100
AcDbLine
 10
137.793088
 20
373.439832
 11
136.793088
 21
373.439832
  0
LINE
  5
557
100
AcDbEntity
  8
M0
100
AcDbLine
 10
136.793088
 20
371.439832
 11
137.793088
 21
371.439832
  0
LINE
  5
558
100
AcDbEntity
  8
M0
100
AcDbLine
 10
154.493088
 20
370.43983
 11
155.893084
 21
370.43983
  0
LINE
  5
559
100
AcDbEntity
  8
M0
100
AcDbLine
 10
136.993088
 20
402.439831
 11
136.993088
 21
405.439831
  0
LINE
  5
55A
100
AcDbEntity
  8
M0
100
AcDbLine
 10
180.993089
 20
402.439831
 11
180.993089
 21
405.439831
  0
LINE
  5
55B
100
AcDbEntity
  8
M0
100
AcDbLine
 10
137.493087
 20
402.439831
 11
136.993088
 21
402.439831
  0
LINE
  5
55C
100
AcDbEntity
  8
M0
100
AcDbLine
 10
153.693089
 20
416.13983
 11
150.093088
 21
416.13983
  0
LINE
  5
55D
100
AcDbEntity
  8
M0
100
AcDbLine
 10
180.493088
 20
406.439831
 11
178.693088
 21
406.439831
  0
LINE
  5
55E
100
AcDbEntity
  8
M0
100
AcDbLine
 10
138.293087
 20
407.439831
 11
137.693088
 21
407.439831
  0
LINE
  5
55F
100
AcDbEntity
  8
M0
100
AcDbLine
 10
138.562318
 20
407.439831
 11
138.562318
 21
406.439831
  0
LINE
  5
560
100
AcDbEntity
  8
M0
100
AcDbLine
 10
167.893087
 20
391.739831
 11
150.093088
 21
391.739831
  0
LINE
  5
561
100
AcDbEntity
  8
M0
  6
DASHDOT
100
AcDbLine
 10
158.993088
 20
455.939831
 11
158.993088
 21
351.939831
  0
LINE
  5
562
100
AcDbEntity
  8
M0
100
AcDbLine
 10
178.693088
 20
421.339831
 11
139.293088
 21
421.339831
  0
LINE
  5
563
100
AcDbEntity
  8
M0
100
AcDbLine
 10
149.593089
 20
392.239831
 11
149.593089
 21
415.639831
  0
LINE
  5
564
100
AcDbEntity
  8
M0
100
AcDbLine
 10
179.693086
 20
407.439831
 11
180.293089
 21
407.439831
  0
LINE
  5
565
100
AcDbEntity
  8
M0
100
AcDbLine
 10
179.423856
 20
407.439831
 11
179.423856
 21
406.439831
  0
LINE
  5
566
100
AcDbEntity
  8
M0
100
AcDbLine
 10
175.110819
 20
448.439831
 11
174.793089
 21
448.439831
  0
LINE
  5
567
100
AcDbEntity
  8
M0
100
AcDbLine
 10
174.193086
 20
444.373727
 11
174.193086
 21
447.839833
  0
LINE
  5
568
100
AcDbEntity
  8
M0
100
AcDbLine
 10
138.293087
 20
400.439831
 11
137.693088
 21
400.439831
  0
LINE
  5
569
100
AcDbEntity
  8
M0
100
AcDbLine
 10
138.562318
 20
400.439831
 11
138.562318
 21
401.439831
  0
LINE
  5
56A
100
AcDbEntity
  8
M0
100
AcDbLine
 10
179.693086
 20
400.439831
 11
180.293089
 21
400.439831
  0
LINE
  5
56B
100
AcDbEntity
  8
M0
100
AcDbLine
 10
179.423856
 20
400.439831
 11
179.423856
 21
401.439831
  0
ARC
  5
56C
100
AcDbEntity
  8
M0
100
AcDbCircle
 10
185.393088
 20
373.439831
 40
5.0
100
AcDbArc
 50
270.0
 51
360.0
  0
ARC
  5
56D
100
AcDbEntity
  8
M0
100
AcDbCircle
 10
185.993088
 20
375.939831
 40
2.25
100
AcDbArc
 50
0.0
 51
180.0
  0
ARC
  5
56E
100
AcDbEntity
  8
M0
100
AcDbCircle
 10
180.493088
 20
400.639831
 40
0.5
100
AcDbArc
 50
203.578178
 51
246.421822
  0
ARC
  5
56F
100
AcDbEntity
  8
M0
100
AcDbCircle
 10
137.493088
 20
400.639831
 40
0.5
100
AcDbArc
 50
293.578178
 51
336.421822
  0
ARC
  5
570
100
AcDbEntity
  8
M0
100
AcDbCircle
 10
138.993088
 20
438.439831
 40
1.0
100
AcDbArc
 50
81.373073
 51
90.0
  0
ARC
  5
571
100
AcDbEntity
  8
M0
100
AcDbCircle
 10
185.993088
 20
373.939831
 40
2.25
100
AcDbArc
 50
180.0
 51
360.0
  0
ARC
  5
572
100
AcDbEntity
  8
M0
100
AcDbCircle
 10
137.793088
 20
371.939831
 40
0.5
100
AcDbArc
 50
270.0
 51
360.0
  0
ARC
  5
573
100
AcDbEntity
  8
M0
100
AcDbCircle
 10
185.393088
 20
434.439831
 40
5.0
100
AcDbArc
 50
0.0
 51
90.0
  0
LINE
  5
574
100
AcDbEntity
  8
M0
100
AcDbLine
 10
161.493087
 20
408.417298
 11
161.493087
 21
408.239831
  0
LINE
  5
575
100
AcDbEntity
  8
M0
100
AcDbLine
 10
161.493087
 20
398.939831
 11
161.493087
 21
399.039831
  0
LINE
  5
576
100
AcDbEntity
  8
M0
100
AcDbLine
 10
166.693089
 20
438.439832
 11
170.546213
 21
438.439832
  0
LINE
  5
577
100
AcDbEntity
  8
M0
100
AcDbLine
 10
181.693086
 20
371.939829
 11
181.693086
 21
372.939831
  0
ARC
  5
578
100
AcDbEntity
  8
M0
100
AcDbCircle
 10
164.893088
 20
447.939831
 40
0.5
100
AcDbArc
 50
90.0
 51
180.0
  0
ARC
  5
579
100
AcDbEntity
  8
M0
100
AcDbCircle
 10
153.093088
 20
447.939831
 40
0.5
100
AcDbArc
 50
0.0
 51
90.0
  0
LINE
  5
57A
100
AcDbEntity
  8
M0
100
AcDbLine
 10
156.493088
 20
408.417298
 11
156.493088
 21
408.239831
  0
ARC
  5
57B
100
AcDbEntity
  8
M0
100
AcDbCircle
 10
153.093088
 20
447.439831
 40
1.0
100
AcDbArc
 50
90.0
 51
180.0
  0
ARC
  5
57C
100
AcDbEntity
  8
M0
100
AcDbCircle
 10
131.993088
 20
433.939831
 40
2.25
100
AcDbArc
 50
0.0
 51
180.0
  0
ARC
  5
57D
100
AcDbEntity
  8
M0
100
AcDbCircle
 10
166.643088
 20
439.289831
 40
0.5
100
AcDbArc
 50
268.473851
 51
270.0
  0
ARC
  5
57E
100
AcDbEntity
  8
M0
100
AcDbCircle
 10
132.593088
 20
373.439831
 40
5.0
100
AcDbArc
 50
180.0
 51
270.0
  0
ARC
  5
57F
100
AcDbEntity
  8
M0
100
AcDbCircle
 10
131.993088
 20
431.939831
 40
2.25
100
AcDbArc
 50
180.0
 51
360.0
  0
LINE
  5
580
100
AcDbEntity
  8
M0
100
AcDbLine
 10
136.293087
 20
372.939831
 11
136.293087
 21
371.939829
  0
LINE
  5
581
100
AcDbEntity
  8
M0
100
AcDbLine
 10
181.193089
 20
373.439832
 11
180.193087
 21
373.439832
  0
CIRCLE
  5
582
100
AcDbEntity
  8
M0
100
AcDbCircle
 10
186.493088
 20
433.939831
 40
2.25
  0
CIRCLE
  5
583
100
AcDbEntity
  8
M0
100
AcDbCircle
 10
131.493088
 20
373.939831
 40
2.25
  0
ARC
  5
584
100
AcDbEntity
  8
M0
100
AcDbCircle
 10
181.193088
 20
371.939831
 40
0.5
100
AcDbArc
 50
270.0
 51
360.0
  0
ARC
  5
585
100
AcDbEntity
  8
M0
100
AcDbCircle
 10
136.793088
 20
372.939831
 40
0.5
100
AcDbArc
 50
90.0
 51
180.0
  0
ARC
  5
586
100
AcDbEntity
  8
M0
100
AcDbCircle
 10
178.993088
 20
438.439831
 40
1.0
100
AcDbArc
 50
90.0
 51
98.626927
  0
ARC
  5
587
100
AcDbEntity
  8
M0
100
AcDbCircle
 10
180.193088
 20
372.939831
 40
0.5
100
AcDbArc
 50
90.0
 51
180.0
  0
ARC
  5
588
100
AcDbEntity
  8
M0
100
AcDbCircle
 10
136.793088
 20
371.939831
 40
0.5
100
AcDbArc
 50
180.0
 51
270.0
  0
ARC
  5
589
100
AcDbEntity
  8
M0
100
AcDbCircle
 10
132.593088
 20
434.439831
 40
5.0
100
AcDbArc
 50
90.0
 51
180.0
  0
ARC
  5
58A
100
AcDbEntity
  8
M0
100
AcDbCircle
 10
137.793088
 20
372.939831
 40
0.5
100
AcDbArc
 50
0.0
 51
90.0
  0
LINE
  5
58B
100
AcDbEntity
  8
M0
100
AcDbLine
 10
153.943086
 20
410.039831
 11
164.043089
 21
410.039831
  0
LINE
  5
58C
100
AcDbEntity
  8
M0
100
AcDbLine
 10
164.543087
 20
408.539831
 11
153.443089
 21
408.539831
  0
LINE
  5
58D
100
AcDbEntity
  8
M0
100
AcDbLine
 10
128.893088
 20
407.639831
 11
128.593088
 21
407.639831
  0
LINE
  5
58E
100
AcDbEntity
  8
M0
100
AcDbLine
 10
164.043089
 20
413.439831
 11
153.943086
 21
413.439831
  0
LINE
  5
58F
100
AcDbEntity
  8
M0
100
AcDbLine
 10
149.793088
 20
396.43983
 11
149.793088
 21
410.039831
  0
LINE
  5
590
100
AcDbEntity
  8
M0
100
AcDbLine
 10
150.793089
 20
415.939831
 11
152.293088
 21
415.939831
  0
LINE
  5
591
100
AcDbEntity
  8
M0
100
AcDbLine
 10
153.943086
 20
414.939831
 11
164.043089
 21
414.939831
  0
LINE
  5
592
100
AcDbEntity
  8
M0
100
AcDbLine
 10
150.793089
 20
391.939831
 11
151.29309
 21
391.939831
  0
LINE
  5
593
100
AcDbEntity
  8
M0
100
AcDbLine
 10
129.893088
 20
413.239831
 11
138.293087
 21
413.239831
  0
LINE
  5
594
100
AcDbEntity
  8
M0
100
AcDbLine
 10
180.293089
 20
407.939831
 11
180.293089
 21
406.939831
  0
LINE
  5
595
100
AcDbEntity
  8
M0
100
AcDbLine
 10
180.593086
 20
406.939831
 11
180.593086
 21
405.439831
  0
LINE
  5
596
100
AcDbEntity
  8
M0
100
AcDbLine
 10
180.293089
 20
400.939831
 11
180.593086
 21
400.939831
  0
LINE
  5
597
100
AcDbEntity
  8
M0
100
AcDbLine
 10
128.893088
 20
383.839831
 11
128.593088
 21
383.839831
  0
LINE
  5
598
100
AcDbEntity
  8
M0
100
AcDbLine
 10
178.793089
 20
401.439831
 11
178.793089
 21
400.439831
  0
LINE
  5
599
100
AcDbEntity
  8
M0
100
AcDbLine
 10
180.293089
 20
400.939831
 11
180.293089
 21
399.939831
  0
LINE
  5
59A
100
AcDbEntity
  8
M0
100
AcDbLine
 10
129.893088
 20
430.639831
 11
129.893088
 21
408.639831
  0
LINE
  5
59B
100
AcDbEntity
  8
M0
100
AcDbLine
 10
181.693086
 20
399.939831
 11
181.693086
 21
407.939831
  0
LINE
  5
59C
100
AcDbEntity
  8
M0
100
AcDbLine
 10
189.39309
 20
407.639831
 11
189.39309
 21
400.239831
  0
LINE
  5
59D
100
AcDbEntity
  8
M0
100
AcDbLine
 10
128.593088
 20
400.239831
 11
128.893088
 21
400.239831
  0
LINE
  5
59E
100
AcDbEntity
  8
M0
100
AcDbLine
 10
179.693086
 20
399.939831
 11
181.693086
 21
399.939831
  0
LINE
  5
59F
100
AcDbEntity
  8
M0
100
AcDbLine
 10
152.693087
 20
385.039831
 11
153.693089
 21
385.039831
  0
LINE
  5
5A0
100
AcDbEntity
  8
M0
100
AcDbLine
 10
152.293088
 20
385.039831
 11
152.693087
 21
385.039831
  0
LINE
  5
5A1
100
AcDbEntity
  8
M0
100
AcDbLine
 10
152.293088
 20
439.439832
 11
152.693087
 21
439.439832
  0
LINE
  5
5A2
100
AcDbEntity
  8
M0
100
AcDbLine
 10
188.09309
 20
399.239831
 11
188.09309
 21
377.239831
  0
LINE
  5
5A3
100
AcDbEntity
  8
M0
100
AcDbLine
 10
178.793089
 20
407.439831
 11
178.793089
 21
406.439831
  0
LINE
  5
5A4
100
AcDbEntity
  8
M0
100
AcDbLine
 10
185.093084
 20
407.639831
 11
188.09309
 21
407.639831
  0
LINE
  5
5A5
100
AcDbEntity
  8
M0
100
AcDbLine
 10
185.093084
 20
400.239831
 11
185.093084
 21
407.639831
  0
LINE
  5
5A6
100
AcDbEntity
  8
M0
100
AcDbLine
 10
179.693086
 20
407.939831
 11
181.693086
 21
407.939831
  0
LINE
  5
5A7
100
AcDbEntity
  8
M0
100
AcDbLine
 10
188.09309
 20
407.639831
 11
188.09309
 21
400.239831
  0
LINE
  5
5A8
100
AcDbEntity
  8
M0
100
AcDbLine
 10
128.593088
 20
424.03983
 11
128.893088
 21
424.03983
  0
LINE
  5
5A9
100
AcDbEntity
  8
M0
100
AcDbLine
 10
128.593088
 20
407.639831
 11
128.593088
 21
400.239831
  0
LINE
  5
5AA
100
AcDbEntity
  8
M0
100
AcDbLine
 10
188.09309
 20
400.239831
 11
185.093084
 21
400.239831
  0
ARC
  5
5AB
100
AcDbEntity
  8
M0
100
AcDbCircle
 10
178.293088
 20
369.439831
 40
1.0
100
AcDbArc
 50
180.0
 51
270.0
  0
ARC
  5
5AC
100
AcDbEntity
  8
M0
100
AcDbCircle
 10
178.693088
 20
369.439831
 40
1.0
100
AcDbArc
 50
270.0
 51
360.0
  0
ARC
  5
5AD
100
AcDbEntity
  8
M0
100
AcDbCircle
 10
139.693088
 20
438.439831
 40
1.0
100
AcDbArc
 50
0.0
 51
90.0
  0
ARC
  5
5AE
100
AcDbEntity
  8
M0
100
AcDbCircle
 10
178.693088
 20
438.439831
 40
1.0
100
AcDbArc
 50
0.0
 51
90.0
  0
ARC
  5
5AF
100
AcDbEntity
  8
M0
100
AcDbCircle
 10
165.693088
 20
438.439831
 40
1.0
100
AcDbArc
 50
0.0
 51
90.0
  0
ARC
  5
5B0
100
AcDbEntity
  8
M0
100
AcDbCircle
 10
152.693088
 20
369.439831
 40
1.0
100
AcDbArc
 50
270.0
 51
360.0
  0
ARC
  5
5B1
100
AcDbEntity
  8
M0
100
AcDbCircle
 10
165.693088
 20
369.439831
 40
1.0
100
AcDbArc
 50
270.0
 51
360.0
  0
ARC
  5
5B2
100
AcDbEntity
  8
M0
100
AcDbCircle
 10
178.293088
 20
438.439831
 40
1.0
100
AcDbArc
 50
90.0
 51
180.0
  0
LINE
  5
5B3
100
AcDbEntity
  8
M0
100
AcDbLine
 10
166.693089
 20
422.839831
 11
164.293086
 21
422.839831
  0
LINE
  5
5B4
100
AcDbEntity
  8
M0
100
AcDbLine
 10
188.09309
 20
413.239831
 11
179.693086
 21
413.239831
  0
LINE
  5
5B5
100
AcDbEntity
  8
M0
100
AcDbLine
 10
165.293088
 20
368.43983
 11
165.693087
 21
368.43983
  0
LINE
  5
5B6
100
AcDbEntity
  8
M0
100
AcDbLine
 10
166.693089
 20
385.039831
 11
165.693087
 21
385.039831
  0
ARC
  5
5B7
100
AcDbEntity
  8
M0
100
AcDbCircle
 10
139.293088
 20
438.439831
 40
1.0
100
AcDbArc
 50
90.0
 51
180.0
  0
ARC
  5
5B8
100
AcDbEntity
  8
M0
100
AcDbCircle
 10
152.293088
 20
369.439831
 40
1.0
100
AcDbArc
 50
180.0
 51
270.0
  0
ARC
  5
5B9
100
AcDbEntity
  8
M0
100
AcDbCircle
 10
138.293088
 20
384.439831
 40
0.6
100
AcDbArc
 50
180.0
 51
270.0
  0
ARC
  5
5BA
100
AcDbEntity
  8
M0
100
AcDbCircle
 10
139.693088
 20
369.439831
 40
1.0
100
AcDbArc
 50
270.0
 51
360.0
  0
LINE
  5
5BB
100
AcDbEntity
  8
M0
100
AcDbLine
 10
137.693088
 20
400.939831
 11
137.393087
 21
400.939831
  0
LINE
  5
5BC
100
AcDbEntity
  8
M0
100
AcDbLine
 10
137.393087
 20
406.939831
 11
137.393087
 21
405.439831
  0
LINE
  5
5BD
100
AcDbEntity
  8
M0
100
AcDbLine
 10
138.293087
 20
394.639831
 11
129.893088
 21
394.639831
  0
LINE
  5
5BE
100
AcDbEntity
  8
M0
100
AcDbLine
 10
137.693088
 20
400.939831
 11
137.693088
 21
399.939831
  0
LINE
  5
5BF
100
AcDbEntity
  8
M0
100
AcDbLine
 10
180.593086
 20
406.939831
 11
180.293089
 21
406.939831
  0
LINE
  5
5C0
100
AcDbEntity
  8
M0
100
AcDbLine
 10
179.693086
 20
394.639831
 11
188.09309
 21
394.639831
  0
LINE
  5
5C1
100
AcDbEntity
  8
M0
100
AcDbLine
 10
137.393087
 20
402.439831
 11
137.393087
 21
400.939831
  0
LINE
  5
5C2
100
AcDbEntity
  8
M0
100
AcDbLine
 10
180.593086
 20
402.439831
 11
180.593086
 21
400.939831
  0
ARC
  5
5C3
100
AcDbEntity
  8
M0
100
AcDbCircle
 10
165.293088
 20
438.439831
 40
1.0
100
AcDbArc
 50
90.0
 51
180.0
  0
LINE
  5
5C4
100
AcDbEntity
  8
M0
100
AcDbLine
 10
137.693088
 20
407.939831
 11
137.693088
 21
406.939831
  0
ARC
  5
5C5
100
AcDbEntity
  8
M0
100
AcDbCircle
 10
152.693088
 20
438.439831
 40
1.0
100
AcDbArc
 50
0.0
 51
90.0
  0
ARC
  5
5C6
100
AcDbEntity
  8
M0
100
AcDbCircle
 10
165.293088
 20
369.439831
 40
1.0
100
AcDbArc
 50
180.0
 51
270.0
  0
LINE
  5
5C7
100
AcDbEntity
  8
M0
100
AcDbLine
 10
139.693087
 20
368.43983
 11
139.493087
 21
368.43983
  0
LINE
  5
5C8
100
AcDbEntity
  8
M0
100
AcDbLine
 10
137.393087
 20
406.939831
 11
137.693088
 21
406.939831
  0
LINE
  5
5C9
100
AcDbEntity
  8
M0
100
AcDbLine
 10
168.393088
 20
409.239831
 11
168.193089
 21
409.239831
  0
LINE
  5
5CA
100
AcDbEntity
  8
M0
100
AcDbLine
 10
139.493087
 20
439.439832
 11
139.693087
 21
439.439832
  0
LINE
  5
5CB
100
AcDbEntity
  8
M0
100
AcDbLine
 10
161.493087
 20
408.417298
 11
161.493087
 21
408.539831
  0
LINE
  5
5CC
100
AcDbEntity
  8
M0
100
AcDbLine
 10
156.493088
 20
398.939831
 11
156.493088
 21
399.039831
  0
LINE
  5
5CD
100
AcDbEntity
  8
M0
100
AcDbLine
 10
155.193089
 20
399.039831
 11
155.193089
 21
398.939831
  0
LINE
  5
5CE
100
AcDbEntity
  8
M0
100
AcDbLine
 10
153.693089
 20
398.939831
 11
153.693089
 21
399.539831
  0
LINE
  5
5CF
100
AcDbEntity
  8
M0
100
AcDbLine
 10
153.193088
 20
405.139831
 11
153.693089
 21
405.139831
  0
LINE
  5
5D0
100
AcDbEntity
  8
M0
100
AcDbLine
 10
164.293086
 20
398.939831
 11
164.293086
 21
399.539831
  0
LINE
  5
5D1
100
AcDbEntity
  8
M0
100
AcDbLine
 10
137.693088
 20
400.139831
 11
138.293087
 21
400.139831
  0
LINE
  5
5D2
100
AcDbEntity
  8
M0
100
AcDbLine
 10
156.493088
 20
408.417298
 11
156.493088
 21
408.539831
  0
LINE
  5
5D3
100
AcDbEntity
  8
M0
100
AcDbLine
 10
163.793089
 20
408.239831
 11
161.243087
 21
408.239831
  0
LINE
  5
5D4
100
AcDbEntity
  8
M0
100
AcDbLine
 10
163.793089
 20
399.039831
 11
154.193086
 21
399.039831
  0
LINE
  5
5D5
100
AcDbEntity
  8
M0
100
AcDbLine
 10
149.593089
 20
408.239831
 11
149.793088
 21
408.239831
  0
LINE
  5
5D6
100
AcDbEntity
  8
M0
100
AcDbLine
 10
157.243086
 20
400.539831
 11
160.743089
 21
400.539831
  0
LINE
  5
5D7
100
AcDbEntity
  8
M0
100
AcDbLine
 10
160.743089
 20
407.739831
 11
160.743089
 21
400.539831
  0
LINE
  5
5D8
100
AcDbEntity
  8
M0
100
AcDbLine
 10
180.293089
 20
400.139831
 11
179.693086
 21
400.139831
  0
LINE
  5
5D9
100
AcDbEntity
  8
M0
100
AcDbLine
 10
154.193086
 20
408.239831
 11
156.743089
 21
408.239831
  0
LINE
  5
5DA
100
AcDbEntity
  8
M0
100
AcDbLine
 10
157.243086
 20
407.739831
 11
157.243086
 21
400.539831
  0
LINE
  5
5DB
100
AcDbEntity
  8
M0
100
AcDbLine
 10
164.293086
 20
399.539831
 11
164.293086
 21
407.739831
  0
LINE
  5
5DC
100
AcDbEntity
  8
M0
100
AcDbLine
 10
153.593088
 20
446.939832
 11
153.993084
 21
446.939832
  0
LINE
  5
5DD
100
AcDbEntity
  8
M0
100
AcDbLine
 10
153.593088
 20
447.439829
 11
153.593088
 21
438.87572
  0
LINE
  5
5DE
100
AcDbEntity
  8
M0
100
AcDbLine
 10
163.993084
 20
446.939832
 11
164.393088
 21
446.939832
  0
LINE
  5
5DF
100
AcDbEntity
  8
M0
100
AcDbLine
 10
179.693086
 20
369.439831
 11
179.693086
 21
400.439831
  0
ARC
  5
5E0
100
AcDbEntity
  8
M0
100
AcDbCircle
 10
181.193088
 20
372.939831
 40
0.5
100
AcDbArc
 50
0.0
 51
90.0
  0
LINE
  5
5E1
100
AcDbEntity
  8
M0
100
AcDbLine
 10
164.393088
 20
447.439829
 11
164.393088
 21
447.93983
  0
LINE
  5
5E2
100
AcDbEntity
  8
M0
100
AcDbLine
 10
139.293088
 20
400.439831
 11
139.293088
 21
401.439831
  0
LINE
  5
5E3
100
AcDbEntity
  8
M0
100
AcDbLine
 10
162.793087
 20
399.039831
 11
162.793087
 21
398.939831
  0
LINE
  5
5E4
100
AcDbEntity
  8
M0
100
AcDbLine
 10
155.193089
 20
408.539831
 11
155.193089
 21
408.239831
  0
LINE
  5
5E5
100
AcDbEntity
  8
M0
100
AcDbLine
 10
164.293086
 20
402.139831
 11
164.793087
 21
402.139831
  0
LINE
  5
5E6
100
AcDbEntity
  8
M0
100
AcDbLine
 10
153.693089
 20
402.139831
 11
153.193088
 21
402.139831
  0
LINE
  5
5E7
100
AcDbEntity
  8
M0
100
AcDbLine
 10
153.593088
 20
447.93983
 11
153.593088
 21
447.439829
  0
LINE
  5
5E8
100
AcDbEntity
  8
M0
100
AcDbLine
 10
152.093088
 20
439.419626
 11
152.093088
 21
447.439829
  0
LINE
  5
5E9
100
AcDbEntity
  8
M0
100
AcDbLine
 10
164.293086
 20
407.739831
 11
164.293086
 21
408.539831
  0
LINE
  5
5EA
100
AcDbEntity
  8
M0
100
AcDbLine
 10
162.793087
 20
408.539831
 11
162.793087
 21
408.239831
  0
ARC
  5
5EB
100
AcDbEntity
  8
M0
100
AcDbCircle
 10
153.993088
 20
370.439831
 40
2.0
100
AcDbArc
 50
247.42065
 51
270.0
  0
ARC
  5
5EC
100
AcDbEntity
  8
M0
100
AcDbCircle
 10
180.193088
 20
371.939831
 40
0.5
100
AcDbArc
 50
180.0
 51
270.0
  0
ARC
  5
5ED
100
AcDbEntity
  8
M0
100
AcDbCircle
 10
174.793088
 20
447.839831
 40
0.6
100
AcDbArc
 50
90.0
 51
180.0
  0
ARC
  5
5EE
100
AcDbEntity
  8
M0
100
AcDbCircle
 10
154.493088
 20
370.939831
 40
0.5
100
AcDbArc
 50
180.0
 51
270.0
  0
ARC
  5
5EF
100
AcDbEntity
  8
M0
100
AcDbCircle
 10
150.093088
 20
392.239831
 40
0.5
100
AcDbArc
 50
180.0
 51
270.0
  0
ARC
  5
5F0
100
AcDbEntity
  8
M0
100
AcDbCircle
 10
167.893088
 20
392.239831
 40
0.5
100
AcDbArc
 50
270.0
 51
360.0
  0
ARC
  5
5F1
100
AcDbEntity
  8
M0
100
AcDbCircle
 10
143.193088
 20
447.839831
 40
0.6
100
AcDbArc
 50
0.0
 51
90.0
  0
ARC
  5
5F2
100
AcDbEntity
  8
M0
100
AcDbCircle
 10
142.875358
 20
447.839831
 40
0.6
100
AcDbArc
 50
90.0
 51
178.281642
  0
LINE
  5
5F3
100
AcDbEntity
  8
M0
100
AcDbLine
 10
189.093085
 20
383.839831
 11
189.39309
 21
383.839831
  0
LINE
  5
5F4
100
AcDbEntity
  8
M0
100
AcDbLine
 10
167.193087
 20
391.939831
 11
166.693089
 21
391.939831
  0
LINE
  5
5F5
100
AcDbEntity
  8
M0
100
AcDbLine
 10
152.693087
 20
368.43983
 11
152.293088
 21
368.43983
  0
LINE
  5
5F6
100
AcDbEntity
  8
M0
100
AcDbLine
 10
188.09309
 20
430.639831
 11
188.09309
 21
408.639831
  0
ARC
  5
5F7
100
AcDbEntity
  8
M0
100
AcDbCircle
 10
152.293088
 20
438.439831
 40
1.0
100
AcDbArc
 50
90.0
 51
180.0
  0
ARC
  5
5F8
100
AcDbEntity
  8
M0
100
AcDbCircle
 10
175.110818
 20
447.839831
 40
0.6
100
AcDbArc
 50
1.718358
 51
90.0
  0
LINE
  5
5F9
100
AcDbEntity
  8
M0
100
AcDbLine
 10
167.193087
 20
415.939831
 11
165.693087
 21
415.939831
  0
LINE
  5
5FA
100
AcDbEntity
  8
M0
100
AcDbLine
 10
168.193089
 20
396.43983
 11
168.193089
 21
410.039831
  0
LINE
  5
5FB
100
AcDbEntity
  8
M0
100
AcDbLine
 10
168.393088
 20
408.239831
 11
168.193089
 21
408.239831
  0
LINE
  5
5FC
100
AcDbEntity
  8
M0
100
AcDbLine
 10
153.693089
 20
399.539831
 11
153.693089
 21
407.739831
  0
LINE
  5
5FD
100
AcDbEntity
  8
M0
100
AcDbLine
 10
189.39309
 20
424.03983
 11
189.093085
 21
424.03983
  0
LINE
  5
5FE
100
AcDbEntity
  8
M0
100
AcDbLine
 10
168.193089
 20
399.039831
 11
168.393088
 21
399.039831
  0
LINE
  5
5FF
100
AcDbEntity
  8
M0
100
AcDbLine
 10
153.693089
 20
407.739831
 11
153.693089
 21
408.539831
  0
LINE
  5
600
100
AcDbEntity
  8
M0
100
AcDbLine
 10
149.793088
 20
399.039831
 11
149.593089
 21
399.039831
  0
LINE
  5
601
100
AcDbEntity
  8
M0
100
AcDbLine
 10
154.993089
 20
408.239831
 11
162.993086
 21
408.239831
  0
LINE
  5
602
100
AcDbEntity
  8
M0
100
AcDbLine
 10
164.793087
 20
405.139831
 11
164.293086
 21
405.139831
  0
ARC
  5
603
100
AcDbEntity
  8
M0
100
AcDbCircle
 10
163.993088
 20
370.439831
 40
2.0
100
AcDbArc
 50
270.0
 51
292.57935
  0
ARC
  5
604
100
AcDbEntity
  8
M0
100
AcDbCircle
 10
163.493088
 20
370.939831
 40
0.5
100
AcDbArc
 50
270.0
 51
360.0
  0
ARC
  5
605
100
AcDbEntity
  8
M0
100
AcDbCircle
 10
153.693088
 20
415.639831
 40
0.5
100
AcDbArc
 50
0.0
 51
90.0
  0
ARC
  5
606
100
AcDbEntity
  8
M0
100
AcDbCircle
 10
150.093088
 20
415.639831
 40
0.5
100
AcDbArc
 50
90.0
 51
180.0
  0
LINE
  5
607
100
AcDbEntity
  8
M0
100
AcDbLine
 10
189.39309
 20
407.639831
 11
189.093085
 21
407.639831
  0
LINE
  5
608
100
AcDbEntity
  8
M0
100
AcDbLine
 10
189.093085
 20
400.239831
 11
189.39309
 21
400.239831
  0
ARC
  5
609
100
AcDbEntity
  8
M0
100
AcDbCircle
 10
139.293088
 20
387.539831
 40
1.0
100
AcDbArc
 50
180.0
 51
270.0
  0
ARC
  5
60A
100
AcDbEntity
  8
M0
100
AcDbCircle
 10
139.293088
 20
420.339831
 40
1.0
100
AcDbArc
 50
90.0
 51
180.0
  0
CIRCLE
  5
60B
100
AcDbEntity
  8
M0
  6
DASHED
100
AcDbCircle
 10
60.993091
 20
390.639831
 40
3.0
  0
LINE
  5
60C
100
AcDbEntity
  8
M0
  6
DASHED
100
AcDbLine
 10
62.583675
 20
389.049186
 11
59.402035
 21
392.230949
  0
LINE
  5
60D
100
AcDbEntity
  8
M0
  6
DASHED
100
AcDbLine
 10
62.406917
 20
390.993522
 11
60.639339
 21
389.225944
  0
LINE
  5
60E
100
AcDbEntity
  8
M0
  6
DASHED
100
AcDbLine
 10
61.34637
 20
392.054191
 11
59.578792
 21
390.286491
  0
LINE
  5
60F
100
AcDbEntity
  8
M0
  6
DASHED
100
AcDbLine
 10
64.318091
 20
394.464831
 11
57.668091
 21
394.464831
  0
ARC
  5
610
100
AcDbEntity
  8
M0
  6
DASHED
100
AcDbCircle
 10
64.318091
 20
393.964831
 40
0.5
100
AcDbArc
 50
0.0
 51
90.0
  0
LINE
  5
611
100
AcDbEntity
  8
M0
  6
DASHED
100
AcDbLine
 10
64.818091
 20
387.314831
 11
64.818091
 21
393.964831
  0
ARC
  5
612
100
AcDbEntity
  8
M0
  6
DASHED
100
AcDbCircle
 10
64.318091
 20
387.314831
 40
0.5
100
AcDbArc
 50
270.0
 51
360.0
  0
LINE
  5
613
100
AcDbEntity
  8
M0
  6
DASHED
100
AcDbLine
 10
57.668091
 20
386.814831
 11
64.318091
 21
386.814831
  0
LINE
  5
614
100
AcDbEntity
  8
M0
  6
DASHED
100
AcDbLine
 10
57.168091
 20
393.964831
 11
57.168091
 21
387.314831
  0
ARC
  5
615
100
AcDbEntity
  8
M0
  6
DASHED
100
AcDbCircle
 10
57.668091
 20
393.964831
 40
0.5
100
AcDbArc
 50
90.0
 51
180.0
  0
ARC
  5
616
100
AcDbEntity
  8
M0
  6
DASHED
100
AcDbCircle
 10
57.668091
 20
387.314831
 40
0.5
100
AcDbArc
 50
180.0
 51
270.0
  0
LINE
  5
617
100
AcDbEntity
  8
M0
  6
DASHDOT
100
AcDbLine
 10
137.093088
 20
447.439831
 11
137.093088
 21
448.439831
  0
CIRCLE
  5
618
100
AcDbEntity
  8
M0
100
AcDbCircle
 10
137.093088
 20
447.939831
 40
4.499996
  0
LINE
  5
619
100
AcDbEntity
  8
M0
  6
DASHDOT
100
AcDbLine
 10
136.593088
 20
447.939831
 11
137.593088
 21
447.939831
  0
LINE
  5
61A
100
AcDbEntity
  8
M0
100
AcDbLine
 10
137.559992
 20
449.820965
 11
135.212015
 21
447.472973
  0
LINE
  5
61B
100
AcDbEntity
  8
M0
100
AcDbLine
 10
138.974191
 20
448.40675
 11
136.626215
 21
446.058758
  0
LINE
  5
61C
100
AcDbEntity
  8
M0
100
AcDbLine
 10
135.024133
 20
450.00874
 11
139.287103
 21
445.7458
  0
LINE
  5
61D
100
AcDbEntity
  8
M0
  6
DASHDOT
100
AcDbLine
 10
158.993084
 20
447.439831
 11
158.993084
 21
448.439831
  0
CIRCLE
  5
61E
100
AcDbEntity
  8
M0
100
AcDbCircle
 10
158.993084
 20
447.939831
 40
4.499996
  0
LINE
  5
61F
100
AcDbEntity
  8
M0
  6
DASHDOT
100
AcDbLine
 10
158.493084
 20
447.939831
 11
159.493084
 21
447.939831
  0
LINE
  5
620
100
AcDbEntity
  8
M0
100
AcDbLine
 10
159.459988
 20
449.820965
 11
157.112011
 21
447.472973
  0
LINE
  5
621
100
AcDbEntity
  8
M0
100
AcDbLine
 10
160.874188
 20
448.40675
 11
158.526211
 21
446.058758
  0
LINE
  5
622
100
AcDbEntity
  8
M0
100
AcDbLine
 10
156.92413
 20
450.00874
 11
161.1871
 21
445.7458
  0
LINE
  5
623
100
AcDbEntity
  8
M0
  6
DASHDOT
100
AcDbLine
 10
180.893087
 20
447.439831
 11
180.893087
 21
448.439831
  0
CIRCLE
  5
624
100
AcDbEntity
  8
M0
100
AcDbCircle
 10
180.893087
 20
447.939831
 40
4.499996
  0
LINE
  5
625
100
AcDbEntity
  8
M0
  6
DASHDOT
100
AcDbLine
 10
180.393087
 20
447.939831
 11
181.393087
 21
447.939831
  0
LINE
  5
626
100
AcDbEntity
  8
M0
100
AcDbLine
 10
181.359991
 20
449.820965
 11
179.012014
 21
447.472973
  0
LINE
  5
627
100
AcDbEntity
  8
M0
100
AcDbLine
 10
182.774191
 20
448.40675
 11
180.426214
 21
446.058758
  0
LINE
  5
628
100
AcDbEntity
  8
M0
100
AcDbLine
 10
178.824133
 20
450.00874
 11
183.087103
 21
445.7458
  0
ARC
  5
629
100
AcDbEntity
  8
M0
100
AcDbCircle
 10
77.193091
 20
372.939831
 40
2.0
100
AcDbArc
 50
90.0
 51
180.0
  0
ARC
  5
62A
100
AcDbEntity
  8
M0
100
AcDbCircle
 10
71.193091
 20
371.470744
 40
4.0
100
AcDbArc
 50
-31.574191
 51
0.0
  0
LINE
  5
62B
100
AcDbEntity
  8
M0
100
AcDbLine
 10
69.88524
 20
361.703327
 11
74.600943
 21
369.376335
  0
LINE
  5
62C
100
AcDbEntity
  8
M0
100
AcDbLine
 10
75.193091
 20
372.939831
 11
75.193091
 21
371.470744
  0
LINE
  5
62D
100
AcDbEntity
  8
M0
100
AcDbLine
 10
77.193091
 20
374.939831
 11
78.028507
 21
374.939831
  0
LINE
  5
62E
100
AcDbEntity
  8
M0
100
AcDbLine
 10
68.293091
 20
353.939831
 11
60.293091
 21
353.939831
  0
LINE
  5
62F
100
AcDbEntity
  8
M0
100
AcDbLine
 10
69.293091
 20
354.939831
 11
69.293091
 21
359.608918
  0
LINE
  5
630
100
AcDbEntity
  8
M0
100
AcDbLine
 10
77.193091
 20
385.239831
 11
69.193091
 21
385.239831
  0
LINE
  5
631
100
AcDbEntity
  8
M0
100
AcDbLine
 10
59.293091
 20
354.939831
 11
59.293091
 21
360.296974
  0
ARC
  5
632
100
AcDbEntity
  8
M0
100
AcDbCircle
 10
70.493091
 20
376.239831
 40
2.5
100
AcDbArc
 50
156.926082
 51
203.073918
  0
ARC
  5
633
100
AcDbEntity
  8
M0
100
AcDbCircle
 10
70.493091
 20
383.239831
 40
2.5
100
AcDbArc
 50
156.926082
 51
203.073918
  0
ARC
  5
634
100
AcDbEntity
  8
M0
100
AcDbCircle
 10
75.893091
 20
376.239831
 40
2.5
100
AcDbArc
 50
328.667749
 51
383.073918
  0
ARC
  5
635
100
AcDbEntity
  8
M0
100
AcDbCircle
 10
75.893091
 20
383.239831
 40
2.5
100
AcDbArc
 50
336.926082
 51
383.073918
  0
LINE
  5
636
100
AcDbEntity
  8
M0
100
AcDbLine
 10
68.193091
 20
377.219627
 11
68.193091
 21
382.260035
  0
LINE
  5
637
100
AcDbEntity
  8
M0
100
AcDbLine
 10
68.193091
 20
384.219627
 11
68.193091
 21
384.239831
  0
LINE
  5
638
100
AcDbEntity
  8
M0
100
AcDbLine
 10
78.193091
 20
377.219627
 11
78.193091
 21
382.260035
  0
LINE
  5
639
100
AcDbEntity
  8
M0
100
AcDbLine
 10
78.193091
 20
384.219627
 11
78.193091
 21
384.239831
  0
LINE
  5
63A
100
AcDbEntity
  8
M0
100
AcDbLine
 10
68.193091
 20
375.260035
 11
68.193091
 21
369.939831
  0
ARC
  5
63B
100
AcDbEntity
  8
M0
100
AcDbCircle
 10
64.193091
 20
369.939831
 40
4.0
100
AcDbArc
 50
-90.0
 51
8.14222E-013
  0
ARC
  5
63C
100
AcDbEntity
  8
M0
100
AcDbCircle
 10
69.193091
 20
384.239831
 40
1.0
100
AcDbArc
 50
90.0
 51
180.0
  0
ARC
  5
63D
100
AcDbEntity
  8
M0
100
AcDbCircle
 10
77.193091
 20
384.239831
 40
1.0
100
AcDbArc
 50
0.0
 51
90.0
  0
ARC
  5
63E
100
AcDbEntity
  8
M0
100
AcDbCircle
 10
60.293091
 20
354.939831
 40
1.0
100
AcDbArc
 50
180.0
 51
270.0
  0
ARC
  5
63F
100
AcDbEntity
  8
M0
100
AcDbCircle
 10
68.293091
 20
354.939831
 40
1.0
100
AcDbArc
 50
-90.0
 51
0.0
  0
ARC
  5
640
100
AcDbEntity
  8
M0
100
AcDbCircle
 10
62.648647
 20
364.939831
 40
1.0
100
AcDbArc
 50
90.0
 51
148.109208
  0
ARC
  5
641
100
AcDbEntity
  8
M0
100
AcDbCircle
 10
63.293091
 20
360.296974
 40
4.0
100
AcDbArc
 50
148.109208
 51
180.0
  0
LINE
  5
642
100
AcDbEntity
  8
M0
100
AcDbLine
 10
64.193091
 20
365.939831
 11
62.648647
 21
365.939831
  0
LINE
  5
643
100
AcDbEntity
  8
M0
100
AcDbLine
 10
59.896865
 20
362.410181
 11
61.79959
 21
365.468133
  0
ARC
  5
644
100
AcDbEntity
  8
M0
100
AcDbCircle
 10
73.293091
 20
359.608918
 40
4.0
100
AcDbArc
 50
148.425809
 51
180.0
  0
LINE
  5
645
100
AcDbEntity
  8
M0
  6
DASHDOT
100
AcDbLine
 10
64.293091
 20
359.439831
 11
64.293091
 21
360.439831
  0
CIRCLE
  5
646
100
AcDbEntity
  8
M0
100
AcDbCircle
 10
64.293091
 20
359.939831
 40
4.499996
  0
LINE
  5
647
100
AcDbEntity
  8
M0
  6
DASHDOT
100
AcDbLine
 10
63.793091
 20
359.939831
 11
64.793091
 21
359.939831
  0
LINE
  5
648
100
AcDbEntity
  8
M0
100
AcDbLine
 10
64.759995
 20
361.820965
 11
62.412018
 21
359.472973
  0
LINE
  5
649
100
AcDbEntity
  8
M0
100
AcDbLine
 10
66.174195
 20
360.40675
 11
63.826218
 21
358.058758
  0
LINE
  5
64A
100
AcDbEntity
  8
M0
100
AcDbLine
 10
62.224137
 20
362.00874
 11
66.487107
 21
357.7458
  0
LINE
  5
64B
100
AcDbEntity
  8
M0
100
AcDbLine
 10
83.093088
 20
373.939831
 11
83.093088
 21
367.137656
  0
LINE
  5
64C
100
AcDbEntity
  8
M0
100
AcDbLine
 10
89.293088
 20
373.939831
 11
89.293088
 21
367.137656
  0
LINE
  5
64D
100
AcDbEntity
  8
M0
100
AcDbLine
 10
91.193088
 20
363.540556
 11
91.193088
 21
354.939831
  0
LINE
  5
64E
100
AcDbEntity
  8
M0
100
AcDbLine
 10
90.11809
 20
365.071408
 11
90.918087
 21
364.229305
  0
LINE
  5
64F
100
AcDbEntity
  8
M0
100
AcDbLine
 10
91.028504
 20
374.939831
 11
90.293088
 21
374.939831
  0
LINE
  5
650
100
AcDbEntity
  8
M0
100
AcDbLine
 10
81.193088
 20
363.540556
 11
81.193088
 21
354.939831
  0
LINE
  5
651
100
AcDbEntity
  8
M0
100
AcDbLine
 10
90.193088
 20
353.939831
 11
82.193088
 21
353.939831
  0
LINE
  5
652
100
AcDbEntity
  8
M0
100
AcDbLine
 10
81.357672
 20
374.939831
 11
82.093088
 21
374.939831
  0
LINE
  5
653
100
AcDbEntity
  8
M0
100
AcDbLine
 10
90.193088
 20
385.239831
 11
82.193088
 21
385.239831
  0
LINE
  5
654
100
AcDbEntity
  8
M0
100
AcDbLine
 10
81.193088
 20
384.239831
 11
81.193088
 21
384.219627
  0
LINE
  5
655
100
AcDbEntity
  8
M0
100
AcDbLine
 10
81.193088
 20
382.260035
 11
81.193088
 21
377.219627
  0
LINE
  5
656
100
AcDbEntity
  8
M0
100
AcDbLine
 10
91.193088
 20
382.260035
 11
91.193088
 21
377.219627
  0
LINE
  5
657
100
AcDbEntity
  8
M0
100
AcDbLine
 10
91.193088
 20
384.239831
 11
91.193088
 21
384.219627
  0
ARC
  5
658
100
AcDbEntity
  8
M0
100
AcDbCircle
 10
83.493088
 20
383.239831
 40
2.5
100
AcDbArc
 50
156.926082
 51
203.073918
  0
ARC
  5
659
100
AcDbEntity
  8
M0
100
AcDbCircle
 10
82.193088
 20
384.239831
 40
1.0
100
AcDbArc
 50
90.0
 51
180.0
  0
ARC
  5
65A
100
AcDbEntity
  8
M0
100
AcDbCircle
 10
90.193088
 20
384.239831
 40
1.0
100
AcDbArc
 50
3.254286E-012
 51
90.0
  0
ARC
  5
65B
100
AcDbEntity
  8
M0
100
AcDbCircle
 10
90.293088
 20
373.939831
 40
1.0
100
AcDbArc
 50
90.0
 51
180.0
  0
ARC
  5
65C
100
AcDbEntity
  8
M0
100
AcDbCircle
 10
82.093088
 20
373.939831
 40
1.0
100
AcDbArc
 50
0.0
 51
90.0
  0
ARC
  5
65D
100
AcDbEntity
  8
M0
100
AcDbCircle
 10
83.493088
 20
376.239831
 40
2.5
100
AcDbArc
 50
156.926082
 51
211.332251
  0
ARC
  5
65E
100
AcDbEntity
  8
M0
100
AcDbCircle
 10
88.893088
 20
376.239831
 40
2.5
100
AcDbArc
 50
328.667749
 51
383.073918
  0
ARC
  5
65F
100
AcDbEntity
  8
M0
100
AcDbCircle
 10
88.893088
 20
383.239831
 40
2.5
100
AcDbArc
 50
336.926082
 51
383.073918
  0
ARC
  5
660
100
AcDbEntity
  8
M0
100
AcDbCircle
 10
82.193088
 20
354.939831
 40
1.0
100
AcDbArc
 50
180.0
 51
270.0
  0
ARC
  5
661
100
AcDbEntity
  8
M0
100
AcDbCircle
 10
82.193088
 20
363.540556
 40
1.0
100
AcDbArc
 50
136.468801
 51
180.0
  0
ARC
  5
662
100
AcDbEntity
  8
M0
100
AcDbCircle
 10
90.193088
 20
354.939831
 40
1.0
100
AcDbArc
 50
-90.0
 51
0.0
  0
ARC
  5
663
100
AcDbEntity
  8
M0
100
AcDbCircle
 10
90.193088
 20
363.540556
 40
1.0
100
AcDbArc
 50
0.0
 51
43.531199
  0
ARC
  5
664
100
AcDbEntity
  8
M0
100
AcDbCircle
 10
80.093088
 20
367.137656
 40
3.0
100
AcDbArc
 50
-43.531199
 51
0.0
  0
ARC
  5
665
100
AcDbEntity
  8
M0
100
AcDbCircle
 10
92.293088
 20
367.137656
 40
3.0
100
AcDbArc
 50
180.0
 51
223.531199
  0
LINE
  5
666
100
AcDbEntity
  8
M0
100
AcDbLine
 10
82.268086
 20
365.071408
 11
81.468088
 21
364.229305
  0
LINE
  5
667
100
AcDbEntity
  8
M0
  6
DASHDOT
100
AcDbLine
 10
86.193088
 20
359.439831
 11
86.193088
 21
360.439831
  0
CIRCLE
  5
668
100
AcDbEntity
  8
M0
100
AcDbCircle
 10
86.193088
 20
359.939831
 40
4.499996
  0
LINE
  5
669
100
AcDbEntity
  8
M0
  6
DASHDOT
100
AcDbLine
 10
85.693088
 20
359.939831
 11
86.693088
 21
359.939831
  0
LINE
  5
66A
100
AcDbEntity
  8
M0
100
AcDbLine
 10
86.659992
 20
361.820965
 11
84.312015
 21
359.472973
  0
LINE
  5
66B
100
AcDbEntity
  8
M0
100
AcDbLine
 10
88.074191
 20
360.40675
 11
85.726215
 21
358.058758
  0
LINE
  5
66C
100
AcDbEntity
  8
M0
100
AcDbLine
 10
84.124133
 20
362.00874
 11
88.387103
 21
357.7458
  0
LINE
  5
66D
100
AcDbEntity
  8
M0
  6
DASHDOT
100
AcDbLine
 10
108.093091
 20
359.439831
 11
108.093091
 21
360.439831
  0
CIRCLE
  5
66E
100
AcDbEntity
  8
M0
100
AcDbCircle
 10
108.093091
 20
359.939831
 40
4.499996
  0
LINE
  5
66F
100
AcDbEntity
  8
M0
  6
DASHDOT
100
AcDbLine
 10
107.593091
 20
359.939831
 11
108.593091
 21
359.939831
  0
LINE
  5
670
100
AcDbEntity
  8
M0
100
AcDbLine
 10
108.559995
 20
361.820965
 11
106.212018
 21
359.472973
  0
LINE
  5
671
100
AcDbEntity
  8
M0
100
AcDbLine
 10
109.974195
 20
360.40675
 11
107.626218
 21
358.058758
  0
LINE
  5
672
100
AcDbEntity
  8
M0
100
AcDbLine
 10
106.024137
 20
362.00874
 11
110.287107
 21
357.7458
  0
ARC
  5
673
100
AcDbEntity
  8
M0
100
AcDbCircle
 10
95.193091
 20
372.939831
 40
2.0
100
AcDbArc
 50
1.628444E-012
 51
90.0
  0
ARC
  5
674
100
AcDbEntity
  8
M0
100
AcDbCircle
 10
101.193091
 20
371.470744
 40
4.0
100
AcDbArc
 50
180.0
 51
211.574191
  0
LINE
  5
675
100
AcDbEntity
  8
M0
100
AcDbLine
 10
102.500943
 20
361.703327
 11
97.785239
 21
369.376335
  0
LINE
  5
676
100
AcDbEntity
  8
M0
100
AcDbLine
 10
97.193091
 20
372.939831
 11
97.193091
 21
371.470744
  0
LINE
  5
677
100
AcDbEntity
  8
M0
100
AcDbLine
 10
95.193091
 20
374.939831
 11
94.357675
 21
374.939831
  0
LINE
  5
678
100
AcDbEntity
  8
M0
100
AcDbLine
 10
104.093091
 20
353.939831
 11
112.093091
 21
353.939831
  0
LINE
  5
679
100
AcDbEntity
  8
M0
100
AcDbLine
 10
103.093091
 20
354.939831
 11
103.093091
 21
359.608918
  0
LINE
  5
67A
100
AcDbEntity
  8
M0
100
AcDbLine
 10
95.193091
 20
385.239831
 11
103.193091
 21
385.239831
  0
LINE
  5
67B
100
AcDbEntity
  8
M0
100
AcDbLine
 10
113.093091
 20
354.939831
 11
113.093091
 21
360.296974
  0
ARC
  5
67C
100
AcDbEntity
  8
M0
100
AcDbCircle
 10
101.893091
 20
376.239831
 40
2.5
100
AcDbArc
 50
336.926082
 51
383.073918
  0
ARC
  5
67D
100
AcDbEntity
  8
M0
100
AcDbCircle
 10
101.893091
 20
383.239831
 40
2.5
100
AcDbArc
 50
336.926082
 51
383.073918
  0
ARC
  5
67E
100
AcDbEntity
  8
M0
100
AcDbCircle
 10
96.493091
 20
376.239831
 40
2.5
100
AcDbArc
 50
156.926082
 51
211.332251
  0
ARC
  5
67F
100
AcDbEntity
  8
M0
100
AcDbCircle
 10
96.493091
 20
383.239831
 40
2.5
100
AcDbArc
 50
156.926082
 51
203.073918
  0
LINE
  5
680
100
AcDbEntity
  8
M0
100
AcDbLine
 10
104.193091
 20
377.219627
 11
104.193091
 21
382.260035
  0
LINE
  5
681
100
AcDbEntity
  8
M0
100
AcDbLine
 10
104.193091
 20
384.219627
 11
104.193091
 21
384.239831
  0
LINE
  5
682
100
AcDbEntity
  8
M0
100
AcDbLine
 10
94.193091
 20
377.219627
 11
94.193091
 21
382.260035
  0
LINE
  5
683
100
AcDbEntity
  8
M0
100
AcDbLine
 10
94.193091
 20
384.219627
 11
94.193091
 21
384.239831
  0
LINE
  5
684
100
AcDbEntity
  8
M0
100
AcDbLine
 10
104.193091
 20
375.260035
 11
104.193091
 21
369.939831
  0
ARC
  5
685
100
AcDbEntity
  8
M0
100
AcDbCircle
 10
108.193091
 20
369.939831
 40
4.0
100
AcDbArc
 50
180.0
 51
270.0
  0
ARC
  5
686
100
AcDbEntity
  8
M0
100
AcDbCircle
 10
103.193091
 20
384.239831
 40
1.0
100
AcDbArc
 50
0.0
 51
90.0
  0
ARC
  5
687
100
AcDbEntity
  8
M0
100
AcDbCircle
 10
95.193091
 20
384.239831
 40
1.0
100
AcDbArc
 50
90.0
 51
180.0
  0
ARC
  5
688
100
AcDbEntity
  8
M0
100
AcDbCircle
 10
112.093091
 20
354.939831
 40
1.0
100
AcDbArc
 50
270.0
 51
360.0
  0
ARC
  5
689
100
AcDbEntity
  8
M0
100
AcDbCircle
 10
104.093091
 20
354.939831
 40
1.0
100
AcDbArc
 50
180.0
 51
270.0
  0
ARC
  5
68A
100
AcDbEntity
  8
M0
100
AcDbCircle
 10
109.737535
 20
364.939831
 40
1.0
100
AcDbArc
 50
31.890792
 51
90.0
  0
ARC
  5
68B
100
AcDbEntity
  8
M0
100
AcDbCircle
 10
109.093091
 20
360.296974
 40
4.0
100
AcDbArc
 50
0.0
 51
31.890792
  0
LINE
  5
68C
100
AcDbEntity
  8
M0
100
AcDbLine
 10
108.193091
 20
365.939831
 11
109.737535
 21
365.939831
  0
LINE
  5
68D
100
AcDbEntity
  8
M0
100
AcDbLine
 10
112.489317
 20
362.410181
 11
110.586592
 21
365.468133
  0
ARC
  5
68E
100
AcDbEntity
  8
M0
100
AcDbCircle
 10
99.093091
 20
359.608918
 40
4.0
100
AcDbArc
 50
0.0
 51
31.574191
  0
ARC
  5
68F
100
AcDbEntity
  8
M0
100
AcDbCircle
 10
77.193091
 20
434.939831
 40
2.0
100
AcDbArc
 50
180.0
 51
270.0
  0
ARC
  5
690
100
AcDbEntity
  8
M0
100
AcDbCircle
 10
71.193091
 20
436.408918
 40
4.0
100
AcDbArc
 50
0.0
 51
31.574191
  0
LINE
  5
691
100
AcDbEntity
  8
M0
100
AcDbLine
 10
69.88524
 20
446.176335
 11
74.600943
 21
438.503327
  0
LINE
  5
692
100
AcDbEntity
  8
M0
100
AcDbLine
 10
75.193091
 20
434.939831
 11
75.193091
 21
436.408918
  0
LINE
  5
693
100
AcDbEntity
  8
M0
100
AcDbLine
 10
77.193091
 20
432.939831
 11
78.028507
 21
432.939831
  0
LINE
  5
694
100
AcDbEntity
  8
M0
100
AcDbLine
 10
68.293091
 20
453.939831
 11
60.293091
 21
453.939831
  0
LINE
  5
695
100
AcDbEntity
  8
M0
100
AcDbLine
 10
69.293091
 20
452.939831
 11
69.293091
 21
448.270744
  0
LINE
  5
696
100
AcDbEntity
  8
M0
100
AcDbLine
 10
77.193091
 20
422.639831
 11
69.193091
 21
422.639831
  0
LINE
  5
697
100
AcDbEntity
  8
M0
100
AcDbLine
 10
59.293091
 20
452.939831
 11
59.293091
 21
447.582688
  0
ARC
  5
698
100
AcDbEntity
  8
M0
100
AcDbCircle
 10
70.493091
 20
431.639831
 40
2.5
100
AcDbArc
 50
156.926082
 51
203.073918
  0
ARC
  5
699
100
AcDbEntity
  8
M0
100
AcDbCircle
 10
70.493091
 20
424.639831
 40
2.5
100
AcDbArc
 50
156.926082
 51
203.073918
  0
ARC
  5
69A
100
AcDbEntity
  8
M0
100
AcDbCircle
 10
75.893091
 20
431.639831
 40
2.5
100
AcDbArc
 50
-23.073918
 51
31.332251
  0
ARC
  5
69B
100
AcDbEntity
  8
M0
100
AcDbCircle
 10
75.893091
 20
424.639831
 40
2.5
100
AcDbArc
 50
-23.073918
 51
23.073918
  0
LINE
  5
69C
100
AcDbEntity
  8
M0
100
AcDbLine
 10
68.193091
 20
430.660035
 11
68.193091
 21
425.619627
  0
LINE
  5
69D
100
AcDbEntity
  8
M0
100
AcDbLine
 10
68.193091
 20
423.660035
 11
68.193091
 21
423.639831
  0
LINE
  5
69E
100
AcDbEntity
  8
M0
100
AcDbLine
 10
78.193091
 20
430.660035
 11
78.193091
 21
425.619627
  0
LINE
  5
69F
100
AcDbEntity
  8
M0
100
AcDbLine
 10
78.193091
 20
423.660035
 11
78.193091
 21
423.639831
  0
LINE
  5
6A0
100
AcDbEntity
  8
M0
100
AcDbLine
 10
68.193091
 20
432.619627
 11
68.193091
 21
437.939831
  0
ARC
  5
6A1
100
AcDbEntity
  8
M0
100
AcDbCircle
 10
64.193091
 20
437.939831
 40
4.0
100
AcDbArc
 50
0.0
 51
90.0
  0
ARC
  5
6A2
100
AcDbEntity
  8
M0
100
AcDbCircle
 10
69.193091
 20
423.639831
 40
1.0
100
AcDbArc
 50
180.0
 51
270.0
  0
ARC
  5
6A3
100
AcDbEntity
  8
M0
100
AcDbCircle
 10
77.193091
 20
423.639831
 40
1.0
100
AcDbArc
 50
270.0
 51
360.0
  0
ARC
  5
6A4
100
AcDbEntity
  8
M0
100
AcDbCircle
 10
60.293091
 20
452.939831
 40
1.0
100
AcDbArc
 50
90.0
 51
180.0
  0
ARC
  5
6A5
100
AcDbEntity
  8
M0
100
AcDbCircle
 10
68.293091
 20
452.939831
 40
1.0
100
AcDbArc
 50
0.0
 51
90.0
  0
ARC
  5
6A6
100
AcDbEntity
  8
M0
100
AcDbCircle
 10
62.648647
 20
442.939831
 40
1.0
100
AcDbArc
 50
211.890792
 51
270.0
  0
ARC
  5
6A7
100
AcDbEntity
  8
M0
100
AcDbCircle
 10
63.293091
 20
447.582688
 40
4.0
100
AcDbArc
 50
180.0
 51
211.890792
  0
LINE
  5
6A8
100
AcDbEntity
  8
M0
100
AcDbLine
 10
64.193091
 20
441.939831
 11
62.648647
 21
441.939831
  0
LINE
  5
6A9
100
AcDbEntity
  8
M0
100
AcDbLine
 10
59.896865
 20
445.469481
 11
61.79959
 21
442.411529
  0
ARC
  5
6AA
100
AcDbEntity
  8
M0
100
AcDbCircle
 10
73.293091
 20
448.270744
 40
4.0
100
AcDbArc
 50
180.0
 51
211.574191
  0
LINE
  5
6AB
100
AcDbEntity
  8
M0
100
AcDbLine
 10
83.093088
 20
433.939831
 11
83.093088
 21
440.742006
  0
LINE
  5
6AC
100
AcDbEntity
  8
M0
100
AcDbLine
 10
89.293088
 20
433.939831
 11
89.293088
 21
440.742006
  0
LINE
  5
6AD
100
AcDbEntity
  8
M0
100
AcDbLine
 10
91.193088
 20
444.339106
 11
91.193088
 21
452.939831
  0
LINE
  5
6AE
100
AcDbEntity
  8
M0
100
AcDbLine
 10
90.11809
 20
442.808254
 11
90.918087
 21
443.650357
  0
LINE
  5
6AF
100
AcDbEntity
  8
M0
100
AcDbLine
 10
91.028504
 20
432.939831
 11
90.293088
 21
432.939831
  0
LINE
  5
6B0
100
AcDbEntity
  8
M0
100
AcDbLine
 10
81.193088
 20
444.339106
 11
81.193088
 21
452.939831
  0
LINE
  5
6B1
100
AcDbEntity
  8
M0
100
AcDbLine
 10
90.193088
 20
453.939831
 11
82.193088
 21
453.939831
  0
LINE
  5
6B2
100
AcDbEntity
  8
M0
100
AcDbLine
 10
81.357672
 20
432.939831
 11
82.093088
 21
432.939831
  0
LINE
  5
6B3
100
AcDbEntity
  8
M0
100
AcDbLine
 10
90.193088
 20
422.639831
 11
82.193088
 21
422.639831
  0
LINE
  5
6B4
100
AcDbEntity
  8
M0
100
AcDbLine
 10
81.193088
 20
423.639831
 11
81.193088
 21
423.660035
  0
LINE
  5
6B5
100
AcDbEntity
  8
M0
100
AcDbLine
 10
81.193088
 20
425.619627
 11
81.193088
 21
430.660035
  0
LINE
  5
6B6
100
AcDbEntity
  8
M0
100
AcDbLine
 10
91.193088
 20
425.619627
 11
91.193088
 21
430.660035
  0
LINE
  5
6B7
100
AcDbEntity
  8
M0
100
AcDbLine
 10
91.193088
 20
423.639831
 11
91.193088
 21
423.660035
  0
ARC
  5
6B8
100
AcDbEntity
  8
M0
100
AcDbCircle
 10
83.493088
 20
424.639831
 40
2.5
100
AcDbArc
 50
156.926082
 51
203.073918
  0
ARC
  5
6B9
100
AcDbEntity
  8
M0
100
AcDbCircle
 10
82.193088
 20
423.639831
 40
1.0
100
AcDbArc
 50
180.0
 51
270.0
  0
ARC
  5
6BA
100
AcDbEntity
  8
M0
100
AcDbCircle
 10
90.193088
 20
423.639831
 40
1.0
100
AcDbArc
 50
270.0
 51
360.0
  0
ARC
  5
6BB
100
AcDbEntity
  8
M0
100
AcDbCircle
 10
90.293088
 20
433.939831
 40
1.0
100
AcDbArc
 50
180.0
 51
270.0
  0
ARC
  5
6BC
100
AcDbEntity
  8
M0
100
AcDbCircle
 10
82.093088
 20
433.939831
 40
1.0
100
AcDbArc
 50
270.0
 51
360.0
  0
ARC
  5
6BD
100
AcDbEntity
  8
M0
100
AcDbCircle
 10
83.493088
 20
431.639831
 40
2.5
100
AcDbArc
 50
148.667749
 51
203.073918
  0
ARC
  5
6BE
100
AcDbEntity
  8
M0
100
AcDbCircle
 10
88.893088
 20
431.639831
 40
2.5
100
AcDbArc
 50
-23.073918
 51
31.332251
  0
ARC
  5
6BF
100
AcDbEntity
  8
M0
100
AcDbCircle
 10
88.893088
 20
424.639831
 40
2.5
100
AcDbArc
 50
-23.073918
 51
23.073918
  0
ARC
  5
6C0
100
AcDbEntity
  8
M0
100
AcDbCircle
 10
82.193088
 20
452.939831
 40
1.0
100
AcDbArc
 50
90.0
 51
180.0
  0
ARC
  5
6C1
100
AcDbEntity
  8
M0
100
AcDbCircle
 10
82.193088
 20
444.339106
 40
1.0
100
AcDbArc
 50
180.0
 51
223.531199
  0
ARC
  5
6C2
100
AcDbEntity
  8
M0
100
AcDbCircle
 10
90.193088
 20
452.939831
 40
1.0
100
AcDbArc
 50
0.0
 51
90.0
  0
ARC
  5
6C3
100
AcDbEntity
  8
M0
100
AcDbCircle
 10
90.193088
 20
444.339106
 40
1.0
100
AcDbArc
 50
316.468801
 51
360.0
  0
ARC
  5
6C4
100
AcDbEntity
  8
M0
100
AcDbCircle
 10
80.093088
 20
440.742006
 40
3.0
100
AcDbArc
 50
0.0
 51
43.531199
  0
ARC
  5
6C5
100
AcDbEntity
  8
M0
100
AcDbCircle
 10
92.293088
 20
440.742006
 40
3.0
100
AcDbArc
 50
136.468801
 51
180.0
  0
LINE
  5
6C6
100
AcDbEntity
  8
M0
100
AcDbLine
 10
82.268086
 20
442.808254
 11
81.468088
 21
443.650357
  0
ARC
  5
6C7
100
AcDbEntity
  8
M0
100
AcDbCircle
 10
95.193091
 20
434.939831
 40
2.0
100
AcDbArc
 50
-90.0
 51
0.0
  0
ARC
  5
6C8
100
AcDbEntity
  8
M0
100
AcDbCircle
 10
101.193091
 20
436.408918
 40
4.0
100
AcDbArc
 50
148.425809
 51
180.0
  0
LINE
  5
6C9
100
AcDbEntity
  8
M0
100
AcDbLine
 10
102.500943
 20
446.176335
 11
97.785239
 21
438.503327
  0
LINE
  5
6CA
100
AcDbEntity
  8
M0
100
AcDbLine
 10
97.193091
 20
434.939831
 11
97.193091
 21
436.408918
  0
LINE
  5
6CB
100
AcDbEntity
  8
M0
100
AcDbLine
 10
95.193091
 20
432.939831
 11
94.357675
 21
432.939831
  0
LINE
  5
6CC
100
AcDbEntity
  8
M0
100
AcDbLine
 10
104.093091
 20
453.939831
 11
112.093091
 21
453.939831
  0
LINE
  5
6CD
100
AcDbEntity
  8
M0
100
AcDbLine
 10
103.093091
 20
452.939831
 11
103.093091
 21
448.270744
  0
LINE
  5
6CE
100
AcDbEntity
  8
M0
100
AcDbLine
 10
95.193091
 20
422.639831
 11
103.193091
 21
422.639831
  0
LINE
  5
6CF
100
AcDbEntity
  8
M0
100
AcDbLine
 10
113.093091
 20
452.939831
 11
113.093091
 21
447.582688
  0
ARC
  5
6D0
100
AcDbEntity
  8
M0
100
AcDbCircle
 10
101.893091
 20
431.639831
 40
2.5
100
AcDbArc
 50
-23.073918
 51
23.073918
  0
ARC
  5
6D1
100
AcDbEntity
  8
M0
100
AcDbCircle
 10
101.893091
 20
424.639831
 40
2.5
100
AcDbArc
 50
-23.073918
 51
23.073918
  0
ARC
  5
6D2
100
AcDbEntity
  8
M0
100
AcDbCircle
 10
96.493091
 20
431.639831
 40
2.5
100
AcDbArc
 50
148.667749
 51
203.073918
  0
ARC
  5
6D3
100
AcDbEntity
  8
M0
100
AcDbCircle
 10
96.493091
 20
424.639831
 40
2.5
100
AcDbArc
 50
156.926082
 51
203.073918
  0
LINE
  5
6D4
100
AcDbEntity
  8
M0
100
AcDbLine
 10
104.193091
 20
430.660035
 11
104.193091
 21
425.619627
  0
LINE
  5
6D5
100
AcDbEntity
  8
M0
100
AcDbLine
 10
104.193091
 20
423.660035
 11
104.193091
 21
423.639831
  0
LINE
  5
6D6
100
AcDbEntity
  8
M0
100
AcDbLine
 10
94.193091
 20
430.660035
 11
94.193091
 21
425.619627
  0
LINE
  5
6D7
100
AcDbEntity
  8
M0
100
AcDbLine
 10
94.193091
 20
423.660035
 11
94.193091
 21
423.639831
  0
LINE
  5
6D8
100
AcDbEntity
  8
M0
100
AcDbLine
 10
104.193091
 20
432.619627
 11
104.193091
 21
437.939831
  0
ARC
  5
6D9
100
AcDbEntity
  8
M0
100
AcDbCircle
 10
108.193091
 20
437.939831
 40
4.0
100
AcDbArc
 50
90.0
 51
180.0
  0
ARC
  5
6DA
100
AcDbEntity
  8
M0
100
AcDbCircle
 10
103.193091
 20
423.639831
 40
1.0
100
AcDbArc
 50
-90.0
 51
0.0
  0
ARC
  5
6DB
100
AcDbEntity
  8
M0
100
AcDbCircle
 10
95.193091
 20
423.639831
 40
1.0
100
AcDbArc
 50
180.0
 51
270.0
  0
ARC
  5
6DC
100
AcDbEntity
  8
M0
100
AcDbCircle
 10
112.093091
 20
452.939831
 40
1.0
100
AcDbArc
 50
0.0
 51
90.0
  0
ARC
  5
6DD
100
AcDbEntity
  8
M0
100
AcDbCircle
 10
104.093091
 20
452.939831
 40
1.0
100
AcDbArc
 50
90.0
 51
180.0
  0
ARC
  5
6DE
100
AcDbEntity
  8
M0
100
AcDbCircle
 10
109.737535
 20
442.939831
 40
1.0
100
AcDbArc
 50
270.0
 51
328.109208
  0
ARC
  5
6DF
100
AcDbEntity
  8
M0
100
AcDbCircle
 10
109.093091
 20
447.582688
 40
4.0
100
AcDbArc
 50
-31.890792
 51
0.0
  0
LINE
  5
6E0
100
AcDbEntity
  8
M0
100
AcDbLine
 10
108.193091
 20
441.939831
 11
109.737535
 21
441.939831
  0
LINE
  5
6E1
100
AcDbEntity
  8
M0
100
AcDbLine
 10
112.489317
 20
445.469481
 11
110.586592
 21
442.411529
  0
ARC
  5
6E2
100
AcDbEntity
  8
M0
100
AcDbCircle
 10
99.093091
 20
448.270744
 40
4.0
100
AcDbArc
 50
-31.574191
 51
0.0
  0
LINE
  5
6E3
100
AcDbEntity
  8
M0
  6
DASHDOT
100
AcDbLine
 10
64.293091
 20
447.439831
 11
64.293091
 21
448.439831
  0
CIRCLE
  5
6E4
100
AcDbEntity
  8
M0
100
AcDbCircle
 10
64.293091
 20
447.939831
 40
4.499996
  0
LINE
  5
6E5
100
AcDbEntity
  8
M0
  6
DASHDOT
100
AcDbLine
 10
63.793091
 20
447.939831
 11
64.793091
 21
447.939831
  0
LINE
  5
6E6
100
AcDbEntity
  8
M0
100
AcDbLine
 10
64.759995
 20
449.820965
 11
62.412018
 21
447.472973
  0
LINE
  5
6E7
100
AcDbEntity
  8
M0
100
AcDbLine
 10
66.174195
 20
448.40675
 11
63.826218
 21
446.058758
  0
LINE
  5
6E8
100
AcDbEntity
  8
M0
100
AcDbLine
 10
62.224137
 20
450.00874
 11
66.487107
 21
445.7458
  0
LINE
  5
6E9
100
AcDbEntity
  8
M0
  6
DASHDOT
100
AcDbLine
 10
86.193088
 20
447.439831
 11
86.193088
 21
448.439831
  0
CIRCLE
  5
6EA
100
AcDbEntity
  8
M0
100
AcDbCircle
 10
86.193088
 20
447.939831
 40
4.499996
  0
LINE
  5
6EB
100
AcDbEntity
  8
M0
  6
DASHDOT
100
AcDbLine
 10
85.693088
 20
447.939831
 11
86.693088
 21
447.939831
  0
LINE
  5
6EC
100
AcDbEntity
  8
M0
100
AcDbLine
 10
86.659992
 20
449.820965
 11
84.312015
 21
447.472973
  0
LINE
  5
6ED
100
AcDbEntity
  8
M0
100
AcDbLine
 10
88.074191
 20
448.40675
 11
85.726215
 21
446.058758
  0
LINE
  5
6EE
100
AcDbEntity
  8
M0
100
AcDbLine
 10
84.124133
 20
450.00874
 11
88.387103
 21
445.7458
  0
LINE
  5
6EF
100
AcDbEntity
  8
M0
  6
DASHDOT
100
AcDbLine
 10
108.093091
 20
447.439831
 11
108.093091
 21
448.439831
  0
CIRCLE
  5
6F0
100
AcDbEntity
  8
M0
100
AcDbCircle
 10
108.093091
 20
447.939831
 40
4.499996
  0
LINE
  5
6F1
100
AcDbEntity
  8
M0
  6
DASHDOT
100
AcDbLine
 10
107.593091
 20
447.939831
 11
108.593091
 21
447.939831
  0
LINE
  5
6F2
100
AcDbEntity
  8
M0
100
AcDbLine
 10
108.559995
 20
449.820965
 11
106.212018
 21
447.472973
  0
LINE
  5
6F3
100
AcDbEntity
  8
M0
100
AcDbLine
 10
109.974195
 20
448.40675
 11
107.626218
 21
446.058758
  0
LINE
  5
6F4
100
AcDbEntity
  8
M0
100
AcDbLine
 10
106.024137
 20
450.00874
 11
110.287107
 21
445.7458
  0
ARC
  5
6F5
100
AcDbEntity
  8
M0
100
AcDbCircle
 10
149.993088
 20
434.939831
 40
2.0
100
AcDbArc
 50
180.0
 51
270.0
  0
ARC
  5
6F6
100
AcDbEntity
  8
M0
100
AcDbCircle
 10
143.993088
 20
436.408918
 40
4.0
100
AcDbArc
 50
1.628444E-012
 51
31.574191
  0
LINE
  5
6F7
100
AcDbEntity
  8
M0
100
AcDbLine
 10
142.685236
 20
446.176335
 11
147.400939
 21
438.503327
  0
LINE
  5
6F8
100
AcDbEntity
  8
M0
100
AcDbLine
 10
147.993088
 20
434.939831
 11
147.993088
 21
436.408918
  0
LINE
  5
6F9
100
AcDbEntity
  8
M0
100
AcDbLine
 10
149.993088
 20
432.939831
 11
150.828503
 21
432.939831
  0
LINE
  5
6FA
100
AcDbEntity
  8
M0
100
AcDbLine
 10
141.093088
 20
453.939831
 11
133.093088
 21
453.939831
  0
LINE
  5
6FB
100
AcDbEntity
  8
M0
100
AcDbLine
 10
142.093088
 20
452.939831
 11
142.093088
 21
448.270744
  0
LINE
  5
6FC
100
AcDbEntity
  8
M0
100
AcDbLine
 10
149.993088
 20
422.639831
 11
141.993088
 21
422.639831
  0
LINE
  5
6FD
100
AcDbEntity
  8
M0
100
AcDbLine
 10
132.093088
 20
452.939831
 11
132.093088
 21
447.582688
  0
ARC
  5
6FE
100
AcDbEntity
  8
M0
100
AcDbCircle
 10
143.293088
 20
431.639831
 40
2.5
100
AcDbArc
 50
156.926082
 51
203.073918
  0
ARC
  5
6FF
100
AcDbEntity
  8
M0
100
AcDbCircle
 10
143.293088
 20
424.639831
 40
2.5
100
AcDbArc
 50
156.926082
 51
203.073918
  0
ARC
  5
700
100
AcDbEntity
  8
M0
100
AcDbCircle
 10
148.693088
 20
431.639831
 40
2.5
100
AcDbArc
 50
-23.073918
 51
31.332251
  0
ARC
  5
701
100
AcDbEntity
  8
M0
100
AcDbCircle
 10
148.693088
 20
424.639831
 40
2.5
100
AcDbArc
 50
-23.073918
 51
23.073918
  0
LINE
  5
702
100
AcDbEntity
  8
M0
100
AcDbLine
 10
140.993088
 20
430.660035
 11
140.993088
 21
425.619627
  0
LINE
  5
703
100
AcDbEntity
  8
M0
100
AcDbLine
 10
140.993088
 20
423.660035
 11
140.993088
 21
423.639831
  0
LINE
  5
704
100
AcDbEntity
  8
M0
100
AcDbLine
 10
150.993088
 20
430.660035
 11
150.993088
 21
425.619627
  0
LINE
  5
705
100
AcDbEntity
  8
M0
100
AcDbLine
 10
150.993088
 20
423.660035
 11
150.993088
 21
423.639831
  0
LINE
  5
706
100
AcDbEntity
  8
M0
100
AcDbLine
 10
140.993088
 20
432.619627
 11
140.993088
 21
437.939831
  0
ARC
  5
707
100
AcDbEntity
  8
M0
100
AcDbCircle
 10
136.993088
 20
437.939831
 40
4.0
100
AcDbArc
 50
0.0
 51
90.0
  0
ARC
  5
708
100
AcDbEntity
  8
M0
100
AcDbCircle
 10
141.993088
 20
423.639831
 40
1.0
100
AcDbArc
 50
180.0
 51
270.0
  0
ARC
  5
709
100
AcDbEntity
  8
M0
100
AcDbCircle
 10
149.993088
 20
423.639831
 40
1.0
100
AcDbArc
 50
270.0
 51
360.0
  0
ARC
  5
70A
100
AcDbEntity
  8
M0
100
AcDbCircle
 10
133.093088
 20
452.939831
 40
1.0
100
AcDbArc
 50
90.0
 51
180.0
  0
ARC
  5
70B
100
AcDbEntity
  8
M0
100
AcDbCircle
 10
141.093088
 20
452.939831
 40
1.0
100
AcDbArc
 50
0.0
 51
90.0
  0
ARC
  5
70C
100
AcDbEntity
  8
M0
100
AcDbCircle
 10
135.448643
 20
442.939831
 40
1.0
100
AcDbArc
 50
211.890792
 51
270.0
  0
ARC
  5
70D
100
AcDbEntity
  8
M0
100
AcDbCircle
 10
136.093088
 20
447.582688
 40
4.0
100
AcDbArc
 50
180.0
 51
211.890792
  0
LINE
  5
70E
100
AcDbEntity
  8
M0
100
AcDbLine
 10
136.993088
 20
441.939831
 11
135.448643
 21
441.939831
  0
LINE
  5
70F
100
AcDbEntity
  8
M0
100
AcDbLine
 10
132.696861
 20
445.469481
 11
134.599587
 21
442.411529
  0
ARC
  5
710
100
AcDbEntity
  8
M0
100
AcDbCircle
 10
146.093088
 20
448.270744
 40
4.0
100
AcDbArc
 50
180.0
 51
211.574191
  0
LINE
  5
711
100
AcDbEntity
  8
M0
  6
DASHDOT
100
AcDbLine
 10
180.893087
 20
359.439831
 11
180.893087
 21
360.439831
  0
CIRCLE
  5
712
100
AcDbEntity
  8
M0
100
AcDbCircle
 10
180.893087
 20
359.939831
 40
4.499996
  0
LINE
  5
713
100
AcDbEntity
  8
M0
  6
DASHDOT
100
AcDbLine
 10
180.393087
 20
359.939831
 11
181.393087
 21
359.939831
  0
LINE
  5
714
100
AcDbEntity
  8
M0
100
AcDbLine
 10
181.359991
 20
361.820965
 11
179.012014
 21
359.472973
  0
LINE
  5
715
100
AcDbEntity
  8
M0
100
AcDbLine
 10
182.774191
 20
360.40675
 11
180.426214
 21
358.058758
  0
LINE
  5
716
100
AcDbEntity
  8
M0
100
AcDbLine
 10
178.824133
 20
362.00874
 11
183.087103
 21
357.7458
  0
LINE
  5
717
100
AcDbEntity
  8
M0
100
AcDbLine
 10
155.893084
 20
373.939831
 11
155.893084
 21
367.137656
  0
LINE
  5
718
100
AcDbEntity
  8
M0
100
AcDbLine
 10
162.093084
 20
373.939831
 11
162.093084
 21
367.137656
  0
LINE
  5
719
100
AcDbEntity
  8
M0
100
AcDbLine
 10
163.993084
 20
363.540556
 11
163.993084
 21
354.939831
  0
LINE
  5
71A
100
AcDbEntity
  8
M0
100
AcDbLine
 10
162.918086
 20
365.071408
 11
163.718084
 21
364.229305
  0
LINE
  5
71B
100
AcDbEntity
  8
M0
100
AcDbLine
 10
163.8285
 20
374.939831
 11
163.093084
 21
374.939831
  0
LINE
  5
71C
100
AcDbEntity
  8
M0
100
AcDbLine
 10
153.993084
 20
363.540556
 11
153.993084
 21
354.939831
  0
LINE
  5
71D
100
AcDbEntity
  8
M0
100
AcDbLine
 10
162.993084
 20
353.939831
 11
154.993084
 21
353.939831
  0
LINE
  5
71E
100
AcDbEntity
  8
M0
100
AcDbLine
 10
154.157669
 20
374.939831
 11
154.893084
 21
374.939831
  0
LINE
  5
71F
100
AcDbEntity
  8
M0
100
AcDbLine
 10
162.993084
 20
385.239831
 11
154.993084
 21
385.239831
  0
LINE
  5
720
100
AcDbEntity
  8
M0
100
AcDbLine
 10
153.993084
 20
384.239831
 11
153.993084
 21
384.219627
  0
LINE
  5
721
100
AcDbEntity
  8
M0
100
AcDbLine
 10
153.993084
 20
382.260035
 11
153.993084
 21
377.219627
  0
LINE
  5
722
100
AcDbEntity
  8
M0
100
AcDbLine
 10
163.993084
 20
382.260035
 11
163.993084
 21
377.219627
  0
LINE
  5
723
100
AcDbEntity
  8
M0
100
AcDbLine
 10
163.993084
 20
384.239831
 11
163.993084
 21
384.219627
  0
ARC
  5
724
100
AcDbEntity
  8
M0
100
AcDbCircle
 10
156.293084
 20
383.239831
 40
2.5
100
AcDbArc
 50
156.926082
 51
203.073918
  0
ARC
  5
725
100
AcDbEntity
  8
M0
100
AcDbCircle
 10
154.993084
 20
384.239831
 40
1.0
100
AcDbArc
 50
90.0
 51
180.0
  0
ARC
  5
726
100
AcDbEntity
  8
M0
100
AcDbCircle
 10
162.993084
 20
384.239831
 40
1.0
100
AcDbArc
 50
0.0
 51
90.0
  0
ARC
  5
727
100
AcDbEntity
  8
M0
100
AcDbCircle
 10
163.093084
 20
373.939831
 40
1.0
100
AcDbArc
 50
90.0
 51
180.0
  0
ARC
  5
728
100
AcDbEntity
  8
M0
100
AcDbCircle
 10
154.893084
 20
373.939831
 40
1.0
100
AcDbArc
 50
0.0
 51
90.0
  0
ARC
  5
729
100
AcDbEntity
  8
M0
100
AcDbCircle
 10
156.293084
 20
376.239831
 40
2.5
100
AcDbArc
 50
156.926082
 51
211.332251
  0
ARC
  5
72A
100
AcDbEntity
  8
M0
100
AcDbCircle
 10
161.693084
 20
376.239831
 40
2.5
100
AcDbArc
 50
328.667749
 51
383.073918
  0
ARC
  5
72B
100
AcDbEntity
  8
M0
100
AcDbCircle
 10
161.693084
 20
383.239831
 40
2.5
100
AcDbArc
 50
336.926082
 51
383.073918
  0
ARC
  5
72C
100
AcDbEntity
  8
M0
100
AcDbCircle
 10
154.993084
 20
354.939831
 40
1.0
100
AcDbArc
 50
180.0
 51
270.0
  0
ARC
  5
72D
100
AcDbEntity
  8
M0
100
AcDbCircle
 10
154.993084
 20
363.540556
 40
1.0
100
AcDbArc
 50
136.468801
 51
180.0
  0
ARC
  5
72E
100
AcDbEntity
  8
M0
100
AcDbCircle
 10
162.993084
 20
354.939831
 40
1.0
100
AcDbArc
 50
-90.0
 51
0.0
  0
ARC
  5
72F
100
AcDbEntity
  8
M0
100
AcDbCircle
 10
162.993084
 20
363.540556
 40
1.0
100
AcDbArc
 50
0.0
 51
43.531199
  0
ARC
  5
730
100
AcDbEntity
  8
M0
100
AcDbCircle
 10
152.893084
 20
367.137656
 40
3.0
100
AcDbArc
 50
-43.531199
 51
0.0
  0
ARC
  5
731
100
AcDbEntity
  8
M0
100
AcDbCircle
 10
165.093084
 20
367.137656
 40
3.0
100
AcDbArc
 50
180.0
 51
223.531199
  0
LINE
  5
732
100
AcDbEntity
  8
M0
100
AcDbLine
 10
155.068083
 20
365.071408
 11
154.268085
 21
364.229305
  0
LINE
  5
733
100
AcDbEntity
  8
M0
  6
DASHDOT
100
AcDbLine
 10
158.993084
 20
359.439831
 11
158.993084
 21
360.439831
  0
CIRCLE
  5
734
100
AcDbEntity
  8
M0
100
AcDbCircle
 10
158.993084
 20
359.939831
 40
4.499996
  0
LINE
  5
735
100
AcDbEntity
  8
M0
  6
DASHDOT
100
AcDbLine
 10
158.493084
 20
359.939831
 11
159.493084
 21
359.939831
  0
LINE
  5
736
100
AcDbEntity
  8
M0
100
AcDbLine
 10
159.459988
 20
361.820965
 11
157.112011
 21
359.472973
  0
LINE
  5
737
100
AcDbEntity
  8
M0
100
AcDbLine
 10
160.874188
 20
360.40675
 11
158.526211
 21
358.058758
  0
LINE
  5
738
100
AcDbEntity
  8
M0
100
AcDbLine
 10
156.92413
 20
362.00874
 11
161.1871
 21
357.7458
  0
ARC
  5
739
100
AcDbEntity
  8
M0
100
AcDbCircle
 10
149.993088
 20
372.939831
 40
2.0
100
AcDbArc
 50
90.0
 51
180.0
  0
ARC
  5
73A
100
AcDbEntity
  8
M0
100
AcDbCircle
 10
143.993088
 20
371.470744
 40
4.0
100
AcDbArc
 50
-31.574191
 51
0.0
  0
LINE
  5
73B
100
AcDbEntity
  8
M0
100
AcDbLine
 10
142.685236
 20
361.703327
 11
147.400939
 21
369.376335
  0
LINE
  5
73C
100
AcDbEntity
  8
M0
100
AcDbLine
 10
147.993088
 20
372.939831
 11
147.993088
 21
371.470744
  0
LINE
  5
73D
100
AcDbEntity
  8
M0
100
AcDbLine
 10
149.993088
 20
374.939831
 11
150.828503
 21
374.939831
  0
LINE
  5
73E
100
AcDbEntity
  8
M0
100
AcDbLine
 10
141.093088
 20
353.939831
 11
133.093088
 21
353.939831
  0
LINE
  5
73F
100
AcDbEntity
  8
M0
100
AcDbLine
 10
142.093088
 20
354.939831
 11
142.093088
 21
359.608918
  0
LINE
  5
740
100
AcDbEntity
  8
M0
100
AcDbLine
 10
149.993088
 20
385.239831
 11
141.993088
 21
385.239831
  0
LINE
  5
741
100
AcDbEntity
  8
M0
100
AcDbLine
 10
132.093088
 20
354.939831
 11
132.093088
 21
360.296974
  0
ARC
  5
742
100
AcDbEntity
  8
M0
100
AcDbCircle
 10
143.293088
 20
376.239831
 40
2.5
100
AcDbArc
 50
156.926082
 51
203.073918
  0
ARC
  5
743
100
AcDbEntity
  8
M0
100
AcDbCircle
 10
143.293088
 20
383.239831
 40
2.5
100
AcDbArc
 50
156.926082
 51
203.073918
  0
ARC
  5
744
100
AcDbEntity
  8
M0
100
AcDbCircle
 10
148.693088
 20
376.239831
 40
2.5
100
AcDbArc
 50
328.667749
 51
383.073918
  0
ARC
  5
745
100
AcDbEntity
  8
M0
100
AcDbCircle
 10
148.693088
 20
383.239831
 40
2.5
100
AcDbArc
 50
336.926082
 51
383.073918
  0
LINE
  5
746
100
AcDbEntity
  8
M0
100
AcDbLine
 10
140.993088
 20
377.219627
 11
140.993088
 21
382.260035
  0
LINE
  5
747
100
AcDbEntity
  8
M0
100
AcDbLine
 10
140.993088
 20
384.219627
 11
140.993088
 21
384.239831
  0
LINE
  5
748
100
AcDbEntity
  8
M0
100
AcDbLine
 10
150.993088
 20
377.219627
 11
150.993088
 21
382.260035
  0
LINE
  5
749
100
AcDbEntity
  8
M0
100
AcDbLine
 10
150.993088
 20
384.219627
 11
150.993088
 21
384.239831
  0
LINE
  5
74A
100
AcDbEntity
  8
M0
100
AcDbLine
 10
140.993088
 20
375.260035
 11
140.993088
 21
369.939831
  0
ARC
  5
74B
100
AcDbEntity
  8
M0
100
AcDbCircle
 10
136.993088
 20
369.939831
 40
4.0
100
AcDbArc
 50
-90.0
 51
8.14222E-013
  0
ARC
  5
74C
100
AcDbEntity
  8
M0
100
AcDbCircle
 10
141.993088
 20
384.239831
 40
1.0
100
AcDbArc
 50
90.0
 51
180.0
  0
ARC
  5
74D
100
AcDbEntity
  8
M0
100
AcDbCircle
 10
149.993088
 20
384.239831
 40
1.0
100
AcDbArc
 50
0.0
 51
90.0
  0
ARC
  5
74E
100
AcDbEntity
  8
M0
100
AcDbCircle
 10
133.093088
 20
354.939831
 40
1.0
100
AcDbArc
 50
180.0
 51
270.0
  0
ARC
  5
74F
100
AcDbEntity
  8
M0
100
AcDbCircle
 10
141.093088
 20
354.939831
 40
1.0
100
AcDbArc
 50
-90.0
 51
0.0
  0
ARC
  5
750
100
AcDbEntity
  8
M0
100
AcDbCircle
 10
135.448643
 20
364.939831
 40
1.0
100
AcDbArc
 50
90.0
 51
148.109208
  0
ARC
  5
751
100
AcDbEntity
  8
M0
100
AcDbCircle
 10
136.093088
 20
360.296974
 40
4.0
100
AcDbArc
 50
148.109208
 51
180.0
  0
LINE
  5
752
100
AcDbEntity
  8
M0
100
AcDbLine
 10
136.993088
 20
365.939831
 11
135.448643
 21
365.939831
  0
LINE
  5
753
100
AcDbEntity
  8
M0
100
AcDbLine
 10
132.696861
 20
362.410181
 11
134.599587
 21
365.468133
  0
ARC
  5
754
100
AcDbEntity
  8
M0
100
AcDbCircle
 10
146.093088
 20
359.608918
 40
4.0
100
AcDbArc
 50
148.425809
 51
180.0
  0
LINE
  5
755
100
AcDbEntity
  8
M0
100
AcDbLine
 10
155.893084
 20
433.939831
 11
155.893084
 21
440.742006
  0
LINE
  5
756
100
AcDbEntity
  8
M0
100
AcDbLine
 10
162.093084
 20
433.939831
 11
162.093084
 21
440.742006
  0
LINE
  5
757
100
AcDbEntity
  8
M0
100
AcDbLine
 10
163.993084
 20
444.339106
 11
163.993084
 21
452.939831
  0
LINE
  5
758
100
AcDbEntity
  8
M0
100
AcDbLine
 10
162.918086
 20
442.808254
 11
163.718084
 21
443.650357
  0
LINE
  5
759
100
AcDbEntity
  8
M0
100
AcDbLine
 10
163.8285
 20
432.939831
 11
163.093084
 21
432.939831
  0
LINE
  5
75A
100
AcDbEntity
  8
M0
100
AcDbLine
 10
153.993084
 20
444.339106
 11
153.993084
 21
452.939831
  0
LINE
  5
75B
100
AcDbEntity
  8
M0
100
AcDbLine
 10
162.993084
 20
453.939831
 11
154.993084
 21
453.939831
  0
LINE
  5
75C
100
AcDbEntity
  8
M0
100
AcDbLine
 10
154.157669
 20
432.939831
 11
154.893084
 21
432.939831
  0
LINE
  5
75D
100
AcDbEntity
  8
M0
100
AcDbLine
 10
162.993084
 20
422.639831
 11
154.993084
 21
422.639831
  0
LINE
  5
75E
100
AcDbEntity
  8
M0
100
AcDbLine
 10
153.993084
 20
423.639831
 11
153.993084
 21
423.660035
  0
LINE
  5
75F
100
AcDbEntity
  8
M0
100
AcDbLine
 10
153.993084
 20
425.619627
 11
153.993084
 21
430.660035
  0
LINE
  5
760
100
AcDbEntity
  8
M0
100
AcDbLine
 10
163.993084
 20
425.619627
 11
163.993084
 21
430.660035
  0
LINE
  5
761
100
AcDbEntity
  8
M0
100
AcDbLine
 10
163.993084
 20
423.639831
 11
163.993084
 21
423.660035
  0
ARC
  5
762
100
AcDbEntity
  8
M0
100
AcDbCircle
 10
156.293084
 20
424.639831
 40
2.5
100
AcDbArc
 50
156.926082
 51
203.073918
  0
ARC
  5
763
100
AcDbEntity
  8
M0
100
AcDbCircle
 10
154.993084
 20
423.639831
 40
1.0
100
AcDbArc
 50
180.0
 51
270.0
  0
ARC
  5
764
100
AcDbEntity
  8
M0
100
AcDbCircle
 10
162.993084
 20
423.639831
 40
1.0
100
AcDbArc
 50
270.0
 51
360.0
  0
ARC
  5
765
100
AcDbEntity
  8
M0
100
AcDbCircle
 10
163.093084
 20
433.939831
 40
1.0
100
AcDbArc
 50
180.0
 51
270.0
  0
ARC
  5
766
100
AcDbEntity
  8
M0
100
AcDbCircle
 10
154.893084
 20
433.939831
 40
1.0
100
AcDbArc
 50
270.0
 51
360.0
  0
ARC
  5
767
100
AcDbEntity
  8
M0
100
AcDbCircle
 10
156.293084
 20
431.639831
 40
2.5
100
AcDbArc
 50
148.667749
 51
203.073918
  0
ARC
  5
768
100
AcDbEntity
  8
M0
100
AcDbCircle
 10
161.693084
 20
431.639831
 40
2.5
100
AcDbArc
 50
-23.073918
 51
31.332251
  0
ARC
  5
769
100
AcDbEntity
  8
M0
100
AcDbCircle
 10
161.693084
 20
424.639831
 40
2.5
100
AcDbArc
 50
-23.073918
 51
23.073918
  0
ARC
  5
76A
100
AcDbEntity
  8
M0
100
AcDbCircle
 10
154.993084
 20
452.939831
 40
1.0
100
AcDbArc
 50
90.0
 51
180.0
  0
ARC
  5
76B
100
AcDbEntity
  8
M0
100
AcDbCircle
 10
154.993084
 20
444.339106
 40
1.0
100
AcDbArc
 50
180.0
 51
223.531199
  0
ARC
  5
76C
100
AcDbEntity
  8
M0
100
AcDbCircle
 10
162.993084
 20
452.939831
 40
1.0
100
AcDbArc
 50
0.0
 51
90.0
  0
ARC
  5
76D
100
AcDbEntity
  8
M0
100
AcDbCircle
 10
162.993084
 20
444.339106
 40
1.0
100
AcDbArc
 50
316.468801
 51
360.0
  0
ARC
  5
76E
100
AcDbEntity
  8
M0
100
AcDbCircle
 10
152.893084
 20
440.742006
 40
3.0
100
AcDbArc
 50
0.0
 51
43.531199
  0
ARC
  5
76F
100
AcDbEntity
  8
M0
100
AcDbCircle
 10
165.093084
 20
440.742006
 40
3.0
100
AcDbArc
 50
136.468801
 51
180.0
  0
LINE
  5
770
100
AcDbEntity
  8
M0
100
AcDbLine
 10
155.068083
 20
442.808254
 11
154.268085
 21
443.650357
  0
ARC
  5
771
100
AcDbEntity
  8
M0
100
AcDbCircle
 10
167.993087
 20
372.939831
 40
2.0
100
AcDbArc
 50
0.0
 51
90.0
  0
ARC
  5
772
100
AcDbEntity
  8
M0
100
AcDbCircle
 10
173.993087
 20
371.470744
 40
4.0
100
AcDbArc
 50
180.0
 51
211.574191
  0
LINE
  5
773
100
AcDbEntity
  8
M0
100
AcDbLine
 10
175.300939
 20
361.703327
 11
170.585236
 21
369.376335
  0
LINE
  5
774
100
AcDbEntity
  8
M0
100
AcDbLine
 10
169.993087
 20
372.939831
 11
169.993087
 21
371.470744
  0
LINE
  5
775
100
AcDbEntity
  8
M0
100
AcDbLine
 10
167.993087
 20
374.939831
 11
167.157672
 21
374.939831
  0
LINE
  5
776
100
AcDbEntity
  8
M0
100
AcDbLine
 10
176.893087
 20
353.939831
 11
184.893087
 21
353.939831
  0
LINE
  5
777
100
AcDbEntity
  8
M0
100
AcDbLine
 10
175.893087
 20
354.939831
 11
175.893087
 21
359.608918
  0
LINE
  5
778
100
AcDbEntity
  8
M0
100
AcDbLine
 10
167.993087
 20
385.239831
 11
175.993087
 21
385.239831
  0
LINE
  5
779
100
AcDbEntity
  8
M0
100
AcDbLine
 10
185.893087
 20
354.939831
 11
185.893087
 21
360.296974
  0
ARC
  5
77A
100
AcDbEntity
  8
M0
100
AcDbCircle
 10
174.693087
 20
376.239831
 40
2.5
100
AcDbArc
 50
336.926082
 51
383.073918
  0
ARC
  5
77B
100
AcDbEntity
  8
M0
100
AcDbCircle
 10
174.693087
 20
383.239831
 40
2.5
100
AcDbArc
 50
336.926082
 51
383.073918
  0
ARC
  5
77C
100
AcDbEntity
  8
M0
100
AcDbCircle
 10
169.293087
 20
376.239831
 40
2.5
100
AcDbArc
 50
156.926082
 51
211.332251
  0
ARC
  5
77D
100
AcDbEntity
  8
M0
100
AcDbCircle
 10
169.293087
 20
383.239831
 40
2.5
100
AcDbArc
 50
156.926082
 51
203.073918
  0
LINE
  5
77E
100
AcDbEntity
  8
M0
100
AcDbLine
 10
176.993087
 20
377.219627
 11
176.993087
 21
382.260035
  0
LINE
  5
77F
100
AcDbEntity
  8
M0
100
AcDbLine
 10
176.993087
 20
384.219627
 11
176.993087
 21
384.239831
  0
LINE
  5
780
100
AcDbEntity
  8
M0
100
AcDbLine
 10
166.993087
 20
377.219627
 11
166.993087
 21
382.260035
  0
LINE
  5
781
100
AcDbEntity
  8
M0
100
AcDbLine
 10
166.993087
 20
384.219627
 11
166.993087
 21
384.239831
  0
LINE
  5
782
100
AcDbEntity
  8
M0
100
AcDbLine
 10
176.993087
 20
375.260035
 11
176.993087
 21
369.939831
  0
ARC
  5
783
100
AcDbEntity
  8
M0
100
AcDbCircle
 10
180.993087
 20
369.939831
 40
4.0
100
AcDbArc
 50
180.0
 51
270.0
  0
ARC
  5
784
100
AcDbEntity
  8
M0
100
AcDbCircle
 10
175.993087
 20
384.239831
 40
1.0
100
AcDbArc
 50
0.0
 51
90.0
  0
ARC
  5
785
100
AcDbEntity
  8
M0
100
AcDbCircle
 10
167.993087
 20
384.239831
 40
1.0
100
AcDbArc
 50
90.0
 51
180.0
  0
ARC
  5
786
100
AcDbEntity
  8
M0
100
AcDbCircle
 10
184.893087
 20
354.939831
 40
1.0
100
AcDbArc
 50
270.0
 51
360.0
  0
ARC
  5
787
100
AcDbEntity
  8
M0
100
AcDbCircle
 10
176.893087
 20
354.939831
 40
1.0
100
AcDbArc
 50
180.0
 51
270.0
  0
ARC
  5
788
100
AcDbEntity
  8
M0
100
AcDbCircle
 10
182.537532
 20
364.939831
 40
1.0
100
AcDbArc
 50
31.890792
 51
90.0
  0
ARC
  5
789
100
AcDbEntity
  8
M0
100
AcDbCircle
 10
181.893087
 20
360.296974
 40
4.0
100
AcDbArc
 50
0.0
 51
31.890792
  0
LINE
  5
78A
100
AcDbEntity
  8
M0
100
AcDbLine
 10
180.993087
 20
365.939831
 11
182.537532
 21
365.939831
  0
LINE
  5
78B
100
AcDbEntity
  8
M0
100
AcDbLine
 10
185.289314
 20
362.410181
 11
183.386589
 21
365.468133
  0
ARC
  5
78C
100
AcDbEntity
  8
M0
100
AcDbCircle
 10
171.893087
 20
359.608918
 40
4.0
100
AcDbArc
 50
0.0
 51
31.574191
  0
ARC
  5
78D
100
AcDbEntity
  8
M0
100
AcDbCircle
 10
167.993087
 20
434.939831
 40
2.0
100
AcDbArc
 50
-90.0
 51
0.0
  0
ARC
  5
78E
100
AcDbEntity
  8
M0
100
AcDbCircle
 10
173.993087
 20
436.408918
 40
4.0
100
AcDbArc
 50
148.425809
 51
180.0
  0
LINE
  5
78F
100
AcDbEntity
  8
M0
100
AcDbLine
 10
175.300939
 20
446.176335
 11
170.585236
 21
438.503327
  0
LINE
  5
790
100
AcDbEntity
  8
M0
100
AcDbLine
 10
169.993087
 20
434.939831
 11
169.993087
 21
436.408918
  0
LINE
  5
791
100
AcDbEntity
  8
M0
100
AcDbLine
 10
167.993087
 20
432.939831
 11
167.157672
 21
432.939831
  0
LINE
  5
792
100
AcDbEntity
  8
M0
100
AcDbLine
 10
176.893087
 20
453.939831
 11
184.893087
 21
453.939831
  0
LINE
  5
793
100
AcDbEntity
  8
M0
100
AcDbLine
 10
175.893087
 20
452.939831
 11
175.893087
 21
448.270744
  0
LINE
  5
794
100
AcDbEntity
  8
M0
100
AcDbLine
 10
167.993087
 20
422.639831
 11
175.993087
 21
422.639831
  0
LINE
  5
795
100
AcDbEntity
  8
M0
100
AcDbLine
 10
185.893087
 20
452.939831
 11
185.893087
 21
447.582688
  0
ARC
  5
796
100
AcDbEntity
  8
M0
100
AcDbCircle
 10
174.693087
 20
431.639831
 40
2.5
100
AcDbArc
 50
-23.073918
 51
23.073918
  0
ARC
  5
797
100
AcDbEntity
  8
M0
100
AcDbCircle
 10
174.693087
 20
424.639831
 40
2.5
100
AcDbArc
 50
-23.073918
 51
23.073918
  0
ARC
  5
798
100
AcDbEntity
  8
M0
100
AcDbCircle
 10
169.293087
 20
431.639831
 40
2.5
100
AcDbArc
 50
148.667749
 51
203.073918
  0
ARC
  5
799
100
AcDbEntity
  8
M0
100
AcDbCircle
 10
169.293087
 20
424.639831
 40
2.5
100
AcDbArc
 50
156.926082
 51
203.073918
  0
LINE
  5
79A
100
AcDbEntity
  8
M0
100
AcDbLine
 10
176.993087
 20
430.660035
 11
176.993087
 21
425.619627
  0
LINE
  5
79B
100
AcDbEntity
  8
M0
100
AcDbLine
 10
176.993087
 20
423.660035
 11
176.993087
 21
423.639831
  0
LINE
  5
79C
100
AcDbEntity
  8
M0
100
AcDbLine
 10
166.993087
 20
430.660035
 11
166.993087
 21
425.619627
  0
LINE
  5
79D
100
AcDbEntity
  8
M0
100
AcDbLine
 10
166.993087
 20
423.660035
 11
166.993087
 21
423.639831
  0
LINE
  5
79E
100
AcDbEntity
  8
M0
100
AcDbLine
 10
176.993087
 20
432.619627
 11
176.993087
 21
437.939831
  0
ARC
  5
79F
100
AcDbEntity
  8
M0
100
AcDbCircle
 10
180.993087
 20
437.939831
 40
4.0
100
AcDbArc
 50
90.0
 51
180.0
  0
ARC
  5
7A0
100
AcDbEntity
  8
M0
100
AcDbCircle
 10
175.993087
 20
423.639831
 40
1.0
100
AcDbArc
 50
-90.0
 51
0.0
  0
ARC
  5
7A1
100
AcDbEntity
  8
M0
100
AcDbCircle
 10
167.993087
 20
423.639831
 40
1.0
100
AcDbArc
 50
180.0
 51
270.0
  0
ARC
  5
7A2
100
AcDbEntity
  8
M0
100
AcDbCircle
 10
184.893087
 20
452.939831
 40
1.0
100
AcDbArc
 50
0.0
 51
90.0
  0
ARC
  5
7A3
100
AcDbEntity
  8
M0
100
AcDbCircle
 10
176.893087
 20
452.939831
 40
1.0
100
AcDbArc
 50
90.0
 51
180.0
  0
ARC
  5
7A4
100
AcDbEntity
  8
M0
100
AcDbCircle
 10
182.537532
 20
442.939831
 40
1.0
100
AcDbArc
 50
270.0
 51
328.109208
  0
ARC
  5
7A5
100
AcDbEntity
  8
M0
100
AcDbCircle
 10
181.893087
 20
447.582688
 40
4.0
100
AcDbArc
 50
-31.890792
 51
0.0
  0
LINE
  5
7A6
100
AcDbEntity
  8
M0
100
AcDbLine
 10
180.993087
 20
441.939831
 11
182.537532
 21
441.939831
  0
LINE
  5
7A7
100
AcDbEntity
  8
M0
100
AcDbLine
 10
185.289314
 20
445.469481
 11
183.386589
 21
442.411529
  0
ARC
  5
7A8
100
AcDbEntity
  8
M0
100
AcDbCircle
 10
171.893087
 20
448.270744
 40
4.0
100
AcDbArc
 50
-31.574191
 51
0.0
  0
LINE
  5
7A9
100
AcDbEntity
  8
M0
  6
DASHDOT
100
AcDbLine
 10
137.093088
 20
359.439831
 11
137.093088
 21
360.439831
  0
CIRCLE
  5
7AA
100
AcDbEntity
  8
M0
100
AcDbCircle
 10
137.093088
 20
359.939831
 40
4.499996
  0
LINE
  5
7AB
100
AcDbEntity
  8
M0
  6
DASHDOT
100
AcDbLine
 10
136.593088
 20
359.939831
 11
137.593088
 21
359.939831
  0
LINE
  5
7AC
100
AcDbEntity
  8
M0
100
AcDbLine
 10
137.559992
 20
361.820965
 11
135.212015
 21
359.472973
  0
LINE
  5
7AD
100
AcDbEntity
  8
M0
100
AcDbLine
 10
138.974191
 20
360.40675
 11
136.626215
 21
358.058758
  0
LINE
  5
7AE
100
AcDbEntity
  8
M0
100
AcDbLine
 10
135.024133
 20
362.00874
 11
139.287103
 21
357.7458
  0
ARC
  5
7AF
100
AcDbEntity
  8
M0
100
AcDbCircle
 10
171.993088
 20
371.439831
 40
2.75
100
AcDbArc
 50
137.622878
 51
245.572882
  0
LINE
  5
7B0
100
AcDbEntity
  8
M0
100
AcDbLine
 10
149.683671
 20
440.949186
 11
146.502031
 21
444.130949
  0
LINE
  5
7B1
100
AcDbEntity
  8
M0
100
AcDbLine
 10
149.506913
 20
442.893522
 11
147.739335
 21
441.125944
  0
LINE
  5
7B2
100
AcDbEntity
  8
M0
100
AcDbLine
 10
148.446367
 20
443.954191
 11
146.678788
 21
442.186491
  0
LINE
  5
7B3
100
AcDbEntity
  8
M0
100
AcDbLine
 10
151.418087
 20
446.364831
 11
144.768087
 21
446.364831
  0
ARC
  5
7B4
100
AcDbEntity
  8
M0
100
AcDbCircle
 10
151.418087
 20
445.864831
 40
0.5
100
AcDbArc
 50
0.0
 51
90.0
  0
LINE
  5
7B5
100
AcDbEntity
  8
M0
100
AcDbLine
 10
151.918087
 20
439.214831
 11
151.918087
 21
445.864831
  0
ARC
  5
7B6
100
AcDbEntity
  8
M0
100
AcDbCircle
 10
151.418087
 20
439.214831
 40
0.5
100
AcDbArc
 50
270.0
 51
360.0
  0
LINE
  5
7B7
100
AcDbEntity
  8
M0
100
AcDbLine
 10
147.270953
 20
438.714831
 11
151.418087
 21
438.714831
  0
LINE
  5
7B8
100
AcDbEntity
  8
M0
100
AcDbLine
 10
144.268087
 20
445.864831
 11
144.268087
 21
443.600849
  0
ARC
  5
7B9
100
AcDbEntity
  8
M0
100
AcDbCircle
 10
144.768087
 20
445.864831
 40
0.5
100
AcDbArc
 50
90.0
 51
180.0
  0
ARC
  5
7BA
100
AcDbEntity
  8
M0
100
AcDbCircle
 10
148.093087
 20
442.539831
 40
3.0
100
AcDbArc
 50
237.275263
 51
545.873119
  0
CIRCLE
  5
7BB
100
AcDbEntity
  8
M0
  6
DASHED
100
AcDbCircle
 10
133.793088
 20
383.039831
 40
3.0
  0
LINE
  5
7BC
100
AcDbEntity
  8
M0
  6
DASHED
100
AcDbLine
 10
135.383672
 20
381.449186
 11
132.202031
 21
384.630949
  0
LINE
  5
7BD
100
AcDbEntity
  8
M0
  6
DASHED
100
AcDbLine
 10
135.206914
 20
383.393522
 11
133.439336
 21
381.625944
  0
LINE
  5
7BE
100
AcDbEntity
  8
M0
  6
DASHED
100
AcDbLine
 10
134.146367
 20
384.454191
 11
132.378789
 21
382.686491
  0
LINE
  5
7BF
100
AcDbEntity
  8
M0
  6
DASHED
100
AcDbLine
 10
137.118088
 20
386.864831
 11
130.468088
 21
386.864831
  0
ARC
  5
7C0
100
AcDbEntity
  8
M0
  6
DASHED
100
AcDbCircle
 10
137.118088
 20
386.364831
 40
0.5
100
AcDbArc
 50
0.0
 51
90.0
  0
LINE
  5
7C1
100
AcDbEntity
  8
M0
  6
DASHED
100
AcDbLine
 10
137.618088
 20
379.714831
 11
137.618088
 21
386.364831
  0
ARC
  5
7C2
100
AcDbEntity
  8
M0
  6
DASHED
100
AcDbCircle
 10
137.118088
 20
379.714831
 40
0.5
100
AcDbArc
 50
270.0
 51
360.0
  0
LINE
  5
7C3
100
AcDbEntity
  8
M0
  6
DASHED
100
AcDbLine
 10
130.468088
 20
379.214831
 11
137.118088
 21
379.214831
  0
LINE
  5
7C4
100
AcDbEntity
  8
M0
  6
DASHED
100
AcDbLine
 10
129.968088
 20
386.364831
 11
129.968088
 21
379.714831
  0
ARC
  5
7C5
100
AcDbEntity
  8
M0
  6
DASHED
100
AcDbCircle
 10
130.468088
 20
386.364831
 40
0.5
100
AcDbArc
 50
90.0
 51
180.0
  0
ARC
  5
7C6
100
AcDbEntity
  8
M0
  6
DASHED
100
AcDbCircle
 10
130.468088
 20
379.714831
 40
0.5
100
AcDbArc
 50
180.0
 51
270.0
  0
ARC
  5
7C7
100
AcDbEntity
  8
M0
100
AcDbCircle
 10
145.993088
 20
371.439831
 40
2.75
100
AcDbArc
 50
294.427107
 51
402.37713
  0
CIRCLE
  5
7C8
100
AcDbEntity
  8
M0
100
AcDbCircle
 10
184.193087
 20
390.639831
 40
3.0
  0
LINE
  5
7C9
100
AcDbEntity
  8
M0
100
AcDbLine
 10
185.783671
 20
389.049186
 11
182.602031
 21
392.230949
  0
LINE
  5
7CA
100
AcDbEntity
  8
M0
100
AcDbLine
 10
185.606913
 20
390.993522
 11
183.839335
 21
389.225944
  0
LINE
  5
7CB
100
AcDbEntity
  8
M0
100
AcDbLine
 10
184.546367
 20
392.054191
 11
182.778788
 21
390.286491
  0
LINE
  5
7CC
100
AcDbEntity
  8
M0
100
AcDbLine
 10
187.518087
 20
394.464831
 11
180.868087
 21
394.464831
  0
ARC
  5
7CD
100
AcDbEntity
  8
M0
100
AcDbCircle
 10
187.518087
 20
393.964831
 40
0.5
100
AcDbArc
 50
0.0
 51
90.0
  0
LINE
  5
7CE
100
AcDbEntity
  8
M0
100
AcDbLine
 10
188.018087
 20
387.314831
 11
188.018087
 21
393.964831
  0
ARC
  5
7CF
100
AcDbEntity
  8
M0
100
AcDbCircle
 10
187.518087
 20
387.314831
 40
0.5
100
AcDbArc
 50
270.0
 51
360.0
  0
LINE
  5
7D0
100
AcDbEntity
  8
M0
100
AcDbLine
 10
180.868087
 20
386.814831
 11
187.518087
 21
386.814831
  0
LINE
  5
7D1
100
AcDbEntity
  8
M0
100
AcDbLine
 10
180.368087
 20
393.964831
 11
180.368087
 21
387.314831
  0
ARC
  5
7D2
100
AcDbEntity
  8
M0
100
AcDbCircle
 10
180.868087
 20
393.964831
 40
0.5
100
AcDbArc
 50
90.0
 51
180.0
  0
ARC
  5
7D3
100
AcDbEntity
  8
M0
100
AcDbCircle
 10
180.868087
 20
387.314831
 40
0.5
100
AcDbArc
 50
180.0
 51
270.0
  0
CIRCLE
  5
7D4
100
AcDbEntity
  8
M0
100
AcDbCircle
 10
184.193087
 20
383.039831
 40
3.0
  0
LINE
  5
7D5
100
AcDbEntity
  8
M0
100
AcDbLine
 10
185.783671
 20
381.449186
 11
182.602031
 21
384.630949
  0
LINE
  5
7D6
100
AcDbEntity
  8
M0
100
AcDbLine
 10
185.606913
 20
383.393522
 11
183.839335
 21
381.625944
  0
LINE
  5
7D7
100
AcDbEntity
  8
M0
100
AcDbLine
 10
184.546367
 20
384.454191
 11
182.778788
 21
382.686491
  0
LINE
  5
7D8
100
AcDbEntity
  8
M0
100
AcDbLine
 10
187.518087
 20
386.864831
 11
180.868087
 21
386.864831
  0
ARC
  5
7D9
100
AcDbEntity
  8
M0
100
AcDbCircle
 10
187.518087
 20
386.364831
 40
0.5
100
AcDbArc
 50
0.0
 51
90.0
  0
LINE
  5
7DA
100
AcDbEntity
  8
M0
100
AcDbLine
 10
188.018087
 20
379.714831
 11
188.018087
 21
386.364831
  0
ARC
  5
7DB
100
AcDbEntity
  8
M0
100
AcDbCircle
 10
187.518087
 20
379.714831
 40
0.5
100
AcDbArc
 50
270.0
 51
360.0
  0
LINE
  5
7DC
100
AcDbEntity
  8
M0
100
AcDbLine
 10
180.868087
 20
379.214831
 11
187.518087
 21
379.214831
  0
LINE
  5
7DD
100
AcDbEntity
  8
M0
100
AcDbLine
 10
180.368087
 20
386.364831
 11
180.368087
 21
379.714831
  0
ARC
  5
7DE
100
AcDbEntity
  8
M0
100
AcDbCircle
 10
180.868087
 20
386.364831
 40
0.5
100
AcDbArc
 50
90.0
 51
180.0
  0
ARC
  5
7DF
100
AcDbEntity
  8
M0
100
AcDbCircle
 10
180.868087
 20
379.714831
 40
0.5
100
AcDbArc
 50
180.0
 51
270.0
  0
CIRCLE
  5
7E0
100
AcDbEntity
  8
M0
100
AcDbCircle
 10
184.193088
 20
417.239831
 40
3.0
  0
LINE
  5
7E1
100
AcDbEntity
  8
M0
100
AcDbLine
 10
185.783671
 20
415.649186
 11
182.602031
 21
418.830949
  0
LINE
  5
7E2
100
AcDbEntity
  8
M0
100
AcDbLine
 10
185.606914
 20
417.593522
 11
183.839335
 21
415.825944
  0
LINE
  5
7E3
100
AcDbEntity
  8
M0
100
AcDbLine
 10
184.546367
 20
418.654191
 11
182.778789
 21
416.886491
  0
LINE
  5
7E4
100
AcDbEntity
  8
M0
100
AcDbLine
 10
187.518088
 20
421.064831
 11
180.868088
 21
421.064831
  0
ARC
  5
7E5
100
AcDbEntity
  8
M0
100
AcDbCircle
 10
187.518088
 20
420.564831
 40
0.5
100
AcDbArc
 50
0.0
 51
90.0
  0
LINE
  5
7E6
100
AcDbEntity
  8
M0
100
AcDbLine
 10
188.018088
 20
413.914831
 11
188.018088
 21
420.564831
  0
ARC
  5
7E7
100
AcDbEntity
  8
M0
100
AcDbCircle
 10
187.518088
 20
413.914831
 40
0.5
100
AcDbArc
 50
270.0
 51
360.0
  0
LINE
  5
7E8
100
AcDbEntity
  8
M0
100
AcDbLine
 10
180.868088
 20
413.414831
 11
187.518088
 21
413.414831
  0
LINE
  5
7E9
100
AcDbEntity
  8
M0
100
AcDbLine
 10
180.368088
 20
420.564831
 11
180.368088
 21
413.914831
  0
ARC
  5
7EA
100
AcDbEntity
  8
M0
100
AcDbCircle
 10
180.868088
 20
420.564831
 40
0.5
100
AcDbArc
 50
90.0
 51
180.0
  0
ARC
  5
7EB
100
AcDbEntity
  8
M0
100
AcDbCircle
 10
180.868088
 20
413.914831
 40
0.5
100
AcDbArc
 50
180.0
 51
270.0
  0
CIRCLE
  5
7EC
100
AcDbEntity
  8
M0
100
AcDbCircle
 10
145.993088
 20
427.639831
 40
3.5
  0
LINE
  5
7ED
100
AcDbEntity
  8
M0
100
AcDbLine
 10
147.003959
 20
429.357788
 11
144.428886
 21
426.782715
  0
LINE
  5
7EE
100
AcDbEntity
  8
M0
100
AcDbLine
 10
147.711067
 20
428.65068
 11
145.135994
 21
426.075607
  0
LINE
  5
7EF
100
AcDbEntity
  8
M0
100
AcDbLine
 10
145.032234
 20
428.600677
 11
146.877083
 21
426.755844
  0
CIRCLE
  5
7F0
100
AcDbEntity
  8
M0
100
AcDbCircle
 10
158.993084
 20
427.639831
 40
3.5
  0
LINE
  5
7F1
100
AcDbEntity
  8
M0
100
AcDbLine
 10
160.003956
 20
429.357788
 11
157.428883
 21
426.782715
  0
LINE
  5
7F2
100
AcDbEntity
  8
M0
100
AcDbLine
 10
160.711063
 20
428.65068
 11
158.13599
 21
426.075607
  0
LINE
  5
7F3
100
AcDbEntity
  8
M0
100
AcDbLine
 10
158.03223
 20
428.600677
 11
159.877079
 21
426.755844
  0
CIRCLE
  5
7F4
100
AcDbEntity
  8
M0
100
AcDbCircle
 10
171.993085
 20
427.639831
 40
3.5
  0
LINE
  5
7F5
100
AcDbEntity
  8
M0
100
AcDbLine
 10
173.003956
 20
429.357788
 11
170.428883
 21
426.782715
  0
LINE
  5
7F6
100
AcDbEntity
  8
M0
100
AcDbLine
 10
173.711064
 20
428.65068
 11
171.135991
 21
426.075607
  0
LINE
  5
7F7
100
AcDbEntity
  8
M0
100
AcDbLine
 10
171.032231
 20
428.600677
 11
172.877079
 21
426.755844
  0
CIRCLE
  5
7F8
100
AcDbEntity
  8
M0
100
AcDbCircle
 10
171.993085
 20
380.239831
 40
3.5
  0
LINE
  5
7F9
100
AcDbEntity
  8
M0
100
AcDbLine
 10
173.003956
 20
381.957787
 11
170.428883
 21
379.382714
  0
LINE
  5
7FA
100
AcDbEntity
  8
M0
100
AcDbLine
 10
173.711064
 20
381.25068
 11
171.135991
 21
378.675607
  0
LINE
  5
7FB
100
AcDbEntity
  8
M0
100
AcDbLine
 10
171.032231
 20
381.200677
 11
172.877079
 21
379.355843
  0
CIRCLE
  5
7FC
100
AcDbEntity
  8
M0
100
AcDbCircle
 10
158.993084
 20
380.239831
 40
3.5
  0
LINE
  5
7FD
100
AcDbEntity
  8
M0
100
AcDbLine
 10
160.003956
 20
381.957787
 11
157.428883
 21
379.382714
  0
LINE
  5
7FE
100
AcDbEntity
  8
M0
100
AcDbLine
 10
160.711063
 20
381.25068
 11
158.13599
 21
378.675607
  0
LINE
  5
7FF
100
AcDbEntity
  8
M0
100
AcDbLine
 10
158.03223
 20
381.200677
 11
159.877079
 21
379.355843
  0
CIRCLE
  5
800
100
AcDbEntity
  8
M0
100
AcDbCircle
 10
145.993088
 20
380.239831
 40
3.5
  0
LINE
  5
801
100
AcDbEntity
  8
M0
100
AcDbLine
 10
147.003959
 20
381.957787
 11
144.428886
 21
379.382714
  0
LINE
  5
802
100
AcDbEntity
  8
M0
100
AcDbLine
 10
147.711067
 20
381.25068
 11
145.135994
 21
378.675607
  0
LINE
  5
803
100
AcDbEntity
  8
M0
100
AcDbLine
 10
145.032234
 20
381.200677
 11
146.877083
 21
379.355843
  0
CIRCLE
  5
804
100
AcDbEntity
  8
M0
  6
DASHED
100
AcDbCircle
 10
133.793088
 20
417.239831
 40
3.0
  0
LINE
  5
805
100
AcDbEntity
  8
M0
  6
DASHED
100
AcDbLine
 10
135.383672
 20
415.649186
 11
132.202031
 21
418.830949
  0
LINE
  5
806
100
AcDbEntity
  8
M0
  6
DASHED
100
AcDbLine
 10
135.206914
 20
417.593522
 11
133.439336
 21
415.825944
  0
LINE
  5
807
100
AcDbEntity
  8
M0
  6
DASHED
100
AcDbLine
 10
134.146367
 20
418.654191
 11
132.378789
 21
416.886491
  0
LINE
  5
808
100
AcDbEntity
  8
M0
  6
DASHED
100
AcDbLine
 10
137.118088
 20
421.064831
 11
130.468088
 21
421.064831
  0
ARC
  5
809
100
AcDbEntity
  8
M0
  6
DASHED
100
AcDbCircle
 10
137.118088
 20
420.564831
 40
0.5
100
AcDbArc
 50
0.0
 51
90.0
  0
LINE
  5
80A
100
AcDbEntity
  8
M0
  6
DASHED
100
AcDbLine
 10
137.618088
 20
413.914831
 11
137.618088
 21
420.564831
  0
ARC
  5
80B
100
AcDbEntity
  8
M0
  6
DASHED
100
AcDbCircle
 10
137.118088
 20
413.914831
 40
0.5
100
AcDbArc
 50
270.0
 51
360.0
  0
LINE
  5
80C
100
AcDbEntity
  8
M0
  6
DASHED
100
AcDbLine
 10
130.468088
 20
413.414831
 11
137.118088
 21
413.414831
  0
LINE
  5
80D
100
AcDbEntity
  8
M0
  6
DASHED
100
AcDbLine
 10
129.968088
 20
420.564831
 11
129.968088
 21
413.914831
  0
ARC
  5
80E
100
AcDbEntity
  8
M0
  6
DASHED
100
AcDbCircle
 10
130.468088
 20
420.564831
 40
0.5
100
AcDbArc
 50
90.0
 51
180.0
  0
ARC
  5
80F
100
AcDbEntity
  8
M0
  6
DASHED
100
AcDbCircle
 10
130.468088
 20
413.914831
 40
0.5
100
AcDbArc
 50
180.0
 51
270.0
  0
CIRCLE
  5
810
100
AcDbEntity
  8
M0
100
AcDbCircle
 10
184.193088
 20
424.839831
 40
3.0
  0
LINE
  5
811
100
AcDbEntity
  8
M0
100
AcDbLine
 10
185.783671
 20
423.249186
 11
182.602031
 21
426.430949
  0
LINE
  5
812
100
AcDbEntity
  8
M0
100
AcDbLine
 10
185.606914
 20
425.193522
 11
183.839335
 21
423.425944
  0
LINE
  5
813
100
AcDbEntity
  8
M0
100
AcDbLine
 10
184.546367
 20
426.254191
 11
182.778789
 21
424.486491
  0
LINE
  5
814
100
AcDbEntity
  8
M0
100
AcDbLine
 10
187.518088
 20
428.664831
 11
180.868088
 21
428.664831
  0
ARC
  5
815
100
AcDbEntity
  8
M0
100
AcDbCircle
 10
187.518088
 20
428.164831
 40
0.5
100
AcDbArc
 50
0.0
 51
90.0
  0
LINE
  5
816
100
AcDbEntity
  8
M0
100
AcDbLine
 10
188.018088
 20
421.514831
 11
188.018088
 21
428.164831
  0
ARC
  5
817
100
AcDbEntity
  8
M0
100
AcDbCircle
 10
187.518088
 20
421.514831
 40
0.5
100
AcDbArc
 50
270.0
 51
360.0
  0
LINE
  5
818
100
AcDbEntity
  8
M0
100
AcDbLine
 10
180.868088
 20
421.014831
 11
187.518088
 21
421.014831
  0
LINE
  5
819
100
AcDbEntity
  8
M0
100
AcDbLine
 10
180.368088
 20
428.164831
 11
180.368088
 21
421.514831
  0
ARC
  5
81A
100
AcDbEntity
  8
M0
100
AcDbCircle
 10
180.868088
 20
428.164831
 40
0.5
100
AcDbArc
 50
90.0
 51
180.0
  0
ARC
  5
81B
100
AcDbEntity
  8
M0
100
AcDbCircle
 10
180.868088
 20
421.514831
 40
0.5
100
AcDbArc
 50
180.0
 51
270.0
  0
CIRCLE
  5
81C
100
AcDbEntity
  8
M0
  6
DASHED
100
AcDbCircle
 10
133.793088
 20
390.639831
 40
3.0
  0
LINE
  5
81D
100
AcDbEntity
  8
M0
  6
DASHED
100
AcDbLine
 10
135.383672
 20
389.049186
 11
132.202031
 21
392.230949
  0
LINE
  5
81E
100
AcDbEntity
  8
M0
  6
DASHED
100
AcDbLine
 10
135.206914
 20
390.993522
 11
133.439336
 21
389.225944
  0
LINE
  5
81F
100
AcDbEntity
  8
M0
  6
DASHED
100
AcDbLine
 10
134.146367
 20
392.054191
 11
132.378789
 21
390.286491
  0
LINE
  5
820
100
AcDbEntity
  8
M0
  6
DASHED
100
AcDbLine
 10
137.118088
 20
394.464831
 11
130.468088
 21
394.464831
  0
ARC
  5
821
100
AcDbEntity
  8
M0
  6
DASHED
100
AcDbCircle
 10
137.118088
 20
393.964831
 40
0.5
100
AcDbArc
 50
0.0
 51
90.0
  0
LINE
  5
822
100
AcDbEntity
  8
M0
  6
DASHED
100
AcDbLine
 10
137.618088
 20
387.314831
 11
137.618088
 21
393.964831
  0
ARC
  5
823
100
AcDbEntity
  8
M0
  6
DASHED
100
AcDbCircle
 10
137.118088
 20
387.314831
 40
0.5
100
AcDbArc
 50
270.0
 51
360.0
  0
LINE
  5
824
100
AcDbEntity
  8
M0
  6
DASHED
100
AcDbLine
 10
130.468088
 20
386.814831
 11
137.118088
 21
386.814831
  0
LINE
  5
825
100
AcDbEntity
  8
M0
  6
DASHED
100
AcDbLine
 10
129.968088
 20
393.964831
 11
129.968088
 21
387.314831
  0
ARC
  5
826
100
AcDbEntity
  8
M0
  6
DASHED
100
AcDbCircle
 10
130.468088
 20
393.964831
 40
0.5
100
AcDbArc
 50
90.0
 51
180.0
  0
ARC
  5
827
100
AcDbEntity
  8
M0
  6
DASHED
100
AcDbCircle
 10
130.468088
 20
387.314831
 40
0.5
100
AcDbArc
 50
180.0
 51
270.0
  0
LINE
  5
828
100
AcDbEntity
  8
M0
100
AcDbLine
 10
171.483672
 20
440.949186
 11
168.302031
 21
444.130949
  0
LINE
  5
829
100
AcDbEntity
  8
M0
100
AcDbLine
 10
171.306914
 20
442.893522
 11
169.539336
 21
441.125944
  0
LINE
  5
82A
100
AcDbEntity
  8
M0
100
AcDbLine
 10
170.246367
 20
443.954191
 11
168.478789
 21
442.186491
  0
LINE
  5
82B
100
AcDbEntity
  8
M0
100
AcDbLine
 10
173.218088
 20
446.364831
 11
166.568088
 21
446.364831
  0
ARC
  5
82C
100
AcDbEntity
  8
M0
100
AcDbCircle
 10
173.218088
 20
445.864831
 40
0.5
100
AcDbArc
 50
0.0
 51
90.0
  0
LINE
  5
82D
100
AcDbEntity
  8
M0
100
AcDbLine
 10
173.718088
 20
443.600849
 11
173.718088
 21
445.864831
  0
LINE
  5
82E
100
AcDbEntity
  8
M0
100
AcDbLine
 10
166.568088
 20
438.714831
 11
170.715223
 21
438.714831
  0
LINE
  5
82F
100
AcDbEntity
  8
M0
100
AcDbLine
 10
166.068088
 20
445.864831
 11
166.068088
 21
439.214831
  0
ARC
  5
830
100
AcDbEntity
  8
M0
100
AcDbCircle
 10
166.568088
 20
445.864831
 40
0.5
100
AcDbArc
 50
90.0
 51
180.0
  0
ARC
  5
831
100
AcDbEntity
  8
M0
100
AcDbCircle
 10
166.568088
 20
439.214831
 40
0.5
100
AcDbArc
 50
180.0
 51
270.0
  0
ARC
  5
832
100
AcDbEntity
  8
M0
100
AcDbCircle
 10
169.893088
 20
442.539831
 40
3.0
100
AcDbArc
 50
354.126881
 51
662.724737
  0
CIRCLE
  5
833
100
AcDbEntity
  8
M0
  6
DASHED
100
AcDbCircle
 10
133.793088
 20
424.839831
 40
3.0
  0
LINE
  5
834
100
AcDbEntity
  8
M0
  6
DASHED
100
AcDbLine
 10
135.383672
 20
423.249186
 11
132.202031
 21
426.430949
  0
LINE
  5
835
100
AcDbEntity
  8
M0
  6
DASHED
100
AcDbLine
 10
135.206914
 20
425.193522
 11
133.439336
 21
423.425944
  0
LINE
  5
836
100
AcDbEntity
  8
M0
  6
DASHED
100
AcDbLine
 10
134.146367
 20
426.254191
 11
132.378789
 21
424.486491
  0
LINE
  5
837
100
AcDbEntity
  8
M0
  6
DASHED
100
AcDbLine
 10
137.118088
 20
428.664831
 11
130.468088
 21
428.664831
  0
ARC
  5
838
100
AcDbEntity
  8
M0
  6
DASHED
100
AcDbCircle
 10
137.118088
 20
428.164831
 40
0.5
100
AcDbArc
 50
0.0
 51
90.0
  0
LINE
  5
839
100
AcDbEntity
  8
M0
  6
DASHED
100
AcDbLine
 10
137.618088
 20
421.514831
 11
137.618088
 21
428.164831
  0
ARC
  5
83A
100
AcDbEntity
  8
M0
  6
DASHED
100
AcDbCircle
 10
137.118088
 20
421.514831
 40
0.5
100
AcDbArc
 50
270.0
 51
360.0
  0
LINE
  5
83B
100
AcDbEntity
  8
M0
  6
DASHED
100
AcDbLine
 10
130.468088
 20
421.014831
 11
137.118088
 21
421.014831
  0
LINE
  5
83C
100
AcDbEntity
  8
M0
  6
DASHED
100
AcDbLine
 10
129.968088
 20
428.164831
 11
129.968088
 21
421.514831
  0
ARC
  5
83D
100
AcDbEntity
  8
M0
  6
DASHED
100
AcDbCircle
 10
130.468088
 20
428.164831
 40
0.5
100
AcDbArc
 50
90.0
 51
180.0
  0
ARC
  5
83E
100
AcDbEntity
  8
M0
  6
DASHED
100
AcDbCircle
 10
130.468088
 20
421.514831
 40
0.5
100
AcDbArc
 50
180.0
 51
270.0
  0
LINE
  5
83F
100
AcDbEntity
  8
M0
 62
     7
100
AcDbLine
 10
353.333201
 20
427.039837
 11
353.333201
 21
433.039837
  0
LINE
  5
840
100
AcDbEntity
  8
M0
 62
     7
100
AcDbLine
 10
341.333201
 20
427.039837
 11
341.333201
 21
433.039837
  0
LINE
  5
841
100
AcDbEntity
  8
M0
 62
     7
100
AcDbLine
 10
329.333201
 20
427.039837
 11
329.333201
 21
433.039837
  0
LINE
  5
842
100
AcDbEntity
  8
M0
 62
     7
100
AcDbLine
 10
337.333201
 20
427.039837
 11
337.333201
 21
433.039837
  0
LINE
  5
843
100
AcDbEntity
  8
M0
 62
     7
100
AcDbLine
 10
339.333201
 20
427.039837
 11
339.333201
 21
433.039837
  0
LINE
  5
844
100
AcDbEntity
  8
M0
 62
     7
100
AcDbLine
 10
351.333201
 20
427.039837
 11
353.333201
 21
427.039837
  0
LINE
  5
845
100
AcDbEntity
  8
M0
 62
     7
100
AcDbLine
 10
331.333201
 20
427.039837
 11
331.333201
 21
433.039837
  0
LINE
  5
846
100
AcDbEntity
  8
M0
 62
     7
100
AcDbLine
 10
327.333201
 20
427.039837
 11
329.333201
 21
427.039837
  0
LINE
  5
847
100
AcDbEntity
  8
M0
 62
     7
100
AcDbLine
 10
332.633201
 20
369.039837
 11
332.633201
 21
378.539837
  0
LINE
  5
848
100
AcDbEntity
  8
M0
 62
     7
100
AcDbLine
 10
347.333201
 20
427.039837
 11
347.333201
 21
433.039837
  0
LINE
  5
849
100
AcDbEntity
  8
M0
 62
     7
100
AcDbLine
 10
347.333201
 20
427.039837
 11
349.333201
 21
427.039837
  0
LINE
  5
84A
100
AcDbEntity
  8
M0
 62
     7
100
AcDbLine
 10
365.933201
 20
372.039837
 11
341.633201
 21
372.039837
  0
LINE
  5
84B
100
AcDbEntity
  8
M0
 62
     7
100
AcDbLine
 10
349.333201
 20
427.039837
 11
349.333201
 21
433.039837
  0
LINE
  5
84C
100
AcDbEntity
  8
M0
 62
     7
100
AcDbLine
 10
376.633201
 20
384.739837
 11
376.633201
 21
384.539837
  0
LINE
  5
84D
100
AcDbEntity
  8
M0
 62
     7
100
AcDbLine
 10
376.933201
 20
378.789837
 11
376.933201
 21
369.289837
  0
LINE
  5
84E
100
AcDbEntity
  8
M0
 62
     7
100
AcDbLine
 10
372.433201
 20
414.839837
 11
372.733201
 21
415.339837
  0
LINE
  5
84F
100
AcDbEntity
  8
M0
 62
     7
100
AcDbLine
 10
376.933201
 20
375.039837
 11
376.933201
 21
373.039837
  0
LINE
  5
850
100
AcDbEntity
  8
M0
 62
     7
100
AcDbLine
 10
327.233201
 20
440.525624
 11
327.233201
 21
434.039837
  0
LINE
  5
851
100
AcDbEntity
  8
M0
 62
     7
100
AcDbLine
 10
321.026094
 20
447.146944
 11
322.233201
 21
445.939837
  0
LINE
  5
852
100
AcDbEntity
  8
M0
 62
     7
100
AcDbLine
 10
332.418987
 20
370.539837
 11
330.833201
 21
370.539837
  0
LINE
  5
853
100
AcDbEntity
  8
M0
 62
     7
100
AcDbLine
 10
330.833201
 20
372.039837
 11
330.833201
 21
368.539837
  0
LINE
  5
854
100
AcDbEntity
  8
M0
 62
     7
100
AcDbLine
 10
372.433201
 20
418.339837
 11
372.433201
 21
420.839837
  0
LINE
  5
855
100
AcDbEntity
  8
M0
 62
     7
100
AcDbLine
 10
354.133201
 20
434.039837
 11
354.133201
 21
438.039837
  0
ARC
  5
856
100
AcDbEntity
  8
M0
 62
     7
100
AcDbCircle
 10
320.318987
 20
446.439837
 40
1.0
100
AcDbArc
 50
45.0
 51
90.0
  0
ARC
  5
857
100
AcDbEntity
  8
M0
 62
     7
100
AcDbCircle
 10
332.418987
 20
371.539837
 40
1.0
100
AcDbArc
 50
270.0
 51
282.369393
  0
ARC
  5
858
100
AcDbEntity
  8
M0
 62
     7
100
AcDbCircle
 10
329.833201
 20
368.539837
 40
1.0
100
AcDbArc
 50
270.0
 51
360.0
  0
ARC
  5
859
100
AcDbEntity
  8
M0
 62
     7
100
AcDbCircle
 10
372.753362
 20
422.142874
 40
1.374538
100
AcDbArc
 50
233.367407
 51
251.438337
  0
ARC
  5
85A
100
AcDbEntity
  8
M0
 62
     7
100
AcDbCircle
 10
376.133201
 20
421.539837
 40
0.5
100
AcDbArc
 50
270.0
 51
360.0
  0
ARC
  5
85B
100
AcDbEntity
  8
M0
 62
     7
100
AcDbCircle
 10
334.133201
 20
369.039837
 40
1.5
100
AcDbArc
 50
180.0
 51
270.0
  0
LINE
  5
85C
100
AcDbEntity
  8
M0
 62
     7
100
AcDbLine
 10
343.333201
 20
427.039837
 11
343.333201
 21
433.039837
  0
LINE
  5
85D
100
AcDbEntity
  8
M0
 62
     7
100
AcDbLine
 10
339.333201
 20
427.039837
 11
341.333201
 21
427.039837
  0
LINE
  5
85E
100
AcDbEntity
  8
M0
 62
     7
100
AcDbLine
 10
343.333201
 20
427.039837
 11
345.333201
 21
427.039837
  0
ARC
  5
85F
100
AcDbEntity
  8
M0
 62
     7
100
AcDbCircle
 10
326.233201
 20
440.525624
 40
1.0
100
AcDbArc
 50
0.0
 51
45.0
  0
ARC
  5
860
100
AcDbEntity
  8
M0
 62
     7
100
AcDbCircle
 10
340.633201
 20
368.539837
 40
1.0
100
AcDbArc
 50
270.0
 51
360.0
  0
LINE
  5
861
100
AcDbEntity
  8
M0
 62
     7
100
AcDbLine
 10
332.633201
 20
378.539837
 11
320.433201
 21
378.539837
  0
ARC
  5
862
100
AcDbEntity
  8
M0
 62
     7
100
AcDbCircle
 10
376.133201
 20
368.039837
 40
0.5
100
AcDbArc
 50
270.0
 51
360.0
  0
LINE
  5
863
100
AcDbEntity
  8
M0
 62
     7
100
AcDbLine
 10
376.633201
 20
424.339837
 11
376.633201
 21
422.339837
  0
LINE
  5
864
100
AcDbEntity
  8
M0
 62
     7
100
AcDbLine
 10
341.633201
 20
383.739837
 11
341.633201
 21
368.539837
  0
LINE
  5
865
100
AcDbEntity
  8
M0
 62
     7
100
AcDbLine
 10
321.433201
 20
422.339837
 11
333.433201
 21
422.339837
  0
LINE
  5
866
100
AcDbEntity
  8
M0
 62
     7
100
AcDbLine
 10
345.333201
 20
427.039837
 11
345.333201
 21
433.039837
  0
LINE
  5
867
100
AcDbEntity
  8
M0
 62
     7
100
AcDbLine
 10
341.333201
 20
434.039837
 11
339.333201
 21
434.039837
  0
LINE
  5
868
100
AcDbEntity
  8
M0
 62
     7
100
AcDbLine
 10
340.633201
 20
383.739837
 11
347.433201
 21
383.739837
  0
ARC
  5
869
100
AcDbEntity
  8
M0
 62
     7
100
AcDbCircle
 10
373.195083
 20
383.097324
 40
2.316399
100
AcDbArc
 50
112.341791
 51
123.008287
  0
ARC
  5
86A
100
AcDbEntity
  8
M0
 62
     7
100
AcDbCircle
 10
376.133201
 20
437.539837
 40
0.5
100
AcDbArc
 50
0.0
 51
90.0
  0
ARC
  5
86B
100
AcDbEntity
  8
M0
 62
     7
100
AcDbCircle
 10
376.133201
 20
384.739837
 40
0.5
100
AcDbArc
 50
0.0
 51
90.0
  0
ARC
  5
86C
100
AcDbEntity
  8
M0
 62
     7
100
AcDbCircle
 10
376.133201
 20
384.539837
 40
0.5
100
AcDbArc
 50
0.0
 51
90.0
  0
LINE
  5
86D
100
AcDbEntity
  8
M0
 62
     7
100
AcDbLine
 10
321.433201
 20
424.339837
 11
365.933201
 21
424.339837
  0
ARC
  5
86E
100
AcDbEntity
  8
M0
 62
     7
100
AcDbCircle
 10
376.133201
 20
421.339837
 40
0.5
100
AcDbArc
 50
270.0
 51
360.0
  0
ARC
  5
86F
100
AcDbEntity
  8
M0
 62
     7
100
AcDbCircle
 10
366.933201
 20
437.039837
 40
1.0
100
AcDbArc
 50
90.0
 51
180.0
  0
LINE
  5
870
100
AcDbEntity
  8
M0
 62
     7
100
AcDbLine
 10
372.733201
 20
417.339837
 11
372.733201
 21
415.339837
  0
LINE
  5
871
100
AcDbEntity
  8
M0
 62
     7
100
AcDbLine
 10
331.333201
 20
427.039837
 11
333.333201
 21
427.039837
  0
LINE
  5
872
100
AcDbEntity
  8
M0
 62
     7
100
AcDbLine
 10
372.433201
 20
420.839837
 11
372.433201
 21
385.239837
  0
LINE
  5
873
100
AcDbEntity
  8
M0
 62
     7
100
AcDbLine
 10
376.633201
 20
421.539837
 11
376.633201
 21
421.339837
  0
LINE
  5
874
100
AcDbEntity
  8
M0
 62
     7
100
AcDbLine
 10
372.333201
 20
385.239837
 11
376.133201
 21
385.239837
  0
LINE
  5
875
100
AcDbEntity
  8
M0
 62
     7
100
AcDbLine
 10
376.133201
 20
420.839837
 11
372.333201
 21
420.839837
  0
LINE
  5
876
100
AcDbEntity
  8
M0
 62
     7
100
AcDbLine
 10
340.633201
 20
367.539837
 11
334.133201
 21
367.539837
  0
LINE
  5
877
100
AcDbEntity
  8
M0
 62
     7
100
AcDbLine
 10
365.933201
 20
422.339837
 11
365.933201
 21
437.039837
  0
LINE
  5
878
100
AcDbEntity
  8
M0
 62
     7
100
AcDbLine
 10
366.933201
 20
438.039837
 11
376.133201
 21
438.039837
  0
LINE
  5
879
100
AcDbEntity
  8
M0
 62
     7
100
AcDbLine
 10
345.333201
 20
434.039837
 11
343.333201
 21
434.039837
  0
LINE
  5
87A
100
AcDbEntity
  8
M0
 62
     7
100
AcDbLine
 10
332.633201
 20
372.039837
 11
309.433201
 21
372.039837
  0
LINE
  5
87B
100
AcDbEntity
  8
M0
 62
     7
100
AcDbLine
 10
329.833201
 20
367.539837
 11
309.433201
 21
367.539837
  0
LINE
  5
87C
100
AcDbEntity
  8
M0
 62
     7
100
AcDbLine
 10
309.433201
 20
427.739837
 11
320.433201
 21
427.739837
  0
ARC
  5
87D
100
AcDbEntity
  8
M0
 62
     7
100
AcDbCircle
 10
298.233201
 20
445.039837
 40
1.0
100
AcDbArc
 50
90.0
 51
180.0
  0
ARC
  5
87E
100
AcDbEntity
  8
M0
 62
     7
100
AcDbCircle
 10
301.333201
 20
446.539837
 40
1.0
100
AcDbArc
 50
90.0
 51
115.841933
  0
LINE
  5
87F
100
AcDbEntity
  8
M0
 62
     7
100
AcDbLine
 10
320.433201
 20
378.539837
 11
309.433201
 21
378.539837
  0
LINE
  5
880
100
AcDbEntity
  8
M0
 62
     7
100
AcDbLine
 10
301.333201
 20
447.539837
 11
310.733201
 21
447.539837
  0
LINE
  5
881
100
AcDbEntity
  8
M0
 62
     7
100
AcDbLine
 10
300.833201
 20
447.439837
 11
320.318987
 21
447.439837
  0
LINE
  5
882
100
AcDbEntity
  8
M0
 62
     7
100
AcDbLine
 10
309.433201
 20
434.039837
 11
327.333201
 21
434.039837
  0
LINE
  5
883
100
AcDbEntity
  8
M0
 62
     7
100
AcDbLine
 10
297.233201
 20
445.039837
 11
297.233201
 21
437.539837
  0
ARC
  5
884
100
AcDbEntity
  8
M0
 62
     7
100
AcDbCircle
 10
300.833201
 20
444.439837
 40
3.0
100
AcDbArc
 50
90.0
 51
180.0
  0
ARC
  5
885
100
AcDbEntity
  8
M0
 62
     7
100
AcDbCircle
 10
320.433201
 20
426.739837
 40
1.0
100
AcDbArc
 50
0.0
 51
90.0
  0
LINE
  5
886
100
AcDbEntity
  8
M0
 62
     7
100
AcDbLine
 10
373.433201
 20
420.839837
 11
373.433201
 21
419.339837
  0
LINE
  5
887
100
AcDbEntity
  8
M0
 62
     7
100
AcDbLine
 10
322.233201
 20
445.939837
 11
326.940307
 21
441.232731
  0
LINE
  5
888
100
AcDbEntity
  8
M0
 62
     7
100
AcDbLine
 10
331.333201
 20
432.539837
 11
333.333201
 21
432.539837
  0
LINE
  5
889
100
AcDbEntity
  8
M0
 62
     7
100
AcDbLine
 10
339.333201
 20
432.539837
 11
341.333201
 21
432.539837
  0
LINE
  5
88A
100
AcDbEntity
  8
M0
 62
     7
100
AcDbLine
 10
367.433201
 20
389.439837
 11
337.133201
 21
389.439837
  0
LINE
  5
88B
100
AcDbEntity
  8
M0
 62
     7
100
AcDbLine
 10
333.333201
 20
434.039837
 11
331.333201
 21
434.039837
  0
LINE
  5
88C
100
AcDbEntity
  8
M0
 62
     7
100
AcDbLine
 10
374.433201
 20
418.339837
 11
373.433201
 21
419.339837
  0
LINE
  5
88D
100
AcDbEntity
  8
M0
 62
     7
100
AcDbLine
 10
368.633201
 20
438.039837
 11
376.133201
 21
438.039837
  0
LINE
  5
88E
100
AcDbEntity
  8
M0
 62
     7
100
AcDbLine
 10
374.433201
 20
418.339837
 11
376.633201
 21
418.339837
  0
LINE
  5
88F
100
AcDbEntity
  8
M0
 62
     7
100
AcDbLine
 10
376.633201
 20
437.539837
 11
376.633201
 21
418.339837
  0
LINE
  5
890
100
AcDbEntity
  8
M0
 62
     7
100
AcDbLine
 10
376.933201
 20
436.789837
 11
376.933201
 21
427.289837
  0
LINE
  5
891
100
AcDbEntity
  8
M0
 62
     7
100
AcDbLine
 10
366.933201
 20
438.039837
 11
368.133201
 21
438.039837
  0
LINE
  5
892
100
AcDbEntity
  8
M0
 62
     7
100
AcDbLine
 10
372.633201
 20
385.239837
 11
372.633201
 21
385.539837
  0
LINE
  5
893
100
AcDbEntity
  8
M0
 62
     7
100
AcDbLine
 10
321.333201
 20
420.456065
 11
321.333201
 21
417.579282
  0
LINE
  5
894
100
AcDbEntity
  8
M0
 62
     7
100
AcDbLine
 10
337.133201
 20
389.439837
 11
337.133201
 21
388.800393
  0
LINE
  5
895
100
AcDbEntity
  8
M0
 62
     7
100
AcDbLine
 10
365.933201
 20
383.739837
 11
321.433201
 21
383.739837
  0
LINE
  5
896
100
AcDbEntity
  8
M0
 62
     7
100
AcDbLine
 10
316.833201
 20
382.939837
 11
316.833201
 21
387.939837
  0
LINE
  5
897
100
AcDbEntity
  8
M0
 62
     7
100
AcDbLine
 10
297.833201
 20
437.539837
 11
297.833201
 21
444.439837
  0
LINE
  5
898
100
AcDbEntity
  8
M0
 62
     7
100
AcDbLine
 10
351.333201
 20
427.039837
 11
351.333201
 21
433.039837
  0
LINE
  5
899
100
AcDbEntity
  8
M0
 62
     7
100
AcDbLine
 10
337.133201
 20
385.039837
 11
376.133201
 21
385.039837
  0
LINE
  5
89A
100
AcDbEntity
  8
M0
 62
     7
100
AcDbLine
 10
372.733201
 20
417.339837
 11
372.433201
 21
418.339837
  0
LINE
  5
89B
100
AcDbEntity
  8
M0
 62
     7
100
AcDbLine
 10
376.633201
 20
384.539837
 11
376.633201
 21
384.039837
  0
LINE
  5
89C
100
AcDbEntity
  8
M0
 62
     7
100
AcDbLine
 10
337.133201
 20
385.32361
 11
337.133201
 21
385.039837
  0
LINE
  5
89D
100
AcDbEntity
  8
M0
 62
     7
100
AcDbLine
 10
321.433201
 20
426.739837
 11
321.433201
 21
422.339837
  0
LINE
  5
89E
100
AcDbEntity
  8
M0
 62
     7
100
AcDbLine
 10
367.433201
 20
390.439837
 11
367.433201
 21
389.439837
  0
LINE
  5
89F
100
AcDbEntity
  8
M0
 62
     7
100
AcDbLine
 10
372.433201
 20
385.739837
 11
372.433201
 21
385.439837
  0
LINE
  5
8A0
100
AcDbEntity
  8
M0
 62
     7
100
AcDbLine
 10
376.633201
 20
437.539837
 11
376.633201
 21
436.789837
  0
LINE
  5
8A1
100
AcDbEntity
  8
M0
 62
     7
100
AcDbLine
 10
368.633201
 20
438.039837
 11
376.133201
 21
438.039837
  0
LINE
  5
8A2
100
AcDbEntity
  8
M0
 62
     7
100
AcDbLine
 10
349.333201
 20
433.039837
 11
349.333201
 21
434.039837
  0
LINE
  5
8A3
100
AcDbEntity
  8
M0
 62
     7
100
AcDbLine
 10
351.333201
 20
434.039837
 11
351.333201
 21
433.039837
  0
LINE
  5
8A4
100
AcDbEntity
  8
M0
 62
     7
100
AcDbLine
 10
339.333201
 20
434.039837
 11
337.333201
 21
434.039837
  0
LINE
  5
8A5
100
AcDbEntity
  8
M0
 62
     7
100
AcDbLine
 10
376.633201
 20
437.539837
 11
376.633201
 21
436.789837
  0
LINE
  5
8A6
100
AcDbEntity
  8
M0
 62
     7
100
AcDbLine
 10
372.433201
 20
385.239837
 11
372.433201
 21
385.439837
  0
LINE
  5
8A7
100
AcDbEntity
  8
M0
 62
     7
100
AcDbLine
 10
327.333201
 20
432.539837
 11
329.333201
 21
432.539837
  0
LINE
  5
8A8
100
AcDbEntity
  8
M0
 62
     7
100
AcDbLine
 10
351.333201
 20
434.039837
 11
349.333201
 21
434.039837
  0
LINE
  5
8A9
100
AcDbEntity
  8
M0
 62
     7
100
AcDbLine
 10
343.333201
 20
434.039837
 11
341.333201
 21
434.039837
  0
LINE
  5
8AA
100
AcDbEntity
  8
M0
 62
     7
100
AcDbLine
 10
354.233201
 20
438.039837
 11
368.133201
 21
438.039837
  0
LINE
  5
8AB
100
AcDbEntity
  8
M0
 62
     7
100
AcDbLine
 10
347.333201
 20
434.039837
 11
345.333201
 21
434.039837
  0
LINE
  5
8AC
100
AcDbEntity
  8
M0
 62
     7
100
AcDbLine
 10
357.333201
 20
433.039837
 11
357.333201
 21
434.039837
  0
LINE
  5
8AD
100
AcDbEntity
  8
M0
 62
     7
100
AcDbLine
 10
354.133201
 20
434.039837
 11
353.333201
 21
434.039837
  0
LINE
  5
8AE
100
AcDbEntity
  8
M0
 62
     7
100
AcDbLine
 10
355.633201
 20
438.039837
 11
376.133201
 21
438.039837
  0
LINE
  5
8AF
100
AcDbEntity
  8
M0
 62
     7
100
AcDbLine
 10
365.933201
 20
368.539837
 11
365.933201
 21
383.739837
  0
LINE
  5
8B0
100
AcDbEntity
  8
M0
 62
     7
100
AcDbLine
 10
376.633201
 20
384.039837
 11
376.633201
 21
368.039837
  0
LINE
  5
8B1
100
AcDbEntity
  8
M0
 62
     7
100
AcDbLine
 10
355.333201
 20
434.039837
 11
355.333201
 21
433.039837
  0
LINE
  5
8B2
100
AcDbEntity
  8
M0
 62
     7
100
AcDbLine
 10
349.333201
 20
434.039837
 11
347.333201
 21
434.039837
  0
LINE
  5
8B3
100
AcDbEntity
  8
M0
 62
     7
100
AcDbLine
 10
353.333201
 20
434.039837
 11
355.333201
 21
434.039837
  0
LINE
  5
8B4
100
AcDbEntity
  8
M0
 62
     7
100
AcDbLine
 10
353.333201
 20
433.039837
 11
353.333201
 21
434.039837
  0
LINE
  5
8B5
100
AcDbEntity
  8
M0
 62
     7
100
AcDbLine
 10
335.333201
 20
434.039837
 11
335.333201
 21
433.039837
  0
LINE
  5
8B6
100
AcDbEntity
  8
M0
 62
     7
100
AcDbLine
 10
376.633201
 20
369.289837
 11
376.933201
 21
369.289837
  0
LINE
  5
8B7
100
AcDbEntity
  8
M0
 62
     7
100
AcDbLine
 10
349.333201
 20
434.039837
 11
351.333201
 21
434.039837
  0
LINE
  5
8B8
100
AcDbEntity
  8
M0
 62
     7
100
AcDbLine
 10
357.333201
 20
427.039837
 11
357.333201
 21
433.039837
  0
LINE
  5
8B9
100
AcDbEntity
  8
M0
 62
     7
100
AcDbLine
 10
345.333201
 20
434.039837
 11
347.333201
 21
434.039837
  0
LINE
  5
8BA
100
AcDbEntity
  8
M0
 62
     7
100
AcDbLine
 10
339.333201
 20
434.039837
 11
339.333201
 21
433.039837
  0
LINE
  5
8BB
100
AcDbEntity
  8
M0
 62
     7
100
AcDbLine
 10
347.333201
 20
434.039837
 11
347.333201
 21
433.039837
  0
LINE
  5
8BC
100
AcDbEntity
  8
M0
 62
     7
100
AcDbLine
 10
327.333201
 20
427.039837
 11
327.333201
 21
433.039837
  0
LINE
  5
8BD
100
AcDbEntity
  8
M0
 62
     7
100
AcDbLine
 10
355.333201
 20
427.039837
 11
357.333201
 21
427.039837
  0
LINE
  5
8BE
100
AcDbEntity
  8
M0
 62
     7
100
AcDbLine
 10
337.333201
 20
434.039837
 11
339.333201
 21
434.039837
  0
LINE
  5
8BF
100
AcDbEntity
  8
M0
 62
     7
100
AcDbLine
 10
357.333201
 20
434.039837
 11
365.933201
 21
434.039837
  0
LINE
  5
8C0
100
AcDbEntity
  8
M0
 62
     7
100
AcDbLine
 10
329.333201
 20
434.039837
 11
327.333201
 21
434.039837
  0
LINE
  5
8C1
100
AcDbEntity
  8
M0
 62
     7
100
AcDbLine
 10
337.333201
 20
433.039837
 11
337.333201
 21
434.039837
  0
LINE
  5
8C2
100
AcDbEntity
  8
M0
 62
     7
100
AcDbLine
 10
345.333201
 20
433.039837
 11
345.333201
 21
434.039837
  0
LINE
  5
8C3
100
AcDbEntity
  8
M0
 62
     7
100
AcDbLine
 10
357.333201
 20
434.039837
 11
355.333201
 21
434.039837
  0
LINE
  5
8C4
100
AcDbEntity
  8
M0
 62
     7
100
AcDbLine
 10
376.633201
 20
437.539837
 11
376.633201
 21
436.789837
  0
LINE
  5
8C5
100
AcDbEntity
  8
M0
 62
     7
100
AcDbLine
 10
355.333201
 20
432.539837
 11
357.333201
 21
432.539837
  0
LINE
  5
8C6
100
AcDbEntity
  8
M0
 62
     7
100
AcDbLine
 10
343.333201
 20
434.039837
 11
343.333201
 21
433.039837
  0
LINE
  5
8C7
100
AcDbEntity
  8
M0
 62
     7
100
AcDbLine
 10
341.333201
 20
434.039837
 11
343.333201
 21
434.039837
  0
LINE
  5
8C8
100
AcDbEntity
  8
M0
 62
     7
100
AcDbLine
 10
333.333201
 20
433.039837
 11
333.333201
 21
434.039837
  0
LINE
  5
8C9
100
AcDbEntity
  8
M0
 62
     7
100
AcDbLine
 10
343.333201
 20
432.539837
 11
345.333201
 21
432.539837
  0
LINE
  5
8CA
100
AcDbEntity
  8
M0
 62
     7
100
AcDbLine
 10
341.333201
 20
433.039837
 11
341.333201
 21
434.039837
  0
LINE
  5
8CB
100
AcDbEntity
  8
M0
 62
     7
100
AcDbLine
 10
347.333201
 20
432.539837
 11
349.333201
 21
432.539837
  0
LINE
  5
8CC
100
AcDbEntity
  8
M0
 62
     7
100
AcDbLine
 10
355.333201
 20
427.039837
 11
355.333201
 21
433.039837
  0
LINE
  5
8CD
100
AcDbEntity
  8
M0
 62
     7
100
AcDbLine
 10
353.333201
 20
434.039837
 11
351.333201
 21
434.039837
  0
LINE
  5
8CE
100
AcDbEntity
  8
M0
 62
     7
100
AcDbLine
 10
337.333201
 20
434.039837
 11
335.333201
 21
434.039837
  0
LINE
  5
8CF
100
AcDbEntity
  8
M0
 62
     7
100
AcDbLine
 10
329.333201
 20
434.039837
 11
331.333201
 21
434.039837
  0
LINE
  5
8D0
100
AcDbEntity
  8
M0
 62
     7
100
AcDbLine
 10
327.333201
 20
434.039837
 11
327.333201
 21
433.039837
  0
LINE
  5
8D1
100
AcDbEntity
  8
M0
 62
     7
100
AcDbLine
 10
373.133201
 20
386.039837
 11
374.633201
 21
386.039837
  0
LINE
  5
8D2
100
AcDbEntity
  8
M0
 62
     7
100
AcDbLine
 10
376.159078
 20
385.237704
 11
374.573201
 21
387.039837
  0
LINE
  5
8D3
100
AcDbEntity
  8
M0
 62
     7
100
AcDbLine
 10
376.633201
 20
429.289837
 11
376.933201
 21
429.289837
  0
LINE
  5
8D4
100
AcDbEntity
  8
M0
 62
     7
100
AcDbLine
 10
321.333201
 20
388.500393
 11
336.833201
 21
388.500393
  0
LINE
  5
8D5
100
AcDbEntity
  8
M0
 62
     7
100
AcDbLine
 10
374.633201
 20
386.039837
 11
374.633201
 21
385.539837
  0
LINE
  5
8D6
100
AcDbEntity
  8
M0
 62
     7
100
AcDbLine
 10
374.633201
 20
385.539837
 11
374.633201
 21
385.239837
  0
LINE
  5
8D7
100
AcDbEntity
  8
M0
 62
     7
100
AcDbLine
 10
321.333201
 20
420.456065
 11
336.833201
 21
420.456065
  0
LINE
  5
8D8
100
AcDbEntity
  8
M0
 62
     7
100
AcDbLine
 10
374.133201
 20
387.539837
 11
374.573201
 21
387.039837
  0
LINE
  5
8D9
100
AcDbEntity
  8
M0
 62
     7
100
AcDbLine
 10
376.633201
 20
424.339837
 11
376.633201
 21
429.289837
  0
LINE
  5
8DA
100
AcDbEntity
  8
M0
 62
     7
100
AcDbLine
 10
321.333201
 20
388.500393
 11
321.333201
 21
385.62361
  0
LINE
  5
8DB
100
AcDbEntity
  8
M0
 62
     7
100
AcDbLine
 10
373.433201
 20
387.039837
 11
373.433201
 21
387.539837
  0
LINE
  5
8DC
100
AcDbEntity
  8
M0
 62
     7
100
AcDbLine
 10
376.933201
 20
436.789837
 11
376.633201
 21
436.789837
  0
LINE
  5
8DD
100
AcDbEntity
  8
M0
 62
     7
100
AcDbLine
 10
336.833201
 20
417.579282
 11
321.333201
 21
417.579282
  0
LINE
  5
8DE
100
AcDbEntity
  8
M0
 62
     7
100
AcDbLine
 10
321.433201
 20
422.339837
 11
365.933201
 21
422.339837
  0
LINE
  5
8DF
100
AcDbEntity
  8
M0
 62
     7
100
AcDbLine
 10
367.433201
 20
416.639837
 11
367.433201
 21
415.639837
  0
LINE
  5
8E0
100
AcDbEntity
  8
M0
 62
     7
100
AcDbLine
 10
376.133201
 20
421.039837
 11
337.133201
 21
421.039837
  0
LINE
  5
8E1
100
AcDbEntity
  8
M0
 62
     7
100
AcDbLine
 10
337.133201
 20
417.279282
 11
337.133201
 21
416.639837
  0
LINE
  5
8E2
100
AcDbEntity
  8
M0
 62
     7
100
AcDbLine
 10
335.333201
 20
427.039837
 11
337.333201
 21
427.039837
  0
LINE
  5
8E3
100
AcDbEntity
  8
M0
 62
     7
100
AcDbLine
 10
316.833201
 20
418.139837
 11
316.833201
 21
423.139837
  0
LINE
  5
8E4
100
AcDbEntity
  8
M0
 62
     7
100
AcDbLine
 10
335.333201
 20
427.039837
 11
335.333201
 21
433.039837
  0
LINE
  5
8E5
100
AcDbEntity
  8
M0
 62
     7
100
AcDbLine
 10
337.133201
 20
416.639837
 11
367.433201
 21
416.639837
  0
LINE
  5
8E6
100
AcDbEntity
  8
M0
 62
     7
100
AcDbLine
 10
337.133201
 20
421.039837
 11
337.133201
 21
420.756065
  0
ARC
  5
8E7
100
AcDbEntity
  8
M0
 62
     7
100
AcDbCircle
 10
336.833201
 20
420.756065
 40
0.3
100
AcDbArc
 50
270.0
 51
360.0
  0
ARC
  5
8E8
100
AcDbEntity
  8
M0
 62
     7
100
AcDbCircle
 10
336.833201
 20
388.800393
 40
0.3
100
AcDbArc
 50
270.0
 51
360.0
  0
ARC
  5
8E9
100
AcDbEntity
  8
M0
 62
     7
100
AcDbCircle
 10
336.833201
 20
385.32361
 40
0.3
100
AcDbArc
 50
0.0
 51
90.0
  0
ARC
  5
8EA
100
AcDbEntity
  8
M0
 62
     7
100
AcDbCircle
 10
373.133201
 20
385.539837
 40
0.5
100
AcDbArc
 50
90.0
 51
180.0
  0
ARC
  5
8EB
100
AcDbEntity
  8
M0
 62
     7
100
AcDbCircle
 10
320.433201
 20
379.539837
 40
1.0
100
AcDbArc
 50
270.0
 51
360.0
  0
LINE
  5
8EC
100
AcDbEntity
  8
M0
 62
     7
100
AcDbLine
 10
336.833201
 20
385.62361
 11
321.333201
 21
385.62361
  0
LINE
  5
8ED
100
AcDbEntity
  8
M0
 62
     7
100
AcDbLine
 10
376.633201
 20
427.289837
 11
376.933201
 21
427.289837
  0
LINE
  5
8EE
100
AcDbEntity
  8
M0
 62
     7
100
AcDbLine
 10
373.433201
 20
387.539837
 11
374.133201
 21
387.539837
  0
LINE
  5
8EF
100
AcDbEntity
  8
M0
 62
     7
100
AcDbLine
 10
376.933201
 20
378.789837
 11
376.633201
 21
378.789837
  0
ARC
  5
8F0
100
AcDbEntity
  8
M0
 62
     7
100
AcDbCircle
 10
336.833201
 20
417.279282
 40
0.3
100
AcDbArc
 50
0.0
 51
90.0
  0
LINE
  5
8F1
100
AcDbEntity
  8
M0
 62
     7
100
AcDbLine
 10
376.333201
 20
367.539837
 11
376.133201
 21
367.539837
  0
LINE
  5
8F2
100
AcDbEntity
  8
M0
 62
     7
100
AcDbLine
 10
376.333201
 20
367.58158
 11
376.333201
 21
367.539837
  0
LINE
  5
8F3
100
AcDbEntity
  8
M0
 62
     7
100
AcDbLine
 10
351.333201
 20
432.539837
 11
353.333201
 21
432.539837
  0
LINE
  5
8F4
100
AcDbEntity
  8
M0
 62
     7
100
AcDbLine
 10
331.333201
 20
434.039837
 11
331.333201
 21
433.039837
  0
LINE
  5
8F5
100
AcDbEntity
  8
M0
 62
     7
100
AcDbLine
 10
310.733201
 20
447.539837
 11
310.733201
 21
447.439837
  0
LINE
  5
8F6
100
AcDbEntity
  8
M0
 62
     7
100
AcDbLine
 10
335.333201
 20
432.539837
 11
337.333201
 21
432.539837
  0
LINE
  5
8F7
100
AcDbEntity
  8
M0
 62
     7
100
AcDbLine
 10
333.333201
 20
427.039837
 11
333.333201
 21
433.039837
  0
LINE
  5
8F8
100
AcDbEntity
  8
M0
 62
     7
100
AcDbLine
 10
373.433201
 20
387.039837
 11
373.433201
 21
386.039837
  0
LINE
  5
8F9
100
AcDbEntity
  8
M0
 62
     7
100
AcDbLine
 10
367.433201
 20
415.639837
 11
367.433201
 21
390.439837
  0
ARC
  5
8FA
100
AcDbEntity
  8
M0
 62
     7
100
AcDbCircle
 10
366.933201
 20
368.539837
 40
1.0
100
AcDbArc
 50
180.0
 51
270.0
  0
LINE
  5
8FB
100
AcDbEntity
  8
M0
 62
     7
100
AcDbLine
 10
321.433201
 20
383.739837
 11
321.433201
 21
379.539837
  0
LINE
  5
8FC
100
AcDbEntity
  8
M0
 62
     7
100
AcDbLine
 10
333.333201
 20
434.039837
 11
335.333201
 21
434.039837
  0
LINE
  5
8FD
100
AcDbEntity
  8
M0
 62
     7
100
AcDbLine
 10
329.333201
 20
433.039837
 11
329.333201
 21
434.039837
  0
LINE
  5
8FE
100
AcDbEntity
  8
M0
 62
     7
100
AcDbLine
 10
366.933201
 20
367.539837
 11
376.133201
 21
367.539837
  0
LINE
  5
8FF
100
AcDbEntity
  8
M0
 62
     7
100
AcDbLine
 10
258.533201
 20
433.25996
 11
258.533201
 21
451.45996
  0
LINE
  5
900
100
AcDbEntity
  8
M0
 62
     7
100
AcDbLine
 10
268.833201
 20
400.539837
 11
268.833201
 21
399.539838
  0
LINE
  5
901
100
AcDbEntity
  8
M0
 62
     7
100
AcDbLine
 10
268.833201
 20
405.539838
 11
268.833201
 21
406.539837
  0
LINE
  5
902
100
AcDbEntity
  8
M0
 62
     7
100
AcDbLine
 10
268.833201
 20
399.539838
 11
267.833203
 21
399.539838
  0
LINE
  5
903
100
AcDbEntity
  8
M0
 62
     7
100
AcDbLine
 10
267.833203
 20
405.539838
 11
268.833201
 21
405.539838
  0
LINE
  5
904
100
AcDbEntity
  8
M0
 62
     7
100
AcDbLine
 10
268.833201
 20
399.539838
 11
269.333202
 21
399.539838
  0
LINE
  5
905
100
AcDbEntity
  8
M0
 62
     7
100
AcDbLine
 10
267.833203
 20
400.539837
 11
268.833201
 21
400.539837
  0
LINE
  5
906
100
AcDbEntity
  8
M0
 62
     7
100
AcDbLine
 10
268.833201
 20
406.539837
 11
267.833203
 21
406.539837
  0
LINE
  5
907
100
AcDbEntity
  8
M0
 62
     7
100
AcDbLine
 10
268.833201
 20
406.539837
 11
269.333202
 21
406.539837
  0
LINE
  5
908
100
AcDbEntity
  8
M0
 62
     7
100
AcDbLine
 10
269.333202
 20
400.539837
 11
268.833201
 21
400.539837
  0
LINE
  5
909
100
AcDbEntity
  8
M0
 62
     7
100
AcDbLine
 10
265.533201
 20
414.039837
 11
267.833203
 21
414.039837
  0
ARC
  5
90A
100
AcDbEntity
  8
M0
 62
     7
100
AcDbCircle
 10
264.033201
 20
414.539837
 40
0.5
100
AcDbArc
 50
90.0
 51
180.0
  0
ARC
  5
90B
100
AcDbEntity
  8
M0
 62
     7
100
AcDbCircle
 10
264.033201
 20
396.039837
 40
0.5
100
AcDbArc
 50
90.0
 51
180.0
  0
LINE
  5
90C
100
AcDbEntity
  8
M0
 62
     7
100
AcDbLine
 10
265.0332
 20
391.039837
 11
264.033202
 21
391.039837
  0
ARC
  5
90D
100
AcDbEntity
  8
M0
 62
     7
100
AcDbCircle
 10
298.433201
 20
368.539837
 40
1.0
100
AcDbArc
 50
180.0
 51
270.0
  0
LINE
  5
90E
100
AcDbEntity
  8
M0
 62
     7
100
AcDbLine
 10
292.533202
 20
370.539839
 11
297.433201
 21
370.539839
  0
LINE
  5
90F
100
AcDbEntity
  8
M0
 62
     7
100
AcDbLine
 10
264.033202
 20
391.039837
 11
267.833203
 21
391.039837
  0
LINE
  5
910
100
AcDbEntity
  8
M0
 62
     7
100
AcDbLine
 10
263.533201
 20
414.539837
 11
263.533201
 21
391.539837
  0
LINE
  5
911
100
AcDbEntity
  8
M0
 62
     7
100
AcDbLine
 10
265.533201
 20
391.039837
 11
265.533201
 21
396.539837
  0
LINE
  5
912
100
AcDbEntity
  8
M0
 62
     7
100
AcDbLine
 10
269.333202
 20
404.539838
 11
268.833201
 21
404.539838
  0
LINE
  5
913
100
AcDbEntity
  8
M0
 62
     7
100
AcDbLine
 10
269.333202
 20
405.539838
 11
268.833201
 21
405.539838
  0
LINE
  5
914
100
AcDbEntity
  8
M0
 62
     7
100
AcDbLine
 10
268.833201
 20
401.539838
 11
268.833201
 21
404.539838
  0
LINE
  5
915
100
AcDbEntity
  8
M0
 62
     7
100
AcDbLine
 10
268.833201
 20
401.539838
 11
269.333202
 21
401.539838
  0
ELLIPSE
  5
916
100
AcDbEntity
  8
M0
 62
     7
100
AcDbEllipse
 10
264.033201
 20
409.346944
 11
0.5
 21
0.0
210
0.0
220
0.0
230
1.0
 40
0.414214
 41
3.141592653589793
 42
4.71238898038469
  0
ARC
  5
917
100
AcDbEntity
  8
M0
 62
     7
100
AcDbCircle
 10
292.533201
 20
371.539837
 40
1.0
100
AcDbArc
 50
237.247324
 51
270.0
  0
ELLIPSE
  5
918
100
AcDbEntity
  8
M0
 62
     7
100
AcDbEllipse
 10
264.033201
 20
407.846944
 11
0.5
 21
0.0
210
0.0
220
0.0
230
1.0
 40
0.414214
 41
3.141592653589793
 42
4.71238898038469
  0
LINE
  5
919
100
AcDbEntity
  8
M0
 62
     7
100
AcDbLine
 10
293.633202
 20
436.039837
 11
293.633202
 21
434.039837
  0
LINE
  5
91A
100
AcDbEntity
  8
M0
 62
     7
100
AcDbLine
 10
297.233201
 20
437.539838
 11
293.633202
 21
436.039837
  0
LINE
  5
91B
100
AcDbEntity
  8
M0
 62
     7
100
AcDbLine
 10
297.433201
 20
436.539838
 11
294.6332
 21
435.37317
  0
LINE
  5
91C
100
AcDbEntity
  8
M0
 62
     7
100
AcDbLine
 10
302.933201
 20
434.039837
 11
302.933201
 21
437.539838
  0
LINE
  5
91D
100
AcDbEntity
  8
M0
 62
     7
100
AcDbLine
 10
307.933201
 20
407.139837
 11
308.033201
 21
407.139837
  0
LINE
  5
91E
100
AcDbEntity
  8
M0
 62
     7
100
AcDbLine
 10
302.933201
 20
437.539838
 11
297.233201
 21
437.539838
  0
LINE
  5
91F
100
AcDbEntity
  8
M0
 62
     7
100
AcDbLine
 10
301.933201
 20
436.539838
 11
297.433201
 21
436.539838
  0
LINE
  5
920
100
AcDbEntity
  8
M0
 62
     7
100
AcDbLine
 10
294.6332
 20
435.039837
 11
301.933201
 21
435.039837
  0
LINE
  5
921
100
AcDbEntity
  8
M0
 62
     7
100
AcDbLine
 10
301.933201
 20
435.039837
 11
301.933201
 21
436.539838
  0
LINE
  5
922
100
AcDbEntity
  8
M0
 62
     7
100
AcDbLine
 10
294.6332
 20
435.37317
 11
294.6332
 21
435.039837
  0
ARC
  5
923
100
AcDbEntity
  8
M0
 62
     7
100
AcDbCircle
 10
270.133201
 20
406.339837
 40
1.0
100
AcDbArc
 50
168.463041
 51
180.0
  0
LINE
  5
924
100
AcDbEntity
  8
M0
 62
     7
100
AcDbLine
 10
269.133202
 20
406.339837
 11
269.133202
 21
405.539838
  0
LINE
  5
925
100
AcDbEntity
  8
M0
 62
     7
100
AcDbLine
 10
269.133202
 20
400.539837
 11
269.133202
 21
399.539838
  0
LINE
  5
926
100
AcDbEntity
  8
M0
 62
     7
100
AcDbLine
 10
299.533201
 20
400.339837
 11
299.533201
 21
405.739838
  0
LINE
  5
927
100
AcDbEntity
  8
M0
 62
     7
100
AcDbLine
 10
296.033201
 20
405.739838
 11
296.033201
 21
400.339837
  0
LINE
  5
928
100
AcDbEntity
  8
M0
 62
     7
100
AcDbLine
 10
309.433201
 20
368.539838
 11
309.433201
 21
367.539836
  0
LINE
  5
929
100
AcDbEntity
  8
M0
 62
     7
100
AcDbLine
 10
303.033201
 20
437.539838
 11
298.333201
 21
437.539838
  0
LINE
  5
92A
100
AcDbEntity
  8
M0
 62
     7
100
AcDbLine
 10
303.033201
 20
437.539838
 11
303.033201
 21
434.039837
  0
LINE
  5
92B
100
AcDbEntity
  8
M0
 62
     7
100
AcDbLine
 10
309.433201
 20
413.139837
 11
309.433201
 21
434.039837
  0
ARC
  5
92C
100
AcDbEntity
  8
M0
 62
     7
100
AcDbCircle
 10
264.033201
 20
391.539837
 40
0.5
100
AcDbArc
 50
180.0
 51
270.0
  0
ARC
  5
92D
100
AcDbEntity
  8
M0
 62
     7
100
AcDbCircle
 10
289.733201
 20
427.739837
 40
3.0
100
AcDbArc
 50
90.0
 51
180.0
  0
ARC
  5
92E
100
AcDbEntity
  8
M0
 62
     7
100
AcDbCircle
 10
289.733201
 20
378.339837
 40
3.0
100
AcDbArc
 50
180.0
 51
270.0
  0
ARC
  5
92F
100
AcDbEntity
  8
M0
 62
     7
100
AcDbCircle
 10
300.69056
 20
427.739837
 40
3.0
100
AcDbArc
 50
45.0
 51
90.0
  0
ARC
  5
930
100
AcDbEntity
  8
M0
 62
     7
100
AcDbCircle
 10
300.69056
 20
378.339837
 40
3.0
100
AcDbArc
 50
270.0
 51
315.0
  0
ARC
  5
931
100
AcDbEntity
  8
M0
 62
     7
100
AcDbCircle
 10
270.833201
 20
420.139837
 40
3.0
100
AcDbArc
 50
90.0
 51
180.0
  0
ARC
  5
932
100
AcDbEntity
  8
M0
 62
     7
100
AcDbCircle
 10
269.333201
 20
398.339837
 40
1.0
100
AcDbArc
 50
0.0
 51
90.0
  0
ARC
  5
933
100
AcDbEntity
  8
M0
 62
     7
100
AcDbCircle
 10
283.733201
 20
426.139837
 40
3.0
100
AcDbArc
 50
270.0
 51
360.0
  0
ARC
  5
934
100
AcDbEntity
  8
M0
 62
     7
100
AcDbCircle
 10
283.733201
 20
379.939837
 40
3.0
100
AcDbArc
 50
0.0
 51
90.0
  0
ARC
  5
935
100
AcDbEntity
  8
M0
 62
     7
100
AcDbCircle
 10
295.833201
 20
405.239837
 40
0.5
100
AcDbArc
 50
90.0
 51
180.0
  0
LINE
  5
936
100
AcDbEntity
  8
M0
 62
     7
100
AcDbLine
 10
269.833199
 20
383.11141
 11
269.833199
 21
370.539839
  0
ARC
  5
937
100
AcDbEntity
  8
M0
 62
     7
100
AcDbCircle
 10
295.833201
 20
400.839837
 40
0.5
100
AcDbArc
 50
180.0
 51
270.0
  0
LINE
  5
938
100
AcDbEntity
  8
M0
 62
     7
100
AcDbLine
 10
269.833199
 20
435.539838
 11
269.833199
 21
422.968265
  0
LINE
  5
939
100
AcDbEntity
  8
M0
 62
     7
100
AcDbLine
 10
309.433201
 20
418.139838
 11
316.833201
 21
418.139838
  0
LINE
  5
93A
100
AcDbEntity
  8
M0
 62
     7
100
AcDbLine
 10
316.833201
 20
423.139837
 11
309.433201
 21
423.139837
  0
LINE
  5
93B
100
AcDbEntity
  8
M0
 62
     7
100
AcDbLine
 10
309.433201
 20
413.139837
 11
308.533201
 21
413.139837
  0
ARC
  5
93C
100
AcDbEntity
  8
M0
 62
     7
100
AcDbCircle
 10
268.833201
 20
407.739837
 40
1.0
100
AcDbArc
 50
180.0
 51
270.0
  0
ARC
  5
93D
100
AcDbEntity
  8
M0
 62
     7
100
AcDbCircle
 10
287.59056
 20
370.539837
 40
3.0
100
AcDbArc
 50
270.0
 51
315.0
  0
ARC
  5
93E
100
AcDbEntity
  8
M0
 62
     7
100
AcDbCircle
 10
270.833201
 20
385.939837
 40
3.0
100
AcDbArc
 50
180.0
 51
270.0
  0
ARC
  5
93F
100
AcDbEntity
  8
M0
 62
     7
100
AcDbCircle
 10
268.833201
 20
398.339837
 40
1.0
100
AcDbArc
 50
90.0
 51
180.0
  0
ARC
  5
940
100
AcDbEntity
  8
M0
 62
     7
100
AcDbCircle
 10
272.833201
 20
370.539837
 40
3.0
100
AcDbArc
 50
180.0
 51
270.0
  0
ARC
  5
941
100
AcDbEntity
  8
M0
 62
     7
100
AcDbCircle
 10
287.59056
 20
435.539837
 40
3.0
100
AcDbArc
 50
45.0
 51
90.0
  0
ARC
  5
942
100
AcDbEntity
  8
M0
 62
     7
100
AcDbCircle
 10
272.833201
 20
435.539837
 40
3.0
100
AcDbArc
 50
90.0
 51
180.0
  0
ARC
  5
943
100
AcDbEntity
  8
M0
 62
     7
100
AcDbCircle
 10
269.333201
 20
407.739837
 40
1.0
100
AcDbArc
 50
270.0
 51
360.0
  0
LINE
  5
944
100
AcDbEntity
  8
M0
 62
     7
100
AcDbLine
 10
304.933201
 20
378.339838
 11
302.81188
 21
376.218516
  0
LINE
  5
945
100
AcDbEntity
  8
M0
 62
     7
100
AcDbLine
 10
270.3332
 20
398.339838
 11
270.3332
 21
407.739838
  0
LINE
  5
946
100
AcDbEntity
  8
M0
 62
     7
100
AcDbLine
 10
300.69056
 20
375.339838
 11
289.733201
 21
375.339838
  0
LINE
  5
947
100
AcDbEntity
  8
M0
 62
     7
100
AcDbLine
 10
286.7332
 20
426.139837
 11
286.7332
 21
427.739838
  0
LINE
  5
948
100
AcDbEntity
  8
M0
 62
     7
100
AcDbLine
 10
302.81188
 20
429.861158
 11
304.933201
 21
427.739838
  0
LINE
  5
949
100
AcDbEntity
  8
M0
 62
     7
100
AcDbLine
 10
289.733201
 20
430.739837
 11
300.69056
 21
430.739837
  0
LINE
  5
94A
100
AcDbEntity
  8
M0
 62
     7
100
AcDbLine
 10
304.933201
 20
427.739838
 11
309.433201
 21
427.739838
  0
LINE
  5
94B
100
AcDbEntity
  8
M0
 62
     7
100
AcDbLine
 10
295.333201
 20
405.239837
 11
295.333201
 21
400.839837
  0
LINE
  5
94C
100
AcDbEntity
  8
M0
 62
     7
100
AcDbLine
 10
295.833202
 20
400.339837
 11
308.033201
 21
400.339837
  0
LINE
  5
94D
100
AcDbEntity
  8
M0
 62
     7
100
AcDbLine
 10
308.033201
 20
405.739838
 11
295.833202
 21
405.739838
  0
LINE
  5
94E
100
AcDbEntity
  8
M0
 62
     7
100
AcDbLine
 10
309.433201
 20
378.539838
 11
304.933201
 21
378.339838
  0
LINE
  5
94F
100
AcDbEntity
  8
M0
 62
     7
100
AcDbLine
 10
309.433201
 20
434.039837
 11
293.3332
 21
434.039837
  0
LINE
  5
950
100
AcDbEntity
  8
M0
 62
     7
100
AcDbLine
 10
272.833202
 20
367.539836
 11
287.590561
 21
367.539836
  0
LINE
  5
951
100
AcDbEntity
  8
M0
 62
     7
100
AcDbLine
 10
287.590561
 20
438.539839
 11
272.833202
 21
438.539839
  0
LINE
  5
952
100
AcDbEntity
  8
M0
 62
     7
100
AcDbLine
 10
293.3332
 20
434.039837
 11
289.711881
 21
437.661158
  0
LINE
  5
953
100
AcDbEntity
  8
M0
 62
     7
100
AcDbLine
 10
289.711881
 20
368.418517
 11
293.3332
 21
372.039838
  0
LINE
  5
954
100
AcDbEntity
  8
M0
 62
     7
100
AcDbLine
 10
269.333202
 20
406.739837
 11
269.333202
 21
399.339838
  0
LINE
  5
955
100
AcDbEntity
  8
M0
 62
     7
100
AcDbLine
 10
268.833201
 20
406.739837
 11
269.333202
 21
406.739837
  0
LINE
  5
956
100
AcDbEntity
  8
M0
 62
     7
100
AcDbLine
 10
283.733202
 20
382.939838
 11
270.833201
 21
382.939838
  0
LINE
  5
957
100
AcDbEntity
  8
M0
 62
     7
100
AcDbLine
 10
270.833201
 20
423.139837
 11
283.733202
 21
423.139837
  0
LINE
  5
958
100
AcDbEntity
  8
M0
 62
     7
100
AcDbLine
 10
269.333202
 20
399.339838
 11
268.833201
 21
399.339838
  0
LINE
  5
959
100
AcDbEntity
  8
M0
 62
     7
100
AcDbLine
 10
267.833203
 20
385.939837
 11
267.833203
 21
420.139837
  0
ARC
  5
95A
100
AcDbEntity
  8
M0
 62
     7
100
AcDbCircle
 10
308.533201
 20
412.639837
 40
0.5
100
AcDbArc
 50
90.0
 51
180.0
  0
ARC
  5
95B
100
AcDbEntity
  8
M0
 62
     7
100
AcDbCircle
 10
308.533201
 20
393.439837
 40
0.5
100
AcDbArc
 50
180.0
 51
270.0
  0
LINE
  5
95C
100
AcDbEntity
  8
M0
 62
     7
100
AcDbLine
 10
309.433201
 20
372.039838
 11
293.3332
 21
372.039838
  0
LINE
  5
95D
100
AcDbEntity
  8
M0
 62
     7
100
AcDbLine
 10
267.833203
 20
415.039837
 11
264.033202
 21
415.039837
  0
LINE
  5
95E
100
AcDbEntity
  8
M0
 62
     7
100
AcDbLine
 10
264.033202
 20
407.639838
 11
267.833203
 21
407.639838
  0
LINE
  5
95F
100
AcDbEntity
  8
M0
 62
     7
100
AcDbLine
 10
265.533201
 20
414.039837
 11
265.533201
 21
407.639838
  0
LINE
  5
960
100
AcDbEntity
  8
M0
 62
     7
100
AcDbLine
 10
265.533201
 20
409.139837
 11
264.033202
 21
409.139837
  0
LINE
  5
961
100
AcDbEntity
  8
M0
 62
     7
100
AcDbLine
 10
265.533201
 20
396.539837
 11
264.033202
 21
396.539837
  0
LINE
  5
962
100
AcDbEntity
  8
M0
 62
     7
100
AcDbLine
 10
298.433201
 20
367.539836
 11
301.4332
 21
367.539836
  0
LINE
  5
963
100
AcDbEntity
  8
M0
 62
     7
100
AcDbLine
 10
309.433201
 20
367.539836
 11
309.433201
 21
392.939838
  0
LINE
  5
964
100
AcDbEntity
  8
M0
 62
     7
100
AcDbLine
 10
297.433201
 20
372.039838
 11
297.433201
 21
368.539838
  0
LINE
  5
965
100
AcDbEntity
  8
M0
 62
     7
100
AcDbLine
 10
298.433201
 20
367.539836
 11
309.433201
 21
367.539836
  0
LINE
  5
966
100
AcDbEntity
  8
M0
 62
     7
100
AcDbLine
 10
309.433201
 20
392.939838
 11
308.533201
 21
392.939838
  0
LINE
  5
967
100
AcDbEntity
  8
M0
 62
     7
100
AcDbLine
 10
309.433201
 20
382.939838
 11
316.833201
 21
382.939838
  0
LINE
  5
968
100
AcDbEntity
  8
M0
 62
     7
100
AcDbLine
 10
316.833201
 20
387.939837
 11
309.433201
 21
387.939837
  0
LINE
  5
969
100
AcDbEntity
  8
M0
 62
     7
100
AcDbLine
 10
308.033201
 20
412.639837
 11
308.033201
 21
393.439838
  0
LINE
  5
96A
100
AcDbEntity
  8
M0
 62
     7
100
AcDbLine
 10
286.7332
 20
378.339838
 11
286.7332
 21
379.939837
  0
LINE
  5
96B
100
AcDbEntity
  8
M0
 62
     7
100
AcDbLine
 10
265.533201
 20
414.039837
 11
265.359554
 21
414.213486
  0
LINE
  5
96C
100
AcDbEntity
  8
M0
 62
     7
100
AcDbLine
 10
265.359554
 20
414.213486
 11
265.191182
 21
414.381858
  0
LINE
  5
96D
100
AcDbEntity
  8
M0
 62
     7
100
AcDbLine
 10
265.191182
 20
414.381858
 11
265.0332
 21
414.539837
  0
LINE
  5
96E
100
AcDbEntity
  8
M0
 62
     7
100
AcDbLine
 10
265.0332
 20
414.539837
 11
264.890413
 21
414.682625
  0
LINE
  5
96F
100
AcDbEntity
  8
M0
 62
     7
100
AcDbLine
 10
264.890413
 20
414.682625
 11
264.767155
 21
414.805882
  0
LINE
  5
970
100
AcDbEntity
  8
M0
 62
     7
100
AcDbLine
 10
264.767155
 20
414.805882
 11
264.667175
 21
414.905863
  0
LINE
  5
971
100
AcDbEntity
  8
M0
 62
     7
100
AcDbLine
 10
264.667175
 20
414.905863
 11
264.593508
 21
414.97953
  0
LINE
  5
972
100
AcDbEntity
  8
M0
 62
     7
100
AcDbLine
 10
264.593508
 20
414.97953
 11
264.548394
 21
415.024645
  0
LINE
  5
973
100
AcDbEntity
  8
M0
 62
     7
100
AcDbLine
 10
264.548394
 20
415.024645
 11
264.533203
 21
415.039837
  0
LINE
  5
974
100
AcDbEntity
  8
M0
  6
DASHED
 62
     7
100
AcDbLine
 10
232.233202
 20
405.339831
 11
232.233202
 21
402.539831
  0
LINE
  5
975
100
AcDbEntity
  8
M0
  6
DASHED
 62
     7
100
AcDbLine
 10
232.233202
 20
405.339831
 11
233.833201
 21
405.339831
  0
LINE
  5
976
100
AcDbEntity
  8
M0
  6
DASHED
 62
     7
100
AcDbLine
 10
233.833201
 20
402.539831
 11
232.233202
 21
402.539831
  0
LINE
  5
977
100
AcDbEntity
  8
M0
  6
DASHED
 62
     7
100
AcDbLine
 10
267.333201
 20
421.739825
 11
257.933201
 21
421.739825
  0
LINE
  5
978
100
AcDbEntity
  8
M0
  6
DASHED
 62
     7
100
AcDbLine
 10
267.333202
 20
386.339837
 11
262.533201
 21
386.339837
  0
LINE
  5
979
100
AcDbEntity
  8
M0
  6
DASHED
 62
     7
100
AcDbLine
 10
233.833201
 20
384.639831
 11
233.833201
 21
423.439831
  0
ARC
  5
97A
100
AcDbEntity
  8
M0
  6
DASHED
 62
     7
100
AcDbCircle
 10
237.833201
 20
384.639831
 40
4.0
100
AcDbArc
 50
180.0
 51
270.0
  0
ARC
  5
97B
100
AcDbEntity
  8
M0
  6
DASHED
 62
     7
100
AcDbCircle
 10
252.933201
 20
385.639831
 40
5.0
100
AcDbArc
 50
270.0
 51
360.0
  0
ARC
  5
97C
100
AcDbEntity
  8
M0
  6
DASHED
 62
     7
100
AcDbCircle
 10
267.333201
 20
386.839837
 40
0.5
100
AcDbArc
 50
270.0
 51
360.0
  0
ARC
  5
97D
100
AcDbEntity
  8
M0
  6
DASHED
 62
     7
100
AcDbCircle
 10
237.833201
 20
423.439831
 40
4.0
100
AcDbArc
 50
90.0
 51
180.0
  0
ARC
  5
97E
100
AcDbEntity
  8
M0
  6
DASHED
 62
     7
100
AcDbCircle
 10
252.933201
 20
422.439831
 40
5.0
100
AcDbArc
 50
0.0
 51
90.0
  0
ARC
  5
97F
100
AcDbEntity
  8
M0
  6
DASHED
 62
     7
100
AcDbCircle
 10
267.333201
 20
421.239825
 40
0.5
100
AcDbArc
 50
0.0
 51
90.0
  0
LINE
  5
980
100
AcDbEntity
  8
M0
  6
DASHED
 62
     7
100
AcDbLine
 10
257.933201
 20
421.739825
 11
257.933201
 21
422.439831
  0
LINE
  5
981
100
AcDbEntity
  8
M0
  6
DASHED
 62
     7
100
AcDbLine
 10
252.933201
 20
427.439832
 11
237.833201
 21
427.439832
  0
LINE
  5
982
100
AcDbEntity
  8
M0
  6
DASHED
 62
     7
100
AcDbLine
 10
265.733201
 20
421.739825
 11
265.733201
 21
423.73983
  0
LINE
  5
983
100
AcDbEntity
  8
M0
  6
DASHED
 62
     7
100
AcDbLine
 10
266.133201
 20
423.73983
 11
266.733203
 21
421.739825
  0
LINE
  5
984
100
AcDbEntity
  8
M0
  6
DASHED
 62
     7
100
AcDbLine
 10
265.733201
 20
423.73983
 11
266.133201
 21
423.73983
  0
LINE
  5
985
100
AcDbEntity
  8
M0
  6
DASHED
 62
     7
100
AcDbLine
 10
267.333202
 20
386.339837
 11
257.933201
 21
386.339837
  0
LINE
  5
986
100
AcDbEntity
  8
M0
  6
DASHED
 62
     7
100
AcDbLine
 10
257.933201
 20
386.339837
 11
257.933201
 21
385.639831
  0
LINE
  5
987
100
AcDbEntity
  8
M0
  6
DASHED
 62
     7
100
AcDbLine
 10
252.933201
 20
380.639831
 11
237.833201
 21
380.639831
  0
HATCH
  5
988
100
AcDbEntity
  8
M0
 62
     7
100
AcDbHatch
 10
0.0
 20
0.0
210
0.0
220
0.0
230
1.0
  2
SOLID
 70
     1
 71
     0
 91
        1
 92
        1
 93
        4
 72
     1
 10
258.533201
 20
451.45996
 11
256.533201
 21
451.45996
 72
     1
 10
256.533201
 20
451.45996
 11
256.533201
 21
433.25996
 72
     1
 10
256.533201
 20
433.25996
 11
258.533201
 21
433.25996
 72
     1
 10
258.533201
 20
433.25996
 11
258.533201
 21
451.45996
 97
        0
 75
     0
 76
     1
 98
        1
 10
0.0
 20
0.0
  0
CIRCLE
  5
98B
100
AcDbEntity
  8
M0
 62
     7
100
AcDbCircle
 10
185.993084
 20
181.432845
 40
2.0
  0
CIRCLE
  5
98C
100
AcDbEntity
  8
M0
 62
     7
100
AcDbCircle
 10
131.993085
 20
240.432845
 40
2.0
  0
CIRCLE
  5
98D
100
AcDbEntity
  8
M0
 62
     7
100
AcDbCircle
 10
131.993085
 20
240.432837
 40
1.7
  0
CIRCLE
  5
98E
100
AcDbEntity
  8
M0
 62
     7
100
AcDbCircle
 10
185.993084
 20
181.432845
 40
1.7
  0
CIRCLE
  5
98F
100
AcDbEntity
  8
M0
 62
     7
100
AcDbCircle
 10
113.19309
 20
181.432845
 40
2.0
  0
CIRCLE
  5
990
100
AcDbEntity
  8
M0
 62
     7
100
AcDbCircle
 10
59.193091
 20
240.432845
 40
2.0
  0
CIRCLE
  5
991
100
AcDbEntity
  8
M0
 62
     7
100
AcDbCircle
 10
59.193091
 20
240.432837
 40
1.7
  0
CIRCLE
  5
992
100
AcDbEntity
  8
M0
 62
     7
100
AcDbCircle
 10
113.19309
 20
181.432845
 40
1.7
  0
LINE
  5
993
100
AcDbEntity
  8
M0
  6
DIVIDE
 62
     7
100
AcDbLine
 10
60.693091
 20
245.932846
 11
60.693091
 21
260.432844
  0
LINE
  5
994
100
AcDbEntity
  8
M0
  6
DIVIDE
 62
     7
100
AcDbLine
 10
111.693091
 20
245.932846
 11
111.693091
 21
260.432844
  0
LINE
  5
995
100
AcDbEntity
  8
M0
  6
DIVIDE
 62
     7
100
AcDbLine
 10
111.693091
 20
260.432844
 11
60.693091
 21
260.432844
  0
LINE
  5
996
100
AcDbEntity
  8
M0
  6
DIVIDE
 62
     7
100
AcDbLine
 10
60.693091
 20
160.432844
 11
111.693091
 21
160.432844
  0
LINE
  5
997
100
AcDbEntity
  8
M0
  6
DIVIDE
 62
     7
100
AcDbLine
 10
60.693091
 20
160.432844
 11
60.693091
 21
174.932844
  0
LINE
  5
998
100
AcDbEntity
  8
M0
  6
DIVIDE
 62
     7
100
AcDbLine
 10
111.693091
 20
160.432844
 11
111.693091
 21
174.932844
  0
LINE
  5
999
100
AcDbEntity
  8
M0
  6
DIVIDE
 62
     7
100
AcDbLine
 10
133.493085
 20
245.932846
 11
133.493085
 21
260.432844
  0
LINE
  5
99A
100
AcDbEntity
  8
M0
  6
DIVIDE
 62
     7
100
AcDbLine
 10
184.493085
 20
260.432844
 11
133.493085
 21
260.432844
  0
LINE
  5
99B
100
AcDbEntity
  8
M0
  6
DIVIDE
 62
     7
100
AcDbLine
 10
184.493085
 20
245.932846
 11
184.493085
 21
260.432844
  0
LINE
  5
99C
100
AcDbEntity
  8
M0
  6
DIVIDE
 62
     7
100
AcDbLine
 10
184.493085
 20
160.432844
 11
184.493085
 21
174.932844
  0
LINE
  5
99D
100
AcDbEntity
  8
M0
  6
DIVIDE
 62
     7
100
AcDbLine
 10
133.493085
 20
160.432844
 11
184.493085
 21
160.432844
  0
LINE
  5
99E
100
AcDbEntity
  8
M0
  6
DIVIDE
 62
     7
100
AcDbLine
 10
133.493085
 20
160.432844
 11
133.493085
 21
174.932844
  0
LINE
  5
99F
100
AcDbEntity
  8
M0
  6
DASHDOT
 62
     7
100
AcDbLine
 10
63.290496
 20
240.432845
 11
55.095687
 21
240.432845
  0
LINE
  5
9A0
100
AcDbEntity
  8
M0
  6
DASHDOT
 62
     7
100
AcDbLine
 10
59.193084
 20
244.530242
 11
59.193099
 21
236.335433
  0
LINE
  5
9A1
100
AcDbEntity
  8
M0
  6
DASHDOT
 62
     7
100
AcDbLine
 10
117.290496
 20
181.432845
 11
109.095687
 21
181.432845
  0
LINE
  5
9A2
100
AcDbEntity
  8
M0
  6
DASHDOT
 62
     7
100
AcDbLine
 10
113.193084
 20
185.530242
 11
113.193099
 21
176.335433
  0
LINE
  5
9A3
100
AcDbEntity
  8
M0
  6
DIVIDE
 62
     7
100
AcDbLine
 10
117.593088
 20
245.932846
 11
117.593088
 21
235.732846
  0
LINE
  5
9A4
100
AcDbEntity
  8
M0
  6
DIVIDE
 62
     7
100
AcDbLine
 10
190.393082
 20
174.932844
 11
184.493085
 21
174.932844
  0
LINE
  5
9A5
100
AcDbEntity
  8
M0
  6
DIVIDE
 62
     7
100
AcDbLine
 10
184.493085
 20
245.932846
 11
190.393082
 21
245.932846
  0
LINE
  5
9A6
100
AcDbEntity
  8
M0
  6
DIVIDE
 62
     7
100
AcDbLine
 10
190.393082
 20
245.932846
 11
190.393082
 21
174.932844
  0
LINE
  5
9A7
100
AcDbEntity
  8
M0
  6
DIVIDE
 62
     7
100
AcDbLine
 10
127.593088
 20
245.932846
 11
127.593088
 21
235.732846
  0
LINE
  5
9A8
100
AcDbEntity
  8
M0
  6
DASHDOT
 62
     7
100
AcDbLine
 10
190.09049
 20
181.432845
 11
181.895681
 21
181.432845
  0
LINE
  5
9A9
100
AcDbEntity
  8
M0
  6
DASHDOT
 62
     7
100
AcDbLine
 10
185.993078
 20
185.530242
 11
185.993093
 21
176.335433
  0
LINE
  5
9AA
100
AcDbEntity
  8
M0
  6
DASHDOT
 62
     7
100
AcDbLine
 10
136.09049
 20
240.432845
 11
127.895681
 21
240.432845
  0
LINE
  5
9AB
100
AcDbEntity
  8
M0
  6
DASHDOT
 62
     7
100
AcDbLine
 10
131.993078
 20
244.530242
 11
131.993093
 21
236.335433
  0
LINE
  5
9AC
100
AcDbEntity
  8
M0
  6
DIVIDE
 62
     7
100
AcDbLine
 10
133.493085
 20
245.932846
 11
127.593088
 21
245.932846
  0
LINE
  5
9AD
100
AcDbEntity
  8
M0
  6
DIVIDE
 62
     7
100
AcDbLine
 10
127.593088
 20
184.932844
 11
127.593088
 21
174.932844
  0
LINE
  5
9AE
100
AcDbEntity
  8
M0
  6
DIVIDE
 62
     7
100
AcDbLine
 10
117.593088
 20
174.932844
 11
111.693091
 21
174.932844
  0
LINE
  5
9AF
100
AcDbEntity
  8
M0
  6
DIVIDE
 62
     7
100
AcDbLine
 10
54.793094
 20
245.932846
 11
54.793094
 21
174.932844
  0
LINE
  5
9B0
100
AcDbEntity
  8
M0
  6
DIVIDE
 62
     7
100
AcDbLine
 10
60.693091
 20
245.932846
 11
54.793094
 21
245.932846
  0
LINE
  5
9B1
100
AcDbEntity
  8
M0
  6
DIVIDE
 62
     7
100
AcDbLine
 10
111.693091
 20
245.932846
 11
117.593088
 21
245.932846
  0
LINE
  5
9B2
100
AcDbEntity
  8
M0
  6
DIVIDE
 62
     7
100
AcDbLine
 10
117.593088
 20
184.932844
 11
117.593088
 21
174.932844
  0
LINE
  5
9B3
100
AcDbEntity
  8
M0
  6
DIVIDE
 62
     7
100
AcDbLine
 10
60.693091
 20
174.932844
 11
54.793094
 21
174.932844
  0
LINE
  5
9B4
100
AcDbEntity
  8
M0
  6
DIVIDE
 62
     7
100
AcDbLine
 10
133.493085
 20
174.932844
 11
127.593088
 21
174.932844
  0
LINE
  5
9B5
100
AcDbEntity
  8
M0
  6
DIVIDE
 62
     7
100
AcDbLine
 10
127.593088
 20
235.732846
 11
117.593088
 21
235.732846
  0
LINE
  5
9B6
100
AcDbEntity
  8
M0
  6
DIVIDE
 62
     7
100
AcDbLine
 10
127.593088
 20
184.932844
 11
117.593088
 21
184.932844
  0
LINE
  5
9B7
100
AcDbEntity
  8
M1
 62
     2
100
AcDbLine
 10
20.0
 20
20.0
 11
20.0
 21
570.0
  0
LINE
  5
9B8
100
AcDbEntity
  8
M1
 62
     2
100
AcDbLine
 10
20.0
 20
570.0
 11
400.0
 21
570.0
  0
LINE
  5
9B9
100
AcDbEntity
  8
M1
 62
     2
100
AcDbLine
 10
400.0
 20
570.0
 11
400.0
 21
20.0
  0
LINE
  5
9BA
100
AcDbEntity
  8
M1
 62
     2
100
AcDbLine
 10
400.0
 20
20.0
 11
20.0
 21
20.0
  0
LINE
  5
9BB
100
AcDbEntity
  8
M1
 62
     2
100
AcDbLine
 10
400.0
 20
40.0
 11
200.0
 21
40.0
  0
LINE
  5
9BC
100
AcDbEntity
  8
M1
 62
     2
100
AcDbLine
 10
400.0
 20
60.0
 11
200.0
 21
60.0
  0
LINE
  5
9BD
100
AcDbEntity
  8
M1
 62
     2
100
AcDbLine
 10
400.0
 20
80.0
 11
200.0
 21
80.0
  0
LINE
  5
9BE
100
AcDbEntity
  8
M1
 62
     2
100
AcDbLine
 10
200.0
 20
20.0
 11
200.0
 21
80.0
  0
TEXT
  5
9BF
100
AcDbEntity
  8
M1
 62
     2
100
AcDbText
 10
205.0
 20
25.0
 40
10.0
  1
適　用；
  7
STANDARD
100
AcDbText
  0
TEXT
  5
9C0
100
AcDbEntity
  8
M1
 62
     2
100
AcDbText
 10
205.0
 20
65.0
 40
10.0
  1
登録名：
  7
STANDARD
100
AcDbText
  0
TEXT
  5
9C1
100
AcDbEntity
  8
M1
 62
     2
100
AcDbText
 10
253.0
 20
65.0
 40
10.0
  1
ＤＭＨＳ２５ＲＧＲ００
 41
0.5
  7
STANDARD
100
AcDbText
  0
TEXT
  5
9C2
100
AcDbEntity
  8
M1
 62
     2
100
AcDbText
 10
205.0
 20
45.0
 40
10.0
  1
形　式；
  7
STANDARD
100
AcDbText
  0
TEXT
  5
9C3
100
AcDbEntity
  8
M1
 62
     2
100
AcDbText
 10
253.0
 20
45.0
 40
10.0
  1
ＨＳ２５－ＲＧ
 41
0.5
  7
STANDARD
100
AcDbText
  0
POINT
  5
9C4
100
AcDbEntity
  8
M1
100
AcDbPoint
 10
115.181458
 20
403.939831
  0
POINT
  5
9C5
100
AcDbEntity
  8
M1
100
AcDbPoint
 10
232.233202
 20
403.939831
  0
LINE
  5
9C6
100
AcDbEntity
  8
DN0
100
AcDbLine
 10
106.275867
 20
129.309238
 11
138.735867
 21
129.309238
  0
TEXT
  5
9C7
100
AcDbEntity
  8
DN0
100
AcDbText
 10
107.172533
 20
130.109238
 40
8.0
  1
せん孔図
 41
0.833333
  7
STANDARD
100
AcDbText
  0
ENDSEC
  0
SECTION
  2
OBJECTS
  0
DICTIONARY
  5
C
100
AcDbDictionary
  3
ACAD_GROUP
350
D
  3
ACAD_MLINESTYLE
350
E
  3
ACDBVARIABLEDICTIONARY
350
989
  0
DICTIONARY
  5
D
102
{ACAD_REACTORS
330
C
102
}
100
AcDbDictionary
  0
DICTIONARY
  5
E
102
{ACAD_REACTORS
330
C
102
}
100
AcDbDictionary
  3
STANDARD
350
13
  0
DICTIONARY
  5
989
102
{ACAD_REACTORS
330
C
102
}
100
AcDbDictionary
  3
SORTENTS
350
98A
  0
MLINESTYLE
  5
13
102
{ACAD_REACTORS
330
E
102
}
100
AcDbMlineStyle
  2
STANDARD
 70
     0
  3

 62
     0
 51
90.0
 52
90.0
 71
     2
 49
0.5
 62
   256
  6
BYLAYER
 49
-0.5
 62
   256
  6
BYLAYER
  0
DICTIONARYVAR
  5
98A
102
{ACAD_REACTORS
330
989
102
}
100
DictionaryVariables
280
     0
  1
96
  0
ENDSEC
  0
EOF
