  0
SECTION
  2
HEADER
  9
$ACADVER
  1
AC1014
  9
$INSBASE
 10
0.000000
 20
0.000000
 30
0.0
  9
$VIEWCTR
 10
7.531722
 20
4.5
  9
$VIEWSIZE
 40
9.0
  9
$SNAPMODE
 70
     0
  9
$SNAPUNIT
 10
1.0
 20
1.0
  9
$SNAPBASE
 10
0.0
 20
0.0
  9
$SNAPANG
 50
0.0
  9
$SNAPSTYLE
 70
     0
  9
$SNAPISOPAIR
 70
     0
  9
$GRIDMODE
 70
     0
  9
$GRIDUNIT
 10
0.0
 20
0.0
  9
$ORTHOMODE
 70
     0
  9
$REGENMODE
 70
     1
  9
$FILLMODE
 70
     1
  9
$QTEXTMODE
 70
     0
  9
$DRAGMODE
 70
     2
  9
$LTSCALE
  40
     1.000000
  9
$OSMODE
 70
     0
  9
$ATTMODE
 70
     1
  9
$TEXTSIZE
 40
0.2
  9
$TRACEWID
 40
0.05
  9
$TEXTSTYLE
  7
STANDARD
  9
$CELTYPE
  6
BYLAYER
  9
$CECOLOR
 62
   256
  9
$DIMSCALE
 40
1.0
  9
$DIMASZ
 40
0.18
  9
$DIMEXO
 40
0.0625
  9
$DIMDLI
 40
0.38
  9
$DIMRND
 40
0.0
  9
$DIMDLE
 40
0.0
  9
$DIMEXE
 40
0.18
  9
$DIMTP
 40
0.0
  9
$DIMTM
 40
0.0
  9
$DIMTXT
 40
0.18
  9
$DIMCEN
 40
0.09
  9
$DIMTSZ
 40
0.0
  9
$DIMTOL
 70
     0
  9
$DIMLIM
 70
     0
  9
$DIMTIH
 70
     1
  9
$DIMTOH
 70
     1
  9
$DIMSE1
 70
     0
  9
$DIMSE2
 70
     0
  9
$DIMTAD
 70
     0
  9
$DIMZIN
 70
     0
  9
$DIMBLK
  1

  9
$LUNITS
 70
     2
  9
$LUPREC
 70
     4
  9
$AXISMODE
 70
     0
  9
$AXISUNIT
 10
0.0
 20
0.0
  9
$SKETCHINC
 40
0.1
  9
$FILLETRAD
 40
0.0
  9
$AUNITS
 70
     0
  9
$AUPREC
 70
     0
  9
$MENU
  1
ACAD
  9
$ELEVATION
 40
0.0
  9
$THICKNESS
 40
0.0
  9
$VIEWDIR
 10
0.0
 20
0.0
 30
1.0
  9
$LIMCHECK
 70
     0
  9
$BLIPMODE
 70
     1
  9
$CHAMFERA
 40
0.0
  9
$CHAMFERB
 40
0.0
  9
$FASTZOOM
 70
     1
  9
$SKPOLY
 70
     0
  9
$TDCREATE
 40
0000000.0000000000
  9
$TDUPDATE
 40
0000000.0000000000
  9
$TDINDWG
 40
0.0000000000
  9
$TDUSRTIMER
 40
0.0000000000
  9
$USRTIMER
 70
     1
  9
$ANGBASE
 50
0.0
  9
$ANGDIR
 70
     0
  9
$PDMODE
 70
     0
  9
$PDSIZE
 40
0.0
  9
$PLINEWID
 40
0.0
  9
$COORDS
 70
     0
  9
$USERI1
 70
     0
  9
$USERI2
 70
     0
  9
$USERI3
 70
     0
  9
$USERI4
 70
     0
  9
$USERI5
 70
     0
  9
$USERR1
 40
0.0
  9
$USERR2
 40
0.0
  9
$USERR3
 40
0.0
  9
$USERR4
 40
0.0
  9
$USERR5
 40
0.0
  9
$CLAYER
  8
M0
  9
$EXTMIN
 10
20.0
 20
20.0
  9
$EXTMAX
 10
400.0
 20
570.0
  9
$LIMMIN
 10
0.0
 20
0.0
  9
$LIMMAX
 10
210.0
 20
297.0
  9
$HANDSEED
  5
9C4
  0
ENDSEC
  0
SECTION
  2
CLASSES
  0
CLASS
  1
DICTIONARYVAR
  2
AcDbDictionaryVar
  3
"AutoCAD"
 90
        0
280
     0
281
     0
  0
CLASS
  1
HATCH
  2
AcDbHatch
  3
"ACAD_SEDONA"
 90
        0
280
     0
281
     1
  0
ENDSEC
  0
SECTION
  2
TABLES
  0
TABLE
  2
VPORT
  5
8
100
AcDbSymbolTable
 70
     2
  0
VPORT
  5
14
100
AcDbSymbolTableRecord
100
AcDbViewportTableRecord
  2
*ACTIVE
 70
     0
 10
0.0
 20
0.0
 11
1.0
 21
1.0
 12
484.0
 22
297.0
 13
0.0
 23
0.0
 14
1.0
 24
1.0
 15
0.0
 25
0.0
 16
0.0
 26
0.0
 36
1.0
 17
0.0
 27
0.0
 37
0.0
 40
594.0
 41
2.0
 42
50.0
 43
0.0
 44
0.0
 50
0.0
 51
0.0
 71
     0
 72
   100
 73
     1
 74
     1
 75
     0
 76
     0
 77
     0
 78
     0
  0
ENDTAB
  0
TABLE
  2
LTYPE
  5
5
100
AcDbSymbolTable
 70
     5
  0
LTYPE
  5
15
100
AcDbSymbolTableRecord
100
AcDbLinetypeTableRecord
  2
BYBLOCK
 70
     0
  3

 72
    65
 73
     0
 40
0.0
  0
LTYPE
  5
16
100
AcDbSymbolTableRecord
100
AcDbLinetypeTableRecord
  2
BYLAYER
 70
     0
  3

 72
    65
 73
     0
 40
0.0
  0
LTYPE
  5
17
100
AcDbSymbolTableRecord
100
AcDbLinetypeTableRecord
  2
CONTINUOUS
 70
    64
  3
Solid line
 72
    65
 73
     0
 40
0.0
  0
LTYPE
  5
18
100
AcDbSymbolTableRecord
100
AcDbLinetypeTableRecord
  2
DASHED
 70
    64
  3
__ __ __ __ __ __ __ __ __ __ __ __ __ __ __ __
 72
    65
 73
     2
 40
0.75
 49
0.5
 74
     0
 49
-0.25
 74
     0
  0
LTYPE
  5
19
100
AcDbSymbolTableRecord
100
AcDbLinetypeTableRecord
  2
DASHDOT
 70
    64
  3
__ . __ . __ . __ . __ . __ . __ . __ . __ . __
 72
    65
 73
     4
 40
1.0
 49
0.5
 74
     0
 49
-0.25
 74
     0
 49
0.0
 74
     0
 49
-0.25
 74
     0
  0
LTYPE
  5
1A
100
AcDbSymbolTableRecord
100
AcDbLinetypeTableRecord
  2
DIVIDE
 70
    64
  3
____ . . ____ . . ____ . . ____ . . ____ . . __
 72
    65
 73
     6
 40
1.25
 49
0.5
 74
     0
 49
-0.25
 74
     0
 49
0.0
 74
     0
 49
-0.25
 74
     0
 49
0.0
 74
     0
 49
-0.25
 74
     0
  0
LTYPE
  5
1B
100
AcDbSymbolTableRecord
100
AcDbLinetypeTableRecord
  2
DOT
 70
    64
  3
. . . . . . . . . . . . . . . . . . . . . . . .
 72
    65
 73
     2
 40
0.25
 49
0.0
 74
     0
 49
-0.25
 74
     0
  0
ENDTAB
  0
TABLE
  2
LAYER
  5
2
100
AcDbSymbolTable
 70
   102
  0
LAYER
  5
F
100
AcDbSymbolTableRecord
100
AcDbLayerTableRecord
  2
0
 70
     0
 62
     7
  6
CONTINUOUS
  0
LAYER
  5
1C
100
AcDbSymbolTableRecord
100
AcDbLayerTableRecord
  2
DEFPOINTS
 70
     0
 62
     7
  6
CONTINUOUS
  0
LAYER
  5
1D
100
AcDbSymbolTableRecord
100
AcDbLayerTableRecord
  2
M0
 70
     0
 62
     3
  6
CONTINUOUS
  0
LAYER
  5
1E
100
AcDbSymbolTableRecord
100
AcDbLayerTableRecord
  2
M1
 70
     0
 62
     3
  6
CONTINUOUS
  0
LAYER
  5
1F
100
AcDbSymbolTableRecord
100
AcDbLayerTableRecord
  2
DD0
 70
     0
 62
     4
  6
CONTINUOUS
  0
LAYER
  5
20
100
AcDbSymbolTableRecord
100
AcDbLayerTableRecord
  2
DN0
 70
     0
 62
     2
  6
CONTINUOUS
  0
ENDTAB
  0
TABLE
  2
STYLE
  5
3
100
AcDbSymbolTable
 70
     2
  0
STYLE
  5
10
100
AcDbSymbolTableRecord
100
AcDbTextStyleTableRecord
  2
STANDARD
 70
     0
 40
0.0
 41
1.0
 50
0.0
 71
     0
 42
0.2
  3
txt
  4
BIGFONT
  0
ENDTAB
  0
TABLE
  2
VIEW
  5
6
100
AcDbSymbolTable
 70
     0
  0
ENDTAB
  0
TABLE
  2
UCS
  5
7
100
AcDbSymbolTable
 70
     0
  0
ENDTAB
  0
TABLE
  2
APPID
  5
9
100
AcDbSymbolTable
 70
     1
  0
APPID
  5
11
100
AcDbSymbolTableRecord
100
AcDbRegAppTableRecord
  2
ACAD
 70
     0
  0
ENDTAB
  0
TABLE
  2
DIMSTYLE
  5
A
100
AcDbSymbolTable
 70
     2
  0
DIMSTYLE
105
27
100
AcDbSymbolTableRecord
100
AcDbDimStyleTableRecord
  2
STANDARD
 70
     0
  3

  4

  5

  6
_OPEN
  7
_OPEN
 40
1.0
 41
6.0
 42
1.0
 43
8.0
 44
1.0
 45
0.0
 46
0.0
 47
0.0
 48
0.0
140
6.3
141
0.09
142
0.0
143
0.03937
144
1.0
145
0.0
146
1.0
147
0.6
 71
     0
 72
     0
 73
     1
 74
     1
 75
     0
 76
     0
 77
     3
 78
     8
170
     0
171
     2
172
     0
173
     1
174
     0
175
     0
176
     0
177
     0
178
     0
270
     2
271
     2
272
     4
273
     2
274
     2
340
10
275
     0
280
     0
281
     0
282
     0
283
     1
284
     0
285
     0
286
     0
287
     3
288
     0
  0
DIMSTYLE
105
28
100
AcDbSymbolTableRecord
100
AcDbDimStyleTableRecord
  2
LEADSTYL
 70
     0
  3

  4

  5

  6
_OPEN
  7
_OPEN
 40
1.0
 41
6.0
 42
0.0625
 43
0.38
 44
0.18
 45
0.0
 46
0.0
 47
0.0
 48
0.0
140
6.3
141
0.09
142
0.0
143
25.4
144
1.0
145
0.0
146
1.0
147
0.6
 71
     0
 72
     0
 73
     1
 74
     1
 75
     0
 76
     0
 77
     0
 78
     0
170
     0
171
     2
172
     0
173
     1
174
     0
175
     0
176
     0
177
     0
178
     0
270
     2
271
     4
272
     4
273
     2
274
     2
340
10
275
     0
280
     0
281
     0
282
     0
283
     1
284
     0
285
     0
286
     0
287
     3
288
     0
  0
ENDTAB
  0
TABLE
  2
BLOCK_RECORD
  5
1
100
AcDbSymbolTable
 70
    29
  0
BLOCK_RECORD
  5
21
100
AcDbSymbolTableRecord
100
AcDbBlockTableRecord
  2
*MODEL_SPACE
  0
BLOCK_RECORD
  5
24
100
AcDbSymbolTableRecord
100
AcDbBlockTableRecord
  2
*PAPER_SPACE
  0
BLOCK_RECORD
  5
29
100
AcDbSymbolTableRecord
100
AcDbBlockTableRecord
  2
_NONE
  0
BLOCK_RECORD
  5
2D
100
AcDbSymbolTableRecord
100
AcDbBlockTableRecord
  2
_OPEN
  0
BLOCK_RECORD
  5
33
100
AcDbSymbolTableRecord
100
AcDbBlockTableRecord
  2
_CLOSED
  0
BLOCK_RECORD
  5
3A
100
AcDbSymbolTableRecord
100
AcDbBlockTableRecord
  2
_ORIGIN
  0
BLOCK_RECORD
  5
3F
100
AcDbSymbolTableRecord
100
AcDbBlockTableRecord
  2
_DOT
  0
BLOCK_RECORD
  5
47
100
AcDbSymbolTableRecord
100
AcDbBlockTableRecord
  2
_OBLIQUE
  0
BLOCK_RECORD
  5
4B
100
AcDbSymbolTableRecord
100
AcDbBlockTableRecord
  2
DIMS0
  0
BLOCK_RECORD
  5
58
100
AcDbSymbolTableRecord
100
AcDbBlockTableRecord
  2
DIMS1
  0
BLOCK_RECORD
  5
5D
100
AcDbSymbolTableRecord
100
AcDbBlockTableRecord
  2
DIMS2
  0
BLOCK_RECORD
  5
62
100
AcDbSymbolTableRecord
100
AcDbBlockTableRecord
  2
DIMS3
  0
BLOCK_RECORD
  5
67
100
AcDbSymbolTableRecord
100
AcDbBlockTableRecord
  2
DIMS4
  0
BLOCK_RECORD
  5
6C
100
AcDbSymbolTableRecord
100
AcDbBlockTableRecord
  2
DIMS5
  0
BLOCK_RECORD
  5
71
100
AcDbSymbolTableRecord
100
AcDbBlockTableRecord
  2
DIMS6
  0
BLOCK_RECORD
  5
76
100
AcDbSymbolTableRecord
100
AcDbBlockTableRecord
  2
DIMS7
  0
BLOCK_RECORD
  5
81
100
AcDbSymbolTableRecord
100
AcDbBlockTableRecord
  2
DIMS8
  0
BLOCK_RECORD
  5
8D
100
AcDbSymbolTableRecord
100
AcDbBlockTableRecord
  2
DIMS9
  0
BLOCK_RECORD
  5
99
100
AcDbSymbolTableRecord
100
AcDbBlockTableRecord
  2
DIMS10
  0
BLOCK_RECORD
  5
A5
100
AcDbSymbolTableRecord
100
AcDbBlockTableRecord
  2
DIMS11
  0
BLOCK_RECORD
  5
B1
100
AcDbSymbolTableRecord
100
AcDbBlockTableRecord
  2
DIMS12
  0
BLOCK_RECORD
  5
BD
100
AcDbSymbolTableRecord
100
AcDbBlockTableRecord
  2
DIMS13
  0
BLOCK_RECORD
  5
C9
100
AcDbSymbolTableRecord
100
AcDbBlockTableRecord
  2
DIMS14
  0
BLOCK_RECORD
  5
D1
100
AcDbSymbolTableRecord
100
AcDbBlockTableRecord
  2
DIMS15
  0
BLOCK_RECORD
  5
DD
100
AcDbSymbolTableRecord
100
AcDbBlockTableRecord
  2
DIMS16
  0
BLOCK_RECORD
  5
E9
100
AcDbSymbolTableRecord
100
AcDbBlockTableRecord
  2
DIMS17
  0
BLOCK_RECORD
  5
F5
100
AcDbSymbolTableRecord
100
AcDbBlockTableRecord
  2
DIMS18
  0
BLOCK_RECORD
  5
101
100
AcDbSymbolTableRecord
100
AcDbBlockTableRecord
  2
DIMS19
  0
BLOCK_RECORD
  5
10D
100
AcDbSymbolTableRecord
100
AcDbBlockTableRecord
  2
DIMS20
  0
BLOCK_RECORD
  5
119
100
AcDbSymbolTableRecord
100
AcDbBlockTableRecord
  2
DIMS21
  0
BLOCK_RECORD
  5
125
100
AcDbSymbolTableRecord
100
AcDbBlockTableRecord
  2
DIMS22
  0
ENDTAB
  0
ENDSEC
  0
SECTION
  2
BLOCKS
  0
BLOCK
  5
22
100
AcDbEntity
  8
0
100
AcDbBlockBegin
  2
*MODEL_SPACE
 70
     0
 10
0.0
 20
0.0
 30
0.0
  3
*MODEL_SPACE
  1

  0
ENDBLK
  5
23
100
AcDbEntity
  8
0
100
AcDbBlockEnd
  0
BLOCK
  5
25
100
AcDbEntity
 67
     1
  8
0
100
AcDbBlockBegin
  2
*PAPER_SPACE
 70
     0
 10
0.0
 20
0.0
 30
0.0
  3
*PAPER_SPACE
  1

  0
ENDBLK
  5
26
100
AcDbEntity
 67
     1
  8
0
100
AcDbBlockEnd
  0
BLOCK
  5
2A
100
AcDbEntity
  8
0
100
AcDbBlockBegin
  2
_NONE
 70
     0
 10
0.0
 20
0.0
  0
CIRCLE
  5
2B
100
AcDbEntity
  8
0
 62
     0
100
AcDbCircle
 10
0.0
 20
0.0
 40
0.25
  0
ENDBLK
  5
2C
100
AcDbEntity
  8
0
100
AcDbBlockEnd
  0
BLOCK
  5
2E
100
AcDbEntity
  8
0
100
AcDbBlockBegin
  2
_OPEN
 70
     0
 10
0.0
 20
0.0
  0
LINE
  5
2F
100
AcDbEntity
  8
0
 62
     0
100
AcDbLine
 10
-0.965926
 20
0.258819
 11
0.0
 21
0.0
  0
LINE
  5
30
100
AcDbEntity
  8
0
 62
     0
100
AcDbLine
 10
0.0
 20
0.0
 11
-0.965926
 21
-0.258819
  0
LINE
  5
31
100
AcDbEntity
  8
0
 62
     0
100
AcDbLine
 10
0.0
 20
0.0
 11
-1.0
 21
0.0
  0
ENDBLK
  5
32
100
AcDbEntity
  8
0
100
AcDbBlockEnd
  0
BLOCK
  5
34
100
AcDbEntity
  8
0
100
AcDbBlockBegin
  2
_CLOSED
 70
     0
 10
0.0
 20
0.0
  0
LINE
  5
35
100
AcDbEntity
  8
0
 62
     0
100
AcDbLine
 10
-0.965926
 20
0.258819
 11
0.0
 21
0.0
  0
LINE
  5
36
100
AcDbEntity
  8
0
 62
     0
100
AcDbLine
 10
0.0
 20
0.0
 11
-0.965926
 21
-0.258819
  0
LINE
  5
37
100
AcDbEntity
  8
0
 62
     0
100
AcDbLine
 10
-0.965926
 20
0.258819
 11
-0.965926
 21
-0.258819
  0
LINE
  5
38
100
AcDbEntity
  8
0
 62
     0
100
AcDbLine
 10
0.0
 20
0.0
 11
-1.0
 21
0.0
  0
ENDBLK
  5
39
100
AcDbEntity
  8
0
100
AcDbBlockEnd
  0
BLOCK
  5
3B
100
AcDbEntity
  8
0
100
AcDbBlockBegin
  2
_ORIGIN
 70
     0
 10
0.0
 20
0.0
  0
CIRCLE
  5
3C
100
AcDbEntity
  8
0
 62
     0
100
AcDbCircle
 10
0.0
 20
0.0
 40
0.5
  0
LINE
  5
3D
100
AcDbEntity
  8
0
 62
     0
100
AcDbLine
 10
0.0
 20
0.0
 11
-1.0
 21
0.0
  0
ENDBLK
  5
3E
100
AcDbEntity
  8
0
100
AcDbBlockEnd
  0
BLOCK
  5
40
100
AcDbEntity
  8
0
100
AcDbBlockBegin
  2
_DOT
 70
     0
 10
0.0
 20
0.0
  0
POLYLINE
  5
41
100
AcDbEntity
  8
0
 62
     0
100
AcDb2dPolyline
 66
     1
 70
     1
 40
0.5
 41
0.5
  0
VERTEX
  5
42
100
AcDbEntity
  8
0
 62
     0
100
AcDbVertex
100
AcDb2dVertex
 10
-0.25
 20
0.0
 42
1.0
  0
VERTEX
  5
43
100
AcDbEntity
  8
0
 62
     0
100
AcDbVertex
100
AcDb2dVertex
 10
0.25
 20
0.0
 42
1.0
  0
SEQEND
  5
44
100
AcDbEntity
  8
0
 62
     0
  0
LINE
  5
45
100
AcDbEntity
  8
0
 62
     0
100
AcDbLine
 10
-0.5
 20
0.0
 11
-1.0
 21
0.0
  0
ENDBLK
  5
46
100
AcDbEntity
  8
0
100
AcDbBlockEnd
  0
BLOCK
  5
48
100
AcDbEntity
  8
0
100
AcDbBlockBegin
  2
_OBLIQUE
 70
     0
 10
0.0
 20
0.0
  0
LINE
  5
49
100
AcDbEntity
  8
0
 62
     0
100
AcDbLine
 10
-0.353553
 20
-0.353553
 11
0.353553
 21
0.353553
  0
ENDBLK
  5
4A
100
AcDbEntity
  8
0
100
AcDbBlockEnd
  0
BLOCK
  5
4C
100
AcDbEntity
  8
DD0
100
AcDbBlockBegin
  2
DIMS0
 70
     0
 10
0.0
 20
0.0
  0
LINE
  5
4D
100
AcDbEntity
  8
DD0
100
AcDbLine
 10
203.663055
 20
446.515289
 11
203.663055
 21
513.405701
  0
LINE
  5
4E
100
AcDbEntity
  8
DD0
100
AcDbLine
 10
43.063068
 20
446.515289
 11
43.063068
 21
513.405701
  0
LINE
  5
4F
100
AcDbEntity
  8
DD0
100
AcDbLine
 10
197.8675
 20
509.852817
 11
203.663055
 21
511.405731
  0
LINE
  5
50
100
AcDbEntity
  8
DD0
100
AcDbLine
 10
203.663055
 20
511.405731
 11
197.8675
 21
512.958646
  0
LINE
  5
51
100
AcDbEntity
  8
DD0
100
AcDbLine
 10
48.858623
 20
512.958646
 11
43.063068
 21
511.405731
  0
LINE
  5
52
100
AcDbEntity
  8
DD0
100
AcDbLine
 10
43.063068
 20
511.405731
 11
48.858623
 21
509.852817
  0
LINE
  5
53
100
AcDbEntity
  8
DD0
100
AcDbLine
 10
203.663055
 20
511.405731
 11
43.063068
 21
511.405731
  0
TEXT
  5
54
100
AcDbEntity
  8
DD0
100
AcDbText
 10
113.706396
 20
512.605713
 40
5.0
  1
１６０．５
 41
0.666667
  7
STANDARD
100
AcDbText
  0
TEXT
  5
55
100
AcDbEntity
  8
DD0
100
AcDbText
 10
71.706396
 20
504.805725
 40
5.0
  1
（補助接点サイドオンサイドオンユニットを付けた場合）
 41
0.666667
  7
STANDARD
100
AcDbText
  0
ENDBLK
  5
56
100
AcDbEntity
  8
DD0
100
AcDbBlockEnd
  0
BLOCK
  5
59
100
AcDbEntity
  8
DD0
100
AcDbBlockBegin
  2
DIMS1
 70
     0
 10
0.0
 20
0.0
  0
TEXT
  5
5A
100
AcDbEntity
  8
DD0
100
AcDbText
 10
189.901154
 20
368.103908
 40
6.3
  1
　
 50
114.970976
 41
0.833333
  7
STANDARD
100
AcDbText
  0
ENDBLK
  5
5B
100
AcDbEntity
  8
DD0
100
AcDbBlockEnd
  0
BLOCK
  5
5E
100
AcDbEntity
  8
DD0
100
AcDbBlockBegin
  2
DIMS2
 70
     0
 10
0.0
 20
0.0
  0
TEXT
  5
5F
100
AcDbEntity
  8
DD0
100
AcDbText
 10
180.569366
 20
367.828435
 40
6.3
  1
　
 50
101.275504
 41
0.833333
  7
STANDARD
100
AcDbText
  0
ENDBLK
  5
60
100
AcDbEntity
  8
DD0
100
AcDbBlockEnd
  0
BLOCK
  5
63
100
AcDbEntity
  8
DD0
100
AcDbBlockBegin
  2
DIMS3
 70
     0
 10
0.0
 20
0.0
  0
TEXT
  5
64
100
AcDbEntity
  8
DD0
100
AcDbText
 10
195.601116
 20
486.068827
 40
6.3
  1
　
 50
50.389529
 41
0.833333
  7
STANDARD
100
AcDbText
  0
ENDBLK
  5
65
100
AcDbEntity
  8
DD0
100
AcDbBlockEnd
  0
BLOCK
  5
68
100
AcDbEntity
  8
DD0
100
AcDbBlockBegin
  2
DIMS4
 70
     0
 10
0.0
 20
0.0
  0
TEXT
  5
69
100
AcDbEntity
  8
DD0
100
AcDbText
 10
117.101166
 20
368.103908
 40
6.3
  1
　
 50
114.970976
 41
0.833333
  7
STANDARD
100
AcDbText
  0
ENDBLK
  5
6A
100
AcDbEntity
  8
DD0
100
AcDbBlockEnd
  0
BLOCK
  5
6D
100
AcDbEntity
  8
DD0
100
AcDbBlockBegin
  2
DIMS5
 70
     0
 10
0.0
 20
0.0
  0
TEXT
  5
6E
100
AcDbEntity
  8
DD0
100
AcDbText
 10
107.769355
 20
367.828435
 40
6.3
  1
　
 50
101.275504
 41
0.833333
  7
STANDARD
100
AcDbText
  0
ENDBLK
  5
6F
100
AcDbEntity
  8
DD0
100
AcDbBlockEnd
  0
BLOCK
  5
72
100
AcDbEntity
  8
DD0
100
AcDbBlockBegin
  2
DIMS6
 70
     0
 10
0.0
 20
0.0
  0
TEXT
  5
73
100
AcDbEntity
  8
DD0
100
AcDbText
 10
122.801128
 20
486.068827
 40
6.3
  1
　
 50
50.389529
 41
0.833333
  7
STANDARD
100
AcDbText
  0
ENDBLK
  5
74
100
AcDbEntity
  8
DD0
100
AcDbBlockEnd
  0
BLOCK
  5
77
100
AcDbEntity
  8
DD0
100
AcDbBlockBegin
  2
DIMS7
 70
     0
 10
0.0
 20
0.0
  0
LINE
  5
78
100
AcDbEntity
  8
DD0
100
AcDbLine
 10
369.106232
 20
451.315277
 11
369.106232
 21
493.413635
  0
LINE
  5
79
100
AcDbEntity
  8
DD0
100
AcDbLine
 10
385.901787
 20
492.96655
 11
380.106232
 21
491.413635
  0
LINE
  5
7A
100
AcDbEntity
  8
DD0
100
AcDbLine
 10
380.106232
 20
491.413635
 11
385.901787
 21
489.860721
  0
LINE
  5
7B
100
AcDbEntity
  8
DD0
100
AcDbLine
 10
363.310677
 20
489.860721
 11
369.106232
 21
491.413635
  0
LINE
  5
7C
100
AcDbEntity
  8
DD0
100
AcDbLine
 10
369.106232
 20
491.413635
 11
363.310677
 21
492.96655
  0
LINE
  5
7D
100
AcDbEntity
  8
DD0
100
AcDbLine
 10
386.706232
 20
491.413635
 11
362.506232
 21
491.413635
  0
TEXT
  5
7E
100
AcDbEntity
  8
DD0
100
AcDbText
 10
370.949553
 20
492.613647
 40
5.0
  1
１１
 41
0.666667
  7
STANDARD
100
AcDbText
  0
ENDBLK
  5
7F
100
AcDbEntity
  8
DD0
100
AcDbBlockEnd
  0
BLOCK
  5
82
100
AcDbEntity
  8
DD0
100
AcDbBlockBegin
  2
DIMS8
 70
     0
 10
0.0
 20
0.0
  0
LINE
  5
83
100
AcDbEntity
  8
DD0
100
AcDbLine
 10
250.306229
 20
433.815277
 11
250.306229
 21
514.67572
  0
LINE
  5
84
100
AcDbEntity
  8
DD0
100
AcDbLine
 10
380.106232
 20
450.565277
 11
380.106232
 21
514.67572
  0
LINE
  5
85
100
AcDbEntity
  8
DD0
100
AcDbLine
 10
256.101784
 20
514.228635
 11
250.306229
 21
512.67572
  0
LINE
  5
86
100
AcDbEntity
  8
DD0
100
AcDbLine
 10
250.306229
 20
512.67572
 11
256.101784
 21
511.122806
  0
LINE
  5
87
100
AcDbEntity
  8
DD0
100
AcDbLine
 10
374.310677
 20
511.122806
 11
380.106232
 21
512.67572
  0
LINE
  5
88
100
AcDbEntity
  8
DD0
100
AcDbLine
 10
380.106232
 20
512.67572
 11
374.310677
 21
514.228635
  0
LINE
  5
89
100
AcDbEntity
  8
DD0
100
AcDbLine
 10
250.306229
 20
512.67572
 11
380.106232
 21
512.67572
  0
TEXT
  5
8A
100
AcDbEntity
  8
DD0
100
AcDbText
 10
309.549559
 20
513.875732
 40
5.0
  1
１３０
 41
0.666667
  7
STANDARD
100
AcDbText
  0
ENDBLK
  5
8B
100
AcDbEntity
  8
DD0
100
AcDbBlockEnd
  0
BLOCK
  5
8E
100
AcDbEntity
  8
DD0
100
AcDbBlockBegin
  2
DIMS9
 70
     0
 10
0.0
 20
0.0
  0
LINE
  5
8F
100
AcDbEntity
  8
DD0
100
AcDbLine
 10
250.306229
 20
433.815277
 11
250.306229
 21
514.67572
  0
LINE
  5
90
100
AcDbEntity
  8
DD0
100
AcDbLine
 10
245.306229
 20
433.815277
 11
245.306229
 21
514.67572
  0
LINE
  5
91
100
AcDbEntity
  8
DD0
100
AcDbLine
 10
256.101784
 20
514.228635
 11
250.306229
 21
512.67572
  0
LINE
  5
92
100
AcDbEntity
  8
DD0
100
AcDbLine
 10
250.306229
 20
512.67572
 11
256.101784
 21
511.122806
  0
LINE
  5
93
100
AcDbEntity
  8
DD0
100
AcDbLine
 10
239.510674
 20
511.122806
 11
245.306229
 21
512.67572
  0
LINE
  5
94
100
AcDbEntity
  8
DD0
100
AcDbLine
 10
245.306229
 20
512.67572
 11
239.510674
 21
514.228635
  0
LINE
  5
95
100
AcDbEntity
  8
DD0
100
AcDbLine
 10
256.906229
 20
512.67572
 11
232.706228
 21
512.67572
  0
TEXT
  5
96
100
AcDbEntity
  8
DD0
100
AcDbText
 10
234.469557
 20
513.875732
 40
5.0
  1
５
 41
0.666667
  7
STANDARD
100
AcDbText
  0
ENDBLK
  5
97
100
AcDbEntity
  8
DD0
100
AcDbBlockEnd
  0
BLOCK
  5
9A
100
AcDbEntity
  8
DD0
100
AcDbBlockBegin
  2
DIMS10
 70
     0
 10
0.0
 20
0.0
  0
LINE
  5
9B
100
AcDbEntity
  8
DD0
100
AcDbLine
 10
187.663055
 20
464.815277
 11
221.652664
 21
464.815277
  0
LINE
  5
9C
100
AcDbEntity
  8
DD0
100
AcDbLine
 10
187.663055
 20
364.815277
 11
221.652664
 21
364.815277
  0
LINE
  5
9D
100
AcDbEntity
  8
DD0
100
AcDbLine
 10
221.205578
 20
459.019722
 11
219.652664
 21
464.815277
  0
LINE
  5
9E
100
AcDbEntity
  8
DD0
100
AcDbLine
 10
219.652664
 20
464.815277
 11
218.09975
 21
459.019722
  0
LINE
  5
9F
100
AcDbEntity
  8
DD0
100
AcDbLine
 10
218.09975
 20
370.610832
 11
219.652664
 21
364.815277
  0
LINE
  5
A0
100
AcDbEntity
  8
DD0
100
AcDbLine
 10
219.652664
 20
364.815277
 11
221.205578
 21
370.610832
  0
LINE
  5
A1
100
AcDbEntity
  8
DD0
100
AcDbLine
 10
219.652664
 20
464.815277
 11
219.652664
 21
364.815277
  0
TEXT
  5
A2
100
AcDbEntity
  8
DD0
100
AcDbText
 10
218.452667
 20
409.158598
 40
5.0
  1
１００
 50
90.000003
 41
0.666667
  7
STANDARD
100
AcDbText
  0
ENDBLK
  5
A3
100
AcDbEntity
  8
DD0
100
AcDbBlockEnd
  0
BLOCK
  5
A6
100
AcDbEntity
  8
DD0
100
AcDbBlockBegin
  2
DIMS11
 70
     0
 10
0.0
 20
0.0
  0
LINE
  5
A7
100
AcDbEntity
  8
DD0
100
AcDbLine
 10
65.063065
 20
368.315277
 11
65.063065
 21
351.099487
  0
LINE
  5
A8
100
AcDbEntity
  8
DD0
100
AcDbLine
 10
86.963066
 20
360.815277
 11
86.963066
 21
351.099487
  0
LINE
  5
A9
100
AcDbEntity
  8
DD0
100
AcDbLine
 10
70.85862
 20
354.652402
 11
65.063065
 21
353.099487
  0
LINE
  5
AA
100
AcDbEntity
  8
DD0
100
AcDbLine
 10
65.063065
 20
353.099487
 11
70.85862
 21
351.546573
  0
LINE
  5
AB
100
AcDbEntity
  8
DD0
100
AcDbLine
 10
81.167511
 20
351.546573
 11
86.963066
 21
353.099487
  0
LINE
  5
AC
100
AcDbEntity
  8
DD0
100
AcDbLine
 10
86.963066
 20
353.099487
 11
81.167511
 21
354.652402
  0
LINE
  5
AD
100
AcDbEntity
  8
DD0
100
AcDbLine
 10
65.063065
 20
353.099487
 11
86.963066
 21
353.099487
  0
TEXT
  5
AE
100
AcDbEntity
  8
DD0
100
AcDbText
 10
72.356398
 20
354.2995
 40
5.0
  1
２２
 41
0.666667
  7
STANDARD
100
AcDbText
  0
ENDBLK
  5
AF
100
AcDbEntity
  8
DD0
100
AcDbBlockEnd
  0
BLOCK
  5
B2
100
AcDbEntity
  8
DD0
100
AcDbBlockBegin
  2
DIMS12
 70
     0
 10
0.0
 20
0.0
  0
LINE
  5
B3
100
AcDbEntity
  8
DD0
100
AcDbLine
 10
159.763062
 20
468.815277
 11
159.763062
 21
479.205902
  0
LINE
  5
B4
100
AcDbEntity
  8
DD0
100
AcDbLine
 10
86.963066
 20
468.815277
 11
86.963066
 21
479.205902
  0
LINE
  5
B5
100
AcDbEntity
  8
DD0
100
AcDbLine
 10
153.967507
 20
475.652988
 11
159.763062
 21
477.205902
  0
LINE
  5
B6
100
AcDbEntity
  8
DD0
100
AcDbLine
 10
159.763062
 20
477.205902
 11
153.967507
 21
478.758816
  0
LINE
  5
B7
100
AcDbEntity
  8
DD0
100
AcDbLine
 10
92.758621
 20
478.758816
 11
86.963066
 21
477.205902
  0
LINE
  5
B8
100
AcDbEntity
  8
DD0
100
AcDbLine
 10
86.963066
 20
477.205902
 11
92.758621
 21
475.652988
  0
LINE
  5
B9
100
AcDbEntity
  8
DD0
100
AcDbLine
 10
159.763062
 20
477.205902
 11
86.963066
 21
477.205902
  0
TEXT
  5
BA
100
AcDbEntity
  8
DD0
100
AcDbText
 10
119.706404
 20
478.405914
 40
5.0
  1
７３
 41
0.666667
  7
STANDARD
100
AcDbText
  0
ENDBLK
  5
BB
100
AcDbEntity
  8
DD0
100
AcDbBlockEnd
  0
BLOCK
  5
BE
100
AcDbEntity
  8
DD0
100
AcDbBlockBegin
  2
DIMS13
 70
     0
 10
0.0
 20
0.0
  0
LINE
  5
BF
100
AcDbEntity
  8
DD0
100
AcDbLine
 10
191.163055
 20
447.315277
 11
191.163055
 21
493.413635
  0
LINE
  5
C0
100
AcDbEntity
  8
DD0
100
AcDbLine
 10
55.563065
 20
447.315277
 11
55.563065
 21
493.413635
  0
LINE
  5
C1
100
AcDbEntity
  8
DD0
100
AcDbLine
 10
185.3675
 20
489.860721
 11
191.163055
 21
491.413635
  0
LINE
  5
C2
100
AcDbEntity
  8
DD0
100
AcDbLine
 10
191.163055
 20
491.413635
 11
185.3675
 21
492.96655
  0
LINE
  5
C3
100
AcDbEntity
  8
DD0
100
AcDbLine
 10
61.35862
 20
492.96655
 11
55.563065
 21
491.413635
  0
LINE
  5
C4
100
AcDbEntity
  8
DD0
100
AcDbLine
 10
55.563065
 20
491.413635
 11
61.35862
 21
489.860721
  0
LINE
  5
C5
100
AcDbEntity
  8
DD0
100
AcDbLine
 10
191.163055
 20
491.413635
 11
55.563065
 21
491.413635
  0
TEXT
  5
C6
100
AcDbEntity
  8
DD0
100
AcDbText
 10
113.706396
 20
492.613647
 40
5.0
  1
１３５．５
 41
0.666667
  7
STANDARD
100
AcDbText
  0
ENDBLK
  5
C7
100
AcDbEntity
  8
DD0
100
AcDbBlockEnd
  0
BLOCK
  5
CA
100
AcDbEntity
  8
DD0
100
AcDbBlockBegin
  2
DIMS14
 70
     0
 10
0.0
 20
0.0
  0
TEXT
  5
CB
100
AcDbEntity
  8
DD0
100
AcDbText
 10
187.756041
 20
146.587662
 40
5.0
  1
４－Ｍ４ねじ穴
 41
0.666667
  7
STANDARD
100
AcDbText
  0
LINE
  5
CC
100
AcDbEntity
  8
DD0
100
AcDbLine
 10
190.290002
 20
181.085815
 11
186.763031
 21
185.939728
  0
LINE
  5
CD
100
AcDbEntity
  8
DD0
100
AcDbLine
 10
186.763031
 20
185.939728
 11
187.390521
 21
179.97263
  0
LINE
  5
CE
100
AcDbEntity
  8
DD0
100
AcDbLine
 10
186.763031
 20
185.939728
 11
198.569839
 21
155.186859
  0
ENDBLK
  5
CF
100
AcDbEntity
  8
DD0
100
AcDbBlockEnd
  0
BLOCK
  5
D2
100
AcDbEntity
  8
DD0
100
AcDbBlockBegin
  2
DIMS15
 70
     0
 10
0.0
 20
0.0
  0
LINE
  5
D3
100
AcDbEntity
  8
DD0
100
AcDbLine
 10
187.263031
 20
266.939728
 11
221.652664
 21
266.939728
  0
LINE
  5
D4
100
AcDbEntity
  8
DD0
100
AcDbLine
 10
66.060448
 20
246.939728
 11
221.652664
 21
246.939728
  0
LINE
  5
D5
100
AcDbEntity
  8
DD0
100
AcDbLine
 10
221.205578
 20
261.144173
 11
219.652664
 21
266.939728
  0
LINE
  5
D6
100
AcDbEntity
  8
DD0
100
AcDbLine
 10
219.652664
 20
266.939728
 11
218.09975
 21
261.144173
  0
LINE
  5
D7
100
AcDbEntity
  8
DD0
100
AcDbLine
 10
218.09975
 20
252.735283
 11
219.652664
 21
246.939728
  0
LINE
  5
D8
100
AcDbEntity
  8
DD0
100
AcDbLine
 10
219.652664
 20
246.939728
 11
221.205578
 21
252.735283
  0
LINE
  5
D9
100
AcDbEntity
  8
DD0
100
AcDbLine
 10
219.652664
 20
266.939728
 11
219.652664
 21
246.939728
  0
TEXT
  5
DA
100
AcDbEntity
  8
DD0
100
AcDbText
 10
218.452667
 20
253.283049
 40
5.0
  1
２０
 50
90.000003
 41
0.666667
  7
STANDARD
100
AcDbText
  0
ENDBLK
  5
DB
100
AcDbEntity
  8
DD0
100
AcDbBlockEnd
  0
BLOCK
  5
DE
100
AcDbEntity
  8
DD0
100
AcDbBlockBegin
  2
DIMS16
 70
     0
 10
0.0
 20
0.0
  0
LINE
  5
DF
100
AcDbEntity
  8
DD0
100
AcDbLine
 10
66.060448
 20
246.939728
 11
221.652664
 21
246.939728
  0
LINE
  5
E0
100
AcDbEntity
  8
DD0
100
AcDbLine
 10
120.060448
 20
187.939728
 11
221.652664
 21
187.939728
  0
LINE
  5
E1
100
AcDbEntity
  8
DD0
100
AcDbLine
 10
221.205578
 20
241.144173
 11
219.652664
 21
246.939728
  0
LINE
  5
E2
100
AcDbEntity
  8
DD0
100
AcDbLine
 10
219.652664
 20
246.939728
 11
218.09975
 21
241.144173
  0
LINE
  5
E3
100
AcDbEntity
  8
DD0
100
AcDbLine
 10
218.09975
 20
193.735283
 11
219.652664
 21
187.939728
  0
LINE
  5
E4
100
AcDbEntity
  8
DD0
100
AcDbLine
 10
219.652664
 20
187.939728
 11
221.205578
 21
193.735283
  0
LINE
  5
E5
100
AcDbEntity
  8
DD0
100
AcDbLine
 10
219.652664
 20
246.939728
 11
219.652664
 21
187.939728
  0
TEXT
  5
E6
100
AcDbEntity
  8
DD0
100
AcDbText
 10
218.452667
 20
213.783064
 40
5.0
  1
５９
 50
90.000003
 41
0.666667
  7
STANDARD
100
AcDbText
  0
ENDBLK
  5
E7
100
AcDbEntity
  8
DD0
100
AcDbBlockEnd
  0
BLOCK
  5
EA
100
AcDbEntity
  8
DD0
100
AcDbBlockBegin
  2
DIMS17
 70
     0
 10
0.0
 20
0.0
  0
LINE
  5
EB
100
AcDbEntity
  8
DD0
100
AcDbLine
 10
55.563042
 20
254.439728
 11
55.563042
 21
286.669098
  0
LINE
  5
EC
100
AcDbEntity
  8
DD0
100
AcDbLine
 10
59.963032
 20
253.037125
 11
59.963032
 21
286.669098
  0
LINE
  5
ED
100
AcDbEntity
  8
DD0
100
AcDbLine
 10
49.767487
 20
283.116184
 11
55.563042
 21
284.669098
  0
LINE
  5
EE
100
AcDbEntity
  8
DD0
100
AcDbLine
 10
55.563042
 20
284.669098
 11
49.767487
 21
286.222012
  0
LINE
  5
EF
100
AcDbEntity
  8
DD0
100
AcDbLine
 10
65.758587
 20
286.222012
 11
59.963032
 21
284.669098
  0
LINE
  5
F0
100
AcDbEntity
  8
DD0
100
AcDbLine
 10
59.963032
 20
284.669098
 11
65.758587
 21
283.116184
  0
LINE
  5
F1
100
AcDbEntity
  8
DD0
100
AcDbLine
 10
34.963041
 20
284.669098
 11
66.563032
 21
284.669098
  0
TEXT
  5
F2
100
AcDbEntity
  8
DD0
100
AcDbText
 10
36.726378
 20
285.86911
 40
5.0
  1
４．５
 41
0.666667
  7
STANDARD
100
AcDbText
  0
ENDBLK
  5
F3
100
AcDbEntity
  8
DD0
100
AcDbBlockEnd
  0
BLOCK
  5
F6
100
AcDbEntity
  8
DD0
100
AcDbBlockBegin
  2
DIMS18
 70
     0
 10
0.0
 20
0.0
  0
LINE
  5
F7
100
AcDbEntity
  8
DD0
100
AcDbLine
 10
59.963032
 20
253.037125
 11
59.963032
 21
286.669098
  0
LINE
  5
F8
100
AcDbEntity
  8
DD0
100
AcDbLine
 10
113.963036
 20
194.037125
 11
113.963036
 21
286.669098
  0
LINE
  5
F9
100
AcDbEntity
  8
DD0
100
AcDbLine
 10
65.758587
 20
286.222012
 11
59.963032
 21
284.669098
  0
LINE
  5
FA
100
AcDbEntity
  8
DD0
100
AcDbLine
 10
59.963032
 20
284.669098
 11
65.758587
 21
283.116184
  0
LINE
  5
FB
100
AcDbEntity
  8
DD0
100
AcDbLine
 10
108.167481
 20
283.116184
 11
113.963036
 21
284.669098
  0
LINE
  5
FC
100
AcDbEntity
  8
DD0
100
AcDbLine
 10
113.963036
 20
284.669098
 11
108.167481
 21
286.222012
  0
LINE
  5
FD
100
AcDbEntity
  8
DD0
100
AcDbLine
 10
59.963032
 20
284.669098
 11
113.963036
 21
284.669098
  0
TEXT
  5
FE
100
AcDbEntity
  8
DD0
100
AcDbText
 10
83.306372
 20
285.86911
 40
5.0
  1
５４
 41
0.666667
  7
STANDARD
100
AcDbText
  0
ENDBLK
  5
FF
100
AcDbEntity
  8
DD0
100
AcDbBlockEnd
  0
BLOCK
  5
102
100
AcDbEntity
  8
DD0
100
AcDbBlockBegin
  2
DIMS19
 70
     0
 10
0.0
 20
0.0
  0
LINE
  5
103
100
AcDbEntity
  8
DD0
100
AcDbLine
 10
113.963036
 20
194.037125
 11
113.963036
 21
286.669098
  0
LINE
  5
104
100
AcDbEntity
  8
DD0
100
AcDbLine
 10
132.763031
 20
253.037125
 11
132.763031
 21
286.669098
  0
LINE
  5
105
100
AcDbEntity
  8
DD0
100
AcDbLine
 10
119.758591
 20
286.222012
 11
113.963036
 21
284.669098
  0
LINE
  5
106
100
AcDbEntity
  8
DD0
100
AcDbLine
 10
113.963036
 20
284.669098
 11
119.758591
 21
283.116184
  0
LINE
  5
107
100
AcDbEntity
  8
DD0
100
AcDbLine
 10
126.967476
 20
283.116184
 11
132.763031
 21
284.669098
  0
LINE
  5
108
100
AcDbEntity
  8
DD0
100
AcDbLine
 10
132.763031
 20
284.669098
 11
126.967476
 21
286.222012
  0
LINE
  5
109
100
AcDbEntity
  8
DD0
100
AcDbLine
 10
113.963036
 20
284.669098
 11
132.763031
 21
284.669098
  0
TEXT
  5
10A
100
AcDbEntity
  8
DD0
100
AcDbText
 10
119.706374
 20
285.86911
 40
5.0
  1
１９
 41
0.666667
  7
STANDARD
100
AcDbText
  0
ENDBLK
  5
10B
100
AcDbEntity
  8
DD0
100
AcDbBlockEnd
  0
BLOCK
  5
10E
100
AcDbEntity
  8
DD0
100
AcDbBlockBegin
  2
DIMS20
 70
     0
 10
0.0
 20
0.0
  0
LINE
  5
10F
100
AcDbEntity
  8
DD0
100
AcDbLine
 10
132.763031
 20
253.037125
 11
132.763031
 21
286.669098
  0
LINE
  5
110
100
AcDbEntity
  8
DD0
100
AcDbLine
 10
186.763031
 20
194.037125
 11
186.763031
 21
286.669098
  0
LINE
  5
111
100
AcDbEntity
  8
DD0
100
AcDbLine
 10
138.558586
 20
286.222012
 11
132.763031
 21
284.669098
  0
LINE
  5
112
100
AcDbEntity
  8
DD0
100
AcDbLine
 10
132.763031
 20
284.669098
 11
138.558586
 21
283.116184
  0
LINE
  5
113
100
AcDbEntity
  8
DD0
100
AcDbLine
 10
180.967476
 20
283.116184
 11
186.763031
 21
284.669098
  0
LINE
  5
114
100
AcDbEntity
  8
DD0
100
AcDbLine
 10
186.763031
 20
284.669098
 11
180.967476
 21
286.222012
  0
LINE
  5
115
100
AcDbEntity
  8
DD0
100
AcDbLine
 10
132.763031
 20
284.669098
 11
186.763031
 21
284.669098
  0
TEXT
  5
116
100
AcDbEntity
  8
DD0
100
AcDbText
 10
156.106367
 20
285.86911
 40
5.0
  1
５４
 41
0.666667
  7
STANDARD
100
AcDbText
  0
ENDBLK
  5
117
100
AcDbEntity
  8
DD0
100
AcDbBlockEnd
  0
BLOCK
  5
11A
100
AcDbEntity
  8
DD0
100
AcDbBlockBegin
  2
DIMS21
 70
     0
 10
0.0
 20
0.0
  0
LINE
  5
11B
100
AcDbEntity
  8
DD0
100
AcDbLine
 10
59.063065
 20
464.815277
 11
28.974361
 21
464.815277
  0
LINE
  5
11C
100
AcDbEntity
  8
DD0
100
AcDbLine
 10
63.063065
 20
458.815277
 11
28.974361
 21
458.815277
  0
LINE
  5
11D
100
AcDbEntity
  8
DD0
100
AcDbLine
 10
29.421447
 20
470.610832
 11
30.974361
 21
464.815277
  0
LINE
  5
11E
100
AcDbEntity
  8
DD0
100
AcDbLine
 10
30.974361
 20
464.815277
 11
32.527276
 21
470.610832
  0
LINE
  5
11F
100
AcDbEntity
  8
DD0
100
AcDbLine
 10
32.527276
 20
453.019722
 11
30.974361
 21
458.815277
  0
LINE
  5
120
100
AcDbEntity
  8
DD0
100
AcDbLine
 10
30.974361
 20
458.815277
 11
29.421447
 21
453.019722
  0
LINE
  5
121
100
AcDbEntity
  8
DD0
100
AcDbLine
 10
30.974361
 20
471.415277
 11
30.974361
 21
452.215277
  0
TEXT
  5
122
100
AcDbEntity
  8
DD0
100
AcDbText
 10
29.774361
 20
460.158598
 40
5.0
  1
６
 50
90.000003
 41
0.666667
  7
STANDARD
100
AcDbText
  0
ENDBLK
  5
123
100
AcDbEntity
  8
DD0
100
AcDbBlockEnd
  0
BLOCK
  5
126
100
AcDbEntity
  8
DD0
100
AcDbBlockBegin
  2
DIMS22
 70
     0
 10
0.0
 20
0.0
  0
LINE
  5
127
100
AcDbEntity
  8
DD0
100
AcDbLine
 10
63.063065
 20
458.815308
 11
28.974361
 21
458.815308
  0
LINE
  5
128
100
AcDbEntity
  8
DD0
100
AcDbLine
 10
63.063065
 20
370.815277
 11
28.974361
 21
370.815277
  0
LINE
  5
129
100
AcDbEntity
  8
DD0
100
AcDbLine
 10
32.527276
 20
453.019753
 11
30.974361
 21
458.815308
  0
LINE
  5
12A
100
AcDbEntity
  8
DD0
100
AcDbLine
 10
30.974361
 20
458.815308
 11
29.421447
 21
453.019753
  0
LINE
  5
12B
100
AcDbEntity
  8
DD0
100
AcDbLine
 10
29.421447
 20
376.610832
 11
30.974361
 21
370.815277
  0
LINE
  5
12C
100
AcDbEntity
  8
DD0
100
AcDbLine
 10
30.974361
 20
370.815277
 11
32.527276
 21
376.610832
  0
LINE
  5
12D
100
AcDbEntity
  8
DD0
100
AcDbLine
 10
30.974361
 20
458.815308
 11
30.974361
 21
370.815277
  0
TEXT
  5
12E
100
AcDbEntity
  8
DD0
100
AcDbText
 10
29.774361
 20
411.158629
 40
5.0
  1
８８
 50
90.000003
 41
0.666667
  7
STANDARD
100
AcDbText
  0
ENDBLK
  5
12F
100
AcDbEntity
  8
DD0
100
AcDbBlockEnd
  0
ENDSEC
  0
SECTION
  2
ENTITIES
  0
INSERT
  5
57
100
AcDbEntity
  8
DD0
100
AcDbBlockReference
  2
DIMS0
 10
0.0
 20
0.0
  0
INSERT
  5
5C
100
AcDbEntity
  8
DD0
100
AcDbBlockReference
  2
DIMS1
 10
0.0
 20
0.0
  0
INSERT
  5
61
100
AcDbEntity
  8
DD0
100
AcDbBlockReference
  2
DIMS2
 10
0.0
 20
0.0
  0
INSERT
  5
66
100
AcDbEntity
  8
DD0
100
AcDbBlockReference
  2
DIMS3
 10
0.0
 20
0.0
  0
INSERT
  5
6B
100
AcDbEntity
  8
DD0
100
AcDbBlockReference
  2
DIMS4
 10
0.0
 20
0.0
  0
INSERT
  5
70
100
AcDbEntity
  8
DD0
100
AcDbBlockReference
  2
DIMS5
 10
0.0
 20
0.0
  0
INSERT
  5
75
100
AcDbEntity
  8
DD0
100
AcDbBlockReference
  2
DIMS6
 10
0.0
 20
0.0
  0
INSERT
  5
80
100
AcDbEntity
  8
DD0
100
AcDbBlockReference
  2
DIMS7
 10
0.0
 20
0.0
  0
INSERT
  5
8C
100
AcDbEntity
  8
DD0
100
AcDbBlockReference
  2
DIMS8
 10
0.0
 20
0.0
  0
INSERT
  5
98
100
AcDbEntity
  8
DD0
100
AcDbBlockReference
  2
DIMS9
 10
0.0
 20
0.0
  0
INSERT
  5
A4
100
AcDbEntity
  8
DD0
100
AcDbBlockReference
  2
DIMS10
 10
0.0
 20
0.0
  0
INSERT
  5
B0
100
AcDbEntity
  8
DD0
100
AcDbBlockReference
  2
DIMS11
 10
0.0
 20
0.0
  0
INSERT
  5
BC
100
AcDbEntity
  8
DD0
100
AcDbBlockReference
  2
DIMS12
 10
0.0
 20
0.0
  0
INSERT
  5
C8
100
AcDbEntity
  8
DD0
100
AcDbBlockReference
  2
DIMS13
 10
0.0
 20
0.0
  0
INSERT
  5
D0
100
AcDbEntity
  8
DD0
100
AcDbBlockReference
  2
DIMS14
 10
0.0
 20
0.0
  0
INSERT
  5
DC
100
AcDbEntity
  8
DD0
100
AcDbBlockReference
  2
DIMS15
 10
0.0
 20
0.0
  0
INSERT
  5
E8
100
AcDbEntity
  8
DD0
100
AcDbBlockReference
  2
DIMS16
 10
0.0
 20
0.0
  0
INSERT
  5
F4
100
AcDbEntity
  8
DD0
100
AcDbBlockReference
  2
DIMS17
 10
0.0
 20
0.0
  0
INSERT
  5
100
100
AcDbEntity
  8
DD0
100
AcDbBlockReference
  2
DIMS18
 10
0.0
 20
0.0
  0
INSERT
  5
10C
100
AcDbEntity
  8
DD0
100
AcDbBlockReference
  2
DIMS19
 10
0.0
 20
0.0
  0
INSERT
  5
118
100
AcDbEntity
  8
DD0
100
AcDbBlockReference
  2
DIMS20
 10
0.0
 20
0.0
  0
INSERT
  5
124
100
AcDbEntity
  8
DD0
100
AcDbBlockReference
  2
DIMS21
 10
0.0
 20
0.0
  0
INSERT
  5
130
100
AcDbEntity
  8
DD0
100
AcDbBlockReference
  2
DIMS22
 10
0.0
 20
0.0
  0
CIRCLE
  5
131
100
AcDbEntity
  8
M0
 62
     1
100
AcDbCircle
 10
137.86306
 20
370.815317
 40
5.0
  0
CIRCLE
  5
132
100
AcDbEntity
  8
M0
 62
     1
100
AcDbCircle
 10
65.063064
 20
370.815317
 40
5.0
  0
CIRCLE
  5
133
100
AcDbEntity
  8
M0
 62
     1
100
AcDbCircle
 10
159.763057
 20
370.815317
 40
5.0
  0
CIRCLE
  5
134
100
AcDbEntity
  8
M0
 62
     1
100
AcDbCircle
 10
137.86306
 20
458.815318
 40
5.0
  0
CIRCLE
  5
135
100
AcDbEntity
  8
M0
 62
     1
100
AcDbCircle
 10
181.66306
 20
370.815317
 40
5.0
  0
CIRCLE
  5
136
100
AcDbEntity
  8
M0
 62
     1
100
AcDbCircle
 10
86.96306
 20
458.815318
 40
5.0
  0
CIRCLE
  5
137
100
AcDbEntity
  8
M0
 62
     1
100
AcDbCircle
 10
108.863063
 20
458.815318
 40
5.0
  0
CIRCLE
  5
138
100
AcDbEntity
  8
M0
 62
     1
100
AcDbCircle
 10
65.063064
 20
458.815318
 40
5.0
  0
CIRCLE
  5
139
100
AcDbEntity
  8
M0
 62
     1
100
AcDbCircle
 10
86.96306
 20
370.815317
 40
5.0
  0
CIRCLE
  5
13A
100
AcDbEntity
  8
M0
 62
     1
100
AcDbCircle
 10
108.863063
 20
370.815317
 40
5.0
  0
CIRCLE
  5
13B
100
AcDbEntity
  8
M0
 62
     1
100
AcDbCircle
 10
159.763057
 20
458.815318
 40
5.0
  0
LINE
  5
13C
100
AcDbEntity
  8
M0
  6
DASHED
 62
     1
100
AcDbLine
 10
203.663057
 20
444.515287
 11
203.663057
 21
385.115287
  0
LINE
  5
13D
100
AcDbEntity
  8
M0
  6
DASHED
 62
     1
100
AcDbLine
 10
203.663057
 20
385.115287
 11
191.163057
 21
385.115287
  0
LINE
  5
13E
100
AcDbEntity
  8
M0
  6
DASHED
 62
     1
100
AcDbLine
 10
203.663057
 20
444.515287
 11
191.163057
 21
444.515287
  0
LINE
  5
13F
100
AcDbEntity
  8
M0
  6
DASHED
 62
     1
100
AcDbLine
 10
43.063067
 20
444.515287
 11
43.063067
 21
385.115287
  0
LINE
  5
140
100
AcDbEntity
  8
M0
  6
DASHED
 62
     1
100
AcDbLine
 10
43.063067
 20
385.115287
 11
55.563067
 21
385.115287
  0
LINE
  5
141
100
AcDbEntity
  8
M0
 62
     7
100
AcDbLine
 10
326.806238
 20
368.814912
 11
319.106238
 21
368.815201
  0
CIRCLE
  5
142
100
AcDbEntity
  8
M0
 62
     1
100
AcDbCircle
 10
181.66306
 20
458.815287
 40
5.0
  0
LINE
  5
143
100
AcDbEntity
  8
M0
 62
     7
100
AcDbLine
 10
319.106219
 20
372.814848
 11
326.806219
 21
372.814848
  0
LINE
  5
144
100
AcDbEntity
  8
M0
 62
     7
100
AcDbLine
 10
326.806238
 20
460.815663
 11
319.106238
 21
460.815374
  0
LINE
  5
145
100
AcDbEntity
  8
M0
 62
     7
100
AcDbLine
 10
326.806219
 20
456.815727
 11
319.106219
 21
456.815727
  0
LINE
  5
146
100
AcDbEntity
  8
M0
  6
DASHED
 62
     1
100
AcDbLine
 10
43.063067
 20
444.515287
 11
55.563067
 21
444.515287
  0
HATCH
  5
147
100
AcDbEntity
  8
M0
 62
     7
100
AcDbHatch
 10
0.0
 20
0.0
210
0.0
220
0.0
230
1.0
  2
SOLID
 70
     1
 71
     0
 91
        1
 92
        1
 93
        8
 72
     1
 10
147.146065
 20
416.546088
 11
147.146065
 21
418.844523
 72
     1
 10
147.146065
 20
418.844523
 11
148.267592
 21
418.844523
 72
     1
 10
148.267592
 20
418.844523
 11
148.267592
 21
419.315287
 72
     1
 10
148.267592
 20
419.315287
 11
145.290702
 21
419.315287
 72
     1
 10
145.290702
 20
419.315287
 11
145.290702
 21
418.844523
 72
     1
 10
145.290702
 20
418.844523
 11
146.412227
 21
418.844523
 72
     1
 10
146.412227
 20
418.844523
 11
146.412227
 21
416.546088
 72
     1
 10
146.412227
 20
416.546088
 11
147.146065
 21
416.546088
 97
        0
 75
     0
 76
     1
 98
        1
 10
0.0
 20
0.0
  0
HATCH
  5
14A
100
AcDbEntity
  8
M0
 62
     7
100
AcDbHatch
 10
0.0
 20
0.0
210
0.0
220
0.0
230
1.0
  2
SOLID
 70
     1
 71
     0
 91
        2
 92
        1
 93
        8
 72
     1
 10
148.687892
 20
417.141466
 11
150.062651
 21
417.141466
 72
     1
 10
150.062651
 20
417.141466
 11
150.302954
 21
416.546088
 72
     1
 10
150.302954
 20
416.546088
 11
151.119867
 21
416.546088
 72
     1
 10
151.119867
 20
416.546088
 11
149.825266
 21
419.315287
 72
     1
 10
149.825266
 20
419.315287
 11
148.925277
 21
419.315287
 72
     1
 10
148.925277
 20
419.315287
 11
147.630676
 21
416.546088
 72
     1
 10
147.630676
 20
416.546088
 11
148.447589
 21
416.546088
 72
     1
 10
148.447589
 20
416.546088
 11
148.687892
 21
417.141466
 97
        0
 92
       16
 93
        3
 72
     1
 10
149.375272
 20
418.844523
 11
148.866723
 21
417.584538
 72
     1
 10
148.866723
 20
417.584538
 11
149.88382
 21
417.584538
 72
     1
 10
149.88382
 20
417.584538
 11
149.375272
 21
418.844523
 97
        0
 75
     0
 76
     1
 98
        1
 10
0.0
 20
0.0
  0
HATCH
  5
14B
100
AcDbEntity
  8
M0
 62
     7
100
AcDbHatch
 10
0.0
 20
0.0
210
0.0
220
0.0
230
1.0
  2
SOLID
 70
     1
 71
     0
 91
        1
 92
        1
 93
       12
 72
     1
 10
141.496898
 20
416.546088
 11
141.496898
 21
417.764535
 72
     1
 10
141.496898
 20
417.764535
 11
142.97842
 21
417.764535
 72
     1
 10
142.97842
 20
417.764535
 11
142.97842
 21
416.546088
 72
     1
 10
142.97842
 20
416.546088
 11
143.712258
 21
416.546088
 72
     1
 10
143.712258
 20
416.546088
 11
143.712258
 21
419.315287
 72
     1
 10
143.712258
 20
419.315287
 11
142.97842
 21
419.315287
 72
     1
 10
142.97842
 20
419.315287
 11
142.97842
 21
418.207608
 72
     1
 10
142.97842
 20
418.207608
 11
141.496898
 21
418.207608
 72
     1
 10
141.496898
 20
418.207608
 11
141.496898
 21
419.315287
 72
     1
 10
141.496898
 20
419.315287
 11
140.76306
 21
419.315287
 72
     1
 10
140.76306
 20
419.315287
 11
140.76306
 21
416.546088
 72
     1
 10
140.76306
 20
416.546088
 11
141.496898
 21
416.546088
 97
        0
 75
     0
 76
     1
 98
        1
 10
0.0
 20
0.0
  0
HATCH
  5
14C
100
AcDbEntity
  8
M0
 62
     7
100
AcDbHatch
 10
0.0
 20
0.0
210
0.0
220
0.0
230
1.0
  2
SOLID
 70
     1
 71
     0
 91
        1
 92
        1
 93
       20
 72
     2
 10
152.629082
 20
418.913753
 40
2.436895
 50
252.447306
 51
292.422669
 73
     1
 72
     2
 10
153.220595
 20
417.480246
 40
0.886144
 50
292.422669
 51
346.150662
 73
     1
 72
     2
 10
152.629082
 20
417.626076
 40
1.495367
 50
346.150662
 51
356.81526
 73
     1
 72
     1
 10
154.12214
 20
417.543
 11
153.349074
 21
417.543
 72
     2
 10
152.629082
 20
417.543
 40
0.719992
 50
0.0
 51
25.643738
 73
     0
 72
     2
 10
152.803833
 20
417.459109
 40
0.526148
 50
25.643738
 51
72.512342
 73
     0
 72
     2
 10
152.629082
 20
418.013763
 40
1.10768
 50
72.512342
 51
111.534322
 73
     0
 72
     2
 10
152.461367
 20
417.588739
 40
0.650762
 50
111.534322
 51
163.518484
 73
     0
 72
     2
 10
153.523533
 20
417.902995
 40
1.758441
 50
163.518484
 51
199.911347
 73
     0
 72
     2
 10
152.48207
 20
418.280232
 40
0.650762
 50
199.911347
 51
251.231339
 73
     0
 72
     2
 10
152.629082
 20
417.847611
 40
1.10768
 50
251.231339
 51
287.055921
 73
     0
 72
     2
 10
152.799648
 20
418.403566
 40
0.526148
 50
287.055921
 51
341.370551
 73
     0
 72
     2
 10
152.629082
 20
418.346067
 40
0.706146
 50
341.370551
 51
357.752539
 73
     0
 72
     1
 10
153.334685
 20
418.373759
 11
154.105353
 21
418.373759
 72
     2
 10
152.629082
 20
418.249145
 40
1.481521
 50
4.824977
 51
11.570993
 73
     1
 72
     2
 10
153.198795
 20
418.36579
 40
0.89999
 50
11.570993
 51
66.454336
 73
     1
 72
     2
 10
152.629082
 20
417.05839
 40
2.326127
 50
66.454336
 51
109.456965
 73
     1
 72
     2
 10
152.26934
 20
418.076701
 40
1.246139
 50
109.456965
 51
161.721239
 73
     1
 72
     2
 10
152.795234
 20
417.902995
 40
1.799979
 50
161.721239
 51
190.751611
 73
     1
 72
     2
 10
152.278322
 20
417.804841
 40
1.273831
 50
190.751611
 51
252.447306
 73
     1
 97
        0
 75
     0
 76
     1
 98
        1
 10
0.0
 20
0.0
  0
HATCH
  5
14D
100
AcDbEntity
  8
M0
 62
     7
100
AcDbHatch
 10
0.0
 20
0.0
210
0.0
220
0.0
230
1.0
  2
SOLID
 70
     1
 71
     0
 91
        1
 92
        1
 93
       12
 72
     1
 10
155.23213
 20
416.546088
 11
155.23213
 21
417.764535
 72
     1
 10
155.23213
 20
417.764535
 11
156.713652
 21
417.764535
 72
     1
 10
156.713652
 20
417.764535
 11
156.713652
 21
416.546088
 72
     1
 10
156.713652
 20
416.546088
 11
157.447489
 21
416.546088
 72
     1
 10
157.447489
 20
416.546088
 11
157.447489
 21
419.315287
 72
     1
 10
157.447489
 20
419.315287
 11
156.713652
 21
419.315287
 72
     1
 10
156.713652
 20
419.315287
 11
156.713652
 21
418.207608
 72
     1
 10
156.713652
 20
418.207608
 11
155.23213
 21
418.207608
 72
     1
 10
155.23213
 20
418.207608
 11
155.23213
 21
419.315287
 72
     1
 10
155.23213
 20
419.315287
 11
154.498292
 21
419.315287
 72
     1
 10
154.498292
 20
419.315287
 11
154.498292
 21
416.546088
 72
     1
 10
154.498292
 20
416.546088
 11
155.23213
 21
416.546088
 97
        0
 75
     0
 76
     1
 98
        1
 10
0.0
 20
0.0
  0
HATCH
  5
14E
100
AcDbEntity
  8
M0
 62
     7
100
AcDbHatch
 10
0.0
 20
0.0
210
0.0
220
0.0
230
1.0
  2
SOLID
 70
     1
 71
     0
 91
        1
 92
        1
 93
        7
 72
     1
 10
169.76306
 20
413.707201
 11
166.76306
 21
412.61529
 72
     1
 10
166.76306
 20
412.61529
 11
169.76306
 21
411.523379
 72
     1
 10
169.76306
 20
411.523379
 11
169.76306
 21
412.11529
 72
     1
 10
169.76306
 20
412.11529
 11
175.76306
 21
412.11529
 72
     1
 10
175.76306
 20
412.11529
 11
175.76306
 21
413.11529
 72
     1
 10
175.76306
 20
413.11529
 11
169.76306
 21
413.11529
 72
     1
 10
169.76306
 20
413.11529
 11
169.76306
 21
413.707201
 97
        0
 75
     0
 76
     1
 98
        1
 10
0.0
 20
0.0
  0
HATCH
  5
14F
100
AcDbEntity
  8
M0
 62
     7
100
AcDbHatch
 10
0.0
 20
0.0
210
0.0
220
0.0
230
1.0
  2
SOLID
 70
     1
 71
     0
 91
        1
 92
        1
 93
        4
 72
     1
 10
145.027628
 20
416.546088
 11
145.027628
 21
419.315287
 72
     1
 10
145.027628
 20
419.315287
 11
144.29379
 21
419.315287
 72
     1
 10
144.29379
 20
419.315287
 11
144.29379
 21
416.546088
 72
     1
 10
144.29379
 20
416.546088
 11
145.027628
 21
416.546088
 97
        0
 75
     0
 76
     1
 98
        1
 10
0.0
 20
0.0
  0
HATCH
  5
150
100
AcDbEntity
  8
M0
 62
     7
100
AcDbHatch
 10
0.0
 20
0.0
210
0.0
220
0.0
230
1.0
  2
SOLID
 70
     1
 71
     0
 91
        1
 92
        1
 93
        8
 72
     1
 10
74.346069
 20
416.546088
 11
74.346069
 21
418.844523
 72
     1
 10
74.346069
 20
418.844523
 11
75.467595
 21
418.844523
 72
     1
 10
75.467595
 20
418.844523
 11
75.467595
 21
419.315287
 72
     1
 10
75.467595
 20
419.315287
 11
72.490706
 21
419.315287
 72
     1
 10
72.490706
 20
419.315287
 11
72.490706
 21
418.844523
 72
     1
 10
72.490706
 20
418.844523
 11
73.612231
 21
418.844523
 72
     1
 10
73.612231
 20
418.844523
 11
73.612231
 21
416.546088
 72
     1
 10
73.612231
 20
416.546088
 11
74.346069
 21
416.546088
 97
        0
 75
     0
 76
     1
 98
        1
 10
0.0
 20
0.0
  0
LINE
  5
151
100
AcDbEntity
  8
M0
100
AcDbLine
 10
149.825266
 20
419.315287
 11
151.119867
 21
416.546088
  0
LINE
  5
152
100
AcDbEntity
  8
M0
100
AcDbLine
 10
146.412227
 20
416.546088
 11
147.146065
 21
416.546088
  0
LINE
  5
153
100
AcDbEntity
  8
M0
100
AcDbLine
 10
158.76286
 20
419.315287
 11
158.029021
 21
419.315287
  0
LINE
  5
154
100
AcDbEntity
  8
M0
100
AcDbLine
 10
150.302954
 20
416.546088
 11
151.119867
 21
416.546088
  0
LINE
  5
155
100
AcDbEntity
  8
M0
100
AcDbLine
 10
148.447589
 20
416.546088
 11
148.687892
 21
417.141466
  0
LINE
  5
156
100
AcDbEntity
  8
M0
100
AcDbLine
 10
144.29379
 20
419.315287
 11
144.29379
 21
416.546088
  0
LINE
  5
157
100
AcDbEntity
  8
M0
100
AcDbLine
 10
175.76306
 20
412.11529
 11
169.76306
 21
412.11529
  0
LINE
  5
158
100
AcDbEntity
  8
M0
100
AcDbLine
 10
157.447489
 20
419.315287
 11
156.713652
 21
419.315287
  0
TEXT
  5
159
100
AcDbEntity
  8
M0
100
AcDbText
 10
162.888061
 20
407.31529
 40
2.0
  1
５６
 41
0.625
  7
STANDARD
100
AcDbText
  0
LINE
  5
15A
100
AcDbEntity
  8
M0
100
AcDbLine
 10
156.713652
 20
418.207608
 11
155.23213
 21
418.207608
  0
TEXT
  5
15B
100
AcDbEntity
  8
M0
100
AcDbText
 10
140.888052
 20
413.31529
 40
2.0
  1
ＬＡＴＣＨＥＤ
 41
0.625
  7
STANDARD
100
AcDbText
  0
LINE
  5
15C
100
AcDbEntity
  8
M0
100
AcDbLine
 10
156.713652
 20
418.207608
 11
156.713652
 21
419.315287
  0
LINE
  5
15D
100
AcDbEntity
  8
M0
100
AcDbLine
 10
154.12214
 20
417.543
 11
153.349073
 21
417.543
  0
TEXT
  5
15E
100
AcDbEntity
  8
M0
100
AcDbText
 10
162.888061
 20
420.315289
 40
2.0
  1
５５
 41
0.625
  7
STANDARD
100
AcDbText
  0
LINE
  5
15F
100
AcDbEntity
  8
M0
100
AcDbLine
 10
166.76306
 20
412.61529
 11
169.76306
 21
411.523379
  0
LINE
  5
160
100
AcDbEntity
  8
M0
100
AcDbLine
 10
148.267592
 20
419.315287
 11
145.290702
 21
419.315287
  0
LINE
  5
161
100
AcDbEntity
  8
M0
100
AcDbLine
 10
175.76306
 20
413.11529
 11
169.76306
 21
413.11529
  0
LINE
  5
162
100
AcDbEntity
  8
M0
100
AcDbLine
 10
148.925277
 20
419.315287
 11
147.630676
 21
416.546088
  0
LINE
  5
163
100
AcDbEntity
  8
M0
100
AcDbLine
 10
169.76306
 20
411.523379
 11
169.76306
 21
412.11529
  0
LINE
  5
164
100
AcDbEntity
  8
M0
100
AcDbLine
 10
146.412227
 20
418.844523
 11
146.412227
 21
416.546088
  0
LINE
  5
165
100
AcDbEntity
  8
M0
100
AcDbLine
 10
169.76306
 20
413.11529
 11
169.76306
 21
413.707201
  0
LINE
  5
166
100
AcDbEntity
  8
M0
100
AcDbLine
 10
166.76306
 20
412.61529
 11
169.76306
 21
413.707201
  0
LINE
  5
167
100
AcDbEntity
  8
M0
100
AcDbLine
 10
148.687892
 20
417.141466
 11
150.062651
 21
417.141466
  0
LINE
  5
168
100
AcDbEntity
  8
M0
100
AcDbLine
 10
149.88382
 20
417.584538
 11
149.375272
 21
418.844523
  0
LINE
  5
169
100
AcDbEntity
  8
M0
100
AcDbLine
 10
141.496898
 20
419.315287
 11
140.76306
 21
419.315287
  0
LINE
  5
16A
100
AcDbEntity
  8
M0
100
AcDbLine
 10
143.712258
 20
419.315287
 11
142.97842
 21
419.315287
  0
LINE
  5
16B
100
AcDbEntity
  8
M0
100
AcDbLine
 10
142.97842
 20
416.546088
 11
143.712258
 21
416.546088
  0
LINE
  5
16C
100
AcDbEntity
  8
M0
100
AcDbLine
 10
175.76306
 20
412.11529
 11
175.76306
 21
413.11529
  0
ARC
  5
16D
100
AcDbEntity
  8
M0
100
AcDbCircle
 10
183.226019
 20
410.515287
 40
0.5
100
AcDbArc
 50
270.0
 51
360.0
  0
ARC
  5
16E
100
AcDbEntity
  8
M0
100
AcDbCircle
 10
183.226019
 20
419.115287
 40
0.5
100
AcDbArc
 50
0.0
 51
90.0
  0
LINE
  5
16F
100
AcDbEntity
  8
M0
100
AcDbLine
 10
183.726018
 20
419.115287
 11
183.726018
 21
410.515287
  0
LINE
  5
170
100
AcDbEntity
  8
M0
100
AcDbLine
 10
155.23213
 20
416.546088
 11
155.23213
 21
417.764535
  0
LINE
  5
171
100
AcDbEntity
  8
M0
100
AcDbLine
 10
145.290702
 20
418.844523
 11
146.412227
 21
418.844523
  0
LINE
  5
172
100
AcDbEntity
  8
M0
100
AcDbLine
 10
178.863059
 20
419.615287
 11
183.226019
 21
419.615287
  0
LINE
  5
173
100
AcDbEntity
  8
M0
100
AcDbLine
 10
145.290702
 20
419.315287
 11
145.290702
 21
418.844523
  0
LINE
  5
174
100
AcDbEntity
  8
M0
100
AcDbLine
 10
168.16306
 20
399.615287
 11
175.963061
 21
399.615287
  0
LINE
  5
175
100
AcDbEntity
  8
M0
100
AcDbLine
 10
152.96306
 20
398.315288
 11
152.96306
 21
396.815288
  0
ARC
  5
176
100
AcDbEntity
  8
M0
100
AcDbCircle
 10
162.16306
 20
399.215287
 40
0.5
100
AcDbArc
 50
270.0
 51
360.0
  0
LINE
  5
177
100
AcDbEntity
  8
M0
100
AcDbLine
 10
145.36306
 20
397.815287
 11
145.263061
 21
397.815287
  0
LINE
  5
178
100
AcDbEntity
  8
M0
100
AcDbLine
 10
153.06306
 20
398.315288
 11
152.96306
 21
398.315288
  0
ARC
  5
179
100
AcDbEntity
  8
M0
100
AcDbCircle
 10
162.16306
 20
402.115287
 40
0.5
100
AcDbArc
 50
0.0
 51
90.0
  0
LINE
  5
17A
100
AcDbEntity
  8
M0
100
AcDbLine
 10
145.36306
 20
396.815288
 11
145.36306
 21
397.815287
  0
LINE
  5
17B
100
AcDbEntity
  8
M0
100
AcDbLine
 10
155.23213
 20
417.764535
 11
156.713652
 21
417.764535
  0
LINE
  5
17C
100
AcDbEntity
  8
M0
100
AcDbLine
 10
155.23213
 20
419.315287
 11
154.498292
 21
419.315287
  0
LINE
  5
17D
100
AcDbEntity
  8
M0
100
AcDbLine
 10
147.146065
 20
418.844523
 11
147.146065
 21
416.546088
  0
LINE
  5
17E
100
AcDbEntity
  8
M0
100
AcDbLine
 10
158.029021
 20
416.546088
 11
158.76286
 21
416.546088
  0
LINE
  5
17F
100
AcDbEntity
  8
M0
100
AcDbLine
 10
147.146065
 20
418.844523
 11
148.267592
 21
418.844523
  0
LINE
  5
180
100
AcDbEntity
  8
M0
100
AcDbLine
 10
140.76306
 20
416.546088
 11
141.496898
 21
416.546088
  0
LINE
  5
181
100
AcDbEntity
  8
M0
100
AcDbLine
 10
149.88382
 20
417.584538
 11
148.866723
 21
417.584538
  0
LINE
  5
182
100
AcDbEntity
  8
M0
100
AcDbLine
 10
157.447489
 20
416.546088
 11
157.447489
 21
419.315287
  0
LINE
  5
183
100
AcDbEntity
  8
M0
100
AcDbLine
 10
154.498292
 20
419.315287
 11
154.498292
 21
416.546088
  0
LINE
  5
184
100
AcDbEntity
  8
M0
100
AcDbLine
 10
145.027628
 20
419.315287
 11
145.027628
 21
416.546088
  0
LINE
  5
185
100
AcDbEntity
  8
M0
100
AcDbLine
 10
148.267592
 20
419.315287
 11
148.267592
 21
418.844523
  0
LINE
  5
186
100
AcDbEntity
  8
M0
100
AcDbLine
 10
156.713652
 20
416.546088
 11
156.713652
 21
417.764535
  0
LINE
  5
187
100
AcDbEntity
  8
M0
100
AcDbLine
 10
155.23213
 20
418.207608
 11
155.23213
 21
419.315287
  0
LINE
  5
188
100
AcDbEntity
  8
M0
100
AcDbLine
 10
149.516339
 20
402.12965
 11
147.748761
 21
400.36195
  0
LINE
  5
189
100
AcDbEntity
  8
M0
100
AcDbLine
 10
173.476886
 20
404.868981
 11
171.709308
 21
403.101403
  0
LINE
  5
18A
100
AcDbEntity
  8
M0
100
AcDbLine
 10
150.753644
 20
399.124645
 11
147.572003
 21
402.306408
  0
LINE
  5
18B
100
AcDbEntity
  8
M0
100
AcDbLine
 10
173.653644
 20
402.924645
 11
170.472003
 21
406.106407
  0
CIRCLE
  5
18C
100
AcDbEntity
  8
M0
100
AcDbCircle
 10
172.06306
 20
425.115287
 40
3.0
  0
LINE
  5
18D
100
AcDbEntity
  8
M0
100
AcDbLine
 10
150.576886
 20
401.068981
 11
148.809308
 21
399.301403
  0
LINE
  5
18E
100
AcDbEntity
  8
M0
100
AcDbLine
 10
172.416339
 20
405.92965
 11
170.648761
 21
404.161949
  0
LINE
  5
18F
100
AcDbEntity
  8
M0
100
AcDbLine
 10
172.416339
 20
426.52965
 11
170.648761
 21
424.761949
  0
LINE
  5
190
100
AcDbEntity
  8
M0
100
AcDbLine
 10
173.476886
 20
425.468981
 11
171.709308
 21
423.701403
  0
LINE
  5
191
100
AcDbEntity
  8
M0
100
AcDbLine
 10
150.753644
 20
427.324645
 11
147.572003
 21
430.506407
  0
LINE
  5
192
100
AcDbEntity
  8
M0
100
AcDbLine
 10
150.576886
 20
429.268981
 11
148.809308
 21
427.501403
  0
LINE
  5
193
100
AcDbEntity
  8
M0
100
AcDbLine
 10
173.653644
 20
423.524645
 11
170.472003
 21
426.706407
  0
LINE
  5
194
100
AcDbEntity
  8
M0
100
AcDbLine
 10
149.516339
 20
430.32965
 11
147.748761
 21
428.561949
  0
ARC
  5
195
100
AcDbEntity
  8
M0
100
AcDbCircle
 10
152.629082
 20
418.346067
 40
0.706146
100
AcDbArc
 50
2.247463
 51
18.629353
  0
ARC
  5
196
100
AcDbEntity
  8
M0
100
AcDbCircle
 10
153.198795
 20
418.36579
 40
0.89999
100
AcDbArc
 50
11.57091
 51
66.454309
  0
ARC
  5
197
100
AcDbEntity
  8
M0
100
AcDbCircle
 10
152.629082
 20
418.013763
 40
1.10768
100
AcDbArc
 50
248.465704
 51
287.487613
  0
ARC
  5
198
100
AcDbEntity
  8
M0
100
AcDbCircle
 10
152.629082
 20
417.847611
 40
1.10768
100
AcDbArc
 50
72.944058
 51
108.768683
  0
ARC
  5
199
100
AcDbEntity
  8
M0
100
AcDbCircle
 10
153.523533
 20
417.902995
 40
1.758441
100
AcDbArc
 50
160.088603
 51
196.481482
  0
ARC
  5
19A
100
AcDbEntity
  8
M0
100
AcDbCircle
 10
152.629082
 20
417.543
 40
0.719992
100
AcDbArc
 50
334.356275
 51
360.0
  0
ARC
  5
19B
100
AcDbEntity
  8
M0
100
AcDbCircle
 10
152.461367
 20
417.588739
 40
0.650762
100
AcDbArc
 50
196.481517
 51
248.465722
  0
CIRCLE
  5
19C
100
AcDbEntity
  8
M0
100
AcDbCircle
 10
172.06306
 20
404.515287
 40
3.0
  0
ARC
  5
19D
100
AcDbEntity
  8
M0
100
AcDbCircle
 10
152.799648
 20
418.403566
 40
0.526148
100
AcDbArc
 50
18.629246
 51
72.943922
  0
CIRCLE
  5
19E
100
AcDbEntity
  8
M0
100
AcDbCircle
 10
149.16306
 20
428.915287
 40
3.0
  0
ARC
  5
19F
100
AcDbEntity
  8
M0
100
AcDbCircle
 10
152.48207
 20
418.280232
 40
0.650762
100
AcDbArc
 50
108.768698
 51
160.088638
  0
ARC
  5
1A0
100
AcDbEntity
  8
M0
100
AcDbCircle
 10
153.220595
 20
417.480246
 40
0.886144
100
AcDbArc
 50
292.42259
 51
346.150643
  0
CIRCLE
  5
1A1
100
AcDbEntity
  8
M0
100
AcDbCircle
 10
149.16306
 20
400.715287
 40
3.0
  0
ARC
  5
1A2
100
AcDbEntity
  8
M0
100
AcDbCircle
 10
152.629082
 20
418.249145
 40
1.481521
100
AcDbArc
 50
4.824937
 51
11.570943
  0
LINE
  5
1A3
100
AcDbEntity
  8
M0
100
AcDbLine
 10
141.496898
 20
417.764535
 11
142.97842
 21
417.764535
  0
LINE
  5
1A4
100
AcDbEntity
  8
M0
100
AcDbLine
 10
150.302954
 20
416.546088
 11
150.062651
 21
417.141466
  0
LINE
  5
1A5
100
AcDbEntity
  8
M0
100
AcDbLine
 10
144.29379
 20
416.546088
 11
145.027628
 21
416.546088
  0
ARC
  5
1A6
100
AcDbEntity
  8
M0
100
AcDbCircle
 10
152.795234
 20
417.902995
 40
1.799979
100
AcDbArc
 50
161.72132
 51
190.751551
  0
ARC
  5
1A7
100
AcDbEntity
  8
M0
100
AcDbCircle
 10
152.26934
 20
418.076701
 40
1.246139
100
AcDbArc
 50
109.456972
 51
161.721309
  0
LINE
  5
1A8
100
AcDbEntity
  8
M0
100
AcDbLine
 10
154.105354
 20
418.373759
 11
153.334684
 21
418.373759
  0
LINE
  5
1A9
100
AcDbEntity
  8
M0
100
AcDbLine
 10
142.97842
 20
419.315287
 11
142.97842
 21
418.207608
  0
LINE
  5
1AA
100
AcDbEntity
  8
M0
100
AcDbLine
 10
149.825266
 20
419.315287
 11
148.925277
 21
419.315287
  0
LINE
  5
1AB
100
AcDbEntity
  8
M0
100
AcDbLine
 10
141.496898
 20
419.315287
 11
141.496898
 21
418.207608
  0
LINE
  5
1AC
100
AcDbEntity
  8
M0
100
AcDbLine
 10
148.866723
 20
417.584538
 11
149.375272
 21
418.844523
  0
LINE
  5
1AD
100
AcDbEntity
  8
M0
100
AcDbLine
 10
143.712258
 20
419.315287
 11
143.712258
 21
416.546088
  0
LINE
  5
1AE
100
AcDbEntity
  8
M0
100
AcDbLine
 10
147.630676
 20
416.546088
 11
148.447589
 21
416.546088
  0
LINE
  5
1AF
100
AcDbEntity
  8
M0
100
AcDbLine
 10
141.496898
 20
417.764535
 11
141.496898
 21
416.546088
  0
LINE
  5
1B0
100
AcDbEntity
  8
M0
100
AcDbLine
 10
154.498292
 20
416.546088
 11
155.23213
 21
416.546088
  0
LINE
  5
1B1
100
AcDbEntity
  8
M0
100
AcDbLine
 10
156.713652
 20
416.546088
 11
157.447489
 21
416.546088
  0
LINE
  5
1B2
100
AcDbEntity
  8
M0
100
AcDbLine
 10
142.97842
 20
417.764535
 11
142.97842
 21
416.546088
  0
TEXT
  5
1B3
100
AcDbEntity
  8
M0
100
AcDbText
 10
169.288055
 20
415.515287
 40
2.0
  1
ＯＦＦ
 41
0.625
  7
STANDARD
100
AcDbText
  0
LINE
  5
1B4
100
AcDbEntity
  8
M0
100
AcDbLine
 10
145.027628
 20
419.315287
 11
144.29379
 21
419.315287
  0
LINE
  5
1B5
100
AcDbEntity
  8
M0
100
AcDbLine
 10
142.97842
 20
418.207608
 11
141.496898
 21
418.207608
  0
TEXT
  5
1B6
100
AcDbEntity
  8
M0
100
AcDbText
 10
147.788053
 20
407.31529
 40
2.0
  1
Ｅ２
 41
0.625
  7
STANDARD
100
AcDbText
  0
LINE
  5
1B7
100
AcDbEntity
  8
M0
100
AcDbLine
 10
158.029021
 20
416.546088
 11
158.029021
 21
419.315287
  0
ARC
  5
1B8
100
AcDbEntity
  8
M0
100
AcDbCircle
 10
152.803833
 20
417.459109
 40
0.526148
100
AcDbArc
 50
287.487588
 51
334.356243
  0
ARC
  5
1B9
100
AcDbEntity
  8
M0
100
AcDbCircle
 10
152.278322
 20
417.804841
 40
1.273831
100
AcDbArc
 50
190.75155
 51
252.447271
  0
ARC
  5
1BA
100
AcDbEntity
  8
M0
100
AcDbCircle
 10
152.629082
 20
417.626076
 40
1.495367
100
AcDbArc
 50
346.150651
 51
356.815254
  0
TEXT
  5
1BB
100
AcDbEntity
  8
M0
100
AcDbText
 10
140.888052
 20
410.81529
 40
2.0
  1
ＣＯＮＴＡＣＴＯＲ
 41
0.625
  7
STANDARD
100
AcDbText
  0
TEXT
  5
1BC
100
AcDbEntity
  8
M0
100
AcDbText
 10
147.788053
 20
420.315289
 40
2.0
  1
Ｅ１
 41
0.625
  7
STANDARD
100
AcDbText
  0
ARC
  5
1BD
100
AcDbEntity
  8
M0
100
AcDbCircle
 10
152.629082
 20
418.913753
 40
2.436895
100
AcDbArc
 50
252.447278
 51
292.42262
  0
LINE
  5
1BE
100
AcDbEntity
  8
M0
100
AcDbLine
 10
179.263061
 20
431.815287
 11
179.263061
 21
422.015286
  0
LINE
  5
1BF
100
AcDbEntity
  8
M0
100
AcDbLine
 10
175.963061
 20
421.015286
 11
175.963061
 21
431.815287
  0
LINE
  5
1C0
100
AcDbEntity
  8
M0
100
AcDbLine
 10
179.263061
 20
422.015286
 11
181.76306
 21
422.015286
  0
LINE
  5
1C1
100
AcDbEntity
  8
M0
100
AcDbLine
 10
168.16306
 20
431.815287
 11
168.16306
 21
421.015286
  0
LINE
  5
1C2
100
AcDbEntity
  8
M0
100
AcDbLine
 10
145.263061
 20
424.815286
 11
153.06306
 21
424.815286
  0
LINE
  5
1C3
100
AcDbEntity
  8
M0
100
AcDbLine
 10
181.76306
 20
419.815286
 11
179.263061
 21
419.815286
  0
LINE
  5
1C4
100
AcDbEntity
  8
M0
100
AcDbLine
 10
168.16306
 20
421.015286
 11
175.963061
 21
421.015286
  0
LINE
  5
1C5
100
AcDbEntity
  8
M0
100
AcDbLine
 10
145.263061
 20
432.815287
 11
145.263061
 21
431.815287
  0
LINE
  5
1C6
100
AcDbEntity
  8
M0
100
AcDbLine
 10
153.06306
 20
431.815287
 11
153.06306
 21
432.815287
  0
LINE
  5
1C7
100
AcDbEntity
  8
M0
100
AcDbLine
 10
160.76306
 20
402.715288
 11
160.76306
 21
402.615286
  0
LINE
  5
1C8
100
AcDbEntity
  8
M0
100
AcDbLine
 10
183.76306
 20
421.015286
 11
183.76306
 21
420.815287
  0
LINE
  5
1C9
100
AcDbEntity
  8
M0
100
AcDbLine
 10
181.76306
 20
422.015286
 11
182.76306
 21
422.015286
  0
LINE
  5
1CA
100
AcDbEntity
  8
M0
100
AcDbLine
 10
162.66306
 20
402.715288
 11
162.66306
 21
402.615286
  0
LINE
  5
1CB
100
AcDbEntity
  8
M0
100
AcDbLine
 10
182.76306
 20
419.815286
 11
181.76306
 21
419.815286
  0
ARC
  5
1CC
100
AcDbEntity
  8
M0
100
AcDbCircle
 10
157.56306
 20
402.115287
 40
0.5
100
AcDbArc
 50
90.0
 51
180.0
  0
ARC
  5
1CD
100
AcDbEntity
  8
M0
100
AcDbCircle
 10
182.76306
 20
420.815287
 40
1.0
100
AcDbArc
 50
270.0
 51
360.0
  0
LINE
  5
1CE
100
AcDbEntity
  8
M0
100
AcDbLine
 10
175.81306
 20
428.365287
 11
175.81306
 21
421.865287
  0
ARC
  5
1CF
100
AcDbEntity
  8
M0
100
AcDbCircle
 10
178.26306
 20
431.815287
 40
1.0
100
AcDbArc
 50
0.0
 51
90.0
  0
ARC
  5
1D0
100
AcDbEntity
  8
M0
100
AcDbCircle
 10
179.26306
 20
419.315287
 40
0.5
100
AcDbArc
 50
90.0
 51
180.0
  0
ARC
  5
1D1
100
AcDbEntity
  8
M0
100
AcDbCircle
 10
157.56306
 20
399.215287
 40
0.5
100
AcDbArc
 50
180.0
 51
270.0
  0
ARC
  5
1D2
100
AcDbEntity
  8
M0
100
AcDbCircle
 10
182.76306
 20
421.015287
 40
1.0
100
AcDbArc
 50
0.0
 51
90.0
  0
LINE
  5
1D3
100
AcDbEntity
  8
M0
100
AcDbLine
 10
136.76306
 20
432.815287
 11
182.76306
 21
432.815287
  0
LINE
  5
1D4
100
AcDbEntity
  8
M0
100
AcDbLine
 10
136.76306
 20
418.015287
 11
136.263061
 21
418.015287
  0
LINE
  5
1D5
100
AcDbEntity
  8
M0
100
AcDbLine
 10
153.06306
 20
424.815286
 11
153.06306
 21
431.815287
  0
LINE
  5
1D6
100
AcDbEntity
  8
M0
100
AcDbLine
 10
168.81306
 20
428.865287
 11
175.31306
 21
428.865287
  0
LINE
  5
1D7
100
AcDbEntity
  8
M0
100
AcDbLine
 10
175.31306
 20
421.365287
 11
168.81306
 21
421.365287
  0
LINE
  5
1D8
100
AcDbEntity
  8
M0
100
AcDbLine
 10
145.263061
 20
431.815287
 11
145.263061
 21
424.815286
  0
LINE
  5
1D9
100
AcDbEntity
  8
M0
100
AcDbLine
 10
183.76306
 20
414.815287
 11
183.726018
 21
414.815287
  0
LINE
  5
1DA
100
AcDbEntity
  8
M0
100
AcDbLine
 10
145.91306
 20
432.665287
 11
152.41306
 21
432.665287
  0
ARC
  5
1DB
100
AcDbEntity
  8
M0
100
AcDbCircle
 10
168.81306
 20
401.265287
 40
0.5
100
AcDbArc
 50
180.0
 51
270.0
  0
LINE
  5
1DC
100
AcDbEntity
  8
M0
100
AcDbLine
 10
152.41306
 20
396.965287
 11
145.91306
 21
396.965287
  0
ARC
  5
1DD
100
AcDbEntity
  8
M0
100
AcDbCircle
 10
152.41306
 20
403.965287
 40
0.5
100
AcDbArc
 50
0.0
 51
90.0
  0
ARC
  5
1DE
100
AcDbEntity
  8
M0
100
AcDbCircle
 10
152.41306
 20
397.465287
 40
0.5
100
AcDbArc
 50
270.0
 51
360.0
  0
LINE
  5
1DF
100
AcDbEntity
  8
M0
100
AcDbLine
 10
145.41306
 20
397.465287
 11
145.41306
 21
403.965286
  0
ARC
  5
1E0
100
AcDbEntity
  8
M0
100
AcDbCircle
 10
168.81306
 20
407.765287
 40
0.5
100
AcDbArc
 50
90.0
 51
180.0
  0
LINE
  5
1E1
100
AcDbEntity
  8
M0
100
AcDbLine
 10
145.41306
 20
425.665287
 11
145.41306
 21
432.165287
  0
ARC
  5
1E2
100
AcDbEntity
  8
M0
100
AcDbCircle
 10
145.91306
 20
432.165287
 40
0.5
100
AcDbArc
 50
90.0
 51
180.0
  0
LINE
  5
1E3
100
AcDbEntity
  8
M0
100
AcDbLine
 10
152.91306
 20
432.165287
 11
152.91306
 21
425.665287
  0
LINE
  5
1E4
100
AcDbEntity
  8
M0
100
AcDbLine
 10
145.91306
 20
404.465287
 11
152.41306
 21
404.465287
  0
LINE
  5
1E5
100
AcDbEntity
  8
M0
100
AcDbLine
 10
152.91306
 20
403.965287
 11
152.91306
 21
397.465288
  0
LINE
  5
1E6
100
AcDbEntity
  8
M0
100
AcDbLine
 10
152.41306
 20
425.165287
 11
145.91306
 21
425.165287
  0
ARC
  5
1E7
100
AcDbEntity
  8
M0
100
AcDbCircle
 10
145.91306
 20
425.665287
 40
0.5
100
AcDbArc
 50
180.0
 51
270.0
  0
ARC
  5
1E8
100
AcDbEntity
  8
M0
100
AcDbCircle
 10
168.81306
 20
428.365287
 40
0.5
100
AcDbArc
 50
90.0
 51
180.0
  0
ARC
  5
1E9
100
AcDbEntity
  8
M0
100
AcDbCircle
 10
168.81306
 20
421.865287
 40
0.5
100
AcDbArc
 50
180.0
 51
270.0
  0
LINE
  5
1EA
100
AcDbEntity
  8
M0
100
AcDbLine
 10
175.31306
 20
400.765288
 11
168.813061
 21
400.765288
  0
ARC
  5
1EB
100
AcDbEntity
  8
M0
100
AcDbCircle
 10
175.31306
 20
401.265287
 40
0.5
100
AcDbArc
 50
270.0
 51
360.0
  0
LINE
  5
1EC
100
AcDbEntity
  8
M0
100
AcDbLine
 10
162.66306
 20
402.615286
 11
162.66306
 21
400.815285
  0
LINE
  5
1ED
100
AcDbEntity
  8
M0
100
AcDbLine
 10
168.313061
 20
401.265285
 11
168.313061
 21
407.765287
  0
ARC
  5
1EE
100
AcDbEntity
  8
M0
100
AcDbCircle
 10
175.31306
 20
407.765287
 40
0.5
100
AcDbArc
 50
0.0
 51
90.0
  0
ARC
  5
1EF
100
AcDbEntity
  8
M0
100
AcDbCircle
 10
152.41306
 20
425.665287
 40
0.5
100
AcDbArc
 50
270.0
 51
360.0
  0
ARC
  5
1F0
100
AcDbEntity
  8
M0
100
AcDbCircle
 10
152.41306
 20
432.165287
 40
0.5
100
AcDbArc
 50
0.0
 51
90.0
  0
ARC
  5
1F1
100
AcDbEntity
  8
M0
100
AcDbCircle
 10
145.91306
 20
403.965287
 40
0.5
100
AcDbArc
 50
90.0
 51
180.0
  0
LINE
  5
1F2
100
AcDbEntity
  8
M0
100
AcDbLine
 10
175.81306
 20
407.765287
 11
175.81306
 21
401.265285
  0
LINE
  5
1F3
100
AcDbEntity
  8
M0
100
AcDbLine
 10
168.81306
 20
408.265286
 11
175.31306
 21
408.265286
  0
ARC
  5
1F4
100
AcDbEntity
  8
M0
100
AcDbCircle
 10
145.91306
 20
397.465287
 40
0.5
100
AcDbArc
 50
180.0
 51
270.0
  0
LINE
  5
1F5
100
AcDbEntity
  8
M0
100
AcDbLine
 10
175.963061
 20
430.015287
 11
168.16306
 21
430.015287
  0
LINE
  5
1F6
100
AcDbEntity
  8
M0
100
AcDbLine
 10
162.66306
 20
399.215288
 11
162.66306
 21
399.715285
  0
LINE
  5
1F7
100
AcDbEntity
  8
M0
100
AcDbLine
 10
135.76306
 20
397.815287
 11
135.76306
 21
404.315287
  0
LINE
  5
1F8
100
AcDbEntity
  8
M0
100
AcDbLine
 10
157.56306
 20
402.615286
 11
162.16306
 21
402.615286
  0
LINE
  5
1F9
100
AcDbEntity
  8
M0
100
AcDbLine
 10
162.16306
 20
398.715287
 11
157.56306
 21
398.715287
  0
LINE
  5
1FA
100
AcDbEntity
  8
M0
100
AcDbLine
 10
162.96306
 20
402.515286
 11
162.96306
 21
400.815285
  0
LINE
  5
1FB
100
AcDbEntity
  8
M0
100
AcDbLine
 10
162.66306
 20
402.115287
 11
162.66306
 21
399.715285
  0
LINE
  5
1FC
100
AcDbEntity
  8
M0
100
AcDbLine
 10
136.263061
 20
411.615287
 11
136.76306
 21
411.615287
  0
LINE
  5
1FD
100
AcDbEntity
  8
M0
100
AcDbLine
 10
183.76306
 20
431.815287
 11
183.76306
 21
397.815287
  0
LINE
  5
1FE
100
AcDbEntity
  8
M0
100
AcDbLine
 10
136.76306
 20
411.615287
 11
136.76306
 21
418.015287
  0
LINE
  5
1FF
100
AcDbEntity
  8
M0
100
AcDbLine
 10
162.96306
 20
398.315288
 11
157.06306
 21
398.315288
  0
LINE
  5
200
100
AcDbEntity
  8
M0
100
AcDbLine
 10
139.26306
 20
396.815288
 11
136.76306
 21
396.815288
  0
LINE
  5
201
100
AcDbEntity
  8
M0
100
AcDbLine
 10
135.76306
 20
397.815287
 11
135.76306
 21
431.815287
  0
LINE
  5
202
100
AcDbEntity
  8
M0
100
AcDbLine
 10
183.726018
 20
414.815287
 11
183.76306
 21
414.815287
  0
ARC
  5
203
100
AcDbEntity
  8
M0
100
AcDbCircle
 10
144.26306
 20
397.815287
 40
1.0
100
AcDbArc
 50
270.0
 51
360.0
  0
ARC
  5
204
100
AcDbEntity
  8
M0
100
AcDbCircle
 10
136.76306
 20
397.815287
 40
1.0
100
AcDbArc
 50
180.0
 51
270.0
  0
ARC
  5
205
100
AcDbEntity
  8
M0
100
AcDbCircle
 10
156.06306
 20
397.815287
 40
1.0
100
AcDbArc
 50
270.0
 51
360.0
  0
ARC
  5
206
100
AcDbEntity
  8
M0
100
AcDbCircle
 10
182.76306
 20
397.815287
 40
1.0
100
AcDbArc
 50
270.0
 51
360.0
  0
ARC
  5
207
100
AcDbEntity
  8
M0
100
AcDbCircle
 10
152.629082
 20
417.05839
 40
2.326127
100
AcDbArc
 50
66.454301
 51
109.456969
  0
ARC
  5
208
100
AcDbEntity
  8
M0
100
AcDbCircle
 10
154.06306
 20
397.815287
 40
1.0
100
AcDbArc
 50
180.0
 51
270.0
  0
ARC
  5
209
100
AcDbEntity
  8
M0
100
AcDbCircle
 10
136.26306
 20
411.115287
 40
0.5
100
AcDbArc
 50
90.0
 51
180.0
  0
ARC
  5
20A
100
AcDbEntity
  8
M0
100
AcDbCircle
 10
179.26306
 20
410.315287
 40
0.5
100
AcDbArc
 50
180.0
 51
270.0
  0
ARC
  5
20B
100
AcDbEntity
  8
M0
100
AcDbCircle
 10
178.26306
 20
397.815287
 40
1.0
100
AcDbArc
 50
270.0
 51
360.0
  0
ARC
  5
20C
100
AcDbEntity
  8
M0
100
AcDbCircle
 10
182.76306
 20
408.815287
 40
1.0
100
AcDbArc
 50
0.0
 51
90.0
  0
ARC
  5
20D
100
AcDbEntity
  8
M0
100
AcDbCircle
 10
167.16306
 20
397.815287
 40
1.0
100
AcDbArc
 50
270.0
 51
360.0
  0
ARC
  5
20E
100
AcDbEntity
  8
M0
100
AcDbCircle
 10
163.96306
 20
397.815287
 40
1.0
100
AcDbArc
 50
180.0
 51
270.0
  0
ARC
  5
20F
100
AcDbEntity
  8
M0
100
AcDbCircle
 10
182.76306
 20
408.615287
 40
1.0
100
AcDbArc
 50
270.0
 51
360.0
  0
ARC
  5
210
100
AcDbEntity
  8
M0
100
AcDbCircle
 10
176.96306
 20
397.815287
 40
1.0
100
AcDbArc
 50
180.0
 51
270.0
  0
ARC
  5
211
100
AcDbEntity
  8
M0
100
AcDbCircle
 10
175.31306
 20
421.865287
 40
0.5
100
AcDbArc
 50
270.0
 51
360.0
  0
LINE
  5
212
100
AcDbEntity
  8
M0
100
AcDbLine
 10
183.226019
 20
410.015286
 11
178.863059
 21
410.015286
  0
ARC
  5
213
100
AcDbEntity
  8
M0
100
AcDbCircle
 10
182.76306
 20
431.815287
 40
1.0
100
AcDbArc
 50
0.0
 51
90.0
  0
LINE
  5
214
100
AcDbEntity
  8
M0
100
AcDbLine
 10
181.76306
 20
407.615287
 11
182.76306
 21
407.615287
  0
LINE
  5
215
100
AcDbEntity
  8
M0
100
AcDbLine
 10
183.76306
 20
408.815286
 11
183.76306
 21
408.615287
  0
ARC
  5
216
100
AcDbEntity
  8
M0
100
AcDbCircle
 10
175.31306
 20
428.365287
 40
0.5
100
AcDbArc
 50
0.0
 51
90.0
  0
LINE
  5
217
100
AcDbEntity
  8
M0
100
AcDbLine
 10
181.76306
 20
409.815287
 11
182.76306
 21
409.815287
  0
ARC
  5
218
100
AcDbEntity
  8
M0
100
AcDbCircle
 10
167.16306
 20
431.815287
 40
1.0
100
AcDbArc
 50
0.0
 51
90.0
  0
ARC
  5
219
100
AcDbEntity
  8
M0
100
AcDbCircle
 10
154.06306
 20
431.815287
 40
1.0
100
AcDbArc
 50
90.0
 51
180.0
  0
LINE
  5
21A
100
AcDbEntity
  8
M0
100
AcDbLine
 10
168.313061
 20
421.865287
 11
168.313061
 21
428.365287
  0
ARC
  5
21B
100
AcDbEntity
  8
M0
100
AcDbCircle
 10
136.76306
 20
431.815287
 40
1.0
100
AcDbArc
 50
90.0
 51
180.0
  0
ARC
  5
21C
100
AcDbEntity
  8
M0
100
AcDbCircle
 10
136.26306
 20
418.515287
 40
0.5
100
AcDbArc
 50
180.0
 51
270.0
  0
ARC
  5
21D
100
AcDbEntity
  8
M0
100
AcDbCircle
 10
176.96306
 20
431.815287
 40
1.0
100
AcDbArc
 50
90.0
 51
180.0
  0
ARC
  5
21E
100
AcDbEntity
  8
M0
100
AcDbCircle
 10
144.26306
 20
431.815287
 40
1.0
100
AcDbArc
 50
0.0
 51
90.0
  0
LINE
  5
21F
100
AcDbEntity
  8
M0
100
AcDbLine
 10
157.06306
 20
402.715288
 11
157.06306
 21
397.815287
  0
LINE
  5
220
100
AcDbEntity
  8
M0
100
AcDbLine
 10
153.06306
 20
397.815287
 11
153.06306
 21
404.815286
  0
LINE
  5
221
100
AcDbEntity
  8
M0
100
AcDbLine
 10
162.96306
 20
397.815287
 11
162.96306
 21
402.715288
  0
LINE
  5
222
100
AcDbEntity
  8
M0
100
AcDbLine
 10
145.263061
 20
404.815286
 11
145.263061
 21
397.815287
  0
LINE
  5
223
100
AcDbEntity
  8
M0
100
AcDbLine
 10
182.76306
 20
396.815288
 11
136.76306
 21
396.815288
  0
LINE
  5
224
100
AcDbEntity
  8
M0
100
AcDbLine
 10
162.96306
 20
402.715288
 11
157.06306
 21
402.715288
  0
LINE
  5
225
100
AcDbEntity
  8
M0
100
AcDbLine
 10
153.06306
 20
404.815286
 11
145.263061
 21
404.815286
  0
LINE
  5
226
100
AcDbEntity
  8
M0
100
AcDbLine
 10
179.263061
 20
407.615287
 11
179.263061
 21
397.815287
  0
LINE
  5
227
100
AcDbEntity
  8
M0
100
AcDbLine
 10
178.76306
 20
419.315287
 11
178.76306
 21
410.315286
  0
LINE
  5
228
100
AcDbEntity
  8
M0
100
AcDbLine
 10
181.76306
 20
407.615287
 11
179.263061
 21
407.615287
  0
LINE
  5
229
100
AcDbEntity
  8
M0
100
AcDbLine
 10
175.963061
 20
408.615287
 11
168.16306
 21
408.615287
  0
LINE
  5
22A
100
AcDbEntity
  8
M0
100
AcDbLine
 10
168.16306
 20
408.615287
 11
168.16306
 21
397.815287
  0
LINE
  5
22B
100
AcDbEntity
  8
M0
100
AcDbLine
 10
179.263061
 20
409.815287
 11
181.76306
 21
409.815287
  0
LINE
  5
22C
100
AcDbEntity
  8
M0
100
AcDbLine
 10
175.963061
 20
397.815287
 11
175.963061
 21
408.615287
  0
LINE
  5
22D
100
AcDbEntity
  8
M0
100
AcDbLine
 10
139.26306
 20
423.315287
 11
166.26306
 21
423.315287
  0
LINE
  5
22E
100
AcDbEntity
  8
M0
100
AcDbLine
 10
138.76306
 20
422.815287
 11
138.76306
 21
406.815287
  0
LINE
  5
22F
100
AcDbEntity
  8
M0
100
AcDbLine
 10
139.26306
 20
406.315287
 11
166.26306
 21
406.315287
  0
LINE
  5
230
100
AcDbEntity
  8
M0
100
AcDbLine
 10
176.76306
 20
410.815287
 11
176.76306
 21
418.815287
  0
LINE
  5
231
100
AcDbEntity
  8
M0
100
AcDbLine
 10
176.26306
 20
410.315287
 11
167.26306
 21
410.315287
  0
LINE
  5
232
100
AcDbEntity
  8
M0
100
AcDbLine
 10
176.26306
 20
419.315287
 11
167.26306
 21
419.315287
  0
LINE
  5
233
100
AcDbEntity
  8
M0
100
AcDbLine
 10
166.76306
 20
406.815287
 11
166.76306
 21
409.815287
  0
LINE
  5
234
100
AcDbEntity
  8
M0
100
AcDbLine
 10
166.76306
 20
419.815287
 11
166.76306
 21
422.815287
  0
ARC
  5
235
100
AcDbEntity
  8
M0
100
AcDbCircle
 10
139.26306
 20
422.815287
 40
0.5
100
AcDbArc
 50
90.0
 51
180.0
  0
ARC
  5
236
100
AcDbEntity
  8
M0
100
AcDbCircle
 10
166.26306
 20
422.815287
 40
0.5
100
AcDbArc
 50
0.0
 51
90.0
  0
ARC
  5
237
100
AcDbEntity
  8
M0
100
AcDbCircle
 10
167.26306
 20
419.815287
 40
0.5
100
AcDbArc
 50
180.0
 51
270.0
  0
ARC
  5
238
100
AcDbEntity
  8
M0
100
AcDbCircle
 10
176.26306
 20
418.815287
 40
0.5
100
AcDbArc
 50
0.0
 51
90.0
  0
ARC
  5
239
100
AcDbEntity
  8
M0
100
AcDbCircle
 10
176.26306
 20
410.815287
 40
0.5
100
AcDbArc
 50
270.0
 51
360.0
  0
ARC
  5
23A
100
AcDbEntity
  8
M0
100
AcDbCircle
 10
167.26306
 20
409.815287
 40
0.5
100
AcDbArc
 50
90.0
 51
180.0
  0
ARC
  5
23B
100
AcDbEntity
  8
M0
100
AcDbCircle
 10
166.26306
 20
406.815287
 40
0.5
100
AcDbArc
 50
270.0
 51
360.0
  0
ARC
  5
23C
100
AcDbEntity
  8
M0
100
AcDbCircle
 10
139.26306
 20
406.815287
 40
0.5
100
AcDbArc
 50
180.0
 51
270.0
  0
HATCH
  5
23D
100
AcDbEntity
  8
M0
 62
     7
100
AcDbHatch
 10
0.0
 20
0.0
210
0.0
220
0.0
230
1.0
  2
SOLID
 70
     1
 71
     0
 91
        2
 92
        1
 93
        8
 72
     1
 10
75.887896
 20
417.141466
 11
77.262654
 21
417.141466
 72
     1
 10
77.262654
 20
417.141466
 11
77.502957
 21
416.546088
 72
     1
 10
77.502957
 20
416.546088
 11
78.319871
 21
416.546088
 72
     1
 10
78.319871
 20
416.546088
 11
77.02527
 21
419.315287
 72
     1
 10
77.02527
 20
419.315287
 11
76.125281
 21
419.315287
 72
     1
 10
76.125281
 20
419.315287
 11
74.83068
 21
416.546088
 72
     1
 10
74.83068
 20
416.546088
 11
75.647593
 21
416.546088
 72
     1
 10
75.647593
 20
416.546088
 11
75.887896
 21
417.141466
 97
        0
 92
       16
 93
        3
 72
     1
 10
76.575275
 20
418.844523
 11
76.066726
 21
417.584538
 72
     1
 10
76.066726
 20
417.584538
 11
77.083824
 21
417.584538
 72
     1
 10
77.083824
 20
417.584538
 11
76.575275
 21
418.844523
 97
        0
 75
     0
 76
     1
 98
        1
 10
0.0
 20
0.0
  0
HATCH
  5
23E
100
AcDbEntity
  8
M0
 62
     7
100
AcDbHatch
 10
0.0
 20
0.0
210
0.0
220
0.0
230
1.0
  2
SOLID
 70
     1
 71
     0
 91
        1
 92
        1
 93
       12
 72
     1
 10
68.696902
 20
416.546088
 11
68.696902
 21
417.764535
 72
     1
 10
68.696902
 20
417.764535
 11
70.178424
 21
417.764535
 72
     1
 10
70.178424
 20
417.764535
 11
70.178424
 21
416.546088
 72
     1
 10
70.178424
 20
416.546088
 11
70.912261
 21
416.546088
 72
     1
 10
70.912261
 20
416.546088
 11
70.912261
 21
419.315287
 72
     1
 10
70.912261
 20
419.315287
 11
70.178424
 21
419.315287
 72
     1
 10
70.178424
 20
419.315287
 11
70.178424
 21
418.207608
 72
     1
 10
70.178424
 20
418.207608
 11
68.696902
 21
418.207608
 72
     1
 10
68.696902
 20
418.207608
 11
68.696902
 21
419.315287
 72
     1
 10
68.696902
 20
419.315287
 11
67.963064
 21
419.315287
 72
     1
 10
67.963064
 20
419.315287
 11
67.963064
 21
416.546088
 72
     1
 10
67.963064
 20
416.546088
 11
68.696902
 21
416.546088
 97
        0
 75
     0
 76
     1
 98
        1
 10
0.0
 20
0.0
  0
HATCH
  5
23F
100
AcDbEntity
  8
M0
 62
     7
100
AcDbHatch
 10
0.0
 20
0.0
210
0.0
220
0.0
230
1.0
  2
SOLID
 70
     1
 71
     0
 91
        1
 92
        1
 93
        4
 72
     1
 10
85.962864
 20
416.546088
 11
85.962864
 21
419.315287
 72
     1
 10
85.962864
 20
419.315287
 11
85.229025
 21
419.315287
 72
     1
 10
85.229025
 20
419.315287
 11
85.229025
 21
416.546088
 72
     1
 10
85.229025
 20
416.546088
 11
85.962864
 21
416.546088
 97
        0
 75
     0
 76
     1
 98
        1
 10
0.0
 20
0.0
  0
HATCH
  5
240
100
AcDbEntity
  8
M0
 62
     7
100
AcDbHatch
 10
0.0
 20
0.0
210
0.0
220
0.0
230
1.0
  2
SOLID
 70
     1
 71
     0
 91
        1
 92
        1
 93
       20
 72
     2
 10
79.829086
 20
418.913753
 40
2.436895
 50
252.447306
 51
292.422669
 73
     1
 72
     2
 10
80.420598
 20
417.480246
 40
0.886144
 50
292.422669
 51
346.150662
 73
     1
 72
     2
 10
79.829086
 20
417.626076
 40
1.495367
 50
346.150662
 51
356.81526
 73
     1
 72
     1
 10
81.322144
 20
417.543
 11
80.549078
 21
417.543
 72
     2
 10
79.829086
 20
417.543
 40
0.719992
 50
0.0
 51
25.643738
 73
     0
 72
     2
 10
80.003836
 20
417.459109
 40
0.526148
 50
25.643738
 51
72.512342
 73
     0
 72
     2
 10
79.829086
 20
418.013763
 40
1.10768
 50
72.512342
 51
111.534322
 73
     0
 72
     2
 10
79.66137
 20
417.588739
 40
0.650762
 50
111.534322
 51
163.518484
 73
     0
 72
     2
 10
80.723537
 20
417.902995
 40
1.758441
 50
163.518484
 51
199.911347
 73
     0
 72
     2
 10
79.682073
 20
418.280232
 40
0.650762
 50
199.911347
 51
251.231339
 73
     0
 72
     2
 10
79.829086
 20
417.847611
 40
1.10768
 50
251.231339
 51
287.055921
 73
     0
 72
     2
 10
79.999652
 20
418.403566
 40
0.526148
 50
287.055921
 51
341.370551
 73
     0
 72
     2
 10
79.829086
 20
418.346067
 40
0.706146
 50
341.370551
 51
357.752539
 73
     0
 72
     1
 10
80.534688
 20
418.373759
 11
81.305357
 21
418.373759
 72
     2
 10
79.829086
 20
418.249145
 40
1.481521
 50
4.824977
 51
11.570993
 73
     1
 72
     2
 10
80.398799
 20
418.36579
 40
0.89999
 50
11.570993
 51
66.454336
 73
     1
 72
     2
 10
79.829086
 20
417.05839
 40
2.326127
 50
66.454336
 51
109.456965
 73
     1
 72
     2
 10
79.469343
 20
418.076701
 40
1.246139
 50
109.456965
 51
161.721239
 73
     1
 72
     2
 10
79.995237
 20
417.902995
 40
1.799979
 50
161.721239
 51
190.751611
 73
     1
 72
     2
 10
79.478325
 20
417.804841
 40
1.273831
 50
190.751611
 51
252.447306
 73
     1
 97
        0
 75
     0
 76
     1
 98
        1
 10
0.0
 20
0.0
  0
HATCH
  5
241
100
AcDbEntity
  8
M0
 62
     7
100
AcDbHatch
 10
0.0
 20
0.0
210
0.0
220
0.0
230
1.0
  2
SOLID
 70
     1
 71
     0
 91
        1
 92
        1
 93
        4
 72
     1
 10
72.227631
 20
416.546088
 11
72.227631
 21
419.315287
 72
     1
 10
72.227631
 20
419.315287
 11
71.493793
 21
419.315287
 72
     1
 10
71.493793
 20
419.315287
 11
71.493793
 21
416.546088
 72
     1
 10
71.493793
 20
416.546088
 11
72.227631
 21
416.546088
 97
        0
 75
     0
 76
     1
 98
        1
 10
0.0
 20
0.0
  0
HATCH
  5
242
100
AcDbEntity
  8
M0
 62
     7
100
AcDbHatch
 10
0.0
 20
0.0
210
0.0
220
0.0
230
1.0
  2
SOLID
 70
     1
 71
     0
 91
        1
 92
        1
 93
        7
 72
     1
 10
96.963064
 20
413.707201
 11
93.963064
 21
412.61529
 72
     1
 10
93.963064
 20
412.61529
 11
96.963064
 21
411.523379
 72
     1
 10
96.963064
 20
411.523379
 11
96.963064
 21
412.11529
 72
     1
 10
96.963064
 20
412.11529
 11
102.963064
 21
412.11529
 72
     1
 10
102.963064
 20
412.11529
 11
102.963064
 21
413.11529
 72
     1
 10
102.963064
 20
413.11529
 11
96.963064
 21
413.11529
 72
     1
 10
96.963064
 20
413.11529
 11
96.963064
 21
413.707201
 97
        0
 75
     0
 76
     1
 98
        1
 10
0.0
 20
0.0
  0
HATCH
  5
243
100
AcDbEntity
  8
M0
 62
     7
100
AcDbHatch
 10
0.0
 20
0.0
210
0.0
220
0.0
230
1.0
  2
SOLID
 70
     1
 71
     0
 91
        1
 92
        1
 93
       12
 72
     1
 10
82.432133
 20
416.546088
 11
82.432133
 21
417.764535
 72
     1
 10
82.432133
 20
417.764535
 11
83.913655
 21
417.764535
 72
     1
 10
83.913655
 20
417.764535
 11
83.913655
 21
416.546088
 72
     1
 10
83.913655
 20
416.546088
 11
84.647493
 21
416.546088
 72
     1
 10
84.647493
 20
416.546088
 11
84.647493
 21
419.315287
 72
     1
 10
84.647493
 20
419.315287
 11
83.913655
 21
419.315287
 72
     1
 10
83.913655
 20
419.315287
 11
83.913655
 21
418.207608
 72
     1
 10
83.913655
 20
418.207608
 11
82.432133
 21
418.207608
 72
     1
 10
82.432133
 20
418.207608
 11
82.432133
 21
419.315287
 72
     1
 10
82.432133
 20
419.315287
 11
81.698295
 21
419.315287
 72
     1
 10
81.698295
 20
419.315287
 11
81.698295
 21
416.546088
 72
     1
 10
81.698295
 20
416.546088
 11
82.432133
 21
416.546088
 97
        0
 75
     0
 76
     1
 98
        1
 10
0.0
 20
0.0
  0
LINE
  5
244
100
AcDbEntity
  8
M0
100
AcDbLine
 10
77.02527
 20
419.315287
 11
78.319871
 21
416.546088
  0
LINE
  5
245
100
AcDbEntity
  8
M0
100
AcDbLine
 10
73.612231
 20
416.546088
 11
74.346069
 21
416.546088
  0
LINE
  5
246
100
AcDbEntity
  8
M0
100
AcDbLine
 10
85.962864
 20
419.315287
 11
85.229025
 21
419.315287
  0
LINE
  5
247
100
AcDbEntity
  8
M0
100
AcDbLine
 10
77.502957
 20
416.546088
 11
78.319871
 21
416.546088
  0
LINE
  5
248
100
AcDbEntity
  8
M0
100
AcDbLine
 10
75.647593
 20
416.546088
 11
75.887896
 21
417.141466
  0
LINE
  5
249
100
AcDbEntity
  8
M0
100
AcDbLine
 10
71.493793
 20
419.315287
 11
71.493793
 21
416.546088
  0
LINE
  5
24A
100
AcDbEntity
  8
M0
100
AcDbLine
 10
102.963064
 20
412.11529
 11
96.963064
 21
412.11529
  0
LINE
  5
24B
100
AcDbEntity
  8
M0
100
AcDbLine
 10
84.647493
 20
419.315287
 11
83.913655
 21
419.315287
  0
TEXT
  5
24C
100
AcDbEntity
  8
M0
100
AcDbText
 10
90.088065
 20
407.31529
 40
2.0
  1
５６
 41
0.625
  7
STANDARD
100
AcDbText
  0
LINE
  5
24D
100
AcDbEntity
  8
M0
100
AcDbLine
 10
83.913655
 20
418.207608
 11
82.432133
 21
418.207608
  0
TEXT
  5
24E
100
AcDbEntity
  8
M0
100
AcDbText
 10
68.088055
 20
413.31529
 40
2.0
  1
ＬＡＴＣＨＥＤ
 41
0.625
  7
STANDARD
100
AcDbText
  0
LINE
  5
24F
100
AcDbEntity
  8
M0
100
AcDbLine
 10
83.913655
 20
418.207608
 11
83.913655
 21
419.315287
  0
LINE
  5
250
100
AcDbEntity
  8
M0
100
AcDbLine
 10
81.322143
 20
417.543
 11
80.549077
 21
417.543
  0
TEXT
  5
251
100
AcDbEntity
  8
M0
100
AcDbText
 10
90.088065
 20
420.315289
 40
2.0
  1
５５
 41
0.625
  7
STANDARD
100
AcDbText
  0
LINE
  5
252
100
AcDbEntity
  8
M0
100
AcDbLine
 10
93.963064
 20
412.61529
 11
96.963064
 21
411.523379
  0
LINE
  5
253
100
AcDbEntity
  8
M0
100
AcDbLine
 10
75.467595
 20
419.315287
 11
72.490706
 21
419.315287
  0
LINE
  5
254
100
AcDbEntity
  8
M0
100
AcDbLine
 10
102.963064
 20
413.11529
 11
96.963064
 21
413.11529
  0
LINE
  5
255
100
AcDbEntity
  8
M0
100
AcDbLine
 10
76.125281
 20
419.315287
 11
74.83068
 21
416.546088
  0
LINE
  5
256
100
AcDbEntity
  8
M0
100
AcDbLine
 10
96.963064
 20
411.523379
 11
96.963064
 21
412.11529
  0
LINE
  5
257
100
AcDbEntity
  8
M0
100
AcDbLine
 10
73.612231
 20
418.844523
 11
73.612231
 21
416.546088
  0
LINE
  5
258
100
AcDbEntity
  8
M0
100
AcDbLine
 10
96.963064
 20
413.11529
 11
96.963064
 21
413.707201
  0
LINE
  5
259
100
AcDbEntity
  8
M0
100
AcDbLine
 10
93.963064
 20
412.61529
 11
96.963064
 21
413.707201
  0
LINE
  5
25A
100
AcDbEntity
  8
M0
100
AcDbLine
 10
75.887896
 20
417.141466
 11
77.262654
 21
417.141466
  0
LINE
  5
25B
100
AcDbEntity
  8
M0
100
AcDbLine
 10
77.083824
 20
417.584538
 11
76.575275
 21
418.844523
  0
LINE
  5
25C
100
AcDbEntity
  8
M0
100
AcDbLine
 10
68.696902
 20
419.315287
 11
67.963064
 21
419.315287
  0
LINE
  5
25D
100
AcDbEntity
  8
M0
100
AcDbLine
 10
70.912261
 20
419.315287
 11
70.178424
 21
419.315287
  0
LINE
  5
25E
100
AcDbEntity
  8
M0
100
AcDbLine
 10
70.178424
 20
416.546088
 11
70.912261
 21
416.546088
  0
LINE
  5
25F
100
AcDbEntity
  8
M0
100
AcDbLine
 10
102.963064
 20
412.11529
 11
102.963064
 21
413.11529
  0
ARC
  5
260
100
AcDbEntity
  8
M0
100
AcDbCircle
 10
110.426022
 20
410.515287
 40
0.5
100
AcDbArc
 50
270.0
 51
360.0
  0
ARC
  5
261
100
AcDbEntity
  8
M0
100
AcDbCircle
 10
110.426022
 20
419.115287
 40
0.5
100
AcDbArc
 50
0.0
 51
90.0
  0
LINE
  5
262
100
AcDbEntity
  8
M0
100
AcDbLine
 10
110.926022
 20
419.115287
 11
110.926022
 21
410.515287
  0
LINE
  5
263
100
AcDbEntity
  8
M0
100
AcDbLine
 10
82.432133
 20
416.546088
 11
82.432133
 21
417.764535
  0
LINE
  5
264
100
AcDbEntity
  8
M0
100
AcDbLine
 10
72.490706
 20
418.844523
 11
73.612231
 21
418.844523
  0
LINE
  5
265
100
AcDbEntity
  8
M0
100
AcDbLine
 10
106.063063
 20
419.615287
 11
110.426022
 21
419.615287
  0
LINE
  5
266
100
AcDbEntity
  8
M0
100
AcDbLine
 10
72.490706
 20
419.315287
 11
72.490706
 21
418.844523
  0
LINE
  5
267
100
AcDbEntity
  8
M0
100
AcDbLine
 10
95.363063
 20
399.615287
 11
103.163064
 21
399.615287
  0
LINE
  5
268
100
AcDbEntity
  8
M0
100
AcDbLine
 10
80.163064
 20
398.315288
 11
80.163064
 21
396.815288
  0
ARC
  5
269
100
AcDbEntity
  8
M0
100
AcDbCircle
 10
89.363064
 20
399.215287
 40
0.5
100
AcDbArc
 50
270.0
 51
360.0
  0
LINE
  5
26A
100
AcDbEntity
  8
M0
100
AcDbLine
 10
72.563064
 20
397.815287
 11
72.463064
 21
397.815287
  0
LINE
  5
26B
100
AcDbEntity
  8
M0
100
AcDbLine
 10
80.263064
 20
398.315288
 11
80.163064
 21
398.315288
  0
ARC
  5
26C
100
AcDbEntity
  8
M0
100
AcDbCircle
 10
89.363064
 20
402.115287
 40
0.5
100
AcDbArc
 50
0.0
 51
90.0
  0
LINE
  5
26D
100
AcDbEntity
  8
M0
100
AcDbLine
 10
72.563064
 20
396.815288
 11
72.563064
 21
397.815287
  0
LINE
  5
26E
100
AcDbEntity
  8
M0
100
AcDbLine
 10
82.432133
 20
417.764535
 11
83.913655
 21
417.764535
  0
LINE
  5
26F
100
AcDbEntity
  8
M0
100
AcDbLine
 10
82.432133
 20
419.315287
 11
81.698295
 21
419.315287
  0
LINE
  5
270
100
AcDbEntity
  8
M0
100
AcDbLine
 10
74.346069
 20
418.844523
 11
74.346069
 21
416.546088
  0
LINE
  5
271
100
AcDbEntity
  8
M0
100
AcDbLine
 10
85.229025
 20
416.546088
 11
85.962864
 21
416.546088
  0
LINE
  5
272
100
AcDbEntity
  8
M0
100
AcDbLine
 10
74.346069
 20
418.844523
 11
75.467595
 21
418.844523
  0
LINE
  5
273
100
AcDbEntity
  8
M0
100
AcDbLine
 10
67.963064
 20
416.546088
 11
68.696902
 21
416.546088
  0
LINE
  5
274
100
AcDbEntity
  8
M0
100
AcDbLine
 10
77.083824
 20
417.584538
 11
76.066726
 21
417.584538
  0
LINE
  5
275
100
AcDbEntity
  8
M0
100
AcDbLine
 10
84.647493
 20
416.546088
 11
84.647493
 21
419.315287
  0
LINE
  5
276
100
AcDbEntity
  8
M0
100
AcDbLine
 10
81.698295
 20
419.315287
 11
81.698295
 21
416.546088
  0
LINE
  5
277
100
AcDbEntity
  8
M0
100
AcDbLine
 10
72.227631
 20
419.315287
 11
72.227631
 21
416.546088
  0
LINE
  5
278
100
AcDbEntity
  8
M0
100
AcDbLine
 10
75.467595
 20
419.315287
 11
75.467595
 21
418.844523
  0
LINE
  5
279
100
AcDbEntity
  8
M0
100
AcDbLine
 10
83.913655
 20
416.546088
 11
83.913655
 21
417.764535
  0
LINE
  5
27A
100
AcDbEntity
  8
M0
100
AcDbLine
 10
82.432133
 20
418.207608
 11
82.432133
 21
419.315287
  0
LINE
  5
27B
100
AcDbEntity
  8
M0
100
AcDbLine
 10
76.716343
 20
402.12965
 11
74.948765
 21
400.36195
  0
LINE
  5
27C
100
AcDbEntity
  8
M0
100
AcDbLine
 10
100.67689
 20
404.868981
 11
98.909311
 21
403.101403
  0
LINE
  5
27D
100
AcDbEntity
  8
M0
100
AcDbLine
 10
77.953648
 20
399.124645
 11
74.772007
 21
402.306408
  0
LINE
  5
27E
100
AcDbEntity
  8
M0
100
AcDbLine
 10
100.853647
 20
402.924645
 11
97.672007
 21
406.106407
  0
CIRCLE
  5
27F
100
AcDbEntity
  8
M0
100
AcDbCircle
 10
99.263064
 20
425.115287
 40
3.0
  0
LINE
  5
280
100
AcDbEntity
  8
M0
100
AcDbLine
 10
77.77689
 20
401.068981
 11
76.009312
 21
399.301403
  0
LINE
  5
281
100
AcDbEntity
  8
M0
100
AcDbLine
 10
99.616343
 20
405.92965
 11
97.848765
 21
404.161949
  0
LINE
  5
282
100
AcDbEntity
  8
M0
100
AcDbLine
 10
99.616343
 20
426.52965
 11
97.848765
 21
424.761949
  0
LINE
  5
283
100
AcDbEntity
  8
M0
100
AcDbLine
 10
100.67689
 20
425.468981
 11
98.909311
 21
423.701403
  0
LINE
  5
284
100
AcDbEntity
  8
M0
100
AcDbLine
 10
77.953648
 20
427.324645
 11
74.772007
 21
430.506407
  0
LINE
  5
285
100
AcDbEntity
  8
M0
100
AcDbLine
 10
77.77689
 20
429.268981
 11
76.009312
 21
427.501403
  0
LINE
  5
286
100
AcDbEntity
  8
M0
100
AcDbLine
 10
100.853647
 20
423.524645
 11
97.672007
 21
426.706407
  0
LINE
  5
287
100
AcDbEntity
  8
M0
100
AcDbLine
 10
76.716343
 20
430.32965
 11
74.948765
 21
428.561949
  0
ARC
  5
288
100
AcDbEntity
  8
M0
100
AcDbCircle
 10
79.829086
 20
418.346067
 40
0.706146
100
AcDbArc
 50
2.247463
 51
18.629353
  0
ARC
  5
289
100
AcDbEntity
  8
M0
100
AcDbCircle
 10
80.398799
 20
418.36579
 40
0.89999
100
AcDbArc
 50
11.57091
 51
66.454309
  0
ARC
  5
28A
100
AcDbEntity
  8
M0
100
AcDbCircle
 10
79.829086
 20
418.013763
 40
1.10768
100
AcDbArc
 50
248.465704
 51
287.487613
  0
ARC
  5
28B
100
AcDbEntity
  8
M0
100
AcDbCircle
 10
79.829086
 20
417.847611
 40
1.10768
100
AcDbArc
 50
72.944058
 51
108.768683
  0
ARC
  5
28C
100
AcDbEntity
  8
M0
100
AcDbCircle
 10
80.723537
 20
417.902995
 40
1.758441
100
AcDbArc
 50
160.088603
 51
196.481482
  0
ARC
  5
28D
100
AcDbEntity
  8
M0
100
AcDbCircle
 10
79.829086
 20
417.543
 40
0.719992
100
AcDbArc
 50
334.356275
 51
360.0
  0
ARC
  5
28E
100
AcDbEntity
  8
M0
100
AcDbCircle
 10
79.66137
 20
417.588739
 40
0.650762
100
AcDbArc
 50
196.481517
 51
248.465722
  0
CIRCLE
  5
28F
100
AcDbEntity
  8
M0
100
AcDbCircle
 10
99.263064
 20
404.515287
 40
3.0
  0
ARC
  5
290
100
AcDbEntity
  8
M0
100
AcDbCircle
 10
79.999652
 20
418.403566
 40
0.526148
100
AcDbArc
 50
18.629246
 51
72.943922
  0
CIRCLE
  5
291
100
AcDbEntity
  8
M0
100
AcDbCircle
 10
76.363064
 20
428.915287
 40
3.0
  0
ARC
  5
292
100
AcDbEntity
  8
M0
100
AcDbCircle
 10
79.682073
 20
418.280232
 40
0.650762
100
AcDbArc
 50
108.768698
 51
160.088638
  0
ARC
  5
293
100
AcDbEntity
  8
M0
100
AcDbCircle
 10
80.420598
 20
417.480246
 40
0.886144
100
AcDbArc
 50
292.42259
 51
346.150643
  0
CIRCLE
  5
294
100
AcDbEntity
  8
M0
100
AcDbCircle
 10
76.363064
 20
400.715287
 40
3.0
  0
ARC
  5
295
100
AcDbEntity
  8
M0
100
AcDbCircle
 10
79.829086
 20
418.249145
 40
1.481521
100
AcDbArc
 50
4.824937
 51
11.570943
  0
LINE
  5
296
100
AcDbEntity
  8
M0
100
AcDbLine
 10
68.696902
 20
417.764535
 11
70.178424
 21
417.764535
  0
LINE
  5
297
100
AcDbEntity
  8
M0
100
AcDbLine
 10
77.502957
 20
416.546088
 11
77.262654
 21
417.141466
  0
LINE
  5
298
100
AcDbEntity
  8
M0
100
AcDbLine
 10
71.493793
 20
416.546088
 11
72.227631
 21
416.546088
  0
ARC
  5
299
100
AcDbEntity
  8
M0
100
AcDbCircle
 10
79.995237
 20
417.902995
 40
1.799979
100
AcDbArc
 50
161.72132
 51
190.751551
  0
ARC
  5
29A
100
AcDbEntity
  8
M0
100
AcDbCircle
 10
79.469343
 20
418.076701
 40
1.246139
100
AcDbArc
 50
109.456972
 51
161.721309
  0
LINE
  5
29B
100
AcDbEntity
  8
M0
100
AcDbLine
 10
81.305357
 20
418.373759
 11
80.534688
 21
418.373759
  0
LINE
  5
29C
100
AcDbEntity
  8
M0
100
AcDbLine
 10
70.178424
 20
419.315287
 11
70.178424
 21
418.207608
  0
LINE
  5
29D
100
AcDbEntity
  8
M0
100
AcDbLine
 10
77.02527
 20
419.315287
 11
76.125281
 21
419.315287
  0
LINE
  5
29E
100
AcDbEntity
  8
M0
100
AcDbLine
 10
68.696902
 20
419.315287
 11
68.696902
 21
418.207608
  0
LINE
  5
29F
100
AcDbEntity
  8
M0
100
AcDbLine
 10
76.066726
 20
417.584538
 11
76.575275
 21
418.844523
  0
LINE
  5
2A0
100
AcDbEntity
  8
M0
100
AcDbLine
 10
70.912261
 20
419.315287
 11
70.912261
 21
416.546088
  0
LINE
  5
2A1
100
AcDbEntity
  8
M0
100
AcDbLine
 10
74.83068
 20
416.546088
 11
75.647593
 21
416.546088
  0
LINE
  5
2A2
100
AcDbEntity
  8
M0
100
AcDbLine
 10
68.696902
 20
417.764535
 11
68.696902
 21
416.546088
  0
LINE
  5
2A3
100
AcDbEntity
  8
M0
100
AcDbLine
 10
81.698295
 20
416.546088
 11
82.432133
 21
416.546088
  0
LINE
  5
2A4
100
AcDbEntity
  8
M0
100
AcDbLine
 10
83.913655
 20
416.546088
 11
84.647493
 21
416.546088
  0
LINE
  5
2A5
100
AcDbEntity
  8
M0
100
AcDbLine
 10
70.178424
 20
417.764535
 11
70.178424
 21
416.546088
  0
TEXT
  5
2A6
100
AcDbEntity
  8
M0
100
AcDbText
 10
96.488059
 20
415.515287
 40
2.0
  1
ＯＦＦ
 41
0.625
  7
STANDARD
100
AcDbText
  0
LINE
  5
2A7
100
AcDbEntity
  8
M0
100
AcDbLine
 10
72.227631
 20
419.315287
 11
71.493793
 21
419.315287
  0
LINE
  5
2A8
100
AcDbEntity
  8
M0
100
AcDbLine
 10
70.178424
 20
418.207608
 11
68.696902
 21
418.207608
  0
TEXT
  5
2A9
100
AcDbEntity
  8
M0
100
AcDbText
 10
74.988057
 20
407.31529
 40
2.0
  1
Ｅ２
 41
0.625
  7
STANDARD
100
AcDbText
  0
LINE
  5
2AA
100
AcDbEntity
  8
M0
100
AcDbLine
 10
85.229025
 20
416.546088
 11
85.229025
 21
419.315287
  0
ARC
  5
2AB
100
AcDbEntity
  8
M0
100
AcDbCircle
 10
80.003836
 20
417.459109
 40
0.526148
100
AcDbArc
 50
287.487588
 51
334.356243
  0
ARC
  5
2AC
100
AcDbEntity
  8
M0
100
AcDbCircle
 10
79.478325
 20
417.804841
 40
1.273831
100
AcDbArc
 50
190.75155
 51
252.447271
  0
ARC
  5
2AD
100
AcDbEntity
  8
M0
100
AcDbCircle
 10
79.829086
 20
417.626076
 40
1.495367
100
AcDbArc
 50
346.150651
 51
356.815254
  0
TEXT
  5
2AE
100
AcDbEntity
  8
M0
100
AcDbText
 10
68.088055
 20
410.81529
 40
2.0
  1
ＣＯＮＴＡＣＴＯＲ
 41
0.625
  7
STANDARD
100
AcDbText
  0
TEXT
  5
2AF
100
AcDbEntity
  8
M0
100
AcDbText
 10
74.988057
 20
420.315289
 40
2.0
  1
Ｅ１
 41
0.625
  7
STANDARD
100
AcDbText
  0
ARC
  5
2B0
100
AcDbEntity
  8
M0
100
AcDbCircle
 10
79.829086
 20
418.913753
 40
2.436895
100
AcDbArc
 50
252.447278
 51
292.42262
  0
LINE
  5
2B1
100
AcDbEntity
  8
M0
100
AcDbLine
 10
106.463064
 20
431.815287
 11
106.463064
 21
422.015286
  0
LINE
  5
2B2
100
AcDbEntity
  8
M0
100
AcDbLine
 10
103.163064
 20
421.015286
 11
103.163064
 21
431.815287
  0
LINE
  5
2B3
100
AcDbEntity
  8
M0
100
AcDbLine
 10
106.463064
 20
422.015286
 11
108.963064
 21
422.015286
  0
LINE
  5
2B4
100
AcDbEntity
  8
M0
100
AcDbLine
 10
95.363063
 20
431.815287
 11
95.363063
 21
421.015286
  0
LINE
  5
2B5
100
AcDbEntity
  8
M0
100
AcDbLine
 10
72.463064
 20
424.815286
 11
80.263064
 21
424.815286
  0
LINE
  5
2B6
100
AcDbEntity
  8
M0
100
AcDbLine
 10
108.963064
 20
419.815286
 11
106.463064
 21
419.815286
  0
LINE
  5
2B7
100
AcDbEntity
  8
M0
100
AcDbLine
 10
95.363063
 20
421.015286
 11
103.163064
 21
421.015286
  0
LINE
  5
2B8
100
AcDbEntity
  8
M0
100
AcDbLine
 10
72.463064
 20
432.815287
 11
72.463064
 21
431.815287
  0
LINE
  5
2B9
100
AcDbEntity
  8
M0
100
AcDbLine
 10
80.263064
 20
431.815287
 11
80.263064
 21
432.815287
  0
LINE
  5
2BA
100
AcDbEntity
  8
M0
100
AcDbLine
 10
87.963064
 20
402.715288
 11
87.963064
 21
402.615286
  0
LINE
  5
2BB
100
AcDbEntity
  8
M0
100
AcDbLine
 10
110.963064
 20
421.015286
 11
110.963064
 21
420.815287
  0
LINE
  5
2BC
100
AcDbEntity
  8
M0
100
AcDbLine
 10
108.963064
 20
422.015286
 11
109.963064
 21
422.015286
  0
LINE
  5
2BD
100
AcDbEntity
  8
M0
100
AcDbLine
 10
89.863064
 20
402.715288
 11
89.863064
 21
402.615286
  0
LINE
  5
2BE
100
AcDbEntity
  8
M0
100
AcDbLine
 10
109.963064
 20
419.815286
 11
108.963064
 21
419.815286
  0
ARC
  5
2BF
100
AcDbEntity
  8
M0
100
AcDbCircle
 10
84.763064
 20
402.115287
 40
0.5
100
AcDbArc
 50
90.0
 51
180.0
  0
ARC
  5
2C0
100
AcDbEntity
  8
M0
100
AcDbCircle
 10
109.963064
 20
420.815287
 40
1.0
100
AcDbArc
 50
270.0
 51
360.0
  0
LINE
  5
2C1
100
AcDbEntity
  8
M0
100
AcDbLine
 10
103.013064
 20
428.365287
 11
103.013064
 21
421.865287
  0
ARC
  5
2C2
100
AcDbEntity
  8
M0
100
AcDbCircle
 10
105.463064
 20
431.815287
 40
1.0
100
AcDbArc
 50
0.0
 51
90.0
  0
ARC
  5
2C3
100
AcDbEntity
  8
M0
100
AcDbCircle
 10
106.463064
 20
419.315287
 40
0.5
100
AcDbArc
 50
90.0
 51
180.0
  0
ARC
  5
2C4
100
AcDbEntity
  8
M0
100
AcDbCircle
 10
84.763064
 20
399.215287
 40
0.5
100
AcDbArc
 50
180.0
 51
270.0
  0
ARC
  5
2C5
100
AcDbEntity
  8
M0
100
AcDbCircle
 10
109.963064
 20
421.015287
 40
1.0
100
AcDbArc
 50
0.0
 51
90.0
  0
LINE
  5
2C6
100
AcDbEntity
  8
M0
100
AcDbLine
 10
63.963064
 20
432.815287
 11
109.963064
 21
432.815287
  0
LINE
  5
2C7
100
AcDbEntity
  8
M0
100
AcDbLine
 10
63.963064
 20
418.015287
 11
63.463065
 21
418.015287
  0
LINE
  5
2C8
100
AcDbEntity
  8
M0
100
AcDbLine
 10
80.263064
 20
424.815286
 11
80.263064
 21
431.815287
  0
LINE
  5
2C9
100
AcDbEntity
  8
M0
100
AcDbLine
 10
96.013064
 20
428.865287
 11
102.513063
 21
428.865287
  0
LINE
  5
2CA
100
AcDbEntity
  8
M0
100
AcDbLine
 10
102.513063
 20
421.365287
 11
96.013064
 21
421.365287
  0
LINE
  5
2CB
100
AcDbEntity
  8
M0
100
AcDbLine
 10
72.463064
 20
431.815287
 11
72.463064
 21
424.815286
  0
LINE
  5
2CC
100
AcDbEntity
  8
M0
100
AcDbLine
 10
110.963064
 20
414.815287
 11
110.926022
 21
414.815287
  0
LINE
  5
2CD
100
AcDbEntity
  8
M0
100
AcDbLine
 10
73.113064
 20
432.665287
 11
79.613064
 21
432.665287
  0
ARC
  5
2CE
100
AcDbEntity
  8
M0
100
AcDbCircle
 10
96.013064
 20
401.265287
 40
0.5
100
AcDbArc
 50
180.0
 51
270.0
  0
LINE
  5
2CF
100
AcDbEntity
  8
M0
100
AcDbLine
 10
79.613064
 20
396.965287
 11
73.113064
 21
396.965287
  0
ARC
  5
2D0
100
AcDbEntity
  8
M0
100
AcDbCircle
 10
79.613064
 20
403.965287
 40
0.5
100
AcDbArc
 50
0.0
 51
90.0
  0
ARC
  5
2D1
100
AcDbEntity
  8
M0
100
AcDbCircle
 10
79.613064
 20
397.465287
 40
0.5
100
AcDbArc
 50
270.0
 51
360.0
  0
LINE
  5
2D2
100
AcDbEntity
  8
M0
100
AcDbLine
 10
72.613064
 20
397.465287
 11
72.613064
 21
403.965286
  0
ARC
  5
2D3
100
AcDbEntity
  8
M0
100
AcDbCircle
 10
96.013064
 20
407.765287
 40
0.5
100
AcDbArc
 50
90.0
 51
180.0
  0
LINE
  5
2D4
100
AcDbEntity
  8
M0
100
AcDbLine
 10
72.613064
 20
425.665287
 11
72.613064
 21
432.165287
  0
ARC
  5
2D5
100
AcDbEntity
  8
M0
100
AcDbCircle
 10
73.113064
 20
432.165287
 40
0.5
100
AcDbArc
 50
90.0
 51
180.0
  0
LINE
  5
2D6
100
AcDbEntity
  8
M0
100
AcDbLine
 10
80.113064
 20
432.165287
 11
80.113064
 21
425.665287
  0
LINE
  5
2D7
100
AcDbEntity
  8
M0
100
AcDbLine
 10
73.113064
 20
404.465287
 11
79.613064
 21
404.465287
  0
LINE
  5
2D8
100
AcDbEntity
  8
M0
100
AcDbLine
 10
80.113064
 20
403.965287
 11
80.113064
 21
397.465288
  0
LINE
  5
2D9
100
AcDbEntity
  8
M0
100
AcDbLine
 10
79.613064
 20
425.165287
 11
73.113064
 21
425.165287
  0
ARC
  5
2DA
100
AcDbEntity
  8
M0
100
AcDbCircle
 10
73.113064
 20
425.665287
 40
0.5
100
AcDbArc
 50
180.0
 51
270.0
  0
ARC
  5
2DB
100
AcDbEntity
  8
M0
100
AcDbCircle
 10
96.013064
 20
428.365287
 40
0.5
100
AcDbArc
 50
90.0
 51
180.0
  0
ARC
  5
2DC
100
AcDbEntity
  8
M0
100
AcDbCircle
 10
96.013064
 20
421.865287
 40
0.5
100
AcDbArc
 50
180.0
 51
270.0
  0
LINE
  5
2DD
100
AcDbEntity
  8
M0
100
AcDbLine
 10
102.513064
 20
400.765288
 11
96.013064
 21
400.765288
  0
ARC
  5
2DE
100
AcDbEntity
  8
M0
100
AcDbCircle
 10
102.513064
 20
401.265287
 40
0.5
100
AcDbArc
 50
270.0
 51
360.0
  0
LINE
  5
2DF
100
AcDbEntity
  8
M0
100
AcDbLine
 10
89.863064
 20
402.615286
 11
89.863064
 21
400.815285
  0
LINE
  5
2E0
100
AcDbEntity
  8
M0
100
AcDbLine
 10
95.513064
 20
401.265285
 11
95.513064
 21
407.765287
  0
ARC
  5
2E1
100
AcDbEntity
  8
M0
100
AcDbCircle
 10
102.513064
 20
407.765287
 40
0.5
100
AcDbArc
 50
0.0
 51
90.0
  0
ARC
  5
2E2
100
AcDbEntity
  8
M0
100
AcDbCircle
 10
79.613064
 20
425.665287
 40
0.5
100
AcDbArc
 50
270.0
 51
360.0
  0
ARC
  5
2E3
100
AcDbEntity
  8
M0
100
AcDbCircle
 10
79.613064
 20
432.165287
 40
0.5
100
AcDbArc
 50
0.0
 51
90.0
  0
ARC
  5
2E4
100
AcDbEntity
  8
M0
100
AcDbCircle
 10
73.113064
 20
403.965287
 40
0.5
100
AcDbArc
 50
90.0
 51
180.0
  0
LINE
  5
2E5
100
AcDbEntity
  8
M0
100
AcDbLine
 10
103.013064
 20
407.765287
 11
103.013064
 21
401.265285
  0
LINE
  5
2E6
100
AcDbEntity
  8
M0
100
AcDbLine
 10
96.013064
 20
408.265286
 11
102.513063
 21
408.265286
  0
ARC
  5
2E7
100
AcDbEntity
  8
M0
100
AcDbCircle
 10
73.113064
 20
397.465287
 40
0.5
100
AcDbArc
 50
180.0
 51
270.0
  0
LINE
  5
2E8
100
AcDbEntity
  8
M0
100
AcDbLine
 10
103.163064
 20
430.015287
 11
95.363063
 21
430.015287
  0
LINE
  5
2E9
100
AcDbEntity
  8
M0
100
AcDbLine
 10
89.863064
 20
399.215288
 11
89.863064
 21
399.715285
  0
LINE
  5
2EA
100
AcDbEntity
  8
M0
100
AcDbLine
 10
62.963064
 20
397.815287
 11
62.963064
 21
404.315287
  0
LINE
  5
2EB
100
AcDbEntity
  8
M0
100
AcDbLine
 10
84.763064
 20
402.615286
 11
89.363064
 21
402.615286
  0
LINE
  5
2EC
100
AcDbEntity
  8
M0
100
AcDbLine
 10
89.363064
 20
398.715287
 11
84.763064
 21
398.715287
  0
LINE
  5
2ED
100
AcDbEntity
  8
M0
100
AcDbLine
 10
90.163064
 20
402.515286
 11
90.163064
 21
400.815285
  0
LINE
  5
2EE
100
AcDbEntity
  8
M0
100
AcDbLine
 10
89.863064
 20
402.115287
 11
89.863064
 21
399.715285
  0
LINE
  5
2EF
100
AcDbEntity
  8
M0
100
AcDbLine
 10
63.463065
 20
411.615287
 11
63.963064
 21
411.615287
  0
LINE
  5
2F0
100
AcDbEntity
  8
M0
100
AcDbLine
 10
110.963064
 20
431.815287
 11
110.963064
 21
397.815287
  0
LINE
  5
2F1
100
AcDbEntity
  8
M0
100
AcDbLine
 10
63.963064
 20
411.615287
 11
63.963064
 21
418.015287
  0
LINE
  5
2F2
100
AcDbEntity
  8
M0
100
AcDbLine
 10
90.163064
 20
398.315288
 11
84.263064
 21
398.315288
  0
LINE
  5
2F3
100
AcDbEntity
  8
M0
100
AcDbLine
 10
66.463063
 20
396.815288
 11
63.963064
 21
396.815288
  0
LINE
  5
2F4
100
AcDbEntity
  8
M0
100
AcDbLine
 10
62.963064
 20
397.815287
 11
62.963064
 21
431.815287
  0
LINE
  5
2F5
100
AcDbEntity
  8
M0
100
AcDbLine
 10
110.926022
 20
414.815287
 11
110.963064
 21
414.815287
  0
ARC
  5
2F6
100
AcDbEntity
  8
M0
100
AcDbCircle
 10
71.463064
 20
397.815287
 40
1.0
100
AcDbArc
 50
270.0
 51
360.0
  0
ARC
  5
2F7
100
AcDbEntity
  8
M0
100
AcDbCircle
 10
63.963064
 20
397.815287
 40
1.0
100
AcDbArc
 50
180.0
 51
270.0
  0
ARC
  5
2F8
100
AcDbEntity
  8
M0
100
AcDbCircle
 10
83.263064
 20
397.815287
 40
1.0
100
AcDbArc
 50
270.0
 51
360.0
  0
ARC
  5
2F9
100
AcDbEntity
  8
M0
100
AcDbCircle
 10
109.963064
 20
397.815287
 40
1.0
100
AcDbArc
 50
270.0
 51
360.0
  0
ARC
  5
2FA
100
AcDbEntity
  8
M0
100
AcDbCircle
 10
79.829086
 20
417.05839
 40
2.326127
100
AcDbArc
 50
66.454301
 51
109.456969
  0
ARC
  5
2FB
100
AcDbEntity
  8
M0
100
AcDbCircle
 10
81.263064
 20
397.815287
 40
1.0
100
AcDbArc
 50
180.0
 51
270.0
  0
ARC
  5
2FC
100
AcDbEntity
  8
M0
100
AcDbCircle
 10
63.463064
 20
411.115287
 40
0.5
100
AcDbArc
 50
90.0
 51
180.0
  0
ARC
  5
2FD
100
AcDbEntity
  8
M0
100
AcDbCircle
 10
106.463064
 20
410.315287
 40
0.5
100
AcDbArc
 50
180.0
 51
270.0
  0
ARC
  5
2FE
100
AcDbEntity
  8
M0
100
AcDbCircle
 10
105.463064
 20
397.815287
 40
1.0
100
AcDbArc
 50
270.0
 51
360.0
  0
ARC
  5
2FF
100
AcDbEntity
  8
M0
100
AcDbCircle
 10
109.963064
 20
408.815287
 40
1.0
100
AcDbArc
 50
0.0
 51
90.0
  0
ARC
  5
300
100
AcDbEntity
  8
M0
100
AcDbCircle
 10
94.363064
 20
397.815287
 40
1.0
100
AcDbArc
 50
270.0
 51
360.0
  0
ARC
  5
301
100
AcDbEntity
  8
M0
100
AcDbCircle
 10
91.163064
 20
397.815287
 40
1.0
100
AcDbArc
 50
180.0
 51
270.0
  0
ARC
  5
302
100
AcDbEntity
  8
M0
100
AcDbCircle
 10
109.963064
 20
408.615287
 40
1.0
100
AcDbArc
 50
270.0
 51
360.0
  0
ARC
  5
303
100
AcDbEntity
  8
M0
100
AcDbCircle
 10
104.163064
 20
397.815287
 40
1.0
100
AcDbArc
 50
180.0
 51
270.0
  0
ARC
  5
304
100
AcDbEntity
  8
M0
100
AcDbCircle
 10
102.513064
 20
421.865287
 40
0.5
100
AcDbArc
 50
270.0
 51
360.0
  0
LINE
  5
305
100
AcDbEntity
  8
M0
100
AcDbLine
 10
110.426022
 20
410.015286
 11
106.063063
 21
410.015286
  0
ARC
  5
306
100
AcDbEntity
  8
M0
100
AcDbCircle
 10
109.963064
 20
431.815287
 40
1.0
100
AcDbArc
 50
0.0
 51
90.0
  0
LINE
  5
307
100
AcDbEntity
  8
M0
100
AcDbLine
 10
108.963064
 20
407.615287
 11
109.963064
 21
407.615287
  0
LINE
  5
308
100
AcDbEntity
  8
M0
100
AcDbLine
 10
110.963064
 20
408.815286
 11
110.963064
 21
408.615287
  0
ARC
  5
309
100
AcDbEntity
  8
M0
100
AcDbCircle
 10
102.513064
 20
428.365287
 40
0.5
100
AcDbArc
 50
0.0
 51
90.0
  0
LINE
  5
30A
100
AcDbEntity
  8
M0
100
AcDbLine
 10
108.963064
 20
409.815287
 11
109.963064
 21
409.815287
  0
ARC
  5
30B
100
AcDbEntity
  8
M0
100
AcDbCircle
 10
94.363064
 20
431.815287
 40
1.0
100
AcDbArc
 50
0.0
 51
90.0
  0
ARC
  5
30C
100
AcDbEntity
  8
M0
100
AcDbCircle
 10
81.263064
 20
431.815287
 40
1.0
100
AcDbArc
 50
90.0
 51
180.0
  0
LINE
  5
30D
100
AcDbEntity
  8
M0
100
AcDbLine
 10
95.513064
 20
421.865287
 11
95.513064
 21
428.365287
  0
ARC
  5
30E
100
AcDbEntity
  8
M0
100
AcDbCircle
 10
63.963064
 20
431.815287
 40
1.0
100
AcDbArc
 50
90.0
 51
180.0
  0
ARC
  5
30F
100
AcDbEntity
  8
M0
100
AcDbCircle
 10
63.463064
 20
418.515287
 40
0.5
100
AcDbArc
 50
180.0
 51
270.0
  0
ARC
  5
310
100
AcDbEntity
  8
M0
100
AcDbCircle
 10
104.163064
 20
431.815287
 40
1.0
100
AcDbArc
 50
90.0
 51
180.0
  0
ARC
  5
311
100
AcDbEntity
  8
M0
100
AcDbCircle
 10
71.463064
 20
431.815287
 40
1.0
100
AcDbArc
 50
0.0
 51
90.0
  0
LINE
  5
312
100
AcDbEntity
  8
M0
100
AcDbLine
 10
84.263064
 20
402.715288
 11
84.263064
 21
397.815287
  0
LINE
  5
313
100
AcDbEntity
  8
M0
100
AcDbLine
 10
80.263064
 20
397.815287
 11
80.263064
 21
404.815286
  0
LINE
  5
314
100
AcDbEntity
  8
M0
100
AcDbLine
 10
90.163064
 20
397.815287
 11
90.163064
 21
402.715288
  0
LINE
  5
315
100
AcDbEntity
  8
M0
100
AcDbLine
 10
72.463064
 20
404.815286
 11
72.463064
 21
397.815287
  0
LINE
  5
316
100
AcDbEntity
  8
M0
100
AcDbLine
 10
109.963064
 20
396.815288
 11
63.963064
 21
396.815288
  0
LINE
  5
317
100
AcDbEntity
  8
M0
100
AcDbLine
 10
90.163064
 20
402.715288
 11
84.263064
 21
402.715288
  0
LINE
  5
318
100
AcDbEntity
  8
M0
100
AcDbLine
 10
80.263064
 20
404.815286
 11
72.463064
 21
404.815286
  0
LINE
  5
319
100
AcDbEntity
  8
M0
100
AcDbLine
 10
106.463064
 20
407.615287
 11
106.463064
 21
397.815287
  0
LINE
  5
31A
100
AcDbEntity
  8
M0
100
AcDbLine
 10
105.963063
 20
419.315287
 11
105.963063
 21
410.315286
  0
LINE
  5
31B
100
AcDbEntity
  8
M0
100
AcDbLine
 10
108.963064
 20
407.615287
 11
106.463064
 21
407.615287
  0
LINE
  5
31C
100
AcDbEntity
  8
M0
100
AcDbLine
 10
103.163064
 20
408.615287
 11
95.363063
 21
408.615287
  0
LINE
  5
31D
100
AcDbEntity
  8
M0
100
AcDbLine
 10
95.363063
 20
408.615287
 11
95.363063
 21
397.815287
  0
LINE
  5
31E
100
AcDbEntity
  8
M0
100
AcDbLine
 10
106.463064
 20
409.815287
 11
108.963064
 21
409.815287
  0
LINE
  5
31F
100
AcDbEntity
  8
M0
100
AcDbLine
 10
103.163064
 20
397.815287
 11
103.163064
 21
408.615287
  0
LINE
  5
320
100
AcDbEntity
  8
M0
100
AcDbLine
 10
66.463064
 20
423.315287
 11
93.463064
 21
423.315287
  0
LINE
  5
321
100
AcDbEntity
  8
M0
100
AcDbLine
 10
65.963064
 20
422.815287
 11
65.963064
 21
406.815287
  0
LINE
  5
322
100
AcDbEntity
  8
M0
100
AcDbLine
 10
66.463064
 20
406.315287
 11
93.463064
 21
406.315287
  0
LINE
  5
323
100
AcDbEntity
  8
M0
100
AcDbLine
 10
103.963064
 20
410.815287
 11
103.963064
 21
418.815287
  0
LINE
  5
324
100
AcDbEntity
  8
M0
100
AcDbLine
 10
103.463064
 20
410.315287
 11
94.463064
 21
410.315287
  0
LINE
  5
325
100
AcDbEntity
  8
M0
100
AcDbLine
 10
103.463064
 20
419.315287
 11
94.463064
 21
419.315287
  0
LINE
  5
326
100
AcDbEntity
  8
M0
100
AcDbLine
 10
93.963064
 20
406.815287
 11
93.963064
 21
409.815287
  0
LINE
  5
327
100
AcDbEntity
  8
M0
100
AcDbLine
 10
93.963064
 20
419.815287
 11
93.963064
 21
422.815287
  0
ARC
  5
328
100
AcDbEntity
  8
M0
100
AcDbCircle
 10
66.463064
 20
422.815287
 40
0.5
100
AcDbArc
 50
90.0
 51
180.0
  0
ARC
  5
329
100
AcDbEntity
  8
M0
100
AcDbCircle
 10
93.463064
 20
422.815287
 40
0.5
100
AcDbArc
 50
0.0
 51
90.0
  0
ARC
  5
32A
100
AcDbEntity
  8
M0
100
AcDbCircle
 10
94.463064
 20
419.815287
 40
0.5
100
AcDbArc
 50
180.0
 51
270.0
  0
ARC
  5
32B
100
AcDbEntity
  8
M0
100
AcDbCircle
 10
103.463064
 20
418.815287
 40
0.5
100
AcDbArc
 50
0.0
 51
90.0
  0
ARC
  5
32C
100
AcDbEntity
  8
M0
100
AcDbCircle
 10
103.463064
 20
410.815287
 40
0.5
100
AcDbArc
 50
270.0
 51
360.0
  0
ARC
  5
32D
100
AcDbEntity
  8
M0
100
AcDbCircle
 10
94.463064
 20
409.815287
 40
0.5
100
AcDbArc
 50
90.0
 51
180.0
  0
ARC
  5
32E
100
AcDbEntity
  8
M0
100
AcDbCircle
 10
93.463064
 20
406.815287
 40
0.5
100
AcDbArc
 50
270.0
 51
360.0
  0
ARC
  5
32F
100
AcDbEntity
  8
M0
100
AcDbCircle
 10
66.463064
 20
406.815287
 40
0.5
100
AcDbArc
 50
180.0
 51
270.0
  0
LINE
  5
330
100
AcDbEntity
  8
M0
 62
     7
100
AcDbLine
 10
316.806219
 20
464.815288
 11
319.106219
 21
464.815288
  0
LINE
  5
331
100
AcDbEntity
  8
M0
 62
     7
100
AcDbLine
 10
326.806219
 20
461.315663
 11
319.106219
 21
461.315374
  0
LINE
  5
332
100
AcDbEntity
  8
M0
 62
     7
100
AcDbLine
 10
312.666571
 20
463.155037
 11
314.506171
 21
463.315971
  0
ARC
  5
333
100
AcDbEntity
  8
M0
 62
     7
100
AcDbCircle
 10
312.806219
 20
461.561119
 40
1.599998
100
AcDbArc
 50
95.007035
 51
179.999966
  0
LINE
  5
334
100
AcDbEntity
  8
M0
 62
     7
100
AcDbLine
 10
326.806219
 20
456.315727
 11
326.806219
 21
461.315663
  0
LINE
  5
335
100
AcDbEntity
  8
M0
 62
     7
100
AcDbLine
 10
319.106219
 20
456.315727
 11
326.806219
 21
456.315727
  0
LINE
  5
336
100
AcDbEntity
  8
M0
 62
     7
100
AcDbLine
 10
315.806219
 20
463.81525
 11
316.806219
 21
463.815288
  0
LINE
  5
337
100
AcDbEntity
  8
M0
 62
     7
100
AcDbLine
 10
311.206259
 20
461.561119
 11
311.206259
 21
456.070793
  0
LINE
  5
338
100
AcDbEntity
  8
M0
 62
     7
100
AcDbLine
 10
315.806219
 20
463.315956
 11
314.506171
 21
463.315956
  0
LINE
  5
339
100
AcDbEntity
  8
M0
 62
     7
100
AcDbLine
 10
316.806219
 20
453.815288
 11
316.806219
 21
463.815288
  0
LINE
  5
33A
100
AcDbEntity
  8
M0
 62
     7
100
AcDbLine
 10
315.806219
 20
463.81525
 11
315.806219
 21
453.81525
  0
LINE
  5
33B
100
AcDbEntity
  8
M0
 62
     7
100
AcDbLine
 10
314.506171
 20
454.315971
 11
314.506171
 21
463.315971
  0
LINE
  5
33C
100
AcDbEntity
  8
M0
 62
     7
100
AcDbLine
 10
316.806219
 20
464.815288
 11
316.806219
 21
450.315288
  0
LINE
  5
33D
100
AcDbEntity
  8
M0
 62
     7
100
AcDbLine
 10
312.666571
 20
454.47689
 11
314.506171
 21
454.315971
  0
LINE
  5
33E
100
AcDbEntity
  8
M0
 62
     7
100
AcDbLine
 10
314.506171
 20
454.315956
 11
315.806219
 21
454.315956
  0
ARC
  5
33F
100
AcDbEntity
  8
M0
 62
     7
100
AcDbCircle
 10
312.806219
 20
456.070793
 40
1.599998
100
AcDbArc
 50
179.999966
 51
264.99283
  0
LINE
  5
340
100
AcDbEntity
  8
M0
 62
     7
100
AcDbLine
 10
315.806219
 20
453.81525
 11
316.806219
 21
453.815288
  0
LINE
  5
341
100
AcDbEntity
  8
M0
 62
     7
100
AcDbLine
 10
319.106219
 20
450.315288
 11
319.106219
 21
464.815288
  0
LINE
  5
342
100
AcDbEntity
  8
M0
 62
     7
100
AcDbLine
 10
304.30622
 20
412.315287
 11
304.30622
 21
411.315287
  0
LINE
  5
343
100
AcDbEntity
  8
M0
 62
     7
100
AcDbLine
 10
304.30622
 20
417.315287
 11
304.30622
 21
418.315287
  0
LINE
  5
344
100
AcDbEntity
  8
M0
 62
     7
100
AcDbLine
 10
376.30622
 20
397.815288
 11
377.80622
 21
397.815288
  0
LINE
  5
345
100
AcDbEntity
  8
M0
 62
     7
100
AcDbLine
 10
377.80622
 20
397.815288
 11
377.80622
 21
397.015287
  0
LINE
  5
346
100
AcDbEntity
  8
M0
 62
     7
100
AcDbLine
 10
379.50622
 20
379.315286
 11
370.106219
 21
379.315286
  0
LINE
  5
347
100
AcDbEntity
  8
M0
 62
     7
100
AcDbLine
 10
379.50622
 20
379.357031
 11
379.50622
 21
379.315286
  0
LINE
  5
348
100
AcDbEntity
  8
M0
 62
     7
100
AcDbLine
 10
304.30622
 20
411.315287
 11
303.306221
 21
411.315287
  0
LINE
  5
349
100
AcDbEntity
  8
M0
 62
     7
100
AcDbLine
 10
303.306221
 20
417.315287
 11
304.30622
 21
417.315287
  0
LINE
  5
34A
100
AcDbEntity
  8
M0
 62
     7
100
AcDbLine
 10
304.30622
 20
411.315287
 11
304.806221
 21
411.315287
  0
LINE
  5
34B
100
AcDbEntity
  8
M0
 62
     7
100
AcDbLine
 10
303.306221
 20
412.315287
 11
304.30622
 21
412.315287
  0
LINE
  5
34C
100
AcDbEntity
  8
M0
 62
     7
100
AcDbLine
 10
304.30622
 20
418.315287
 11
303.306221
 21
418.315287
  0
LINE
  5
34D
100
AcDbEntity
  8
M0
 62
     7
100
AcDbLine
 10
304.30622
 20
418.315287
 11
304.806221
 21
418.315287
  0
LINE
  5
34E
100
AcDbEntity
  8
M0
 62
     7
100
AcDbLine
 10
304.806221
 20
412.315287
 11
304.30622
 21
412.315287
  0
ARC
  5
34F
100
AcDbEntity
  8
M0
 62
     7
100
AcDbCircle
 10
372.306219
 20
397.099059
 40
0.3
100
AcDbArc
 50
0.0
 51
90.0
  0
ARC
  5
350
100
AcDbEntity
  8
M0
 62
     7
100
AcDbCircle
 10
372.306219
 20
432.531515
 40
0.3
100
AcDbArc
 50
270.0
 51
360.0
  0
ARC
  5
351
100
AcDbEntity
  8
M0
 62
     7
100
AcDbCircle
 10
376.306219
 20
397.315287
 40
0.5
100
AcDbArc
 50
90.0
 51
180.0
  0
ARC
  5
352
100
AcDbEntity
  8
M0
 62
     7
100
AcDbCircle
 10
372.306219
 20
429.054732
 40
0.3
100
AcDbArc
 50
0.0
 51
90.0
  0
ARC
  5
353
100
AcDbEntity
  8
M0
 62
     7
100
AcDbCircle
 10
372.306219
 20
400.575842
 40
0.3
100
AcDbArc
 50
270.0
 51
360.0
  0
LINE
  5
354
100
AcDbEntity
  8
M0
 62
     7
100
AcDbLine
 10
379.33075
 20
397.014686
 11
377.74622
 21
398.815286
  0
LINE
  5
355
100
AcDbEntity
  8
M0
 62
     7
100
AcDbLine
 10
376.60622
 20
399.315287
 11
377.30622
 21
399.315287
  0
LINE
  5
356
100
AcDbEntity
  8
M0
 62
     7
100
AcDbLine
 10
375.806219
 20
397.015287
 11
375.806219
 21
397.315287
  0
LINE
  5
357
100
AcDbEntity
  8
M0
 62
     7
100
AcDbLine
 10
379.80622
 20
396.515287
 11
379.80622
 21
379.815287
  0
LINE
  5
358
100
AcDbEntity
  8
M0
 62
     7
100
AcDbLine
 10
376.60622
 20
397.815288
 11
376.60622
 21
399.315287
  0
ARC
  5
359
100
AcDbEntity
  8
M0
 62
     7
100
AcDbCircle
 10
333.906219
 20
380.315287
 40
1.0
100
AcDbArc
 50
180.0
 51
270.0
  0
LINE
  5
35A
100
AcDbEntity
  8
M0
 62
     7
100
AcDbLine
 10
328.00622
 20
382.315288
 11
332.906219
 21
382.315288
  0
LINE
  5
35B
100
AcDbEntity
  8
M0
 62
     7
100
AcDbLine
 10
380.106219
 20
448.565286
 11
379.80622
 21
448.565286
  0
LINE
  5
35C
100
AcDbEntity
  8
M0
 62
     7
100
AcDbLine
 10
379.80622
 20
439.065288
 11
380.106219
 21
439.065288
  0
LINE
  5
35D
100
AcDbEntity
  8
M0
 62
     7
100
AcDbLine
 10
380.106219
 20
390.565286
 11
379.80622
 21
390.565286
  0
LINE
  5
35E
100
AcDbEntity
  8
M0
 62
     7
100
AcDbLine
 10
379.80622
 20
381.065286
 11
380.106219
 21
381.065286
  0
LINE
  5
35F
100
AcDbEntity
  8
M0
 62
     7
100
AcDbLine
 10
304.806221
 20
416.315287
 11
304.30622
 21
416.315287
  0
LINE
  5
360
100
AcDbEntity
  8
M0
 62
     7
100
AcDbLine
 10
304.806221
 20
417.315287
 11
304.30622
 21
417.315287
  0
LINE
  5
361
100
AcDbEntity
  8
M0
 62
     7
100
AcDbLine
 10
304.30622
 20
413.315287
 11
304.30622
 21
416.315287
  0
LINE
  5
362
100
AcDbEntity
  8
M0
 62
     7
100
AcDbLine
 10
304.30622
 20
413.315287
 11
304.806221
 21
413.315287
  0
LINE
  5
363
100
AcDbEntity
  8
M0
 62
     7
100
AcDbLine
 10
356.806219
 20
432.231515
 11
372.30622
 21
432.231515
  0
ARC
  5
364
100
AcDbEntity
  8
M0
 62
     7
100
AcDbCircle
 10
328.006219
 20
383.315287
 40
1.0
100
AcDbArc
 50
237.247324
 51
270.0
  0
LINE
  5
365
100
AcDbEntity
  8
M0
 62
     7
100
AcDbLine
 10
372.30622
 20
429.354732
 11
356.806219
 21
429.354732
  0
LINE
  5
366
100
AcDbEntity
  8
M0
 62
     7
100
AcDbLine
 10
356.806219
 20
400.275842
 11
372.30622
 21
400.275842
  0
LINE
  5
367
100
AcDbEntity
  8
M0
 62
     7
100
AcDbLine
 10
372.30622
 20
397.399059
 11
356.806219
 21
397.399059
  0
LINE
  5
368
100
AcDbEntity
  8
M0
 62
     7
100
AcDbLine
 10
329.10622
 20
447.815287
 11
329.10622
 21
445.815286
  0
LINE
  5
369
100
AcDbEntity
  8
M0
 62
     7
100
AcDbLine
 10
332.70622
 20
449.315288
 11
329.10622
 21
447.815287
  0
LINE
  5
36A
100
AcDbEntity
  8
M0
 62
     7
100
AcDbLine
 10
332.906219
 20
448.315288
 11
330.106219
 21
447.14862
  0
LINE
  5
36B
100
AcDbEntity
  8
M0
 62
     7
100
AcDbLine
 10
338.406219
 20
445.815286
 11
338.406219
 21
449.315288
  0
LINE
  5
36C
100
AcDbEntity
  8
M0
 62
     7
100
AcDbLine
 10
332.70622
 20
449.315288
 11
332.70622
 21
458.315286
  0
LINE
  5
36D
100
AcDbEntity
  8
M0
 62
     7
100
AcDbLine
 10
343.406219
 20
418.915287
 11
343.50622
 21
418.915287
  0
LINE
  5
36E
100
AcDbEntity
  8
M0
 62
     7
100
AcDbLine
 10
338.406219
 20
449.315288
 11
332.70622
 21
449.315288
  0
LINE
  5
36F
100
AcDbEntity
  8
M0
 62
     7
100
AcDbLine
 10
350.192006
 20
459.315288
 11
333.70622
 21
459.315288
  0
LINE
  5
370
100
AcDbEntity
  8
M0
 62
     7
100
AcDbLine
 10
337.406219
 20
448.315288
 11
332.906219
 21
448.315288
  0
LINE
  5
371
100
AcDbEntity
  8
M0
 62
     7
100
AcDbLine
 10
380.106219
 20
448.565286
 11
380.106219
 21
439.065288
  0
LINE
  5
372
100
AcDbEntity
  8
M0
 62
     7
100
AcDbLine
 10
330.106219
 20
446.815287
 11
337.406219
 21
446.815287
  0
LINE
  5
373
100
AcDbEntity
  8
M0
 62
     7
100
AcDbLine
 10
337.406219
 20
446.815287
 11
337.406219
 21
448.315288
  0
LINE
  5
374
100
AcDbEntity
  8
M0
 62
     7
100
AcDbLine
 10
330.106219
 20
447.14862
 11
330.106219
 21
446.815287
  0
LINE
  5
375
100
AcDbEntity
  8
M0
 62
     7
100
AcDbLine
 10
379.80622
 20
449.815287
 11
379.80622
 21
430.415287
  0
ARC
  5
376
100
AcDbEntity
  8
M0
 62
     7
100
AcDbCircle
 10
350.192006
 20
458.315287
 40
1.0
100
AcDbArc
 50
45.0
 51
90.0
  0
ARC
  5
377
100
AcDbEntity
  8
M0
 62
     7
100
AcDbCircle
 10
333.706219
 20
458.315287
 40
1.0
100
AcDbArc
 50
90.0
 51
180.0
  0
ARC
  5
378
100
AcDbEntity
  8
M0
 62
     7
100
AcDbCircle
 10
354.606219
 20
453.901074
 40
1.0
100
AcDbArc
 50
0.0
 51
45.0
  0
ARC
  5
379
100
AcDbEntity
  8
M0
 62
     7
100
AcDbCircle
 10
336.206219
 20
456.315287
 40
3.0
100
AcDbArc
 50
90.0
 51
180.0
  0
ELLIPSE
  5
37A
100
AcDbEntity
  8
M0
 62
     7
100
AcDbEllipse
 10
355.006219
 20
429.306289
 11
0.0
 21
20.008998
210
0.0
220
0.0
230
1.0
 40
0.029987
 41
5.682730448278159
 42
6.283185307179586
  0
ARC
  5
37B
100
AcDbEntity
  8
M0
 62
     7
100
AcDbCircle
 10
305.606219
 20
418.115287
 40
1.0
100
AcDbArc
 50
168.463041
 51
180.0
  0
ARC
  5
37C
100
AcDbEntity
  8
M0
 62
     7
100
AcDbCircle
 10
361.906219
 20
380.315287
 40
1.0
100
AcDbArc
 50
270.0
 51
360.0
  0
LINE
  5
37D
100
AcDbEntity
  8
M0
 62
     7
100
AcDbLine
 10
304.606221
 20
418.115287
 11
304.606221
 21
417.315287
  0
LINE
  5
37E
100
AcDbEntity
  8
M0
 62
     7
100
AcDbLine
 10
304.606221
 20
412.315287
 11
304.606221
 21
411.315287
  0
LINE
  5
37F
100
AcDbEntity
  8
M0
 62
     7
100
AcDbLine
 10
335.00622
 20
412.115287
 11
335.00622
 21
417.515287
  0
LINE
  5
380
100
AcDbEntity
  8
M0
 62
     7
100
AcDbLine
 10
331.50622
 20
417.515287
 11
331.50622
 21
412.115287
  0
ARC
  5
381
100
AcDbEntity
  8
M0
 62
     7
100
AcDbCircle
 10
379.506219
 20
430.415287
 40
0.3
100
AcDbArc
 50
270.0
 51
360.0
  0
LINE
  5
382
100
AcDbEntity
  8
M0
 62
     7
100
AcDbLine
 10
362.90622
 20
380.315288
 11
362.90622
 21
383.815288
  0
LINE
  5
383
100
AcDbEntity
  8
M0
 62
     7
100
AcDbLine
 10
344.90622
 20
380.315288
 11
344.90622
 21
379.315286
  0
LINE
  5
384
100
AcDbEntity
  8
M0
 62
     7
100
AcDbLine
 10
355.60622
 20
453.901074
 11
355.60622
 21
445.815286
  0
LINE
  5
385
100
AcDbEntity
  8
M0
 62
     7
100
AcDbLine
 10
338.506219
 20
449.315288
 11
333.80622
 21
449.315288
  0
LINE
  5
386
100
AcDbEntity
  8
M0
 62
     7
100
AcDbLine
 10
338.506219
 20
449.315288
 11
338.506219
 21
445.815286
  0
LINE
  5
387
100
AcDbEntity
  8
M0
 62
     7
100
AcDbLine
 10
355.00622
 20
449.315288
 11
338.506219
 21
449.315288
  0
LINE
  5
388
100
AcDbEntity
  8
M0
 62
     7
100
AcDbLine
 10
377.60622
 20
430.115287
 11
379.50622
 21
430.115287
  0
ARC
  5
389
100
AcDbEntity
  8
M0
 62
     7
100
AcDbCircle
 10
379.306219
 20
396.515287
 40
0.5
100
AcDbArc
 50
0.0
 51
90.0
  0
LINE
  5
38A
100
AcDbEntity
  8
M0
 62
     7
100
AcDbLine
 10
344.90622
 20
424.915287
 11
344.90622
 21
445.815286
  0
ARC
  5
38B
100
AcDbEntity
  8
M0
 62
     7
100
AcDbCircle
 10
379.306219
 20
379.815287
 40
0.5
100
AcDbArc
 50
270.0
 51
360.0
  0
ARC
  5
38C
100
AcDbEntity
  8
M0
 62
     7
100
AcDbCircle
 10
379.306219
 20
433.115287
 40
0.5
100
AcDbArc
 50
270.0
 51
360.0
  0
LINE
  5
38D
100
AcDbEntity
  8
M0
 62
     7
100
AcDbLine
 10
377.60622
 20
430.115287
 11
376.60622
 21
431.115287
  0
LINE
  5
38E
100
AcDbEntity
  8
M0
 62
     7
100
AcDbLine
 10
376.60622
 20
431.115287
 11
376.60622
 21
432.615287
  0
LINE
  5
38F
100
AcDbEntity
  8
M0
 62
     7
100
AcDbLine
 10
364.206219
 20
449.315288
 11
369.106219
 21
449.315288
  0
LINE
  5
390
100
AcDbEntity
  8
M0
 62
     7
100
AcDbLine
 10
355.60622
 20
453.901074
 11
355.60622
 21
451.765287
  0
LINE
  5
391
100
AcDbEntity
  8
M0
 62
     7
100
AcDbLine
 10
363.30622
 20
449.015287
 11
363.30622
 21
445.815286
  0
LINE
  5
392
100
AcDbEntity
  8
M0
 62
     7
100
AcDbLine
 10
375.60622
 20
430.115287
 11
375.60622
 21
432.615287
  0
LINE
  5
393
100
AcDbEntity
  8
M0
 62
     7
100
AcDbLine
 10
350.899113
 20
459.022394
 11
355.313326
 21
454.608179
  0
LINE
  5
394
100
AcDbEntity
  8
M0
 62
     7
100
AcDbLine
 10
363.30622
 20
449.015287
 11
363.30622
 21
449.315288
  0
LINE
  5
395
100
AcDbEntity
  8
M0
 62
     7
100
AcDbLine
 10
363.30622
 20
449.315288
 11
369.106219
 21
449.315288
  0
LINE
  5
396
100
AcDbEntity
  8
M0
 62
     7
100
AcDbLine
 10
379.80622
 20
448.815287
 11
379.80622
 21
448.265287
  0
LINE
  5
397
100
AcDbEntity
  8
M0
 62
     7
100
AcDbLine
 10
355.60622
 20
449.315288
 11
355.60622
 21
445.815286
  0
ARC
  5
398
100
AcDbEntity
  8
M0
 62
     7
100
AcDbCircle
 10
325.206219
 20
439.515287
 40
3.0
100
AcDbArc
 50
90.0
 51
180.0
  0
ARC
  5
399
100
AcDbEntity
  8
M0
 62
     7
100
AcDbCircle
 10
325.206219
 20
390.115287
 40
3.0
100
AcDbArc
 50
180.0
 51
270.0
  0
ARC
  5
39A
100
AcDbEntity
  8
M0
 62
     7
100
AcDbCircle
 10
336.163579
 20
439.515287
 40
3.0
100
AcDbArc
 50
45.0
 51
90.0
  0
ARC
  5
39B
100
AcDbEntity
  8
M0
 62
     7
100
AcDbCircle
 10
336.163579
 20
390.115287
 40
3.0
100
AcDbArc
 50
270.0
 51
315.0
  0
ARC
  5
39C
100
AcDbEntity
  8
M0
 62
     7
100
AcDbCircle
 10
306.306219
 20
431.915287
 40
3.0
100
AcDbArc
 50
90.0
 51
180.0
  0
ARC
  5
39D
100
AcDbEntity
  8
M0
 62
     7
100
AcDbCircle
 10
304.806219
 20
410.115287
 40
1.0
100
AcDbArc
 50
0.0
 51
90.0
  0
ARC
  5
39E
100
AcDbEntity
  8
M0
 62
     7
100
AcDbCircle
 10
319.206219
 20
437.915287
 40
3.0
100
AcDbArc
 50
270.0
 51
360.0
  0
ARC
  5
39F
100
AcDbEntity
  8
M0
 62
     7
100
AcDbCircle
 10
319.206219
 20
391.715287
 40
3.0
100
AcDbArc
 50
0.0
 51
90.0
  0
ARC
  5
3A0
100
AcDbEntity
  8
M0
 62
     7
100
AcDbCircle
 10
331.306219
 20
417.015287
 40
0.5
100
AcDbArc
 50
90.0
 51
180.0
  0
LINE
  5
3A1
100
AcDbEntity
  8
M0
 62
     7
100
AcDbLine
 10
305.306218
 20
394.88686
 11
305.306218
 21
382.315288
  0
ARC
  5
3A2
100
AcDbEntity
  8
M0
 62
     7
100
AcDbCircle
 10
331.306219
 20
412.615287
 40
0.5
100
AcDbArc
 50
180.0
 51
270.0
  0
LINE
  5
3A3
100
AcDbEntity
  8
M0
 62
     7
100
AcDbLine
 10
305.306218
 20
447.315288
 11
305.306218
 21
434.743714
  0
LINE
  5
3A4
100
AcDbEntity
  8
M0
 62
     7
100
AcDbLine
 10
344.90622
 20
429.915287
 11
352.30622
 21
429.915287
  0
LINE
  5
3A5
100
AcDbEntity
  8
M0
 62
     7
100
AcDbLine
 10
352.30622
 20
434.915286
 11
344.90622
 21
434.915286
  0
LINE
  5
3A6
100
AcDbEntity
  8
M0
 62
     7
100
AcDbLine
 10
344.90622
 20
424.915287
 11
344.00622
 21
424.915287
  0
LINE
  5
3A7
100
AcDbEntity
  8
M0
 62
     7
100
AcDbLine
 10
356.806219
 20
400.275842
 11
356.806219
 21
397.399059
  0
LINE
  5
3A8
100
AcDbEntity
  8
M0
 62
     7
100
AcDbLine
 10
356.806219
 20
432.231515
 11
356.806219
 21
429.354732
  0
LINE
  5
3A9
100
AcDbEntity
  8
M0
 62
     7
100
AcDbLine
 10
370.10622
 20
450.315288
 11
379.306219
 21
450.315288
  0
ARC
  5
3AA
100
AcDbEntity
  8
M0
 62
     7
100
AcDbCircle
 10
304.306219
 20
419.515287
 40
1.0
100
AcDbArc
 50
180.0
 51
270.0
  0
ARC
  5
3AB
100
AcDbEntity
  8
M0
 62
     7
100
AcDbCircle
 10
323.063579
 20
382.315287
 40
3.0
100
AcDbArc
 50
270.0
 51
315.0
  0
ARC
  5
3AC
100
AcDbEntity
  8
M0
 62
     7
100
AcDbCircle
 10
306.306219
 20
397.715287
 40
3.0
100
AcDbArc
 50
180.0
 51
270.0
  0
ARC
  5
3AD
100
AcDbEntity
  8
M0
 62
     7
100
AcDbCircle
 10
304.306219
 20
410.115287
 40
1.0
100
AcDbArc
 50
90.0
 51
180.0
  0
ARC
  5
3AE
100
AcDbEntity
  8
M0
 62
     7
100
AcDbCircle
 10
308.306219
 20
382.315287
 40
3.0
100
AcDbArc
 50
180.0
 51
270.0
  0
LINE
  5
3AF
100
AcDbEntity
  8
M0
 62
     7
100
AcDbLine
 10
372.606219
 20
397.015287
 11
379.306219
 21
397.015287
  0
ARC
  5
3B0
100
AcDbEntity
  8
M0
 62
     7
100
AcDbCircle
 10
323.063579
 20
447.315287
 40
3.0
100
AcDbArc
 50
45.0
 51
90.0
  0
ARC
  5
3B1
100
AcDbEntity
  8
M0
 62
     7
100
AcDbCircle
 10
308.306219
 20
447.315287
 40
3.0
100
AcDbArc
 50
90.0
 51
180.0
  0
ARC
  5
3B2
100
AcDbEntity
  8
M0
 62
     7
100
AcDbCircle
 10
304.806219
 20
419.515287
 40
1.0
100
AcDbArc
 50
270.0
 51
360.0
  0
LINE
  5
3B3
100
AcDbEntity
  8
M0
 62
     7
100
AcDbLine
 10
340.40622
 20
390.115288
 11
338.284899
 21
387.993966
  0
LINE
  5
3B4
100
AcDbEntity
  8
M0
 62
     7
100
AcDbLine
 10
305.806219
 20
410.115288
 11
305.806219
 21
419.515287
  0
LINE
  5
3B5
100
AcDbEntity
  8
M0
 62
     7
100
AcDbLine
 10
336.163579
 20
387.115287
 11
325.206219
 21
387.115287
  0
LINE
  5
3B6
100
AcDbEntity
  8
M0
 62
     7
100
AcDbLine
 10
322.206219
 20
437.915287
 11
322.206219
 21
439.515288
  0
LINE
  5
3B7
100
AcDbEntity
  8
M0
 62
     7
100
AcDbLine
 10
338.284899
 20
441.636608
 11
340.40622
 21
439.515288
  0
LINE
  5
3B8
100
AcDbEntity
  8
M0
 62
     7
100
AcDbLine
 10
325.206219
 20
442.515287
 11
336.163579
 21
442.515287
  0
LINE
  5
3B9
100
AcDbEntity
  8
M0
 62
     7
100
AcDbLine
 10
340.40622
 20
439.515288
 11
369.106219
 21
439.515288
  0
LINE
  5
3BA
100
AcDbEntity
  8
M0
 62
     7
100
AcDbLine
 10
330.806219
 20
417.015287
 11
330.806219
 21
412.615287
  0
LINE
  5
3BB
100
AcDbEntity
  8
M0
 62
     7
100
AcDbLine
 10
331.30622
 20
412.115287
 11
343.50622
 21
412.115287
  0
LINE
  5
3BC
100
AcDbEntity
  8
M0
 62
     7
100
AcDbLine
 10
343.50622
 20
417.515287
 11
331.30622
 21
417.515287
  0
LINE
  5
3BD
100
AcDbEntity
  8
M0
 62
     7
100
AcDbLine
 10
344.90622
 20
390.315288
 11
340.40622
 21
390.115288
  0
LINE
  5
3BE
100
AcDbEntity
  8
M0
 62
     7
100
AcDbLine
 10
369.106219
 20
445.815286
 11
328.806219
 21
445.815286
  0
LINE
  5
3BF
100
AcDbEntity
  8
M0
 62
     7
100
AcDbLine
 10
308.30622
 20
379.315286
 11
323.06358
 21
379.315286
  0
LINE
  5
3C0
100
AcDbEntity
  8
M0
 62
     7
100
AcDbLine
 10
323.06358
 20
450.315288
 11
308.30622
 21
450.315288
  0
LINE
  5
3C1
100
AcDbEntity
  8
M0
 62
     7
100
AcDbLine
 10
328.806219
 20
445.815286
 11
325.1849
 21
449.436608
  0
LINE
  5
3C2
100
AcDbEntity
  8
M0
 62
     7
100
AcDbLine
 10
325.1849
 20
380.193966
 11
328.806219
 21
383.815288
  0
LINE
  5
3C3
100
AcDbEntity
  8
M0
 62
     7
100
AcDbLine
 10
304.806221
 20
418.515287
 11
304.806221
 21
411.115287
  0
LINE
  5
3C4
100
AcDbEntity
  8
M0
 62
     7
100
AcDbLine
 10
304.30622
 20
418.515287
 11
304.806221
 21
418.515287
  0
LINE
  5
3C5
100
AcDbEntity
  8
M0
 62
     7
100
AcDbLine
 10
319.20622
 20
394.715288
 11
306.30622
 21
394.715288
  0
LINE
  5
3C6
100
AcDbEntity
  8
M0
 62
     7
100
AcDbLine
 10
306.30622
 20
434.915286
 11
319.20622
 21
434.915286
  0
LINE
  5
3C7
100
AcDbEntity
  8
M0
 62
     7
100
AcDbLine
 10
304.806221
 20
411.115287
 11
304.30622
 21
411.115287
  0
LINE
  5
3C8
100
AcDbEntity
  8
M0
 62
     7
100
AcDbLine
 10
303.306221
 20
397.715286
 11
303.306221
 21
431.915287
  0
ARC
  5
3C9
100
AcDbEntity
  8
M0
 62
     7
100
AcDbCircle
 10
344.006219
 20
424.415287
 40
0.5
100
AcDbArc
 50
90.0
 51
180.0
  0
ARC
  5
3CA
100
AcDbEntity
  8
M0
 62
     7
100
AcDbCircle
 10
375.106219
 20
401.515287
 40
0.5
100
AcDbArc
 50
270.0
 51
360.0
  0
ARC
  5
3CB
100
AcDbEntity
  8
M0
 62
     7
100
AcDbCircle
 10
375.106219
 20
428.115287
 40
0.5
100
AcDbArc
 50
0.0
 51
90.0
  0
ARC
  5
3CC
100
AcDbEntity
  8
M0
 62
     7
100
AcDbCircle
 10
344.006219
 20
405.215287
 40
0.5
100
AcDbArc
 50
180.0
 51
270.0
  0
LINE
  5
3CD
100
AcDbEntity
  8
M0
 62
     7
100
AcDbLine
 10
368.106219
 20
383.815288
 11
328.806219
 21
383.815288
  0
LINE
  5
3CE
100
AcDbEntity
  8
M0
 62
     7
100
AcDbLine
 10
368.106219
 20
383.815288
 11
368.106219
 21
384.315289
  0
LINE
  5
3CF
100
AcDbEntity
  8
M0
 62
     7
100
AcDbLine
 10
369.106219
 20
382.315288
 11
368.106219
 21
382.315288
  0
LINE
  5
3D0
100
AcDbEntity
  8
M0
 62
     7
100
AcDbLine
 10
368.106219
 20
382.815285
 11
368.106219
 21
383.815288
  0
LINE
  5
3D1
100
AcDbEntity
  8
M0
 62
     7
100
AcDbLine
 10
368.106219
 20
384.315289
 11
369.106219
 21
384.315289
  0
LINE
  5
3D2
100
AcDbEntity
  8
M0
 62
     7
100
AcDbLine
 10
379.80622
 20
441.365288
 11
379.80622
 21
439.215287
  0
LINE
  5
3D3
100
AcDbEntity
  8
M0
 62
     7
100
AcDbLine
 10
368.106219
 20
382.315288
 11
368.106219
 21
382.815285
  0
LINE
  5
3D4
100
AcDbEntity
  8
M0
 62
     7
100
AcDbLine
 10
375.906219
 20
427.115288
 11
375.906219
 21
429.115287
  0
LINE
  5
3D5
100
AcDbEntity
  8
M0
 62
     7
100
AcDbLine
 10
333.206219
 20
449.315288
 11
333.206219
 21
456.315285
  0
LINE
  5
3D6
100
AcDbEntity
  8
M0
 62
     7
100
AcDbLine
 10
333.90622
 20
379.315286
 11
336.906219
 21
379.315286
  0
ARC
  5
3D7
100
AcDbEntity
  8
M0
 62
     7
100
AcDbCircle
 10
370.106219
 20
380.315287
 40
1.0
100
AcDbArc
 50
180.0
 51
270.0
  0
ARC
  5
3D8
100
AcDbEntity
  8
M0
 62
     7
100
AcDbCircle
 10
379.306219
 20
449.815287
 40
0.5
100
AcDbArc
 50
0.0
 51
90.0
  0
ARC
  5
3D9
100
AcDbEntity
  8
M0
 62
     7
100
AcDbCircle
 10
370.106219
 20
449.315287
 40
1.0
100
AcDbArc
 50
90.0
 51
180.0
  0
LINE
  5
3DA
100
AcDbEntity
  8
M0
 62
     7
100
AcDbLine
 10
344.90622
 20
379.315286
 11
344.90622
 21
404.715287
  0
LINE
  5
3DB
100
AcDbEntity
  8
M0
 62
     7
100
AcDbLine
 10
332.906219
 20
383.815288
 11
332.906219
 21
380.315288
  0
LINE
  5
3DC
100
AcDbEntity
  8
M0
 62
     7
100
AcDbLine
 10
333.90622
 20
379.315286
 11
361.906219
 21
379.315286
  0
LINE
  5
3DD
100
AcDbEntity
  8
M0
 62
     7
100
AcDbLine
 10
375.10622
 20
401.015286
 11
372.606219
 21
401.015286
  0
LINE
  5
3DE
100
AcDbEntity
  8
M0
 62
     7
100
AcDbLine
 10
372.606219
 20
428.615287
 11
375.10622
 21
428.615287
  0
LINE
  5
3DF
100
AcDbEntity
  8
M0
 62
     7
100
AcDbLine
 10
372.606219
 20
429.054732
 11
372.606219
 21
428.615287
  0
LINE
  5
3E0
100
AcDbEntity
  8
M0
 62
     7
100
AcDbLine
 10
372.606219
 20
401.015286
 11
372.606219
 21
400.575842
  0
LINE
  5
3E1
100
AcDbEntity
  8
M0
 62
     7
100
AcDbLine
 10
344.90622
 20
404.715287
 11
344.00622
 21
404.715287
  0
LINE
  5
3E2
100
AcDbEntity
  8
M0
 62
     7
100
AcDbLine
 10
344.90622
 20
394.715288
 11
352.30622
 21
394.715288
  0
LINE
  5
3E3
100
AcDbEntity
  8
M0
 62
     7
100
AcDbLine
 10
352.30622
 20
399.715287
 11
344.90622
 21
399.715287
  0
LINE
  5
3E4
100
AcDbEntity
  8
M0
 62
     7
100
AcDbLine
 10
343.50622
 20
424.415287
 11
343.50622
 21
405.215287
  0
LINE
  5
3E5
100
AcDbEntity
  8
M0
 62
     7
100
AcDbLine
 10
379.306219
 20
432.615287
 11
372.606219
 21
432.615287
  0
LINE
  5
3E6
100
AcDbEntity
  8
M0
 62
     7
100
AcDbLine
 10
322.206219
 20
390.115288
 11
322.206219
 21
391.715287
  0
LINE
  5
3E7
100
AcDbEntity
  8
M0
 62
     7
100
AcDbLine
 10
380.106219
 20
390.565286
 11
380.106219
 21
381.065286
  0
LINE
  5
3E8
100
AcDbEntity
  8
M0
 62
     7
100
AcDbLine
 10
375.60622
 20
426.615287
 11
375.906219
 21
427.115288
  0
LINE
  5
3E9
100
AcDbEntity
  8
M0
 62
     7
100
AcDbLine
 10
375.906219
 20
429.115287
 11
375.60622
 21
430.115287
  0
LINE
  5
3EA
100
AcDbEntity
  8
M0
 62
     7
100
AcDbLine
 10
375.60622
 20
432.615287
 11
375.60622
 21
397.015287
  0
LINE
  5
3EB
100
AcDbEntity
  8
M0
 62
     7
100
AcDbLine
 10
369.106219
 20
439.515288
 11
369.106219
 21
449.315287
  0
LINE
  5
3EC
100
AcDbEntity
  8
M0
 62
     7
100
AcDbLine
 10
352.30622
 20
429.915287
 11
352.30622
 21
434.915286
  0
LINE
  5
3ED
100
AcDbEntity
  8
M0
 62
     7
100
AcDbLine
 10
352.30622
 20
394.715288
 11
352.30622
 21
399.715287
  0
LINE
  5
3EE
100
AcDbEntity
  8
M0
 62
     7
100
AcDbLine
 10
369.106219
 20
390.315288
 11
344.90622
 21
390.315288
  0
LINE
  5
3EF
100
AcDbEntity
  8
M0
 62
     7
100
AcDbLine
 10
369.106219
 20
380.315287
 11
369.106219
 21
390.315288
  0
LINE
  5
3F0
100
AcDbEntity
  8
M0
 62
     7
100
AcDbLine
 10
377.30622
 20
399.315287
 11
377.312904
 21
399.307691
  0
LINE
  5
3F1
100
AcDbEntity
  8
M0
 62
     7
100
AcDbLine
 10
377.312904
 20
399.307691
 11
377.332756
 21
399.285133
  0
LINE
  5
3F2
100
AcDbEntity
  8
M0
 62
     7
100
AcDbLine
 10
377.332756
 20
399.285133
 11
377.365168
 21
399.248299
  0
LINE
  5
3F3
100
AcDbEntity
  8
M0
 62
     7
100
AcDbLine
 10
377.365168
 20
399.248299
 11
377.409159
 21
399.198309
  0
LINE
  5
3F4
100
AcDbEntity
  8
M0
 62
     7
100
AcDbLine
 10
377.409159
 20
399.198309
 11
377.463392
 21
399.13668
  0
LINE
  5
3F5
100
AcDbEntity
  8
M0
 62
     7
100
AcDbLine
 10
377.463392
 20
399.13668
 11
377.526219
 21
399.065287
  0
LINE
  5
3F6
100
AcDbEntity
  8
M0
 62
     7
100
AcDbLine
 10
377.526219
 20
399.065287
 11
377.595731
 21
398.986298
  0
LINE
  5
3F7
100
AcDbEntity
  8
M0
 62
     7
100
AcDbLine
 10
377.595731
 20
398.986298
 11
377.669814
 21
398.902112
  0
LINE
  5
3F8
100
AcDbEntity
  8
M0
 62
     7
100
AcDbLine
 10
377.669814
 20
398.902112
 11
377.74622
 21
398.815286
  0
LINE
  5
3F9
100
AcDbEntity
  8
M0
 62
     7
100
AcDbLine
 10
319.106219
 20
379.315287
 11
319.106219
 21
364.815287
  0
LINE
  5
3FA
100
AcDbEntity
  8
M0
 62
     7
100
AcDbLine
 10
316.806219
 20
364.815287
 11
319.106219
 21
364.815287
  0
LINE
  5
3FB
100
AcDbEntity
  8
M0
 62
     7
100
AcDbLine
 10
326.806219
 20
368.314912
 11
319.106219
 21
368.315201
  0
LINE
  5
3FC
100
AcDbEntity
  8
M0
 62
     7
100
AcDbLine
 10
312.666571
 20
366.475538
 11
314.506171
 21
366.314604
  0
ARC
  5
3FD
100
AcDbEntity
  8
M0
 62
     7
100
AcDbCircle
 10
312.806219
 20
368.069456
 40
1.599998
100
AcDbArc
 50
180.000034
 51
264.992965
  0
LINE
  5
3FE
100
AcDbEntity
  8
M0
 62
     7
100
AcDbLine
 10
326.806219
 20
373.314848
 11
326.806219
 21
368.314912
  0
LINE
  5
3FF
100
AcDbEntity
  8
M0
 62
     7
100
AcDbLine
 10
319.106219
 20
373.314848
 11
326.806219
 21
373.314848
  0
LINE
  5
400
100
AcDbEntity
  8
M0
 62
     7
100
AcDbLine
 10
315.806219
 20
365.815325
 11
316.806219
 21
365.815287
  0
LINE
  5
401
100
AcDbEntity
  8
M0
 62
     7
100
AcDbLine
 10
311.206259
 20
368.069456
 11
311.206259
 21
373.559782
  0
LINE
  5
402
100
AcDbEntity
  8
M0
 62
     7
100
AcDbLine
 10
315.806219
 20
366.314619
 11
314.506171
 21
366.314619
  0
LINE
  5
403
100
AcDbEntity
  8
M0
 62
     7
100
AcDbLine
 10
316.806219
 20
375.815287
 11
316.806219
 21
365.815287
  0
LINE
  5
404
100
AcDbEntity
  8
M0
 62
     7
100
AcDbLine
 10
315.806219
 20
365.815325
 11
315.806219
 21
375.815325
  0
LINE
  5
405
100
AcDbEntity
  8
M0
 62
     7
100
AcDbLine
 10
314.506171
 20
375.314604
 11
314.506171
 21
366.314604
  0
LINE
  5
406
100
AcDbEntity
  8
M0
 62
     7
100
AcDbLine
 10
316.806219
 20
364.815287
 11
316.806219
 21
379.315287
  0
LINE
  5
407
100
AcDbEntity
  8
M0
 62
     7
100
AcDbLine
 10
312.666571
 20
375.153684
 11
314.506171
 21
375.314604
  0
LINE
  5
408
100
AcDbEntity
  8
M0
 62
     7
100
AcDbLine
 10
314.506171
 20
375.314619
 11
315.806219
 21
375.314619
  0
ARC
  5
409
100
AcDbEntity
  8
M0
 62
     7
100
AcDbCircle
 10
312.806219
 20
373.559782
 40
1.599998
100
AcDbArc
 50
95.00717
 51
180.000034
  0
LINE
  5
40A
100
AcDbEntity
  8
M0
 62
     7
100
AcDbLine
 10
315.806219
 20
375.815325
 11
316.806219
 21
375.815287
  0
HATCH
  5
40B
100
AcDbEntity
  8
M0
 62
     7
100
AcDbHatch
 10
0.0
 20
0.0
210
0.0
220
0.0
230
1.0
  2
SOLID
 70
     1
 71
     0
 91
        1
 92
        1
 93
        4
 72
     1
 10
158.76286
 20
416.546088
 11
158.76286
 21
419.315287
 72
     1
 10
158.76286
 20
419.315287
 11
158.029021
 21
419.315287
 72
     1
 10
158.029021
 20
419.315287
 11
158.029021
 21
416.546088
 72
     1
 10
158.029021
 20
416.546088
 11
158.76286
 21
416.546088
 97
        0
 75
     0
 76
     1
 98
        1
 10
0.0
 20
0.0
  0
LINE
  5
40C
100
AcDbEntity
  8
M0
  6
DIVIDE
 62
     7
100
AcDbLine
 10
383.106219
 20
428.315287
 11
376.606219
 21
428.315287
  0
LINE
  5
40D
100
AcDbEntity
  8
M0
  6
DIVIDE
 62
     7
100
AcDbLine
 10
383.106219
 20
401.315287
 11
376.606219
 21
401.315287
  0
LINE
  5
40E
100
AcDbEntity
  8
M0
  6
DIVIDE
 62
     7
100
AcDbLine
 10
382.106219
 20
427.315287
 11
375.606219
 21
427.315287
  0
LINE
  5
40F
100
AcDbEntity
  8
M0
  6
DIVIDE
 62
     7
100
AcDbLine
 10
376.606219
 20
401.315287
 11
376.606219
 21
397.315287
  0
LINE
  5
410
100
AcDbEntity
  8
M0
  6
DIVIDE
 62
     7
100
AcDbLine
 10
382.106219
 20
402.315287
 11
375.606219
 21
402.315287
  0
LINE
  5
411
100
AcDbEntity
  8
M0
  6
DIVIDE
 62
     7
100
AcDbLine
 10
375.606219
 20
402.315287
 11
375.606219
 21
397.315287
  0
LINE
  5
412
100
AcDbEntity
  8
M0
  6
DIVIDE
 62
     7
100
AcDbLine
 10
376.606219
 20
432.315287
 11
375.606219
 21
432.315287
  0
LINE
  5
413
100
AcDbEntity
  8
M0
  6
DIVIDE
 62
     7
100
AcDbLine
 10
383.106219
 20
401.315287
 11
383.106219
 21
428.315287
  0
LINE
  5
414
100
AcDbEntity
  8
M0
  6
DIVIDE
 62
     7
100
AcDbLine
 10
375.606219
 20
432.315287
 11
375.606219
 21
427.315287
  0
LINE
  5
415
100
AcDbEntity
  8
M0
  6
DIVIDE
 62
     7
100
AcDbLine
 10
376.606219
 20
432.315287
 11
376.606219
 21
428.315287
  0
LINE
  5
416
100
AcDbEntity
  8
M0
  6
DIVIDE
 62
     7
100
AcDbLine
 10
375.606219
 20
397.315287
 11
376.606219
 21
397.315287
  0
LINE
  5
417
100
AcDbEntity
  8
M0
  6
DIVIDE
 62
     7
100
AcDbLine
 10
382.106219
 20
427.315287
 11
382.106219
 21
402.315287
  0
LINE
  5
418
100
AcDbEntity
  8
M0
  6
DASHED
100
AcDbLine
 10
256.406222
 20
405.940288
 11
256.406222
 21
403.090288
  0
LINE
  5
419
100
AcDbEntity
  8
M0
  6
DASHED
100
AcDbLine
 10
256.406222
 20
430.340287
 11
256.406222
 21
427.490287
  0
LINE
  5
41A
100
AcDbEntity
  8
M0
100
AcDbLine
 10
256.006222
 20
419.605185
 11
256.006222
 21
419.815286
  0
LINE
  5
41B
100
AcDbEntity
  8
M0
100
AcDbLine
 10
252.306222
 20
415.865287
 11
251.806221
 21
415.865287
  0
LINE
  5
41C
100
AcDbEntity
  8
M0
100
AcDbLine
 10
250.306222
 20
397.815287
 11
250.306222
 21
431.815287
  0
LINE
  5
41D
100
AcDbEntity
  8
M0
100
AcDbLine
 10
252.476401
 20
419.815286
 11
252.476401
 21
419.491075
  0
LINE
  5
41E
100
AcDbEntity
  8
M0
100
AcDbLine
 10
301.306221
 20
431.815287
 11
301.306221
 21
432.815287
  0
LINE
  5
41F
100
AcDbEntity
  8
M0
100
AcDbLine
 10
301.306221
 20
432.815287
 11
302.306221
 21
432.815287
  0
LINE
  5
420
100
AcDbEntity
  8
M0
100
AcDbLine
 10
301.306221
 20
427.915287
 11
301.306221
 21
431.815287
  0
LINE
  5
421
100
AcDbEntity
  8
M0
100
AcDbLine
 10
303.306221
 20
429.315287
 11
302.306221
 21
432.815287
  0
LINE
  5
422
100
AcDbEntity
  8
M0
100
AcDbLine
 10
299.008947
 20
418.815286
 11
299.008947
 21
414.815287
  0
LINE
  5
423
100
AcDbEntity
  8
M0
100
AcDbLine
 10
301.749962
 20
427.915287
 11
302.306221
 21
427.915287
  0
LINE
  5
424
100
AcDbEntity
  8
M0
100
AcDbLine
 10
297.306221
 20
432.815287
 11
298.001874
 21
432.815287
  0
LINE
  5
425
100
AcDbEntity
  8
M0
100
AcDbLine
 10
303.306221
 20
418.815286
 11
299.008947
 21
418.815286
  0
LINE
  5
426
100
AcDbEntity
  8
M0
100
AcDbLine
 10
299.006221
 20
432.073473
 11
299.006221
 21
427.915287
  0
LINE
  5
427
100
AcDbEntity
  8
M0
100
AcDbLine
 10
302.056221
 20
427.915287
 11
299.006221
 21
427.915287
  0
LINE
  5
428
100
AcDbEntity
  8
M0
100
AcDbLine
 10
299.006221
 20
427.915287
 11
301.749962
 21
427.915287
  0
LINE
  5
429
100
AcDbEntity
  8
M0
100
AcDbLine
 10
298.806221
 20
431.815287
 11
298.806221
 21
397.815287
  0
LINE
  5
42A
100
AcDbEntity
  8
M0
100
AcDbLine
 10
253.306221
 20
419.615287
 11
252.80622
 21
419.615287
  0
LINE
  5
42B
100
AcDbEntity
  8
M0
100
AcDbLine
 10
252.306222
 20
410.515287
 11
252.306222
 21
419.115287
  0
LINE
  5
42C
100
AcDbEntity
  8
M0
100
AcDbLine
 10
301.956221
 20
414.815287
 11
301.956221
 21
418.815286
  0
LINE
  5
42D
100
AcDbEntity
  8
M0
100
AcDbLine
 10
252.80622
 20
410.015286
 11
253.306221
 21
410.015286
  0
ARC
  5
42E
100
AcDbEntity
  8
M0
100
AcDbCircle
 10
252.806221
 20
410.515287
 40
0.5
100
AcDbArc
 50
180.0
 51
270.0
  0
ARC
  5
42F
100
AcDbEntity
  8
M0
100
AcDbCircle
 10
252.806221
 20
419.115287
 40
0.5
100
AcDbArc
 50
90.0
 51
180.0
  0
LINE
  5
430
100
AcDbEntity
  8
M0
100
AcDbLine
 10
255.90622
 20
410.015286
 11
253.306221
 21
410.015286
  0
ARC
  5
431
100
AcDbEntity
  8
M0
100
AcDbCircle
 10
298.506221
 20
432.073473
 40
0.5
100
AcDbArc
 50
0.0
 51
44.92732
  0
ARC
  5
432
100
AcDbEntity
  8
M0
100
AcDbCircle
 10
257.406221
 20
431.815287
 40
1.0
100
AcDbArc
 50
90.0
 51
180.0
  0
ARC
  5
433
100
AcDbEntity
  8
M0
100
AcDbCircle
 10
298.306221
 20
432.315287
 40
0.5
100
AcDbArc
 50
0.0
 51
90.0
  0
ARC
  5
434
100
AcDbEntity
  8
M0
100
AcDbCircle
 10
251.306221
 20
421.015287
 40
1.0
100
AcDbArc
 50
90.0
 51
180.0
  0
LINE
  5
435
100
AcDbEntity
  8
M0
100
AcDbLine
 10
301.956221
 20
410.815287
 11
301.956221
 21
414.815287
  0
LINE
  5
436
100
AcDbEntity
  8
M0
100
AcDbLine
 10
298.85798
 20
432.423222
 11
298.766871
 21
432.509076
  0
ARC
  5
437
100
AcDbEntity
  8
M0
100
AcDbCircle
 10
302.306221
 20
426.915287
 40
1.0
100
AcDbArc
 50
0.0
 51
90.0
  0
ARC
  5
438
100
AcDbEntity
  8
M0
100
AcDbCircle
 10
251.306221
 20
431.815287
 40
1.0
100
AcDbArc
 50
90.0
 51
180.0
  0
LINE
  5
439
100
AcDbEntity
  8
M0
100
AcDbLine
 10
251.806221
 20
419.815286
 11
251.806221
 21
409.815287
  0
LINE
  5
43A
100
AcDbEntity
  8
M0
100
AcDbLine
 10
299.006221
 20
401.715287
 11
299.006221
 21
397.815287
  0
LINE
  5
43B
100
AcDbEntity
  8
M0
100
AcDbLine
 10
301.749962
 20
401.715287
 11
299.006221
 21
401.715287
  0
LINE
  5
43C
100
AcDbEntity
  8
M0
100
AcDbLine
 10
257.406223
 20
396.815288
 11
251.30622
 21
396.815288
  0
LINE
  5
43D
100
AcDbEntity
  8
M0
100
AcDbLine
 10
256.006222
 20
410.025389
 11
256.006222
 21
409.815287
  0
LINE
  5
43E
100
AcDbEntity
  8
M0
100
AcDbLine
 10
251.806221
 20
415.815286
 11
252.306222
 21
415.815286
  0
LINE
  5
43F
100
AcDbEntity
  8
M0
100
AcDbLine
 10
257.90622
 20
396.815288
 11
251.30622
 21
396.815288
  0
LINE
  5
440
100
AcDbEntity
  8
M0
100
AcDbLine
 10
252.476401
 20
409.815287
 11
252.476401
 21
410.139497
  0
LINE
  5
441
100
AcDbEntity
  8
M0
100
AcDbLine
 10
256.406221
 20
397.815287
 11
256.406221
 21
407.615287
  0
LINE
  5
442
100
AcDbEntity
  8
M0
100
AcDbLine
 10
256.406221
 20
409.815287
 11
256.406221
 21
419.815286
  0
LINE
  5
443
100
AcDbEntity
  8
M0
100
AcDbLine
 10
251.306221
 20
409.815287
 11
256.406221
 21
409.815287
  0
LINE
  5
444
100
AcDbEntity
  8
M0
100
AcDbLine
 10
256.406221
 20
407.615287
 11
251.306221
 21
407.615287
  0
LINE
  5
445
100
AcDbEntity
  8
M0
100
AcDbLine
 10
302.306221
 20
401.715287
 11
301.749962
 21
401.715287
  0
LINE
  5
446
100
AcDbEntity
  8
M0
100
AcDbLine
 10
303.306221
 20
429.315287
 11
303.306221
 21
402.715288
  0
LINE
  5
447
100
AcDbEntity
  8
M0
100
AcDbLine
 10
299.006221
 20
414.815287
 11
299.006221
 21
410.815287
  0
LINE
  5
448
100
AcDbEntity
  8
M0
100
AcDbLine
 10
303.306221
 20
410.815287
 11
299.006221
 21
410.815287
  0
LINE
  5
449
100
AcDbEntity
  8
M0
100
AcDbLine
 10
253.306221
 20
419.615287
 11
255.90622
 21
419.615287
  0
ARC
  5
44A
100
AcDbEntity
  8
M0
100
AcDbCircle
 10
251.306221
 20
397.815287
 40
1.0
100
AcDbArc
 50
180.0
 51
270.0
  0
ARC
  5
44B
100
AcDbEntity
  8
M0
100
AcDbCircle
 10
251.306221
 20
420.815287
 40
1.0
100
AcDbArc
 50
180.0
 51
270.0
  0
ARC
  5
44C
100
AcDbEntity
  8
M0
100
AcDbCircle
 10
302.306221
 20
402.715287
 40
1.0
100
AcDbArc
 50
270.0
 51
360.0
  0
ARC
  5
44D
100
AcDbEntity
  8
M0
100
AcDbCircle
 10
298.006227
 20
397.815282
 40
0.999994
100
AcDbArc
 50
270.0
 51
360.0
  0
LINE
  5
44E
100
AcDbEntity
  8
M0
100
AcDbLine
 10
298.806221
 20
431.815287
 11
298.806221
 21
432.315287
  0
LINE
  5
44F
100
AcDbEntity
  8
M0
100
AcDbLine
 10
251.306221
 20
432.815287
 11
298.306221
 21
432.815287
  0
LINE
  5
450
100
AcDbEntity
  8
M0
100
AcDbLine
 10
251.30622
 20
422.015286
 11
256.406221
 21
422.015286
  0
LINE
  5
451
100
AcDbEntity
  8
M0
100
AcDbLine
 10
256.406221
 20
422.015286
 11
256.406221
 21
431.815287
  0
ARC
  5
452
100
AcDbEntity
  8
M0
100
AcDbCircle
 10
255.906221
 20
419.115287
 40
0.5
100
AcDbArc
 50
0.0
 51
90.0
  0
ARC
  5
453
100
AcDbEntity
  8
M0
100
AcDbCircle
 10
255.906221
 20
410.515287
 40
0.5
100
AcDbArc
 50
270.0
 51
360.0
  0
LINE
  5
454
100
AcDbEntity
  8
M0
100
AcDbLine
 10
297.806221
 20
396.815288
 11
251.30622
 21
396.815288
  0
LINE
  5
455
100
AcDbEntity
  8
M0
100
AcDbLine
 10
256.406221
 20
419.815286
 11
251.30622
 21
419.815286
  0
ARC
  5
456
100
AcDbEntity
  8
M0
100
AcDbCircle
 10
257.406221
 20
397.815287
 40
1.0
100
AcDbArc
 50
180.0
 51
270.0
  0
ARC
  5
457
100
AcDbEntity
  8
M0
100
AcDbCircle
 10
297.806221
 20
397.815287
 40
1.0
100
AcDbArc
 50
270.0
 51
360.0
  0
ARC
  5
458
100
AcDbEntity
  8
M0
100
AcDbCircle
 10
251.306221
 20
408.815287
 40
1.0
100
AcDbArc
 50
90.0
 51
180.0
  0
ARC
  5
459
100
AcDbEntity
  8
M0
100
AcDbCircle
 10
251.306221
 20
408.615287
 40
1.0
100
AcDbArc
 50
180.0
 51
270.0
  0
LINE
  5
45A
100
AcDbEntity
  8
M0
100
AcDbLine
 10
258.10622
 20
396.815288
 11
251.30622
 21
396.815288
  0
LINE
  5
45B
100
AcDbEntity
  8
M0
 62
     7
100
AcDbLine
 10
245.306222
 20
431.815287
 11
245.306222
 21
397.815287
  0
HATCH
  5
45C
100
AcDbEntity
  8
M0
 62
     7
100
AcDbHatch
 10
0.0
 20
0.0
210
0.0
220
0.0
230
1.0
  2
SOLID
 70
     1
 71
     0
 91
        1
 92
        1
 93
        4
 72
     1
 10
245.306222
 20
431.815287
 11
243.306222
 21
431.815287
 72
     1
 10
243.306222
 20
431.815287
 11
243.306222
 21
397.815287
 72
     1
 10
243.306222
 20
397.815287
 11
245.306222
 21
397.815287
 72
     1
 10
245.306222
 20
397.815287
 11
245.306222
 21
431.815287
 97
        0
 75
     0
 76
     1
 98
        1
 10
0.0
 20
0.0
  0
LINE
  5
45D
100
AcDbEntity
  8
M0
 62
     1
100
AcDbLine
 10
172.253644
 20
451.824642
 11
169.072003
 21
455.006404
  0
LINE
  5
45E
100
AcDbEntity
  8
M0
 62
     1
100
AcDbLine
 10
172.076886
 20
453.768978
 11
170.309308
 21
452.001399
  0
LINE
  5
45F
100
AcDbEntity
  8
M0
 62
     1
100
AcDbLine
 10
171.016339
 20
454.829647
 11
169.248761
 21
453.061946
  0
LINE
  5
460
100
AcDbEntity
  8
M0
 62
     1
100
AcDbLine
 10
173.98806
 20
457.240286
 11
167.33806
 21
457.240286
  0
ARC
  5
461
100
AcDbEntity
  8
M0
 62
     1
100
AcDbCircle
 10
173.98806
 20
456.740286
 40
0.5
100
AcDbArc
 50
0.0
 51
90.0
  0
LINE
  5
462
100
AcDbEntity
  8
M0
 62
     1
100
AcDbLine
 10
174.48806
 20
454.476304
 11
174.48806
 21
456.740286
  0
LINE
  5
463
100
AcDbEntity
  8
M0
 62
     1
100
AcDbLine
 10
167.33806
 20
449.590286
 11
171.485195
 21
449.590286
  0
LINE
  5
464
100
AcDbEntity
  8
M0
 62
     1
100
AcDbLine
 10
166.83806
 20
456.740286
 11
166.83806
 21
450.090286
  0
ARC
  5
465
100
AcDbEntity
  8
M0
 62
     1
100
AcDbCircle
 10
167.33806
 20
456.740286
 40
0.5
100
AcDbArc
 50
90.0
 51
180.0
  0
ARC
  5
466
100
AcDbEntity
  8
M0
 62
     1
100
AcDbCircle
 10
167.33806
 20
450.090286
 40
0.5
100
AcDbArc
 50
180.0
 51
270.0
  0
ARC
  5
467
100
AcDbEntity
  8
M0
 62
     1
100
AcDbCircle
 10
170.66306
 20
453.415286
 40
3.0
100
AcDbArc
 50
354.126881
 51
662.724737
  0
CIRCLE
  5
468
100
AcDbEntity
  8
M0
 62
     1
100
AcDbCircle
 10
134.56306
 20
435.715286
 40
3.0
  0
LINE
  5
469
100
AcDbEntity
  8
M0
 62
     1
100
AcDbLine
 10
136.153644
 20
434.124642
 11
132.972003
 21
437.306404
  0
LINE
  5
46A
100
AcDbEntity
  8
M0
 62
     1
100
AcDbLine
 10
135.976886
 20
436.068978
 11
134.209308
 21
434.301399
  0
LINE
  5
46B
100
AcDbEntity
  8
M0
 62
     1
100
AcDbLine
 10
134.916339
 20
437.129647
 11
133.148761
 21
435.361946
  0
LINE
  5
46C
100
AcDbEntity
  8
M0
 62
     1
100
AcDbLine
 10
137.88806
 20
439.540286
 11
131.23806
 21
439.540286
  0
ARC
  5
46D
100
AcDbEntity
  8
M0
 62
     1
100
AcDbCircle
 10
137.88806
 20
439.040286
 40
0.5
100
AcDbArc
 50
0.0
 51
90.0
  0
LINE
  5
46E
100
AcDbEntity
  8
M0
 62
     1
100
AcDbLine
 10
138.38806
 20
432.815287
 11
138.38806
 21
439.040286
  0
LINE
  5
46F
100
AcDbEntity
  8
M0
 62
     1
100
AcDbLine
 10
131.23806
 20
431.890286
 11
135.765877
 21
431.890286
  0
LINE
  5
470
100
AcDbEntity
  8
M0
 62
     1
100
AcDbLine
 10
130.73806
 20
439.040286
 11
130.73806
 21
432.390286
  0
ARC
  5
471
100
AcDbEntity
  8
M0
 62
     1
100
AcDbCircle
 10
131.23806
 20
439.040286
 40
0.5
100
AcDbArc
 50
90.0
 51
180.0
  0
ARC
  5
472
100
AcDbEntity
  8
M0
 62
     1
100
AcDbCircle
 10
131.23806
 20
432.390286
 40
0.5
100
AcDbArc
 50
180.0
 51
270.0
  0
LINE
  5
473
100
AcDbEntity
  8
M0
 62
     1
100
AcDbLine
 10
135.76306
 20
400.315241
 11
132.972003
 21
403.106404
  0
LINE
  5
474
100
AcDbEntity
  8
M0
 62
     1
100
AcDbLine
 10
135.76306
 20
401.655151
 11
134.209308
 21
400.101399
  0
LINE
  5
475
100
AcDbEntity
  8
M0
 62
     1
100
AcDbLine
 10
134.916339
 20
402.929647
 11
133.148761
 21
401.161946
  0
LINE
  5
476
100
AcDbEntity
  8
M0
 62
     1
100
AcDbLine
 10
135.76306
 20
405.340286
 11
131.23806
 21
405.340286
  0
LINE
  5
477
100
AcDbEntity
  8
M0
 62
     1
100
AcDbLine
 10
131.23806
 20
397.690286
 11
135.770904
 21
397.690286
  0
LINE
  5
478
100
AcDbEntity
  8
M0
 62
     1
100
AcDbLine
 10
130.73806
 20
404.840286
 11
130.73806
 21
398.190286
  0
ARC
  5
479
100
AcDbEntity
  8
M0
 62
     1
100
AcDbCircle
 10
131.23806
 20
404.840286
 40
0.5
100
AcDbArc
 50
90.0
 51
180.0
  0
ARC
  5
47A
100
AcDbEntity
  8
M0
 62
     1
100
AcDbCircle
 10
131.23806
 20
398.190286
 40
0.5
100
AcDbArc
 50
180.0
 51
270.0
  0
ARC
  5
47B
100
AcDbEntity
  8
M0
 62
     1
100
AcDbCircle
 10
134.56306
 20
401.515286
 40
3.0
100
AcDbArc
 50
66.421825
 51
293.578175
  0
LINE
  5
47C
100
AcDbEntity
  8
M0
 62
     1
100
AcDbLine
 10
150.453644
 20
451.824642
 11
147.272003
 21
455.006404
  0
LINE
  5
47D
100
AcDbEntity
  8
M0
 62
     1
100
AcDbLine
 10
150.276886
 20
453.768978
 11
148.509308
 21
452.001399
  0
LINE
  5
47E
100
AcDbEntity
  8
M0
 62
     1
100
AcDbLine
 10
149.216339
 20
454.829647
 11
147.448761
 21
453.061946
  0
LINE
  5
47F
100
AcDbEntity
  8
M0
 62
     1
100
AcDbLine
 10
152.18806
 20
457.240286
 11
145.53806
 21
457.240286
  0
ARC
  5
480
100
AcDbEntity
  8
M0
 62
     1
100
AcDbCircle
 10
152.18806
 20
456.740286
 40
0.5
100
AcDbArc
 50
0.0
 51
90.0
  0
LINE
  5
481
100
AcDbEntity
  8
M0
 62
     1
100
AcDbLine
 10
152.68806
 20
450.090286
 11
152.68806
 21
456.740286
  0
ARC
  5
482
100
AcDbEntity
  8
M0
 62
     1
100
AcDbCircle
 10
152.18806
 20
450.090286
 40
0.5
100
AcDbArc
 50
270.0
 51
360.0
  0
LINE
  5
483
100
AcDbEntity
  8
M0
 62
     1
100
AcDbLine
 10
148.040925
 20
449.590286
 11
152.18806
 21
449.590286
  0
LINE
  5
484
100
AcDbEntity
  8
M0
 62
     1
100
AcDbLine
 10
145.03806
 20
456.740286
 11
145.03806
 21
454.476304
  0
ARC
  5
485
100
AcDbEntity
  8
M0
 62
     1
100
AcDbCircle
 10
145.53806
 20
456.740286
 40
0.5
100
AcDbArc
 50
90.0
 51
180.0
  0
ARC
  5
486
100
AcDbEntity
  8
M0
 62
     1
100
AcDbCircle
 10
148.86306
 20
453.415286
 40
3.0
100
AcDbArc
 50
237.275263
 51
545.873119
  0
CIRCLE
  5
487
100
AcDbEntity
  8
M0
 62
     1
100
AcDbCircle
 10
134.56306
 20
393.915286
 40
3.0
  0
LINE
  5
488
100
AcDbEntity
  8
M0
 62
     1
100
AcDbLine
 10
136.153644
 20
392.324642
 11
132.972003
 21
395.506404
  0
LINE
  5
489
100
AcDbEntity
  8
M0
 62
     1
100
AcDbLine
 10
135.976886
 20
394.268978
 11
134.209308
 21
392.501399
  0
LINE
  5
48A
100
AcDbEntity
  8
M0
 62
     1
100
AcDbLine
 10
134.916339
 20
395.329647
 11
133.148761
 21
393.561946
  0
LINE
  5
48B
100
AcDbEntity
  8
M0
 62
     1
100
AcDbLine
 10
135.765877
 20
397.740286
 11
131.23806
 21
397.740286
  0
LINE
  5
48C
100
AcDbEntity
  8
M0
 62
     1
100
AcDbLine
 10
138.38806
 20
390.590286
 11
138.38806
 21
396.815288
  0
ARC
  5
48D
100
AcDbEntity
  8
M0
 62
     1
100
AcDbCircle
 10
137.88806
 20
390.590286
 40
0.5
100
AcDbArc
 50
270.0
 51
360.0
  0
LINE
  5
48E
100
AcDbEntity
  8
M0
 62
     1
100
AcDbLine
 10
131.23806
 20
390.090286
 11
137.88806
 21
390.090286
  0
LINE
  5
48F
100
AcDbEntity
  8
M0
 62
     1
100
AcDbLine
 10
130.73806
 20
397.240286
 11
130.73806
 21
390.590286
  0
ARC
  5
490
100
AcDbEntity
  8
M0
 62
     1
100
AcDbCircle
 10
131.23806
 20
397.240286
 40
0.5
100
AcDbArc
 50
90.0
 51
180.0
  0
ARC
  5
491
100
AcDbEntity
  8
M0
 62
     1
100
AcDbCircle
 10
131.23806
 20
390.590286
 40
0.5
100
AcDbArc
 50
180.0
 51
270.0
  0
LINE
  5
492
100
AcDbEntity
  8
M0
 62
     1
100
AcDbLine
 10
186.553644
 20
399.924642
 11
183.76306
 21
402.715332
  0
LINE
  5
493
100
AcDbEntity
  8
M0
 62
     1
100
AcDbLine
 10
186.376886
 20
401.868978
 11
184.609308
 21
400.101399
  0
LINE
  5
494
100
AcDbEntity
  8
M0
 62
     1
100
AcDbLine
 10
185.316339
 20
402.929647
 11
183.76306
 21
401.376261
  0
LINE
  5
495
100
AcDbEntity
  8
M0
 62
     1
100
AcDbLine
 10
188.28806
 20
405.340286
 11
183.76306
 21
405.340286
  0
ARC
  5
496
100
AcDbEntity
  8
M0
 62
     1
100
AcDbCircle
 10
188.28806
 20
404.840286
 40
0.5
100
AcDbArc
 50
0.0
 51
90.0
  0
LINE
  5
497
100
AcDbEntity
  8
M0
 62
     1
100
AcDbLine
 10
188.78806
 20
398.190286
 11
188.78806
 21
404.840286
  0
ARC
  5
498
100
AcDbEntity
  8
M0
 62
     1
100
AcDbCircle
 10
188.28806
 20
398.190286
 40
0.5
100
AcDbArc
 50
270.0
 51
360.0
  0
LINE
  5
499
100
AcDbEntity
  8
M0
 62
     1
100
AcDbLine
 10
183.755217
 20
397.690286
 11
188.28806
 21
397.690286
  0
ARC
  5
49A
100
AcDbEntity
  8
M0
 62
     1
100
AcDbCircle
 10
184.96306
 20
401.515286
 40
3.0
100
AcDbArc
 50
246.421834
 51
473.578166
  0
ARC
  5
49B
100
AcDbEntity
  8
M0
 62
     1
100
AcDbCircle
 10
146.76306
 20
382.315286
 40
2.75
100
AcDbArc
 50
294.427107
 51
402.37713
  0
LINE
  5
49C
100
AcDbEntity
  8
M0
 62
     1
100
AcDbLine
 10
186.553644
 20
426.524642
 11
183.76306
 21
429.315332
  0
LINE
  5
49D
100
AcDbEntity
  8
M0
 62
     1
100
AcDbLine
 10
186.376886
 20
428.468978
 11
184.609308
 21
426.701399
  0
LINE
  5
49E
100
AcDbEntity
  8
M0
 62
     1
100
AcDbLine
 10
185.316339
 20
429.529647
 11
183.76306
 21
427.976261
  0
LINE
  5
49F
100
AcDbEntity
  8
M0
 62
     1
100
AcDbLine
 10
188.28806
 20
431.940286
 11
183.755217
 21
431.940286
  0
ARC
  5
4A0
100
AcDbEntity
  8
M0
 62
     1
100
AcDbCircle
 10
188.28806
 20
431.440286
 40
0.5
100
AcDbArc
 50
0.0
 51
90.0
  0
LINE
  5
4A1
100
AcDbEntity
  8
M0
 62
     1
100
AcDbLine
 10
188.78806
 20
424.790286
 11
188.78806
 21
431.440286
  0
ARC
  5
4A2
100
AcDbEntity
  8
M0
 62
     1
100
AcDbCircle
 10
188.28806
 20
424.790286
 40
0.5
100
AcDbArc
 50
270.0
 51
360.0
  0
LINE
  5
4A3
100
AcDbEntity
  8
M0
 62
     1
100
AcDbLine
 10
183.76306
 20
424.290286
 11
188.28806
 21
424.290286
  0
ARC
  5
4A4
100
AcDbEntity
  8
M0
 62
     1
100
AcDbCircle
 10
184.96306
 20
428.115286
 40
3.0
100
AcDbArc
 50
246.421832
 51
473.578168
  0
CIRCLE
  5
4A5
100
AcDbEntity
  8
M0
 62
     1
100
AcDbCircle
 10
184.96306
 20
393.915286
 40
3.0
  0
LINE
  5
4A6
100
AcDbEntity
  8
M0
 62
     1
100
AcDbLine
 10
186.553644
 20
392.324642
 11
183.372003
 21
395.506404
  0
LINE
  5
4A7
100
AcDbEntity
  8
M0
 62
     1
100
AcDbLine
 10
186.376886
 20
394.268978
 11
184.609308
 21
392.501399
  0
LINE
  5
4A8
100
AcDbEntity
  8
M0
 62
     1
100
AcDbLine
 10
185.316339
 20
395.329647
 11
183.548761
 21
393.561946
  0
LINE
  5
4A9
100
AcDbEntity
  8
M0
 62
     1
100
AcDbLine
 10
188.28806
 20
397.740286
 11
183.760244
 21
397.740286
  0
ARC
  5
4AA
100
AcDbEntity
  8
M0
 62
     1
100
AcDbCircle
 10
188.28806
 20
397.240286
 40
0.5
100
AcDbArc
 50
0.0
 51
90.0
  0
LINE
  5
4AB
100
AcDbEntity
  8
M0
 62
     1
100
AcDbLine
 10
188.78806
 20
390.590286
 11
188.78806
 21
397.240286
  0
ARC
  5
4AC
100
AcDbEntity
  8
M0
 62
     1
100
AcDbCircle
 10
188.28806
 20
390.590286
 40
0.5
100
AcDbArc
 50
270.0
 51
360.0
  0
LINE
  5
4AD
100
AcDbEntity
  8
M0
 62
     1
100
AcDbLine
 10
181.63806
 20
390.090286
 11
188.28806
 21
390.090286
  0
LINE
  5
4AE
100
AcDbEntity
  8
M0
 62
     1
100
AcDbLine
 10
181.13806
 20
396.815288
 11
181.13806
 21
390.590286
  0
ARC
  5
4AF
100
AcDbEntity
  8
M0
 62
     1
100
AcDbCircle
 10
181.63806
 20
390.590286
 40
0.5
100
AcDbArc
 50
180.0
 51
270.0
  0
CIRCLE
  5
4B0
100
AcDbEntity
  8
M0
 62
     1
100
AcDbCircle
 10
146.76306
 20
438.515287
 40
3.5
  0
LINE
  5
4B1
100
AcDbEntity
  8
M0
 62
     1
100
AcDbLine
 10
147.773932
 20
440.233243
 11
145.198859
 21
437.65817
  0
LINE
  5
4B2
100
AcDbEntity
  8
M0
 62
     1
100
AcDbLine
 10
148.481039
 20
439.526136
 11
145.905966
 21
436.951063
  0
LINE
  5
4B3
100
AcDbEntity
  8
M0
 62
     1
100
AcDbLine
 10
145.802206
 20
439.476133
 11
147.647055
 21
437.631299
  0
CIRCLE
  5
4B4
100
AcDbEntity
  8
M0
 62
     1
100
AcDbCircle
 10
159.763057
 20
438.515287
 40
3.5
  0
LINE
  5
4B5
100
AcDbEntity
  8
M0
 62
     1
100
AcDbLine
 10
160.773928
 20
440.233243
 11
158.198855
 21
437.65817
  0
LINE
  5
4B6
100
AcDbEntity
  8
M0
 62
     1
100
AcDbLine
 10
161.481036
 20
439.526136
 11
158.905963
 21
436.951063
  0
LINE
  5
4B7
100
AcDbEntity
  8
M0
 62
     1
100
AcDbLine
 10
158.802203
 20
439.476133
 11
160.647051
 21
437.631299
  0
CIRCLE
  5
4B8
100
AcDbEntity
  8
M0
 62
     1
100
AcDbCircle
 10
172.763057
 20
438.515287
 40
3.5
  0
LINE
  5
4B9
100
AcDbEntity
  8
M0
 62
     1
100
AcDbLine
 10
173.773929
 20
440.233243
 11
171.198855
 21
437.65817
  0
LINE
  5
4BA
100
AcDbEntity
  8
M0
 62
     1
100
AcDbLine
 10
174.481036
 20
439.526136
 11
171.905963
 21
436.951063
  0
LINE
  5
4BB
100
AcDbEntity
  8
M0
 62
     1
100
AcDbLine
 10
171.802203
 20
439.476133
 11
173.647052
 21
437.631299
  0
CIRCLE
  5
4BC
100
AcDbEntity
  8
M0
 62
     1
100
AcDbCircle
 10
172.763057
 20
391.115286
 40
3.5
  0
LINE
  5
4BD
100
AcDbEntity
  8
M0
 62
     1
100
AcDbLine
 10
173.773929
 20
392.833243
 11
171.198855
 21
390.25817
  0
LINE
  5
4BE
100
AcDbEntity
  8
M0
 62
     1
100
AcDbLine
 10
174.481036
 20
392.126135
 11
171.905963
 21
389.551062
  0
LINE
  5
4BF
100
AcDbEntity
  8
M0
 62
     1
100
AcDbLine
 10
171.802203
 20
392.076132
 11
173.647052
 21
390.231299
  0
CIRCLE
  5
4C0
100
AcDbEntity
  8
M0
 62
     1
100
AcDbCircle
 10
159.763057
 20
391.115286
 40
3.5
  0
LINE
  5
4C1
100
AcDbEntity
  8
M0
 62
     1
100
AcDbLine
 10
160.773928
 20
392.833243
 11
158.198855
 21
390.25817
  0
LINE
  5
4C2
100
AcDbEntity
  8
M0
 62
     1
100
AcDbLine
 10
161.481036
 20
392.126135
 11
158.905963
 21
389.551062
  0
LINE
  5
4C3
100
AcDbEntity
  8
M0
 62
     1
100
AcDbLine
 10
158.802203
 20
392.076132
 11
160.647051
 21
390.231299
  0
CIRCLE
  5
4C4
100
AcDbEntity
  8
M0
 62
     1
100
AcDbCircle
 10
146.76306
 20
391.115286
 40
3.5
  0
LINE
  5
4C5
100
AcDbEntity
  8
M0
 62
     1
100
AcDbLine
 10
147.773932
 20
392.833243
 11
145.198859
 21
390.25817
  0
LINE
  5
4C6
100
AcDbEntity
  8
M0
 62
     1
100
AcDbLine
 10
148.481039
 20
392.126135
 11
145.905966
 21
389.551062
  0
LINE
  5
4C7
100
AcDbEntity
  8
M0
 62
     1
100
AcDbLine
 10
145.802206
 20
392.076132
 11
147.647055
 21
390.231299
  0
LINE
  5
4C8
100
AcDbEntity
  8
M0
 62
     1
100
AcDbLine
 10
135.76306
 20
426.915241
 11
132.972003
 21
429.706404
  0
LINE
  5
4C9
100
AcDbEntity
  8
M0
 62
     1
100
AcDbLine
 10
135.76306
 20
428.255152
 11
134.209308
 21
426.701399
  0
LINE
  5
4CA
100
AcDbEntity
  8
M0
 62
     1
100
AcDbLine
 10
134.916339
 20
429.529647
 11
133.148761
 21
427.761946
  0
LINE
  5
4CB
100
AcDbEntity
  8
M0
 62
     1
100
AcDbLine
 10
135.770903
 20
431.940286
 11
131.23806
 21
431.940286
  0
LINE
  5
4CC
100
AcDbEntity
  8
M0
 62
     1
100
AcDbLine
 10
131.23806
 20
424.290286
 11
135.76306
 21
424.290286
  0
LINE
  5
4CD
100
AcDbEntity
  8
M0
 62
     1
100
AcDbLine
 10
130.73806
 20
431.440286
 11
130.73806
 21
424.790286
  0
ARC
  5
4CE
100
AcDbEntity
  8
M0
 62
     1
100
AcDbCircle
 10
131.23806
 20
431.440286
 40
0.5
100
AcDbArc
 50
90.0
 51
180.0
  0
ARC
  5
4CF
100
AcDbEntity
  8
M0
 62
     1
100
AcDbCircle
 10
131.23806
 20
424.790286
 40
0.5
100
AcDbArc
 50
180.0
 51
270.0
  0
ARC
  5
4D0
100
AcDbEntity
  8
M0
 62
     1
100
AcDbCircle
 10
134.56306
 20
428.115286
 40
3.0
100
AcDbArc
 50
66.421824
 51
293.578176
  0
CIRCLE
  5
4D1
100
AcDbEntity
  8
M0
 62
     1
100
AcDbCircle
 10
184.96306
 20
435.715286
 40
3.0
  0
LINE
  5
4D2
100
AcDbEntity
  8
M0
 62
     1
100
AcDbLine
 10
186.553644
 20
434.124642
 11
183.372003
 21
437.306404
  0
LINE
  5
4D3
100
AcDbEntity
  8
M0
 62
     1
100
AcDbLine
 10
186.376886
 20
436.068978
 11
184.609308
 21
434.301399
  0
LINE
  5
4D4
100
AcDbEntity
  8
M0
 62
     1
100
AcDbLine
 10
185.316339
 20
437.129647
 11
183.548761
 21
435.361946
  0
LINE
  5
4D5
100
AcDbEntity
  8
M0
 62
     1
100
AcDbLine
 10
188.28806
 20
439.540286
 11
181.63806
 21
439.540286
  0
ARC
  5
4D6
100
AcDbEntity
  8
M0
 62
     1
100
AcDbCircle
 10
188.28806
 20
439.040286
 40
0.5
100
AcDbArc
 50
0.0
 51
90.0
  0
LINE
  5
4D7
100
AcDbEntity
  8
M0
 62
     1
100
AcDbLine
 10
188.78806
 20
432.390286
 11
188.78806
 21
439.040286
  0
ARC
  5
4D8
100
AcDbEntity
  8
M0
 62
     1
100
AcDbCircle
 10
188.28806
 20
432.390286
 40
0.5
100
AcDbArc
 50
270.0
 51
360.0
  0
LINE
  5
4D9
100
AcDbEntity
  8
M0
 62
     1
100
AcDbLine
 10
183.760244
 20
431.890286
 11
188.28806
 21
431.890286
  0
LINE
  5
4DA
100
AcDbEntity
  8
M0
 62
     1
100
AcDbLine
 10
181.13806
 20
439.040286
 11
181.13806
 21
432.815287
  0
ARC
  5
4DB
100
AcDbEntity
  8
M0
 62
     1
100
AcDbCircle
 10
181.63806
 20
439.040286
 40
0.5
100
AcDbArc
 50
90.0
 51
180.0
  0
ARC
  5
4DC
100
AcDbEntity
  8
M0
 62
     1
100
AcDbCircle
 10
172.76306
 20
382.315286
 40
2.75
100
AcDbArc
 50
137.622878
 51
245.572882
  0
LINE
  5
4DD
100
AcDbEntity
  8
M0
  6
DASHDOT
 62
     1
100
AcDbLine
 10
137.86306
 20
370.315286
 11
137.86306
 21
371.315286
  0
CIRCLE
  5
4DE
100
AcDbEntity
  8
M0
 62
     1
100
AcDbCircle
 10
137.86306
 20
370.815286
 40
4.499996
  0
LINE
  5
4DF
100
AcDbEntity
  8
M0
  6
DASHDOT
 62
     1
100
AcDbLine
 10
137.36306
 20
370.815286
 11
138.36306
 21
370.815286
  0
LINE
  5
4E0
100
AcDbEntity
  8
M0
 62
     1
100
AcDbLine
 10
138.329964
 20
372.696421
 11
135.981987
 21
370.348429
  0
LINE
  5
4E1
100
AcDbEntity
  8
M0
 62
     1
100
AcDbLine
 10
139.744164
 20
371.282205
 11
137.396187
 21
368.934213
  0
LINE
  5
4E2
100
AcDbEntity
  8
M0
 62
     1
100
AcDbLine
 10
135.794106
 20
372.884195
 11
140.057076
 21
368.621256
  0
ARC
  5
4E3
100
AcDbEntity
  8
M0
 62
     1
100
AcDbCircle
 10
150.76306
 20
383.815286
 40
2.0
100
AcDbArc
 50
90.0
 51
180.0
  0
ARC
  5
4E4
100
AcDbEntity
  8
M0
 62
     1
100
AcDbCircle
 10
144.76306
 20
382.346199
 40
4.0
100
AcDbArc
 50
-31.574191
 51
0.0
  0
LINE
  5
4E5
100
AcDbEntity
  8
M0
 62
     1
100
AcDbLine
 10
143.455209
 20
372.578782
 11
148.170912
 21
380.251791
  0
LINE
  5
4E6
100
AcDbEntity
  8
M0
 62
     1
100
AcDbLine
 10
148.76306
 20
383.815286
 11
148.76306
 21
382.346199
  0
LINE
  5
4E7
100
AcDbEntity
  8
M0
 62
     1
100
AcDbLine
 10
150.76306
 20
385.815286
 11
151.598476
 21
385.815286
  0
LINE
  5
4E8
100
AcDbEntity
  8
M0
 62
     1
100
AcDbLine
 10
141.86306
 20
364.815286
 11
133.86306
 21
364.815286
  0
LINE
  5
4E9
100
AcDbEntity
  8
M0
 62
     1
100
AcDbLine
 10
142.86306
 20
365.815286
 11
142.86306
 21
370.484374
  0
LINE
  5
4EA
100
AcDbEntity
  8
M0
 62
     1
100
AcDbLine
 10
150.76306
 20
396.115286
 11
142.76306
 21
396.115286
  0
LINE
  5
4EB
100
AcDbEntity
  8
M0
 62
     1
100
AcDbLine
 10
132.86306
 20
365.815286
 11
132.86306
 21
371.172429
  0
ARC
  5
4EC
100
AcDbEntity
  8
M0
 62
     1
100
AcDbCircle
 10
144.06306
 20
387.115286
 40
2.5
100
AcDbArc
 50
156.926082
 51
203.073918
  0
ARC
  5
4ED
100
AcDbEntity
  8
M0
 62
     1
100
AcDbCircle
 10
144.06306
 20
394.115286
 40
2.5
100
AcDbArc
 50
156.926082
 51
203.073918
  0
ARC
  5
4EE
100
AcDbEntity
  8
M0
 62
     1
100
AcDbCircle
 10
149.46306
 20
387.115286
 40
2.5
100
AcDbArc
 50
328.667749
 51
383.073918
  0
ARC
  5
4EF
100
AcDbEntity
  8
M0
 62
     1
100
AcDbCircle
 10
149.46306
 20
394.115286
 40
2.5
100
AcDbArc
 50
336.926082
 51
383.073918
  0
LINE
  5
4F0
100
AcDbEntity
  8
M0
 62
     1
100
AcDbLine
 10
141.76306
 20
388.095082
 11
141.76306
 21
393.135491
  0
LINE
  5
4F1
100
AcDbEntity
  8
M0
 62
     1
100
AcDbLine
 10
141.76306
 20
395.095082
 11
141.76306
 21
395.115286
  0
LINE
  5
4F2
100
AcDbEntity
  8
M0
 62
     1
100
AcDbLine
 10
151.76306
 20
388.095082
 11
151.76306
 21
393.135491
  0
LINE
  5
4F3
100
AcDbEntity
  8
M0
 62
     1
100
AcDbLine
 10
151.76306
 20
395.095082
 11
151.76306
 21
395.115286
  0
LINE
  5
4F4
100
AcDbEntity
  8
M0
 62
     1
100
AcDbLine
 10
141.76306
 20
386.135491
 11
141.76306
 21
380.815286
  0
ARC
  5
4F5
100
AcDbEntity
  8
M0
 62
     1
100
AcDbCircle
 10
137.76306
 20
380.815286
 40
4.0
100
AcDbArc
 50
-90.0
 51
8.14222E-013
  0
ARC
  5
4F6
100
AcDbEntity
  8
M0
 62
     1
100
AcDbCircle
 10
142.76306
 20
395.115286
 40
1.0
100
AcDbArc
 50
90.0
 51
180.0
  0
ARC
  5
4F7
100
AcDbEntity
  8
M0
 62
     1
100
AcDbCircle
 10
150.76306
 20
395.115286
 40
1.0
100
AcDbArc
 50
-3.240075E-012
 51
90.0
  0
ARC
  5
4F8
100
AcDbEntity
  8
M0
 62
     1
100
AcDbCircle
 10
133.86306
 20
365.815286
 40
1.0
100
AcDbArc
 50
180.0
 51
270.0
  0
ARC
  5
4F9
100
AcDbEntity
  8
M0
 62
     1
100
AcDbCircle
 10
141.86306
 20
365.815286
 40
1.0
100
AcDbArc
 50
-90.0
 51
0.0
  0
ARC
  5
4FA
100
AcDbEntity
  8
M0
 62
     1
100
AcDbCircle
 10
136.218616
 20
375.815286
 40
1.0
100
AcDbArc
 50
90.0
 51
148.109208
  0
ARC
  5
4FB
100
AcDbEntity
  8
M0
 62
     1
100
AcDbCircle
 10
136.86306
 20
371.172429
 40
4.0
100
AcDbArc
 50
148.109208
 51
180.0
  0
LINE
  5
4FC
100
AcDbEntity
  8
M0
 62
     1
100
AcDbLine
 10
137.76306
 20
376.815286
 11
136.218616
 21
376.815286
  0
LINE
  5
4FD
100
AcDbEntity
  8
M0
 62
     1
100
AcDbLine
 10
133.466834
 20
373.285637
 11
135.369559
 21
376.343588
  0
ARC
  5
4FE
100
AcDbEntity
  8
M0
 62
     1
100
AcDbCircle
 10
146.86306
 20
370.484374
 40
4.0
100
AcDbArc
 50
148.425809
 51
180.0
  0
LINE
  5
4FF
100
AcDbEntity
  8
M0
  6
DASHDOT
 62
     1
100
AcDbLine
 10
159.763057
 20
370.315286
 11
159.763057
 21
371.315286
  0
CIRCLE
  5
500
100
AcDbEntity
  8
M0
 62
     1
100
AcDbCircle
 10
159.763057
 20
370.815286
 40
4.499996
  0
LINE
  5
501
100
AcDbEntity
  8
M0
  6
DASHDOT
 62
     1
100
AcDbLine
 10
159.263057
 20
370.815286
 11
160.263057
 21
370.815286
  0
LINE
  5
502
100
AcDbEntity
  8
M0
 62
     1
100
AcDbLine
 10
160.22996
 20
372.696421
 11
157.881984
 21
370.348429
  0
LINE
  5
503
100
AcDbEntity
  8
M0
 62
     1
100
AcDbLine
 10
161.64416
 20
371.282205
 11
159.296184
 21
368.934213
  0
LINE
  5
504
100
AcDbEntity
  8
M0
 62
     1
100
AcDbLine
 10
157.694102
 20
372.884195
 11
161.957072
 21
368.621256
  0
LINE
  5
505
100
AcDbEntity
  8
M0
 62
     1
100
AcDbLine
 10
156.663057
 20
384.815286
 11
156.663057
 21
378.013112
  0
LINE
  5
506
100
AcDbEntity
  8
M0
 62
     1
100
AcDbLine
 10
162.863057
 20
384.815286
 11
162.863057
 21
378.013112
  0
LINE
  5
507
100
AcDbEntity
  8
M0
 62
     1
100
AcDbLine
 10
164.763057
 20
374.416011
 11
164.763057
 21
365.815286
  0
LINE
  5
508
100
AcDbEntity
  8
M0
 62
     1
100
AcDbLine
 10
163.688058
 20
375.946864
 11
164.488056
 21
375.104761
  0
LINE
  5
509
100
AcDbEntity
  8
M0
 62
     1
100
AcDbLine
 10
164.598472
 20
385.815286
 11
163.863057
 21
385.815286
  0
LINE
  5
50A
100
AcDbEntity
  8
M0
 62
     1
100
AcDbLine
 10
154.763057
 20
374.416011
 11
154.763057
 21
365.815286
  0
LINE
  5
50B
100
AcDbEntity
  8
M0
 62
     1
100
AcDbLine
 10
163.763057
 20
364.815286
 11
155.763057
 21
364.815286
  0
LINE
  5
50C
100
AcDbEntity
  8
M0
 62
     1
100
AcDbLine
 10
154.927641
 20
385.815286
 11
155.663057
 21
385.815286
  0
LINE
  5
50D
100
AcDbEntity
  8
M0
 62
     1
100
AcDbLine
 10
163.763057
 20
396.115286
 11
155.763057
 21
396.115286
  0
LINE
  5
50E
100
AcDbEntity
  8
M0
 62
     1
100
AcDbLine
 10
154.763057
 20
395.115286
 11
154.763057
 21
395.095082
  0
LINE
  5
50F
100
AcDbEntity
  8
M0
 62
     1
100
AcDbLine
 10
154.763057
 20
393.135491
 11
154.763057
 21
388.095082
  0
LINE
  5
510
100
AcDbEntity
  8
M0
 62
     1
100
AcDbLine
 10
164.763057
 20
393.135491
 11
164.763057
 21
388.095082
  0
LINE
  5
511
100
AcDbEntity
  8
M0
 62
     1
100
AcDbLine
 10
164.763057
 20
395.115286
 11
164.763057
 21
395.095082
  0
ARC
  5
512
100
AcDbEntity
  8
M0
 62
     1
100
AcDbCircle
 10
157.063057
 20
394.115286
 40
2.5
100
AcDbArc
 50
156.926082
 51
203.073918
  0
ARC
  5
513
100
AcDbEntity
  8
M0
 62
     1
100
AcDbCircle
 10
155.763057
 20
395.115286
 40
1.0
100
AcDbArc
 50
90.0
 51
180.0
  0
ARC
  5
514
100
AcDbEntity
  8
M0
 62
     1
100
AcDbCircle
 10
163.763057
 20
395.115286
 40
1.0
100
AcDbArc
 50
0.0
 51
90.0
  0
ARC
  5
515
100
AcDbEntity
  8
M0
 62
     1
100
AcDbCircle
 10
163.863057
 20
384.815286
 40
1.0
100
AcDbArc
 50
90.0
 51
180.0
  0
ARC
  5
516
100
AcDbEntity
  8
M0
 62
     1
100
AcDbCircle
 10
155.663057
 20
384.815286
 40
1.0
100
AcDbArc
 50
0.0
 51
90.0
  0
ARC
  5
517
100
AcDbEntity
  8
M0
 62
     1
100
AcDbCircle
 10
157.063057
 20
387.115286
 40
2.5
100
AcDbArc
 50
156.926082
 51
211.332251
  0
ARC
  5
518
100
AcDbEntity
  8
M0
 62
     1
100
AcDbCircle
 10
162.463057
 20
387.115286
 40
2.5
100
AcDbArc
 50
328.667749
 51
383.073918
  0
ARC
  5
519
100
AcDbEntity
  8
M0
 62
     1
100
AcDbCircle
 10
162.463057
 20
394.115286
 40
2.5
100
AcDbArc
 50
336.926082
 51
383.073918
  0
ARC
  5
51A
100
AcDbEntity
  8
M0
 62
     1
100
AcDbCircle
 10
155.763057
 20
365.815286
 40
1.0
100
AcDbArc
 50
180.0
 51
270.0
  0
ARC
  5
51B
100
AcDbEntity
  8
M0
 62
     1
100
AcDbCircle
 10
155.763057
 20
374.416011
 40
1.0
100
AcDbArc
 50
136.468801
 51
180.0
  0
ARC
  5
51C
100
AcDbEntity
  8
M0
 62
     1
100
AcDbCircle
 10
163.763057
 20
365.815286
 40
1.0
100
AcDbArc
 50
-90.0
 51
0.0
  0
ARC
  5
51D
100
AcDbEntity
  8
M0
 62
     1
100
AcDbCircle
 10
163.763057
 20
374.416011
 40
1.0
100
AcDbArc
 50
0.0
 51
43.531199
  0
ARC
  5
51E
100
AcDbEntity
  8
M0
 62
     1
100
AcDbCircle
 10
153.663057
 20
378.013112
 40
3.0
100
AcDbArc
 50
-43.531199
 51
0.0
  0
ARC
  5
51F
100
AcDbEntity
  8
M0
 62
     1
100
AcDbCircle
 10
165.863057
 20
378.013112
 40
3.0
100
AcDbArc
 50
180.0
 51
223.531199
  0
LINE
  5
520
100
AcDbEntity
  8
M0
 62
     1
100
AcDbLine
 10
155.838055
 20
375.946864
 11
155.038057
 21
375.104761
  0
LINE
  5
521
100
AcDbEntity
  8
M0
  6
DASHDOT
 62
     1
100
AcDbLine
 10
137.86306
 20
458.315287
 11
137.86306
 21
459.315287
  0
CIRCLE
  5
522
100
AcDbEntity
  8
M0
 62
     1
100
AcDbCircle
 10
137.86306
 20
458.815287
 40
4.499996
  0
LINE
  5
523
100
AcDbEntity
  8
M0
  6
DASHDOT
 62
     1
100
AcDbLine
 10
137.36306
 20
458.815287
 11
138.36306
 21
458.815287
  0
LINE
  5
524
100
AcDbEntity
  8
M0
 62
     1
100
AcDbLine
 10
138.329964
 20
460.696421
 11
135.981987
 21
458.348429
  0
LINE
  5
525
100
AcDbEntity
  8
M0
 62
     1
100
AcDbLine
 10
139.744164
 20
459.282206
 11
137.396187
 21
456.934214
  0
LINE
  5
526
100
AcDbEntity
  8
M0
 62
     1
100
AcDbLine
 10
135.794106
 20
460.884196
 11
140.057076
 21
456.621256
  0
ARC
  5
527
100
AcDbEntity
  8
M0
 62
     1
100
AcDbCircle
 10
150.76306
 20
445.815287
 40
2.0
100
AcDbArc
 50
180.0
 51
270.0
  0
ARC
  5
528
100
AcDbEntity
  8
M0
 62
     1
100
AcDbCircle
 10
144.76306
 20
447.284374
 40
4.0
100
AcDbArc
 50
8.14222E-013
 51
31.574191
  0
LINE
  5
529
100
AcDbEntity
  8
M0
 62
     1
100
AcDbLine
 10
143.455209
 20
457.051791
 11
148.170912
 21
449.378783
  0
LINE
  5
52A
100
AcDbEntity
  8
M0
 62
     1
100
AcDbLine
 10
148.76306
 20
445.815287
 11
148.76306
 21
447.284374
  0
LINE
  5
52B
100
AcDbEntity
  8
M0
 62
     1
100
AcDbLine
 10
150.76306
 20
443.815287
 11
151.598476
 21
443.815287
  0
LINE
  5
52C
100
AcDbEntity
  8
M0
 62
     1
100
AcDbLine
 10
141.86306
 20
464.815287
 11
133.86306
 21
464.815287
  0
LINE
  5
52D
100
AcDbEntity
  8
M0
 62
     1
100
AcDbLine
 10
142.86306
 20
463.815287
 11
142.86306
 21
459.1462
  0
LINE
  5
52E
100
AcDbEntity
  8
M0
 62
     1
100
AcDbLine
 10
150.76306
 20
433.515287
 11
142.76306
 21
433.515287
  0
LINE
  5
52F
100
AcDbEntity
  8
M0
 62
     1
100
AcDbLine
 10
132.86306
 20
463.815287
 11
132.86306
 21
458.458144
  0
ARC
  5
530
100
AcDbEntity
  8
M0
 62
     1
100
AcDbCircle
 10
144.06306
 20
442.515287
 40
2.5
100
AcDbArc
 50
156.926082
 51
203.073918
  0
ARC
  5
531
100
AcDbEntity
  8
M0
 62
     1
100
AcDbCircle
 10
144.06306
 20
435.515287
 40
2.5
100
AcDbArc
 50
156.926082
 51
203.073918
  0
ARC
  5
532
100
AcDbEntity
  8
M0
 62
     1
100
AcDbCircle
 10
149.46306
 20
442.515287
 40
2.5
100
AcDbArc
 50
-23.073918
 51
31.332251
  0
ARC
  5
533
100
AcDbEntity
  8
M0
 62
     1
100
AcDbCircle
 10
149.46306
 20
435.515287
 40
2.5
100
AcDbArc
 50
-23.073918
 51
23.073918
  0
LINE
  5
534
100
AcDbEntity
  8
M0
 62
     1
100
AcDbLine
 10
141.76306
 20
441.535491
 11
141.76306
 21
436.495083
  0
LINE
  5
535
100
AcDbEntity
  8
M0
 62
     1
100
AcDbLine
 10
141.76306
 20
434.535491
 11
141.76306
 21
434.515287
  0
LINE
  5
536
100
AcDbEntity
  8
M0
 62
     1
100
AcDbLine
 10
151.76306
 20
441.535491
 11
151.76306
 21
436.495083
  0
LINE
  5
537
100
AcDbEntity
  8
M0
 62
     1
100
AcDbLine
 10
151.76306
 20
434.535491
 11
151.76306
 21
434.515287
  0
LINE
  5
538
100
AcDbEntity
  8
M0
 62
     1
100
AcDbLine
 10
141.76306
 20
443.495083
 11
141.76306
 21
448.815287
  0
ARC
  5
539
100
AcDbEntity
  8
M0
 62
     1
100
AcDbCircle
 10
137.76306
 20
448.815287
 40
4.0
100
AcDbArc
 50
0.0
 51
90.0
  0
ARC
  5
53A
100
AcDbEntity
  8
M0
 62
     1
100
AcDbCircle
 10
142.76306
 20
434.515287
 40
1.0
100
AcDbArc
 50
180.0
 51
270.0
  0
ARC
  5
53B
100
AcDbEntity
  8
M0
 62
     1
100
AcDbCircle
 10
150.76306
 20
434.515287
 40
1.0
100
AcDbArc
 50
270.0
 51
360.0
  0
ARC
  5
53C
100
AcDbEntity
  8
M0
 62
     1
100
AcDbCircle
 10
133.86306
 20
463.815287
 40
1.0
100
AcDbArc
 50
90.0
 51
180.0
  0
ARC
  5
53D
100
AcDbEntity
  8
M0
 62
     1
100
AcDbCircle
 10
141.86306
 20
463.815287
 40
1.0
100
AcDbArc
 50
0.0
 51
90.0
  0
ARC
  5
53E
100
AcDbEntity
  8
M0
 62
     1
100
AcDbCircle
 10
136.218616
 20
453.815287
 40
1.0
100
AcDbArc
 50
211.890792
 51
270.0
  0
ARC
  5
53F
100
AcDbEntity
  8
M0
 62
     1
100
AcDbCircle
 10
136.86306
 20
458.458144
 40
4.0
100
AcDbArc
 50
180.0
 51
211.890792
  0
LINE
  5
540
100
AcDbEntity
  8
M0
 62
     1
100
AcDbLine
 10
137.76306
 20
452.815287
 11
136.218616
 21
452.815287
  0
LINE
  5
541
100
AcDbEntity
  8
M0
 62
     1
100
AcDbLine
 10
133.466834
 20
456.344936
 11
135.369559
 21
453.286985
  0
ARC
  5
542
100
AcDbEntity
  8
M0
 62
     1
100
AcDbCircle
 10
146.86306
 20
459.1462
 40
4.0
100
AcDbArc
 50
180.0
 51
211.574191
  0
LINE
  5
543
100
AcDbEntity
  8
M0
 62
     1
100
AcDbLine
 10
156.663057
 20
444.815287
 11
156.663057
 21
451.617461
  0
LINE
  5
544
100
AcDbEntity
  8
M0
 62
     1
100
AcDbLine
 10
162.863057
 20
444.815287
 11
162.863057
 21
451.617461
  0
LINE
  5
545
100
AcDbEntity
  8
M0
 62
     1
100
AcDbLine
 10
164.763057
 20
455.214562
 11
164.763057
 21
463.815287
  0
LINE
  5
546
100
AcDbEntity
  8
M0
 62
     1
100
AcDbLine
 10
163.688058
 20
453.68371
 11
164.488056
 21
454.525813
  0
LINE
  5
547
100
AcDbEntity
  8
M0
 62
     1
100
AcDbLine
 10
164.598472
 20
443.815287
 11
163.863057
 21
443.815287
  0
LINE
  5
548
100
AcDbEntity
  8
M0
 62
     1
100
AcDbLine
 10
154.763057
 20
455.214562
 11
154.763057
 21
463.815287
  0
LINE
  5
549
100
AcDbEntity
  8
M0
 62
     1
100
AcDbLine
 10
163.763057
 20
464.815287
 11
155.763057
 21
464.815287
  0
LINE
  5
54A
100
AcDbEntity
  8
M0
 62
     1
100
AcDbLine
 10
154.927641
 20
443.815287
 11
155.663057
 21
443.815287
  0
LINE
  5
54B
100
AcDbEntity
  8
M0
 62
     1
100
AcDbLine
 10
163.763057
 20
433.515287
 11
155.763057
 21
433.515287
  0
LINE
  5
54C
100
AcDbEntity
  8
M0
 62
     1
100
AcDbLine
 10
154.763057
 20
434.515287
 11
154.763057
 21
434.535491
  0
LINE
  5
54D
100
AcDbEntity
  8
M0
 62
     1
100
AcDbLine
 10
154.763057
 20
436.495083
 11
154.763057
 21
441.535491
  0
LINE
  5
54E
100
AcDbEntity
  8
M0
 62
     1
100
AcDbLine
 10
164.763057
 20
436.495083
 11
164.763057
 21
441.535491
  0
LINE
  5
54F
100
AcDbEntity
  8
M0
 62
     1
100
AcDbLine
 10
164.763057
 20
434.515287
 11
164.763057
 21
434.535491
  0
ARC
  5
550
100
AcDbEntity
  8
M0
 62
     1
100
AcDbCircle
 10
157.063057
 20
435.515287
 40
2.5
100
AcDbArc
 50
156.926082
 51
203.073918
  0
ARC
  5
551
100
AcDbEntity
  8
M0
 62
     1
100
AcDbCircle
 10
155.763057
 20
434.515287
 40
1.0
100
AcDbArc
 50
180.0
 51
270.0
  0
ARC
  5
552
100
AcDbEntity
  8
M0
 62
     1
100
AcDbCircle
 10
163.763057
 20
434.515287
 40
1.0
100
AcDbArc
 50
270.0
 51
360.0
  0
ARC
  5
553
100
AcDbEntity
  8
M0
 62
     1
100
AcDbCircle
 10
163.863057
 20
444.815287
 40
1.0
100
AcDbArc
 50
180.0
 51
270.0
  0
ARC
  5
554
100
AcDbEntity
  8
M0
 62
     1
100
AcDbCircle
 10
155.663057
 20
444.815287
 40
1.0
100
AcDbArc
 50
270.0
 51
360.0
  0
ARC
  5
555
100
AcDbEntity
  8
M0
 62
     1
100
AcDbCircle
 10
157.063057
 20
442.515287
 40
2.5
100
AcDbArc
 50
148.667749
 51
203.073918
  0
ARC
  5
556
100
AcDbEntity
  8
M0
 62
     1
100
AcDbCircle
 10
162.463057
 20
442.515287
 40
2.5
100
AcDbArc
 50
-23.073918
 51
31.332251
  0
ARC
  5
557
100
AcDbEntity
  8
M0
 62
     1
100
AcDbCircle
 10
162.463057
 20
435.515287
 40
2.5
100
AcDbArc
 50
-23.073918
 51
23.073918
  0
ARC
  5
558
100
AcDbEntity
  8
M0
 62
     1
100
AcDbCircle
 10
155.763057
 20
463.815287
 40
1.0
100
AcDbArc
 50
90.0
 51
180.0
  0
ARC
  5
559
100
AcDbEntity
  8
M0
 62
     1
100
AcDbCircle
 10
155.763057
 20
455.214562
 40
1.0
100
AcDbArc
 50
180.0
 51
223.531199
  0
ARC
  5
55A
100
AcDbEntity
  8
M0
 62
     1
100
AcDbCircle
 10
163.763057
 20
463.815287
 40
1.0
100
AcDbArc
 50
0.0
 51
90.0
  0
ARC
  5
55B
100
AcDbEntity
  8
M0
 62
     1
100
AcDbCircle
 10
163.763057
 20
455.214562
 40
1.0
100
AcDbArc
 50
316.468801
 51
360.0
  0
ARC
  5
55C
100
AcDbEntity
  8
M0
 62
     1
100
AcDbCircle
 10
153.663057
 20
451.617461
 40
3.0
100
AcDbArc
 50
0.0
 51
43.531199
  0
ARC
  5
55D
100
AcDbEntity
  8
M0
 62
     1
100
AcDbCircle
 10
165.863057
 20
451.617461
 40
3.0
100
AcDbArc
 50
136.468801
 51
180.0
  0
LINE
  5
55E
100
AcDbEntity
  8
M0
 62
     1
100
AcDbLine
 10
155.838055
 20
453.68371
 11
155.038057
 21
454.525813
  0
ARC
  5
55F
100
AcDbEntity
  8
M0
 62
     1
100
AcDbCircle
 10
168.76306
 20
445.815287
 40
2.0
100
AcDbArc
 50
-90.0
 51
0.0
  0
ARC
  5
560
100
AcDbEntity
  8
M0
 62
     1
100
AcDbCircle
 10
174.76306
 20
447.284374
 40
4.0
100
AcDbArc
 50
148.425809
 51
180.0
  0
LINE
  5
561
100
AcDbEntity
  8
M0
 62
     1
100
AcDbLine
 10
176.070911
 20
457.051791
 11
171.355208
 21
449.378783
  0
LINE
  5
562
100
AcDbEntity
  8
M0
 62
     1
100
AcDbLine
 10
170.76306
 20
445.815287
 11
170.76306
 21
447.284374
  0
LINE
  5
563
100
AcDbEntity
  8
M0
 62
     1
100
AcDbLine
 10
168.76306
 20
443.815287
 11
167.927644
 21
443.815287
  0
LINE
  5
564
100
AcDbEntity
  8
M0
 62
     1
100
AcDbLine
 10
177.66306
 20
464.815287
 11
185.66306
 21
464.815287
  0
LINE
  5
565
100
AcDbEntity
  8
M0
 62
     1
100
AcDbLine
 10
176.66306
 20
463.815287
 11
176.66306
 21
459.1462
  0
LINE
  5
566
100
AcDbEntity
  8
M0
 62
     1
100
AcDbLine
 10
168.76306
 20
433.515287
 11
176.76306
 21
433.515287
  0
LINE
  5
567
100
AcDbEntity
  8
M0
 62
     1
100
AcDbLine
 10
186.66306
 20
463.815287
 11
186.66306
 21
458.458144
  0
ARC
  5
568
100
AcDbEntity
  8
M0
 62
     1
100
AcDbCircle
 10
175.46306
 20
442.515287
 40
2.5
100
AcDbArc
 50
-23.073918
 51
23.073918
  0
ARC
  5
569
100
AcDbEntity
  8
M0
 62
     1
100
AcDbCircle
 10
175.46306
 20
435.515287
 40
2.5
100
AcDbArc
 50
-23.073918
 51
23.073918
  0
ARC
  5
56A
100
AcDbEntity
  8
M0
 62
     1
100
AcDbCircle
 10
170.06306
 20
442.515287
 40
2.5
100
AcDbArc
 50
148.667749
 51
203.073918
  0
ARC
  5
56B
100
AcDbEntity
  8
M0
 62
     1
100
AcDbCircle
 10
170.06306
 20
435.515287
 40
2.5
100
AcDbArc
 50
156.926082
 51
203.073918
  0
LINE
  5
56C
100
AcDbEntity
  8
M0
 62
     1
100
AcDbLine
 10
177.76306
 20
441.535491
 11
177.76306
 21
436.495083
  0
LINE
  5
56D
100
AcDbEntity
  8
M0
 62
     1
100
AcDbLine
 10
177.76306
 20
434.535491
 11
177.76306
 21
434.515287
  0
LINE
  5
56E
100
AcDbEntity
  8
M0
 62
     1
100
AcDbLine
 10
167.76306
 20
441.535491
 11
167.76306
 21
436.495083
  0
LINE
  5
56F
100
AcDbEntity
  8
M0
 62
     1
100
AcDbLine
 10
167.76306
 20
434.535491
 11
167.76306
 21
434.515287
  0
LINE
  5
570
100
AcDbEntity
  8
M0
 62
     1
100
AcDbLine
 10
177.76306
 20
443.495083
 11
177.76306
 21
448.815287
  0
ARC
  5
571
100
AcDbEntity
  8
M0
 62
     1
100
AcDbCircle
 10
181.76306
 20
448.815287
 40
4.0
100
AcDbArc
 50
90.0
 51
180.0
  0
ARC
  5
572
100
AcDbEntity
  8
M0
 62
     1
100
AcDbCircle
 10
176.76306
 20
434.515287
 40
1.0
100
AcDbArc
 50
-90.0
 51
0.0
  0
ARC
  5
573
100
AcDbEntity
  8
M0
 62
     1
100
AcDbCircle
 10
168.76306
 20
434.515287
 40
1.0
100
AcDbArc
 50
180.0
 51
270.0
  0
ARC
  5
574
100
AcDbEntity
  8
M0
 62
     1
100
AcDbCircle
 10
185.66306
 20
463.815287
 40
1.0
100
AcDbArc
 50
3.254286E-012
 51
90.0
  0
ARC
  5
575
100
AcDbEntity
  8
M0
 62
     1
100
AcDbCircle
 10
177.66306
 20
463.815287
 40
1.0
100
AcDbArc
 50
90.0
 51
180.0
  0
ARC
  5
576
100
AcDbEntity
  8
M0
 62
     1
100
AcDbCircle
 10
183.307504
 20
453.815287
 40
1.0
100
AcDbArc
 50
270.0
 51
328.109208
  0
ARC
  5
577
100
AcDbEntity
  8
M0
 62
     1
100
AcDbCircle
 10
182.66306
 20
458.458144
 40
4.0
100
AcDbArc
 50
-31.890792
 51
0.0
  0
LINE
  5
578
100
AcDbEntity
  8
M0
 62
     1
100
AcDbLine
 10
181.76306
 20
452.815287
 11
183.307504
 21
452.815287
  0
LINE
  5
579
100
AcDbEntity
  8
M0
 62
     1
100
AcDbLine
 10
186.059286
 20
456.344936
 11
184.156561
 21
453.286985
  0
ARC
  5
57A
100
AcDbEntity
  8
M0
 62
     1
100
AcDbCircle
 10
172.66306
 20
459.1462
 40
4.0
100
AcDbArc
 50
-31.574191
 51
0.0
  0
ARC
  5
57B
100
AcDbEntity
  8
M0
 62
     1
100
AcDbCircle
 10
168.76306
 20
383.815286
 40
2.0
100
AcDbArc
 50
1.628444E-012
 51
90.0
  0
ARC
  5
57C
100
AcDbEntity
  8
M0
 62
     1
100
AcDbCircle
 10
174.76306
 20
382.346199
 40
4.0
100
AcDbArc
 50
180.0
 51
211.574191
  0
LINE
  5
57D
100
AcDbEntity
  8
M0
 62
     1
100
AcDbLine
 10
176.070911
 20
372.578782
 11
171.355208
 21
380.251791
  0
LINE
  5
57E
100
AcDbEntity
  8
M0
 62
     1
100
AcDbLine
 10
170.76306
 20
383.815286
 11
170.76306
 21
382.346199
  0
LINE
  5
57F
100
AcDbEntity
  8
M0
 62
     1
100
AcDbLine
 10
168.76306
 20
385.815286
 11
167.927644
 21
385.815286
  0
LINE
  5
580
100
AcDbEntity
  8
M0
 62
     1
100
AcDbLine
 10
177.66306
 20
364.815286
 11
185.66306
 21
364.815286
  0
LINE
  5
581
100
AcDbEntity
  8
M0
 62
     1
100
AcDbLine
 10
176.66306
 20
365.815286
 11
176.66306
 21
370.484374
  0
LINE
  5
582
100
AcDbEntity
  8
M0
 62
     1
100
AcDbLine
 10
168.76306
 20
396.115286
 11
176.76306
 21
396.115286
  0
LINE
  5
583
100
AcDbEntity
  8
M0
 62
     1
100
AcDbLine
 10
186.66306
 20
365.815286
 11
186.66306
 21
371.172429
  0
ARC
  5
584
100
AcDbEntity
  8
M0
 62
     1
100
AcDbCircle
 10
175.46306
 20
387.115286
 40
2.5
100
AcDbArc
 50
336.926082
 51
383.073918
  0
ARC
  5
585
100
AcDbEntity
  8
M0
 62
     1
100
AcDbCircle
 10
175.46306
 20
394.115286
 40
2.5
100
AcDbArc
 50
336.926082
 51
383.073918
  0
ARC
  5
586
100
AcDbEntity
  8
M0
 62
     1
100
AcDbCircle
 10
170.06306
 20
387.115286
 40
2.5
100
AcDbArc
 50
156.926082
 51
211.332251
  0
ARC
  5
587
100
AcDbEntity
  8
M0
 62
     1
100
AcDbCircle
 10
170.06306
 20
394.115286
 40
2.5
100
AcDbArc
 50
156.926082
 51
203.073918
  0
LINE
  5
588
100
AcDbEntity
  8
M0
 62
     1
100
AcDbLine
 10
177.76306
 20
388.095082
 11
177.76306
 21
393.135491
  0
LINE
  5
589
100
AcDbEntity
  8
M0
 62
     1
100
AcDbLine
 10
177.76306
 20
395.095082
 11
177.76306
 21
395.115286
  0
LINE
  5
58A
100
AcDbEntity
  8
M0
 62
     1
100
AcDbLine
 10
167.76306
 20
388.095082
 11
167.76306
 21
393.135491
  0
LINE
  5
58B
100
AcDbEntity
  8
M0
 62
     1
100
AcDbLine
 10
167.76306
 20
395.095082
 11
167.76306
 21
395.115286
  0
LINE
  5
58C
100
AcDbEntity
  8
M0
 62
     1
100
AcDbLine
 10
177.76306
 20
386.135491
 11
177.76306
 21
380.815286
  0
ARC
  5
58D
100
AcDbEntity
  8
M0
 62
     1
100
AcDbCircle
 10
181.76306
 20
380.815286
 40
4.0
100
AcDbArc
 50
180.0
 51
270.0
  0
ARC
  5
58E
100
AcDbEntity
  8
M0
 62
     1
100
AcDbCircle
 10
176.76306
 20
395.115286
 40
1.0
100
AcDbArc
 50
0.0
 51
90.0
  0
ARC
  5
58F
100
AcDbEntity
  8
M0
 62
     1
100
AcDbCircle
 10
168.76306
 20
395.115286
 40
1.0
100
AcDbArc
 50
90.0
 51
180.0
  0
ARC
  5
590
100
AcDbEntity
  8
M0
 62
     1
100
AcDbCircle
 10
185.66306
 20
365.815286
 40
1.0
100
AcDbArc
 50
270.0
 51
360.0
  0
ARC
  5
591
100
AcDbEntity
  8
M0
 62
     1
100
AcDbCircle
 10
177.66306
 20
365.815286
 40
1.0
100
AcDbArc
 50
180.0
 51
270.0
  0
ARC
  5
592
100
AcDbEntity
  8
M0
 62
     1
100
AcDbCircle
 10
183.307504
 20
375.815286
 40
1.0
100
AcDbArc
 50
31.890792
 51
90.0
  0
ARC
  5
593
100
AcDbEntity
  8
M0
 62
     1
100
AcDbCircle
 10
182.66306
 20
371.172429
 40
4.0
100
AcDbArc
 50
0.0
 51
31.890792
  0
LINE
  5
594
100
AcDbEntity
  8
M0
 62
     1
100
AcDbLine
 10
181.76306
 20
376.815286
 11
183.307504
 21
376.815286
  0
LINE
  5
595
100
AcDbEntity
  8
M0
 62
     1
100
AcDbLine
 10
186.059286
 20
373.285637
 11
184.156561
 21
376.343588
  0
ARC
  5
596
100
AcDbEntity
  8
M0
 62
     1
100
AcDbCircle
 10
172.66306
 20
370.484374
 40
4.0
100
AcDbArc
 50
0.0
 51
31.574191
  0
LINE
  5
597
100
AcDbEntity
  8
M0
  6
DASHDOT
 62
     1
100
AcDbLine
 10
181.66306
 20
370.315286
 11
181.66306
 21
371.315286
  0
CIRCLE
  5
598
100
AcDbEntity
  8
M0
 62
     1
100
AcDbCircle
 10
181.66306
 20
370.815286
 40
4.499996
  0
LINE
  5
599
100
AcDbEntity
  8
M0
  6
DASHDOT
 62
     1
100
AcDbLine
 10
181.16306
 20
370.815286
 11
182.16306
 21
370.815286
  0
LINE
  5
59A
100
AcDbEntity
  8
M0
 62
     1
100
AcDbLine
 10
182.129964
 20
372.696421
 11
179.781987
 21
370.348429
  0
LINE
  5
59B
100
AcDbEntity
  8
M0
 62
     1
100
AcDbLine
 10
183.544163
 20
371.282205
 11
181.196187
 21
368.934213
  0
LINE
  5
59C
100
AcDbEntity
  8
M0
 62
     1
100
AcDbLine
 10
179.594105
 20
372.884195
 11
183.857075
 21
368.621256
  0
LINE
  5
59D
100
AcDbEntity
  8
M0
  6
DASHDOT
 62
     1
100
AcDbLine
 10
181.66306
 20
458.315287
 11
181.66306
 21
459.315287
  0
CIRCLE
  5
59E
100
AcDbEntity
  8
M0
 62
     1
100
AcDbCircle
 10
181.66306
 20
458.815287
 40
4.499996
  0
LINE
  5
59F
100
AcDbEntity
  8
M0
  6
DASHDOT
 62
     1
100
AcDbLine
 10
181.16306
 20
458.815287
 11
182.16306
 21
458.815287
  0
LINE
  5
5A0
100
AcDbEntity
  8
M0
 62
     1
100
AcDbLine
 10
182.129964
 20
460.696421
 11
179.781987
 21
458.348429
  0
LINE
  5
5A1
100
AcDbEntity
  8
M0
 62
     1
100
AcDbLine
 10
183.544163
 20
459.282206
 11
181.196187
 21
456.934214
  0
LINE
  5
5A2
100
AcDbEntity
  8
M0
 62
     1
100
AcDbLine
 10
179.594105
 20
460.884196
 11
183.857075
 21
456.621256
  0
LINE
  5
5A3
100
AcDbEntity
  8
M0
  6
DASHDOT
 62
     1
100
AcDbLine
 10
159.763057
 20
458.315287
 11
159.763057
 21
459.315287
  0
CIRCLE
  5
5A4
100
AcDbEntity
  8
M0
 62
     1
100
AcDbCircle
 10
159.763057
 20
458.815287
 40
4.499996
  0
LINE
  5
5A5
100
AcDbEntity
  8
M0
  6
DASHDOT
 62
     1
100
AcDbLine
 10
159.263057
 20
458.815287
 11
160.263057
 21
458.815287
  0
LINE
  5
5A6
100
AcDbEntity
  8
M0
 62
     1
100
AcDbLine
 10
160.22996
 20
460.696421
 11
157.881984
 21
458.348429
  0
LINE
  5
5A7
100
AcDbEntity
  8
M0
 62
     1
100
AcDbLine
 10
161.64416
 20
459.282206
 11
159.296184
 21
456.934214
  0
LINE
  5
5A8
100
AcDbEntity
  8
M0
 62
     1
100
AcDbLine
 10
157.694102
 20
460.884196
 11
161.957072
 21
456.621256
  0
LINE
  5
5A9
100
AcDbEntity
  8
M0
  6
DASHDOT
 62
     1
100
AcDbLine
 10
65.063064
 20
370.315286
 11
65.063064
 21
371.315286
  0
CIRCLE
  5
5AA
100
AcDbEntity
  8
M0
 62
     1
100
AcDbCircle
 10
65.063064
 20
370.815286
 40
4.499996
  0
LINE
  5
5AB
100
AcDbEntity
  8
M0
  6
DASHDOT
 62
     1
100
AcDbLine
 10
64.563064
 20
370.815286
 11
65.563064
 21
370.815286
  0
LINE
  5
5AC
100
AcDbEntity
  8
M0
 62
     1
100
AcDbLine
 10
65.529967
 20
372.696421
 11
63.181991
 21
370.348429
  0
LINE
  5
5AD
100
AcDbEntity
  8
M0
 62
     1
100
AcDbLine
 10
66.944167
 20
371.282205
 11
64.596191
 21
368.934213
  0
LINE
  5
5AE
100
AcDbEntity
  8
M0
 62
     1
100
AcDbLine
 10
62.994109
 20
372.884195
 11
67.257079
 21
368.621256
  0
ARC
  5
5AF
100
AcDbEntity
  8
M0
 62
     1
100
AcDbCircle
 10
77.963064
 20
383.815286
 40
2.0
100
AcDbArc
 50
90.0
 51
180.0
  0
ARC
  5
5B0
100
AcDbEntity
  8
M0
 62
     1
100
AcDbCircle
 10
71.963064
 20
382.346199
 40
4.0
100
AcDbArc
 50
-31.574191
 51
0.0
  0
LINE
  5
5B1
100
AcDbEntity
  8
M0
 62
     1
100
AcDbLine
 10
70.655212
 20
372.578782
 11
75.370915
 21
380.251791
  0
LINE
  5
5B2
100
AcDbEntity
  8
M0
 62
     1
100
AcDbLine
 10
75.963064
 20
383.815286
 11
75.963064
 21
382.346199
  0
LINE
  5
5B3
100
AcDbEntity
  8
M0
 62
     1
100
AcDbLine
 10
77.963064
 20
385.815286
 11
78.798479
 21
385.815286
  0
LINE
  5
5B4
100
AcDbEntity
  8
M0
 62
     1
100
AcDbLine
 10
69.063064
 20
364.815286
 11
61.063064
 21
364.815286
  0
LINE
  5
5B5
100
AcDbEntity
  8
M0
 62
     1
100
AcDbLine
 10
70.063064
 20
365.815286
 11
70.063064
 21
370.484374
  0
LINE
  5
5B6
100
AcDbEntity
  8
M0
 62
     1
100
AcDbLine
 10
77.963064
 20
396.115286
 11
69.963064
 21
396.115286
  0
LINE
  5
5B7
100
AcDbEntity
  8
M0
 62
     1
100
AcDbLine
 10
60.063064
 20
365.815286
 11
60.063064
 21
371.172429
  0
ARC
  5
5B8
100
AcDbEntity
  8
M0
 62
     1
100
AcDbCircle
 10
71.263064
 20
387.115286
 40
2.5
100
AcDbArc
 50
156.926082
 51
203.073918
  0
ARC
  5
5B9
100
AcDbEntity
  8
M0
 62
     1
100
AcDbCircle
 10
71.263064
 20
394.115286
 40
2.5
100
AcDbArc
 50
156.926082
 51
203.073918
  0
ARC
  5
5BA
100
AcDbEntity
  8
M0
 62
     1
100
AcDbCircle
 10
76.663064
 20
387.115286
 40
2.5
100
AcDbArc
 50
328.667749
 51
383.073918
  0
ARC
  5
5BB
100
AcDbEntity
  8
M0
 62
     1
100
AcDbCircle
 10
76.663064
 20
394.115286
 40
2.5
100
AcDbArc
 50
336.926082
 51
383.073918
  0
LINE
  5
5BC
100
AcDbEntity
  8
M0
 62
     1
100
AcDbLine
 10
68.963064
 20
388.095082
 11
68.963064
 21
393.135491
  0
LINE
  5
5BD
100
AcDbEntity
  8
M0
 62
     1
100
AcDbLine
 10
68.963064
 20
395.095082
 11
68.963064
 21
395.115286
  0
LINE
  5
5BE
100
AcDbEntity
  8
M0
 62
     1
100
AcDbLine
 10
78.963064
 20
388.095082
 11
78.963064
 21
393.135491
  0
LINE
  5
5BF
100
AcDbEntity
  8
M0
 62
     1
100
AcDbLine
 10
78.963064
 20
395.095082
 11
78.963064
 21
395.115286
  0
LINE
  5
5C0
100
AcDbEntity
  8
M0
 62
     1
100
AcDbLine
 10
68.963064
 20
386.135491
 11
68.963064
 21
380.815286
  0
ARC
  5
5C1
100
AcDbEntity
  8
M0
 62
     1
100
AcDbCircle
 10
64.963064
 20
380.815286
 40
4.0
100
AcDbArc
 50
-90.0
 51
8.14222E-013
  0
ARC
  5
5C2
100
AcDbEntity
  8
M0
 62
     1
100
AcDbCircle
 10
69.963064
 20
395.115286
 40
1.0
100
AcDbArc
 50
90.0
 51
180.0
  0
ARC
  5
5C3
100
AcDbEntity
  8
M0
 62
     1
100
AcDbCircle
 10
77.963064
 20
395.115286
 40
1.0
100
AcDbArc
 50
0.0
 51
90.0
  0
ARC
  5
5C4
100
AcDbEntity
  8
M0
 62
     1
100
AcDbCircle
 10
61.063064
 20
365.815286
 40
1.0
100
AcDbArc
 50
180.0
 51
270.0
  0
ARC
  5
5C5
100
AcDbEntity
  8
M0
 62
     1
100
AcDbCircle
 10
69.063064
 20
365.815286
 40
1.0
100
AcDbArc
 50
-90.0
 51
0.0
  0
ARC
  5
5C6
100
AcDbEntity
  8
M0
 62
     1
100
AcDbCircle
 10
63.418619
 20
375.815286
 40
1.0
100
AcDbArc
 50
90.0
 51
148.109208
  0
ARC
  5
5C7
100
AcDbEntity
  8
M0
 62
     1
100
AcDbCircle
 10
64.063064
 20
371.172429
 40
4.0
100
AcDbArc
 50
148.109208
 51
180.0
  0
LINE
  5
5C8
100
AcDbEntity
  8
M0
 62
     1
100
AcDbLine
 10
64.963064
 20
376.815286
 11
63.418619
 21
376.815286
  0
LINE
  5
5C9
100
AcDbEntity
  8
M0
 62
     1
100
AcDbLine
 10
60.666837
 20
373.285637
 11
62.569563
 21
376.343588
  0
ARC
  5
5CA
100
AcDbEntity
  8
M0
 62
     1
100
AcDbCircle
 10
74.063064
 20
370.484374
 40
4.0
100
AcDbArc
 50
148.425809
 51
180.0
  0
LINE
  5
5CB
100
AcDbEntity
  8
M0
 62
     1
100
AcDbLine
 10
83.86306
 20
384.815286
 11
83.86306
 21
378.013112
  0
LINE
  5
5CC
100
AcDbEntity
  8
M0
 62
     1
100
AcDbLine
 10
90.06306
 20
384.815286
 11
90.06306
 21
378.013112
  0
LINE
  5
5CD
100
AcDbEntity
  8
M0
 62
     1
100
AcDbLine
 10
91.96306
 20
374.416011
 11
91.96306
 21
365.815286
  0
LINE
  5
5CE
100
AcDbEntity
  8
M0
 62
     1
100
AcDbLine
 10
90.888062
 20
375.946864
 11
91.68806
 21
375.104761
  0
LINE
  5
5CF
100
AcDbEntity
  8
M0
 62
     1
100
AcDbLine
 10
91.798476
 20
385.815286
 11
91.06306
 21
385.815286
  0
LINE
  5
5D0
100
AcDbEntity
  8
M0
 62
     1
100
AcDbLine
 10
81.96306
 20
374.416011
 11
81.96306
 21
365.815286
  0
LINE
  5
5D1
100
AcDbEntity
  8
M0
 62
     1
100
AcDbLine
 10
90.96306
 20
364.815286
 11
82.96306
 21
364.815286
  0
LINE
  5
5D2
100
AcDbEntity
  8
M0
 62
     1
100
AcDbLine
 10
82.127645
 20
385.815286
 11
82.86306
 21
385.815286
  0
LINE
  5
5D3
100
AcDbEntity
  8
M0
 62
     1
100
AcDbLine
 10
90.96306
 20
396.115286
 11
82.96306
 21
396.115286
  0
LINE
  5
5D4
100
AcDbEntity
  8
M0
 62
     1
100
AcDbLine
 10
81.96306
 20
395.115286
 11
81.96306
 21
395.095082
  0
LINE
  5
5D5
100
AcDbEntity
  8
M0
 62
     1
100
AcDbLine
 10
81.96306
 20
393.135491
 11
81.96306
 21
388.095082
  0
LINE
  5
5D6
100
AcDbEntity
  8
M0
 62
     1
100
AcDbLine
 10
91.96306
 20
393.135491
 11
91.96306
 21
388.095082
  0
LINE
  5
5D7
100
AcDbEntity
  8
M0
 62
     1
100
AcDbLine
 10
91.96306
 20
395.115286
 11
91.96306
 21
395.095082
  0
ARC
  5
5D8
100
AcDbEntity
  8
M0
 62
     1
100
AcDbCircle
 10
84.26306
 20
394.115286
 40
2.5
100
AcDbArc
 50
156.926082
 51
203.073918
  0
ARC
  5
5D9
100
AcDbEntity
  8
M0
 62
     1
100
AcDbCircle
 10
82.96306
 20
395.115286
 40
1.0
100
AcDbArc
 50
90.0
 51
180.0
  0
ARC
  5
5DA
100
AcDbEntity
  8
M0
 62
     1
100
AcDbCircle
 10
90.96306
 20
395.115286
 40
1.0
100
AcDbArc
 50
0.0
 51
90.0
  0
ARC
  5
5DB
100
AcDbEntity
  8
M0
 62
     1
100
AcDbCircle
 10
91.06306
 20
384.815286
 40
1.0
100
AcDbArc
 50
90.0
 51
180.0
  0
ARC
  5
5DC
100
AcDbEntity
  8
M0
 62
     1
100
AcDbCircle
 10
82.86306
 20
384.815286
 40
1.0
100
AcDbArc
 50
0.0
 51
90.0
  0
ARC
  5
5DD
100
AcDbEntity
  8
M0
 62
     1
100
AcDbCircle
 10
84.26306
 20
387.115286
 40
2.5
100
AcDbArc
 50
156.926082
 51
211.332251
  0
ARC
  5
5DE
100
AcDbEntity
  8
M0
 62
     1
100
AcDbCircle
 10
89.66306
 20
387.115286
 40
2.5
100
AcDbArc
 50
328.667749
 51
383.073918
  0
ARC
  5
5DF
100
AcDbEntity
  8
M0
 62
     1
100
AcDbCircle
 10
89.66306
 20
394.115286
 40
2.5
100
AcDbArc
 50
336.926082
 51
383.073918
  0
ARC
  5
5E0
100
AcDbEntity
  8
M0
 62
     1
100
AcDbCircle
 10
82.96306
 20
365.815286
 40
1.0
100
AcDbArc
 50
180.0
 51
270.0
  0
ARC
  5
5E1
100
AcDbEntity
  8
M0
 62
     1
100
AcDbCircle
 10
82.96306
 20
374.416011
 40
1.0
100
AcDbArc
 50
136.468801
 51
180.0
  0
ARC
  5
5E2
100
AcDbEntity
  8
M0
 62
     1
100
AcDbCircle
 10
90.96306
 20
365.815286
 40
1.0
100
AcDbArc
 50
-90.0
 51
0.0
  0
ARC
  5
5E3
100
AcDbEntity
  8
M0
 62
     1
100
AcDbCircle
 10
90.96306
 20
374.416011
 40
1.0
100
AcDbArc
 50
0.0
 51
43.531199
  0
ARC
  5
5E4
100
AcDbEntity
  8
M0
 62
     1
100
AcDbCircle
 10
80.86306
 20
378.013112
 40
3.0
100
AcDbArc
 50
-43.531199
 51
0.0
  0
ARC
  5
5E5
100
AcDbEntity
  8
M0
 62
     1
100
AcDbCircle
 10
93.06306
 20
378.013112
 40
3.0
100
AcDbArc
 50
180.0
 51
223.531199
  0
LINE
  5
5E6
100
AcDbEntity
  8
M0
 62
     1
100
AcDbLine
 10
83.038059
 20
375.946864
 11
82.238061
 21
375.104761
  0
LINE
  5
5E7
100
AcDbEntity
  8
M0
  6
DASHDOT
 62
     1
100
AcDbLine
 10
86.96306
 20
370.315286
 11
86.96306
 21
371.315286
  0
CIRCLE
  5
5E8
100
AcDbEntity
  8
M0
 62
     1
100
AcDbCircle
 10
86.96306
 20
370.815286
 40
4.499996
  0
LINE
  5
5E9
100
AcDbEntity
  8
M0
  6
DASHDOT
 62
     1
100
AcDbLine
 10
86.46306
 20
370.815286
 11
87.46306
 21
370.815286
  0
LINE
  5
5EA
100
AcDbEntity
  8
M0
 62
     1
100
AcDbLine
 10
87.429964
 20
372.696421
 11
85.081987
 21
370.348429
  0
LINE
  5
5EB
100
AcDbEntity
  8
M0
 62
     1
100
AcDbLine
 10
88.844164
 20
371.282205
 11
86.496187
 21
368.934213
  0
LINE
  5
5EC
100
AcDbEntity
  8
M0
 62
     1
100
AcDbLine
 10
84.894106
 20
372.884195
 11
89.157076
 21
368.621256
  0
LINE
  5
5ED
100
AcDbEntity
  8
M0
  6
DASHDOT
 62
     1
100
AcDbLine
 10
108.863063
 20
370.315286
 11
108.863063
 21
371.315286
  0
CIRCLE
  5
5EE
100
AcDbEntity
  8
M0
 62
     1
100
AcDbCircle
 10
108.863063
 20
370.815286
 40
4.499996
  0
LINE
  5
5EF
100
AcDbEntity
  8
M0
  6
DASHDOT
 62
     1
100
AcDbLine
 10
108.363063
 20
370.815286
 11
109.363063
 21
370.815286
  0
LINE
  5
5F0
100
AcDbEntity
  8
M0
 62
     1
100
AcDbLine
 10
109.329967
 20
372.696421
 11
106.98199
 21
370.348429
  0
LINE
  5
5F1
100
AcDbEntity
  8
M0
 62
     1
100
AcDbLine
 10
110.744167
 20
371.282205
 11
108.39619
 21
368.934213
  0
LINE
  5
5F2
100
AcDbEntity
  8
M0
 62
     1
100
AcDbLine
 10
106.794109
 20
372.884195
 11
111.057079
 21
368.621256
  0
ARC
  5
5F3
100
AcDbEntity
  8
M0
 62
     1
100
AcDbCircle
 10
95.963063
 20
383.815286
 40
2.0
100
AcDbArc
 50
1.628444E-012
 51
90.0
  0
ARC
  5
5F4
100
AcDbEntity
  8
M0
 62
     1
100
AcDbCircle
 10
101.963063
 20
382.346199
 40
4.0
100
AcDbArc
 50
180.0
 51
211.574191
  0
LINE
  5
5F5
100
AcDbEntity
  8
M0
 62
     1
100
AcDbLine
 10
103.270915
 20
372.578782
 11
98.555212
 21
380.251791
  0
LINE
  5
5F6
100
AcDbEntity
  8
M0
 62
     1
100
AcDbLine
 10
97.963063
 20
383.815286
 11
97.963063
 21
382.346199
  0
LINE
  5
5F7
100
AcDbEntity
  8
M0
 62
     1
100
AcDbLine
 10
95.963063
 20
385.815286
 11
95.127648
 21
385.815286
  0
LINE
  5
5F8
100
AcDbEntity
  8
M0
 62
     1
100
AcDbLine
 10
104.863063
 20
364.815286
 11
112.863063
 21
364.815286
  0
LINE
  5
5F9
100
AcDbEntity
  8
M0
 62
     1
100
AcDbLine
 10
103.863063
 20
365.815286
 11
103.863063
 21
370.484374
  0
LINE
  5
5FA
100
AcDbEntity
  8
M0
 62
     1
100
AcDbLine
 10
95.963063
 20
396.115286
 11
103.963063
 21
396.115286
  0
LINE
  5
5FB
100
AcDbEntity
  8
M0
 62
     1
100
AcDbLine
 10
113.863063
 20
365.815286
 11
113.863063
 21
371.172429
  0
ARC
  5
5FC
100
AcDbEntity
  8
M0
 62
     1
100
AcDbCircle
 10
102.663063
 20
387.115286
 40
2.5
100
AcDbArc
 50
336.926082
 51
383.073918
  0
ARC
  5
5FD
100
AcDbEntity
  8
M0
 62
     1
100
AcDbCircle
 10
102.663063
 20
394.115286
 40
2.5
100
AcDbArc
 50
336.926082
 51
383.073918
  0
ARC
  5
5FE
100
AcDbEntity
  8
M0
 62
     1
100
AcDbCircle
 10
97.263063
 20
387.115286
 40
2.5
100
AcDbArc
 50
156.926082
 51
211.332251
  0
ARC
  5
5FF
100
AcDbEntity
  8
M0
 62
     1
100
AcDbCircle
 10
97.263063
 20
394.115286
 40
2.5
100
AcDbArc
 50
156.926082
 51
203.073918
  0
LINE
  5
600
100
AcDbEntity
  8
M0
 62
     1
100
AcDbLine
 10
104.963063
 20
388.095082
 11
104.963063
 21
393.135491
  0
LINE
  5
601
100
AcDbEntity
  8
M0
 62
     1
100
AcDbLine
 10
104.963063
 20
395.095082
 11
104.963063
 21
395.115286
  0
LINE
  5
602
100
AcDbEntity
  8
M0
 62
     1
100
AcDbLine
 10
94.963063
 20
388.095082
 11
94.963063
 21
393.135491
  0
LINE
  5
603
100
AcDbEntity
  8
M0
 62
     1
100
AcDbLine
 10
94.963063
 20
395.095082
 11
94.963063
 21
395.115286
  0
LINE
  5
604
100
AcDbEntity
  8
M0
 62
     1
100
AcDbLine
 10
104.963063
 20
386.135491
 11
104.963063
 21
380.815286
  0
ARC
  5
605
100
AcDbEntity
  8
M0
 62
     1
100
AcDbCircle
 10
108.963063
 20
380.815286
 40
4.0
100
AcDbArc
 50
180.0
 51
270.0
  0
ARC
  5
606
100
AcDbEntity
  8
M0
 62
     1
100
AcDbCircle
 10
103.963063
 20
395.115286
 40
1.0
100
AcDbArc
 50
0.0
 51
90.0
  0
ARC
  5
607
100
AcDbEntity
  8
M0
 62
     1
100
AcDbCircle
 10
95.963063
 20
395.115286
 40
1.0
100
AcDbArc
 50
90.0
 51
180.0
  0
ARC
  5
608
100
AcDbEntity
  8
M0
 62
     1
100
AcDbCircle
 10
112.863063
 20
365.815286
 40
1.0
100
AcDbArc
 50
270.0
 51
360.0
  0
ARC
  5
609
100
AcDbEntity
  8
M0
 62
     1
100
AcDbCircle
 10
104.863063
 20
365.815286
 40
1.0
100
AcDbArc
 50
180.0
 51
270.0
  0
ARC
  5
60A
100
AcDbEntity
  8
M0
 62
     1
100
AcDbCircle
 10
110.507508
 20
375.815286
 40
1.0
100
AcDbArc
 50
31.890792
 51
90.0
  0
ARC
  5
60B
100
AcDbEntity
  8
M0
 62
     1
100
AcDbCircle
 10
109.863063
 20
371.172429
 40
4.0
100
AcDbArc
 50
0.0
 51
31.890792
  0
LINE
  5
60C
100
AcDbEntity
  8
M0
 62
     1
100
AcDbLine
 10
108.963063
 20
376.815286
 11
110.507508
 21
376.815286
  0
LINE
  5
60D
100
AcDbEntity
  8
M0
 62
     1
100
AcDbLine
 10
113.25929
 20
373.285637
 11
111.356564
 21
376.343588
  0
ARC
  5
60E
100
AcDbEntity
  8
M0
 62
     1
100
AcDbCircle
 10
99.863063
 20
370.484374
 40
4.0
100
AcDbArc
 50
0.0
 51
31.574191
  0
LINE
  5
60F
100
AcDbEntity
  8
M0
 62
     1
100
AcDbLine
 10
83.86306
 20
444.815287
 11
83.86306
 21
451.617461
  0
LINE
  5
610
100
AcDbEntity
  8
M0
 62
     1
100
AcDbLine
 10
90.06306
 20
444.815287
 11
90.06306
 21
451.617461
  0
LINE
  5
611
100
AcDbEntity
  8
M0
 62
     1
100
AcDbLine
 10
91.96306
 20
455.214562
 11
91.96306
 21
463.815287
  0
LINE
  5
612
100
AcDbEntity
  8
M0
 62
     1
100
AcDbLine
 10
90.888062
 20
453.68371
 11
91.68806
 21
454.525813
  0
LINE
  5
613
100
AcDbEntity
  8
M0
 62
     1
100
AcDbLine
 10
91.798476
 20
443.815287
 11
91.06306
 21
443.815287
  0
LINE
  5
614
100
AcDbEntity
  8
M0
 62
     1
100
AcDbLine
 10
81.96306
 20
455.214562
 11
81.96306
 21
463.815287
  0
LINE
  5
615
100
AcDbEntity
  8
M0
 62
     1
100
AcDbLine
 10
90.96306
 20
464.815287
 11
82.96306
 21
464.815287
  0
LINE
  5
616
100
AcDbEntity
  8
M0
 62
     1
100
AcDbLine
 10
82.127645
 20
443.815287
 11
82.86306
 21
443.815287
  0
LINE
  5
617
100
AcDbEntity
  8
M0
 62
     1
100
AcDbLine
 10
90.96306
 20
433.515287
 11
82.96306
 21
433.515287
  0
LINE
  5
618
100
AcDbEntity
  8
M0
 62
     1
100
AcDbLine
 10
81.96306
 20
434.515287
 11
81.96306
 21
434.535491
  0
LINE
  5
619
100
AcDbEntity
  8
M0
 62
     1
100
AcDbLine
 10
81.96306
 20
436.495083
 11
81.96306
 21
441.535491
  0
LINE
  5
61A
100
AcDbEntity
  8
M0
 62
     1
100
AcDbLine
 10
91.96306
 20
436.495083
 11
91.96306
 21
441.535491
  0
LINE
  5
61B
100
AcDbEntity
  8
M0
 62
     1
100
AcDbLine
 10
91.96306
 20
434.515287
 11
91.96306
 21
434.535491
  0
ARC
  5
61C
100
AcDbEntity
  8
M0
 62
     1
100
AcDbCircle
 10
84.26306
 20
435.515287
 40
2.5
100
AcDbArc
 50
156.926082
 51
203.073918
  0
ARC
  5
61D
100
AcDbEntity
  8
M0
 62
     1
100
AcDbCircle
 10
82.96306
 20
434.515287
 40
1.0
100
AcDbArc
 50
180.0
 51
270.0
  0
ARC
  5
61E
100
AcDbEntity
  8
M0
 62
     1
100
AcDbCircle
 10
90.96306
 20
434.515287
 40
1.0
100
AcDbArc
 50
270.0
 51
360.0
  0
ARC
  5
61F
100
AcDbEntity
  8
M0
 62
     1
100
AcDbCircle
 10
91.06306
 20
444.815287
 40
1.0
100
AcDbArc
 50
180.0
 51
270.0
  0
ARC
  5
620
100
AcDbEntity
  8
M0
 62
     1
100
AcDbCircle
 10
82.86306
 20
444.815287
 40
1.0
100
AcDbArc
 50
270.0
 51
360.0
  0
ARC
  5
621
100
AcDbEntity
  8
M0
 62
     1
100
AcDbCircle
 10
84.26306
 20
442.515287
 40
2.5
100
AcDbArc
 50
148.667749
 51
203.073918
  0
ARC
  5
622
100
AcDbEntity
  8
M0
 62
     1
100
AcDbCircle
 10
89.66306
 20
442.515287
 40
2.5
100
AcDbArc
 50
-23.073918
 51
31.332251
  0
ARC
  5
623
100
AcDbEntity
  8
M0
 62
     1
100
AcDbCircle
 10
89.66306
 20
435.515287
 40
2.5
100
AcDbArc
 50
-23.073918
 51
23.073918
  0
ARC
  5
624
100
AcDbEntity
  8
M0
 62
     1
100
AcDbCircle
 10
82.96306
 20
463.815287
 40
1.0
100
AcDbArc
 50
90.0
 51
180.0
  0
ARC
  5
625
100
AcDbEntity
  8
M0
 62
     1
100
AcDbCircle
 10
82.96306
 20
455.214562
 40
1.0
100
AcDbArc
 50
180.0
 51
223.531199
  0
ARC
  5
626
100
AcDbEntity
  8
M0
 62
     1
100
AcDbCircle
 10
90.96306
 20
463.815287
 40
1.0
100
AcDbArc
 50
0.0
 51
90.0
  0
ARC
  5
627
100
AcDbEntity
  8
M0
 62
     1
100
AcDbCircle
 10
90.96306
 20
455.214562
 40
1.0
100
AcDbArc
 50
316.468801
 51
360.0
  0
ARC
  5
628
100
AcDbEntity
  8
M0
 62
     1
100
AcDbCircle
 10
80.86306
 20
451.617461
 40
3.0
100
AcDbArc
 50
0.0
 51
43.531199
  0
ARC
  5
629
100
AcDbEntity
  8
M0
 62
     1
100
AcDbCircle
 10
93.06306
 20
451.617461
 40
3.0
100
AcDbArc
 50
136.468801
 51
180.0
  0
LINE
  5
62A
100
AcDbEntity
  8
M0
 62
     1
100
AcDbLine
 10
83.038059
 20
453.68371
 11
82.238061
 21
454.525813
  0
ARC
  5
62B
100
AcDbEntity
  8
M0
 62
     1
100
AcDbCircle
 10
95.963063
 20
445.815287
 40
2.0
100
AcDbArc
 50
-90.0
 51
0.0
  0
ARC
  5
62C
100
AcDbEntity
  8
M0
 62
     1
100
AcDbCircle
 10
101.963063
 20
447.284374
 40
4.0
100
AcDbArc
 50
148.425809
 51
180.0
  0
LINE
  5
62D
100
AcDbEntity
  8
M0
 62
     1
100
AcDbLine
 10
103.270915
 20
457.051791
 11
98.555212
 21
449.378783
  0
LINE
  5
62E
100
AcDbEntity
  8
M0
 62
     1
100
AcDbLine
 10
97.963063
 20
445.815287
 11
97.963063
 21
447.284374
  0
LINE
  5
62F
100
AcDbEntity
  8
M0
 62
     1
100
AcDbLine
 10
95.963063
 20
443.815287
 11
95.127648
 21
443.815287
  0
LINE
  5
630
100
AcDbEntity
  8
M0
 62
     1
100
AcDbLine
 10
104.863063
 20
464.815287
 11
112.863063
 21
464.815287
  0
LINE
  5
631
100
AcDbEntity
  8
M0
 62
     1
100
AcDbLine
 10
103.863063
 20
463.815287
 11
103.863063
 21
459.1462
  0
LINE
  5
632
100
AcDbEntity
  8
M0
 62
     1
100
AcDbLine
 10
95.963063
 20
433.515287
 11
103.963063
 21
433.515287
  0
LINE
  5
633
100
AcDbEntity
  8
M0
 62
     1
100
AcDbLine
 10
113.863063
 20
463.815287
 11
113.863063
 21
458.458144
  0
ARC
  5
634
100
AcDbEntity
  8
M0
 62
     1
100
AcDbCircle
 10
102.663063
 20
442.515287
 40
2.5
100
AcDbArc
 50
-23.073918
 51
23.073918
  0
ARC
  5
635
100
AcDbEntity
  8
M0
 62
     1
100
AcDbCircle
 10
102.663063
 20
435.515287
 40
2.5
100
AcDbArc
 50
-23.073918
 51
23.073918
  0
ARC
  5
636
100
AcDbEntity
  8
M0
 62
     1
100
AcDbCircle
 10
97.263063
 20
442.515287
 40
2.5
100
AcDbArc
 50
148.667749
 51
203.073918
  0
ARC
  5
637
100
AcDbEntity
  8
M0
 62
     1
100
AcDbCircle
 10
97.263063
 20
435.515287
 40
2.5
100
AcDbArc
 50
156.926082
 51
203.073918
  0
LINE
  5
638
100
AcDbEntity
  8
M0
 62
     1
100
AcDbLine
 10
104.963063
 20
441.535491
 11
104.963063
 21
436.495083
  0
LINE
  5
639
100
AcDbEntity
  8
M0
 62
     1
100
AcDbLine
 10
104.963063
 20
434.535491
 11
104.963063
 21
434.515287
  0
LINE
  5
63A
100
AcDbEntity
  8
M0
 62
     1
100
AcDbLine
 10
94.963063
 20
441.535491
 11
94.963063
 21
436.495083
  0
LINE
  5
63B
100
AcDbEntity
  8
M0
 62
     1
100
AcDbLine
 10
94.963063
 20
434.535491
 11
94.963063
 21
434.515287
  0
LINE
  5
63C
100
AcDbEntity
  8
M0
 62
     1
100
AcDbLine
 10
104.963063
 20
443.495083
 11
104.963063
 21
448.815287
  0
ARC
  5
63D
100
AcDbEntity
  8
M0
 62
     1
100
AcDbCircle
 10
108.963063
 20
448.815287
 40
4.0
100
AcDbArc
 50
90.0
 51
180.0
  0
ARC
  5
63E
100
AcDbEntity
  8
M0
 62
     1
100
AcDbCircle
 10
103.963063
 20
434.515287
 40
1.0
100
AcDbArc
 50
-90.0
 51
0.0
  0
ARC
  5
63F
100
AcDbEntity
  8
M0
 62
     1
100
AcDbCircle
 10
95.963063
 20
434.515287
 40
1.0
100
AcDbArc
 50
180.0
 51
270.0
  0
ARC
  5
640
100
AcDbEntity
  8
M0
 62
     1
100
AcDbCircle
 10
112.863063
 20
463.815287
 40
1.0
100
AcDbArc
 50
3.254286E-012
 51
90.0
  0
ARC
  5
641
100
AcDbEntity
  8
M0
 62
     1
100
AcDbCircle
 10
104.863063
 20
463.815287
 40
1.0
100
AcDbArc
 50
90.0
 51
180.0
  0
ARC
  5
642
100
AcDbEntity
  8
M0
 62
     1
100
AcDbCircle
 10
110.507508
 20
453.815287
 40
1.0
100
AcDbArc
 50
270.0
 51
328.109208
  0
ARC
  5
643
100
AcDbEntity
  8
M0
 62
     1
100
AcDbCircle
 10
109.863063
 20
458.458144
 40
4.0
100
AcDbArc
 50
-31.890792
 51
0.0
  0
LINE
  5
644
100
AcDbEntity
  8
M0
 62
     1
100
AcDbLine
 10
108.963063
 20
452.815287
 11
110.507508
 21
452.815287
  0
LINE
  5
645
100
AcDbEntity
  8
M0
 62
     1
100
AcDbLine
 10
113.25929
 20
456.344936
 11
111.356564
 21
453.286985
  0
ARC
  5
646
100
AcDbEntity
  8
M0
 62
     1
100
AcDbCircle
 10
99.863063
 20
459.1462
 40
4.0
100
AcDbArc
 50
-31.574191
 51
0.0
  0
ARC
  5
647
100
AcDbEntity
  8
M0
 62
     1
100
AcDbCircle
 10
77.963064
 20
445.815287
 40
2.0
100
AcDbArc
 50
180.0
 51
270.0
  0
ARC
  5
648
100
AcDbEntity
  8
M0
 62
     1
100
AcDbCircle
 10
71.963064
 20
447.284374
 40
4.0
100
AcDbArc
 50
8.14222E-013
 51
31.574191
  0
LINE
  5
649
100
AcDbEntity
  8
M0
 62
     1
100
AcDbLine
 10
70.655212
 20
457.051791
 11
75.370915
 21
449.378783
  0
LINE
  5
64A
100
AcDbEntity
  8
M0
 62
     1
100
AcDbLine
 10
75.963064
 20
445.815287
 11
75.963064
 21
447.284374
  0
LINE
  5
64B
100
AcDbEntity
  8
M0
 62
     1
100
AcDbLine
 10
77.963064
 20
443.815287
 11
78.798479
 21
443.815287
  0
LINE
  5
64C
100
AcDbEntity
  8
M0
 62
     1
100
AcDbLine
 10
69.063064
 20
464.815287
 11
61.063064
 21
464.815287
  0
LINE
  5
64D
100
AcDbEntity
  8
M0
 62
     1
100
AcDbLine
 10
70.063064
 20
463.815287
 11
70.063064
 21
459.1462
  0
LINE
  5
64E
100
AcDbEntity
  8
M0
 62
     1
100
AcDbLine
 10
77.963064
 20
433.515287
 11
69.963064
 21
433.515287
  0
LINE
  5
64F
100
AcDbEntity
  8
M0
 62
     1
100
AcDbLine
 10
60.063064
 20
463.815287
 11
60.063064
 21
458.458144
  0
ARC
  5
650
100
AcDbEntity
  8
M0
 62
     1
100
AcDbCircle
 10
71.263064
 20
442.515287
 40
2.5
100
AcDbArc
 50
156.926082
 51
203.073918
  0
ARC
  5
651
100
AcDbEntity
  8
M0
 62
     1
100
AcDbCircle
 10
71.263064
 20
435.515287
 40
2.5
100
AcDbArc
 50
156.926082
 51
203.073918
  0
ARC
  5
652
100
AcDbEntity
  8
M0
 62
     1
100
AcDbCircle
 10
76.663064
 20
442.515287
 40
2.5
100
AcDbArc
 50
-23.073918
 51
31.332251
  0
ARC
  5
653
100
AcDbEntity
  8
M0
 62
     1
100
AcDbCircle
 10
76.663064
 20
435.515287
 40
2.5
100
AcDbArc
 50
-23.073918
 51
23.073918
  0
LINE
  5
654
100
AcDbEntity
  8
M0
 62
     1
100
AcDbLine
 10
68.963064
 20
441.535491
 11
68.963064
 21
436.495083
  0
LINE
  5
655
100
AcDbEntity
  8
M0
 62
     1
100
AcDbLine
 10
68.963064
 20
434.535491
 11
68.963064
 21
434.515287
  0
LINE
  5
656
100
AcDbEntity
  8
M0
 62
     1
100
AcDbLine
 10
78.963064
 20
441.535491
 11
78.963064
 21
436.495083
  0
LINE
  5
657
100
AcDbEntity
  8
M0
 62
     1
100
AcDbLine
 10
78.963064
 20
434.535491
 11
78.963064
 21
434.515287
  0
LINE
  5
658
100
AcDbEntity
  8
M0
 62
     1
100
AcDbLine
 10
68.963064
 20
443.495083
 11
68.963064
 21
448.815287
  0
ARC
  5
659
100
AcDbEntity
  8
M0
 62
     1
100
AcDbCircle
 10
64.963064
 20
448.815287
 40
4.0
100
AcDbArc
 50
0.0
 51
90.0
  0
ARC
  5
65A
100
AcDbEntity
  8
M0
 62
     1
100
AcDbCircle
 10
69.963064
 20
434.515287
 40
1.0
100
AcDbArc
 50
180.0
 51
270.0
  0
ARC
  5
65B
100
AcDbEntity
  8
M0
 62
     1
100
AcDbCircle
 10
77.963064
 20
434.515287
 40
1.0
100
AcDbArc
 50
270.0
 51
360.0
  0
ARC
  5
65C
100
AcDbEntity
  8
M0
 62
     1
100
AcDbCircle
 10
61.063064
 20
463.815287
 40
1.0
100
AcDbArc
 50
90.0
 51
180.0
  0
ARC
  5
65D
100
AcDbEntity
  8
M0
 62
     1
100
AcDbCircle
 10
69.063064
 20
463.815287
 40
1.0
100
AcDbArc
 50
0.0
 51
90.0
  0
ARC
  5
65E
100
AcDbEntity
  8
M0
 62
     1
100
AcDbCircle
 10
63.418619
 20
453.815287
 40
1.0
100
AcDbArc
 50
211.890792
 51
270.0
  0
ARC
  5
65F
100
AcDbEntity
  8
M0
 62
     1
100
AcDbCircle
 10
64.063064
 20
458.458144
 40
4.0
100
AcDbArc
 50
180.0
 51
211.890792
  0
LINE
  5
660
100
AcDbEntity
  8
M0
 62
     1
100
AcDbLine
 10
64.963064
 20
452.815287
 11
63.418619
 21
452.815287
  0
LINE
  5
661
100
AcDbEntity
  8
M0
 62
     1
100
AcDbLine
 10
60.666837
 20
456.344936
 11
62.569563
 21
453.286985
  0
ARC
  5
662
100
AcDbEntity
  8
M0
 62
     1
100
AcDbCircle
 10
74.063064
 20
459.1462
 40
4.0
100
AcDbArc
 50
180.0
 51
211.574191
  0
LINE
  5
663
100
AcDbEntity
  8
M0
  6
DASHDOT
 62
     1
100
AcDbLine
 10
108.863063
 20
458.315287
 11
108.863063
 21
459.315287
  0
CIRCLE
  5
664
100
AcDbEntity
  8
M0
 62
     1
100
AcDbCircle
 10
108.863063
 20
458.815287
 40
4.499996
  0
LINE
  5
665
100
AcDbEntity
  8
M0
  6
DASHDOT
 62
     1
100
AcDbLine
 10
108.363063
 20
458.815287
 11
109.363063
 21
458.815287
  0
LINE
  5
666
100
AcDbEntity
  8
M0
 62
     1
100
AcDbLine
 10
109.329967
 20
460.696421
 11
106.98199
 21
458.348429
  0
LINE
  5
667
100
AcDbEntity
  8
M0
 62
     1
100
AcDbLine
 10
110.744167
 20
459.282206
 11
108.39619
 21
456.934214
  0
LINE
  5
668
100
AcDbEntity
  8
M0
 62
     1
100
AcDbLine
 10
106.794109
 20
460.884196
 11
111.057079
 21
456.621256
  0
LINE
  5
669
100
AcDbEntity
  8
M0
  6
DASHDOT
 62
     1
100
AcDbLine
 10
86.96306
 20
458.315287
 11
86.96306
 21
459.315287
  0
CIRCLE
  5
66A
100
AcDbEntity
  8
M0
 62
     1
100
AcDbCircle
 10
86.96306
 20
458.815287
 40
4.499996
  0
LINE
  5
66B
100
AcDbEntity
  8
M0
  6
DASHDOT
 62
     1
100
AcDbLine
 10
86.46306
 20
458.815287
 11
87.46306
 21
458.815287
  0
LINE
  5
66C
100
AcDbEntity
  8
M0
 62
     1
100
AcDbLine
 10
87.429964
 20
460.696421
 11
85.081987
 21
458.348429
  0
LINE
  5
66D
100
AcDbEntity
  8
M0
 62
     1
100
AcDbLine
 10
88.844164
 20
459.282206
 11
86.496187
 21
456.934214
  0
LINE
  5
66E
100
AcDbEntity
  8
M0
 62
     1
100
AcDbLine
 10
84.894106
 20
460.884196
 11
89.157076
 21
456.621256
  0
LINE
  5
66F
100
AcDbEntity
  8
M0
  6
DASHDOT
 62
     1
100
AcDbLine
 10
65.063064
 20
458.315287
 11
65.063064
 21
459.315287
  0
CIRCLE
  5
670
100
AcDbEntity
  8
M0
 62
     1
100
AcDbCircle
 10
65.063064
 20
458.815287
 40
4.499996
  0
LINE
  5
671
100
AcDbEntity
  8
M0
  6
DASHDOT
 62
     1
100
AcDbLine
 10
64.563064
 20
458.815287
 11
65.563064
 21
458.815287
  0
LINE
  5
672
100
AcDbEntity
  8
M0
 62
     1
100
AcDbLine
 10
65.529967
 20
460.696421
 11
63.181991
 21
458.348429
  0
LINE
  5
673
100
AcDbEntity
  8
M0
 62
     1
100
AcDbLine
 10
66.944167
 20
459.282206
 11
64.596191
 21
456.934214
  0
LINE
  5
674
100
AcDbEntity
  8
M0
 62
     1
100
AcDbLine
 10
62.994109
 20
460.884196
 11
67.257079
 21
456.621256
  0
LINE
  5
675
100
AcDbEntity
  8
M0
  6
DASHDOT
 62
     1
100
AcDbLine
 10
86.963064
 20
466.815287
 11
86.963064
 21
362.815286
  0
LINE
  5
676
100
AcDbEntity
  8
M0
  6
DASHDOT
 62
     1
100
AcDbLine
 10
38.063067
 20
414.815287
 11
123.363061
 21
414.815287
  0
ARC
  5
677
100
AcDbEntity
  8
M0
 62
     1
100
AcDbCircle
 10
94.613064
 20
450.165286
 40
0.5
100
AcDbArc
 50
268.473851
 51
270.0
  0
ARC
  5
678
100
AcDbEntity
  8
M0
 62
     1
100
AcDbCircle
 10
59.963064
 20
444.815286
 40
2.25
100
AcDbArc
 50
0.0
 51
180.0
  0
ARC
  5
679
100
AcDbEntity
  8
M0
 62
     1
100
AcDbCircle
 10
59.963064
 20
442.815286
 40
2.25
100
AcDbArc
 50
180.0
 51
360.0
  0
ARC
  5
67A
100
AcDbEntity
  8
M0
 62
     1
100
AcDbCircle
 10
60.563064
 20
384.315286
 40
5.0
100
AcDbArc
 50
180.0
 51
270.0
  0
ARC
  5
67B
100
AcDbEntity
  8
M0
 62
     1
100
AcDbCircle
 10
60.563064
 20
445.315286
 40
5.0
100
AcDbArc
 50
90.0
 51
180.0
  0
ARC
  5
67C
100
AcDbEntity
  8
M0
 62
     1
100
AcDbCircle
 10
64.763064
 20
382.815286
 40
0.5
100
AcDbArc
 50
180.0
 51
270.0
  0
ARC
  5
67D
100
AcDbEntity
  8
M0
 62
     1
100
AcDbCircle
 10
109.163064
 20
383.815286
 40
0.5
100
AcDbArc
 50
0.0
 51
90.0
  0
ARC
  5
67E
100
AcDbEntity
  8
M0
 62
     1
100
AcDbCircle
 10
65.763064
 20
383.815286
 40
0.5
100
AcDbArc
 50
0.0
 51
90.0
  0
ARC
  5
67F
100
AcDbEntity
  8
M0
 62
     1
100
AcDbCircle
 10
64.763064
 20
383.815286
 40
0.5
100
AcDbArc
 50
90.0
 51
180.0
  0
CIRCLE
  5
680
100
AcDbEntity
  8
M0
 62
     1
100
AcDbCircle
 10
59.463064
 20
384.815286
 40
2.25
  0
CIRCLE
  5
681
100
AcDbEntity
  8
M0
 62
     1
100
AcDbCircle
 10
114.463064
 20
444.815286
 40
2.25
  0
ARC
  5
682
100
AcDbEntity
  8
M0
 62
     1
100
AcDbCircle
 10
109.163064
 20
382.815286
 40
0.5
100
AcDbArc
 50
270.0
 51
360.0
  0
ARC
  5
683
100
AcDbEntity
  8
M0
 62
     1
100
AcDbCircle
 10
108.163064
 20
383.815286
 40
0.5
100
AcDbArc
 50
90.0
 51
180.0
  0
ARC
  5
684
100
AcDbEntity
  8
M0
 62
     1
100
AcDbCircle
 10
106.963064
 20
449.315286
 40
1.0
100
AcDbArc
 50
90.0
 51
98.626927
  0
ARC
  5
685
100
AcDbEntity
  8
M0
 62
     1
100
AcDbCircle
 10
113.963064
 20
384.815286
 40
2.25
100
AcDbArc
 50
180.0
 51
360.0
  0
ARC
  5
686
100
AcDbEntity
  8
M0
 62
     1
100
AcDbCircle
 10
66.963064
 20
449.315286
 40
1.0
100
AcDbArc
 50
81.373073
 51
90.0
  0
ARC
  5
687
100
AcDbEntity
  8
M0
 62
     1
100
AcDbCircle
 10
113.363064
 20
445.315286
 40
5.0
100
AcDbArc
 50
0.0
 51
90.0
  0
ARC
  5
688
100
AcDbEntity
  8
M0
 62
     1
100
AcDbCircle
 10
65.763064
 20
382.815286
 40
0.5
100
AcDbArc
 50
270.0
 51
360.0
  0
ARC
  5
689
100
AcDbEntity
  8
M0
 62
     1
100
AcDbCircle
 10
113.963064
 20
386.815286
 40
2.25
100
AcDbArc
 50
0.0
 51
180.0
  0
ARC
  5
68A
100
AcDbEntity
  8
M0
 62
     1
100
AcDbCircle
 10
113.363064
 20
384.315286
 40
5.0
100
AcDbArc
 50
270.0
 51
360.0
  0
LINE
  5
68B
100
AcDbEntity
  8
M0
 62
     1
100
AcDbLine
 10
102.163062
 20
455.249183
 11
102.163062
 21
458.715288
  0
LINE
  5
68C
100
AcDbEntity
  8
M0
 62
     1
100
AcDbLine
 10
103.080795
 20
459.315287
 11
102.763065
 21
459.315287
  0
LINE
  5
68D
100
AcDbEntity
  8
M0
 62
     1
100
AcDbLine
 10
91.963064
 20
381.815287
 11
91.963064
 21
382.315288
  0
LINE
  5
68E
100
AcDbEntity
  8
M0
 62
     1
100
AcDbLine
 10
91.963064
 20
379.315285
 11
90.06306
 21
379.315285
  0
LINE
  5
68F
100
AcDbEntity
  8
M0
 62
     1
100
AcDbLine
 10
81.963063
 20
382.315288
 11
81.963063
 21
381.815287
  0
LINE
  5
690
100
AcDbEntity
  8
M0
 62
     1
100
AcDbLine
 10
66.263063
 20
380.315286
 11
66.263063
 21
396.815288
  0
LINE
  5
691
100
AcDbEntity
  8
M0
 62
     1
100
AcDbLine
 10
82.463064
 20
381.315286
 11
83.86306
 21
381.315286
  0
LINE
  5
692
100
AcDbEntity
  8
M0
 62
     1
100
AcDbLine
 10
64.763064
 20
382.315288
 11
65.763064
 21
382.315288
  0
LINE
  5
693
100
AcDbEntity
  8
M0
 62
     1
100
AcDbLine
 10
65.763064
 20
384.315288
 11
64.763064
 21
384.315288
  0
LINE
  5
694
100
AcDbEntity
  8
M0
 62
     1
100
AcDbLine
 10
109.163065
 20
384.315288
 11
108.163063
 21
384.315288
  0
LINE
  5
695
100
AcDbEntity
  8
M0
 62
     1
100
AcDbLine
 10
64.263063
 20
383.815287
 11
64.263063
 21
382.815285
  0
ARC
  5
696
100
AcDbEntity
  8
M0
 62
     1
100
AcDbCircle
 10
81.063064
 20
458.815286
 40
0.5
100
AcDbArc
 50
0.0
 51
90.0
  0
ARC
  5
697
100
AcDbEntity
  8
M0
 62
     1
100
AcDbCircle
 10
92.863064
 20
458.815286
 40
0.5
100
AcDbArc
 50
90.0
 51
180.0
  0
ARC
  5
698
100
AcDbEntity
  8
M0
 62
     1
100
AcDbCircle
 10
81.063064
 20
458.315286
 40
1.0
100
AcDbArc
 50
90.0
 51
180.0
  0
ARC
  5
699
100
AcDbEntity
  8
M0
 62
     1
100
AcDbCircle
 10
92.863064
 20
458.315286
 40
1.0
100
AcDbArc
 50
0.0
 51
90.0
  0
LINE
  5
69A
100
AcDbEntity
  8
M0
 62
     1
100
AcDbLine
 10
109.663062
 20
382.815285
 11
109.663062
 21
383.815287
  0
LINE
  5
69B
100
AcDbEntity
  8
M0
 62
     1
100
AcDbLine
 10
94.663065
 20
449.315287
 11
98.516189
 21
449.315287
  0
LINE
  5
69C
100
AcDbEntity
  8
M0
 62
     1
100
AcDbLine
 10
97.998453
 20
447.815286
 11
94.663065
 21
447.815286
  0
LINE
  5
69D
100
AcDbEntity
  8
M0
 62
     1
100
AcDbLine
 10
80.063064
 20
457.815288
 11
71.763063
 21
457.815288
  0
LINE
  5
69E
100
AcDbEntity
  8
M0
 62
     1
100
AcDbLine
 10
102.163062
 20
457.815288
 11
93.863063
 21
457.815288
  0
LINE
  5
69F
100
AcDbEntity
  8
M0
 62
     1
100
AcDbLine
 10
93.863063
 20
458.315285
 11
93.863063
 21
450.295082
  0
LINE
  5
6A0
100
AcDbEntity
  8
M0
 62
     1
100
AcDbLine
 10
92.363064
 20
449.751176
 11
92.363064
 21
458.315285
  0
LINE
  5
6A1
100
AcDbEntity
  8
M0
 62
     1
100
AcDbLine
 10
79.263065
 20
447.815286
 11
75.927674
 21
447.815286
  0
LINE
  5
6A2
100
AcDbEntity
  8
M0
 62
     1
100
AcDbLine
 10
75.409133
 20
449.315287
 11
79.263065
 21
449.315287
  0
LINE
  5
6A3
100
AcDbEntity
  8
M0
 62
     1
100
AcDbLine
 10
113.363065
 20
379.315285
 11
106.263064
 21
379.315285
  0
LINE
  5
6A4
100
AcDbEntity
  8
M0
 62
     1
100
AcDbLine
 10
64.263063
 20
385.315286
 11
66.263063
 21
385.315286
  0
LINE
  5
6A5
100
AcDbEntity
  8
M0
 62
     1
100
AcDbLine
 10
64.263063
 20
389.115287
 11
64.263063
 21
385.315286
  0
LINE
  5
6A6
100
AcDbEntity
  8
M0
 62
     1
100
AcDbLine
 10
109.663062
 20
385.315286
 11
109.663062
 21
389.115287
  0
LINE
  5
6A7
100
AcDbEntity
  8
M0
 62
     1
100
AcDbLine
 10
107.663062
 20
385.315286
 11
109.663062
 21
385.315286
  0
LINE
  5
6A8
100
AcDbEntity
  8
M0
 62
     1
100
AcDbLine
 10
111.713067
 20
386.815285
 11
111.713067
 21
384.815285
  0
LINE
  5
6A9
100
AcDbEntity
  8
M0
 62
     1
100
AcDbLine
 10
116.213061
 20
384.815285
 11
116.213061
 21
386.815285
  0
LINE
  5
6AA
100
AcDbEntity
  8
M0
 62
     1
100
AcDbLine
 10
55.563064
 20
384.315288
 11
55.563064
 21
445.315286
  0
LINE
  5
6AB
100
AcDbEntity
  8
M0
 62
     1
100
AcDbLine
 10
62.213064
 20
444.815286
 11
62.213064
 21
442.815287
  0
LINE
  5
6AC
100
AcDbEntity
  8
M0
 62
     1
100
AcDbLine
 10
57.713064
 20
442.815287
 11
57.713064
 21
444.815286
  0
LINE
  5
6AD
100
AcDbEntity
  8
M0
 62
     1
100
AcDbLine
 10
108.263065
 20
390.115287
 11
109.163065
 21
390.115287
  0
LINE
  5
6AE
100
AcDbEntity
  8
M0
 62
     1
100
AcDbLine
 10
115.163066
 20
390.115287
 11
116.063066
 21
390.115287
  0
LINE
  5
6AF
100
AcDbEntity
  8
M0
 62
     1
100
AcDbLine
 10
64.763064
 20
439.515287
 11
65.663064
 21
439.515287
  0
LINE
  5
6B0
100
AcDbEntity
  8
M0
 62
     1
100
AcDbLine
 10
109.163065
 20
439.515287
 11
108.263065
 21
439.515287
  0
LINE
  5
6B1
100
AcDbEntity
  8
M0
 62
     1
100
AcDbLine
 10
117.163063
 20
387.115287
 11
117.063061
 21
387.115287
  0
LINE
  5
6B2
100
AcDbEntity
  8
M0
 62
     1
100
AcDbLine
 10
116.063066
 20
439.515287
 11
115.163066
 21
439.515287
  0
LINE
  5
6B3
100
AcDbEntity
  8
M0
 62
     1
100
AcDbLine
 10
117.163063
 20
442.515286
 11
117.063061
 21
442.515286
  0
LINE
  5
6B4
100
AcDbEntity
  8
M0
 62
     1
100
AcDbLine
 10
57.863064
 20
439.515287
 11
58.763064
 21
439.515287
  0
LINE
  5
6B5
100
AcDbEntity
  8
M0
 62
     1
100
AcDbLine
 10
74.795355
 20
379.315285
 11
77.963064
 21
379.315285
  0
LINE
  5
6B6
100
AcDbEntity
  8
M0
 62
     1
100
AcDbLine
 10
56.763064
 20
387.115287
 11
56.863063
 21
387.115287
  0
LINE
  5
6B7
100
AcDbEntity
  8
M0
 62
     1
100
AcDbLine
 10
65.663064
 20
390.115287
 11
64.763064
 21
390.115287
  0
LINE
  5
6B8
100
AcDbEntity
  8
M0
 62
     1
100
AcDbLine
 10
58.763064
 20
390.115287
 11
57.863064
 21
390.115287
  0
LINE
  5
6B9
100
AcDbEntity
  8
M0
 62
     1
100
AcDbLine
 10
56.763064
 20
442.515286
 11
56.863063
 21
442.515286
  0
ARC
  5
6BA
100
AcDbEntity
  8
M0
 62
     1
100
AcDbCircle
 10
91.463064
 20
381.815286
 40
0.5
100
AcDbArc
 50
270.0
 51
360.0
  0
ARC
  5
6BB
100
AcDbEntity
  8
M0
 62
     1
100
AcDbCircle
 10
91.963064
 20
381.315286
 40
2.0
100
AcDbArc
 50
270.0
 51
292.57935
  0
ARC
  5
6BC
100
AcDbEntity
  8
M0
 62
     1
100
AcDbCircle
 10
70.845334
 20
458.715286
 40
0.6
100
AcDbArc
 50
90.0
 51
178.281642
  0
ARC
  5
6BD
100
AcDbEntity
  8
M0
 62
     1
100
AcDbCircle
 10
71.163064
 20
458.715286
 40
0.6
100
AcDbArc
 50
0.0
 51
90.0
  0
ARC
  5
6BE
100
AcDbEntity
  8
M0
 62
     1
100
AcDbCircle
 10
108.163064
 20
382.815286
 40
0.5
100
AcDbArc
 50
180.0
 51
270.0
  0
ARC
  5
6BF
100
AcDbEntity
  8
M0
 62
     1
100
AcDbCircle
 10
81.963064
 20
381.315286
 40
2.0
100
AcDbArc
 50
247.42065
 51
270.0
  0
ARC
  5
6C0
100
AcDbEntity
  8
M0
 62
     1
100
AcDbCircle
 10
82.463064
 20
381.815286
 40
0.5
100
AcDbArc
 50
180.0
 51
270.0
  0
ARC
  5
6C1
100
AcDbEntity
  8
M0
 62
     1
100
AcDbCircle
 10
102.763064
 20
458.715286
 40
0.6
100
AcDbArc
 50
90.0
 51
180.0
  0
LINE
  5
6C2
100
AcDbEntity
  8
M0
 62
     1
100
AcDbLine
 10
71.763063
 20
458.715288
 11
71.763063
 21
455.249186
  0
LINE
  5
6C3
100
AcDbEntity
  8
M0
 62
     1
100
AcDbLine
 10
70.845334
 20
459.315287
 11
71.163064
 21
459.315287
  0
ARC
  5
6C4
100
AcDbEntity
  8
M0
 62
     1
100
AcDbCircle
 10
103.080794
 20
458.715286
 40
0.6
100
AcDbArc
 50
1.718358
 51
90.0
  0
LINE
  5
6C5
100
AcDbEntity
  8
M0
 62
     1
100
AcDbLine
 10
108.163063
 20
382.315288
 11
109.163065
 21
382.315288
  0
LINE
  5
6C6
100
AcDbEntity
  8
M0
 62
     1
100
AcDbLine
 10
107.663062
 20
380.315286
 11
107.663062
 21
396.815288
  0
LINE
  5
6C7
100
AcDbEntity
  8
M0
 62
     1
100
AcDbLine
 10
92.363064
 20
458.315285
 11
92.363064
 21
458.815286
  0
LINE
  5
6C8
100
AcDbEntity
  8
M0
 62
     1
100
AcDbLine
 10
81.563063
 20
457.815288
 11
81.96306
 21
457.815288
  0
LINE
  5
6C9
100
AcDbEntity
  8
M0
 62
     1
100
AcDbLine
 10
91.96306
 20
457.815288
 11
92.363064
 21
457.815288
  0
LINE
  5
6CA
100
AcDbEntity
  8
M0
 62
     1
100
AcDbLine
 10
81.563063
 20
458.315285
 11
81.563063
 21
449.751176
  0
LINE
  5
6CB
100
AcDbEntity
  8
M0
 62
     1
100
AcDbLine
 10
80.063064
 20
450.295082
 11
80.063064
 21
458.315285
  0
LINE
  5
6CC
100
AcDbEntity
  8
M0
 62
     1
100
AcDbLine
 10
81.563063
 20
458.815286
 11
81.563063
 21
458.315285
  0
LINE
  5
6CD
100
AcDbEntity
  8
M0
 62
     1
100
AcDbLine
 10
117.363066
 20
434.915286
 11
117.063061
 21
434.915286
  0
ARC
  5
6CE
100
AcDbEntity
  8
M0
 62
     1
100
AcDbCircle
 10
80.263064
 20
449.315286
 40
1.0
100
AcDbArc
 50
90.0
 51
180.0
  0
LINE
  5
6CF
100
AcDbEntity
  8
M0
 62
     1
100
AcDbLine
 10
117.063061
 20
411.115287
 11
117.363066
 21
411.115287
  0
LINE
  5
6D0
100
AcDbEntity
  8
M0
 62
     1
100
AcDbLine
 10
117.363066
 20
418.515286
 11
117.063061
 21
418.515286
  0
ARC
  5
6D1
100
AcDbEntity
  8
M0
 62
     1
100
AcDbCircle
 10
93.263064
 20
449.315286
 40
1.0
100
AcDbArc
 50
90.0
 51
180.0
  0
ARC
  5
6D2
100
AcDbEntity
  8
M0
 62
     1
100
AcDbCircle
 10
93.263064
 20
380.315286
 40
1.0
100
AcDbArc
 50
180.0
 51
270.0
  0
ARC
  5
6D3
100
AcDbEntity
  8
M0
 62
     1
100
AcDbCircle
 10
80.663064
 20
449.315286
 40
1.0
100
AcDbArc
 50
0.0
 51
90.0
  0
ARC
  5
6D4
100
AcDbEntity
  8
M0
 62
     1
100
AcDbCircle
 10
80.663064
 20
380.315286
 40
1.0
100
AcDbArc
 50
270.0
 51
360.0
  0
LINE
  5
6D5
100
AcDbEntity
  8
M0
 62
     1
100
AcDbLine
 10
117.063061
 20
394.715287
 11
117.363066
 21
394.715287
  0
LINE
  5
6D6
100
AcDbEntity
  8
M0
 62
     1
100
AcDbLine
 10
116.063066
 20
441.515286
 11
116.063066
 21
419.515287
  0
LINE
  5
6D7
100
AcDbEntity
  8
M0
 62
     1
100
AcDbLine
 10
80.663063
 20
379.315285
 11
80.263064
 21
379.315285
  0
LINE
  5
6D8
100
AcDbEntity
  8
M0
 62
     1
100
AcDbLine
 10
80.263064
 20
395.915287
 11
80.663063
 21
395.915287
  0
LINE
  5
6D9
100
AcDbEntity
  8
M0
 62
     1
100
AcDbLine
 10
80.663063
 20
395.915287
 11
81.663065
 21
395.915287
  0
ARC
  5
6DA
100
AcDbEntity
  8
M0
 62
     1
100
AcDbCircle
 10
93.663064
 20
449.315286
 40
1.0
100
AcDbArc
 50
0.0
 51
90.0
  0
ARC
  5
6DB
100
AcDbEntity
  8
M0
 62
     1
100
AcDbCircle
 10
106.263064
 20
449.315286
 40
1.0
100
AcDbArc
 50
90.0
 51
180.0
  0
LINE
  5
6DC
100
AcDbEntity
  8
M0
 62
     1
100
AcDbLine
 10
116.063066
 20
410.115287
 11
116.063066
 21
388.115286
  0
ARC
  5
6DD
100
AcDbEntity
  8
M0
 62
     1
100
AcDbCircle
 10
93.663064
 20
380.315286
 40
1.0
100
AcDbArc
 50
270.0
 51
360.0
  0
ARC
  5
6DE
100
AcDbEntity
  8
M0
 62
     1
100
AcDbCircle
 10
106.663064
 20
380.315286
 40
1.0
100
AcDbArc
 50
270.0
 51
360.0
  0
LINE
  5
6DF
100
AcDbEntity
  8
M0
 62
     1
100
AcDbLine
 10
80.263064
 20
450.315288
 11
80.663063
 21
450.315288
  0
ARC
  5
6E0
100
AcDbEntity
  8
M0
 62
     1
100
AcDbCircle
 10
106.263064
 20
380.315286
 40
1.0
100
AcDbArc
 50
180.0
 51
270.0
  0
ARC
  5
6E1
100
AcDbEntity
  8
M0
 62
     1
100
AcDbCircle
 10
106.663064
 20
449.315286
 40
1.0
100
AcDbArc
 50
0.0
 51
90.0
  0
LINE
  5
6E2
100
AcDbEntity
  8
M0
 62
     1
100
AcDbLine
 10
117.363066
 20
418.515286
 11
117.363066
 21
411.115287
  0
LINE
  5
6E3
100
AcDbEntity
  8
M0
 62
     1
100
AcDbLine
 10
56.563064
 20
411.115287
 11
56.863063
 21
411.115287
  0
LINE
  5
6E4
100
AcDbEntity
  8
M0
 62
     1
100
AcDbLine
 10
56.563064
 20
434.915286
 11
56.863063
 21
434.915286
  0
LINE
  5
6E5
100
AcDbEntity
  8
M0
 62
     1
100
AcDbLine
 10
116.063066
 20
418.515286
 11
116.063066
 21
411.115287
  0
LINE
  5
6E6
100
AcDbEntity
  8
M0
 62
     1
100
AcDbLine
 10
116.063066
 20
411.115287
 11
113.06306
 21
411.115287
  0
LINE
  5
6E7
100
AcDbEntity
  8
M0
 62
     1
100
AcDbLine
 10
56.563064
 20
418.515286
 11
56.563064
 21
411.115287
  0
LINE
  5
6E8
100
AcDbEntity
  8
M0
 62
     1
100
AcDbLine
 10
113.06306
 20
418.515286
 11
116.063066
 21
418.515286
  0
LINE
  5
6E9
100
AcDbEntity
  8
M0
 62
     1
100
AcDbLine
 10
113.06306
 20
411.115287
 11
113.06306
 21
418.515286
  0
LINE
  5
6EA
100
AcDbEntity
  8
M0
 62
     1
100
AcDbLine
 10
56.863063
 20
418.515286
 11
56.563064
 21
418.515286
  0
LINE
  5
6EB
100
AcDbEntity
  8
M0
 62
     1
100
AcDbLine
 10
56.863063
 20
394.715287
 11
56.563064
 21
394.715287
  0
LINE
  5
6EC
100
AcDbEntity
  8
M0
 62
     1
100
AcDbLine
 10
57.863064
 20
441.515286
 11
57.863064
 21
419.515287
  0
LINE
  5
6ED
100
AcDbEntity
  8
M0
 62
     1
100
AcDbLine
 10
57.863064
 20
424.115286
 11
62.963064
 21
424.115286
  0
LINE
  5
6EE
100
AcDbEntity
  8
M0
 62
     1
100
AcDbLine
 10
110.963064
 20
405.515286
 11
116.063066
 21
405.515286
  0
LINE
  5
6EF
100
AcDbEntity
  8
M0
 62
     1
100
AcDbLine
 10
62.963064
 20
405.515286
 11
57.863064
 21
405.515286
  0
ARC
  5
6F0
100
AcDbEntity
  8
M0
 62
     1
100
AcDbCircle
 10
67.663064
 20
449.315286
 40
1.0
100
AcDbArc
 50
0.0
 51
90.0
  0
ARC
  5
6F1
100
AcDbEntity
  8
M0
 62
     1
100
AcDbCircle
 10
80.263064
 20
380.315286
 40
1.0
100
AcDbArc
 50
180.0
 51
270.0
  0
ARC
  5
6F2
100
AcDbEntity
  8
M0
 62
     1
100
AcDbCircle
 10
67.263064
 20
449.315286
 40
1.0
100
AcDbArc
 50
90.0
 51
180.0
  0
ARC
  5
6F3
100
AcDbEntity
  8
M0
 62
     1
100
AcDbCircle
 10
67.663064
 20
380.315286
 40
1.0
100
AcDbArc
 50
270.0
 51
360.0
  0
LINE
  5
6F4
100
AcDbEntity
  8
M0
 62
     1
100
AcDbLine
 10
67.663063
 20
379.315285
 11
67.463063
 21
379.315285
  0
LINE
  5
6F5
100
AcDbEntity
  8
M0
 62
     1
100
AcDbLine
 10
67.463063
 20
450.315288
 11
67.663063
 21
450.315288
  0
ARC
  5
6F6
100
AcDbEntity
  8
M0
 62
     1
100
AcDbCircle
 10
66.263064
 20
395.315286
 40
0.6
100
AcDbArc
 50
180.0
 51
270.0
  0
LINE
  5
6F7
100
AcDbEntity
  8
M0
 62
     1
100
AcDbLine
 10
116.063066
 20
424.115286
 11
110.963064
 21
424.115286
  0
ARC
  5
6F8
100
AcDbEntity
  8
M0
 62
     1
100
AcDbCircle
 10
107.663064
 20
395.315286
 40
0.6
100
AcDbArc
 50
270.0
 51
360.0
  0
ARC
  5
6F9
100
AcDbEntity
  8
M0
 62
     1
100
AcDbCircle
 10
67.263064
 20
380.315286
 40
1.0
100
AcDbArc
 50
180.0
 51
270.0
  0
ARC
  5
6FA
100
AcDbEntity
  8
M0
 62
     1
100
AcDbCircle
 10
66.263064
 20
434.315286
 40
0.6
100
AcDbArc
 50
90.0
 51
180.0
  0
ARC
  5
6FB
100
AcDbEntity
  8
M0
 62
     1
100
AcDbCircle
 10
107.663064
 20
434.315286
 40
0.6
100
AcDbArc
 50
0.0
 51
90.0
  0
LINE
  5
6FC
100
AcDbEntity
  8
M0
 62
     1
100
AcDbLine
 10
94.663065
 20
433.715287
 11
92.263062
 21
433.715287
  0
LINE
  5
6FD
100
AcDbEntity
  8
M0
 62
     1
100
AcDbLine
 10
94.663065
 20
395.915287
 11
93.663063
 21
395.915287
  0
LINE
  5
6FE
100
AcDbEntity
  8
M0
 62
     1
100
AcDbLine
 10
93.263064
 20
379.315285
 11
93.663063
 21
379.315285
  0
LINE
  5
6FF
100
AcDbEntity
  8
M0
 62
     1
100
AcDbLine
 10
93.263064
 20
395.915287
 11
92.263062
 21
395.915287
  0
LINE
  5
700
100
AcDbEntity
  8
M0
 62
     1
100
AcDbLine
 10
93.663063
 20
395.915287
 11
93.263064
 21
395.915287
  0
LINE
  5
701
100
AcDbEntity
  8
M0
 62
     1
100
AcDbLine
 10
113.363064
 20
450.315288
 11
106.263064
 21
450.315288
  0
LINE
  5
702
100
AcDbEntity
  8
M0
 62
     1
100
AcDbLine
 10
107.663062
 20
432.815287
 11
107.663062
 21
449.315287
  0
LINE
  5
703
100
AcDbEntity
  8
M0
 62
     1
100
AcDbLine
 10
93.663063
 20
450.315288
 11
93.263064
 21
450.315288
  0
LINE
  5
704
100
AcDbEntity
  8
M0
 62
     1
100
AcDbLine
 10
105.263062
 20
396.815288
 11
105.263062
 21
380.315287
  0
ARC
  5
705
100
AcDbEntity
  8
M0
 62
     1
100
AcDbCircle
 10
117.363064
 20
419.515286
 40
1.0
100
AcDbArc
 50
270.0
 51
360.0
  0
ARC
  5
706
100
AcDbEntity
  8
M0
 62
     1
100
AcDbCircle
 10
117.363064
 20
433.915286
 40
1.0
100
AcDbArc
 50
0.0
 51
90.0
  0
ARC
  5
707
100
AcDbEntity
  8
M0
 62
     1
100
AcDbCircle
 10
117.363064
 20
395.715286
 40
1.0
100
AcDbArc
 50
270.0
 51
360.0
  0
LINE
  5
708
100
AcDbEntity
  8
M0
 62
     1
100
AcDbLine
 10
118.363061
 20
445.315286
 11
118.363061
 21
384.315286
  0
LINE
  5
709
100
AcDbEntity
  8
M0
 62
     1
100
AcDbLine
 10
116.063066
 20
431.915286
 11
110.958051
 21
431.915286
  0
LINE
  5
70A
100
AcDbEntity
  8
M0
 62
     1
100
AcDbLine
 10
94.663065
 20
385.815287
 11
95.127647
 21
385.815287
  0
LINE
  5
70B
100
AcDbEntity
  8
M0
 62
     1
100
AcDbLine
 10
92.263062
 20
443.815287
 11
91.798476
 21
443.815287
  0
ARC
  5
70C
100
AcDbEntity
  8
M0
 62
     1
100
AcDbCircle
 10
56.863064
 20
433.915286
 40
1.0
100
AcDbArc
 50
0.0
 51
90.0
  0
ARC
  5
70D
100
AcDbEntity
  8
M0
 62
     1
100
AcDbCircle
 10
56.863064
 20
410.115286
 40
1.0
100
AcDbArc
 50
0.0
 51
90.0
  0
ARC
  5
70E
100
AcDbEntity
  8
M0
 62
     1
100
AcDbCircle
 10
56.563064
 20
419.515286
 40
1.0
100
AcDbArc
 50
180.0
 51
270.0
  0
ARC
  5
70F
100
AcDbEntity
  8
M0
 62
     1
100
AcDbCircle
 10
56.563064
 20
433.915286
 40
1.0
100
AcDbArc
 50
90.0
 51
180.0
  0
ARC
  5
710
100
AcDbEntity
  8
M0
 62
     1
100
AcDbCircle
 10
117.063064
 20
395.715286
 40
1.0
100
AcDbArc
 50
180.0
 51
270.0
  0
ARC
  5
711
100
AcDbEntity
  8
M0
 62
     1
100
AcDbCircle
 10
117.063064
 20
419.515286
 40
1.0
100
AcDbArc
 50
180.0
 51
270.0
  0
ARC
  5
712
100
AcDbEntity
  8
M0
 62
     1
100
AcDbCircle
 10
56.863064
 20
395.715286
 40
1.0
100
AcDbArc
 50
270.0
 51
360.0
  0
ARC
  5
713
100
AcDbEntity
  8
M0
 62
     1
100
AcDbCircle
 10
56.863064
 20
419.515286
 40
1.0
100
AcDbArc
 50
270.0
 51
360.0
  0
ARC
  5
714
100
AcDbEntity
  8
M0
 62
     1
100
AcDbCircle
 10
56.563064
 20
410.115286
 40
1.0
100
AcDbArc
 50
90.0
 51
180.0
  0
ARC
  5
715
100
AcDbEntity
  8
M0
 62
     1
100
AcDbCircle
 10
56.563064
 20
395.715286
 40
1.0
100
AcDbArc
 50
180.0
 51
270.0
  0
LINE
  5
716
100
AcDbEntity
  8
M0
 62
     1
100
AcDbLine
 10
57.863064
 20
418.515286
 11
57.863064
 21
411.115287
  0
LINE
  5
717
100
AcDbEntity
  8
M0
 62
     1
100
AcDbLine
 10
60.863064
 20
411.115287
 11
60.863064
 21
418.515286
  0
LINE
  5
718
100
AcDbEntity
  8
M0
 62
     1
100
AcDbLine
 10
57.863064
 20
411.115287
 11
60.863064
 21
411.115287
  0
ARC
  5
719
100
AcDbEntity
  8
M0
 62
     1
100
AcDbCircle
 10
117.063064
 20
433.915286
 40
1.0
100
AcDbArc
 50
90.0
 51
180.0
  0
ARC
  5
71A
100
AcDbEntity
  8
M0
 62
     1
100
AcDbCircle
 10
117.363064
 20
410.115286
 40
1.0
100
AcDbArc
 50
0.0
 51
90.0
  0
LINE
  5
71B
100
AcDbEntity
  8
M0
 62
     1
100
AcDbLine
 10
105.263062
 20
443.815287
 11
104.963063
 21
443.815287
  0
ARC
  5
71C
100
AcDbEntity
  8
M0
 62
     1
100
AcDbCircle
 10
117.063064
 20
410.115286
 40
1.0
100
AcDbArc
 50
90.0
 51
180.0
  0
LINE
  5
71D
100
AcDbEntity
  8
M0
 62
     1
100
AcDbLine
 10
60.863064
 20
418.515286
 11
57.863064
 21
418.515286
  0
LINE
  5
71E
100
AcDbEntity
  8
M0
 62
     1
100
AcDbLine
 10
68.663063
 20
385.815287
 11
68.963064
 21
385.815287
  0
ELLIPSE
  5
71F
100
AcDbEntity
  8
M0
 62
     1
100
AcDbEllipse
 10
82.663064
 20
449.731953
 11
1.0
 21
0.0
210
0.0
220
0.0
230
1.0
 40
0.416667
 41
3.141592653589793
 42
4.71238898038469
  0
ELLIPSE
  5
720
100
AcDbEntity
  8
M0
 62
     1
100
AcDbEllipse
 10
91.263064
 20
449.731953
 11
1.0
 21
0.0
210
0.0
220
0.0
230
1.0
 40
0.416667
 41
4.71238898038469
 42
6.283185307179586
  0
LINE
  5
721
100
AcDbEntity
  8
M0
 62
     1
100
AcDbLine
 10
91.263064
 20
449.315287
 11
90.06306
 21
449.315287
  0
LINE
  5
722
100
AcDbEntity
  8
M0
 62
     1
100
AcDbLine
 10
68.663063
 20
445.815286
 11
68.963064
 21
445.815286
  0
LINE
  5
723
100
AcDbEntity
  8
M0
 62
     1
100
AcDbLine
 10
81.663065
 20
445.815286
 11
83.86306
 21
445.815286
  0
LINE
  5
724
100
AcDbEntity
  8
M0
 62
     1
100
AcDbLine
 10
81.663065
 20
456.815286
 11
81.663065
 21
432.815287
  0
LINE
  5
725
100
AcDbEntity
  8
M0
 62
     1
100
AcDbLine
 10
92.263062
 20
447.815286
 11
90.06306
 21
447.815286
  0
LINE
  5
726
100
AcDbEntity
  8
M0
 62
     1
100
AcDbLine
 10
96.713063
 20
379.815286
 11
96.713063
 21
380.315287
  0
LINE
  5
727
100
AcDbEntity
  8
M0
 62
     1
100
AcDbLine
 10
95.963065
 20
379.315285
 11
99.130773
 21
379.315285
  0
LINE
  5
728
100
AcDbEntity
  8
M0
 62
     1
100
AcDbLine
 10
96.713063
 20
380.315287
 11
96.713063
 21
382.315288
  0
LINE
  5
729
100
AcDbEntity
  8
M0
 62
     1
100
AcDbLine
 10
104.963065
 20
383.815287
 11
105.263062
 21
383.815287
  0
LINE
  5
72A
100
AcDbEntity
  8
M0
 62
     1
100
AcDbLine
 10
56.863063
 20
387.115287
 11
56.563064
 21
387.115287
  0
LINE
  5
72B
100
AcDbEntity
  8
M0
 62
     1
100
AcDbLine
 10
68.963064
 20
383.815287
 11
68.663063
 21
383.815287
  0
LINE
  5
72C
100
AcDbEntity
  8
M0
 62
     1
100
AcDbLine
 10
56.563064
 20
442.515286
 11
56.863063
 21
442.515286
  0
LINE
  5
72D
100
AcDbEntity
  8
M0
 62
     1
100
AcDbLine
 10
77.963064
 20
383.315286
 11
77.963064
 21
385.815287
  0
LINE
  5
72E
100
AcDbEntity
  8
M0
 62
     1
100
AcDbLine
 10
79.263065
 20
382.315288
 11
78.963064
 21
382.315288
  0
LINE
  5
72F
100
AcDbEntity
  8
M0
 62
     1
100
AcDbLine
 10
105.263062
 20
445.815286
 11
104.963063
 21
445.815286
  0
LINE
  5
730
100
AcDbEntity
  8
M0
 62
     1
100
AcDbLine
 10
95.963065
 20
383.315286
 11
95.963065
 21
385.815287
  0
LINE
  5
731
100
AcDbEntity
  8
M0
 62
     1
100
AcDbLine
 10
92.263062
 20
382.315288
 11
90.06306
 21
382.315288
  0
LINE
  5
732
100
AcDbEntity
  8
M0
 62
     1
100
AcDbLine
 10
94.963063
 20
382.315288
 11
94.663065
 21
382.315288
  0
ARC
  5
733
100
AcDbEntity
  8
M0
 62
     1
100
AcDbCircle
 10
96.213064
 20
379.815286
 40
0.5
100
AcDbArc
 50
270.0
 51
360.0
  0
ARC
  5
734
100
AcDbEntity
  8
M0
 62
     1
100
AcDbCircle
 10
99.963064
 20
382.315286
 40
3.25
100
AcDbArc
 50
132.76855
 51
180.0
  0
ARC
  5
735
100
AcDbEntity
  8
M0
 62
     1
100
AcDbCircle
 10
82.663064
 20
456.815286
 40
1.0
100
AcDbArc
 50
134.427281
 51
180.0
  0
ARC
  5
736
100
AcDbEntity
  8
M0
 62
     1
100
AcDbCircle
 10
91.263064
 20
456.815286
 40
1.0
100
AcDbArc
 50
0.0
 51
45.573273
  0
ARC
  5
737
100
AcDbEntity
  8
M0
 62
     1
100
AcDbCircle
 10
77.963064
 20
380.315286
 40
1.0
100
AcDbArc
 50
270.0
 51
360.0
  0
ARC
  5
738
100
AcDbEntity
  8
M0
 62
     1
100
AcDbCircle
 10
95.963064
 20
380.315286
 40
1.0
100
AcDbArc
 50
180.0
 51
270.0
  0
ARC
  5
739
100
AcDbEntity
  8
M0
 62
     1
100
AcDbCircle
 10
73.963064
 20
382.315286
 40
3.25
100
AcDbArc
 50
0.0
 51
47.231455
  0
LINE
  5
73A
100
AcDbEntity
  8
M0
 62
     1
100
AcDbLine
 10
78.963064
 20
382.315288
 11
78.963064
 21
380.315287
  0
LINE
  5
73B
100
AcDbEntity
  8
M0
 62
     1
100
AcDbLine
 10
94.963063
 20
382.315288
 11
94.963063
 21
380.315287
  0
LINE
  5
73C
100
AcDbEntity
  8
M0
 62
     1
100
AcDbLine
 10
77.213064
 20
379.815286
 11
77.213064
 21
382.315286
  0
ARC
  5
73D
100
AcDbEntity
  8
M0
 62
     1
100
AcDbCircle
 10
94.963064
 20
383.315286
 40
1.0
100
AcDbArc
 50
270.0
 51
360.0
  0
ARC
  5
73E
100
AcDbEntity
  8
M0
 62
     1
100
AcDbCircle
 10
77.713064
 20
379.815286
 40
0.5
100
AcDbArc
 50
180.0
 51
270.0
  0
ARC
  5
73F
100
AcDbEntity
  8
M0
 62
     1
100
AcDbCircle
 10
78.963064
 20
383.315286
 40
1.0
100
AcDbArc
 50
180.0
 51
270.0
  0
ARC
  5
740
100
AcDbEntity
  8
M0
 62
     1
100
AcDbCircle
 10
56.563064
 20
441.515286
 40
1.0
100
AcDbArc
 50
90.0
 51
180.0
  0
LINE
  5
741
100
AcDbEntity
  8
M0
 62
     1
100
AcDbLine
 10
67.663063
 20
379.315285
 11
60.563064
 21
379.315285
  0
LINE
  5
742
100
AcDbEntity
  8
M0
 62
     1
100
AcDbLine
 10
60.563064
 20
450.315288
 11
67.663063
 21
450.315288
  0
LINE
  5
743
100
AcDbEntity
  8
M0
 62
     1
100
AcDbLine
 10
66.263063
 20
449.315286
 11
66.263063
 21
432.815287
  0
LINE
  5
744
100
AcDbEntity
  8
M0
 62
     1
100
AcDbLine
 10
108.263065
 20
387.715286
 11
108.263065
 21
396.815288
  0
LINE
  5
745
100
AcDbEntity
  8
M0
 62
     1
100
AcDbLine
 10
108.263065
 20
432.815287
 11
108.263065
 21
441.915286
  0
ARC
  5
746
100
AcDbEntity
  8
M0
 62
     1
100
AcDbCircle
 10
56.563064
 20
388.115286
 40
1.0
100
AcDbArc
 50
180.0
 51
270.0
  0
ARC
  5
747
100
AcDbEntity
  8
M0
 62
     1
100
AcDbCircle
 10
56.863064
 20
388.115286
 40
1.0
100
AcDbArc
 50
270.0
 51
360.0
  0
LINE
  5
748
100
AcDbEntity
  8
M0
 62
     1
100
AcDbLine
 10
79.263065
 20
433.715287
 11
81.663065
 21
433.715287
  0
ARC
  5
749
100
AcDbEntity
  8
M0
 62
     1
100
AcDbCircle
 10
66.263064
 20
387.715286
 40
0.6
100
AcDbArc
 50
180.0
 51
270.0
  0
ARC
  5
74A
100
AcDbEntity
  8
M0
 62
     1
100
AcDbCircle
 10
107.663064
 20
441.915286
 40
0.6
100
AcDbArc
 50
0.0
 51
90.0
  0
ARC
  5
74B
100
AcDbEntity
  8
M0
 62
     1
100
AcDbCircle
 10
56.863064
 20
441.515286
 40
1.0
100
AcDbArc
 50
0.0
 51
90.0
  0
ARC
  5
74C
100
AcDbEntity
  8
M0
 62
     1
100
AcDbCircle
 10
66.263064
 20
441.915286
 40
0.6
100
AcDbArc
 50
90.0
 51
180.0
  0
LINE
  5
74D
100
AcDbEntity
  8
M0
 62
     1
100
AcDbLine
 10
68.663063
 20
396.815288
 11
68.663063
 21
380.315287
  0
LINE
  5
74E
100
AcDbEntity
  8
M0
 62
     1
100
AcDbLine
 10
79.263065
 20
380.315287
 11
79.263065
 21
396.815288
  0
LINE
  5
74F
100
AcDbEntity
  8
M0
 62
     1
100
AcDbLine
 10
79.263065
 20
395.915287
 11
80.263064
 21
395.915287
  0
LINE
  5
750
100
AcDbEntity
  8
M0
 62
     1
100
AcDbLine
 10
106.463064
 20
450.315288
 11
106.263064
 21
450.315288
  0
LINE
  5
751
100
AcDbEntity
  8
M0
 62
     1
100
AcDbLine
 10
105.263062
 20
449.315287
 11
105.263062
 21
432.815287
  0
LINE
  5
752
100
AcDbEntity
  8
M0
 62
     1
100
AcDbLine
 10
81.663065
 20
380.315286
 11
81.663065
 21
396.815288
  0
LINE
  5
753
100
AcDbEntity
  8
M0
 62
     1
100
AcDbLine
 10
79.263065
 20
449.315286
 11
79.263065
 21
432.815287
  0
LINE
  5
754
100
AcDbEntity
  8
M0
 62
     1
100
AcDbLine
 10
94.663065
 20
396.815288
 11
94.663065
 21
380.315286
  0
LINE
  5
755
100
AcDbEntity
  8
M0
 62
     1
100
AcDbLine
 10
92.263062
 20
380.315286
 11
92.263062
 21
396.815288
  0
LINE
  5
756
100
AcDbEntity
  8
M0
 62
     1
100
AcDbLine
 10
94.663065
 20
449.315286
 11
94.663065
 21
432.815287
  0
LINE
  5
757
100
AcDbEntity
  8
M0
 62
     1
100
AcDbLine
 10
92.263062
 20
432.815287
 11
92.263062
 21
456.815286
  0
LINE
  5
758
100
AcDbEntity
  8
M0
 62
     1
100
AcDbLine
 10
92.263062
 20
382.315288
 11
92.263062
 21
383.315286
  0
LINE
  5
759
100
AcDbEntity
  8
M0
 62
     1
100
AcDbLine
 10
92.263062
 20
447.315287
 11
92.263062
 21
446.315287
  0
LINE
  5
75A
100
AcDbEntity
  8
M0
 62
     1
100
AcDbLine
 10
117.063061
 20
387.115287
 11
117.363066
 21
387.115287
  0
LINE
  5
75B
100
AcDbEntity
  8
M0
 62
     1
100
AcDbLine
 10
117.363066
 20
442.515286
 11
117.063061
 21
442.515286
  0
LINE
  5
75C
100
AcDbEntity
  8
M0
 62
     1
100
AcDbLine
 10
117.163063
 20
434.915286
 11
117.063061
 21
434.915286
  0
LINE
  5
75D
100
AcDbEntity
  8
M0
 62
     1
100
AcDbLine
 10
68.663063
 20
449.315287
 11
68.663063
 21
432.815287
  0
LINE
  5
75E
100
AcDbEntity
  8
M0
 62
     1
100
AcDbLine
 10
56.763064
 20
434.915286
 11
56.863063
 21
434.915286
  0
LINE
  5
75F
100
AcDbEntity
  8
M0
 62
     1
100
AcDbLine
 10
117.163063
 20
394.715287
 11
117.063061
 21
394.715287
  0
LINE
  5
760
100
AcDbEntity
  8
M0
 62
     1
100
AcDbLine
 10
56.763064
 20
394.715287
 11
56.863063
 21
394.715287
  0
ARC
  5
761
100
AcDbEntity
  8
M0
 62
     1
100
AcDbCircle
 10
117.063064
 20
388.115286
 40
1.0
100
AcDbArc
 50
180.0
 51
270.0
  0
ARC
  5
762
100
AcDbEntity
  8
M0
 62
     1
100
AcDbCircle
 10
117.063064
 20
441.515286
 40
1.0
100
AcDbArc
 50
90.0
 51
180.0
  0
ARC
  5
763
100
AcDbEntity
  8
M0
 62
     1
100
AcDbCircle
 10
107.663064
 20
387.715286
 40
0.6
100
AcDbArc
 50
270.0
 51
360.0
  0
ARC
  5
764
100
AcDbEntity
  8
M0
 62
     1
100
AcDbCircle
 10
117.363064
 20
441.515286
 40
1.0
100
AcDbArc
 50
0.0
 51
90.0
  0
LINE
  5
765
100
AcDbEntity
  8
M0
 62
     1
100
AcDbLine
 10
65.663064
 20
387.715286
 11
65.663064
 21
396.815288
  0
LINE
  5
766
100
AcDbEntity
  8
M0
 62
     1
100
AcDbLine
 10
65.663064
 20
432.815287
 11
65.663064
 21
441.915286
  0
ARC
  5
767
100
AcDbEntity
  8
M0
 62
     1
100
AcDbCircle
 10
117.363064
 20
388.115286
 40
1.0
100
AcDbArc
 50
270.0
 51
360.0
  0
LINE
  5
768
100
AcDbEntity
  8
M0
 62
     1
100
AcDbLine
 10
57.863064
 20
410.115286
 11
57.863064
 21
388.115287
  0
LINE
  5
769
100
AcDbEntity
  8
M0
 62
     1
100
AcDbLine
 10
109.163065
 20
389.115287
 11
109.163065
 21
390.115287
  0
LINE
  5
76A
100
AcDbEntity
  8
M0
 62
     1
100
AcDbLine
 10
115.163066
 20
389.115287
 11
109.163065
 21
389.115287
  0
LINE
  5
76B
100
AcDbEntity
  8
M0
 62
     1
100
AcDbLine
 10
115.163066
 20
390.115287
 11
115.163066
 21
389.115287
  0
LINE
  5
76C
100
AcDbEntity
  8
M0
 62
     1
100
AcDbLine
 10
62.968076
 20
431.915286
 11
57.863064
 21
431.915286
  0
LINE
  5
76D
100
AcDbEntity
  8
M0
 62
     1
100
AcDbLine
 10
109.163065
 20
440.515287
 11
115.163066
 21
440.515287
  0
LINE
  5
76E
100
AcDbEntity
  8
M0
 62
     1
100
AcDbLine
 10
109.163065
 20
439.515287
 11
109.163065
 21
440.515287
  0
LINE
  5
76F
100
AcDbEntity
  8
M0
 62
     1
100
AcDbLine
 10
115.163066
 20
440.515287
 11
115.163066
 21
439.515287
  0
LINE
  5
770
100
AcDbEntity
  8
M0
 62
     1
100
AcDbLine
 10
57.863064
 20
397.715286
 11
62.968076
 21
397.715286
  0
LINE
  5
771
100
AcDbEntity
  8
M0
 62
     1
100
AcDbLine
 10
110.958051
 20
397.715286
 11
116.063066
 21
397.715286
  0
LINE
  5
772
100
AcDbEntity
  8
M0
 62
     1
100
AcDbLine
 10
79.263065
 20
443.815287
 11
78.798479
 21
443.815287
  0
LINE
  5
773
100
AcDbEntity
  8
M0
 62
     1
100
AcDbLine
 10
81.663065
 20
385.815287
 11
82.127644
 21
385.815287
  0
LINE
  5
774
100
AcDbEntity
  8
M0
 62
     1
100
AcDbLine
 10
58.763064
 20
440.515287
 11
64.763064
 21
440.515287
  0
LINE
  5
775
100
AcDbEntity
  8
M0
 62
     1
100
AcDbLine
 10
58.763064
 20
439.515287
 11
58.763064
 21
440.515287
  0
LINE
  5
776
100
AcDbEntity
  8
M0
 62
     1
100
AcDbLine
 10
64.763064
 20
440.515287
 11
64.763064
 21
439.515287
  0
LINE
  5
777
100
AcDbEntity
  8
M0
 62
     1
100
AcDbLine
 10
64.763064
 20
389.115287
 11
58.763064
 21
389.115287
  0
LINE
  5
778
100
AcDbEntity
  8
M0
 62
     1
100
AcDbLine
 10
64.763064
 20
390.115287
 11
64.763064
 21
389.115287
  0
LINE
  5
779
100
AcDbEntity
  8
M0
 62
     1
100
AcDbLine
 10
58.763064
 20
389.115287
 11
58.763064
 21
390.115287
  0
LINE
  5
77A
100
AcDbEntity
  8
M0
 62
     1
100
AcDbLine
 10
103.680525
 20
458.733278
 11
103.681617
 21
458.696818
  0
LINE
  5
77B
100
AcDbEntity
  8
M0
 62
     1
100
AcDbLine
 10
103.681617
 20
458.696818
 11
103.684865
 21
458.588539
  0
LINE
  5
77C
100
AcDbEntity
  8
M0
 62
     1
100
AcDbLine
 10
103.684865
 20
458.588539
 11
103.69017
 21
458.41174
  0
LINE
  5
77D
100
AcDbEntity
  8
M0
 62
     1
100
AcDbLine
 10
103.69017
 20
458.41174
 11
103.697367
 21
458.171787
  0
LINE
  5
77E
100
AcDbEntity
  8
M0
 62
     1
100
AcDbLine
 10
103.697367
 20
458.171787
 11
103.70186
 21
458.022082
  0
LINE
  5
77F
100
AcDbEntity
  8
M0
 62
     1
100
AcDbLine
 10
70.224267
 20
458.022082
 11
70.224515
 21
458.030334
  0
LINE
  5
780
100
AcDbEntity
  8
M0
 62
     1
100
AcDbLine
 10
70.224515
 20
458.030334
 11
70.233468
 21
458.328804
  0
LINE
  5
781
100
AcDbEntity
  8
M0
 62
     1
100
AcDbLine
 10
70.233468
 20
458.328804
 11
70.240124
 21
458.550589
  0
LINE
  5
782
100
AcDbEntity
  8
M0
 62
     1
100
AcDbLine
 10
70.240124
 20
458.550589
 11
70.24422
 21
458.687162
  0
LINE
  5
783
100
AcDbEntity
  8
M0
 62
     1
100
AcDbLine
 10
70.24422
 20
458.687162
 11
70.245604
 21
458.733278
  0
LINE
  5
784
100
AcDbEntity
  8
M0
  6
DASHDOT
 62
     1
100
AcDbLine
 10
73.463064
 20
391.115286
 11
74.463064
 21
391.115286
  0
LINE
  5
785
100
AcDbEntity
  8
M0
  6
DASHDOT
 62
     1
100
AcDbLine
 10
73.963064
 20
390.615286
 11
73.963064
 21
391.615286
  0
LINE
  5
786
100
AcDbEntity
  8
M0
  6
DASHDOT
 62
     1
100
AcDbLine
 10
86.96306
 20
390.615286
 11
86.96306
 21
391.615286
  0
LINE
  5
787
100
AcDbEntity
  8
M0
  6
DASHDOT
 62
     1
100
AcDbLine
 10
86.46306
 20
391.115286
 11
87.46306
 21
391.115286
  0
LINE
  5
788
100
AcDbEntity
  8
M0
  6
DASHDOT
 62
     1
100
AcDbLine
 10
99.963061
 20
390.615286
 11
99.963061
 21
391.615286
  0
LINE
  5
789
100
AcDbEntity
  8
M0
  6
DASHDOT
 62
     1
100
AcDbLine
 10
99.463061
 20
391.115286
 11
100.463061
 21
391.115286
  0
LINE
  5
78A
100
AcDbEntity
  8
M0
  6
DASHDOT
 62
     1
100
AcDbLine
 10
99.963061
 20
439.015287
 11
99.963061
 21
438.015287
  0
LINE
  5
78B
100
AcDbEntity
  8
M0
  6
DASHDOT
 62
     1
100
AcDbLine
 10
99.463061
 20
438.515287
 11
100.463061
 21
438.515287
  0
LINE
  5
78C
100
AcDbEntity
  8
M0
  6
DASHDOT
 62
     1
100
AcDbLine
 10
86.46306
 20
438.515287
 11
87.46306
 21
438.515287
  0
LINE
  5
78D
100
AcDbEntity
  8
M0
  6
DASHDOT
 62
     1
100
AcDbLine
 10
73.963064
 20
439.015287
 11
73.963064
 21
438.015287
  0
LINE
  5
78E
100
AcDbEntity
  8
M0
  6
DASHDOT
 62
     1
100
AcDbLine
 10
86.96306
 20
439.015287
 11
86.96306
 21
438.015287
  0
LINE
  5
78F
100
AcDbEntity
  8
M0
  6
DASHDOT
 62
     1
100
AcDbLine
 10
73.463064
 20
438.515287
 11
74.463064
 21
438.515287
  0
LINE
  5
790
100
AcDbEntity
  8
M0
  6
DASHDOT
 62
     1
100
AcDbLine
 10
112.663063
 20
435.715286
 11
111.663063
 21
435.715286
  0
LINE
  5
791
100
AcDbEntity
  8
M0
  6
DASHDOT
 62
     1
100
AcDbLine
 10
112.163063
 20
435.215286
 11
112.163063
 21
436.215286
  0
LINE
  5
792
100
AcDbEntity
  8
M0
  6
DASHDOT
 62
     1
100
AcDbLine
 10
112.663063
 20
428.115286
 11
111.663063
 21
428.115286
  0
LINE
  5
793
100
AcDbEntity
  8
M0
  6
DASHDOT
 62
     1
100
AcDbLine
 10
112.163063
 20
427.615286
 11
112.163063
 21
428.615286
  0
LINE
  5
794
100
AcDbEntity
  8
M0
  6
DASHDOT
 62
     1
100
AcDbLine
 10
112.663063
 20
401.515286
 11
111.663063
 21
401.515286
  0
LINE
  5
795
100
AcDbEntity
  8
M0
  6
DASHDOT
 62
     1
100
AcDbLine
 10
112.163063
 20
401.015286
 11
112.163063
 21
402.015286
  0
LINE
  5
796
100
AcDbEntity
  8
M0
  6
DASHDOT
 62
     1
100
AcDbLine
 10
112.663063
 20
393.915286
 11
111.663063
 21
393.915286
  0
LINE
  5
797
100
AcDbEntity
  8
M0
  6
DASHDOT
 62
     1
100
AcDbLine
 10
112.163063
 20
393.415286
 11
112.163063
 21
394.415286
  0
LINE
  5
798
100
AcDbEntity
  8
M0
  6
DASHDOT
 62
     1
100
AcDbLine
 10
61.263064
 20
428.115286
 11
62.263064
 21
428.115286
  0
LINE
  5
799
100
AcDbEntity
  8
M0
  6
DASHDOT
 62
     1
100
AcDbLine
 10
61.763064
 20
427.615286
 11
61.763064
 21
428.615286
  0
LINE
  5
79A
100
AcDbEntity
  8
M0
  6
DASHDOT
 62
     1
100
AcDbLine
 10
61.263064
 20
435.715286
 11
62.263064
 21
435.715286
  0
LINE
  5
79B
100
AcDbEntity
  8
M0
  6
DASHDOT
 62
     1
100
AcDbLine
 10
61.763064
 20
435.215286
 11
61.763064
 21
436.215286
  0
LINE
  5
79C
100
AcDbEntity
  8
M0
  6
DASHDOT
 62
     1
100
AcDbLine
 10
61.263064
 20
393.915286
 11
62.263064
 21
393.915286
  0
LINE
  5
79D
100
AcDbEntity
  8
M0
  6
DASHDOT
 62
     1
100
AcDbLine
 10
61.763064
 20
393.415286
 11
61.763064
 21
394.415286
  0
LINE
  5
79E
100
AcDbEntity
  8
M0
  6
DASHDOT
 62
     1
100
AcDbLine
 10
61.263064
 20
401.515286
 11
62.263064
 21
401.515286
  0
LINE
  5
79F
100
AcDbEntity
  8
M0
  6
DASHDOT
 62
     1
100
AcDbLine
 10
61.763064
 20
401.015286
 11
61.763064
 21
402.015286
  0
LINE
  5
7A0
100
AcDbEntity
  8
M0
  6
DASHDOT
 62
     1
100
AcDbLine
 10
97.363064
 20
453.415286
 11
98.363064
 21
453.415286
  0
LINE
  5
7A1
100
AcDbEntity
  8
M0
  6
DASHDOT
 62
     1
100
AcDbLine
 10
97.863064
 20
452.915286
 11
97.863064
 21
453.915286
  0
LINE
  5
7A2
100
AcDbEntity
  8
M0
  6
DASHDOT
 62
     1
100
AcDbLine
 10
76.563063
 20
453.415286
 11
75.563063
 21
453.415286
  0
LINE
  5
7A3
100
AcDbEntity
  8
M0
  6
DASHDOT
 62
     1
100
AcDbLine
 10
76.063063
 20
452.915286
 11
76.063063
 21
453.915286
  0
LINE
  5
7A4
100
AcDbEntity
  8
M0
 62
     1
100
AcDbLine
 10
83.86306
 20
449.315287
 11
82.663063
 21
449.315287
  0
LINE
  5
7A5
100
AcDbEntity
  8
M0
 62
     1
100
AcDbLine
 10
83.86306
 20
447.815286
 11
81.663065
 21
447.815286
  0
LINE
  5
7A6
100
AcDbEntity
  8
M0
 62
     1
100
AcDbLine
 10
90.06306
 20
445.815286
 11
92.263062
 21
445.815286
  0
LINE
  5
7A7
100
AcDbEntity
  8
M0
 62
     1
100
AcDbLine
 10
82.127645
 20
443.815287
 11
81.663065
 21
443.815287
  0
LINE
  5
7A8
100
AcDbEntity
  8
M0
 62
     1
100
AcDbLine
 10
68.963064
 20
443.815287
 11
68.663063
 21
443.815287
  0
LINE
  5
7A9
100
AcDbEntity
  8
M0
 62
     1
100
AcDbLine
 10
75.963064
 20
445.815286
 11
79.263065
 21
445.815286
  0
LINE
  5
7AA
100
AcDbEntity
  8
M0
 62
     1
100
AcDbLine
 10
95.127648
 20
443.815287
 11
94.663065
 21
443.815287
  0
LINE
  5
7AB
100
AcDbEntity
  8
M0
 62
     1
100
AcDbLine
 10
97.963063
 20
445.815286
 11
94.663065
 21
445.815286
  0
LINE
  5
7AC
100
AcDbEntity
  8
M0
 62
     1
100
AcDbLine
 10
104.963063
 20
385.815287
 11
105.263062
 21
385.815287
  0
LINE
  5
7AD
100
AcDbEntity
  8
M0
 62
     1
100
AcDbLine
 10
83.86306
 20
379.315285
 11
81.963063
 21
379.315285
  0
LINE
  5
7AE
100
AcDbEntity
  8
M0
 62
     1
100
AcDbLine
 10
90.06306
 20
381.315286
 11
91.463063
 21
381.315286
  0
LINE
  5
7AF
100
AcDbEntity
  8
M0
 62
     1
100
AcDbLine
 10
83.86306
 20
382.315288
 11
81.663065
 21
382.315288
  0
LINE
  5
7B0
100
AcDbEntity
  8
M0
 62
     1
100
AcDbLine
 10
91.798476
 20
385.815287
 11
92.263062
 21
385.815287
  0
LINE
  5
7B1
100
AcDbEntity
  8
M0
 62
     1
100
AcDbLine
 10
78.79848
 20
385.815287
 11
79.263065
 21
385.815287
  0
LINE
  5
7B2
100
AcDbEntity
  8
M0
 62
     1
100
AcDbLine
 10
154.463062
 20
445.815286
 11
156.663057
 21
445.815286
  0
LINE
  5
7B3
100
AcDbEntity
  8
M0
 62
     1
100
AcDbLine
 10
141.463059
 20
445.815286
 11
141.76306
 21
445.815286
  0
LINE
  5
7B4
100
AcDbEntity
  8
M0
 62
     1
100
AcDbLine
 10
165.063058
 20
447.815286
 11
162.863057
 21
447.815286
  0
LINE
  5
7B5
100
AcDbEntity
  8
M0
 62
     1
100
AcDbLine
 10
154.463062
 20
456.815286
 11
154.463062
 21
432.815287
  0
LINE
  5
7B6
100
AcDbEntity
  8
M0
 62
     1
100
AcDbLine
 10
164.06306
 20
449.315287
 11
162.863057
 21
449.315287
  0
LINE
  5
7B7
100
AcDbEntity
  8
M0
 62
     1
100
AcDbLine
 10
141.463059
 20
385.815287
 11
141.76306
 21
385.815287
  0
LINE
  5
7B8
100
AcDbEntity
  8
M0
 62
     1
100
AcDbLine
 10
167.763059
 20
382.315288
 11
167.763059
 21
380.315287
  0
LINE
  5
7B9
100
AcDbEntity
  8
M0
 62
     1
100
AcDbLine
 10
151.763061
 20
382.315288
 11
151.763061
 21
380.315287
  0
LINE
  5
7BA
100
AcDbEntity
  8
M0
 62
     1
100
AcDbLine
 10
140.463059
 20
379.315285
 11
133.36306
 21
379.315285
  0
LINE
  5
7BB
100
AcDbEntity
  8
M0
 62
     1
100
AcDbLine
 10
150.013061
 20
379.815286
 11
150.013061
 21
382.315286
  0
ARC
  5
7BC
100
AcDbEntity
  8
M0
 62
     1
100
AcDbCircle
 10
172.76306
 20
382.315286
 40
3.25
100
AcDbArc
 50
132.76855
 51
180.0
  0
ARC
  5
7BD
100
AcDbEntity
  8
M0
 62
     1
100
AcDbCircle
 10
169.01306
 20
379.815286
 40
0.5
100
AcDbArc
 50
270.0
 51
360.0
  0
ELLIPSE
  5
7BE
100
AcDbEntity
  8
M0
 62
     1
100
AcDbEllipse
 10
164.06306
 20
449.731953
 11
1.0
 21
0.0
210
0.0
220
0.0
230
1.0
 40
0.416667
 41
4.71238898038469
 42
6.283185307179586
  0
ELLIPSE
  5
7BF
100
AcDbEntity
  8
M0
 62
     1
100
AcDbEllipse
 10
155.46306
 20
449.731953
 11
1.0
 21
0.0
210
0.0
220
0.0
230
1.0
 40
0.416667
 41
3.141592653589793
 42
4.71238898038469
  0
LINE
  5
7C0
100
AcDbEntity
  8
M0
 62
     1
100
AcDbLine
 10
141.463059
 20
396.815288
 11
141.463059
 21
380.315287
  0
LINE
  5
7C1
100
AcDbEntity
  8
M0
 62
     1
100
AcDbLine
 10
152.063062
 20
433.715287
 11
154.463062
 21
433.715287
  0
LINE
  5
7C2
100
AcDbEntity
  8
M0
 62
     1
100
AcDbLine
 10
152.063062
 20
395.915287
 11
153.06306
 21
395.915287
  0
LINE
  5
7C3
100
AcDbEntity
  8
M0
 62
     1
100
AcDbLine
 10
152.063062
 20
380.315287
 11
152.063062
 21
396.815288
  0
LINE
  5
7C4
100
AcDbEntity
  8
M0
 62
     1
100
AcDbLine
 10
139.06306
 20
449.315286
 11
139.06306
 21
432.815287
  0
LINE
  5
7C5
100
AcDbEntity
  8
M0
 62
     1
100
AcDbLine
 10
133.36306
 20
450.315288
 11
140.463059
 21
450.315288
  0
LINE
  5
7C6
100
AcDbEntity
  8
M0
 62
     1
100
AcDbLine
 10
181.063061
 20
432.815287
 11
181.063061
 21
441.915286
  0
LINE
  5
7C7
100
AcDbEntity
  8
M0
 62
     1
100
AcDbLine
 10
181.063061
 20
387.715286
 11
181.063061
 21
396.815288
  0
LINE
  5
7C8
100
AcDbEntity
  8
M0
 62
     1
100
AcDbLine
 10
141.763061
 20
383.815287
 11
141.463059
 21
383.815287
  0
LINE
  5
7C9
100
AcDbEntity
  8
M0
 62
     1
100
AcDbLine
 10
129.66306
 20
387.115287
 11
129.36306
 21
387.115287
  0
LINE
  5
7CA
100
AcDbEntity
  8
M0
 62
     1
100
AcDbLine
 10
150.76306
 20
383.315286
 11
150.76306
 21
385.815287
  0
LINE
  5
7CB
100
AcDbEntity
  8
M0
 62
     1
100
AcDbLine
 10
129.36306
 20
442.515286
 11
129.66306
 21
442.515286
  0
LINE
  5
7CC
100
AcDbEntity
  8
M0
 62
     1
100
AcDbLine
 10
168.763062
 20
379.315285
 11
171.930769
 21
379.315285
  0
LINE
  5
7CD
100
AcDbEntity
  8
M0
 62
     1
100
AcDbLine
 10
169.513059
 20
379.815286
 11
169.513059
 21
380.315287
  0
LINE
  5
7CE
100
AcDbEntity
  8
M0
 62
     1
100
AcDbLine
 10
177.763061
 20
383.815287
 11
178.063059
 21
383.815287
  0
LINE
  5
7CF
100
AcDbEntity
  8
M0
 62
     1
100
AcDbLine
 10
169.513059
 20
380.315287
 11
169.513059
 21
382.315288
  0
ARC
  5
7D0
100
AcDbEntity
  8
M0
 62
     1
100
AcDbCircle
 10
189.86306
 20
433.915286
 40
1.0
100
AcDbArc
 50
90.0
 51
180.0
  0
LINE
  5
7D1
100
AcDbEntity
  8
M0
 62
     1
100
AcDbLine
 10
167.763059
 20
382.315288
 11
167.463062
 21
382.315288
  0
ARC
  5
7D2
100
AcDbEntity
  8
M0
 62
     1
100
AcDbCircle
 10
189.86306
 20
410.115286
 40
1.0
100
AcDbArc
 50
90.0
 51
180.0
  0
ARC
  5
7D3
100
AcDbEntity
  8
M0
 62
     1
100
AcDbCircle
 10
190.16306
 20
410.115286
 40
1.0
100
AcDbArc
 50
0.0
 51
90.0
  0
LINE
  5
7D4
100
AcDbEntity
  8
M0
 62
     1
100
AcDbLine
 10
178.063059
 20
445.815286
 11
177.76306
 21
445.815286
  0
LINE
  5
7D5
100
AcDbEntity
  8
M0
 62
     1
100
AcDbLine
 10
152.063062
 20
382.315288
 11
151.763061
 21
382.315288
  0
LINE
  5
7D6
100
AcDbEntity
  8
M0
 62
     1
100
AcDbLine
 10
165.063058
 20
382.315288
 11
162.863057
 21
382.315288
  0
LINE
  5
7D7
100
AcDbEntity
  8
M0
 62
     1
100
AcDbLine
 10
168.763062
 20
383.315286
 11
168.763062
 21
385.815287
  0
LINE
  5
7D8
100
AcDbEntity
  8
M0
 62
     1
100
AcDbLine
 10
130.66306
 20
418.515286
 11
130.66306
 21
411.115287
  0
ARC
  5
7D9
100
AcDbEntity
  8
M0
 62
     1
100
AcDbCircle
 10
180.46306
 20
395.315286
 40
0.6
100
AcDbArc
 50
270.0
 51
360.0
  0
LINE
  5
7DA
100
AcDbEntity
  8
M0
 62
     1
100
AcDbLine
 10
188.863063
 20
431.915286
 11
183.758048
 21
431.915286
  0
LINE
  5
7DB
100
AcDbEntity
  8
M0
 62
     1
100
AcDbLine
 10
165.063058
 20
443.815287
 11
164.598472
 21
443.815287
  0
LINE
  5
7DC
100
AcDbEntity
  8
M0
 62
     1
100
AcDbLine
 10
167.463062
 20
385.815287
 11
167.927644
 21
385.815287
  0
ARC
  5
7DD
100
AcDbEntity
  8
M0
 62
     1
100
AcDbCircle
 10
139.06306
 20
434.315286
 40
0.6
100
AcDbArc
 50
90.0
 51
180.0
  0
ARC
  5
7DE
100
AcDbEntity
  8
M0
 62
     1
100
AcDbCircle
 10
140.06306
 20
380.315286
 40
1.0
100
AcDbArc
 50
180.0
 51
270.0
  0
ARC
  5
7DF
100
AcDbEntity
  8
M0
 62
     1
100
AcDbCircle
 10
180.46306
 20
434.315286
 40
0.6
100
AcDbArc
 50
0.0
 51
90.0
  0
LINE
  5
7E0
100
AcDbEntity
  8
M0
 62
     1
100
AcDbLine
 10
178.063059
 20
396.815288
 11
178.063059
 21
380.315287
  0
LINE
  5
7E1
100
AcDbEntity
  8
M0
 62
     1
100
AcDbLine
 10
166.46306
 20
450.315288
 11
166.063061
 21
450.315288
  0
LINE
  5
7E2
100
AcDbEntity
  8
M0
 62
     1
100
AcDbLine
 10
166.46306
 20
395.915287
 11
166.063061
 21
395.915287
  0
LINE
  5
7E3
100
AcDbEntity
  8
M0
 62
     1
100
AcDbLine
 10
166.063061
 20
395.915287
 11
165.063058
 21
395.915287
  0
LINE
  5
7E4
100
AcDbEntity
  8
M0
 62
     1
100
AcDbLine
 10
180.463058
 20
432.815287
 11
180.463058
 21
449.315287
  0
LINE
  5
7E5
100
AcDbEntity
  8
M0
 62
     1
100
AcDbLine
 10
186.16306
 20
450.315288
 11
179.063061
 21
450.315288
  0
LINE
  5
7E6
100
AcDbEntity
  8
M0
 62
     1
100
AcDbLine
 10
191.163057
 20
445.315286
 11
191.163057
 21
384.315286
  0
ARC
  5
7E7
100
AcDbEntity
  8
M0
 62
     1
100
AcDbCircle
 10
129.36306
 20
410.115286
 40
1.0
100
AcDbArc
 50
90.0
 51
180.0
  0
ARC
  5
7E8
100
AcDbEntity
  8
M0
 62
     1
100
AcDbCircle
 10
129.66306
 20
419.515286
 40
1.0
100
AcDbArc
 50
270.0
 51
360.0
  0
LINE
  5
7E9
100
AcDbEntity
  8
M0
 62
     1
100
AcDbLine
 10
133.663061
 20
411.115287
 11
133.663061
 21
418.515286
  0
ARC
  5
7EA
100
AcDbEntity
  8
M0
 62
     1
100
AcDbCircle
 10
129.36306
 20
395.715286
 40
1.0
100
AcDbArc
 50
180.0
 51
270.0
  0
ARC
  5
7EB
100
AcDbEntity
  8
M0
 62
     1
100
AcDbCircle
 10
189.86306
 20
395.715286
 40
1.0
100
AcDbArc
 50
180.0
 51
270.0
  0
ARC
  5
7EC
100
AcDbEntity
  8
M0
 62
     1
100
AcDbCircle
 10
129.36306
 20
433.915286
 40
1.0
100
AcDbArc
 50
90.0
 51
180.0
  0
ARC
  5
7ED
100
AcDbEntity
  8
M0
 62
     1
100
AcDbCircle
 10
129.66306
 20
395.715286
 40
1.0
100
AcDbArc
 50
270.0
 51
360.0
  0
ARC
  5
7EE
100
AcDbEntity
  8
M0
 62
     1
100
AcDbCircle
 10
189.86306
 20
419.515286
 40
1.0
100
AcDbArc
 50
180.0
 51
270.0
  0
LINE
  5
7EF
100
AcDbEntity
  8
M0
 62
     1
100
AcDbLine
 10
178.063059
 20
443.815287
 11
177.76306
 21
443.815287
  0
LINE
  5
7F0
100
AcDbEntity
  8
M0
 62
     1
100
AcDbLine
 10
133.663061
 20
418.515286
 11
130.66306
 21
418.515286
  0
LINE
  5
7F1
100
AcDbEntity
  8
M0
 62
     1
100
AcDbLine
 10
130.66306
 20
411.115287
 11
133.663061
 21
411.115287
  0
ARC
  5
7F2
100
AcDbEntity
  8
M0
 62
     1
100
AcDbCircle
 10
190.16306
 20
433.915286
 40
1.0
100
AcDbArc
 50
0.0
 51
90.0
  0
ARC
  5
7F3
100
AcDbEntity
  8
M0
 62
     1
100
AcDbCircle
 10
190.16306
 20
395.715286
 40
1.0
100
AcDbArc
 50
270.0
 51
360.0
  0
ARC
  5
7F4
100
AcDbEntity
  8
M0
 62
     1
100
AcDbCircle
 10
190.16306
 20
419.515286
 40
1.0
100
AcDbArc
 50
270.0
 51
360.0
  0
ARC
  5
7F5
100
AcDbEntity
  8
M0
 62
     1
100
AcDbCircle
 10
129.66306
 20
433.915286
 40
1.0
100
AcDbArc
 50
0.0
 51
90.0
  0
ARC
  5
7F6
100
AcDbEntity
  8
M0
 62
     1
100
AcDbCircle
 10
129.36306
 20
419.515286
 40
1.0
100
AcDbArc
 50
180.0
 51
270.0
  0
ARC
  5
7F7
100
AcDbEntity
  8
M0
 62
     1
100
AcDbCircle
 10
129.66306
 20
410.115286
 40
1.0
100
AcDbArc
 50
0.0
 51
90.0
  0
LINE
  5
7F8
100
AcDbEntity
  8
M0
  6
DASHDOT
 62
     1
100
AcDbLine
 10
185.46306
 20
435.715286
 11
184.46306
 21
435.715286
  0
LINE
  5
7F9
100
AcDbEntity
  8
M0
  6
DASHDOT
 62
     1
100
AcDbLine
 10
146.26306
 20
438.515287
 11
147.26306
 21
438.515287
  0
LINE
  5
7FA
100
AcDbEntity
  8
M0
  6
DASHDOT
 62
     1
100
AcDbLine
 10
185.46306
 20
428.115286
 11
184.46306
 21
428.115286
  0
LINE
  5
7FB
100
AcDbEntity
  8
M0
  6
DASHDOT
 62
     1
100
AcDbLine
 10
184.96306
 20
435.215286
 11
184.96306
 21
436.215286
  0
LINE
  5
7FC
100
AcDbEntity
  8
M0
  6
DASHDOT
 62
     1
100
AcDbLine
 10
159.263057
 20
438.515287
 11
160.263057
 21
438.515287
  0
LINE
  5
7FD
100
AcDbEntity
  8
M0
  6
DASHDOT
 62
     1
100
AcDbLine
 10
172.263057
 20
438.515287
 11
173.263057
 21
438.515287
  0
LINE
  5
7FE
100
AcDbEntity
  8
M0
  6
DASHDOT
 62
     1
100
AcDbLine
 10
159.763057
 20
439.015287
 11
159.763057
 21
438.015287
  0
LINE
  5
7FF
100
AcDbEntity
  8
M0
  6
DASHDOT
 62
     1
100
AcDbLine
 10
146.76306
 20
439.015287
 11
146.76306
 21
438.015287
  0
LINE
  5
800
100
AcDbEntity
  8
M0
  6
DASHDOT
 62
     1
100
AcDbLine
 10
134.06306
 20
428.115286
 11
135.06306
 21
428.115286
  0
LINE
  5
801
100
AcDbEntity
  8
M0
  6
DASHDOT
 62
     1
100
AcDbLine
 10
184.96306
 20
393.415286
 11
184.96306
 21
394.415286
  0
LINE
  5
802
100
AcDbEntity
  8
M0
  6
DASHDOT
 62
     1
100
AcDbLine
 10
185.46306
 20
401.515286
 11
184.46306
 21
401.515286
  0
LINE
  5
803
100
AcDbEntity
  8
M0
  6
DASHDOT
 62
     1
100
AcDbLine
 10
184.96306
 20
427.615286
 11
184.96306
 21
428.615286
  0
LINE
  5
804
100
AcDbEntity
  8
M0
  6
DASHDOT
 62
     1
100
AcDbLine
 10
185.46306
 20
393.915286
 11
184.46306
 21
393.915286
  0
LINE
  5
805
100
AcDbEntity
  8
M0
  6
DASHDOT
 62
     1
100
AcDbLine
 10
184.96306
 20
401.015286
 11
184.96306
 21
402.015286
  0
LINE
  5
806
100
AcDbEntity
  8
M0
 62
     1
100
AcDbLine
 10
143.024511
 20
458.030334
 11
143.033465
 21
458.328804
  0
LINE
  5
807
100
AcDbEntity
  8
M0
 62
     1
100
AcDbLine
 10
143.024264
 20
458.022082
 11
143.024511
 21
458.030334
  0
LINE
  5
808
100
AcDbEntity
  8
M0
 62
     1
100
AcDbLine
 10
143.04012
 20
458.550589
 11
143.044216
 21
458.687162
  0
LINE
  5
809
100
AcDbEntity
  8
M0
 62
     1
100
AcDbLine
 10
143.033465
 20
458.328804
 11
143.04012
 21
458.550589
  0
LINE
  5
80A
100
AcDbEntity
  8
M0
 62
     1
100
AcDbLine
 10
176.484862
 20
458.588539
 11
176.490167
 21
458.41174
  0
LINE
  5
80B
100
AcDbEntity
  8
M0
 62
     1
100
AcDbLine
 10
176.481613
 20
458.696818
 11
176.484862
 21
458.588539
  0
LINE
  5
80C
100
AcDbEntity
  8
M0
 62
     1
100
AcDbLine
 10
176.497364
 20
458.171787
 11
176.501857
 21
458.022082
  0
LINE
  5
80D
100
AcDbEntity
  8
M0
 62
     1
100
AcDbLine
 10
176.490167
 20
458.41174
 11
176.497364
 21
458.171787
  0
LINE
  5
80E
100
AcDbEntity
  8
M0
  6
DASHDOT
 62
     1
100
AcDbLine
 10
172.763057
 20
390.615286
 11
172.763057
 21
391.615286
  0
LINE
  5
80F
100
AcDbEntity
  8
M0
  6
DASHDOT
 62
     1
100
AcDbLine
 10
159.263057
 20
391.115286
 11
160.263057
 21
391.115286
  0
LINE
  5
810
100
AcDbEntity
  8
M0
  6
DASHDOT
 62
     1
100
AcDbLine
 10
172.763057
 20
439.015287
 11
172.763057
 21
438.015287
  0
LINE
  5
811
100
AcDbEntity
  8
M0
  6
DASHDOT
 62
     1
100
AcDbLine
 10
172.263057
 20
391.115286
 11
173.263057
 21
391.115286
  0
LINE
  5
812
100
AcDbEntity
  8
M0
  6
DASHDOT
 62
     1
100
AcDbLine
 10
146.26306
 20
391.115286
 11
147.26306
 21
391.115286
  0
LINE
  5
813
100
AcDbEntity
  8
M0
 62
     1
100
AcDbLine
 10
143.044216
 20
458.687162
 11
143.0456
 21
458.733278
  0
LINE
  5
814
100
AcDbEntity
  8
M0
  6
DASHDOT
 62
     1
100
AcDbLine
 10
159.763057
 20
390.615286
 11
159.763057
 21
391.615286
  0
LINE
  5
815
100
AcDbEntity
  8
M0
  6
DASHDOT
 62
     1
100
AcDbLine
 10
146.76306
 20
390.615286
 11
146.76306
 21
391.615286
  0
LINE
  5
816
100
AcDbEntity
  8
M0
 62
     1
100
AcDbLine
 10
154.927641
 20
443.815287
 11
154.463062
 21
443.815287
  0
LINE
  5
817
100
AcDbEntity
  8
M0
 62
     1
100
AcDbLine
 10
162.863057
 20
445.815286
 11
165.063058
 21
445.815286
  0
LINE
  5
818
100
AcDbEntity
  8
M0
 62
     1
100
AcDbLine
 10
148.76306
 20
445.815286
 11
152.063062
 21
445.815286
  0
LINE
  5
819
100
AcDbEntity
  8
M0
 62
     1
100
AcDbLine
 10
141.76306
 20
443.815287
 11
141.463059
 21
443.815287
  0
LINE
  5
81A
100
AcDbEntity
  8
M0
  6
DASHDOT
 62
     1
100
AcDbLine
 10
148.86306
 20
452.915286
 11
148.86306
 21
453.915286
  0
LINE
  5
81B
100
AcDbEntity
  8
M0
  6
DASHDOT
 62
     1
100
AcDbLine
 10
149.36306
 20
453.415286
 11
148.36306
 21
453.415286
  0
LINE
  5
81C
100
AcDbEntity
  8
M0
 62
     1
100
AcDbLine
 10
156.663057
 20
447.815286
 11
154.463062
 21
447.815286
  0
LINE
  5
81D
100
AcDbEntity
  8
M0
 62
     1
100
AcDbLine
 10
156.663057
 20
449.315287
 11
155.46306
 21
449.315287
  0
LINE
  5
81E
100
AcDbEntity
  8
M0
 62
     1
100
AcDbLine
 10
156.663057
 20
382.315288
 11
154.463062
 21
382.315288
  0
LINE
  5
81F
100
AcDbEntity
  8
M0
 62
     1
100
AcDbLine
 10
162.863057
 20
381.315286
 11
164.26306
 21
381.315286
  0
LINE
  5
820
100
AcDbEntity
  8
M0
 62
     1
100
AcDbLine
 10
151.598476
 20
385.815287
 11
152.063062
 21
385.815287
  0
LINE
  5
821
100
AcDbEntity
  8
M0
 62
     1
100
AcDbLine
 10
164.598473
 20
385.815287
 11
165.063058
 21
385.815287
  0
LINE
  5
822
100
AcDbEntity
  8
M0
 62
     1
100
AcDbLine
 10
170.76306
 20
445.815286
 11
167.463062
 21
445.815286
  0
LINE
  5
823
100
AcDbEntity
  8
M0
 62
     1
100
AcDbLine
 10
167.927645
 20
443.815287
 11
167.463062
 21
443.815287
  0
LINE
  5
824
100
AcDbEntity
  8
M0
 62
     1
100
AcDbLine
 10
156.663057
 20
379.315285
 11
154.763059
 21
379.315285
  0
LINE
  5
825
100
AcDbEntity
  8
M0
 62
     1
100
AcDbLine
 10
177.76306
 20
385.815287
 11
178.063059
 21
385.815287
  0
LINE
  5
826
100
AcDbEntity
  8
M0
  6
DASHDOT
 62
     1
100
AcDbLine
 10
134.56306
 20
427.615286
 11
134.56306
 21
428.615286
  0
LINE
  5
827
100
AcDbEntity
  8
M0
  6
DASHDOT
 62
     1
100
AcDbLine
 10
134.56306
 20
401.015286
 11
134.56306
 21
402.015286
  0
LINE
  5
828
100
AcDbEntity
  8
M0
  6
DASHDOT
 62
     1
100
AcDbLine
 10
134.06306
 20
401.515286
 11
135.06306
 21
401.515286
  0
LINE
  5
829
100
AcDbEntity
  8
M0
  6
DASHDOT
 62
     1
100
AcDbLine
 10
170.66306
 20
452.915286
 11
170.66306
 21
453.915286
  0
LINE
  5
82A
100
AcDbEntity
  8
M0
  6
DASHDOT
 62
     1
100
AcDbLine
 10
170.16306
 20
453.415286
 11
171.16306
 21
453.415286
  0
LINE
  5
82B
100
AcDbEntity
  8
M0
  6
DASHDOT
 62
     1
100
AcDbLine
 10
134.56306
 20
435.215286
 11
134.56306
 21
436.215286
  0
LINE
  5
82C
100
AcDbEntity
  8
M0
  6
DASHDOT
 62
     1
100
AcDbLine
 10
134.06306
 20
435.715286
 11
135.06306
 21
435.715286
  0
LINE
  5
82D
100
AcDbEntity
  8
M0
  6
DASHDOT
 62
     1
100
AcDbLine
 10
134.56306
 20
393.415286
 11
134.56306
 21
394.415286
  0
LINE
  5
82E
100
AcDbEntity
  8
M0
  6
DASHDOT
 62
     1
100
AcDbLine
 10
134.06306
 20
393.915286
 11
135.06306
 21
393.915286
  0
LINE
  5
82F
100
AcDbEntity
  8
M0
 62
     1
100
AcDbLine
 10
181.963061
 20
389.115287
 11
181.963061
 21
390.115287
  0
LINE
  5
830
100
AcDbEntity
  8
M0
 62
     1
100
AcDbLine
 10
130.66306
 20
410.115286
 11
130.66306
 21
388.115287
  0
LINE
  5
831
100
AcDbEntity
  8
M0
 62
     1
100
AcDbLine
 10
187.963062
 20
390.115287
 11
187.963062
 21
389.115287
  0
LINE
  5
832
100
AcDbEntity
  8
M0
 62
     1
100
AcDbLine
 10
187.963062
 20
389.115287
 11
181.963061
 21
389.115287
  0
LINE
  5
833
100
AcDbEntity
  8
M0
 62
     1
100
AcDbLine
 10
129.56306
 20
394.715287
 11
129.66306
 21
394.715287
  0
LINE
  5
834
100
AcDbEntity
  8
M0
 62
     1
100
AcDbLine
 10
189.963059
 20
394.715287
 11
189.863057
 21
394.715287
  0
LINE
  5
835
100
AcDbEntity
  8
M0
 62
     1
100
AcDbLine
 10
138.463061
 20
432.815287
 11
138.463061
 21
441.915286
  0
LINE
  5
836
100
AcDbEntity
  8
M0
 62
     1
100
AcDbLine
 10
138.463061
 20
387.715286
 11
138.463061
 21
396.815288
  0
ARC
  5
837
100
AcDbEntity
  8
M0
 62
     1
100
AcDbCircle
 10
146.76306
 20
382.315286
 40
3.25
100
AcDbArc
 50
0.0
 51
47.231455
  0
ARC
  5
838
100
AcDbEntity
  8
M0
 62
     1
100
AcDbCircle
 10
168.76306
 20
380.315286
 40
1.0
100
AcDbArc
 50
180.0
 51
270.0
  0
ARC
  5
839
100
AcDbEntity
  8
M0
 62
     1
100
AcDbCircle
 10
150.51306
 20
379.815286
 40
0.5
100
AcDbArc
 50
180.0
 51
270.0
  0
ARC
  5
83A
100
AcDbEntity
  8
M0
 62
     1
100
AcDbCircle
 10
167.76306
 20
383.315286
 40
1.0
100
AcDbArc
 50
270.0
 51
360.0
  0
ARC
  5
83B
100
AcDbEntity
  8
M0
 62
     1
100
AcDbCircle
 10
155.46306
 20
456.815286
 40
1.0
100
AcDbArc
 50
134.427281
 51
180.0
  0
LINE
  5
83C
100
AcDbEntity
  8
M0
 62
     1
100
AcDbLine
 10
135.768073
 20
431.915286
 11
130.66306
 21
431.915286
  0
ARC
  5
83D
100
AcDbEntity
  8
M0
 62
     1
100
AcDbCircle
 10
150.76306
 20
380.315286
 40
1.0
100
AcDbArc
 50
270.0
 51
360.0
  0
ARC
  5
83E
100
AcDbEntity
  8
M0
 62
     1
100
AcDbCircle
 10
164.06306
 20
456.815286
 40
1.0
100
AcDbArc
 50
0.0
 51
45.573273
  0
LINE
  5
83F
100
AcDbEntity
  8
M0
 62
     1
100
AcDbLine
 10
167.463062
 20
396.815288
 11
167.463062
 21
380.315286
  0
LINE
  5
840
100
AcDbEntity
  8
M0
 62
     1
100
AcDbLine
 10
152.063062
 20
449.315286
 11
152.063062
 21
432.815287
  0
LINE
  5
841
100
AcDbEntity
  8
M0
 62
     1
100
AcDbLine
 10
167.463062
 20
449.315286
 11
167.463062
 21
432.815287
  0
LINE
  5
842
100
AcDbEntity
  8
M0
 62
     1
100
AcDbLine
 10
165.063058
 20
380.315286
 11
165.063058
 21
396.815288
  0
LINE
  5
843
100
AcDbEntity
  8
M0
 62
     1
100
AcDbLine
 10
179.26306
 20
450.315288
 11
179.063061
 21
450.315288
  0
LINE
  5
844
100
AcDbEntity
  8
M0
 62
     1
100
AcDbLine
 10
154.463062
 20
380.315286
 11
154.463062
 21
396.815288
  0
LINE
  5
845
100
AcDbEntity
  8
M0
 62
     1
100
AcDbLine
 10
178.063059
 20
449.315287
 11
178.063059
 21
432.815287
  0
LINE
  5
846
100
AcDbEntity
  8
M0
 62
     1
100
AcDbLine
 10
189.963059
 20
434.915286
 11
189.863057
 21
434.915286
  0
LINE
  5
847
100
AcDbEntity
  8
M0
 62
     1
100
AcDbLine
 10
190.163062
 20
442.515286
 11
189.863057
 21
442.515286
  0
LINE
  5
848
100
AcDbEntity
  8
M0
 62
     1
100
AcDbLine
 10
129.56306
 20
434.915286
 11
129.66306
 21
434.915286
  0
LINE
  5
849
100
AcDbEntity
  8
M0
 62
     1
100
AcDbLine
 10
141.463059
 20
449.315287
 11
141.463059
 21
432.815287
  0
LINE
  5
84A
100
AcDbEntity
  8
M0
 62
     1
100
AcDbLine
 10
165.063058
 20
382.315288
 11
165.063058
 21
383.315286
  0
LINE
  5
84B
100
AcDbEntity
  8
M0
 62
     1
100
AcDbLine
 10
165.063058
 20
432.815287
 11
165.063058
 21
456.815286
  0
LINE
  5
84C
100
AcDbEntity
  8
M0
 62
     1
100
AcDbLine
 10
189.863057
 20
387.115287
 11
190.163062
 21
387.115287
  0
LINE
  5
84D
100
AcDbEntity
  8
M0
 62
     1
100
AcDbLine
 10
165.063058
 20
447.315287
 11
165.063058
 21
446.315287
  0
LINE
  5
84E
100
AcDbEntity
  8
M0
 62
     1
100
AcDbLine
 10
152.063062
 20
443.815287
 11
151.598476
 21
443.815287
  0
LINE
  5
84F
100
AcDbEntity
  8
M0
 62
     1
100
AcDbLine
 10
183.758048
 20
397.715286
 11
188.863063
 21
397.715286
  0
LINE
  5
850
100
AcDbEntity
  8
M0
 62
     1
100
AcDbLine
 10
130.66306
 20
397.715286
 11
135.768073
 21
397.715286
  0
LINE
  5
851
100
AcDbEntity
  8
M0
 62
     1
100
AcDbLine
 10
137.56306
 20
390.115287
 11
137.56306
 21
389.115287
  0
LINE
  5
852
100
AcDbEntity
  8
M0
 62
     1
100
AcDbLine
 10
137.56306
 20
389.115287
 11
131.56306
 21
389.115287
  0
LINE
  5
853
100
AcDbEntity
  8
M0
 62
     1
100
AcDbLine
 10
176.480522
 20
458.733278
 11
176.481613
 21
458.696818
  0
LINE
  5
854
100
AcDbEntity
  8
M0
 62
     1
100
AcDbLine
 10
131.56306
 20
389.115287
 11
131.56306
 21
390.115287
  0
LINE
  5
855
100
AcDbEntity
  8
M0
 62
     1
100
AcDbLine
 10
131.56306
 20
440.515287
 11
137.56306
 21
440.515287
  0
LINE
  5
856
100
AcDbEntity
  8
M0
 62
     1
100
AcDbLine
 10
154.463062
 20
385.815287
 11
154.927641
 21
385.815287
  0
LINE
  5
857
100
AcDbEntity
  8
M0
 62
     1
100
AcDbLine
 10
137.56306
 20
440.515287
 11
137.56306
 21
439.515287
  0
LINE
  5
858
100
AcDbEntity
  8
M0
 62
     1
100
AcDbLine
 10
131.56306
 20
439.515287
 11
131.56306
 21
440.515287
  0
ARC
  5
859
100
AcDbEntity
  8
M0
 62
     1
100
AcDbCircle
 10
180.46306
 20
441.915286
 40
0.6
100
AcDbArc
 50
0.0
 51
90.0
  0
ARC
  5
85A
100
AcDbEntity
  8
M0
 62
     1
100
AcDbCircle
 10
139.06306
 20
387.715286
 40
0.6
100
AcDbArc
 50
180.0
 51
270.0
  0
ARC
  5
85B
100
AcDbEntity
  8
M0
 62
     1
100
AcDbCircle
 10
139.06306
 20
441.915286
 40
0.6
100
AcDbArc
 50
90.0
 51
180.0
  0
ARC
  5
85C
100
AcDbEntity
  8
M0
 62
     1
100
AcDbCircle
 10
129.66306
 20
441.515286
 40
1.0
100
AcDbArc
 50
0.0
 51
90.0
  0
ARC
  5
85D
100
AcDbEntity
  8
M0
 62
     1
100
AcDbCircle
 10
129.36306
 20
441.515286
 40
1.0
100
AcDbArc
 50
90.0
 51
180.0
  0
ARC
  5
85E
100
AcDbEntity
  8
M0
 62
     1
100
AcDbCircle
 10
151.76306
 20
383.315286
 40
1.0
100
AcDbArc
 50
180.0
 51
270.0
  0
ARC
  5
85F
100
AcDbEntity
  8
M0
 62
     1
100
AcDbCircle
 10
129.66306
 20
388.115286
 40
1.0
100
AcDbArc
 50
270.0
 51
360.0
  0
ARC
  5
860
100
AcDbEntity
  8
M0
 62
     1
100
AcDbCircle
 10
129.36306
 20
388.115286
 40
1.0
100
AcDbArc
 50
180.0
 51
270.0
  0
LINE
  5
861
100
AcDbEntity
  8
M0
 62
     1
100
AcDbLine
 10
181.963061
 20
440.515287
 11
187.963062
 21
440.515287
  0
ARC
  5
862
100
AcDbEntity
  8
M0
 62
     1
100
AcDbCircle
 10
190.16306
 20
388.115286
 40
1.0
100
AcDbArc
 50
270.0
 51
360.0
  0
LINE
  5
863
100
AcDbEntity
  8
M0
 62
     1
100
AcDbLine
 10
187.963062
 20
440.515287
 11
187.963062
 21
439.515287
  0
LINE
  5
864
100
AcDbEntity
  8
M0
 62
     1
100
AcDbLine
 10
181.963061
 20
439.515287
 11
181.963061
 21
440.515287
  0
ARC
  5
865
100
AcDbEntity
  8
M0
 62
     1
100
AcDbCircle
 10
189.86306
 20
441.515286
 40
1.0
100
AcDbArc
 50
90.0
 51
180.0
  0
ARC
  5
866
100
AcDbEntity
  8
M0
 62
     1
100
AcDbCircle
 10
189.86306
 20
388.115286
 40
1.0
100
AcDbArc
 50
180.0
 51
270.0
  0
ARC
  5
867
100
AcDbEntity
  8
M0
 62
     1
100
AcDbCircle
 10
190.16306
 20
441.515286
 40
1.0
100
AcDbArc
 50
0.0
 51
90.0
  0
ARC
  5
868
100
AcDbEntity
  8
M0
 62
     1
100
AcDbCircle
 10
180.46306
 20
387.715286
 40
0.6
100
AcDbArc
 50
270.0
 51
360.0
  0
LINE
  5
869
100
AcDbEntity
  8
M0
 62
     1
100
AcDbLine
 10
130.51306
 20
442.815287
 11
130.51306
 21
444.815286
  0
LINE
  5
86A
100
AcDbEntity
  8
M0
 62
     1
100
AcDbLine
 10
135.01306
 20
444.815286
 11
135.01306
 21
442.815287
  0
LINE
  5
86B
100
AcDbEntity
  8
M0
 62
     1
100
AcDbLine
 10
181.063061
 20
390.115287
 11
181.963061
 21
390.115287
  0
LINE
  5
86C
100
AcDbEntity
  8
M0
 62
     1
100
AcDbLine
 10
165.16306
 20
449.751176
 11
165.16306
 21
458.315285
  0
LINE
  5
86D
100
AcDbEntity
  8
M0
 62
     1
100
AcDbLine
 10
148.209129
 20
449.315287
 11
152.063062
 21
449.315287
  0
LINE
  5
86E
100
AcDbEntity
  8
M0
 62
     1
100
AcDbLine
 10
152.063062
 20
447.815286
 11
148.72767
 21
447.815286
  0
LINE
  5
86F
100
AcDbEntity
  8
M0
 62
     1
100
AcDbLine
 10
152.863061
 20
457.815288
 11
144.56306
 21
457.815288
  0
LINE
  5
870
100
AcDbEntity
  8
M0
 62
     1
100
AcDbLine
 10
170.79845
 20
447.815286
 11
167.463062
 21
447.815286
  0
LINE
  5
871
100
AcDbEntity
  8
M0
 62
     1
100
AcDbLine
 10
166.663059
 20
458.315285
 11
166.663059
 21
450.295082
  0
LINE
  5
872
100
AcDbEntity
  8
M0
 62
     1
100
AcDbLine
 10
174.963058
 20
457.815288
 11
166.663059
 21
457.815288
  0
LINE
  5
873
100
AcDbEntity
  8
M0
 62
     1
100
AcDbLine
 10
184.513064
 20
386.815285
 11
184.513064
 21
384.815285
  0
LINE
  5
874
100
AcDbEntity
  8
M0
 62
     1
100
AcDbLine
 10
180.463058
 20
385.315286
 11
182.463059
 21
385.315286
  0
LINE
  5
875
100
AcDbEntity
  8
M0
 62
     1
100
AcDbLine
 10
128.36306
 20
384.315288
 11
128.36306
 21
445.315286
  0
LINE
  5
876
100
AcDbEntity
  8
M0
 62
     1
100
AcDbLine
 10
189.013058
 20
384.815285
 11
189.013058
 21
386.815285
  0
LINE
  5
877
100
AcDbEntity
  8
M0
 62
     1
100
AcDbLine
 10
137.063059
 20
385.315286
 11
139.06306
 21
385.315286
  0
LINE
  5
878
100
AcDbEntity
  8
M0
 62
     1
100
AcDbLine
 10
186.163062
 20
379.315285
 11
179.06306
 21
379.315285
  0
LINE
  5
879
100
AcDbEntity
  8
M0
 62
     1
100
AcDbLine
 10
182.463059
 20
385.315286
 11
182.463059
 21
389.115287
  0
LINE
  5
87A
100
AcDbEntity
  8
M0
 62
     1
100
AcDbLine
 10
137.063059
 20
389.115287
 11
137.063059
 21
385.315286
  0
LINE
  5
87B
100
AcDbEntity
  8
M0
 62
     1
100
AcDbLine
 10
144.56306
 20
458.715288
 11
144.56306
 21
455.249186
  0
LINE
  5
87C
100
AcDbEntity
  8
M0
 62
     1
100
AcDbLine
 10
180.963059
 20
382.315288
 11
181.963061
 21
382.315288
  0
LINE
  5
87D
100
AcDbEntity
  8
M0
 62
     1
100
AcDbLine
 10
143.645331
 20
459.315287
 11
143.963061
 21
459.315287
  0
LINE
  5
87E
100
AcDbEntity
  8
M0
 62
     1
100
AcDbLine
 10
189.963059
 20
442.515286
 11
189.863057
 21
442.515286
  0
LINE
  5
87F
100
AcDbEntity
  8
M0
 62
     1
100
AcDbLine
 10
188.863063
 20
439.515287
 11
187.963062
 21
439.515287
  0
LINE
  5
880
100
AcDbEntity
  8
M0
 62
     1
100
AcDbLine
 10
147.595351
 20
379.315285
 11
150.76306
 21
379.315285
  0
LINE
  5
881
100
AcDbEntity
  8
M0
 62
     1
100
AcDbLine
 10
130.66306
 20
439.515287
 11
131.56306
 21
439.515287
  0
LINE
  5
882
100
AcDbEntity
  8
M0
 62
     1
100
AcDbLine
 10
137.56306
 20
439.515287
 11
138.463061
 21
439.515287
  0
LINE
  5
883
100
AcDbEntity
  8
M0
 62
     1
100
AcDbLine
 10
187.963062
 20
390.115287
 11
188.863063
 21
390.115287
  0
LINE
  5
884
100
AcDbEntity
  8
M0
 62
     1
100
AcDbLine
 10
189.963059
 20
387.115287
 11
189.863057
 21
387.115287
  0
LINE
  5
885
100
AcDbEntity
  8
M0
 62
     1
100
AcDbLine
 10
181.963061
 20
439.515287
 11
181.063061
 21
439.515287
  0
ARC
  5
886
100
AcDbEntity
  8
M0
 62
     1
100
AcDbCircle
 10
165.66306
 20
458.315286
 40
1.0
100
AcDbArc
 50
0.0
 51
90.0
  0
LINE
  5
887
100
AcDbEntity
  8
M0
 62
     1
100
AcDbLine
 10
138.463061
 20
390.115287
 11
137.56306
 21
390.115287
  0
LINE
  5
888
100
AcDbEntity
  8
M0
 62
     1
100
AcDbLine
 10
129.56306
 20
387.115287
 11
129.66306
 21
387.115287
  0
LINE
  5
889
100
AcDbEntity
  8
M0
 62
     1
100
AcDbLine
 10
129.56306
 20
442.515286
 11
129.66306
 21
442.515286
  0
LINE
  5
88A
100
AcDbEntity
  8
M0
 62
     1
100
AcDbLine
 10
131.56306
 20
390.115287
 11
130.66306
 21
390.115287
  0
LINE
  5
88B
100
AcDbEntity
  8
M0
 62
     1
100
AcDbLine
 10
139.06306
 20
380.315286
 11
139.06306
 21
396.815288
  0
LINE
  5
88C
100
AcDbEntity
  8
M0
 62
     1
100
AcDbLine
 10
164.763061
 20
379.315285
 11
162.863057
 21
379.315285
  0
LINE
  5
88D
100
AcDbEntity
  8
M0
 62
     1
100
AcDbLine
 10
164.763061
 20
381.815287
 11
164.763061
 21
382.315288
  0
LINE
  5
88E
100
AcDbEntity
  8
M0
 62
     1
100
AcDbLine
 10
154.763059
 20
382.315288
 11
154.763059
 21
381.815287
  0
LINE
  5
88F
100
AcDbEntity
  8
M0
 62
     1
100
AcDbLine
 10
138.563061
 20
384.315288
 11
137.56306
 21
384.315288
  0
LINE
  5
890
100
AcDbEntity
  8
M0
 62
     1
100
AcDbLine
 10
137.56306
 20
382.315288
 11
138.563061
 21
382.315288
  0
LINE
  5
891
100
AcDbEntity
  8
M0
 62
     1
100
AcDbLine
 10
155.26306
 20
381.315286
 11
156.663057
 21
381.315286
  0
LINE
  5
892
100
AcDbEntity
  8
M0
  6
DASHDOT
 62
     1
100
AcDbLine
 10
159.76306
 20
466.815287
 11
159.76306
 21
362.815286
  0
LINE
  5
893
100
AcDbEntity
  8
M0
 62
     1
100
AcDbLine
 10
175.880791
 20
459.315287
 11
175.563061
 21
459.315287
  0
LINE
  5
894
100
AcDbEntity
  8
M0
 62
     1
100
AcDbLine
 10
174.963058
 20
455.249183
 11
174.963058
 21
458.715288
  0
ARC
  5
895
100
AcDbEntity
  8
M0
 62
     1
100
AcDbCircle
 10
186.16306
 20
384.315286
 40
5.0
100
AcDbArc
 50
270.0
 51
360.0
  0
ARC
  5
896
100
AcDbEntity
  8
M0
 62
     1
100
AcDbCircle
 10
186.76306
 20
386.815286
 40
2.25
100
AcDbArc
 50
0.0
 51
180.0
  0
ARC
  5
897
100
AcDbEntity
  8
M0
 62
     1
100
AcDbCircle
 10
139.76306
 20
449.315286
 40
1.0
100
AcDbArc
 50
81.373073
 51
90.0
  0
ARC
  5
898
100
AcDbEntity
  8
M0
 62
     1
100
AcDbCircle
 10
186.76306
 20
384.815286
 40
2.25
100
AcDbArc
 50
180.0
 51
360.0
  0
ARC
  5
899
100
AcDbEntity
  8
M0
 62
     1
100
AcDbCircle
 10
138.56306
 20
382.815286
 40
0.5
100
AcDbArc
 50
270.0
 51
360.0
  0
ARC
  5
89A
100
AcDbEntity
  8
M0
 62
     1
100
AcDbCircle
 10
186.16306
 20
445.315286
 40
5.0
100
AcDbArc
 50
0.0
 51
90.0
  0
LINE
  5
89B
100
AcDbEntity
  8
M0
 62
     1
100
AcDbLine
 10
167.463062
 20
449.315287
 11
171.316185
 21
449.315287
  0
LINE
  5
89C
100
AcDbEntity
  8
M0
 62
     1
100
AcDbLine
 10
182.463059
 20
382.815285
 11
182.463059
 21
383.815287
  0
ARC
  5
89D
100
AcDbEntity
  8
M0
 62
     1
100
AcDbCircle
 10
165.66306
 20
458.815286
 40
0.5
100
AcDbArc
 50
90.0
 51
180.0
  0
ARC
  5
89E
100
AcDbEntity
  8
M0
 62
     1
100
AcDbCircle
 10
153.86306
 20
458.815286
 40
0.5
100
AcDbArc
 50
0.0
 51
90.0
  0
ARC
  5
89F
100
AcDbEntity
  8
M0
 62
     1
100
AcDbCircle
 10
153.86306
 20
458.315286
 40
1.0
100
AcDbArc
 50
90.0
 51
180.0
  0
ARC
  5
8A0
100
AcDbEntity
  8
M0
 62
     1
100
AcDbCircle
 10
132.76306
 20
444.815286
 40
2.25
100
AcDbArc
 50
0.0
 51
180.0
  0
ARC
  5
8A1
100
AcDbEntity
  8
M0
 62
     1
100
AcDbCircle
 10
167.41306
 20
450.165286
 40
0.5
100
AcDbArc
 50
268.473851
 51
270.0
  0
ARC
  5
8A2
100
AcDbEntity
  8
M0
 62
     1
100
AcDbCircle
 10
133.36306
 20
384.315286
 40
5.0
100
AcDbArc
 50
180.0
 51
270.0
  0
ARC
  5
8A3
100
AcDbEntity
  8
M0
 62
     1
100
AcDbCircle
 10
132.76306
 20
442.815286
 40
2.25
100
AcDbArc
 50
180.0
 51
360.0
  0
LINE
  5
8A4
100
AcDbEntity
  8
M0
 62
     1
100
AcDbLine
 10
137.063059
 20
383.815287
 11
137.063059
 21
382.815285
  0
LINE
  5
8A5
100
AcDbEntity
  8
M0
 62
     1
100
AcDbLine
 10
181.963061
 20
384.315288
 11
180.963059
 21
384.315288
  0
CIRCLE
  5
8A6
100
AcDbEntity
  8
M0
 62
     1
100
AcDbCircle
 10
187.26306
 20
444.815286
 40
2.25
  0
CIRCLE
  5
8A7
100
AcDbEntity
  8
M0
 62
     1
100
AcDbCircle
 10
132.26306
 20
384.815286
 40
2.25
  0
ARC
  5
8A8
100
AcDbEntity
  8
M0
 62
     1
100
AcDbCircle
 10
181.96306
 20
382.815286
 40
0.5
100
AcDbArc
 50
270.0
 51
360.0
  0
ARC
  5
8A9
100
AcDbEntity
  8
M0
 62
     1
100
AcDbCircle
 10
137.56306
 20
383.815286
 40
0.5
100
AcDbArc
 50
90.0
 51
180.0
  0
ARC
  5
8AA
100
AcDbEntity
  8
M0
 62
     1
100
AcDbCircle
 10
179.76306
 20
449.315286
 40
1.0
100
AcDbArc
 50
90.0
 51
98.626927
  0
ARC
  5
8AB
100
AcDbEntity
  8
M0
 62
     1
100
AcDbCircle
 10
180.96306
 20
383.815286
 40
0.5
100
AcDbArc
 50
90.0
 51
180.0
  0
ARC
  5
8AC
100
AcDbEntity
  8
M0
 62
     1
100
AcDbCircle
 10
137.56306
 20
382.815286
 40
0.5
100
AcDbArc
 50
180.0
 51
270.0
  0
ARC
  5
8AD
100
AcDbEntity
  8
M0
 62
     1
100
AcDbCircle
 10
133.36306
 20
445.315286
 40
5.0
100
AcDbArc
 50
90.0
 51
180.0
  0
ARC
  5
8AE
100
AcDbEntity
  8
M0
 62
     1
100
AcDbCircle
 10
138.56306
 20
383.815286
 40
0.5
100
AcDbArc
 50
0.0
 51
90.0
  0
LINE
  5
8AF
100
AcDbEntity
  8
M0
 62
     1
100
AcDbLine
 10
129.66306
 20
418.515286
 11
129.36306
 21
418.515286
  0
LINE
  5
8B0
100
AcDbEntity
  8
M0
 62
     1
100
AcDbLine
 10
130.66306
 20
424.115286
 11
135.76306
 21
424.115286
  0
LINE
  5
8B1
100
AcDbEntity
  8
M0
 62
     1
100
AcDbLine
 10
129.66306
 20
394.715287
 11
129.36306
 21
394.715287
  0
LINE
  5
8B2
100
AcDbEntity
  8
M0
 62
     1
100
AcDbLine
 10
130.66306
 20
441.515286
 11
130.66306
 21
419.515287
  0
LINE
  5
8B3
100
AcDbEntity
  8
M0
 62
     1
100
AcDbLine
 10
190.163062
 20
418.515286
 11
190.163062
 21
411.115287
  0
LINE
  5
8B4
100
AcDbEntity
  8
M0
 62
     1
100
AcDbLine
 10
129.36306
 20
411.115287
 11
129.66306
 21
411.115287
  0
LINE
  5
8B5
100
AcDbEntity
  8
M0
 62
     1
100
AcDbLine
 10
153.46306
 20
395.915287
 11
154.463062
 21
395.915287
  0
LINE
  5
8B6
100
AcDbEntity
  8
M0
 62
     1
100
AcDbLine
 10
153.06306
 20
395.915287
 11
153.46306
 21
395.915287
  0
LINE
  5
8B7
100
AcDbEntity
  8
M0
 62
     1
100
AcDbLine
 10
153.06306
 20
450.315288
 11
153.46306
 21
450.315288
  0
LINE
  5
8B8
100
AcDbEntity
  8
M0
 62
     1
100
AcDbLine
 10
188.863063
 20
410.115287
 11
188.863063
 21
388.115286
  0
LINE
  5
8B9
100
AcDbEntity
  8
M0
 62
     1
100
AcDbLine
 10
185.863057
 20
418.515286
 11
188.863063
 21
418.515286
  0
LINE
  5
8BA
100
AcDbEntity
  8
M0
 62
     1
100
AcDbLine
 10
185.863057
 20
411.115287
 11
185.863057
 21
418.515286
  0
LINE
  5
8BB
100
AcDbEntity
  8
M0
 62
     1
100
AcDbLine
 10
188.863063
 20
418.515286
 11
188.863063
 21
411.115287
  0
LINE
  5
8BC
100
AcDbEntity
  8
M0
 62
     1
100
AcDbLine
 10
129.36306
 20
434.915286
 11
129.66306
 21
434.915286
  0
LINE
  5
8BD
100
AcDbEntity
  8
M0
 62
     1
100
AcDbLine
 10
129.36306
 20
418.515286
 11
129.36306
 21
411.115287
  0
LINE
  5
8BE
100
AcDbEntity
  8
M0
 62
     1
100
AcDbLine
 10
188.863063
 20
411.115287
 11
185.863057
 21
411.115287
  0
ARC
  5
8BF
100
AcDbEntity
  8
M0
 62
     1
100
AcDbCircle
 10
179.06306
 20
380.315286
 40
1.0
100
AcDbArc
 50
180.0
 51
270.0
  0
ARC
  5
8C0
100
AcDbEntity
  8
M0
 62
     1
100
AcDbCircle
 10
179.46306
 20
380.315286
 40
1.0
100
AcDbArc
 50
270.0
 51
360.0
  0
ARC
  5
8C1
100
AcDbEntity
  8
M0
 62
     1
100
AcDbCircle
 10
140.46306
 20
449.315286
 40
1.0
100
AcDbArc
 50
0.0
 51
90.0
  0
ARC
  5
8C2
100
AcDbEntity
  8
M0
 62
     1
100
AcDbCircle
 10
179.46306
 20
449.315286
 40
1.0
100
AcDbArc
 50
0.0
 51
90.0
  0
ARC
  5
8C3
100
AcDbEntity
  8
M0
 62
     1
100
AcDbCircle
 10
166.46306
 20
449.315286
 40
1.0
100
AcDbArc
 50
0.0
 51
90.0
  0
ARC
  5
8C4
100
AcDbEntity
  8
M0
 62
     1
100
AcDbCircle
 10
153.46306
 20
380.315286
 40
1.0
100
AcDbArc
 50
270.0
 51
360.0
  0
ARC
  5
8C5
100
AcDbEntity
  8
M0
 62
     1
100
AcDbCircle
 10
166.46306
 20
380.315286
 40
1.0
100
AcDbArc
 50
270.0
 51
360.0
  0
ARC
  5
8C6
100
AcDbEntity
  8
M0
 62
     1
100
AcDbCircle
 10
179.06306
 20
449.315286
 40
1.0
100
AcDbArc
 50
90.0
 51
180.0
  0
LINE
  5
8C7
100
AcDbEntity
  8
M0
 62
     1
100
AcDbLine
 10
167.463062
 20
433.715287
 11
165.063058
 21
433.715287
  0
LINE
  5
8C8
100
AcDbEntity
  8
M0
 62
     1
100
AcDbLine
 10
188.863063
 20
424.115286
 11
183.76306
 21
424.115286
  0
LINE
  5
8C9
100
AcDbEntity
  8
M0
 62
     1
100
AcDbLine
 10
166.063061
 20
379.315285
 11
166.46306
 21
379.315285
  0
LINE
  5
8CA
100
AcDbEntity
  8
M0
 62
     1
100
AcDbLine
 10
167.463062
 20
395.915287
 11
166.46306
 21
395.915287
  0
ARC
  5
8CB
100
AcDbEntity
  8
M0
 62
     1
100
AcDbCircle
 10
140.06306
 20
449.315286
 40
1.0
100
AcDbArc
 50
90.0
 51
180.0
  0
ARC
  5
8CC
100
AcDbEntity
  8
M0
 62
     1
100
AcDbCircle
 10
153.06306
 20
380.315286
 40
1.0
100
AcDbArc
 50
180.0
 51
270.0
  0
ARC
  5
8CD
100
AcDbEntity
  8
M0
 62
     1
100
AcDbCircle
 10
139.06306
 20
395.315286
 40
0.6
100
AcDbArc
 50
180.0
 51
270.0
  0
ARC
  5
8CE
100
AcDbEntity
  8
M0
 62
     1
100
AcDbCircle
 10
140.46306
 20
380.315286
 40
1.0
100
AcDbArc
 50
270.0
 51
360.0
  0
LINE
  5
8CF
100
AcDbEntity
  8
M0
 62
     1
100
AcDbLine
 10
135.76306
 20
405.515286
 11
130.66306
 21
405.515286
  0
LINE
  5
8D0
100
AcDbEntity
  8
M0
 62
     1
100
AcDbLine
 10
183.76306
 20
405.515286
 11
188.863063
 21
405.515286
  0
ARC
  5
8D1
100
AcDbEntity
  8
M0
 62
     1
100
AcDbCircle
 10
166.06306
 20
449.315286
 40
1.0
100
AcDbArc
 50
90.0
 51
180.0
  0
ARC
  5
8D2
100
AcDbEntity
  8
M0
 62
     1
100
AcDbCircle
 10
153.46306
 20
449.315286
 40
1.0
100
AcDbArc
 50
0.0
 51
90.0
  0
ARC
  5
8D3
100
AcDbEntity
  8
M0
 62
     1
100
AcDbCircle
 10
166.06306
 20
380.315286
 40
1.0
100
AcDbArc
 50
180.0
 51
270.0
  0
LINE
  5
8D4
100
AcDbEntity
  8
M0
 62
     1
100
AcDbLine
 10
140.463059
 20
379.315285
 11
140.26306
 21
379.315285
  0
LINE
  5
8D5
100
AcDbEntity
  8
M0
 62
     1
100
AcDbLine
 10
140.26306
 20
450.315288
 11
140.463059
 21
450.315288
  0
LINE
  5
8D6
100
AcDbEntity
  8
M0
 62
     1
100
AcDbLine
 10
154.36306
 20
457.815288
 11
154.763057
 21
457.815288
  0
LINE
  5
8D7
100
AcDbEntity
  8
M0
 62
     1
100
AcDbLine
 10
154.36306
 20
458.315285
 11
154.36306
 21
449.751176
  0
LINE
  5
8D8
100
AcDbEntity
  8
M0
 62
     1
100
AcDbLine
 10
164.763057
 20
457.815288
 11
165.16306
 21
457.815288
  0
LINE
  5
8D9
100
AcDbEntity
  8
M0
 62
     1
100
AcDbLine
 10
180.463058
 20
380.315286
 11
180.463058
 21
396.815288
  0
ARC
  5
8DA
100
AcDbEntity
  8
M0
 62
     1
100
AcDbCircle
 10
181.96306
 20
383.815286
 40
0.5
100
AcDbArc
 50
0.0
 51
90.0
  0
LINE
  5
8DB
100
AcDbEntity
  8
M0
 62
     1
100
AcDbLine
 10
165.16306
 20
458.315285
 11
165.16306
 21
458.815286
  0
LINE
  5
8DC
100
AcDbEntity
  8
M0
 62
     1
100
AcDbLine
 10
154.36306
 20
458.815286
 11
154.36306
 21
458.315285
  0
LINE
  5
8DD
100
AcDbEntity
  8
M0
 62
     1
100
AcDbLine
 10
152.863061
 20
450.295082
 11
152.863061
 21
458.315285
  0
ARC
  5
8DE
100
AcDbEntity
  8
M0
 62
     1
100
AcDbCircle
 10
154.76306
 20
381.315286
 40
2.0
100
AcDbArc
 50
247.42065
 51
270.0
  0
ARC
  5
8DF
100
AcDbEntity
  8
M0
 62
     1
100
AcDbCircle
 10
180.96306
 20
382.815286
 40
0.5
100
AcDbArc
 50
180.0
 51
270.0
  0
ARC
  5
8E0
100
AcDbEntity
  8
M0
 62
     1
100
AcDbCircle
 10
175.56306
 20
458.715286
 40
0.6
100
AcDbArc
 50
90.0
 51
180.0
  0
ARC
  5
8E1
100
AcDbEntity
  8
M0
 62
     1
100
AcDbCircle
 10
155.26306
 20
381.815286
 40
0.5
100
AcDbArc
 50
180.0
 51
270.0
  0
ARC
  5
8E2
100
AcDbEntity
  8
M0
 62
     1
100
AcDbCircle
 10
143.96306
 20
458.715286
 40
0.6
100
AcDbArc
 50
0.0
 51
90.0
  0
ARC
  5
8E3
100
AcDbEntity
  8
M0
 62
     1
100
AcDbCircle
 10
143.64533
 20
458.715286
 40
0.6
100
AcDbArc
 50
90.0
 51
178.281642
  0
LINE
  5
8E4
100
AcDbEntity
  8
M0
 62
     1
100
AcDbLine
 10
189.863057
 20
394.715287
 11
190.163062
 21
394.715287
  0
LINE
  5
8E5
100
AcDbEntity
  8
M0
 62
     1
100
AcDbLine
 10
153.46306
 20
379.315285
 11
153.06306
 21
379.315285
  0
LINE
  5
8E6
100
AcDbEntity
  8
M0
 62
     1
100
AcDbLine
 10
188.863063
 20
441.515286
 11
188.863063
 21
419.515287
  0
ARC
  5
8E7
100
AcDbEntity
  8
M0
 62
     1
100
AcDbCircle
 10
153.06306
 20
449.315286
 40
1.0
100
AcDbArc
 50
90.0
 51
180.0
  0
ARC
  5
8E8
100
AcDbEntity
  8
M0
 62
     1
100
AcDbCircle
 10
175.88079
 20
458.715286
 40
0.6
100
AcDbArc
 50
1.718358
 51
90.0
  0
LINE
  5
8E9
100
AcDbEntity
  8
M0
 62
     1
100
AcDbLine
 10
190.163062
 20
434.915286
 11
189.863057
 21
434.915286
  0
ARC
  5
8EA
100
AcDbEntity
  8
M0
 62
     1
100
AcDbCircle
 10
164.76306
 20
381.315286
 40
2.0
100
AcDbArc
 50
270.0
 51
292.57935
  0
ARC
  5
8EB
100
AcDbEntity
  8
M0
 62
     1
100
AcDbCircle
 10
164.26306
 20
381.815286
 40
0.5
100
AcDbArc
 50
270.0
 51
360.0
  0
LINE
  5
8EC
100
AcDbEntity
  8
M0
 62
     1
100
AcDbLine
 10
190.163062
 20
418.515286
 11
189.863057
 21
418.515286
  0
LINE
  5
8ED
100
AcDbEntity
  8
M0
 62
     1
100
AcDbLine
 10
189.863057
 20
411.115287
 11
190.163062
 21
411.115287
  0
LINE
  5
8EE
100
AcDbEntity
  8
M0
 62
     1
100
AcDbLine
 10
62.963064
 20
400.315241
 11
60.172007
 21
403.106404
  0
LINE
  5
8EF
100
AcDbEntity
  8
M0
 62
     1
100
AcDbLine
 10
62.963064
 20
401.655151
 11
61.409312
 21
400.101399
  0
LINE
  5
8F0
100
AcDbEntity
  8
M0
 62
     1
100
AcDbLine
 10
62.116343
 20
402.929647
 11
60.348765
 21
401.161946
  0
LINE
  5
8F1
100
AcDbEntity
  8
M0
 62
     1
100
AcDbLine
 10
62.963064
 20
405.340286
 11
58.438064
 21
405.340286
  0
LINE
  5
8F2
100
AcDbEntity
  8
M0
 62
     1
100
AcDbLine
 10
58.438064
 20
397.690286
 11
65.088064
 21
397.690286
  0
LINE
  5
8F3
100
AcDbEntity
  8
M0
 62
     1
100
AcDbLine
 10
57.938064
 20
404.840286
 11
57.938064
 21
398.190286
  0
ARC
  5
8F4
100
AcDbEntity
  8
M0
 62
     1
100
AcDbCircle
 10
58.438064
 20
404.840286
 40
0.5
100
AcDbArc
 50
90.0
 51
180.0
  0
ARC
  5
8F5
100
AcDbEntity
  8
M0
 62
     1
100
AcDbCircle
 10
58.438064
 20
398.190286
 40
0.5
100
AcDbArc
 50
180.0
 51
270.0
  0
ARC
  5
8F6
100
AcDbEntity
  8
M0
 62
     1
100
AcDbCircle
 10
61.763064
 20
401.515286
 40
3.0
100
AcDbArc
 50
66.421825
 51
293.578175
  0
LINE
  5
8F7
100
AcDbEntity
  8
M0
 62
     1
100
AcDbLine
 10
128.36306
 20
439.115287
 11
128.36306
 21
414.815287
  0
LINE
  5
8F8
100
AcDbEntity
  8
M0
 62
     1
100
AcDbLine
 10
128.36306
 20
432.215287
 11
123.36306
 21
432.215287
  0
LINE
  5
8F9
100
AcDbEntity
  8
M0
 62
     1
100
AcDbLine
 10
125.763061
 20
440.215288
 11
120.963061
 21
440.215288
  0
LINE
  5
8FA
100
AcDbEntity
  8
M0
 62
     1
100
AcDbLine
 10
118.363061
 20
432.215287
 11
123.36306
 21
432.215287
  0
LINE
  5
8FB
100
AcDbEntity
  8
M0
 62
     1
100
AcDbLine
 10
128.36306
 20
436.315287
 11
123.36306
 21
436.315287
  0
LINE
  5
8FC
100
AcDbEntity
  8
M0
 62
     1
100
AcDbLine
 10
118.363061
 20
397.415287
 11
123.36306
 21
397.415287
  0
ARC
  5
8FD
100
AcDbEntity
  8
M0
 62
     1
100
AcDbCircle
 10
127.863061
 20
439.115287
 40
0.5
100
AcDbArc
 50
23.578178
 51
90.0
  0
LINE
  5
8FE
100
AcDbEntity
  8
M0
 62
     1
100
AcDbLine
 10
125.763061
 20
389.415285
 11
120.963061
 21
389.415285
  0
ARC
  5
8FF
100
AcDbEntity
  8
M0
 62
     1
100
AcDbCircle
 10
120.963061
 20
439.615287
 40
0.6
100
AcDbArc
 50
90.0
 51
180.0
  0
ARC
  5
900
100
AcDbEntity
  8
M0
 62
     1
100
AcDbCircle
 10
118.863061
 20
439.115287
 40
0.5
100
AcDbArc
 50
90.0
 51
156.421822
  0
LINE
  5
901
100
AcDbEntity
  8
M0
 62
     1
100
AcDbLine
 10
118.363061
 20
414.815287
 11
118.363061
 21
390.515286
  0
ARC
  5
902
100
AcDbEntity
  8
M0
 62
     1
100
AcDbCircle
 10
125.763061
 20
439.615287
 40
0.6
100
AcDbArc
 50
0.0
 51
90.0
  0
LINE
  5
903
100
AcDbEntity
  8
M0
 62
     1
100
AcDbLine
 10
128.36306
 20
390.515286
 11
128.36306
 21
414.815287
  0
LINE
  5
904
100
AcDbEntity
  8
M0
 62
     1
100
AcDbLine
 10
128.36306
 20
393.315286
 11
123.36306
 21
393.315286
  0
ARC
  5
905
100
AcDbEntity
  8
M0
 62
     1
100
AcDbCircle
 10
125.763061
 20
390.015286
 40
0.6
100
AcDbArc
 50
270.0
 51
360.0
  0
LINE
  5
906
100
AcDbEntity
  8
M0
  6
DASHDOT
 62
     1
100
AcDbLine
 10
123.36306
 20
444.815286
 11
123.36306
 21
385.815286
  0
ARC
  5
907
100
AcDbEntity
  8
M0
 62
     1
100
AcDbCircle
 10
127.863061
 20
390.515286
 40
0.5
100
AcDbArc
 50
270.0
 51
336.421822
  0
LINE
  5
908
100
AcDbEntity
  8
M0
 62
     1
100
AcDbLine
 10
128.36306
 20
397.415287
 11
123.36306
 21
397.415287
  0
LINE
  5
909
100
AcDbEntity
  8
M0
 62
     1
100
AcDbLine
 10
118.363061
 20
436.315287
 11
123.36306
 21
436.315287
  0
ARC
  5
90A
100
AcDbEntity
  8
M0
 62
     1
100
AcDbCircle
 10
118.863061
 20
390.515286
 40
0.5
100
AcDbArc
 50
203.578178
 51
270.0
  0
LINE
  5
90B
100
AcDbEntity
  8
M0
 62
     1
100
AcDbLine
 10
118.363061
 20
414.815287
 11
118.363061
 21
439.115287
  0
LINE
  5
90C
100
AcDbEntity
  8
M0
 62
     1
100
AcDbLine
 10
118.863061
 20
390.015288
 11
127.863061
 21
390.015288
  0
ARC
  5
90D
100
AcDbEntity
  8
M0
 62
     1
100
AcDbCircle
 10
120.963061
 20
390.015286
 40
0.6
100
AcDbArc
 50
180.0
 51
270.0
  0
LINE
  5
90E
100
AcDbEntity
  8
M0
 62
     1
100
AcDbLine
 10
118.863061
 20
439.615285
 11
127.863061
 21
439.615285
  0
LINE
  5
90F
100
AcDbEntity
  8
M0
 62
     1
100
AcDbLine
 10
118.363061
 20
393.315286
 11
123.36306
 21
393.315286
  0
CIRCLE
  5
910
100
AcDbEntity
  8
M0
 62
     1
100
AcDbCircle
 10
61.763064
 20
435.715286
 40
3.0
  0
LINE
  5
911
100
AcDbEntity
  8
M0
 62
     1
100
AcDbLine
 10
63.353647
 20
434.124642
 11
60.172007
 21
437.306404
  0
LINE
  5
912
100
AcDbEntity
  8
M0
 62
     1
100
AcDbLine
 10
63.17689
 20
436.068978
 11
61.409312
 21
434.301399
  0
LINE
  5
913
100
AcDbEntity
  8
M0
 62
     1
100
AcDbLine
 10
62.116343
 20
437.129647
 11
60.348765
 21
435.361946
  0
LINE
  5
914
100
AcDbEntity
  8
M0
 62
     1
100
AcDbLine
 10
65.088064
 20
439.540286
 11
58.438064
 21
439.540286
  0
ARC
  5
915
100
AcDbEntity
  8
M0
 62
     1
100
AcDbCircle
 10
65.088064
 20
439.040286
 40
0.5
100
AcDbArc
 50
0.0
 51
90.0
  0
LINE
  5
916
100
AcDbEntity
  8
M0
 62
     1
100
AcDbLine
 10
65.588064
 20
432.815287
 11
65.588064
 21
439.040286
  0
LINE
  5
917
100
AcDbEntity
  8
M0
 62
     1
100
AcDbLine
 10
58.438064
 20
431.890286
 11
62.96588
 21
431.890286
  0
LINE
  5
918
100
AcDbEntity
  8
M0
 62
     1
100
AcDbLine
 10
57.938064
 20
439.040286
 11
57.938064
 21
432.390286
  0
ARC
  5
919
100
AcDbEntity
  8
M0
 62
     1
100
AcDbCircle
 10
58.438064
 20
439.040286
 40
0.5
100
AcDbArc
 50
90.0
 51
180.0
  0
ARC
  5
91A
100
AcDbEntity
  8
M0
 62
     1
100
AcDbCircle
 10
58.438064
 20
432.390286
 40
0.5
100
AcDbArc
 50
180.0
 51
270.0
  0
LINE
  5
91B
100
AcDbEntity
  8
M0
 62
     1
100
AcDbLine
 10
99.453648
 20
451.824642
 11
96.272007
 21
455.006404
  0
LINE
  5
91C
100
AcDbEntity
  8
M0
 62
     1
100
AcDbLine
 10
99.27689
 20
453.768978
 11
97.509312
 21
452.001399
  0
LINE
  5
91D
100
AcDbEntity
  8
M0
 62
     1
100
AcDbLine
 10
98.216343
 20
454.829647
 11
96.448765
 21
453.061946
  0
LINE
  5
91E
100
AcDbEntity
  8
M0
 62
     1
100
AcDbLine
 10
101.188064
 20
457.240286
 11
94.538064
 21
457.240286
  0
ARC
  5
91F
100
AcDbEntity
  8
M0
 62
     1
100
AcDbCircle
 10
101.188064
 20
456.740286
 40
0.5
100
AcDbArc
 50
0.0
 51
90.0
  0
LINE
  5
920
100
AcDbEntity
  8
M0
 62
     1
100
AcDbLine
 10
101.688064
 20
454.476304
 11
101.688064
 21
456.740286
  0
LINE
  5
921
100
AcDbEntity
  8
M0
 62
     1
100
AcDbLine
 10
94.538064
 20
449.590286
 11
98.685199
 21
449.590286
  0
LINE
  5
922
100
AcDbEntity
  8
M0
 62
     1
100
AcDbLine
 10
94.038064
 20
456.740286
 11
94.038064
 21
450.090286
  0
ARC
  5
923
100
AcDbEntity
  8
M0
 62
     1
100
AcDbCircle
 10
94.538064
 20
456.740286
 40
0.5
100
AcDbArc
 50
90.0
 51
180.0
  0
ARC
  5
924
100
AcDbEntity
  8
M0
 62
     1
100
AcDbCircle
 10
94.538064
 20
450.090286
 40
0.5
100
AcDbArc
 50
180.0
 51
270.0
  0
ARC
  5
925
100
AcDbEntity
  8
M0
 62
     1
100
AcDbCircle
 10
97.863064
 20
453.415286
 40
3.0
100
AcDbArc
 50
354.126881
 51
662.724737
  0
LINE
  5
926
100
AcDbEntity
  8
M0
 62
     1
100
AcDbLine
 10
77.653647
 20
451.824642
 11
74.472007
 21
455.006404
  0
LINE
  5
927
100
AcDbEntity
  8
M0
 62
     1
100
AcDbLine
 10
77.476889
 20
453.768978
 11
75.709311
 21
452.001399
  0
LINE
  5
928
100
AcDbEntity
  8
M0
 62
     1
100
AcDbLine
 10
76.416343
 20
454.829647
 11
74.648764
 21
453.061946
  0
LINE
  5
929
100
AcDbEntity
  8
M0
 62
     1
100
AcDbLine
 10
79.388063
 20
457.240286
 11
72.738063
 21
457.240286
  0
ARC
  5
92A
100
AcDbEntity
  8
M0
 62
     1
100
AcDbCircle
 10
79.388063
 20
456.740286
 40
0.5
100
AcDbArc
 50
0.0
 51
90.0
  0
LINE
  5
92B
100
AcDbEntity
  8
M0
 62
     1
100
AcDbLine
 10
79.888063
 20
450.090286
 11
79.888063
 21
456.740286
  0
ARC
  5
92C
100
AcDbEntity
  8
M0
 62
     1
100
AcDbCircle
 10
79.388063
 20
450.090286
 40
0.5
100
AcDbArc
 50
270.0
 51
360.0
  0
LINE
  5
92D
100
AcDbEntity
  8
M0
 62
     1
100
AcDbLine
 10
75.240929
 20
449.590286
 11
79.388063
 21
449.590286
  0
LINE
  5
92E
100
AcDbEntity
  8
M0
 62
     1
100
AcDbLine
 10
72.238063
 20
456.740286
 11
72.238063
 21
454.476304
  0
ARC
  5
92F
100
AcDbEntity
  8
M0
 62
     1
100
AcDbCircle
 10
72.738063
 20
456.740286
 40
0.5
100
AcDbArc
 50
90.0
 51
180.0
  0
ARC
  5
930
100
AcDbEntity
  8
M0
 62
     1
100
AcDbCircle
 10
76.063063
 20
453.415286
 40
3.0
100
AcDbArc
 50
237.275263
 51
545.873119
  0
LINE
  5
931
100
AcDbEntity
  8
M0
  6
DASHDOT
 62
     1
100
AcDbLine
 10
123.36306
 20
414.815287
 11
208.663057
 21
414.815287
  0
CIRCLE
  5
932
100
AcDbEntity
  8
M0
 62
     1
100
AcDbCircle
 10
61.763064
 20
393.915286
 40
3.0
  0
LINE
  5
933
100
AcDbEntity
  8
M0
 62
     1
100
AcDbLine
 10
63.353648
 20
392.324642
 11
60.172007
 21
395.506404
  0
LINE
  5
934
100
AcDbEntity
  8
M0
 62
     1
100
AcDbLine
 10
63.17689
 20
394.268978
 11
61.409312
 21
392.501399
  0
LINE
  5
935
100
AcDbEntity
  8
M0
 62
     1
100
AcDbLine
 10
62.116343
 20
395.329647
 11
60.348765
 21
393.561946
  0
LINE
  5
936
100
AcDbEntity
  8
M0
 62
     1
100
AcDbLine
 10
62.96588
 20
397.740286
 11
58.438064
 21
397.740286
  0
LINE
  5
937
100
AcDbEntity
  8
M0
 62
     1
100
AcDbLine
 10
65.588064
 20
390.590286
 11
65.588064
 21
396.815288
  0
ARC
  5
938
100
AcDbEntity
  8
M0
 62
     1
100
AcDbCircle
 10
65.088064
 20
390.590286
 40
0.5
100
AcDbArc
 50
270.0
 51
360.0
  0
LINE
  5
939
100
AcDbEntity
  8
M0
 62
     1
100
AcDbLine
 10
58.438064
 20
390.090286
 11
65.088064
 21
390.090286
  0
LINE
  5
93A
100
AcDbEntity
  8
M0
 62
     1
100
AcDbLine
 10
57.938064
 20
397.240286
 11
57.938064
 21
390.590286
  0
ARC
  5
93B
100
AcDbEntity
  8
M0
 62
     1
100
AcDbCircle
 10
58.438064
 20
397.240286
 40
0.5
100
AcDbArc
 50
90.0
 51
180.0
  0
ARC
  5
93C
100
AcDbEntity
  8
M0
 62
     1
100
AcDbCircle
 10
58.438064
 20
390.590286
 40
0.5
100
AcDbArc
 50
180.0
 51
270.0
  0
ARC
  5
93D
100
AcDbEntity
  8
M0
 62
     1
100
AcDbCircle
 10
73.963064
 20
382.315286
 40
2.75
100
AcDbArc
 50
294.427107
 51
402.37713
  0
CIRCLE
  5
93E
100
AcDbEntity
  8
M0
 62
     1
100
AcDbCircle
 10
112.163063
 20
401.515286
 40
3.0
  0
LINE
  5
93F
100
AcDbEntity
  8
M0
 62
     1
100
AcDbLine
 10
113.753647
 20
399.924642
 11
110.572007
 21
403.106404
  0
LINE
  5
940
100
AcDbEntity
  8
M0
 62
     1
100
AcDbLine
 10
113.576889
 20
401.868978
 11
111.809311
 21
400.101399
  0
LINE
  5
941
100
AcDbEntity
  8
M0
 62
     1
100
AcDbLine
 10
112.516343
 20
402.929647
 11
110.748764
 21
401.161946
  0
LINE
  5
942
100
AcDbEntity
  8
M0
 62
     1
100
AcDbLine
 10
115.488063
 20
405.340286
 11
110.963064
 21
405.340286
  0
ARC
  5
943
100
AcDbEntity
  8
M0
 62
     1
100
AcDbCircle
 10
115.488063
 20
404.840286
 40
0.5
100
AcDbArc
 50
0.0
 51
90.0
  0
LINE
  5
944
100
AcDbEntity
  8
M0
 62
     1
100
AcDbLine
 10
115.988063
 20
398.190286
 11
115.988063
 21
404.840286
  0
ARC
  5
945
100
AcDbEntity
  8
M0
 62
     1
100
AcDbCircle
 10
115.488063
 20
398.190286
 40
0.5
100
AcDbArc
 50
270.0
 51
360.0
  0
LINE
  5
946
100
AcDbEntity
  8
M0
 62
     1
100
AcDbLine
 10
110.95522
 20
397.690286
 11
115.488063
 21
397.690286
  0
LINE
  5
947
100
AcDbEntity
  8
M0
 62
     1
100
AcDbLine
 10
113.753647
 20
426.524642
 11
110.963064
 21
429.315332
  0
LINE
  5
948
100
AcDbEntity
  8
M0
 62
     1
100
AcDbLine
 10
113.576889
 20
428.468978
 11
111.809311
 21
426.701399
  0
LINE
  5
949
100
AcDbEntity
  8
M0
 62
     1
100
AcDbLine
 10
112.516343
 20
429.529647
 11
110.963064
 21
427.976261
  0
LINE
  5
94A
100
AcDbEntity
  8
M0
 62
     1
100
AcDbLine
 10
115.488063
 20
431.940286
 11
110.955221
 21
431.940286
  0
ARC
  5
94B
100
AcDbEntity
  8
M0
 62
     1
100
AcDbCircle
 10
115.488063
 20
431.440286
 40
0.5
100
AcDbArc
 50
0.0
 51
90.0
  0
LINE
  5
94C
100
AcDbEntity
  8
M0
 62
     1
100
AcDbLine
 10
115.988063
 20
424.790286
 11
115.988063
 21
431.440286
  0
ARC
  5
94D
100
AcDbEntity
  8
M0
 62
     1
100
AcDbCircle
 10
115.488063
 20
424.790286
 40
0.5
100
AcDbArc
 50
270.0
 51
360.0
  0
LINE
  5
94E
100
AcDbEntity
  8
M0
 62
     1
100
AcDbLine
 10
110.963064
 20
424.290286
 11
115.488063
 21
424.290286
  0
ARC
  5
94F
100
AcDbEntity
  8
M0
 62
     1
100
AcDbCircle
 10
112.163063
 20
428.115286
 40
3.0
100
AcDbArc
 50
246.421832
 51
473.578168
  0
CIRCLE
  5
950
100
AcDbEntity
  8
M0
 62
     1
100
AcDbCircle
 10
112.163063
 20
393.915286
 40
3.0
  0
LINE
  5
951
100
AcDbEntity
  8
M0
 62
     1
100
AcDbLine
 10
113.753647
 20
392.324642
 11
110.572007
 21
395.506404
  0
LINE
  5
952
100
AcDbEntity
  8
M0
 62
     1
100
AcDbLine
 10
113.576889
 20
394.268978
 11
111.809311
 21
392.501399
  0
LINE
  5
953
100
AcDbEntity
  8
M0
 62
     1
100
AcDbLine
 10
112.516343
 20
395.329647
 11
110.748764
 21
393.561946
  0
LINE
  5
954
100
AcDbEntity
  8
M0
 62
     1
100
AcDbLine
 10
115.488063
 20
397.740286
 11
110.960247
 21
397.740286
  0
ARC
  5
955
100
AcDbEntity
  8
M0
 62
     1
100
AcDbCircle
 10
115.488063
 20
397.240286
 40
0.5
100
AcDbArc
 50
0.0
 51
90.0
  0
LINE
  5
956
100
AcDbEntity
  8
M0
 62
     1
100
AcDbLine
 10
115.988063
 20
390.590286
 11
115.988063
 21
397.240286
  0
ARC
  5
957
100
AcDbEntity
  8
M0
 62
     1
100
AcDbCircle
 10
115.488063
 20
390.590286
 40
0.5
100
AcDbArc
 50
270.0
 51
360.0
  0
LINE
  5
958
100
AcDbEntity
  8
M0
 62
     1
100
AcDbLine
 10
108.838063
 20
390.090286
 11
115.488063
 21
390.090286
  0
LINE
  5
959
100
AcDbEntity
  8
M0
 62
     1
100
AcDbLine
 10
108.338063
 20
396.815288
 11
108.338063
 21
390.590286
  0
ARC
  5
95A
100
AcDbEntity
  8
M0
 62
     1
100
AcDbCircle
 10
108.838063
 20
390.590286
 40
0.5
100
AcDbArc
 50
180.0
 51
270.0
  0
CIRCLE
  5
95B
100
AcDbEntity
  8
M0
 62
     1
100
AcDbCircle
 10
73.963064
 20
438.515287
 40
3.5
  0
LINE
  5
95C
100
AcDbEntity
  8
M0
 62
     1
100
AcDbLine
 10
74.973935
 20
440.233243
 11
72.398862
 21
437.65817
  0
LINE
  5
95D
100
AcDbEntity
  8
M0
 62
     1
100
AcDbLine
 10
75.681043
 20
439.526136
 11
73.10597
 21
436.951063
  0
LINE
  5
95E
100
AcDbEntity
  8
M0
 62
     1
100
AcDbLine
 10
73.00221
 20
439.476133
 11
74.847058
 21
437.631299
  0
CIRCLE
  5
95F
100
AcDbEntity
  8
M0
 62
     1
100
AcDbCircle
 10
86.96306
 20
438.515287
 40
3.5
  0
LINE
  5
960
100
AcDbEntity
  8
M0
 62
     1
100
AcDbLine
 10
87.973932
 20
440.233243
 11
85.398859
 21
437.65817
  0
LINE
  5
961
100
AcDbEntity
  8
M0
 62
     1
100
AcDbLine
 10
88.681039
 20
439.526136
 11
86.105966
 21
436.951063
  0
LINE
  5
962
100
AcDbEntity
  8
M0
 62
     1
100
AcDbLine
 10
86.002206
 20
439.476133
 11
87.847055
 21
437.631299
  0
CIRCLE
  5
963
100
AcDbEntity
  8
M0
 62
     1
100
AcDbCircle
 10
99.963061
 20
438.515287
 40
3.5
  0
LINE
  5
964
100
AcDbEntity
  8
M0
 62
     1
100
AcDbLine
 10
100.973932
 20
440.233243
 11
98.398859
 21
437.65817
  0
LINE
  5
965
100
AcDbEntity
  8
M0
 62
     1
100
AcDbLine
 10
101.68104
 20
439.526136
 11
99.105966
 21
436.951063
  0
LINE
  5
966
100
AcDbEntity
  8
M0
 62
     1
100
AcDbLine
 10
99.002207
 20
439.476133
 11
100.847055
 21
437.631299
  0
CIRCLE
  5
967
100
AcDbEntity
  8
M0
 62
     1
100
AcDbCircle
 10
99.963061
 20
391.115286
 40
3.5
  0
LINE
  5
968
100
AcDbEntity
  8
M0
 62
     1
100
AcDbLine
 10
100.973932
 20
392.833243
 11
98.398859
 21
390.25817
  0
LINE
  5
969
100
AcDbEntity
  8
M0
 62
     1
100
AcDbLine
 10
101.68104
 20
392.126135
 11
99.105966
 21
389.551062
  0
LINE
  5
96A
100
AcDbEntity
  8
M0
 62
     1
100
AcDbLine
 10
99.002207
 20
392.076132
 11
100.847055
 21
390.231299
  0
CIRCLE
  5
96B
100
AcDbEntity
  8
M0
 62
     1
100
AcDbCircle
 10
86.96306
 20
391.115286
 40
3.5
  0
LINE
  5
96C
100
AcDbEntity
  8
M0
 62
     1
100
AcDbLine
 10
87.973932
 20
392.833243
 11
85.398859
 21
390.25817
  0
LINE
  5
96D
100
AcDbEntity
  8
M0
 62
     1
100
AcDbLine
 10
88.681039
 20
392.126135
 11
86.105966
 21
389.551062
  0
LINE
  5
96E
100
AcDbEntity
  8
M0
 62
     1
100
AcDbLine
 10
86.002206
 20
392.076132
 11
87.847055
 21
390.231299
  0
CIRCLE
  5
96F
100
AcDbEntity
  8
M0
 62
     1
100
AcDbCircle
 10
73.963064
 20
391.115286
 40
3.5
  0
LINE
  5
970
100
AcDbEntity
  8
M0
 62
     1
100
AcDbLine
 10
74.973935
 20
392.833243
 11
72.398862
 21
390.25817
  0
LINE
  5
971
100
AcDbEntity
  8
M0
 62
     1
100
AcDbLine
 10
75.681043
 20
392.126135
 11
73.10597
 21
389.551062
  0
LINE
  5
972
100
AcDbEntity
  8
M0
 62
     1
100
AcDbLine
 10
73.00221
 20
392.076132
 11
74.847058
 21
390.231299
  0
ARC
  5
973
100
AcDbEntity
  8
M0
 62
     1
100
AcDbCircle
 10
99.963064
 20
382.315286
 40
2.75
100
AcDbArc
 50
137.622878
 51
245.572882
  0
CIRCLE
  5
974
100
AcDbEntity
  8
M0
 62
     1
100
AcDbCircle
 10
112.163063
 20
435.715286
 40
3.0
  0
LINE
  5
975
100
AcDbEntity
  8
M0
 62
     1
100
AcDbLine
 10
113.753647
 20
434.124642
 11
110.572007
 21
437.306404
  0
LINE
  5
976
100
AcDbEntity
  8
M0
 62
     1
100
AcDbLine
 10
113.576889
 20
436.068978
 11
111.809311
 21
434.301399
  0
LINE
  5
977
100
AcDbEntity
  8
M0
 62
     1
100
AcDbLine
 10
112.516343
 20
437.129647
 11
110.748764
 21
435.361946
  0
LINE
  5
978
100
AcDbEntity
  8
M0
 62
     1
100
AcDbLine
 10
115.488063
 20
439.540286
 11
108.838063
 21
439.540286
  0
ARC
  5
979
100
AcDbEntity
  8
M0
 62
     1
100
AcDbCircle
 10
115.488063
 20
439.040286
 40
0.5
100
AcDbArc
 50
0.0
 51
90.0
  0
LINE
  5
97A
100
AcDbEntity
  8
M0
 62
     1
100
AcDbLine
 10
115.988063
 20
432.390286
 11
115.988063
 21
439.040286
  0
ARC
  5
97B
100
AcDbEntity
  8
M0
 62
     1
100
AcDbCircle
 10
115.488063
 20
432.390286
 40
0.5
100
AcDbArc
 50
270.0
 51
360.0
  0
LINE
  5
97C
100
AcDbEntity
  8
M0
 62
     1
100
AcDbLine
 10
110.960247
 20
431.890286
 11
115.488063
 21
431.890286
  0
LINE
  5
97D
100
AcDbEntity
  8
M0
 62
     1
100
AcDbLine
 10
108.338063
 20
439.040286
 11
108.338063
 21
432.815287
  0
ARC
  5
97E
100
AcDbEntity
  8
M0
 62
     1
100
AcDbCircle
 10
108.838063
 20
439.040286
 40
0.5
100
AcDbArc
 50
90.0
 51
180.0
  0
LINE
  5
97F
100
AcDbEntity
  8
M0
 62
     1
100
AcDbLine
 10
62.963064
 20
426.915241
 11
60.172007
 21
429.706404
  0
LINE
  5
980
100
AcDbEntity
  8
M0
 62
     1
100
AcDbLine
 10
62.963064
 20
428.255152
 11
61.409312
 21
426.701399
  0
LINE
  5
981
100
AcDbEntity
  8
M0
 62
     1
100
AcDbLine
 10
62.116343
 20
429.529647
 11
60.348765
 21
427.761946
  0
LINE
  5
982
100
AcDbEntity
  8
M0
 62
     1
100
AcDbLine
 10
62.970907
 20
431.940286
 11
58.438064
 21
431.940286
  0
LINE
  5
983
100
AcDbEntity
  8
M0
 62
     1
100
AcDbLine
 10
58.438064
 20
424.290286
 11
62.963064
 21
424.290286
  0
LINE
  5
984
100
AcDbEntity
  8
M0
 62
     1
100
AcDbLine
 10
57.938064
 20
431.440286
 11
57.938064
 21
424.790286
  0
ARC
  5
985
100
AcDbEntity
  8
M0
 62
     1
100
AcDbCircle
 10
58.438064
 20
431.440286
 40
0.5
100
AcDbArc
 50
90.0
 51
180.0
  0
ARC
  5
986
100
AcDbEntity
  8
M0
 62
     1
100
AcDbCircle
 10
58.438064
 20
424.790286
 40
0.5
100
AcDbArc
 50
180.0
 51
270.0
  0
ARC
  5
987
100
AcDbEntity
  8
M0
 62
     1
100
AcDbCircle
 10
61.763064
 20
428.115286
 40
3.0
100
AcDbArc
 50
66.421824
 51
293.578176
  0
CIRCLE
  5
988
100
AcDbEntity
  8
M0
 62
     7
100
AcDbCircle
 10
186.763033
 20
187.939725
 40
2.0
  0
CIRCLE
  5
989
100
AcDbEntity
  8
M0
 62
     7
100
AcDbCircle
 10
132.763033
 20
246.939725
 40
2.0
  0
CIRCLE
  5
98A
100
AcDbEntity
  8
M0
 62
     7
100
AcDbCircle
 10
132.763033
 20
246.939717
 40
1.7
  0
CIRCLE
  5
98B
100
AcDbEntity
  8
M0
 62
     7
100
AcDbCircle
 10
186.763033
 20
187.939725
 40
1.7
  0
LINE
  5
98C
100
AcDbEntity
  8
M0
  6
DIVIDE
 62
     7
100
AcDbLine
 10
128.363036
 20
242.239726
 11
118.363036
 21
242.239726
  0
LINE
  5
98D
100
AcDbEntity
  8
M0
  6
DIVIDE
 62
     7
100
AcDbLine
 10
128.363036
 20
191.439723
 11
118.363036
 21
191.439723
  0
CIRCLE
  5
98E
100
AcDbEntity
  8
M0
 62
     7
100
AcDbCircle
 10
113.963039
 20
187.939725
 40
2.0
  0
CIRCLE
  5
98F
100
AcDbEntity
  8
M0
 62
     7
100
AcDbCircle
 10
59.96304
 20
246.939725
 40
2.0
  0
CIRCLE
  5
990
100
AcDbEntity
  8
M0
 62
     7
100
AcDbCircle
 10
59.96304
 20
246.939717
 40
1.7
  0
CIRCLE
  5
991
100
AcDbEntity
  8
M0
 62
     7
100
AcDbCircle
 10
113.963039
 20
187.939725
 40
1.7
  0
LINE
  5
992
100
AcDbEntity
  8
M0
  6
DIVIDE
 62
     7
100
AcDbLine
 10
61.463039
 20
252.439726
 11
61.463039
 21
266.939723
  0
LINE
  5
993
100
AcDbEntity
  8
M0
  6
DIVIDE
 62
     7
100
AcDbLine
 10
112.463039
 20
252.439726
 11
112.463039
 21
266.939723
  0
LINE
  5
994
100
AcDbEntity
  8
M0
  6
DIVIDE
 62
     7
100
AcDbLine
 10
112.463039
 20
266.939723
 11
61.463039
 21
266.939723
  0
LINE
  5
995
100
AcDbEntity
  8
M0
  6
DIVIDE
 62
     7
100
AcDbLine
 10
61.463039
 20
166.939723
 11
112.463039
 21
166.939723
  0
LINE
  5
996
100
AcDbEntity
  8
M0
  6
DIVIDE
 62
     7
100
AcDbLine
 10
61.463039
 20
166.939723
 11
61.463039
 21
181.439723
  0
LINE
  5
997
100
AcDbEntity
  8
M0
  6
DIVIDE
 62
     7
100
AcDbLine
 10
112.463039
 20
166.939723
 11
112.463039
 21
181.439723
  0
LINE
  5
998
100
AcDbEntity
  8
M0
  6
DIVIDE
 62
     7
100
AcDbLine
 10
134.263033
 20
252.439726
 11
134.263033
 21
266.939723
  0
LINE
  5
999
100
AcDbEntity
  8
M0
  6
DIVIDE
 62
     7
100
AcDbLine
 10
185.263033
 20
266.939723
 11
134.263033
 21
266.939723
  0
LINE
  5
99A
100
AcDbEntity
  8
M0
  6
DIVIDE
 62
     7
100
AcDbLine
 10
185.263033
 20
252.439726
 11
185.263033
 21
266.939723
  0
LINE
  5
99B
100
AcDbEntity
  8
M0
  6
DIVIDE
 62
     7
100
AcDbLine
 10
185.263033
 20
166.939723
 11
185.263033
 21
181.439723
  0
LINE
  5
99C
100
AcDbEntity
  8
M0
  6
DIVIDE
 62
     7
100
AcDbLine
 10
134.263033
 20
166.939723
 11
185.263033
 21
166.939723
  0
LINE
  5
99D
100
AcDbEntity
  8
M0
  6
DIVIDE
 62
     7
100
AcDbLine
 10
134.263033
 20
166.939723
 11
134.263033
 21
181.439723
  0
LINE
  5
99E
100
AcDbEntity
  8
M0
  6
DASHDOT
 62
     7
100
AcDbLine
 10
64.060444
 20
246.939725
 11
55.865635
 21
246.939725
  0
LINE
  5
99F
100
AcDbEntity
  8
M0
  6
DASHDOT
 62
     7
100
AcDbLine
 10
59.963032
 20
251.037121
 11
59.963047
 21
242.842313
  0
LINE
  5
9A0
100
AcDbEntity
  8
M0
  6
DASHDOT
 62
     7
100
AcDbLine
 10
118.060444
 20
187.939725
 11
109.865635
 21
187.939725
  0
LINE
  5
9A1
100
AcDbEntity
  8
M0
  6
DASHDOT
 62
     7
100
AcDbLine
 10
113.963032
 20
192.037121
 11
113.963047
 21
182.842313
  0
LINE
  5
9A2
100
AcDbEntity
  8
M0
  6
DIVIDE
 62
     7
100
AcDbLine
 10
118.363036
 20
252.439726
 11
118.363036
 21
242.239726
  0
LINE
  5
9A3
100
AcDbEntity
  8
M0
  6
DIVIDE
 62
     7
100
AcDbLine
 10
191.16303
 20
181.439723
 11
185.263033
 21
181.439723
  0
LINE
  5
9A4
100
AcDbEntity
  8
M0
  6
DIVIDE
 62
     7
100
AcDbLine
 10
185.263033
 20
252.439726
 11
191.16303
 21
252.439726
  0
LINE
  5
9A5
100
AcDbEntity
  8
M0
  6
DIVIDE
 62
     7
100
AcDbLine
 10
191.16303
 20
252.439726
 11
191.16303
 21
181.439723
  0
LINE
  5
9A6
100
AcDbEntity
  8
M0
  6
DIVIDE
 62
     7
100
AcDbLine
 10
128.363036
 20
252.439726
 11
128.363036
 21
242.239726
  0
LINE
  5
9A7
100
AcDbEntity
  8
M0
  6
DASHDOT
 62
     7
100
AcDbLine
 10
190.860438
 20
187.939725
 11
182.665629
 21
187.939725
  0
LINE
  5
9A8
100
AcDbEntity
  8
M0
  6
DASHDOT
 62
     7
100
AcDbLine
 10
186.763026
 20
192.037121
 11
186.763041
 21
182.842313
  0
LINE
  5
9A9
100
AcDbEntity
  8
M0
  6
DASHDOT
 62
     7
100
AcDbLine
 10
136.860438
 20
246.939725
 11
128.665629
 21
246.939725
  0
LINE
  5
9AA
100
AcDbEntity
  8
M0
  6
DASHDOT
 62
     7
100
AcDbLine
 10
132.763026
 20
251.037121
 11
132.763041
 21
242.842313
  0
LINE
  5
9AB
100
AcDbEntity
  8
M0
  6
DIVIDE
 62
     7
100
AcDbLine
 10
134.263033
 20
252.439726
 11
128.363036
 21
252.439726
  0
LINE
  5
9AC
100
AcDbEntity
  8
M0
  6
DIVIDE
 62
     7
100
AcDbLine
 10
128.363036
 20
191.439723
 11
128.363036
 21
181.439723
  0
LINE
  5
9AD
100
AcDbEntity
  8
M0
  6
DIVIDE
 62
     7
100
AcDbLine
 10
118.363036
 20
181.439723
 11
112.463039
 21
181.439723
  0
LINE
  5
9AE
100
AcDbEntity
  8
M0
  6
DIVIDE
 62
     7
100
AcDbLine
 10
55.563042
 20
252.439726
 11
55.563042
 21
181.439723
  0
LINE
  5
9AF
100
AcDbEntity
  8
M0
  6
DIVIDE
 62
     7
100
AcDbLine
 10
61.463039
 20
252.439726
 11
55.563042
 21
252.439726
  0
LINE
  5
9B0
100
AcDbEntity
  8
M0
  6
DIVIDE
 62
     7
100
AcDbLine
 10
112.463039
 20
252.439726
 11
118.363036
 21
252.439726
  0
LINE
  5
9B1
100
AcDbEntity
  8
M0
  6
DIVIDE
 62
     7
100
AcDbLine
 10
118.363036
 20
191.439723
 11
118.363036
 21
181.439723
  0
LINE
  5
9B2
100
AcDbEntity
  8
M0
  6
DIVIDE
 62
     7
100
AcDbLine
 10
61.463039
 20
181.439723
 11
55.563042
 21
181.439723
  0
LINE
  5
9B3
100
AcDbEntity
  8
M0
  6
DIVIDE
 62
     7
100
AcDbLine
 10
134.263033
 20
181.439723
 11
128.363036
 21
181.439723
  0
LINE
  5
9B4
100
AcDbEntity
  8
M1
 62
     2
100
AcDbLine
 10
20.0
 20
20.0
 11
20.0
 21
570.0
  0
LINE
  5
9B5
100
AcDbEntity
  8
M1
 62
     2
100
AcDbLine
 10
20.0
 20
570.0
 11
400.0
 21
570.0
  0
LINE
  5
9B6
100
AcDbEntity
  8
M1
 62
     2
100
AcDbLine
 10
400.0
 20
570.0
 11
400.0
 21
20.0
  0
LINE
  5
9B7
100
AcDbEntity
  8
M1
 62
     2
100
AcDbLine
 10
400.0
 20
20.0
 11
20.0
 21
20.0
  0
LINE
  5
9B8
100
AcDbEntity
  8
M1
 62
     2
100
AcDbLine
 10
400.0
 20
40.0
 11
200.0
 21
40.0
  0
LINE
  5
9B9
100
AcDbEntity
  8
M1
 62
     2
100
AcDbLine
 10
400.0
 20
60.0
 11
200.0
 21
60.0
  0
LINE
  5
9BA
100
AcDbEntity
  8
M1
 62
     2
100
AcDbLine
 10
400.0
 20
80.0
 11
200.0
 21
80.0
  0
LINE
  5
9BB
100
AcDbEntity
  8
M1
 62
     2
100
AcDbLine
 10
200.0
 20
20.0
 11
200.0
 21
80.0
  0
TEXT
  5
9BC
100
AcDbEntity
  8
M1
 62
     2
100
AcDbText
 10
205.0
 20
25.0
 40
10.0
  1
適　用；
  7
STANDARD
100
AcDbText
  0
TEXT
  5
9BD
100
AcDbEntity
  8
M1
 62
     2
100
AcDbText
 10
205.0
 20
65.0
 40
10.0
  1
登録名：
  7
STANDARD
100
AcDbText
  0
TEXT
  5
9BE
100
AcDbEntity
  8
M1
 62
     2
100
AcDbText
 10
253.0
 20
65.0
 40
10.0
  1
ＤＭＨＳ２５ＲＬＲ００
 41
0.5
  7
STANDARD
100
AcDbText
  0
TEXT
  5
9BF
100
AcDbEntity
  8
M1
 62
     2
100
AcDbText
 10
205.0
 20
45.0
 40
10.0
  1
形　式；
  7
STANDARD
100
AcDbText
  0
TEXT
  5
9C0
100
AcDbEntity
  8
M1
 62
     2
100
AcDbText
 10
253.0
 20
45.0
 40
10.0
  1
ＨＳ２５－ＲＬ
 41
0.5
  7
STANDARD
100
AcDbText
  0
LINE
  5
9C1
100
AcDbEntity
  8
DN0
100
AcDbLine
 10
106.596637
 20
137.551608
 11
139.056638
 21
137.551608
  0
TEXT
  5
9C2
100
AcDbEntity
  8
DN0
100
AcDbText
 10
107.493304
 20
138.351608
 40
8.0
  1
せん孔図
 41
0.833333
  7
STANDARD
100
AcDbText
  0
ENDSEC
  0
SECTION
  2
OBJECTS
  0
DICTIONARY
  5
C
100
AcDbDictionary
  3
ACAD_GROUP
350
D
  3
ACAD_MLINESTYLE
350
E
  3
ACDBVARIABLEDICTIONARY
350
148
  0
DICTIONARY
  5
D
102
{ACAD_REACTORS
330
C
102
}
100
AcDbDictionary
  0
DICTIONARY
  5
E
102
{ACAD_REACTORS
330
C
102
}
100
AcDbDictionary
  3
STANDARD
350
13
  0
DICTIONARY
  5
148
102
{ACAD_REACTORS
330
C
102
}
100
AcDbDictionary
  3
SORTENTS
350
149
  0
MLINESTYLE
  5
13
102
{ACAD_REACTORS
330
E
102
}
100
AcDbMlineStyle
  2
STANDARD
 70
     0
  3

 62
     0
 51
90.0
 52
90.0
 71
     2
 49
0.5
 62
   256
  6
BYLAYER
 49
-0.5
 62
   256
  6
BYLAYER
  0
DICTIONARYVAR
  5
149
102
{ACAD_REACTORS
330
148
102
}
100
DictionaryVariables
280
     0
  1
96
  0
ENDSEC
  0
EOF
