  0
SECTION
  2
HEADER
  9
$ACADVER
  1
AC1014
  9
$INSBASE
 10
0.000000
 20
0.000000
 30
0.0
  9
$VIEWCTR
 10
7.531722
 20
4.5
  9
$VIEWSIZE
 40
9.0
  9
$SNAPMODE
 70
     0
  9
$SNAPUNIT
 10
1.0
 20
1.0
  9
$SNAPBASE
 10
0.0
 20
0.0
  9
$SNAPANG
 50
0.0
  9
$SNAPSTYLE
 70
     0
  9
$SNAPISOPAIR
 70
     0
  9
$GRIDMODE
 70
     0
  9
$GRIDUNIT
 10
0.0
 20
0.0
  9
$ORTHOMODE
 70
     0
  9
$REGENMODE
 70
     1
  9
$FILLMODE
 70
     1
  9
$QTEXTMODE
 70
     0
  9
$DRAGMODE
 70
     2
  9
$LTSCALE
  40
     1.000000
  9
$OSMODE
 70
     0
  9
$ATTMODE
 70
     1
  9
$TEXTSIZE
 40
0.2
  9
$TRACEWID
 40
0.05
  9
$TEXTSTYLE
  7
STANDARD
  9
$CELTYPE
  6
BYLAYER
  9
$CECOLOR
 62
   256
  9
$DIMSCALE
 40
1.0
  9
$DIMASZ
 40
0.18
  9
$DIMEXO
 40
0.0625
  9
$DIMDLI
 40
0.38
  9
$DIMRND
 40
0.0
  9
$DIMDLE
 40
0.0
  9
$DIMEXE
 40
0.18
  9
$DIMTP
 40
0.0
  9
$DIMTM
 40
0.0
  9
$DIMTXT
 40
0.18
  9
$DIMCEN
 40
0.09
  9
$DIMTSZ
 40
0.0
  9
$DIMTOL
 70
     0
  9
$DIMLIM
 70
     0
  9
$DIMTIH
 70
     1
  9
$DIMTOH
 70
     1
  9
$DIMSE1
 70
     0
  9
$DIMSE2
 70
     0
  9
$DIMTAD
 70
     0
  9
$DIMZIN
 70
     0
  9
$DIMBLK
  1

  9
$LUNITS
 70
     2
  9
$LUPREC
 70
     4
  9
$AXISMODE
 70
     0
  9
$AXISUNIT
 10
0.0
 20
0.0
  9
$SKETCHINC
 40
0.1
  9
$FILLETRAD
 40
0.0
  9
$AUNITS
 70
     0
  9
$AUPREC
 70
     0
  9
$MENU
  1
ACAD
  9
$ELEVATION
 40
0.0
  9
$THICKNESS
 40
0.0
  9
$VIEWDIR
 10
0.0
 20
0.0
 30
1.0
  9
$LIMCHECK
 70
     0
  9
$BLIPMODE
 70
     1
  9
$CHAMFERA
 40
0.0
  9
$CHAMFERB
 40
0.0
  9
$FASTZOOM
 70
     1
  9
$SKPOLY
 70
     0
  9
$TDCREATE
 40
0000000.0000000000
  9
$TDUPDATE
 40
0000000.0000000000
  9
$TDINDWG
 40
0.0000000000
  9
$TDUSRTIMER
 40
0.0000000000
  9
$USRTIMER
 70
     1
  9
$ANGBASE
 50
0.0
  9
$ANGDIR
 70
     0
  9
$PDMODE
 70
     0
  9
$PDSIZE
 40
0.0
  9
$PLINEWID
 40
0.0
  9
$COORDS
 70
     0
  9
$USERI1
 70
     0
  9
$USERI2
 70
     0
  9
$USERI3
 70
     0
  9
$USERI4
 70
     0
  9
$USERI5
 70
     0
  9
$USERR1
 40
0.0
  9
$USERR2
 40
0.0
  9
$USERR3
 40
0.0
  9
$USERR4
 40
0.0
  9
$USERR5
 40
0.0
  9
$CLAYER
  8
M0
  9
$EXTMIN
 10
18.181818
 20
18.181818
  9
$EXTMAX
 10
363.636356
 20
518.181807
  9
$LIMMIN
 10
0.0
 20
0.0
  9
$LIMMAX
 10
210.0
 20
297.0
  9
$HANDSEED
  5
8BD
  0
ENDSEC
  0
SECTION
  2
CLASSES
  0
CLASS
  1
DICTIONARYVAR
  2
AcDbDictionaryVar
  3
"AutoCAD"
 90
        0
280
     0
281
     0
  0
CLASS
  1
HATCH
  2
AcDbHatch
  3
"ACAD_SEDONA"
 90
        0
280
     0
281
     1
  0
ENDSEC
  0
SECTION
  2
TABLES
  0
TABLE
  2
VPORT
  5
8
100
AcDbSymbolTable
 70
     2
  0
VPORT
  5
14
100
AcDbSymbolTableRecord
100
AcDbViewportTableRecord
  2
*ACTIVE
 70
     0
 10
0.0
 20
0.0
 11
1.0
 21
1.0
 12
484.0
 22
297.0
 13
0.0
 23
0.0
 14
1.0
 24
1.0
 15
0.0
 25
0.0
 16
0.0
 26
0.0
 36
1.0
 17
0.0
 27
0.0
 37
0.0
 40
594.0
 41
2.0
 42
50.0
 43
0.0
 44
0.0
 50
0.0
 51
0.0
 71
     0
 72
   100
 73
     1
 74
     1
 75
     0
 76
     0
 77
     0
 78
     0
  0
ENDTAB
  0
TABLE
  2
LTYPE
  5
5
100
AcDbSymbolTable
 70
     5
  0
LTYPE
  5
15
100
AcDbSymbolTableRecord
100
AcDbLinetypeTableRecord
  2
BYBLOCK
 70
     0
  3

 72
    65
 73
     0
 40
0.0
  0
LTYPE
  5
16
100
AcDbSymbolTableRecord
100
AcDbLinetypeTableRecord
  2
BYLAYER
 70
     0
  3

 72
    65
 73
     0
 40
0.0
  0
LTYPE
  5
17
100
AcDbSymbolTableRecord
100
AcDbLinetypeTableRecord
  2
CONTINUOUS
 70
    64
  3
Solid line
 72
    65
 73
     0
 40
0.0
  0
LTYPE
  5
18
100
AcDbSymbolTableRecord
100
AcDbLinetypeTableRecord
  2
DASHED
 70
    64
  3
__ __ __ __ __ __ __ __ __ __ __ __ __ __ __ __
 72
    65
 73
     2
 40
0.75
 49
0.5
 74
     0
 49
-0.25
 74
     0
  0
LTYPE
  5
19
100
AcDbSymbolTableRecord
100
AcDbLinetypeTableRecord
  2
DASHDOT
 70
    64
  3
__ . __ . __ . __ . __ . __ . __ . __ . __ . __
 72
    65
 73
     4
 40
1.0
 49
0.5
 74
     0
 49
-0.25
 74
     0
 49
0.0
 74
     0
 49
-0.25
 74
     0
  0
LTYPE
  5
1A
100
AcDbSymbolTableRecord
100
AcDbLinetypeTableRecord
  2
DIVIDE
 70
    64
  3
____ . . ____ . . ____ . . ____ . . ____ . . __
 72
    65
 73
     6
 40
1.25
 49
0.5
 74
     0
 49
-0.25
 74
     0
 49
0.0
 74
     0
 49
-0.25
 74
     0
 49
0.0
 74
     0
 49
-0.25
 74
     0
  0
LTYPE
  5
1B
100
AcDbSymbolTableRecord
100
AcDbLinetypeTableRecord
  2
DOT
 70
    64
  3
. . . . . . . . . . . . . . . . . . . . . . . .
 72
    65
 73
     2
 40
0.25
 49
0.0
 74
     0
 49
-0.25
 74
     0
  0
ENDTAB
  0
TABLE
  2
LAYER
  5
2
100
AcDbSymbolTable
 70
   102
  0
LAYER
  5
F
100
AcDbSymbolTableRecord
100
AcDbLayerTableRecord
  2
0
 70
     0
 62
     7
  6
CONTINUOUS
  0
LAYER
  5
1C
100
AcDbSymbolTableRecord
100
AcDbLayerTableRecord
  2
DEFPOINTS
 70
     0
 62
     7
  6
CONTINUOUS
  0
LAYER
  5
1D
100
AcDbSymbolTableRecord
100
AcDbLayerTableRecord
  2
M0
 70
     0
 62
     3
  6
CONTINUOUS
  0
LAYER
  5
1E
100
AcDbSymbolTableRecord
100
AcDbLayerTableRecord
  2
M1
 70
     0
 62
     3
  6
CONTINUOUS
  0
LAYER
  5
1F
100
AcDbSymbolTableRecord
100
AcDbLayerTableRecord
  2
DD0
 70
     0
 62
     4
  6
CONTINUOUS
  0
LAYER
  5
20
100
AcDbSymbolTableRecord
100
AcDbLayerTableRecord
  2
DN0
 70
     0
 62
     2
  6
CONTINUOUS
  0
ENDTAB
  0
TABLE
  2
STYLE
  5
3
100
AcDbSymbolTable
 70
     2
  0
STYLE
  5
10
100
AcDbSymbolTableRecord
100
AcDbTextStyleTableRecord
  2
STANDARD
 70
     0
 40
0.0
 41
1.0
 50
0.0
 71
     0
 42
0.2
  3
txt
  4
BIGFONT
  0
ENDTAB
  0
TABLE
  2
VIEW
  5
6
100
AcDbSymbolTable
 70
     0
  0
ENDTAB
  0
TABLE
  2
UCS
  5
7
100
AcDbSymbolTable
 70
     0
  0
ENDTAB
  0
TABLE
  2
APPID
  5
9
100
AcDbSymbolTable
 70
     1
  0
APPID
  5
11
100
AcDbSymbolTableRecord
100
AcDbRegAppTableRecord
  2
ACAD
 70
     0
  0
ENDTAB
  0
TABLE
  2
DIMSTYLE
  5
A
100
AcDbSymbolTable
 70
     2
  0
DIMSTYLE
105
27
100
AcDbSymbolTableRecord
100
AcDbDimStyleTableRecord
  2
STANDARD
 70
     0
  3

  4

  5

  6
_OPEN
  7
_OPEN
 40
1.0
 41
5.454545
 42
1.0
 43
8.0
 44
1.0
 45
0.0
 46
0.0
 47
0.0
 48
0.0
140
5.727273
141
0.09
142
0.0
143
0.03937
144
1.0
145
0.0
146
1.0
147
0.6
 71
     0
 72
     0
 73
     1
 74
     1
 75
     0
 76
     0
 77
     3
 78
     8
170
     0
171
     2
172
     0
173
     1
174
     0
175
     0
176
     0
177
     0
178
     0
270
     2
271
     2
272
     4
273
     2
274
     2
340
10
275
     0
280
     0
281
     0
282
     0
283
     1
284
     0
285
     0
286
     0
287
     3
288
     0
  0
DIMSTYLE
105
28
100
AcDbSymbolTableRecord
100
AcDbDimStyleTableRecord
  2
LEADSTYL
 70
     0
  3

  4

  5

  6
_OPEN
  7
_OPEN
 40
1.0
 41
5.454545
 42
0.0625
 43
0.38
 44
0.18
 45
0.0
 46
0.0
 47
0.0
 48
0.0
140
5.727273
141
0.09
142
0.0
143
25.4
144
1.0
145
0.0
146
1.0
147
0.6
 71
     0
 72
     0
 73
     1
 74
     1
 75
     0
 76
     0
 77
     0
 78
     0
170
     0
171
     2
172
     0
173
     1
174
     0
175
     0
176
     0
177
     0
178
     0
270
     2
271
     4
272
     4
273
     2
274
     2
340
10
275
     0
280
     0
281
     0
282
     0
283
     1
284
     0
285
     0
286
     0
287
     3
288
     0
  0
ENDTAB
  0
TABLE
  2
BLOCK_RECORD
  5
1
100
AcDbSymbolTable
 70
    23
  0
BLOCK_RECORD
  5
21
100
AcDbSymbolTableRecord
100
AcDbBlockTableRecord
  2
*MODEL_SPACE
  0
BLOCK_RECORD
  5
24
100
AcDbSymbolTableRecord
100
AcDbBlockTableRecord
  2
*PAPER_SPACE
  0
BLOCK_RECORD
  5
29
100
AcDbSymbolTableRecord
100
AcDbBlockTableRecord
  2
_NONE
  0
BLOCK_RECORD
  5
2D
100
AcDbSymbolTableRecord
100
AcDbBlockTableRecord
  2
_OPEN
  0
BLOCK_RECORD
  5
33
100
AcDbSymbolTableRecord
100
AcDbBlockTableRecord
  2
_CLOSED
  0
BLOCK_RECORD
  5
3A
100
AcDbSymbolTableRecord
100
AcDbBlockTableRecord
  2
_ORIGIN
  0
BLOCK_RECORD
  5
3F
100
AcDbSymbolTableRecord
100
AcDbBlockTableRecord
  2
_DOT
  0
BLOCK_RECORD
  5
47
100
AcDbSymbolTableRecord
100
AcDbBlockTableRecord
  2
_OBLIQUE
  0
BLOCK_RECORD
  5
4B
100
AcDbSymbolTableRecord
100
AcDbBlockTableRecord
  2
DIMS0
  0
BLOCK_RECORD
  5
57
100
AcDbSymbolTableRecord
100
AcDbBlockTableRecord
  2
DIMS1
  0
BLOCK_RECORD
  5
62
100
AcDbSymbolTableRecord
100
AcDbBlockTableRecord
  2
DIMS2
  0
BLOCK_RECORD
  5
6D
100
AcDbSymbolTableRecord
100
AcDbBlockTableRecord
  2
DIMS3
  0
BLOCK_RECORD
  5
79
100
AcDbSymbolTableRecord
100
AcDbBlockTableRecord
  2
DIMS4
  0
BLOCK_RECORD
  5
85
100
AcDbSymbolTableRecord
100
AcDbBlockTableRecord
  2
DIMS5
  0
BLOCK_RECORD
  5
91
100
AcDbSymbolTableRecord
100
AcDbBlockTableRecord
  2
DIMS6
  0
BLOCK_RECORD
  5
9D
100
AcDbSymbolTableRecord
100
AcDbBlockTableRecord
  2
DIMS7
  0
BLOCK_RECORD
  5
A9
100
AcDbSymbolTableRecord
100
AcDbBlockTableRecord
  2
DIMS8
  0
BLOCK_RECORD
  5
B5
100
AcDbSymbolTableRecord
100
AcDbBlockTableRecord
  2
DIMS9
  0
BLOCK_RECORD
  5
C2
100
AcDbSymbolTableRecord
100
AcDbBlockTableRecord
  2
DIMS10
  0
BLOCK_RECORD
  5
CB
100
AcDbSymbolTableRecord
100
AcDbBlockTableRecord
  2
DIMS11
  0
BLOCK_RECORD
  5
D7
100
AcDbSymbolTableRecord
100
AcDbBlockTableRecord
  2
DIMS12
  0
BLOCK_RECORD
  5
E3
100
AcDbSymbolTableRecord
100
AcDbBlockTableRecord
  2
DIMS13
  0
BLOCK_RECORD
  5
EF
100
AcDbSymbolTableRecord
100
AcDbBlockTableRecord
  2
DIMS14
  0
BLOCK_RECORD
  5
FB
100
AcDbSymbolTableRecord
100
AcDbBlockTableRecord
  2
DIMS15
  0
BLOCK_RECORD
  5
107
100
AcDbSymbolTableRecord
100
AcDbBlockTableRecord
  2
DIMS16
  0
ENDTAB
  0
ENDSEC
  0
SECTION
  2
BLOCKS
  0
BLOCK
  5
22
100
AcDbEntity
  8
0
100
AcDbBlockBegin
  2
*MODEL_SPACE
 70
     0
 10
0.0
 20
0.0
 30
0.0
  3
*MODEL_SPACE
  1

  0
ENDBLK
  5
23
100
AcDbEntity
  8
0
100
AcDbBlockEnd
  0
BLOCK
  5
25
100
AcDbEntity
 67
     1
  8
0
100
AcDbBlockBegin
  2
*PAPER_SPACE
 70
     0
 10
0.0
 20
0.0
 30
0.0
  3
*PAPER_SPACE
  1

  0
ENDBLK
  5
26
100
AcDbEntity
 67
     1
  8
0
100
AcDbBlockEnd
  0
BLOCK
  5
2A
100
AcDbEntity
  8
0
100
AcDbBlockBegin
  2
_NONE
 70
     0
 10
0.0
 20
0.0
  0
CIRCLE
  5
2B
100
AcDbEntity
  8
0
 62
     0
100
AcDbCircle
 10
0.0
 20
0.0
 40
0.25
  0
ENDBLK
  5
2C
100
AcDbEntity
  8
0
100
AcDbBlockEnd
  0
BLOCK
  5
2E
100
AcDbEntity
  8
0
100
AcDbBlockBegin
  2
_OPEN
 70
     0
 10
0.0
 20
0.0
  0
LINE
  5
2F
100
AcDbEntity
  8
0
 62
     0
100
AcDbLine
 10
-0.965926
 20
0.258819
 11
0.0
 21
0.0
  0
LINE
  5
30
100
AcDbEntity
  8
0
 62
     0
100
AcDbLine
 10
0.0
 20
0.0
 11
-0.965926
 21
-0.258819
  0
LINE
  5
31
100
AcDbEntity
  8
0
 62
     0
100
AcDbLine
 10
0.0
 20
0.0
 11
-1.0
 21
0.0
  0
ENDBLK
  5
32
100
AcDbEntity
  8
0
100
AcDbBlockEnd
  0
BLOCK
  5
34
100
AcDbEntity
  8
0
100
AcDbBlockBegin
  2
_CLOSED
 70
     0
 10
0.0
 20
0.0
  0
LINE
  5
35
100
AcDbEntity
  8
0
 62
     0
100
AcDbLine
 10
-0.965926
 20
0.258819
 11
0.0
 21
0.0
  0
LINE
  5
36
100
AcDbEntity
  8
0
 62
     0
100
AcDbLine
 10
0.0
 20
0.0
 11
-0.965926
 21
-0.258819
  0
LINE
  5
37
100
AcDbEntity
  8
0
 62
     0
100
AcDbLine
 10
-0.965926
 20
0.258819
 11
-0.965926
 21
-0.258819
  0
LINE
  5
38
100
AcDbEntity
  8
0
 62
     0
100
AcDbLine
 10
0.0
 20
0.0
 11
-1.0
 21
0.0
  0
ENDBLK
  5
39
100
AcDbEntity
  8
0
100
AcDbBlockEnd
  0
BLOCK
  5
3B
100
AcDbEntity
  8
0
100
AcDbBlockBegin
  2
_ORIGIN
 70
     0
 10
0.0
 20
0.0
  0
CIRCLE
  5
3C
100
AcDbEntity
  8
0
 62
     0
100
AcDbCircle
 10
0.0
 20
0.0
 40
0.5
  0
LINE
  5
3D
100
AcDbEntity
  8
0
 62
     0
100
AcDbLine
 10
0.0
 20
0.0
 11
-1.0
 21
0.0
  0
ENDBLK
  5
3E
100
AcDbEntity
  8
0
100
AcDbBlockEnd
  0
BLOCK
  5
40
100
AcDbEntity
  8
0
100
AcDbBlockBegin
  2
_DOT
 70
     0
 10
0.0
 20
0.0
  0
POLYLINE
  5
41
100
AcDbEntity
  8
0
 62
     0
100
AcDb2dPolyline
 66
     1
 70
     1
 40
0.5
 41
0.5
  0
VERTEX
  5
42
100
AcDbEntity
  8
0
 62
     0
100
AcDbVertex
100
AcDb2dVertex
 10
-0.25
 20
0.0
 42
1.0
  0
VERTEX
  5
43
100
AcDbEntity
  8
0
 62
     0
100
AcDbVertex
100
AcDb2dVertex
 10
0.25
 20
0.0
 42
1.0
  0
SEQEND
  5
44
100
AcDbEntity
  8
0
 62
     0
  0
LINE
  5
45
100
AcDbEntity
  8
0
 62
     0
100
AcDbLine
 10
-0.5
 20
0.0
 11
-1.0
 21
0.0
  0
ENDBLK
  5
46
100
AcDbEntity
  8
0
100
AcDbBlockEnd
  0
BLOCK
  5
48
100
AcDbEntity
  8
0
100
AcDbBlockBegin
  2
_OBLIQUE
 70
     0
 10
0.0
 20
0.0
  0
LINE
  5
49
100
AcDbEntity
  8
0
 62
     0
100
AcDbLine
 10
-0.353553
 20
-0.353553
 11
0.353553
 21
0.353553
  0
ENDBLK
  5
4A
100
AcDbEntity
  8
0
100
AcDbBlockEnd
  0
BLOCK
  5
4C
100
AcDbEntity
  8
DD0
100
AcDbBlockBegin
  2
DIMS0
 70
     0
 10
0.0
 20
0.0
  0
LINE
  5
4D
100
AcDbEntity
  8
DD0
100
AcDbLine
 10
338.688514
 20
358.739921
 11
338.688514
 21
279.855895
  0
LINE
  5
4E
100
AcDbEntity
  8
DD0
100
AcDbLine
 10
231.789046
 20
329.744256
 11
231.789046
 21
279.855895
  0
LINE
  5
4F
100
AcDbEntity
  8
DD0
100
AcDbLine
 10
333.419827
 20
280.262337
 11
338.688514
 21
281.674077
  0
LINE
  5
50
100
AcDbEntity
  8
DD0
100
AcDbLine
 10
338.688514
 20
281.674077
 11
333.419827
 21
283.085818
  0
LINE
  5
51
100
AcDbEntity
  8
DD0
100
AcDbLine
 10
237.057733
 20
283.085818
 11
231.789046
 21
281.674077
  0
LINE
  5
52
100
AcDbEntity
  8
DD0
100
AcDbLine
 10
231.789046
 20
281.674077
 11
237.057733
 21
280.262337
  0
LINE
  5
53
100
AcDbEntity
  8
DD0
100
AcDbLine
 10
338.688514
 20
281.674077
 11
231.789046
 21
281.674077
  0
TEXT
  5
54
100
AcDbEntity
  8
DD0
100
AcDbText
 10
280.096345
 20
282.764997
 40
4.545454
  1
１０７
 41
0.666667
  7
STANDARD
100
AcDbText
  0
ENDBLK
  5
55
100
AcDbEntity
  8
DD0
100
AcDbBlockEnd
  0
BLOCK
  5
58
100
AcDbEntity
  8
DD0
100
AcDbBlockBegin
  2
DIMS1
 70
     0
 10
0.0
 20
0.0
  0
LINE
  5
59
100
AcDbEntity
  8
DD0
100
AcDbLine
 10
327.688508
 20
430.126278
 11
327.688508
 21
447.645254
  0
LINE
  5
5A
100
AcDbEntity
  8
DD0
100
AcDbLine
 10
333.419827
 20
444.415332
 11
338.688514
 21
445.827072
  0
LINE
  5
5B
100
AcDbEntity
  8
DD0
100
AcDbLine
 10
338.688514
 20
445.827072
 11
333.419827
 21
447.238812
  0
LINE
  5
5C
100
AcDbEntity
  8
DD0
100
AcDbLine
 10
332.957195
 20
447.238812
 11
327.688508
 21
445.827072
  0
LINE
  5
5D
100
AcDbEntity
  8
DD0
100
AcDbLine
 10
327.688508
 20
445.827072
 11
332.957195
 21
444.415332
  0
LINE
  5
5E
100
AcDbEntity
  8
DD0
100
AcDbLine
 10
338.688514
 20
445.827072
 11
327.688508
 21
445.827072
  0
TEXT
  5
5F
100
AcDbEntity
  8
DD0
100
AcDbText
 10
329.864271
 20
446.917992
 40
4.545454
  1
１１
 41
0.666667
  7
STANDARD
100
AcDbText
  0
ENDBLK
  5
60
100
AcDbEntity
  8
DD0
100
AcDbBlockEnd
  0
BLOCK
  5
63
100
AcDbEntity
  8
DD0
100
AcDbBlockBegin
  2
DIMS2
 70
     0
 10
0.0
 20
0.0
  0
LINE
  5
64
100
AcDbEntity
  8
DD0
100
AcDbLine
 10
225.288525
 20
407.626278
 11
225.288525
 21
468.53387
  0
LINE
  5
65
100
AcDbEntity
  8
DD0
100
AcDbLine
 10
333.419827
 20
465.303948
 11
338.688514
 21
466.715688
  0
LINE
  5
66
100
AcDbEntity
  8
DD0
100
AcDbLine
 10
338.688514
 20
466.715688
 11
333.419827
 21
468.127428
  0
LINE
  5
67
100
AcDbEntity
  8
DD0
100
AcDbLine
 10
230.557211
 20
468.127428
 11
225.288525
 21
466.715688
  0
LINE
  5
68
100
AcDbEntity
  8
DD0
100
AcDbLine
 10
225.288525
 20
466.715688
 11
230.557211
 21
465.303948
  0
LINE
  5
69
100
AcDbEntity
  8
DD0
100
AcDbLine
 10
338.688514
 20
466.715688
 11
225.288525
 21
466.715688
  0
TEXT
  5
6A
100
AcDbEntity
  8
DD0
100
AcDbText
 10
276.846084
 20
467.806608
 40
4.545454
  1
１１４
 41
0.666667
  7
STANDARD
100
AcDbText
  0
ENDBLK
  5
6B
100
AcDbEntity
  8
DD0
100
AcDbBlockEnd
  0
BLOCK
  5
6E
100
AcDbEntity
  8
DD0
100
AcDbBlockBegin
  2
DIMS3
 70
     0
 10
0.0
 20
0.0
  0
LINE
  5
6F
100
AcDbEntity
  8
DD0
100
AcDbLine
 10
338.688514
 20
429.876284
 11
338.688514
 21
484.624457
  0
LINE
  5
70
100
AcDbEntity
  8
DD0
100
AcDbLine
 10
193.988518
 20
398.426283
 11
193.988518
 21
484.624457
  0
LINE
  5
71
100
AcDbEntity
  8
DD0
100
AcDbLine
 10
333.419827
 20
481.394535
 11
338.688514
 21
482.806275
  0
LINE
  5
72
100
AcDbEntity
  8
DD0
100
AcDbLine
 10
338.688514
 20
482.806275
 11
333.419827
 21
484.218015
  0
LINE
  5
73
100
AcDbEntity
  8
DD0
100
AcDbLine
 10
199.257205
 20
484.218015
 11
193.988518
 21
482.806275
  0
LINE
  5
74
100
AcDbEntity
  8
DD0
100
AcDbLine
 10
193.988518
 20
482.806275
 11
199.257205
 21
481.394535
  0
LINE
  5
75
100
AcDbEntity
  8
DD0
100
AcDbLine
 10
338.688514
 20
482.806275
 11
193.988518
 21
482.806275
  0
TEXT
  5
76
100
AcDbEntity
  8
DD0
100
AcDbText
 10
228.468816
 20
483.897195
 40
4.545454
  1
１４５接点ヘッドオンユニットを付けた場合）
 41
0.666667
  7
STANDARD
100
AcDbText
  0
ENDBLK
  5
77
100
AcDbEntity
  8
DD0
100
AcDbBlockEnd
  0
BLOCK
  5
7A
100
AcDbEntity
  8
DD0
100
AcDbBlockBegin
  2
DIMS4
 70
     0
 10
0.0
 20
0.0
  0
LINE
  5
7B
100
AcDbEntity
  8
DD0
100
AcDbLine
 10
225.288525
 20
407.626278
 11
225.288525
 21
468.53387
  0
LINE
  5
7C
100
AcDbEntity
  8
DD0
100
AcDbLine
 10
220.288525
 20
444.546416
 11
220.288525
 21
468.53387
  0
LINE
  5
7D
100
AcDbEntity
  8
DD0
100
AcDbLine
 10
230.557211
 20
468.127428
 11
225.288525
 21
466.715688
  0
LINE
  5
7E
100
AcDbEntity
  8
DD0
100
AcDbLine
 10
225.288525
 20
466.715688
 11
230.557211
 21
465.303948
  0
LINE
  5
7F
100
AcDbEntity
  8
DD0
100
AcDbLine
 10
215.019839
 20
465.303948
 11
220.288525
 21
466.715688
  0
LINE
  5
80
100
AcDbEntity
  8
DD0
100
AcDbLine
 10
220.288525
 20
466.715688
 11
215.019839
 21
468.127428
  0
LINE
  5
81
100
AcDbEntity
  8
DD0
100
AcDbLine
 10
231.288525
 20
466.715688
 11
208.83398
 21
466.715688
  0
TEXT
  5
82
100
AcDbEntity
  8
DD0
100
AcDbText
 10
210.437006
 20
467.806608
 40
4.545454
  1
５
 41
0.666667
  7
STANDARD
100
AcDbText
  0
ENDBLK
  5
83
100
AcDbEntity
  8
DD0
100
AcDbBlockEnd
  0
BLOCK
  5
86
100
AcDbEntity
  8
DD0
100
AcDbBlockBegin
  2
DIMS5
 70
     0
 10
0.0
 20
0.0
  0
LINE
  5
87
100
AcDbEntity
  8
DD0
100
AcDbLine
 10
95.202572
 20
448.919085
 11
95.202572
 21
458.032716
  0
LINE
  5
88
100
AcDbEntity
  8
DD0
100
AcDbLine
 10
73.302576
 20
440.626294
 11
73.302576
 21
458.032716
  0
LINE
  5
89
100
AcDbEntity
  8
DD0
100
AcDbLine
 10
89.933886
 20
454.802794
 11
95.202572
 21
456.214534
  0
LINE
  5
8A
100
AcDbEntity
  8
DD0
100
AcDbLine
 10
95.202572
 20
456.214534
 11
89.933886
 21
457.626274
  0
LINE
  5
8B
100
AcDbEntity
  8
DD0
100
AcDbLine
 10
78.571262
 20
457.626274
 11
73.302576
 21
456.214534
  0
LINE
  5
8C
100
AcDbEntity
  8
DD0
100
AcDbLine
 10
73.302576
 20
456.214534
 11
78.571262
 21
454.802794
  0
LINE
  5
8D
100
AcDbEntity
  8
DD0
100
AcDbLine
 10
95.202572
 20
456.214534
 11
73.302576
 21
456.214534
  0
TEXT
  5
8E
100
AcDbEntity
  8
DD0
100
AcDbText
 10
80.928335
 20
457.305454
 40
4.545454
  1
２２
 41
0.666667
  7
STANDARD
100
AcDbText
  0
ENDBLK
  5
8F
100
AcDbEntity
  8
DD0
100
AcDbBlockEnd
  0
BLOCK
  5
92
100
AcDbEntity
  8
DD0
100
AcDbBlockBegin
  2
DIMS6
 70
     0
 10
0.0
 20
0.0
  0
LINE
  5
93
100
AcDbEntity
  8
DD0
100
AcDbLine
 10
122.920752
 20
444.308101
 11
159.524602
 21
444.308101
  0
LINE
  5
94
100
AcDbEntity
  8
DD0
100
AcDbLine
 10
104.170759
 20
297.80811
 11
159.524602
 21
297.80811
  0
LINE
  5
95
100
AcDbEntity
  8
DD0
100
AcDbLine
 10
159.118161
 20
439.039415
 11
157.70642
 21
444.308101
  0
LINE
  5
96
100
AcDbEntity
  8
DD0
100
AcDbLine
 10
157.70642
 20
444.308101
 11
156.29468
 21
439.039415
  0
LINE
  5
97
100
AcDbEntity
  8
DD0
100
AcDbLine
 10
156.29468
 20
303.076796
 11
157.70642
 21
297.80811
  0
LINE
  5
98
100
AcDbEntity
  8
DD0
100
AcDbLine
 10
157.70642
 20
297.80811
 11
159.118161
 21
303.076796
  0
LINE
  5
99
100
AcDbEntity
  8
DD0
100
AcDbLine
 10
157.70642
 20
444.308101
 11
157.70642
 21
297.80811
  0
TEXT
  5
9A
100
AcDbEntity
  8
DD0
100
AcDbText
 10
156.615514
 20
362.279321
 40
4.545454
  1
１４６．５
 50
90.000003
 41
0.666667
  7
STANDARD
100
AcDbText
  0
ENDBLK
  5
9B
100
AcDbEntity
  8
DD0
100
AcDbBlockEnd
  0
BLOCK
  5
9E
100
AcDbEntity
  8
DD0
100
AcDbBlockBegin
  2
DIMS7
 70
     0
 10
0.0
 20
0.0
  0
LINE
  5
9F
100
AcDbEntity
  8
DD0
100
AcDbLine
 10
63.802572
 20
426.626272
 11
63.802572
 21
468.53387
  0
LINE
  5
A0
100
AcDbEntity
  8
DD0
100
AcDbLine
 10
126.602572
 20
426.626272
 11
126.602572
 21
468.53387
  0
LINE
  5
A1
100
AcDbEntity
  8
DD0
100
AcDbLine
 10
69.071258
 20
468.127428
 11
63.802572
 21
466.715688
  0
LINE
  5
A2
100
AcDbEntity
  8
DD0
100
AcDbLine
 10
63.802572
 20
466.715688
 11
69.071258
 21
465.303948
  0
LINE
  5
A3
100
AcDbEntity
  8
DD0
100
AcDbLine
 10
121.333886
 20
465.303948
 11
126.602572
 21
466.715688
  0
LINE
  5
A4
100
AcDbEntity
  8
DD0
100
AcDbLine
 10
126.602572
 20
466.715688
 11
121.333886
 21
468.127428
  0
LINE
  5
A5
100
AcDbEntity
  8
DD0
100
AcDbLine
 10
63.802572
 20
466.715688
 11
126.602572
 21
466.715688
  0
TEXT
  5
A6
100
AcDbEntity
  8
DD0
100
AcDbText
 10
91.878333
 20
467.806608
 40
4.545454
  1
６３
 41
0.666667
  7
STANDARD
100
AcDbText
  0
ENDBLK
  5
A7
100
AcDbEntity
  8
DD0
100
AcDbBlockEnd
  0
BLOCK
  5
AA
100
AcDbEntity
  8
DD0
100
AcDbBlockBegin
  2
DIMS8
 70
     0
 10
0.0
 20
0.0
  0
LINE
  5
AB
100
AcDbEntity
  8
DD0
100
AcDbLine
 10
72.352578
 20
301.489917
 11
72.352578
 21
279.855895
  0
LINE
  5
AC
100
AcDbEntity
  8
DD0
100
AcDbLine
 10
84.852577
 20
301.489917
 11
84.852577
 21
279.855895
  0
LINE
  5
AD
100
AcDbEntity
  8
DD0
100
AcDbLine
 10
67.083892
 20
280.262337
 11
72.352578
 21
281.674077
  0
LINE
  5
AE
100
AcDbEntity
  8
DD0
100
AcDbLine
 10
72.352578
 20
281.674077
 11
67.083892
 21
283.085818
  0
LINE
  5
AF
100
AcDbEntity
  8
DD0
100
AcDbLine
 10
90.121264
 20
283.085818
 11
84.852577
 21
281.674077
  0
LINE
  5
B0
100
AcDbEntity
  8
DD0
100
AcDbLine
 10
84.852577
 20
281.674077
 11
90.121264
 21
280.262337
  0
LINE
  5
B1
100
AcDbEntity
  8
DD0
100
AcDbLine
 10
54.120645
 20
281.674077
 11
90.852577
 21
281.674077
  0
TEXT
  5
B2
100
AcDbEntity
  8
DD0
100
AcDbText
 10
56.250948
 20
282.764997
 40
4.545454
  1
１２．５
 41
0.666667
  7
STANDARD
100
AcDbText
  0
ENDBLK
  5
B3
100
AcDbEntity
  8
DD0
100
AcDbBlockEnd
  0
BLOCK
  5
B6
100
AcDbEntity
  8
DD0
100
AcDbBlockBegin
  2
DIMS9
 70
     0
 10
0.0
 20
0.0
  0
LINE
  5
B7
100
AcDbEntity
  8
DD0
100
AcDbLine
 10
139.102572
 20
425.826296
 11
139.102572
 21
484.624457
  0
LINE
  5
B8
100
AcDbEntity
  8
DD0
100
AcDbLine
 10
51.302579
 20
425.826296
 11
51.302579
 21
484.624457
  0
LINE
  5
B9
100
AcDbEntity
  8
DD0
100
AcDbLine
 10
133.833886
 20
481.394535
 11
139.102572
 21
482.806275
  0
LINE
  5
BA
100
AcDbEntity
  8
DD0
100
AcDbLine
 10
139.102572
 20
482.806275
 11
133.833886
 21
484.218015
  0
LINE
  5
BB
100
AcDbEntity
  8
DD0
100
AcDbLine
 10
56.571265
 20
484.218015
 11
51.302579
 21
482.806275
  0
LINE
  5
BC
100
AcDbEntity
  8
DD0
100
AcDbLine
 10
51.302579
 20
482.806275
 11
56.571265
 21
481.394535
  0
LINE
  5
BD
100
AcDbEntity
  8
DD0
100
AcDbLine
 10
139.102572
 20
482.806275
 11
51.302579
 21
482.806275
  0
TEXT
  5
BE
100
AcDbEntity
  8
DD0
100
AcDbText
 10
91.87834
 20
483.897195
 40
4.545454
  1
８８
 41
0.666667
  7
STANDARD
100
AcDbText
  0
TEXT
  5
BF
100
AcDbEntity
  8
DD0
100
AcDbText
 10
57.332886
 20
476.806297
 40
4.545454
  1
（補助接点サイドオンユニットを付けた場合）
 41
0.666667
  7
STANDARD
100
AcDbText
  0
ENDBLK
  5
C0
100
AcDbEntity
  8
DD0
100
AcDbBlockEnd
  0
BLOCK
  5
C3
100
AcDbEntity
  8
DD0
100
AcDbBlockBegin
  2
DIMS10
 70
     0
 10
0.0
 20
0.0
  0
TEXT
  5
C4
100
AcDbEntity
  8
DD0
100
AcDbText
 10
140.148283
 20
134.267173
 40
4.545454
  1
２－Ｍ４ねじ穴
 41
0.666667
  7
STANDARD
100
AcDbText
  0
LINE
  5
C5
100
AcDbEntity
  8
DD0
100
AcDbLine
 10
127.700861
 20
143.358785
 11
123.350952
 21
146.649735
  0
LINE
  5
C6
100
AcDbEntity
  8
DD0
100
AcDbLine
 10
123.350952
 20
146.649735
 11
125.472609
 21
141.624734
  0
LINE
  5
C7
100
AcDbEntity
  8
DD0
100
AcDbLine
 10
123.350952
 20
146.649735
 11
133.836154
 21
133.176267
  0
LINE
  5
C8
100
AcDbEntity
  8
DD0
100
AcDbLine
 10
133.836154
 20
133.176267
 11
171.290696
 21
133.176267
  0
ENDBLK
  5
C9
100
AcDbEntity
  8
DD0
100
AcDbBlockEnd
  0
BLOCK
  5
CC
100
AcDbEntity
  8
DD0
100
AcDbBlockBegin
  2
DIMS11
 70
     0
 10
0.0
 20
0.0
  0
LINE
  5
CD
100
AcDbEntity
  8
DD0
100
AcDbLine
 10
74.118158
 20
207.287177
 11
151.996887
 21
207.287177
  0
LINE
  5
CE
100
AcDbEntity
  8
DD0
100
AcDbLine
 10
113.990753
 20
227.287177
 11
151.996887
 21
227.287177
  0
LINE
  5
CF
100
AcDbEntity
  8
DD0
100
AcDbLine
 10
148.766965
 20
212.555863
 11
150.178705
 21
207.287177
  0
LINE
  5
D0
100
AcDbEntity
  8
DD0
100
AcDbLine
 10
150.178705
 20
207.287177
 11
151.590445
 21
212.555863
  0
LINE
  5
D1
100
AcDbEntity
  8
DD0
100
AcDbLine
 10
151.590445
 20
222.01849
 11
150.178705
 21
227.287177
  0
LINE
  5
D2
100
AcDbEntity
  8
DD0
100
AcDbLine
 10
150.178705
 20
227.287177
 11
148.766965
 21
222.01849
  0
LINE
  5
D3
100
AcDbEntity
  8
DD0
100
AcDbLine
 10
150.178705
 20
207.287177
 11
150.178705
 21
241.145139
  0
TEXT
  5
D4
100
AcDbEntity
  8
DD0
100
AcDbText
 10
149.087799
 20
232.366354
 40
4.545454
  1
２０
 50
90.000003
 41
0.666667
  7
STANDARD
100
AcDbText
  0
ENDBLK
  5
D5
100
AcDbEntity
  8
DD0
100
AcDbBlockEnd
  0
BLOCK
  5
D8
100
AcDbEntity
  8
DD0
100
AcDbBlockBegin
  2
DIMS12
 70
     0
 10
0.0
 20
0.0
  0
LINE
  5
D9
100
AcDbEntity
  8
DD0
100
AcDbLine
 10
74.118158
 20
207.287177
 11
151.996887
 21
207.287177
  0
LINE
  5
DA
100
AcDbEntity
  8
DD0
100
AcDbLine
 10
128.618161
 20
148.287184
 11
151.996887
 21
148.287184
  0
LINE
  5
DB
100
AcDbEntity
  8
DD0
100
AcDbLine
 10
151.590445
 20
202.018491
 11
150.178705
 21
207.287177
  0
LINE
  5
DC
100
AcDbEntity
  8
DD0
100
AcDbLine
 10
150.178705
 20
207.287177
 11
148.766965
 21
202.018491
  0
LINE
  5
DD
100
AcDbEntity
  8
DD0
100
AcDbLine
 10
148.766965
 20
153.55587
 11
150.178705
 21
148.287184
  0
LINE
  5
DE
100
AcDbEntity
  8
DD0
100
AcDbLine
 10
150.178705
 20
148.287184
 11
151.590445
 21
153.55587
  0
LINE
  5
DF
100
AcDbEntity
  8
DD0
100
AcDbLine
 10
150.178705
 20
207.287177
 11
150.178705
 21
148.287184
  0
TEXT
  5
E0
100
AcDbEntity
  8
DD0
100
AcDbText
 10
149.087799
 20
174.462941
 40
4.545454
  1
５９
 50
90.000003
 41
0.666667
  7
STANDARD
100
AcDbText
  0
ENDBLK
  5
E1
100
AcDbEntity
  8
DD0
100
AcDbBlockEnd
  0
BLOCK
  5
E4
100
AcDbEntity
  8
DD0
100
AcDbBlockBegin
  2
DIMS13
 70
     0
 10
0.0
 20
0.0
  0
LINE
  5
E5
100
AcDbEntity
  8
DD0
100
AcDbLine
 10
68.202562
 20
213.20276
 11
68.202562
 21
243.820352
  0
LINE
  5
E6
100
AcDbEntity
  8
DD0
100
AcDbLine
 10
122.202562
 20
154.702755
 11
122.202562
 21
243.820352
  0
LINE
  5
E7
100
AcDbEntity
  8
DD0
100
AcDbLine
 10
73.471248
 20
243.41391
 11
68.202562
 21
242.00217
  0
LINE
  5
E8
100
AcDbEntity
  8
DD0
100
AcDbLine
 10
68.202562
 20
242.00217
 11
73.471248
 21
240.59043
  0
LINE
  5
E9
100
AcDbEntity
  8
DD0
100
AcDbLine
 10
116.933876
 20
240.59043
 11
122.202562
 21
242.00217
  0
LINE
  5
EA
100
AcDbEntity
  8
DD0
100
AcDbLine
 10
122.202562
 20
242.00217
 11
116.933876
 21
243.41391
  0
LINE
  5
EB
100
AcDbEntity
  8
DD0
100
AcDbLine
 10
68.202562
 20
242.00217
 11
122.202562
 21
242.00217
  0
TEXT
  5
EC
100
AcDbEntity
  8
DD0
100
AcDbText
 10
91.878326
 20
243.09309
 40
4.545454
  1
５４
 41
0.666667
  7
STANDARD
100
AcDbText
  0
ENDBLK
  5
ED
100
AcDbEntity
  8
DD0
100
AcDbBlockEnd
  0
BLOCK
  5
F0
100
AcDbEntity
  8
DD0
100
AcDbBlockBegin
  2
DIMS14
 70
     0
 10
0.0
 20
0.0
  0
LINE
  5
F1
100
AcDbEntity
  8
DD0
100
AcDbLine
 10
68.202562
 20
213.20276
 11
68.202562
 21
243.820352
  0
LINE
  5
F2
100
AcDbEntity
  8
DD0
100
AcDbLine
 10
63.802572
 20
214.605361
 11
63.802572
 21
243.820352
  0
LINE
  5
F3
100
AcDbEntity
  8
DD0
100
AcDbLine
 10
73.471248
 20
243.41391
 11
68.202562
 21
242.00217
  0
LINE
  5
F4
100
AcDbEntity
  8
DD0
100
AcDbLine
 10
68.202562
 20
242.00217
 11
73.471248
 21
240.59043
  0
LINE
  5
F5
100
AcDbEntity
  8
DD0
100
AcDbLine
 10
58.533886
 20
240.59043
 11
63.802572
 21
242.00217
  0
LINE
  5
F6
100
AcDbEntity
  8
DD0
100
AcDbLine
 10
63.802572
 20
242.00217
 11
58.533886
 21
243.41391
  0
LINE
  5
F7
100
AcDbEntity
  8
DD0
100
AcDbLine
 10
74.202562
 20
242.00217
 11
45.075299
 21
242.00217
  0
TEXT
  5
F8
100
AcDbEntity
  8
DD0
100
AcDbText
 10
46.678333
 20
243.09309
 40
4.545454
  1
４．４
 41
0.666667
  7
STANDARD
100
AcDbText
  0
ENDBLK
  5
F9
100
AcDbEntity
  8
DD0
100
AcDbBlockEnd
  0
BLOCK
  5
FC
100
AcDbEntity
  8
DD0
100
AcDbBlockBegin
  2
DIMS15
 70
     0
 10
0.0
 20
0.0
  0
LINE
  5
FD
100
AcDbEntity
  8
DD0
100
AcDbLine
 10
67.484393
 20
444.308101
 11
37.359861
 21
444.308101
  0
LINE
  5
FE
100
AcDbEntity
  8
DD0
100
AcDbLine
 10
71.484394
 20
438.308096
 11
37.359861
 21
438.308096
  0
LINE
  5
FF
100
AcDbEntity
  8
DD0
100
AcDbLine
 10
37.766303
 20
449.576788
 11
39.178043
 21
444.308101
  0
LINE
  5
100
100
AcDbEntity
  8
DD0
100
AcDbLine
 10
39.178043
 20
444.308101
 11
40.589783
 21
449.576788
  0
LINE
  5
101
100
AcDbEntity
  8
DD0
100
AcDbLine
 10
40.589783
 20
433.03941
 11
39.178043
 21
438.308096
  0
LINE
  5
102
100
AcDbEntity
  8
DD0
100
AcDbLine
 10
39.178043
 20
438.308096
 11
37.766303
 21
433.03941
  0
LINE
  5
103
100
AcDbEntity
  8
DD0
100
AcDbLine
 10
39.178043
 20
450.308101
 11
39.178043
 21
432.308096
  0
TEXT
  5
104
100
AcDbEntity
  8
DD0
100
AcDbText
 10
38.087133
 20
439.802013
 40
4.545454
  1
６
 50
90.000003
 41
0.666667
  7
STANDARD
100
AcDbText
  0
ENDBLK
  5
105
100
AcDbEntity
  8
DD0
100
AcDbBlockEnd
  0
BLOCK
  5
108
100
AcDbEntity
  8
DD0
100
AcDbBlockBegin
  2
DIMS16
 70
     0
 10
0.0
 20
0.0
  0
LINE
  5
109
100
AcDbEntity
  8
DD0
100
AcDbLine
 10
71.484394
 20
438.308096
 11
37.359861
 21
438.308096
  0
LINE
  5
10A
100
AcDbEntity
  8
DD0
100
AcDbLine
 10
70.534396
 20
303.808116
 11
37.359861
 21
303.808116
  0
LINE
  5
10B
100
AcDbEntity
  8
DD0
100
AcDbLine
 10
40.589783
 20
433.03941
 11
39.178043
 21
438.308096
  0
LINE
  5
10C
100
AcDbEntity
  8
DD0
100
AcDbLine
 10
39.178043
 20
438.308096
 11
37.766303
 21
433.03941
  0
LINE
  5
10D
100
AcDbEntity
  8
DD0
100
AcDbLine
 10
37.766303
 20
309.076802
 11
39.178043
 21
303.808116
  0
LINE
  5
10E
100
AcDbEntity
  8
DD0
100
AcDbLine
 10
39.178043
 20
303.808116
 11
40.589783
 21
309.076802
  0
LINE
  5
10F
100
AcDbEntity
  8
DD0
100
AcDbLine
 10
39.178043
 20
438.308096
 11
39.178043
 21
303.808116
  0
TEXT
  5
110
100
AcDbEntity
  8
DD0
100
AcDbText
 10
38.087133
 20
362.279321
 40
4.545454
  1
１３４．５
 50
90.000003
 41
0.666667
  7
STANDARD
100
AcDbText
  0
ENDBLK
  5
111
100
AcDbEntity
  8
DD0
100
AcDbBlockEnd
  0
ENDSEC
  0
SECTION
  2
ENTITIES
  0
INSERT
  5
56
100
AcDbEntity
  8
DD0
100
AcDbBlockReference
  2
DIMS0
 10
0.0
 20
0.0
  0
INSERT
  5
61
100
AcDbEntity
  8
DD0
100
AcDbBlockReference
  2
DIMS1
 10
0.0
 20
0.0
  0
INSERT
  5
6C
100
AcDbEntity
  8
DD0
100
AcDbBlockReference
  2
DIMS2
 10
0.0
 20
0.0
  0
INSERT
  5
78
100
AcDbEntity
  8
DD0
100
AcDbBlockReference
  2
DIMS3
 10
0.0
 20
0.0
  0
INSERT
  5
84
100
AcDbEntity
  8
DD0
100
AcDbBlockReference
  2
DIMS4
 10
0.0
 20
0.0
  0
INSERT
  5
90
100
AcDbEntity
  8
DD0
100
AcDbBlockReference
  2
DIMS5
 10
0.0
 20
0.0
  0
INSERT
  5
9C
100
AcDbEntity
  8
DD0
100
AcDbBlockReference
  2
DIMS6
 10
0.0
 20
0.0
  0
INSERT
  5
A8
100
AcDbEntity
  8
DD0
100
AcDbBlockReference
  2
DIMS7
 10
0.0
 20
0.0
  0
INSERT
  5
B4
100
AcDbEntity
  8
DD0
100
AcDbBlockReference
  2
DIMS8
 10
0.0
 20
0.0
  0
INSERT
  5
C1
100
AcDbEntity
  8
DD0
100
AcDbBlockReference
  2
DIMS9
 10
0.0
 20
0.0
  0
INSERT
  5
CA
100
AcDbEntity
  8
DD0
100
AcDbBlockReference
  2
DIMS10
 10
0.0
 20
0.0
  0
INSERT
  5
D6
100
AcDbEntity
  8
DD0
100
AcDbBlockReference
  2
DIMS11
 10
0.0
 20
0.0
  0
INSERT
  5
E2
100
AcDbEntity
  8
DD0
100
AcDbBlockReference
  2
DIMS12
 10
0.0
 20
0.0
  0
INSERT
  5
EE
100
AcDbEntity
  8
DD0
100
AcDbBlockReference
  2
DIMS13
 10
0.0
 20
0.0
  0
INSERT
  5
FA
100
AcDbEntity
  8
DD0
100
AcDbBlockReference
  2
DIMS14
 10
0.0
 20
0.0
  0
INSERT
  5
106
100
AcDbEntity
  8
DD0
100
AcDbBlockReference
  2
DIMS15
 10
0.0
 20
0.0
  0
INSERT
  5
112
100
AcDbEntity
  8
DD0
100
AcDbBlockReference
  2
DIMS16
 10
0.0
 20
0.0
  0
ARC
  5
113
100
AcDbEntity
  8
M0
 62
   154
100
AcDbCircle
 10
106.552572
 20
348.808104
 40
9.0
100
AcDbArc
 50
120.042201
 51
160.747898
  0
ARC
  5
114
100
AcDbEntity
  8
M0
 62
   154
100
AcDbCircle
 10
99.002572
 20
361.308104
 40
9.0
100
AcDbArc
 50
300.042201
 51
340.747898
  0
LINE
  5
115
100
AcDbEntity
  8
M0
 62
   154
100
AcDbLine
 10
109.768474
 20
364.837829
 11
107.499264
 21
358.340576
  0
LINE
  5
116
100
AcDbEntity
  8
M0
 62
   154
100
AcDbLine
 10
102.046832
 20
356.599016
 11
103.554294
 21
357.47083
  0
LINE
  5
117
100
AcDbEntity
  8
M0
 62
   154
100
AcDbLine
 10
102.00085
 20
352.645378
 11
103.508311
 21
353.517192
  0
LINE
  5
118
100
AcDbEntity
  8
M0
 62
   154
100
AcDbLine
 10
95.78667
 20
345.278379
 11
98.055879
 21
351.775631
  0
ARC
  5
119
100
AcDbEntity
  8
M0
 62
   154
100
AcDbCircle
 10
102.202572
 20
359.808104
 40
2.7
100
AcDbArc
 50
300.042201
 51
351.333467
  0
ARC
  5
11A
100
AcDbEntity
  8
M0
 62
   154
100
AcDbCircle
 10
103.352572
 20
350.308104
 40
2.7
100
AcDbArc
 50
120.042201
 51
171.333467
  0
ARC
  5
11B
100
AcDbEntity
  8
M0
 62
   154
100
AcDbCircle
 10
104.871393
 20
364.708104
 40
0.8
100
AcDbArc
 50
351.333467
 51
450.0
  0
LINE
  5
11C
100
AcDbEntity
  8
M0
 62
   154
100
AcDbLine
 10
105.662259
 20
364.587557
 11
104.871743
 21
359.401259
  0
LINE
  5
11D
100
AcDbEntity
  8
M0
 62
   154
100
AcDbLine
 10
99.892885
 20
345.528651
 11
100.6834
 21
350.714949
  0
LINE
  5
11E
100
AcDbEntity
  8
M0
 62
   154
100
AcDbLine
 10
110.712551
 20
365.508104
 11
111.402572
 21
365.508104
  0
LINE
  5
11F
100
AcDbEntity
  8
M0
 62
   154
100
AcDbLine
 10
104.871393
 20
365.508104
 11
104.502572
 21
365.508104
  0
ARC
  5
120
100
AcDbEntity
  8
M0
 62
   154
100
AcDbCircle
 10
110.712551
 20
364.508104
 40
1.0
100
AcDbArc
 50
90.0
 51
160.747898
  0
ARC
  5
121
100
AcDbEntity
  8
M0
 62
   154
100
AcDbCircle
 10
100.683751
 20
345.408104
 40
0.8
100
AcDbArc
 50
171.333467
 51
270.0
  0
LINE
  5
122
100
AcDbEntity
  8
M0
 62
   154
100
AcDbLine
 10
100.683751
 20
344.608104
 11
101.052572
 21
344.608104
  0
LINE
  5
123
100
AcDbEntity
  8
M0
 62
   154
100
AcDbLine
 10
94.842593
 20
344.608104
 11
94.152572
 21
344.608104
  0
ARC
  5
124
100
AcDbEntity
  8
M0
 62
   154
100
AcDbCircle
 10
94.842593
 20
345.608104
 40
1.0
100
AcDbArc
 50
270.0
 51
340.747898
  0
ARC
  5
125
100
AcDbEntity
  8
M0
 62
   154
100
AcDbCircle
 10
94.152572
 20
343.608104
 40
1.0
100
AcDbArc
 50
90.0
 51
180.0
  0
ARC
  5
126
100
AcDbEntity
  8
M0
 62
   154
100
AcDbCircle
 10
111.402572
 20
366.508104
 40
1.0
100
AcDbArc
 50
270.0
 51
360.0
  0
LINE
  5
127
100
AcDbEntity
  8
M0
 62
   154
100
AcDbLine
 10
112.402572
 20
373.708104
 11
112.402572
 21
366.508104
  0
LINE
  5
128
100
AcDbEntity
  8
M0
 62
   154
100
AcDbLine
 10
104.002572
 20
373.708104
 11
104.002572
 21
366.008104
  0
LINE
  5
129
100
AcDbEntity
  8
M0
 62
   154
100
AcDbLine
 10
105.002572
 20
374.708104
 11
111.402572
 21
374.708104
  0
ARC
  5
12A
100
AcDbEntity
  8
M0
 62
   154
100
AcDbCircle
 10
104.502572
 20
366.008104
 40
0.5
100
AcDbArc
 50
180.0
 51
270.0
  0
ARC
  5
12B
100
AcDbEntity
  8
M0
 62
   154
100
AcDbCircle
 10
101.052572
 20
344.108104
 40
0.5
100
AcDbArc
 50
0.0
 51
90.0
  0
LINE
  5
12C
100
AcDbEntity
  8
M0
 62
   154
100
AcDbLine
 10
101.552572
 20
336.408104
 11
101.552572
 21
344.108104
  0
LINE
  5
12D
100
AcDbEntity
  8
M0
 62
   154
100
AcDbLine
 10
93.152572
 20
336.408104
 11
93.152572
 21
343.608104
  0
LINE
  5
12E
100
AcDbEntity
  8
M0
 62
   154
100
AcDbLine
 10
100.552572
 20
335.408104
 11
94.152572
 21
335.408104
  0
ARC
  5
12F
100
AcDbEntity
  8
M0
 62
   154
100
AcDbCircle
 10
94.152572
 20
336.408104
 40
1.0
100
AcDbArc
 50
180.0
 51
270.0
  0
ARC
  5
130
100
AcDbEntity
  8
M0
 62
   154
100
AcDbCircle
 10
100.552572
 20
336.408104
 40
1.0
100
AcDbArc
 50
270.0
 51
360.0
  0
ARC
  5
131
100
AcDbEntity
  8
M0
 62
   154
100
AcDbCircle
 10
105.002572
 20
373.708104
 40
1.0
100
AcDbArc
 50
90.0
 51
180.0
  0
ARC
  5
132
100
AcDbEntity
  8
M0
 62
   154
100
AcDbCircle
 10
111.402572
 20
373.708104
 40
1.0
100
AcDbArc
 50
3.256888E-012
 51
90.0
  0
ARC
  5
133
100
AcDbEntity
  8
M0
 62
   154
100
AcDbCircle
 10
93.933285
 20
348.782628
 40
9.0
100
AcDbArc
 50
121.042201
 51
161.747898
  0
ARC
  5
134
100
AcDbEntity
  8
M0
 62
   154
100
AcDbCircle
 10
86.16628
 20
361.148958
 40
9.0
100
AcDbArc
 50
301.042201
 51
341.747898
  0
LINE
  5
135
100
AcDbEntity
  8
M0
 62
   154
100
AcDbLine
 10
96.86894
 20
364.866037
 11
94.713469
 21
358.33017
  0
LINE
  5
136
100
AcDbEntity
  8
M0
 62
   154
100
AcDbLine
 10
89.292262
 20
356.493717
 11
90.784278
 21
357.391708
  0
LINE
  5
137
100
AcDbEntity
  8
M0
 62
   154
100
AcDbLine
 10
89.315287
 20
352.539878
 11
90.807304
 21
353.437869
  0
LINE
  5
138
100
AcDbEntity
  8
M0
 62
   154
100
AcDbLine
 10
83.230625
 20
345.065549
 11
85.386097
 21
351.601416
  0
ARC
  5
139
100
AcDbEntity
  8
M0
 62
   154
100
AcDbCircle
 10
89.391971
 20
359.705034
 40
2.7
100
AcDbArc
 50
301.042201
 51
352.333467
  0
ARC
  5
13A
100
AcDbEntity
  8
M0
 62
   154
100
AcDbCircle
 10
90.707594
 20
350.226552
 40
2.7
100
AcDbArc
 50
121.042201
 51
172.333467
  0
ARC
  5
13B
100
AcDbEntity
  8
M0
 62
   154
100
AcDbCircle
 10
91.974869
 20
364.650865
 40
0.8
100
AcDbArc
 50
352.333467
 51
451.0
  0
LINE
  5
13C
100
AcDbEntity
  8
M0
 62
   154
100
AcDbLine
 10
92.767718
 20
364.54414
 11
92.067837
 21
359.344835
  0
LINE
  5
13D
100
AcDbEntity
  8
M0
 62
   154
100
AcDbLine
 10
87.331847
 20
345.387446
 11
88.031729
 21
350.586751
  0
LINE
  5
13E
100
AcDbEntity
  8
M0
 62
   154
100
AcDbLine
 10
97.801175
 20
365.552686
 11
98.491091
 21
365.564728
  0
LINE
  5
13F
100
AcDbEntity
  8
M0
 62
   154
100
AcDbLine
 10
91.960907
 20
365.450744
 11
91.592142
 21
365.444307
  0
ARC
  5
140
100
AcDbEntity
  8
M0
 62
   154
100
AcDbCircle
 10
97.818628
 20
364.552838
 40
1.0
100
AcDbArc
 50
91.0
 51
161.747898
  0
ARC
  5
141
100
AcDbEntity
  8
M0
 62
   154
100
AcDbCircle
 10
88.124696
 20
345.280721
 40
0.8
100
AcDbArc
 50
172.333467
 51
271.0
  0
LINE
  5
142
100
AcDbEntity
  8
M0
 62
   154
100
AcDbLine
 10
88.138658
 20
344.480842
 11
88.507423
 21
344.487279
  0
LINE
  5
143
100
AcDbEntity
  8
M0
 62
   154
100
AcDbLine
 10
82.29839
 20
344.3789
 11
81.608474
 21
344.366858
  0
ARC
  5
144
100
AcDbEntity
  8
M0
 62
   154
100
AcDbCircle
 10
82.280938
 20
345.378748
 40
1.0
100
AcDbArc
 50
271.0
 51
341.747898
  0
ARC
  5
145
100
AcDbEntity
  8
M0
 62
   154
100
AcDbCircle
 10
81.625926
 20
343.36701
 40
1.0
100
AcDbArc
 50
91.0
 51
181.0
  0
ARC
  5
146
100
AcDbEntity
  8
M0
 62
   154
100
AcDbCircle
 10
98.473639
 20
366.564576
 40
1.0
100
AcDbArc
 50
271.0
 51
361.0
  0
LINE
  5
147
100
AcDbEntity
  8
M0
 62
   154
100
AcDbLine
 10
99.347829
 20
373.780932
 11
99.473487
 21
366.582029
  0
LINE
  5
148
100
AcDbEntity
  8
M0
 62
   154
100
AcDbLine
 10
90.949109
 20
373.634332
 11
91.083492
 21
365.935504
  0
LINE
  5
149
100
AcDbEntity
  8
M0
 62
   154
100
AcDbLine
 10
91.931504
 20
374.651632
 11
98.330529
 21
374.763327
  0
ARC
  5
14A
100
AcDbEntity
  8
M0
 62
   154
100
AcDbCircle
 10
91.583416
 20
365.944231
 40
0.5
100
AcDbArc
 50
181.0
 51
271.0
  0
ARC
  5
14B
100
AcDbEntity
  8
M0
 62
   154
100
AcDbCircle
 10
88.516149
 20
343.987355
 40
0.5
100
AcDbArc
 50
1.0
 51
91.0
  0
LINE
  5
14C
100
AcDbEntity
  8
M0
 62
   154
100
AcDbLine
 10
89.150457
 20
336.297254
 11
89.016073
 21
343.996082
  0
LINE
  5
14D
100
AcDbEntity
  8
M0
 62
   154
100
AcDbLine
 10
80.751736
 20
336.150654
 11
80.626079
 21
343.349557
  0
ARC
  5
14E
100
AcDbEntity
  8
M0
 62
   154
100
AcDbCircle
 10
81.751584
 20
336.168106
 40
1.0
100
AcDbArc
 50
181.0
 51
239.326411
  0
ARC
  5
14F
100
AcDbEntity
  8
M0
 62
   154
100
AcDbCircle
 10
88.150609
 20
336.279802
 40
1.0
100
AcDbArc
 50
271.0
 51
361.0
  0
ARC
  5
150
100
AcDbEntity
  8
M0
 62
   154
100
AcDbCircle
 10
91.948956
 20
373.651784
 40
1.0
100
AcDbArc
 50
91.0
 51
181.0
  0
ARC
  5
151
100
AcDbEntity
  8
M0
 62
   154
100
AcDbCircle
 10
98.347982
 20
373.76348
 40
1.0
100
AcDbArc
 50
1.0
 51
91.0
  0
HATCH
  5
152
100
AcDbEntity
  8
M0
 62
     7
100
AcDbHatch
 10
0.0
 20
0.0
210
0.0
220
0.0
230
1.0
  2
SOLID
 70
     1
 71
     0
 91
        1
 92
        1
 93
        4
 72
     1
 10
220.28852
 20
442.728226
 11
218.28852
 21
442.728226
 72
     1
 10
218.28852
 20
442.728226
 11
218.28852
 21
424.528226
 72
     1
 10
218.28852
 20
424.528226
 11
220.28852
 21
424.528226
 72
     1
 10
220.28852
 20
424.528226
 11
220.28852
 21
442.728226
 97
        0
 75
     0
 76
     1
 98
        1
 10
0.0
 20
0.0
  0
ARC
  5
155
100
AcDbEntity
  8
M0
 62
   234
100
AcDbCircle
 10
290.88852
 20
367.908103
 40
1.5
100
AcDbArc
 50
90.0
 51
180.0
  0
ARC
  5
156
100
AcDbEntity
  8
M0
 62
   234
100
AcDbCircle
 10
304.28852
 20
321.308103
 40
1.7
100
AcDbArc
 50
287.113266
 51
360.0
  0
ARC
  5
157
100
AcDbEntity
  8
M0
 62
   234
100
AcDbCircle
 10
290.88852
 20
351.308103
 40
1.5
100
AcDbArc
 50
180.0
 51
270.0
  0
LINE
  5
158
100
AcDbEntity
  8
M0
 62
   234
100
AcDbLine
 10
305.98852
 20
349.808103
 11
304.78852
 21
349.808103
  0
LINE
  5
159
100
AcDbEntity
  8
M0
 62
   234
100
AcDbLine
 10
294.38852
 20
364.008103
 11
294.38852
 21
359.808103
  0
LINE
  5
15A
100
AcDbEntity
  8
M0
 62
   234
100
AcDbLine
 10
295.38852
 20
358.808103
 11
305.98852
 21
358.808103
  0
LINE
  5
15B
100
AcDbEntity
  8
M0
 62
   234
100
AcDbLine
 10
290.88852
 20
369.408103
 11
294.38852
 21
369.408103
  0
LINE
  5
15C
100
AcDbEntity
  8
M0
 62
   234
100
AcDbLine
 10
305.98852
 20
358.808103
 11
305.98852
 21
321.308103
  0
LINE
  5
15D
100
AcDbEntity
  8
M0
 62
   234
100
AcDbLine
 10
305.98852
 20
323.008103
 11
304.78852
 21
323.008103
  0
ARC
  5
15E
100
AcDbEntity
  8
M0
 62
   234
100
AcDbCircle
 10
295.38852
 20
359.808103
 40
1.0
100
AcDbArc
 50
180.0
 51
270.0
  0
LINE
  5
15F
100
AcDbEntity
  8
M0
 62
   234
100
AcDbLine
 10
289.38852
 20
351.308103
 11
289.38852
 21
367.908103
  0
LINE
  5
160
100
AcDbEntity
  8
M0
 62
   234
100
AcDbLine
 10
304.78852
 20
349.808103
 11
304.78852
 21
321.308103
  0
LINE
  5
161
100
AcDbEntity
  8
M0
 62
   234
100
AcDbLine
 10
301.79232
 20
349.808103
 11
290.88852
 21
349.808103
  0
LINE
  5
162
100
AcDbEntity
  8
M0
 62
     7
100
AcDbLine
 10
315.08852
 20
418.308104
 11
315.08852
 21
424.308104
  0
LINE
  5
163
100
AcDbEntity
  8
M0
 62
     7
100
AcDbLine
 10
303.08852
 20
418.308104
 11
303.08852
 21
424.308104
  0
LINE
  5
164
100
AcDbEntity
  8
M0
 62
     7
100
AcDbLine
 10
291.08852
 20
418.308104
 11
291.08852
 21
424.308104
  0
LINE
  5
165
100
AcDbEntity
  8
M0
 62
     7
100
AcDbLine
 10
299.08852
 20
418.308104
 11
299.08852
 21
424.308104
  0
LINE
  5
166
100
AcDbEntity
  8
M0
 62
     7
100
AcDbLine
 10
301.08852
 20
418.308104
 11
301.08852
 21
424.308104
  0
LINE
  5
167
100
AcDbEntity
  8
M0
 62
     7
100
AcDbLine
 10
313.08852
 20
418.308104
 11
315.08852
 21
418.308104
  0
LINE
  5
168
100
AcDbEntity
  8
M0
 62
     7
100
AcDbLine
 10
293.08852
 20
418.308104
 11
293.08852
 21
424.308104
  0
LINE
  5
169
100
AcDbEntity
  8
M0
 62
     7
100
AcDbLine
 10
289.08852
 20
418.308104
 11
291.08852
 21
418.308104
  0
LINE
  5
16A
100
AcDbEntity
  8
M0
 62
     7
100
AcDbLine
 10
294.38852
 20
360.308104
 11
294.38852
 21
369.808104
  0
LINE
  5
16B
100
AcDbEntity
  8
M0
 62
     7
100
AcDbLine
 10
309.08852
 20
418.308104
 11
309.08852
 21
424.308104
  0
LINE
  5
16C
100
AcDbEntity
  8
M0
 62
     7
100
AcDbLine
 10
309.08852
 20
418.308104
 11
311.08852
 21
418.308104
  0
LINE
  5
16D
100
AcDbEntity
  8
M0
 62
     7
100
AcDbLine
 10
327.68852
 20
363.308104
 11
303.38852
 21
363.308104
  0
LINE
  5
16E
100
AcDbEntity
  8
M0
 62
     7
100
AcDbLine
 10
311.08852
 20
418.308104
 11
311.08852
 21
424.308104
  0
LINE
  5
16F
100
AcDbEntity
  8
M0
 62
     7
100
AcDbLine
 10
338.38852
 20
376.008104
 11
338.38852
 21
375.808104
  0
LINE
  5
170
100
AcDbEntity
  8
M0
 62
     7
100
AcDbLine
 10
338.68852
 20
370.058104
 11
338.68852
 21
360.558104
  0
LINE
  5
171
100
AcDbEntity
  8
M0
 62
     7
100
AcDbLine
 10
334.18852
 20
406.108104
 11
334.48852
 21
406.608104
  0
LINE
  5
172
100
AcDbEntity
  8
M0
 62
     7
100
AcDbLine
 10
338.68852
 20
366.308104
 11
338.68852
 21
364.308104
  0
LINE
  5
173
100
AcDbEntity
  8
M0
 62
     7
100
AcDbLine
 10
288.98852
 20
431.79389
 11
288.98852
 21
425.308104
  0
LINE
  5
174
100
AcDbEntity
  8
M0
 62
     7
100
AcDbLine
 10
282.781414
 20
438.415211
 11
283.98852
 21
437.208104
  0
LINE
  5
175
100
AcDbEntity
  8
M0
 62
     7
100
AcDbLine
 10
334.18852
 20
409.608104
 11
334.18852
 21
412.108104
  0
LINE
  5
176
100
AcDbEntity
  8
M0
 62
     7
100
AcDbLine
 10
315.88852
 20
425.308104
 11
315.88852
 21
429.308104
  0
ARC
  5
177
100
AcDbEntity
  8
M0
 62
     7
100
AcDbCircle
 10
282.074307
 20
437.708104
 40
1.0
100
AcDbArc
 50
45.0
 51
90.0
  0
ARC
  5
178
100
AcDbEntity
  8
M0
 62
     7
100
AcDbCircle
 10
334.508682
 20
413.411141
 40
1.374538
100
AcDbArc
 50
233.367407
 51
251.438337
  0
ARC
  5
179
100
AcDbEntity
  8
M0
 62
     7
100
AcDbCircle
 10
337.88852
 20
412.808104
 40
0.5
100
AcDbArc
 50
270.0
 51
360.0
  0
ARC
  5
17A
100
AcDbEntity
  8
M0
 62
     7
100
AcDbCircle
 10
295.88852
 20
360.308104
 40
1.5
100
AcDbArc
 50
180.0
 51
270.0
  0
LINE
  5
17B
100
AcDbEntity
  8
M0
 62
     7
100
AcDbLine
 10
305.08852
 20
418.308104
 11
305.08852
 21
424.308104
  0
LINE
  5
17C
100
AcDbEntity
  8
M0
 62
     7
100
AcDbLine
 10
301.08852
 20
418.308104
 11
303.08852
 21
418.308104
  0
LINE
  5
17D
100
AcDbEntity
  8
M0
 62
     7
100
AcDbLine
 10
305.08852
 20
418.308104
 11
307.08852
 21
418.308104
  0
ARC
  5
17E
100
AcDbEntity
  8
M0
 62
     7
100
AcDbCircle
 10
287.98852
 20
431.79389
 40
1.0
100
AcDbArc
 50
0.0
 51
45.0
  0
ARC
  5
17F
100
AcDbEntity
  8
M0
 62
     7
100
AcDbCircle
 10
302.38852
 20
359.808104
 40
1.0
100
AcDbArc
 50
270.0
 51
360.0
  0
LINE
  5
180
100
AcDbEntity
  8
M0
 62
     7
100
AcDbLine
 10
294.38852
 20
369.808104
 11
282.18852
 21
369.808104
  0
ARC
  5
181
100
AcDbEntity
  8
M0
 62
     7
100
AcDbCircle
 10
337.88852
 20
359.308104
 40
0.5
100
AcDbArc
 50
270.0
 51
360.0
  0
LINE
  5
182
100
AcDbEntity
  8
M0
 62
     7
100
AcDbLine
 10
338.38852
 20
415.608104
 11
338.38852
 21
413.608104
  0
LINE
  5
183
100
AcDbEntity
  8
M0
 62
     7
100
AcDbLine
 10
303.38852
 20
375.008104
 11
303.38852
 21
359.808104
  0
LINE
  5
184
100
AcDbEntity
  8
M0
 62
     7
100
AcDbLine
 10
283.18852
 20
413.608104
 11
295.18852
 21
413.608104
  0
LINE
  5
185
100
AcDbEntity
  8
M0
 62
     7
100
AcDbLine
 10
307.08852
 20
418.308104
 11
307.08852
 21
424.308104
  0
LINE
  5
186
100
AcDbEntity
  8
M0
 62
     7
100
AcDbLine
 10
303.08852
 20
425.308104
 11
301.08852
 21
425.308104
  0
LINE
  5
187
100
AcDbEntity
  8
M0
 62
     7
100
AcDbLine
 10
302.38852
 20
375.008104
 11
309.18852
 21
375.008104
  0
ARC
  5
188
100
AcDbEntity
  8
M0
 62
     7
100
AcDbCircle
 10
334.950403
 20
374.365591
 40
2.316399
100
AcDbArc
 50
112.341791
 51
123.008287
  0
ARC
  5
189
100
AcDbEntity
  8
M0
 62
     7
100
AcDbCircle
 10
337.88852
 20
428.808104
 40
0.5
100
AcDbArc
 50
0.0
 51
90.0
  0
ARC
  5
18A
100
AcDbEntity
  8
M0
 62
     7
100
AcDbCircle
 10
337.88852
 20
376.008104
 40
0.5
100
AcDbArc
 50
0.0
 51
90.0
  0
ARC
  5
18B
100
AcDbEntity
  8
M0
 62
     7
100
AcDbCircle
 10
337.88852
 20
375.808104
 40
0.5
100
AcDbArc
 50
0.0
 51
90.0
  0
LINE
  5
18C
100
AcDbEntity
  8
M0
 62
     7
100
AcDbLine
 10
283.18852
 20
415.608104
 11
327.68852
 21
415.608104
  0
ARC
  5
18D
100
AcDbEntity
  8
M0
 62
     7
100
AcDbCircle
 10
337.88852
 20
412.608104
 40
0.5
100
AcDbArc
 50
270.0
 51
360.0
  0
ARC
  5
18E
100
AcDbEntity
  8
M0
 62
     7
100
AcDbCircle
 10
328.68852
 20
428.308104
 40
1.0
100
AcDbArc
 50
90.0
 51
180.0
  0
LINE
  5
18F
100
AcDbEntity
  8
M0
 62
     7
100
AcDbLine
 10
334.48852
 20
408.608104
 11
334.48852
 21
406.608104
  0
LINE
  5
190
100
AcDbEntity
  8
M0
 62
     7
100
AcDbLine
 10
293.08852
 20
418.308104
 11
295.08852
 21
418.308104
  0
LINE
  5
191
100
AcDbEntity
  8
M0
 62
     7
100
AcDbLine
 10
334.18852
 20
412.108104
 11
334.18852
 21
376.508104
  0
LINE
  5
192
100
AcDbEntity
  8
M0
 62
     7
100
AcDbLine
 10
338.38852
 20
412.808104
 11
338.38852
 21
412.608104
  0
LINE
  5
193
100
AcDbEntity
  8
M0
 62
     7
100
AcDbLine
 10
334.08852
 20
376.508104
 11
337.88852
 21
376.508104
  0
LINE
  5
194
100
AcDbEntity
  8
M0
 62
     7
100
AcDbLine
 10
337.88852
 20
412.108104
 11
334.08852
 21
412.108104
  0
LINE
  5
195
100
AcDbEntity
  8
M0
 62
     7
100
AcDbLine
 10
302.38852
 20
358.808104
 11
295.88852
 21
358.808104
  0
LINE
  5
196
100
AcDbEntity
  8
M0
 62
     7
100
AcDbLine
 10
327.68852
 20
413.608104
 11
327.68852
 21
428.308104
  0
LINE
  5
197
100
AcDbEntity
  8
M0
 62
     7
100
AcDbLine
 10
328.68852
 20
429.308104
 11
337.88852
 21
429.308104
  0
LINE
  5
198
100
AcDbEntity
  8
M0
 62
     7
100
AcDbLine
 10
307.08852
 20
425.308104
 11
305.08852
 21
425.308104
  0
LINE
  5
199
100
AcDbEntity
  8
M0
 62
     7
100
AcDbLine
 10
289.38852
 20
363.308104
 11
271.18852
 21
363.308104
  0
LINE
  5
19A
100
AcDbEntity
  8
M0
 62
     7
100
AcDbLine
 10
289.38852
 20
358.808104
 11
271.18852
 21
358.808104
  0
LINE
  5
19B
100
AcDbEntity
  8
M0
 62
     7
100
AcDbLine
 10
271.18852
 20
419.008104
 11
282.18852
 21
419.008104
  0
ARC
  5
19C
100
AcDbEntity
  8
M0
 62
     7
100
AcDbCircle
 10
259.98852
 20
436.308104
 40
1.0
100
AcDbArc
 50
90.0
 51
180.0
  0
ARC
  5
19D
100
AcDbEntity
  8
M0
 62
     7
100
AcDbCircle
 10
263.08852
 20
437.808104
 40
1.0
100
AcDbArc
 50
90.0
 51
115.841933
  0
LINE
  5
19E
100
AcDbEntity
  8
M0
 62
     7
100
AcDbLine
 10
282.18852
 20
369.808104
 11
271.18852
 21
369.808104
  0
LINE
  5
19F
100
AcDbEntity
  8
M0
 62
     7
100
AcDbLine
 10
263.08852
 20
438.808104
 11
272.48852
 21
438.808104
  0
LINE
  5
1A0
100
AcDbEntity
  8
M0
 62
     7
100
AcDbLine
 10
262.58852
 20
438.708104
 11
282.074307
 21
438.708104
  0
LINE
  5
1A1
100
AcDbEntity
  8
M0
 62
     7
100
AcDbLine
 10
271.18852
 20
425.308104
 11
289.08852
 21
425.308104
  0
LINE
  5
1A2
100
AcDbEntity
  8
M0
 62
     7
100
AcDbLine
 10
258.98852
 20
436.308104
 11
258.98852
 21
428.808104
  0
ARC
  5
1A3
100
AcDbEntity
  8
M0
 62
     7
100
AcDbCircle
 10
262.58852
 20
435.708104
 40
3.0
100
AcDbArc
 50
90.0
 51
180.0
  0
ARC
  5
1A4
100
AcDbEntity
  8
M0
 62
     7
100
AcDbCircle
 10
282.18852
 20
418.008104
 40
1.0
100
AcDbArc
 50
0.0
 51
90.0
  0
LINE
  5
1A5
100
AcDbEntity
  8
M0
 62
     7
100
AcDbLine
 10
335.18852
 20
412.108104
 11
335.18852
 21
410.608104
  0
LINE
  5
1A6
100
AcDbEntity
  8
M0
 62
     7
100
AcDbLine
 10
283.98852
 20
437.208104
 11
288.695627
 21
432.500997
  0
LINE
  5
1A7
100
AcDbEntity
  8
M0
 62
     7
100
AcDbLine
 10
293.08852
 20
423.808104
 11
295.08852
 21
423.808104
  0
LINE
  5
1A8
100
AcDbEntity
  8
M0
 62
     7
100
AcDbLine
 10
301.08852
 20
423.808104
 11
303.08852
 21
423.808104
  0
LINE
  5
1A9
100
AcDbEntity
  8
M0
 62
     7
100
AcDbLine
 10
329.18852
 20
380.708104
 11
298.88852
 21
380.708104
  0
LINE
  5
1AA
100
AcDbEntity
  8
M0
 62
     7
100
AcDbLine
 10
295.08852
 20
425.308104
 11
293.08852
 21
425.308104
  0
LINE
  5
1AB
100
AcDbEntity
  8
M0
 62
     7
100
AcDbLine
 10
336.18852
 20
409.608104
 11
335.18852
 21
410.608104
  0
LINE
  5
1AC
100
AcDbEntity
  8
M0
 62
     7
100
AcDbLine
 10
330.38852
 20
429.308104
 11
337.88852
 21
429.308104
  0
LINE
  5
1AD
100
AcDbEntity
  8
M0
 62
     7
100
AcDbLine
 10
336.18852
 20
409.608104
 11
338.38852
 21
409.608104
  0
LINE
  5
1AE
100
AcDbEntity
  8
M0
 62
     7
100
AcDbLine
 10
338.38852
 20
428.808104
 11
338.38852
 21
409.608104
  0
LINE
  5
1AF
100
AcDbEntity
  8
M0
 62
     7
100
AcDbLine
 10
338.68852
 20
428.058104
 11
338.68852
 21
418.558104
  0
LINE
  5
1B0
100
AcDbEntity
  8
M0
 62
     7
100
AcDbLine
 10
328.68852
 20
429.308104
 11
329.88852
 21
429.308104
  0
LINE
  5
1B1
100
AcDbEntity
  8
M0
 62
     7
100
AcDbLine
 10
334.38852
 20
376.508104
 11
334.38852
 21
376.808104
  0
LINE
  5
1B2
100
AcDbEntity
  8
M0
 62
     7
100
AcDbLine
 10
283.08852
 20
411.724332
 11
283.08852
 21
408.847549
  0
LINE
  5
1B3
100
AcDbEntity
  8
M0
 62
     7
100
AcDbLine
 10
298.88852
 20
380.708104
 11
298.88852
 21
380.068659
  0
LINE
  5
1B4
100
AcDbEntity
  8
M0
 62
     7
100
AcDbLine
 10
327.68852
 20
375.008104
 11
283.18852
 21
375.008104
  0
LINE
  5
1B5
100
AcDbEntity
  8
M0
 62
     7
100
AcDbLine
 10
278.58852
 20
374.208104
 11
278.58852
 21
379.208104
  0
LINE
  5
1B6
100
AcDbEntity
  8
M0
 62
     7
100
AcDbLine
 10
259.58852
 20
428.808104
 11
259.58852
 21
435.708104
  0
LINE
  5
1B7
100
AcDbEntity
  8
M0
 62
     7
100
AcDbLine
 10
313.08852
 20
418.308104
 11
313.08852
 21
424.308104
  0
LINE
  5
1B8
100
AcDbEntity
  8
M0
 62
     7
100
AcDbLine
 10
298.88852
 20
376.308104
 11
337.88852
 21
376.308104
  0
LINE
  5
1B9
100
AcDbEntity
  8
M0
 62
     7
100
AcDbLine
 10
334.48852
 20
408.608104
 11
334.18852
 21
409.608104
  0
LINE
  5
1BA
100
AcDbEntity
  8
M0
 62
     7
100
AcDbLine
 10
338.38852
 20
375.808104
 11
338.38852
 21
375.308104
  0
LINE
  5
1BB
100
AcDbEntity
  8
M0
 62
     7
100
AcDbLine
 10
298.88852
 20
376.591876
 11
298.88852
 21
376.308104
  0
LINE
  5
1BC
100
AcDbEntity
  8
M0
 62
     7
100
AcDbLine
 10
283.18852
 20
418.008104
 11
283.18852
 21
413.608104
  0
LINE
  5
1BD
100
AcDbEntity
  8
M0
 62
     7
100
AcDbLine
 10
329.18852
 20
381.708104
 11
329.18852
 21
380.708104
  0
LINE
  5
1BE
100
AcDbEntity
  8
M0
 62
     7
100
AcDbLine
 10
334.18852
 20
377.008104
 11
334.18852
 21
376.708104
  0
LINE
  5
1BF
100
AcDbEntity
  8
M0
 62
     7
100
AcDbLine
 10
338.38852
 20
428.808104
 11
338.38852
 21
428.058104
  0
LINE
  5
1C0
100
AcDbEntity
  8
M0
 62
     7
100
AcDbLine
 10
330.38852
 20
429.308104
 11
337.88852
 21
429.308104
  0
LINE
  5
1C1
100
AcDbEntity
  8
M0
 62
     7
100
AcDbLine
 10
311.08852
 20
424.308104
 11
311.08852
 21
425.308104
  0
LINE
  5
1C2
100
AcDbEntity
  8
M0
 62
     7
100
AcDbLine
 10
313.08852
 20
425.308104
 11
313.08852
 21
424.308104
  0
LINE
  5
1C3
100
AcDbEntity
  8
M0
 62
     7
100
AcDbLine
 10
301.08852
 20
425.308104
 11
299.08852
 21
425.308104
  0
LINE
  5
1C4
100
AcDbEntity
  8
M0
 62
     7
100
AcDbLine
 10
338.38852
 20
428.808104
 11
338.38852
 21
428.058104
  0
LINE
  5
1C5
100
AcDbEntity
  8
M0
 62
     7
100
AcDbLine
 10
334.18852
 20
376.508104
 11
334.18852
 21
376.708104
  0
LINE
  5
1C6
100
AcDbEntity
  8
M0
 62
     7
100
AcDbLine
 10
289.08852
 20
423.808104
 11
291.08852
 21
423.808104
  0
LINE
  5
1C7
100
AcDbEntity
  8
M0
 62
     7
100
AcDbLine
 10
313.08852
 20
425.308104
 11
311.08852
 21
425.308104
  0
LINE
  5
1C8
100
AcDbEntity
  8
M0
 62
     7
100
AcDbLine
 10
305.08852
 20
425.308104
 11
303.08852
 21
425.308104
  0
LINE
  5
1C9
100
AcDbEntity
  8
M0
 62
     7
100
AcDbLine
 10
315.98852
 20
429.308104
 11
329.88852
 21
429.308104
  0
LINE
  5
1CA
100
AcDbEntity
  8
M0
 62
     7
100
AcDbLine
 10
309.08852
 20
425.308104
 11
307.08852
 21
425.308104
  0
LINE
  5
1CB
100
AcDbEntity
  8
M0
 62
     7
100
AcDbLine
 10
319.08852
 20
424.308104
 11
319.08852
 21
425.308104
  0
LINE
  5
1CC
100
AcDbEntity
  8
M0
 62
     7
100
AcDbLine
 10
315.88852
 20
425.308104
 11
315.08852
 21
425.308104
  0
LINE
  5
1CD
100
AcDbEntity
  8
M0
 62
     7
100
AcDbLine
 10
317.38852
 20
429.308104
 11
337.88852
 21
429.308104
  0
LINE
  5
1CE
100
AcDbEntity
  8
M0
 62
     7
100
AcDbLine
 10
327.68852
 20
359.808104
 11
327.68852
 21
375.008104
  0
LINE
  5
1CF
100
AcDbEntity
  8
M0
 62
     7
100
AcDbLine
 10
338.38852
 20
375.308104
 11
338.38852
 21
359.308104
  0
LINE
  5
1D0
100
AcDbEntity
  8
M0
 62
     7
100
AcDbLine
 10
317.08852
 20
425.308104
 11
317.08852
 21
424.308104
  0
LINE
  5
1D1
100
AcDbEntity
  8
M0
 62
     7
100
AcDbLine
 10
311.08852
 20
425.308104
 11
309.08852
 21
425.308104
  0
LINE
  5
1D2
100
AcDbEntity
  8
M0
 62
     7
100
AcDbLine
 10
315.08852
 20
425.308104
 11
317.08852
 21
425.308104
  0
LINE
  5
1D3
100
AcDbEntity
  8
M0
 62
     7
100
AcDbLine
 10
315.08852
 20
424.308104
 11
315.08852
 21
425.308104
  0
LINE
  5
1D4
100
AcDbEntity
  8
M0
 62
     7
100
AcDbLine
 10
297.08852
 20
425.308104
 11
297.08852
 21
424.308104
  0
LINE
  5
1D5
100
AcDbEntity
  8
M0
 62
     7
100
AcDbLine
 10
338.38852
 20
360.558104
 11
338.68852
 21
360.558104
  0
LINE
  5
1D6
100
AcDbEntity
  8
M0
 62
     7
100
AcDbLine
 10
311.08852
 20
425.308104
 11
313.08852
 21
425.308104
  0
LINE
  5
1D7
100
AcDbEntity
  8
M0
 62
     7
100
AcDbLine
 10
319.08852
 20
418.308104
 11
319.08852
 21
424.308104
  0
LINE
  5
1D8
100
AcDbEntity
  8
M0
 62
     7
100
AcDbLine
 10
307.08852
 20
425.308104
 11
309.08852
 21
425.308104
  0
LINE
  5
1D9
100
AcDbEntity
  8
M0
 62
     7
100
AcDbLine
 10
301.08852
 20
425.308104
 11
301.08852
 21
424.308104
  0
LINE
  5
1DA
100
AcDbEntity
  8
M0
 62
     7
100
AcDbLine
 10
309.08852
 20
425.308104
 11
309.08852
 21
424.308104
  0
LINE
  5
1DB
100
AcDbEntity
  8
M0
 62
     7
100
AcDbLine
 10
289.08852
 20
418.308104
 11
289.08852
 21
424.308104
  0
LINE
  5
1DC
100
AcDbEntity
  8
M0
 62
     7
100
AcDbLine
 10
317.08852
 20
418.308104
 11
319.08852
 21
418.308104
  0
LINE
  5
1DD
100
AcDbEntity
  8
M0
 62
     7
100
AcDbLine
 10
299.08852
 20
425.308104
 11
301.08852
 21
425.308104
  0
LINE
  5
1DE
100
AcDbEntity
  8
M0
 62
     7
100
AcDbLine
 10
319.08852
 20
425.308104
 11
327.68852
 21
425.308104
  0
LINE
  5
1DF
100
AcDbEntity
  8
M0
 62
     7
100
AcDbLine
 10
291.08852
 20
425.308104
 11
289.08852
 21
425.308104
  0
LINE
  5
1E0
100
AcDbEntity
  8
M0
 62
     7
100
AcDbLine
 10
299.08852
 20
424.308104
 11
299.08852
 21
425.308104
  0
LINE
  5
1E1
100
AcDbEntity
  8
M0
 62
     7
100
AcDbLine
 10
307.08852
 20
424.308104
 11
307.08852
 21
425.308104
  0
LINE
  5
1E2
100
AcDbEntity
  8
M0
 62
     7
100
AcDbLine
 10
319.08852
 20
425.308104
 11
317.08852
 21
425.308104
  0
LINE
  5
1E3
100
AcDbEntity
  8
M0
 62
     7
100
AcDbLine
 10
338.38852
 20
428.808104
 11
338.38852
 21
428.058104
  0
LINE
  5
1E4
100
AcDbEntity
  8
M0
 62
     7
100
AcDbLine
 10
317.08852
 20
423.808104
 11
319.08852
 21
423.808104
  0
LINE
  5
1E5
100
AcDbEntity
  8
M0
 62
     7
100
AcDbLine
 10
305.08852
 20
425.308104
 11
305.08852
 21
424.308104
  0
LINE
  5
1E6
100
AcDbEntity
  8
M0
 62
     7
100
AcDbLine
 10
303.08852
 20
425.308104
 11
305.08852
 21
425.308104
  0
LINE
  5
1E7
100
AcDbEntity
  8
M0
 62
     7
100
AcDbLine
 10
295.08852
 20
424.308104
 11
295.08852
 21
425.308104
  0
LINE
  5
1E8
100
AcDbEntity
  8
M0
 62
     7
100
AcDbLine
 10
305.08852
 20
423.808104
 11
307.08852
 21
423.808104
  0
LINE
  5
1E9
100
AcDbEntity
  8
M0
 62
     7
100
AcDbLine
 10
303.08852
 20
424.308104
 11
303.08852
 21
425.308104
  0
LINE
  5
1EA
100
AcDbEntity
  8
M0
 62
     7
100
AcDbLine
 10
309.08852
 20
423.808104
 11
311.08852
 21
423.808104
  0
LINE
  5
1EB
100
AcDbEntity
  8
M0
 62
     7
100
AcDbLine
 10
317.08852
 20
418.308104
 11
317.08852
 21
424.308104
  0
LINE
  5
1EC
100
AcDbEntity
  8
M0
 62
     7
100
AcDbLine
 10
315.08852
 20
425.308104
 11
313.08852
 21
425.308104
  0
LINE
  5
1ED
100
AcDbEntity
  8
M0
 62
     7
100
AcDbLine
 10
299.08852
 20
425.308104
 11
297.08852
 21
425.308104
  0
LINE
  5
1EE
100
AcDbEntity
  8
M0
 62
     7
100
AcDbLine
 10
291.08852
 20
425.308104
 11
293.08852
 21
425.308104
  0
LINE
  5
1EF
100
AcDbEntity
  8
M0
 62
     7
100
AcDbLine
 10
289.08852
 20
425.308104
 11
289.08852
 21
424.308104
  0
LINE
  5
1F0
100
AcDbEntity
  8
M0
 62
     7
100
AcDbLine
 10
334.88852
 20
377.308104
 11
336.38852
 21
377.308104
  0
LINE
  5
1F1
100
AcDbEntity
  8
M0
 62
     7
100
AcDbLine
 10
337.914398
 20
376.50597
 11
336.32852
 21
378.308104
  0
LINE
  5
1F2
100
AcDbEntity
  8
M0
 62
     7
100
AcDbLine
 10
338.38852
 20
420.558104
 11
338.68852
 21
420.558104
  0
LINE
  5
1F3
100
AcDbEntity
  8
M0
 62
     7
100
AcDbLine
 10
283.08852
 20
379.768659
 11
298.58852
 21
379.768659
  0
LINE
  5
1F4
100
AcDbEntity
  8
M0
 62
     7
100
AcDbLine
 10
336.38852
 20
377.308104
 11
336.38852
 21
376.808104
  0
LINE
  5
1F5
100
AcDbEntity
  8
M0
 62
     7
100
AcDbLine
 10
336.38852
 20
376.808104
 11
336.38852
 21
376.508104
  0
LINE
  5
1F6
100
AcDbEntity
  8
M0
 62
     7
100
AcDbLine
 10
283.08852
 20
411.724332
 11
298.58852
 21
411.724332
  0
LINE
  5
1F7
100
AcDbEntity
  8
M0
 62
     7
100
AcDbLine
 10
335.88852
 20
378.808104
 11
336.32852
 21
378.308104
  0
LINE
  5
1F8
100
AcDbEntity
  8
M0
 62
     7
100
AcDbLine
 10
338.38852
 20
415.608104
 11
338.38852
 21
420.558104
  0
LINE
  5
1F9
100
AcDbEntity
  8
M0
 62
     7
100
AcDbLine
 10
283.08852
 20
379.768659
 11
283.08852
 21
376.891876
  0
LINE
  5
1FA
100
AcDbEntity
  8
M0
 62
     7
100
AcDbLine
 10
335.18852
 20
378.308104
 11
335.18852
 21
378.808104
  0
LINE
  5
1FB
100
AcDbEntity
  8
M0
 62
     7
100
AcDbLine
 10
338.68852
 20
428.058104
 11
338.38852
 21
428.058104
  0
LINE
  5
1FC
100
AcDbEntity
  8
M0
 62
     7
100
AcDbLine
 10
298.58852
 20
408.847549
 11
283.08852
 21
408.847549
  0
LINE
  5
1FD
100
AcDbEntity
  8
M0
 62
     7
100
AcDbLine
 10
283.18852
 20
413.608104
 11
327.68852
 21
413.608104
  0
LINE
  5
1FE
100
AcDbEntity
  8
M0
 62
     7
100
AcDbLine
 10
329.18852
 20
407.908104
 11
329.18852
 21
406.908104
  0
LINE
  5
1FF
100
AcDbEntity
  8
M0
 62
     7
100
AcDbLine
 10
337.88852
 20
412.308104
 11
298.88852
 21
412.308104
  0
LINE
  5
200
100
AcDbEntity
  8
M0
 62
     7
100
AcDbLine
 10
298.88852
 20
408.547549
 11
298.88852
 21
407.908104
  0
LINE
  5
201
100
AcDbEntity
  8
M0
 62
     7
100
AcDbLine
 10
297.08852
 20
418.308104
 11
299.08852
 21
418.308104
  0
LINE
  5
202
100
AcDbEntity
  8
M0
 62
     7
100
AcDbLine
 10
278.58852
 20
409.408104
 11
278.58852
 21
414.408104
  0
LINE
  5
203
100
AcDbEntity
  8
M0
 62
     7
100
AcDbLine
 10
297.08852
 20
418.308104
 11
297.08852
 21
424.308104
  0
LINE
  5
204
100
AcDbEntity
  8
M0
 62
     7
100
AcDbLine
 10
298.88852
 20
407.908104
 11
329.18852
 21
407.908104
  0
LINE
  5
205
100
AcDbEntity
  8
M0
 62
     7
100
AcDbLine
 10
298.88852
 20
412.308104
 11
298.88852
 21
412.024332
  0
ARC
  5
206
100
AcDbEntity
  8
M0
 62
     7
100
AcDbCircle
 10
298.58852
 20
412.024332
 40
0.3
100
AcDbArc
 50
270.0
 51
360.0
  0
ARC
  5
207
100
AcDbEntity
  8
M0
 62
     7
100
AcDbCircle
 10
298.58852
 20
380.068659
 40
0.3
100
AcDbArc
 50
270.0
 51
360.0
  0
ARC
  5
208
100
AcDbEntity
  8
M0
 62
     7
100
AcDbCircle
 10
298.58852
 20
376.591876
 40
0.3
100
AcDbArc
 50
0.0
 51
90.0
  0
ARC
  5
209
100
AcDbEntity
  8
M0
 62
     7
100
AcDbCircle
 10
334.88852
 20
376.808104
 40
0.5
100
AcDbArc
 50
90.0
 51
180.0
  0
ARC
  5
20A
100
AcDbEntity
  8
M0
 62
     7
100
AcDbCircle
 10
282.18852
 20
370.808104
 40
1.0
100
AcDbArc
 50
270.0
 51
360.0
  0
LINE
  5
20B
100
AcDbEntity
  8
M0
 62
     7
100
AcDbLine
 10
298.58852
 20
376.891876
 11
283.08852
 21
376.891876
  0
LINE
  5
20C
100
AcDbEntity
  8
M0
 62
     7
100
AcDbLine
 10
338.38852
 20
418.558104
 11
338.68852
 21
418.558104
  0
LINE
  5
20D
100
AcDbEntity
  8
M0
 62
     7
100
AcDbLine
 10
335.18852
 20
378.808104
 11
335.88852
 21
378.808104
  0
LINE
  5
20E
100
AcDbEntity
  8
M0
 62
     7
100
AcDbLine
 10
338.68852
 20
370.058104
 11
338.38852
 21
370.058104
  0
ARC
  5
20F
100
AcDbEntity
  8
M0
 62
     7
100
AcDbCircle
 10
298.58852
 20
408.547549
 40
0.3
100
AcDbArc
 50
0.0
 51
90.0
  0
LINE
  5
210
100
AcDbEntity
  8
M0
 62
     7
100
AcDbLine
 10
338.08852
 20
358.808104
 11
337.88852
 21
358.808104
  0
LINE
  5
211
100
AcDbEntity
  8
M0
 62
     7
100
AcDbLine
 10
338.08852
 20
358.849846
 11
338.08852
 21
358.808104
  0
LINE
  5
212
100
AcDbEntity
  8
M0
 62
     7
100
AcDbLine
 10
313.08852
 20
423.808104
 11
315.08852
 21
423.808104
  0
LINE
  5
213
100
AcDbEntity
  8
M0
 62
     7
100
AcDbLine
 10
293.08852
 20
425.308104
 11
293.08852
 21
424.308104
  0
LINE
  5
214
100
AcDbEntity
  8
M0
 62
     7
100
AcDbLine
 10
272.48852
 20
438.808104
 11
272.48852
 21
438.708104
  0
LINE
  5
215
100
AcDbEntity
  8
M0
 62
     7
100
AcDbLine
 10
297.08852
 20
423.808104
 11
299.08852
 21
423.808104
  0
LINE
  5
216
100
AcDbEntity
  8
M0
 62
     7
100
AcDbLine
 10
295.08852
 20
418.308104
 11
295.08852
 21
424.308104
  0
LINE
  5
217
100
AcDbEntity
  8
M0
 62
     7
100
AcDbLine
 10
335.18852
 20
378.308104
 11
335.18852
 21
377.308104
  0
LINE
  5
218
100
AcDbEntity
  8
M0
 62
     7
100
AcDbLine
 10
329.18852
 20
406.908104
 11
329.18852
 21
381.708104
  0
ARC
  5
219
100
AcDbEntity
  8
M0
 62
     7
100
AcDbCircle
 10
328.68852
 20
359.808104
 40
1.0
100
AcDbArc
 50
180.0
 51
270.0
  0
LINE
  5
21A
100
AcDbEntity
  8
M0
 62
     7
100
AcDbLine
 10
283.18852
 20
375.008104
 11
283.18852
 21
370.808104
  0
LINE
  5
21B
100
AcDbEntity
  8
M0
 62
     7
100
AcDbLine
 10
295.08852
 20
425.308104
 11
297.08852
 21
425.308104
  0
LINE
  5
21C
100
AcDbEntity
  8
M0
 62
     7
100
AcDbLine
 10
291.08852
 20
424.308104
 11
291.08852
 21
425.308104
  0
LINE
  5
21D
100
AcDbEntity
  8
M0
 62
     7
100
AcDbLine
 10
328.68852
 20
358.808104
 11
337.88852
 21
358.808104
  0
LINE
  5
21E
100
AcDbEntity
  8
M0
 62
     7
100
AcDbLine
 10
220.28852
 20
424.528226
 11
220.28852
 21
442.728226
  0
LINE
  5
21F
100
AcDbEntity
  8
M0
  6
DASHED
 62
     7
100
AcDbLine
 10
241.869105
 20
414.606041
 11
242.988521
 21
414.508105
  0
LINE
  5
220
100
AcDbEntity
  8
M0
 62
     7
100
AcDbLine
 10
230.588521
 20
391.808104
 11
230.588521
 21
390.808104
  0
LINE
  5
221
100
AcDbEntity
  8
M0
 62
     7
100
AcDbLine
 10
230.588521
 20
396.808104
 11
230.588521
 21
397.808104
  0
LINE
  5
222
100
AcDbEntity
  8
M0
 62
     7
100
AcDbLine
 10
230.588521
 20
390.808104
 11
229.588522
 21
390.808104
  0
LINE
  5
223
100
AcDbEntity
  8
M0
 62
     7
100
AcDbLine
 10
229.588522
 20
396.808104
 11
230.588521
 21
396.808104
  0
LINE
  5
224
100
AcDbEntity
  8
M0
 62
     7
100
AcDbLine
 10
230.588521
 20
390.808104
 11
231.088522
 21
390.808104
  0
LINE
  5
225
100
AcDbEntity
  8
M0
 62
     7
100
AcDbLine
 10
229.588522
 20
391.808104
 11
230.588521
 21
391.808104
  0
LINE
  5
226
100
AcDbEntity
  8
M0
 62
     7
100
AcDbLine
 10
230.588521
 20
397.808104
 11
229.588522
 21
397.808104
  0
LINE
  5
227
100
AcDbEntity
  8
M0
 62
     7
100
AcDbLine
 10
230.588521
 20
397.808104
 11
231.088522
 21
397.808104
  0
LINE
  5
228
100
AcDbEntity
  8
M0
 62
     7
100
AcDbLine
 10
231.088522
 20
391.808104
 11
230.588521
 21
391.808104
  0
LINE
  5
229
100
AcDbEntity
  8
M0
 62
     7
100
AcDbLine
 10
227.288521
 20
405.308104
 11
229.588522
 21
405.308104
  0
ARC
  5
22A
100
AcDbEntity
  8
M0
 62
     7
100
AcDbCircle
 10
225.788521
 20
405.808104
 40
0.5
100
AcDbArc
 50
90.0
 51
180.0
  0
ARC
  5
22B
100
AcDbEntity
  8
M0
 62
     7
100
AcDbCircle
 10
225.788521
 20
387.308104
 40
0.5
100
AcDbArc
 50
90.0
 51
180.0
  0
LINE
  5
22C
100
AcDbEntity
  8
M0
 62
     7
100
AcDbLine
 10
226.78852
 20
382.308104
 11
225.788521
 21
382.308104
  0
ARC
  5
22D
100
AcDbEntity
  8
M0
 62
     7
100
AcDbCircle
 10
260.188521
 20
359.808104
 40
1.0
100
AcDbArc
 50
180.0
 51
270.0
  0
LINE
  5
22E
100
AcDbEntity
  8
M0
 62
     7
100
AcDbLine
 10
254.288521
 20
361.808105
 11
259.188521
 21
361.808105
  0
LINE
  5
22F
100
AcDbEntity
  8
M0
 62
     7
100
AcDbLine
 10
225.788521
 20
382.308104
 11
229.588522
 21
382.308104
  0
LINE
  5
230
100
AcDbEntity
  8
M0
 62
     7
100
AcDbLine
 10
225.28852
 20
405.808104
 11
225.28852
 21
382.808104
  0
LINE
  5
231
100
AcDbEntity
  8
M0
 62
     7
100
AcDbLine
 10
227.288521
 20
382.308104
 11
227.288521
 21
387.808104
  0
LINE
  5
232
100
AcDbEntity
  8
M0
 62
     7
100
AcDbLine
 10
231.088522
 20
395.808104
 11
230.588521
 21
395.808104
  0
LINE
  5
233
100
AcDbEntity
  8
M0
 62
     7
100
AcDbLine
 10
231.088522
 20
396.808104
 11
230.588521
 21
396.808104
  0
LINE
  5
234
100
AcDbEntity
  8
M0
 62
     7
100
AcDbLine
 10
230.588521
 20
392.808104
 11
230.588521
 21
395.808104
  0
LINE
  5
235
100
AcDbEntity
  8
M0
 62
     7
100
AcDbLine
 10
230.588521
 20
392.808104
 11
231.088522
 21
392.808104
  0
ELLIPSE
  5
236
100
AcDbEntity
  8
M0
 62
     7
100
AcDbEllipse
 10
225.788521
 20
400.615211
 11
0.5
 21
0.0
210
0.0
220
0.0
230
1.0
 40
0.414214
 41
3.141592653589793
 42
4.71238898038469
  0
ARC
  5
237
100
AcDbEntity
  8
M0
 62
     7
100
AcDbCircle
 10
254.288521
 20
362.808104
 40
1.0
100
AcDbArc
 50
237.247324
 51
270.0
  0
ELLIPSE
  5
238
100
AcDbEntity
  8
M0
 62
     7
100
AcDbEllipse
 10
225.788521
 20
399.115211
 11
0.5
 21
0.0
210
0.0
220
0.0
230
1.0
 40
0.414214
 41
3.141592653589793
 42
4.71238898038469
  0
LINE
  5
239
100
AcDbEntity
  8
M0
 62
     7
100
AcDbLine
 10
255.388521
 20
427.308104
 11
255.388521
 21
425.308103
  0
LINE
  5
23A
100
AcDbEntity
  8
M0
 62
     7
100
AcDbLine
 10
258.988521
 20
428.808105
 11
255.388521
 21
427.308104
  0
LINE
  5
23B
100
AcDbEntity
  8
M0
 62
     7
100
AcDbLine
 10
259.188521
 20
427.808105
 11
256.38852
 21
426.641437
  0
LINE
  5
23C
100
AcDbEntity
  8
M0
 62
     7
100
AcDbLine
 10
264.688521
 20
425.308103
 11
264.688521
 21
428.808105
  0
LINE
  5
23D
100
AcDbEntity
  8
M0
 62
     7
100
AcDbLine
 10
269.68852
 20
398.408104
 11
269.788521
 21
398.408104
  0
LINE
  5
23E
100
AcDbEntity
  8
M0
 62
     7
100
AcDbLine
 10
264.688521
 20
428.808105
 11
258.988521
 21
428.808105
  0
LINE
  5
23F
100
AcDbEntity
  8
M0
 62
     7
100
AcDbLine
 10
263.68852
 20
427.808105
 11
259.188521
 21
427.808105
  0
LINE
  5
240
100
AcDbEntity
  8
M0
 62
     7
100
AcDbLine
 10
256.38852
 20
426.308103
 11
263.68852
 21
426.308103
  0
LINE
  5
241
100
AcDbEntity
  8
M0
 62
     7
100
AcDbLine
 10
263.68852
 20
426.308103
 11
263.68852
 21
427.808105
  0
LINE
  5
242
100
AcDbEntity
  8
M0
 62
     7
100
AcDbLine
 10
256.38852
 20
426.641437
 11
256.38852
 21
426.308103
  0
ARC
  5
243
100
AcDbEntity
  8
M0
 62
     7
100
AcDbCircle
 10
231.888521
 20
397.608104
 40
1.0
100
AcDbArc
 50
168.463041
 51
180.0
  0
LINE
  5
244
100
AcDbEntity
  8
M0
 62
     7
100
AcDbLine
 10
230.888522
 20
397.608104
 11
230.888522
 21
396.808104
  0
LINE
  5
245
100
AcDbEntity
  8
M0
 62
     7
100
AcDbLine
 10
230.888522
 20
391.808104
 11
230.888522
 21
390.808104
  0
LINE
  5
246
100
AcDbEntity
  8
M0
 62
     7
100
AcDbLine
 10
261.288521
 20
391.608104
 11
261.288521
 21
397.008104
  0
LINE
  5
247
100
AcDbEntity
  8
M0
 62
     7
100
AcDbLine
 10
257.788521
 20
397.008104
 11
257.788521
 21
391.608104
  0
LINE
  5
248
100
AcDbEntity
  8
M0
 62
     7
100
AcDbLine
 10
271.188521
 20
359.808105
 11
271.188521
 21
358.808103
  0
LINE
  5
249
100
AcDbEntity
  8
M0
 62
     7
100
AcDbLine
 10
264.78852
 20
428.808105
 11
260.088521
 21
428.808105
  0
LINE
  5
24A
100
AcDbEntity
  8
M0
 62
     7
100
AcDbLine
 10
264.78852
 20
428.808105
 11
264.78852
 21
425.308103
  0
LINE
  5
24B
100
AcDbEntity
  8
M0
 62
     7
100
AcDbLine
 10
271.188521
 20
404.408104
 11
271.188521
 21
425.308103
  0
ARC
  5
24C
100
AcDbEntity
  8
M0
 62
     7
100
AcDbCircle
 10
225.788521
 20
382.808104
 40
0.5
100
AcDbArc
 50
180.0
 51
270.0
  0
ARC
  5
24D
100
AcDbEntity
  8
M0
 62
     7
100
AcDbCircle
 10
251.488521
 20
419.008104
 40
3.0
100
AcDbArc
 50
90.0
 51
180.0
  0
ARC
  5
24E
100
AcDbEntity
  8
M0
 62
     7
100
AcDbCircle
 10
251.488521
 20
369.608104
 40
3.0
100
AcDbArc
 50
180.0
 51
270.0
  0
ARC
  5
24F
100
AcDbEntity
  8
M0
 62
     7
100
AcDbCircle
 10
262.44588
 20
419.008104
 40
3.0
100
AcDbArc
 50
45.0
 51
90.0
  0
ARC
  5
250
100
AcDbEntity
  8
M0
 62
     7
100
AcDbCircle
 10
262.44588
 20
369.608104
 40
3.0
100
AcDbArc
 50
270.0
 51
315.0
  0
ARC
  5
251
100
AcDbEntity
  8
M0
 62
     7
100
AcDbCircle
 10
232.588521
 20
411.408104
 40
3.0
100
AcDbArc
 50
90.0
 51
180.0
  0
ARC
  5
252
100
AcDbEntity
  8
M0
 62
     7
100
AcDbCircle
 10
231.088521
 20
389.608104
 40
1.0
100
AcDbArc
 50
0.0
 51
90.0
  0
ARC
  5
253
100
AcDbEntity
  8
M0
 62
     7
100
AcDbCircle
 10
245.488521
 20
417.408104
 40
3.0
100
AcDbArc
 50
270.0
 51
360.0
  0
ARC
  5
254
100
AcDbEntity
  8
M0
 62
     7
100
AcDbCircle
 10
245.488521
 20
371.208104
 40
3.0
100
AcDbArc
 50
0.0
 51
90.0
  0
ARC
  5
255
100
AcDbEntity
  8
M0
 62
     7
100
AcDbCircle
 10
257.588521
 20
396.508104
 40
0.5
100
AcDbArc
 50
90.0
 51
180.0
  0
LINE
  5
256
100
AcDbEntity
  8
M0
 62
     7
100
AcDbLine
 10
231.588519
 20
374.379676
 11
231.588519
 21
361.808105
  0
ARC
  5
257
100
AcDbEntity
  8
M0
 62
     7
100
AcDbCircle
 10
257.588521
 20
392.108104
 40
0.5
100
AcDbArc
 50
180.0
 51
270.0
  0
LINE
  5
258
100
AcDbEntity
  8
M0
 62
     7
100
AcDbLine
 10
231.588519
 20
426.808104
 11
231.588519
 21
414.236531
  0
LINE
  5
259
100
AcDbEntity
  8
M0
 62
     7
100
AcDbLine
 10
271.188521
 20
409.408104
 11
278.588521
 21
409.408104
  0
LINE
  5
25A
100
AcDbEntity
  8
M0
 62
     7
100
AcDbLine
 10
278.588521
 20
414.408103
 11
271.188521
 21
414.408103
  0
LINE
  5
25B
100
AcDbEntity
  8
M0
 62
     7
100
AcDbLine
 10
271.188521
 20
404.408104
 11
270.288521
 21
404.408104
  0
ARC
  5
25C
100
AcDbEntity
  8
M0
 62
     7
100
AcDbCircle
 10
230.588521
 20
399.008104
 40
1.0
100
AcDbArc
 50
180.0
 51
270.0
  0
ARC
  5
25D
100
AcDbEntity
  8
M0
 62
     7
100
AcDbCircle
 10
249.34588
 20
361.808104
 40
3.0
100
AcDbArc
 50
270.0
 51
315.0
  0
ARC
  5
25E
100
AcDbEntity
  8
M0
 62
     7
100
AcDbCircle
 10
232.588521
 20
377.208104
 40
3.0
100
AcDbArc
 50
180.0
 51
270.0
  0
ARC
  5
25F
100
AcDbEntity
  8
M0
 62
     7
100
AcDbCircle
 10
230.588521
 20
389.608104
 40
1.0
100
AcDbArc
 50
90.0
 51
180.0
  0
ARC
  5
260
100
AcDbEntity
  8
M0
 62
     7
100
AcDbCircle
 10
234.588521
 20
361.808104
 40
3.0
100
AcDbArc
 50
180.0
 51
270.0
  0
ARC
  5
261
100
AcDbEntity
  8
M0
 62
     7
100
AcDbCircle
 10
249.34588
 20
426.808104
 40
3.0
100
AcDbArc
 50
45.0
 51
90.0
  0
ARC
  5
262
100
AcDbEntity
  8
M0
 62
     7
100
AcDbCircle
 10
234.588521
 20
426.808104
 40
3.0
100
AcDbArc
 50
90.0
 51
180.0
  0
ARC
  5
263
100
AcDbEntity
  8
M0
 62
     7
100
AcDbCircle
 10
231.088521
 20
399.008104
 40
1.0
100
AcDbArc
 50
270.0
 51
360.0
  0
LINE
  5
264
100
AcDbEntity
  8
M0
 62
     7
100
AcDbLine
 10
266.688521
 20
369.608105
 11
264.5672
 21
367.486783
  0
LINE
  5
265
100
AcDbEntity
  8
M0
 62
     7
100
AcDbLine
 10
232.08852
 20
389.608104
 11
232.08852
 21
399.008104
  0
LINE
  5
266
100
AcDbEntity
  8
M0
 62
     7
100
AcDbLine
 10
262.44588
 20
366.608104
 11
251.488521
 21
366.608104
  0
LINE
  5
267
100
AcDbEntity
  8
M0
 62
     7
100
AcDbLine
 10
248.48852
 20
417.408104
 11
248.48852
 21
419.008105
  0
LINE
  5
268
100
AcDbEntity
  8
M0
 62
     7
100
AcDbLine
 10
264.5672
 20
421.129425
 11
266.688521
 21
419.008105
  0
LINE
  5
269
100
AcDbEntity
  8
M0
 62
     7
100
AcDbLine
 10
251.488521
 20
422.008103
 11
262.44588
 21
422.008103
  0
LINE
  5
26A
100
AcDbEntity
  8
M0
 62
     7
100
AcDbLine
 10
266.688521
 20
419.008105
 11
271.188521
 21
419.008105
  0
LINE
  5
26B
100
AcDbEntity
  8
M0
 62
     7
100
AcDbLine
 10
257.08852
 20
396.508104
 11
257.08852
 21
392.108104
  0
LINE
  5
26C
100
AcDbEntity
  8
M0
 62
     7
100
AcDbLine
 10
257.588521
 20
391.608104
 11
269.788521
 21
391.608104
  0
LINE
  5
26D
100
AcDbEntity
  8
M0
 62
     7
100
AcDbLine
 10
269.788521
 20
397.008104
 11
257.588521
 21
397.008104
  0
LINE
  5
26E
100
AcDbEntity
  8
M0
 62
     7
100
AcDbLine
 10
271.188521
 20
369.808104
 11
266.688521
 21
369.608105
  0
LINE
  5
26F
100
AcDbEntity
  8
M0
 62
     7
100
AcDbLine
 10
271.188521
 20
425.308103
 11
255.08852
 21
425.308103
  0
LINE
  5
270
100
AcDbEntity
  8
M0
 62
     7
100
AcDbLine
 10
234.588521
 20
358.808103
 11
249.345881
 21
358.808103
  0
LINE
  5
271
100
AcDbEntity
  8
M0
 62
     7
100
AcDbLine
 10
249.345881
 20
429.808105
 11
234.588521
 21
429.808105
  0
LINE
  5
272
100
AcDbEntity
  8
M0
 62
     7
100
AcDbLine
 10
255.08852
 20
425.308103
 11
251.467201
 21
428.929424
  0
LINE
  5
273
100
AcDbEntity
  8
M0
 62
     7
100
AcDbLine
 10
251.467201
 20
359.686783
 11
255.08852
 21
363.308104
  0
LINE
  5
274
100
AcDbEntity
  8
M0
 62
     7
100
AcDbLine
 10
231.088522
 20
398.008104
 11
231.088522
 21
390.608104
  0
LINE
  5
275
100
AcDbEntity
  8
M0
 62
     7
100
AcDbLine
 10
230.588521
 20
398.008104
 11
231.088522
 21
398.008104
  0
LINE
  5
276
100
AcDbEntity
  8
M0
 62
     7
100
AcDbLine
 10
245.488522
 20
374.208104
 11
232.588521
 21
374.208104
  0
LINE
  5
277
100
AcDbEntity
  8
M0
 62
     7
100
AcDbLine
 10
232.588521
 20
414.408103
 11
245.488522
 21
414.408103
  0
LINE
  5
278
100
AcDbEntity
  8
M0
 62
     7
100
AcDbLine
 10
231.088522
 20
390.608104
 11
230.588521
 21
390.608104
  0
LINE
  5
279
100
AcDbEntity
  8
M0
 62
     7
100
AcDbLine
 10
229.588522
 20
377.208103
 11
229.588522
 21
411.408104
  0
ARC
  5
27A
100
AcDbEntity
  8
M0
 62
     7
100
AcDbCircle
 10
270.288521
 20
403.908104
 40
0.5
100
AcDbArc
 50
90.0
 51
180.0
  0
ARC
  5
27B
100
AcDbEntity
  8
M0
 62
     7
100
AcDbCircle
 10
270.288521
 20
384.708104
 40
0.5
100
AcDbArc
 50
180.0
 51
270.0
  0
LINE
  5
27C
100
AcDbEntity
  8
M0
 62
     7
100
AcDbLine
 10
271.188521
 20
363.308104
 11
255.08852
 21
363.308104
  0
LINE
  5
27D
100
AcDbEntity
  8
M0
 62
     7
100
AcDbLine
 10
229.588522
 20
406.308104
 11
225.788521
 21
406.308104
  0
LINE
  5
27E
100
AcDbEntity
  8
M0
 62
     7
100
AcDbLine
 10
225.788521
 20
398.908104
 11
229.588522
 21
398.908104
  0
LINE
  5
27F
100
AcDbEntity
  8
M0
 62
     7
100
AcDbLine
 10
227.288521
 20
405.308104
 11
227.288521
 21
398.908104
  0
LINE
  5
280
100
AcDbEntity
  8
M0
 62
     7
100
AcDbLine
 10
227.288521
 20
400.408104
 11
225.788521
 21
400.408104
  0
LINE
  5
281
100
AcDbEntity
  8
M0
 62
     7
100
AcDbLine
 10
227.288521
 20
387.808104
 11
225.788521
 21
387.808104
  0
LINE
  5
282
100
AcDbEntity
  8
M0
 62
     7
100
AcDbLine
 10
260.188521
 20
358.808103
 11
263.18852
 21
358.808103
  0
LINE
  5
283
100
AcDbEntity
  8
M0
 62
     7
100
AcDbLine
 10
271.188521
 20
358.808103
 11
271.188521
 21
384.208104
  0
LINE
  5
284
100
AcDbEntity
  8
M0
 62
     7
100
AcDbLine
 10
259.188521
 20
363.308104
 11
259.188521
 21
359.808105
  0
LINE
  5
285
100
AcDbEntity
  8
M0
 62
     7
100
AcDbLine
 10
260.188521
 20
358.808103
 11
271.188521
 21
358.808103
  0
LINE
  5
286
100
AcDbEntity
  8
M0
 62
     7
100
AcDbLine
 10
271.188521
 20
384.208104
 11
270.288521
 21
384.208104
  0
LINE
  5
287
100
AcDbEntity
  8
M0
 62
     7
100
AcDbLine
 10
271.188521
 20
374.208104
 11
278.588521
 21
374.208104
  0
LINE
  5
288
100
AcDbEntity
  8
M0
 62
     7
100
AcDbLine
 10
278.588521
 20
379.208103
 11
271.188521
 21
379.208103
  0
LINE
  5
289
100
AcDbEntity
  8
M0
 62
     7
100
AcDbLine
 10
269.788521
 20
403.908104
 11
269.788521
 21
384.708104
  0
LINE
  5
28A
100
AcDbEntity
  8
M0
 62
     7
100
AcDbLine
 10
248.48852
 20
369.608105
 11
248.48852
 21
371.208104
  0
LINE
  5
28B
100
AcDbEntity
  8
M0
 62
     7
100
AcDbLine
 10
227.288521
 20
405.308104
 11
227.114874
 21
405.481752
  0
LINE
  5
28C
100
AcDbEntity
  8
M0
 62
     7
100
AcDbLine
 10
227.114874
 20
405.481752
 11
226.946502
 21
405.650124
  0
LINE
  5
28D
100
AcDbEntity
  8
M0
 62
     7
100
AcDbLine
 10
226.946502
 20
405.650124
 11
226.78852
 21
405.808104
  0
LINE
  5
28E
100
AcDbEntity
  8
M0
 62
     7
100
AcDbLine
 10
226.78852
 20
405.808104
 11
226.645733
 21
405.950891
  0
LINE
  5
28F
100
AcDbEntity
  8
M0
 62
     7
100
AcDbLine
 10
226.645733
 20
405.950891
 11
226.522474
 21
406.074148
  0
LINE
  5
290
100
AcDbEntity
  8
M0
 62
     7
100
AcDbLine
 10
226.522474
 20
406.074148
 11
226.422495
 21
406.174129
  0
LINE
  5
291
100
AcDbEntity
  8
M0
 62
     7
100
AcDbLine
 10
226.422495
 20
406.174129
 11
226.348827
 21
406.247796
  0
LINE
  5
292
100
AcDbEntity
  8
M0
 62
     7
100
AcDbLine
 10
226.348827
 20
406.247796
 11
226.303714
 21
406.292911
  0
LINE
  5
293
100
AcDbEntity
  8
M0
 62
     7
100
AcDbLine
 10
226.303714
 20
406.292911
 11
226.288522
 21
406.308104
  0
LINE
  5
294
100
AcDbEntity
  8
M0
  6
DASHED
 62
     7
100
AcDbLine
 10
193.988522
 20
396.608097
 11
193.988522
 21
393.808098
  0
LINE
  5
295
100
AcDbEntity
  8
M0
  6
DASHED
 62
     7
100
AcDbLine
 10
193.988522
 20
396.608097
 11
195.588521
 21
396.608097
  0
LINE
  5
296
100
AcDbEntity
  8
M0
  6
DASHED
 62
     7
100
AcDbLine
 10
195.588521
 20
393.808098
 11
193.988522
 21
393.808098
  0
LINE
  5
297
100
AcDbEntity
  8
M0
  6
DASHED
 62
     7
100
AcDbLine
 10
229.088521
 20
413.008091
 11
219.688521
 21
413.008091
  0
LINE
  5
298
100
AcDbEntity
  8
M0
  6
DASHED
 62
     7
100
AcDbLine
 10
229.088522
 20
377.608104
 11
224.28852
 21
377.608104
  0
LINE
  5
299
100
AcDbEntity
  8
M0
  6
DASHED
 62
     7
100
AcDbLine
 10
195.588521
 20
375.908098
 11
195.588521
 21
414.708097
  0
ARC
  5
29A
100
AcDbEntity
  8
M0
  6
DASHED
 62
     7
100
AcDbCircle
 10
199.588521
 20
375.908098
 40
4.0
100
AcDbArc
 50
180.0
 51
270.0
  0
ARC
  5
29B
100
AcDbEntity
  8
M0
  6
DASHED
 62
     7
100
AcDbCircle
 10
214.688521
 20
376.908098
 40
5.0
100
AcDbArc
 50
270.0
 51
360.0
  0
ARC
  5
29C
100
AcDbEntity
  8
M0
  6
DASHED
 62
     7
100
AcDbCircle
 10
229.088521
 20
378.108104
 40
0.5
100
AcDbArc
 50
270.0
 51
360.0
  0
ARC
  5
29D
100
AcDbEntity
  8
M0
  6
DASHED
 62
     7
100
AcDbCircle
 10
199.588521
 20
414.708098
 40
4.0
100
AcDbArc
 50
90.0
 51
180.0
  0
ARC
  5
29E
100
AcDbEntity
  8
M0
  6
DASHED
 62
     7
100
AcDbCircle
 10
214.688521
 20
413.708098
 40
5.0
100
AcDbArc
 50
0.0
 51
90.0
  0
ARC
  5
29F
100
AcDbEntity
  8
M0
  6
DASHED
 62
     7
100
AcDbCircle
 10
229.088521
 20
412.508092
 40
0.5
100
AcDbArc
 50
0.0
 51
90.0
  0
LINE
  5
2A0
100
AcDbEntity
  8
M0
  6
DASHED
 62
     7
100
AcDbLine
 10
219.688521
 20
413.008091
 11
219.688521
 21
413.708097
  0
LINE
  5
2A1
100
AcDbEntity
  8
M0
  6
DASHED
 62
     7
100
AcDbLine
 10
214.688521
 20
418.708098
 11
199.588521
 21
418.708098
  0
LINE
  5
2A2
100
AcDbEntity
  8
M0
  6
DASHED
 62
     7
100
AcDbLine
 10
227.488521
 20
413.008091
 11
227.488521
 21
415.008097
  0
LINE
  5
2A3
100
AcDbEntity
  8
M0
  6
DASHED
 62
     7
100
AcDbLine
 10
227.888521
 20
415.008097
 11
228.488523
 21
413.008091
  0
LINE
  5
2A4
100
AcDbEntity
  8
M0
  6
DASHED
 62
     7
100
AcDbLine
 10
227.488521
 20
415.008097
 11
227.888521
 21
415.008097
  0
LINE
  5
2A5
100
AcDbEntity
  8
M0
  6
DASHED
 62
     7
100
AcDbLine
 10
229.088522
 20
377.608104
 11
219.688521
 21
377.608104
  0
LINE
  5
2A6
100
AcDbEntity
  8
M0
  6
DASHED
 62
     7
100
AcDbLine
 10
219.688521
 20
377.608104
 11
219.688521
 21
376.908097
  0
LINE
  5
2A7
100
AcDbEntity
  8
M0
  6
DASHED
 62
     7
100
AcDbLine
 10
214.688521
 20
371.908098
 11
199.588521
 21
371.908098
  0
LINE
  5
2A8
100
AcDbEntity
  8
M0
 62
     2
100
AcDbLine
 10
83.891744
 20
326.76895
 11
85.736593
 21
324.924117
  0
LINE
  5
2A9
100
AcDbEntity
  8
M0
 62
     2
100
AcDbLine
 10
85.86347
 20
327.52606
 11
83.288397
 21
324.950987
  0
LINE
  5
2AA
100
AcDbEntity
  8
M0
 62
     2
100
AcDbLine
 10
86.570577
 20
326.818953
 11
83.995504
 21
324.24388
  0
CIRCLE
  5
2AB
100
AcDbEntity
  8
M0
 62
     2
100
AcDbCircle
 10
84.852621
 20
325.808104
 40
3.499993
  0
LINE
  5
2AC
100
AcDbEntity
  8
M0
  6
DASHDOT
 62
     2
100
AcDbLine
 10
84.352621
 20
325.808104
 11
85.352621
 21
325.808104
  0
LINE
  5
2AD
100
AcDbEntity
  8
M0
  6
DASHDOT
 62
     2
100
AcDbLine
 10
84.852621
 20
325.308104
 11
84.852621
 21
326.308104
  0
LINE
  5
2AE
100
AcDbEntity
  8
M0
 62
   234
100
AcDbLine
 10
84.85264
 20
314.608261
 11
93.85264
 21
314.608255
  0
LINE
  5
2AF
100
AcDbEntity
  8
M0
 62
   234
100
AcDbLine
 10
101.752618
 20
313.308247
 11
100.852639
 21
313.308248
  0
LINE
  5
2B0
100
AcDbEntity
  8
M0
 62
   234
100
AcDbLine
 10
84.852637
 20
309.308258
 11
92.852622
 21
309.308253
  0
LINE
  5
2B1
100
AcDbEntity
  8
M0
 62
   234
100
AcDbLine
 10
92.102639
 20
312.308253
 11
93.852639
 21
312.308252
  0
LINE
  5
2B2
100
AcDbEntity
  8
M0
 62
   234
100
AcDbLine
 10
92.102636
 20
307.808253
 11
92.352636
 21
307.808253
  0
LINE
  5
2B3
100
AcDbEntity
  8
M0
 62
   234
100
AcDbLine
 10
101.752618
 20
313.308247
 11
101.752616
 21
309.408268
  0
LINE
  5
2B4
100
AcDbEntity
  8
M0
 62
   234
100
AcDbLine
 10
92.10264
 20
314.608256
 11
92.102639
 21
313.308253
  0
LINE
  5
2B5
100
AcDbEntity
  8
M0
 62
   234
100
AcDbLine
 10
92.102639
 20
312.308253
 11
92.102637
 21
309.308253
  0
LINE
  5
2B6
100
AcDbEntity
  8
M0
 62
   234
100
AcDbLine
 10
88.602639
 20
312.308255
 11
90.102639
 21
312.308254
  0
LINE
  5
2B7
100
AcDbEntity
  8
M0
 62
   234
100
AcDbLine
 10
90.102639
 20
312.308254
 11
90.102638
 21
310.308254
  0
LINE
  5
2B8
100
AcDbEntity
  8
M0
 62
   234
100
AcDbLine
 10
90.102638
 20
310.308254
 11
88.602638
 21
310.308255
  0
LINE
  5
2B9
100
AcDbEntity
  8
M0
 62
   234
100
AcDbLine
 10
88.60264
 20
314.608258
 11
88.602638
 21
310.308255
  0
LINE
  5
2BA
100
AcDbEntity
  8
M0
 62
   234
100
AcDbLine
 10
84.852639
 20
313.308258
 11
88.602639
 21
313.308255
  0
LINE
  5
2BB
100
AcDbEntity
  8
M0
 62
   234
100
AcDbLine
 10
84.852638
 20
311.808258
 11
88.602638
 21
311.808255
  0
LINE
  5
2BC
100
AcDbEntity
  8
M0
 62
   234
100
AcDbLine
 10
84.85264
 20
314.608261
 11
75.85264
 21
314.608266
  0
LINE
  5
2BD
100
AcDbEntity
  8
M0
 62
   234
100
AcDbLine
 10
67.952646
 20
313.308268
 11
68.852639
 21
313.308268
  0
LINE
  5
2BE
100
AcDbEntity
  8
M0
 62
   234
100
AcDbLine
 10
84.852637
 20
309.308258
 11
76.852622
 21
309.308263
  0
LINE
  5
2BF
100
AcDbEntity
  8
M0
 62
   234
100
AcDbLine
 10
77.602639
 20
312.308262
 11
75.852639
 21
312.308263
  0
LINE
  5
2C0
100
AcDbEntity
  8
M0
 62
   234
100
AcDbLine
 10
77.602636
 20
307.808262
 11
77.352636
 21
307.808262
  0
LINE
  5
2C1
100
AcDbEntity
  8
M0
 62
   234
100
AcDbLine
 10
67.952646
 20
313.308268
 11
67.952643
 21
309.408274
  0
LINE
  5
2C2
100
AcDbEntity
  8
M0
 62
   234
100
AcDbLine
 10
77.60264
 20
314.608265
 11
77.602639
 21
313.308262
  0
LINE
  5
2C3
100
AcDbEntity
  8
M0
 62
   234
100
AcDbLine
 10
77.602639
 20
312.308262
 11
77.602637
 21
309.308262
  0
LINE
  5
2C4
100
AcDbEntity
  8
M0
 62
   234
100
AcDbLine
 10
81.102639
 20
312.30826
 11
79.602639
 21
312.308261
  0
LINE
  5
2C5
100
AcDbEntity
  8
M0
 62
   234
100
AcDbLine
 10
79.602639
 20
312.308261
 11
79.602638
 21
310.308261
  0
LINE
  5
2C6
100
AcDbEntity
  8
M0
 62
   234
100
AcDbLine
 10
79.602638
 20
310.308261
 11
81.102638
 21
310.30826
  0
LINE
  5
2C7
100
AcDbEntity
  8
M0
 62
   234
100
AcDbLine
 10
81.10264
 20
314.608263
 11
81.102638
 21
310.30826
  0
LINE
  5
2C8
100
AcDbEntity
  8
M0
 62
   234
100
AcDbLine
 10
84.852639
 20
313.308258
 11
81.102639
 21
313.30826
  0
LINE
  5
2C9
100
AcDbEntity
  8
M0
 62
   234
100
AcDbLine
 10
84.852638
 20
311.808258
 11
81.102638
 21
311.80826
  0
LINE
  5
2CA
100
AcDbEntity
  8
M0
 62
   234
100
AcDbLine
 10
92.102637
 20
309.308253
 11
92.102636
 21
307.808253
  0
LINE
  5
2CB
100
AcDbEntity
  8
M0
 62
   234
100
AcDbLine
 10
77.602637
 20
309.308262
 11
77.602636
 21
307.808262
  0
LINE
  5
2CC
100
AcDbEntity
  8
M0
 62
   234
100
AcDbLine
 10
68.852639
 20
312.308268
 11
67.952645
 21
312.308268
  0
LINE
  5
2CD
100
AcDbEntity
  8
M0
 62
   234
100
AcDbLine
 10
75.852639
 20
313.308263
 11
77.602639
 21
313.308262
  0
LINE
  5
2CE
100
AcDbEntity
  8
M0
 62
   234
100
AcDbLine
 10
100.852639
 20
312.308248
 11
101.752617
 21
312.308247
  0
LINE
  5
2CF
100
AcDbEntity
  8
M0
 62
   234
100
AcDbLine
 10
93.852639
 20
313.308252
 11
92.102639
 21
313.308253
  0
LINE
  5
2D0
100
AcDbEntity
  8
M0
 62
     2
100
AcDbLine
 10
71.391744
 20
326.76895
 11
73.236593
 21
324.924117
  0
LINE
  5
2D1
100
AcDbEntity
  8
M0
 62
     2
100
AcDbLine
 10
73.36347
 20
327.52606
 11
70.788397
 21
324.950987
  0
LINE
  5
2D2
100
AcDbEntity
  8
M0
 62
     2
100
AcDbLine
 10
74.070577
 20
326.818953
 11
71.495504
 21
324.24388
  0
CIRCLE
  5
2D3
100
AcDbEntity
  8
M0
 62
     2
100
AcDbCircle
 10
72.352621
 20
325.808104
 40
3.499993
  0
LINE
  5
2D4
100
AcDbEntity
  8
M0
  6
DASHDOT
 62
     2
100
AcDbLine
 10
71.852621
 20
325.808104
 11
72.852621
 21
325.808104
  0
LINE
  5
2D5
100
AcDbEntity
  8
M0
  6
DASHDOT
 62
     2
100
AcDbLine
 10
72.352621
 20
325.308104
 11
72.352621
 21
326.308104
  0
CIRCLE
  5
2D6
100
AcDbEntity
  8
M0
 62
     7
100
AcDbCircle
 10
120.402575
 20
407.608104
 40
3.0
  0
LINE
  5
2D7
100
AcDbEntity
  8
M0
 62
     7
100
AcDbLine
 10
121.993159
 20
406.017459
 11
118.811518
 21
409.199222
  0
LINE
  5
2D8
100
AcDbEntity
  8
M0
 62
     7
100
AcDbLine
 10
121.816401
 20
407.961795
 11
120.048823
 21
406.194217
  0
LINE
  5
2D9
100
AcDbEntity
  8
M0
 62
     7
100
AcDbLine
 10
120.755854
 20
409.022464
 11
118.988276
 21
407.254764
  0
LINE
  5
2DA
100
AcDbEntity
  8
M0
 62
     7
100
AcDbLine
 10
123.727575
 20
411.433104
 11
117.077575
 21
411.433104
  0
ARC
  5
2DB
100
AcDbEntity
  8
M0
 62
     7
100
AcDbCircle
 10
123.727575
 20
410.933104
 40
0.5
100
AcDbArc
 50
0.0
 51
90.0
  0
LINE
  5
2DC
100
AcDbEntity
  8
M0
 62
     7
100
AcDbLine
 10
124.227575
 20
404.283104
 11
124.227575
 21
410.933104
  0
ARC
  5
2DD
100
AcDbEntity
  8
M0
 62
     7
100
AcDbCircle
 10
123.727575
 20
404.283104
 40
0.5
100
AcDbArc
 50
270.0
 51
360.0
  0
LINE
  5
2DE
100
AcDbEntity
  8
M0
 62
     7
100
AcDbLine
 10
117.077575
 20
403.783104
 11
123.727575
 21
403.783104
  0
LINE
  5
2DF
100
AcDbEntity
  8
M0
 62
     7
100
AcDbLine
 10
116.577575
 20
410.933104
 11
116.577575
 21
404.283104
  0
ARC
  5
2E0
100
AcDbEntity
  8
M0
 62
     7
100
AcDbCircle
 10
117.077575
 20
410.933104
 40
0.5
100
AcDbArc
 50
90.0
 51
180.0
  0
ARC
  5
2E1
100
AcDbEntity
  8
M0
 62
     7
100
AcDbCircle
 10
117.077575
 20
404.283104
 40
0.5
100
AcDbArc
 50
180.0
 51
270.0
  0
LINE
  5
2E2
100
AcDbEntity
  8
M0
 62
     7
100
AcDbLine
 10
126.853773
 20
349.306381
 11
100.346765
 21
349.306381
  0
LINE
  5
2E3
100
AcDbEntity
  8
M0
 62
     7
100
AcDbLine
 10
95.947
 20
349.306381
 11
92.353804
 21
349.306381
  0
LINE
  5
2E4
100
AcDbEntity
  8
M0
 62
     7
100
AcDbLine
 10
108.50516
 20
348.306382
 11
108.50516
 21
346.006382
  0
LINE
  5
2E5
100
AcDbEntity
  8
M0
 62
     7
100
AcDbLine
 10
111.70516
 20
346.006382
 11
108.50516
 21
346.006382
  0
LINE
  5
2E6
100
AcDbEntity
  8
M0
 62
     7
100
AcDbLine
 10
111.70516
 20
346.006382
 11
111.70516
 21
343.806382
  0
LINE
  5
2E7
100
AcDbEntity
  8
M0
  6
DASHDOT
 62
     4
100
AcDbLine
 10
114.70516
 20
325.59635
 11
114.70516
 21
343.68743
  0
LINE
  5
2E8
100
AcDbEntity
  8
M0
  6
DASHDOT
 62
     4
100
AcDbLine
 10
104.493276
 20
334.806364
 11
124.566808
 21
334.8064
  0
LINE
  5
2E9
100
AcDbEntity
  8
M0
 62
     7
100
AcDbLine
 10
107.693159
 20
431.317459
 11
104.511518
 21
434.499222
  0
LINE
  5
2EA
100
AcDbEntity
  8
M0
 62
     7
100
AcDbLine
 10
107.516401
 20
433.261795
 11
105.748823
 21
431.494217
  0
LINE
  5
2EB
100
AcDbEntity
  8
M0
 62
     7
100
AcDbLine
 10
106.455854
 20
434.322464
 11
104.688276
 21
432.554764
  0
LINE
  5
2EC
100
AcDbEntity
  8
M0
 62
     7
100
AcDbLine
 10
109.427575
 20
436.733104
 11
102.777575
 21
436.733104
  0
ARC
  5
2ED
100
AcDbEntity
  8
M0
 62
     7
100
AcDbCircle
 10
109.427575
 20
436.233104
 40
0.5
100
AcDbArc
 50
0.0
 51
90.0
  0
LINE
  5
2EE
100
AcDbEntity
  8
M0
 62
     7
100
AcDbLine
 10
109.927575
 20
433.969122
 11
109.927575
 21
436.233104
  0
LINE
  5
2EF
100
AcDbEntity
  8
M0
 62
     7
100
AcDbLine
 10
102.777575
 20
429.083104
 11
106.92471
 21
429.083104
  0
LINE
  5
2F0
100
AcDbEntity
  8
M0
 62
     7
100
AcDbLine
 10
102.277575
 20
436.233104
 11
102.277575
 21
429.583104
  0
ARC
  5
2F1
100
AcDbEntity
  8
M0
 62
     7
100
AcDbCircle
 10
102.777575
 20
436.233104
 40
0.5
100
AcDbArc
 50
90.0
 51
180.0
  0
ARC
  5
2F2
100
AcDbEntity
  8
M0
 62
     7
100
AcDbCircle
 10
102.777575
 20
429.583104
 40
0.5
100
AcDbArc
 50
180.0
 51
270.0
  0
ARC
  5
2F3
100
AcDbEntity
  8
M0
 62
     7
100
AcDbCircle
 10
106.102575
 20
432.908104
 40
3.0
100
AcDbArc
 50
354.126881
 51
662.724737
  0
ARC
  5
2F4
100
AcDbEntity
  8
M0
 62
   234
100
AcDbCircle
 10
114.202575
 20
348.808103
 40
1.0
100
AcDbArc
 50
90.0
 51
150.113814
  0
ARC
  5
2F5
100
AcDbEntity
  8
M0
 62
   234
100
AcDbCircle
 10
99.902575
 20
316.608103
 40
1.0
100
AcDbArc
 50
270.0
 51
360.0
  0
LINE
  5
2F6
100
AcDbEntity
  8
M0
 62
   234
100
AcDbLine
 10
75.902575
 20
320.808038
 11
75.902575
 21
316.608103
  0
ARC
  5
2F7
100
AcDbEntity
  8
M0
 62
   234
100
AcDbCircle
 10
85.202575
 20
357.808103
 40
1.0
100
AcDbArc
 50
0.0
 51
90.0
  0
ARC
  5
2F8
100
AcDbEntity
  8
M0
 62
   234
100
AcDbCircle
 10
74.902575
 20
316.608103
 40
1.0
100
AcDbArc
 50
270.0
 51
360.0
  0
LINE
  5
2F9
100
AcDbEntity
  8
M0
 62
   234
100
AcDbLine
 10
107.648383
 20
358.808103
 11
116.002575
 21
358.808103
  0
ARC
  5
2FA
100
AcDbEntity
  8
M0
 62
   234
100
AcDbCircle
 10
87.202575
 20
355.808103
 40
1.0
100
AcDbArc
 50
180.0
 51
270.0
  0
ARC
  5
2FB
100
AcDbEntity
  8
M0
 62
   234
100
AcDbCircle
 10
105.202575
 20
357.808103
 40
1.0
100
AcDbArc
 50
124.824371
 51
167.795457
  0
LINE
  5
2FC
100
AcDbEntity
  8
M0
 62
   234
100
AcDbLine
 10
74.402575
 20
366.616496
 11
74.402575
 21
354.685679
  0
LINE
  5
2FD
100
AcDbEntity
  8
M0
 62
   234
100
AcDbLine
 10
117.202575
 20
369.408103
 11
117.202575
 21
349.808103
  0
LINE
  5
2FE
100
AcDbEntity
  8
M0
 62
   234
100
AcDbLine
 10
116.502576
 20
369.408103
 11
117.202575
 21
369.408103
  0
LINE
  5
2FF
100
AcDbEntity
  8
M0
 62
   234
100
AcDbLine
 10
73.202575
 20
369.408103
 11
73.902576
 21
369.408103
  0
LINE
  5
300
100
AcDbEntity
  8
M0
 62
   234
100
AcDbLine
 10
100.902575
 20
316.608103
 11
100.902575
 21
320.80795
  0
LINE
  5
301
100
AcDbEntity
  8
M0
 62
   234
100
AcDbLine
 10
73.202575
 20
352.926908
 11
73.202575
 21
369.408103
  0
LINE
  5
302
100
AcDbEntity
  8
M0
 62
   234
100
AcDbLine
 10
99.902575
 20
315.608103
 11
97.902575
 21
315.608103
  0
LINE
  5
303
100
AcDbEntity
  8
M0
 62
   234
100
AcDbLine
 10
116.002575
 20
349.808103
 11
116.002575
 21
366.616496
  0
LINE
  5
304
100
AcDbEntity
  8
M0
 62
   234
100
AcDbLine
 10
85.202575
 20
358.808103
 11
82.078318
 21
358.808103
  0
LINE
  5
305
100
AcDbEntity
  8
M0
 62
   234
100
AcDbLine
 10
117.202575
 20
349.808103
 11
114.202575
 21
349.808103
  0
LINE
  5
306
100
AcDbEntity
  8
M0
 62
   234
100
AcDbLine
 10
86.202575
 20
357.808103
 11
86.202575
 21
355.808103
  0
LINE
  5
307
100
AcDbEntity
  8
M0
 62
   234
100
AcDbLine
 10
92.498469
 20
354.808103
 11
99.84437
 21
354.808103
  0
LINE
  5
308
100
AcDbEntity
  8
M0
 62
   234
100
AcDbLine
 10
79.162776
 20
358.808103
 11
74.402575
 21
358.808103
  0
LINE
  5
309
100
AcDbEntity
  8
M0
100
AcDbLine
 10
304.788903
 20
314.312482
 11
304.788903
 21
351.309339
  0
LINE
  5
30A
100
AcDbEntity
  8
M0
100
AcDbLine
 10
301.79232
 20
348.312467
 11
229.788903
 21
348.312501
  0
LINE
  5
30B
100
AcDbEntity
  8
M0
100
AcDbLine
 10
242.289055
 20
327.31033
 11
242.289055
 21
348.312467
  0
LINE
  5
30C
100
AcDbEntity
  8
M0
100
AcDbLine
 10
256.08886
 20
351.312467
 11
243.088616
 21
351.312451
  0
LINE
  5
30D
100
AcDbEntity
  8
M0
100
AcDbLine
 10
304.788903
 20
314.312482
 11
297.288903
 21
314.312482
  0
LINE
  5
30E
100
AcDbEntity
  8
M0
100
AcDbLine
 10
276.233727
 20
306.812436
 11
291.804528
 21
306.812436
  0
ARC
  5
30F
100
AcDbEntity
  8
M0
100
AcDbCircle
 10
256.08886
 20
349.312467
 40
1.999998
100
AcDbArc
 50
14.479306
 51
89.999563
  0
LINE
  5
310
100
AcDbEntity
  8
M0
100
AcDbLine
 10
241.488625
 20
351.312451
 11
232.788887
 21
351.312436
  0
LINE
  5
311
100
AcDbEntity
  8
M0
100
AcDbLine
 10
241.488625
 20
358.808103
 11
241.488625
 21
348.312495
  0
LINE
  5
312
100
AcDbEntity
  8
M0
100
AcDbLine
 10
243.088616
 20
358.808103
 11
243.088616
 21
348.312495
  0
LINE
  5
313
100
AcDbEntity
  8
M0
100
AcDbLine
 10
304.788765
 20
324.812467
 11
304.788765
 21
315.812467
  0
LINE
  5
314
100
AcDbEntity
  8
M0
100
AcDbLine
 10
304.788765
 20
348.312451
 11
304.788765
 21
329.812451
  0
LINE
  5
315
100
AcDbEntity
  8
M0
100
AcDbLine
 10
242.289055
 20
327.812451
 11
242.289055
 21
341.812451
  0
LINE
  5
316
100
AcDbEntity
  8
M0
100
AcDbLine
 10
242.289055
 20
341.812451
 11
242.088845
 21
341.812436
  0
LINE
  5
317
100
AcDbEntity
  8
M0
100
AcDbLine
 10
229.788903
 20
333.3103
 11
229.788903
 21
348.310163
  0
LINE
  5
318
100
AcDbEntity
  8
M0
100
AcDbLine
 10
248.636223
 20
313.812482
 11
272.823815
 21
313.812482
  0
LINE
  5
319
100
AcDbEntity
  8
M0
100
AcDbLine
 10
272.288903
 20
315.81001
 11
274.302086
 21
308.294965
  0
ARC
  5
31A
100
AcDbEntity
  8
M0
100
AcDbCircle
 10
276.233727
 20
308.812436
 40
2.0
100
AcDbArc
 50
194.996439
 51
270.0
  0
LINE
  5
31B
100
AcDbEntity
  8
M0
100
AcDbLine
 10
297.288903
 20
314.312482
 11
293.536705
 21
307.812497
  0
ARC
  5
31C
100
AcDbEntity
  8
M0
100
AcDbCircle
 10
291.804528
 20
308.812436
 40
2.0
100
AcDbArc
 50
269.999563
 51
330.003375
  0
ARC
  5
31D
100
AcDbEntity
  8
M0
100
AcDbCircle
 10
275.162682
 20
312.810071
 40
2.0
100
AcDbArc
 50
194.99554
 51
270.0
  0
LINE
  5
31E
100
AcDbEntity
  8
M0
100
AcDbLine
 10
279.788903
 20
310.810056
 11
282.788658
 21
308.810056
  0
LINE
  5
31F
100
AcDbEntity
  8
M0
100
AcDbLine
 10
243.289021
 20
327.310327
 11
246.309914
 21
316.036038
  0
ARC
  5
320
100
AcDbEntity
  8
M0
100
AcDbCircle
 10
249.20768
 20
316.812482
 40
3.0
100
AcDbArc
 50
194.999804
 51
270.0
  0
LINE
  5
321
100
AcDbEntity
  8
M0
100
AcDbLine
 10
237.002833
 20
326.512429
 11
239.408592
 21
317.533856
  0
ARC
  5
322
100
AcDbEntity
  8
M0
100
AcDbCircle
 10
242.306359
 20
318.3103
 40
3.0
100
AcDbArc
 50
194.999804
 51
270.0
  0
LINE
  5
323
100
AcDbEntity
  8
M0
100
AcDbLine
 10
301.788903
 20
310.812467
 11
301.788903
 21
314.312467
  0
LINE
  5
324
100
AcDbEntity
  8
M0
100
AcDbLine
 10
294.113854
 20
308.812482
 11
299.788903
 21
308.812482
  0
ARC
  5
325
100
AcDbEntity
  8
M0
100
AcDbCircle
 10
299.788903
 20
310.812482
 40
2.0
100
AcDbArc
 50
269.999563
 51
360.0
  0
LINE
  5
326
100
AcDbEntity
  8
M0
100
AcDbLine
 10
240.644753
 20
315.812482
 11
236.779366
 21
315.812467
  0
ARC
  5
327
100
AcDbEntity
  8
M0
100
AcDbCircle
 10
232.788903
 20
348.312436
 40
3.0
100
AcDbArc
 50
89.999709
 51
179.999709
  0
LINE
  5
328
100
AcDbEntity
  8
M0
100
AcDbLine
 10
249.789055
 20
346.312467
 11
249.789055
 21
347.612424
  0
LINE
  5
329
100
AcDbEntity
  8
M0
100
AcDbLine
 10
252.989052
 20
346.312467
 11
252.989052
 21
347.612439
  0
LINE
  5
32A
100
AcDbEntity
  8
M0
100
AcDbLine
 10
249.789055
 20
346.312467
 11
252.989052
 21
346.312467
  0
ARC
  5
32B
100
AcDbEntity
  8
M0
100
AcDbCircle
 10
253.689049
 20
347.612439
 40
0.7
100
AcDbArc
 50
89.998751
 51
179.998751
  0
ARC
  5
32C
100
AcDbEntity
  8
M0
100
AcDbCircle
 10
249.089043
 20
347.612439
 40
0.7
100
AcDbArc
 50
0.0
 51
89.998751
  0
LINE
  5
32D
100
AcDbEntity
  8
M0
100
AcDbLine
 10
229.789055
 20
327.31059
 11
229.789055
 21
328.810575
  0
LINE
  5
32E
100
AcDbEntity
  8
M0
100
AcDbLine
 10
230.789055
 20
345.812467
 11
240.289055
 21
345.812467
  0
LINE
  5
32F
100
AcDbEntity
  8
M0
100
AcDbLine
 10
230.789055
 20
339.062482
 11
230.789055
 21
345.812467
  0
ARC
  5
330
100
AcDbEntity
  8
M0
100
AcDbCircle
 10
231.789055
 20
339.062482
 40
1.0
100
AcDbArc
 50
179.999126
 51
270.0
  0
ARC
  5
331
100
AcDbEntity
  8
M0
100
AcDbCircle
 10
231.789025
 20
330.562482
 40
1.0
100
AcDbArc
 50
89.999126
 51
179.999126
  0
LINE
  5
332
100
AcDbEntity
  8
M0
100
AcDbLine
 10
230.789055
 20
330.554669
 11
230.789055
 21
329.810315
  0
LINE
  5
333
100
AcDbEntity
  8
M0
100
AcDbLine
 10
244.289055
 20
327.31033
 11
244.289055
 21
348.312467
  0
LINE
  5
334
100
AcDbEntity
  8
M0
100
AcDbLine
 10
272.289147
 20
315.810178
 11
262.293434
 21
315.810224
  0
LINE
  5
335
100
AcDbEntity
  8
M0
100
AcDbLine
 10
259.29348
 20
317.810239
 11
262.29348
 21
315.810224
  0
LINE
  5
336
100
AcDbEntity
  8
M0
100
AcDbLine
 10
259.293465
 20
317.810254
 11
254.293465
 21
317.810285
  0
ARC
  5
337
100
AcDbEntity
  8
M0
100
AcDbCircle
 10
254.29348
 20
320.8103
 40
3.0
100
AcDbArc
 50
179.999709
 51
270.0
  0
LINE
  5
338
100
AcDbEntity
  8
M0
100
AcDbLine
 10
251.29348
 20
320.81033
 11
251.293572
 21
327.310361
  0
LINE
  5
339
100
AcDbEntity
  8
M0
100
AcDbLine
 10
251.293587
 20
327.310346
 11
239.28903
 21
327.310318
  0
LINE
  5
33A
100
AcDbEntity
  8
M0
100
AcDbLine
 10
242.306435
 20
315.31033
 11
246.504463
 21
315.31033
  0
ARC
  5
33B
100
AcDbEntity
  8
M0
100
AcDbCircle
 10
236.779381
 20
318.812436
 40
3.0
100
AcDbArc
 50
194.999804
 51
270.0
  0
LINE
  5
33C
100
AcDbEntity
  8
M0
100
AcDbLine
 10
231.396548
 20
327.310478
 11
233.88163
 21
318.035977
  0
LINE
  5
33D
100
AcDbEntity
  8
M0
100
AcDbLine
 10
235.38903
 20
329.81024
 11
230.76518
 21
329.81029
  0
LINE
  5
33E
100
AcDbEntity
  8
M0
100
AcDbLine
 10
229.788948
 20
333.310254
 11
230.726753
 21
329.810285
  0
LINE
  5
33F
100
AcDbEntity
  8
M0
100
AcDbLine
 10
235.38903
 20
327.310237
 11
229.78907
 21
327.310575
  0
LINE
  5
340
100
AcDbEntity
  8
M0
100
AcDbLine
 10
275.162926
 20
310.810178
 11
279.788903
 21
310.810147
  0
LINE
  5
341
100
AcDbEntity
  8
M0
100
AcDbLine
 10
282.788658
 20
308.810117
 11
292.957604
 21
308.810071
  0
ARC
  5
342
100
AcDbEntity
  8
M0
100
AcDbCircle
 10
292.957604
 20
310.810071
 40
2.0
100
AcDbArc
 50
269.992569
 51
329.999254
  0
LINE
  5
343
100
AcDbEntity
  8
M0
100
AcDbLine
 10
301.79232
 20
351.309384
 11
304.788658
 21
351.309323
  0
LINE
  5
344
100
AcDbEntity
  8
M0
100
AcDbLine
 10
301.79232
 20
351.3094
 11
301.79232
 21
348.312451
  0
LINE
  5
345
100
AcDbEntity
  8
M0
100
AcDbLine
 10
301.792076
 20
349.312482
 11
246.78904
 21
349.312482
  0
LINE
  5
346
100
AcDbEntity
  8
M0
100
AcDbLine
 10
246.78904
 20
349.312482
 11
246.78904
 21
348.310254
  0
LINE
  5
347
100
AcDbEntity
  8
M0
 62
     7
100
AcDbLine
 10
239.28903
 20
343.112429
 11
239.28903
 21
342.812429
  0
LINE
  5
348
100
AcDbEntity
  8
M0
 62
     7
100
AcDbLine
 10
236.58903
 20
340.317203
 11
236.58903
 21
338.444872
  0
LINE
  5
349
100
AcDbEntity
  8
M0
 62
     7
100
AcDbLine
 10
236.58903
 20
342.658044
 11
239.28903
 21
342.658044
  0
LINE
  5
34A
100
AcDbEntity
  8
M0
 62
     7
100
AcDbLine
 10
236.58903
 20
343.112429
 11
236.58903
 21
342.658044
  0
LINE
  5
34B
100
AcDbEntity
  8
M0
 62
     7
100
AcDbLine
 10
232.28904
 20
338.562429
 11
235.38903
 21
338.562429
  0
LINE
  5
34C
100
AcDbEntity
  8
M0
 62
     7
100
AcDbLine
 10
235.38903
 20
343.112429
 11
235.38903
 21
326.512429
  0
LINE
  5
34D
100
AcDbEntity
  8
M0
 62
     7
100
AcDbLine
 10
239.28903
 20
342.812429
 11
241.28903
 21
342.812429
  0
LINE
  5
34E
100
AcDbEntity
  8
M0
 62
     7
100
AcDbLine
 10
236.58903
 20
342.27536
 11
239.28903
 21
342.27536
  0
LINE
  5
34F
100
AcDbEntity
  8
M0
 62
     7
100
AcDbLine
 10
239.28903
 20
342.658044
 11
239.28903
 21
342.27536
  0
LINE
  5
350
100
AcDbEntity
  8
M0
 62
     7
100
AcDbLine
 10
236.58903
 20
340.317203
 11
239.28903
 21
340.317203
  0
LINE
  5
351
100
AcDbEntity
  8
M0
 62
     7
100
AcDbLine
 10
236.58903
 20
341.024309
 11
239.28903
 21
341.024309
  0
LINE
  5
352
100
AcDbEntity
  8
M0
 62
     7
100
AcDbLine
 10
236.58903
 20
337.520993
 11
239.28903
 21
337.520993
  0
LINE
  5
353
100
AcDbEntity
  8
M0
 62
     7
100
AcDbLine
 10
236.58903
 20
338.444872
 11
239.28903
 21
338.444872
  0
LINE
  5
354
100
AcDbEntity
  8
M0
 62
     7
100
AcDbLine
 10
239.28903
 20
341.024309
 11
239.28903
 21
340.317203
  0
LINE
  5
355
100
AcDbEntity
  8
M0
 62
     7
100
AcDbLine
 10
239.28903
 20
338.444872
 11
239.28903
 21
337.520993
  0
LINE
  5
356
100
AcDbEntity
  8
M0
 62
     7
100
AcDbLine
 10
236.58903
 20
342.27536
 11
236.58903
 21
341.024309
  0
LINE
  5
357
100
AcDbEntity
  8
M0
 62
     7
100
AcDbLine
 10
235.38903
 20
343.112429
 11
239.28903
 21
343.112429
  0
LINE
  5
358
100
AcDbEntity
  8
M0
 62
     7
100
AcDbLine
 10
236.58903
 20
337.520993
 11
236.58903
 21
335.312429
  0
LINE
  5
359
100
AcDbEntity
  8
M0
 62
     7
100
AcDbLine
 10
241.28903
 20
327.312429
 11
241.28903
 21
342.812429
  0
LINE
  5
35A
100
AcDbEntity
  8
M0
 62
     7
100
AcDbLine
 10
242.289055
 20
342.312429
 11
241.28903
 21
342.312429
  0
LINE
  5
35B
100
AcDbEntity
  8
M0
 62
     7
100
AcDbLine
 10
239.28903
 20
332.418288
 11
239.28903
 21
326.512429
  0
LINE
  5
35C
100
AcDbEntity
  8
M0
 62
     7
100
AcDbLine
 10
236.58903
 20
334.312429
 11
236.58903
 21
332.103864
  0
LINE
  5
35D
100
AcDbEntity
  8
M0
 62
     7
100
AcDbLine
 10
236.58903
 20
332.103864
 11
239.28903
 21
332.103864
  0
LINE
  5
35E
100
AcDbEntity
  8
M0
 62
     7
100
AcDbLine
 10
236.58903
 20
331.179985
 11
239.28903
 21
331.179985
  0
LINE
  5
35F
100
AcDbEntity
  8
M0
 62
     7
100
AcDbLine
 10
239.28903
 20
335.312429
 11
239.28903
 21
334.312429
  0
LINE
  5
360
100
AcDbEntity
  8
M0
 62
     7
100
AcDbLine
 10
236.58903
 20
335.312429
 11
239.28903
 21
335.312429
  0
LINE
  5
361
100
AcDbEntity
  8
M0
 62
     7
100
AcDbLine
 10
236.58903
 20
331.179985
 11
236.58903
 21
329.307654
  0
LINE
  5
362
100
AcDbEntity
  8
M0
 62
     7
100
AcDbLine
 10
236.58903
 20
334.312429
 11
239.28903
 21
334.312429
  0
LINE
  5
363
100
AcDbEntity
  8
M0
 62
     7
100
AcDbLine
 10
241.28903
 20
332.418288
 11
239.28903
 21
332.418288
  0
ARC
  5
364
100
AcDbEntity
  8
M0
 62
     7
100
AcDbCircle
 10
232.28904
 20
338.062429
 40
0.5
100
AcDbArc
 50
90.0
 51
179.998251
  0
LINE
  5
365
100
AcDbEntity
  8
M0
 62
     7
100
AcDbLine
 10
231.78904
 20
331.562429
 11
231.78904
 21
338.062429
  0
ARC
  5
366
100
AcDbEntity
  8
M0
 62
     7
100
AcDbCircle
 10
232.28904
 20
331.562429
 40
0.5
100
AcDbArc
 50
179.998251
 51
270.0
  0
LINE
  5
367
100
AcDbEntity
  8
M0
 62
     7
100
AcDbLine
 10
235.38903
 20
331.062429
 11
232.28904
 21
331.062429
  0
LINE
  5
368
100
AcDbEntity
  8
M0
 62
     7
100
AcDbLine
 10
236.58903
 20
328.600548
 11
239.28903
 21
328.600548
  0
LINE
  5
369
100
AcDbEntity
  8
M0
 62
     7
100
AcDbLine
 10
236.58903
 20
329.307654
 11
239.28903
 21
329.307654
  0
LINE
  5
36A
100
AcDbEntity
  8
M0
 62
     7
100
AcDbLine
 10
236.58903
 20
327.349497
 11
239.28903
 21
327.349497
  0
LINE
  5
36B
100
AcDbEntity
  8
M0
 62
     7
100
AcDbLine
 10
235.38903
 20
326.512429
 11
239.28903
 21
326.512429
  0
LINE
  5
36C
100
AcDbEntity
  8
M0
 62
     7
100
AcDbLine
 10
236.58903
 20
326.966813
 11
239.28903
 21
326.966813
  0
LINE
  5
36D
100
AcDbEntity
  8
M0
 62
     7
100
AcDbLine
 10
241.28903
 20
327.812429
 11
239.28903
 21
327.812429
  0
LINE
  5
36E
100
AcDbEntity
  8
M0
100
AcDbLine
 10
243.088265
 20
353.313016
 11
243.088234
 21
353.062238
  0
LINE
  5
36F
100
AcDbEntity
  8
M0
100
AcDbLine
 10
241.488274
 20
353.312985
 11
241.488243
 21
353.062238
  0
LINE
  5
370
100
AcDbEntity
  8
M0
 62
     7
100
AcDbLine
 10
230.789055
 20
335.312467
 11
230.789055
 21
333.312467
  0
LINE
  5
371
100
AcDbEntity
  8
M0
 62
     7
100
AcDbLine
 10
231.78904
 20
335.312467
 11
229.789055
 21
335.312467
  0
ARC
  5
372
100
AcDbEntity
  8
M0
 62
     7
100
AcDbCircle
 10
230.789055
 20
346.812467
 40
1.0
100
AcDbArc
 50
180.0
 51
270.0
  0
LINE
  5
373
100
AcDbEntity
  8
M0
 62
     7
100
AcDbLine
 10
231.78904
 20
333.312467
 11
229.789055
 21
333.312467
  0
ARC
  5
374
100
AcDbEntity
  8
M0
 62
     7
100
AcDbCircle
 10
230.789055
 20
328.810575
 40
1.0
100
AcDbArc
 50
90.0
 51
180.0
  0
LINE
  5
375
100
AcDbEntity
  8
M0
 62
     7
100
AcDbLine
 10
242.289055
 20
343.812467
 11
235.289055
 21
343.812467
  0
LINE
  5
376
100
AcDbEntity
  8
M0
 62
     7
100
AcDbLine
 10
235.289055
 20
345.812467
 11
235.289055
 21
343.812467
  0
LINE
  5
377
100
AcDbEntity
  8
M0
 62
     7
100
AcDbLine
 10
240.289055
 20
347.162467
 11
242.289055
 21
347.162467
  0
LINE
  5
378
100
AcDbEntity
  8
M0
 62
     7
100
AcDbLine
 10
240.289055
 20
347.162467
 11
240.289055
 21
344.862467
  0
LINE
  5
379
100
AcDbEntity
  8
M0
 62
     7
100
AcDbLine
 10
240.289055
 20
344.862467
 11
242.289055
 21
344.862467
  0
CIRCLE
  5
37A
100
AcDbEntity
  8
M0
 62
     7
100
AcDbCircle
 10
82.202575
 20
418.008104
 40
3.5
  0
LINE
  5
37B
100
AcDbEntity
  8
M0
 62
     7
100
AcDbLine
 10
83.213447
 20
419.726061
 11
80.638373
 21
417.150988
  0
LINE
  5
37C
100
AcDbEntity
  8
M0
 62
     7
100
AcDbLine
 10
83.920554
 20
419.018953
 11
81.345481
 21
416.44388
  0
LINE
  5
37D
100
AcDbEntity
  8
M0
 62
     7
100
AcDbLine
 10
81.241721
 20
418.96895
 11
83.08657
 21
417.124117
  0
CIRCLE
  5
37E
100
AcDbEntity
  8
M0
 62
     7
100
AcDbCircle
 10
95.202572
 20
418.008104
 40
3.5
  0
LINE
  5
37F
100
AcDbEntity
  8
M0
 62
     7
100
AcDbLine
 10
96.213443
 20
419.726061
 11
93.63837
 21
417.150988
  0
LINE
  5
380
100
AcDbEntity
  8
M0
 62
     7
100
AcDbLine
 10
96.920551
 20
419.018953
 11
94.345477
 21
416.44388
  0
LINE
  5
381
100
AcDbEntity
  8
M0
 62
     7
100
AcDbLine
 10
94.241718
 20
418.96895
 11
96.086566
 21
417.124117
  0
CIRCLE
  5
382
100
AcDbEntity
  8
M0
 62
     7
100
AcDbCircle
 10
108.202572
 20
418.008104
 40
3.5
  0
LINE
  5
383
100
AcDbEntity
  8
M0
 62
     7
100
AcDbLine
 10
109.213443
 20
419.726061
 11
106.63837
 21
417.150988
  0
LINE
  5
384
100
AcDbEntity
  8
M0
 62
     7
100
AcDbLine
 10
109.920551
 20
419.018953
 11
107.345478
 21
416.44388
  0
LINE
  5
385
100
AcDbEntity
  8
M0
 62
     7
100
AcDbLine
 10
107.241718
 20
418.96895
 11
109.086567
 21
417.124117
  0
CIRCLE
  5
386
100
AcDbEntity
  8
M0
 62
     7
100
AcDbCircle
 10
108.202572
 20
370.608104
 40
3.5
  0
LINE
  5
387
100
AcDbEntity
  8
M0
 62
     7
100
AcDbLine
 10
109.213443
 20
372.32606
 11
106.63837
 21
369.750987
  0
LINE
  5
388
100
AcDbEntity
  8
M0
 62
     7
100
AcDbLine
 10
109.920551
 20
371.618953
 11
107.345478
 21
369.04388
  0
LINE
  5
389
100
AcDbEntity
  8
M0
 62
     7
100
AcDbLine
 10
107.241718
 20
371.56895
 11
109.086567
 21
369.724117
  0
CIRCLE
  5
38A
100
AcDbEntity
  8
M0
 62
     7
100
AcDbCircle
 10
95.202572
 20
370.608104
 40
3.5
  0
LINE
  5
38B
100
AcDbEntity
  8
M0
 62
     7
100
AcDbLine
 10
96.213443
 20
372.32606
 11
93.63837
 21
369.750987
  0
LINE
  5
38C
100
AcDbEntity
  8
M0
 62
     7
100
AcDbLine
 10
96.920551
 20
371.618953
 11
94.345477
 21
369.04388
  0
LINE
  5
38D
100
AcDbEntity
  8
M0
 62
     7
100
AcDbLine
 10
94.241718
 20
371.56895
 11
96.086566
 21
369.724117
  0
CIRCLE
  5
38E
100
AcDbEntity
  8
M0
 62
     7
100
AcDbCircle
 10
82.202575
 20
370.608104
 40
3.5
  0
LINE
  5
38F
100
AcDbEntity
  8
M0
 62
     7
100
AcDbLine
 10
83.213447
 20
372.32606
 11
80.638373
 21
369.750987
  0
LINE
  5
390
100
AcDbEntity
  8
M0
 62
     7
100
AcDbLine
 10
83.920554
 20
371.618953
 11
81.345481
 21
369.04388
  0
LINE
  5
391
100
AcDbEntity
  8
M0
 62
     7
100
AcDbLine
 10
81.241721
 20
371.56895
 11
83.08657
 21
369.724117
  0
CIRCLE
  5
392
100
AcDbEntity
  8
M0
  6
DASHED
 62
     7
100
AcDbCircle
 10
70.002575
 20
373.408104
 40
3.0
  0
LINE
  5
393
100
AcDbEntity
  8
M0
  6
DASHED
 62
     7
100
AcDbLine
 10
71.593159
 20
371.817459
 11
68.411518
 21
374.999222
  0
LINE
  5
394
100
AcDbEntity
  8
M0
  6
DASHED
 62
     7
100
AcDbLine
 10
71.416401
 20
373.761795
 11
69.648823
 21
371.994217
  0
LINE
  5
395
100
AcDbEntity
  8
M0
  6
DASHED
 62
     7
100
AcDbLine
 10
70.355854
 20
374.822464
 11
68.588276
 21
373.054764
  0
LINE
  5
396
100
AcDbEntity
  8
M0
  6
DASHED
 62
     7
100
AcDbLine
 10
73.327575
 20
377.233104
 11
66.677575
 21
377.233104
  0
ARC
  5
397
100
AcDbEntity
  8
M0
  6
DASHED
 62
     7
100
AcDbCircle
 10
73.327575
 20
376.733104
 40
0.5
100
AcDbArc
 50
0.0
 51
90.0
  0
LINE
  5
398
100
AcDbEntity
  8
M0
  6
DASHED
 62
     7
100
AcDbLine
 10
73.827575
 20
370.083104
 11
73.827575
 21
376.733104
  0
ARC
  5
399
100
AcDbEntity
  8
M0
  6
DASHED
 62
     7
100
AcDbCircle
 10
73.327575
 20
370.083104
 40
0.5
100
AcDbArc
 50
270.0
 51
360.0
  0
LINE
  5
39A
100
AcDbEntity
  8
M0
  6
DASHED
 62
     7
100
AcDbLine
 10
66.677575
 20
369.583104
 11
73.327575
 21
369.583104
  0
LINE
  5
39B
100
AcDbEntity
  8
M0
  6
DASHED
 62
     7
100
AcDbLine
 10
66.177575
 20
376.733104
 11
66.177575
 21
370.083104
  0
ARC
  5
39C
100
AcDbEntity
  8
M0
  6
DASHED
 62
     7
100
AcDbCircle
 10
66.677575
 20
376.733104
 40
0.5
100
AcDbArc
 50
90.0
 51
180.0
  0
ARC
  5
39D
100
AcDbEntity
  8
M0
  6
DASHED
 62
     7
100
AcDbCircle
 10
66.677575
 20
370.083104
 40
0.5
100
AcDbArc
 50
180.0
 51
270.0
  0
CIRCLE
  5
39E
100
AcDbEntity
  8
M0
 62
     7
100
AcDbCircle
 10
114.70516
 20
334.806382
 40
3.75
  0
CIRCLE
  5
39F
100
AcDbEntity
  8
M0
 62
     7
100
AcDbCircle
 10
114.70516
 20
334.806382
 40
8.3
  0
LINE
  5
3A0
100
AcDbEntity
  8
M0
 62
     7
100
AcDbLine
 10
119.095802
 20
340.775031
 11
118.482966
 21
340.260801
  0
LINE
  5
3A1
100
AcDbEntity
  8
M0
 62
     7
100
AcDbLine
 10
120.732723
 20
337.579645
 11
121.345558
 21
338.093875
  0
LINE
  5
3A2
100
AcDbEntity
  8
M0
 62
     7
100
AcDbLine
 10
121.345558
 20
338.093875
 11
119.095802
 21
340.775031
  0
LINE
  5
3A3
100
AcDbEntity
  8
M0
 62
     7
100
AcDbLine
 10
118.482966
 20
340.260801
 11
120.732723
 21
337.579645
  0
LINE
  5
3A4
100
AcDbEntity
  8
M0
 62
     7
100
AcDbLine
 10
119.506216
 20
341.576897
 11
119.506217
 21
342.256208
  0
LINE
  5
3A5
100
AcDbEntity
  8
M0
 62
     7
100
AcDbLine
 10
119.506217
 20
342.756208
 11
119.506219
 21
343.660932
  0
LINE
  5
3A6
100
AcDbEntity
  8
M0
 62
     7
100
AcDbLine
 10
119.506217
 20
342.756208
 11
118.006217
 21
342.75621
  0
LINE
  5
3A7
100
AcDbEntity
  8
M0
 62
     7
100
AcDbLine
 10
121.506248
 20
342.50622
 11
119.678805
 21
341.451144
  0
LINE
  5
3A8
100
AcDbEntity
  8
M0
 62
     7
100
AcDbLine
 10
118.006217
 20
342.421697
 11
118.006217
 21
342.75621
  0
LINE
  5
3A9
100
AcDbEntity
  8
M0
 62
     7
100
AcDbLine
 10
119.506217
 20
342.256208
 11
118.364405
 21
342.25621
  0
LINE
  5
3AA
100
AcDbEntity
  8
M0
 62
     7
100
AcDbLine
 10
121.506248
 20
342.50622
 11
119.506219
 21
343.660932
  0
TEXT
  5
3AB
100
AcDbEntity
  8
M0
 62
     7
100
AcDbText
 10
126.20412
 20
342.131737
 40
2.0
  1
ＴＲＩＰ
 50
90.000563
 41
0.625
  7
STANDARD
100
AcDbText
  0
TEXT
  5
3AC
100
AcDbEntity
  8
M0
 62
     7
100
AcDbText
 10
126.205165
 20
328.123204
 40
2.0
  1
ＡＵＴＯ
 50
90.000556
 41
0.583333
  7
STANDARD
100
AcDbText
  0
CIRCLE
  5
3AD
100
AcDbEntity
  8
M0
 62
     7
100
AcDbCircle
 10
125.15516
 20
334.806382
 40
0.75
  0
LINE
  5
3AE
100
AcDbEntity
  8
M0
 62
     7
100
AcDbLine
 10
115.30516
 20
337.306382
 11
115.30516
 21
332.306382
  0
LINE
  5
3AF
100
AcDbEntity
  8
M0
 62
     7
100
AcDbLine
 10
115.30516
 20
337.306382
 11
114.10516
 21
337.306382
  0
LINE
  5
3B0
100
AcDbEntity
  8
M0
 62
     7
100
AcDbLine
 10
114.10516
 20
337.306382
 11
114.10516
 21
332.306382
  0
LINE
  5
3B1
100
AcDbEntity
  8
M0
 62
     7
100
AcDbLine
 10
115.30516
 20
332.306382
 11
114.10516
 21
332.306382
  0
LINE
  5
3B2
100
AcDbEntity
  8
M0
 62
     7
100
AcDbLine
 10
107.395064
 20
339.026868
 11
104.70516
 21
340.579885
  0
ARC
  5
3B3
100
AcDbEntity
  8
M0
 62
     7
100
AcDbCircle
 10
106.00516
 20
329.306382
 40
0.5
100
AcDbArc
 50
0.0
 51
90.0
  0
LINE
  5
3B4
100
AcDbEntity
  8
M0
 62
     7
100
AcDbLine
 10
106.50516
 20
327.306382
 11
106.50516
 21
329.306382
  0
LINE
  5
3B5
100
AcDbEntity
  8
M0
 62
     7
100
AcDbLine
 10
111.149882
 20
327.306382
 11
101.85516
 21
327.306382
  0
LINE
  5
3B6
100
AcDbEntity
  8
M0
 62
     7
100
AcDbLine
 10
126.85516
 20
327.306382
 11
118.260438
 21
327.306382
  0
ARC
  5
3B7
100
AcDbEntity
  8
M0
 62
     7
100
AcDbCircle
 10
111.35516
 20
325.806382
 40
1.5
100
AcDbArc
 50
0.0
 51
42.204142
  0
ARC
  5
3B8
100
AcDbEntity
  8
M0
 62
     7
100
AcDbCircle
 10
117.35516
 20
325.806382
 40
1.5
100
AcDbArc
 50
146.969284
 51
180.0
  0
LINE
  5
3B9
100
AcDbEntity
  8
M0
 62
     7
100
AcDbLine
 10
122.336071
 20
327.107499
 11
117.374203
 21
327.107484
  0
ARC
  5
3BA
100
AcDbEntity
  8
M0
 62
     7
100
AcDbCircle
 10
122.336071
 20
326.607484
 40
0.5
100
AcDbArc
 50
17.13596
 51
90.0
  0
ARC
  5
3BB
100
AcDbEntity
  8
M0
 62
     7
100
AcDbCircle
 10
111.336071
 20
326.607484
 40
0.5
100
AcDbArc
 50
17.13596
 51
90.0
  0
LINE
  5
3BC
100
AcDbEntity
  8
M0
 62
     7
100
AcDbLine
 10
111.336071
 20
327.107499
 11
106.374203
 21
327.107484
  0
ARC
  5
3BD
100
AcDbEntity
  8
M0
 62
     7
100
AcDbCircle
 10
117.374203
 20
326.607484
 40
0.5
100
AcDbArc
 50
90.0
 51
162.865076
  0
ARC
  5
3BE
100
AcDbEntity
  8
M0
 62
     7
100
AcDbCircle
 10
106.374203
 20
326.607484
 40
0.5
100
AcDbArc
 50
90.0
 51
162.865076
  0
ARC
  5
3BF
100
AcDbEntity
  8
M0
 62
     7
100
AcDbCircle
 10
106.35516
 20
325.806382
 40
1.5
100
AcDbArc
 50
90.0
 51
180.0
  0
ARC
  5
3C0
100
AcDbEntity
  8
M0
 62
     7
100
AcDbCircle
 10
122.35516
 20
325.806382
 40
1.5
100
AcDbArc
 50
0.0
 51
90.0
  0
CIRCLE
  5
3C1
100
AcDbEntity
  8
M0
 62
     6
100
AcDbCircle
 10
108.852606
 20
322.80786
 40
2.999997
  0
LINE
  5
3C2
100
AcDbEntity
  8
M0
 62
     6
100
AcDbLine
 10
106.002214
 20
327.107482
 11
105.077459
 21
324.107909
  0
LINE
  5
3C3
100
AcDbEntity
  8
M0
 62
     6
100
AcDbLine
 10
105.893621
 20
318.860609
 11
105.077459
 21
321.507933
  0
LINE
  5
3C4
100
AcDbEntity
  8
M0
 62
     6
100
AcDbLine
 10
111.797447
 20
326.799366
 11
112.627508
 21
324.107909
  0
LINE
  5
3C5
100
AcDbEntity
  8
M0
 62
     6
100
AcDbLine
 10
111.811102
 20
318.860594
 11
112.627508
 21
321.507933
  0
LINE
  5
3C6
100
AcDbEntity
  8
M0
 62
     6
100
AcDbLine
 10
106.371648
 20
318.507933
 11
111.333318
 21
318.507933
  0
LINE
  5
3C7
100
AcDbEntity
  8
M0
 62
     6
100
AcDbLine
 10
112.627508
 20
321.507933
 11
112.627508
 21
324.107909
  0
LINE
  5
3C8
100
AcDbEntity
  8
M0
 62
     6
100
AcDbLine
 10
105.077459
 20
324.107909
 11
105.077459
 21
321.507933
  0
LINE
  5
3C9
100
AcDbEntity
  8
M0
 62
     6
100
AcDbLine
 10
110.443182
 20
321.21704
 11
107.261541
 21
324.398802
  0
LINE
  5
3CA
100
AcDbEntity
  8
M0
 62
     6
100
AcDbLine
 10
109.205877
 20
324.222044
 11
107.438299
 21
322.454344
  0
LINE
  5
3CB
100
AcDbEntity
  8
M0
 62
     6
100
AcDbLine
 10
110.266424
 20
323.161375
 11
108.498846
 21
321.393797
  0
ARC
  5
3CC
100
AcDbEntity
  8
M0
 62
     6
100
AcDbCircle
 10
106.371648
 20
319.007933
 40
0.5
100
AcDbArc
 50
197.128737
 51
270.0
  0
ARC
  5
3CD
100
AcDbEntity
  8
M0
 62
     6
100
AcDbCircle
 10
111.333318
 20
319.007933
 40
0.5
100
AcDbArc
 50
270.0
 51
342.861308
  0
LINE
  5
3CE
100
AcDbEntity
  8
M0
  6
DASHDOT
 62
     6
100
AcDbLine
 10
108.352606
 20
322.80786
 11
109.352606
 21
322.80786
  0
LINE
  5
3CF
100
AcDbEntity
  8
M0
  6
DASHDOT
 62
     6
100
AcDbLine
 10
108.852606
 20
322.30786
 11
108.852606
 21
323.30786
  0
ARC
  5
3D0
100
AcDbEntity
  8
M0
 62
     7
100
AcDbCircle
 10
102.852575
 20
429.658104
 40
0.5
100
AcDbArc
 50
268.473851
 51
270.0
  0
ARC
  5
3D1
100
AcDbEntity
  8
M0
 62
     7
100
AcDbCircle
 10
68.202575
 20
424.308104
 40
2.25
100
AcDbArc
 50
0.0
 51
180.0
  0
ARC
  5
3D2
100
AcDbEntity
  8
M0
 62
     7
100
AcDbCircle
 10
68.202575
 20
422.308104
 40
2.25
100
AcDbArc
 50
180.0
 51
360.0
  0
ARC
  5
3D3
100
AcDbEntity
  8
M0
 62
     7
100
AcDbCircle
 10
68.802575
 20
363.808104
 40
5.0
100
AcDbArc
 50
180.0
 51
270.0
  0
ARC
  5
3D4
100
AcDbEntity
  8
M0
 62
     7
100
AcDbCircle
 10
68.802575
 20
424.808104
 40
5.0
100
AcDbArc
 50
90.0
 51
180.0
  0
LINE
  5
3D5
100
AcDbEntity
  8
M0
 62
     7
100
AcDbLine
 10
104.102575
 20
382.108104
 11
86.302575
 21
382.108104
  0
LINE
  5
3D6
100
AcDbEntity
  8
M0
 62
     7
100
AcDbLine
 10
85.802576
 20
382.608104
 11
85.802576
 21
406.008104
  0
LINE
  5
3D7
100
AcDbEntity
  8
M0
 62
     7
100
AcDbLine
 10
114.902575
 20
411.708104
 11
75.502575
 21
411.708104
  0
LINE
  5
3D8
100
AcDbEntity
  8
M0
 62
     7
100
AcDbLine
 10
116.702576
 20
396.808104
 11
114.902575
 21
396.808104
  0
LINE
  5
3D9
100
AcDbEntity
  8
M0
 62
     7
100
AcDbLine
 10
89.902576
 20
406.508104
 11
86.302575
 21
406.508104
  0
ARC
  5
3DA
100
AcDbEntity
  8
M0
 62
     7
100
AcDbCircle
 10
73.002575
 20
362.308104
 40
0.5
100
AcDbArc
 50
180.0
 51
270.0
  0
ARC
  5
3DB
100
AcDbEntity
  8
M0
 62
     7
100
AcDbCircle
 10
117.402575
 20
363.308104
 40
0.5
100
AcDbArc
 50
0.0
 51
90.0
  0
ARC
  5
3DC
100
AcDbEntity
  8
M0
 62
     7
100
AcDbCircle
 10
74.002575
 20
363.308104
 40
0.5
100
AcDbArc
 50
0.0
 51
36.86993
  0
ARC
  5
3DD
100
AcDbEntity
  8
M0
 62
     7
100
AcDbCircle
 10
73.002575
 20
363.308104
 40
0.5
100
AcDbArc
 50
90.0
 51
180.0
  0
CIRCLE
  5
3DE
100
AcDbEntity
  8
M0
 62
     7
100
AcDbCircle
 10
67.702575
 20
364.308104
 40
2.25
  0
CIRCLE
  5
3DF
100
AcDbEntity
  8
M0
 62
     7
100
AcDbCircle
 10
122.702575
 20
424.308104
 40
2.25
  0
ARC
  5
3E0
100
AcDbEntity
  8
M0
 62
     7
100
AcDbCircle
 10
117.402575
 20
362.308104
 40
0.5
100
AcDbArc
 50
270.0
 51
360.0
  0
ARC
  5
3E1
100
AcDbEntity
  8
M0
 62
     7
100
AcDbCircle
 10
116.402575
 20
363.308104
 40
0.5
100
AcDbArc
 50
143.130134
 51
180.0
  0
ARC
  5
3E2
100
AcDbEntity
  8
M0
 62
     7
100
AcDbCircle
 10
115.202575
 20
428.808104
 40
1.0
100
AcDbArc
 50
90.0
 51
98.626927
  0
ARC
  5
3E3
100
AcDbEntity
  8
M0
 62
     7
100
AcDbCircle
 10
122.202575
 20
364.308104
 40
2.25
100
AcDbArc
 50
180.0
 51
360.0
  0
ARC
  5
3E4
100
AcDbEntity
  8
M0
 62
     7
100
AcDbCircle
 10
75.202575
 20
428.808104
 40
1.0
100
AcDbArc
 50
81.373073
 51
90.0
  0
ARC
  5
3E5
100
AcDbEntity
  8
M0
 62
     7
100
AcDbCircle
 10
121.602575
 20
424.808104
 40
5.0
100
AcDbArc
 50
0.0
 51
90.0
  0
ARC
  5
3E6
100
AcDbEntity
  8
M0
 62
     7
100
AcDbCircle
 10
74.002575
 20
362.308104
 40
0.5
100
AcDbArc
 50
323.13007
 51
360.0
  0
ARC
  5
3E7
100
AcDbEntity
  8
M0
 62
     7
100
AcDbCircle
 10
122.202575
 20
366.308104
 40
2.25
100
AcDbArc
 50
0.0
 51
180.0
  0
ARC
  5
3E8
100
AcDbEntity
  8
M0
 62
     7
100
AcDbCircle
 10
121.602575
 20
363.808104
 40
5.0
100
AcDbArc
 50
270.0
 51
360.0
  0
LINE
  5
3E9
100
AcDbEntity
  8
M0
 62
     7
100
AcDbLine
 10
74.771805
 20
397.808104
 11
74.771805
 21
396.808104
  0
LINE
  5
3EA
100
AcDbEntity
  8
M0
 62
     7
100
AcDbLine
 10
74.502575
 20
397.808104
 11
73.902576
 21
397.808104
  0
LINE
  5
3EB
100
AcDbEntity
  8
M0
 62
     7
100
AcDbLine
 10
74.771805
 20
390.808104
 11
74.771805
 21
391.808104
  0
LINE
  5
3EC
100
AcDbEntity
  8
M0
 62
     7
100
AcDbLine
 10
74.502575
 20
390.808104
 11
73.902576
 21
390.808104
  0
LINE
  5
3ED
100
AcDbEntity
  8
M0
 62
     7
100
AcDbLine
 10
115.633343
 20
390.808104
 11
115.633343
 21
391.808104
  0
LINE
  5
3EE
100
AcDbEntity
  8
M0
 62
     7
100
AcDbLine
 10
115.902573
 20
390.808104
 11
116.502576
 21
390.808104
  0
LINE
  5
3EF
100
AcDbEntity
  8
M0
 62
     7
100
AcDbLine
 10
115.633343
 20
397.808104
 11
115.633343
 21
396.808104
  0
LINE
  5
3F0
100
AcDbEntity
  8
M0
 62
     7
100
AcDbLine
 10
115.902573
 20
397.808104
 11
116.502576
 21
397.808104
  0
LINE
  5
3F1
100
AcDbEntity
  8
M0
 62
     7
100
AcDbLine
 10
110.402573
 20
434.742
 11
110.402573
 21
438.208106
  0
LINE
  5
3F2
100
AcDbEntity
  8
M0
 62
     7
100
AcDbLine
 10
111.320306
 20
438.808105
 11
111.002576
 21
438.808105
  0
LINE
  5
3F3
100
AcDbEntity
  8
M0
 62
     7
100
AcDbLine
 10
100.202576
 20
361.308104
 11
100.202576
 21
361.808105
  0
LINE
  5
3F4
100
AcDbEntity
  8
M0
 62
     7
100
AcDbLine
 10
100.202576
 20
358.808103
 11
94.835735
 21
358.808103
  0
LINE
  5
3F5
100
AcDbEntity
  8
M0
 62
     7
100
AcDbLine
 10
90.202574
 20
361.808105
 11
90.202574
 21
361.308104
  0
LINE
  5
3F6
100
AcDbEntity
  8
M0
 62
     7
100
AcDbLine
 10
73.702574
 20
391.808104
 11
73.702574
 21
396.808104
  0
LINE
  5
3F7
100
AcDbEntity
  8
M0
 62
     7
100
AcDbLine
 10
74.502575
 20
390.808104
 11
75.502575
 21
390.808104
  0
LINE
  5
3F8
100
AcDbEntity
  8
M0
 62
     7
100
AcDbLine
 10
74.502575
 20
359.808104
 11
74.502575
 21
390.808104
  0
LINE
  5
3F9
100
AcDbEntity
  8
M0
 62
     7
100
AcDbLine
 10
74.502575
 20
397.808104
 11
75.502575
 21
397.808104
  0
LINE
  5
3FA
100
AcDbEntity
  8
M0
 62
     7
100
AcDbLine
 10
73.202575
 20
395.808104
 11
73.702574
 21
395.808104
  0
LINE
  5
3FB
100
AcDbEntity
  8
M0
 62
     7
100
AcDbLine
 10
73.202575
 20
392.808104
 11
73.202575
 21
395.808104
  0
LINE
  5
3FC
100
AcDbEntity
  8
M0
 62
     7
100
AcDbLine
 10
90.702575
 20
360.808103
 11
92.264808
 21
360.808103
  0
LINE
  5
3FD
100
AcDbEntity
  8
M0
 62
     7
100
AcDbLine
 10
73.702574
 20
392.808104
 11
73.202575
 21
392.808104
  0
LINE
  5
3FE
100
AcDbEntity
  8
M0
 62
     7
100
AcDbLine
 10
117.202577
 20
392.808104
 11
117.202577
 21
395.808104
  0
LINE
  5
3FF
100
AcDbEntity
  8
M0
 62
     7
100
AcDbLine
 10
74.702574
 20
396.808104
 11
73.702574
 21
396.808104
  0
LINE
  5
400
100
AcDbEntity
  8
M0
 62
     7
100
AcDbLine
 10
117.202577
 20
395.808104
 11
116.702576
 21
395.808104
  0
ARC
  5
401
100
AcDbEntity
  8
M0
 62
     7
100
AcDbCircle
 10
73.702575
 20
391.008104
 40
0.5
100
AcDbArc
 50
293.578178
 51
336.421822
  0
ARC
  5
402
100
AcDbEntity
  8
M0
 62
     7
100
AcDbCircle
 10
116.702575
 20
391.008104
 40
0.5
100
AcDbArc
 50
203.578178
 51
246.421822
  0
LINE
  5
403
100
AcDbEntity
  8
M0
 62
     7
100
AcDbLine
 10
73.002575
 20
361.808105
 11
73.202575
 21
361.808105
  0
LINE
  5
404
100
AcDbEntity
  8
M0
 62
     7
100
AcDbLine
 10
73.202575
 20
363.808105
 11
73.002575
 21
363.808105
  0
LINE
  5
405
100
AcDbEntity
  8
M0
 62
     7
100
AcDbLine
 10
117.402576
 20
363.808105
 11
117.202575
 21
363.808105
  0
LINE
  5
406
100
AcDbEntity
  8
M0
 62
     7
100
AcDbLine
 10
72.502574
 20
363.308104
 11
72.502574
 21
362.308102
  0
ARC
  5
407
100
AcDbEntity
  8
M0
 62
     7
100
AcDbCircle
 10
89.302575
 20
438.308104
 40
0.5
100
AcDbArc
 50
0.0
 51
90.0
  0
ARC
  5
408
100
AcDbEntity
  8
M0
 62
     7
100
AcDbCircle
 10
101.102575
 20
438.308104
 40
0.5
100
AcDbArc
 50
90.0
 51
180.0
  0
ARC
  5
409
100
AcDbEntity
  8
M0
 62
     7
100
AcDbCircle
 10
89.302575
 20
437.808104
 40
1.0
100
AcDbArc
 50
90.0
 51
180.0
  0
LINE
  5
40A
100
AcDbEntity
  8
M0
 62
     7
100
AcDbLine
 10
92.702575
 20
398.785571
 11
92.702575
 21
398.608104
  0
LINE
  5
40B
100
AcDbEntity
  8
M0
 62
     7
100
AcDbLine
 10
97.702574
 20
389.308104
 11
97.702574
 21
389.408104
  0
ARC
  5
40C
100
AcDbEntity
  8
M0
 62
     7
100
AcDbCircle
 10
101.102575
 20
437.808104
 40
1.0
100
AcDbArc
 50
0.0
 51
90.0
  0
LINE
  5
40D
100
AcDbEntity
  8
M0
 62
     7
100
AcDbLine
 10
97.702574
 20
398.785571
 11
97.702574
 21
398.608104
  0
ARC
  5
40E
100
AcDbEntity
  8
M0
 62
     7
100
AcDbCircle
 10
90.402575
 20
398.108104
 40
0.5
100
AcDbArc
 50
90.0
 51
180.0
  0
ARC
  5
40F
100
AcDbEntity
  8
M0
 62
     7
100
AcDbCircle
 10
92.952575
 20
398.108104
 40
0.5
100
AcDbArc
 50
0.0
 51
90.0
  0
LINE
  5
410
100
AcDbEntity
  8
M0
 62
     7
100
AcDbLine
 10
117.902574
 20
362.308102
 11
117.902574
 21
363.308104
  0
ARC
  5
411
100
AcDbEntity
  8
M0
 62
     7
100
AcDbCircle
 10
90.402575
 20
389.908104
 40
0.5
100
AcDbArc
 50
180.0
 51
270.0
  0
ARC
  5
412
100
AcDbEntity
  8
M0
 62
     7
100
AcDbCircle
 10
100.002575
 20
398.108104
 40
0.5
100
AcDbArc
 50
0.0
 51
90.0
  0
ARC
  5
413
100
AcDbEntity
  8
M0
 62
     7
100
AcDbCircle
 10
97.452575
 20
398.108104
 40
0.5
100
AcDbArc
 50
90.0
 51
180.0
  0
ARC
  5
414
100
AcDbEntity
  8
M0
 62
     7
100
AcDbCircle
 10
100.002575
 20
389.908104
 40
0.5
100
AcDbArc
 50
270.0
 51
360.0
  0
LINE
  5
415
100
AcDbEntity
  8
M0
 62
     7
100
AcDbLine
 10
102.902577
 20
428.808105
 11
106.756506
 21
428.808105
  0
LINE
  5
416
100
AcDbEntity
  8
M0
 62
     7
100
AcDbLine
 10
106.237965
 20
427.308104
 11
102.902577
 21
427.308104
  0
LINE
  5
417
100
AcDbEntity
  8
M0
 62
     7
100
AcDbLine
 10
88.302575
 20
437.308105
 11
80.002575
 21
437.308105
  0
LINE
  5
418
100
AcDbEntity
  8
M0
 62
     7
100
AcDbLine
 10
110.402573
 20
437.308105
 11
102.102574
 21
437.308105
  0
LINE
  5
419
100
AcDbEntity
  8
M0
 62
     7
100
AcDbLine
 10
102.102574
 20
437.808103
 11
102.102574
 21
429.787899
  0
LINE
  5
41A
100
AcDbEntity
  8
M0
 62
     7
100
AcDbLine
 10
116.702576
 20
392.808104
 11
117.202577
 21
392.808104
  0
LINE
  5
41B
100
AcDbEntity
  8
M0
 62
     7
100
AcDbLine
 10
100.602575
 20
429.243994
 11
100.602575
 21
437.808103
  0
LINE
  5
41C
100
AcDbEntity
  8
M0
 62
     7
100
AcDbLine
 10
87.502577
 20
427.308104
 11
84.167185
 21
427.308104
  0
LINE
  5
41D
100
AcDbEntity
  8
M0
 62
     7
100
AcDbLine
 10
83.648644
 20
428.808105
 11
87.502577
 21
428.808105
  0
LINE
  5
41E
100
AcDbEntity
  8
M0
 62
     7
100
AcDbLine
 10
121.602577
 20
358.808103
 11
117.202575
 21
358.808103
  0
LINE
  5
41F
100
AcDbEntity
  8
M0
 62
     7
100
AcDbLine
 10
72.502574
 20
364.808104
 11
73.202575
 21
364.808104
  0
LINE
  5
420
100
AcDbEntity
  8
M0
 62
     7
100
AcDbLine
 10
72.502574
 20
368.608105
 11
72.502574
 21
364.808104
  0
LINE
  5
421
100
AcDbEntity
  8
M0
 62
     7
100
AcDbLine
 10
117.902574
 20
364.808104
 11
117.902574
 21
368.608105
  0
LINE
  5
422
100
AcDbEntity
  8
M0
 62
     7
100
AcDbLine
 10
115.902573
 20
364.808104
 11
116.002575
 21
364.808104
  0
LINE
  5
423
100
AcDbEntity
  8
M0
 62
     7
100
AcDbLine
 10
119.952578
 20
366.308103
 11
119.952578
 21
364.308103
  0
LINE
  5
424
100
AcDbEntity
  8
M0
 62
     7
100
AcDbLine
 10
124.452573
 20
364.308103
 11
124.452573
 21
366.308103
  0
LINE
  5
425
100
AcDbEntity
  8
M0
 62
     7
100
AcDbLine
 10
63.802575
 20
363.808105
 11
63.802575
 21
424.808104
  0
LINE
  5
426
100
AcDbEntity
  8
M0
 62
     7
100
AcDbLine
 10
70.452575
 20
424.308103
 11
70.452575
 21
422.308105
  0
LINE
  5
427
100
AcDbEntity
  8
M0
 62
     7
100
AcDbLine
 10
65.952575
 20
422.308105
 11
65.952575
 21
424.308103
  0
ARC
  5
428
100
AcDbEntity
  8
M0
 62
     7
100
AcDbCircle
 10
114.902575
 20
410.708104
 40
1.0
100
AcDbArc
 50
0.0
 51
90.0
  0
ARC
  5
429
100
AcDbEntity
  8
M0
 62
     7
100
AcDbCircle
 10
114.902575
 20
377.908104
 40
1.0
100
AcDbArc
 50
270.0
 51
360.0
  0
LINE
  5
42A
100
AcDbEntity
  8
M0
 62
     7
100
AcDbLine
 10
114.902575
 20
390.808104
 11
114.902575
 21
391.808104
  0
LINE
  5
42B
100
AcDbEntity
  8
M0
 62
     7
100
AcDbLine
 10
116.702576
 20
391.808104
 11
114.902575
 21
391.808104
  0
LINE
  5
42C
100
AcDbEntity
  8
M0
 62
     7
100
AcDbLine
 10
96.402575
 20
406.508104
 11
94.002575
 21
406.508104
  0
LINE
  5
42D
100
AcDbEntity
  8
M0
 62
     7
100
AcDbLine
 10
94.002575
 20
408.108104
 11
94.002575
 21
406.508104
  0
LINE
  5
42E
100
AcDbEntity
  8
M0
 62
     7
100
AcDbLine
 10
74.702574
 20
396.808104
 11
75.502575
 21
396.808104
  0
LINE
  5
42F
100
AcDbEntity
  8
M0
 62
     7
100
AcDbLine
 10
73.702574
 20
391.808104
 11
75.502575
 21
391.808104
  0
LINE
  5
430
100
AcDbEntity
  8
M0
 62
     7
100
AcDbLine
 10
114.902575
 20
397.808104
 11
114.902575
 21
396.808104
  0
LINE
  5
431
100
AcDbEntity
  8
M0
 62
     7
100
AcDbLine
 10
75.502575
 20
397.808104
 11
75.502575
 21
396.808104
  0
LINE
  5
432
100
AcDbEntity
  8
M0
 62
     7
100
AcDbLine
 10
99.502575
 20
405.508104
 11
90.902575
 21
405.508104
  0
LINE
  5
433
100
AcDbEntity
  8
M0
 62
     7
100
AcDbLine
 10
96.402575
 20
408.108104
 11
94.002575
 21
408.108104
  0
LINE
  5
434
100
AcDbEntity
  8
M0
 62
     7
100
AcDbLine
 10
96.402575
 20
408.108104
 11
96.402575
 21
406.508104
  0
LINE
  5
435
100
AcDbEntity
  8
M0
 62
     7
100
AcDbLine
 10
100.502573
 20
406.508104
 11
104.102575
 21
406.508104
  0
LINE
  5
436
100
AcDbEntity
  8
M0
 62
     7
100
AcDbLine
 10
104.602576
 20
382.608104
 11
104.602576
 21
406.008104
  0
LINE
  5
437
100
AcDbEntity
  8
M0
 62
     7
100
AcDbLine
 10
116.502576
 20
369.608105
 11
117.402576
 21
369.608105
  0
LINE
  5
438
100
AcDbEntity
  8
M0
 62
     7
100
AcDbLine
 10
123.402577
 20
369.608105
 11
124.302578
 21
369.608105
  0
LINE
  5
439
100
AcDbEntity
  8
M0
 62
     7
100
AcDbLine
 10
73.002575
 20
419.008105
 11
73.902576
 21
419.008105
  0
LINE
  5
43A
100
AcDbEntity
  8
M0
 62
     7
100
AcDbLine
 10
117.402576
 20
419.008105
 11
116.502576
 21
419.008105
  0
LINE
  5
43B
100
AcDbEntity
  8
M0
 62
     7
100
AcDbLine
 10
125.402574
 20
366.608104
 11
125.302572
 21
366.608104
  0
LINE
  5
43C
100
AcDbEntity
  8
M0
 62
     7
100
AcDbLine
 10
124.302578
 20
419.008105
 11
123.402577
 21
419.008105
  0
LINE
  5
43D
100
AcDbEntity
  8
M0
 62
     7
100
AcDbLine
 10
125.402574
 20
422.008103
 11
125.302572
 21
422.008103
  0
LINE
  5
43E
100
AcDbEntity
  8
M0
 62
     7
100
AcDbLine
 10
66.102575
 20
419.008105
 11
67.002575
 21
419.008105
  0
ARC
  5
43F
100
AcDbEntity
  8
M0
 62
     7
100
AcDbCircle
 10
78.202575
 20
359.808104
 40
1.0
100
AcDbArc
 50
180.0
 51
270.0
  0
LINE
  5
440
100
AcDbEntity
  8
M0
 62
     7
100
AcDbLine
 10
78.202575
 20
358.808103
 11
79.086979
 21
358.808103
  0
LINE
  5
441
100
AcDbEntity
  8
M0
 62
     7
100
AcDbLine
 10
65.002575
 20
366.608104
 11
65.102575
 21
366.608104
  0
LINE
  5
442
100
AcDbEntity
  8
M0
 62
     7
100
AcDbLine
 10
73.902576
 20
369.608105
 11
73.002575
 21
369.608105
  0
LINE
  5
443
100
AcDbEntity
  8
M0
 62
     7
100
AcDbLine
 10
67.002575
 20
369.608105
 11
66.102575
 21
369.608105
  0
ARC
  5
444
100
AcDbEntity
  8
M0
 62
     7
100
AcDbCircle
 10
100.502575
 20
406.008104
 40
0.5
100
AcDbArc
 50
90.0
 51
180.0
  0
ARC
  5
445
100
AcDbEntity
  8
M0
 62
     7
100
AcDbCircle
 10
104.102575
 20
406.008104
 40
0.5
100
AcDbArc
 50
0.0
 51
90.0
  0
ARC
  5
446
100
AcDbEntity
  8
M0
 62
     7
100
AcDbCircle
 10
90.902575
 20
406.008104
 40
0.5
100
AcDbArc
 50
180.0
 51
270.0
  0
ARC
  5
447
100
AcDbEntity
  8
M0
 62
     7
100
AcDbCircle
 10
99.502575
 20
406.008104
 40
0.5
100
AcDbArc
 50
270.0
 51
360.0
  0
LINE
  5
448
100
AcDbEntity
  8
M0
 62
     7
100
AcDbLine
 10
65.002575
 20
422.008103
 11
65.102575
 21
422.008103
  0
ARC
  5
449
100
AcDbEntity
  8
M0
 62
     7
100
AcDbCircle
 10
75.502575
 20
410.708104
 40
1.0
100
AcDbArc
 50
90.0
 51
180.0
  0
ARC
  5
44A
100
AcDbEntity
  8
M0
 62
     7
100
AcDbCircle
 10
75.502575
 20
377.908104
 40
1.0
100
AcDbArc
 50
180.0
 51
270.0
  0
ARC
  5
44B
100
AcDbEntity
  8
M0
 62
     7
100
AcDbCircle
 10
99.702575
 20
361.308104
 40
0.5
100
AcDbArc
 50
270.0
 51
360.0
  0
ARC
  5
44C
100
AcDbEntity
  8
M0
 62
     7
100
AcDbCircle
 10
100.202575
 20
360.808104
 40
2.0
100
AcDbArc
 50
270.0
 51
292.57935
  0
ARC
  5
44D
100
AcDbEntity
  8
M0
 62
     7
100
AcDbCircle
 10
86.302575
 20
406.008104
 40
0.5
100
AcDbArc
 50
90.0
 51
180.0
  0
ARC
  5
44E
100
AcDbEntity
  8
M0
 62
     7
100
AcDbCircle
 10
89.902575
 20
406.008104
 40
0.5
100
AcDbArc
 50
0.0
 51
90.0
  0
ARC
  5
44F
100
AcDbEntity
  8
M0
 62
     7
100
AcDbCircle
 10
104.102575
 20
382.608104
 40
0.5
100
AcDbArc
 50
270.0
 51
360.0
  0
ARC
  5
450
100
AcDbEntity
  8
M0
 62
     7
100
AcDbCircle
 10
86.302575
 20
382.608104
 40
0.5
100
AcDbArc
 50
180.0
 51
270.0
  0
ARC
  5
451
100
AcDbEntity
  8
M0
 62
     7
100
AcDbCircle
 10
79.084845
 20
438.208104
 40
0.6
100
AcDbArc
 50
90.0
 51
178.281642
  0
ARC
  5
452
100
AcDbEntity
  8
M0
 62
     7
100
AcDbCircle
 10
79.402575
 20
438.208104
 40
0.6
100
AcDbArc
 50
0.0
 51
90.0
  0
ARC
  5
453
100
AcDbEntity
  8
M0
 62
     7
100
AcDbCircle
 10
116.402575
 20
362.308104
 40
0.5
100
AcDbArc
 50
180.0
 51
216.869866
  0
ARC
  5
454
100
AcDbEntity
  8
M0
 62
     7
100
AcDbCircle
 10
90.202575
 20
360.808104
 40
2.0
100
AcDbArc
 50
247.42065
 51
270.0
  0
ARC
  5
455
100
AcDbEntity
  8
M0
 62
     7
100
AcDbCircle
 10
90.702575
 20
361.308104
 40
0.5
100
AcDbArc
 50
180.0
 51
270.0
  0
ARC
  5
456
100
AcDbEntity
  8
M0
 62
     7
100
AcDbCircle
 10
111.002575
 20
438.208104
 40
0.6
100
AcDbArc
 50
90.0
 51
180.0
  0
LINE
  5
457
100
AcDbEntity
  8
M0
 62
     7
100
AcDbLine
 10
80.002575
 20
438.208106
 11
80.002575
 21
434.742003
  0
LINE
  5
458
100
AcDbEntity
  8
M0
 62
     7
100
AcDbLine
 10
79.084846
 20
438.808105
 11
79.402576
 21
438.808105
  0
ARC
  5
459
100
AcDbEntity
  8
M0
 62
     7
100
AcDbCircle
 10
111.320305
 20
438.208104
 40
0.6
100
AcDbArc
 50
1.718358
 51
90.0
  0
LINE
  5
45A
100
AcDbEntity
  8
M0
 62
     7
100
AcDbLine
 10
117.202575
 20
361.808105
 11
117.402576
 21
361.808105
  0
LINE
  5
45B
100
AcDbEntity
  8
M0
 62
     7
100
AcDbLine
 10
115.902573
 20
397.808104
 11
114.902575
 21
397.808104
  0
LINE
  5
45C
100
AcDbEntity
  8
M0
 62
     7
100
AcDbLine
 10
116.702576
 20
391.808104
 11
116.702576
 21
396.808104
  0
LINE
  5
45D
100
AcDbEntity
  8
M0
 62
     7
100
AcDbLine
 10
114.902575
 20
376.908104
 11
75.502575
 21
376.908104
  0
LINE
  5
45E
100
AcDbEntity
  8
M0
 62
     7
100
AcDbLine
 10
115.902573
 20
390.808104
 11
114.902575
 21
390.808104
  0
LINE
  5
45F
100
AcDbEntity
  8
M0
 62
     7
100
AcDbLine
 10
115.902573
 20
359.808104
 11
115.902573
 21
390.808104
  0
LINE
  5
460
100
AcDbEntity
  8
M0
 62
     7
100
AcDbLine
 10
75.502575
 20
390.808104
 11
75.502575
 21
391.808104
  0
LINE
  5
461
100
AcDbEntity
  8
M0
 62
     7
100
AcDbLine
 10
100.602575
 20
437.808103
 11
100.602575
 21
438.308104
  0
LINE
  5
462
100
AcDbEntity
  8
M0
 62
     7
100
AcDbLine
 10
89.802575
 20
437.308105
 11
90.202572
 21
437.308105
  0
LINE
  5
463
100
AcDbEntity
  8
M0
 62
     7
100
AcDbLine
 10
100.502573
 20
389.908104
 11
100.502573
 21
398.108104
  0
LINE
  5
464
100
AcDbEntity
  8
M0
 62
     7
100
AcDbLine
 10
100.202572
 20
437.308105
 11
100.602575
 21
437.308105
  0
LINE
  5
465
100
AcDbEntity
  8
M0
 62
     7
100
AcDbLine
 10
89.802575
 20
437.808103
 11
89.802575
 21
429.243994
  0
LINE
  5
466
100
AcDbEntity
  8
M0
 62
     7
100
AcDbLine
 10
88.302575
 20
429.787899
 11
88.302575
 21
437.808103
  0
LINE
  5
467
100
AcDbEntity
  8
M0
 62
     7
100
AcDbLine
 10
89.802575
 20
438.308104
 11
89.802575
 21
437.808103
  0
LINE
  5
468
100
AcDbEntity
  8
M0
 62
     7
100
AcDbLine
 10
99.002574
 20
398.908104
 11
99.002574
 21
398.608104
  0
LINE
  5
469
100
AcDbEntity
  8
M0
 62
     7
100
AcDbLine
 10
100.502573
 20
398.108104
 11
100.502573
 21
398.908104
  0
LINE
  5
46A
100
AcDbEntity
  8
M0
 62
     7
100
AcDbLine
 10
91.402576
 20
398.908104
 11
91.402576
 21
398.608104
  0
LINE
  5
46B
100
AcDbEntity
  8
M0
 62
     7
100
AcDbLine
 10
99.002574
 20
389.408104
 11
99.002574
 21
389.308104
  0
LINE
  5
46C
100
AcDbEntity
  8
M0
 62
     7
100
AcDbLine
 10
89.902576
 20
392.508104
 11
89.402575
 21
392.508104
  0
LINE
  5
46D
100
AcDbEntity
  8
M0
 62
     7
100
AcDbLine
 10
100.502573
 20
392.508104
 11
101.002574
 21
392.508104
  0
LINE
  5
46E
100
AcDbEntity
  8
M0
 62
     7
100
AcDbLine
 10
100.502573
 20
389.308104
 11
100.502573
 21
389.908104
  0
LINE
  5
46F
100
AcDbEntity
  8
M0
 62
     7
100
AcDbLine
 10
89.402575
 20
395.508104
 11
89.902576
 21
395.508104
  0
LINE
  5
470
100
AcDbEntity
  8
M0
 62
     7
100
AcDbLine
 10
92.702575
 20
398.785571
 11
92.702575
 21
398.908104
  0
LINE
  5
471
100
AcDbEntity
  8
M0
 62
     7
100
AcDbLine
 10
73.902576
 20
390.508104
 11
74.502575
 21
390.508104
  0
LINE
  5
472
100
AcDbEntity
  8
M0
 62
     7
100
AcDbLine
 10
92.702575
 20
389.308104
 11
92.702575
 21
389.408104
  0
LINE
  5
473
100
AcDbEntity
  8
M0
 62
     7
100
AcDbLine
 10
97.702574
 20
398.785571
 11
97.702574
 21
398.908104
  0
LINE
  5
474
100
AcDbEntity
  8
M0
 62
     7
100
AcDbLine
 10
89.902576
 20
389.308104
 11
89.902576
 21
389.908104
  0
LINE
  5
475
100
AcDbEntity
  8
M0
 62
     7
100
AcDbLine
 10
91.402576
 20
389.408104
 11
91.402576
 21
389.308104
  0
LINE
  5
476
100
AcDbEntity
  8
M0
 62
     7
100
AcDbLine
 10
116.502576
 20
390.508104
 11
115.902573
 21
390.508104
  0
LINE
  5
477
100
AcDbEntity
  8
M0
 62
     7
100
AcDbLine
 10
96.952577
 20
398.108104
 11
96.952577
 21
390.908104
  0
LINE
  5
478
100
AcDbEntity
  8
M0
 62
     7
100
AcDbLine
 10
93.452573
 20
398.108104
 11
93.452573
 21
390.908104
  0
LINE
  5
479
100
AcDbEntity
  8
M0
 62
     7
100
AcDbLine
 10
90.402574
 20
398.608104
 11
92.952576
 21
398.608104
  0
LINE
  5
47A
100
AcDbEntity
  8
M0
 62
     7
100
AcDbLine
 10
100.002576
 20
389.408104
 11
90.402574
 21
389.408104
  0
LINE
  5
47B
100
AcDbEntity
  8
M0
 62
     7
100
AcDbLine
 10
100.002576
 20
398.608104
 11
97.452574
 21
398.608104
  0
LINE
  5
47C
100
AcDbEntity
  8
M0
 62
     7
100
AcDbLine
 10
93.452573
 20
390.908104
 11
96.952577
 21
390.908104
  0
LINE
  5
47D
100
AcDbEntity
  8
M0
 62
     7
100
AcDbLine
 10
85.802576
 20
398.608104
 11
86.002576
 21
398.608104
  0
LINE
  5
47E
100
AcDbEntity
  8
M0
 62
     7
100
AcDbLine
 10
86.002576
 20
389.408104
 11
85.802576
 21
389.408104
  0
LINE
  5
47F
100
AcDbEntity
  8
M0
 62
     7
100
AcDbLine
 10
89.902576
 20
398.108104
 11
89.902576
 21
398.908104
  0
LINE
  5
480
100
AcDbEntity
  8
M0
 62
     7
100
AcDbLine
 10
101.002574
 20
395.508104
 11
100.502573
 21
395.508104
  0
LINE
  5
481
100
AcDbEntity
  8
M0
 62
     7
100
AcDbLine
 10
91.202576
 20
398.608104
 11
99.202574
 21
398.608104
  0
LINE
  5
482
100
AcDbEntity
  8
M0
 62
     7
100
AcDbLine
 10
89.902576
 20
389.908104
 11
89.902576
 21
398.108104
  0
LINE
  5
483
100
AcDbEntity
  8
M0
 62
     7
100
AcDbLine
 10
104.602576
 20
398.608104
 11
104.402576
 21
398.608104
  0
LINE
  5
484
100
AcDbEntity
  8
M0
 62
     7
100
AcDbLine
 10
104.402576
 20
389.408104
 11
104.602576
 21
389.408104
  0
LINE
  5
485
100
AcDbEntity
  8
M0
 62
     7
100
AcDbLine
 10
125.602577
 20
414.408103
 11
125.302572
 21
414.408103
  0
ARC
  5
486
100
AcDbEntity
  8
M0
 62
     7
100
AcDbCircle
 10
88.502575
 20
428.808104
 40
1.0
100
AcDbArc
 50
90.0
 51
180.0
  0
LINE
  5
487
100
AcDbEntity
  8
M0
 62
     7
100
AcDbLine
 10
125.302572
 20
390.608104
 11
125.602577
 21
390.608104
  0
LINE
  5
488
100
AcDbEntity
  8
M0
 62
     7
100
AcDbLine
 10
125.602577
 20
398.008104
 11
125.302572
 21
398.008104
  0
ARC
  5
489
100
AcDbEntity
  8
M0
 62
     7
100
AcDbCircle
 10
101.502575
 20
428.808104
 40
1.0
100
AcDbArc
 50
90.0
 51
180.0
  0
ARC
  5
48A
100
AcDbEntity
  8
M0
 62
     7
100
AcDbCircle
 10
101.502575
 20
359.808104
 40
1.0
100
AcDbArc
 50
180.0
 51
270.0
  0
ARC
  5
48B
100
AcDbEntity
  8
M0
 62
     7
100
AcDbCircle
 10
88.902575
 20
428.808104
 40
1.0
100
AcDbArc
 50
0.0
 51
90.0
  0
ARC
  5
48C
100
AcDbEntity
  8
M0
 62
     7
100
AcDbCircle
 10
88.902575
 20
359.808104
 40
1.0
100
AcDbArc
 50
270.0
 51
360.0
  0
LINE
  5
48D
100
AcDbEntity
  8
M0
 62
     7
100
AcDbLine
 10
104.402576
 20
386.808104
 11
104.402576
 21
400.408104
  0
LINE
  5
48E
100
AcDbEntity
  8
M0
 62
     7
100
AcDbLine
 10
103.402574
 20
406.308104
 11
101.902575
 21
406.308104
  0
LINE
  5
48F
100
AcDbEntity
  8
M0
 62
     7
100
AcDbLine
 10
103.402574
 20
382.308104
 11
102.902577
 21
382.308104
  0
LINE
  5
490
100
AcDbEntity
  8
M0
 62
     7
100
AcDbLine
 10
125.302572
 20
374.208104
 11
125.602577
 21
374.208104
  0
LINE
  5
491
100
AcDbEntity
  8
M0
 62
     7
100
AcDbLine
 10
124.302578
 20
421.008104
 11
124.302578
 21
399.008104
  0
LINE
  5
492
100
AcDbEntity
  8
M0
 62
     7
100
AcDbLine
 10
88.902574
 20
358.808103
 11
88.502575
 21
358.808103
  0
LINE
  5
493
100
AcDbEntity
  8
M0
 62
     7
100
AcDbLine
 10
88.502575
 20
375.408104
 11
88.902574
 21
375.408104
  0
LINE
  5
494
100
AcDbEntity
  8
M0
 62
     7
100
AcDbLine
 10
88.902574
 20
375.408104
 11
89.902576
 21
375.408104
  0
ARC
  5
495
100
AcDbEntity
  8
M0
 62
     7
100
AcDbCircle
 10
101.902575
 20
428.808104
 40
1.0
100
AcDbArc
 50
0.0
 51
90.0
  0
ARC
  5
496
100
AcDbEntity
  8
M0
 62
     7
100
AcDbCircle
 10
114.502575
 20
428.808104
 40
1.0
100
AcDbArc
 50
90.0
 51
180.0
  0
LINE
  5
497
100
AcDbEntity
  8
M0
 62
     7
100
AcDbLine
 10
124.302578
 20
389.608104
 11
124.302578
 21
367.608104
  0
ARC
  5
498
100
AcDbEntity
  8
M0
 62
     7
100
AcDbCircle
 10
101.902575
 20
359.808104
 40
1.0
100
AcDbArc
 50
270.0
 51
360.0
  0
ARC
  5
499
100
AcDbEntity
  8
M0
 62
     7
100
AcDbCircle
 10
114.902575
 20
359.808104
 40
1.0
100
AcDbArc
 50
270.0
 51
360.0
  0
LINE
  5
49A
100
AcDbEntity
  8
M0
 62
     7
100
AcDbLine
 10
88.502575
 20
429.808105
 11
88.902574
 21
429.808105
  0
ARC
  5
49B
100
AcDbEntity
  8
M0
 62
     7
100
AcDbCircle
 10
114.502575
 20
359.808104
 40
1.0
100
AcDbArc
 50
180.0
 51
270.0
  0
ARC
  5
49C
100
AcDbEntity
  8
M0
 62
     7
100
AcDbCircle
 10
114.902575
 20
428.808104
 40
1.0
100
AcDbArc
 50
0.0
 51
90.0
  0
LINE
  5
49D
100
AcDbEntity
  8
M0
 62
     7
100
AcDbLine
 10
125.602577
 20
398.008104
 11
125.602577
 21
390.608104
  0
LINE
  5
49E
100
AcDbEntity
  8
M0
 62
     7
100
AcDbLine
 10
117.902574
 20
390.308104
 11
117.902574
 21
398.308104
  0
LINE
  5
49F
100
AcDbEntity
  8
M0
 62
     7
100
AcDbLine
 10
115.902573
 20
390.308104
 11
117.902574
 21
390.308104
  0
LINE
  5
4A0
100
AcDbEntity
  8
M0
 62
     7
100
AcDbLine
 10
64.802575
 20
390.608104
 11
65.102575
 21
390.608104
  0
LINE
  5
4A1
100
AcDbEntity
  8
M0
 62
     7
100
AcDbLine
 10
64.802575
 20
414.408103
 11
65.102575
 21
414.408103
  0
LINE
  5
4A2
100
AcDbEntity
  8
M0
 62
     7
100
AcDbLine
 10
124.302578
 20
398.008104
 11
124.302578
 21
390.608104
  0
LINE
  5
4A3
100
AcDbEntity
  8
M0
 62
     7
100
AcDbLine
 10
124.302578
 20
390.608104
 11
121.302571
 21
390.608104
  0
LINE
  5
4A4
100
AcDbEntity
  8
M0
 62
     7
100
AcDbLine
 10
64.802575
 20
398.008104
 11
64.802575
 21
390.608104
  0
LINE
  5
4A5
100
AcDbEntity
  8
M0
 62
     7
100
AcDbLine
 10
121.302571
 20
398.008104
 11
124.302578
 21
398.008104
  0
LINE
  5
4A6
100
AcDbEntity
  8
M0
 62
     7
100
AcDbLine
 10
115.002577
 20
397.808104
 11
115.002577
 21
396.808104
  0
LINE
  5
4A7
100
AcDbEntity
  8
M0
 62
     7
100
AcDbLine
 10
115.902573
 20
398.308104
 11
117.902574
 21
398.308104
  0
LINE
  5
4A8
100
AcDbEntity
  8
M0
 62
     7
100
AcDbLine
 10
121.302571
 20
390.608104
 11
121.302571
 21
398.008104
  0
LINE
  5
4A9
100
AcDbEntity
  8
M0
 62
     7
100
AcDbLine
 10
87.002576
 20
406.308104
 11
88.502575
 21
406.308104
  0
LINE
  5
4AA
100
AcDbEntity
  8
M0
 62
     7
100
AcDbLine
 10
86.002576
 20
386.808104
 11
86.002576
 21
400.408104
  0
LINE
  5
4AB
100
AcDbEntity
  8
M0
 62
     7
100
AcDbLine
 10
87.002576
 20
382.308104
 11
87.502577
 21
382.308104
  0
LINE
  5
4AC
100
AcDbEntity
  8
M0
 62
     7
100
AcDbLine
 10
90.152573
 20
405.308104
 11
100.252576
 21
405.308104
  0
LINE
  5
4AD
100
AcDbEntity
  8
M0
 62
     7
100
AcDbLine
 10
100.752574
 20
398.908104
 11
89.652576
 21
398.908104
  0
LINE
  5
4AE
100
AcDbEntity
  8
M0
 62
     7
100
AcDbLine
 10
90.152573
 20
400.408104
 11
100.252576
 21
400.408104
  0
LINE
  5
4AF
100
AcDbEntity
  8
M0
 62
     7
100
AcDbLine
 10
100.252576
 20
403.808104
 11
90.152573
 21
403.808104
  0
LINE
  5
4B0
100
AcDbEntity
  8
M0
 62
     7
100
AcDbLine
 10
65.102575
 20
398.008104
 11
64.802575
 21
398.008104
  0
LINE
  5
4B1
100
AcDbEntity
  8
M0
 62
     7
100
AcDbLine
 10
115.002577
 20
391.808104
 11
115.002577
 21
390.808104
  0
LINE
  5
4B2
100
AcDbEntity
  8
M0
 62
     7
100
AcDbLine
 10
65.102575
 20
374.208104
 11
64.802575
 21
374.208104
  0
LINE
  5
4B3
100
AcDbEntity
  8
M0
 62
     7
100
AcDbLine
 10
66.102575
 20
421.008104
 11
66.102575
 21
399.008104
  0
LINE
  5
4B4
100
AcDbEntity
  8
M0
 62
     7
100
AcDbLine
 10
116.502576
 20
391.308104
 11
116.502576
 21
390.308104
  0
LINE
  5
4B5
100
AcDbEntity
  8
M0
 62
     7
100
AcDbLine
 10
116.502576
 20
398.308104
 11
116.502576
 21
397.308104
  0
LINE
  5
4B6
100
AcDbEntity
  8
M0
 62
     7
100
AcDbLine
 10
66.102575
 20
403.608104
 11
74.502575
 21
403.608104
  0
LINE
  5
4B7
100
AcDbEntity
  8
M0
 62
     7
100
AcDbLine
 10
116.502576
 20
391.308104
 11
116.802574
 21
391.308104
  0
LINE
  5
4B8
100
AcDbEntity
  8
M0
 62
     7
100
AcDbLine
 10
116.802574
 20
397.308104
 11
116.802574
 21
395.808104
  0
LINE
  5
4B9
100
AcDbEntity
  8
M0
 62
     7
100
AcDbLine
 10
115.902573
 20
385.008104
 11
124.302578
 21
385.008104
  0
LINE
  5
4BA
100
AcDbEntity
  8
M0
 62
     7
100
AcDbLine
 10
116.802574
 20
397.308104
 11
116.502576
 21
397.308104
  0
LINE
  5
4BB
100
AcDbEntity
  8
M0
 62
     7
100
AcDbLine
 10
116.802574
 20
392.808104
 11
116.802574
 21
391.308104
  0
LINE
  5
4BC
100
AcDbEntity
  8
M0
 62
     7
100
AcDbLine
 10
73.602574
 20
392.808104
 11
73.602574
 21
391.308104
  0
LINE
  5
4BD
100
AcDbEntity
  8
M0
 62
     7
100
AcDbLine
 10
73.602574
 20
397.308104
 11
73.602574
 21
395.808104
  0
LINE
  5
4BE
100
AcDbEntity
  8
M0
 62
     7
100
AcDbLine
 10
73.902576
 20
391.308104
 11
73.602574
 21
391.308104
  0
LINE
  5
4BF
100
AcDbEntity
  8
M0
 62
     7
100
AcDbLine
 10
73.902576
 20
391.308104
 11
73.902576
 21
390.308104
  0
LINE
  5
4C0
100
AcDbEntity
  8
M0
 62
     7
100
AcDbLine
 10
74.502575
 20
385.008104
 11
66.102575
 21
385.008104
  0
LINE
  5
4C1
100
AcDbEntity
  8
M0
 62
     7
100
AcDbLine
 10
73.602574
 20
397.308104
 11
73.902576
 21
397.308104
  0
ARC
  5
4C2
100
AcDbEntity
  8
M0
 62
     7
100
AcDbCircle
 10
75.902575
 20
428.808104
 40
1.0
100
AcDbArc
 50
0.0
 51
90.0
  0
ARC
  5
4C3
100
AcDbEntity
  8
M0
 62
     7
100
AcDbCircle
 10
88.502575
 20
359.808104
 40
1.0
100
AcDbArc
 50
180.0
 51
270.0
  0
ARC
  5
4C4
100
AcDbEntity
  8
M0
 62
     7
100
AcDbCircle
 10
75.502575
 20
428.808104
 40
1.0
100
AcDbArc
 50
90.0
 51
180.0
  0
ARC
  5
4C5
100
AcDbEntity
  8
M0
 62
     7
100
AcDbCircle
 10
75.902575
 20
359.808104
 40
1.0
100
AcDbArc
 50
270.0
 51
360.0
  0
LINE
  5
4C6
100
AcDbEntity
  8
M0
 62
     7
100
AcDbLine
 10
75.902574
 20
358.808103
 11
75.702574
 21
358.808103
  0
LINE
  5
4C7
100
AcDbEntity
  8
M0
 62
     7
100
AcDbLine
 10
75.702574
 20
429.808105
 11
75.902574
 21
429.808105
  0
LINE
  5
4C8
100
AcDbEntity
  8
M0
 62
     7
100
AcDbLine
 10
104.602576
 20
399.608104
 11
104.402576
 21
399.608104
  0
ARC
  5
4C9
100
AcDbEntity
  8
M0
 62
     7
100
AcDbCircle
 10
74.502575
 20
374.808104
 40
0.6
100
AcDbArc
 50
180.0
 51
270.0
  0
LINE
  5
4CA
100
AcDbEntity
  8
M0
 62
     7
100
AcDbLine
 10
73.902576
 20
398.308104
 11
73.902576
 21
397.308104
  0
LINE
  5
4CB
100
AcDbEntity
  8
M0
 62
     7
100
AcDbLine
 10
124.302578
 20
403.608104
 11
115.902573
 21
403.608104
  0
ARC
  5
4CC
100
AcDbEntity
  8
M0
 62
     7
100
AcDbCircle
 10
115.902575
 20
374.808104
 40
0.6
100
AcDbArc
 50
270.0
 51
360.0
  0
ARC
  5
4CD
100
AcDbEntity
  8
M0
 62
     7
100
AcDbCircle
 10
75.502575
 20
359.808104
 40
1.0
100
AcDbArc
 50
180.0
 51
270.0
  0
ARC
  5
4CE
100
AcDbEntity
  8
M0
 62
     7
100
AcDbCircle
 10
74.502575
 20
413.808104
 40
0.6
100
AcDbArc
 50
90.0
 51
180.0
  0
ARC
  5
4CF
100
AcDbEntity
  8
M0
 62
     7
100
AcDbCircle
 10
115.902575
 20
413.808104
 40
0.6
100
AcDbArc
 50
0.0
 51
90.0
  0
LINE
  5
4D0
100
AcDbEntity
  8
M0
 62
     7
100
AcDbLine
 10
102.902577
 20
413.208104
 11
100.502573
 21
413.208104
  0
LINE
  5
4D1
100
AcDbEntity
  8
M0
 62
     7
100
AcDbLine
 10
102.902577
 20
375.408104
 11
101.902575
 21
375.408104
  0
LINE
  5
4D2
100
AcDbEntity
  8
M0
 62
     7
100
AcDbLine
 10
101.502575
 20
358.808103
 11
101.902575
 21
358.808103
  0
LINE
  5
4D3
100
AcDbEntity
  8
M0
 62
     7
100
AcDbLine
 10
101.502575
 20
375.408104
 11
100.502573
 21
375.408104
  0
LINE
  5
4D4
100
AcDbEntity
  8
M0
 62
     7
100
AcDbLine
 10
101.902575
 20
375.408104
 11
101.502575
 21
375.408104
  0
LINE
  5
4D5
100
AcDbEntity
  8
M0
 62
     7
100
AcDbLine
 10
121.602575
 20
429.808105
 11
114.502576
 21
429.808105
  0
LINE
  5
4D6
100
AcDbEntity
  8
M0
 62
     7
100
AcDbLine
 10
115.902573
 20
397.808104
 11
115.902573
 21
428.808105
  0
LINE
  5
4D7
100
AcDbEntity
  8
M0
 62
     7
100
AcDbLine
 10
101.902575
 20
429.808105
 11
101.502575
 21
429.808105
  0
LINE
  5
4D8
100
AcDbEntity
  8
M0
 62
     7
100
AcDbLine
 10
113.502574
 20
376.908104
 11
113.502574
 21
359.808105
  0
ARC
  5
4D9
100
AcDbEntity
  8
M0
 62
     7
100
AcDbCircle
 10
89.152575
 20
382.808104
 40
0.5
100
AcDbArc
 50
270.0
 51
360.0
  0
ARC
  5
4DA
100
AcDbEntity
  8
M0
 62
     7
100
AcDbCircle
 10
101.252575
 20
382.808104
 40
0.5
100
AcDbArc
 50
180.0
 51
270.0
  0
ARC
  5
4DB
100
AcDbEntity
  8
M0
 62
     7
100
AcDbCircle
 10
89.152575
 20
405.308104
 40
1.0
100
AcDbArc
 50
0.0
 51
90.0
  0
ARC
  5
4DC
100
AcDbEntity
  8
M0
 62
     7
100
AcDbCircle
 10
89.652575
 20
399.408104
 40
0.5
100
AcDbArc
 50
270.0
 51
360.0
  0
ARC
  5
4DD
100
AcDbEntity
  8
M0
 62
     7
100
AcDbCircle
 10
103.402575
 20
383.308104
 40
1.0
100
AcDbArc
 50
270.0
 51
360.0
  0
ARC
  5
4DE
100
AcDbEntity
  8
M0
 62
     7
100
AcDbCircle
 10
103.402575
 20
386.808104
 40
1.0
100
AcDbArc
 50
0.0
 51
90.0
  0
ARC
  5
4DF
100
AcDbEntity
  8
M0
 62
     7
100
AcDbCircle
 10
101.252575
 20
405.308104
 40
1.0
100
AcDbArc
 50
90.0
 51
180.0
  0
ARC
  5
4E0
100
AcDbEntity
  8
M0
 62
     7
100
AcDbCircle
 10
100.752575
 20
399.408104
 40
0.5
100
AcDbArc
 50
180.0
 51
270.0
  0
ARC
  5
4E1
100
AcDbEntity
  8
M0
 62
     7
100
AcDbCircle
 10
125.602575
 20
399.008104
 40
1.0
100
AcDbArc
 50
270.0
 51
360.0
  0
ARC
  5
4E2
100
AcDbEntity
  8
M0
 62
     7
100
AcDbCircle
 10
125.602575
 20
413.408104
 40
1.0
100
AcDbArc
 50
0.0
 51
90.0
  0
ARC
  5
4E3
100
AcDbEntity
  8
M0
 62
     7
100
AcDbCircle
 10
87.002575
 20
405.308104
 40
1.0
100
AcDbArc
 50
90.0
 51
180.0
  0
ARC
  5
4E4
100
AcDbEntity
  8
M0
 62
     7
100
AcDbCircle
 10
87.002575
 20
383.308104
 40
1.0
100
AcDbArc
 50
180.0
 51
270.0
  0
ARC
  5
4E5
100
AcDbEntity
  8
M0
 62
     7
100
AcDbCircle
 10
125.602575
 20
375.208104
 40
1.0
100
AcDbArc
 50
270.0
 51
360.0
  0
LINE
  5
4E6
100
AcDbEntity
  8
M0
 62
     7
100
AcDbLine
 10
100.752574
 20
387.808104
 11
89.652576
 21
387.808104
  0
LINE
  5
4E7
100
AcDbEntity
  8
M0
 62
     7
100
AcDbLine
 10
89.652576
 20
383.808104
 11
100.752574
 21
383.808104
  0
LINE
  5
4E8
100
AcDbEntity
  8
M0
 62
     7
100
AcDbLine
 10
89.652576
 20
389.308104
 11
100.752574
 21
389.308104
  0
LINE
  5
4E9
100
AcDbEntity
  8
M0
 62
     7
100
AcDbLine
 10
86.002576
 20
400.408104
 11
86.002576
 21
405.308104
  0
LINE
  5
4EA
100
AcDbEntity
  8
M0
 62
     7
100
AcDbLine
 10
87.502577
 20
398.908104
 11
86.002576
 21
400.408104
  0
LINE
  5
4EB
100
AcDbEntity
  8
M0
 62
     7
100
AcDbLine
 10
86.002576
 20
383.308104
 11
86.002576
 21
386.808104
  0
ARC
  5
4EC
100
AcDbEntity
  8
M0
 62
     7
100
AcDbCircle
 10
78.102575
 20
377.608104
 40
1.0
100
AcDbArc
 50
270.0
 51
315.572996
  0
ARC
  5
4ED
100
AcDbEntity
  8
M0
 62
     7
100
AcDbCircle
 10
86.302575
 20
377.608104
 40
1.0
100
AcDbArc
 50
224.427004
 51
270.0
  0
ARC
  5
4EE
100
AcDbEntity
  8
M0
 62
     7
100
AcDbCircle
 10
87.002575
 20
386.808104
 40
1.0
100
AcDbArc
 50
90.0
 51
180.0
  0
ARC
  5
4EF
100
AcDbEntity
  8
M0
 62
     7
100
AcDbCircle
 10
103.402575
 20
405.308104
 40
1.0
100
AcDbArc
 50
0.0
 51
90.0
  0
LINE
  5
4F0
100
AcDbEntity
  8
M0
 62
     7
100
AcDbLine
 10
126.602572
 20
424.808104
 11
126.602572
 21
363.808104
  0
ARC
  5
4F1
100
AcDbEntity
  8
M0
 62
     7
100
AcDbCircle
 10
112.302575
 20
411.008104
 40
1.0
100
AcDbArc
 50
90.0
 51
135.572996
  0
LINE
  5
4F2
100
AcDbEntity
  8
M0
 62
     7
100
AcDbLine
 10
99.302575
 20
412.008104
 11
100.502573
 21
412.008104
  0
LINE
  5
4F3
100
AcDbEntity
  8
M0
 62
     7
100
AcDbLine
 10
112.302576
 20
376.608104
 11
113.502574
 21
376.608104
  0
LINE
  5
4F4
100
AcDbEntity
  8
M0
 62
     7
100
AcDbLine
 10
104.102575
 20
376.608104
 11
102.902577
 21
376.608104
  0
LINE
  5
4F5
100
AcDbEntity
  8
M0
 62
     7
100
AcDbLine
 10
124.302578
 20
411.408104
 11
116.502576
 21
411.408104
  0
LINE
  5
4F6
100
AcDbEntity
  8
M0
 62
     7
100
AcDbLine
 10
91.102574
 20
412.008104
 11
89.902576
 21
412.008104
  0
LINE
  5
4F7
100
AcDbEntity
  8
M0
 62
     7
100
AcDbLine
 10
102.902577
 20
365.308105
 11
105.400546
 21
365.308105
  0
LINE
  5
4F8
100
AcDbEntity
  8
M0
 62
     7
100
AcDbLine
 10
100.502573
 20
423.308105
 11
100.037987
 21
423.308105
  0
ARC
  5
4F9
100
AcDbEntity
  8
M0
 62
     7
100
AcDbCircle
 10
65.102575
 20
413.408104
 40
1.0
100
AcDbArc
 50
0.0
 51
90.0
  0
ARC
  5
4FA
100
AcDbEntity
  8
M0
 62
     7
100
AcDbCircle
 10
65.102575
 20
389.608104
 40
1.0
100
AcDbArc
 50
0.0
 51
90.0
  0
ARC
  5
4FB
100
AcDbEntity
  8
M0
 62
     7
100
AcDbCircle
 10
64.802575
 20
399.008104
 40
1.0
100
AcDbArc
 50
180.0
 51
270.0
  0
ARC
  5
4FC
100
AcDbEntity
  8
M0
 62
     7
100
AcDbCircle
 10
64.802575
 20
413.408104
 40
1.0
100
AcDbArc
 50
90.0
 51
180.0
  0
ARC
  5
4FD
100
AcDbEntity
  8
M0
 62
     7
100
AcDbCircle
 10
125.302575
 20
375.208104
 40
1.0
100
AcDbArc
 50
180.0
 51
270.0
  0
ARC
  5
4FE
100
AcDbEntity
  8
M0
 62
     7
100
AcDbCircle
 10
125.302575
 20
399.008104
 40
1.0
100
AcDbArc
 50
180.0
 51
270.0
  0
ARC
  5
4FF
100
AcDbEntity
  8
M0
 62
     7
100
AcDbCircle
 10
65.102575
 20
375.208104
 40
1.0
100
AcDbArc
 50
270.0
 51
360.0
  0
ARC
  5
500
100
AcDbEntity
  8
M0
 62
     7
100
AcDbCircle
 10
65.102575
 20
399.008104
 40
1.0
100
AcDbArc
 50
270.0
 51
360.0
  0
ARC
  5
501
100
AcDbEntity
  8
M0
 62
     7
100
AcDbCircle
 10
64.802575
 20
389.608104
 40
1.0
100
AcDbArc
 50
90.0
 51
180.0
  0
ARC
  5
502
100
AcDbEntity
  8
M0
 62
     7
100
AcDbCircle
 10
64.802575
 20
375.208104
 40
1.0
100
AcDbArc
 50
180.0
 51
270.0
  0
LINE
  5
503
100
AcDbEntity
  8
M0
 62
     7
100
AcDbLine
 10
112.302576
 20
412.008104
 11
113.502574
 21
412.008104
  0
LINE
  5
504
100
AcDbEntity
  8
M0
 62
     7
100
AcDbLine
 10
66.102575
 20
398.008104
 11
66.102575
 21
390.608104
  0
LINE
  5
505
100
AcDbEntity
  8
M0
 62
     7
100
AcDbLine
 10
75.402575
 20
391.808104
 11
75.402575
 21
390.808104
  0
LINE
  5
506
100
AcDbEntity
  8
M0
 62
     7
100
AcDbLine
 10
69.102575
 20
390.608104
 11
69.102575
 21
398.008104
  0
LINE
  5
507
100
AcDbEntity
  8
M0
 62
     7
100
AcDbLine
 10
66.102575
 20
390.608104
 11
69.102575
 21
390.608104
  0
LINE
  5
508
100
AcDbEntity
  8
M0
 62
     7
100
AcDbLine
 10
72.502574
 20
390.308104
 11
72.502574
 21
398.308104
  0
LINE
  5
509
100
AcDbEntity
  8
M0
 62
     7
100
AcDbLine
 10
74.502575
 20
398.308104
 11
72.502574
 21
398.308104
  0
LINE
  5
50A
100
AcDbEntity
  8
M0
 62
     7
100
AcDbLine
 10
75.402575
 20
397.808104
 11
75.402575
 21
396.808104
  0
LINE
  5
50B
100
AcDbEntity
  8
M0
 62
     7
100
AcDbLine
 10
74.502575
 20
390.308104
 11
72.502574
 21
390.308104
  0
ARC
  5
50C
100
AcDbEntity
  8
M0
 62
     7
100
AcDbCircle
 10
125.302575
 20
413.408104
 40
1.0
100
AcDbArc
 50
90.0
 51
180.0
  0
ARC
  5
50D
100
AcDbEntity
  8
M0
 62
     7
100
AcDbCircle
 10
125.602575
 20
389.608104
 40
1.0
100
AcDbArc
 50
0.0
 51
90.0
  0
LINE
  5
50E
100
AcDbEntity
  8
M0
 62
     7
100
AcDbLine
 10
113.502574
 20
423.308105
 11
113.202575
 21
423.308105
  0
ARC
  5
50F
100
AcDbEntity
  8
M0
 62
     7
100
AcDbCircle
 10
125.302575
 20
389.608104
 40
1.0
100
AcDbArc
 50
90.0
 51
180.0
  0
LINE
  5
510
100
AcDbEntity
  8
M0
 62
     7
100
AcDbLine
 10
85.802576
 20
399.608104
 11
86.002576
 21
399.608104
  0
LINE
  5
511
100
AcDbEntity
  8
M0
 62
     7
100
AcDbLine
 10
69.102575
 20
398.008104
 11
66.102575
 21
398.008104
  0
LINE
  5
512
100
AcDbEntity
  8
M0
 62
     7
100
AcDbLine
 10
104.602576
 20
389.008103
 11
104.402576
 21
389.008103
  0
LINE
  5
513
100
AcDbEntity
  8
M0
 62
     7
100
AcDbLine
 10
85.802576
 20
389.008103
 11
86.002576
 21
389.008103
  0
LINE
  5
514
100
AcDbEntity
  8
M0
 62
     7
100
AcDbLine
 10
90.152573
 20
405.308104
 11
90.152573
 21
399.408104
  0
LINE
  5
515
100
AcDbEntity
  8
M0
 62
     7
100
AcDbLine
 10
100.252576
 20
405.308104
 11
100.252576
 21
399.408104
  0
LINE
  5
516
100
AcDbEntity
  8
M0
 62
     7
100
AcDbLine
 10
89.652576
 20
391.058104
 11
89.652576
 21
382.808104
  0
LINE
  5
517
100
AcDbEntity
  8
M0
 62
     7
100
AcDbLine
 10
89.402575
 20
391.558104
 11
89.652576
 21
391.058104
  0
LINE
  5
518
100
AcDbEntity
  8
M0
 62
     7
100
AcDbLine
 10
101.002574
 20
391.558104
 11
100.752574
 21
391.058104
  0
LINE
  5
519
100
AcDbEntity
  8
M0
 62
     7
100
AcDbLine
 10
101.002574
 20
397.058104
 11
101.002574
 21
391.558104
  0
LINE
  5
51A
100
AcDbEntity
  8
M0
 62
     7
100
AcDbLine
 10
100.752574
 20
398.908104
 11
100.752574
 21
397.558104
  0
LINE
  5
51B
100
AcDbEntity
  8
M0
 62
     7
100
AcDbLine
 10
100.752574
 20
391.058104
 11
100.752574
 21
382.808104
  0
LINE
  5
51C
100
AcDbEntity
  8
M0
 62
     7
100
AcDbLine
 10
87.002576
 20
387.808104
 11
87.502577
 21
387.808104
  0
LINE
  5
51D
100
AcDbEntity
  8
M0
 62
     7
100
AcDbLine
 10
89.402575
 20
397.058104
 11
89.402575
 21
391.558104
  0
LINE
  5
51E
100
AcDbEntity
  8
M0
 62
     7
100
AcDbLine
 10
87.502577
 20
387.808104
 11
87.502577
 21
398.908104
  0
LINE
  5
51F
100
AcDbEntity
  8
M0
 62
     7
100
AcDbLine
 10
89.652576
 20
397.558104
 11
89.402575
 21
397.058104
  0
LINE
  5
520
100
AcDbEntity
  8
M0
 62
     7
100
AcDbLine
 10
89.652576
 20
398.908104
 11
89.652576
 21
397.558104
  0
LINE
  5
521
100
AcDbEntity
  8
M0
 62
     7
100
AcDbLine
 10
76.902574
 20
365.308105
 11
79.441616
 21
365.308105
  0
LINE
  5
522
100
AcDbEntity
  8
M0
 62
     7
100
AcDbLine
 10
86.302575
 20
376.608104
 11
87.502577
 21
376.608104
  0
LINE
  5
523
100
AcDbEntity
  8
M0
 62
     7
100
AcDbLine
 10
104.402576
 20
383.308104
 11
104.402576
 21
386.808104
  0
LINE
  5
524
100
AcDbEntity
  8
M0
 62
     7
100
AcDbLine
 10
78.102574
 20
376.608104
 11
76.902574
 21
376.608104
  0
LINE
  5
525
100
AcDbEntity
  8
M0
 62
     7
100
AcDbLine
 10
103.402574
 20
387.808104
 11
102.902577
 21
387.808104
  0
LINE
  5
526
100
AcDbEntity
  8
M0
 62
     7
100
AcDbLine
 10
102.902577
 20
387.808104
 11
102.902577
 21
398.908104
  0
LINE
  5
527
100
AcDbEntity
  8
M0
 62
     7
100
AcDbLine
 10
87.002576
 20
406.308104
 11
89.152575
 21
406.308104
  0
LINE
  5
528
100
AcDbEntity
  8
M0
 62
     7
100
AcDbLine
 10
100.752574
 20
397.558104
 11
101.002574
 21
397.058104
  0
LINE
  5
529
100
AcDbEntity
  8
M0
 62
     7
100
AcDbLine
 10
104.402576
 20
400.408104
 11
104.402576
 21
405.308104
  0
LINE
  5
52A
100
AcDbEntity
  8
M0
 62
     7
100
AcDbLine
 10
102.902577
 20
398.908104
 11
104.402576
 21
400.408104
  0
LINE
  5
52B
100
AcDbEntity
  8
M0
 62
     7
100
AcDbLine
 10
87.002575
 20
382.308104
 11
103.402574
 21
382.308104
  0
LINE
  5
52C
100
AcDbEntity
  8
M0
 62
     7
100
AcDbLine
 10
103.402574
 20
406.308104
 11
101.252575
 21
406.308104
  0
ELLIPSE
  5
52D
100
AcDbEntity
  8
M0
 62
     7
100
AcDbEllipse
 10
90.902575
 20
429.224771
 11
1.0
 21
0.0
210
0.0
220
0.0
230
1.0
 40
0.416667
 41
3.141592653589793
 42
4.71238898038469
  0
ELLIPSE
  5
52E
100
AcDbEntity
  8
M0
 62
     7
100
AcDbEllipse
 10
99.502575
 20
429.224771
 11
1.0
 21
0.0
210
0.0
220
0.0
230
1.0
 40
0.416667
 41
4.71238898038469
 42
6.283185307179586
  0
LINE
  5
52F
100
AcDbEntity
  8
M0
 62
     7
100
AcDbLine
 10
99.502575
 20
428.808105
 11
98.302572
 21
428.808105
  0
LINE
  5
530
100
AcDbEntity
  8
M0
 62
     7
100
AcDbLine
 10
76.902574
 20
425.308103
 11
77.202575
 21
425.308103
  0
LINE
  5
531
100
AcDbEntity
  8
M0
 62
     7
100
AcDbLine
 10
89.902576
 20
425.308103
 11
92.102572
 21
425.308103
  0
LINE
  5
532
100
AcDbEntity
  8
M0
 62
     7
100
AcDbLine
 10
89.902576
 20
436.308104
 11
89.902576
 21
411.708104
  0
LINE
  5
533
100
AcDbEntity
  8
M0
 62
     7
100
AcDbLine
 10
100.502573
 20
427.308104
 11
98.302572
 21
427.308104
  0
LINE
  5
534
100
AcDbEntity
  8
M0
 62
     7
100
AcDbLine
 10
111.452576
 20
361.808105
 11
111.452576
 21
359.808105
  0
LINE
  5
535
100
AcDbEntity
  8
M0
 62
     7
100
AcDbLine
 10
104.202576
 20
358.808103
 11
112.202575
 21
358.808103
  0
LINE
  5
536
100
AcDbEntity
  8
M0
 62
     7
100
AcDbLine
 10
104.952574
 20
359.808105
 11
104.952574
 21
361.808105
  0
LINE
  5
537
100
AcDbEntity
  8
M0
 62
     7
100
AcDbLine
 10
113.202576
 20
359.808105
 11
113.202576
 21
363.308104
  0
LINE
  5
538
100
AcDbEntity
  8
M0
 62
     7
100
AcDbLine
 10
113.202576
 20
363.308104
 11
113.502574
 21
363.308104
  0
LINE
  5
539
100
AcDbEntity
  8
M0
 62
     7
100
AcDbLine
 10
65.102575
 20
366.608104
 11
64.802575
 21
366.608104
  0
LINE
  5
53A
100
AcDbEntity
  8
M0
 62
     7
100
AcDbLine
 10
77.202576
 20
363.308104
 11
76.902574
 21
363.308104
  0
LINE
  5
53B
100
AcDbEntity
  8
M0
 62
     7
100
AcDbLine
 10
112.202574
 20
365.308105
 11
112.202574
 21
364.308103
  0
LINE
  5
53C
100
AcDbEntity
  8
M0
 62
     7
100
AcDbLine
 10
64.802575
 20
422.008103
 11
65.102575
 21
422.008103
  0
LINE
  5
53D
100
AcDbEntity
  8
M0
 62
     7
100
AcDbLine
 10
86.202575
 20
362.808103
 11
86.202575
 21
365.308105
  0
LINE
  5
53E
100
AcDbEntity
  8
M0
 62
     7
100
AcDbLine
 10
87.502577
 20
361.808105
 11
87.202575
 21
361.808105
  0
LINE
  5
53F
100
AcDbEntity
  8
M0
 62
     7
100
AcDbLine
 10
111.452576
 20
359.808105
 11
111.452576
 21
359.308104
  0
LINE
  5
540
100
AcDbEntity
  8
M0
 62
     7
100
AcDbLine
 10
113.502574
 20
425.308103
 11
113.202575
 21
425.308103
  0
LINE
  5
541
100
AcDbEntity
  8
M0
 62
     7
100
AcDbLine
 10
104.202576
 20
362.808103
 11
104.202576
 21
365.308105
  0
LINE
  5
542
100
AcDbEntity
  8
M0
 62
     7
100
AcDbLine
 10
78.202576
 20
365.308105
 11
78.202576
 21
364.308103
  0
LINE
  5
543
100
AcDbEntity
  8
M0
 62
     7
100
AcDbLine
 10
100.502573
 20
361.808105
 11
95.834989
 21
361.808105
  0
LINE
  5
544
100
AcDbEntity
  8
M0
 62
     7
100
AcDbLine
 10
103.202574
 20
361.808105
 11
102.902577
 21
361.808105
  0
ARC
  5
545
100
AcDbEntity
  8
M0
 62
     7
100
AcDbCircle
 10
111.952575
 20
359.308104
 40
0.5
100
AcDbArc
 50
180.0
 51
270.0
  0
ARC
  5
546
100
AcDbEntity
  8
M0
 62
     7
100
AcDbCircle
 10
104.452575
 20
359.308104
 40
0.5
100
AcDbArc
 50
270.0
 51
306.017821
  0
ARC
  5
547
100
AcDbEntity
  8
M0
 62
     7
100
AcDbCircle
 10
108.202575
 20
361.808104
 40
3.25
100
AcDbArc
 50
145.699618
 51
180.0
  0
ARC
  5
548
100
AcDbEntity
  8
M0
 62
     7
100
AcDbCircle
 10
90.902575
 20
436.308104
 40
1.0
100
AcDbArc
 50
134.427281
 51
180.0
  0
ARC
  5
549
100
AcDbEntity
  8
M0
 62
     7
100
AcDbCircle
 10
99.502575
 20
436.308104
 40
1.0
100
AcDbArc
 50
0.0
 51
45.573273
  0
ARC
  5
54A
100
AcDbEntity
  8
M0
 62
     7
100
AcDbCircle
 10
112.202575
 20
359.808104
 40
1.0
100
AcDbArc
 50
270.0
 51
360.0
  0
ARC
  5
54B
100
AcDbEntity
  8
M0
 62
     7
100
AcDbCircle
 10
78.452575
 20
359.308104
 40
0.5
100
AcDbArc
 50
270.0
 51
360.0
  0
ARC
  5
54C
100
AcDbEntity
  8
M0
 62
     7
100
AcDbCircle
 10
86.202575
 20
359.808104
 40
1.0
100
AcDbArc
 50
270.0
 51
360.0
  0
ARC
  5
54D
100
AcDbEntity
  8
M0
 62
     7
100
AcDbCircle
 10
104.202575
 20
359.808104
 40
1.0
100
AcDbArc
 50
180.0
 51
270.0
  0
ARC
  5
54E
100
AcDbEntity
  8
M0
 62
     7
100
AcDbCircle
 10
82.202575
 20
361.808104
 40
3.25
100
AcDbArc
 50
0.0
 51
59.586094
  0
LINE
  5
54F
100
AcDbEntity
  8
M0
 62
     7
100
AcDbLine
 10
78.952575
 20
361.808104
 11
78.952575
 21
359.308104
  0
LINE
  5
550
100
AcDbEntity
  8
M0
 62
     7
100
AcDbLine
 10
87.202575
 20
361.808105
 11
87.202575
 21
359.808105
  0
LINE
  5
551
100
AcDbEntity
  8
M0
 62
     7
100
AcDbLine
 10
103.202574
 20
361.808105
 11
103.202574
 21
359.808105
  0
LINE
  5
552
100
AcDbEntity
  8
M0
 62
     7
100
AcDbLine
 10
85.452576
 20
359.308104
 11
85.452576
 21
361.808104
  0
ARC
  5
553
100
AcDbEntity
  8
M0
 62
     7
100
AcDbCircle
 10
103.202575
 20
362.808104
 40
1.0
100
AcDbArc
 50
270.0
 51
360.0
  0
ARC
  5
554
100
AcDbEntity
  8
M0
 62
     7
100
AcDbCircle
 10
77.202575
 20
364.308104
 40
1.0
100
AcDbArc
 50
270.0
 51
360.0
  0
ARC
  5
555
100
AcDbEntity
  8
M0
 62
     7
100
AcDbCircle
 10
85.952575
 20
359.308104
 40
0.5
100
AcDbArc
 50
180.0
 51
270.0
  0
ARC
  5
556
100
AcDbEntity
  8
M0
 62
     7
100
AcDbCircle
 10
87.202575
 20
362.808104
 40
1.0
100
AcDbArc
 50
180.0
 51
270.0
  0
LINE
  5
557
100
AcDbEntity
  8
M0
 62
     7
100
AcDbLine
 10
77.202576
 20
359.808105
 11
77.202576
 21
363.308104
  0
ARC
  5
558
100
AcDbEntity
  8
M0
 62
     7
100
AcDbCircle
 10
113.202575
 20
364.308104
 40
1.0
100
AcDbArc
 50
180.0
 51
270.0
  0
ARC
  5
559
100
AcDbEntity
  8
M0
 62
     7
100
AcDbCircle
 10
64.802575
 20
421.008104
 40
1.0
100
AcDbArc
 50
90.0
 51
180.0
  0
LINE
  5
55A
100
AcDbEntity
  8
M0
 62
     7
100
AcDbLine
 10
75.902574
 20
358.808103
 11
74.402575
 21
358.808103
  0
LINE
  5
55B
100
AcDbEntity
  8
M0
 62
     7
100
AcDbLine
 10
68.802575
 20
429.808105
 11
75.902574
 21
429.808105
  0
LINE
  5
55C
100
AcDbEntity
  8
M0
 62
     7
100
AcDbLine
 10
74.502575
 20
428.808104
 11
74.502575
 21
397.808104
  0
LINE
  5
55D
100
AcDbEntity
  8
M0
 62
     7
100
AcDbLine
 10
116.502576
 20
367.208104
 11
116.502576
 21
385.008104
  0
LINE
  5
55E
100
AcDbEntity
  8
M0
 62
     7
100
AcDbLine
 10
116.502576
 20
403.608104
 11
116.502576
 21
421.408104
  0
ARC
  5
55F
100
AcDbEntity
  8
M0
 62
     7
100
AcDbCircle
 10
64.802575
 20
367.608104
 40
1.0
100
AcDbArc
 50
180.0
 51
270.0
  0
ARC
  5
560
100
AcDbEntity
  8
M0
 62
     7
100
AcDbCircle
 10
65.102575
 20
367.608104
 40
1.0
100
AcDbArc
 50
270.0
 51
360.0
  0
LINE
  5
561
100
AcDbEntity
  8
M0
 62
     7
100
AcDbLine
 10
87.502577
 20
413.208104
 11
89.902576
 21
413.208104
  0
ARC
  5
562
100
AcDbEntity
  8
M0
 62
     7
100
AcDbCircle
 10
74.502575
 20
367.208104
 40
0.6
100
AcDbArc
 50
180.0
 51
270.0
  0
ARC
  5
563
100
AcDbEntity
  8
M0
 62
     7
100
AcDbCircle
 10
115.902575
 20
421.408104
 40
0.6
100
AcDbArc
 50
0.0
 51
90.0
  0
ARC
  5
564
100
AcDbEntity
  8
M0
 62
     7
100
AcDbCircle
 10
65.102575
 20
421.008104
 40
1.0
100
AcDbArc
 50
0.0
 51
90.0
  0
ARC
  5
565
100
AcDbEntity
  8
M0
 62
     7
100
AcDbCircle
 10
74.502575
 20
421.408104
 40
0.6
100
AcDbArc
 50
90.0
 51
180.0
  0
LINE
  5
566
100
AcDbEntity
  8
M0
 62
     7
100
AcDbLine
 10
76.902574
 20
376.908104
 11
76.902574
 21
359.808105
  0
LINE
  5
567
100
AcDbEntity
  8
M0
 62
     7
100
AcDbLine
 10
87.502577
 20
359.808105
 11
87.502577
 21
376.908104
  0
LINE
  5
568
100
AcDbEntity
  8
M0
 62
     7
100
AcDbLine
 10
87.502577
 20
375.408104
 11
88.502575
 21
375.408104
  0
LINE
  5
569
100
AcDbEntity
  8
M0
 62
     7
100
AcDbLine
 10
114.702575
 20
429.808105
 11
114.502576
 21
429.808105
  0
LINE
  5
56A
100
AcDbEntity
  8
M0
 62
     7
100
AcDbLine
 10
113.502574
 20
428.808105
 11
113.502574
 21
411.708104
  0
LINE
  5
56B
100
AcDbEntity
  8
M0
 62
     7
100
AcDbLine
 10
89.902576
 20
359.808104
 11
89.902576
 21
376.908104
  0
LINE
  5
56C
100
AcDbEntity
  8
M0
 62
     7
100
AcDbLine
 10
87.502577
 20
428.808104
 11
87.502577
 21
411.708104
  0
LINE
  5
56D
100
AcDbEntity
  8
M0
 62
     7
100
AcDbLine
 10
102.902577
 20
376.908104
 11
102.902577
 21
359.808104
  0
LINE
  5
56E
100
AcDbEntity
  8
M0
 62
     7
100
AcDbLine
 10
100.502573
 20
359.808104
 11
100.502573
 21
376.908104
  0
LINE
  5
56F
100
AcDbEntity
  8
M0
 62
     7
100
AcDbLine
 10
102.902577
 20
428.808104
 11
102.902577
 21
411.708104
  0
LINE
  5
570
100
AcDbEntity
  8
M0
 62
     7
100
AcDbLine
 10
100.502573
 20
411.708104
 11
100.502573
 21
436.308104
  0
LINE
  5
571
100
AcDbEntity
  8
M0
 62
     7
100
AcDbLine
 10
100.502573
 20
361.808105
 11
100.502573
 21
362.808103
  0
LINE
  5
572
100
AcDbEntity
  8
M0
 62
     7
100
AcDbLine
 10
100.502573
 20
426.808104
 11
100.502573
 21
425.808104
  0
LINE
  5
573
100
AcDbEntity
  8
M0
 62
     7
100
AcDbLine
 10
125.302572
 20
366.608104
 11
125.602577
 21
366.608104
  0
LINE
  5
574
100
AcDbEntity
  8
M0
 62
     7
100
AcDbLine
 10
125.602577
 20
422.008103
 11
125.302572
 21
422.008103
  0
LINE
  5
575
100
AcDbEntity
  8
M0
 62
     7
100
AcDbLine
 10
125.402574
 20
414.408103
 11
125.302572
 21
414.408103
  0
LINE
  5
576
100
AcDbEntity
  8
M0
 62
     7
100
AcDbLine
 10
76.902574
 20
428.808105
 11
76.902574
 21
411.708104
  0
LINE
  5
577
100
AcDbEntity
  8
M0
 62
     7
100
AcDbLine
 10
65.002575
 20
414.408103
 11
65.102575
 21
414.408103
  0
LINE
  5
578
100
AcDbEntity
  8
M0
 62
     7
100
AcDbLine
 10
125.402574
 20
374.208104
 11
125.302572
 21
374.208104
  0
LINE
  5
579
100
AcDbEntity
  8
M0
 62
     7
100
AcDbLine
 10
65.002575
 20
374.208104
 11
65.102575
 21
374.208104
  0
ARC
  5
57A
100
AcDbEntity
  8
M0
 62
     7
100
AcDbCircle
 10
125.302575
 20
367.608104
 40
1.0
100
AcDbArc
 50
180.0
 51
270.0
  0
ARC
  5
57B
100
AcDbEntity
  8
M0
 62
     7
100
AcDbCircle
 10
125.302575
 20
421.008104
 40
1.0
100
AcDbArc
 50
90.0
 51
180.0
  0
ARC
  5
57C
100
AcDbEntity
  8
M0
 62
     7
100
AcDbCircle
 10
115.902575
 20
367.208104
 40
0.6
100
AcDbArc
 50
270.0
 51
360.0
  0
ARC
  5
57D
100
AcDbEntity
  8
M0
 62
     7
100
AcDbCircle
 10
125.602575
 20
421.008104
 40
1.0
100
AcDbArc
 50
0.0
 51
90.0
  0
LINE
  5
57E
100
AcDbEntity
  8
M0
 62
     7
100
AcDbLine
 10
73.902576
 20
367.208103
 11
73.902576
 21
385.008104
  0
LINE
  5
57F
100
AcDbEntity
  8
M0
 62
     7
100
AcDbLine
 10
73.902576
 20
403.608104
 11
73.902576
 21
421.408104
  0
ARC
  5
580
100
AcDbEntity
  8
M0
 62
     7
100
AcDbCircle
 10
125.602575
 20
367.608104
 40
1.0
100
AcDbArc
 50
270.0
 51
360.0
  0
LINE
  5
581
100
AcDbEntity
  8
M0
 62
     7
100
AcDbLine
 10
66.102575
 20
389.608104
 11
66.102575
 21
367.608104
  0
LINE
  5
582
100
AcDbEntity
  8
M0
 62
     7
100
AcDbLine
 10
117.402576
 20
368.608105
 11
117.402576
 21
369.608105
  0
LINE
  5
583
100
AcDbEntity
  8
M0
 62
     7
100
AcDbLine
 10
123.402577
 20
368.608105
 11
117.402576
 21
368.608105
  0
LINE
  5
584
100
AcDbEntity
  8
M0
 62
     7
100
AcDbLine
 10
123.402577
 20
369.608105
 11
123.402577
 21
368.608105
  0
LINE
  5
585
100
AcDbEntity
  8
M0
 62
     7
100
AcDbLine
 10
73.902576
 20
411.408104
 11
66.102575
 21
411.408104
  0
LINE
  5
586
100
AcDbEntity
  8
M0
 62
     7
100
AcDbLine
 10
117.402576
 20
420.008105
 11
123.402577
 21
420.008105
  0
LINE
  5
587
100
AcDbEntity
  8
M0
 62
     7
100
AcDbLine
 10
117.402576
 20
419.008105
 11
117.402576
 21
420.008105
  0
LINE
  5
588
100
AcDbEntity
  8
M0
 62
     7
100
AcDbLine
 10
123.402577
 20
420.008105
 11
123.402577
 21
419.008105
  0
LINE
  5
589
100
AcDbEntity
  8
M0
 62
     7
100
AcDbLine
 10
66.102575
 20
377.208103
 11
73.902576
 21
377.208103
  0
LINE
  5
58A
100
AcDbEntity
  8
M0
 62
     7
100
AcDbLine
 10
116.502576
 20
377.208103
 11
124.302578
 21
377.208103
  0
LINE
  5
58B
100
AcDbEntity
  8
M0
 62
     7
100
AcDbLine
 10
78.102574
 20
412.008104
 11
76.902574
 21
412.008104
  0
LINE
  5
58C
100
AcDbEntity
  8
M0
 62
     7
100
AcDbLine
 10
86.302575
 20
412.008104
 11
87.502577
 21
412.008104
  0
LINE
  5
58D
100
AcDbEntity
  8
M0
 62
     7
100
AcDbLine
 10
87.502577
 20
423.308105
 11
86.202575
 21
423.308105
  0
ARC
  5
58E
100
AcDbEntity
  8
M0
 62
     7
100
AcDbCircle
 10
91.102575
 20
411.008104
 40
1.0
100
AcDbArc
 50
44.427004
 51
90.0
  0
LINE
  5
58F
100
AcDbEntity
  8
M0
 62
     7
100
AcDbLine
 10
104.102575
 20
412.008104
 11
102.902577
 21
412.008104
  0
ARC
  5
590
100
AcDbEntity
  8
M0
 62
     7
100
AcDbCircle
 10
112.302575
 20
377.608104
 40
1.0
100
AcDbArc
 50
224.427004
 51
270.0
  0
ARC
  5
591
100
AcDbEntity
  8
M0
 62
     7
100
AcDbCircle
 10
99.302575
 20
411.008104
 40
1.0
100
AcDbArc
 50
90.0
 51
135.572996
  0
LINE
  5
592
100
AcDbEntity
  8
M0
 62
     7
100
AcDbLine
 10
99.302575
 20
376.608104
 11
100.502573
 21
376.608104
  0
LINE
  5
593
100
AcDbEntity
  8
M0
 62
     7
100
AcDbLine
 10
91.102574
 20
376.608104
 11
89.902576
 21
376.608104
  0
LINE
  5
594
100
AcDbEntity
  8
M0
 62
     7
100
AcDbLine
 10
89.902576
 20
365.308105
 11
92.426857
 21
365.308105
  0
LINE
  5
595
100
AcDbEntity
  8
M0
 62
     7
100
AcDbLine
 10
67.002575
 20
420.008105
 11
73.002575
 21
420.008105
  0
LINE
  5
596
100
AcDbEntity
  8
M0
 62
     7
100
AcDbLine
 10
67.002575
 20
419.008105
 11
67.002575
 21
420.008105
  0
LINE
  5
597
100
AcDbEntity
  8
M0
 62
     7
100
AcDbLine
 10
73.002575
 20
420.008105
 11
73.002575
 21
419.008105
  0
ARC
  5
598
100
AcDbEntity
  8
M0
 62
     7
100
AcDbCircle
 10
104.102575
 20
411.008104
 40
1.0
100
AcDbArc
 50
44.427004
 51
90.0
  0
ARC
  5
599
100
AcDbEntity
  8
M0
 62
     7
100
AcDbCircle
 10
86.302575
 20
411.008104
 40
1.0
100
AcDbArc
 50
90.0
 51
135.572996
  0
ARC
  5
59A
100
AcDbEntity
  8
M0
 62
     7
100
AcDbCircle
 10
99.302575
 20
377.608104
 40
1.0
100
AcDbArc
 50
224.427004
 51
270.0
  0
ARC
  5
59B
100
AcDbEntity
  8
M0
 62
     7
100
AcDbCircle
 10
104.102575
 20
377.608104
 40
1.0
100
AcDbArc
 50
270.0
 51
315.572996
  0
ARC
  5
59C
100
AcDbEntity
  8
M0
 62
     7
100
AcDbCircle
 10
78.102575
 20
411.008104
 40
1.0
100
AcDbArc
 50
44.427004
 51
90.0
  0
ARC
  5
59D
100
AcDbEntity
  8
M0
 62
     7
100
AcDbCircle
 10
91.102575
 20
377.608104
 40
1.0
100
AcDbArc
 50
270.0
 51
315.572996
  0
LINE
  5
59E
100
AcDbEntity
  8
M0
 62
     7
100
AcDbLine
 10
73.002575
 20
368.608105
 11
67.002575
 21
368.608105
  0
LINE
  5
59F
100
AcDbEntity
  8
M0
 62
     7
100
AcDbLine
 10
73.002575
 20
369.608105
 11
73.002575
 21
368.608105
  0
LINE
  5
5A0
100
AcDbEntity
  8
M0
 62
     7
100
AcDbLine
 10
67.002575
 20
368.608105
 11
67.002575
 21
369.608105
  0
LINE
  5
5A1
100
AcDbEntity
  8
M0
 62
     7
100
AcDbLine
 10
111.920037
 20
438.226095
 11
111.921128
 21
438.189636
  0
LINE
  5
5A2
100
AcDbEntity
  8
M0
 62
     7
100
AcDbLine
 10
111.921128
 20
438.189636
 11
111.924377
 21
438.081356
  0
LINE
  5
5A3
100
AcDbEntity
  8
M0
 62
     7
100
AcDbLine
 10
111.924377
 20
438.081356
 11
111.929681
 21
437.904558
  0
LINE
  5
5A4
100
AcDbEntity
  8
M0
 62
     7
100
AcDbLine
 10
111.929681
 20
437.904558
 11
111.936879
 21
437.664604
  0
LINE
  5
5A5
100
AcDbEntity
  8
M0
 62
     7
100
AcDbLine
 10
111.936879
 20
437.664604
 11
111.941371
 21
437.5149
  0
LINE
  5
5A6
100
AcDbEntity
  8
M0
 62
     7
100
AcDbLine
 10
78.463778
 20
437.5149
 11
78.47298
 21
437.821622
  0
LINE
  5
5A7
100
AcDbEntity
  8
M0
 62
     7
100
AcDbLine
 10
78.47298
 20
437.821622
 11
78.479635
 21
438.043407
  0
LINE
  5
5A8
100
AcDbEntity
  8
M0
 62
     7
100
AcDbLine
 10
78.479635
 20
438.043407
 11
78.483731
 21
438.17998
  0
LINE
  5
5A9
100
AcDbEntity
  8
M0
 62
     7
100
AcDbLine
 10
78.483731
 20
438.17998
 11
78.485115
 21
438.226095
  0
LINE
  5
5AA
100
AcDbEntity
  8
M0
  6
DASHDOT
 62
     7
100
AcDbLine
 10
81.702575
 20
370.608104
 11
82.702575
 21
370.608104
  0
LINE
  5
5AB
100
AcDbEntity
  8
M0
  6
DASHDOT
 62
     7
100
AcDbLine
 10
82.202575
 20
370.108104
 11
82.202575
 21
371.108104
  0
LINE
  5
5AC
100
AcDbEntity
  8
M0
  6
DASHDOT
 62
     7
100
AcDbLine
 10
95.202572
 20
370.108104
 11
95.202572
 21
371.108104
  0
LINE
  5
5AD
100
AcDbEntity
  8
M0
  6
DASHDOT
 62
     7
100
AcDbLine
 10
94.702572
 20
370.608104
 11
95.702572
 21
370.608104
  0
LINE
  5
5AE
100
AcDbEntity
  8
M0
  6
DASHDOT
 62
     7
100
AcDbLine
 10
108.202572
 20
370.108104
 11
108.202572
 21
371.108104
  0
LINE
  5
5AF
100
AcDbEntity
  8
M0
  6
DASHDOT
 62
     7
100
AcDbLine
 10
107.702572
 20
370.608104
 11
108.702572
 21
370.608104
  0
LINE
  5
5B0
100
AcDbEntity
  8
M0
  6
DASHDOT
 62
     7
100
AcDbLine
 10
108.202572
 20
418.508104
 11
108.202572
 21
417.508104
  0
LINE
  5
5B1
100
AcDbEntity
  8
M0
  6
DASHDOT
 62
     7
100
AcDbLine
 10
107.702572
 20
418.008104
 11
108.702572
 21
418.008104
  0
LINE
  5
5B2
100
AcDbEntity
  8
M0
  6
DASHDOT
 62
     7
100
AcDbLine
 10
94.702572
 20
418.008104
 11
95.702572
 21
418.008104
  0
LINE
  5
5B3
100
AcDbEntity
  8
M0
  6
DASHDOT
 62
     7
100
AcDbLine
 10
82.202575
 20
418.508104
 11
82.202575
 21
417.508104
  0
LINE
  5
5B4
100
AcDbEntity
  8
M0
  6
DASHDOT
 62
     7
100
AcDbLine
 10
95.202572
 20
418.508104
 11
95.202572
 21
417.508104
  0
LINE
  5
5B5
100
AcDbEntity
  8
M0
  6
DASHDOT
 62
     7
100
AcDbLine
 10
81.702575
 20
418.008104
 11
82.702575
 21
418.008104
  0
LINE
  5
5B6
100
AcDbEntity
  8
M0
  6
DASHDOT
 62
     7
100
AcDbLine
 10
120.902575
 20
415.208104
 11
119.902575
 21
415.208104
  0
LINE
  5
5B7
100
AcDbEntity
  8
M0
  6
DASHDOT
 62
     7
100
AcDbLine
 10
120.402575
 20
414.708104
 11
120.402575
 21
415.708104
  0
LINE
  5
5B8
100
AcDbEntity
  8
M0
  6
DASHDOT
 62
     7
100
AcDbLine
 10
120.902575
 20
407.608104
 11
119.902575
 21
407.608104
  0
LINE
  5
5B9
100
AcDbEntity
  8
M0
  6
DASHDOT
 62
     7
100
AcDbLine
 10
120.402575
 20
407.108104
 11
120.402575
 21
408.108104
  0
LINE
  5
5BA
100
AcDbEntity
  8
M0
  6
DASHDOT
 62
     7
100
AcDbLine
 10
120.902575
 20
381.008104
 11
119.902575
 21
381.008104
  0
LINE
  5
5BB
100
AcDbEntity
  8
M0
  6
DASHDOT
 62
     7
100
AcDbLine
 10
120.402575
 20
380.508104
 11
120.402575
 21
381.508104
  0
LINE
  5
5BC
100
AcDbEntity
  8
M0
  6
DASHDOT
 62
     7
100
AcDbLine
 10
120.902575
 20
373.408104
 11
119.902575
 21
373.408104
  0
LINE
  5
5BD
100
AcDbEntity
  8
M0
  6
DASHDOT
 62
     7
100
AcDbLine
 10
120.402575
 20
372.908104
 11
120.402575
 21
373.908104
  0
LINE
  5
5BE
100
AcDbEntity
  8
M0
  6
DASHDOT
 62
     7
100
AcDbLine
 10
69.502575
 20
407.608104
 11
70.502575
 21
407.608104
  0
LINE
  5
5BF
100
AcDbEntity
  8
M0
  6
DASHDOT
 62
     7
100
AcDbLine
 10
70.002575
 20
407.108104
 11
70.002575
 21
408.108104
  0
LINE
  5
5C0
100
AcDbEntity
  8
M0
  6
DASHDOT
 62
     7
100
AcDbLine
 10
69.502575
 20
415.208104
 11
70.502575
 21
415.208104
  0
LINE
  5
5C1
100
AcDbEntity
  8
M0
  6
DASHDOT
 62
     7
100
AcDbLine
 10
70.002575
 20
414.708104
 11
70.002575
 21
415.708104
  0
LINE
  5
5C2
100
AcDbEntity
  8
M0
  6
DASHDOT
 62
     7
100
AcDbLine
 10
69.502575
 20
373.408104
 11
70.502575
 21
373.408104
  0
LINE
  5
5C3
100
AcDbEntity
  8
M0
  6
DASHDOT
 62
     7
100
AcDbLine
 10
70.002575
 20
372.908104
 11
70.002575
 21
373.908104
  0
LINE
  5
5C4
100
AcDbEntity
  8
M0
  6
DASHDOT
 62
     7
100
AcDbLine
 10
69.502575
 20
381.008104
 11
70.502575
 21
381.008104
  0
LINE
  5
5C5
100
AcDbEntity
  8
M0
  6
DASHDOT
 62
     7
100
AcDbLine
 10
70.002575
 20
380.508104
 11
70.002575
 21
381.508104
  0
LINE
  5
5C6
100
AcDbEntity
  8
M0
  6
DASHDOT
 62
     7
100
AcDbLine
 10
82.202575
 20
361.308104
 11
82.202575
 21
362.308104
  0
LINE
  5
5C7
100
AcDbEntity
  8
M0
  6
DASHDOT
 62
     7
100
AcDbLine
 10
105.602575
 20
432.908104
 11
106.602575
 21
432.908104
  0
LINE
  5
5C8
100
AcDbEntity
  8
M0
  6
DASHDOT
 62
     7
100
AcDbLine
 10
106.102575
 20
432.408104
 11
106.102575
 21
433.408104
  0
LINE
  5
5C9
100
AcDbEntity
  8
M0
  6
DASHDOT
 62
     7
100
AcDbLine
 10
84.802575
 20
432.908104
 11
83.802575
 21
432.908104
  0
LINE
  5
5CA
100
AcDbEntity
  8
M0
  6
DASHDOT
 62
     7
100
AcDbLine
 10
84.302575
 20
432.408104
 11
84.302575
 21
433.408104
  0
LINE
  5
5CB
100
AcDbEntity
  8
M0
 62
     7
100
AcDbLine
 10
117.202575
 20
364.808104
 11
117.902574
 21
364.808104
  0
LINE
  5
5CC
100
AcDbEntity
  8
M0
 62
     7
100
AcDbLine
 10
110.112555
 20
365.308105
 11
113.502574
 21
365.308105
  0
LINE
  5
5CD
100
AcDbEntity
  8
M0
 62
     7
100
AcDbLine
 10
91.900162
 20
358.808103
 11
90.202574
 21
358.808103
  0
LINE
  5
5CE
100
AcDbEntity
  8
M0
 62
     7
100
AcDbLine
 10
95.530669
 20
360.808103
 11
99.702575
 21
360.808103
  0
LINE
  5
5CF
100
AcDbEntity
  8
M0
 62
     7
100
AcDbLine
 10
92.372175
 20
361.808105
 11
89.902576
 21
361.808105
  0
LINE
  5
5D0
100
AcDbEntity
  8
M0
 62
     7
100
AcDbLine
 10
97.154257
 20
365.308105
 11
100.502573
 21
365.308105
  0
ARC
  5
5D1
100
AcDbEntity
  8
M0
 62
     7
100
AcDbCircle
 10
82.202575
 20
361.808104
 40
3.25
100
AcDbArc
 50
138.466946
 51
180.0
  0
LINE
  5
5D2
100
AcDbEntity
  8
M0
 62
     7
100
AcDbLine
 10
84.199176
 20
365.308105
 11
87.502577
 21
365.308105
  0
LINE
  5
5D3
100
AcDbEntity
  8
M0
 62
     7
100
AcDbLine
 10
82.078318
 20
358.808103
 11
86.202575
 21
358.808103
  0
LINE
  5
5D4
100
AcDbEntity
  8
M0
 62
     7
100
AcDbLine
 10
74.402575
 20
364.808104
 11
74.502575
 21
364.808104
  0
LINE
  5
5D5
100
AcDbEntity
  8
M0
 62
     7
100
AcDbLine
 10
73.202575
 20
358.808103
 11
68.802575
 21
358.808103
  0
LINE
  5
5D6
100
AcDbEntity
  8
M0
 62
     7
100
AcDbLine
 10
116.002575
 20
358.808103
 11
114.502575
 21
358.808103
  0
LINE
  5
5D7
100
AcDbEntity
  8
M0
 62
     7
100
AcDbLine
 10
77.202575
 20
423.308105
 11
76.902574
 21
423.308105
  0
LINE
  5
5D8
100
AcDbEntity
  8
M0
 62
     7
100
AcDbLine
 10
84.202575
 20
425.308103
 11
87.502577
 21
425.308103
  0
LINE
  5
5D9
100
AcDbEntity
  8
M0
 62
     7
100
AcDbLine
 10
92.102572
 20
428.808105
 11
90.902575
 21
428.808105
  0
LINE
  5
5DA
100
AcDbEntity
  8
M0
 62
     7
100
AcDbLine
 10
92.102572
 20
427.308104
 11
89.902576
 21
427.308104
  0
LINE
  5
5DB
100
AcDbEntity
  8
M0
 62
     7
100
AcDbLine
 10
98.302572
 20
425.308103
 11
100.502573
 21
425.308103
  0
LINE
  5
5DC
100
AcDbEntity
  8
M0
 62
     7
100
AcDbLine
 10
90.367156
 20
423.308105
 11
89.902576
 21
423.308105
  0
LINE
  5
5DD
100
AcDbEntity
  8
M0
 62
     7
100
AcDbLine
 10
103.367159
 20
423.308105
 11
102.902577
 21
423.308105
  0
LINE
  5
5DE
100
AcDbEntity
  8
M0
 62
     7
100
AcDbLine
 10
106.202575
 20
425.308103
 11
102.902577
 21
425.308103
  0
CIRCLE
  5
5DF
100
AcDbEntity
  8
M0
  6
DASHED
 62
     7
100
AcDbCircle
 10
70.002575
 20
381.008104
 40
3.0
  0
LINE
  5
5E0
100
AcDbEntity
  8
M0
  6
DASHED
 62
     7
100
AcDbLine
 10
71.593159
 20
379.417459
 11
68.411518
 21
382.599222
  0
LINE
  5
5E1
100
AcDbEntity
  8
M0
  6
DASHED
 62
     7
100
AcDbLine
 10
71.416401
 20
381.361795
 11
69.648823
 21
379.594217
  0
LINE
  5
5E2
100
AcDbEntity
  8
M0
  6
DASHED
 62
     7
100
AcDbLine
 10
70.355854
 20
382.422464
 11
68.588276
 21
380.654764
  0
LINE
  5
5E3
100
AcDbEntity
  8
M0
  6
DASHED
 62
     7
100
AcDbLine
 10
73.327575
 20
384.833104
 11
66.677575
 21
384.833104
  0
ARC
  5
5E4
100
AcDbEntity
  8
M0
  6
DASHED
 62
     7
100
AcDbCircle
 10
73.327575
 20
384.333104
 40
0.5
100
AcDbArc
 50
0.0
 51
90.0
  0
LINE
  5
5E5
100
AcDbEntity
  8
M0
  6
DASHED
 62
     7
100
AcDbLine
 10
73.827575
 20
377.683104
 11
73.827575
 21
384.333104
  0
ARC
  5
5E6
100
AcDbEntity
  8
M0
  6
DASHED
 62
     7
100
AcDbCircle
 10
73.327575
 20
377.683104
 40
0.5
100
AcDbArc
 50
270.0
 51
360.0
  0
LINE
  5
5E7
100
AcDbEntity
  8
M0
  6
DASHED
 62
     7
100
AcDbLine
 10
66.677575
 20
377.183104
 11
73.327575
 21
377.183104
  0
LINE
  5
5E8
100
AcDbEntity
  8
M0
  6
DASHED
 62
     7
100
AcDbLine
 10
66.177575
 20
384.333104
 11
66.177575
 21
377.683104
  0
ARC
  5
5E9
100
AcDbEntity
  8
M0
  6
DASHED
 62
     7
100
AcDbCircle
 10
66.677575
 20
384.333104
 40
0.5
100
AcDbArc
 50
90.0
 51
180.0
  0
ARC
  5
5EA
100
AcDbEntity
  8
M0
  6
DASHED
 62
     7
100
AcDbCircle
 10
66.677575
 20
377.683104
 40
0.5
100
AcDbArc
 50
180.0
 51
270.0
  0
LINE
  5
5EB
100
AcDbEntity
  8
M0
  6
DASHDOT
 62
     4
100
AcDbLine
 10
105.01206
 20
320.808104
 11
93.693197
 21
320.808104
  0
ARC
  5
5EC
100
AcDbEntity
  8
M0
 62
   154
100
AcDbCircle
 10
81.314389
 20
348.7638
 40
9.0
100
AcDbArc
 50
122.042201
 51
162.747898
  0
ARC
  5
5ED
100
AcDbEntity
  8
M0
 62
   154
100
AcDbCircle
 10
73.332745
 20
360.992694
 40
9.0
100
AcDbArc
 50
302.042201
 51
342.747898
  0
LINE
  5
5EE
100
AcDbEntity
  8
M0
 62
   154
100
AcDbLine
 10
83.968903
 20
364.895994
 11
81.927826
 21
358.323504
  0
LINE
  5
5EF
100
AcDbEntity
  8
M0
 62
   154
100
AcDbLine
 10
76.539495
 20
356.392718
 11
78.015613
 21
357.316611
  0
LINE
  5
5F0
100
AcDbEntity
  8
M0
 62
   154
100
AcDbLine
 10
76.631521
 20
352.439883
 11
78.107638
 21
353.363776
  0
LINE
  5
5F1
100
AcDbEntity
  8
M0
 62
   154
100
AcDbLine
 10
70.678231
 20
344.8605
 11
72.719308
 21
351.432989
  0
ARC
  5
5F2
100
AcDbEntity
  8
M0
 62
   154
100
AcDbCircle
 10
76.583145
 20
359.605286
 40
2.7
100
AcDbArc
 50
302.042201
 51
353.333467
  0
ARC
  5
5F3
100
AcDbEntity
  8
M0
 62
   154
100
AcDbCircle
 10
78.063989
 20
350.151208
 40
2.7
100
AcDbArc
 50
122.042201
 51
173.333467
  0
ARC
  5
5F4
100
AcDbEntity
  8
M0
 62
   154
100
AcDbCircle
 10
79.079332
 20
364.595442
 40
0.8
100
AcDbArc
 50
353.333467
 51
452.0
  0
LINE
  5
5F5
100
AcDbEntity
  8
M0
 62
   154
100
AcDbLine
 10
79.873923
 20
364.502569
 11
79.264889
 21
359.291841
  0
LINE
  5
5F6
100
AcDbEntity
  8
M0
 62
   154
100
AcDbLine
 10
74.773211
 20
345.253925
 11
75.382245
 21
350.464652
  0
LINE
  5
5F7
100
AcDbEntity
  8
M0
 62
   154
100
AcDbLine
 10
84.889012
 20
365.598808
 11
85.578613
 21
365.622889
  0
LINE
  5
5F8
100
AcDbEntity
  8
M0
 62
   154
100
AcDbLine
 10
79.051413
 20
365.394954
 11
78.682816
 21
365.382083
  0
ARC
  5
5F9
100
AcDbEntity
  8
M0
 62
   154
100
AcDbCircle
 10
84.923912
 20
364.599417
 40
1.0
100
AcDbArc
 50
92.0
 51
162.747898
  0
ARC
  5
5FA
100
AcDbEntity
  8
M0
 62
   154
100
AcDbCircle
 10
75.567801
 20
345.161052
 40
0.8
100
AcDbArc
 50
173.333467
 51
272.0
  0
LINE
  5
5FB
100
AcDbEntity
  8
M0
 62
   154
100
AcDbLine
 10
75.595721
 20
344.361539
 11
75.964317
 21
344.374411
  0
LINE
  5
5FC
100
AcDbEntity
  8
M0
 62
   154
100
AcDbLine
 10
69.758122
 20
344.157686
 11
69.068521
 21
344.133605
  0
ARC
  5
5FD
100
AcDbEntity
  8
M0
 62
   154
100
AcDbCircle
 10
69.723222
 20
345.157077
 40
1.0
100
AcDbArc
 50
272.0
 51
342.747898
  0
ARC
  5
5FE
100
AcDbEntity
  8
M0
 62
   154
100
AcDbCircle
 10
69.10342
 20
343.134214
 40
1.0
100
AcDbArc
 50
92.0
 51
182.0
  0
ARC
  5
5FF
100
AcDbEntity
  8
M0
 62
   154
100
AcDbCircle
 10
85.543714
 20
366.62228
 40
1.0
100
AcDbArc
 50
272.0
 51
362.0
  0
LINE
  5
600
100
AcDbEntity
  8
M0
 62
   154
100
AcDbLine
 10
86.291828
 20
373.852793
 11
86.543104
 21
366.657179
  0
LINE
  5
601
100
AcDbEntity
  8
M0
 62
   154
100
AcDbLine
 10
77.896945
 20
373.559638
 11
78.165671
 21
365.864328
  0
LINE
  5
602
100
AcDbEntity
  8
M0
 62
   154
100
AcDbLine
 10
78.861436
 20
374.593928
 11
85.257538
 21
374.817285
  0
ARC
  5
603
100
AcDbEntity
  8
M0
 62
   154
100
AcDbCircle
 10
78.665367
 20
365.881778
 40
0.5
100
AcDbArc
 50
182.0
 51
272.0
  0
ARC
  5
604
100
AcDbEntity
  8
M0
 62
   154
100
AcDbCircle
 10
75.981767
 20
343.874716
 40
0.5
100
AcDbArc
 50
2.0
 51
92.0
  0
LINE
  5
605
100
AcDbEntity
  8
M0
 62
   154
100
AcDbLine
 10
76.750189
 20
336.196856
 11
76.481463
 21
343.892165
  0
LINE
  5
606
100
AcDbEntity
  8
M0
 62
   154
100
AcDbLine
 10
68.355306
 20
335.9037
 11
68.104029
 21
343.099314
  0
ARC
  5
607
100
AcDbEntity
  8
M0
 62
   154
100
AcDbCircle
 10
69.354697
 20
335.9386
 40
1.0
100
AcDbArc
 50
182.0
 51
219.089724
  0
ARC
  5
608
100
AcDbEntity
  8
M0
 62
   154
100
AcDbCircle
 10
75.750798
 20
336.161957
 40
1.0
100
AcDbArc
 50
312.028533
 51
362.0
  0
ARC
  5
609
100
AcDbEntity
  8
M0
 62
   154
100
AcDbCircle
 10
78.896336
 20
373.594537
 40
1.0
100
AcDbArc
 50
92.0
 51
182.0
  0
ARC
  5
60A
100
AcDbEntity
  8
M0
 62
   154
100
AcDbCircle
 10
85.292437
 20
373.817894
 40
1.0
100
AcDbArc
 50
2.0
 51
92.0
  0
ARC
  5
60B
100
AcDbEntity
  8
M0
 62
     6
100
AcDbCircle
 10
119.853811
 20
315.80786
 40
2.999997
100
AcDbArc
 50
115.844051
 51
424.156194
  0
LINE
  5
60C
100
AcDbEntity
  8
M0
 62
     6
100
AcDbLine
 10
116.756323
 20
319.305663
 11
116.078664
 21
317.107909
  0
LINE
  5
60D
100
AcDbEntity
  8
M0
 62
     6
100
AcDbLine
 10
116.894827
 20
311.860609
 11
116.078664
 21
314.507933
  0
LINE
  5
60E
100
AcDbEntity
  8
M0
 62
     6
100
AcDbLine
 10
122.949636
 20
319.309813
 11
123.628713
 21
317.107909
  0
LINE
  5
60F
100
AcDbEntity
  8
M0
 62
     6
100
AcDbLine
 10
122.812307
 20
311.860594
 11
123.628713
 21
314.507933
  0
LINE
  5
610
100
AcDbEntity
  8
M0
 62
     6
100
AcDbLine
 10
117.372854
 20
311.507933
 11
122.334524
 21
311.507933
  0
LINE
  5
611
100
AcDbEntity
  8
M0
 62
     6
100
AcDbLine
 10
123.628713
 20
314.507933
 11
123.628713
 21
317.107909
  0
LINE
  5
612
100
AcDbEntity
  8
M0
 62
     6
100
AcDbLine
 10
116.078664
 20
317.107909
 11
116.078664
 21
314.507933
  0
LINE
  5
613
100
AcDbEntity
  8
M0
 62
     6
100
AcDbLine
 10
121.444387
 20
314.21704
 11
118.262747
 21
317.398802
  0
LINE
  5
614
100
AcDbEntity
  8
M0
 62
     6
100
AcDbLine
 10
120.207082
 20
317.222044
 11
118.439504
 21
315.454344
  0
LINE
  5
615
100
AcDbEntity
  8
M0
 62
     6
100
AcDbLine
 10
121.267629
 20
316.161375
 11
119.500051
 21
314.393797
  0
ARC
  5
616
100
AcDbEntity
  8
M0
 62
     6
100
AcDbCircle
 10
117.372854
 20
312.007933
 40
0.5
100
AcDbArc
 50
197.128737
 51
270.0
  0
ARC
  5
617
100
AcDbEntity
  8
M0
 62
     6
100
AcDbCircle
 10
122.334524
 20
312.007933
 40
0.5
100
AcDbArc
 50
270.0
 51
342.861308
  0
LINE
  5
618
100
AcDbEntity
  8
M0
  6
DASHDOT
 62
     6
100
AcDbLine
 10
119.353811
 20
315.80786
 11
120.353811
 21
315.80786
  0
LINE
  5
619
100
AcDbEntity
  8
M0
  6
DASHDOT
 62
     6
100
AcDbLine
 10
119.853811
 20
315.30786
 11
119.853811
 21
316.30786
  0
LINE
  5
61A
100
AcDbEntity
  8
M0
 62
     2
100
AcDbLine
 10
96.391699
 20
341.26895
 11
98.236547
 21
339.424117
  0
LINE
  5
61B
100
AcDbEntity
  8
M0
 62
     2
100
AcDbLine
 10
98.363424
 20
342.02606
 11
95.788351
 21
339.450987
  0
LINE
  5
61C
100
AcDbEntity
  8
M0
 62
     2
100
AcDbLine
 10
99.070532
 20
341.318953
 11
96.495458
 21
338.74388
  0
CIRCLE
  5
61D
100
AcDbEntity
  8
M0
 62
     2
100
AcDbCircle
 10
97.352575
 20
340.308104
 40
3.499993
  0
LINE
  5
61E
100
AcDbEntity
  8
M0
  6
DASHDOT
 62
     2
100
AcDbLine
 10
96.852575
 20
340.308104
 11
97.852575
 21
340.308104
  0
LINE
  5
61F
100
AcDbEntity
  8
M0
  6
DASHDOT
 62
     2
100
AcDbLine
 10
97.352575
 20
339.808104
 11
97.352575
 21
340.808104
  0
LINE
  5
620
100
AcDbEntity
  8
M0
100
AcDbLine
 10
115.202688
 20
344.658104
 11
119.202688
 21
344.658104
  0
LINE
  5
621
100
AcDbEntity
  8
M0
100
AcDbLine
 10
119.202688
 20
344.658104
 11
119.202688
 21
347.458104
  0
LINE
  5
622
100
AcDbEntity
  8
M0
100
AcDbLine
 10
119.202688
 20
347.458104
 11
115.202688
 21
347.458104
  0
LINE
  5
623
100
AcDbEntity
  8
M0
100
AcDbLine
 10
115.202688
 20
347.458104
 11
115.202688
 21
344.658104
  0
CIRCLE
  5
624
100
AcDbEntity
  8
M0
 62
     6
100
AcDbCircle
 10
119.852606
 20
322.80786
 40
2.999997
  0
LINE
  5
625
100
AcDbEntity
  8
M0
 62
     6
100
AcDbLine
 10
116.937552
 20
326.897888
 11
116.077459
 21
324.107909
  0
LINE
  5
626
100
AcDbEntity
  8
M0
 62
     6
100
AcDbLine
 10
116.893621
 20
318.860609
 11
116.077459
 21
321.507933
  0
LINE
  5
627
100
AcDbEntity
  8
M0
 62
     6
100
AcDbLine
 10
122.845525
 20
326.643563
 11
123.627508
 21
324.107909
  0
LINE
  5
628
100
AcDbEntity
  8
M0
 62
     6
100
AcDbLine
 10
122.811102
 20
318.860594
 11
123.627508
 21
321.507933
  0
LINE
  5
629
100
AcDbEntity
  8
M0
 62
     6
100
AcDbLine
 10
117.371648
 20
318.507933
 11
122.333318
 21
318.507933
  0
LINE
  5
62A
100
AcDbEntity
  8
M0
 62
     6
100
AcDbLine
 10
123.627508
 20
321.507933
 11
123.627508
 21
324.107909
  0
LINE
  5
62B
100
AcDbEntity
  8
M0
 62
     6
100
AcDbLine
 10
116.077459
 20
324.107909
 11
116.077459
 21
321.507933
  0
LINE
  5
62C
100
AcDbEntity
  8
M0
 62
     6
100
AcDbLine
 10
121.443182
 20
321.21704
 11
118.261541
 21
324.398802
  0
LINE
  5
62D
100
AcDbEntity
  8
M0
 62
     6
100
AcDbLine
 10
120.205877
 20
324.222044
 11
118.438299
 21
322.454344
  0
LINE
  5
62E
100
AcDbEntity
  8
M0
 62
     6
100
AcDbLine
 10
121.266424
 20
323.161375
 11
119.498846
 21
321.393797
  0
ARC
  5
62F
100
AcDbEntity
  8
M0
 62
     6
100
AcDbCircle
 10
117.371648
 20
319.007933
 40
0.5
100
AcDbArc
 50
197.128737
 51
270.0
  0
ARC
  5
630
100
AcDbEntity
  8
M0
 62
     6
100
AcDbCircle
 10
122.333318
 20
319.007933
 40
0.5
100
AcDbArc
 50
270.0
 51
342.861308
  0
LINE
  5
631
100
AcDbEntity
  8
M0
  6
DASHDOT
 62
     6
100
AcDbLine
 10
119.352606
 20
322.80786
 11
120.352606
 21
322.80786
  0
LINE
  5
632
100
AcDbEntity
  8
M0
  6
DASHDOT
 62
     6
100
AcDbLine
 10
119.852606
 20
322.30786
 11
119.852606
 21
323.30786
  0
LINE
  5
633
100
AcDbEntity
  8
M0
 62
     2
100
AcDbLine
 10
71.391744
 20
341.26895
 11
73.236593
 21
339.424117
  0
LINE
  5
634
100
AcDbEntity
  8
M0
 62
     2
100
AcDbLine
 10
73.36347
 20
342.02606
 11
70.788397
 21
339.450987
  0
LINE
  5
635
100
AcDbEntity
  8
M0
 62
     2
100
AcDbLine
 10
74.070577
 20
341.318953
 11
71.495504
 21
338.74388
  0
CIRCLE
  5
636
100
AcDbEntity
  8
M0
 62
     2
100
AcDbCircle
 10
72.352621
 20
340.308104
 40
3.499993
  0
LINE
  5
637
100
AcDbEntity
  8
M0
  6
DASHDOT
 62
     2
100
AcDbLine
 10
71.852621
 20
340.308104
 11
72.852621
 21
340.308104
  0
LINE
  5
638
100
AcDbEntity
  8
M0
  6
DASHDOT
 62
     2
100
AcDbLine
 10
72.352621
 20
339.808104
 11
72.352621
 21
340.808104
  0
CIRCLE
  5
639
100
AcDbEntity
  8
M0
 62
     7
100
AcDbCircle
 10
120.402575
 20
381.008104
 40
3.0
  0
LINE
  5
63A
100
AcDbEntity
  8
M0
 62
     7
100
AcDbLine
 10
121.993158
 20
379.417459
 11
118.811518
 21
382.599222
  0
LINE
  5
63B
100
AcDbEntity
  8
M0
 62
     7
100
AcDbLine
 10
121.816401
 20
381.361795
 11
120.048823
 21
379.594217
  0
LINE
  5
63C
100
AcDbEntity
  8
M0
 62
     7
100
AcDbLine
 10
120.755854
 20
382.422464
 11
118.988276
 21
380.654764
  0
LINE
  5
63D
100
AcDbEntity
  8
M0
 62
     7
100
AcDbLine
 10
123.727575
 20
384.833104
 11
117.077575
 21
384.833104
  0
ARC
  5
63E
100
AcDbEntity
  8
M0
 62
     7
100
AcDbCircle
 10
123.727575
 20
384.333104
 40
0.5
100
AcDbArc
 50
0.0
 51
90.0
  0
LINE
  5
63F
100
AcDbEntity
  8
M0
 62
     7
100
AcDbLine
 10
124.227575
 20
377.683104
 11
124.227575
 21
384.333104
  0
ARC
  5
640
100
AcDbEntity
  8
M0
 62
     7
100
AcDbCircle
 10
123.727575
 20
377.683104
 40
0.5
100
AcDbArc
 50
270.0
 51
360.0
  0
LINE
  5
641
100
AcDbEntity
  8
M0
 62
     7
100
AcDbLine
 10
117.077575
 20
377.183104
 11
123.727575
 21
377.183104
  0
LINE
  5
642
100
AcDbEntity
  8
M0
 62
     7
100
AcDbLine
 10
116.577575
 20
384.333104
 11
116.577575
 21
377.683104
  0
ARC
  5
643
100
AcDbEntity
  8
M0
 62
     7
100
AcDbCircle
 10
117.077575
 20
384.333104
 40
0.5
100
AcDbArc
 50
90.0
 51
180.0
  0
ARC
  5
644
100
AcDbEntity
  8
M0
 62
     7
100
AcDbCircle
 10
117.077575
 20
377.683104
 40
0.5
100
AcDbArc
 50
180.0
 51
270.0
  0
CIRCLE
  5
645
100
AcDbEntity
  8
M0
  6
DASHED
 62
     7
100
AcDbCircle
 10
70.002575
 20
407.608104
 40
3.0
  0
LINE
  5
646
100
AcDbEntity
  8
M0
  6
DASHED
 62
     7
100
AcDbLine
 10
71.593159
 20
406.017459
 11
68.411518
 21
409.199222
  0
LINE
  5
647
100
AcDbEntity
  8
M0
  6
DASHED
 62
     7
100
AcDbLine
 10
71.416401
 20
407.961795
 11
69.648823
 21
406.194217
  0
LINE
  5
648
100
AcDbEntity
  8
M0
  6
DASHED
 62
     7
100
AcDbLine
 10
70.355854
 20
409.022464
 11
68.588276
 21
407.254764
  0
LINE
  5
649
100
AcDbEntity
  8
M0
  6
DASHED
 62
     7
100
AcDbLine
 10
73.327575
 20
411.433104
 11
66.677575
 21
411.433104
  0
ARC
  5
64A
100
AcDbEntity
  8
M0
  6
DASHED
 62
     7
100
AcDbCircle
 10
73.327575
 20
410.933104
 40
0.5
100
AcDbArc
 50
0.0
 51
90.0
  0
LINE
  5
64B
100
AcDbEntity
  8
M0
  6
DASHED
 62
     7
100
AcDbLine
 10
73.827575
 20
404.283104
 11
73.827575
 21
410.933104
  0
ARC
  5
64C
100
AcDbEntity
  8
M0
  6
DASHED
 62
     7
100
AcDbCircle
 10
73.327575
 20
404.283104
 40
0.5
100
AcDbArc
 50
270.0
 51
360.0
  0
LINE
  5
64D
100
AcDbEntity
  8
M0
  6
DASHED
 62
     7
100
AcDbLine
 10
66.677575
 20
403.783104
 11
73.327575
 21
403.783104
  0
LINE
  5
64E
100
AcDbEntity
  8
M0
  6
DASHED
 62
     7
100
AcDbLine
 10
66.177575
 20
410.933104
 11
66.177575
 21
404.283104
  0
ARC
  5
64F
100
AcDbEntity
  8
M0
  6
DASHED
 62
     7
100
AcDbCircle
 10
66.677575
 20
410.933104
 40
0.5
100
AcDbArc
 50
90.0
 51
180.0
  0
ARC
  5
650
100
AcDbEntity
  8
M0
  6
DASHED
 62
     7
100
AcDbCircle
 10
66.677575
 20
404.283104
 40
0.5
100
AcDbArc
 50
180.0
 51
270.0
  0
LINE
  5
651
100
AcDbEntity
  8
M0
 62
     7
100
AcDbLine
 10
108.502575
 20
360.408104
 11
108.502575
 21
360.804465
  0
ARC
  5
652
100
AcDbEntity
  8
M0
 62
     7
100
AcDbCircle
 10
109.227575
 20
362.833104
 40
0.725
100
AcDbArc
 50
238.778636
 51
270.0
  0
ARC
  5
653
100
AcDbEntity
  8
M0
 62
     7
100
AcDbCircle
 10
109.227575
 20
360.783104
 40
0.725
100
AcDbArc
 50
90.0
 51
180.0
  0
LINE
  5
654
100
AcDbEntity
  8
M0
 62
     7
100
AcDbLine
 10
109.227575
 20
361.508104
 11
109.627575
 21
361.508104
  0
LINE
  5
655
100
AcDbEntity
  8
M0
 62
     7
100
AcDbLine
 10
109.227575
 20
362.108104
 11
109.627575
 21
362.108104
  0
LINE
  5
656
100
AcDbEntity
  8
M0
 62
     7
100
AcDbLine
 10
108.221365
 20
360.408104
 11
108.502575
 21
360.408104
  0
LINE
  5
657
100
AcDbEntity
  8
M0
 62
     7
100
AcDbLine
 10
109.627575
 20
362.108104
 11
109.627575
 21
361.508104
  0
ARC
  5
658
100
AcDbEntity
  8
M0
 62
     7
100
AcDbCircle
 10
108.202575
 20
361.808104
 40
2.75
100
AcDbArc
 50
260.786456
 51
420.70934
  0
LINE
  5
659
100
AcDbEntity
  8
M0
 62
     7
100
AcDbLine
 10
85.893158
 20
431.317459
 11
82.711518
 21
434.499222
  0
LINE
  5
65A
100
AcDbEntity
  8
M0
 62
     7
100
AcDbLine
 10
85.716401
 20
433.261795
 11
83.948823
 21
431.494217
  0
LINE
  5
65B
100
AcDbEntity
  8
M0
 62
     7
100
AcDbLine
 10
84.655854
 20
434.322464
 11
82.888276
 21
432.554764
  0
LINE
  5
65C
100
AcDbEntity
  8
M0
 62
     7
100
AcDbLine
 10
87.627575
 20
436.733104
 11
80.977575
 21
436.733104
  0
ARC
  5
65D
100
AcDbEntity
  8
M0
 62
     7
100
AcDbCircle
 10
87.627575
 20
436.233104
 40
0.5
100
AcDbArc
 50
0.0
 51
90.0
  0
LINE
  5
65E
100
AcDbEntity
  8
M0
 62
     7
100
AcDbLine
 10
88.127575
 20
429.583104
 11
88.127575
 21
436.233104
  0
ARC
  5
65F
100
AcDbEntity
  8
M0
 62
     7
100
AcDbCircle
 10
87.627575
 20
429.583104
 40
0.5
100
AcDbArc
 50
270.0
 51
360.0
  0
LINE
  5
660
100
AcDbEntity
  8
M0
 62
     7
100
AcDbLine
 10
83.48044
 20
429.083104
 11
87.627575
 21
429.083104
  0
LINE
  5
661
100
AcDbEntity
  8
M0
 62
     7
100
AcDbLine
 10
80.477575
 20
436.233104
 11
80.477575
 21
433.969122
  0
ARC
  5
662
100
AcDbEntity
  8
M0
 62
     7
100
AcDbCircle
 10
80.977575
 20
436.233104
 40
0.5
100
AcDbArc
 50
90.0
 51
180.0
  0
ARC
  5
663
100
AcDbEntity
  8
M0
 62
     7
100
AcDbCircle
 10
84.302575
 20
432.908104
 40
3.0
100
AcDbArc
 50
237.275263
 51
545.873119
  0
ARC
  5
664
100
AcDbEntity
  8
M0
 62
     4
100
AcDbCircle
 10
114.853629
 20
307.807902
 40
1.0
100
AcDbArc
 50
179.9998
 51
270.0
  0
ARC
  5
665
100
AcDbEntity
  8
M0
 62
     4
100
AcDbCircle
 10
114.853629
 20
307.807902
 40
1.0
100
AcDbArc
 50
270.0
 51
359.9998
  0
LINE
  5
666
100
AcDbEntity
  8
M0
 62
     4
100
AcDbLine
 10
105.853659
 20
307.807933
 11
102.853659
 21
307.807944
  0
ARC
  5
667
100
AcDbEntity
  8
M0
 62
     4
100
AcDbCircle
 10
83.103807
 20
350.108
 40
1.0
100
AcDbArc
 50
0.0
 51
89.998926
  0
LINE
  5
668
100
AcDbEntity
  8
M0
 62
     4
100
AcDbLine
 10
126.853755
 20
348.30786
 11
100.194565
 21
348.307846
  0
LINE
  5
669
100
AcDbEntity
  8
M0
 62
     4
100
AcDbLine
 10
64.35379
 20
349.607784
 11
64.353667
 21
314.307986
  0
LINE
  5
66A
100
AcDbEntity
  8
M0
 62
     4
100
AcDbLine
 10
105.853658
 20
311.807933
 11
106.910955
 21
311.807929
  0
LINE
  5
66B
100
AcDbEntity
  8
M0
 62
     4
100
AcDbLine
 10
126.853634
 20
309.30786
 11
126.85378
 21
351.30786
  0
LINE
  5
66C
100
AcDbEntity
  8
M0
 62
     4
100
AcDbLine
 10
122.998759
 20
343.807873
 11
111.70516
 21
343.807913
  0
LINE
  5
66D
100
AcDbEntity
  8
M0
 62
     4
100
AcDbLine
 10
89.853691
 20
316.807989
 11
89.853807
 21
350.307989
  0
LINE
  5
66E
100
AcDbEntity
  8
M0
 62
     4
100
AcDbLine
 10
92.353691
 20
316.80798
 11
92.353807
 21
350.30798
  0
LINE
  5
66F
100
AcDbEntity
  8
M0
 62
     4
100
AcDbLine
 10
79.853691
 20
316.808024
 11
79.853807
 21
350.308024
  0
LINE
  5
670
100
AcDbEntity
  8
M0
 62
     4
100
AcDbLine
 10
77.353691
 20
316.808033
 11
77.353807
 21
350.308033
  0
LINE
  5
671
100
AcDbEntity
  8
M0
 62
     4
100
AcDbLine
 10
91.353811
 20
351.307984
 11
90.853811
 21
351.307985
  0
ARC
  5
672
100
AcDbEntity
  8
M0
 62
     4
100
AcDbCircle
 10
91.353807
 20
350.307984
 40
1.0
100
AcDbArc
 50
359.9998
 51
449.998926
  0
LINE
  5
673
100
AcDbEntity
  8
M0
 62
     4
100
AcDbLine
 10
83.103795
 20
351.108013
 11
79.45374
 21
351.107999
  0
ARC
  5
674
100
AcDbEntity
  8
M0
 62
     4
100
AcDbCircle
 10
90.853807
 20
350.307985
 40
1.0
100
AcDbArc
 50
89.998926
 51
179.9998
  0
LINE
  5
675
100
AcDbEntity
  8
M0
 62
     4
100
AcDbLine
 10
100.853739
 20
330.807951
 11
93.853739
 21
330.807975
  0
LINE
  5
676
100
AcDbEntity
  8
M0
 62
     4
100
AcDbLine
 10
100.853755
 20
335.307951
 11
93.853755
 21
335.307975
  0
LINE
  5
677
100
AcDbEntity
  8
M0
 62
     4
100
AcDbLine
 10
100.853748
 20
333.307951
 11
93.853748
 21
333.307975
  0
LINE
  5
678
100
AcDbEntity
  8
M0
 62
     4
100
AcDbLine
 10
94.353755
 20
335.307973
 11
94.353755
 21
335.408104
  0
LINE
  5
679
100
AcDbEntity
  8
M0
 62
     4
100
AcDbLine
 10
100.353755
 20
335.307952
 11
100.353755
 21
335.408104
  0
LINE
  5
67A
100
AcDbEntity
  8
M0
 62
     4
100
AcDbLine
 10
94.853788
 20
344.608104
 11
94.8538
 21
348.307971
  0
LINE
  5
67B
100
AcDbEntity
  8
M0
 62
     4
100
AcDbLine
 10
82.353787
 20
344.381405
 11
82.3538
 21
348.308015
  0
LINE
  5
67C
100
AcDbEntity
  8
M0
 62
     4
100
AcDbLine
 10
69.853786
 20
344.165637
 11
69.8538
 21
348.308059
  0
LINE
  5
67D
100
AcDbEntity
  8
M0
 62
     4
100
AcDbLine
 10
74.853788
 20
344.80024
 11
74.853792
 21
345.943359
  0
LINE
  5
67E
100
AcDbEntity
  8
M0
 62
     4
100
AcDbLine
 10
94.8538
 20
348.307971
 11
92.3538
 21
348.30798
  0
LINE
  5
67F
100
AcDbEntity
  8
M0
 62
     4
100
AcDbLine
 10
82.3538
 20
348.308015
 11
79.8538
 21
348.308024
  0
LINE
  5
680
100
AcDbEntity
  8
M0
 62
     4
100
AcDbLine
 10
69.8538
 20
348.308059
 11
67.3538
 21
348.308067
  0
LINE
  5
681
100
AcDbEntity
  8
M0
 62
     4
100
AcDbLine
 10
88.353755
 20
335.307994
 11
81.353755
 21
335.308019
  0
LINE
  5
682
100
AcDbEntity
  8
M0
 62
     4
100
AcDbLine
 10
75.853755
 20
335.308038
 11
68.853755
 21
335.308062
  0
LINE
  5
683
100
AcDbEntity
  8
M0
 62
     4
100
AcDbLine
 10
101.853759
 20
336.307947
 11
101.853797
 21
347.307947
  0
LINE
  5
684
100
AcDbEntity
  8
M0
 62
     4
100
AcDbLine
 10
92.853759
 20
336.307978
 11
92.853797
 21
347.307978
  0
LINE
  5
685
100
AcDbEntity
  8
M0
 62
     4
100
AcDbLine
 10
89.353759
 20
336.307991
 11
89.353797
 21
347.307991
  0
LINE
  5
686
100
AcDbEntity
  8
M0
 62
     4
100
AcDbLine
 10
80.353759
 20
336.308022
 11
80.353797
 21
347.308022
  0
LINE
  5
687
100
AcDbEntity
  8
M0
 62
     4
100
AcDbLine
 10
76.853759
 20
336.308034
 11
76.853797
 21
347.308034
  0
LINE
  5
688
100
AcDbEntity
  8
M0
 62
     4
100
AcDbLine
 10
67.853759
 20
336.308066
 11
67.853797
 21
347.308066
  0
LINE
  5
689
100
AcDbEntity
  8
M0
 62
     4
100
AcDbLine
 10
89.8538
 20
348.307989
 11
87.655785
 21
348.307975
  0
LINE
  5
68A
100
AcDbEntity
  8
M0
 62
     4
100
AcDbLine
 10
77.3538
 20
348.308033
 11
75.130176
 21
348.30802
  0
LINE
  5
68B
100
AcDbEntity
  8
M0
 62
     4
100
AcDbLine
 10
102.353678
 20
313.307945
 11
102.353693
 21
326.107872
  0
ARC
  5
68C
100
AcDbEntity
  8
M0
 62
     4
100
AcDbCircle
 10
102.853797
 20
347.307944
 40
1.0
100
AcDbArc
 50
119.999001
 51
179.9998
  0
ARC
  5
68D
100
AcDbEntity
  8
M0
 62
     4
100
AcDbCircle
 10
90.353797
 20
347.307987
 40
1.0
100
AcDbArc
 50
119.999001
 51
179.9998
  0
ARC
  5
68E
100
AcDbEntity
  8
M0
 62
     4
100
AcDbCircle
 10
77.853797
 20
347.308031
 40
1.0
100
AcDbArc
 50
119.999001
 51
179.9998
  0
ARC
  5
68F
100
AcDbEntity
  8
M0
 62
     4
100
AcDbCircle
 10
91.853797
 20
347.307982
 40
1.0
100
AcDbArc
 50
359.9998
 51
419.999842
  0
ARC
  5
690
100
AcDbEntity
  8
M0
 62
     4
100
AcDbCircle
 10
79.353797
 20
347.308026
 40
1.0
100
AcDbArc
 50
359.9998
 51
419.999842
  0
LINE
  5
691
100
AcDbEntity
  8
M0
 62
     4
100
AcDbLine
 10
67.353759
 20
336.308067
 11
67.3538
 21
348.308067
  0
ARC
  5
692
100
AcDbEntity
  8
M0
 62
     4
100
AcDbCircle
 10
66.853797
 20
347.308069
 40
1.0
100
AcDbArc
 50
359.9998
 51
419.999842
  0
ARC
  5
693
100
AcDbEntity
  8
M0
 62
     4
100
AcDbCircle
 10
75.603822
 20
350.108039
 40
1.0
100
AcDbArc
 50
89.998926
 51
93.750712
  0
ARC
  5
694
100
AcDbEntity
  8
M0
 62
     4
100
AcDbCircle
 10
78.853807
 20
350.308027
 40
1.0
100
AcDbArc
 50
359.9998
 51
449.998926
  0
ARC
  5
695
100
AcDbEntity
  8
M0
 62
     4
100
AcDbCircle
 10
78.353807
 20
350.308029
 40
1.0
100
AcDbArc
 50
89.998926
 51
179.9998
  0
LINE
  5
696
100
AcDbEntity
  8
M0
 62
     4
100
AcDbLine
 10
77.35382
 20
349.607759
 11
75.282089
 21
349.607748
  0
LINE
  5
697
100
AcDbEntity
  8
M0
 62
     4
100
AcDbLine
 10
75.853748
 20
333.308038
 11
64.353718
 21
333.308078
  0
LINE
  5
698
100
AcDbEntity
  8
M0
 62
     4
100
AcDbLine
 10
88.353748
 20
333.307994
 11
81.353748
 21
333.308019
  0
ARC
  5
699
100
AcDbEntity
  8
M0
 62
     4
100
AcDbCircle
 10
88.35376
 20
336.807994
 40
1.499996
100
AcDbArc
 50
270.0
 51
359.9998
  0
ARC
  5
69A
100
AcDbEntity
  8
M0
 62
     4
100
AcDbCircle
 10
75.85376
 20
336.808038
 40
1.499996
100
AcDbArc
 50
270.0
 51
359.9998
  0
ARC
  5
69B
100
AcDbEntity
  8
M0
 62
     4
100
AcDbCircle
 10
75.853759
 20
336.308038
 40
1.0
100
AcDbArc
 50
270.0
 51
359.9998
  0
ARC
  5
69C
100
AcDbEntity
  8
M0
 62
     4
100
AcDbCircle
 10
88.353759
 20
336.307994
 40
1.0
100
AcDbArc
 50
270.0
 51
359.9998
  0
ARC
  5
69D
100
AcDbEntity
  8
M0
 62
     4
100
AcDbCircle
 10
100.85376
 20
336.807951
 40
1.499996
100
AcDbArc
 50
270.0
 51
359.9998
  0
ARC
  5
69E
100
AcDbEntity
  8
M0
 62
     4
100
AcDbCircle
 10
100.853759
 20
336.307951
 40
1.0
100
AcDbArc
 50
270.0
 51
359.9998
  0
ARC
  5
69F
100
AcDbEntity
  8
M0
 62
     4
100
AcDbCircle
 10
93.85376
 20
336.807975
 40
1.499996
100
AcDbArc
 50
179.9998
 51
270.0
  0
ARC
  5
6A0
100
AcDbEntity
  8
M0
 62
     4
100
AcDbCircle
 10
81.35376
 20
336.808019
 40
1.499996
100
AcDbArc
 50
179.9998
 51
270.0
  0
ARC
  5
6A1
100
AcDbEntity
  8
M0
 62
     4
100
AcDbCircle
 10
93.853759
 20
336.307975
 40
1.0
100
AcDbArc
 50
179.9998
 51
270.0
  0
ARC
  5
6A2
100
AcDbEntity
  8
M0
 62
     4
100
AcDbCircle
 10
81.353759
 20
336.308019
 40
1.0
100
AcDbArc
 50
179.9998
 51
270.0
  0
ARC
  5
6A3
100
AcDbEntity
  8
M0
 62
     4
100
AcDbCircle
 10
68.853759
 20
336.308062
 40
1.0
100
AcDbArc
 50
179.9998
 51
270.0
  0
ARC
  5
6A4
100
AcDbEntity
  8
M0
 62
     4
100
AcDbCircle
 10
68.85376
 20
336.808062
 40
1.499996
100
AcDbArc
 50
179.9998
 51
270.0
  0
ARC
  5
6A5
100
AcDbEntity
  8
M0
 62
     4
100
AcDbCircle
 10
66.353759
 20
336.308071
 40
1.0
100
AcDbArc
 50
270.0
 51
359.9998
  0
LINE
  5
6A6
100
AcDbEntity
  8
M0
 62
     4
100
AcDbLine
 10
66.353755
 20
335.308071
 11
64.353725
 21
335.308078
  0
LINE
  5
6A7
100
AcDbEntity
  8
M0
 62
     4
100
AcDbLine
 10
102.353705
 20
320.807945
 11
92.353705
 21
320.80798
  0
LINE
  5
6A8
100
AcDbEntity
  8
M0
 62
     4
100
AcDbLine
 10
102.35376
 20
336.807945
 11
102.3538
 21
348.307945
  0
ARC
  5
6A9
100
AcDbEntity
  8
M0
 62
     4
100
AcDbCircle
 10
93.853743
 20
331.807975
 40
1.499996
100
AcDbArc
 50
89.999217
 51
179.9998
  0
ARC
  5
6AA
100
AcDbEntity
  8
M0
 62
     4
100
AcDbCircle
 10
100.853743
 20
331.807951
 40
1.499996
100
AcDbArc
 50
359.9998
 51
449.999217
  0
ARC
  5
6AB
100
AcDbEntity
  8
M0
 62
     4
100
AcDbCircle
 10
88.353743
 20
331.807994
 40
1.499996
100
AcDbArc
 50
359.9998
 51
449.999217
  0
ARC
  5
6AC
100
AcDbEntity
  8
M0
 62
     4
100
AcDbCircle
 10
81.353743
 20
331.808019
 40
1.499996
100
AcDbArc
 50
89.999217
 51
179.9998
  0
ARC
  5
6AD
100
AcDbEntity
  8
M0
 62
     4
100
AcDbCircle
 10
75.853743
 20
331.808038
 40
1.499996
100
AcDbArc
 50
359.9998
 51
449.999217
  0
LINE
  5
6AE
100
AcDbEntity
  8
M0
 62
     4
100
AcDbLine
 10
67.353703
 20
320.308067
 11
67.353745
 21
332.308067
  0
ARC
  5
6AF
100
AcDbEntity
  8
M0
 62
     4
100
AcDbCircle
 10
68.853743
 20
331.808062
 40
1.499996
100
AcDbArc
 50
89.999217
 51
179.9998
  0
ARC
  5
6B0
100
AcDbEntity
  8
M0
 62
     4
100
AcDbCircle
 10
66.353745
 20
332.308071
 40
1.0
100
AcDbArc
 50
359.9998
 51
449.998926
  0
LINE
  5
6B1
100
AcDbEntity
  8
M0
 62
     4
100
AcDbLine
 10
89.853705
 20
320.807989
 11
88.352576
 21
320.807994
  0
LINE
  5
6B2
100
AcDbEntity
  8
M0
 62
     4
100
AcDbLine
 10
77.353705
 20
320.808033
 11
67.353705
 21
320.808067
  0
ARC
  5
6B3
100
AcDbEntity
  8
M0
 62
     4
100
AcDbCircle
 10
100.853734
 20
329.307951
 40
1.499996
100
AcDbArc
 50
359.9998
 51
449.999217
  0
LINE
  5
6B4
100
AcDbEntity
  8
M0
 62
     4
100
AcDbLine
 10
88.353739
 20
330.807994
 11
81.353739
 21
330.808019
  0
LINE
  5
6B5
100
AcDbEntity
  8
M0
 62
     4
100
AcDbLine
 10
75.853739
 20
330.808038
 11
68.853739
 21
330.808062
  0
ARC
  5
6B6
100
AcDbEntity
  8
M0
 62
     4
100
AcDbCircle
 10
93.853734
 20
329.307975
 40
1.499996
100
AcDbArc
 50
89.999217
 51
179.9998
  0
ARC
  5
6B7
100
AcDbEntity
  8
M0
 62
     4
100
AcDbCircle
 10
81.353734
 20
329.308019
 40
1.499996
100
AcDbArc
 50
89.999217
 51
179.9998
  0
ARC
  5
6B8
100
AcDbEntity
  8
M0
 62
     4
100
AcDbCircle
 10
68.853734
 20
329.308062
 40
1.499996
100
AcDbArc
 50
89.999217
 51
179.9998
  0
ARC
  5
6B9
100
AcDbEntity
  8
M0
 62
     4
100
AcDbCircle
 10
88.353734
 20
329.307994
 40
1.499996
100
AcDbArc
 50
359.9998
 51
449.999217
  0
ARC
  5
6BA
100
AcDbEntity
  8
M0
 62
     4
100
AcDbCircle
 10
75.853734
 20
329.308038
 40
1.499996
100
AcDbArc
 50
359.9998
 51
449.999217
  0
LINE
  5
6BB
100
AcDbEntity
  8
M0
 62
     4
100
AcDbLine
 10
101.853708
 20
321.807947
 11
101.853736
 21
329.807947
  0
LINE
  5
6BC
100
AcDbEntity
  8
M0
 62
     4
100
AcDbLine
 10
92.853708
 20
321.807978
 11
92.853736
 21
329.807978
  0
LINE
  5
6BD
100
AcDbEntity
  8
M0
 62
     4
100
AcDbLine
 10
89.353708
 20
321.807991
 11
89.353736
 21
329.807991
  0
LINE
  5
6BE
100
AcDbEntity
  8
M0
 62
     4
100
AcDbLine
 10
80.353708
 20
321.808022
 11
80.353736
 21
329.808022
  0
LINE
  5
6BF
100
AcDbEntity
  8
M0
 62
     4
100
AcDbLine
 10
76.853708
 20
321.808034
 11
76.853736
 21
329.808034
  0
LINE
  5
6C0
100
AcDbEntity
  8
M0
 62
     4
100
AcDbLine
 10
67.853708
 20
321.808066
 11
67.853736
 21
329.808066
  0
ARC
  5
6C1
100
AcDbEntity
  8
M0
 62
     4
100
AcDbCircle
 10
100.853736
 20
329.807951
 40
1.0
100
AcDbArc
 50
359.9998
 51
449.998926
  0
ARC
  5
6C2
100
AcDbEntity
  8
M0
 62
     4
100
AcDbCircle
 10
88.353736
 20
329.807994
 40
1.0
100
AcDbArc
 50
359.9998
 51
449.998926
  0
ARC
  5
6C3
100
AcDbEntity
  8
M0
 62
     4
100
AcDbCircle
 10
75.853736
 20
329.808038
 40
1.0
100
AcDbArc
 50
359.9998
 51
449.998926
  0
ARC
  5
6C4
100
AcDbEntity
  8
M0
 62
     4
100
AcDbCircle
 10
93.853736
 20
329.807975
 40
1.0
100
AcDbArc
 50
89.998926
 51
179.9998
  0
ARC
  5
6C5
100
AcDbEntity
  8
M0
 62
     4
100
AcDbCircle
 10
81.353736
 20
329.808019
 40
1.0
100
AcDbArc
 50
89.998926
 51
179.9998
  0
ARC
  5
6C6
100
AcDbEntity
  8
M0
 62
     4
100
AcDbCircle
 10
68.853736
 20
329.808062
 40
1.0
100
AcDbArc
 50
89.998926
 51
179.9998
  0
ARC
  5
6C7
100
AcDbEntity
  8
M0
 62
     4
100
AcDbCircle
 10
102.853708
 20
321.807944
 40
1.0
100
AcDbArc
 50
179.9998
 51
239.999433
  0
ARC
  5
6C8
100
AcDbEntity
  8
M0
 62
     4
100
AcDbCircle
 10
90.353708
 20
321.807987
 40
1.0
100
AcDbArc
 50
179.9998
 51
239.999433
  0
ARC
  5
6C9
100
AcDbEntity
  8
M0
 62
     4
100
AcDbCircle
 10
77.853708
 20
321.808031
 40
1.0
100
AcDbArc
 50
179.9998
 51
239.999433
  0
ARC
  5
6CA
100
AcDbEntity
  8
M0
 62
     4
100
AcDbCircle
 10
66.853708
 20
321.808069
 40
1.0
100
AcDbArc
 50
300.000925
 51
359.9998
  0
ARC
  5
6CB
100
AcDbEntity
  8
M0
 62
     4
100
AcDbCircle
 10
79.353708
 20
321.808026
 40
1.0
100
AcDbArc
 50
300.000925
 51
359.9998
  0
ARC
  5
6CC
100
AcDbEntity
  8
M0
 62
     4
100
AcDbCircle
 10
91.853708
 20
321.807982
 40
1.0
100
AcDbArc
 50
300.000925
 51
359.9998
  0
LINE
  5
6CD
100
AcDbEntity
  8
M0
 62
     4
100
AcDbLine
 10
91.353687
 20
315.807984
 11
90.853687
 21
315.807985
  0
LINE
  5
6CE
100
AcDbEntity
  8
M0
 62
     4
100
AcDbLine
 10
78.853687
 20
315.808027
 11
78.353687
 21
315.808029
  0
ARC
  5
6CF
100
AcDbEntity
  8
M0
 62
     4
100
AcDbCircle
 10
78.353691
 20
316.808029
 40
1.0
100
AcDbArc
 50
179.9998
 51
270.0
  0
ARC
  5
6D0
100
AcDbEntity
  8
M0
 62
     4
100
AcDbCircle
 10
78.853691
 20
316.808027
 40
1.0
100
AcDbArc
 50
270.0
 51
359.9998
  0
ARC
  5
6D1
100
AcDbEntity
  8
M0
 62
     4
100
AcDbCircle
 10
90.853691
 20
316.807985
 40
1.0
100
AcDbArc
 50
179.9998
 51
270.0
  0
ARC
  5
6D2
100
AcDbEntity
  8
M0
 62
     4
100
AcDbCircle
 10
91.353691
 20
316.807984
 40
1.0
100
AcDbArc
 50
270.0
 51
359.9998
  0
LINE
  5
6D3
100
AcDbEntity
  8
M0
 62
     4
100
AcDbLine
 10
102.353682
 20
314.307945
 11
100.852576
 21
314.307951
  0
LINE
  5
6D4
100
AcDbEntity
  8
M0
 62
     4
100
AcDbLine
 10
76.103683
 20
314.608266
 11
76.103705
 21
320.808037
  0
LINE
  5
6D5
100
AcDbEntity
  8
M0
 62
     4
100
AcDbLine
 10
101.103682
 20
314.30795
 11
101.103705
 21
320.80795
  0
LINE
  5
6D6
100
AcDbEntity
  8
M0
 62
     4
100
AcDbLine
 10
66.353699
 20
319.308071
 11
64.353669
 21
319.308078
  0
ARC
  5
6D7
100
AcDbEntity
  8
M0
 62
     4
100
AcDbCircle
 10
66.353703
 20
320.308071
 40
1.0
100
AcDbArc
 50
270.0
 51
359.9998
  0
LINE
  5
6D8
100
AcDbEntity
  8
M0
 62
     4
100
AcDbLine
 10
123.853628
 20
309.807886
 11
123.853629
 21
326.107873
  0
LINE
  5
6D9
100
AcDbEntity
  8
M0
 62
     4
100
AcDbLine
 10
126.353648
 20
317.807862
 11
124.853648
 21
317.807867
  0
ARC
  5
6DA
100
AcDbEntity
  8
M0
 62
     4
100
AcDbCircle
 10
126.35365
 20
318.307862
 40
0.5
100
AcDbArc
 50
270.0
 51
359.9998
  0
ARC
  5
6DB
100
AcDbEntity
  8
M0
 62
     4
100
AcDbCircle
 10
124.853652
 20
318.807867
 40
1.0
100
AcDbArc
 50
179.9998
 51
270.0
  0
LINE
  5
6DC
100
AcDbEntity
  8
M0
 62
     4
100
AcDbLine
 10
126.353639
 20
310.807862
 11
124.853639
 21
310.807867
  0
LINE
  5
6DD
100
AcDbEntity
  8
M0
 62
     4
100
AcDbLine
 10
126.353632
 20
308.807862
 11
124.853632
 21
308.807867
  0
ARC
  5
6DE
100
AcDbEntity
  8
M0
 62
     4
100
AcDbCircle
 10
126.353634
 20
309.307862
 40
0.5
100
AcDbArc
 50
270.0
 51
359.9998
  0
ARC
  5
6DF
100
AcDbEntity
  8
M0
 62
     4
100
AcDbCircle
 10
124.853636
 20
309.807867
 40
1.0
100
AcDbArc
 50
179.9998
 51
270.0
  0
ARC
  5
6E0
100
AcDbEntity
  8
M0
 62
     4
100
AcDbCircle
 10
126.353641
 20
311.307862
 40
0.5
100
AcDbArc
 50
270.0
 51
359.9998
  0
ARC
  5
6E1
100
AcDbEntity
  8
M0
 62
     4
100
AcDbCircle
 10
124.853643
 20
311.807867
 40
1.0
100
AcDbArc
 50
179.9998
 51
270.0
  0
LINE
  5
6E2
100
AcDbEntity
  8
M0
 62
     4
100
AcDbLine
 10
126.353657
 20
315.807862
 11
124.853657
 21
315.807867
  0
ARC
  5
6E3
100
AcDbEntity
  8
M0
 62
     4
100
AcDbCircle
 10
124.85366
 20
316.807867
 40
1.0
100
AcDbArc
 50
179.9998
 51
270.0
  0
ARC
  5
6E4
100
AcDbEntity
  8
M0
 62
     4
100
AcDbCircle
 10
126.353658
 20
316.307862
 40
0.5
100
AcDbArc
 50
270.0
 51
359.9998
  0
LINE
  5
6E5
100
AcDbEntity
  8
M0
 62
     4
100
AcDbLine
 10
115.853629
 20
307.807913
 11
115.853628
 21
326.069135
  0
LINE
  5
6E6
100
AcDbEntity
  8
M0
 62
     4
100
AcDbLine
 10
122.795903
 20
311.807874
 11
123.853612
 21
311.80787
  0
LINE
  5
6E7
100
AcDbEntity
  8
M0
 62
     4
100
AcDbLine
 10
123.853637
 20
318.80787
 11
123.104323
 21
318.807629
  0
LINE
  5
6E8
100
AcDbEntity
  8
M0
 62
     4
100
AcDbLine
 10
116.602706
 20
318.807651
 11
115.853637
 21
318.807898
  0
LINE
  5
6E9
100
AcDbEntity
  8
M0
 62
     4
100
AcDbLine
 10
112.853613
 20
314.807924
 11
112.853613
 21
325.874495
  0
LINE
  5
6EA
100
AcDbEntity
  8
M0
 62
     4
100
AcDbLine
 10
114.85365
 20
313.807902
 11
113.85365
 21
313.807905
  0
ARC
  5
6EB
100
AcDbEntity
  8
M0
 62
     4
100
AcDbCircle
 10
114.853653
 20
314.807902
 40
1.0
100
AcDbArc
 50
270.0
 51
359.9998
  0
ARC
  5
6EC
100
AcDbEntity
  8
M0
 62
     4
100
AcDbCircle
 10
113.853653
 20
314.807905
 40
1.0
100
AcDbArc
 50
179.9998
 51
270.0
  0
LINE
  5
6ED
100
AcDbEntity
  8
M0
 62
     4
100
AcDbLine
 10
104.853689
 20
316.307967
 11
104.853693
 21
326.107863
  0
LINE
  5
6EE
100
AcDbEntity
  8
M0
 62
     4
100
AcDbLine
 10
111.794722
 20
318.807912
 11
112.853667
 21
318.807909
  0
LINE
  5
6EF
100
AcDbEntity
  8
M0
 62
     4
100
AcDbLine
 10
106.853658
 20
311.80793
 11
106.853659
 21
311.993721
  0
LINE
  5
6F0
100
AcDbEntity
  8
M0
 62
     4
100
AcDbLine
 10
105.853659
 20
307.807933
 11
105.853683
 21
318.989818
  0
LINE
  5
6F1
100
AcDbEntity
  8
M0
 62
     4
100
AcDbLine
 10
113.853629
 20
307.807905
 11
113.85365
 21
313.807905
  0
LINE
  5
6F2
100
AcDbEntity
  8
M0
 62
     4
100
AcDbLine
 10
115.853612
 20
311.807898
 11
116.910939
 21
311.807895
  0
LINE
  5
6F3
100
AcDbEntity
  8
M0
 62
     4
100
AcDbLine
 10
105.853678
 20
313.307933
 11
102.353678
 21
313.307945
  0
LINE
  5
6F4
100
AcDbEntity
  8
M0
 62
     4
100
AcDbLine
 10
105.853685
 20
315.307933
 11
102.353685
 21
315.307945
  0
LINE
  5
6F5
100
AcDbEntity
  8
M0
 62
     4
100
AcDbLine
 10
104.853691
 20
316.807937
 11
104.853727
 21
327.307937
  0
ARC
  5
6F6
100
AcDbEntity
  8
M0
 62
     4
100
AcDbCircle
 10
103.353689
 20
316.307942
 40
1.0
100
AcDbArc
 50
179.9998
 51
270.0
  0
ARC
  5
6F7
100
AcDbEntity
  8
M0
 62
     4
100
AcDbCircle
 10
103.853689
 20
316.30794
 40
1.0
100
AcDbArc
 50
270.0
 51
359.9998
  0
LINE
  5
6F8
100
AcDbEntity
  8
M0
 62
     4
100
AcDbLine
 10
102.853659
 20
307.807944
 11
102.853678
 21
313.307944
  0
LINE
  5
6F9
100
AcDbEntity
  8
M0
 62
     4
100
AcDbLine
 10
104.703729
 20
334.807937
 11
103.203724
 21
333.307958
  0
LINE
  5
6FA
100
AcDbEntity
  8
M0
 62
     4
100
AcDbLine
 10
104.703729
 20
334.807937
 11
103.203734
 21
336.307942
  0
LINE
  5
6FB
100
AcDbEntity
  8
M0
 62
     4
100
AcDbLine
 10
102.353748
 20
333.307945
 11
102.35376
 21
336.807945
  0
LINE
  5
6FC
100
AcDbEntity
  8
M0
 62
     4
100
AcDbLine
 10
122.998759
 20
343.807873
 11
122.998774
 21
348.307873
  0
LINE
  5
6FD
100
AcDbEntity
  8
M0
 62
     4
100
AcDbLine
 10
104.703791
 20
348.307903
 11
104.703754
 21
333.307662
  0
LINE
  5
6FE
100
AcDbEntity
  8
M0
 62
     4
100
AcDbLine
 10
103.203724
 20
333.307668
 11
102.353763
 21
333.307915
  0
LINE
  5
6FF
100
AcDbEntity
  8
M0
 62
     4
100
AcDbLine
 10
103.203749
 20
336.307661
 11
102.353774
 21
336.307907
  0
LINE
  5
700
100
AcDbEntity
  8
M0
 62
     4
100
AcDbLine
 10
104.703718
 20
331.557937
 11
102.353742
 21
331.557945
  0
LINE
  5
701
100
AcDbEntity
  8
M0
 62
     4
100
AcDbLine
 10
104.70374
 20
338.057937
 11
102.353765
 21
338.057945
  0
LINE
  5
702
100
AcDbEntity
  8
M0
 62
     4
100
AcDbLine
 10
88.853748
 20
333.222207
 11
88.853755
 21
335.393793
  0
LINE
  5
703
100
AcDbEntity
  8
M0
 62
     4
100
AcDbLine
 10
93.353748
 20
333.222192
 11
93.353755
 21
335.393777
  0
LINE
  5
704
100
AcDbEntity
  8
M0
 62
     4
100
AcDbLine
 10
99.353748
 20
333.307956
 11
99.353755
 21
335.307956
  0
LINE
  5
705
100
AcDbEntity
  8
M0
 62
     4
100
AcDbLine
 10
112.795919
 20
311.807909
 11
113.853612
 21
311.807905
  0
LINE
  5
706
100
AcDbEntity
  8
M0
 62
     4
100
AcDbLine
 10
92.603682
 20
314.307979
 11
92.603698
 21
318.807979
  0
LINE
  5
707
100
AcDbEntity
  8
M0
 62
     4
100
AcDbLine
 10
68.852576
 20
314.308062
 11
64.353651
 21
314.308078
  0
LINE
  5
708
100
AcDbEntity
  8
M0
 62
     4
100
AcDbLine
 10
89.853701
 20
319.807989
 11
88.353701
 21
319.807994
  0
ARC
  5
709
100
AcDbEntity
  8
M0
 62
     4
100
AcDbCircle
 10
91.603698
 20
318.807983
 40
1.0
100
AcDbArc
 50
359.9998
 51
401.408851
  0
LINE
  5
70A
100
AcDbEntity
  8
M0
 62
     4
100
AcDbLine
 10
66.353804
 20
349.308071
 11
64.353773
 21
349.308078
  0
ARC
  5
70B
100
AcDbEntity
  8
M0
 62
     4
100
AcDbCircle
 10
66.3538
 20
348.308071
 40
1.0
100
AcDbArc
 50
359.9998
 51
449.998926
  0
LINE
  5
70C
100
AcDbEntity
  8
M0
 62
     4
100
AcDbLine
 10
126.85378
 20
351.30786
 11
118.35378
 21
351.307889
  0
LINE
  5
70D
100
AcDbEntity
  8
M0
 62
     4
100
AcDbLine
 10
117.353774
 20
349.507905
 11
117.353777
 21
350.307893
  0
LINE
  5
70E
100
AcDbEntity
  8
M0
 62
     4
100
AcDbLine
 10
101.902724
 20
349.307891
 11
100.346995
 21
349.307891
  0
ARC
  5
70F
100
AcDbEntity
  8
M0
 62
     4
100
AcDbCircle
 10
118.353777
 20
350.307889
 40
1.0
100
AcDbArc
 50
90.0
 51
179.9998
  0
LINE
  5
710
100
AcDbEntity
  8
M0
 62
     4
100
AcDbLine
 10
89.853819
 20
349.30794
 11
87.793411
 21
349.307929
  0
LINE
  5
711
100
AcDbEntity
  8
M0
 62
     4
100
AcDbLine
 10
103.85367
 20
310.80794
 11
103.853678
 21
313.30794
  0
LINE
  5
712
100
AcDbEntity
  8
M0
 62
     4
100
AcDbLine
 10
105.853681
 20
309.807933
 11
102.853666
 21
309.807944
  0
ARC
  5
713
100
AcDbEntity
  8
M0
 62
     4
100
AcDbCircle
 10
104.85367
 20
310.807937
 40
1.0
100
AcDbArc
 50
179.9998
 51
270.0
  0
ARC
  5
714
100
AcDbEntity
  8
M0
 62
     4
100
AcDbCircle
 10
104.85367
 20
310.807937
 40
1.0
100
AcDbArc
 50
270.0
 51
359.9998
  0
TEXT
  5
715
100
AcDbEntity
  8
M0
 62
     4
100
AcDbText
 10
71.703966
 20
330.658423
 40
2.800003
  1
２
 50
359.999819
 41
0.535719
  7
STANDARD
100
AcDbText
  0
TEXT
  5
716
100
AcDbEntity
  8
M0
 62
     4
100
AcDbText
 10
84.203966
 20
330.65838
 40
2.800003
  1
４
 50
359.999819
 41
0.535719
  7
STANDARD
100
AcDbText
  0
TEXT
  5
717
100
AcDbEntity
  8
M0
 62
     4
100
AcDbText
 10
96.703802
 20
330.658336
 40
2.800003
  1
６
 50
359.999819
 41
0.535719
  7
STANDARD
100
AcDbText
  0
LINE
  5
718
100
AcDbEntity
  8
M0
 62
     4
100
AcDbLine
 10
107.354147
 20
351.30324
 11
103.354147
 21
351.303254
  0
ARC
  5
719
100
AcDbEntity
  8
M0
 62
     4
100
AcDbCircle
 10
103.354143
 20
350.303254
 40
1.0
100
AcDbArc
 50
89.998926
 51
179.9998
  0
ARC
  5
71A
100
AcDbEntity
  8
M0
 62
     4
100
AcDbCircle
 10
107.354143
 20
350.303241
 40
1.0
100
AcDbArc
 50
359.9998
 51
449.998926
  0
LINE
  5
71B
100
AcDbEntity
  8
M0
 62
     4
100
AcDbLine
 10
102.354158
 20
350.303252
 11
102.354155
 21
349.306381
  0
LINE
  5
71C
100
AcDbEntity
  8
M0
 62
     4
100
AcDbLine
 10
108.354158
 20
350.303237
 11
108.354155
 21
349.306381
  0
LINE
  5
71D
100
AcDbEntity
  8
M0
 62
     4
100
AcDbLine
 10
78.353826
 20
351.307952
 11
78.853826
 21
351.307951
  0
LINE
  5
71E
100
AcDbEntity
  8
M0
 62
     4
100
AcDbLine
 10
77.753865
 20
351.108002
 11
75.603826
 21
351.108039
  0
LINE
  5
71F
100
AcDbEntity
  8
M0
 62
     4
100
AcDbLine
 10
104.703754
 20
333.307662
 11
104.703724
 21
329.807907
  0
LINE
  5
720
100
AcDbEntity
  8
M0
 62
     4
100
AcDbLine
 10
102.353751
 20
329.8079
 11
105.911565
 21
329.80791
  0
LINE
  5
721
100
AcDbEntity
  8
M0
 62
     4
100
AcDbLine
 10
102.353822
 20
345.80786
 11
104.703813
 21
345.80786
  0
LINE
  5
722
100
AcDbEntity
  8
M0
 62
     4
100
AcDbLine
 10
72.152477
 20
349.607733
 11
64.35379
 21
349.607784
  0
LINE
  5
723
100
AcDbEntity
  8
M0
 62
     4
100
AcDbLine
 10
71.748906
 20
348.308189
 11
69.8538
 21
348.307815
  0
LINE
  5
724
100
AcDbEntity
  8
M0
 62
     4
100
AcDbLine
 10
84.556113
 20
349.30798
 11
79.853804
 21
349.307731
  0
LINE
  5
725
100
AcDbEntity
  8
M0
 62
     4
100
AcDbLine
 10
84.22308
 20
348.308135
 11
82.3538
 21
348.307771
  0
LINE
  5
726
100
AcDbEntity
  8
M0
 62
     4
100
AcDbLine
 10
96.914592
 20
349.307863
 11
92.353819
 21
349.307993
  0
LINE
  5
727
100
AcDbEntity
  8
M0
 62
     4
100
AcDbLine
 10
96.565358
 20
348.307928
 11
94.8538
 21
348.307727
  0
LINE
  5
728
100
AcDbEntity
  8
M0
 62
     4
100
AcDbLine
 10
102.353697
 20
327.307884
 11
102.353743
 21
331.807945
  0
ARC
  5
729
100
AcDbEntity
  8
M0
 62
     4
100
AcDbCircle
 10
73.853698
 20
318.808045
 40
2.249995
100
AcDbArc
 50
335.590346
 51
359.9998
  0
ARC
  5
72A
100
AcDbEntity
  8
M0
 62
     4
100
AcDbCircle
 10
98.853698
 20
318.807958
 40
2.249995
100
AcDbArc
 50
335.590346
 51
359.9998
  0
LINE
  5
72B
100
AcDbEntity
  8
M0
 62
     4
100
AcDbLine
 10
84.103804
 20
349.307956
 11
84.103807
 21
350.108
  0
LINE
  5
72C
100
AcDbEntity
  8
M0
 62
     4
100
AcDbLine
 10
93.852576
 20
314.307975
 11
92.603682
 21
314.307979
  0
LINE
  5
72D
100
AcDbEntity
  8
M0
 62
     4
100
AcDbLine
 10
81.352576
 20
320.808019
 11
79.853705
 21
320.808024
  0
ARC
  5
72E
100
AcDbEntity
  8
M0
 62
     6
100
AcDbCircle
 10
109.853826
 20
315.80786
 40
2.999997
100
AcDbArc
 50
115.844051
 51
424.156194
  0
LINE
  5
72F
100
AcDbEntity
  8
M0
 62
     6
100
AcDbLine
 10
106.510305
 20
318.507811
 11
106.07868
 21
317.107909
  0
LINE
  5
730
100
AcDbEntity
  8
M0
 62
     6
100
AcDbLine
 10
106.894842
 20
311.860609
 11
106.07868
 21
314.507933
  0
LINE
  5
731
100
AcDbEntity
  8
M0
 62
     6
100
AcDbLine
 10
112.812322
 20
311.860594
 11
113.440496
 21
313.897459
  0
LINE
  5
732
100
AcDbEntity
  8
M0
 62
     6
100
AcDbLine
 10
107.372869
 20
311.507933
 11
112.334539
 21
311.507933
  0
LINE
  5
733
100
AcDbEntity
  8
M0
 62
     6
100
AcDbLine
 10
106.07868
 20
317.107909
 11
106.07868
 21
314.507933
  0
LINE
  5
734
100
AcDbEntity
  8
M0
 62
     6
100
AcDbLine
 10
111.444402
 20
314.21704
 11
108.262762
 21
317.398802
  0
LINE
  5
735
100
AcDbEntity
  8
M0
 62
     6
100
AcDbLine
 10
110.207098
 20
317.222044
 11
108.43952
 21
315.454344
  0
LINE
  5
736
100
AcDbEntity
  8
M0
 62
     6
100
AcDbLine
 10
111.267645
 20
316.161375
 11
109.500066
 21
314.393797
  0
ARC
  5
737
100
AcDbEntity
  8
M0
 62
     6
100
AcDbCircle
 10
107.372869
 20
312.007933
 40
0.5
100
AcDbArc
 50
197.128737
 51
270.0
  0
ARC
  5
738
100
AcDbEntity
  8
M0
 62
     6
100
AcDbCircle
 10
112.334539
 20
312.007933
 40
0.5
100
AcDbArc
 50
270.0
 51
342.861308
  0
LINE
  5
739
100
AcDbEntity
  8
M0
  6
DASHDOT
 62
     6
100
AcDbLine
 10
109.353826
 20
315.80786
 11
110.353826
 21
315.80786
  0
LINE
  5
73A
100
AcDbEntity
  8
M0
  6
DASHDOT
 62
     6
100
AcDbLine
 10
109.853826
 20
315.30786
 11
109.853826
 21
316.30786
  0
LINE
  5
73B
100
AcDbEntity
  8
M0
  6
DASHDOT
 62
   154
100
AcDbLine
 10
117.102575
 20
437.808104
 11
117.102575
 21
438.808104
  0
LINE
  5
73C
100
AcDbEntity
  8
M0
  6
DASHDOT
 62
   154
100
AcDbLine
 10
116.602575
 20
438.308104
 11
117.602575
 21
438.308104
  0
LINE
  5
73D
100
AcDbEntity
  8
M0
 62
   154
100
AcDbLine
 10
116.635671
 20
440.189238
 11
118.983648
 21
437.841246
  0
LINE
  5
73E
100
AcDbEntity
  8
M0
 62
   154
100
AcDbLine
 10
115.221471
 20
438.775023
 11
117.569448
 21
436.427031
  0
LINE
  5
73F
100
AcDbEntity
  8
M0
 62
   154
100
AcDbLine
 10
119.171529
 20
440.377013
 11
114.908559
 21
436.114074
  0
ARC
  5
740
100
AcDbEntity
  8
M0
 62
   154
100
AcDbCircle
 10
104.202575
 20
425.308104
 40
2.0
100
AcDbArc
 50
-90.0
 51
0.0
  0
ARC
  5
741
100
AcDbEntity
  8
M0
 62
   154
100
AcDbCircle
 10
110.202575
 20
426.777191
 40
4.0
100
AcDbArc
 50
148.425809
 51
180.0
  0
LINE
  5
742
100
AcDbEntity
  8
M0
 62
   154
100
AcDbLine
 10
111.510426
 20
436.544609
 11
106.794723
 21
428.8716
  0
LINE
  5
743
100
AcDbEntity
  8
M0
 62
   154
100
AcDbLine
 10
106.202575
 20
425.308104
 11
106.202575
 21
426.777191
  0
LINE
  5
744
100
AcDbEntity
  8
M0
 62
   154
100
AcDbLine
 10
104.202575
 20
423.308104
 11
103.367159
 21
423.308104
  0
LINE
  5
745
100
AcDbEntity
  8
M0
 62
   154
100
AcDbLine
 10
113.102575
 20
444.308104
 11
121.102575
 21
444.308104
  0
LINE
  5
746
100
AcDbEntity
  8
M0
 62
   154
100
AcDbLine
 10
112.102575
 20
443.308104
 11
112.102575
 21
438.639017
  0
LINE
  5
747
100
AcDbEntity
  8
M0
 62
   154
100
AcDbLine
 10
104.202575
 20
413.008104
 11
112.202575
 21
413.008104
  0
LINE
  5
748
100
AcDbEntity
  8
M0
 62
   154
100
AcDbLine
 10
122.102575
 20
443.308104
 11
122.102575
 21
437.950961
  0
ARC
  5
749
100
AcDbEntity
  8
M0
 62
   154
100
AcDbCircle
 10
110.902575
 20
422.008104
 40
2.5
100
AcDbArc
 50
-23.073918
 51
23.073918
  0
ARC
  5
74A
100
AcDbEntity
  8
M0
 62
   154
100
AcDbCircle
 10
110.902575
 20
415.008104
 40
2.5
100
AcDbArc
 50
-23.073918
 51
23.073918
  0
ARC
  5
74B
100
AcDbEntity
  8
M0
 62
   154
100
AcDbCircle
 10
105.502575
 20
422.008104
 40
2.5
100
AcDbArc
 50
148.667749
 51
203.073918
  0
ARC
  5
74C
100
AcDbEntity
  8
M0
 62
   154
100
AcDbCircle
 10
105.502575
 20
415.008104
 40
2.5
100
AcDbArc
 50
156.926082
 51
203.073918
  0
LINE
  5
74D
100
AcDbEntity
  8
M0
 62
   154
100
AcDbLine
 10
113.202575
 20
421.028308
 11
113.202575
 21
415.9879
  0
LINE
  5
74E
100
AcDbEntity
  8
M0
 62
   154
100
AcDbLine
 10
113.202575
 20
414.028308
 11
113.202575
 21
414.008104
  0
LINE
  5
74F
100
AcDbEntity
  8
M0
 62
   154
100
AcDbLine
 10
103.202575
 20
421.028308
 11
103.202575
 21
415.9879
  0
LINE
  5
750
100
AcDbEntity
  8
M0
 62
   154
100
AcDbLine
 10
103.202575
 20
414.028308
 11
103.202575
 21
414.008104
  0
LINE
  5
751
100
AcDbEntity
  8
M0
 62
   154
100
AcDbLine
 10
113.202575
 20
422.9879
 11
113.202575
 21
428.308104
  0
ARC
  5
752
100
AcDbEntity
  8
M0
 62
   154
100
AcDbCircle
 10
117.202575
 20
428.308104
 40
4.0
100
AcDbArc
 50
90.0
 51
180.0
  0
ARC
  5
753
100
AcDbEntity
  8
M0
 62
   154
100
AcDbCircle
 10
112.202575
 20
414.008104
 40
1.0
100
AcDbArc
 50
-90.0
 51
3.256888E-012
  0
ARC
  5
754
100
AcDbEntity
  8
M0
 62
   154
100
AcDbCircle
 10
104.202575
 20
414.008104
 40
1.0
100
AcDbArc
 50
180.0
 51
270.0
  0
ARC
  5
755
100
AcDbEntity
  8
M0
 62
   154
100
AcDbCircle
 10
121.102575
 20
443.308104
 40
1.0
100
AcDbArc
 50
0.0
 51
90.0
  0
ARC
  5
756
100
AcDbEntity
  8
M0
 62
   154
100
AcDbCircle
 10
113.102575
 20
443.308104
 40
1.0
100
AcDbArc
 50
90.0
 51
180.0
  0
ARC
  5
757
100
AcDbEntity
  8
M0
 62
   154
100
AcDbCircle
 10
118.747019
 20
433.308104
 40
1.0
100
AcDbArc
 50
270.0
 51
328.109208
  0
ARC
  5
758
100
AcDbEntity
  8
M0
 62
   154
100
AcDbCircle
 10
118.102575
 20
437.950961
 40
4.0
100
AcDbArc
 50
-31.890792
 51
8.14222E-013
  0
LINE
  5
759
100
AcDbEntity
  8
M0
 62
   154
100
AcDbLine
 10
117.202575
 20
432.308104
 11
118.747019
 21
432.308104
  0
LINE
  5
75A
100
AcDbEntity
  8
M0
 62
   154
100
AcDbLine
 10
121.498801
 20
435.837754
 11
119.596076
 21
432.779802
  0
ARC
  5
75B
100
AcDbEntity
  8
M0
 62
   154
100
AcDbCircle
 10
108.102575
 20
438.639017
 40
4.0
100
AcDbArc
 50
-31.574191
 51
0.0
  0
CIRCLE
  5
75C
100
AcDbEntity
  8
M0
 62
     7
100
AcDbCircle
 10
120.402575
 20
373.408104
 40
3.0
  0
LINE
  5
75D
100
AcDbEntity
  8
M0
 62
     7
100
AcDbLine
 10
121.993158
 20
371.817459
 11
118.811518
 21
374.999222
  0
LINE
  5
75E
100
AcDbEntity
  8
M0
 62
     7
100
AcDbLine
 10
121.816401
 20
373.761795
 11
120.048823
 21
371.994217
  0
LINE
  5
75F
100
AcDbEntity
  8
M0
 62
     7
100
AcDbLine
 10
120.755854
 20
374.822464
 11
118.988276
 21
373.054764
  0
LINE
  5
760
100
AcDbEntity
  8
M0
 62
     7
100
AcDbLine
 10
123.727575
 20
377.233104
 11
117.077575
 21
377.233104
  0
ARC
  5
761
100
AcDbEntity
  8
M0
 62
     7
100
AcDbCircle
 10
123.727575
 20
376.733104
 40
0.5
100
AcDbArc
 50
0.0
 51
90.0
  0
LINE
  5
762
100
AcDbEntity
  8
M0
 62
     7
100
AcDbLine
 10
124.227575
 20
370.083104
 11
124.227575
 21
376.733104
  0
ARC
  5
763
100
AcDbEntity
  8
M0
 62
     7
100
AcDbCircle
 10
123.727575
 20
370.083104
 40
0.5
100
AcDbArc
 50
270.0
 51
360.0
  0
LINE
  5
764
100
AcDbEntity
  8
M0
 62
     7
100
AcDbLine
 10
117.077575
 20
369.583104
 11
123.727575
 21
369.583104
  0
LINE
  5
765
100
AcDbEntity
  8
M0
 62
     7
100
AcDbLine
 10
116.577575
 20
376.733104
 11
116.577575
 21
370.083104
  0
ARC
  5
766
100
AcDbEntity
  8
M0
 62
     7
100
AcDbCircle
 10
117.077575
 20
376.733104
 40
0.5
100
AcDbArc
 50
90.0
 51
180.0
  0
ARC
  5
767
100
AcDbEntity
  8
M0
 62
     7
100
AcDbCircle
 10
117.077575
 20
370.083104
 40
0.5
100
AcDbArc
 50
180.0
 51
270.0
  0
CIRCLE
  5
768
100
AcDbEntity
  8
M0
  6
DASHED
 62
     7
100
AcDbCircle
 10
70.002575
 20
415.208104
 40
3.0
  0
LINE
  5
769
100
AcDbEntity
  8
M0
  6
DASHED
 62
     7
100
AcDbLine
 10
71.593159
 20
413.617459
 11
68.411518
 21
416.799222
  0
LINE
  5
76A
100
AcDbEntity
  8
M0
  6
DASHED
 62
     7
100
AcDbLine
 10
71.416401
 20
415.561795
 11
69.648823
 21
413.794217
  0
LINE
  5
76B
100
AcDbEntity
  8
M0
  6
DASHED
 62
     7
100
AcDbLine
 10
70.355854
 20
416.622464
 11
68.588276
 21
414.854764
  0
LINE
  5
76C
100
AcDbEntity
  8
M0
  6
DASHED
 62
     7
100
AcDbLine
 10
73.327575
 20
419.033104
 11
66.677575
 21
419.033104
  0
ARC
  5
76D
100
AcDbEntity
  8
M0
  6
DASHED
 62
     7
100
AcDbCircle
 10
73.327575
 20
418.533104
 40
0.5
100
AcDbArc
 50
0.0
 51
90.0
  0
LINE
  5
76E
100
AcDbEntity
  8
M0
  6
DASHED
 62
     7
100
AcDbLine
 10
73.827575
 20
411.883104
 11
73.827575
 21
418.533104
  0
ARC
  5
76F
100
AcDbEntity
  8
M0
  6
DASHED
 62
     7
100
AcDbCircle
 10
73.327575
 20
411.883104
 40
0.5
100
AcDbArc
 50
270.0
 51
360.0
  0
LINE
  5
770
100
AcDbEntity
  8
M0
  6
DASHED
 62
     7
100
AcDbLine
 10
66.677575
 20
411.383104
 11
73.327575
 21
411.383104
  0
LINE
  5
771
100
AcDbEntity
  8
M0
  6
DASHED
 62
     7
100
AcDbLine
 10
66.177575
 20
418.533104
 11
66.177575
 21
411.883104
  0
ARC
  5
772
100
AcDbEntity
  8
M0
  6
DASHED
 62
     7
100
AcDbCircle
 10
66.677575
 20
418.533104
 40
0.5
100
AcDbArc
 50
90.0
 51
180.0
  0
ARC
  5
773
100
AcDbEntity
  8
M0
  6
DASHED
 62
     7
100
AcDbCircle
 10
66.677575
 20
411.883104
 40
0.5
100
AcDbArc
 50
180.0
 51
270.0
  0
LINE
  5
774
100
AcDbEntity
  8
M0
 62
   154
100
AcDbLine
 10
92.102572
 20
424.308104
 11
92.102572
 21
431.110279
  0
LINE
  5
775
100
AcDbEntity
  8
M0
 62
   154
100
AcDbLine
 10
98.302572
 20
424.308104
 11
98.302572
 21
431.110279
  0
LINE
  5
776
100
AcDbEntity
  8
M0
 62
   154
100
AcDbLine
 10
100.202572
 20
434.70738
 11
100.202572
 21
443.308104
  0
LINE
  5
777
100
AcDbEntity
  8
M0
 62
   154
100
AcDbLine
 10
99.127573
 20
433.176527
 11
99.927571
 21
434.01863
  0
LINE
  5
778
100
AcDbEntity
  8
M0
 62
   154
100
AcDbLine
 10
100.037987
 20
423.308104
 11
99.302572
 21
423.308104
  0
LINE
  5
779
100
AcDbEntity
  8
M0
 62
   154
100
AcDbLine
 10
90.202572
 20
434.70738
 11
90.202572
 21
443.308104
  0
LINE
  5
77A
100
AcDbEntity
  8
M0
 62
   154
100
AcDbLine
 10
99.202572
 20
444.308104
 11
91.202572
 21
444.308104
  0
LINE
  5
77B
100
AcDbEntity
  8
M0
 62
   154
100
AcDbLine
 10
90.367156
 20
423.308104
 11
91.102572
 21
423.308104
  0
LINE
  5
77C
100
AcDbEntity
  8
M0
 62
   154
100
AcDbLine
 10
99.202572
 20
413.008104
 11
91.202572
 21
413.008104
  0
LINE
  5
77D
100
AcDbEntity
  8
M0
 62
   154
100
AcDbLine
 10
90.202572
 20
414.008104
 11
90.202572
 21
414.028308
  0
LINE
  5
77E
100
AcDbEntity
  8
M0
 62
   154
100
AcDbLine
 10
90.202572
 20
415.9879
 11
90.202572
 21
421.028308
  0
LINE
  5
77F
100
AcDbEntity
  8
M0
 62
   154
100
AcDbLine
 10
100.202572
 20
415.9879
 11
100.202572
 21
421.028308
  0
LINE
  5
780
100
AcDbEntity
  8
M0
 62
   154
100
AcDbLine
 10
100.202572
 20
414.008104
 11
100.202572
 21
414.028308
  0
ARC
  5
781
100
AcDbEntity
  8
M0
 62
   154
100
AcDbCircle
 10
92.502572
 20
415.008104
 40
2.5
100
AcDbArc
 50
156.926082
 51
203.073918
  0
ARC
  5
782
100
AcDbEntity
  8
M0
 62
   154
100
AcDbCircle
 10
91.202572
 20
414.008104
 40
1.0
100
AcDbArc
 50
180.0
 51
270.0
  0
ARC
  5
783
100
AcDbEntity
  8
M0
 62
   154
100
AcDbCircle
 10
99.202572
 20
414.008104
 40
1.0
100
AcDbArc
 50
270.0
 51
360.0
  0
ARC
  5
784
100
AcDbEntity
  8
M0
 62
   154
100
AcDbCircle
 10
99.302572
 20
424.308104
 40
1.0
100
AcDbArc
 50
180.0
 51
270.0
  0
ARC
  5
785
100
AcDbEntity
  8
M0
 62
   154
100
AcDbCircle
 10
91.102572
 20
424.308104
 40
1.0
100
AcDbArc
 50
270.0
 51
360.0
  0
ARC
  5
786
100
AcDbEntity
  8
M0
 62
   154
100
AcDbCircle
 10
92.502572
 20
422.008104
 40
2.5
100
AcDbArc
 50
148.667749
 51
203.073918
  0
ARC
  5
787
100
AcDbEntity
  8
M0
 62
   154
100
AcDbCircle
 10
97.902572
 20
422.008104
 40
2.5
100
AcDbArc
 50
-23.073918
 51
31.332251
  0
ARC
  5
788
100
AcDbEntity
  8
M0
 62
   154
100
AcDbCircle
 10
97.902572
 20
415.008104
 40
2.5
100
AcDbArc
 50
-23.073918
 51
23.073918
  0
ARC
  5
789
100
AcDbEntity
  8
M0
 62
   154
100
AcDbCircle
 10
91.202572
 20
443.308104
 40
1.0
100
AcDbArc
 50
90.0
 51
180.0
  0
ARC
  5
78A
100
AcDbEntity
  8
M0
 62
   154
100
AcDbCircle
 10
91.202572
 20
434.70738
 40
1.0
100
AcDbArc
 50
180.0
 51
223.531199
  0
ARC
  5
78B
100
AcDbEntity
  8
M0
 62
   154
100
AcDbCircle
 10
99.202572
 20
443.308104
 40
1.0
100
AcDbArc
 50
0.0
 51
90.0
  0
ARC
  5
78C
100
AcDbEntity
  8
M0
 62
   154
100
AcDbCircle
 10
99.202572
 20
434.70738
 40
1.0
100
AcDbArc
 50
316.468801
 51
360.0
  0
ARC
  5
78D
100
AcDbEntity
  8
M0
 62
   154
100
AcDbCircle
 10
89.102572
 20
431.110279
 40
3.0
100
AcDbArc
 50
0.0
 51
43.531199
  0
ARC
  5
78E
100
AcDbEntity
  8
M0
 62
   154
100
AcDbCircle
 10
101.302572
 20
431.110279
 40
3.0
100
AcDbArc
 50
136.468801
 51
180.0
  0
LINE
  5
78F
100
AcDbEntity
  8
M0
 62
   154
100
AcDbLine
 10
91.27757
 20
433.176527
 11
90.477572
 21
434.01863
  0
ARC
  5
790
100
AcDbEntity
  8
M0
 62
   154
100
AcDbCircle
 10
86.202575
 20
425.308104
 40
2.0
100
AcDbArc
 50
180.0
 51
270.0
  0
ARC
  5
791
100
AcDbEntity
  8
M0
 62
   154
100
AcDbCircle
 10
80.202575
 20
426.777191
 40
4.0
100
AcDbArc
 50
8.14222E-013
 51
31.574191
  0
LINE
  5
792
100
AcDbEntity
  8
M0
 62
   154
100
AcDbLine
 10
78.894723
 20
436.544609
 11
83.610427
 21
428.8716
  0
LINE
  5
793
100
AcDbEntity
  8
M0
 62
   154
100
AcDbLine
 10
84.202575
 20
425.308104
 11
84.202575
 21
426.777191
  0
LINE
  5
794
100
AcDbEntity
  8
M0
 62
   154
100
AcDbLine
 10
86.202575
 20
423.308104
 11
87.037991
 21
423.308104
  0
LINE
  5
795
100
AcDbEntity
  8
M0
 62
   154
100
AcDbLine
 10
77.302575
 20
444.308104
 11
69.302575
 21
444.308104
  0
LINE
  5
796
100
AcDbEntity
  8
M0
 62
   154
100
AcDbLine
 10
78.302575
 20
443.308104
 11
78.302575
 21
438.639017
  0
LINE
  5
797
100
AcDbEntity
  8
M0
 62
   154
100
AcDbLine
 10
86.202575
 20
413.008104
 11
78.202575
 21
413.008104
  0
LINE
  5
798
100
AcDbEntity
  8
M0
 62
   154
100
AcDbLine
 10
68.302575
 20
443.308104
 11
68.302575
 21
437.950961
  0
ARC
  5
799
100
AcDbEntity
  8
M0
 62
   154
100
AcDbCircle
 10
79.502575
 20
422.008104
 40
2.5
100
AcDbArc
 50
156.926082
 51
203.073918
  0
ARC
  5
79A
100
AcDbEntity
  8
M0
 62
   154
100
AcDbCircle
 10
79.502575
 20
415.008104
 40
2.5
100
AcDbArc
 50
156.926082
 51
203.073918
  0
ARC
  5
79B
100
AcDbEntity
  8
M0
 62
   154
100
AcDbCircle
 10
84.902575
 20
422.008104
 40
2.5
100
AcDbArc
 50
-23.073918
 51
31.332251
  0
ARC
  5
79C
100
AcDbEntity
  8
M0
 62
   154
100
AcDbCircle
 10
84.902575
 20
415.008104
 40
2.5
100
AcDbArc
 50
-23.073918
 51
23.073918
  0
LINE
  5
79D
100
AcDbEntity
  8
M0
 62
   154
100
AcDbLine
 10
77.202575
 20
421.028308
 11
77.202575
 21
415.9879
  0
LINE
  5
79E
100
AcDbEntity
  8
M0
 62
   154
100
AcDbLine
 10
77.202575
 20
414.028308
 11
77.202575
 21
414.008104
  0
LINE
  5
79F
100
AcDbEntity
  8
M0
 62
   154
100
AcDbLine
 10
87.202575
 20
421.028308
 11
87.202575
 21
415.9879
  0
LINE
  5
7A0
100
AcDbEntity
  8
M0
 62
   154
100
AcDbLine
 10
87.202575
 20
414.028308
 11
87.202575
 21
414.008104
  0
LINE
  5
7A1
100
AcDbEntity
  8
M0
 62
   154
100
AcDbLine
 10
77.202575
 20
422.9879
 11
77.202575
 21
428.308104
  0
ARC
  5
7A2
100
AcDbEntity
  8
M0
 62
   154
100
AcDbCircle
 10
73.202575
 20
428.308104
 40
4.0
100
AcDbArc
 50
0.0
 51
90.0
  0
ARC
  5
7A3
100
AcDbEntity
  8
M0
 62
   154
100
AcDbCircle
 10
78.202575
 20
414.008104
 40
1.0
100
AcDbArc
 50
180.0
 51
270.0
  0
ARC
  5
7A4
100
AcDbEntity
  8
M0
 62
   154
100
AcDbCircle
 10
86.202575
 20
414.008104
 40
1.0
100
AcDbArc
 50
270.0
 51
360.0
  0
ARC
  5
7A5
100
AcDbEntity
  8
M0
 62
   154
100
AcDbCircle
 10
69.302575
 20
443.308104
 40
1.0
100
AcDbArc
 50
90.0
 51
180.0
  0
ARC
  5
7A6
100
AcDbEntity
  8
M0
 62
   154
100
AcDbCircle
 10
77.302575
 20
443.308104
 40
1.0
100
AcDbArc
 50
0.0
 51
90.0
  0
ARC
  5
7A7
100
AcDbEntity
  8
M0
 62
   154
100
AcDbCircle
 10
71.658131
 20
433.308104
 40
1.0
100
AcDbArc
 50
211.890792
 51
270.0
  0
ARC
  5
7A8
100
AcDbEntity
  8
M0
 62
   154
100
AcDbCircle
 10
72.302575
 20
437.950961
 40
4.0
100
AcDbArc
 50
180.0
 51
211.890792
  0
LINE
  5
7A9
100
AcDbEntity
  8
M0
 62
   154
100
AcDbLine
 10
73.202575
 20
432.308104
 11
71.658131
 21
432.308104
  0
LINE
  5
7AA
100
AcDbEntity
  8
M0
 62
   154
100
AcDbLine
 10
68.906349
 20
435.837754
 11
70.809074
 21
432.779802
  0
ARC
  5
7AB
100
AcDbEntity
  8
M0
 62
   154
100
AcDbCircle
 10
82.302575
 20
438.639017
 40
4.0
100
AcDbArc
 50
180.0
 51
211.574191
  0
LINE
  5
7AC
100
AcDbEntity
  8
M0
 62
   154
100
AcDbLine
 10
79.852577
 20
297.808104
 11
89.852576
 21
297.808104
  0
LINE
  5
7AD
100
AcDbEntity
  8
M0
 62
   154
100
AcDbLine
 10
79.852577
 20
308.808104
 11
79.852577
 21
297.808104
  0
LINE
  5
7AE
100
AcDbEntity
  8
M0
 62
   154
100
AcDbLine
 10
89.852576
 20
297.808104
 11
89.852576
 21
308.808104
  0
LINE
  5
7AF
100
AcDbEntity
  8
M0
 62
   154
100
AcDbLine
 10
88.352576
 20
315.608107
 11
88.352576
 21
314.608107
  0
LINE
  5
7B0
100
AcDbEntity
  8
M0
 62
   154
100
AcDbLine
 10
81.352576
 20
315.608107
 11
82.352576
 21
315.608107
  0
LINE
  5
7B1
100
AcDbEntity
  8
M0
 62
   154
100
AcDbLine
 10
81.352576
 20
315.608107
 11
81.352576
 21
314.608107
  0
LINE
  5
7B2
100
AcDbEntity
  8
M0
  6
DASHED
 62
   154
100
AcDbLine
 10
88.352576
 20
313.308104
 11
81.352576
 21
313.308104
  0
LINE
  5
7B3
100
AcDbEntity
  8
M0
 62
   154
100
AcDbLine
 10
81.352576
 20
329.808099
 11
88.352576
 21
329.808099
  0
LINE
  5
7B4
100
AcDbEntity
  8
M0
 62
   154
100
AcDbLine
 10
87.352576
 20
314.608107
 11
87.352576
 21
318.608107
  0
LINE
  5
7B5
100
AcDbEntity
  8
M0
 62
   154
100
AcDbLine
 10
82.352576
 20
314.608107
 11
82.352576
 21
318.608107
  0
LINE
  5
7B6
100
AcDbEntity
  8
M0
 62
   154
100
AcDbLine
 10
88.352576
 20
329.808099
 11
88.352576
 21
319.608107
  0
LINE
  5
7B7
100
AcDbEntity
  8
M0
 62
   154
100
AcDbLine
 10
81.352576
 20
329.808099
 11
81.352576
 21
319.608107
  0
LINE
  5
7B8
100
AcDbEntity
  8
M0
 62
   154
100
AcDbLine
 10
82.352576
 20
318.608107
 11
81.352576
 21
319.608107
  0
LINE
  5
7B9
100
AcDbEntity
  8
M0
 62
   154
100
AcDbLine
 10
87.352576
 20
318.608107
 11
88.352576
 21
319.608107
  0
LINE
  5
7BA
100
AcDbEntity
  8
M0
 62
   154
100
AcDbLine
 10
89.852576
 20
308.808104
 11
89.352576
 21
309.308104
  0
LINE
  5
7BB
100
AcDbEntity
  8
M0
 62
   154
100
AcDbLine
 10
79.852577
 20
308.808104
 11
80.352577
 21
309.308104
  0
LINE
  5
7BC
100
AcDbEntity
  8
M0
 62
   154
100
AcDbLine
 10
87.352576
 20
315.608107
 11
88.352576
 21
315.608107
  0
CIRCLE
  5
7BD
100
AcDbEntity
  8
M0
 62
   114
100
AcDbCircle
 10
97.352575
 20
303.808104
 40
4.5
  0
CIRCLE
  5
7BE
100
AcDbEntity
  8
M0
 62
   114
100
AcDbCircle
 10
97.352575
 20
303.808104
 40
5.0
  0
LINE
  5
7BF
100
AcDbEntity
  8
M0
  6
DASHDOT
 62
   114
100
AcDbLine
 10
96.852575
 20
303.808104
 11
97.852575
 21
303.808104
  0
LINE
  5
7C0
100
AcDbEntity
  8
M0
  6
DASHDOT
 62
   114
100
AcDbLine
 10
97.352575
 20
303.308104
 11
97.352575
 21
304.308104
  0
CIRCLE
  5
7C1
100
AcDbEntity
  8
M0
 62
     7
100
AcDbCircle
 10
120.402575
 20
415.208104
 40
3.0
  0
LINE
  5
7C2
100
AcDbEntity
  8
M0
 62
     7
100
AcDbLine
 10
121.993159
 20
413.617459
 11
118.811518
 21
416.799222
  0
LINE
  5
7C3
100
AcDbEntity
  8
M0
 62
     7
100
AcDbLine
 10
121.816401
 20
415.561795
 11
120.048823
 21
413.794217
  0
LINE
  5
7C4
100
AcDbEntity
  8
M0
 62
     7
100
AcDbLine
 10
120.755854
 20
416.622464
 11
118.988276
 21
414.854764
  0
LINE
  5
7C5
100
AcDbEntity
  8
M0
 62
     7
100
AcDbLine
 10
123.727575
 20
419.033104
 11
117.077575
 21
419.033104
  0
ARC
  5
7C6
100
AcDbEntity
  8
M0
 62
     7
100
AcDbCircle
 10
123.727575
 20
418.533104
 40
0.5
100
AcDbArc
 50
0.0
 51
90.0
  0
LINE
  5
7C7
100
AcDbEntity
  8
M0
 62
     7
100
AcDbLine
 10
124.227575
 20
411.883104
 11
124.227575
 21
418.533104
  0
ARC
  5
7C8
100
AcDbEntity
  8
M0
 62
     7
100
AcDbCircle
 10
123.727575
 20
411.883104
 40
0.5
100
AcDbArc
 50
270.0
 51
360.0
  0
LINE
  5
7C9
100
AcDbEntity
  8
M0
 62
     7
100
AcDbLine
 10
117.077575
 20
411.383104
 11
123.727575
 21
411.383104
  0
LINE
  5
7CA
100
AcDbEntity
  8
M0
 62
     7
100
AcDbLine
 10
116.577575
 20
418.533104
 11
116.577575
 21
411.883104
  0
ARC
  5
7CB
100
AcDbEntity
  8
M0
 62
     7
100
AcDbCircle
 10
117.077575
 20
418.533104
 40
0.5
100
AcDbArc
 50
90.0
 51
180.0
  0
ARC
  5
7CC
100
AcDbEntity
  8
M0
 62
     7
100
AcDbCircle
 10
117.077575
 20
411.883104
 40
0.5
100
AcDbArc
 50
180.0
 51
270.0
  0
LINE
  5
7CD
100
AcDbEntity
  8
M0
 62
   154
100
AcDbLine
 10
67.352577
 20
297.808104
 11
77.352576
 21
297.808104
  0
LINE
  5
7CE
100
AcDbEntity
  8
M0
 62
   154
100
AcDbLine
 10
67.352577
 20
308.808104
 11
67.352577
 21
297.808104
  0
LINE
  5
7CF
100
AcDbEntity
  8
M0
 62
   154
100
AcDbLine
 10
77.352576
 20
297.808104
 11
77.352576
 21
308.808104
  0
LINE
  5
7D0
100
AcDbEntity
  8
M0
 62
   154
100
AcDbLine
 10
75.852576
 20
315.608107
 11
75.852576
 21
310.308104
  0
LINE
  5
7D1
100
AcDbEntity
  8
M0
 62
   154
100
AcDbLine
 10
68.852576
 20
315.608107
 11
75.852576
 21
315.608107
  0
LINE
  5
7D2
100
AcDbEntity
  8
M0
 62
   154
100
AcDbLine
 10
68.852576
 20
315.608107
 11
68.852576
 21
310.308104
  0
LINE
  5
7D3
100
AcDbEntity
  8
M0
  6
DASHED
 62
   154
100
AcDbLine
 10
75.852576
 20
313.308104
 11
68.852576
 21
313.308104
  0
LINE
  5
7D4
100
AcDbEntity
  8
M0
 62
   154
100
AcDbLine
 10
68.852576
 20
329.808099
 11
75.852576
 21
329.808099
  0
LINE
  5
7D5
100
AcDbEntity
  8
M0
 62
   154
100
AcDbLine
 10
74.852576
 20
315.608107
 11
74.852576
 21
318.608107
  0
LINE
  5
7D6
100
AcDbEntity
  8
M0
 62
   154
100
AcDbLine
 10
69.852576
 20
315.608107
 11
69.852576
 21
318.608107
  0
LINE
  5
7D7
100
AcDbEntity
  8
M0
 62
   154
100
AcDbLine
 10
75.852576
 20
329.808099
 11
75.852576
 21
319.608107
  0
LINE
  5
7D8
100
AcDbEntity
  8
M0
 62
   154
100
AcDbLine
 10
68.852576
 20
329.808099
 11
68.852576
 21
319.608107
  0
LINE
  5
7D9
100
AcDbEntity
  8
M0
 62
   154
100
AcDbLine
 10
69.852576
 20
318.608107
 11
68.852576
 21
319.608107
  0
LINE
  5
7DA
100
AcDbEntity
  8
M0
 62
   154
100
AcDbLine
 10
74.852576
 20
318.608107
 11
75.852576
 21
319.608107
  0
LINE
  5
7DB
100
AcDbEntity
  8
M0
 62
   154
100
AcDbLine
 10
77.352576
 20
308.808104
 11
75.852576
 21
310.308104
  0
LINE
  5
7DC
100
AcDbEntity
  8
M0
 62
   154
100
AcDbLine
 10
67.352577
 20
308.808104
 11
68.852576
 21
310.308104
  0
LINE
  5
7DD
100
AcDbEntity
  8
M0
  6
DASHDOT
100
AcDbLine
 10
230.711032
 20
303.808104
 11
248.261374
 21
303.808104
  0
LINE
  5
7DE
100
AcDbEntity
  8
M0
100
AcDbLine
 10
235.189105
 20
299.308073
 11
235.189105
 21
308.308073
  0
ARC
  5
7DF
100
AcDbEntity
  8
M0
100
AcDbCircle
 10
243.889054
 20
303.808104
 40
11.999989
100
AcDbArc
 50
182.868824
 51
195.493471
  0
LINE
  5
7E0
100
AcDbEntity
  8
M0
100
AcDbLine
 10
235.189105
 20
299.307371
 11
233.727618
 21
299.435545
  0
LINE
  5
7E1
100
AcDbEntity
  8
M0
100
AcDbLine
 10
235.1888
 20
308.307615
 11
233.727618
 21
308.179441
  0
ARC
  5
7E2
100
AcDbEntity
  8
M0
100
AcDbCircle
 10
233.867084
 20
301.029783
 40
1.599998
100
AcDbArc
 50
195.486076
 51
265.000475
  0
ARC
  5
7E3
100
AcDbEntity
  8
M0
100
AcDbCircle
 10
233.867084
 20
306.586424
 40
1.599998
100
AcDbArc
 50
95.003433
 51
164.513933
  0
LINE
  5
7E4
100
AcDbEntity
  8
M0
100
AcDbLine
 10
233.688861
 20
303.207518
 11
233.688861
 21
304.407469
  0
LINE
  5
7E5
100
AcDbEntity
  8
M0
100
AcDbLine
 10
231.88924
 20
303.207518
 11
233.688861
 21
303.207518
  0
LINE
  5
7E6
100
AcDbEntity
  8
M0
100
AcDbLine
 10
231.904193
 20
304.407469
 11
233.688861
 21
304.407469
  0
LINE
  5
7E7
100
AcDbEntity
  8
M0
100
AcDbLine
 10
236.488849
 20
298.808104
 11
236.488849
 21
308.808104
  0
ARC
  5
7E8
100
AcDbEntity
  8
M0
100
AcDbCircle
 10
243.889054
 20
303.808104
 40
11.999989
100
AcDbArc
 50
164.506548
 51
177.137039
  0
LINE
  5
7E9
100
AcDbEntity
  8
M0
100
AcDbLine
 10
235.189105
 20
303.808104
 11
236.488849
 21
302.857371
  0
LINE
  5
7EA
100
AcDbEntity
  8
M0
100
AcDbLine
 10
235.189105
 20
304.757615
 11
236.488849
 21
303.808104
  0
LINE
  5
7EB
100
AcDbEntity
  8
M0
100
AcDbLine
 10
235.188861
 20
308.308073
 11
236.488849
 21
308.308073
  0
LINE
  5
7EC
100
AcDbEntity
  8
M0
100
AcDbLine
 10
235.188861
 20
299.308073
 11
236.488849
 21
299.308073
  0
LINE
  5
7ED
100
AcDbEntity
  8
M0
100
AcDbLine
 10
247.189105
 20
306.308073
 11
247.189105
 21
301.308073
  0
LINE
  5
7EE
100
AcDbEntity
  8
M0
100
AcDbLine
 10
239.788848
 20
301.70822
 11
247.189105
 21
301.70822
  0
LINE
  5
7EF
100
AcDbEntity
  8
M0
100
AcDbLine
 10
239.788848
 20
301.308104
 11
247.189105
 21
301.308104
  0
LINE
  5
7F0
100
AcDbEntity
  8
M0
100
AcDbLine
 10
239.788848
 20
305.908171
 11
247.189105
 21
305.908171
  0
LINE
  5
7F1
100
AcDbEntity
  8
M0
100
AcDbLine
 10
239.788848
 20
306.308104
 11
247.189105
 21
306.308104
  0
LINE
  5
7F2
100
AcDbEntity
  8
M0
100
AcDbLine
 10
236.488849
 20
298.808104
 11
237.488849
 21
298.808104
  0
LINE
  5
7F3
100
AcDbEntity
  8
M0
100
AcDbLine
 10
236.488849
 20
308.808104
 11
237.488849
 21
308.808104
  0
LINE
  5
7F4
100
AcDbEntity
  8
M0
100
AcDbLine
 10
236.138792
 20
314.608197
 11
236.138795
 21
309.308194
  0
LINE
  5
7F5
100
AcDbEntity
  8
M0
100
AcDbLine
 10
240.138794
 20
312.308196
 11
239.788864
 21
312.308196
  0
LINE
  5
7F6
100
AcDbEntity
  8
M0
100
AcDbLine
 10
240.138795
 20
310.308196
 11
238.638795
 21
310.308195
  0
LINE
  5
7F7
100
AcDbEntity
  8
M0
100
AcDbLine
 10
264.138794
 20
312.308211
 11
264.138795
 21
309.308211
  0
LINE
  5
7F8
100
AcDbEntity
  8
M0
100
AcDbLine
 10
249.988802
 20
309.308203
 11
249.988803
 21
307.808203
  0
LINE
  5
7F9
100
AcDbEntity
  8
M0
100
AcDbLine
 10
249.988803
 20
307.808203
 11
240.138796
 21
307.808196
  0
LINE
  5
7FA
100
AcDbEntity
  8
M0
100
AcDbLine
 10
264.138794
 20
312.308211
 11
252.4888
 21
312.308204
  0
LINE
  5
7FB
100
AcDbEntity
  8
M0
100
AcDbLine
 10
252.488799
 20
313.812482
 11
252.4888
 21
312.308204
  0
LINE
  5
7FC
100
AcDbEntity
  8
M0
100
AcDbLine
 10
261.138793
 20
313.812482
 11
261.138794
 21
312.30821
  0
LINE
  5
7FD
100
AcDbEntity
  8
M0
100
AcDbLine
 10
240.138793
 20
313.308196
 11
240.138796
 21
307.808196
  0
LINE
  5
7FE
100
AcDbEntity
  8
M0
100
AcDbLine
 10
252.488799
 20
313.308204
 11
240.138793
 21
313.308196
  0
LINE
  5
7FF
100
AcDbEntity
  8
M0
100
AcDbLine
 10
240.138794
 20
311.808196
 11
241.638793
 21
313.308197
  0
LINE
  5
800
100
AcDbEntity
  8
M0
100
AcDbLine
 10
264.138795
 20
309.308211
 11
249.988802
 21
309.308203
  0
LINE
  5
801
100
AcDbEntity
  8
M0
100
AcDbLine
 10
240.138795
 20
309.308196
 11
239.788866
 21
309.308196
  0
LINE
  5
802
100
AcDbEntity
  8
M0
100
AcDbLine
 10
261.138793
 20
313.30821
 11
255.988799
 21
313.308206
  0
LINE
  5
803
100
AcDbEntity
  8
M0
100
AcDbLine
 10
255.988799
 20
313.812482
 11
255.988799
 21
313.308206
  0
LINE
  5
804
100
AcDbEntity
  8
M0
100
AcDbLine
 10
238.422529
 20
314.608198
 11
236.138792
 21
314.608197
  0
LINE
  5
805
100
AcDbEntity
  8
M0
100
AcDbLine
 10
237.488863
 20
309.308195
 11
236.138795
 21
309.308194
  0
LINE
  5
806
100
AcDbEntity
  8
M0
100
AcDbLine
 10
237.488876
 20
312.308195
 11
236.138794
 21
312.308194
  0
ARC
  5
807
100
AcDbEntity
  8
M0
100
AcDbCircle
 10
240.788848
 20
312.308104
 40
1.0
100
AcDbArc
 50
90.0
 51
180.0
  0
LINE
  5
808
100
AcDbEntity
  8
M0
100
AcDbLine
 10
240.788848
 20
313.308104
 11
248.48884
 21
313.308104
  0
ARC
  5
809
100
AcDbEntity
  8
M0
100
AcDbCircle
 10
248.48884
 20
316.608107
 40
3.299999
100
AcDbArc
 50
270.0
 51
302.095981
  0
LINE
  5
80A
100
AcDbEntity
  8
M0
100
AcDbLine
 10
237.488849
 20
297.808104
 11
239.788848
 21
297.808104
  0
LINE
  5
80B
100
AcDbEntity
  8
M0
100
AcDbLine
 10
240.788848
 20
315.608107
 11
241.003227
 21
315.608107
  0
ARC
  5
80C
100
AcDbEntity
  8
M0
100
AcDbCircle
 10
240.788848
 20
312.308104
 40
3.299999
100
AcDbArc
 50
90.0
 51
180.0
  0
LINE
  5
80D
100
AcDbEntity
  8
M0
100
AcDbLine
 10
246.98884
 20
313.308104
 11
246.98884
 21
314.793385
  0
LINE
  5
80E
100
AcDbEntity
  8
M0
100
AcDbLine
 10
247.98884
 20
313.308104
 11
247.98884
 21
314.071236
  0
LINE
  5
80F
100
AcDbEntity
  8
M0
100
AcDbLine
 10
237.488849
 20
308.808104
 11
239.788848
 21
308.808104
  0
LINE
  5
810
100
AcDbEntity
  8
M0
100
AcDbLine
 10
237.488849
 20
310.308104
 11
239.788848
 21
310.308104
  0
LINE
  5
811
100
AcDbEntity
  8
M0
100
AcDbLine
 10
239.788848
 20
297.808104
 11
239.788848
 21
312.308104
  0
LINE
  5
812
100
AcDbEntity
  8
M0
100
AcDbLine
 10
237.488849
 20
297.808104
 11
237.488849
 21
312.308104
  0
ARC
  5
813
100
AcDbEntity
  8
M0
100
AcDbCircle
 10
260.488841
 20
312.308104
 40
1.0
100
AcDbArc
 50
0.0
 51
49.464273
  0
LINE
  5
814
100
AcDbEntity
  8
M0
100
AcDbLine
 10
263.788828
 20
297.808104
 11
261.48884
 21
297.808104
  0
ARC
  5
815
100
AcDbEntity
  8
M0
100
AcDbCircle
 10
260.488841
 20
312.308104
 40
3.299999
100
AcDbArc
 50
0.0
 51
27.121076
  0
LINE
  5
816
100
AcDbEntity
  8
M0
100
AcDbLine
 10
263.788828
 20
308.808104
 11
261.48884
 21
308.808104
  0
LINE
  5
817
100
AcDbEntity
  8
M0
100
AcDbLine
 10
263.788828
 20
297.808104
 11
263.788828
 21
309.308226
  0
LINE
  5
818
100
AcDbEntity
  8
M0
100
AcDbLine
 10
261.48884
 20
297.808104
 11
261.48884
 21
309.308226
  0
LINE
  5
819
100
AcDbEntity
  8
M0
  6
DASHDOT
100
AcDbLine
 10
254.711024
 20
303.808104
 11
272.261366
 21
303.808104
  0
LINE
  5
81A
100
AcDbEntity
  8
M0
100
AcDbLine
 10
259.189097
 20
299.308073
 11
259.189097
 21
308.308073
  0
ARC
  5
81B
100
AcDbEntity
  8
M0
100
AcDbCircle
 10
267.889045
 20
303.808104
 40
11.999989
100
AcDbArc
 50
182.868824
 51
195.493471
  0
LINE
  5
81C
100
AcDbEntity
  8
M0
100
AcDbLine
 10
259.189097
 20
299.307371
 11
257.72761
 21
299.435545
  0
LINE
  5
81D
100
AcDbEntity
  8
M0
100
AcDbLine
 10
259.188791
 20
308.307615
 11
257.72761
 21
308.179441
  0
ARC
  5
81E
100
AcDbEntity
  8
M0
100
AcDbCircle
 10
257.867075
 20
301.029783
 40
1.599998
100
AcDbArc
 50
195.486076
 51
265.000475
  0
ARC
  5
81F
100
AcDbEntity
  8
M0
100
AcDbCircle
 10
257.867075
 20
306.586424
 40
1.599998
100
AcDbArc
 50
95.003433
 51
164.513933
  0
LINE
  5
820
100
AcDbEntity
  8
M0
100
AcDbLine
 10
257.688853
 20
303.207518
 11
257.688853
 21
304.407469
  0
LINE
  5
821
100
AcDbEntity
  8
M0
100
AcDbLine
 10
255.889231
 20
303.207518
 11
257.688853
 21
303.207518
  0
LINE
  5
822
100
AcDbEntity
  8
M0
100
AcDbLine
 10
255.904185
 20
304.407469
 11
257.688853
 21
304.407469
  0
LINE
  5
823
100
AcDbEntity
  8
M0
100
AcDbLine
 10
260.48884
 20
298.808104
 11
260.48884
 21
308.808104
  0
ARC
  5
824
100
AcDbEntity
  8
M0
100
AcDbCircle
 10
267.889045
 20
303.808104
 40
11.999989
100
AcDbArc
 50
164.506548
 51
177.137039
  0
LINE
  5
825
100
AcDbEntity
  8
M0
100
AcDbLine
 10
259.189097
 20
303.808104
 11
260.48884
 21
302.857371
  0
LINE
  5
826
100
AcDbEntity
  8
M0
100
AcDbLine
 10
259.189097
 20
304.757615
 11
260.48884
 21
303.808104
  0
LINE
  5
827
100
AcDbEntity
  8
M0
100
AcDbLine
 10
259.188853
 20
308.308073
 11
260.48884
 21
308.308073
  0
LINE
  5
828
100
AcDbEntity
  8
M0
100
AcDbLine
 10
259.188853
 20
299.308073
 11
260.48884
 21
299.308073
  0
LINE
  5
829
100
AcDbEntity
  8
M0
100
AcDbLine
 10
271.189097
 20
306.308073
 11
271.189097
 21
301.308073
  0
LINE
  5
82A
100
AcDbEntity
  8
M0
100
AcDbLine
 10
263.78884
 20
301.70822
 11
271.189097
 21
301.70822
  0
LINE
  5
82B
100
AcDbEntity
  8
M0
100
AcDbLine
 10
263.78884
 20
301.308104
 11
271.189097
 21
301.308104
  0
LINE
  5
82C
100
AcDbEntity
  8
M0
100
AcDbLine
 10
263.78884
 20
305.908171
 11
271.189097
 21
305.908171
  0
LINE
  5
82D
100
AcDbEntity
  8
M0
100
AcDbLine
 10
263.78884
 20
306.308104
 11
271.189097
 21
306.308104
  0
LINE
  5
82E
100
AcDbEntity
  8
M0
100
AcDbLine
 10
260.48884
 20
298.808104
 11
261.48884
 21
298.808104
  0
LINE
  5
82F
100
AcDbEntity
  8
M0
100
AcDbLine
 10
260.48884
 20
308.808104
 11
261.48884
 21
308.808104
  0
LINE
  5
830
100
AcDbEntity
  8
M0
  6
DASHDOT
 62
   154
100
AcDbLine
 10
73.302575
 20
437.808104
 11
73.302575
 21
438.808104
  0
CIRCLE
  5
831
100
AcDbEntity
  8
M0
 62
   154
100
AcDbCircle
 10
73.302575
 20
438.308104
 40
4.499996
  0
LINE
  5
832
100
AcDbEntity
  8
M0
  6
DASHDOT
 62
   154
100
AcDbLine
 10
72.802575
 20
438.308104
 11
73.802575
 21
438.308104
  0
LINE
  5
833
100
AcDbEntity
  8
M0
 62
   154
100
AcDbLine
 10
72.835671
 20
440.189238
 11
75.183648
 21
437.841246
  0
LINE
  5
834
100
AcDbEntity
  8
M0
 62
   154
100
AcDbLine
 10
71.421471
 20
438.775023
 11
73.769448
 21
436.427031
  0
LINE
  5
835
100
AcDbEntity
  8
M0
 62
   154
100
AcDbLine
 10
75.371529
 20
440.377013
 11
71.108559
 21
436.114074
  0
LINE
  5
836
100
AcDbEntity
  8
M0
 62
     2
100
AcDbLine
 10
83.891729
 20
341.26895
 11
85.736578
 21
339.424117
  0
LINE
  5
837
100
AcDbEntity
  8
M0
 62
     2
100
AcDbLine
 10
85.863455
 20
342.02606
 11
83.288381
 21
339.450987
  0
LINE
  5
838
100
AcDbEntity
  8
M0
 62
     2
100
AcDbLine
 10
86.570562
 20
341.318953
 11
83.995489
 21
338.74388
  0
CIRCLE
  5
839
100
AcDbEntity
  8
M0
 62
     2
100
AcDbCircle
 10
84.852606
 20
340.308104
 40
3.499993
  0
LINE
  5
83A
100
AcDbEntity
  8
M0
  6
DASHDOT
 62
     2
100
AcDbLine
 10
84.352606
 20
340.308104
 11
85.352606
 21
340.308104
  0
LINE
  5
83B
100
AcDbEntity
  8
M0
  6
DASHDOT
 62
     2
100
AcDbLine
 10
84.852606
 20
339.808104
 11
84.852606
 21
340.808104
  0
ARC
  5
83C
100
AcDbEntity
  8
M0
 62
     7
100
AcDbCircle
 10
83.227575
 20
362.833104
 40
0.725
100
AcDbArc
 50
256.677021
 51
270.0
  0
ARC
  5
83D
100
AcDbEntity
  8
M0
 62
     7
100
AcDbCircle
 10
83.227575
 20
360.783104
 40
0.725
100
AcDbArc
 50
90.0
 51
123.683498
  0
LINE
  5
83E
100
AcDbEntity
  8
M0
 62
     7
100
AcDbLine
 10
83.227575
 20
361.508104
 11
83.627575
 21
361.508104
  0
LINE
  5
83F
100
AcDbEntity
  8
M0
 62
     7
100
AcDbLine
 10
83.227575
 20
362.108104
 11
83.627575
 21
362.108104
  0
LINE
  5
840
100
AcDbEntity
  8
M0
 62
     7
100
AcDbLine
 10
83.627575
 20
362.108104
 11
83.627575
 21
361.508104
  0
ARC
  5
841
100
AcDbEntity
  8
M0
 62
     7
100
AcDbCircle
 10
82.202575
 20
361.808104
 40
2.75
100
AcDbArc
 50
269.031179
 51
417.203183
  0
LINE
  5
842
100
AcDbEntity
  8
M0
 62
     2
100
AcDbLine
 10
96.391714
 20
326.76895
 11
98.236562
 21
324.924117
  0
LINE
  5
843
100
AcDbEntity
  8
M0
 62
     2
100
AcDbLine
 10
98.363439
 20
327.52606
 11
95.788366
 21
324.950987
  0
LINE
  5
844
100
AcDbEntity
  8
M0
 62
     2
100
AcDbLine
 10
99.070547
 20
326.818953
 11
96.495474
 21
324.24388
  0
CIRCLE
  5
845
100
AcDbEntity
  8
M0
 62
     2
100
AcDbCircle
 10
97.35259
 20
325.808104
 40
3.499993
  0
LINE
  5
846
100
AcDbEntity
  8
M0
  6
DASHDOT
 62
     2
100
AcDbLine
 10
96.85259
 20
325.808104
 11
97.85259
 21
325.808104
  0
LINE
  5
847
100
AcDbEntity
  8
M0
  6
DASHDOT
 62
     2
100
AcDbLine
 10
97.35259
 20
325.308104
 11
97.35259
 21
326.308104
  0
CIRCLE
  5
848
100
AcDbEntity
  8
M0
 62
   114
100
AcDbCircle
 10
72.352575
 20
303.808104
 40
4.5
  0
CIRCLE
  5
849
100
AcDbEntity
  8
M0
 62
   114
100
AcDbCircle
 10
72.352575
 20
303.808104
 40
5.0
  0
LINE
  5
84A
100
AcDbEntity
  8
M0
  6
DASHDOT
 62
   114
100
AcDbLine
 10
71.852575
 20
303.808104
 11
72.852575
 21
303.808104
  0
LINE
  5
84B
100
AcDbEntity
  8
M0
  6
DASHDOT
 62
   114
100
AcDbLine
 10
72.352575
 20
303.308104
 11
72.352575
 21
304.308104
  0
CIRCLE
  5
84C
100
AcDbEntity
  8
M0
 62
   114
100
AcDbCircle
 10
84.852575
 20
303.808104
 40
4.5
  0
CIRCLE
  5
84D
100
AcDbEntity
  8
M0
 62
   114
100
AcDbCircle
 10
84.852575
 20
303.808104
 40
5.0
  0
LINE
  5
84E
100
AcDbEntity
  8
M0
  6
DASHDOT
 62
   114
100
AcDbLine
 10
84.352575
 20
303.808104
 11
85.352575
 21
303.808104
  0
LINE
  5
84F
100
AcDbEntity
  8
M0
  6
DASHDOT
 62
   114
100
AcDbLine
 10
84.852575
 20
303.308104
 11
84.852575
 21
304.308104
  0
LINE
  5
850
100
AcDbEntity
  8
M0
  6
DASHED
 62
   154
100
AcDbLine
 10
51.302578
 20
424.008104
 11
51.302578
 21
364.608104
  0
LINE
  5
851
100
AcDbEntity
  8
M0
  6
DASHED
 62
   154
100
AcDbLine
 10
51.302578
 20
364.608104
 11
63.802578
 21
364.608104
  0
LINE
  5
852
100
AcDbEntity
  8
M0
  6
DASHED
 62
   154
100
AcDbLine
 10
51.302578
 20
424.008104
 11
63.802578
 21
424.008104
  0
LINE
  5
853
100
AcDbEntity
  8
M0
  6
DASHED
 62
   154
100
AcDbLine
 10
139.102572
 20
424.008104
 11
126.602572
 21
424.008104
  0
LINE
  5
854
100
AcDbEntity
  8
M0
  6
DASHED
 62
   154
100
AcDbLine
 10
139.102572
 20
424.008104
 11
139.102572
 21
364.608104
  0
LINE
  5
855
100
AcDbEntity
  8
M0
  6
DASHED
 62
   154
100
AcDbLine
 10
139.102572
 20
364.608104
 11
126.602572
 21
364.608104
  0
CIRCLE
  5
856
100
AcDbEntity
  8
M0
 62
   154
100
AcDbCircle
 10
117.102544
 20
438.308104
 40
4.5
  0
CIRCLE
  5
857
100
AcDbEntity
  8
M0
 62
   154
100
AcDbCircle
 10
117.102544
 20
438.308104
 40
5.0
  0
CIRCLE
  5
858
100
AcDbEntity
  8
M0
 62
   154
100
AcDbCircle
 10
95.202572
 20
438.308104
 40
5.0
  0
CIRCLE
  5
859
100
AcDbEntity
  8
M0
 62
   154
100
AcDbCircle
 10
73.302575
 20
438.308104
 40
5.0
  0
LINE
  5
85A
100
AcDbEntity
  8
M0
  6
DASHDOT
100
AcDbLine
 10
95.202573
 20
295.833828
 11
95.202573
 21
447.100912
  0
LINE
  5
85B
100
AcDbEntity
  8
M0
  6
DASHDOT
100
AcDbLine
 10
49.302578
 20
394.308104
 11
141.102572
 21
394.308104
  0
ARC
  5
85C
100
AcDbEntity
  8
M0
 62
     7
100
AcDbCircle
 10
239.088521
 20
435.56361
 40
1.599998
100
AcDbArc
 50
179.999966
 51
264.99283
  0
LINE
  5
85D
100
AcDbEntity
  8
M0
 62
     7
100
AcDbLine
 10
253.088521
 20
436.308544
 11
245.388521
 21
436.308544
  0
LINE
  5
85E
100
AcDbEntity
  8
M0
 62
     7
100
AcDbLine
 10
253.088539
 20
440.30848
 11
245.388539
 21
440.308191
  0
ARC
  5
85F
100
AcDbEntity
  8
M0
 62
     7
100
AcDbCircle
 10
239.088521
 20
441.053936
 40
1.599998
100
AcDbArc
 50
95.007035
 51
179.999966
  0
LINE
  5
860
100
AcDbEntity
  8
M0
  6
DIVIDE
 62
     7
100
AcDbLine
 10
340.68852
 20
406.808103
 11
340.68852
 21
381.808103
  0
LINE
  5
861
100
AcDbEntity
  8
M0
  6
DIVIDE
 62
     7
100
AcDbLine
 10
340.68852
 20
406.808103
 11
334.18852
 21
406.808103
  0
LINE
  5
862
100
AcDbEntity
  8
M0
  6
DIVIDE
 62
     7
100
AcDbLine
 10
341.68852
 20
380.808103
 11
335.18852
 21
380.808103
  0
LINE
  5
863
100
AcDbEntity
  8
M0
  6
DIVIDE
 62
     7
100
AcDbLine
 10
335.18852
 20
411.808103
 11
335.18852
 21
407.808103
  0
LINE
  5
864
100
AcDbEntity
  8
M0
  6
DIVIDE
 62
     7
100
AcDbLine
 10
335.18852
 20
411.808103
 11
334.18852
 21
411.808103
  0
LINE
  5
865
100
AcDbEntity
  8
M0
  6
DIVIDE
 62
     7
100
AcDbLine
 10
341.68852
 20
380.808103
 11
341.68852
 21
407.808103
  0
LINE
  5
866
100
AcDbEntity
  8
M0
 62
     7
100
AcDbLine
 10
245.388521
 20
435.808544
 11
253.088521
 21
435.808544
  0
LINE
  5
867
100
AcDbEntity
  8
M0
  6
DIVIDE
 62
     7
100
AcDbLine
 10
335.18852
 20
380.808103
 11
335.18852
 21
376.808103
  0
LINE
  5
868
100
AcDbEntity
  8
M0
  6
DIVIDE
 62
     7
100
AcDbLine
 10
340.68852
 20
381.808103
 11
334.18852
 21
381.808103
  0
LINE
  5
869
100
AcDbEntity
  8
M0
  6
DIVIDE
 62
     7
100
AcDbLine
 10
341.68852
 20
407.808103
 11
335.18852
 21
407.808103
  0
LINE
  5
86A
100
AcDbEntity
  8
M0
 62
     7
100
AcDbLine
 10
242.088521
 20
443.308067
 11
243.088521
 21
443.308104
  0
LINE
  5
86B
100
AcDbEntity
  8
M0
  6
DIVIDE
 62
     7
100
AcDbLine
 10
334.18852
 20
376.808103
 11
335.18852
 21
376.808103
  0
LINE
  5
86C
100
AcDbEntity
  8
M0
 62
     7
100
AcDbLine
 10
242.088521
 20
443.308067
 11
242.088521
 21
433.308067
  0
LINE
  5
86D
100
AcDbEntity
  8
M0
 62
     7
100
AcDbLine
 10
240.788472
 20
433.808788
 11
240.788472
 21
442.808788
  0
LINE
  5
86E
100
AcDbEntity
  8
M0
 62
     7
100
AcDbLine
 10
238.948872
 20
433.969707
 11
240.788472
 21
433.808788
  0
LINE
  5
86F
100
AcDbEntity
  8
M0
 62
     7
100
AcDbLine
 10
242.088521
 20
433.308067
 11
243.088521
 21
433.308104
  0
LINE
  5
870
100
AcDbEntity
  8
M0
 62
     7
100
AcDbLine
 10
245.388521
 20
429.808105
 11
245.388521
 21
444.308104
  0
LINE
  5
871
100
AcDbEntity
  8
M0
 62
     7
100
AcDbLine
 10
240.788472
 20
433.808773
 11
242.088521
 21
433.808773
  0
LINE
  5
872
100
AcDbEntity
  8
M0
 62
     7
100
AcDbLine
 10
253.088521
 20
440.80848
 11
245.388521
 21
440.808191
  0
LINE
  5
873
100
AcDbEntity
  8
M0
 62
     7
100
AcDbLine
 10
243.088521
 20
444.308104
 11
245.388521
 21
444.308104
  0
LINE
  5
874
100
AcDbEntity
  8
M0
 62
     7
100
AcDbLine
 10
242.088521
 20
442.808773
 11
240.788472
 21
442.808773
  0
LINE
  5
875
100
AcDbEntity
  8
M0
 62
     7
100
AcDbLine
 10
238.948872
 20
442.647854
 11
240.788472
 21
442.808788
  0
LINE
  5
876
100
AcDbEntity
  8
M0
 62
     7
100
AcDbLine
 10
243.088521
 20
433.308104
 11
243.088521
 21
443.308104
  0
LINE
  5
877
100
AcDbEntity
  8
M0
 62
     7
100
AcDbLine
 10
237.48856
 20
441.053936
 11
237.48856
 21
435.56361
  0
LINE
  5
878
100
AcDbEntity
  8
M0
 62
     7
100
AcDbLine
 10
253.088521
 20
435.808544
 11
253.088521
 21
440.80848
  0
LINE
  5
879
100
AcDbEntity
  8
M0
 62
     7
100
AcDbLine
 10
243.088521
 20
444.308104
 11
243.088521
 21
429.808105
  0
LINE
  5
87A
100
AcDbEntity
  8
M0
 62
   154
100
AcDbLine
 10
102.352576
 20
297.808104
 11
92.352576
 21
297.808104
  0
LINE
  5
87B
100
AcDbEntity
  8
M0
 62
   154
100
AcDbLine
 10
102.352576
 20
308.808104
 11
102.352576
 21
297.808104
  0
LINE
  5
87C
100
AcDbEntity
  8
M0
 62
   154
100
AcDbLine
 10
92.352576
 20
297.808104
 11
92.352576
 21
308.808104
  0
LINE
  5
87D
100
AcDbEntity
  8
M0
 62
   154
100
AcDbLine
 10
93.852576
 20
315.608107
 11
93.852576
 21
310.308104
  0
LINE
  5
87E
100
AcDbEntity
  8
M0
 62
   154
100
AcDbLine
 10
100.852576
 20
315.608107
 11
93.852576
 21
315.608107
  0
LINE
  5
87F
100
AcDbEntity
  8
M0
 62
   154
100
AcDbLine
 10
100.852576
 20
315.608107
 11
100.852576
 21
310.308104
  0
LINE
  5
880
100
AcDbEntity
  8
M0
  6
DASHED
 62
   154
100
AcDbLine
 10
93.852576
 20
313.308104
 11
100.852576
 21
313.308104
  0
LINE
  5
881
100
AcDbEntity
  8
M0
 62
   154
100
AcDbLine
 10
100.852576
 20
329.808099
 11
93.852576
 21
329.808099
  0
LINE
  5
882
100
AcDbEntity
  8
M0
 62
   154
100
AcDbLine
 10
94.852576
 20
315.608107
 11
94.852576
 21
318.608107
  0
LINE
  5
883
100
AcDbEntity
  8
M0
 62
   154
100
AcDbLine
 10
99.852576
 20
315.608107
 11
99.852576
 21
318.608107
  0
LINE
  5
884
100
AcDbEntity
  8
M0
 62
   154
100
AcDbLine
 10
93.852576
 20
329.808099
 11
93.852576
 21
319.608107
  0
LINE
  5
885
100
AcDbEntity
  8
M0
 62
   154
100
AcDbLine
 10
100.852576
 20
329.808099
 11
100.852576
 21
319.608107
  0
LINE
  5
886
100
AcDbEntity
  8
M0
 62
   154
100
AcDbLine
 10
99.852576
 20
318.608107
 11
100.852576
 21
319.608107
  0
LINE
  5
887
100
AcDbEntity
  8
M0
 62
   154
100
AcDbLine
 10
94.852576
 20
318.608107
 11
93.852576
 21
319.608107
  0
LINE
  5
888
100
AcDbEntity
  8
M0
 62
   154
100
AcDbLine
 10
92.352576
 20
308.808104
 11
93.852576
 21
310.308104
  0
LINE
  5
889
100
AcDbEntity
  8
M0
 62
   154
100
AcDbLine
 10
102.352576
 20
308.808104
 11
100.852576
 21
310.308104
  0
LINE
  5
88A
100
AcDbEntity
  8
M0
  6
DASHDOT
 62
   154
100
AcDbLine
 10
95.202572
 20
437.808104
 11
95.202572
 21
438.808104
  0
CIRCLE
  5
88B
100
AcDbEntity
  8
M0
 62
   154
100
AcDbCircle
 10
95.202572
 20
438.308104
 40
4.499996
  0
LINE
  5
88C
100
AcDbEntity
  8
M0
  6
DASHDOT
 62
   154
100
AcDbLine
 10
94.702572
 20
438.308104
 11
95.702572
 21
438.308104
  0
LINE
  5
88D
100
AcDbEntity
  8
M0
 62
   154
100
AcDbLine
 10
94.735668
 20
440.189238
 11
97.083645
 21
437.841246
  0
LINE
  5
88E
100
AcDbEntity
  8
M0
 62
   154
100
AcDbLine
 10
93.321468
 20
438.775023
 11
95.669445
 21
436.427031
  0
LINE
  5
88F
100
AcDbEntity
  8
M0
 62
   154
100
AcDbLine
 10
97.271526
 20
440.377013
 11
93.008556
 21
436.114074
  0
LINE
  5
890
100
AcDbEntity
  8
M0
 62
   154
100
AcDbLine
 10
99.421529
 20
305.877013
 11
95.158559
 21
301.614073
  0
LINE
  5
891
100
AcDbEntity
  8
M0
 62
   154
100
AcDbLine
 10
95.471471
 20
304.275023
 11
97.819448
 21
301.927031
  0
LINE
  5
892
100
AcDbEntity
  8
M0
 62
   154
100
AcDbLine
 10
96.885671
 20
305.689238
 11
99.233648
 21
303.341246
  0
LINE
  5
893
100
AcDbEntity
  8
M0
 62
   154
100
AcDbLine
 10
86.921529
 20
305.877013
 11
82.658559
 21
301.614073
  0
LINE
  5
894
100
AcDbEntity
  8
M0
 62
   154
100
AcDbLine
 10
82.971471
 20
304.275023
 11
85.319448
 21
301.927031
  0
LINE
  5
895
100
AcDbEntity
  8
M0
 62
   154
100
AcDbLine
 10
84.385671
 20
305.689238
 11
86.733648
 21
303.341246
  0
LINE
  5
896
100
AcDbEntity
  8
M0
 62
   154
100
AcDbLine
 10
74.421529
 20
305.877013
 11
70.158559
 21
301.614073
  0
LINE
  5
897
100
AcDbEntity
  8
M0
 62
   154
100
AcDbLine
 10
70.471471
 20
304.275023
 11
72.819448
 21
301.927031
  0
LINE
  5
898
100
AcDbEntity
  8
M0
 62
   154
100
AcDbLine
 10
71.885671
 20
305.689238
 11
74.233648
 21
303.341246
  0
CIRCLE
  5
899
100
AcDbEntity
  8
M0
100
AcDbCircle
 10
122.202573
 20
148.287177
 40
2.0
  0
CIRCLE
  5
89A
100
AcDbEntity
  8
M0
100
AcDbCircle
 10
122.202573
 20
148.287177
 40
1.7
  0
CIRCLE
  5
89B
100
AcDbEntity
  8
M0
100
AcDbCircle
 10
68.202572
 20
207.287177
 40
2.0
  0
CIRCLE
  5
89C
100
AcDbEntity
  8
M0
100
AcDbCircle
 10
68.202572
 20
207.287177
 40
1.7
  0
LINE
  5
89D
100
AcDbEntity
  8
M0
  6
DIVIDE
100
AcDbLine
 10
112.172572
 20
227.287177
 11
78.232574
 21
227.287177
  0
LINE
  5
89E
100
AcDbEntity
  8
M0
  6
DIVIDE
100
AcDbLine
 10
78.232574
 20
227.287177
 11
78.232574
 21
212.787185
  0
LINE
  5
89F
100
AcDbEntity
  8
M0
  6
DIVIDE
100
AcDbLine
 10
112.172572
 20
227.287177
 11
112.172572
 21
212.787185
  0
LINE
  5
8A0
100
AcDbEntity
  8
M0
  6
DASHDOT
100
AcDbLine
 10
72.299976
 20
207.287177
 11
64.105167
 21
207.287177
  0
LINE
  5
8A1
100
AcDbEntity
  8
M0
  6
DASHDOT
100
AcDbLine
 10
68.202564
 20
211.384574
 11
68.202579
 21
203.189765
  0
LINE
  5
8A2
100
AcDbEntity
  8
M0
  6
DASHDOT
100
AcDbLine
 10
126.799978
 20
148.287177
 11
117.605169
 21
148.287177
  0
LINE
  5
8A3
100
AcDbEntity
  8
M0
  6
DASHDOT
100
AcDbLine
 10
122.202566
 20
152.884574
 11
122.202581
 21
143.189765
  0
LINE
  5
8A4
100
AcDbEntity
  8
M0
  6
DIVIDE
100
AcDbLine
 10
126.60257
 20
80.787159
 11
63.802573
 21
80.787195
  0
ARC
  5
8A5
100
AcDbEntity
  8
M0
  6
DIVIDE
100
AcDbCircle
 10
75.202573
 20
211.787184
 40
1.0
100
AcDbArc
 50
81.373073
 51
90.0
  0
LINE
  5
8A6
100
AcDbEntity
  8
M0
  6
DIVIDE
100
AcDbLine
 10
126.60257
 20
212.787185
 11
126.60257
 21
80.787159
  0
LINE
  5
8A7
100
AcDbEntity
  8
M0
  6
DIVIDE
100
AcDbLine
 10
112.172572
 20
212.787185
 11
126.60257
 21
212.787185
  0
LINE
  5
8A8
100
AcDbEntity
  8
M0
  6
DIVIDE
100
AcDbLine
 10
63.802573
 20
212.787185
 11
78.232574
 21
212.787185
  0
LINE
  5
8A9
100
AcDbEntity
  8
M0
  6
DIVIDE
100
AcDbLine
 10
63.802573
 20
80.787195
 11
63.802573
 21
212.787185
  0
LINE
  5
8AA
100
AcDbEntity
  8
M0
  6
DIVIDE
100
AcDbLine
 10
114.902573
 20
212.787185
 11
114.502574
 21
212.787185
  0
LINE
  5
8AB
100
AcDbEntity
  8
M0
  6
DIVIDE
100
AcDbLine
 10
75.502573
 20
212.787185
 11
75.902572
 21
212.787185
  0
LINE
  5
8AC
100
AcDbEntity
  8
M0
  6
DIVIDE
100
AcDbLine
 10
114.702574
 20
212.787185
 11
114.502574
 21
212.787185
  0
LINE
  5
8AD
100
AcDbEntity
  8
M1
 62
     2
100
AcDbLine
 10
18.181818
 20
18.181818
 11
18.181818
 21
518.181807
  0
LINE
  5
8AE
100
AcDbEntity
  8
M1
 62
     2
100
AcDbLine
 10
18.181818
 20
518.181807
 11
363.636356
 21
518.181807
  0
LINE
  5
8AF
100
AcDbEntity
  8
M1
 62
     2
100
AcDbLine
 10
363.636356
 20
518.181807
 11
363.636356
 21
18.181818
  0
LINE
  5
8B0
100
AcDbEntity
  8
M1
 62
     2
100
AcDbLine
 10
363.636356
 20
18.181818
 11
18.181818
 21
18.181818
  0
LINE
  5
8B1
100
AcDbEntity
  8
M1
 62
     2
100
AcDbLine
 10
363.636356
 20
36.363636
 11
181.818178
 21
36.363636
  0
LINE
  5
8B2
100
AcDbEntity
  8
M1
 62
     2
100
AcDbLine
 10
363.636356
 20
54.545453
 11
181.818178
 21
54.545453
  0
LINE
  5
8B3
100
AcDbEntity
  8
M1
 62
     2
100
AcDbLine
 10
363.636356
 20
72.727271
 11
181.818178
 21
72.727271
  0
LINE
  5
8B4
100
AcDbEntity
  8
M1
 62
     2
100
AcDbLine
 10
181.818178
 20
18.181818
 11
181.818178
 21
72.727271
  0
TEXT
  5
8B5
100
AcDbEntity
  8
M1
 62
     2
100
AcDbText
 10
186.363632
 20
22.727272
 40
9.090909
  1
適　用；
 41
1.0
  7
STANDARD
100
AcDbText
  0
TEXT
  5
8B6
100
AcDbEntity
  8
M1
 62
     2
100
AcDbText
 10
186.363632
 20
59.090908
 40
9.090909
  1
登録名：
 41
1.0
  7
STANDARD
100
AcDbText
  0
TEXT
  5
8B7
100
AcDbEntity
  8
M1
 62
     2
100
AcDbText
 10
229.999995
 20
59.090908
 40
9.090909
  1
ＤＭＨＳ２５ＴＧＲ００
 41
0.5
  7
STANDARD
100
AcDbText
  0
TEXT
  5
8B8
100
AcDbEntity
  8
M1
 62
     2
100
AcDbText
 10
186.363632
 20
40.90909
 40
9.090909
  1
形　式；
 41
1.0
  7
STANDARD
100
AcDbText
  0
TEXT
  5
8B9
100
AcDbEntity
  8
M1
 62
     2
100
AcDbText
 10
229.999995
 20
40.90909
 40
9.090909
  1
ＨＳ２５－ＴＧ
 41
0.5
  7
STANDARD
100
AcDbText
  0
LINE
  5
8BA
100
AcDbEntity
  8
DN0
100
AcDbLine
 10
79.849043
 20
57.214194
 11
109.358134
 21
57.214194
  0
TEXT
  5
8BB
100
AcDbEntity
  8
DN0
100
AcDbText
 10
80.664195
 20
57.941467
 40
7.272727
  1
せん孔図
 41
0.833333
  7
STANDARD
100
AcDbText
  0
ENDSEC
  0
SECTION
  2
OBJECTS
  0
DICTIONARY
  5
C
100
AcDbDictionary
  3
ACAD_GROUP
350
D
  3
ACAD_MLINESTYLE
350
E
  3
ACDBVARIABLEDICTIONARY
350
153
  0
DICTIONARY
  5
D
102
{ACAD_REACTORS
330
C
102
}
100
AcDbDictionary
  0
DICTIONARY
  5
E
102
{ACAD_REACTORS
330
C
102
}
100
AcDbDictionary
  3
STANDARD
350
13
  0
DICTIONARY
  5
153
102
{ACAD_REACTORS
330
C
102
}
100
AcDbDictionary
  3
SORTENTS
350
154
  0
MLINESTYLE
  5
13
102
{ACAD_REACTORS
330
E
102
}
100
AcDbMlineStyle
  2
STANDARD
 70
     0
  3

 62
     0
 51
90.0
 52
90.0
 71
     2
 49
0.5
 62
   256
  6
BYLAYER
 49
-0.5
 62
   256
  6
BYLAYER
  0
DICTIONARYVAR
  5
154
102
{ACAD_REACTORS
330
153
102
}
100
DictionaryVariables
280
     0
  1
96
  0
ENDSEC
  0
EOF
