  0
SECTION
  2
HEADER
  9
$ACADVER
  1
AC1009
  9
$INSBASE
 10
0.000000
 20
0.000000
 30
0.0
  9
$VIEWCTR
 10
7.531722
 20
4.5
  9
$VIEWSIZE
 40
9.0
  9
$SNAPMODE
 70
     0
  9
$SNAPUNIT
 10
1.0
 20
1.0
  9
$SNAPBASE
 10
0.0
 20
0.0
  9
$SNAPANG
 50
0.0
  9
$SNAPSTYLE
 70
     0
  9
$SNAPISOPAIR
 70
     0
  9
$GRIDMODE
 70
     0
  9
$GRIDUNIT
 10
0.0
 20
0.0
  9
$ORTHOMODE
 70
     0
  9
$REGENMODE
 70
     1
  9
$FILLMODE
 70
     1
  9
$QTEXTMODE
 70
     0
  9
$DRAGMODE
 70
     2
  9
$LTSCALE
  40
     1.000000
  9
$OSMODE
 70
     0
  9
$ATTMODE
 70
     1
  9
$TEXTSIZE
 40
0.2
  9
$TRACEWID
 40
0.05
  9
$TEXTSTYLE
  7
STANDARD
  9
$CELTYPE
  6
BYLAYER
  9
$CECOLOR
 62
   256
  9
$DIMSCALE
 40
1.0
  9
$DIMASZ
 40
0.18
  9
$DIMEXO
 40
0.0625
  9
$DIMDLI
 40
0.38
  9
$DIMRND
 40
0.0
  9
$DIMDLE
 40
0.0
  9
$DIMEXE
 40
0.18
  9
$DIMTP
 40
0.0
  9
$DIMTM
 40
0.0
  9
$DIMTXT
 40
0.18
  9
$DIMCEN
 40
0.09
  9
$DIMTSZ
 40
0.0
  9
$DIMTOL
 70
     0
  9
$DIMLIM
 70
     0
  9
$DIMTIH
 70
     1
  9
$DIMTOH
 70
     1
  9
$DIMSE1
 70
     0
  9
$DIMSE2
 70
     0
  9
$DIMTAD
 70
     0
  9
$DIMZIN
 70
     0
  9
$DIMBLK
  1

  9
$LUNITS
 70
     2
  9
$LUPREC
 70
     4
  9
$AXISMODE
 70
     0
  9
$AXISUNIT
 10
0.0
 20
0.0
  9
$SKETCHINC
 40
0.1
  9
$FILLETRAD
 40
0.0
  9
$AUNITS
 70
     0
  9
$AUPREC
 70
     0
  9
$MENU
  1
ACAD
  9
$ELEVATION
 40
0.0
  9
$THICKNESS
 40
0.0
  9
$VIEWDIR
 10
0.0
 20
0.0
 30
1.0
  9
$LIMCHECK
 70
     0
  9
$BLIPMODE
 70
     1
  9
$CHAMFERA
 40
0.0
  9
$CHAMFERB
 40
0.0
  9
$FASTZOOM
 70
     1
  9
$SKPOLY
 70
     0
  9
$TDCREATE
 40
0000000.0000000000
  9
$TDUPDATE
 40
0000000.0000000000
  9
$TDINDWG
 40
0.0000000000
  9
$TDUSRTIMER
 40
0.0000000000
  9
$USRTIMER
 70
     1
  9
$ANGBASE
 50
0.0
  9
$ANGDIR
 70
     0
  9
$PDMODE
 70
     0
  9
$PDSIZE
 40
0.0
  9
$PLINEWID
 40
0.0
  9
$COORDS
 70
     0
  9
$USERI1
 70
     0
  9
$USERI2
 70
     0
  9
$USERI3
 70
     0
  9
$USERI4
 70
     0
  9
$USERI5
 70
     0
  9
$USERR1
 40
0.0
  9
$USERR2
 40
0.0
  9
$USERR3
 40
0.0
  9
$USERR4
 40
0.0
  9
$USERR5
 40
0.0
  9
$CLAYER
  8
M0
  9
$EXTMIN
 10
16.336965
 20
17.593654
  9
$EXTMAX
 10
333.003619
 20
475.92697
  9
$LIMMIN
 10
0.0
 20
0.0
  9
$LIMMAX
 10
210.0
 20
297.0
  0
ENDSEC
  0
SECTION
  2
TABLES
  0
TABLE
  2
VPORT
  0
VPORT
  2
*ACTIVE
 70
     0
 10
0.0
 20
0.0
 11
1.0
 21
1.0
 12
484.0
 22
297.0
 13
0.0
 23
0.0
 14
1.0
 24
1.0
 15
0.0
 25
0.0
 16
0.0
 26
0.0
 36
1.0
 17
0.0
 27
0.0
 37
0.0
 40
594.0
 41
2.0
 42
50.0
 43
0.0
 44
0.0
 50
0.0
 51
0.0
 71
     0
 72
   100
 73
     1
 74
     1
 75
     0
 76
     0
 77
     0
 78
     0
  0
ENDTAB
  0
TABLE
  2
LTYPE
 70
     5
  0
LTYPE
  2
CONTINUOUS
 70
    64
  3
Solid line
 72
    65
 73
     0
 40
0.0
  0
LTYPE
  2
DASHED
 70
    64
  3
__ __ __ __ __ __ __ __ __ __ __ __ __ __ __ __
 72
    65
 73
     2
 40
0.75
 49
0.5
 49
-0.25
  0
LTYPE
  2
DASHDOT
 70
    64
  3
__ . __ . __ . __ . __ . __ . __ . __ . __ . __
 72
    65
 73
     4
 40
1.0
 49
0.5
 49
-0.25
 49
0.0
 49
-0.25
  0
LTYPE
  2
DIVIDE
 70
    64
  3
____ . . ____ . . ____ . . ____ . . ____ . . __
 72
    65
 73
     6
 40
1.25
 49
0.5
 49
-0.25
 49
0.0
 49
-0.25
 49
0.0
 49
-0.25
  0
LTYPE
  2
DOT
 70
    64
  3
. . . . . . . . . . . . . . . . . . . . . . . .
 72
    65
 73
     2
 40
0.25
 49
0.0
 49
-0.25
  0
ENDTAB
  0
TABLE
  2
LAYER
 70
   102
  0
LAYER
  2
0
 70
     0
 62
     7
  6
CONTINUOUS
  0
LAYER
  2
M0
 70
     0
 62
     3
  6
CONTINUOUS
  0
LAYER
  2
M3
 70
     0
 62
     3
  6
CONTINUOUS
  0
LAYER
  2
DD0
 70
     0
 62
     4
  6
CONTINUOUS
  0
LAYER
  2
DN0
 70
     0
 62
     2
  6
CONTINUOUS
  0
ENDTAB
  0
TABLE
  2
STYLE
 70
     2
  0
STYLE
  2
STANDARD
 70
     0
 40
0.0
 41
1.0
 50
0.0
 71
     0
 42
0.2
  3
txt
  4
BIGFONT
  0
ENDTAB
  0
TABLE
  2
VIEW
 70
     0
  0
ENDTAB
  0
TABLE
  2
DIMSTYLE
 70
     2
  0
DIMSTYLE
  2
STANDARD
 70
     0
  3

  4

  5

  6
_OPEN
  7
_OPEN
 40
1.0
 41
5.0
 42
1.0
 43
8.0
 44
1.0
 45
0.0
 46
0.0
 47
0.0
 48
0.0
140
5.25
141
0.09
142
0.0
143
0.03937
144
1.0
145
0.0
146
1.0
147
0.6
 71
     0
 72
     0
 73
     1
 74
     1
 75
     0
 76
     0
 77
     3
 78
     8
170
     0
171
     2
172
     0
173
     1
174
     0
175
     0
176
     0
177
     0
178
     0
  0
ENDTAB
  0
ENDSEC
  0
SECTION
  2
BLOCKS
  0
BLOCK
  8
DD0
  2
DIMS0
 70
     0
 10
0.0
 20
0.0
  0
LINE
  8
DD0
 10
131.182627
 20
290.545185
 11
162.350076
 21
290.545185
  0
LINE
  8
DD0
 10
116.68262
 20
379.545171
 11
162.350076
 21
379.545171
  0
LINE
  8
DD0
 10
159.389314
 20
295.374814
 11
160.683409
 21
290.545185
  0
LINE
  8
DD0
 10
160.683409
 20
290.545185
 11
161.977505
 21
295.374814
  0
LINE
  8
DD0
 10
161.977505
 20
374.715542
 11
160.683409
 21
379.545171
  0
LINE
  8
DD0
 10
160.683409
 20
379.545171
 11
159.389314
 21
374.715542
  0
LINE
  8
DD0
 10
160.683409
 20
290.545185
 11
160.683409
 21
379.545171
  0
TEXT
  8
DD0
 10
159.683412
 20
331.997946
 40
4.166667
  1
８９
 50
90.000003
 41
0.666667
  7
STANDARD
  0
ENDBLK
  8
DD0
  0
BLOCK
  8
DD0
  2
DIMS1
 70
     0
 10
0.0
 20
0.0
  0
LINE
  8
DD0
 10
54.61596
 20
373.211833
 11
54.61596
 21
395.887029
  0
LINE
  8
DD0
 10
132.515953
 20
305.911853
 11
132.515953
 21
395.887029
  0
LINE
  8
DD0
 10
59.445588
 20
395.514457
 11
54.61596
 21
394.220362
  0
LINE
  8
DD0
 10
54.61596
 20
394.220362
 11
59.445588
 21
392.926267
  0
LINE
  8
DD0
 10
127.686324
 20
392.926267
 11
132.515953
 21
394.220362
  0
LINE
  8
DD0
 10
132.515953
 20
394.220362
 11
127.686324
 21
395.514457
  0
LINE
  8
DD0
 10
54.61596
 20
394.220362
 11
132.515953
 21
394.220362
  0
TEXT
  8
DD0
 10
90.518737
 20
395.220372
 40
4.166667
  1
７８
 41
0.666667
  7
STANDARD
  0
ENDBLK
  8
DD0
  0
BLOCK
  8
DD0
  2
DIMS2
 70
     0
 10
0.0
 20
0.0
  0
LINE
  8
DD0
 10
75.965961
 20
301.378518
 11
75.965961
 21
264.585688
  0
LINE
  8
DD0
 10
93.565956
 20
283.878519
 11
93.565956
 21
264.585688
  0
LINE
  8
DD0
 10
80.79559
 20
267.54645
 11
75.965961
 21
266.252355
  0
LINE
  8
DD0
 10
75.965961
 20
266.252355
 11
80.79559
 21
264.958259
  0
LINE
  8
DD0
 10
88.736327
 20
264.958259
 11
93.565956
 21
266.252355
  0
LINE
  8
DD0
 10
93.565956
 20
266.252355
 11
88.736327
 21
267.54645
  0
LINE
  8
DD0
 10
75.965961
 20
266.252355
 11
93.565956
 21
266.252355
  0
TEXT
  8
DD0
 10
78.385406
 20
267.252365
 40
4.166667
  1
１７．５
 41
0.666667
  7
STANDARD
  0
ENDBLK
  8
DD0
  0
BLOCK
  8
DD0
  2
DIMS3
 70
     0
 10
0.0
 20
0.0
  0
LINE
  8
DD0
 10
201.123497
 20
345.211829
 11
201.123497
 21
413.978713
  0
LINE
  8
DD0
 10
284.693853
 20
411.017951
 11
289.523482
 21
412.312046
  0
LINE
  8
DD0
 10
289.523482
 20
412.312046
 11
284.693853
 21
413.606141
  0
LINE
  8
DD0
 10
205.953126
 20
413.606141
 11
201.123497
 21
412.312046
  0
LINE
  8
DD0
 10
201.123497
 20
412.312046
 11
205.953126
 21
411.017951
  0
LINE
  8
DD0
 10
289.523482
 20
412.312046
 11
201.123497
 21
412.312046
  0
TEXT
  8
DD0
 10
238.942911
 20
413.312056
 40
4.166667
  1
８８．５
 41
0.666667
  7
STANDARD
  0
ENDBLK
  8
DD0
  0
BLOCK
  8
DD0
  2
DIMS4
 70
     0
 10
0.0
 20
0.0
  0
LINE
  8
DD0
 10
289.523482
 20
375.461843
 11
289.523482
 21
422.5791
  0
LINE
  8
DD0
 10
169.823487
 20
337.011833
 11
169.823487
 21
422.5791
  0
LINE
  8
DD0
 10
284.693853
 20
419.618338
 11
289.523482
 21
420.912433
  0
LINE
  8
DD0
 10
289.523482
 20
420.912433
 11
284.693853
 21
422.206529
  0
LINE
  8
DD0
 10
174.653116
 20
422.206529
 11
169.823487
 21
420.912433
  0
LINE
  8
DD0
 10
169.823487
 20
420.912433
 11
174.653116
 21
419.618338
  0
LINE
  8
DD0
 10
289.523482
 20
420.912433
 11
169.823487
 21
420.912433
  0
TEXT
  8
DD0
 10
186.626248
 20
421.912444
 40
4.166667
  1
１１９．５（補助接点ヘッドオンユニットを付けた場合）
 41
0.666667
  7
STANDARD
  0
ENDBLK
  8
DD0
  0
BLOCK
  8
DD0
  2
DIMS5
 70
     0
 10
0.0
 20
0.0
  0
LINE
  8
DD0
 10
196.123497
 20
383.131978
 11
196.123497
 21
395.887029
  0
LINE
  8
DD0
 10
201.123497
 20
345.211829
 11
201.123497
 21
395.887029
  0
LINE
  8
DD0
 10
191.293868
 20
392.926267
 11
196.123497
 21
394.220362
  0
LINE
  8
DD0
 10
196.123497
 20
394.220362
 11
191.293868
 21
395.514457
  0
LINE
  8
DD0
 10
205.953126
 20
395.514457
 11
201.123497
 21
394.220362
  0
LINE
  8
DD0
 10
201.123497
 20
394.220362
 11
205.953126
 21
392.926267
  0
LINE
  8
DD0
 10
185.623497
 20
394.220362
 11
206.623496
 21
394.220362
  0
TEXT
  8
DD0
 10
187.092938
 20
395.220372
 40
4.166667
  1
５
 41
0.666667
  7
STANDARD
  0
ENDBLK
  8
DD0
  0
BLOCK
  8
DD0
  2
DIMS6
 70
     0
 10
0.0
 20
0.0
  0
LINE
  8
DD0
 10
289.523482
 20
289.628513
 11
289.523482
 21
272.694691
  0
LINE
  8
DD0
 10
278.523498
 20
289.878503
 11
278.523498
 21
272.694691
  0
LINE
  8
DD0
 10
294.353111
 20
275.655453
 11
289.523482
 21
274.361358
  0
LINE
  8
DD0
 10
289.523482
 20
274.361358
 11
294.353111
 21
273.067263
  0
LINE
  8
DD0
 10
273.693869
 20
273.067263
 11
278.523498
 21
274.361358
  0
LINE
  8
DD0
 10
278.523498
 20
274.361358
 11
273.693869
 21
275.655453
  0
LINE
  8
DD0
 10
295.023482
 20
274.361358
 11
273.023498
 21
274.361358
  0
TEXT
  8
DD0
 10
280.976245
 20
275.361368
 40
4.166667
  1
１１
 41
0.666667
  7
STANDARD
  0
ENDBLK
  8
DD0
  0
BLOCK
  8
DD0
  2
DIMS7
 70
     0
 10
0.0
 20
0.0
  0
LINE
  8
DD0
 10
58.065953
 20
236.003434
 11
58.065953
 21
253.062073
  0
LINE
  8
DD0
 10
129.065954
 20
171.003437
 11
129.065954
 21
253.062073
  0
LINE
  8
DD0
 10
62.895581
 20
252.689501
 11
58.065953
 21
251.395406
  0
LINE
  8
DD0
 10
58.065953
 20
251.395406
 11
62.895581
 21
250.101311
  0
LINE
  8
DD0
 10
124.236325
 20
250.101311
 11
129.065954
 21
251.395406
  0
LINE
  8
DD0
 10
129.065954
 20
251.395406
 11
124.236325
 21
252.689501
  0
LINE
  8
DD0
 10
58.065953
 20
251.395406
 11
129.065954
 21
251.395406
  0
TEXT
  8
DD0
 10
78.852064
 20
252.395416
 40
4.166667
  1
７１（６８も可能）
 41
0.666667
  7
STANDARD
  0
ENDBLK
  8
DD0
  0
BLOCK
  8
DD0
  2
DIMS8
 70
     0
 10
0.0
 20
0.0
  0
LINE
  8
DD0
 10
55.635221
 20
230.239376
 11
146.323097
 21
230.239376
  0
LINE
  8
DD0
 10
126.635216
 20
165.239378
 11
146.323097
 21
165.239378
  0
LINE
  8
DD0
 10
145.950525
 20
225.409747
 11
144.65643
 21
230.239376
  0
LINE
  8
DD0
 10
144.65643
 20
230.239376
 11
143.362335
 21
225.409747
  0
LINE
  8
DD0
 10
143.362335
 20
170.069007
 11
144.65643
 21
165.239378
  0
LINE
  8
DD0
 10
144.65643
 20
165.239378
 11
145.950525
 21
170.069007
  0
LINE
  8
DD0
 10
144.65643
 20
230.239376
 11
144.65643
 21
165.239378
  0
TEXT
  8
DD0
 10
143.656432
 20
194.692158
 40
4.166667
  1
６５
 50
90.000003
 41
0.666667
  7
STANDARD
  0
ENDBLK
  8
DD0
  0
BLOCK
  8
DD0
  2
DIMS9
 70
     0
 10
0.0
 20
0.0
  0
LINE
  8
DD0
 10
42.615962
 20
364.411835
 11
42.615962
 21
422.5791
  0
LINE
  8
DD0
 10
144.51596
 20
364.411835
 11
144.51596
 21
422.5791
  0
LINE
  8
DD0
 10
47.445591
 20
422.206529
 11
42.615962
 21
420.912433
  0
LINE
  8
DD0
 10
42.615962
 20
420.912433
 11
47.445591
 21
419.618338
  0
LINE
  8
DD0
 10
139.686331
 20
419.618338
 11
144.51596
 21
420.912433
  0
LINE
  8
DD0
 10
144.51596
 20
420.912433
 11
139.686331
 21
422.206529
  0
LINE
  8
DD0
 10
42.615962
 20
420.912433
 11
144.51596
 21
420.912433
  0
TEXT
  8
DD0
 10
88.852076
 20
421.912444
 40
4.166667
  1
１０２
 41
0.666667
  7
STANDARD
  0
TEXT
  8
DD0
 10
58.852078
 20
415.412454
 40
4.166667
  1
（補助接点サイドオンユニットを付けた場合）
 41
0.666667
  7
STANDARD
  0
ENDBLK
  8
DD0
  0
BLOCK
  8
DD0
  2
DIMS10
 70
     0
 10
0.0
 20
0.0
  0
LINE
  8
DD0
 10
134.392159
 20
160.772828
 11
130.332382
 21
163.691425
  0
LINE
  8
DD0
 10
130.332382
 20
163.691425
 11
132.388954
 21
159.133958
  0
LINE
  8
DD0
 10
130.332382
 20
163.691425
 11
140.054316
 21
151.808224
  0
TEXT
  8
DD0
 10
131.755606
 20
146.867339
 40
4.166667
  1
２－Ｍ４ねじ穴
 41
0.666667
  7
STANDARD
  0
ENDBLK
  8
DD0
  0
BLOCK
  8
DD0
  2
DIMS11
 70
     0
 10
0.0
 20
0.0
  0
LINE
  8
DD0
 10
63.83003
 20
230.239376
 11
146.323097
 21
230.239376
  0
LINE
  8
DD0
 10
117.68263
 20
244.239391
 11
146.323097
 21
244.239391
  0
LINE
  8
DD0
 10
143.362335
 20
235.069005
 11
144.65643
 21
230.239376
  0
LINE
  8
DD0
 10
144.65643
 20
230.239376
 11
145.950525
 21
235.069005
  0
LINE
  8
DD0
 10
145.950525
 20
239.409762
 11
144.65643
 21
244.239391
  0
LINE
  8
DD0
 10
144.65643
 20
244.239391
 11
143.362335
 21
239.409762
  0
LINE
  8
DD0
 10
144.65643
 20
230.239376
 11
144.65643
 21
244.239391
  0
TEXT
  8
DD0
 10
143.656432
 20
234.192138
 40
4.166667
  1
１４
 50
90.000003
 41
0.666667
  7
STANDARD
  0
ENDBLK
  8
DD0
  0
ENDSEC
  0
SECTION
  2
ENTITIES
  0
INSERT
  8
DD0
  2
DIMS0
 10
0.0
 20
0.0
  0
INSERT
  8
DD0
  2
DIMS1
 10
0.0
 20
0.0
  0
INSERT
  8
DD0
  2
DIMS2
 10
0.0
 20
0.0
  0
INSERT
  8
DD0
  2
DIMS3
 10
0.0
 20
0.0
  0
INSERT
  8
DD0
  2
DIMS4
 10
0.0
 20
0.0
  0
INSERT
  8
DD0
  2
DIMS5
 10
0.0
 20
0.0
  0
INSERT
  8
DD0
  2
DIMS6
 10
0.0
 20
0.0
  0
INSERT
  8
DD0
  2
DIMS7
 10
0.0
 20
0.0
  0
INSERT
  8
DD0
  2
DIMS8
 10
0.0
 20
0.0
  0
INSERT
  8
DD0
  2
DIMS9
 10
0.0
 20
0.0
  0
INSERT
  8
DD0
  2
DIMS10
 10
0.0
 20
0.0
  0
INSERT
  8
DD0
  2
DIMS11
 10
0.0
 20
0.0
  0
LINE
  8
M0
  6
DIVIDE
 62
     7
 10
71.115958
 20
240.239377
 11
54.615958
 21
240.239377
  0
LINE
  8
M0
  6
DIVIDE
 62
     7
 10
54.615958
 20
240.239377
 11
54.615958
 21
155.239376
  0
LINE
  8
M0
  6
DIVIDE
 62
     7
 10
71.115958
 20
240.239377
 11
71.115958
 21
244.239378
  0
LINE
  8
M0
  6
DIVIDE
 62
     7
 10
116.015958
 20
240.239377
 11
116.015958
 21
244.239378
  0
LINE
  8
M0
  6
DIVIDE
 62
     7
 10
116.015958
 20
240.239377
 11
132.515958
 21
240.239377
  0
LINE
  8
M0
  6
DIVIDE
 62
     7
 10
71.115958
 20
244.239378
 11
116.015958
 21
244.239378
  0
LINE
  8
M0
  6
DIVIDE
 62
     7
 10
132.515958
 20
155.239376
 11
132.515958
 21
240.239377
  0
LINE
  8
M0
  6
DIVIDE
 62
     7
 10
132.515958
 20
155.239376
 11
54.615958
 21
155.239378
  0
LINE
  8
M0
 62
     7
 10
130.315958
 20
360.395178
 11
130.215956
 21
360.395178
  0
LINE
  8
M0
 62
     7
 10
83.115958
 20
375.14518
 11
83.115958
 21
377.345179
  0
LINE
  8
M0
 62
     7
 10
58.815958
 20
357.845179
 11
57.915958
 21
357.845179
  0
LINE
  8
M0
 62
     7
 10
128.315958
 20
357.845179
 11
129.215958
 21
357.845179
  0
LINE
  8
M0
 62
     7
 10
109.165957
 20
369.545178
 11
115.615959
 21
369.545178
  0
LINE
  8
M0
 62
     7
 10
91.565958
 20
296.545179
 11
95.565958
 21
296.545179
  0
LINE
  8
M0
 62
     7
 10
121.415958
 20
357.845179
 11
122.315959
 21
357.845179
  0
LINE
  8
M0
 62
     7
 10
72.715957
 20
293.545177
 11
72.715957
 21
291.54518
  0
LINE
  8
M0
 62
     7
 10
107.415958
 20
293.545177
 11
107.415958
 21
291.54518
  0
LINE
  8
M0
 62
     7
 10
73.115958
 20
369.545178
 11
73.115958
 21
378.545178
  0
LINE
  8
M0
 62
     7
 10
56.815958
 20
360.395178
 11
56.91596
 21
360.395178
  0
LINE
  8
M0
 62
     7
 10
129.515958
 20
290.545178
 11
105.665958
 21
290.545178
  0
LINE
  8
M0
 62
     7
 10
104.015958
 20
377.345179
 11
104.015958
 21
375.14518
  0
LINE
  8
M0
 62
     7
 10
69.965957
 20
291.54518
 11
69.965957
 21
296.545179
  0
LINE
  8
M0
 62
     7
 10
82.465958
 20
291.54518
 11
82.465958
 21
296.545179
  0
LINE
  8
M0
 62
     7
 10
104.665958
 20
291.54518
 11
104.665958
 21
296.545179
  0
LINE
  8
M0
 62
     7
 10
56.815958
 20
305.695179
 11
56.91596
 21
305.695179
  0
LINE
  8
M0
 62
     7
 10
83.615958
 20
377.845177
 11
103.515958
 21
377.845177
  0
LINE
  8
M0
 62
     7
 10
117.165959
 20
296.545179
 11
117.165959
 21
291.54518
  0
LINE
  8
M0
 62
     7
 10
55.115959
 20
359.395178
 11
55.115959
 21
293.545178
  0
LINE
  8
M0
 62
     7
 10
56.115957
 20
305.695179
 11
56.91596
 21
305.695179
  0
LINE
  8
M0
 62
     7
 10
71.115958
 20
369.545178
 11
71.115958
 21
378.545177
  0
LINE
  8
M0
 62
     7
 10
112.718734
 20
296.545179
 11
113.165958
 21
296.545179
  0
LINE
  8
M0
 62
     7
 10
74.413183
 20
296.545179
 11
73.965958
 21
296.545179
  0
ARC
  8
M0
 62
     7
 10
110.915958
 20
293.545178
 40
3.5
 50
58.997281
 51
88.05262
  0
CIRCLE
  8
M0
 62
     7
 10
93.565958
 20
373.345178
 40
3.1
  0
ARC
  8
M0
 62
     7
 10
83.615958
 20
377.345178
 40
0.5
 50
90.0
 51
180.0
  0
LINE
  8
M0
 62
     7
 10
100.515958
 20
295.545177
 11
100.515958
 21
308.145178
  0
LINE
  8
M0
 62
     7
 10
100.515958
 20
291.54518
 11
100.515958
 21
295.545177
  0
ARC
  8
M0
 62
     7
 10
56.115958
 20
306.695178
 40
1.0
 50
180.0
 51
270.0
  0
LINE
  8
M0
 62
     7
 10
101.515959
 20
308.645179
 11
103.215959
 21
308.645179
  0
ARC
  8
M0
 62
     7
 10
76.215958
 20
293.545178
 40
3.5
 50
0.0
 51
58.997281
  0
ARC
  8
M0
 62
     7
 10
116.165958
 20
291.545178
 40
1.0
 50
270.0
 51
360.0
  0
ARC
  8
M0
 62
     7
 10
105.665958
 20
291.545178
 40
1.0
 50
180.0
 51
270.0
  0
ARC
  8
M0
 62
     7
 10
110.915958
 20
293.545178
 40
3.5
 50
0.0
 51
58.997281
  0
ARC
  8
M0
 62
     7
 10
76.215958
 20
293.545178
 40
3.5
 50
91.94738
 51
121.002719
  0
ARC
  8
M0
 62
     7
 10
103.515958
 20
377.345178
 40
0.5
 50
0.0
 51
90.0
  0
LINE
  8
M0
 62
     7
 10
81.465958
 20
290.545178
 11
58.115958
 21
290.545178
  0
LINE
  8
M0
 62
     7
 10
114.415959
 20
291.54518
 11
114.415959
 21
293.545177
  0
LINE
  8
M0
 62
     7
 10
79.715958
 20
293.545177
 11
79.715958
 21
291.54518
  0
LINE
  8
M0
 62
     7
 10
84.415954
 20
290.545178
 11
85.615958
 21
290.545178
  0
ARC
  8
M0
 62
     7
 10
76.215958
 20
293.545178
 40
3.5
 50
121.002719
 51
180.0
  0
LINE
  8
M0
 62
     7
 10
83.915958
 20
290.545178
 11
84.415954
 21
290.545178
  0
LINE
  8
M0
 62
     7
 10
54.615958
 20
361.845178
 11
54.615958
 21
371.545178
  0
LINE
  8
M0
 62
     7
 10
125.017448
 20
300.295179
 11
123.565957
 21
300.295179
  0
LINE
  8
M0
 62
     7
 10
65.165958
 20
295.545177
 11
66.315959
 21
295.545177
  0
LINE
  8
M0
 62
     7
 10
65.165958
 20
301.545178
 11
65.165958
 21
295.545177
  0
LINE
  8
M0
 62
     7
 10
57.615957
 20
374.545177
 11
65.115959
 21
374.545177
  0
LINE
  8
M0
 62
     7
 10
132.015957
 20
371.545178
 11
132.015957
 21
306.695178
  0
LINE
  8
M0
 62
     7
 10
66.315959
 20
301.545178
 11
65.165958
 21
301.545178
  0
LINE
  8
M0
 62
     7
 10
69.015958
 20
371.045177
 11
71.115958
 21
371.045177
  0
LINE
  8
M0
 62
     7
 10
116.015958
 20
371.045177
 11
118.115958
 21
371.045177
  0
LINE
  8
M0
 62
     7
 10
114.015958
 20
374.04518
 11
113.515959
 21
374.04518
  0
LINE
  8
M0
 62
     7
 10
73.115958
 20
374.04518
 11
73.615958
 21
374.04518
  0
LINE
  8
M0
 62
     7
 10
65.165958
 20
294.045178
 11
65.165958
 21
294.545179
  0
LINE
  8
M0
 62
     7
 10
66.315959
 20
294.545179
 11
65.165958
 21
294.545179
  0
LINE
  8
M0
 62
     7
 10
73.115958
 20
376.345177
 11
73.615958
 21
376.345177
  0
LINE
  8
M0
 62
     7
 10
114.015958
 20
375.14518
 11
113.515959
 21
375.14518
  0
LINE
  8
M0
 62
     7
 10
73.615958
 20
375.14518
 11
73.115958
 21
375.14518
  0
LINE
  8
M0
 62
     7
 10
132.015957
 20
309.245178
 11
132.515958
 21
304.245179
  0
LINE
  8
M0
 62
     7
 10
122.015957
 20
374.545177
 11
129.015958
 21
374.545177
  0
LINE
  8
M0
 62
     7
 10
66.315959
 20
293.545177
 11
65.665959
 21
293.545177
  0
LINE
  8
M0
 62
     7
 10
63.565959
 20
370.295179
 11
61.065959
 21
370.295179
  0
LINE
  8
M0
 62
     7
 10
58.516449
 20
367.795178
 11
58.065957
 21
367.795178
  0
LINE
  8
M0
 62
     7
 10
58.065957
 20
363.295178
 11
59.660221
 21
363.297154
  0
LINE
  8
M0
 62
     7
 10
62.115467
 20
365.795178
 11
63.565959
 21
365.795178
  0
ARC
  8
M0
 62
     7
 10
72.115958
 20
378.545178
 40
1.0
 50
0.0
 51
90.0
  0
ARC
  8
M0
 62
     7
 10
80.715958
 20
291.545178
 40
1.0
 50
180.0
 51
270.0
  0
ARC
  8
M0
 62
     7
 10
81.465958
 20
291.545178
 40
1.0
 50
270.0
 51
360.0
  0
ARC
  8
M0
 62
     7
 10
115.415958
 20
291.545178
 40
1.0
 50
180.0
 51
270.0
  0
ARC
  8
M0
 62
     7
 10
70.965958
 20
291.545178
 40
1.0
 50
180.0
 51
270.0
  0
ARC
  8
M0
 62
     7
 10
72.115958
 20
378.545178
 40
1.0
 50
90.0
 51
180.0
  0
LINE
  8
M0
 62
     7
 10
64.815958
 20
308.245178
 11
65.715958
 21
308.245178
  0
ARC
  8
M0
 62
     7
 10
106.415958
 20
291.545178
 40
1.0
 50
270.0
 51
360.0
  0
ARC
  8
M0
 62
     7
 10
71.715958
 20
291.545178
 40
1.0
 50
270.0
 51
360.0
  0
LINE
  8
M0
 62
     7
 10
65.715958
 20
357.845179
 11
64.815958
 21
357.845179
  0
LINE
  8
M0
 62
     7
 10
65.165958
 20
292.545178
 11
65.165958
 21
294.045178
  0
LINE
  8
M0
 62
     7
 10
66.315959
 20
292.045177
 11
65.665959
 21
292.045177
  0
LINE
  8
M0
 62
     7
 10
118.115958
 20
294.545179
 11
117.165959
 21
294.545179
  0
LINE
  8
M0
 62
     7
 10
118.115958
 20
293.545177
 11
117.165959
 21
293.545177
  0
LINE
  8
M0
 62
     7
 10
118.115958
 20
292.045177
 11
117.165959
 21
292.045177
  0
LINE
  8
M0
 62
     7
 10
55.115959
 20
356.845179
 11
54.615958
 21
361.845178
  0
LINE
  8
M0
 62
     7
 10
130.315958
 20
305.695179
 11
130.215956
 21
305.695179
  0
LINE
  8
M0
 62
     7
 10
122.315959
 20
308.245178
 11
121.415958
 21
308.245178
  0
LINE
  8
M0
 62
     7
 10
129.215958
 20
308.245178
 11
128.315958
 21
308.245178
  0
ARC
  8
M0
 62
     7
 10
129.015958
 20
371.545178
 40
3.0
 50
0.0
 51
90.0
  0
ARC
  8
M0
 62
     7
 10
57.615958
 20
371.545178
 40
3.0
 50
90.0
 51
180.0
  0
LINE
  8
M0
 62
     7
 10
67.015958
 20
334.445178
 11
65.315959
 21
334.445178
  0
ARC
  8
M0
 62
     7
 10
75.315958
 20
378.545178
 40
0.5
 50
270.0
 51
360.0
  0
ARC
  8
M0
 62
     7
 10
111.815958
 20
379.045178
 40
0.5
 50
90.0
 51
180.0
  0
ARC
  8
M0
 62
     7
 10
65.665958
 20
292.545178
 40
0.5
 50
180.0
 51
270.0
  0
ARC
  8
M0
 62
     7
 10
111.815958
 20
378.545178
 40
0.5
 50
180.0
 51
270.0
  0
LINE
  8
M0
 62
     7
 10
66.315959
 20
331.645178
 11
66.315959
 21
331.545178
  0
LINE
  8
M0
 62
     7
 10
69.015958
 20
310.145178
 11
68.015958
 21
310.145178
  0
LINE
  8
M0
 62
     7
 10
65.315959
 20
331.645178
 11
67.015958
 21
331.645178
  0
ARC
  8
M0
 62
     7
 10
59.565958
 20
365.545178
 40
2.25
 50
272.401074
 51
358.876481
  0
ARC
  8
M0
 62
     7
 10
103.715958
 20
308.145178
 40
0.5
 50
0.0
 51
90.0
  0
ARC
  8
M0
 62
     7
 10
123.565958
 20
298.045178
 40
2.25
 50
90.0
 51
270.0
  0
ARC
  8
M0
 62
     7
 10
86.115958
 20
308.145178
 40
0.5
 50
0.0
 51
90.0
  0
ARC
  8
M0
 62
     7
 10
83.415958
 20
308.145178
 40
0.5
 50
90.0
 51
180.0
  0
ARC
  8
M0
 62
     7
 10
58.065958
 20
365.545178
 40
2.25
 50
90.0
 51
270.0
  0
ARC
  8
M0
 62
     7
 10
101.515958
 20
291.545178
 40
1.0
 50
180.0
 51
270.0
  0
ARC
  8
M0
 62
     7
 10
126.065958
 20
298.045178
 40
2.25
 50
270.0
 51
355.815286
  0
ARC
  8
M0
 62
     7
 10
58.516448
 20
368.095178
 40
0.3
 50
270.0
 51
358.876481
  0
ARC
  8
M0
 62
     7
 10
63.565958
 20
368.045178
 40
2.25
 50
270.0
 51
450.0
  0
ARC
  8
M0
 62
     7
 10
61.065958
 20
368.045178
 40
2.25
 50
90.0
 51
178.876481
  0
ARC
  8
M0
 62
     7
 10
75.315958
 20
379.045178
 40
0.5
 50
0.0
 51
90.0
  0
ARC
  8
M0
 62
     7
 10
62.115468
 20
365.495178
 40
0.3
 50
90.0
 51
178.876481
  0
LINE
  8
M0
 62
     7
 10
64.315958
 20
338.245178
 11
64.315958
 21
327.845178
  0
LINE
  8
M0
 62
     7
 10
122.815958
 20
338.245178
 11
122.815958
 21
327.845178
  0
LINE
  8
M0
 62
     7
 10
69.015958
 20
295.545177
 11
69.015958
 21
310.145178
  0
LINE
  8
M0
 62
     7
 10
65.315959
 20
326.845178
 11
66.315959
 21
326.845178
  0
LINE
  8
M0
 62
     7
 10
66.315959
 20
334.445178
 11
66.315959
 21
334.545178
  0
LINE
  8
M0
 62
     7
 10
101.015958
 20
308.645179
 11
101.515959
 21
308.645179
  0
LINE
  8
M0
 62
     7
 10
121.815958
 20
326.845178
 11
120.815957
 21
326.845178
  0
LINE
  8
M0
 62
     7
 10
121.815958
 20
337.745178
 11
121.815958
 21
328.345178
  0
LINE
  8
M0
 62
     7
 10
65.315959
 20
337.745178
 11
65.315959
 21
328.345178
  0
LINE
  8
M0
 62
     7
 10
118.115958
 20
310.145178
 11
119.115959
 21
310.145178
  0
LINE
  8
M0
 62
     7
 10
103.215959
 20
308.645179
 11
103.715959
 21
308.645179
  0
LINE
  8
M0
 62
     7
 10
104.215958
 20
308.145178
 11
104.215958
 21
295.545177
  0
LINE
  8
M0
 62
     7
 10
118.115958
 20
295.545177
 11
118.115958
 21
310.145178
  0
ARC
  8
M0
 62
     7
 10
65.315958
 20
327.845178
 40
1.0
 50
180.0
 51
270.0
  0
ARC
  8
M0
 62
     7
 10
83.415958
 20
357.945178
 40
0.5
 50
180.0
 51
270.0
  0
ARC
  8
M0
 62
     7
 10
101.015958
 20
308.145178
 40
0.5
 50
90.0
 51
180.0
  0
ARC
  8
M0
 62
     7
 10
110.915958
 20
293.545178
 40
3.5
 50
121.002719
 51
180.0
  0
LINE
  8
M0
 62
     7
 10
57.915958
 20
308.245178
 11
58.815958
 21
308.245178
  0
ARC
  8
M0
 62
     7
 10
65.315958
 20
338.245178
 40
1.0
 50
90.0
 51
180.0
  0
ARC
  8
M0
 62
     7
 10
101.015958
 20
357.945178
 40
0.5
 50
180.0
 51
270.0
  0
LINE
  8
M0
 62
     7
 10
85.615958
 20
308.645179
 11
83.915958
 21
308.645179
  0
LINE
  8
M0
 62
     7
 10
83.915958
 20
308.645179
 11
83.415958
 21
308.645179
  0
ARC
  8
M0
 62
     7
 10
103.715958
 20
357.945178
 40
0.5
 50
270.0
 51
360.0
  0
ARC
  8
M0
 62
     7
 10
86.115958
 20
357.945178
 40
0.5
 50
270.0
 51
360.0
  0
LINE
  8
M0
 62
     7
 10
86.115958
 20
308.645179
 11
85.615958
 21
308.645179
  0
ARC
  8
M0
 62
     7
 10
121.815958
 20
327.845178
 40
1.0
 50
270.0
 51
360.0
  0
LINE
  8
M0
 62
     7
 10
120.815957
 20
339.245179
 11
121.815958
 21
339.245179
  0
LINE
  8
M0
 62
     7
 10
66.315959
 20
339.245179
 11
65.315959
 21
339.245179
  0
LINE
  8
M0
 62
     7
 10
103.715958
 20
357.445178
 11
101.015958
 21
357.445178
  0
ARC
  8
M0
 62
     7
 10
121.815958
 20
338.245178
 40
1.0
 50
0.0
 51
90.0
  0
CIRCLE
  8
M0
 62
     7
 10
58.565958
 20
295.045178
 40
2.25
  0
ARC
  8
M0
 62
     7
 10
85.615958
 20
291.545178
 40
1.0
 50
270.0
 51
360.0
  0
LINE
  8
M0
 62
     7
 10
123.565957
 20
295.795177
 11
126.065957
 21
295.795177
  0
ARC
  8
M0
 62
     7
 10
119.815958
 20
291.545178
 40
1.0
 50
270.0
 51
360.0
  0
LINE
  8
M0
 62
     7
 10
82.915959
 20
369.545178
 11
69.015958
 21
369.545178
  0
CIRCLE
  8
M0
 62
     7
 10
128.565958
 20
370.045178
 40
2.25
  0
ARC
  8
M0
 62
     7
 10
91.315958
 20
337.314132
 40
0.5
 50
0.0
 51
90.0
  0
LINE
  8
M0
 62
     7
 10
91.315958
 20
337.814132
 11
88.765958
 21
337.814132
  0
LINE
  8
M0
 62
     7
 10
98.365958
 20
337.814132
 11
95.815958
 21
337.814132
  0
LINE
  8
M0
 62
     7
 10
119.815957
 20
340.245178
 11
119.815957
 21
337.545178
  0
LINE
  8
M0
 62
     7
 10
67.315959
 20
337.545178
 11
66.315959
 21
337.545178
  0
LINE
  8
M0
 62
     7
 10
119.815957
 20
328.545179
 11
119.815957
 21
325.845179
  0
LINE
  8
M0
 62
     7
 10
120.815957
 20
328.545179
 11
119.815957
 21
328.545179
  0
LINE
  8
M0
 62
     7
 10
66.315959
 20
331.545178
 11
66.315959
 21
328.345178
  0
LINE
  8
M0
 62
     7
 10
67.315959
 20
340.245178
 11
67.315959
 21
337.545178
  0
LINE
  8
M0
 62
     7
 10
119.815957
 20
331.545178
 11
120.815957
 21
331.545178
  0
LINE
  8
M0
 62
     7
 10
88.665958
 20
343.245179
 11
88.665958
 21
342.745179
  0
LINE
  8
M0
 62
     7
 10
67.315959
 20
334.545178
 11
67.315959
 21
331.545178
  0
LINE
  8
M0
 62
     7
 10
120.815957
 20
331.645178
 11
120.815957
 21
328.345178
  0
LINE
  8
M0
 62
     7
 10
88.665958
 20
343.245179
 11
98.465958
 21
343.245179
  0
LINE
  8
M0
 62
     7
 10
67.315959
 20
328.545179
 11
67.315959
 21
325.845179
  0
LINE
  8
M0
 62
     7
 10
98.465958
 20
342.745179
 11
88.665958
 21
342.745179
  0
LINE
  8
M0
 62
     7
 10
119.815957
 20
337.545178
 11
120.815957
 21
337.545178
  0
LINE
  8
M0
 62
     7
 10
66.315959
 20
334.545178
 11
67.315959
 21
334.545178
  0
LINE
  8
M0
 62
     7
 10
67.315959
 20
340.245178
 11
66.815958
 21
340.245178
  0
LINE
  8
M0
 62
     7
 10
119.815957
 20
334.545178
 11
119.815957
 21
331.545178
  0
LINE
  8
M0
 62
     7
 10
66.315959
 20
337.745178
 11
66.315959
 21
334.545178
  0
LINE
  8
M0
 62
     7
 10
120.815957
 20
334.545178
 11
119.815957
 21
334.545178
  0
LINE
  8
M0
 62
     7
 10
120.815957
 20
337.745178
 11
120.815957
 21
334.445178
  0
LINE
  8
M0
 62
     7
 10
120.315958
 20
340.245178
 11
119.815957
 21
340.245178
  0
ARC
  8
M0
 62
     7
 10
95.815958
 20
337.314132
 40
0.5
 50
90.0
 51
180.0
  0
ARC
  8
M0
 62
     7
 10
85.165958
 20
343.245178
 40
1.0
 50
90.0
 51
180.0
  0
ARC
  8
M0
 62
     7
 10
101.965958
 20
343.245178
 40
1.0
 50
0.0
 51
90.0
  0
ARC
  8
M0
 62
     7
 10
119.815958
 20
354.745178
 40
1.0
 50
0.0
 51
90.0
  0
ARC
  8
M0
 62
     7
 10
85.165958
 20
322.845178
 40
1.0
 50
180.0
 51
270.0
  0
ARC
  8
M0
 62
     7
 10
87.065958
 20
318.545178
 40
0.5
 50
270.0
 51
360.0
  0
ARC
  8
M0
 62
     7
 10
102.065958
 20
319.545178
 40
0.5
 50
0.0
 51
90.0
  0
ARC
  8
M0
 62
     7
 10
102.065958
 20
318.545178
 40
0.5
 50
270.0
 51
360.0
  0
ARC
  8
M0
 62
     7
 10
87.065958
 20
319.545178
 40
0.5
 50
0.0
 51
90.0
  0
ARC
  8
M0
 62
     7
 10
85.065958
 20
318.545178
 40
0.5
 50
180.0
 51
270.0
  0
ARC
  8
M0
 62
     7
 10
100.065958
 20
319.545178
 40
0.5
 50
90.0
 51
180.0
  0
ARC
  8
M0
 62
     7
 10
100.065958
 20
318.545178
 40
0.5
 50
180.0
 51
270.0
  0
ARC
  8
M0
 62
     7
 10
101.965958
 20
322.845178
 40
1.0
 50
270.0
 51
360.0
  0
ARC
  8
M0
 62
     7
 10
85.065958
 20
319.545178
 40
0.5
 50
90.0
 51
180.0
  0
LINE
  8
M0
 62
     7
 10
87.065958
 20
320.045178
 11
85.065958
 21
320.045178
  0
LINE
  8
M0
 62
     7
 10
113.515959
 20
376.345177
 11
114.015958
 21
376.345177
  0
LINE
  8
M0
 62
     7
 10
85.165958
 20
344.245178
 11
87.665958
 21
344.245178
  0
LINE
  8
M0
 62
     7
 10
99.565958
 20
318.545179
 11
99.565958
 21
319.545178
  0
LINE
  8
M0
 62
     7
 10
114.015958
 20
378.04518
 11
113.015958
 21
378.04518
  0
LINE
  8
M0
 62
     7
 10
114.015958
 20
371.045177
 11
113.515959
 21
371.045177
  0
LINE
  8
M0
 62
     7
 10
75.815958
 20
378.545177
 11
75.815958
 21
379.045178
  0
LINE
  8
M0
 62
     7
 10
73.115958
 20
371.045177
 11
73.615958
 21
371.045177
  0
LINE
  8
M0
 62
     7
 10
111.315959
 20
378.545177
 11
111.315959
 21
379.045178
  0
LINE
  8
M0
 62
     7
 10
102.565958
 20
319.545178
 11
102.565958
 21
318.545179
  0
LINE
  8
M0
 62
     7
 10
98.465958
 20
343.245179
 11
98.465958
 21
342.745179
  0
LINE
  8
M0
 62
     7
 10
67.315959
 20
355.745179
 11
119.815957
 21
355.745179
  0
LINE
  8
M0
 62
     7
 10
58.065957
 20
316.395178
 11
58.065957
 21
322.895178
  0
LINE
  8
M0
 62
     7
 10
87.565958
 20
318.545179
 11
87.565958
 21
319.545178
  0
LINE
  8
M0
 62
     7
 10
100.065958
 20
320.045178
 11
102.065959
 21
320.045178
  0
LINE
  8
M0
 62
     7
 10
84.565959
 20
319.545178
 11
84.565959
 21
318.545179
  0
LINE
  8
M0
 62
     7
 10
102.065959
 20
318.045179
 11
100.065958
 21
318.045179
  0
LINE
  8
M0
 62
     7
 10
85.065958
 20
318.045179
 11
87.065958
 21
318.045179
  0
LINE
  8
M0
 62
     7
 10
96.565958
 20
345.245178
 11
96.565958
 21
346.845178
  0
LINE
  8
M0
 62
     7
 10
96.565958
 20
346.845178
 11
90.565958
 21
346.845178
  0
LINE
  8
M0
 62
     7
 10
90.565958
 20
345.245178
 11
90.565958
 21
346.845178
  0
LINE
  8
M0
 62
     7
 10
90.565958
 20
345.245178
 11
96.565958
 21
345.245178
  0
LINE
  8
M0
 62
     7
 10
84.165958
 20
322.845178
 11
84.165958
 21
343.245179
  0
LINE
  8
M0
 62
     7
 10
85.165958
 20
321.845179
 11
101.965958
 21
321.845179
  0
LINE
  8
M0
 62
     7
 10
102.965958
 20
322.845178
 11
102.965958
 21
343.245179
  0
ARC
  8
M0
 62
     7
 10
66.815958
 20
340.745178
 40
0.5
 50
180.0
 51
270.0
  0
ARC
  8
M0
 62
     7
 10
120.315958
 20
340.745178
 40
0.5
 50
270.0
 51
360.0
  0
ARC
  8
M0
 62
     7
 10
99.465958
 20
343.245178
 40
1.0
 50
90.0
 51
180.0
  0
ARC
  8
M0
 62
     7
 10
75.965957
 20
373.295178
 40
4.25
 50
241.927521
 51
270.0
  0
ARC
  8
M0
 62
     7
 10
87.665958
 20
343.245178
 40
1.0
 50
0.0
 51
90.0
  0
ARC
  8
M0
 62
     7
 10
75.965957
 20
373.295178
 40
4.25
 50
241.927521
 51
298.072495
  0
LINE
  8
M0
 62
     7
 10
101.965958
 20
344.245178
 11
99.465958
 21
344.245178
  0
ARC
  8
M0
 62
     7
 10
67.315958
 20
354.745178
 40
1.0
 50
90.0
 51
180.0
  0
LINE
  8
M0
 62
     7
 10
65.065958
 20
315.895179
 11
58.565958
 21
315.895179
  0
LINE
  8
M0
 62
     7
 10
122.065958
 20
350.195178
 11
128.565958
 21
350.195178
  0
LINE
  8
M0
 62
     7
 10
128.565958
 20
342.695179
 11
122.065958
 21
342.695179
  0
LINE
  8
M0
 62
     7
 10
129.065959
 20
349.695178
 11
129.065959
 21
343.195179
  0
ARC
  8
M0
 62
     7
 10
128.565958
 20
315.295179
 40
0.5
 50
0.0
 51
90.0
  0
ARC
  8
M0
 62
     7
 10
128.565959
 20
308.795179
 40
0.5
 50
270.0
 51
360.0
  0
ARC
  8
M0
 62
     7
 10
122.065958
 20
343.195178
 40
0.5
 50
180.0
 51
270.0
  0
ARC
  8
M0
 62
     7
 10
128.565958
 20
343.195178
 40
0.5
 50
270.0
 51
360.0
  0
ARC
  8
M0
 62
     7
 10
122.065958
 20
315.295178
 40
0.5
 50
90.0
 51
180.0
  0
ARC
  8
M0
 62
     7
 10
128.565958
 20
349.695178
 40
0.5
 50
0.0
 51
90.0
  0
ARC
  8
M0
 62
     7
 10
122.065958
 20
349.695178
 40
0.5
 50
90.0
 51
180.0
  0
ARC
  8
M0
 62
     7
 10
58.565958
 20
316.395178
 40
0.5
 50
180.0
 51
270.0
  0
LINE
  8
M0
 62
     7
 10
121.565959
 20
343.195178
 11
121.565959
 21
349.695179
  0
LINE
  8
M0
  6
DASHDOT
 62
     7
 10
137.015957
 20
333.045178
 11
50.115959
 21
333.045178
  0
LINE
  8
M0
  6
DASHDOT
 62
     7
 10
93.565958
 20
285.545178
 11
93.565958
 21
384.545179
  0
ARC
  8
M0
 62
     7
 10
88.765958
 20
337.314132
 40
0.5
 50
90.0
 51
180.0
  0
ARC
  8
M0
 62
     7
 10
98.365958
 20
337.314132
 40
0.5
 50
0.0
 51
90.0
  0
LINE
  8
M0
 62
     7
 10
65.065958
 20
342.695179
 11
58.565959
 21
342.695179
  0
LINE
  8
M0
 62
     7
 10
58.565958
 20
350.195178
 11
65.065958
 21
350.195178
  0
LINE
  8
M0
 62
     7
 10
65.565957
 20
322.895178
 11
65.565957
 21
316.395178
  0
LINE
  8
M0
 62
     7
 10
128.565958
 20
315.895179
 11
122.065959
 21
315.895179
  0
LINE
  8
M0
 62
     7
 10
58.565958
 20
323.395178
 11
65.065958
 21
323.395178
  0
ARC
  8
M0
 62
     7
 10
65.065958
 20
349.695179
 40
0.5
 50
0.0
 51
90.0
  0
ARC
  8
M0
 62
     7
 10
65.065958
 20
322.895178
 40
0.5
 50
0.0
 51
90.0
  0
ARC
  8
M0
 62
     7
 10
65.065958
 20
316.395178
 40
0.5
 50
270.0
 51
360.0
  0
ARC
  8
M0
 62
     7
 10
58.565958
 20
322.895178
 40
0.5
 50
90.0
 51
180.0
  0
ARC
  8
M0
 62
     7
 10
58.565958
 20
349.695178
 40
0.5
 50
90.0
 51
180.0
  0
ARC
  8
M0
 62
     7
 10
58.565959
 20
343.195178
 40
0.5
 50
180.0
 51
270.0
  0
ARC
  8
M0
 62
     7
 10
58.565959
 20
343.195178
 40
0.5
 50
180.0
 51
270.0
  0
ARC
  8
M0
 62
     7
 10
65.065959
 20
343.195179
 40
0.5
 50
270.0
 51
360.0
  0
LINE
  8
M0
 62
     7
 10
129.065959
 20
316.39518
 11
129.065959
 21
322.895179
  0
LINE
  8
M0
 62
     7
 10
122.065958
 20
323.395178
 11
128.565958
 21
323.395178
  0
LINE
  8
M0
 62
     7
 10
65.065958
 20
308.295179
 11
58.565958
 21
308.295179
  0
ARC
  8
M0
 62
     7
 10
128.565958
 20
322.895179
 40
0.5
 50
0.0
 51
90.0
  0
ARC
  8
M0
 62
     7
 10
58.565958
 20
349.695178
 40
0.5
 50
90.0
 51
180.0
  0
ARC
  8
M0
 62
     7
 10
122.065959
 20
316.395178
 40
0.5
 50
180.0
 51
270.0
  0
ARC
  8
M0
 62
     7
 10
122.065958
 20
322.895178
 40
0.5
 50
90.0
 51
180.0
  0
ARC
  8
M0
 62
     7
 10
128.565958
 20
322.895179
 40
0.5
 50
0.0
 51
90.0
  0
ARC
  8
M0
 62
     7
 10
128.565959
 20
316.395179
 40
0.5
 50
270.0
 51
360.0
  0
ARC
  8
M0
 62
     7
 10
128.565959
 20
316.395179
 40
0.5
 50
270.0
 51
360.0
  0
LINE
  8
M0
 62
     7
 10
58.065957
 20
349.695177
 11
58.065957
 21
343.195178
  0
LINE
  8
M0
 62
     7
 10
129.065959
 20
315.295179
 11
129.065959
 21
308.795179
  0
LINE
  8
M0
 62
     7
 10
121.565959
 20
308.795178
 11
121.565959
 21
315.295178
  0
LINE
  8
M0
 62
     7
 10
122.065958
 20
315.795179
 11
128.565958
 21
315.795179
  0
LINE
  8
M0
 62
     7
 10
128.565959
 20
308.295179
 11
122.065958
 21
308.295179
  0
ARC
  8
M0
 62
     7
 10
65.665958
 20
294.045178
 40
0.5
 50
180.0
 51
270.0
  0
LINE
  8
M0
 62
     7
 10
121.565959
 20
316.395178
 11
121.565959
 21
322.895178
  0
ARC
  8
M0
 62
     7
 10
122.015958
 20
372.545178
 40
2.0
 50
90.0
 51
126.869898
  0
ARC
  8
M0
 62
     7
 10
65.115958
 20
372.545178
 40
2.0
 50
53.130102
 51
90.0
  0
LINE
  8
M0
 62
     7
 10
58.565958
 20
315.795179
 11
65.065958
 21
315.795179
  0
ARC
  8
M0
 62
     7
 10
58.565958
 20
308.795178
 40
0.5
 50
180.0
 51
270.0
  0
ARC
  8
M0
 62
     7
 10
65.065958
 20
308.795178
 40
0.5
 50
270.0
 51
360.0
  0
ARC
  8
M0
 62
     7
 10
74.365958
 20
370.395178
 40
0.5
 50
180.0
 51
270.0
  0
ARC
  8
M0
 62
     7
 10
80.865958
 20
370.395178
 40
0.5
 50
270.0
 51
360.0
  0
ARC
  8
M0
 62
     7
 10
58.565958
 20
315.295178
 40
0.5
 50
90.0
 51
180.0
  0
ARC
  8
M0
 62
     7
 10
80.865958
 20
376.895178
 40
0.5
 50
0.0
 51
90.0
  0
ARC
  8
M0
 62
     7
 10
122.065959
 20
308.795178
 40
0.5
 50
180.0
 51
270.0
  0
ARC
  8
M0
 62
     7
 10
128.565958
 20
315.295179
 40
0.5
 50
0.0
 51
90.0
  0
ARC
  8
M0
 62
     7
 10
119.815958
 20
374.545178
 40
1.0
 50
0.0
 51
90.0
  0
ARC
  8
M0
 62
     7
 10
65.065958
 20
315.295178
 40
0.5
 50
0.0
 51
90.0
  0
ARC
  8
M0
 62
     7
 10
128.565959
 20
308.795179
 40
0.5
 50
270.0
 51
360.0
  0
LINE
  8
M0
 62
     7
 10
73.865958
 20
370.395177
 11
73.865958
 21
376.895178
  0
LINE
  8
M0
 62
     7
 10
80.865958
 20
369.89518
 11
74.365958
 21
369.89518
  0
LINE
  8
M0
 62
     7
 10
129.065959
 20
357.295179
 11
129.065959
 21
350.795178
  0
LINE
  8
M0
 62
     7
 10
58.065957
 20
308.795178
 11
58.065957
 21
315.295178
  0
LINE
  8
M0
 62
     7
 10
65.565957
 20
315.295178
 11
65.565957
 21
308.795178
  0
LINE
  8
M0
 62
     7
 10
81.365958
 20
376.895178
 11
81.365958
 21
370.395177
  0
LINE
  8
M0
 62
     7
 10
122.065958
 20
357.795178
 11
128.565958
 21
357.795178
  0
LINE
  8
M0
 62
     7
 10
121.565959
 20
350.795179
 11
121.565959
 21
357.295178
  0
LINE
  8
M0
 62
     7
 10
128.565958
 20
350.295178
 11
122.065958
 21
350.295178
  0
LINE
  8
M0
 62
     7
 10
74.365958
 20
377.395177
 11
80.865958
 21
377.395177
  0
LINE
  8
M0
 62
     7
 10
105.765959
 20
370.395177
 11
105.765955
 21
376.895178
  0
LINE
  8
M0
 62
     7
 10
118.115958
 20
291.54518
 11
118.115958
 21
293.545177
  0
LINE
  8
M0
 62
     7
 10
82.915959
 20
293.545177
 11
82.915959
 21
291.54518
  0
LINE
  8
M0
 62
     7
 10
130.215956
 20
312.945179
 11
130.315958
 21
312.945179
  0
LINE
  8
M0
 62
     7
 10
130.315958
 20
353.145178
 11
130.215956
 21
353.145178
  0
LINE
  8
M0
 62
     7
 10
56.815958
 20
353.145178
 11
56.91596
 21
353.145178
  0
LINE
  8
M0
 62
     7
 10
56.91596
 20
312.945179
 11
56.815958
 21
312.945179
  0
LINE
  8
M0
 62
     7
 10
112.765959
 20
369.895176
 11
106.265959
 21
369.895176
  0
LINE
  8
M0
 62
     7
 10
58.065957
 20
357.295177
 11
58.065957
 21
350.795178
  0
LINE
  8
M0
 62
     7
 10
65.565959
 20
357.295179
 11
65.565959
 21
350.795179
  0
CIRCLE
  8
M0
 62
     7
 10
76.215958
 20
293.545178
 40
2.825
  0
ARC
  8
M0
 62
     7
 10
76.215958
 20
293.545178
 40
2.65
 50
189.776849
 51
350.223151
  0
CIRCLE
  8
M0
 62
     7
 10
76.215958
 20
293.545178
 40
2.85
  0
ARC
  8
M0
 62
     7
 10
106.265958
 20
376.895178
 40
0.5
 50
90.0
 51
180.0
  0
ARC
  8
M0
 62
     7
 10
58.565959
 20
350.795178
 40
0.5
 50
180.0
 51
270.0
  0
ARC
  8
M0
 62
     7
 10
106.265959
 20
370.395178
 40
0.5
 50
180.0
 51
270.0
  0
ARC
  8
M0
 62
     7
 10
112.765959
 20
370.395179
 40
0.5
 50
270.0
 51
360.0
  0
ARC
  8
M0
 62
     7
 10
58.565958
 20
357.295178
 40
0.5
 50
90.0
 51
180.0
  0
ARC
  8
M0
 62
     7
 10
112.765958
 20
376.895179
 40
0.5
 50
0.0
 51
90.0
  0
LINE
  8
M0
 62
     7
 10
113.265958
 20
370.395177
 11
113.265958
 21
376.895179
  0
LINE
  8
M0
 62
     7
 10
106.265958
 20
377.39518
 11
112.765957
 21
377.39518
  0
ARC
  8
M0
 62
     7
 10
65.065959
 20
350.795179
 40
0.5
 50
270.0
 51
360.0
  0
ARC
  8
M0
 62
     7
 10
65.065958
 20
357.295179
 40
0.5
 50
0.0
 51
90.0
  0
ARC
  8
M0
 62
     7
 10
112.765959
 20
370.395179
 40
0.5
 50
270.0
 51
360.0
  0
ARC
  8
M0
 62
     7
 10
74.365958
 20
376.895178
 40
0.5
 50
90.0
 51
180.0
  0
ARC
  8
M0
 62
     7
 10
122.065958
 20
357.295178
 40
0.5
 50
90.0
 51
180.0
  0
LINE
  8
M0
 62
     7
 10
65.065958
 20
350.29518
 11
58.565959
 21
350.295173
  0
ARC
  8
M0
 62
     7
 10
128.565958
 20
350.795178
 40
0.5
 50
270.0
 51
360.0
  0
ARC
  8
M0
 62
     7
 10
112.765958
 20
376.895179
 40
0.5
 50
0.0
 51
90.0
  0
ARC
  8
M0
 62
     7
 10
128.565958
 20
357.295178
 40
0.5
 50
0.0
 51
90.0
  0
ARC
  8
M0
 62
     7
 10
58.565958
 20
357.295178
 40
0.5
 50
90.0
 51
180.0
  0
ARC
  8
M0
 62
     7
 10
58.565959
 20
350.795178
 40
0.5
 50
180.0
 51
270.0
  0
ARC
  8
M0
 62
     7
 10
122.065958
 20
350.795178
 40
0.5
 50
180.0
 51
270.0
  0
LINE
  8
M0
 62
     7
 10
118.115958
 20
310.145178
 11
118.115958
 21
310.345178
  0
LINE
  8
M0
 62
     7
 10
118.115958
 20
355.745179
 11
118.115958
 21
355.945179
  0
LINE
  8
M0
 62
     7
 10
56.91596
 20
360.395178
 11
56.115957
 21
360.395178
  0
LINE
  8
M0
 62
     7
 10
130.215956
 20
360.395178
 11
131.015959
 21
360.395178
  0
LINE
  8
M0
 62
     7
 10
69.015958
 20
310.145178
 11
69.015958
 21
310.345178
  0
LINE
  8
M0
 62
     7
 10
86.615958
 20
310.345178
 11
86.615958
 21
291.545178
  0
LINE
  8
M0
 62
     7
 10
57.915958
 20
337.745178
 11
57.915958
 21
359.395179
  0
LINE
  8
M0
 62
     7
 10
65.715958
 20
323.855499
 11
65.715958
 21
306.295178
  0
LINE
  8
M0
 62
     7
 10
65.715958
 20
359.795179
 11
65.715958
 21
342.233425
  0
LINE
  8
M0
 62
     7
 10
121.415958
 20
342.345178
 11
129.215958
 21
342.345178
  0
LINE
  8
M0
 62
     7
 10
131.015959
 20
305.695179
 11
130.215956
 21
305.695179
  0
LINE
  8
M0
 62
     7
 10
125.715958
 20
336.745178
 11
125.715958
 21
329.345178
  0
ARC
  8
M0
 62
     7
 10
118.373967
 20
322.451137
 40
3.350514
 50
24.780822
 51
43.210715
  0
ARC
  8
M0
 62
     7
 10
56.115958
 20
313.945178
 40
1.0
 50
180.0
 51
270.0
  0
ARC
  8
M0
 62
     7
 10
130.215958
 20
359.395178
 40
1.0
 50
90.0
 51
180.0
  0
ARC
  8
M0
 62
     7
 10
116.51909
 20
344.894435
 40
5.573176
 50
320.442941
 51
331.479874
  0
ARC
  8
M0
 62
     7
 10
70.612826
 20
344.894435
 40
5.573176
 50
208.520126
 51
219.557059
  0
ARC
  8
M0
 62
     7
 10
66.315958
 20
352.545178
 40
0.6
 50
90.0
 51
180.0
  0
ARC
  8
M0
 62
     7
 10
120.815958
 20
352.545178
 40
0.6
 50
0.0
 51
90.0
  0
ARC
  8
M0
 62
     7
 10
56.115958
 20
359.395178
 40
1.0
 50
90.0
 51
180.0
  0
ARC
  8
M0
 62
     7
 10
56.915958
 20
359.395178
 40
1.0
 50
0.0
 51
90.0
  0
ARC
  8
M0
 62
     7
 10
130.215958
 20
306.695178
 40
1.0
 50
180.0
 51
270.0
  0
LINE
  8
M0
 62
     7
 10
131.015959
 20
312.945179
 11
130.215956
 21
312.945179
  0
LINE
  8
M0
 62
     7
 10
56.115957
 20
312.945179
 11
56.91596
 21
312.945179
  0
LINE
  8
M0
 62
     7
 10
61.415958
 20
336.745178
 11
61.415958
 21
329.345178
  0
LINE
  8
M0
 62
     7
 10
91.815958
 20
330.345178
 11
91.815958
 21
337.292685
  0
LINE
  8
M0
 62
     7
 10
98.865958
 20
337.745178
 11
98.865958
 21
329.250166
  0
LINE
  8
M0
 62
     7
 10
88.265958
 20
337.745178
 11
88.265958
 21
329.250166
  0
LINE
  8
M0
 62
     7
 10
98.865958
 20
328.752647
 11
98.865958
 21
329.250166
  0
LINE
  8
M0
 62
     7
 10
92.315958
 20
329.845178
 11
94.815958
 21
329.845178
  0
LINE
  8
M0
 62
     7
 10
88.265958
 20
328.752647
 11
88.265958
 21
329.250166
  0
LINE
  8
M0
 62
     7
 10
65.715958
 20
342.345178
 11
57.915958
 21
342.345178
  0
LINE
  8
M0
 62
     7
 10
130.215956
 20
336.745178
 11
125.715958
 21
336.745178
  0
LINE
  8
M0
 62
     7
 10
121.415958
 20
359.795178
 11
121.415958
 21
342.261694
  0
LINE
  8
M0
 62
     7
 10
56.115957
 20
329.345178
 11
61.415958
 21
329.345178
  0
LINE
  8
M0
 62
     7
 10
129.215958
 20
323.745178
 11
121.415958
 21
323.745178
  0
LINE
  8
M0
 62
     7
 10
125.715958
 20
329.345178
 11
130.215956
 21
329.345178
  0
LINE
  8
M0
 62
     7
 10
57.915958
 20
323.745178
 11
65.715958
 21
323.745178
  0
LINE
  8
M0
 62
     7
 10
118.115958
 20
371.545178
 11
118.115958
 21
372.54518
  0
LINE
  8
M0
 62
     7
 10
82.915959
 20
378.04518
 11
82.915959
 21
355.745179
  0
LINE
  8
M0
 62
     7
 10
118.115958
 20
293.545177
 11
118.115958
 21
294.545179
  0
LINE
  8
M0
 62
     7
 10
104.215958
 20
294.545179
 11
104.215958
 21
293.545177
  0
LINE
  8
M0
 62
     7
 10
69.015958
 20
293.545177
 11
69.015958
 21
294.545179
  0
LINE
  8
M0
 62
     7
 10
87.115958
 20
344.045178
 11
87.515958
 21
344.045178
  0
LINE
  8
M0
 62
     7
 10
99.615958
 20
344.045178
 11
100.015958
 21
344.045178
  0
LINE
  8
M0
 62
     7
 10
131.015959
 20
329.345178
 11
131.015959
 21
336.745178
  0
LINE
  8
M0
 62
     7
 10
129.715959
 20
336.745178
 11
129.715959
 21
329.345178
  0
LINE
  8
M0
 62
     7
 10
56.115957
 20
329.345178
 11
56.115957
 21
336.745178
  0
LINE
  8
M0
 62
     7
 10
57.415957
 20
336.745178
 11
57.415957
 21
329.345178
  0
LINE
  8
M0
 62
     7
 10
118.115958
 20
372.54518
 11
118.115958
 21
374.545177
  0
LINE
  8
M0
 62
     7
 10
69.015958
 20
355.745179
 11
69.015958
 21
374.545177
  0
LINE
  8
M0
 62
     7
 10
129.215958
 20
306.695178
 11
129.215958
 21
328.345178
  0
LINE
  8
M0
 62
     7
 10
121.415958
 20
323.855499
 11
121.415958
 21
306.295178
  0
LINE
  8
M0
 62
     7
 10
57.915958
 20
306.695178
 11
57.915958
 21
328.345178
  0
ARC
  8
M0
 62
     7
 10
56.915958
 20
328.345178
 40
1.0
 50
0.0
 51
90.0
  0
ARC
  8
M0
 62
     7
 10
131.015958
 20
313.945178
 40
1.0
 50
270.0
 51
360.0
  0
ARC
  8
M0
 62
     7
 10
130.215958
 20
313.945178
 40
1.0
 50
180.0
 51
270.0
  0
ARC
  8
M0
 62
     7
 10
68.75795
 20
322.451137
 40
3.350514
 50
136.789285
 51
155.219178
  0
ARC
  8
M0
 62
     7
 10
66.315958
 20
313.545178
 40
0.6
 50
180.0
 51
270.0
  0
ARC
  8
M0
 62
     7
 10
56.915958
 20
313.945178
 40
1.0
 50
270.0
 51
360.0
  0
LINE
  8
M0
 62
     7
 10
69.015958
 20
291.54518
 11
69.015958
 21
293.545177
  0
ARC
  8
M0
 62
     7
 10
120.815958
 20
313.545178
 40
0.6
 50
270.0
 51
360.0
  0
LINE
  8
M0
 62
     7
 10
104.215958
 20
293.545177
 11
104.215958
 21
291.54518
  0
LINE
  8
M0
 62
     7
 10
78.827471
 20
293.995177
 11
77.803409
 21
293.995177
  0
LINE
  8
M0
 62
     7
 10
75.765959
 20
292.345179
 11
76.665959
 21
292.345179
  0
LINE
  8
M0
 62
     7
 10
75.765959
 20
294.745178
 11
75.765959
 21
293.995177
  0
LINE
  8
M0
 62
     7
 10
74.628508
 20
293.995177
 11
73.604445
 21
293.995177
  0
LINE
  8
M0
 62
     7
 10
75.765959
 20
293.09518
 11
74.628508
 21
293.09518
  0
LINE
  8
M0
 62
     7
 10
76.665959
 20
293.995177
 11
77.803409
 21
293.995177
  0
LINE
  8
M0
 62
     7
 10
76.665959
 20
293.995177
 11
76.665959
 21
294.745178
  0
LINE
  8
M0
 62
     7
 10
77.803409
 20
293.09518
 11
78.827471
 21
293.09518
  0
LINE
  8
M0
 62
     7
 10
73.604445
 20
293.09518
 11
74.628508
 21
293.09518
  0
LINE
  8
M0
 62
     7
 10
77.803409
 20
293.09518
 11
76.665959
 21
293.09518
  0
LINE
  8
M0
 62
     7
 10
74.628508
 20
293.995177
 11
75.765959
 21
293.995177
  0
LINE
  8
M0
 62
     7
 10
113.527472
 20
293.995177
 11
112.503408
 21
293.995177
  0
LINE
  8
M0
 62
     7
 10
76.665959
 20
292.345179
 11
76.665959
 21
293.09518
  0
LINE
  8
M0
 62
     7
 10
75.765959
 20
293.09518
 11
75.765959
 21
292.345179
  0
LINE
  8
M0
 62
     7
 10
112.503408
 20
293.09518
 11
113.527472
 21
293.09518
  0
LINE
  8
M0
 62
     7
 10
58.565958
 20
357.795178
 11
65.065958
 21
357.795178
  0
LINE
  8
M0
 62
     7
 10
108.304445
 20
293.09518
 11
109.328507
 21
293.09518
  0
LINE
  8
M0
 62
     7
 10
111.365958
 20
293.995177
 11
111.365958
 21
294.745178
  0
LINE
  8
M0
 62
     7
 10
109.328507
 20
293.995177
 11
108.304445
 21
293.995177
  0
ARC
  8
M0
 62
     7
 10
76.215958
 20
293.545178
 40
2.65
 50
9.776849
 51
170.223151
  0
ARC
  8
M0
 62
     7
 10
76.215958
 20
293.545178
 40
2.65
 50
350.223151
 51
369.776849
  0
ARC
  8
M0
 62
     7
 10
76.215958
 20
293.545178
 40
2.65
 50
170.223151
 51
189.776849
  0
ARC
  8
M0
 62
     7
 10
110.915958
 20
293.545178
 40
2.65
 50
9.776849
 51
170.223151
  0
ARC
  8
M0
 62
     7
 10
110.915958
 20
293.545178
 40
2.65
 50
189.776849
 51
350.223151
  0
LINE
  8
M0
 62
     7
 10
95.315958
 20
330.345178
 11
95.315958
 21
337.292685
  0
LINE
  8
M0
 62
     7
 10
100.515958
 20
369.545178
 11
86.615958
 21
369.545178
  0
LINE
  8
M0
 62
     7
 10
98.865958
 20
337.314132
 11
98.865958
 21
337.292685
  0
LINE
  8
M0
 62
     7
 10
128.315958
 20
307.245178
 11
122.315959
 21
307.245178
  0
LINE
  8
M0
 62
     7
 10
128.315958
 20
308.295179
 11
128.315958
 21
307.245178
  0
LINE
  8
M0
 62
     7
 10
121.415958
 20
308.745179
 11
121.568464
 21
308.745179
  0
ARC
  8
M0
 62
     7
 10
131.015958
 20
306.695178
 40
1.0
 50
270.0
 51
360.0
  0
ARC
  8
M0
 62
     7
 10
66.315958
 20
359.795178
 40
0.6
 50
90.0
 51
180.0
  0
ARC
  8
M0
 62
     7
 10
56.915958
 20
306.695178
 40
1.0
 50
270.0
 51
360.0
  0
ARC
  8
M0
 62
     7
 10
131.015958
 20
359.395178
 40
1.0
 50
0.0
 51
90.0
  0
ARC
  8
M0
 62
     7
 10
120.815958
 20
359.795178
 40
0.6
 50
0.0
 51
90.0
  0
ARC
  8
M0
 62
     7
 10
120.815958
 20
306.295178
 40
0.6
 50
270.0
 51
360.0
  0
LINE
  8
M0
 62
     7
 10
91.815958
 20
337.292685
 11
91.815958
 21
337.314132
  0
LINE
  8
M0
 62
     7
 10
95.315958
 20
337.292685
 11
95.315958
 21
337.314132
  0
LINE
  8
M0
 62
     7
 10
88.265958
 20
337.314132
 11
88.265958
 21
337.292685
  0
LINE
  8
M0
 62
     7
 10
88.265958
 20
328.752647
 11
88.265958
 21
328.345178
  0
ARC
  8
M0
 62
     7
 10
66.315958
 20
306.295178
 40
0.6
 50
180.0
 51
270.0
  0
LINE
  8
M0
 62
     7
 10
122.315959
 20
307.245178
 11
122.315959
 21
308.295179
  0
LINE
  8
M0
 62
     7
 10
88.765958
 20
327.845178
 11
88.015958
 21
327.845178
  0
LINE
  8
M0
 62
     7
 10
98.865958
 20
328.752647
 11
98.865958
 21
328.345178
  0
LINE
  8
M0
 62
     7
 10
97.715958
 20
338.245178
 11
97.715958
 21
338.545178
  0
LINE
  8
M0
 62
     7
 10
88.015958
 20
338.245178
 11
99.115958
 21
338.245178
  0
LINE
  8
M0
 62
     7
 10
88.765958
 20
327.845178
 11
98.365958
 21
327.845178
  0
LINE
  8
M0
 62
     7
 10
104.215958
 20
366.245178
 11
104.215958
 21
369.045177
  0
LINE
  8
M0
 62
     7
 10
89.415958
 20
338.245178
 11
89.415958
 21
338.545178
  0
LINE
  8
M0
 62
     7
 10
76.665959
 20
294.745178
 11
75.765959
 21
294.745178
  0
LINE
  8
M0
 62
     7
 10
77.965959
 20
296.545179
 11
82.915959
 21
296.545179
  0
LINE
  8
M0
 62
     7
 10
97.715958
 20
327.345178
 11
97.715958
 21
327.845178
  0
LINE
  8
M0
 62
     7
 10
109.165958
 20
369.545178
 11
104.215958
 21
369.545178
  0
LINE
  8
M0
 62
     7
 10
113.165958
 20
296.545179
 11
118.115958
 21
296.545179
  0
LINE
  8
M0
 62
     7
 10
95.565958
 20
296.545179
 11
100.515958
 21
296.545179
  0
LINE
  8
M0
 62
     7
 10
118.115958
 20
369.545178
 11
113.165958
 21
369.545178
  0
LINE
  8
M0
 62
     7
 10
104.215958
 20
296.545179
 11
109.165958
 21
296.545179
  0
LINE
  8
M0
 62
     7
 10
86.615958
 20
296.545179
 11
91.565958
 21
296.545179
  0
LINE
  8
M0
 62
     7
 10
89.415958
 20
327.345178
 11
89.415958
 21
327.845178
  0
LINE
  8
M0
 62
     7
 10
69.015958
 20
296.545179
 11
73.965958
 21
296.545179
  0
LINE
  8
M0
 62
     7
 10
98.365958
 20
327.845178
 11
99.115958
 21
327.845178
  0
LINE
  8
M0
 62
     7
 10
113.515959
 20
377.545179
 11
113.015958
 21
378.04518
  0
LINE
  8
M0
 62
     7
 10
113.515959
 20
369.545178
 11
113.515959
 21
377.545179
  0
ARC
  8
M0
 62
     7
 10
88.765958
 20
337.745178
 40
0.5
 50
90.0
 51
180.0
  0
ARC
  8
M0
 62
     7
 10
88.765958
 20
328.345178
 40
0.5
 50
180.0
 51
270.0
  0
ARC
  8
M0
 62
     7
 10
94.815958
 20
330.345178
 40
0.5
 50
270.0
 51
360.0
  0
LINE
  8
M0
 62
     7
 10
121.415958
 20
315.845178
 11
129.215958
 21
315.845178
  0
ARC
  8
M0
 62
     7
 10
111.165957
 20
373.295178
 40
4.25
 50
241.927521
 51
298.072495
  0
LINE
  8
M0
 62
     7
 10
111.365958
 20
293.995177
 11
112.503408
 21
293.995177
  0
LINE
  8
M0
 62
     7
 10
110.465957
 20
293.09518
 11
110.465957
 21
292.345179
  0
LINE
  8
M0
 62
     7
 10
91.978507
 20
373.795179
 11
90.954445
 21
373.795179
  0
LINE
  8
M0
 62
     7
 10
110.465957
 20
294.745178
 11
110.465957
 21
293.995177
  0
LINE
  8
M0
 62
     7
 10
111.365958
 20
292.345179
 11
111.365958
 21
293.09518
  0
LINE
  8
M0
 62
     7
 10
90.954445
 20
372.895179
 11
91.978507
 21
372.895179
  0
LINE
  8
M0
 62
     7
 10
111.365958
 20
294.745178
 11
110.465957
 21
294.745178
  0
LINE
  8
M0
 62
     7
 10
96.177471
 20
373.795179
 11
95.153409
 21
373.795179
  0
LINE
  8
M0
 62
     7
 10
95.153409
 20
372.895179
 11
96.177471
 21
372.895179
  0
CIRCLE
  8
M0
 62
     7
 10
110.915958
 20
293.545178
 40
2.825
  0
LINE
  8
M0
 62
     7
 10
112.503408
 20
293.09518
 11
111.365958
 21
293.09518
  0
LINE
  8
M0
 62
     7
 10
94.015958
 20
373.795179
 11
94.015958
 21
374.545177
  0
LINE
  8
M0
 62
     7
 10
110.465957
 20
293.09518
 11
109.328507
 21
293.09518
  0
LINE
  8
M0
 62
     7
 10
94.015958
 20
372.145177
 11
94.015958
 21
372.895179
  0
LINE
  8
M0
 62
     7
 10
94.015958
 20
374.545177
 11
93.115958
 21
374.545177
  0
LINE
  8
M0
 62
     7
 10
81.415958
 20
378.04518
 11
73.115958
 21
378.04518
  0
LINE
  8
M0
 62
     7
 10
93.115958
 20
372.145177
 11
94.015958
 21
372.145177
  0
LINE
  8
M0
 62
     7
 10
91.978507
 20
373.795179
 11
93.115958
 21
373.795179
  0
LINE
  8
M0
 62
     7
 10
94.015958
 20
373.795179
 11
95.153409
 21
373.795179
  0
LINE
  8
M0
 62
     7
 10
93.115958
 20
374.545177
 11
93.115958
 21
373.795179
  0
LINE
  8
M0
 62
     7
 10
113.015958
 20
378.04518
 11
105.715958
 21
378.04518
  0
LINE
  8
M0
 62
     7
 10
93.115958
 20
372.895179
 11
91.978507
 21
372.895179
  0
LINE
  8
M0
 62
     7
 10
87.515958
 20
344.045178
 11
85.365958
 21
344.045178
  0
LINE
  8
M0
 62
     7
 10
74.115959
 20
378.04518
 11
73.615958
 21
377.545179
  0
LINE
  8
M0
 62
     7
 10
73.615958
 20
377.545179
 11
73.615958
 21
369.545178
  0
ARC
  8
M0
 62
     7
 10
93.565958
 20
292.795178
 40
4.25
 50
61.927513
 51
118.072487
  0
ARC
  8
M0
 62
     7
 10
75.965958
 20
292.795178
 40
4.25
 50
61.927513
 51
118.072487
  0
ARC
  8
M0
 62
     7
 10
111.165957
 20
373.295178
 40
4.25
 50
241.927521
 51
270.0
  0
ARC
  8
M0
 62
     7
 10
98.365958
 20
328.345178
 40
0.5
 50
270.0
 51
360.0
  0
ARC
  8
M0
 62
     7
 10
92.315958
 20
330.345178
 40
0.5
 50
180.0
 51
270.0
  0
ARC
  8
M0
 62
     7
 10
93.565957
 20
373.295178
 40
4.25
 50
241.927521
 51
298.072495
  0
ARC
  8
M0
 62
     7
 10
98.365958
 20
337.745178
 40
0.5
 50
0.0
 51
90.0
  0
LINE
  8
M0
 62
     7
 10
95.153409
 20
372.895179
 11
94.015958
 21
372.895179
  0
ARC
  8
M0
 62
     7
 10
93.565957
 20
373.295178
 40
4.25
 50
241.927521
 51
270.0
  0
ARC
  8
M0
 62
     7
 10
111.165958
 20
292.795178
 40
4.25
 50
61.927513
 51
118.072487
  0
LINE
  8
M0
 62
     7
 10
93.115958
 20
372.895179
 11
93.115958
 21
372.145177
  0
ARC
  8
M0
 62
     7
 10
80.715958
 20
370.245178
 40
0.6
 50
215.685335
 51
270.0
  0
ARC
  8
M0
 62
     7
 10
109.115958
 20
369.045178
 40
1.0
 50
30.0
 51
58.211672
  0
ARC
  8
M0
 62
     7
 10
93.565958
 20
373.345178
 40
2.65
 50
170.223151
 51
189.776849
  0
ARC
  8
M0
 62
     7
 10
93.565958
 20
373.345178
 40
2.65
 50
189.776849
 51
350.223151
  0
ARC
  8
M0
 62
     7
 10
110.915958
 20
293.545178
 40
2.65
 50
350.223151
 51
369.776849
  0
ARC
  8
M0
 62
     7
 10
106.415958
 20
370.245178
 40
0.6
 50
187.490122
 51
324.314617
  0
ARC
  8
M0
 62
     7
 10
93.565958
 20
373.345178
 40
2.65
 50
9.776849
 51
170.223151
  0
ARC
  8
M0
 62
     7
 10
109.115958
 20
369.045178
 40
1.0
 50
121.788346
 51
150.0
  0
ARC
  8
M0
 62
     7
 10
93.565958
 20
373.345178
 40
2.65
 50
350.223151
 51
369.776849
  0
ARC
  8
M0
 62
     7
 10
67.315958
 20
291.545178
 40
1.0
 50
180.0
 51
270.0
  0
ARC
  8
M0
 62
     7
 10
130.215958
 20
352.145178
 40
1.0
 50
90.0
 51
180.0
  0
ARC
  8
M0
 62
     7
 10
119.115958
 20
291.545178
 40
1.0
 50
180.0
 51
270.0
  0
ARC
  8
M0
 62
     7
 10
68.015958
 20
291.545178
 40
1.0
 50
270.0
 51
360.0
  0
ARC
  8
M0
 62
     7
 10
130.215958
 20
328.345178
 40
1.0
 50
90.0
 51
180.0
  0
ARC
  8
M0
 62
     7
 10
103.215958
 20
291.545178
 40
1.0
 50
270.0
 51
360.0
  0
ARC
  8
M0
 62
     7
 10
83.915958
 20
291.545178
 40
1.0
 50
180.0
 51
270.0
  0
ARC
  8
M0
 62
     7
 10
56.915958
 20
337.745178
 40
1.0
 50
270.0
 51
360.0
  0
ARC
  8
M0
 62
     7
 10
131.015958
 20
352.145178
 40
1.0
 50
0.0
 51
90.0
  0
ARC
  8
M0
 62
     7
 10
80.715958
 20
370.245178
 40
0.6
 50
270.0
 51
352.509835
  0
ARC
  8
M0
 62
     7
 10
130.215958
 20
337.745178
 40
1.0
 50
180.0
 51
270.0
  0
ARC
  8
M0
 62
     7
 10
131.015958
 20
337.745178
 40
1.0
 50
270.0
 51
360.0
  0
ARC
  8
M0
 62
     7
 10
110.915958
 20
293.545178
 40
2.65
 50
170.223151
 51
189.776849
  0
ARC
  8
M0
 62
     7
 10
56.115958
 20
352.145178
 40
1.0
 50
90.0
 51
180.0
  0
LINE
  8
M0
 62
     7
 10
98.615958
 20
342.545178
 11
88.515958
 21
342.545178
  0
LINE
  8
M0
 62
     7
 10
99.115958
 20
338.545178
 11
88.015958
 21
338.545178
  0
LINE
  8
M0
 62
     7
 10
119.115959
 20
375.545179
 11
119.615954
 21
375.545179
  0
LINE
  8
M0
 62
     7
 10
88.515958
 20
339.045178
 11
98.615958
 21
339.045178
  0
LINE
  8
M0
 62
     7
 10
68.015958
 20
375.545179
 11
67.315958
 21
375.545179
  0
LINE
  8
M0
 62
     7
 10
109.328507
 20
293.995177
 11
110.465957
 21
293.995177
  0
LINE
  8
M0
 62
     7
 10
119.815957
 20
328.345178
 11
121.815958
 21
328.345178
  0
LINE
  8
M0
 62
     7
 10
110.465957
 20
292.345179
 11
111.365958
 21
292.345179
  0
LINE
  8
M0
 62
     7
 10
118.115958
 20
355.745179
 11
118.115958
 21
374.545177
  0
LINE
  8
M0
 62
     7
 10
86.615958
 20
355.745179
 11
86.615958
 21
374.545177
  0
LINE
  8
M0
 62
     7
 10
120.815957
 20
291.545178
 11
120.815957
 21
326.845178
  0
LINE
  8
M0
 62
     7
 10
100.515958
 20
355.745179
 11
100.515958
 21
374.545177
  0
LINE
  8
M0
 62
     7
 10
101.515959
 20
375.545179
 11
103.215958
 21
375.545179
  0
LINE
  8
M0
 62
     7
 10
119.115959
 20
310.145178
 11
119.115959
 21
310.345178
  0
LINE
  8
M0
 62
     7
 10
85.615958
 20
375.545179
 11
83.915958
 21
375.545179
  0
LINE
  8
M0
 62
     7
 10
119.615954
 20
375.545179
 11
119.815957
 21
375.545179
  0
LINE
  8
M0
 62
     7
 10
121.815958
 20
337.745178
 11
119.815957
 21
337.745178
  0
LINE
  8
M0
 62
     7
 10
119.115959
 20
355.745179
 11
119.115959
 21
355.945179
  0
LINE
  8
M0
 62
     7
 10
128.997157
 20
302.794126
 11
127.567614
 21
302.795179
  0
LINE
  8
M0
 62
     7
 10
117.165959
 20
295.545177
 11
118.115958
 21
295.545177
  0
LINE
  8
M0
 62
     7
 10
120.815957
 20
339.245179
 11
120.815957
 21
374.545178
  0
LINE
  8
M0
 62
     7
 10
68.015958
 20
355.945179
 11
69.015958
 21
355.945179
  0
LINE
  8
M0
 62
     7
 10
128.609961
 20
298.295473
 11
129.102434
 21
298.295473
  0
LINE
  8
M0
 62
     7
 10
67.315959
 20
328.345178
 11
65.315959
 21
328.345178
  0
LINE
  8
M0
 62
     7
 10
66.315959
 20
326.845178
 11
66.315959
 21
291.545178
  0
LINE
  8
M0
 62
     7
 10
119.115959
 20
355.945179
 11
118.115958
 21
355.945179
  0
LINE
  8
M0
 62
     7
 10
68.015958
 20
310.145178
 11
68.015958
 21
310.345178
  0
ARC
  8
M0
 62
     7
 10
83.915958
 20
374.545178
 40
1.0
 50
90.0
 51
180.0
  0
ARC
  8
M0
 62
     7
 10
85.615958
 20
374.545178
 40
1.0
 50
0.0
 51
90.0
  0
ARC
  8
M0
 62
     7
 10
128.60996
 20
297.995474
 40
0.3
 50
90.0
 51
180.0
  0
ARC
  8
M0
 62
     7
 10
129.065958
 20
300.545178
 40
2.25
 50
270.928845
 51
451.752277
  0
ARC
  8
M0
 62
     7
 10
67.315958
 20
374.545178
 40
1.0
 50
90.0
 51
180.0
  0
ARC
  8
M0
 62
     7
 10
68.015958
 20
374.545178
 40
1.0
 50
0.0
 51
90.0
  0
ARC
  8
M0
 62
     7
 10
101.515958
 20
374.545178
 40
1.0
 50
90.0
 51
180.0
  0
ARC
  8
M0
 62
     7
 10
119.115958
 20
374.545178
 40
1.0
 50
90.0
 51
180.0
  0
LINE
  8
M0
 62
     7
 10
128.30996
 20
297.88099
 11
128.30996
 21
297.995475
  0
LINE
  8
M0
 62
     7
 10
125.317446
 20
300.626998
 11
125.317446
 21
300.595177
  0
LINE
  8
M0
 62
     7
 10
132.515958
 20
304.245179
 11
132.515958
 21
293.545177
  0
LINE
  8
M0
 62
     7
 10
83.415958
 20
357.445178
 11
86.115958
 21
357.445178
  0
LINE
  8
M0
 62
     7
 10
66.315959
 20
374.545178
 11
66.315959
 21
339.245179
  0
ARC
  8
M0
 62
     7
 10
103.215958
 20
374.545178
 40
1.0
 50
0.0
 51
90.0
  0
LINE
  8
M0
 62
     7
 10
84.365958
 20
339.145178
 11
85.865958
 21
337.645178
  0
LINE
  8
M0
 62
     7
 10
67.315959
 20
331.545178
 11
66.315959
 21
331.545178
  0
LINE
  8
M0
 62
     7
 10
119.815957
 20
310.345178
 11
67.315959
 21
310.345178
  0
LINE
  8
M0
 62
     7
 10
88.015958
 20
323.545179
 11
99.115958
 21
323.545179
  0
LINE
  8
M0
 62
     7
 10
99.115958
 20
325.845179
 11
88.015958
 21
325.845179
  0
LINE
  8
M0
 62
     7
 10
88.015958
 20
327.345178
 11
99.115958
 21
327.345178
  0
LINE
  8
M0
 62
     7
 10
66.815958
 20
325.845179
 11
67.315959
 21
325.845179
  0
LINE
  8
M0
 62
     7
 10
66.315959
 20
334.545178
 11
66.315959
 21
334.445178
  0
LINE
  8
M0
 62
     7
 10
66.315959
 20
331.645178
 11
66.315959
 21
331.545178
  0
LINE
  8
M0
 62
     7
 10
99.615958
 20
344.045178
 11
101.765958
 21
344.045178
  0
LINE
  8
M0
 62
     7
 10
84.365958
 20
343.045178
 11
84.365958
 21
322.712075
  0
LINE
  8
M0
 62
     7
 10
98.615958
 20
339.045178
 11
98.615958
 21
343.045178
  0
LINE
  8
M0
 62
     7
 10
88.515958
 20
339.045178
 11
88.515958
 21
343.045178
  0
LINE
  8
M0
 62
     7
 10
66.315959
 20
328.545179
 11
67.315959
 21
328.545179
  0
LINE
  8
M0
 62
     7
 10
99.115958
 20
336.295178
 11
99.115958
 21
338.545178
  0
LINE
  8
M0
 62
     7
 10
101.765958
 20
322.045178
 11
100.115958
 21
322.045178
  0
LINE
  8
M0
 62
     7
 10
102.765958
 20
339.145178
 11
101.265958
 21
337.645178
  0
LINE
  8
M0
 62
     7
 10
88.015958
 20
338.545178
 11
88.015958
 21
336.295178
  0
LINE
  8
M0
 62
     7
 10
119.815957
 20
325.845179
 11
120.315958
 21
325.845179
  0
LINE
  8
M0
 62
     7
 10
102.765958
 20
343.045178
 11
102.765958
 21
323.045178
  0
LINE
  8
M0
 62
     7
 10
85.365958
 20
326.545178
 11
85.865958
 21
326.545178
  0
LINE
  8
M0
 62
     7
 10
99.115958
 20
323.045179
 11
99.115958
 21
329.795178
  0
LINE
  8
M0
 62
     7
 10
68.015958
 20
355.745179
 11
68.015958
 21
355.945179
  0
LINE
  8
M0
 62
     7
 10
85.865958
 20
322.045178
 11
85.365958
 21
322.045178
  0
LINE
  8
M0
 62
     7
 10
99.115958
 20
329.795178
 11
99.365958
 21
330.295178
  0
LINE
  8
M0
 62
     7
 10
88.015958
 20
329.795178
 11
88.015958
 21
323.045179
  0
LINE
  8
M0
 62
     7
 10
87.765958
 20
330.295178
 11
88.015958
 21
329.795178
  0
ARC
  8
M0
 62
     7
 10
129.515958
 20
293.545178
 40
3.0
 50
270.0
 51
360.0
  0
ARC
  8
M0
 62
     7
 10
127.565958
 20
300.545178
 40
2.25
 50
89.957854
 51
177.916058
  0
ARC
  8
M0
 62
     7
 10
58.115958
 20
293.545178
 40
3.0
 50
180.0
 51
270.0
  0
LINE
  8
M0
 62
     7
 10
65.315959
 20
337.745178
 11
67.315959
 21
337.745178
  0
ARC
  8
M0
 62
     7
 10
56.915958
 20
352.145178
 40
1.0
 50
0.0
 51
90.0
  0
LINE
  8
M0
 62
     7
 10
100.115958
 20
322.045178
 11
87.015958
 21
322.045178
  0
LINE
  8
M0
 62
     7
 10
101.265958
 20
337.645178
 11
101.265958
 21
326.545178
  0
LINE
  8
M0
 62
     7
 10
87.015958
 20
322.045178
 11
85.365958
 21
322.045178
  0
LINE
  8
M0
 62
     7
 10
101.265958
 20
322.045178
 11
101.765958
 21
322.045178
  0
LINE
  8
M0
 62
     7
 10
86.865958
 20
344.045178
 11
85.365958
 21
344.045178
  0
LINE
  8
M0
 62
     7
 10
87.765958
 20
335.795178
 11
87.765958
 21
330.295178
  0
LINE
  8
M0
 62
     7
 10
99.365958
 20
335.795178
 11
99.115958
 21
336.295178
  0
ARC
  8
M0
 62
     7
 10
125.017446
 20
300.595178
 40
0.3
 50
270.0
 51
360.0
  0
LINE
  8
M0
 62
     7
 10
85.865958
 20
337.645178
 11
85.865958
 21
326.545178
  0
LINE
  8
M0
 62
     7
 10
99.365958
 20
330.295178
 11
99.365958
 21
335.795178
  0
LINE
  8
M0
 62
     7
 10
101.265958
 20
326.545178
 11
101.765958
 21
326.545178
  0
LINE
  8
M0
 62
     7
 10
88.015958
 20
336.295178
 11
87.765958
 21
335.795178
  0
LINE
  8
M0
 62
     7
 10
64.815958
 20
308.295179
 11
64.815958
 21
307.245178
  0
LINE
  8
M0
 62
     7
 10
58.815958
 20
307.245178
 11
58.815958
 21
308.295179
  0
LINE
  8
M0
 62
     7
 10
113.815958
 20
370.54518
 11
113.815958
 21
369.545178
  0
LINE
  8
M0
 62
     7
 10
105.715958
 20
378.545177
 11
105.715958
 21
369.545178
  0
LINE
  8
M0
 62
     7
 10
72.115958
 20
379.545179
 11
115.015958
 21
379.545179
  0
LINE
  8
M0
 62
     7
 10
129.215958
 20
350.245179
 11
121.415958
 21
350.245179
  0
LINE
  8
M0
 62
     7
 10
104.215958
 20
378.04518
 11
82.915959
 21
378.04518
  0
LINE
  8
M0
 62
     7
 10
65.715958
 20
350.245179
 11
57.915958
 21
350.245179
  0
LINE
  8
M0
 62
     7
 10
64.815958
 20
307.245178
 11
58.815958
 21
307.245178
  0
LINE
  8
M0
 62
     7
 10
100.265958
 20
344.045178
 11
101.765958
 21
344.045178
  0
ARC
  8
M0
 62
     7
 10
87.015958
 20
323.045178
 40
1.0
 50
270.0
 51
360.0
  0
ARC
  8
M0
 62
     7
 10
100.115958
 20
323.045178
 40
1.0
 50
180.0
 51
270.0
  0
ARC
  8
M0
 62
     7
 10
119.815958
 20
311.345178
 40
1.0
 50
270.0
 51
360.0
  0
ARC
  8
M0
 62
     7
 10
101.765958
 20
323.045178
 40
1.0
 50
270.0
 51
360.0
  0
ARC
  8
M0
 62
     7
 10
85.365958
 20
323.045178
 40
1.0
 50
180.0
 51
270.0
  0
ARC
  8
M0
 62
     7
 10
66.815958
 20
325.345178
 40
0.5
 50
90.0
 51
180.0
  0
ARC
  8
M0
 62
     7
 10
101.765958
 20
343.045178
 40
1.0
 50
0.0
 51
90.0
  0
ARC
  8
M0
 62
     7
 10
88.015958
 20
339.045178
 40
0.5
 50
270.0
 51
360.0
  0
ARC
  8
M0
 62
     7
 10
85.365958
 20
343.045178
 40
1.0
 50
90.0
 51
180.0
  0
ARC
  8
M0
 62
     7
 10
67.315958
 20
311.345178
 40
1.0
 50
180.0
 51
270.0
  0
ARC
  8
M0
 62
     7
 10
85.365958
 20
325.545178
 40
1.0
 50
90.0
 51
180.0
  0
LINE
  8
M0
 62
     7
 10
111.115959
 20
379.045178
 11
111.115959
 21
378.04518
  0
LINE
  8
M0
 62
     7
 10
104.215958
 20
355.745179
 11
104.215958
 21
378.04518
  0
ARC
  8
M0
 62
     7
 10
120.315958
 20
325.345178
 40
0.5
 50
0.0
 51
90.0
  0
LINE
  8
M0
 62
     7
 10
73.315958
 20
369.545178
 11
73.315958
 21
370.54518
  0
LINE
  8
M0
 62
     7
 10
81.415958
 20
369.545178
 11
81.415958
 21
378.545177
  0
LINE
  8
M0
 62
     7
 10
76.015957
 20
378.04518
 11
76.015957
 21
379.045178
  0
LINE
  8
M0
 62
     7
 10
58.815958
 20
358.845179
 11
64.815958
 21
358.845179
  0
LINE
  8
M0
 62
     7
 10
64.815958
 20
358.845179
 11
64.815958
 21
357.795178
  0
LINE
  8
M0
 62
     7
 10
58.815958
 20
357.795178
 11
58.815958
 21
358.845179
  0
LINE
  8
M0
 62
     7
 10
122.315959
 20
358.845179
 11
128.315958
 21
358.845179
  0
LINE
  8
M0
 62
     7
 10
128.315958
 20
358.845179
 11
128.315958
 21
357.795178
  0
LINE
  8
M0
 62
     7
 10
58.068464
 20
357.345178
 11
57.915958
 21
357.345178
  0
LINE
  8
M0
 62
     7
 10
122.315959
 20
357.795178
 11
122.315959
 21
358.845179
  0
ARC
  8
M0
 62
     7
 10
113.315958
 20
370.545178
 40
0.5
 50
0.0
 51
66.421822
  0
ARC
  8
M0
 62
     7
 10
104.715958
 20
378.545178
 40
1.0
 50
0.0
 51
90.0
  0
LINE
  8
M0
 62
     7
 10
103.215959
 20
290.545178
 11
102.715962
 21
290.545178
  0
ARC
  8
M0
 62
     7
 10
76.515958
 20
379.045178
 40
0.5
 50
90.0
 51
180.0
  0
ARC
  8
M0
 62
     7
 10
73.815958
 20
370.545178
 40
0.5
 50
113.578178
 51
180.0
  0
ARC
  8
M0
 62
     7
 10
110.615958
 20
379.045178
 40
0.5
 50
0.0
 51
90.0
  0
ARC
  8
M0
 62
     7
 10
82.415958
 20
378.545178
 40
1.0
 50
90.0
 51
180.0
  0
LINE
  8
M0
 62
     7
 10
102.715962
 20
290.545178
 11
101.515959
 21
290.545178
  0
LINE
  8
M0
 62
     7
 10
118.115958
 20
291.54518
 11
118.115958
 21
295.545177
  0
LINE
  8
M0
 62
     7
 10
69.015958
 20
291.54518
 11
69.015958
 21
295.545177
  0
LINE
  8
M0
 62
     7
 10
121.815958
 20
331.645178
 11
120.115959
 21
331.645178
  0
LINE
  8
M0
 62
     7
 10
86.615958
 20
355.945179
 11
82.915959
 21
355.945179
  0
LINE
  8
M0
 62
     7
 10
104.215958
 20
295.545177
 11
104.215958
 21
291.54518
  0
LINE
  8
M0
 62
     7
 10
120.115959
 20
334.445178
 11
121.815958
 21
334.445178
  0
LINE
  8
M0
 62
     7
 10
100.515958
 20
355.945179
 11
104.215958
 21
355.945179
  0
LINE
  8
M0
 62
     7
 10
82.915959
 20
310.345178
 11
82.915959
 21
291.54518
  0
LINE
  8
M0
 62
     7
 10
67.015958
 20
331.645178
 11
67.015958
 21
334.445178
  0
LINE
  8
M0
 62
     7
 10
120.115959
 20
331.645178
 11
120.115959
 21
334.445178
  0
LINE
  8
M0
 62
     7
 10
82.915959
 20
310.145178
 11
86.615958
 21
310.145178
  0
LINE
  8
M0
 62
     7
 10
104.215958
 20
310.145178
 11
100.515958
 21
310.145178
  0
LINE
  8
M0
 62
     7
 10
100.515958
 20
310.345178
 11
100.515958
 21
308.145178
  0
LINE
  8
M0
 62
     7
 10
104.215958
 20
308.145178
 11
104.215958
 21
310.345178
  0
LINE
  8
M0
 62
     7
 10
130.215956
 20
353.145178
 11
131.015959
 21
353.145178
  0
LINE
  8
M0
 62
     7
 10
130.215956
 20
336.745178
 11
131.015959
 21
336.745178
  0
LINE
  8
M0
 62
     7
 10
57.915958
 20
315.845178
 11
65.715958
 21
315.845178
  0
ARC
  8
M0
 62
     7
 10
56.115958
 20
328.345178
 40
1.0
 50
90.0
 51
180.0
  0
CIRCLE
  8
M0
 62
     7
 10
93.565958
 20
373.345178
 40
2.85
  0
ARC
  8
M0
 62
     7
 10
56.115958
 20
337.745178
 40
1.0
 50
180.0
 51
270.0
  0
CIRCLE
  8
M0
 62
     7
 10
93.565958
 20
373.345178
 40
2.825
  0
ARC
  8
M0
 62
     7
 10
131.015958
 20
328.345178
 40
1.0
 50
0.0
 51
90.0
  0
CIRCLE
  8
M0
 62
     7
 10
110.915958
 20
293.545178
 40
2.85
  0
ARC
  8
M0
 62
     7
 10
99.115958
 20
339.045178
 40
0.5
 50
180.0
 51
270.0
  0
ARC
  8
M0
 62
     7
 10
101.765958
 20
325.545178
 40
1.0
 50
0.0
 51
90.0
  0
ARC
  8
M0
 62
     7
 10
87.515958
 20
343.045178
 40
1.0
 50
0.0
 51
90.0
  0
ARC
  8
M0
 62
     7
 10
99.615958
 20
343.045178
 40
1.0
 50
90.0
 51
180.0
  0
LINE
  8
M0
 62
     7
 10
56.91596
 20
353.145178
 11
56.115957
 21
353.145178
  0
LINE
  8
M0
 62
     7
 10
61.415958
 20
336.745178
 11
56.115957
 21
336.745178
  0
LINE
  8
M0
 62
     7
 10
129.215958
 20
359.395178
 11
129.215958
 21
337.745178
  0
LINE
  8
M0
 62
     7
 10
131.015959
 20
329.345178
 11
130.215956
 21
329.345178
  0
LINE
  8
M0
 62
     7
 10
281.723493
 20
315.984614
 11
266.223493
 21
315.984614
  0
LINE
  8
M0
 62
     7
 10
289.223492
 20
291.29517
 11
289.523492
 21
291.29517
  0
LINE
  8
M0
 62
     7
 10
243.823492
 20
379.54517
 11
246.323493
 21
379.54517
  0
LINE
  8
M0
 62
     7
 10
243.323491
 20
378.545168
 11
243.323491
 21
379.045169
  0
LINE
  8
M0
 62
     7
 10
289.523492
 20
304.295169
 11
289.223492
 21
304.295169
  0
LINE
  8
M0
 62
     7
 10
285.023493
 20
348.345169
 11
285.023493
 21
350.845169
  0
LINE
  8
M0
 62
     7
 10
240.623494
 20
335.745169
 11
240.623494
 21
330.545169
  0
LINE
  8
M0
 62
     7
 10
243.323491
 20
376.545168
 11
243.323491
 21
378.545168
  0
LINE
  8
M0
 62
     7
 10
243.323491
 20
377.445168
 11
243.323491
 21
378.545168
  0
LINE
  8
M0
 62
     7
 10
289.523492
 20
373.79517
 11
289.223492
 21
373.79517
  0
LINE
  8
M0
 62
     7
 10
266.223493
 20
318.861397
 11
281.723493
 21
318.861397
  0
LINE
  8
M0
 62
     7
 10
281.723493
 20
347.228941
 11
266.223493
 21
347.228941
  0
ARC
  8
M0
 62
     7
 10
241.123493
 20
330.545169
 40
0.5
 50
180.0
 51
203.578178
  0
ARC
  8
M0
 62
     7
 10
252.023493
 20
329.045169
 40
0.5
 50
270.0
 51
306.869898
  0
ARC
  8
M0
 62
     7
 10
281.723493
 20
319.161397
 40
0.3
 50
270.0
 51
360.0
  0
ARC
  8
M0
 62
     7
 10
281.723493
 20
350.405724
 40
0.3
 50
270.0
 51
360.0
  0
ARC
  8
M0
 62
     7
 10
281.723493
 20
346.928941
 40
0.3
 50
0.0
 51
90.0
  0
LINE
  8
M0
 62
     7
 10
254.423492
 20
379.54517
 11
263.209279
 21
379.54517
  0
LINE
  8
M0
 62
     7
 10
208.123495
 20
328.545169
 11
205.423494
 21
328.545169
  0
LINE
  8
M0
 62
     7
 10
243.323491
 20
370.478503
 11
243.323491
 21
376.545168
  0
LINE
  8
M0
 62
     7
 10
254.423492
 20
379.54517
 11
246.323493
 21
379.54517
  0
LINE
  8
M0
 62
     7
 10
268.623493
 20
374.130956
 11
268.623493
 21
371.045168
  0
LINE
  8
M0
 62
     7
 10
266.223493
 20
350.105725
 11
281.723493
 21
350.105725
  0
ARC
  8
M0
 62
     7
 10
267.623493
 20
374.130956
 40
1.0
 50
0.0
 51
45.0
  0
LINE
  8
M0
 62
     7
 10
263.916385
 20
379.252277
 11
268.330599
 21
374.838061
  0
LINE
  8
M0
 62
     7
 10
285.023493
 20
315.24517
 11
285.023493
 21
350.845169
  0
ARC
  8
M0
 62
     7
 10
263.209279
 20
378.545169
 40
1.0
 50
45.0
 51
90.0
  0
LINE
  8
M0
 62
     7
 10
255.523492
 20
379.54517
 11
255.023493
 21
379.54517
  0
LINE
  8
M0
 62
     7
 10
211.223495
 20
315.945168
 11
211.223495
 21
328.345169
  0
LINE
  8
M0
 62
     7
 10
289.223492
 20
374.04517
 11
289.223492
 21
373.79517
  0
LINE
  8
M0
 62
     7
 10
213.12349
 20
375.54517
 11
238.469985
 21
375.54517
  0
LINE
  8
M0
 62
     7
 10
289.523492
 20
361.79517
 11
289.223492
 21
361.79517
  0
LINE
  8
M0
 62
     7
 10
289.523492
 20
361.797179
 11
289.223492
 21
361.797179
  0
LINE
  8
M0
 62
     7
 10
289.223492
 20
368.575476
 11
289.223492
 21
348.345169
  0
LINE
  8
M0
 62
     7
 10
205.423494
 20
343.045169
 11
203.123492
 21
343.045169
  0
LINE
  8
M0
 62
     7
 10
214.223494
 20
329.345169
 11
212.22349
 21
329.345169
  0
LINE
  8
M0
 62
     7
 10
289.523492
 20
304.24517
 11
289.523492
 21
291.29517
  0
LINE
  8
M0
 62
     7
 10
225.623493
 20
312.94517
 11
214.223494
 21
312.94517
  0
LINE
  8
M0
 62
     7
 10
228.623492
 20
308.695169
 11
228.623492
 21
309.945169
  0
LINE
  8
M0
 62
     7
 10
249.823493
 20
308.245168
 11
247.663707
 21
306.409351
  0
LINE
  8
M0
 62
     7
 10
254.323493
 20
308.245168
 11
249.823493
 21
308.245168
  0
LINE
  8
M0
 62
     7
 10
244.123493
 20
330.545169
 11
244.123493
 21
335.745169
  0
LINE
  8
M0
 62
     7
 10
209.123489
 20
339.245169
 11
211.223495
 21
339.245169
  0
LINE
  8
M0
 62
     7
 10
208.123495
 20
295.545169
 11
208.123495
 21
370.545169
  0
LINE
  8
M0
 62
     7
 10
241.006453
 20
374.147146
 11
246.123494
 21
366.045169
  0
LINE
  8
M0
 62
     7
 10
211.223495
 20
326.845169
 11
209.123489
 21
326.845169
  0
LINE
  8
M0
 62
     7
 10
289.523492
 20
361.797179
 11
289.523492
 21
361.79517
  0
LINE
  8
M0
 62
     7
 10
212.22349
 20
336.745169
 11
212.22349
 21
329.345169
  0
LINE
  8
M0
 62
     7
 10
246.11218
 20
366.045169
 11
246.11218
 21
360.369525
  0
LINE
  8
M0
 62
     7
 10
245.72076
 20
305.69517
 11
231.623494
 21
305.69517
  0
LINE
  8
M0
 62
     7
 10
238.880851
 20
290.545169
 11
213.12349
 21
290.545169
  0
LINE
  8
M0
 62
     7
 10
252.323494
 20
337.345169
 11
252.023493
 21
337.345169
  0
LINE
  8
M0
 62
     7
 10
246.123494
 20
366.045169
 11
254.323493
 21
366.045169
  0
ARC
  8
M0
 62
     7
 10
243.623493
 20
330.545169
 40
0.5
 50
336.421822
 51
360.0
  0
ARC
  8
M0
 62
     7
 10
238.469987
 20
372.545169
 40
3.0
 50
32.275644
 51
90.0
  0
ARC
  8
M0
 62
     7
 10
252.023493
 20
336.045169
 40
0.5
 50
53.130102
 51
90.0
  0
ARC
  8
M0
 62
     7
 10
281.723493
 20
315.684614
 40
0.3
 50
0.0
 51
90.0
  0
LINE
  8
M0
 62
     7
 10
254.323493
 20
296.54517
 11
246.123494
 21
296.54517
  0
LINE
  8
M0
 62
     7
 10
246.11218
 20
305.720813
 11
246.11218
 21
296.54517
  0
ARC
  8
M0
 62
     7
 10
243.823493
 20
379.045169
 40
0.5
 50
90.0
 51
180.0
  0
LINE
  8
M0
 62
     7
 10
246.123494
 20
296.54517
 11
241.002173
 21
291.423849
  0
ARC
  8
M0
 62
     7
 10
212.223493
 20
337.745169
 40
1.0
 50
180.0
 51
270.0
  0
ARC
  8
M0
 62
     7
 10
212.223493
 20
328.345169
 40
1.0
 50
90.0
 51
180.0
  0
ARC
  8
M0
 62
     7
 10
248.623493
 20
291.545169
 40
1.0
 50
180.0
 51
270.0
  0
ARC
  8
M0
 62
     7
 10
213.123493
 20
295.545169
 40
5.0
 50
180.0
 51
270.0
  0
LINE
  8
M0
 62
     7
 10
201.623489
 20
344.045169
 11
202.12349
 21
344.045169
  0
ARC
  8
M0
 62
     7
 10
231.623493
 20
308.695169
 40
3.0
 50
180.0
 51
270.0
  0
ARC
  8
M0
 62
     7
 10
214.223493
 20
315.945169
 40
3.0
 50
180.0
 51
270.0
  0
ARC
  8
M0
 62
     7
 10
209.123493
 20
338.245169
 40
1.0
 50
90.0
 51
180.0
  0
ARC
  8
M0
 62
     7
 10
225.623493
 20
309.945169
 40
3.0
 50
0.0
 51
90.0
  0
ARC
  8
M0
 62
     7
 10
244.123493
 20
376.845169
 40
1.0
 50
143.130102
 51
180.0
  0
ARC
  8
M0
 62
     7
 10
201.623493
 20
343.545169
 40
0.5
 50
90.0
 51
180.0
  0
ARC
  8
M0
 62
     7
 10
213.123493
 20
370.545169
 40
5.0
 50
90.0
 51
180.0
  0
ARC
  8
M0
 62
     7
 10
209.123493
 20
327.845169
 40
1.0
 50
180.0
 51
270.0
  0
LINE
  8
M0
 62
     7
 10
243.123491
 20
370.795167
 11
243.123491
 21
376.845169
  0
ARC
  8
M0
 62
     7
 10
245.720762
 20
308.695169
 40
3.0
 50
270.0
 51
310.364537
  0
POLYLINE
  8
M0
 62
     7
 66
     1
  0
VERTEX
  8
M0
 62
     7
 10
201.123493
 20
339.352276
  0
VERTEX
  8
M0
 62
     7
 10
201.131089
 20
339.316312
  0
VERTEX
  8
M0
 62
     7
 10
201.153646
 20
339.281441
  0
VERTEX
  8
M0
 62
     7
 10
201.19048
 20
339.248723
  0
VERTEX
  8
M0
 62
     7
 10
201.24047
 20
339.21915
  0
VERTEX
  8
M0
 62
     7
 10
201.302099
 20
339.193623
  0
VERTEX
  8
M0
 62
     7
 10
201.373493
 20
339.172916
  0
VERTEX
  8
M0
 62
     7
 10
201.452483
 20
339.157659
  0
VERTEX
  8
M0
 62
     7
 10
201.536669
 20
339.148316
  0
VERTEX
  8
M0
 62
     7
 10
201.623493
 20
339.145169
  0
SEQEND
  8
M0
 62
     7
  0
ARC
  8
M0
 62
     7
 10
238.880852
 20
293.545169
 40
3.0
 50
270.0
 51
315.0
  0
LINE
  8
M0
 62
     7
 10
208.123495
 20
340.245169
 11
205.923495
 21
340.245169
  0
LINE
  8
M0
 62
     7
 10
206.423496
 20
355.74517
 11
208.123495
 21
355.74517
  0
LINE
  8
M0
 62
     7
 10
208.123495
 20
334.545169
 11
205.423494
 21
334.545169
  0
LINE
  8
M0
 62
     7
 10
239.823491
 20
330.345169
 11
251.523492
 21
330.345169
  0
LINE
  8
M0
 62
     7
 10
252.023493
 20
338.745169
 11
252.023493
 21
336.245169
  0
LINE
  8
M0
 62
     7
 10
239.323494
 20
335.245169
 11
239.323494
 21
330.845169
  0
LINE
  8
M0
 62
     7
 10
205.423494
 20
337.545169
 11
208.123495
 21
337.545169
  0
LINE
  8
M0
 62
     7
 10
208.123495
 20
310.345169
 11
206.423496
 21
310.345169
  0
LINE
  8
M0
 62
     7
 10
205.423494
 20
331.545169
 11
208.123495
 21
331.545169
  0
LINE
  8
M0
 62
     7
 10
205.923495
 20
325.845169
 11
208.123495
 21
325.845169
  0
LINE
  8
M0
 62
     7
 10
206.923489
 20
340.245169
 11
206.923489
 21
337.545169
  0
LINE
  8
M0
 62
     7
 10
205.423494
 20
318.045169
 11
204.923493
 21
318.045169
  0
LINE
  8
M0
 62
     7
 10
206.923489
 20
334.545169
 11
206.923489
 21
331.545169
  0
LINE
  8
M0
 62
     7
 10
206.923489
 20
325.845169
 11
206.923489
 21
328.545169
  0
LINE
  8
M0
 62
     7
 10
247.623493
 20
291.545171
 11
247.623493
 21
296.54517
  0
LINE
  8
M0
 62
     7
 10
204.923493
 20
320.045169
 11
205.423494
 21
320.045169
  0
LINE
  8
M0
 62
     7
 10
204.423492
 20
318.54517
 11
204.423492
 21
319.545169
  0
LINE
  8
M0
 62
     7
 10
215.223496
 20
337.745169
 11
215.223496
 21
328.345169
  0
LINE
  8
M0
 62
     7
 10
239.823491
 20
335.745169
 11
251.523492
 21
335.745169
  0
LINE
  8
M0
 62
     7
 10
252.523494
 20
339.245169
 11
254.323493
 21
339.245169
  0
LINE
  8
M0
 62
     7
 10
205.423494
 20
311.345169
 11
205.423494
 21
354.745169
  0
LINE
  8
M0
 62
     7
 10
231.623494
 20
360.395168
 11
245.72076
 21
360.395168
  0
LINE
  8
M0
 62
     7
 10
252.023493
 20
329.845169
 11
252.023493
 21
327.345169
  0
LINE
  8
M0
 62
     7
 10
261.723493
 20
348.14517
 11
261.723493
 21
353.145169
  0
LINE
  8
M0
 62
     7
 10
278.523493
 20
357.84517
 11
278.523493
 21
373.545169
  0
LINE
  8
M0
 62
     7
 10
214.223494
 20
353.145169
 11
225.623493
 21
353.145169
  0
LINE
  8
M0
 62
     7
 10
254.323493
 20
339.045169
 11
254.323493
 21
366.045169
  0
LINE
  8
M0
 62
     7
 10
214.223494
 20
329.345169
 11
214.223494
 21
336.745169
  0
LINE
  8
M0
 62
     7
 10
288.723493
 20
350.845169
 11
282.023493
 21
350.845169
  0
LINE
  8
M0
 62
     7
 10
282.023493
 20
346.845169
 11
284.023493
 21
346.845169
  0
LINE
  8
M0
 62
     7
 10
228.623492
 20
356.145169
 11
228.623492
 21
357.39517
  0
LINE
  8
M0
 62
     7
 10
247.663707
 20
359.680987
 11
249.823493
 21
357.84517
  0
LINE
  8
M0
 62
     7
 10
278.523493
 20
294.545169
 11
277.523493
 21
293.545168
  0
LINE
  8
M0
 62
     7
 10
278.523493
 20
292.045168
 11
278.023492
 21
292.045168
  0
LINE
  8
M0
 62
     7
 10
211.223495
 20
337.745169
 11
211.223495
 21
350.14517
  0
LINE
  8
M0
 62
     7
 10
249.823493
 20
357.84517
 11
278.523493
 21
357.84517
  0
LINE
  8
M0
 62
     7
 10
214.223494
 20
336.745169
 11
212.22349
 21
336.745169
  0
ARC
  8
M0
 62
     7
 10
204.923493
 20
319.545169
 40
0.5
 50
90.0
 51
180.0
  0
ARC
  8
M0
 62
     7
 10
204.923493
 20
318.545169
 40
0.5
 50
180.0
 51
270.0
  0
LINE
  8
M0
 62
     7
 10
261.723493
 20
312.94517
 11
254.323493
 21
312.94517
  0
LINE
  8
M0
 62
     7
 10
266.223493
 20
350.105725
 11
266.223493
 21
347.228941
  0
ARC
  8
M0
 62
     7
 10
251.523493
 20
336.245169
 40
0.5
 50
270.0
 51
360.0
  0
ARC
  8
M0
 62
     7
 10
239.823493
 20
335.245169
 40
0.5
 50
90.0
 51
180.0
  0
ARC
  8
M0
 62
     7
 10
206.423493
 20
311.345169
 40
1.0
 50
180.0
 51
270.0
  0
ARC
  8
M0
 62
     7
 10
205.923493
 20
340.745169
 40
0.5
 50
180.0
 51
270.0
  0
LINE
  8
M0
 62
     7
 10
261.723493
 20
353.145169
 11
254.323493
 21
353.145169
  0
LINE
  8
M0
 62
     7
 10
282.023493
 20
350.845169
 11
282.023493
 21
350.405724
  0
LINE
  8
M0
 62
     7
 10
289.523492
 20
371.514864
 11
289.223492
 21
371.514864
  0
ARC
  8
M0
 62
     7
 10
205.923493
 20
325.345169
 40
0.5
 50
90.0
 51
180.0
  0
LINE
  8
M0
 62
     7
 10
279.523493
 20
374.545168
 11
288.723493
 21
374.545168
  0
LINE
  8
M0
 62
     7
 10
289.523492
 20
373.79517
 11
289.523492
 21
361.79517
  0
LINE
  8
M0
 62
     7
 10
289.223492
 20
374.04517
 11
289.223492
 21
371.514864
  0
LINE
  8
M0
 62
     7
 10
284.023493
 20
319.245169
 11
282.023493
 21
319.245169
  0
LINE
  8
M0
 62
     7
 10
282.023493
 20
315.684614
 11
282.023493
 21
315.24517
  0
LINE
  8
M0
 62
     7
 10
261.723493
 20
312.94517
 11
261.723493
 21
317.945169
  0
LINE
  8
M0
 62
     7
 10
289.223492
 20
314.745169
 11
289.223492
 21
302.014863
  0
LINE
  8
M0
 62
     7
 10
278.523493
 20
308.245168
 11
254.323493
 21
308.245168
  0
LINE
  8
M0
 62
     7
 10
285.323493
 20
347.345169
 11
285.023493
 21
348.345169
  0
LINE
  8
M0
 62
     7
 10
282.023493
 20
315.24517
 11
288.723493
 21
315.24517
  0
LINE
  8
M0
 62
     7
 10
285.323493
 20
347.345169
 11
285.323493
 21
345.345169
  0
LINE
  8
M0
 62
     7
 10
285.023493
 20
344.84517
 11
285.323493
 21
345.345169
  0
LINE
  8
M0
 62
     7
 10
254.323493
 20
366.045169
 11
259.0306
 21
370.752274
  0
LINE
  8
M0
 62
     7
 10
254.323493
 20
296.54517
 11
259.607413
 21
296.54517
  0
LINE
  8
M0
 62
     7
 10
277.523493
 20
292.545169
 11
277.523493
 21
293.545167
  0
LINE
  8
M0
 62
     7
 10
265.523492
 20
301.545169
 11
278.523493
 21
301.545169
  0
LINE
  8
M0
 62
     7
 10
289.223492
 20
299.075476
 11
289.223492
 21
291.045169
  0
LINE
  8
M0
 62
     7
 10
259.737707
 20
371.045168
 11
278.523493
 21
371.045168
  0
LINE
  8
M0
 62
     7
 10
287.023493
 20
348.345169
 11
289.223492
 21
348.345169
  0
LINE
  8
M0
 62
     7
 10
286.023493
 20
349.345169
 11
287.023493
 21
348.345169
  0
LINE
  8
M0
 62
     7
 10
201.623489
 20
326.545169
 11
203.123492
 21
326.545169
  0
LINE
  8
M0
 62
     7
 10
202.12349
 20
344.045169
 11
205.423494
 21
344.045169
  0
LINE
  8
M0
 62
     7
 10
203.123492
 20
326.545169
 11
203.123492
 21
322.045169
  0
ARC
  8
M0
 62
     7
 10
279.523493
 20
291.545169
 40
1.0
 50
180.0
 51
270.0
  0
ARC
  8
M0
 62
     7
 10
288.723493
 20
374.045169
 40
0.5
 50
0.0
 51
90.0
  0
ARC
  8
M0
 62
     7
 10
279.523493
 20
373.545169
 40
1.0
 50
90.0
 51
180.0
  0
ARC
  8
M0
 62
     7
 10
252.823493
 20
327.545169
 40
0.5
 50
180.0
 51
270.0
  0
LINE
  8
M0
 62
     7
 10
289.523492
 20
302.014863
 11
289.223492
 21
302.014863
  0
LINE
  8
M0
 62
     7
 10
201.623489
 20
322.045169
 11
205.423494
 21
322.045169
  0
LINE
  8
M0
 62
     7
 10
202.12349
 20
344.045169
 11
201.623489
 21
344.045169
  0
LINE
  8
M0
 62
     7
 10
201.123495
 20
322.545169
 11
201.123495
 21
343.545169
  0
LINE
  8
M0
 62
     7
 10
288.723493
 20
309.245169
 11
279.523493
 21
309.245169
  0
LINE
  8
M0
 62
     7
 10
278.523493
 20
291.545169
 11
278.523493
 21
308.24965
  0
ARC
  8
M0
 62
     7
 10
284.023493
 20
320.245169
 40
1.0
 50
270.0
 51
360.0
  0
ARC
  8
M0
 62
     7
 10
284.023493
 20
345.845169
 40
1.0
 50
0.0
 51
90.0
  0
ARC
  8
M0
 62
     7
 10
288.723493
 20
351.345169
 40
0.5
 50
270.0
 51
360.0
  0
ARC
  8
M0
 62
     7
 10
288.723493
 20
314.745169
 40
0.5
 50
0.0
 51
90.0
  0
ARC
  8
M0
 62
     7
 10
259.737706
 20
370.045169
 40
1.0
 50
90.0
 51
135.0
  0
POLYLINE
  8
M0
 62
     7
 66
     1
  0
VERTEX
  8
M0
 62
     7
 10
289.223493
 20
309.220231
  0
VERTEX
  8
M0
 62
     7
 10
289.215897
 20
309.224562
  0
VERTEX
  8
M0
 62
     7
 10
289.193339
 20
309.228761
  0
VERTEX
  8
M0
 62
     7
 10
289.156505
 20
309.2327
  0
VERTEX
  8
M0
 62
     7
 10
289.106515
 20
309.236261
  0
VERTEX
  8
M0
 62
     7
 10
289.044886
 20
309.239335
  0
VERTEX
  8
M0
 62
     7
 10
288.973493
 20
309.241828
  0
VERTEX
  8
M0
 62
     7
 10
288.894503
 20
309.243665
  0
VERTEX
  8
M0
 62
     7
 10
288.810317
 20
309.24479
  0
VERTEX
  8
M0
 62
     7
 10
288.723493
 20
309.245169
  0
SEQEND
  8
M0
 62
     7
  0
LINE
  8
M0
 62
     7
 10
252.523494
 20
326.845169
 11
254.323493
 21
326.845169
  0
POLYLINE
  8
M0
 62
     7
 66
     1
  0
VERTEX
  8
M0
 62
     7
 10
279.523493
 20
304.245169
  0
VERTEX
  8
M0
 62
     7
 10
279.349844
 20
304.244411
  0
VERTEX
  8
M0
 62
     7
 10
279.181472
 20
304.242161
  0
VERTEX
  8
M0
 62
     7
 10
279.023493
 20
304.238487
  0
VERTEX
  8
M0
 62
     7
 10
278.880705
 20
304.2335
  0
VERTEX
  8
M0
 62
     7
 10
278.757448
 20
304.227353
  0
VERTEX
  8
M0
 62
     7
 10
278.657467
 20
304.220231
  0
VERTEX
  8
M0
 62
     7
 10
278.5838
 20
304.212352
  0
VERTEX
  8
M0
 62
     7
 10
278.538685
 20
304.203954
  0
VERTEX
  8
M0
 62
     7
 10
278.523493
 20
304.195294
  0
SEQEND
  8
M0
 62
     7
  0
POLYLINE
  8
M0
 62
     7
 66
     1
  0
VERTEX
  8
M0
 62
     7
 10
201.123493
 20
337.852276
  0
VERTEX
  8
M0
 62
     7
 10
201.131089
 20
337.816312
  0
VERTEX
  8
M0
 62
     7
 10
201.153646
 20
337.781441
  0
VERTEX
  8
M0
 62
     7
 10
201.19048
 20
337.748723
  0
VERTEX
  8
M0
 62
     7
 10
201.24047
 20
337.71915
  0
VERTEX
  8
M0
 62
     7
 10
201.302099
 20
337.693623
  0
VERTEX
  8
M0
 62
     7
 10
201.373493
 20
337.672916
  0
VERTEX
  8
M0
 62
     7
 10
201.452483
 20
337.657659
  0
VERTEX
  8
M0
 62
     7
 10
201.536669
 20
337.648316
  0
VERTEX
  8
M0
 62
     7
 10
201.623493
 20
337.645169
  0
SEQEND
  8
M0
 62
     7
  0
ARC
  8
M0
 62
     7
 10
201.623493
 20
322.545169
 40
0.5
 50
180.0
 51
270.0
  0
ARC
  8
M0
 62
     7
 10
281.877926
 20
305.918898
 40
4.084682
 50
125.479034
 51
145.207368
  0
ARC
  8
M0
 62
     7
 10
288.723493
 20
291.045169
 40
0.5
 50
270.0
 51
360.0
  0
ARC
  8
M0
 62
     7
 10
252.823493
 20
338.545169
 40
0.5
 50
90.0
 51
180.0
  0
LINE
  8
M0
 62
     7
 10
288.723493
 20
304.24517
 11
279.523493
 21
304.24517
  0
ARC
  8
M0
 62
     7
 10
259.607413
 20
302.545169
 40
6.0
 50
270.0
 51
350.405932
  0
POLYLINE
  8
M0
 62
     7
 66
     1
  0
VERTEX
  8
M0
 62
     7
 10
289.223493
 20
304.220231
  0
VERTEX
  8
M0
 62
     7
 10
289.215897
 20
304.224562
  0
VERTEX
  8
M0
 62
     7
 10
289.193339
 20
304.228761
  0
VERTEX
  8
M0
 62
     7
 10
289.156505
 20
304.2327
  0
VERTEX
  8
M0
 62
     7
 10
289.106515
 20
304.236261
  0
VERTEX
  8
M0
 62
     7
 10
289.044886
 20
304.239335
  0
VERTEX
  8
M0
 62
     7
 10
288.973493
 20
304.241828
  0
VERTEX
  8
M0
 62
     7
 10
288.894503
 20
304.243665
  0
VERTEX
  8
M0
 62
     7
 10
288.810317
 20
304.24479
  0
VERTEX
  8
M0
 62
     7
 10
288.723493
 20
304.245169
  0
SEQEND
  8
M0
 62
     7
  0
ARC
  8
M0
 62
     7
 10
246.323493
 20
376.545169
 40
3.0
 50
90.0
 51
180.0
  0
ARC
  8
M0
 62
     7
 10
278.023493
 20
292.545169
 40
0.5
 50
180.0
 51
270.0
  0
ARC
  8
M0
 62
     7
 10
201.623493
 20
326.045169
 40
0.5
 50
90.0
 51
180.0
  0
ARC
  8
M0
 62
     7
 10
214.223493
 20
337.745169
 40
1.0
 50
270.0
 51
360.0
  0
LINE
  8
M0
 62
     7
 10
266.223493
 20
318.861397
 11
266.223493
 21
315.984614
  0
ARC
  8
M0
 62
     7
 10
214.223493
 20
328.345169
 40
1.0
 50
0.0
 51
90.0
  0
LINE
  8
M0
 62
     7
 10
289.523492
 20
368.575476
 11
289.223492
 21
368.575476
  0
LINE
  8
M0
 62
     7
 10
289.523492
 20
299.075476
 11
289.223492
 21
299.075476
  0
LINE
  8
M0
 62
     7
 10
288.723493
 20
290.545169
 11
248.623493
 21
290.545169
  0
ARC
  8
M0
 62
     7
 10
206.423493
 20
354.745169
 40
1.0
 50
90.0
 51
180.0
  0
ARC
  8
M0
 62
     7
 10
225.623493
 20
356.145169
 40
3.0
 50
270.0
 51
360.0
  0
ARC
  8
M0
 62
     7
 10
252.523493
 20
338.745169
 40
0.5
 50
90.0
 51
180.0
  0
ARC
  8
M0
 62
     7
 10
231.623493
 20
357.395169
 40
3.0
 50
90.0
 51
180.0
  0
ARC
  8
M0
 62
     7
 10
245.720762
 20
357.395169
 40
3.0
 50
49.635463
 51
90.0
  0
ARC
  8
M0
 62
     7
 10
239.823493
 20
330.845169
 40
0.5
 50
180.0
 51
270.0
  0
ARC
  8
M0
 62
     7
 10
251.523493
 20
329.845169
 40
0.5
 50
0.0
 51
90.0
  0
ARC
  8
M0
 62
     7
 10
252.523493
 20
327.345169
 40
0.5
 50
180.0
 51
270.0
  0
LINE
  8
M0
 62
     7
 10
203.123492
 20
337.645169
 11
201.623489
 21
337.645169
  0
LINE
  8
M0
 62
     7
 10
203.123492
 20
339.145169
 11
203.123492
 21
337.645169
  0
LINE
  8
M0
 62
     7
 10
203.123492
 20
339.145169
 11
201.623489
 21
339.145169
  0
LINE
  8
M0
 62
     7
 10
286.023493
 20
350.845169
 11
286.023493
 21
349.345169
  0
LINE
  8
M0
 62
     7
 10
252.823491
 20
339.045169
 11
254.323493
 21
339.045169
  0
LINE
  8
M0
 62
     7
 10
254.323493
 20
290.545169
 11
254.323493
 21
327.045169
  0
LINE
  8
M0
 62
     7
 10
252.323494
 20
327.545169
 11
252.323494
 21
338.545169
  0
ARC
  8
M0
 62
     7
 10
214.223493
 20
350.145169
 40
3.0
 50
90.0
 51
180.0
  0
LINE
  8
M0
 62
     7
 10
203.123492
 20
343.045169
 11
203.123492
 21
339.145169
  0
LINE
  8
M0
 62
     7
 10
261.723493
 20
317.945169
 11
254.323493
 21
317.945169
  0
LINE
  8
M0
 62
     7
 10
261.723493
 20
348.14517
 11
254.323493
 21
348.14517
  0
LINE
  8
M0
 62
     7
 10
252.823491
 20
327.045169
 11
254.323493
 21
327.045169
  0
LINE
  8
M0
  6
DASHDOT
 62
     7
 10
129.065951
 20
169.336774
 11
129.065966
 21
161.141965
  0
LINE
  8
M0
  6
DASHDOT
 62
     7
 10
133.163363
 20
165.239377
 11
124.968554
 21
165.239377
  0
LINE
  8
M0
  6
DASHDOT
 62
     7
 10
58.065951
 20
234.336774
 11
58.065966
 21
226.141965
  0
LINE
  8
M0
  6
DASHDOT
 62
     7
 10
62.163363
 20
230.239377
 11
53.968554
 21
230.239377
  0
LINE
  8
M0
  6
DASHDOT
 62
     7
 10
75.465958
 20
303.545178
 11
76.465958
 21
303.545178
  0
LINE
  8
M0
  6
DASHDOT
 62
     7
 10
75.965958
 20
303.045178
 11
75.965958
 21
304.045178
  0
LINE
  8
M0
  6
DASHDOT
 62
     7
 10
110.665958
 20
303.545178
 11
111.665958
 21
303.545178
  0
LINE
  8
M0
  6
DASHDOT
 62
     7
 10
111.165958
 20
303.045178
 11
111.165958
 21
304.045178
  0
LINE
  8
M0
  6
DASHDOT
 62
     7
 10
93.065958
 20
303.545178
 11
94.065958
 21
303.545178
  0
LINE
  8
M0
  6
DASHDOT
 62
     7
 10
93.565958
 20
303.045178
 11
93.565958
 21
304.045178
  0
LINE
  8
M0
 62
     7
 10
65.565958
 20
349.695179
 11
65.565958
 21
343.195179
  0
LINE
  8
M0
  6
DASHDOT
 62
     7
 10
93.065958
 20
362.545178
 11
94.065958
 21
362.545178
  0
LINE
  8
M0
  6
DASHDOT
 62
     7
 10
93.565958
 20
363.045178
 11
93.565958
 21
362.045178
  0
LINE
  8
M0
  6
DASHDOT
 62
     7
 10
111.165958
 20
363.045178
 11
111.165958
 21
362.045178
  0
LINE
  8
M0
  6
DASHDOT
 62
     7
 10
75.965958
 20
363.045178
 11
75.965958
 21
362.045178
  0
LINE
  8
M0
  6
DASHDOT
 62
     7
 10
110.665958
 20
362.545178
 11
111.665958
 21
362.545178
  0
LINE
  8
M0
  6
DASHDOT
 62
     7
 10
75.465958
 20
362.545178
 11
76.465958
 21
362.545178
  0
ARC
  8
M0
 62
     7
 10
115.015958
 20
378.545178
 40
1.0
 50
90.0
 51
180.0
  0
ARC
  8
M0
 62
     7
 10
115.015958
 20
378.545178
 40
1.0
 50
0.0
 51
90.0
  0
LINE
  8
M0
 62
     7
 10
114.015958
 20
369.545178
 11
114.015958
 21
378.545178
  0
LINE
  8
M0
 62
     7
 10
116.015958
 20
369.545178
 11
116.015958
 21
378.545177
  0
CIRCLE
  8
M0
 62
     7
 10
75.965958
 20
362.545209
 40
4.499996
  0
LINE
  8
M0
 62
     7
 10
76.432862
 20
364.426343
 11
74.084885
 21
362.078351
  0
LINE
  8
M0
 62
     7
 10
77.847062
 20
363.012128
 11
75.499085
 21
360.664136
  0
LINE
  8
M0
 62
     7
 10
73.897004
 20
364.614118
 11
78.159974
 21
360.351179
  0
CIRCLE
  8
M0
 62
     7
 10
93.565958
 20
362.545209
 40
4.499996
  0
LINE
  8
M0
 62
     7
 10
94.032862
 20
364.426343
 11
91.684885
 21
362.078351
  0
LINE
  8
M0
 62
     7
 10
95.447062
 20
363.012128
 11
93.099085
 21
360.664136
  0
LINE
  8
M0
 62
     7
 10
91.497004
 20
364.614118
 11
95.759974
 21
360.351179
  0
CIRCLE
  8
M0
 62
     7
 10
111.165958
 20
362.545209
 40
4.499996
  0
LINE
  8
M0
 62
     7
 10
111.632862
 20
364.426343
 11
109.284885
 21
362.078351
  0
LINE
  8
M0
 62
     7
 10
113.047062
 20
363.012128
 11
110.699085
 21
360.664136
  0
LINE
  8
M0
 62
     7
 10
109.097004
 20
364.614118
 11
113.359974
 21
360.351179
  0
CIRCLE
  8
M0
 62
     7
 10
77.615958
 20
373.645178
 40
3.0
  0
LINE
  8
M0
 62
     7
 10
77.969237
 20
375.059538
 11
76.201659
 21
373.291838
  0
LINE
  8
M0
 62
     7
 10
79.029784
 20
373.998869
 11
77.262206
 21
372.231291
  0
LINE
  8
M0
 62
     7
 10
79.206542
 20
372.054534
 11
76.024901
 21
375.236296
  0
LINE
  8
M0
  6
DASHDOT
 62
     7
 10
61.315958
 20
354.045178
 11
62.315958
 21
354.045178
  0
LINE
  8
M0
  6
DASHDOT
 62
     7
 10
61.815958
 20
353.545178
 11
61.815958
 21
354.545178
  0
CIRCLE
  8
M0
 62
     7
 10
109.515955
 20
373.645182
 40
3.0
  0
LINE
  8
M0
 62
     7
 10
109.869234
 20
375.059542
 11
108.101656
 21
373.291842
  0
LINE
  8
M0
 62
     7
 10
110.929781
 20
373.998873
 11
109.162203
 21
372.231295
  0
LINE
  8
M0
 62
     7
 10
111.106539
 20
372.054537
 11
107.924898
 21
375.2363
  0
CIRCLE
  8
M0
 62
     7
 10
61.815957
 20
354.04518
 40
3.0
  0
LINE
  8
M0
 62
     7
 10
62.169236
 20
355.45954
 11
60.401658
 21
353.69184
  0
LINE
  8
M0
 62
     7
 10
63.229783
 20
354.398871
 11
61.462205
 21
352.631293
  0
LINE
  8
M0
 62
     7
 10
63.406541
 20
352.454535
 11
60.2249
 21
355.636298
  0
CIRCLE
  8
M0
 62
     7
 10
61.815957
 20
346.44518
 40
3.0
  0
LINE
  8
M0
 62
     7
 10
62.169236
 20
347.85954
 11
60.401658
 21
346.09184
  0
LINE
  8
M0
 62
     7
 10
63.229783
 20
346.798871
 11
61.462205
 21
345.031293
  0
LINE
  8
M0
 62
     7
 10
63.406541
 20
344.854535
 11
60.2249
 21
348.036298
  0
CIRCLE
  8
M0
 62
     7
 10
61.815957
 20
319.645177
 40
3.0
  0
CIRCLE
  8
M0
 62
     7
 10
61.815957
 20
312.045177
 40
3.0
  0
LINE
  8
M0
 62
     7
 10
62.169236
 20
313.45954
 11
60.401658
 21
311.69184
  0
LINE
  8
M0
 62
     7
 10
63.229783
 20
312.398871
 11
61.462205
 21
310.631293
  0
LINE
  8
M0
 62
     7
 10
63.406541
 20
310.454535
 11
60.2249
 21
313.636298
  0
LINE
  8
M0
 62
     7
 10
63.229783
 20
319.998871
 11
61.462205
 21
318.231293
  0
LINE
  8
M0
 62
     7
 10
62.169236
 20
321.05954
 11
60.401658
 21
319.29184
  0
LINE
  8
M0
 62
     7
 10
63.406541
 20
318.054535
 11
60.2249
 21
321.236298
  0
CIRCLE
  8
M0
 62
     7
 10
125.315959
 20
354.04518
 40
3.0
  0
LINE
  8
M0
 62
     7
 10
126.729785
 20
354.398871
 11
124.962207
 21
352.631293
  0
LINE
  8
M0
 62
     7
 10
126.906543
 20
352.454535
 11
123.724902
 21
355.636298
  0
LINE
  8
M0
 62
     7
 10
125.669238
 20
355.45954
 11
123.90166
 21
353.69184
  0
CIRCLE
  8
M0
 62
     7
 10
125.315959
 20
346.44518
 40
3.0
  0
LINE
  8
M0
 62
     7
 10
126.906543
 20
344.854535
 11
123.724902
 21
348.036298
  0
LINE
  8
M0
 62
     7
 10
125.669238
 20
347.85954
 11
123.90166
 21
346.09184
  0
LINE
  8
M0
 62
     7
 10
126.729785
 20
346.798871
 11
124.962207
 21
345.031293
  0
CIRCLE
  8
M0
 62
     7
 10
125.315959
 20
319.645177
 40
3.0
  0
LINE
  8
M0
 62
     7
 10
125.669238
 20
321.05954
 11
123.90166
 21
319.29184
  0
LINE
  8
M0
 62
     7
 10
126.729785
 20
319.998871
 11
124.962207
 21
318.231293
  0
LINE
  8
M0
 62
     7
 10
126.906543
 20
318.054535
 11
123.724902
 21
321.236298
  0
CIRCLE
  8
M0
 62
     7
 10
125.315959
 20
312.045177
 40
3.0
  0
LINE
  8
M0
 62
     7
 10
126.906543
 20
310.454535
 11
123.724902
 21
313.636298
  0
LINE
  8
M0
 62
     7
 10
125.669238
 20
313.45954
 11
123.90166
 21
311.69184
  0
LINE
  8
M0
 62
     7
 10
126.729785
 20
312.398871
 11
124.962207
 21
310.631293
  0
CIRCLE
  8
M0
 62
     7
 10
75.965958
 20
303.545147
 40
4.499996
  0
CIRCLE
  8
M0
 62
     7
 10
93.565958
 20
303.545147
 40
4.499996
  0
CIRCLE
  8
M0
 62
     7
 10
111.165958
 20
303.545147
 40
4.499996
  0
LINE
  8
M0
 62
     7
 10
76.432862
 20
305.426343
 11
74.084885
 21
303.078351
  0
LINE
  8
M0
 62
     7
 10
77.847062
 20
304.012128
 11
75.499085
 21
301.664136
  0
LINE
  8
M0
 62
     7
 10
73.897004
 20
305.614118
 11
78.159974
 21
301.351179
  0
LINE
  8
M0
 62
     7
 10
94.032862
 20
305.426343
 11
91.684885
 21
303.078351
  0
LINE
  8
M0
 62
     7
 10
95.447062
 20
304.012128
 11
93.099085
 21
301.664136
  0
LINE
  8
M0
 62
     7
 10
91.497004
 20
305.614118
 11
95.759974
 21
301.351179
  0
LINE
  8
M0
 62
     7
 10
111.632862
 20
305.426343
 11
109.284885
 21
303.078351
  0
LINE
  8
M0
 62
     7
 10
113.047062
 20
304.012128
 11
110.699085
 21
301.664136
  0
LINE
  8
M0
 62
     7
 10
109.097004
 20
305.614118
 11
113.359974
 21
301.351179
  0
LINE
  8
M0
  6
DASHED
 62
     7
 10
42.615962
 20
362.745178
 11
42.615962
 21
303.345178
  0
LINE
  8
M0
  6
DASHED
 62
     7
 10
42.615962
 20
362.745178
 11
55.115962
 21
362.745178
  0
LINE
  8
M0
  6
DASHED
 62
     7
 10
42.615962
 20
303.345178
 11
55.115962
 21
303.345178
  0
LINE
  8
M0
  6
DASHED
 62
     7
 10
171.423492
 20
314.645172
 11
171.423492
 21
353.445172
  0
LINE
  8
M0
  6
DASHED
 62
     7
 10
169.823493
 20
335.345172
 11
169.823493
 21
332.545172
  0
LINE
  8
M0
  6
DASHED
 62
     7
 10
190.523492
 20
357.445172
 11
175.423492
 21
357.445172
  0
ARC
  8
M0
  6
DASHED
 62
     7
 10
175.423492
 20
353.445172
 40
4.0
 50
90.0
 51
180.0
  0
ARC
  8
M0
  6
DASHED
 62
     7
 10
175.423492
 20
314.645172
 40
4.0
 50
180.0
 51
270.0
  0
LINE
  8
M0
  6
DASHED
 62
     7
 10
190.523492
 20
310.645172
 11
175.423492
 21
310.645172
  0
LINE
  8
M0
  6
DASHED
 62
     7
 10
195.523492
 20
316.345178
 11
195.523492
 21
315.645172
  0
ARC
  8
M0
  6
DASHED
 62
     7
 10
190.523492
 20
315.645172
 40
5.0
 50
270.0
 51
360.0
  0
ARC
  8
M0
  6
DASHED
 62
     7
 10
190.523492
 20
352.445172
 40
5.0
 50
0.0
 51
90.0
  0
LINE
  8
M0
  6
DASHED
 62
     7
 10
169.823493
 20
335.345172
 11
171.423492
 21
335.345172
  0
LINE
  8
M0
  6
DASHED
 62
     7
 10
171.423492
 20
332.545172
 11
169.823493
 21
332.545172
  0
LINE
  8
M0
  6
DASHED
 62
     7
 10
195.523492
 20
351.745165
 11
195.523492
 21
352.445172
  0
LINE
  8
M0
 62
     7
 10
196.123492
 20
363.2653
 11
196.123492
 21
381.4653
  0
LINE
  8
M0
  6
DASHED
 62
     7
 10
204.923492
 20
351.745165
 11
195.523492
 21
351.745165
  0
LINE
  8
M0
  6
DASHED
 62
     7
 10
204.923493
 20
316.345178
 11
195.523492
 21
316.345178
  0
ARC
  8
M0
  6
DASHED
 62
     7
 10
204.923492
 20
316.845178
 40
0.5
 50
270.0
 51
360.0
  0
LINE
  8
M0
  6
DASHED
 62
     7
 10
203.323492
 20
353.745171
 11
203.723492
 21
353.745171
  0
ARC
  8
M0
  6
DASHED
 62
     7
 10
204.923492
 20
351.245166
 40
0.5
 50
0.0
 51
90.0
  0
LINE
  8
M0
  6
DASHED
 62
     7
 10
203.323492
 20
351.745165
 11
203.323492
 21
353.745171
  0
LINE
  8
M0
  6
DASHED
 62
     7
 10
203.723492
 20
353.745171
 11
204.323494
 21
351.745165
  0
LINE
  8
M0
  6
DASHED
 62
     7
 10
144.515954
 20
362.745178
 11
144.515954
 21
303.345178
  0
LINE
  8
M0
  6
DASHED
 62
     7
 10
144.515954
 20
362.745178
 11
132.015954
 21
362.745178
  0
LINE
  8
M0
  6
DASHED
 62
     7
 10
144.515954
 20
303.345178
 11
132.015954
 21
303.345178
  0
CIRCLE
  8
M0
 62
     7
 10
129.065958
 20
165.239377
 40
2.0
  0
CIRCLE
  8
M0
 62
     7
 10
129.065958
 20
165.239377
 40
1.7
  0
CIRCLE
  8
M0
 62
     7
 10
58.065958
 20
230.239377
 40
1.7
  0
CIRCLE
  8
M0
 62
     7
 10
58.065958
 20
230.239377
 40
2.0
  0
LINE
  8
M0
  6
DASHDOT
 62
     7
 10
93.566106
 20
150.985363
 11
93.565924
 21
248.319834
  0
SOLID
  8
M0
 62
     7
 10
196.123492
 20
381.4653
 11
194.123492
 21
381.4653
 12
196.123492
 22
363.2653
 13
194.123492
 23
363.2653
  0
LINE
  8
M0
  6
DIVIDE
 62
     7
 10
292.523492
 20
346.545178
 11
286.023492
 21
346.545178
  0
LINE
  8
M0
  6
DIVIDE
 62
     7
 10
292.523492
 20
319.545178
 11
286.023492
 21
319.545178
  0
LINE
  8
M0
  6
DIVIDE
 62
     7
 10
291.523492
 20
345.545178
 11
285.023492
 21
345.545178
  0
LINE
  8
M0
  6
DIVIDE
 62
     7
 10
286.023492
 20
319.545178
 11
286.023492
 21
315.545178
  0
LINE
  8
M0
  6
DIVIDE
 62
     7
 10
291.523492
 20
320.545178
 11
285.023492
 21
320.545178
  0
LINE
  8
M0
  6
DIVIDE
 62
     7
 10
285.023492
 20
320.545178
 11
285.023492
 21
315.545178
  0
LINE
  8
M0
  6
DIVIDE
 62
     7
 10
286.023492
 20
350.545178
 11
285.023492
 21
350.545178
  0
LINE
  8
M0
  6
DIVIDE
 62
     7
 10
292.523492
 20
319.545178
 11
292.523492
 21
346.545178
  0
LINE
  8
M0
  6
DIVIDE
 62
     7
 10
285.023492
 20
350.545178
 11
285.023492
 21
345.545178
  0
LINE
  8
M0
  6
DIVIDE
 62
     7
 10
286.023492
 20
350.545178
 11
286.023492
 21
346.545178
  0
LINE
  8
M0
  6
DIVIDE
 62
     7
 10
285.023492
 20
315.545178
 11
286.023492
 21
315.545178
  0
LINE
  8
M0
  6
DIVIDE
 62
     7
 10
291.523492
 20
345.545178
 11
291.523492
 21
320.545178
  0
LINE
  8
M3
 62
     2
 10
333.003619
 20
67.593652
 11
166.336959
 21
67.593652
  0
LINE
  8
M3
 62
     2
 10
16.336965
 20
17.593654
 11
16.336965
 21
475.92697
  0
LINE
  8
M3
 62
     2
 10
333.003619
 20
17.593654
 11
16.336965
 21
17.593654
  0
LINE
  8
M3
 62
     2
 10
333.003619
 20
34.26032
 11
166.336959
 21
34.26032
  0
TEXT
  8
M3
 62
     2
 10
169.948066
 20
38.426987
 40
8.333333
  1
形　式；
 41
1.0
  7
STANDARD
  0
LINE
  8
M3
 62
     2
 10
333.003619
 20
50.926986
 11
166.336959
 21
50.926986
  0
TEXT
  8
M3
 62
     2
 10
169.948066
 20
55.093653
 40
8.333333
  1
登録名：
 41
1.0
  7
STANDARD
  0
LINE
  8
M3
 62
     2
 10
166.336959
 20
17.593654
 11
166.336959
 21
67.593652
  0
TEXT
  8
M3
 62
     2
 10
169.948066
 20
21.760321
 40
8.333333
  1
適　用；
 41
1.0
  7
STANDARD
  0
LINE
  8
M3
 62
     2
 10
16.336965
 20
475.92697
 11
333.003619
 21
475.92697
  0
LINE
  8
M3
 62
     2
 10
333.003619
 20
475.92697
 11
333.003619
 21
17.593654
  0
TEXT
  8
M3
 62
     2
 10
210.22585
 20
38.426987
 40
8.333333
  1
ＨＳ３５
 41
0.5
  7
STANDARD
  0
TEXT
  8
M3
 62
     2
 10
210.22585
 20
55.093653
 40
8.333333
  1
ＤＭＨＳ３５Ｒ００
 41
0.5
  7
STANDARD
  0
LINE
  8
DN0
 10
89.582665
 20
121.295583
 11
116.632658
 21
121.295583
  0
TEXT
  8
DN0
 10
90.329887
 20
121.96225
 40
6.666666
  1
せん孔図
 41
0.833333
  7
STANDARD
  0
ENDSEC
  0
EOF
