  0
SECTION
  2
HEADER
  9
$ACADVER
  1
AC1014
  9
$INSBASE
 10
0.000000
 20
0.000000
 30
0.0
  9
$VIEWCTR
 10
7.531722
 20
4.5
  9
$VIEWSIZE
 40
9.0
  9
$SNAPMODE
 70
     0
  9
$SNAPUNIT
 10
1.0
 20
1.0
  9
$SNAPBASE
 10
0.0
 20
0.0
  9
$SNAPANG
 50
0.0
  9
$SNAPSTYLE
 70
     0
  9
$SNAPISOPAIR
 70
     0
  9
$GRIDMODE
 70
     0
  9
$GRIDUNIT
 10
0.0
 20
0.0
  9
$ORTHOMODE
 70
     0
  9
$REGENMODE
 70
     1
  9
$FILLMODE
 70
     1
  9
$QTEXTMODE
 70
     0
  9
$DRAGMODE
 70
     2
  9
$LTSCALE
  40
     1.000000
  9
$OSMODE
 70
     0
  9
$ATTMODE
 70
     1
  9
$TEXTSIZE
 40
0.2
  9
$TRACEWID
 40
0.05
  9
$TEXTSTYLE
  7
STANDARD
  9
$CELTYPE
  6
BYLAYER
  9
$CECOLOR
 62
   256
  9
$DIMSCALE
 40
1.0
  9
$DIMASZ
 40
0.18
  9
$DIMEXO
 40
0.0625
  9
$DIMDLI
 40
0.38
  9
$DIMRND
 40
0.0
  9
$DIMDLE
 40
0.0
  9
$DIMEXE
 40
0.18
  9
$DIMTP
 40
0.0
  9
$DIMTM
 40
0.0
  9
$DIMTXT
 40
0.18
  9
$DIMCEN
 40
0.09
  9
$DIMTSZ
 40
0.0
  9
$DIMTOL
 70
     0
  9
$DIMLIM
 70
     0
  9
$DIMTIH
 70
     1
  9
$DIMTOH
 70
     1
  9
$DIMSE1
 70
     0
  9
$DIMSE2
 70
     0
  9
$DIMTAD
 70
     0
  9
$DIMZIN
 70
     0
  9
$DIMBLK
  1

  9
$LUNITS
 70
     2
  9
$LUPREC
 70
     4
  9
$AXISMODE
 70
     0
  9
$AXISUNIT
 10
0.0
 20
0.0
  9
$SKETCHINC
 40
0.1
  9
$FILLETRAD
 40
0.0
  9
$AUNITS
 70
     0
  9
$AUPREC
 70
     0
  9
$MENU
  1
ACAD
  9
$ELEVATION
 40
0.0
  9
$THICKNESS
 40
0.0
  9
$VIEWDIR
 10
0.0
 20
0.0
 30
1.0
  9
$LIMCHECK
 70
     0
  9
$BLIPMODE
 70
     1
  9
$CHAMFERA
 40
0.0
  9
$CHAMFERB
 40
0.0
  9
$FASTZOOM
 70
     1
  9
$SKPOLY
 70
     0
  9
$TDCREATE
 40
0000000.0000000000
  9
$TDUPDATE
 40
0000000.0000000000
  9
$TDINDWG
 40
0.0000000000
  9
$TDUSRTIMER
 40
0.0000000000
  9
$USRTIMER
 70
     1
  9
$ANGBASE
 50
0.0
  9
$ANGDIR
 70
     0
  9
$PDMODE
 70
     0
  9
$PDSIZE
 40
0.0
  9
$PLINEWID
 40
0.0
  9
$COORDS
 70
     0
  9
$USERI1
 70
     0
  9
$USERI2
 70
     0
  9
$USERI3
 70
     0
  9
$USERI4
 70
     0
  9
$USERI5
 70
     0
  9
$USERR1
 40
0.0
  9
$USERR2
 40
0.0
  9
$USERR3
 40
0.0
  9
$USERR4
 40
0.0
  9
$USERR5
 40
0.0
  9
$CLAYER
  8
M3
  9
$EXTMIN
 10
-3.552714E-015
 20
-3.552714E-015
  9
$EXTMAX
 10
316.666654
 20
458.333316
  9
$LIMMIN
 10
0.0
 20
0.0
  9
$LIMMAX
 10
841.0
 20
594.0
  9
$HANDSEED
  5
592
  0
ENDSEC
  0
SECTION
  2
CLASSES
  0
CLASS
  1
LWPOLYLINE
  2
AcDbPolyline
  3
"AutoCAD"
 90
        0
280
     0
281
     1
  0
CLASS
  1
DICTIONARYVAR
  2
AcDbDictionaryVar
  3
"AutoCAD"
 90
        0
280
     0
281
     0
  0
CLASS
  1
HATCH
  2
AcDbHatch
  3
"ACAD_SEDONA"
 90
        0
280
     0
281
     1
  0
ENDSEC
  0
SECTION
  2
TABLES
  0
TABLE
  2
VPORT
  5
8
100
AcDbSymbolTable
 70
     2
  0
VPORT
  5
14
100
AcDbSymbolTableRecord
100
AcDbViewportTableRecord
  2
*ACTIVE
 70
     0
 10
0.0
 20
0.0
 11
1.0
 21
1.0
 12
484.0
 22
297.0
 13
0.0
 23
0.0
 14
1.0
 24
1.0
 15
0.0
 25
0.0
 16
0.0
 26
0.0
 36
1.0
 17
0.0
 27
0.0
 37
0.0
 40
594.0
 41
2.0
 42
50.0
 43
0.0
 44
0.0
 50
0.0
 51
0.0
 71
     0
 72
   100
 73
     1
 74
     1
 75
     0
 76
     0
 77
     0
 78
     0
  0
ENDTAB
  0
TABLE
  2
LTYPE
  5
5
100
AcDbSymbolTable
 70
     5
  0
LTYPE
  5
15
100
AcDbSymbolTableRecord
100
AcDbLinetypeTableRecord
  2
BYBLOCK
 70
     0
  3

 72
    65
 73
     0
 40
0.0
  0
LTYPE
  5
16
100
AcDbSymbolTableRecord
100
AcDbLinetypeTableRecord
  2
BYLAYER
 70
     0
  3

 72
    65
 73
     0
 40
0.0
  0
LTYPE
  5
17
100
AcDbSymbolTableRecord
100
AcDbLinetypeTableRecord
  2
CONTINUOUS
 70
    64
  3
Solid line
 72
    65
 73
     0
 40
0.0
  0
LTYPE
  5
18
100
AcDbSymbolTableRecord
100
AcDbLinetypeTableRecord
  2
DASHED
 70
    64
  3
__ __ __ __ __ __ __ __ __ __ __ __ __ __ __ __
 72
    65
 73
     2
 40
0.75
 49
0.5
 74
     0
 49
-0.25
 74
     0
  0
LTYPE
  5
19
100
AcDbSymbolTableRecord
100
AcDbLinetypeTableRecord
  2
DASHDOT
 70
    64
  3
__ . __ . __ . __ . __ . __ . __ . __ . __ . __
 72
    65
 73
     4
 40
1.0
 49
0.5
 74
     0
 49
-0.25
 74
     0
 49
0.0
 74
     0
 49
-0.25
 74
     0
  0
LTYPE
  5
1A
100
AcDbSymbolTableRecord
100
AcDbLinetypeTableRecord
  2
DIVIDE
 70
    64
  3
____ . . ____ . . ____ . . ____ . . ____ . . __
 72
    65
 73
     6
 40
1.25
 49
0.5
 74
     0
 49
-0.25
 74
     0
 49
0.0
 74
     0
 49
-0.25
 74
     0
 49
0.0
 74
     0
 49
-0.25
 74
     0
  0
LTYPE
  5
1B
100
AcDbSymbolTableRecord
100
AcDbLinetypeTableRecord
  2
DOT
 70
    64
  3
. . . . . . . . . . . . . . . . . . . . . . . .
 72
    65
 73
     2
 40
0.25
 49
0.0
 74
     0
 49
-0.25
 74
     0
  0
ENDTAB
  0
TABLE
  2
LAYER
  5
2
100
AcDbSymbolTable
 70
   102
  0
LAYER
  5
F
100
AcDbSymbolTableRecord
100
AcDbLayerTableRecord
  2
0
 70
     0
 62
     7
  6
CONTINUOUS
  0
LAYER
  5
1C
100
AcDbSymbolTableRecord
100
AcDbLayerTableRecord
  2
DEFPOINTS
 70
     0
 62
     7
  6
CONTINUOUS
  0
LAYER
  5
1D
100
AcDbSymbolTableRecord
100
AcDbLayerTableRecord
  2
M2
 70
     0
 62
     3
  6
CONTINUOUS
  0
LAYER
  5
1E
100
AcDbSymbolTableRecord
100
AcDbLayerTableRecord
  2
M3
 70
     0
 62
     4
  6
CONTINUOUS
  0
LAYER
  5
1F
100
AcDbSymbolTableRecord
100
AcDbLayerTableRecord
  2
DD0
 70
     0
 62
     4
  6
CONTINUOUS
  0
LAYER
  5
20
100
AcDbSymbolTableRecord
100
AcDbLayerTableRecord
  2
DN0
 70
     0
 62
     2
  6
CONTINUOUS
  0
ENDTAB
  0
TABLE
  2
STYLE
  5
3
100
AcDbSymbolTable
 70
     2
  0
STYLE
  5
10
100
AcDbSymbolTableRecord
100
AcDbTextStyleTableRecord
  2
STANDARD
 70
     0
 40
0.0
 41
1.0
 50
0.0
 71
     0
 42
0.2
  3
txt
  4
BIGFONT
  0
ENDTAB
  0
TABLE
  2
VIEW
  5
6
100
AcDbSymbolTable
 70
     0
  0
ENDTAB
  0
TABLE
  2
UCS
  5
7
100
AcDbSymbolTable
 70
     0
  0
ENDTAB
  0
TABLE
  2
APPID
  5
9
100
AcDbSymbolTable
 70
     1
  0
APPID
  5
11
100
AcDbSymbolTableRecord
100
AcDbRegAppTableRecord
  2
ACAD
 70
     0
  0
ENDTAB
  0
TABLE
  2
DIMSTYLE
  5
A
100
AcDbSymbolTable
 70
     2
  0
DIMSTYLE
105
27
100
AcDbSymbolTableRecord
100
AcDbDimStyleTableRecord
  2
STANDARD
 70
     0
  3

  4

  5

  6
_OPEN
  7
_OPEN
 40
1.0
 41
3.0
 42
1.0
 43
8.0
 44
1.0
 45
0.0
 46
0.0
 47
0.0
 48
0.0
140
3.15
141
0.09
142
0.0
143
0.03937
144
1.0
145
0.0
146
1.0
147
0.6
 71
     0
 72
     0
 73
     1
 74
     1
 75
     0
 76
     0
 77
     3
 78
     8
170
     0
171
     2
172
     0
173
     1
174
     0
175
     0
176
     0
177
     0
178
     0
270
     2
271
     2
272
     4
273
     2
274
     2
340
10
275
     0
280
     0
281
     0
282
     0
283
     1
284
     0
285
     0
286
     0
287
     3
288
     0
  0
DIMSTYLE
105
28
100
AcDbSymbolTableRecord
100
AcDbDimStyleTableRecord
  2
LEADSTYL
 70
     0
  3

  4

  5

  6
_OPEN
  7
_OPEN
 40
1.0
 41
3.0
 42
0.0625
 43
0.38
 44
0.18
 45
0.0
 46
0.0
 47
0.0
 48
0.0
140
3.15
141
0.09
142
0.0
143
25.4
144
1.0
145
0.0
146
1.0
147
0.6
 71
     0
 72
     0
 73
     1
 74
     1
 75
     0
 76
     0
 77
     0
 78
     0
170
     0
171
     2
172
     0
173
     1
174
     0
175
     0
176
     0
177
     0
178
     0
270
     2
271
     4
272
     4
273
     2
274
     2
340
10
275
     0
280
     0
281
     0
282
     0
283
     1
284
     0
285
     0
286
     0
287
     3
288
     0
  0
ENDTAB
  0
TABLE
  2
BLOCK_RECORD
  5
1
100
AcDbSymbolTable
 70
    25
  0
BLOCK_RECORD
  5
21
100
AcDbSymbolTableRecord
100
AcDbBlockTableRecord
  2
*MODEL_SPACE
  0
BLOCK_RECORD
  5
24
100
AcDbSymbolTableRecord
100
AcDbBlockTableRecord
  2
*PAPER_SPACE
  0
BLOCK_RECORD
  5
29
100
AcDbSymbolTableRecord
100
AcDbBlockTableRecord
  2
_NONE
  0
BLOCK_RECORD
  5
2D
100
AcDbSymbolTableRecord
100
AcDbBlockTableRecord
  2
_OPEN
  0
BLOCK_RECORD
  5
33
100
AcDbSymbolTableRecord
100
AcDbBlockTableRecord
  2
_CLOSED
  0
BLOCK_RECORD
  5
3A
100
AcDbSymbolTableRecord
100
AcDbBlockTableRecord
  2
_ORIGIN
  0
BLOCK_RECORD
  5
3F
100
AcDbSymbolTableRecord
100
AcDbBlockTableRecord
  2
_DOT
  0
BLOCK_RECORD
  5
47
100
AcDbSymbolTableRecord
100
AcDbBlockTableRecord
  2
_OBLIQUE
  0
BLOCK_RECORD
  5
4B
100
AcDbSymbolTableRecord
100
AcDbBlockTableRecord
  2
DIMS0
  0
BLOCK_RECORD
  5
58
100
AcDbSymbolTableRecord
100
AcDbBlockTableRecord
  2
DIMS1
  0
BLOCK_RECORD
  5
64
100
AcDbSymbolTableRecord
100
AcDbBlockTableRecord
  2
DIMS2
  0
BLOCK_RECORD
  5
70
100
AcDbSymbolTableRecord
100
AcDbBlockTableRecord
  2
DIMS3
  0
BLOCK_RECORD
  5
7C
100
AcDbSymbolTableRecord
100
AcDbBlockTableRecord
  2
DIMS4
  0
BLOCK_RECORD
  5
88
100
AcDbSymbolTableRecord
100
AcDbBlockTableRecord
  2
DIMS5
  0
BLOCK_RECORD
  5
94
100
AcDbSymbolTableRecord
100
AcDbBlockTableRecord
  2
DIMS6
  0
BLOCK_RECORD
  5
A0
100
AcDbSymbolTableRecord
100
AcDbBlockTableRecord
  2
DIMS7
  0
BLOCK_RECORD
  5
AC
100
AcDbSymbolTableRecord
100
AcDbBlockTableRecord
  2
DIMS8
  0
BLOCK_RECORD
  5
B8
100
AcDbSymbolTableRecord
100
AcDbBlockTableRecord
  2
DIMS9
  0
BLOCK_RECORD
  5
C4
100
AcDbSymbolTableRecord
100
AcDbBlockTableRecord
  2
DIMS10
  0
BLOCK_RECORD
  5
D0
100
AcDbSymbolTableRecord
100
AcDbBlockTableRecord
  2
DIMS11
  0
BLOCK_RECORD
  5
DC
100
AcDbSymbolTableRecord
100
AcDbBlockTableRecord
  2
DIMS12
  0
BLOCK_RECORD
  5
E8
100
AcDbSymbolTableRecord
100
AcDbBlockTableRecord
  2
DIMS13
  0
BLOCK_RECORD
  5
F4
100
AcDbSymbolTableRecord
100
AcDbBlockTableRecord
  2
DIMS14
  0
BLOCK_RECORD
  5
100
100
AcDbSymbolTableRecord
100
AcDbBlockTableRecord
  2
DIMS15
  0
BLOCK_RECORD
  5
10C
100
AcDbSymbolTableRecord
100
AcDbBlockTableRecord
  2
DIMS16
  0
BLOCK_RECORD
  5
118
100
AcDbSymbolTableRecord
100
AcDbBlockTableRecord
  2
DIMS17
  0
BLOCK_RECORD
  5
122
100
AcDbSymbolTableRecord
100
AcDbBlockTableRecord
  2
DIMS18
  0
ENDTAB
  0
ENDSEC
  0
SECTION
  2
BLOCKS
  0
BLOCK
  5
22
100
AcDbEntity
  8
0
100
AcDbBlockBegin
  2
*MODEL_SPACE
 70
     0
 10
0.0
 20
0.0
 30
0.0
  3
*MODEL_SPACE
  1

  0
ENDBLK
  5
23
100
AcDbEntity
  8
0
100
AcDbBlockEnd
  0
BLOCK
  5
25
100
AcDbEntity
 67
     1
  8
0
100
AcDbBlockBegin
  2
*PAPER_SPACE
 70
     0
 10
0.0
 20
0.0
 30
0.0
  3
*PAPER_SPACE
  1

  0
ENDBLK
  5
26
100
AcDbEntity
 67
     1
  8
0
100
AcDbBlockEnd
  0
BLOCK
  5
2A
100
AcDbEntity
  8
0
100
AcDbBlockBegin
  2
_NONE
 70
     0
 10
0.0
 20
0.0
  0
CIRCLE
  5
2B
100
AcDbEntity
  8
0
 62
     0
100
AcDbCircle
 10
0.0
 20
0.0
 40
0.25
  0
ENDBLK
  5
2C
100
AcDbEntity
  8
0
100
AcDbBlockEnd
  0
BLOCK
  5
2E
100
AcDbEntity
  8
0
100
AcDbBlockBegin
  2
_OPEN
 70
     0
 10
0.0
 20
0.0
  0
LINE
  5
2F
100
AcDbEntity
  8
0
 62
     0
100
AcDbLine
 10
-0.965926
 20
0.258819
 11
0.0
 21
0.0
  0
LINE
  5
30
100
AcDbEntity
  8
0
 62
     0
100
AcDbLine
 10
0.0
 20
0.0
 11
-0.965926
 21
-0.258819
  0
LINE
  5
31
100
AcDbEntity
  8
0
 62
     0
100
AcDbLine
 10
0.0
 20
0.0
 11
-1.0
 21
0.0
  0
ENDBLK
  5
32
100
AcDbEntity
  8
0
100
AcDbBlockEnd
  0
BLOCK
  5
34
100
AcDbEntity
  8
0
100
AcDbBlockBegin
  2
_CLOSED
 70
     0
 10
0.0
 20
0.0
  0
LINE
  5
35
100
AcDbEntity
  8
0
 62
     0
100
AcDbLine
 10
-0.965926
 20
0.258819
 11
0.0
 21
0.0
  0
LINE
  5
36
100
AcDbEntity
  8
0
 62
     0
100
AcDbLine
 10
0.0
 20
0.0
 11
-0.965926
 21
-0.258819
  0
LINE
  5
37
100
AcDbEntity
  8
0
 62
     0
100
AcDbLine
 10
-0.965926
 20
0.258819
 11
-0.965926
 21
-0.258819
  0
LINE
  5
38
100
AcDbEntity
  8
0
 62
     0
100
AcDbLine
 10
0.0
 20
0.0
 11
-1.0
 21
0.0
  0
ENDBLK
  5
39
100
AcDbEntity
  8
0
100
AcDbBlockEnd
  0
BLOCK
  5
3B
100
AcDbEntity
  8
0
100
AcDbBlockBegin
  2
_ORIGIN
 70
     0
 10
0.0
 20
0.0
  0
CIRCLE
  5
3C
100
AcDbEntity
  8
0
 62
     0
100
AcDbCircle
 10
0.0
 20
0.0
 40
0.5
  0
LINE
  5
3D
100
AcDbEntity
  8
0
 62
     0
100
AcDbLine
 10
0.0
 20
0.0
 11
-1.0
 21
0.0
  0
ENDBLK
  5
3E
100
AcDbEntity
  8
0
100
AcDbBlockEnd
  0
BLOCK
  5
40
100
AcDbEntity
  8
0
100
AcDbBlockBegin
  2
_DOT
 70
     0
 10
0.0
 20
0.0
  0
POLYLINE
  5
41
100
AcDbEntity
  8
0
 62
     0
100
AcDb2dPolyline
 66
     1
 70
     1
 40
0.5
 41
0.5
  0
VERTEX
  5
42
100
AcDbEntity
  8
0
 62
     0
100
AcDbVertex
100
AcDb2dVertex
 10
-0.25
 20
0.0
 42
1.0
  0
VERTEX
  5
43
100
AcDbEntity
  8
0
 62
     0
100
AcDbVertex
100
AcDb2dVertex
 10
0.25
 20
0.0
 42
1.0
  0
SEQEND
  5
44
100
AcDbEntity
  8
0
 62
     0
  0
LINE
  5
45
100
AcDbEntity
  8
0
 62
     0
100
AcDbLine
 10
-0.5
 20
0.0
 11
-1.0
 21
0.0
  0
ENDBLK
  5
46
100
AcDbEntity
  8
0
100
AcDbBlockEnd
  0
BLOCK
  5
48
100
AcDbEntity
  8
0
100
AcDbBlockBegin
  2
_OBLIQUE
 70
     0
 10
0.0
 20
0.0
  0
LINE
  5
49
100
AcDbEntity
  8
0
 62
     0
100
AcDbLine
 10
-0.353553
 20
-0.353553
 11
0.353553
 21
0.353553
  0
ENDBLK
  5
4A
100
AcDbEntity
  8
0
100
AcDbBlockEnd
  0
BLOCK
  5
4C
100
AcDbEntity
  8
DD0
100
AcDbBlockBegin
  2
DIMS0
 70
     0
 10
0.0
 20
0.0
  0
LINE
  5
4D
100
AcDbEntity
  8
DD0
100
AcDbLine
 10
22.851259
 20
357.14212
 11
22.851259
 21
392.04248
  0
LINE
  5
4E
100
AcDbEntity
  8
DD0
100
AcDbLine
 10
124.751251
 20
357.14212
 11
124.751251
 21
392.04248
  0
LINE
  5
4F
100
AcDbEntity
  8
DD0
100
AcDbLine
 10
25.749037
 20
391.818938
 11
22.851259
 21
391.04248
  0
LINE
  5
50
100
AcDbEntity
  8
DD0
100
AcDbLine
 10
22.851259
 20
391.04248
 11
25.749037
 21
390.266023
  0
LINE
  5
51
100
AcDbEntity
  8
DD0
100
AcDbLine
 10
121.853474
 20
390.266023
 11
124.751251
 21
391.04248
  0
LINE
  5
52
100
AcDbEntity
  8
DD0
100
AcDbLine
 10
124.751251
 20
391.04248
 11
121.853474
 21
391.818938
  0
LINE
  5
53
100
AcDbEntity
  8
DD0
100
AcDbLine
 10
22.851259
 20
391.04248
 11
124.751251
 21
391.04248
  0
TEXT
  5
54
100
AcDbEntity
  8
DD0
100
AcDbText
 10
70.972922
 20
391.642487
 40
2.5
  1
１０２
 41
0.666667
  7
STANDARD
100
AcDbText
  0
TEXT
  5
55
100
AcDbEntity
  8
DD0
100
AcDbText
 10
52.972922
 20
387.742493
 40
2.5
  1
（補助接点サイドオンユニットを付けた場合）
 41
0.666667
  7
STANDARD
100
AcDbText
  0
ENDBLK
  5
56
100
AcDbEntity
  8
DD0
100
AcDbBlockEnd
  0
BLOCK
  5
59
100
AcDbEntity
  8
DD0
100
AcDbBlockBegin
  2
DIMS1
 70
     0
 10
0.0
 20
0.0
  0
LINE
  5
5A
100
AcDbEntity
  8
DD0
100
AcDbLine
 10
56.201256
 20
295.442108
 11
56.201256
 21
272.043701
  0
LINE
  5
5B
100
AcDbEntity
  8
DD0
100
AcDbLine
 10
73.801254
 20
277.942108
 11
73.801254
 21
272.043701
  0
LINE
  5
5C
100
AcDbEntity
  8
DD0
100
AcDbLine
 10
59.099033
 20
273.820158
 11
56.201256
 21
273.043701
  0
LINE
  5
5D
100
AcDbEntity
  8
DD0
100
AcDbLine
 10
56.201256
 20
273.043701
 11
59.099033
 21
272.267244
  0
LINE
  5
5E
100
AcDbEntity
  8
DD0
100
AcDbLine
 10
70.903477
 20
272.267244
 11
73.801254
 21
273.043701
  0
LINE
  5
5F
100
AcDbEntity
  8
DD0
100
AcDbLine
 10
73.801254
 20
273.043701
 11
70.903477
 21
273.820158
  0
LINE
  5
60
100
AcDbEntity
  8
DD0
100
AcDbLine
 10
56.201256
 20
273.043701
 11
73.801254
 21
273.043701
  0
TEXT
  5
61
100
AcDbEntity
  8
DD0
100
AcDbText
 10
61.172919
 20
273.643707
 40
2.5
  1
１７．５
 41
0.666667
  7
STANDARD
100
AcDbText
  0
ENDBLK
  5
62
100
AcDbEntity
  8
DD0
100
AcDbBlockEnd
  0
BLOCK
  5
65
100
AcDbEntity
  8
DD0
100
AcDbBlockBegin
  2
DIMS2
 70
     0
 10
0.0
 20
0.0
  0
LINE
  5
66
100
AcDbEntity
  8
DD0
100
AcDbLine
 10
92.901253
 20
355.942108
 11
135.116287
 21
355.942108
  0
LINE
  5
67
100
AcDbEntity
  8
DD0
100
AcDbLine
 10
92.901253
 20
296.942108
 11
135.116287
 21
296.942108
  0
LINE
  5
68
100
AcDbEntity
  8
DD0
100
AcDbLine
 10
134.892744
 20
353.044331
 11
134.116287
 21
355.942108
  0
LINE
  5
69
100
AcDbEntity
  8
DD0
100
AcDbLine
 10
134.116287
 20
355.942108
 11
133.33983
 21
353.044331
  0
LINE
  5
6A
100
AcDbEntity
  8
DD0
100
AcDbLine
 10
133.33983
 20
299.839886
 11
134.116287
 21
296.942108
  0
LINE
  5
6B
100
AcDbEntity
  8
DD0
100
AcDbLine
 10
134.116287
 20
296.942108
 11
134.892744
 21
299.839886
  0
LINE
  5
6C
100
AcDbEntity
  8
DD0
100
AcDbLine
 10
134.116287
 20
355.942108
 11
134.116287
 21
296.942108
  0
TEXT
  5
6D
100
AcDbEntity
  8
DD0
100
AcDbText
 10
133.516281
 20
324.613769
 40
2.5
  1
５９
 50
90.000003
 41
0.666667
  7
STANDARD
100
AcDbText
  0
ENDBLK
  5
6E
100
AcDbEntity
  8
DD0
100
AcDbBlockEnd
  0
BLOCK
  5
71
100
AcDbEntity
  8
DD0
100
AcDbBlockBegin
  2
DIMS3
 70
     0
 10
0.0
 20
0.0
  0
LINE
  5
72
100
AcDbEntity
  8
DD0
100
AcDbLine
 10
92.901253
 20
355.942108
 11
135.116287
 21
355.942108
  0
LINE
  5
73
100
AcDbEntity
  8
DD0
100
AcDbLine
 10
96.251259
 20
372.942108
 11
135.116287
 21
372.942108
  0
LINE
  5
74
100
AcDbEntity
  8
DD0
100
AcDbLine
 10
133.33983
 20
358.839886
 11
134.116287
 21
355.942108
  0
LINE
  5
75
100
AcDbEntity
  8
DD0
100
AcDbLine
 10
134.116287
 20
355.942108
 11
134.892744
 21
358.839886
  0
LINE
  5
76
100
AcDbEntity
  8
DD0
100
AcDbLine
 10
134.892744
 20
370.044331
 11
134.116287
 21
372.942108
  0
LINE
  5
77
100
AcDbEntity
  8
DD0
100
AcDbLine
 10
134.116287
 20
372.942108
 11
133.33983
 21
370.044331
  0
LINE
  5
78
100
AcDbEntity
  8
DD0
100
AcDbLine
 10
134.116287
 20
355.942108
 11
134.116287
 21
372.942108
  0
TEXT
  5
79
100
AcDbEntity
  8
DD0
100
AcDbText
 10
133.516281
 20
362.613769
 40
2.5
  1
１７
 50
90.000003
 41
0.666667
  7
STANDARD
100
AcDbText
  0
ENDBLK
  5
7A
100
AcDbEntity
  8
DD0
100
AcDbBlockEnd
  0
BLOCK
  5
7D
100
AcDbEntity
  8
DD0
100
AcDbBlockBegin
  2
DIMS4
 70
     0
 10
0.0
 20
0.0
  0
LINE
  5
7E
100
AcDbEntity
  8
DD0
100
AcDbLine
 10
110.751259
 20
283.942108
 11
143.738113
 21
283.942108
  0
LINE
  5
7F
100
AcDbEntity
  8
DD0
100
AcDbLine
 10
96.251259
 20
372.942108
 11
143.738113
 21
372.942108
  0
LINE
  5
80
100
AcDbEntity
  8
DD0
100
AcDbLine
 10
141.961656
 20
286.839886
 11
142.738113
 21
283.942108
  0
LINE
  5
81
100
AcDbEntity
  8
DD0
100
AcDbLine
 10
142.738113
 20
283.942108
 11
143.514571
 21
286.839886
  0
LINE
  5
82
100
AcDbEntity
  8
DD0
100
AcDbLine
 10
143.514571
 20
370.044331
 11
142.738113
 21
372.942108
  0
LINE
  5
83
100
AcDbEntity
  8
DD0
100
AcDbLine
 10
142.738113
 20
372.942108
 11
141.961656
 21
370.044331
  0
LINE
  5
84
100
AcDbEntity
  8
DD0
100
AcDbLine
 10
142.738113
 20
283.942108
 11
142.738113
 21
372.942108
  0
TEXT
  5
85
100
AcDbEntity
  8
DD0
100
AcDbText
 10
142.138107
 20
326.613769
 40
2.5
  1
８９
 50
90.000003
 41
0.666667
  7
STANDARD
100
AcDbText
  0
ENDBLK
  5
86
100
AcDbEntity
  8
DD0
100
AcDbBlockEnd
  0
BLOCK
  5
89
100
AcDbEntity
  8
DD0
100
AcDbBlockBegin
  2
DIMS5
 70
     0
 10
0.0
 20
0.0
  0
LINE
  5
8A
100
AcDbEntity
  8
DD0
100
AcDbLine
 10
34.851257
 20
365.942108
 11
34.851257
 21
383.515289
  0
LINE
  5
8B
100
AcDbEntity
  8
DD0
100
AcDbLine
 10
112.751259
 20
298.64212
 11
112.751259
 21
383.515289
  0
LINE
  5
8C
100
AcDbEntity
  8
DD0
100
AcDbLine
 10
37.749035
 20
383.291746
 11
34.851257
 21
382.515289
  0
LINE
  5
8D
100
AcDbEntity
  8
DD0
100
AcDbLine
 10
34.851257
 20
382.515289
 11
37.749035
 21
381.738832
  0
LINE
  5
8E
100
AcDbEntity
  8
DD0
100
AcDbLine
 10
109.853481
 20
381.738832
 11
112.751259
 21
382.515289
  0
LINE
  5
8F
100
AcDbEntity
  8
DD0
100
AcDbLine
 10
112.751259
 20
382.515289
 11
109.853481
 21
383.291746
  0
LINE
  5
90
100
AcDbEntity
  8
DD0
100
AcDbLine
 10
34.851257
 20
382.515289
 11
112.751259
 21
382.515289
  0
TEXT
  5
91
100
AcDbEntity
  8
DD0
100
AcDbText
 10
71.972922
 20
383.115295
 40
2.5
  1
７８
 41
0.666667
  7
STANDARD
100
AcDbText
  0
ENDBLK
  5
92
100
AcDbEntity
  8
DD0
100
AcDbBlockEnd
  0
BLOCK
  5
95
100
AcDbEntity
  8
DD0
100
AcDbBlockBegin
  2
DIMS6
 70
     0
 10
0.0
 20
0.0
  0
LINE
  5
96
100
AcDbEntity
  8
DD0
100
AcDbLine
 10
303.134613
 20
368.442108
 11
303.134613
 21
379.805237
  0
LINE
  5
97
100
AcDbEntity
  8
DD0
100
AcDbLine
 10
235.234604
 20
373.942108
 11
235.234604
 21
379.805237
  0
LINE
  5
98
100
AcDbEntity
  8
DD0
100
AcDbLine
 10
300.236836
 20
378.02878
 11
303.134613
 21
378.805237
  0
LINE
  5
99
100
AcDbEntity
  8
DD0
100
AcDbLine
 10
303.134613
 20
378.805237
 11
300.236836
 21
379.581694
  0
LINE
  5
9A
100
AcDbEntity
  8
DD0
100
AcDbLine
 10
238.132381
 20
379.581694
 11
235.234604
 21
378.805237
  0
LINE
  5
9B
100
AcDbEntity
  8
DD0
100
AcDbLine
 10
235.234604
 20
378.805237
 11
238.132381
 21
378.02878
  0
LINE
  5
9C
100
AcDbEntity
  8
DD0
100
AcDbLine
 10
303.134613
 20
378.805237
 11
235.234604
 21
378.805237
  0
TEXT
  5
9D
100
AcDbEntity
  8
DD0
100
AcDbText
 10
260.356261
 20
379.405243
 40
2.5
  1
６８（コイル端子）
 41
0.666667
  7
STANDARD
100
AcDbText
  0
ENDBLK
  5
9E
100
AcDbEntity
  8
DD0
100
AcDbBlockEnd
  0
BLOCK
  5
A1
100
AcDbEntity
  8
DD0
100
AcDbBlockBegin
  2
DIMS7
 70
     0
 10
0.0
 20
0.0
  0
LINE
  5
A2
100
AcDbEntity
  8
DD0
100
AcDbLine
 10
303.134613
 20
368.442108
 11
303.134613
 21
385.800507
  0
LINE
  5
A3
100
AcDbEntity
  8
DD0
100
AcDbLine
 10
209.634613
 20
363.942108
 11
209.634613
 21
385.800507
  0
LINE
  5
A4
100
AcDbEntity
  8
DD0
100
AcDbLine
 10
300.236836
 20
384.024049
 11
303.134613
 21
384.800507
  0
LINE
  5
A5
100
AcDbEntity
  8
DD0
100
AcDbLine
 10
303.134613
 20
384.800507
 11
300.236836
 21
385.576964
  0
LINE
  5
A6
100
AcDbEntity
  8
DD0
100
AcDbLine
 10
212.532391
 20
385.576964
 11
209.634613
 21
384.800507
  0
LINE
  5
A7
100
AcDbEntity
  8
DD0
100
AcDbLine
 10
209.634613
 20
384.800507
 11
212.532391
 21
384.024049
  0
LINE
  5
A8
100
AcDbEntity
  8
DD0
100
AcDbLine
 10
303.134613
 20
384.800507
 11
209.634613
 21
384.800507
  0
TEXT
  5
A9
100
AcDbEntity
  8
DD0
100
AcDbText
 10
247.556274
 20
385.400513
 40
2.5
  1
９３．５（主端子）
 41
0.666667
  7
STANDARD
100
AcDbText
  0
ENDBLK
  5
AA
100
AcDbEntity
  8
DD0
100
AcDbBlockEnd
  0
BLOCK
  5
AD
100
AcDbEntity
  8
DD0
100
AcDbBlockBegin
  2
DIMS8
 70
     0
 10
0.0
 20
0.0
  0
LINE
  5
AE
100
AcDbEntity
  8
DD0
100
AcDbLine
 10
303.134613
 20
368.442108
 11
303.134613
 21
391.285736
  0
LINE
  5
AF
100
AcDbEntity
  8
DD0
100
AcDbLine
 10
182.634613
 20
337.942108
 11
182.634613
 21
391.285736
  0
LINE
  5
B0
100
AcDbEntity
  8
DD0
100
AcDbLine
 10
300.236836
 20
389.509279
 11
303.134613
 21
390.285736
  0
LINE
  5
B1
100
AcDbEntity
  8
DD0
100
AcDbLine
 10
303.134613
 20
390.285736
 11
300.236836
 21
391.062193
  0
LINE
  5
B2
100
AcDbEntity
  8
DD0
100
AcDbLine
 10
185.532391
 20
391.062193
 11
182.634613
 21
390.285736
  0
LINE
  5
B3
100
AcDbEntity
  8
DD0
100
AcDbLine
 10
182.634613
 20
390.285736
 11
185.532391
 21
389.509279
  0
LINE
  5
B4
100
AcDbEntity
  8
DD0
100
AcDbLine
 10
303.134613
 20
390.285736
 11
182.634613
 21
390.285736
  0
TEXT
  5
B5
100
AcDbEntity
  8
DD0
100
AcDbText
 10
240.056274
 20
390.885742
 40
2.5
  1
１２１
 41
0.666667
  7
STANDARD
100
AcDbText
  0
ENDBLK
  5
B6
100
AcDbEntity
  8
DD0
100
AcDbBlockEnd
  0
BLOCK
  5
B9
100
AcDbEntity
  8
DD0
100
AcDbBlockBegin
  2
DIMS9
 70
     0
 10
0.0
 20
0.0
  0
LINE
  5
BA
100
AcDbEntity
  8
DD0
100
AcDbLine
 10
303.134613
 20
368.442108
 11
303.134613
 21
397.285736
  0
LINE
  5
BB
100
AcDbEntity
  8
DD0
100
AcDbLine
 10
151.33461
 20
329.742126
 11
151.33461
 21
397.285736
  0
LINE
  5
BC
100
AcDbEntity
  8
DD0
100
AcDbLine
 10
300.236836
 20
395.509279
 11
303.134613
 21
396.285736
  0
LINE
  5
BD
100
AcDbEntity
  8
DD0
100
AcDbLine
 10
303.134613
 20
396.285736
 11
300.236836
 21
397.062193
  0
LINE
  5
BE
100
AcDbEntity
  8
DD0
100
AcDbLine
 10
154.232387
 20
397.062193
 11
151.33461
 21
396.285736
  0
LINE
  5
BF
100
AcDbEntity
  8
DD0
100
AcDbLine
 10
151.33461
 20
396.285736
 11
154.232387
 21
395.509279
  0
LINE
  5
C0
100
AcDbEntity
  8
DD0
100
AcDbLine
 10
303.134613
 20
396.285736
 11
151.33461
 21
396.285736
  0
TEXT
  5
C1
100
AcDbEntity
  8
DD0
100
AcDbText
 10
203.40628
 20
396.885742
 40
2.5
  1
１５２（補助接点ヘッドオンユニットを付けた場合）
 41
0.666667
  7
STANDARD
100
AcDbText
  0
ENDBLK
  5
C2
100
AcDbEntity
  8
DD0
100
AcDbBlockEnd
  0
BLOCK
  5
C5
100
AcDbEntity
  8
DD0
100
AcDbBlockBegin
  2
DIMS10
 70
     0
 10
0.0
 20
0.0
  0
LINE
  5
C6
100
AcDbEntity
  8
DD0
100
AcDbLine
 10
35.703854
 20
171.897385
 11
125.277504
 21
171.897385
  0
LINE
  5
C7
100
AcDbEntity
  8
DD0
100
AcDbLine
 10
106.70385
 20
106.897377
 11
125.277504
 21
106.897377
  0
LINE
  5
C8
100
AcDbEntity
  8
DD0
100
AcDbLine
 10
125.053961
 20
168.999607
 11
124.277504
 21
171.897385
  0
LINE
  5
C9
100
AcDbEntity
  8
DD0
100
AcDbLine
 10
124.277504
 20
171.897385
 11
123.501047
 21
168.999607
  0
LINE
  5
CA
100
AcDbEntity
  8
DD0
100
AcDbLine
 10
123.501047
 20
109.795154
 11
124.277504
 21
106.897377
  0
LINE
  5
CB
100
AcDbEntity
  8
DD0
100
AcDbLine
 10
124.277504
 20
106.897377
 11
125.053961
 21
109.795154
  0
LINE
  5
CC
100
AcDbEntity
  8
DD0
100
AcDbLine
 10
124.277504
 20
171.897385
 11
124.277504
 21
106.897377
  0
TEXT
  5
CD
100
AcDbEntity
  8
DD0
100
AcDbText
 10
123.677505
 20
137.569045
 40
2.5
  1
６５
 50
90.000003
 41
0.666667
  7
STANDARD
100
AcDbText
  0
ENDBLK
  5
CE
100
AcDbEntity
  8
DD0
100
AcDbBlockEnd
  0
BLOCK
  5
D1
100
AcDbEntity
  8
DD0
100
AcDbBlockBegin
  2
DIMS11
 70
     0
 10
0.0
 20
0.0
  0
LINE
  5
D2
100
AcDbEntity
  8
DD0
100
AcDbLine
 10
43.898663
 20
171.897385
 11
125.277504
 21
171.897385
  0
LINE
  5
D3
100
AcDbEntity
  8
DD0
100
AcDbLine
 10
97.751259
 20
185.897385
 11
125.277504
 21
185.897385
  0
LINE
  5
D4
100
AcDbEntity
  8
DD0
100
AcDbLine
 10
123.501047
 20
174.795162
 11
124.277504
 21
171.897385
  0
LINE
  5
D5
100
AcDbEntity
  8
DD0
100
AcDbLine
 10
124.277504
 20
171.897385
 11
125.053961
 21
174.795162
  0
LINE
  5
D6
100
AcDbEntity
  8
DD0
100
AcDbLine
 10
125.053961
 20
182.999607
 11
124.277504
 21
185.897385
  0
LINE
  5
D7
100
AcDbEntity
  8
DD0
100
AcDbLine
 10
124.277504
 20
185.897385
 11
123.501047
 21
182.999607
  0
LINE
  5
D8
100
AcDbEntity
  8
DD0
100
AcDbLine
 10
124.277504
 20
171.897385
 11
124.277504
 21
185.897385
  0
TEXT
  5
D9
100
AcDbEntity
  8
DD0
100
AcDbText
 10
123.677505
 20
177.069045
 40
2.5
  1
１４
 50
90.000003
 41
0.666667
  7
STANDARD
100
AcDbText
  0
ENDBLK
  5
DA
100
AcDbEntity
  8
DD0
100
AcDbBlockEnd
  0
BLOCK
  5
DD
100
AcDbEntity
  8
DD0
100
AcDbBlockBegin
  2
DIMS12
 70
     0
 10
0.0
 20
0.0
  0
LINE
  5
DE
100
AcDbEntity
  8
DD0
100
AcDbLine
 10
38.80125
 20
176.994781
 11
38.80125
 21
197.864716
  0
LINE
  5
DF
100
AcDbEntity
  8
DD0
100
AcDbLine
 10
109.801247
 20
111.994774
 11
109.801247
 21
197.864716
  0
LINE
  5
E0
100
AcDbEntity
  8
DD0
100
AcDbLine
 10
41.699028
 20
197.641173
 11
38.80125
 21
196.864716
  0
LINE
  5
E1
100
AcDbEntity
  8
DD0
100
AcDbLine
 10
38.80125
 20
196.864716
 11
41.699028
 21
196.088258
  0
LINE
  5
E2
100
AcDbEntity
  8
DD0
100
AcDbLine
 10
106.903469
 20
196.088258
 11
109.801247
 21
196.864716
  0
LINE
  5
E3
100
AcDbEntity
  8
DD0
100
AcDbLine
 10
109.801247
 20
196.864716
 11
106.903469
 21
197.641173
  0
LINE
  5
E4
100
AcDbEntity
  8
DD0
100
AcDbLine
 10
38.80125
 20
196.864716
 11
109.801247
 21
196.864716
  0
TEXT
  5
E5
100
AcDbEntity
  8
DD0
100
AcDbText
 10
65.472915
 20
197.464722
 40
2.5
  1
７１（６８も可能）
 41
0.666667
  7
STANDARD
100
AcDbText
  0
ENDBLK
  5
E6
100
AcDbEntity
  8
DD0
100
AcDbBlockEnd
  0
BLOCK
  5
E9
100
AcDbEntity
  8
DD0
100
AcDbBlockBegin
  2
DIMS13
 70
     0
 10
0.0
 20
0.0
  0
LINE
  5
EA
100
AcDbEntity
  8
DD0
100
AcDbLine
 10
38.80125
 20
176.994781
 11
38.80125
 21
197.864716
  0
LINE
  5
EB
100
AcDbEntity
  8
DD0
100
AcDbLine
 10
35.351257
 20
182.897385
 11
35.351257
 21
197.864716
  0
LINE
  5
EC
100
AcDbEntity
  8
DD0
100
AcDbLine
 10
41.699028
 20
197.641173
 11
38.80125
 21
196.864716
  0
LINE
  5
ED
100
AcDbEntity
  8
DD0
100
AcDbLine
 10
38.80125
 20
196.864716
 11
41.699028
 21
196.088258
  0
LINE
  5
EE
100
AcDbEntity
  8
DD0
100
AcDbLine
 10
32.45348
 20
196.088258
 11
35.351257
 21
196.864716
  0
LINE
  5
EF
100
AcDbEntity
  8
DD0
100
AcDbLine
 10
35.351257
 20
196.864716
 11
32.45348
 21
197.641173
  0
LINE
  5
F0
100
AcDbEntity
  8
DD0
100
AcDbLine
 10
42.10125
 20
196.864716
 11
25.051257
 21
196.864716
  0
TEXT
  5
F1
100
AcDbEntity
  8
DD0
100
AcDbText
 10
25.932925
 20
197.464722
 40
2.5
  1
３．５
 41
0.666667
  7
STANDARD
100
AcDbText
  0
ENDBLK
  5
F2
100
AcDbEntity
  8
DD0
100
AcDbBlockEnd
  0
BLOCK
  5
F5
100
AcDbEntity
  8
DD0
100
AcDbBlockBegin
  2
DIMS14
 70
     0
 10
0.0
 20
0.0
  0
LINE
  5
F6
100
AcDbEntity
  8
DD0
100
AcDbLine
 10
177.634613
 20
375.862244
 11
177.634613
 21
383.515289
  0
LINE
  5
F7
100
AcDbEntity
  8
DD0
100
AcDbLine
 10
182.634613
 20
337.942108
 11
182.634613
 21
383.515289
  0
LINE
  5
F8
100
AcDbEntity
  8
DD0
100
AcDbLine
 10
174.736836
 20
381.738832
 11
177.634613
 21
382.515289
  0
LINE
  5
F9
100
AcDbEntity
  8
DD0
100
AcDbLine
 10
177.634613
 20
382.515289
 11
174.736836
 21
383.291746
  0
LINE
  5
FA
100
AcDbEntity
  8
DD0
100
AcDbLine
 10
185.532391
 20
383.291746
 11
182.634613
 21
382.515289
  0
LINE
  5
FB
100
AcDbEntity
  8
DD0
100
AcDbLine
 10
182.634613
 20
382.515289
 11
185.532391
 21
381.738832
  0
LINE
  5
FC
100
AcDbEntity
  8
DD0
100
AcDbLine
 10
171.334613
 20
382.515289
 11
185.934613
 21
382.515289
  0
TEXT
  5
FD
100
AcDbEntity
  8
DD0
100
AcDbText
 10
172.216277
 20
383.115295
 40
2.5
  1
５
 41
0.666667
  7
STANDARD
100
AcDbText
  0
ENDBLK
  5
FE
100
AcDbEntity
  8
DD0
100
AcDbBlockEnd
  0
BLOCK
  5
101
100
AcDbEntity
  8
DD0
100
AcDbBlockBegin
  2
DIMS15
 70
     0
 10
0.0
 20
0.0
  0
LINE
  5
102
100
AcDbEntity
  8
DD0
100
AcDbLine
 10
303.134613
 20
284.192108
 11
303.134613
 21
272.31076
  0
LINE
  5
103
100
AcDbEntity
  8
DD0
100
AcDbLine
 10
223.33461
 20
301.14212
 11
223.33461
 21
272.31076
  0
LINE
  5
104
100
AcDbEntity
  8
DD0
100
AcDbLine
 10
300.236836
 20
272.534303
 11
303.134613
 21
273.31076
  0
LINE
  5
105
100
AcDbEntity
  8
DD0
100
AcDbLine
 10
303.134613
 20
273.31076
 11
300.236836
 21
274.087218
  0
LINE
  5
106
100
AcDbEntity
  8
DD0
100
AcDbLine
 10
226.232387
 20
274.087218
 11
223.33461
 21
273.31076
  0
LINE
  5
107
100
AcDbEntity
  8
DD0
100
AcDbLine
 10
223.33461
 20
273.31076
 11
226.232387
 21
272.534303
  0
LINE
  5
108
100
AcDbEntity
  8
DD0
100
AcDbLine
 10
303.134613
 20
273.31076
 11
223.33461
 21
273.31076
  0
TEXT
  5
109
100
AcDbEntity
  8
DD0
100
AcDbText
 10
254.40628
 20
273.910767
 40
2.5
  1
８０（補助ａ端子）
 41
0.666667
  7
STANDARD
100
AcDbText
  0
ENDBLK
  5
10A
100
AcDbEntity
  8
DD0
100
AcDbBlockEnd
  0
BLOCK
  5
10D
100
AcDbEntity
  8
DD0
100
AcDbBlockBegin
  2
DIMS16
 70
     0
 10
0.0
 20
0.0
  0
LINE
  5
10E
100
AcDbEntity
  8
DD0
100
AcDbLine
 10
303.134613
 20
284.192108
 11
303.134613
 21
266.31076
  0
LINE
  5
10F
100
AcDbEntity
  8
DD0
100
AcDbLine
 10
203.434601
 20
308.242096
 11
203.434601
 21
266.31076
  0
LINE
  5
110
100
AcDbEntity
  8
DD0
100
AcDbLine
 10
300.236836
 20
266.534303
 11
303.134613
 21
267.31076
  0
LINE
  5
111
100
AcDbEntity
  8
DD0
100
AcDbLine
 10
303.134613
 20
267.31076
 11
300.236836
 21
268.087218
  0
LINE
  5
112
100
AcDbEntity
  8
DD0
100
AcDbLine
 10
206.332378
 20
268.087218
 11
203.434601
 21
267.31076
  0
LINE
  5
113
100
AcDbEntity
  8
DD0
100
AcDbLine
 10
203.434601
 20
267.31076
 11
206.332378
 21
266.534303
  0
LINE
  5
114
100
AcDbEntity
  8
DD0
100
AcDbLine
 10
303.134613
 20
267.31076
 11
203.434601
 21
267.31076
  0
TEXT
  5
115
100
AcDbEntity
  8
DD0
100
AcDbText
 10
243.456268
 20
267.910767
 40
2.5
  1
１００（補助ｂ端子）
 41
0.666667
  7
STANDARD
100
AcDbText
  0
ENDBLK
  5
116
100
AcDbEntity
  8
DD0
100
AcDbBlockEnd
  0
BLOCK
  5
119
100
AcDbEntity
  8
DD0
100
AcDbBlockBegin
  2
DIMS17
 70
     0
 10
0.0
 20
0.0
  0
LINE
  5
11A
100
AcDbEntity
  8
DD0
100
AcDbLine
 10
303.134613
 20
368.442108
 11
303.134613
 21
374.184692
  0
LINE
  5
11B
100
AcDbEntity
  8
DD0
100
AcDbLine
 10
306.134613
 20
340.942108
 11
306.134613
 21
374.184692
  0
LINE
  5
11C
100
AcDbEntity
  8
DD0
100
AcDbLine
 10
309.032391
 20
373.96115
 11
306.134613
 21
373.184692
  0
LINE
  5
11D
100
AcDbEntity
  8
DD0
100
AcDbLine
 10
306.134613
 20
373.184692
 11
309.032391
 21
372.408235
  0
LINE
  5
11E
100
AcDbEntity
  8
DD0
100
AcDbLine
 10
303.134613
 20
373.184692
 11
312.434613
 21
373.184692
  0
TEXT
  5
11F
100
AcDbEntity
  8
DD0
100
AcDbText
 10
309.606261
 20
373.784698
 40
2.5
  1
３
 41
0.666667
  7
STANDARD
100
AcDbText
  0
ENDBLK
  5
120
100
AcDbEntity
  8
DD0
100
AcDbBlockEnd
  0
BLOCK
  5
123
100
AcDbEntity
  8
DD0
100
AcDbBlockBegin
  2
DIMS18
 70
     0
 10
0.0
 20
0.0
  0
LINE
  5
124
100
AcDbEntity
  8
DD0
100
AcDbLine
 10
292.134613
 20
367.942108
 11
292.134613
 21
373.934692
  0
LINE
  5
125
100
AcDbEntity
  8
DD0
100
AcDbLine
 10
303.134613
 20
368.442108
 11
303.134613
 21
373.934692
  0
LINE
  5
126
100
AcDbEntity
  8
DD0
100
AcDbLine
 10
295.032391
 20
373.71115
 11
292.134613
 21
372.934692
  0
LINE
  5
127
100
AcDbEntity
  8
DD0
100
AcDbLine
 10
292.134613
 20
372.934692
 11
295.032391
 21
372.158235
  0
LWPOLYLINE
  5
128
100
AcDbEntity
  8
DD0
100
AcDbPolyline
 90
        2
 70
     1
 43
0.5
 10
302.884613
 20
372.934692
 42
1.0
 10
303.384613
 20
372.934692
 42
1.0
  0
LINE
  5
129
100
AcDbEntity
  8
DD0
100
AcDbLine
 10
292.134613
 20
372.934692
 11
303.134613
 21
372.934692
  0
TEXT
  5
12A
100
AcDbEntity
  8
DD0
100
AcDbText
 10
295.806274
 20
373.534698
 40
2.5
  1
１１
 41
0.666667
  7
STANDARD
100
AcDbText
  0
ENDBLK
  5
12B
100
AcDbEntity
  8
DD0
100
AcDbBlockEnd
  0
ENDSEC
  0
SECTION
  2
ENTITIES
  0
INSERT
  5
57
100
AcDbEntity
  8
DD0
100
AcDbBlockReference
  2
DIMS0
 10
0.0
 20
0.0
  0
INSERT
  5
63
100
AcDbEntity
  8
DD0
100
AcDbBlockReference
  2
DIMS1
 10
0.0
 20
0.0
  0
INSERT
  5
6F
100
AcDbEntity
  8
DD0
100
AcDbBlockReference
  2
DIMS2
 10
0.0
 20
0.0
  0
INSERT
  5
7B
100
AcDbEntity
  8
DD0
100
AcDbBlockReference
  2
DIMS3
 10
0.0
 20
0.0
  0
INSERT
  5
87
100
AcDbEntity
  8
DD0
100
AcDbBlockReference
  2
DIMS4
 10
0.0
 20
0.0
  0
INSERT
  5
93
100
AcDbEntity
  8
DD0
100
AcDbBlockReference
  2
DIMS5
 10
0.0
 20
0.0
  0
INSERT
  5
9F
100
AcDbEntity
  8
DD0
100
AcDbBlockReference
  2
DIMS6
 10
0.0
 20
0.0
  0
INSERT
  5
AB
100
AcDbEntity
  8
DD0
100
AcDbBlockReference
  2
DIMS7
 10
0.0
 20
0.0
  0
INSERT
  5
B7
100
AcDbEntity
  8
DD0
100
AcDbBlockReference
  2
DIMS8
 10
0.0
 20
0.0
  0
INSERT
  5
C3
100
AcDbEntity
  8
DD0
100
AcDbBlockReference
  2
DIMS9
 10
0.0
 20
0.0
  0
INSERT
  5
CF
100
AcDbEntity
  8
DD0
100
AcDbBlockReference
  2
DIMS10
 10
0.0
 20
0.0
  0
INSERT
  5
DB
100
AcDbEntity
  8
DD0
100
AcDbBlockReference
  2
DIMS11
 10
0.0
 20
0.0
  0
INSERT
  5
E7
100
AcDbEntity
  8
DD0
100
AcDbBlockReference
  2
DIMS12
 10
0.0
 20
0.0
  0
INSERT
  5
F3
100
AcDbEntity
  8
DD0
100
AcDbBlockReference
  2
DIMS13
 10
0.0
 20
0.0
  0
INSERT
  5
FF
100
AcDbEntity
  8
DD0
100
AcDbBlockReference
  2
DIMS14
 10
0.0
 20
0.0
  0
INSERT
  5
10B
100
AcDbEntity
  8
DD0
100
AcDbBlockReference
  2
DIMS15
 10
0.0
 20
0.0
  0
INSERT
  5
117
100
AcDbEntity
  8
DD0
100
AcDbBlockReference
  2
DIMS16
 10
0.0
 20
0.0
  0
INSERT
  5
121
100
AcDbEntity
  8
DD0
100
AcDbBlockReference
  2
DIMS17
 10
0.0
 20
0.0
  0
INSERT
  5
12C
100
AcDbEntity
  8
DD0
100
AcDbBlockReference
  2
DIMS18
 10
0.0
 20
0.0
  0
LINE
  5
12D
100
AcDbEntity
  8
M2
 62
     2
100
AcDbLine
 10
316.666654
 20
49.999998
 11
149.999994
 21
49.999998
  0
LINE
  5
12E
100
AcDbEntity
  8
M2
 62
     2
100
AcDbLine
 10
-3.552714E-015
 20
-3.552714E-015
 11
-3.552714E-015
 21
458.333316
  0
LINE
  5
12F
100
AcDbEntity
  8
M2
 62
     2
100
AcDbLine
 10
316.666654
 20
-3.552714E-015
 11
-3.552714E-015
 21
-3.552714E-015
  0
LINE
  5
130
100
AcDbEntity
  8
M2
 62
     2
100
AcDbLine
 10
316.666654
 20
16.666666
 11
149.999994
 21
16.666666
  0
TEXT
  5
131
100
AcDbEntity
  8
M2
 62
     2
100
AcDbText
 10
153.055552
 20
20.833333
 40
8.333333
  1
形　式；
 41
1.0
  7
STANDARD
100
AcDbText
  0
LINE
  5
132
100
AcDbEntity
  8
M2
 62
     2
100
AcDbLine
 10
316.666654
 20
33.333332
 11
149.999994
 21
33.333332
  0
TEXT
  5
133
100
AcDbEntity
  8
M2
 62
     2
100
AcDbText
 10
153.055552
 20
37.500001
 40
8.333333
  1
登録名：
 41
1.0
  7
STANDARD
100
AcDbText
  0
LINE
  5
134
100
AcDbEntity
  8
M2
 62
     2
100
AcDbLine
 10
149.999994
 20
-3.552714E-015
 11
149.999994
 21
49.999998
  0
TEXT
  5
135
100
AcDbEntity
  8
M2
 62
     2
100
AcDbText
 10
153.055552
 20
4.166667
 40
8.333333
  1
適　用；
 41
1.0
  7
STANDARD
100
AcDbText
  0
LINE
  5
136
100
AcDbEntity
  8
M2
 62
     2
100
AcDbLine
 10
-3.552714E-015
 20
458.333316
 11
316.666654
 21
458.333316
  0
LINE
  5
137
100
AcDbEntity
  8
M2
 62
     2
100
AcDbLine
 10
316.666654
 20
458.333316
 11
316.666654
 21
-3.552714E-015
  0
TEXT
  5
138
100
AcDbEntity
  8
M2
 62
     2
100
AcDbText
 10
193.611109
 20
37.500001
 40
8.333333
  1
ＤＭＨＳ３５ＧＲ００
 41
0.5
  7
STANDARD
100
AcDbText
  0
TEXT
  5
139
100
AcDbEntity
  8
M2
 62
     2
100
AcDbText
 10
193.611109
 20
20.833333
 40
8.333333
  1
ＨＳ３５－Ｇ
 41
0.5
  7
STANDARD
100
AcDbText
  0
LINE
  5
13A
100
AcDbEntity
  8
M3
  6
DASHED
 62
     7
100
AcDbLine
 10
124.751252
 20
296.742119
 11
112.251252
 21
296.742119
  0
CIRCLE
  5
13B
100
AcDbEntity
  8
M3
 62
     7
100
AcDbCircle
 10
105.551257
 20
313.042117
 40
3.0
  0
LINE
  5
13C
100
AcDbEntity
  8
M3
  6
DASHED
 62
     7
100
AcDbLine
 10
124.751252
 20
356.142119
 11
124.751252
 21
296.742119
  0
LINE
  5
13D
100
AcDbEntity
  8
M3
  6
DASHED
 62
     7
100
AcDbLine
 10
124.751252
 20
356.142119
 11
112.251252
 21
356.142119
  0
CIRCLE
  5
13E
100
AcDbEntity
  8
M3
 62
     7
100
AcDbCircle
 10
73.801256
 20
296.942088
 40
4.499996
  0
CIRCLE
  5
13F
100
AcDbEntity
  8
M3
 62
     7
100
AcDbCircle
 10
91.401256
 20
296.942088
 40
4.499996
  0
CIRCLE
  5
140
100
AcDbEntity
  8
M3
 62
     7
100
AcDbCircle
 10
105.551257
 20
305.442117
 40
3.0
  0
CIRCLE
  5
141
100
AcDbEntity
  8
M3
 62
     7
100
AcDbCircle
 10
56.201256
 20
296.942088
 40
4.499996
  0
LINE
  5
142
100
AcDbEntity
  8
M3
  6
DASHDOT
 62
     7
100
AcDbLine
 10
56.201256
 20
296.442119
 11
56.201256
 21
297.442119
  0
LINE
  5
143
100
AcDbEntity
  8
M3
  6
DASHDOT
 62
     7
100
AcDbLine
 10
90.901256
 20
296.942119
 11
91.901256
 21
296.942119
  0
LINE
  5
144
100
AcDbEntity
  8
M3
  6
DASHDOT
 62
     7
100
AcDbLine
 10
55.701256
 20
296.942119
 11
56.701256
 21
296.942119
  0
LINE
  5
145
100
AcDbEntity
  8
M3
 62
     7
100
AcDbLine
 10
89.332302
 20
299.011058
 11
93.595272
 21
294.748119
  0
LINE
  5
146
100
AcDbEntity
  8
M3
 62
     7
100
AcDbLine
 10
91.86816
 20
298.823284
 11
89.520183
 21
296.475292
  0
LINE
  5
147
100
AcDbEntity
  8
M3
 62
     7
100
AcDbLine
 10
93.28236
 20
297.409069
 11
90.934383
 21
295.061077
  0
LINE
  5
148
100
AcDbEntity
  8
M3
 62
     7
100
AcDbLine
 10
56.66816
 20
298.823284
 11
54.320183
 21
296.475292
  0
LINE
  5
149
100
AcDbEntity
  8
M3
 62
     7
100
AcDbLine
 10
58.08236
 20
297.409069
 11
55.734383
 21
295.061077
  0
LINE
  5
14A
100
AcDbEntity
  8
M3
 62
     7
100
AcDbLine
 10
105.904536
 20
306.85648
 11
104.136958
 21
305.08878
  0
LINE
  5
14B
100
AcDbEntity
  8
M3
 62
     7
100
AcDbLine
 10
106.965083
 20
305.795811
 11
105.197505
 21
304.028233
  0
LINE
  5
14C
100
AcDbEntity
  8
M3
 62
     7
100
AcDbLine
 10
75.68236
 20
297.409069
 11
73.334383
 21
295.061077
  0
LINE
  5
14D
100
AcDbEntity
  8
M3
 62
     7
100
AcDbLine
 10
71.732302
 20
299.011058
 11
75.995272
 21
294.748119
  0
LINE
  5
14E
100
AcDbEntity
  8
M3
 62
     7
100
AcDbLine
 10
54.132302
 20
299.011058
 11
58.395272
 21
294.748119
  0
LINE
  5
14F
100
AcDbEntity
  8
M3
 62
     7
100
AcDbLine
 10
74.26816
 20
298.823284
 11
71.920183
 21
296.475292
  0
LINE
  5
150
100
AcDbEntity
  8
M3
  6
DASHED
 62
     7
100
AcDbLine
 10
22.85126
 20
356.142119
 11
35.35126
 21
356.142119
  0
LINE
  5
151
100
AcDbEntity
  8
M3
  6
DASHED
 62
     7
100
AcDbLine
 10
22.85126
 20
296.742119
 11
35.35126
 21
296.742119
  0
LINE
  5
152
100
AcDbEntity
  8
M3
  6
DASHED
 62
     7
100
AcDbLine
 10
22.85126
 20
356.142119
 11
22.85126
 21
296.742119
  0
LINE
  5
153
100
AcDbEntity
  8
M3
 62
     7
100
AcDbLine
 10
106.965083
 20
347.795811
 11
105.197505
 21
346.028233
  0
LINE
  5
154
100
AcDbEntity
  8
M3
 62
     7
100
AcDbLine
 10
107.141841
 20
345.851476
 11
103.9602
 21
349.033238
  0
LINE
  5
155
100
AcDbEntity
  8
M3
 62
     7
100
AcDbLine
 10
42.404534
 20
314.45648
 11
40.636956
 21
312.68878
  0
LINE
  5
156
100
AcDbEntity
  8
M3
 62
     7
100
AcDbLine
 10
43.641839
 20
311.451475
 11
40.460198
 21
314.633238
  0
LINE
  5
157
100
AcDbEntity
  8
M3
 62
     7
100
AcDbLine
 10
105.904536
 20
341.25648
 11
104.136958
 21
339.48878
  0
LINE
  5
158
100
AcDbEntity
  8
M3
 62
     7
100
AcDbLine
 10
106.965083
 20
340.195811
 11
105.197505
 21
338.428233
  0
LINE
  5
159
100
AcDbEntity
  8
M3
 62
     7
100
AcDbLine
 10
105.904536
 20
348.85648
 11
104.136958
 21
347.08878
  0
LINE
  5
15A
100
AcDbEntity
  8
M3
 62
     7
100
AcDbLine
 10
107.141841
 20
338.251475
 11
103.9602
 21
341.433238
  0
LINE
  5
15B
100
AcDbEntity
  8
M3
 62
     7
100
AcDbLine
 10
43.465081
 20
340.195811
 11
41.697503
 21
338.428233
  0
LINE
  5
15C
100
AcDbEntity
  8
M3
 62
     7
100
AcDbLine
 10
43.641839
 20
338.251475
 11
40.460198
 21
341.433238
  0
LINE
  5
15D
100
AcDbEntity
  8
M3
 62
     7
100
AcDbLine
 10
43.641839
 20
345.851476
 11
40.460198
 21
349.033238
  0
LINE
  5
15E
100
AcDbEntity
  8
M3
 62
     7
100
AcDbLine
 10
42.404534
 20
341.25648
 11
40.636956
 21
339.48878
  0
LINE
  5
15F
100
AcDbEntity
  8
M3
 62
     7
100
AcDbLine
 10
43.641839
 20
303.851475
 11
40.460198
 21
307.033238
  0
LINE
  5
160
100
AcDbEntity
  8
M3
 62
     7
100
AcDbLine
 10
43.465081
 20
313.395811
 11
41.697503
 21
311.628233
  0
LINE
  5
161
100
AcDbEntity
  8
M3
 62
     7
100
AcDbLine
 10
42.404534
 20
306.85648
 11
40.636956
 21
305.08878
  0
LINE
  5
162
100
AcDbEntity
  8
M3
 62
     7
100
AcDbLine
 10
43.465081
 20
305.795811
 11
41.697503
 21
304.028233
  0
CIRCLE
  5
163
100
AcDbEntity
  8
M3
 62
     7
100
AcDbCircle
 10
105.551257
 20
339.84212
 40
3.0
  0
CIRCLE
  5
164
100
AcDbEntity
  8
M3
 62
     7
100
AcDbCircle
 10
42.051255
 20
305.442117
 40
3.0
  0
CIRCLE
  5
165
100
AcDbEntity
  8
M3
 62
     7
100
AcDbCircle
 10
105.551257
 20
347.44212
 40
3.0
  0
ARC
  5
166
100
AcDbEntity
  8
M3
 62
     7
100
AcDbCircle
 10
95.251256
 20
371.942119
 40
1.0
100
AcDbArc
 50
90.0
 51
180.0
  0
ARC
  5
167
100
AcDbEntity
  8
M3
 62
     7
100
AcDbCircle
 10
95.251256
 20
371.942119
 40
1.0
100
AcDbArc
 50
0.0
 51
90.0
  0
CIRCLE
  5
168
100
AcDbEntity
  8
M3
 62
     7
100
AcDbCircle
 10
91.401256
 20
355.94215
 40
4.499996
  0
CIRCLE
  5
169
100
AcDbEntity
  8
M3
 62
     7
100
AcDbCircle
 10
57.851256
 20
367.042119
 40
3.0
  0
CIRCLE
  5
16A
100
AcDbEntity
  8
M3
 62
     7
100
AcDbCircle
 10
56.201256
 20
355.94215
 40
4.499996
  0
CIRCLE
  5
16B
100
AcDbEntity
  8
M3
 62
     7
100
AcDbCircle
 10
73.801256
 20
355.94215
 40
4.499996
  0
CIRCLE
  5
16C
100
AcDbEntity
  8
M3
 62
     7
100
AcDbCircle
 10
42.051255
 20
339.84212
 40
3.0
  0
CIRCLE
  5
16D
100
AcDbEntity
  8
M3
 62
     7
100
AcDbCircle
 10
42.051255
 20
313.042117
 40
3.0
  0
CIRCLE
  5
16E
100
AcDbEntity
  8
M3
 62
     7
100
AcDbCircle
 10
89.751253
 20
367.042122
 40
3.0
  0
CIRCLE
  5
16F
100
AcDbEntity
  8
M3
 62
     7
100
AcDbCircle
 10
42.051255
 20
347.44212
 40
3.0
  0
LINE
  5
170
100
AcDbEntity
  8
M3
  6
DASHDOT
 62
     7
100
AcDbLine
 10
55.701256
 20
355.942119
 11
56.701256
 21
355.942119
  0
LINE
  5
171
100
AcDbEntity
  8
M3
 62
     7
100
AcDbLine
 10
94.251256
 20
362.942118
 11
94.251256
 21
371.942119
  0
LINE
  5
172
100
AcDbEntity
  8
M3
  6
DASHDOT
 62
     7
100
AcDbLine
 10
56.201256
 20
356.442119
 11
56.201256
 21
355.442119
  0
LINE
  5
173
100
AcDbEntity
  8
M3
  6
DASHDOT
 62
     7
100
AcDbLine
 10
90.901256
 20
355.942119
 11
91.901256
 21
355.942119
  0
LINE
  5
174
100
AcDbEntity
  8
M3
 62
     7
100
AcDbLine
 10
58.08236
 20
356.409069
 11
55.734383
 21
354.061077
  0
LINE
  5
175
100
AcDbEntity
  8
M3
 62
     7
100
AcDbLine
 10
54.132302
 20
358.011058
 11
58.395272
 21
353.748119
  0
LINE
  5
176
100
AcDbEntity
  8
M3
 62
     7
100
AcDbLine
 10
96.251256
 20
362.942118
 11
96.251256
 21
371.942118
  0
LINE
  5
177
100
AcDbEntity
  8
M3
 62
     7
100
AcDbLine
 10
56.66816
 20
357.823284
 11
54.320183
 21
355.475292
  0
LINE
  5
178
100
AcDbEntity
  8
M3
  6
DASHDOT
 62
     7
100
AcDbLine
 10
73.301256
 20
296.942119
 11
74.301256
 21
296.942119
  0
LINE
  5
179
100
AcDbEntity
  8
M3
  6
DASHDOT
 62
     7
100
AcDbLine
 10
73.801256
 20
296.442119
 11
73.801256
 21
297.442119
  0
LINE
  5
17A
100
AcDbEntity
  8
M3
  6
DASHDOT
 62
     7
100
AcDbLine
 10
91.401256
 20
296.442119
 11
91.401256
 21
297.442119
  0
LINE
  5
17B
100
AcDbEntity
  8
M3
  6
DASHDOT
 62
     7
100
AcDbLine
 10
73.801256
 20
356.442119
 11
73.801256
 21
355.442119
  0
LINE
  5
17C
100
AcDbEntity
  8
M3
  6
DASHDOT
 62
     7
100
AcDbLine
 10
91.401256
 20
356.442119
 11
91.401256
 21
355.442119
  0
LINE
  5
17D
100
AcDbEntity
  8
M3
 62
     7
100
AcDbLine
 10
45.801256
 20
343.092119
 11
45.801256
 21
336.592119
  0
LINE
  5
17E
100
AcDbEntity
  8
M3
  6
DASHDOT
 62
     7
100
AcDbLine
 10
73.301256
 20
355.942119
 11
74.301256
 21
355.942119
  0
LINE
  5
17F
100
AcDbEntity
  8
M3
  6
DASHDOT
 62
     7
100
AcDbLine
 10
42.051256
 20
346.942119
 11
42.051256
 21
347.942119
  0
LINE
  5
180
100
AcDbEntity
  8
M3
 62
     7
100
AcDbLine
 10
90.104532
 20
368.456483
 11
88.336954
 21
366.688782
  0
LINE
  5
181
100
AcDbEntity
  8
M3
 62
     7
100
AcDbLine
 10
59.44184
 20
365.451474
 11
56.260199
 21
368.633237
  0
LINE
  5
182
100
AcDbEntity
  8
M3
  6
DASHDOT
 62
     7
100
AcDbLine
 10
41.551256
 20
347.442119
 11
42.551256
 21
347.442119
  0
LINE
  5
183
100
AcDbEntity
  8
M3
 62
     7
100
AcDbLine
 10
42.404534
 20
348.85648
 11
40.636956
 21
347.08878
  0
LINE
  5
184
100
AcDbEntity
  8
M3
 62
     7
100
AcDbLine
 10
43.465081
 20
347.795811
 11
41.697503
 21
346.028233
  0
LINE
  5
185
100
AcDbEntity
  8
M3
 62
     7
100
AcDbLine
 10
91.165079
 20
367.395814
 11
89.397501
 21
365.628235
  0
LINE
  5
186
100
AcDbEntity
  8
M3
 62
     7
100
AcDbLine
 10
91.341837
 20
365.451478
 11
88.160196
 21
368.63324
  0
LINE
  5
187
100
AcDbEntity
  8
M3
 62
     7
100
AcDbLine
 10
71.732302
 20
358.011058
 11
75.995272
 21
353.748119
  0
LINE
  5
188
100
AcDbEntity
  8
M3
 62
     7
100
AcDbLine
 10
91.86816
 20
357.823284
 11
89.520183
 21
355.475292
  0
LINE
  5
189
100
AcDbEntity
  8
M3
 62
     7
100
AcDbLine
 10
74.26816
 20
357.823284
 11
71.920183
 21
355.475292
  0
LINE
  5
18A
100
AcDbEntity
  8
M3
 62
     7
100
AcDbLine
 10
75.68236
 20
356.409069
 11
73.334383
 21
354.061077
  0
LINE
  5
18B
100
AcDbEntity
  8
M3
 62
     7
100
AcDbLine
 10
58.204535
 20
368.456479
 11
56.436957
 21
366.688779
  0
LINE
  5
18C
100
AcDbEntity
  8
M3
 62
     7
100
AcDbLine
 10
59.265082
 20
367.39581
 11
57.497504
 21
365.628232
  0
LINE
  5
18D
100
AcDbEntity
  8
M3
 62
     7
100
AcDbLine
 10
93.28236
 20
356.409069
 11
90.934383
 21
354.061077
  0
ARC
  5
18E
100
AcDbEntity
  8
M3
 62
     7
100
AcDbCircle
 10
76.051256
 20
330.711072
 40
0.5
100
AcDbArc
 50
90.0
 51
180.0
  0
ARC
  5
18F
100
AcDbEntity
  8
M3
 62
     7
100
AcDbCircle
 10
65.401256
 20
336.642119
 40
1.0
100
AcDbArc
 50
90.0
 51
180.0
  0
ARC
  5
190
100
AcDbEntity
  8
M3
 62
     7
100
AcDbCircle
 10
100.051256
 20
284.942119
 40
1.0
100
AcDbArc
 50
270.0
 51
360.0
  0
ARC
  5
191
100
AcDbEntity
  8
M3
 62
     7
100
AcDbCircle
 10
71.551256
 20
330.711072
 40
0.5
100
AcDbArc
 50
0.0
 51
90.0
  0
ARC
  5
192
100
AcDbEntity
  8
M3
 62
     7
100
AcDbCircle
 10
65.401256
 20
316.242119
 40
1.0
100
AcDbArc
 50
180.0
 51
270.0
  0
ARC
  5
193
100
AcDbEntity
  8
M3
 62
     7
100
AcDbCircle
 10
67.301256
 20
311.942119
 40
0.5
100
AcDbArc
 50
270.0
 51
360.0
  0
ARC
  5
194
100
AcDbEntity
  8
M3
 62
     7
100
AcDbCircle
 10
82.201256
 20
336.642119
 40
1.0
100
AcDbArc
 50
0.0
 51
90.0
  0
ARC
  5
195
100
AcDbEntity
  8
M3
 62
     7
100
AcDbCircle
 10
100.051256
 20
348.142119
 40
1.0
100
AcDbArc
 50
0.0
 51
90.0
  0
ARC
  5
196
100
AcDbEntity
  8
M3
 62
     7
100
AcDbCircle
 10
81.251256
 20
351.342119
 40
0.5
100
AcDbArc
 50
180.0
 51
270.0
  0
ARC
  5
197
100
AcDbEntity
  8
M3
 62
     7
100
AcDbCircle
 10
83.951256
 20
351.342119
 40
0.5
100
AcDbArc
 50
270.0
 51
360.0
  0
CIRCLE
  5
198
100
AcDbEntity
  8
M3
 62
     7
100
AcDbCircle
 10
108.801256
 20
363.442119
 40
2.25
  0
ARC
  5
199
100
AcDbEntity
  8
M3
 62
     7
100
AcDbCircle
 10
45.551256
 20
331.642119
 40
1.0
100
AcDbArc
 50
90.0
 51
180.0
  0
ARC
  5
19A
100
AcDbEntity
  8
M3
 62
     7
100
AcDbCircle
 10
102.051256
 20
331.642119
 40
1.0
100
AcDbArc
 50
0.0
 51
90.0
  0
ARC
  5
19B
100
AcDbEntity
  8
M3
 62
     7
100
AcDbCircle
 10
65.851256
 20
284.942119
 40
1.0
100
AcDbArc
 50
270.0
 51
360.0
  0
ARC
  5
19C
100
AcDbEntity
  8
M3
 62
     7
100
AcDbCircle
 10
66.351256
 20
351.342119
 40
0.5
100
AcDbArc
 50
270.0
 51
360.0
  0
ARC
  5
19D
100
AcDbEntity
  8
M3
 62
     7
100
AcDbCircle
 10
102.051256
 20
321.242119
 40
1.0
100
AcDbArc
 50
270.0
 51
360.0
  0
LINE
  5
19E
100
AcDbEntity
  8
M3
 62
     7
100
AcDbLine
 10
39.051256
 20
351.242119
 11
38.151256
 21
351.242119
  0
LINE
  5
19F
100
AcDbEntity
  8
M3
 62
     7
100
AcDbLine
 10
108.551256
 20
351.242119
 11
109.451256
 21
351.242119
  0
LINE
  5
1A0
100
AcDbEntity
  8
M3
 62
     7
100
AcDbLine
 10
110.551256
 20
353.792118
 11
110.451254
 21
353.792118
  0
LINE
  5
1A1
100
AcDbEntity
  8
M3
 62
     7
100
AcDbLine
 10
63.351256
 20
368.54212
 11
63.351256
 21
370.74212
  0
LINE
  5
1A2
100
AcDbEntity
  8
M3
 62
     7
100
AcDbLine
 10
101.651256
 20
351.242119
 11
102.551257
 21
351.242119
  0
LINE
  5
1A3
100
AcDbEntity
  8
M3
 62
     7
100
AcDbLine
 10
52.951255
 20
286.942117
 11
52.951255
 21
284.94212
  0
LINE
  5
1A4
100
AcDbEntity
  8
M3
 62
     7
100
AcDbLine
 10
89.401255
 20
362.942118
 11
95.851257
 21
362.942118
  0
LINE
  5
1A5
100
AcDbEntity
  8
M3
 62
     7
100
AcDbLine
 10
71.801256
 20
289.942119
 11
75.801256
 21
289.942119
  0
ARC
  5
1A6
100
AcDbEntity
  8
M3
 62
     7
100
AcDbCircle
 10
67.301256
 20
312.942119
 40
0.5
100
AcDbArc
 50
0.0
 51
90.0
  0
ARC
  5
1A7
100
AcDbEntity
  8
M3
 62
     7
100
AcDbCircle
 10
65.301256
 20
311.942119
 40
0.5
100
AcDbArc
 50
180.0
 51
270.0
  0
ARC
  5
1A8
100
AcDbEntity
  8
M3
 62
     7
100
AcDbCircle
 10
82.301256
 20
312.942119
 40
0.5
100
AcDbArc
 50
0.0
 51
90.0
  0
ARC
  5
1A9
100
AcDbEntity
  8
M3
 62
     7
100
AcDbCircle
 10
82.301256
 20
311.942119
 40
0.5
100
AcDbArc
 50
270.0
 51
360.0
  0
ARC
  5
1AA
100
AcDbEntity
  8
M3
 62
     7
100
AcDbCircle
 10
82.201256
 20
316.242119
 40
1.0
100
AcDbArc
 50
270.0
 51
360.0
  0
ARC
  5
1AB
100
AcDbEntity
  8
M3
 62
     7
100
AcDbCircle
 10
65.301256
 20
312.942119
 40
0.5
100
AcDbArc
 50
90.0
 51
180.0
  0
ARC
  5
1AC
100
AcDbEntity
  8
M3
 62
     7
100
AcDbCircle
 10
80.301256
 20
312.942119
 40
0.5
100
AcDbArc
 50
90.0
 51
180.0
  0
ARC
  5
1AD
100
AcDbEntity
  8
M3
 62
     7
100
AcDbCircle
 10
80.301256
 20
311.942119
 40
0.5
100
AcDbArc
 50
180.0
 51
270.0
  0
LINE
  5
1AE
100
AcDbEntity
  8
M3
 62
     7
100
AcDbLine
 10
100.051255
 20
324.942119
 11
101.051255
 21
324.942119
  0
LINE
  5
1AF
100
AcDbEntity
  8
M3
 62
     7
100
AcDbLine
 10
68.901256
 20
336.642119
 11
68.901256
 21
336.142119
  0
LINE
  5
1B0
100
AcDbEntity
  8
M3
 62
     7
100
AcDbLine
 10
46.551257
 20
324.942119
 11
46.551257
 21
321.742119
  0
LINE
  5
1B1
100
AcDbEntity
  8
M3
 62
     7
100
AcDbLine
 10
47.551257
 20
333.642119
 11
47.551257
 21
330.942119
  0
LINE
  5
1B2
100
AcDbEntity
  8
M3
 62
     7
100
AcDbLine
 10
68.901256
 20
336.642119
 11
78.701256
 21
336.642119
  0
LINE
  5
1B3
100
AcDbEntity
  8
M3
 62
     7
100
AcDbLine
 10
47.551257
 20
321.942119
 11
47.551257
 21
319.242119
  0
LINE
  5
1B4
100
AcDbEntity
  8
M3
 62
     7
100
AcDbLine
 10
47.551257
 20
327.942119
 11
47.551257
 21
324.942119
  0
LINE
  5
1B5
100
AcDbEntity
  8
M3
 62
     7
100
AcDbLine
 10
101.051255
 20
325.042119
 11
101.051255
 21
321.742119
  0
LINE
  5
1B6
100
AcDbEntity
  8
M3
 62
     7
100
AcDbLine
 10
71.551256
 20
331.211072
 11
69.001256
 21
331.211072
  0
LINE
  5
1B7
100
AcDbEntity
  8
M3
 62
     7
100
AcDbLine
 10
78.601256
 20
331.211072
 11
76.051256
 21
331.211072
  0
LINE
  5
1B8
100
AcDbEntity
  8
M3
 62
     7
100
AcDbLine
 10
103.801255
 20
289.192118
 11
106.301255
 21
289.192118
  0
LINE
  5
1B9
100
AcDbEntity
  8
M3
 62
     7
100
AcDbLine
 10
63.151256
 20
362.942118
 11
49.251256
 21
362.942118
  0
LINE
  5
1BA
100
AcDbEntity
  8
M3
 62
     7
100
AcDbLine
 10
100.051255
 20
321.942119
 11
100.051255
 21
319.242119
  0
LINE
  5
1BB
100
AcDbEntity
  8
M3
 62
     7
100
AcDbLine
 10
101.051255
 20
321.942119
 11
100.051255
 21
321.942119
  0
LINE
  5
1BC
100
AcDbEntity
  8
M3
 62
     7
100
AcDbLine
 10
100.051255
 20
333.642119
 11
100.051255
 21
330.942119
  0
LINE
  5
1BD
100
AcDbEntity
  8
M3
 62
     7
100
AcDbLine
 10
47.551257
 20
330.942119
 11
46.551257
 21
330.942119
  0
LINE
  5
1BE
100
AcDbEntity
  8
M3
 62
     7
100
AcDbLine
 10
93.751257
 20
369.742118
 11
94.251256
 21
369.742118
  0
LINE
  5
1BF
100
AcDbEntity
  8
M3
 62
     7
100
AcDbLine
 10
65.401256
 20
337.642118
 11
67.901256
 21
337.642118
  0
LINE
  5
1C0
100
AcDbEntity
  8
M3
 62
     7
100
AcDbLine
 10
100.551256
 20
333.642119
 11
100.051255
 21
333.642119
  0
LINE
  5
1C1
100
AcDbEntity
  8
M3
 62
     7
100
AcDbLine
 10
67.301256
 20
313.442118
 11
65.301256
 21
313.442118
  0
LINE
  5
1C2
100
AcDbEntity
  8
M3
 62
     7
100
AcDbLine
 10
94.251256
 20
364.442118
 11
93.751257
 21
364.442118
  0
CIRCLE
  5
1C3
100
AcDbEntity
  8
M3
 62
     7
100
AcDbCircle
 10
38.801256
 20
288.442119
 40
2.25
  0
LINE
  5
1C4
100
AcDbEntity
  8
M3
 62
     7
100
AcDbLine
 10
79.801256
 20
311.942119
 11
79.801256
 21
312.942118
  0
LINE
  5
1C5
100
AcDbEntity
  8
M3
 62
     7
100
AcDbLine
 10
94.251256
 20
371.442121
 11
93.251256
 21
371.442121
  0
LINE
  5
1C6
100
AcDbEntity
  8
M3
 62
     7
100
AcDbLine
 10
46.551257
 20
327.942119
 11
47.551257
 21
327.942119
  0
LINE
  5
1C7
100
AcDbEntity
  8
M3
 62
     7
100
AcDbLine
 10
47.551257
 20
333.642119
 11
47.051256
 21
333.642119
  0
LINE
  5
1C8
100
AcDbEntity
  8
M3
 62
     7
100
AcDbLine
 10
78.701256
 20
336.142119
 11
68.901256
 21
336.142119
  0
LINE
  5
1C9
100
AcDbEntity
  8
M3
 62
     7
100
AcDbLine
 10
100.051255
 20
330.942119
 11
101.051255
 21
330.942119
  0
LINE
  5
1CA
100
AcDbEntity
  8
M3
 62
     7
100
AcDbLine
 10
101.051255
 20
327.942119
 11
100.051255
 21
327.942119
  0
LINE
  5
1CB
100
AcDbEntity
  8
M3
 62
     7
100
AcDbLine
 10
101.051255
 20
331.142119
 11
101.051255
 21
327.842119
  0
LINE
  5
1CC
100
AcDbEntity
  8
M3
 62
     7
100
AcDbLine
 10
100.051255
 20
327.942119
 11
100.051255
 21
324.942119
  0
LINE
  5
1CD
100
AcDbEntity
  8
M3
 62
     7
100
AcDbLine
 10
102.251255
 20
367.942117
 11
109.251256
 21
367.942117
  0
LINE
  5
1CE
100
AcDbEntity
  8
M3
 62
     7
100
AcDbLine
 10
46.551257
 20
286.942117
 11
45.901257
 21
286.942117
  0
LINE
  5
1CF
100
AcDbEntity
  8
M3
 62
     7
100
AcDbLine
 10
53.851255
 20
368.54212
 11
53.351256
 21
368.54212
  0
LINE
  5
1D0
100
AcDbEntity
  8
M3
 62
     7
100
AcDbLine
 10
112.251255
 20
302.642118
 11
112.751256
 21
297.642119
  0
LINE
  5
1D1
100
AcDbEntity
  8
M3
 62
     7
100
AcDbLine
 10
38.301255
 20
356.692119
 11
39.895519
 21
356.694095
  0
LINE
  5
1D2
100
AcDbEntity
  8
M3
 62
     7
100
AcDbLine
 10
42.350765
 20
359.192118
 11
43.801257
 21
359.192118
  0
LINE
  5
1D3
100
AcDbEntity
  8
M3
 62
     7
100
AcDbLine
 10
43.801257
 20
363.69212
 11
41.301257
 21
363.69212
  0
LINE
  5
1D4
100
AcDbEntity
  8
M3
 62
     7
100
AcDbLine
 10
38.751747
 20
361.192118
 11
38.301255
 21
361.192118
  0
LINE
  5
1D5
100
AcDbEntity
  8
M3
 62
     7
100
AcDbLine
 10
94.251256
 20
367.44212
 11
93.751257
 21
367.44212
  0
LINE
  5
1D6
100
AcDbEntity
  8
M3
 62
     7
100
AcDbLine
 10
53.351256
 20
367.44212
 11
53.851255
 21
367.44212
  0
LINE
  5
1D7
100
AcDbEntity
  8
M3
 62
     7
100
AcDbLine
 10
49.251256
 20
364.442118
 11
51.351256
 21
364.442118
  0
LINE
  5
1D8
100
AcDbEntity
  8
M3
 62
     7
100
AcDbLine
 10
96.251256
 20
364.442118
 11
98.351256
 21
364.442118
  0
LINE
  5
1D9
100
AcDbEntity
  8
M3
 62
     7
100
AcDbLine
 10
53.351256
 20
369.742118
 11
53.851255
 21
369.742118
  0
LINE
  5
1DA
100
AcDbEntity
  8
M3
 62
     7
100
AcDbLine
 10
94.251256
 20
368.54212
 11
93.751257
 21
368.54212
  0
LINE
  5
1DB
100
AcDbEntity
  8
M3
 62
     7
100
AcDbLine
 10
45.401256
 20
287.442118
 11
45.401256
 21
287.942119
  0
LINE
  5
1DC
100
AcDbEntity
  8
M3
 62
     7
100
AcDbLine
 10
46.551257
 20
287.942119
 11
45.401256
 21
287.942119
  0
ARC
  5
1DD
100
AcDbEntity
  8
M3
 62
     7
100
AcDbCircle
 10
56.451256
 20
286.942119
 40
3.5
100
AcDbArc
 50
121.002719
 51
180.0
  0
LINE
  5
1DE
100
AcDbEntity
  8
M3
 62
     7
100
AcDbLine
 10
105.904536
 20
314.45648
 11
104.136958
 21
312.68878
  0
ARC
  5
1DF
100
AcDbEntity
  8
M3
 62
     7
100
AcDbCircle
 10
56.451256
 20
286.942119
 40
3.5
100
AcDbArc
 50
91.94738
 51
121.002719
  0
ARC
  5
1E0
100
AcDbEntity
  8
M3
 62
     7
100
AcDbCircle
 10
83.751256
 20
370.742119
 40
0.5
100
AcDbArc
 50
0.0
 51
90.0
  0
LINE
  5
1E1
100
AcDbEntity
  8
M3
 62
     7
100
AcDbLine
 10
107.141841
 20
303.851475
 11
103.9602
 21
307.033238
  0
LINE
  5
1E2
100
AcDbEntity
  8
M3
 62
     7
100
AcDbLine
 10
89.332302
 20
358.011058
 11
93.595272
 21
353.748119
  0
LINE
  5
1E3
100
AcDbEntity
  8
M3
 62
     7
100
AcDbLine
 10
106.965083
 20
313.395811
 11
105.197505
 21
311.628233
  0
LINE
  5
1E4
100
AcDbEntity
  8
M3
 62
     7
100
AcDbLine
 10
107.141841
 20
311.451475
 11
103.9602
 21
314.633238
  0
ARC
  5
1E5
100
AcDbEntity
  8
M3
 62
     7
100
AcDbCircle
 10
63.851256
 20
370.742119
 40
0.5
100
AcDbArc
 50
90.0
 51
180.0
  0
ARC
  5
1E6
100
AcDbEntity
  8
M3
 62
     7
100
AcDbCircle
 10
36.351256
 20
300.092119
 40
1.0
100
AcDbArc
 50
180.0
 51
270.0
  0
CIRCLE
  5
1E7
100
AcDbEntity
  8
M3
 62
     7
100
AcDbCircle
 10
73.801256
 20
366.742119
 40
3.1
  0
ARC
  5
1E8
100
AcDbEntity
  8
M3
 62
     7
100
AcDbCircle
 10
91.151256
 20
286.942119
 40
3.5
100
AcDbArc
 50
58.997281
 51
88.05262
  0
ARC
  5
1E9
100
AcDbEntity
  8
M3
 62
     7
100
AcDbCircle
 10
85.901256
 20
284.942119
 40
1.0
100
AcDbArc
 50
180.0
 51
270.0
  0
ARC
  5
1EA
100
AcDbEntity
  8
M3
 62
     7
100
AcDbCircle
 10
91.151256
 20
286.942119
 40
3.5
100
AcDbArc
 50
0.0
 51
58.997281
  0
ARC
  5
1EB
100
AcDbEntity
  8
M3
 62
     7
100
AcDbCircle
 10
56.451256
 20
286.942119
 40
3.5
100
AcDbArc
 50
0.0
 51
58.997281
  0
ARC
  5
1EC
100
AcDbEntity
  8
M3
 62
     7
100
AcDbCircle
 10
96.401256
 20
284.942119
 40
1.0
100
AcDbArc
 50
270.0
 51
360.0
  0
LINE
  5
1ED
100
AcDbEntity
  8
M3
 62
     7
100
AcDbLine
 10
63.851256
 20
371.242117
 11
83.751256
 21
371.242117
  0
LINE
  5
1EE
100
AcDbEntity
  8
M3
 62
     7
100
AcDbLine
 10
97.401257
 20
289.942119
 11
97.401257
 21
284.94212
  0
LINE
  5
1EF
100
AcDbEntity
  8
M3
 62
     7
100
AcDbLine
 10
84.901256
 20
284.94212
 11
84.901256
 21
289.942119
  0
LINE
  5
1F0
100
AcDbEntity
  8
M3
 62
     7
100
AcDbLine
 10
37.051256
 20
299.09212
 11
37.151258
 21
299.09212
  0
LINE
  5
1F1
100
AcDbEntity
  8
M3
 62
     7
100
AcDbLine
 10
51.351256
 20
362.942118
 11
51.351256
 21
371.942118
  0
LINE
  5
1F2
100
AcDbEntity
  8
M3
 62
     7
100
AcDbLine
 10
92.954031
 20
289.942119
 11
93.401256
 21
289.942119
  0
LINE
  5
1F3
100
AcDbEntity
  8
M3
 62
     7
100
AcDbLine
 10
35.351257
 20
352.792119
 11
35.351257
 21
286.942119
  0
LINE
  5
1F4
100
AcDbEntity
  8
M3
 62
     7
100
AcDbLine
 10
36.351255
 20
299.09212
 11
37.151258
 21
299.09212
  0
LINE
  5
1F5
100
AcDbEntity
  8
M3
 62
     7
100
AcDbLine
 10
53.351256
 20
362.942118
 11
53.351256
 21
371.942119
  0
LINE
  5
1F6
100
AcDbEntity
  8
M3
 62
     7
100
AcDbLine
 10
37.051256
 20
353.792118
 11
37.151258
 21
353.792118
  0
LINE
  5
1F7
100
AcDbEntity
  8
M3
 62
     7
100
AcDbLine
 10
46.551257
 20
331.142119
 11
46.551257
 21
327.942119
  0
LINE
  5
1F8
100
AcDbEntity
  8
M3
 62
     7
100
AcDbLine
 10
87.651256
 20
286.942117
 11
87.651256
 21
284.94212
  0
LINE
  5
1F9
100
AcDbEntity
  8
M3
 62
     7
100
AcDbLine
 10
50.201255
 20
284.94212
 11
50.201255
 21
289.942119
  0
LINE
  5
1FA
100
AcDbEntity
  8
M3
 62
     7
100
AcDbLine
 10
62.701256
 20
284.94212
 11
62.701256
 21
289.942119
  0
LINE
  5
1FB
100
AcDbEntity
  8
M3
 62
     7
100
AcDbLine
 10
109.751256
 20
283.942118
 11
85.901256
 21
283.942118
  0
LINE
  5
1FC
100
AcDbEntity
  8
M3
 62
     7
100
AcDbLine
 10
84.251256
 20
370.74212
 11
84.251256
 21
368.54212
  0
LINE
  5
1FD
100
AcDbEntity
  8
M3
 62
     7
100
AcDbLine
 10
105.252746
 20
293.692119
 11
103.801255
 21
293.692119
  0
LINE
  5
1FE
100
AcDbEntity
  8
M3
 62
     7
100
AcDbLine
 10
45.401256
 20
288.942117
 11
46.551257
 21
288.942117
  0
LINE
  5
1FF
100
AcDbEntity
  8
M3
 62
     7
100
AcDbLine
 10
64.151256
 20
283.942118
 11
64.651252
 21
283.942118
  0
LINE
  5
200
100
AcDbEntity
  8
M3
 62
     7
100
AcDbLine
 10
34.851256
 20
355.242118
 11
34.851256
 21
364.942119
  0
LINE
  5
201
100
AcDbEntity
  8
M3
 62
     7
100
AcDbLine
 10
112.251255
 20
364.942119
 11
112.251255
 21
300.092119
  0
LINE
  5
202
100
AcDbEntity
  8
M3
 62
     7
100
AcDbLine
 10
46.551257
 20
294.942118
 11
45.401256
 21
294.942118
  0
LINE
  5
203
100
AcDbEntity
  8
M3
 62
     7
100
AcDbLine
 10
45.401256
 20
294.942118
 11
45.401256
 21
288.942117
  0
LINE
  5
204
100
AcDbEntity
  8
M3
 62
     7
100
AcDbLine
 10
37.851255
 20
367.942117
 11
45.351257
 21
367.942117
  0
LINE
  5
205
100
AcDbEntity
  8
M3
 62
     7
100
AcDbLine
 10
80.751256
 20
284.94212
 11
80.751256
 21
288.942117
  0
LINE
  5
206
100
AcDbEntity
  8
M3
 62
     7
100
AcDbLine
 10
81.751257
 20
302.042119
 11
83.451256
 21
302.042119
  0
LINE
  5
207
100
AcDbEntity
  8
M3
 62
     7
100
AcDbLine
 10
54.648481
 20
289.942119
 11
54.201256
 21
289.942119
  0
LINE
  5
208
100
AcDbEntity
  8
M3
 62
     7
100
AcDbLine
 10
80.751256
 20
288.942117
 11
80.751256
 21
301.542118
  0
LINE
  5
209
100
AcDbEntity
  8
M3
 62
     7
100
AcDbLine
 10
59.951256
 20
286.942117
 11
59.951256
 21
284.94212
  0
LINE
  5
20A
100
AcDbEntity
  8
M3
 62
     7
100
AcDbLine
 10
64.651252
 20
283.942118
 11
65.851256
 21
283.942118
  0
LINE
  5
20B
100
AcDbEntity
  8
M3
 62
     7
100
AcDbLine
 10
61.701256
 20
283.942118
 11
38.351256
 21
283.942118
  0
LINE
  5
20C
100
AcDbEntity
  8
M3
 62
     7
100
AcDbLine
 10
94.651257
 20
284.94212
 11
94.651257
 21
286.942117
  0
LINE
  5
20D
100
AcDbEntity
  8
M3
 62
     7
100
AcDbLine
 10
98.351256
 20
284.94212
 11
98.351256
 21
288.942117
  0
LINE
  5
20E
100
AcDbEntity
  8
M3
 62
     7
100
AcDbLine
 10
49.251256
 20
284.94212
 11
49.251256
 21
288.942117
  0
LINE
  5
20F
100
AcDbEntity
  8
M3
 62
     7
100
AcDbLine
 10
83.451256
 20
283.942118
 11
82.95126
 21
283.942118
  0
LINE
  5
210
100
AcDbEntity
  8
M3
 62
     7
100
AcDbLine
 10
82.95126
 20
283.942118
 11
81.751257
 21
283.942118
  0
CIRCLE
  5
211
100
AcDbEntity
  8
M3
 62
     7
100
AcDbCircle
 10
73.801256
 20
366.742119
 40
2.85
  0
CIRCLE
  5
212
100
AcDbEntity
  8
M3
 62
     7
100
AcDbCircle
 10
73.801256
 20
366.742119
 40
2.825
  0
ARC
  5
213
100
AcDbEntity
  8
M3
 62
     7
100
AcDbCircle
 10
79.351256
 20
332.442119
 40
0.5
100
AcDbArc
 50
180.0
 51
270.0
  0
ARC
  5
214
100
AcDbEntity
  8
M3
 62
     7
100
AcDbCircle
 10
82.001256
 20
318.942119
 40
1.0
100
AcDbArc
 50
0.0
 51
90.0
  0
ARC
  5
215
100
AcDbEntity
  8
M3
 62
     7
100
AcDbCircle
 10
36.351256
 20
331.142119
 40
1.0
100
AcDbArc
 50
180.0
 51
270.0
  0
ARC
  5
216
100
AcDbEntity
  8
M3
 62
     7
100
AcDbCircle
 10
111.251256
 20
321.742119
 40
1.0
100
AcDbArc
 50
0.0
 51
90.0
  0
ARC
  5
217
100
AcDbEntity
  8
M3
 62
     7
100
AcDbCircle
 10
67.751256
 20
336.442119
 40
1.0
100
AcDbArc
 50
0.0
 51
90.0
  0
ARC
  5
218
100
AcDbEntity
  8
M3
 62
     7
100
AcDbCircle
 10
79.851256
 20
336.442119
 40
1.0
100
AcDbArc
 50
90.0
 51
180.0
  0
ARC
  5
219
100
AcDbEntity
  8
M3
 62
     7
100
AcDbCircle
 10
84.951256
 20
371.942119
 40
1.0
100
AcDbArc
 50
0.0
 51
90.0
  0
ARC
  5
21A
100
AcDbEntity
  8
M3
 62
     7
100
AcDbCircle
 10
56.751256
 20
372.442119
 40
0.5
100
AcDbArc
 50
90.0
 51
180.0
  0
CIRCLE
  5
21B
100
AcDbEntity
  8
M3
 62
     7
100
AcDbCircle
 10
91.151256
 20
286.942119
 40
2.85
  0
ARC
  5
21C
100
AcDbEntity
  8
M3
 62
     7
100
AcDbCircle
 10
93.551256
 20
363.942119
 40
0.5
100
AcDbArc
 50
0.0
 51
66.421822
  0
ARC
  5
21D
100
AcDbEntity
  8
M3
 62
     7
100
AcDbCircle
 10
62.651256
 20
371.942119
 40
1.0
100
AcDbArc
 50
90.0
 51
180.0
  0
ARC
  5
21E
100
AcDbEntity
  8
M3
 62
     7
100
AcDbCircle
 10
36.351256
 20
321.742119
 40
1.0
100
AcDbArc
 50
90.0
 51
180.0
  0
ARC
  5
21F
100
AcDbEntity
  8
M3
 62
     7
100
AcDbCircle
 10
54.051256
 20
363.942119
 40
0.5
100
AcDbArc
 50
113.578178
 51
180.0
  0
ARC
  5
220
100
AcDbEntity
  8
M3
 62
     7
100
AcDbCircle
 10
90.851256
 20
372.442119
 40
0.5
100
AcDbArc
 50
0.0
 51
90.0
  0
LINE
  5
221
100
AcDbEntity
  8
M3
 62
     7
100
AcDbLine
 10
84.451256
 20
303.542119
 11
80.751256
 21
303.542119
  0
LINE
  5
222
100
AcDbEntity
  8
M3
 62
     7
100
AcDbLine
 10
80.751256
 20
303.742118
 11
80.751256
 21
301.542118
  0
LINE
  5
223
100
AcDbEntity
  8
M3
 62
     7
100
AcDbLine
 10
100.351257
 20
325.042119
 11
100.351257
 21
327.842119
  0
LINE
  5
224
100
AcDbEntity
  8
M3
 62
     7
100
AcDbLine
 10
63.151256
 20
303.542119
 11
66.851256
 21
303.542119
  0
LINE
  5
225
100
AcDbEntity
  8
M3
 62
     7
100
AcDbLine
 10
110.451254
 20
330.142119
 11
111.251257
 21
330.142119
  0
LINE
  5
226
100
AcDbEntity
  8
M3
 62
     7
100
AcDbLine
 10
38.151256
 20
309.242118
 11
45.951256
 21
309.242118
  0
LINE
  5
227
100
AcDbEntity
  8
M3
 62
     7
100
AcDbLine
 10
84.451256
 20
301.542118
 11
84.451256
 21
303.742118
  0
LINE
  5
228
100
AcDbEntity
  8
M3
 62
     7
100
AcDbLine
 10
110.451254
 20
346.542118
 11
111.251257
 21
346.542118
  0
LINE
  5
229
100
AcDbEntity
  8
M3
 62
     7
100
AcDbLine
 10
66.851256
 20
349.342119
 11
63.151256
 21
349.342119
  0
LINE
  5
22A
100
AcDbEntity
  8
M3
 62
     7
100
AcDbLine
 10
84.451256
 20
288.942117
 11
84.451256
 21
284.94212
  0
LINE
  5
22B
100
AcDbEntity
  8
M3
 62
     7
100
AcDbLine
 10
102.051256
 20
325.042119
 11
100.351257
 21
325.042119
  0
LINE
  5
22C
100
AcDbEntity
  8
M3
 62
     7
100
AcDbLine
 10
63.151256
 20
303.742118
 11
63.151256
 21
284.94212
  0
LINE
  5
22D
100
AcDbEntity
  8
M3
 62
     7
100
AcDbLine
 10
47.251256
 20
325.042119
 11
47.251256
 21
327.842119
  0
LINE
  5
22E
100
AcDbEntity
  8
M3
 62
     7
100
AcDbLine
 10
100.351257
 20
327.842119
 11
102.051256
 21
327.842119
  0
LINE
  5
22F
100
AcDbEntity
  8
M3
 62
     7
100
AcDbLine
 10
80.751256
 20
349.342119
 11
84.451256
 21
349.342119
  0
LINE
  5
230
100
AcDbEntity
  8
M3
 62
     7
100
AcDbLine
 10
109.451256
 20
352.792119
 11
109.451256
 21
331.142119
  0
LINE
  5
231
100
AcDbEntity
  8
M3
 62
     7
100
AcDbLine
 10
111.251257
 20
322.742119
 11
110.451254
 21
322.742119
  0
LINE
  5
232
100
AcDbEntity
  8
M3
 62
     7
100
AcDbLine
 10
37.151258
 20
346.542118
 11
36.351255
 21
346.542118
  0
LINE
  5
233
100
AcDbEntity
  8
M3
 62
     7
100
AcDbLine
 10
41.651256
 20
330.142119
 11
36.351255
 21
330.142119
  0
LINE
  5
234
100
AcDbEntity
  8
M3
 62
     7
100
AcDbLine
 10
93.401256
 20
289.942119
 11
98.351256
 21
289.942119
  0
LINE
  5
235
100
AcDbEntity
  8
M3
 62
     7
100
AcDbLine
 10
75.801256
 20
289.942119
 11
80.751256
 21
289.942119
  0
LINE
  5
236
100
AcDbEntity
  8
M3
 62
     7
100
AcDbLine
 10
77.951256
 20
320.742119
 11
77.951256
 21
321.242119
  0
LINE
  5
237
100
AcDbEntity
  8
M3
 62
     7
100
AcDbLine
 10
89.401256
 20
362.942118
 11
84.451256
 21
362.942118
  0
ARC
  5
238
100
AcDbEntity
  8
M3
 62
     7
100
AcDbCircle
 10
110.451256
 20
307.342119
 40
1.0
100
AcDbArc
 50
180.0
 51
270.0
  0
ARC
  5
239
100
AcDbEntity
  8
M3
 62
     7
100
AcDbCircle
 10
48.993248
 20
315.848077
 40
3.350514
100
AcDbArc
 50
136.789285
 51
155.219178
  0
ARC
  5
23A
100
AcDbEntity
  8
M3
 62
     7
100
AcDbCircle
 10
37.151256
 20
321.742119
 40
1.0
100
AcDbArc
 50
0.0
 51
90.0
  0
ARC
  5
23B
100
AcDbEntity
  8
M3
 62
     7
100
AcDbCircle
 10
111.251256
 20
307.342119
 40
1.0
100
AcDbArc
 50
270.0
 51
360.0
  0
LINE
  5
23C
100
AcDbEntity
  8
M3
 62
     7
100
AcDbLine
 10
68.251256
 20
331.642119
 11
79.351256
 21
331.642119
  0
LINE
  5
23D
100
AcDbEntity
  8
M3
 62
     7
100
AcDbLine
 10
69.001256
 20
321.242119
 11
78.601256
 21
321.242119
  0
LINE
  5
23E
100
AcDbEntity
  8
M3
 62
     7
100
AcDbLine
 10
79.101256
 20
322.149588
 11
79.101256
 21
321.742119
  0
LINE
  5
23F
100
AcDbEntity
  8
M3
 62
     7
100
AcDbLine
 10
77.951256
 20
331.642119
 11
77.951256
 21
331.942119
  0
LINE
  5
240
100
AcDbEntity
  8
M3
 62
     7
100
AcDbLine
 10
56.901257
 20
288.142119
 11
56.001256
 21
288.142119
  0
LINE
  5
241
100
AcDbEntity
  8
M3
 62
     7
100
AcDbLine
 10
58.201256
 20
289.942119
 11
63.151256
 21
289.942119
  0
LINE
  5
242
100
AcDbEntity
  8
M3
 62
     7
100
AcDbLine
 10
84.451256
 20
359.642118
 11
84.451256
 21
362.442117
  0
LINE
  5
243
100
AcDbEntity
  8
M3
 62
     7
100
AcDbLine
 10
69.651256
 20
331.642119
 11
69.651256
 21
331.942119
  0
ARC
  5
244
100
AcDbEntity
  8
M3
 62
     7
100
AcDbCircle
 10
37.151256
 20
300.092119
 40
1.0
100
AcDbArc
 50
270.0
 51
360.0
  0
ARC
  5
245
100
AcDbEntity
  8
M3
 62
     7
100
AcDbCircle
 10
111.251256
 20
352.792119
 40
1.0
100
AcDbArc
 50
0.0
 51
90.0
  0
ARC
  5
246
100
AcDbEntity
  8
M3
 62
     7
100
AcDbCircle
 10
111.251256
 20
300.092119
 40
1.0
100
AcDbArc
 50
270.0
 51
360.0
  0
ARC
  5
247
100
AcDbEntity
  8
M3
 62
     7
100
AcDbCircle
 10
46.551256
 20
353.192119
 40
0.6
100
AcDbArc
 50
90.0
 51
180.0
  0
ARC
  5
248
100
AcDbEntity
  8
M3
 62
     7
100
AcDbCircle
 10
46.551256
 20
299.692119
 40
0.6
100
AcDbArc
 50
180.0
 51
270.0
  0
LINE
  5
249
100
AcDbEntity
  8
M3
 62
     7
100
AcDbLine
 10
38.301255
 20
343.092117
 11
38.301255
 21
336.592118
  0
ARC
  5
24A
100
AcDbEntity
  8
M3
 62
     7
100
AcDbCircle
 10
101.051256
 20
353.192119
 40
0.6
100
AcDbArc
 50
0.0
 51
90.0
  0
ARC
  5
24B
100
AcDbEntity
  8
M3
 62
     7
100
AcDbCircle
 10
101.051256
 20
299.692119
 40
0.6
100
AcDbArc
 50
270.0
 51
360.0
  0
ARC
  5
24C
100
AcDbEntity
  8
M3
 62
     7
100
AcDbCircle
 10
101.051256
 20
306.942119
 40
0.6
100
AcDbArc
 50
270.0
 51
360.0
  0
ARC
  5
24D
100
AcDbEntity
  8
M3
 62
     7
100
AcDbCircle
 10
56.451256
 20
286.942119
 40
2.65
100
AcDbArc
 50
9.776849
 51
170.223151
  0
ARC
  5
24E
100
AcDbEntity
  8
M3
 62
     7
100
AcDbCircle
 10
46.551256
 20
306.942119
 40
0.6
100
AcDbArc
 50
180.0
 51
270.0
  0
ARC
  5
24F
100
AcDbEntity
  8
M3
 62
     7
100
AcDbCircle
 10
37.151256
 20
307.342119
 40
1.0
100
AcDbArc
 50
270.0
 51
360.0
  0
ARC
  5
250
100
AcDbEntity
  8
M3
 62
     7
100
AcDbCircle
 10
91.151256
 20
286.942119
 40
2.65
100
AcDbArc
 50
9.776849
 51
170.223151
  0
ARC
  5
251
100
AcDbEntity
  8
M3
 62
     7
100
AcDbCircle
 10
91.151256
 20
286.942119
 40
2.65
100
AcDbArc
 50
189.776849
 51
350.223151
  0
ARC
  5
252
100
AcDbEntity
  8
M3
 62
     7
100
AcDbCircle
 10
56.451256
 20
286.942119
 40
2.65
100
AcDbArc
 50
350.223151
 51
369.776849
  0
ARC
  5
253
100
AcDbEntity
  8
M3
 62
     7
100
AcDbCircle
 10
56.451256
 20
286.942119
 40
2.65
100
AcDbArc
 50
170.223151
 51
189.776849
  0
LINE
  5
254
100
AcDbEntity
  8
M3
 62
     7
100
AcDbLine
 10
58.038707
 20
286.49212
 11
56.901257
 21
286.49212
  0
LINE
  5
255
100
AcDbEntity
  8
M3
 62
     7
100
AcDbLine
 10
54.863806
 20
287.392117
 11
56.001256
 21
287.392117
  0
LINE
  5
256
100
AcDbEntity
  8
M3
 62
     7
100
AcDbLine
 10
58.038707
 20
286.49212
 11
59.062769
 21
286.49212
  0
LINE
  5
257
100
AcDbEntity
  8
M3
 62
     7
100
AcDbLine
 10
53.839742
 20
286.49212
 11
54.863806
 21
286.49212
  0
LINE
  5
258
100
AcDbEntity
  8
M3
 62
     7
100
AcDbLine
 10
56.001256
 20
286.49212
 11
56.001256
 21
285.742119
  0
LINE
  5
259
100
AcDbEntity
  8
M3
 62
     7
100
AcDbLine
 10
92.738706
 20
286.49212
 11
93.76277
 21
286.49212
  0
LINE
  5
25A
100
AcDbEntity
  8
M3
 62
     7
100
AcDbLine
 10
93.76277
 20
287.392117
 11
92.738706
 21
287.392117
  0
LINE
  5
25B
100
AcDbEntity
  8
M3
 62
     7
100
AcDbLine
 10
56.901257
 20
285.742119
 11
56.901257
 21
286.49212
  0
LINE
  5
25C
100
AcDbEntity
  8
M3
 62
     7
100
AcDbLine
 10
56.001256
 20
285.742119
 11
56.901257
 21
285.742119
  0
LINE
  5
25D
100
AcDbEntity
  8
M3
 62
     7
100
AcDbLine
 10
56.001256
 20
288.142119
 11
56.001256
 21
287.392117
  0
LINE
  5
25E
100
AcDbEntity
  8
M3
 62
     7
100
AcDbLine
 10
84.451256
 20
286.942117
 11
84.451256
 21
284.94212
  0
LINE
  5
25F
100
AcDbEntity
  8
M3
 62
     7
100
AcDbLine
 10
59.062769
 20
287.392117
 11
58.038707
 21
287.392117
  0
LINE
  5
260
100
AcDbEntity
  8
M3
 62
     7
100
AcDbLine
 10
56.901257
 20
287.392117
 11
58.038707
 21
287.392117
  0
LINE
  5
261
100
AcDbEntity
  8
M3
 62
     7
100
AcDbLine
 10
56.901257
 20
287.392117
 11
56.901257
 21
288.142119
  0
LINE
  5
262
100
AcDbEntity
  8
M3
 62
     7
100
AcDbLine
 10
54.863806
 20
287.392117
 11
53.839742
 21
287.392117
  0
LINE
  5
263
100
AcDbEntity
  8
M3
 62
     7
100
AcDbLine
 10
56.001256
 20
286.49212
 11
54.863806
 21
286.49212
  0
LINE
  5
264
100
AcDbEntity
  8
M3
 62
     7
100
AcDbLine
 10
72.051256
 20
330.689625
 11
72.051256
 21
330.711072
  0
LINE
  5
265
100
AcDbEntity
  8
M3
 62
     7
100
AcDbLine
 10
75.551256
 20
330.689625
 11
75.551256
 21
330.711072
  0
LINE
  5
266
100
AcDbEntity
  8
M3
 62
     7
100
AcDbLine
 10
108.551256
 20
301.692119
 11
108.551256
 21
300.642118
  0
LINE
  5
267
100
AcDbEntity
  8
M3
 62
     7
100
AcDbLine
 10
101.651256
 20
302.142119
 11
101.803762
 21
302.142119
  0
LINE
  5
268
100
AcDbEntity
  8
M3
 62
     7
100
AcDbLine
 10
102.551257
 20
300.642118
 11
102.551257
 21
301.692119
  0
LINE
  5
269
100
AcDbEntity
  8
M3
 62
     7
100
AcDbLine
 10
69.001256
 20
321.242119
 11
68.251256
 21
321.242119
  0
LINE
  5
26A
100
AcDbEntity
  8
M3
 62
     7
100
AcDbLine
 10
68.501256
 20
330.711072
 11
68.501256
 21
330.689625
  0
LINE
  5
26B
100
AcDbEntity
  8
M3
 62
     7
100
AcDbLine
 10
68.501256
 20
322.149588
 11
68.501256
 21
321.742119
  0
LINE
  5
26C
100
AcDbEntity
  8
M3
 62
     7
100
AcDbLine
 10
91.601256
 20
287.392117
 11
91.601256
 21
288.142119
  0
LINE
  5
26D
100
AcDbEntity
  8
M3
 62
     7
100
AcDbLine
 10
89.563805
 20
287.392117
 11
88.539743
 21
287.392117
  0
LINE
  5
26E
100
AcDbEntity
  8
M3
 62
     7
100
AcDbLine
 10
38.801256
 20
351.192119
 11
45.301256
 21
351.192119
  0
LINE
  5
26F
100
AcDbEntity
  8
M3
 62
     7
100
AcDbLine
 10
88.539743
 20
286.49212
 11
89.563805
 21
286.49212
  0
LINE
  5
270
100
AcDbEntity
  8
M3
 62
     7
100
AcDbLine
 10
79.101256
 20
330.711072
 11
79.101256
 21
330.689625
  0
LINE
  5
271
100
AcDbEntity
  8
M3
 62
     7
100
AcDbLine
 10
108.551256
 20
300.642118
 11
102.551257
 21
300.642118
  0
LINE
  5
272
100
AcDbEntity
  8
M3
 62
     7
100
AcDbLine
 10
75.551256
 20
323.742119
 11
75.551256
 21
330.689625
  0
ARC
  5
273
100
AcDbEntity
  8
M3
 62
     7
100
AcDbCircle
 10
54.601256
 20
363.792119
 40
0.5
100
AcDbArc
 50
180.0
 51
270.0
  0
ARC
  5
274
100
AcDbEntity
  8
M3
 62
     7
100
AcDbCircle
 10
61.101256
 20
363.792119
 40
0.5
100
AcDbArc
 50
270.0
 51
360.0
  0
ARC
  5
275
100
AcDbEntity
  8
M3
 62
     7
100
AcDbCircle
 10
38.801256
 20
302.192119
 40
0.5
100
AcDbArc
 50
180.0
 51
270.0
  0
ARC
  5
276
100
AcDbEntity
  8
M3
 62
     7
100
AcDbCircle
 10
45.301256
 20
302.192119
 40
0.5
100
AcDbArc
 50
270.0
 51
360.0
  0
ARC
  5
277
100
AcDbEntity
  8
M3
 62
     7
100
AcDbCircle
 10
102.301257
 20
302.192118
 40
0.5
100
AcDbArc
 50
180.0
 51
270.0
  0
ARC
  5
278
100
AcDbEntity
  8
M3
 62
     7
100
AcDbCircle
 10
108.801255
 20
308.692119
 40
0.5
100
AcDbArc
 50
0.0
 51
90.0
  0
ARC
  5
279
100
AcDbEntity
  8
M3
 62
     7
100
AcDbCircle
 10
38.801256
 20
308.692119
 40
0.5
100
AcDbArc
 50
90.0
 51
180.0
  0
ARC
  5
27A
100
AcDbEntity
  8
M3
 62
     7
100
AcDbCircle
 10
61.101256
 20
370.292119
 40
0.5
100
AcDbArc
 50
0.0
 51
90.0
  0
ARC
  5
27B
100
AcDbEntity
  8
M3
 62
     7
100
AcDbCircle
 10
108.801255
 20
316.292119
 40
0.5
100
AcDbArc
 50
0.0
 51
90.0
  0
ARC
  5
27C
100
AcDbEntity
  8
M3
 62
     7
100
AcDbCircle
 10
108.801257
 20
309.792119
 40
0.5
100
AcDbArc
 50
270.0
 51
360.0
  0
ARC
  5
27D
100
AcDbEntity
  8
M3
 62
     7
100
AcDbCircle
 10
102.301257
 20
309.792118
 40
0.5
100
AcDbArc
 50
180.0
 51
270.0
  0
ARC
  5
27E
100
AcDbEntity
  8
M3
 62
     7
100
AcDbCircle
 10
102.301255
 20
316.292118
 40
0.5
100
AcDbArc
 50
90.0
 51
180.0
  0
ARC
  5
27F
100
AcDbEntity
  8
M3
 62
     7
100
AcDbCircle
 10
102.251256
 20
365.942119
 40
2.0
100
AcDbArc
 50
90.0
 51
126.869898
  0
ARC
  5
280
100
AcDbEntity
  8
M3
 62
     7
100
AcDbCircle
 10
45.351256
 20
365.942119
 40
2.0
100
AcDbArc
 50
53.130102
 51
90.0
  0
ARC
  5
281
100
AcDbEntity
  8
M3
 62
     7
100
AcDbCircle
 10
108.801257
 20
309.792119
 40
0.5
100
AcDbArc
 50
270.0
 51
360.0
  0
ARC
  5
282
100
AcDbEntity
  8
M3
 62
     7
100
AcDbCircle
 10
45.901256
 20
287.442119
 40
0.5
100
AcDbArc
 50
180.0
 51
270.0
  0
ARC
  5
283
100
AcDbEntity
  8
M3
 62
     7
100
AcDbCircle
 10
45.301257
 20
344.192119
 40
0.5
100
AcDbArc
 50
270.0
 51
360.0
  0
ARC
  5
284
100
AcDbEntity
  8
M3
 62
     7
100
AcDbCircle
 10
45.301256
 20
350.692119
 40
0.5
100
AcDbArc
 50
0.0
 51
90.0
  0
ARC
  5
285
100
AcDbEntity
  8
M3
 62
     7
100
AcDbCircle
 10
38.801256
 20
350.692118
 40
0.5
100
AcDbArc
 50
90.0
 51
180.0
  0
ARC
  5
286
100
AcDbEntity
  8
M3
 62
     7
100
AcDbCircle
 10
93.001256
 20
370.292119
 40
0.5
100
AcDbArc
 50
0.0
 51
90.0
  0
LINE
  5
287
100
AcDbEntity
  8
M3
 62
     7
100
AcDbLine
 10
66.851256
 20
289.942119
 11
71.801256
 21
289.942119
  0
LINE
  5
288
100
AcDbEntity
  8
M3
 62
     7
100
AcDbLine
 10
69.651256
 20
320.742119
 11
69.651256
 21
321.242119
  0
LINE
  5
289
100
AcDbEntity
  8
M3
 62
     7
100
AcDbLine
 10
98.351256
 20
362.942118
 11
93.401256
 21
362.942118
  0
LINE
  5
28A
100
AcDbEntity
  8
M3
 62
     7
100
AcDbLine
 10
84.451256
 20
289.942119
 11
89.401256
 21
289.942119
  0
ARC
  5
28B
100
AcDbEntity
  8
M3
 62
     7
100
AcDbCircle
 10
108.801257
 20
302.192119
 40
0.5
100
AcDbArc
 50
270.0
 51
360.0
  0
ARC
  5
28C
100
AcDbEntity
  8
M3
 62
     7
100
AcDbCircle
 10
56.451256
 20
286.942119
 40
2.65
100
AcDbArc
 50
189.776849
 51
350.223151
  0
ARC
  5
28D
100
AcDbEntity
  8
M3
 62
     7
100
AcDbCircle
 10
100.051256
 20
367.942119
 40
1.0
100
AcDbArc
 50
0.0
 51
90.0
  0
ARC
  5
28E
100
AcDbEntity
  8
M3
 62
     7
100
AcDbCircle
 10
45.301256
 20
308.692119
 40
0.5
100
AcDbArc
 50
0.0
 51
90.0
  0
ARC
  5
28F
100
AcDbEntity
  8
M3
 62
     7
100
AcDbCircle
 10
86.501257
 20
363.792118
 40
0.5
100
AcDbArc
 50
180.0
 51
270.0
  0
ARC
  5
290
100
AcDbEntity
  8
M3
 62
     7
100
AcDbCircle
 10
93.001257
 20
363.792119
 40
0.5
100
AcDbArc
 50
270.0
 51
360.0
  0
ARC
  5
291
100
AcDbEntity
  8
M3
 62
     7
100
AcDbCircle
 10
86.501255
 20
370.292118
 40
0.5
100
AcDbArc
 50
90.0
 51
180.0
  0
ARC
  5
292
100
AcDbEntity
  8
M3
 62
     7
100
AcDbCircle
 10
38.801257
 20
344.192118
 40
0.5
100
AcDbArc
 50
180.0
 51
270.0
  0
LINE
  5
293
100
AcDbEntity
  8
M3
 62
     7
100
AcDbLine
 10
38.301255
 20
302.192118
 11
38.301255
 21
308.692119
  0
LINE
  5
294
100
AcDbEntity
  8
M3
 62
     7
100
AcDbLine
 10
45.801255
 20
308.692119
 11
45.801255
 21
302.192118
  0
LINE
  5
295
100
AcDbEntity
  8
M3
 62
     7
100
AcDbLine
 10
61.101256
 20
363.29212
 11
54.601256
 21
363.29212
  0
LINE
  5
296
100
AcDbEntity
  8
M3
 62
     7
100
AcDbLine
 10
109.301257
 20
350.692119
 11
109.301257
 21
344.192119
  0
LINE
  5
297
100
AcDbEntity
  8
M3
 62
     7
100
AcDbLine
 10
101.801257
 20
344.192119
 11
101.801257
 21
350.692119
  0
LINE
  5
298
100
AcDbEntity
  8
M3
 62
     7
100
AcDbLine
 10
108.801256
 20
343.692118
 11
102.301256
 21
343.692118
  0
LINE
  5
299
100
AcDbEntity
  8
M3
 62
     7
100
AcDbLine
 10
61.601256
 20
370.292119
 11
61.601256
 21
363.792118
  0
LINE
  5
29A
100
AcDbEntity
  8
M3
 62
     7
100
AcDbLine
 10
102.301256
 20
351.192119
 11
108.801256
 21
351.192119
  0
LINE
  5
29B
100
AcDbEntity
  8
M3
 62
     7
100
AcDbLine
 10
101.801257
 20
302.192118
 11
101.801257
 21
308.692118
  0
LINE
  5
29C
100
AcDbEntity
  8
M3
 62
     7
100
AcDbLine
 10
102.301255
 20
309.192119
 11
108.801256
 21
309.192119
  0
LINE
  5
29D
100
AcDbEntity
  8
M3
 62
     7
100
AcDbLine
 10
80.751256
 20
362.942118
 11
66.851256
 21
362.942118
  0
LINE
  5
29E
100
AcDbEntity
  8
M3
 62
     7
100
AcDbLine
 10
109.301257
 20
308.692119
 11
109.301257
 21
302.192119
  0
LINE
  5
29F
100
AcDbEntity
  8
M3
 62
     7
100
AcDbLine
 10
38.801256
 20
309.192119
 11
45.301256
 21
309.192119
  0
LINE
  5
2A0
100
AcDbEntity
  8
M3
 62
     7
100
AcDbLine
 10
54.101256
 20
363.792118
 11
54.101256
 21
370.292119
  0
LINE
  5
2A1
100
AcDbEntity
  8
M3
 62
     7
100
AcDbLine
 10
108.801257
 20
301.692119
 11
102.301256
 21
301.692119
  0
LINE
  5
2A2
100
AcDbEntity
  8
M3
 62
     7
100
AcDbLine
 10
101.801257
 20
309.792118
 11
101.801257
 21
316.292118
  0
LINE
  5
2A3
100
AcDbEntity
  8
M3
 62
     7
100
AcDbLine
 10
45.801257
 20
350.692119
 11
45.801257
 21
344.192119
  0
LINE
  5
2A4
100
AcDbEntity
  8
M3
 62
     7
100
AcDbLine
 10
93.501256
 20
363.792118
 11
93.501256
 21
370.292119
  0
LINE
  5
2A5
100
AcDbEntity
  8
M3
 62
     7
100
AcDbLine
 10
93.001257
 20
363.292117
 11
86.501257
 21
363.292117
  0
LINE
  5
2A6
100
AcDbEntity
  8
M3
 62
     7
100
AcDbLine
 10
38.301255
 20
350.692118
 11
38.301255
 21
344.192118
  0
CIRCLE
  5
2A7
100
AcDbEntity
  8
M3
 62
     7
100
AcDbCircle
 10
56.451256
 20
286.942119
 40
2.85
  0
ARC
  5
2A8
100
AcDbEntity
  8
M3
 62
     7
100
AcDbCircle
 10
38.801256
 20
343.092118
 40
0.5
100
AcDbArc
 50
90.0
 51
180.0
  0
LINE
  5
2A9
100
AcDbEntity
  8
M3
 62
     7
100
AcDbLine
 10
86.501255
 20
370.792121
 11
93.001255
 21
370.792121
  0
CIRCLE
  5
2AA
100
AcDbEntity
  8
M3
 62
     7
100
AcDbCircle
 10
56.451256
 20
286.942119
 40
2.825
  0
LINE
  5
2AB
100
AcDbEntity
  8
M3
 62
     7
100
AcDbLine
 10
98.351256
 20
284.94212
 11
98.351256
 21
286.942117
  0
LINE
  5
2AC
100
AcDbEntity
  8
M3
 62
     7
100
AcDbLine
 10
63.151256
 20
286.942117
 11
63.151256
 21
284.94212
  0
LINE
  5
2AD
100
AcDbEntity
  8
M3
 62
     7
100
AcDbLine
 10
54.601256
 20
370.792117
 11
61.101256
 21
370.792117
  0
LINE
  5
2AE
100
AcDbEntity
  8
M3
 62
     7
100
AcDbLine
 10
86.001257
 20
363.792118
 11
86.001253
 21
370.292118
  0
LINE
  5
2AF
100
AcDbEntity
  8
M3
 62
     7
100
AcDbLine
 10
37.051256
 20
346.542118
 11
37.151258
 21
346.542118
  0
LINE
  5
2B0
100
AcDbEntity
  8
M3
 62
     7
100
AcDbLine
 10
37.151258
 20
306.342119
 11
37.051256
 21
306.342119
  0
LINE
  5
2B1
100
AcDbEntity
  8
M3
 62
     7
100
AcDbLine
 10
110.451254
 20
306.342119
 11
110.551256
 21
306.342119
  0
ARC
  5
2B2
100
AcDbEntity
  8
M3
 62
     7
100
AcDbCircle
 10
108.801256
 20
308.692119
 40
0.5
100
AcDbArc
 50
0.0
 51
90.0
  0
ARC
  5
2B3
100
AcDbEntity
  8
M3
 62
     7
100
AcDbCircle
 10
108.801257
 20
302.192119
 40
0.5
100
AcDbArc
 50
270.0
 51
360.0
  0
ARC
  5
2B4
100
AcDbEntity
  8
M3
 62
     7
100
AcDbCircle
 10
56.201255
 20
366.692119
 40
4.25
100
AcDbArc
 50
241.927521
 51
298.072495
  0
ARC
  5
2B5
100
AcDbEntity
  8
M3
 62
     7
100
AcDbCircle
 10
47.551256
 20
348.142119
 40
1.0
100
AcDbArc
 50
90.0
 51
180.0
  0
ARC
  5
2B6
100
AcDbEntity
  8
M3
 62
     7
100
AcDbCircle
 10
102.301255
 20
308.692118
 40
0.5
100
AcDbArc
 50
90.0
 51
180.0
  0
ARC
  5
2B7
100
AcDbEntity
  8
M3
 62
     7
100
AcDbCircle
 10
108.801256
 20
343.092119
 40
0.5
100
AcDbArc
 50
0.0
 51
90.0
  0
ARC
  5
2B8
100
AcDbEntity
  8
M3
 62
     7
100
AcDbCircle
 10
102.301256
 20
336.592119
 40
0.5
100
AcDbArc
 50
180.0
 51
270.0
  0
ARC
  5
2B9
100
AcDbEntity
  8
M3
 62
     7
100
AcDbCircle
 10
108.801256
 20
336.592119
 40
0.5
100
AcDbArc
 50
270.0
 51
360.0
  0
LINE
  5
2BA
100
AcDbEntity
  8
M3
 62
     7
100
AcDbLine
 10
45.301256
 20
301.692119
 11
38.801256
 21
301.692119
  0
ARC
  5
2BB
100
AcDbEntity
  8
M3
 62
     7
100
AcDbCircle
 10
47.051256
 20
334.142119
 40
0.5
100
AcDbArc
 50
180.0
 51
270.0
  0
LINE
  5
2BC
100
AcDbEntity
  8
M3
 62
     7
100
AcDbLine
 10
109.301257
 20
309.79212
 11
109.301257
 21
316.292119
  0
LINE
  5
2BD
100
AcDbEntity
  8
M3
 62
     7
100
AcDbLine
 10
102.301256
 20
316.792118
 11
108.801255
 21
316.792118
  0
ARC
  5
2BE
100
AcDbEntity
  8
M3
 62
     7
100
AcDbCircle
 10
56.201255
 20
366.692119
 40
4.25
100
AcDbArc
 50
241.927521
 51
270.0
  0
ARC
  5
2BF
100
AcDbEntity
  8
M3
 62
     7
100
AcDbCircle
 10
67.901256
 20
336.642119
 40
1.0
100
AcDbArc
 50
0.0
 51
90.0
  0
ARC
  5
2C0
100
AcDbEntity
  8
M3
 62
     7
100
AcDbCircle
 10
100.551256
 20
334.142119
 40
0.5
100
AcDbArc
 50
270.0
 51
360.0
  0
ARC
  5
2C1
100
AcDbEntity
  8
M3
 62
     7
100
AcDbCircle
 10
79.701256
 20
336.642119
 40
1.0
100
AcDbArc
 50
90.0
 51
180.0
  0
ARC
  5
2C2
100
AcDbEntity
  8
M3
 62
     7
100
AcDbCircle
 10
38.801257
 20
336.592118
 40
0.5
100
AcDbArc
 50
180.0
 51
270.0
  0
ARC
  5
2C3
100
AcDbEntity
  8
M3
 62
     7
100
AcDbCircle
 10
45.301257
 20
336.592119
 40
0.5
100
AcDbArc
 50
270.0
 51
360.0
  0
ARC
  5
2C4
100
AcDbEntity
  8
M3
 62
     7
100
AcDbCircle
 10
38.801256
 20
343.092118
 40
0.5
100
AcDbArc
 50
90.0
 51
180.0
  0
ARC
  5
2C5
100
AcDbEntity
  8
M3
 62
     7
100
AcDbCircle
 10
38.801257
 20
336.592118
 40
0.5
100
AcDbArc
 50
180.0
 51
270.0
  0
LINE
  5
2C6
100
AcDbEntity
  8
M3
 62
     7
100
AcDbLine
 10
98.351256
 20
303.542119
 11
98.351256
 21
303.742118
  0
LINE
  5
2C7
100
AcDbEntity
  8
M3
 62
     7
100
AcDbLine
 10
98.351256
 20
349.142119
 11
98.351256
 21
349.342119
  0
ARC
  5
2C8
100
AcDbEntity
  8
M3
 62
     7
100
AcDbCircle
 10
108.801256
 20
316.292119
 40
0.5
100
AcDbArc
 50
0.0
 51
90.0
  0
LINE
  5
2C9
100
AcDbEntity
  8
M3
 62
     7
100
AcDbLine
 10
45.301256
 20
343.69212
 11
38.801257
 21
343.692113
  0
ARC
  5
2CA
100
AcDbEntity
  8
M3
 62
     7
100
AcDbCircle
 10
69.001256
 20
330.711072
 40
0.5
100
AcDbArc
 50
90.0
 51
180.0
  0
ARC
  5
2CB
100
AcDbEntity
  8
M3
 62
     7
100
AcDbCircle
 10
78.601256
 20
330.711072
 40
0.5
100
AcDbArc
 50
0.0
 51
90.0
  0
ARC
  5
2CC
100
AcDbEntity
  8
M3
 62
     7
100
AcDbCircle
 10
102.301256
 20
343.092119
 40
0.5
100
AcDbArc
 50
90.0
 51
180.0
  0
ARC
  5
2CD
100
AcDbEntity
  8
M3
 62
     7
100
AcDbCircle
 10
38.801256
 20
309.792119
 40
0.5
100
AcDbArc
 50
180.0
 51
270.0
  0
ARC
  5
2CE
100
AcDbEntity
  8
M3
 62
     7
100
AcDbCircle
 10
45.301256
 20
309.792119
 40
0.5
100
AcDbArc
 50
270.0
 51
360.0
  0
ARC
  5
2CF
100
AcDbEntity
  8
M3
 62
     7
100
AcDbCircle
 10
38.801256
 20
316.292119
 40
0.5
100
AcDbArc
 50
90.0
 51
180.0
  0
ARC
  5
2D0
100
AcDbEntity
  8
M3
 62
     7
100
AcDbCircle
 10
45.301256
 20
343.092119
 40
0.5
100
AcDbArc
 50
0.0
 51
90.0
  0
ARC
  5
2D1
100
AcDbEntity
  8
M3
 62
     7
100
AcDbCircle
 10
45.301256
 20
316.292119
 40
0.5
100
AcDbArc
 50
0.0
 51
90.0
  0
LINE
  5
2D2
100
AcDbEntity
  8
M3
 62
     7
100
AcDbLine
 10
82.301257
 20
311.442119
 11
80.301256
 21
311.442119
  0
LINE
  5
2D3
100
AcDbEntity
  8
M3
 62
     7
100
AcDbLine
 10
65.301256
 20
311.442119
 11
67.301256
 21
311.442119
  0
LINE
  5
2D4
100
AcDbEntity
  8
M3
 62
     7
100
AcDbLine
 10
80.301256
 20
313.442118
 11
82.301257
 21
313.442118
  0
LINE
  5
2D5
100
AcDbEntity
  8
M3
 62
     7
100
AcDbLine
 10
64.801256
 20
312.942118
 11
64.801256
 21
311.942119
  0
LINE
  5
2D6
100
AcDbEntity
  8
M3
 62
     7
100
AcDbLine
 10
70.801256
 20
338.642118
 11
70.801256
 21
340.242119
  0
LINE
  5
2D7
100
AcDbEntity
  8
M3
 62
     7
100
AcDbLine
 10
70.801256
 20
338.642118
 11
76.801256
 21
338.642118
  0
LINE
  5
2D8
100
AcDbEntity
  8
M3
 62
     7
100
AcDbLine
 10
76.801256
 20
338.642118
 11
76.801256
 21
340.242119
  0
LINE
  5
2D9
100
AcDbEntity
  8
M3
 62
     7
100
AcDbLine
 10
76.801256
 20
340.242119
 11
70.801256
 21
340.242119
  0
LINE
  5
2DA
100
AcDbEntity
  8
M3
 62
     7
100
AcDbLine
 10
91.551257
 20
371.942118
 11
91.551257
 21
372.442119
  0
LINE
  5
2DB
100
AcDbEntity
  8
M3
 62
     7
100
AcDbLine
 10
82.801256
 20
312.942118
 11
82.801256
 21
311.942119
  0
LINE
  5
2DC
100
AcDbEntity
  8
M3
 62
     7
100
AcDbLine
 10
56.051255
 20
371.942118
 11
56.051255
 21
372.442119
  0
LINE
  5
2DD
100
AcDbEntity
  8
M3
 62
     7
100
AcDbLine
 10
53.351256
 20
364.442118
 11
53.851255
 21
364.442118
  0
LINE
  5
2DE
100
AcDbEntity
  8
M3
 62
     7
100
AcDbLine
 10
38.301255
 20
309.792118
 11
38.301255
 21
316.292119
  0
LINE
  5
2DF
100
AcDbEntity
  8
M3
 62
     7
100
AcDbLine
 10
67.801256
 20
311.942119
 11
67.801256
 21
312.942118
  0
LINE
  5
2E0
100
AcDbEntity
  8
M3
 62
     7
100
AcDbLine
 10
78.701256
 20
336.642119
 11
78.701256
 21
336.142119
  0
LINE
  5
2E1
100
AcDbEntity
  8
M3
 62
     7
100
AcDbLine
 10
47.551257
 20
349.142119
 11
100.051255
 21
349.142119
  0
LINE
  5
2E2
100
AcDbEntity
  8
M3
  6
DASHDOT
 62
     7
100
AcDbLine
 10
73.801256
 20
278.942118
 11
73.801256
 21
377.94212
  0
LINE
  5
2E3
100
AcDbEntity
  8
M3
 62
     7
100
AcDbLine
 10
45.301256
 20
336.092119
 11
38.801257
 21
336.092119
  0
LINE
  5
2E4
100
AcDbEntity
  8
M3
 62
     7
100
AcDbLine
 10
101.801257
 20
336.592119
 11
101.801257
 21
343.092119
  0
LINE
  5
2E5
100
AcDbEntity
  8
M3
  6
DASHDOT
 62
     7
100
AcDbLine
 10
117.251255
 20
326.442119
 11
30.351257
 21
326.442119
  0
LINE
  5
2E6
100
AcDbEntity
  8
M3
 62
     7
100
AcDbLine
 10
108.801256
 20
309.292119
 11
102.301257
 21
309.292119
  0
LINE
  5
2E7
100
AcDbEntity
  8
M3
 62
     7
100
AcDbLine
 10
38.801256
 20
316.792118
 11
45.301256
 21
316.792118
  0
LINE
  5
2E8
100
AcDbEntity
  8
M3
 62
     7
100
AcDbLine
 10
38.801256
 20
343.592118
 11
45.301256
 21
343.592118
  0
LINE
  5
2E9
100
AcDbEntity
  8
M3
 62
     7
100
AcDbLine
 10
45.801255
 20
316.292118
 11
45.801255
 21
309.792119
  0
LINE
  5
2EA
100
AcDbEntity
  8
M3
 62
     7
100
AcDbLine
 10
83.201256
 20
316.242118
 11
83.201256
 21
336.642119
  0
LINE
  5
2EB
100
AcDbEntity
  8
M3
 62
     7
100
AcDbLine
 10
82.201256
 20
337.642118
 11
79.701256
 21
337.642118
  0
LINE
  5
2EC
100
AcDbEntity
  8
M3
 62
     7
100
AcDbLine
 10
64.401256
 20
316.242118
 11
64.401256
 21
336.642119
  0
LINE
  5
2ED
100
AcDbEntity
  8
M3
 62
     7
100
AcDbLine
 10
65.401256
 20
315.242119
 11
82.201256
 21
315.242119
  0
LINE
  5
2EE
100
AcDbEntity
  8
M3
 62
     7
100
AcDbLine
 10
108.801256
 20
336.092119
 11
102.301256
 21
336.092119
  0
LINE
  5
2EF
100
AcDbEntity
  8
M3
 62
     7
100
AcDbLine
 10
109.301257
 20
343.092119
 11
109.301257
 21
336.592119
  0
LINE
  5
2F0
100
AcDbEntity
  8
M3
 62
     7
100
AcDbLine
 10
45.301256
 20
309.292119
 11
38.801256
 21
309.292119
  0
LINE
  5
2F1
100
AcDbEntity
  8
M3
 62
     7
100
AcDbLine
 10
38.151256
 20
300.092118
 11
38.151256
 21
321.742119
  0
ARC
  5
2F2
100
AcDbEntity
  8
M3
 62
     7
100
AcDbCircle
 10
93.001257
 20
363.792119
 40
0.5
100
AcDbArc
 50
270.0
 51
360.0
  0
LINE
  5
2F3
100
AcDbEntity
  8
M3
 62
     7
100
AcDbLine
 10
109.451256
 20
300.092118
 11
109.451256
 21
321.742119
  0
LINE
  5
2F4
100
AcDbEntity
  8
M3
 62
     7
100
AcDbLine
 10
101.651256
 20
317.252439
 11
101.651256
 21
299.692119
  0
ARC
  5
2F5
100
AcDbEntity
  8
M3
 62
     7
100
AcDbCircle
 10
108.801256
 20
344.192119
 40
0.5
100
AcDbArc
 50
270.0
 51
360.0
  0
ARC
  5
2F6
100
AcDbEntity
  8
M3
 62
     7
100
AcDbCircle
 10
93.001255
 20
370.292119
 40
0.5
100
AcDbArc
 50
0.0
 51
90.0
  0
ARC
  5
2F7
100
AcDbEntity
  8
M3
 62
     7
100
AcDbCircle
 10
54.601256
 20
370.292119
 40
0.5
100
AcDbArc
 50
90.0
 51
180.0
  0
ARC
  5
2F8
100
AcDbEntity
  8
M3
 62
     7
100
AcDbCircle
 10
102.301256
 20
350.692119
 40
0.5
100
AcDbArc
 50
90.0
 51
180.0
  0
LINE
  5
2F9
100
AcDbEntity
  8
M3
 62
     7
100
AcDbLine
 10
111.251257
 20
322.742119
 11
111.251257
 21
330.142119
  0
LINE
  5
2FA
100
AcDbEntity
  8
M3
 62
     7
100
AcDbLine
 10
109.951257
 20
330.142119
 11
109.951257
 21
322.742119
  0
LINE
  5
2FB
100
AcDbEntity
  8
M3
 62
     7
100
AcDbLine
 10
67.351256
 20
337.442119
 11
67.751256
 21
337.442119
  0
LINE
  5
2FC
100
AcDbEntity
  8
M3
 62
     7
100
AcDbLine
 10
79.851256
 20
337.442119
 11
80.251256
 21
337.442119
  0
LINE
  5
2FD
100
AcDbEntity
  8
M3
 62
     7
100
AcDbLine
 10
98.351256
 20
365.942121
 11
98.351256
 21
367.942117
  0
LINE
  5
2FE
100
AcDbEntity
  8
M3
 62
     7
100
AcDbLine
 10
49.251256
 20
349.142119
 11
49.251256
 21
367.942117
  0
LINE
  5
2FF
100
AcDbEntity
  8
M3
 62
     7
100
AcDbLine
 10
36.351255
 20
322.742119
 11
36.351255
 21
330.142119
  0
LINE
  5
300
100
AcDbEntity
  8
M3
 62
     7
100
AcDbLine
 10
37.651255
 20
330.142119
 11
37.651255
 21
322.742119
  0
ARC
  5
301
100
AcDbEntity
  8
M3
 62
     7
100
AcDbCircle
 10
101.051256
 20
345.942119
 40
0.6
100
AcDbArc
 50
0.0
 51
90.0
  0
ARC
  5
302
100
AcDbEntity
  8
M3
 62
     7
100
AcDbCircle
 10
36.351256
 20
352.792119
 40
1.0
100
AcDbArc
 50
90.0
 51
180.0
  0
ARC
  5
303
100
AcDbEntity
  8
M3
 62
     7
100
AcDbCircle
 10
50.848124
 20
338.291375
 40
5.573176
100
AcDbArc
 50
208.520126
 51
219.557059
  0
ARC
  5
304
100
AcDbEntity
  8
M3
 62
     7
100
AcDbCircle
 10
46.551256
 20
345.942119
 40
0.6
100
AcDbArc
 50
90.0
 51
180.0
  0
LINE
  5
305
100
AcDbEntity
  8
M3
 62
     7
100
AcDbLine
 10
49.251256
 20
284.94212
 11
49.251256
 21
286.942117
  0
LINE
  5
306
100
AcDbEntity
  8
M3
 62
     7
100
AcDbLine
 10
110.551256
 20
346.542118
 11
110.451254
 21
346.542118
  0
ARC
  5
307
100
AcDbEntity
  8
M3
 62
     7
100
AcDbCircle
 10
37.151256
 20
352.792119
 40
1.0
100
AcDbArc
 50
0.0
 51
90.0
  0
ARC
  5
308
100
AcDbEntity
  8
M3
 62
     7
100
AcDbCircle
 10
110.451256
 20
300.092119
 40
1.0
100
AcDbArc
 50
180.0
 51
270.0
  0
ARC
  5
309
100
AcDbEntity
  8
M3
 62
     7
100
AcDbCircle
 10
38.801257
 20
344.192118
 40
0.5
100
AcDbArc
 50
180.0
 51
270.0
  0
ARC
  5
30A
100
AcDbEntity
  8
M3
 62
     7
100
AcDbCircle
 10
102.301256
 20
344.192119
 40
0.5
100
AcDbArc
 50
180.0
 51
270.0
  0
ARC
  5
30B
100
AcDbEntity
  8
M3
 62
     7
100
AcDbCircle
 10
108.801256
 20
350.692119
 40
0.5
100
AcDbArc
 50
0.0
 51
90.0
  0
ARC
  5
30C
100
AcDbEntity
  8
M3
 62
     7
100
AcDbCircle
 10
38.801256
 20
350.692118
 40
0.5
100
AcDbArc
 50
90.0
 51
180.0
  0
ARC
  5
30D
100
AcDbEntity
  8
M3
 62
     7
100
AcDbCircle
 10
110.451256
 20
352.792119
 40
1.0
100
AcDbArc
 50
90.0
 51
180.0
  0
ARC
  5
30E
100
AcDbEntity
  8
M3
 62
     7
100
AcDbCircle
 10
96.754388
 20
338.291375
 40
5.573176
100
AcDbArc
 50
320.442941
 51
331.479874
  0
ARC
  5
30F
100
AcDbEntity
  8
M3
 62
     7
100
AcDbCircle
 10
98.609265
 20
315.848077
 40
3.350514
100
AcDbArc
 50
24.780822
 51
43.210715
  0
ARC
  5
310
100
AcDbEntity
  8
M3
 62
     7
100
AcDbCircle
 10
36.351256
 20
307.342119
 40
1.0
100
AcDbArc
 50
180.0
 51
270.0
  0
LINE
  5
311
100
AcDbEntity
  8
M3
 62
     7
100
AcDbLine
 10
105.951256
 20
330.142119
 11
105.951256
 21
322.742119
  0
LINE
  5
312
100
AcDbEntity
  8
M3
 62
     7
100
AcDbLine
 10
111.251257
 20
306.342119
 11
110.451254
 21
306.342119
  0
LINE
  5
313
100
AcDbEntity
  8
M3
 62
     7
100
AcDbLine
 10
101.651256
 20
335.742119
 11
109.451256
 21
335.742119
  0
LINE
  5
314
100
AcDbEntity
  8
M3
 62
     7
100
AcDbLine
 10
111.251257
 20
299.09212
 11
110.451254
 21
299.09212
  0
LINE
  5
315
100
AcDbEntity
  8
M3
 62
     7
100
AcDbLine
 10
72.051256
 20
323.742119
 11
72.051256
 21
330.689625
  0
LINE
  5
316
100
AcDbEntity
  8
M3
 62
     7
100
AcDbLine
 10
79.101256
 20
331.142119
 11
79.101256
 21
322.647106
  0
LINE
  5
317
100
AcDbEntity
  8
M3
 62
     7
100
AcDbLine
 10
36.351255
 20
306.342119
 11
37.151258
 21
306.342119
  0
LINE
  5
318
100
AcDbEntity
  8
M3
 62
     7
100
AcDbLine
 10
41.651256
 20
330.142119
 11
41.651256
 21
322.742119
  0
LINE
  5
319
100
AcDbEntity
  8
M3
 62
     7
100
AcDbLine
 10
110.451254
 20
353.792118
 11
111.251257
 21
353.792118
  0
LINE
  5
31A
100
AcDbEntity
  8
M3
 62
     7
100
AcDbLine
 10
49.251256
 20
303.542119
 11
49.251256
 21
303.742118
  0
LINE
  5
31B
100
AcDbEntity
  8
M3
 62
     7
100
AcDbLine
 10
102.301256
 20
343.592118
 11
108.801256
 21
343.592118
  0
LINE
  5
31C
100
AcDbEntity
  8
M3
 62
     7
100
AcDbLine
 10
37.151258
 20
353.792118
 11
36.351255
 21
353.792118
  0
LINE
  5
31D
100
AcDbEntity
  8
M3
 62
     7
100
AcDbLine
 10
45.951256
 20
317.252439
 11
45.951256
 21
299.692119
  0
LINE
  5
31E
100
AcDbEntity
  8
M3
 62
     7
100
AcDbLine
 10
45.951256
 20
353.192119
 11
45.951256
 21
335.630365
  0
LINE
  5
31F
100
AcDbEntity
  8
M3
 62
     7
100
AcDbLine
 10
66.851256
 20
303.742118
 11
66.851256
 21
284.942119
  0
LINE
  5
320
100
AcDbEntity
  8
M3
 62
     7
100
AcDbLine
 10
38.151256
 20
331.142119
 11
38.151256
 21
352.79212
  0
LINE
  5
321
100
AcDbEntity
  8
M3
 62
     7
100
AcDbLine
 10
38.151256
 20
317.142119
 11
45.951256
 21
317.142119
  0
LINE
  5
322
100
AcDbEntity
  8
M3
 62
     7
100
AcDbLine
 10
98.351256
 20
364.942119
 11
98.351256
 21
365.942121
  0
LINE
  5
323
100
AcDbEntity
  8
M3
 62
     7
100
AcDbLine
 10
109.451256
 20
317.142119
 11
101.651256
 21
317.142119
  0
LINE
  5
324
100
AcDbEntity
  8
M3
 62
     7
100
AcDbLine
 10
105.951256
 20
322.742119
 11
110.451254
 21
322.742119
  0
LINE
  5
325
100
AcDbEntity
  8
M3
 62
     7
100
AcDbLine
 10
84.451256
 20
287.942119
 11
84.451256
 21
286.942117
  0
LINE
  5
326
100
AcDbEntity
  8
M3
 62
     7
100
AcDbLine
 10
49.251256
 20
286.942117
 11
49.251256
 21
287.942119
  0
LINE
  5
327
100
AcDbEntity
  8
M3
 62
     7
100
AcDbLine
 10
63.151256
 20
371.442121
 11
63.151256
 21
349.142119
  0
LINE
  5
328
100
AcDbEntity
  8
M3
 62
     7
100
AcDbLine
 10
98.351256
 20
286.942117
 11
98.351256
 21
287.942119
  0
LINE
  5
329
100
AcDbEntity
  8
M3
 62
     7
100
AcDbLine
 10
72.551256
 20
323.242119
 11
75.051256
 21
323.242119
  0
LINE
  5
32A
100
AcDbEntity
  8
M3
 62
     7
100
AcDbLine
 10
68.501256
 20
322.149588
 11
68.501256
 21
322.647106
  0
LINE
  5
32B
100
AcDbEntity
  8
M3
 62
     7
100
AcDbLine
 10
68.501256
 20
331.142119
 11
68.501256
 21
322.647106
  0
LINE
  5
32C
100
AcDbEntity
  8
M3
 62
     7
100
AcDbLine
 10
79.101256
 20
322.149588
 11
79.101256
 21
322.647106
  0
LINE
  5
32D
100
AcDbEntity
  8
M3
 62
     7
100
AcDbLine
 10
101.651256
 20
353.192119
 11
101.651256
 21
335.658634
  0
LINE
  5
32E
100
AcDbEntity
  8
M3
 62
     7
100
AcDbLine
 10
36.351255
 20
322.742119
 11
41.651256
 21
322.742119
  0
LINE
  5
32F
100
AcDbEntity
  8
M3
 62
     7
100
AcDbLine
 10
45.951256
 20
335.742119
 11
38.151256
 21
335.742119
  0
LINE
  5
330
100
AcDbEntity
  8
M3
 62
     7
100
AcDbLine
 10
110.451254
 20
330.142119
 11
105.951256
 21
330.142119
  0
ARC
  5
331
100
AcDbEntity
  8
M3
 62
     7
100
AcDbCircle
 10
110.451256
 20
321.742119
 40
1.0
100
AcDbArc
 50
90.0
 51
180.0
  0
ARC
  5
332
100
AcDbEntity
  8
M3
 62
     7
100
AcDbCircle
 10
83.451256
 20
284.942119
 40
1.0
100
AcDbArc
 50
270.0
 51
360.0
  0
LINE
  5
333
100
AcDbEntity
  8
M3
 62
     7
100
AcDbLine
 10
78.851256
 20
332.442119
 11
78.851256
 21
336.442119
  0
LINE
  5
334
100
AcDbEntity
  8
M3
 62
     7
100
AcDbLine
 10
68.751256
 20
332.442119
 11
68.751256
 21
336.442119
  0
ARC
  5
335
100
AcDbEntity
  8
M3
 62
     7
100
AcDbCircle
 10
111.251256
 20
345.542119
 40
1.0
100
AcDbArc
 50
0.0
 51
90.0
  0
ARC
  5
336
100
AcDbEntity
  8
M3
 62
     7
100
AcDbCircle
 10
60.951256
 20
363.642119
 40
0.6
100
AcDbArc
 50
270.0
 51
352.509835
  0
ARC
  5
337
100
AcDbEntity
  8
M3
 62
     7
100
AcDbCircle
 10
64.151256
 20
284.942119
 40
1.0
100
AcDbArc
 50
180.0
 51
270.0
  0
ARC
  5
338
100
AcDbEntity
  8
M3
 62
     7
100
AcDbCircle
 10
37.151256
 20
331.142119
 40
1.0
100
AcDbArc
 50
270.0
 51
360.0
  0
LINE
  5
339
100
AcDbEntity
  8
M3
 62
     7
100
AcDbLine
 10
68.251256
 20
320.742119
 11
79.351256
 21
320.742119
  0
LINE
  5
33A
100
AcDbEntity
  8
M3
 62
     7
100
AcDbLine
 10
47.051256
 20
319.242119
 11
47.551257
 21
319.242119
  0
LINE
  5
33B
100
AcDbEntity
  8
M3
 62
     7
100
AcDbLine
 10
68.251256
 20
316.942119
 11
79.351256
 21
316.942119
  0
LINE
  5
33C
100
AcDbEntity
  8
M3
 62
     7
100
AcDbLine
 10
79.351256
 20
319.242119
 11
68.251256
 21
319.242119
  0
LINE
  5
33D
100
AcDbEntity
  8
M3
 62
     7
100
AcDbLine
 10
79.851256
 20
337.442119
 11
82.001256
 21
337.442119
  0
LINE
  5
33E
100
AcDbEntity
  8
M3
 62
     7
100
AcDbLine
 10
64.601256
 20
336.442119
 11
64.601256
 21
316.109015
  0
LINE
  5
33F
100
AcDbEntity
  8
M3
 62
     7
100
AcDbLine
 10
46.551257
 20
327.942119
 11
46.551257
 21
327.842119
  0
LINE
  5
340
100
AcDbEntity
  8
M3
 62
     7
100
AcDbLine
 10
46.551257
 20
325.042119
 11
46.551257
 21
324.942119
  0
ARC
  5
341
100
AcDbEntity
  8
M3
 62
     7
100
AcDbCircle
 10
81.751256
 20
367.942119
 40
1.0
100
AcDbArc
 50
90.0
 51
180.0
  0
ARC
  5
342
100
AcDbEntity
  8
M3
 62
     7
100
AcDbCircle
 10
99.351256
 20
367.942119
 40
1.0
100
AcDbArc
 50
90.0
 51
180.0
  0
ARC
  5
343
100
AcDbEntity
  8
M3
 62
     7
100
AcDbCircle
 10
47.551256
 20
367.942119
 40
1.0
100
AcDbArc
 50
90.0
 51
180.0
  0
ARC
  5
344
100
AcDbEntity
  8
M3
 62
     7
100
AcDbCircle
 10
48.251256
 20
367.942119
 40
1.0
100
AcDbArc
 50
0.0
 51
90.0
  0
LINE
  5
345
100
AcDbEntity
  8
M3
 62
     7
100
AcDbLine
 10
45.951256
 20
351.242119
 11
45.051256
 21
351.242119
  0
LINE
  5
346
100
AcDbEntity
  8
M3
 62
     7
100
AcDbLine
 10
45.401256
 20
285.942119
 11
45.401256
 21
287.442118
  0
ARC
  5
347
100
AcDbEntity
  8
M3
 62
     7
100
AcDbCircle
 10
83.451256
 20
367.942119
 40
1.0
100
AcDbArc
 50
0.0
 51
90.0
  0
LINE
  5
348
100
AcDbEntity
  8
M3
 62
     7
100
AcDbLine
 10
45.051256
 20
301.642118
 11
45.951256
 21
301.642118
  0
ARC
  5
349
100
AcDbEntity
  8
M3
 62
     7
100
AcDbCircle
 10
91.151256
 20
286.942119
 40
2.65
100
AcDbArc
 50
170.223151
 51
189.776849
  0
ARC
  5
34A
100
AcDbEntity
  8
M3
 62
     7
100
AcDbCircle
 10
36.351256
 20
345.542119
 40
1.0
100
AcDbArc
 50
90.0
 51
180.0
  0
ARC
  5
34B
100
AcDbEntity
  8
M3
 62
     7
100
AcDbCircle
 10
110.451256
 20
331.142119
 40
1.0
100
AcDbArc
 50
180.0
 51
270.0
  0
ARC
  5
34C
100
AcDbEntity
  8
M3
 62
     7
100
AcDbCircle
 10
111.251256
 20
331.142119
 40
1.0
100
AcDbArc
 50
270.0
 51
360.0
  0
ARC
  5
34D
100
AcDbEntity
  8
M3
 62
     7
100
AcDbCircle
 10
108.845258
 20
291.392414
 40
0.3
100
AcDbArc
 50
90.0
 51
180.0
  0
ARC
  5
34E
100
AcDbEntity
  8
M3
 62
     7
100
AcDbCircle
 10
109.301256
 20
293.942119
 40
2.25
100
AcDbArc
 50
270.928845
 51
451.752277
  0
ARC
  5
34F
100
AcDbEntity
  8
M3
 62
     7
100
AcDbCircle
 10
64.151256
 20
367.942119
 40
1.0
100
AcDbArc
 50
90.0
 51
180.0
  0
ARC
  5
350
100
AcDbEntity
  8
M3
 62
     7
100
AcDbCircle
 10
65.851256
 20
367.942119
 40
1.0
100
AcDbArc
 50
0.0
 51
90.0
  0
LINE
  5
351
100
AcDbEntity
  8
M3
 62
     7
100
AcDbLine
 10
99.351256
 20
303.542119
 11
99.351256
 21
303.742118
  0
LINE
  5
352
100
AcDbEntity
  8
M3
 62
     7
100
AcDbLine
 10
65.851256
 20
368.942119
 11
64.151256
 21
368.942119
  0
LINE
  5
353
100
AcDbEntity
  8
M3
 62
     7
100
AcDbLine
 10
80.751256
 20
349.142119
 11
80.751256
 21
367.942117
  0
LINE
  5
354
100
AcDbEntity
  8
M3
 62
     7
100
AcDbLine
 10
81.751257
 20
368.942119
 11
83.451256
 21
368.942119
  0
LINE
  5
355
100
AcDbEntity
  8
M3
 62
     7
100
AcDbLine
 10
99.351256
 20
349.142119
 11
99.351256
 21
349.342119
  0
LINE
  5
356
100
AcDbEntity
  8
M3
 62
     7
100
AcDbLine
 10
109.232455
 20
296.191066
 11
107.802912
 21
296.192119
  0
LINE
  5
357
100
AcDbEntity
  8
M3
 62
     7
100
AcDbLine
 10
99.851252
 20
368.942119
 11
100.051255
 21
368.942119
  0
LINE
  5
358
100
AcDbEntity
  8
M3
 62
     7
100
AcDbLine
 10
102.051256
 20
331.142119
 11
100.051255
 21
331.142119
  0
LINE
  5
359
100
AcDbEntity
  8
M3
 62
     7
100
AcDbLine
 10
89.563805
 20
287.392117
 11
90.701255
 21
287.392117
  0
LINE
  5
35A
100
AcDbEntity
  8
M3
 62
     7
100
AcDbLine
 10
100.051255
 20
321.742119
 11
102.051256
 21
321.742119
  0
LINE
  5
35B
100
AcDbEntity
  8
M3
 62
     7
100
AcDbLine
 10
68.751256
 20
332.442119
 11
78.851256
 21
332.442119
  0
LINE
  5
35C
100
AcDbEntity
  8
M3
 62
     7
100
AcDbLine
 10
48.251256
 20
368.942119
 11
47.551256
 21
368.942119
  0
LINE
  5
35D
100
AcDbEntity
  8
M3
 62
     7
100
AcDbLine
 10
66.851256
 20
349.142119
 11
66.851256
 21
367.942117
  0
LINE
  5
35E
100
AcDbEntity
  8
M3
 62
     7
100
AcDbLine
 10
101.051255
 20
284.942119
 11
101.051255
 21
320.242119
  0
LINE
  5
35F
100
AcDbEntity
  8
M3
 62
     7
100
AcDbLine
 10
90.701255
 20
285.742119
 11
91.601256
 21
285.742119
  0
LINE
  5
360
100
AcDbEntity
  8
M3
 62
     7
100
AcDbLine
 10
98.351256
 20
349.142119
 11
98.351256
 21
367.942117
  0
LINE
  5
361
100
AcDbEntity
  8
M3
 62
     7
100
AcDbLine
 10
112.751256
 20
297.642119
 11
112.751256
 21
286.942117
  0
LINE
  5
362
100
AcDbEntity
  8
M3
 62
     7
100
AcDbLine
 10
63.651256
 20
350.842118
 11
66.351256
 21
350.842118
  0
LINE
  5
363
100
AcDbEntity
  8
M3
 62
     7
100
AcDbLine
 10
108.545258
 20
291.27793
 11
108.545258
 21
291.392416
  0
LINE
  5
364
100
AcDbEntity
  8
M3
 62
     7
100
AcDbLine
 10
105.552743
 20
294.023938
 11
105.552743
 21
293.992117
  0
LINE
  5
365
100
AcDbEntity
  8
M3
 62
     7
100
AcDbLine
 10
47.551257
 20
324.942119
 11
46.551257
 21
324.942119
  0
LINE
  5
366
100
AcDbEntity
  8
M3
 62
     7
100
AcDbLine
 10
100.051255
 20
303.742118
 11
47.551257
 21
303.742118
  0
LINE
  5
367
100
AcDbEntity
  8
M3
 62
     7
100
AcDbLine
 10
46.551257
 20
367.942119
 11
46.551257
 21
332.642119
  0
LINE
  5
368
100
AcDbEntity
  8
M3
 62
     7
100
AcDbLine
 10
64.601256
 20
332.542119
 11
66.101256
 21
331.042119
  0
LINE
  5
369
100
AcDbEntity
  8
M3
 62
     7
100
AcDbLine
 10
48.251256
 20
349.342119
 11
49.251256
 21
349.342119
  0
LINE
  5
36A
100
AcDbEntity
  8
M3
 62
     7
100
AcDbLine
 10
108.845259
 20
291.692413
 11
109.337732
 21
291.692413
  0
LINE
  5
36B
100
AcDbEntity
  8
M3
 62
     7
100
AcDbLine
 10
97.401257
 20
288.942117
 11
98.351256
 21
288.942117
  0
LINE
  5
36C
100
AcDbEntity
  8
M3
 62
     7
100
AcDbLine
 10
101.051255
 20
332.642119
 11
101.051255
 21
367.942119
  0
LINE
  5
36D
100
AcDbEntity
  8
M3
 62
     7
100
AcDbLine
 10
99.351256
 20
349.342119
 11
98.351256
 21
349.342119
  0
LINE
  5
36E
100
AcDbEntity
  8
M3
 62
     7
100
AcDbLine
 10
48.251256
 20
303.542119
 11
48.251256
 21
303.742118
  0
LINE
  5
36F
100
AcDbEntity
  8
M3
 62
     7
100
AcDbLine
 10
47.551257
 20
321.742119
 11
45.551257
 21
321.742119
  0
ARC
  5
370
100
AcDbEntity
  8
M3
 62
     7
100
AcDbCircle
 10
103.801256
 20
291.442119
 40
2.25
100
AcDbArc
 50
90.0
 51
270.0
  0
ARC
  5
371
100
AcDbEntity
  8
M3
 62
     7
100
AcDbCircle
 10
66.351256
 20
301.542119
 40
0.5
100
AcDbArc
 50
0.0
 51
90.0
  0
ARC
  5
372
100
AcDbEntity
  8
M3
 62
     7
100
AcDbCircle
 10
39.801256
 20
358.942119
 40
2.25
100
AcDbArc
 50
272.401074
 51
358.876481
  0
ARC
  5
373
100
AcDbEntity
  8
M3
 62
     7
100
AcDbCircle
 10
83.951256
 20
301.542119
 40
0.5
100
AcDbArc
 50
0.0
 51
90.0
  0
ARC
  5
374
100
AcDbEntity
  8
M3
 62
     7
100
AcDbCircle
 10
81.751256
 20
284.942119
 40
1.0
100
AcDbArc
 50
180.0
 51
270.0
  0
ARC
  5
375
100
AcDbEntity
  8
M3
 62
     7
100
AcDbCircle
 10
106.301256
 20
291.442119
 40
2.25
100
AcDbArc
 50
270.0
 51
355.815286
  0
ARC
  5
376
100
AcDbEntity
  8
M3
 62
     7
100
AcDbCircle
 10
63.651256
 20
301.542119
 40
0.5
100
AcDbArc
 50
90.0
 51
180.0
  0
ARC
  5
377
100
AcDbEntity
  8
M3
 62
     7
100
AcDbCircle
 10
38.301256
 20
358.942119
 40
2.25
100
AcDbArc
 50
90.0
 51
270.0
  0
ARC
  5
378
100
AcDbEntity
  8
M3
 62
     7
100
AcDbCircle
 10
109.251256
 20
364.942119
 40
3.0
100
AcDbArc
 50
0.0
 51
90.0
  0
ARC
  5
379
100
AcDbEntity
  8
M3
 62
     7
100
AcDbCircle
 10
37.851256
 20
364.942119
 40
3.0
100
AcDbArc
 50
90.0
 51
180.0
  0
ARC
  5
37A
100
AcDbEntity
  8
M3
 62
     7
100
AcDbCircle
 10
86.651256
 20
284.942119
 40
1.0
100
AcDbArc
 50
270.0
 51
360.0
  0
ARC
  5
37B
100
AcDbEntity
  8
M3
 62
     7
100
AcDbCircle
 10
51.951256
 20
284.942119
 40
1.0
100
AcDbArc
 50
270.0
 51
360.0
  0
ARC
  5
37C
100
AcDbEntity
  8
M3
 62
     7
100
AcDbCircle
 10
45.901256
 20
285.942119
 40
0.5
100
AcDbArc
 50
180.0
 51
270.0
  0
ARC
  5
37D
100
AcDbEntity
  8
M3
 62
     7
100
AcDbCircle
 10
92.051256
 20
371.942119
 40
0.5
100
AcDbArc
 50
180.0
 51
270.0
  0
ARC
  5
37E
100
AcDbEntity
  8
M3
 62
     7
100
AcDbCircle
 10
55.551256
 20
371.942119
 40
0.5
100
AcDbArc
 50
270.0
 51
360.0
  0
ARC
  5
37F
100
AcDbEntity
  8
M3
 62
     7
100
AcDbCircle
 10
92.051256
 20
372.442119
 40
0.5
100
AcDbArc
 50
90.0
 51
180.0
  0
LINE
  5
380
100
AcDbEntity
  8
M3
 62
     7
100
AcDbLine
 10
65.851256
 20
302.042119
 11
64.151256
 21
302.042119
  0
LINE
  5
381
100
AcDbEntity
  8
M3
 62
     7
100
AcDbLine
 10
64.151256
 20
302.042119
 11
63.651256
 21
302.042119
  0
ARC
  5
382
100
AcDbEntity
  8
M3
 62
     7
100
AcDbCircle
 10
91.151256
 20
286.942119
 40
3.5
100
AcDbArc
 50
121.002719
 51
180.0
  0
LINE
  5
383
100
AcDbEntity
  8
M3
 62
     7
100
AcDbLine
 10
38.151256
 20
301.642118
 11
39.051256
 21
301.642118
  0
LINE
  5
384
100
AcDbEntity
  8
M3
 62
     7
100
AcDbLine
 10
46.551257
 20
332.642119
 11
45.551257
 21
332.642119
  0
LINE
  5
385
100
AcDbEntity
  8
M3
 62
     7
100
AcDbLine
 10
83.951256
 20
350.842118
 11
81.251256
 21
350.842118
  0
LINE
  5
386
100
AcDbEntity
  8
M3
 62
     7
100
AcDbLine
 10
66.351256
 20
302.042119
 11
65.851256
 21
302.042119
  0
LINE
  5
387
100
AcDbEntity
  8
M3
 62
     7
100
AcDbLine
 10
101.051255
 20
332.642119
 11
102.051256
 21
332.642119
  0
ARC
  5
388
100
AcDbEntity
  8
M3
 62
     7
100
AcDbCircle
 10
41.301256
 20
361.442119
 40
2.25
100
AcDbArc
 50
90.0
 51
178.876481
  0
ARC
  5
389
100
AcDbEntity
  8
M3
 62
     7
100
AcDbCircle
 10
55.551256
 20
372.442119
 40
0.5
100
AcDbArc
 50
0.0
 51
90.0
  0
ARC
  5
38A
100
AcDbEntity
  8
M3
 62
     7
100
AcDbCircle
 10
38.751746
 20
361.492119
 40
0.3
100
AcDbArc
 50
270.0
 51
358.876481
  0
ARC
  5
38B
100
AcDbEntity
  8
M3
 62
     7
100
AcDbCircle
 10
43.801256
 20
361.442119
 40
2.25
100
AcDbArc
 50
270.0
 51
450.0
  0
ARC
  5
38C
100
AcDbEntity
  8
M3
 62
     7
100
AcDbCircle
 10
63.651256
 20
351.342119
 40
0.5
100
AcDbArc
 50
180.0
 51
270.0
  0
ARC
  5
38D
100
AcDbEntity
  8
M3
 62
     7
100
AcDbCircle
 10
81.251256
 20
301.542119
 40
0.5
100
AcDbArc
 50
90.0
 51
180.0
  0
ARC
  5
38E
100
AcDbEntity
  8
M3
 62
     7
100
AcDbCircle
 10
42.350766
 20
358.892119
 40
0.3
100
AcDbArc
 50
90.0
 51
178.876481
  0
ARC
  5
38F
100
AcDbEntity
  8
M3
 62
     7
100
AcDbCircle
 10
45.551256
 20
321.242119
 40
1.0
100
AcDbArc
 50
180.0
 51
270.0
  0
LINE
  5
390
100
AcDbEntity
  8
M3
 62
     7
100
AcDbLine
 10
46.551257
 20
325.042119
 11
46.551257
 21
324.942119
  0
LINE
  5
391
100
AcDbEntity
  8
M3
 62
     7
100
AcDbLine
 10
49.251256
 20
303.542119
 11
48.251256
 21
303.542119
  0
LINE
  5
392
100
AcDbEntity
  8
M3
 62
     7
100
AcDbLine
 10
109.451256
 20
301.642118
 11
108.551256
 21
301.642118
  0
LINE
  5
393
100
AcDbEntity
  8
M3
 62
     7
100
AcDbLine
 10
47.251256
 20
327.842119
 11
45.551257
 21
327.842119
  0
LINE
  5
394
100
AcDbEntity
  8
M3
 62
     7
100
AcDbLine
 10
103.051256
 20
331.642119
 11
103.051256
 21
321.242119
  0
LINE
  5
395
100
AcDbEntity
  8
M3
 62
     7
100
AcDbLine
 10
49.251256
 20
288.942117
 11
49.251256
 21
303.542119
  0
LINE
  5
396
100
AcDbEntity
  8
M3
 62
     7
100
AcDbLine
 10
45.551257
 20
325.042119
 11
47.251256
 21
325.042119
  0
LINE
  5
397
100
AcDbEntity
  8
M3
 62
     7
100
AcDbLine
 10
44.551256
 20
331.642119
 11
44.551256
 21
321.242119
  0
LINE
  5
398
100
AcDbEntity
  8
M3
 62
     7
100
AcDbLine
 10
98.351256
 20
287.942119
 11
97.401257
 21
287.942119
  0
LINE
  5
399
100
AcDbEntity
  8
M3
 62
     7
100
AcDbLine
 10
98.351256
 20
286.942117
 11
97.401257
 21
286.942117
  0
LINE
  5
39A
100
AcDbEntity
  8
M3
 62
     7
100
AcDbLine
 10
46.551257
 20
320.242119
 11
46.551257
 21
284.942119
  0
LINE
  5
39B
100
AcDbEntity
  8
M3
 62
     7
100
AcDbLine
 10
46.551257
 20
285.442118
 11
45.901257
 21
285.442118
  0
LINE
  5
39C
100
AcDbEntity
  8
M3
 62
     7
100
AcDbLine
 10
110.551256
 20
299.09212
 11
110.451254
 21
299.09212
  0
LINE
  5
39D
100
AcDbEntity
  8
M3
 62
     7
100
AcDbLine
 10
102.551257
 20
301.642118
 11
101.651256
 21
301.642118
  0
LINE
  5
39E
100
AcDbEntity
  8
M3
 62
     7
100
AcDbLine
 10
98.351256
 20
285.442118
 11
97.401257
 21
285.442118
  0
LINE
  5
39F
100
AcDbEntity
  8
M3
 62
     7
100
AcDbLine
 10
35.351257
 20
350.242119
 11
34.851256
 21
355.242118
  0
ARC
  5
3A0
100
AcDbEntity
  8
M3
 62
     7
100
AcDbCircle
 10
52.351256
 20
371.942119
 40
1.0
100
AcDbArc
 50
0.0
 51
90.0
  0
ARC
  5
3A1
100
AcDbEntity
  8
M3
 62
     7
100
AcDbCircle
 10
60.951256
 20
284.942119
 40
1.0
100
AcDbArc
 50
180.0
 51
270.0
  0
LINE
  5
3A2
100
AcDbEntity
  8
M3
 62
     7
100
AcDbLine
 10
84.451256
 20
301.542118
 11
84.451256
 21
288.942117
  0
LINE
  5
3A3
100
AcDbEntity
  8
M3
 62
     7
100
AcDbLine
 10
98.351256
 20
288.942117
 11
98.351256
 21
303.542119
  0
ARC
  5
3A4
100
AcDbEntity
  8
M3
 62
     7
100
AcDbCircle
 10
51.201256
 20
284.942119
 40
1.0
100
AcDbArc
 50
180.0
 51
270.0
  0
ARC
  5
3A5
100
AcDbEntity
  8
M3
 62
     7
100
AcDbCircle
 10
52.351256
 20
371.942119
 40
1.0
100
AcDbArc
 50
90.0
 51
180.0
  0
ARC
  5
3A6
100
AcDbEntity
  8
M3
 62
     7
100
AcDbCircle
 10
61.701256
 20
284.942119
 40
1.0
100
AcDbArc
 50
270.0
 51
360.0
  0
ARC
  5
3A7
100
AcDbEntity
  8
M3
 62
     7
100
AcDbCircle
 10
95.651256
 20
284.942119
 40
1.0
100
AcDbArc
 50
180.0
 51
270.0
  0
LINE
  5
3A8
100
AcDbEntity
  8
M3
 62
     7
100
AcDbLine
 10
81.251256
 20
302.042119
 11
81.751257
 21
302.042119
  0
LINE
  5
3A9
100
AcDbEntity
  8
M3
 62
     7
100
AcDbLine
 10
102.051256
 20
320.242119
 11
101.051255
 21
320.242119
  0
LINE
  5
3AA
100
AcDbEntity
  8
M3
 62
     7
100
AcDbLine
 10
45.551257
 20
320.242119
 11
46.551257
 21
320.242119
  0
LINE
  5
3AB
100
AcDbEntity
  8
M3
 62
     7
100
AcDbLine
 10
46.551257
 20
327.842119
 11
46.551257
 21
327.942119
  0
LINE
  5
3AC
100
AcDbEntity
  8
M3
 62
     7
100
AcDbLine
 10
98.351256
 20
303.542119
 11
99.351256
 21
303.542119
  0
LINE
  5
3AD
100
AcDbEntity
  8
M3
 62
     7
100
AcDbLine
 10
83.451256
 20
302.042119
 11
83.951256
 21
302.042119
  0
LINE
  5
3AE
100
AcDbEntity
  8
M3
 62
     7
100
AcDbLine
 10
102.051256
 20
331.142119
 11
102.051256
 21
321.742119
  0
ARC
  5
3AF
100
AcDbEntity
  8
M3
 62
     7
100
AcDbCircle
 10
78.601256
 20
331.142119
 40
0.5
100
AcDbArc
 50
0.0
 51
90.0
  0
ARC
  5
3B0
100
AcDbEntity
  8
M3
 62
     7
100
AcDbCircle
 10
73.801255
 20
366.692119
 40
4.25
100
AcDbArc
 50
241.927521
 51
270.0
  0
ARC
  5
3B1
100
AcDbEntity
  8
M3
 62
     7
100
AcDbCircle
 10
72.551256
 20
323.742119
 40
0.5
100
AcDbArc
 50
180.0
 51
270.0
  0
ARC
  5
3B2
100
AcDbEntity
  8
M3
 62
     7
100
AcDbCircle
 10
73.801255
 20
366.692119
 40
4.25
100
AcDbArc
 50
241.927521
 51
298.072495
  0
ARC
  5
3B3
100
AcDbEntity
  8
M3
 62
     7
100
AcDbCircle
 10
89.351256
 20
362.442119
 40
1.0
100
AcDbArc
 50
30.0
 51
58.211672
  0
ARC
  5
3B4
100
AcDbEntity
  8
M3
 62
     7
100
AcDbCircle
 10
73.801256
 20
366.742119
 40
2.65
100
AcDbArc
 50
170.223151
 51
189.776849
  0
ARC
  5
3B5
100
AcDbEntity
  8
M3
 62
     7
100
AcDbCircle
 10
91.401256
 20
286.192119
 40
4.25
100
AcDbArc
 50
61.927513
 51
118.072487
  0
ARC
  5
3B6
100
AcDbEntity
  8
M3
 62
     7
100
AcDbCircle
 10
60.951256
 20
363.642119
 40
0.6
100
AcDbArc
 50
215.685335
 51
270.0
  0
ARC
  5
3B7
100
AcDbEntity
  8
M3
 62
     7
100
AcDbCircle
 10
75.051256
 20
323.742119
 40
0.5
100
AcDbArc
 50
270.0
 51
360.0
  0
ARC
  5
3B8
100
AcDbEntity
  8
M3
 62
     7
100
AcDbCircle
 10
91.401255
 20
366.692119
 40
4.25
100
AcDbArc
 50
241.927521
 51
298.072495
  0
ARC
  5
3B9
100
AcDbEntity
  8
M3
 62
     7
100
AcDbCircle
 10
69.001256
 20
331.142119
 40
0.5
100
AcDbArc
 50
90.0
 51
180.0
  0
ARC
  5
3BA
100
AcDbEntity
  8
M3
 62
     7
100
AcDbCircle
 10
69.001256
 20
321.742119
 40
0.5
100
AcDbArc
 50
180.0
 51
270.0
  0
ARC
  5
3BB
100
AcDbEntity
  8
M3
 62
     7
100
AcDbCircle
 10
91.401255
 20
366.692119
 40
4.25
100
AcDbArc
 50
241.927521
 51
270.0
  0
ARC
  5
3BC
100
AcDbEntity
  8
M3
 62
     7
100
AcDbCircle
 10
78.601256
 20
321.742119
 40
0.5
100
AcDbArc
 50
270.0
 51
360.0
  0
ARC
  5
3BD
100
AcDbEntity
  8
M3
 62
     7
100
AcDbCircle
 10
73.801256
 20
286.192119
 40
4.25
100
AcDbArc
 50
61.927513
 51
118.072487
  0
ARC
  5
3BE
100
AcDbEntity
  8
M3
 62
     7
100
AcDbCircle
 10
56.201256
 20
286.192119
 40
4.25
100
AcDbArc
 50
61.927513
 51
118.072487
  0
LINE
  5
3BF
100
AcDbEntity
  8
M3
 62
     7
100
AcDbLine
 10
46.551257
 20
321.942119
 11
47.551257
 21
321.942119
  0
LINE
  5
3C0
100
AcDbEntity
  8
M3
 62
     7
100
AcDbLine
 10
79.351256
 20
329.692119
 11
79.351256
 21
331.942119
  0
ARC
  5
3C1
100
AcDbEntity
  8
M3
 62
     7
100
AcDbCircle
 10
99.351256
 20
284.942119
 40
1.0
100
AcDbArc
 50
180.0
 51
270.0
  0
ARC
  5
3C2
100
AcDbEntity
  8
M3
 62
     7
100
AcDbCircle
 10
48.251256
 20
284.942119
 40
1.0
100
AcDbArc
 50
270.0
 51
360.0
  0
LINE
  5
3C3
100
AcDbEntity
  8
M3
 62
     7
100
AcDbLine
 10
68.251256
 20
331.942119
 11
68.251256
 21
329.692119
  0
LINE
  5
3C4
100
AcDbEntity
  8
M3
 62
     7
100
AcDbLine
 10
100.051255
 20
319.242119
 11
100.551256
 21
319.242119
  0
LINE
  5
3C5
100
AcDbEntity
  8
M3
 62
     7
100
AcDbLine
 10
82.001256
 20
315.442119
 11
80.351256
 21
315.442119
  0
LINE
  5
3C6
100
AcDbEntity
  8
M3
 62
     7
100
AcDbLine
 10
83.001256
 20
332.542119
 11
81.501256
 21
331.042119
  0
ARC
  5
3C7
100
AcDbEntity
  8
M3
 62
     7
100
AcDbCircle
 10
86.651256
 20
363.642119
 40
0.6
100
AcDbArc
 50
187.490122
 51
324.314617
  0
ARC
  5
3C8
100
AcDbEntity
  8
M3
 62
     7
100
AcDbCircle
 10
73.801256
 20
366.742119
 40
2.65
100
AcDbArc
 50
9.776849
 51
170.223151
  0
ARC
  5
3C9
100
AcDbEntity
  8
M3
 62
     7
100
AcDbCircle
 10
73.801256
 20
366.742119
 40
2.65
100
AcDbArc
 50
189.776849
 51
350.223151
  0
ARC
  5
3CA
100
AcDbEntity
  8
M3
 62
     7
100
AcDbCircle
 10
91.151256
 20
286.942119
 40
2.65
100
AcDbArc
 50
350.223151
 51
369.776849
  0
ARC
  5
3CB
100
AcDbEntity
  8
M3
 62
     7
100
AcDbCircle
 10
47.551256
 20
284.942119
 40
1.0
100
AcDbArc
 50
180.0
 51
270.0
  0
ARC
  5
3CC
100
AcDbEntity
  8
M3
 62
     7
100
AcDbCircle
 10
110.451256
 20
345.542119
 40
1.0
100
AcDbArc
 50
90.0
 51
180.0
  0
ARC
  5
3CD
100
AcDbEntity
  8
M3
 62
     7
100
AcDbCircle
 10
89.351256
 20
362.442119
 40
1.0
100
AcDbArc
 50
121.788346
 51
150.0
  0
ARC
  5
3CE
100
AcDbEntity
  8
M3
 62
     7
100
AcDbCircle
 10
73.801256
 20
366.742119
 40
2.65
100
AcDbArc
 50
350.223151
 51
369.776849
  0
LINE
  5
3CF
100
AcDbEntity
  8
M3
 62
     7
100
AcDbLine
 10
71.189743
 20
366.292119
 11
72.213805
 21
366.292119
  0
LINE
  5
3D0
100
AcDbEntity
  8
M3
 62
     7
100
AcDbLine
 10
91.601256
 20
288.142119
 11
90.701255
 21
288.142119
  0
LINE
  5
3D1
100
AcDbEntity
  8
M3
 62
     7
100
AcDbLine
 10
90.701255
 20
288.142119
 11
90.701255
 21
287.392117
  0
LINE
  5
3D2
100
AcDbEntity
  8
M3
 62
     7
100
AcDbLine
 10
91.601256
 20
285.742119
 11
91.601256
 21
286.49212
  0
LINE
  5
3D3
100
AcDbEntity
  8
M3
 62
     7
100
AcDbLine
 10
92.738706
 20
286.49212
 11
91.601256
 21
286.49212
  0
LINE
  5
3D4
100
AcDbEntity
  8
M3
 62
     7
100
AcDbLine
 10
74.251256
 20
367.192119
 11
74.251256
 21
367.942117
  0
LINE
  5
3D5
100
AcDbEntity
  8
M3
 62
     7
100
AcDbLine
 10
76.412769
 20
367.192119
 11
75.388707
 21
367.192119
  0
LINE
  5
3D6
100
AcDbEntity
  8
M3
 62
     7
100
AcDbLine
 10
75.388707
 20
366.292119
 11
76.412769
 21
366.292119
  0
LINE
  5
3D7
100
AcDbEntity
  8
M3
 62
     7
100
AcDbLine
 10
93.751257
 20
370.94212
 11
93.251256
 21
371.442121
  0
LINE
  5
3D8
100
AcDbEntity
  8
M3
 62
     7
100
AcDbLine
 10
93.751257
 20
362.942118
 11
93.751257
 21
370.94212
  0
LINE
  5
3D9
100
AcDbEntity
  8
M3
 62
     7
100
AcDbLine
 10
49.251256
 20
289.942119
 11
54.201256
 21
289.942119
  0
LINE
  5
3DA
100
AcDbEntity
  8
M3
 62
     7
100
AcDbLine
 10
78.601256
 20
321.242119
 11
79.351256
 21
321.242119
  0
LINE
  5
3DB
100
AcDbEntity
  8
M3
 62
     7
100
AcDbLine
 10
90.701255
 20
286.49212
 11
90.701255
 21
285.742119
  0
LINE
  5
3DC
100
AcDbEntity
  8
M3
 62
     7
100
AcDbLine
 10
72.213805
 20
367.192119
 11
71.189743
 21
367.192119
  0
LINE
  5
3DD
100
AcDbEntity
  8
M3
 62
     7
100
AcDbLine
 10
101.651256
 20
309.242118
 11
109.451256
 21
309.242118
  0
LINE
  5
3DE
100
AcDbEntity
  8
M3
 62
     7
100
AcDbLine
 10
91.601256
 20
287.392117
 11
92.738706
 21
287.392117
  0
LINE
  5
3DF
100
AcDbEntity
  8
M3
 62
     7
100
AcDbLine
 10
67.751256
 20
337.442119
 11
65.601256
 21
337.442119
  0
LINE
  5
3E0
100
AcDbEntity
  8
M3
 62
     7
100
AcDbLine
 10
54.351256
 20
371.442121
 11
53.851255
 21
370.94212
  0
LINE
  5
3E1
100
AcDbEntity
  8
M3
 62
     7
100
AcDbLine
 10
93.251256
 20
371.442121
 11
85.951256
 21
371.442121
  0
LINE
  5
3E2
100
AcDbEntity
  8
M3
 62
     7
100
AcDbLine
 10
73.351256
 20
366.292119
 11
72.213805
 21
366.292119
  0
LINE
  5
3E3
100
AcDbEntity
  8
M3
 62
     7
100
AcDbLine
 10
73.351256
 20
366.292119
 11
73.351256
 21
365.542117
  0
CIRCLE
  5
3E4
100
AcDbEntity
  8
M3
 62
     7
100
AcDbCircle
 10
91.151256
 20
286.942119
 40
2.825
  0
LINE
  5
3E5
100
AcDbEntity
  8
M3
 62
     7
100
AcDbLine
 10
53.851255
 20
370.94212
 11
53.851255
 21
362.942118
  0
LINE
  5
3E6
100
AcDbEntity
  8
M3
 62
     7
100
AcDbLine
 10
75.388707
 20
366.292119
 11
74.251256
 21
366.292119
  0
LINE
  5
3E7
100
AcDbEntity
  8
M3
 62
     7
100
AcDbLine
 10
74.251256
 20
367.942117
 11
73.351256
 21
367.942117
  0
LINE
  5
3E8
100
AcDbEntity
  8
M3
 62
     7
100
AcDbLine
 10
61.651256
 20
371.442121
 11
53.351256
 21
371.442121
  0
LINE
  5
3E9
100
AcDbEntity
  8
M3
 62
     7
100
AcDbLine
 10
90.701255
 20
286.49212
 11
89.563805
 21
286.49212
  0
LINE
  5
3EA
100
AcDbEntity
  8
M3
 62
     7
100
AcDbLine
 10
74.251256
 20
365.542117
 11
74.251256
 21
366.292119
  0
LINE
  5
3EB
100
AcDbEntity
  8
M3
 62
     7
100
AcDbLine
 10
74.251256
 20
367.192119
 11
75.388707
 21
367.192119
  0
LINE
  5
3EC
100
AcDbEntity
  8
M3
 62
     7
100
AcDbLine
 10
73.351256
 20
367.942117
 11
73.351256
 21
367.192119
  0
LINE
  5
3ED
100
AcDbEntity
  8
M3
 62
     7
100
AcDbLine
 10
73.351256
 20
365.542117
 11
74.251256
 21
365.542117
  0
LINE
  5
3EE
100
AcDbEntity
  8
M3
 62
     7
100
AcDbLine
 10
102.551257
 20
351.192119
 11
102.551257
 21
352.24212
  0
ARC
  5
3EF
100
AcDbEntity
  8
M3
 62
     7
100
AcDbCircle
 10
109.751256
 20
286.942119
 40
3.0
100
AcDbArc
 50
270.0
 51
360.0
  0
LINE
  5
3F0
100
AcDbEntity
  8
M3
 62
     7
100
AcDbLine
 10
108.551256
 20
352.24212
 11
108.551256
 21
351.192119
  0
LINE
  5
3F1
100
AcDbEntity
  8
M3
 62
     7
100
AcDbLine
 10
38.303762
 20
350.742118
 11
38.151256
 21
350.742118
  0
ARC
  5
3F2
100
AcDbEntity
  8
M3
 62
     7
100
AcDbCircle
 10
37.151256
 20
345.542119
 40
1.0
100
AcDbArc
 50
0.0
 51
90.0
  0
ARC
  5
3F3
100
AcDbEntity
  8
M3
 62
     7
100
AcDbCircle
 10
105.252744
 20
293.992119
 40
0.3
100
AcDbArc
 50
270.0
 51
360.0
  0
ARC
  5
3F4
100
AcDbEntity
  8
M3
 62
     7
100
AcDbCircle
 10
107.801256
 20
293.942119
 40
2.25
100
AcDbArc
 50
89.957854
 51
177.916058
  0
ARC
  5
3F5
100
AcDbEntity
  8
M3
 62
     7
100
AcDbCircle
 10
38.351256
 20
286.942119
 40
3.0
100
AcDbArc
 50
180.0
 51
270.0
  0
LINE
  5
3F6
100
AcDbEntity
  8
M3
 62
     7
100
AcDbLine
 10
61.651256
 20
362.942118
 11
61.651256
 21
371.942118
  0
LINE
  5
3F7
100
AcDbEntity
  8
M3
 62
     7
100
AcDbLine
 10
56.251255
 20
371.442121
 11
56.251255
 21
372.442119
  0
LINE
  5
3F8
100
AcDbEntity
  8
M3
 62
     7
100
AcDbLine
 10
84.451256
 20
349.142119
 11
84.451256
 21
371.442121
  0
LINE
  5
3F9
100
AcDbEntity
  8
M3
 62
     7
100
AcDbLine
 10
53.551256
 20
362.942118
 11
53.551256
 21
363.94212
  0
LINE
  5
3FA
100
AcDbEntity
  8
M3
 62
     7
100
AcDbLine
 10
39.051256
 20
351.192119
 11
39.051256
 21
352.24212
  0
LINE
  5
3FB
100
AcDbEntity
  8
M3
 62
     7
100
AcDbLine
 10
102.551257
 20
352.24212
 11
108.551256
 21
352.24212
  0
LINE
  5
3FC
100
AcDbEntity
  8
M3
 62
     7
100
AcDbLine
 10
39.051256
 20
352.24212
 11
45.051256
 21
352.24212
  0
LINE
  5
3FD
100
AcDbEntity
  8
M3
 62
     7
100
AcDbLine
 10
45.051256
 20
352.24212
 11
45.051256
 21
351.192119
  0
ARC
  5
3FE
100
AcDbEntity
  8
M3
 62
     7
100
AcDbCircle
 10
65.601256
 20
318.942119
 40
1.0
100
AcDbArc
 50
90.0
 51
180.0
  0
ARC
  5
3FF
100
AcDbEntity
  8
M3
 62
     7
100
AcDbCircle
 10
100.551256
 20
318.742119
 40
0.5
100
AcDbArc
 50
0.0
 51
90.0
  0
ARC
  5
400
100
AcDbEntity
  8
M3
 62
     7
100
AcDbCircle
 10
65.601256
 20
336.442119
 40
1.0
100
AcDbArc
 50
90.0
 51
180.0
  0
ARC
  5
401
100
AcDbEntity
  8
M3
 62
     7
100
AcDbCircle
 10
47.551256
 20
304.742119
 40
1.0
100
AcDbArc
 50
180.0
 51
270.0
  0
LINE
  5
402
100
AcDbEntity
  8
M3
 62
     7
100
AcDbLine
 10
99.351256
 20
368.942119
 11
99.851252
 21
368.942119
  0
LINE
  5
403
100
AcDbEntity
  8
M3
 62
     7
100
AcDbLine
 10
45.551257
 20
331.142119
 11
45.551257
 21
321.742119
  0
LINE
  5
404
100
AcDbEntity
  8
M3
 62
     7
100
AcDbLine
 10
78.851256
 20
335.942118
 11
68.751256
 21
335.942118
  0
LINE
  5
405
100
AcDbEntity
  8
M3
 62
     7
100
AcDbLine
 10
79.351256
 20
331.942119
 11
68.251256
 21
331.942119
  0
ARC
  5
406
100
AcDbEntity
  8
M3
 62
     7
100
AcDbCircle
 10
100.051256
 20
304.742119
 40
1.0
100
AcDbArc
 50
270.0
 51
360.0
  0
ARC
  5
407
100
AcDbEntity
  8
M3
 62
     7
100
AcDbCircle
 10
82.001256
 20
316.442119
 40
1.0
100
AcDbArc
 50
270.0
 51
360.0
  0
ARC
  5
408
100
AcDbEntity
  8
M3
 62
     7
100
AcDbCircle
 10
67.251256
 20
316.442119
 40
1.0
100
AcDbArc
 50
270.0
 51
360.0
  0
ARC
  5
409
100
AcDbEntity
  8
M3
 62
     7
100
AcDbCircle
 10
80.351256
 20
316.442119
 40
1.0
100
AcDbArc
 50
180.0
 51
270.0
  0
ARC
  5
40A
100
AcDbEntity
  8
M3
 62
     7
100
AcDbCircle
 10
82.001256
 20
336.442119
 40
1.0
100
AcDbArc
 50
0.0
 51
90.0
  0
ARC
  5
40B
100
AcDbEntity
  8
M3
 62
     7
100
AcDbCircle
 10
68.251256
 20
332.442119
 40
0.5
100
AcDbArc
 50
270.0
 51
360.0
  0
ARC
  5
40C
100
AcDbEntity
  8
M3
 62
     7
100
AcDbCircle
 10
65.601256
 20
316.442119
 40
1.0
100
AcDbArc
 50
180.0
 51
270.0
  0
ARC
  5
40D
100
AcDbEntity
  8
M3
 62
     7
100
AcDbCircle
 10
47.051256
 20
318.742119
 40
0.5
100
AcDbArc
 50
90.0
 51
180.0
  0
LINE
  5
40E
100
AcDbEntity
  8
M3
 62
     7
100
AcDbLine
 10
80.351256
 20
315.442119
 11
67.251256
 21
315.442119
  0
LINE
  5
40F
100
AcDbEntity
  8
M3
 62
     7
100
AcDbLine
 10
81.501256
 20
331.042119
 11
81.501256
 21
319.942119
  0
LINE
  5
410
100
AcDbEntity
  8
M3
 62
     7
100
AcDbLine
 10
68.001256
 20
323.692119
 11
68.251256
 21
323.192119
  0
LINE
  5
411
100
AcDbEntity
  8
M3
 62
     7
100
AcDbLine
 10
45.551257
 20
331.142119
 11
47.551257
 21
331.142119
  0
LINE
  5
412
100
AcDbEntity
  8
M3
 62
     7
100
AcDbLine
 10
67.101256
 20
337.442119
 11
65.601256
 21
337.442119
  0
LINE
  5
413
100
AcDbEntity
  8
M3
 62
     7
100
AcDbLine
 10
68.001256
 20
329.192119
 11
68.001256
 21
323.692119
  0
LINE
  5
414
100
AcDbEntity
  8
M3
 62
     7
100
AcDbLine
 10
67.251256
 20
315.442119
 11
65.601256
 21
315.442119
  0
LINE
  5
415
100
AcDbEntity
  8
M3
 62
     7
100
AcDbLine
 10
81.501256
 20
315.442119
 11
82.001256
 21
315.442119
  0
LINE
  5
416
100
AcDbEntity
  8
M3
 62
     7
100
AcDbLine
 10
65.601256
 20
319.942119
 11
66.101256
 21
319.942119
  0
LINE
  5
417
100
AcDbEntity
  8
M3
 62
     7
100
AcDbLine
 10
79.351256
 20
316.442119
 11
79.351256
 21
323.192119
  0
LINE
  5
418
100
AcDbEntity
  8
M3
 62
     7
100
AcDbLine
 10
72.213805
 20
367.192119
 11
73.351256
 21
367.192119
  0
LINE
  5
419
100
AcDbEntity
  8
M3
 62
     7
100
AcDbLine
 10
83.001256
 20
336.442119
 11
83.001256
 21
316.442119
  0
LINE
  5
41A
100
AcDbEntity
  8
M3
 62
     7
100
AcDbLine
 10
79.351256
 20
323.192119
 11
79.601256
 21
323.692119
  0
LINE
  5
41B
100
AcDbEntity
  8
M3
 62
     7
100
AcDbLine
 10
68.251256
 20
323.192119
 11
68.251256
 21
316.442119
  0
LINE
  5
41C
100
AcDbEntity
  8
M3
 62
     7
100
AcDbLine
 10
48.251256
 20
349.142119
 11
48.251256
 21
349.342119
  0
LINE
  5
41D
100
AcDbEntity
  8
M3
 62
     7
100
AcDbLine
 10
66.101256
 20
315.442119
 11
65.601256
 21
315.442119
  0
LINE
  5
41E
100
AcDbEntity
  8
M3
 62
     7
100
AcDbLine
 10
109.451256
 20
343.642119
 11
101.651256
 21
343.642119
  0
LINE
  5
41F
100
AcDbEntity
  8
M3
 62
     7
100
AcDbLine
 10
84.451256
 20
371.442121
 11
63.151256
 21
371.442121
  0
LINE
  5
420
100
AcDbEntity
  8
M3
 62
     7
100
AcDbLine
 10
85.951256
 20
371.942118
 11
85.951256
 21
362.942118
  0
LINE
  5
421
100
AcDbEntity
  8
M3
 62
     7
100
AcDbLine
 10
52.351256
 20
372.94212
 11
95.251256
 21
372.94212
  0
LINE
  5
422
100
AcDbEntity
  8
M3
 62
     7
100
AcDbLine
 10
80.501256
 20
337.442119
 11
82.001256
 21
337.442119
  0
LINE
  5
423
100
AcDbEntity
  8
M3
 62
     7
100
AcDbLine
 10
91.351257
 20
372.442119
 11
91.351257
 21
371.442121
  0
LINE
  5
424
100
AcDbEntity
  8
M3
 62
     7
100
AcDbLine
 10
45.951256
 20
343.642119
 11
38.151256
 21
343.642119
  0
LINE
  5
425
100
AcDbEntity
  8
M3
 62
     7
100
AcDbLine
 10
45.051256
 20
300.642118
 11
39.051256
 21
300.642118
  0
LINE
  5
426
100
AcDbEntity
  8
M3
 62
     7
100
AcDbLine
 10
79.601256
 20
323.692119
 11
79.601256
 21
329.192119
  0
LINE
  5
427
100
AcDbEntity
  8
M3
 62
     7
100
AcDbLine
 10
81.501256
 20
319.942119
 11
82.001256
 21
319.942119
  0
LINE
  5
428
100
AcDbEntity
  8
M3
 62
     7
100
AcDbLine
 10
79.601256
 20
329.192119
 11
79.351256
 21
329.692119
  0
LINE
  5
429
100
AcDbEntity
  8
M3
 62
     7
100
AcDbLine
 10
66.101256
 20
331.042119
 11
66.101256
 21
319.942119
  0
LINE
  5
42A
100
AcDbEntity
  8
M3
 62
     7
100
AcDbLine
 10
39.051256
 20
300.642118
 11
39.051256
 21
301.692119
  0
LINE
  5
42B
100
AcDbEntity
  8
M3
 62
     7
100
AcDbLine
 10
94.051256
 20
363.94212
 11
94.051256
 21
362.942118
  0
LINE
  5
42C
100
AcDbEntity
  8
M3
 62
     7
100
AcDbLine
 10
68.251256
 20
329.692119
 11
68.001256
 21
329.192119
  0
LINE
  5
42D
100
AcDbEntity
  8
M3
 62
     7
100
AcDbLine
 10
45.051256
 20
301.692119
 11
45.051256
 21
300.642118
  0
HATCH
  5
42E
100
AcDbEntity
  8
M3
 62
     7
100
AcDbHatch
 10
0.0
 20
0.0
210
0.0
220
0.0
230
1.0
  2
SOLID
 70
     1
 71
     0
 91
        1
 92
        1
 93
        4
 72
     1
 10
177.634607
 20
374.862241
 11
175.634607
 21
374.862241
 72
     1
 10
175.634607
 20
374.862241
 11
175.634607
 21
356.662241
 72
     1
 10
175.634607
 20
356.662241
 11
177.634607
 21
356.662241
 72
     1
 10
177.634607
 20
356.662241
 11
177.634607
 21
374.862241
 97
        0
 75
     0
 76
     1
 98
        1
 10
0.0
 20
0.0
  0
LINE
  5
431
100
AcDbEntity
  8
M3
  6
DASHED
 62
     7
100
AcDbLine
 10
235.234608
 20
364.442107
 11
235.234608
 21
372.942109
  0
LINE
  5
432
100
AcDbEntity
  8
M3
  6
DASHED
 62
     7
100
AcDbLine
 10
236.234608
 20
372.942109
 11
236.234608
 21
364.442107
  0
LINE
  5
433
100
AcDbEntity
  8
M3
  6
DASHDOT
 62
     7
100
AcDbLine
 10
113.898662
 20
106.89738
 11
105.703853
 21
106.89738
  0
LINE
  5
434
100
AcDbEntity
  8
M3
  6
DASHDOT
 62
     7
100
AcDbLine
 10
109.801249
 20
110.994777
 11
109.801265
 21
102.799968
  0
LINE
  5
435
100
AcDbEntity
  8
M3
  6
DASHDOT
 62
     7
100
AcDbLine
 10
42.898662
 20
171.89738
 11
34.703853
 21
171.89738
  0
LINE
  5
436
100
AcDbEntity
  8
M3
  6
DASHDOT
 62
     7
100
AcDbLine
 10
38.801249
 20
175.994777
 11
38.801265
 21
167.799968
  0
CIRCLE
  5
437
100
AcDbEntity
  8
M3
 62
     7
100
AcDbCircle
 10
109.801257
 20
106.89738
 40
1.7
  0
CIRCLE
  5
438
100
AcDbEntity
  8
M3
 62
     7
100
AcDbCircle
 10
109.801257
 20
106.89738
 40
2.0
  0
CIRCLE
  5
439
100
AcDbEntity
  8
M3
 62
     7
100
AcDbCircle
 10
38.801257
 20
171.89738
 40
2.0
  0
CIRCLE
  5
43A
100
AcDbEntity
  8
M3
 62
     7
100
AcDbCircle
 10
38.801257
 20
171.89738
 40
1.7
  0
LINE
  5
43B
100
AcDbEntity
  8
M3
  6
DIVIDE
 62
     7
100
AcDbLine
 10
51.851257
 20
181.89738
 11
35.351257
 21
181.89738
  0
LINE
  5
43C
100
AcDbEntity
  8
M3
  6
DIVIDE
 62
     7
100
AcDbLine
 10
35.351257
 20
181.89738
 11
35.351257
 21
96.89738
  0
LINE
  5
43D
100
AcDbEntity
  8
M3
  6
DIVIDE
 62
     7
100
AcDbLine
 10
51.851257
 20
181.89738
 11
51.851257
 21
185.897381
  0
LINE
  5
43E
100
AcDbEntity
  8
M3
  6
DIVIDE
 62
     7
100
AcDbLine
 10
96.751257
 20
181.89738
 11
96.751257
 21
185.897381
  0
LINE
  5
43F
100
AcDbEntity
  8
M3
  6
DIVIDE
 62
     7
100
AcDbLine
 10
96.751257
 20
181.89738
 11
113.251257
 21
181.89738
  0
LINE
  5
440
100
AcDbEntity
  8
M3
  6
DIVIDE
 62
     7
100
AcDbLine
 10
51.851257
 20
185.897381
 11
96.751257
 21
185.897381
  0
LINE
  5
441
100
AcDbEntity
  8
M3
  6
DIVIDE
 62
     7
100
AcDbLine
 10
113.251257
 20
96.89738
 11
113.251257
 21
181.89738
  0
LINE
  5
442
100
AcDbEntity
  8
M3
  6
DIVIDE
 62
     7
100
AcDbLine
 10
113.251257
 20
96.89738
 11
35.351257
 21
96.897381
  0
LINE
  5
443
100
AcDbEntity
  8
M3
 62
     7
100
AcDbLine
 10
184.634608
 20
319.942109
 11
184.634608
 21
315.44211
  0
LINE
  5
444
100
AcDbEntity
  8
M3
 62
     7
100
AcDbLine
 10
234.034609
 20
320.242109
 11
235.834608
 21
320.242109
  0
LINE
  5
445
100
AcDbEntity
  8
M3
 62
     7
100
AcDbLine
 10
183.134604
 20
319.942109
 11
184.634608
 21
319.942109
  0
LINE
  5
446
100
AcDbEntity
  8
M3
 62
     7
100
AcDbLine
 10
235.834608
 20
283.942109
 11
235.834608
 21
320.442109
  0
LINE
  5
447
100
AcDbEntity
  8
M3
 62
     7
100
AcDbLine
 10
183.634605
 20
337.442109
 11
186.934609
 21
337.442109
  0
LINE
  5
448
100
AcDbEntity
  8
M3
 62
     7
100
AcDbLine
 10
233.534608
 20
332.14211
 11
233.534608
 21
329.642109
  0
LINE
  5
449
100
AcDbEntity
  8
M3
 62
     7
100
AcDbLine
 10
221.334607
 20
323.742109
 11
233.034607
 21
323.742109
  0
LINE
  5
44A
100
AcDbEntity
  8
M3
 62
     7
100
AcDbLine
 10
182.634611
 20
315.94211
 11
182.634611
 21
336.94211
  0
LINE
  5
44B
100
AcDbEntity
  8
M3
 62
     7
100
AcDbLine
 10
183.634605
 20
337.442109
 11
183.134604
 21
337.442109
  0
LINE
  5
44C
100
AcDbEntity
  8
M3
 62
     7
100
AcDbLine
 10
183.134604
 20
315.44211
 11
186.934609
 21
315.44211
  0
ARC
  5
44D
100
AcDbEntity
  8
M3
 62
     7
100
AcDbCircle
 10
234.334608
 20
331.94211
 40
0.5
100
AcDbArc
 50
90.0
 51
180.0
  0
LINE
  5
44E
100
AcDbEntity
  8
M3
 62
     7
100
AcDbLine
 10
243.234609
 20
346.542109
 11
235.834608
 21
346.542109
  0
ARC
  5
44F
100
AcDbEntity
  8
M3
 62
     7
100
AcDbCircle
 10
233.034608
 20
323.24211
 40
0.5
100
AcDbArc
 50
0.0
 51
90.0
  0
ARC
  5
450
100
AcDbEntity
  8
M3
 62
     7
100
AcDbCircle
 10
227.231877
 20
350.79211
 40
3.0
100
AcDbArc
 50
49.635463
 51
90.0
  0
ARC
  5
451
100
AcDbEntity
  8
M3
 62
     7
100
AcDbCircle
 10
234.034608
 20
320.74211
 40
0.5
100
AcDbArc
 50
180.0
 51
270.0
  0
LINE
  5
452
100
AcDbEntity
  8
M3
 62
     7
100
AcDbLine
 10
184.634608
 20
331.04211
 11
183.134604
 21
331.04211
  0
LINE
  5
453
100
AcDbEntity
  8
M3
 62
     7
100
AcDbLine
 10
235.834608
 20
283.942109
 11
230.134608
 21
283.942109
  0
LINE
  5
454
100
AcDbEntity
  8
M3
 62
     7
100
AcDbLine
 10
234.334607
 20
332.44211
 11
235.834608
 21
332.44211
  0
LINE
  5
455
100
AcDbEntity
  8
M3
 62
     7
100
AcDbLine
 10
260.034608
 20
301.642109
 11
235.834608
 21
301.642109
  0
LINE
  5
456
100
AcDbEntity
  8
M3
 62
     7
100
AcDbLine
 10
184.634608
 20
332.542109
 11
184.634608
 21
331.04211
  0
ARC
  5
457
100
AcDbEntity
  8
M3
 62
     7
100
AcDbCircle
 10
221.334608
 20
324.24211
 40
0.5
100
AcDbArc
 50
180.0
 51
270.0
  0
ARC
  5
458
100
AcDbEntity
  8
M3
 62
     7
100
AcDbCircle
 10
187.434608
 20
318.74211
 40
0.5
100
AcDbArc
 50
90.0
 51
180.0
  0
ARC
  5
459
100
AcDbEntity
  8
M3
 62
     7
100
AcDbCircle
 10
187.434608
 20
334.14211
 40
0.5
100
AcDbArc
 50
180.0
 51
270.0
  0
ARC
  5
45A
100
AcDbEntity
  8
M3
 62
     7
100
AcDbCircle
 10
221.334608
 20
328.64211
 40
0.5
100
AcDbArc
 50
90.0
 51
180.0
  0
ARC
  5
45B
100
AcDbEntity
  8
M3
 62
     7
100
AcDbCircle
 10
190.634608
 20
321.24211
 40
1.0
100
AcDbArc
 50
180.0
 51
270.0
  0
ARC
  5
45C
100
AcDbEntity
  8
M3
 62
     7
100
AcDbCircle
 10
187.934608
 20
304.74211
 40
1.0
100
AcDbArc
 50
180.0
 51
270.0
  0
LINE
  5
45D
100
AcDbEntity
  8
M3
 62
     7
100
AcDbLine
 10
195.734609
 20
346.542109
 11
207.134608
 21
346.542109
  0
LINE
  5
45E
100
AcDbEntity
  8
M3
 62
     7
100
AcDbLine
 10
231.334608
 20
351.24211
 11
235.834608
 21
351.24211
  0
LINE
  5
45F
100
AcDbEntity
  8
M3
 62
     7
100
AcDbLine
 10
233.534608
 20
323.24211
 11
233.534608
 21
320.742109
  0
LINE
  5
460
100
AcDbEntity
  8
M3
 62
     7
100
AcDbLine
 10
195.734609
 20
322.74211
 11
195.734609
 21
330.14211
  0
LINE
  5
461
100
AcDbEntity
  8
M3
 62
     7
100
AcDbLine
 10
235.834608
 20
332.44211
 11
235.834608
 21
359.442109
  0
LINE
  5
462
100
AcDbEntity
  8
M3
 62
     7
100
AcDbLine
 10
187.934611
 20
349.14211
 11
189.63461
 21
349.14211
  0
ELLIPSE
  5
463
100
AcDbEntity
  8
M3
 62
     7
100
AcDbEllipse
 10
183.134608
 20
332.749216
 11
-0.5
 21
0.0
210
0.0
220
0.0
230
1.0
 40
0.414214
 41
0.0
 42
1.570796326794897
  0
LINE
  5
464
100
AcDbEntity
  8
M3
 62
     7
100
AcDbLine
 10
189.63461
 20
327.94211
 11
186.934609
 21
327.94211
  0
LINE
  5
465
100
AcDbEntity
  8
M3
 62
     7
100
AcDbLine
 10
220.834609
 20
328.642109
 11
220.834609
 21
324.24211
  0
LINE
  5
466
100
AcDbEntity
  8
M3
 62
     7
100
AcDbLine
 10
189.63461
 20
333.642109
 11
187.43461
 21
333.642109
  0
ARC
  5
467
100
AcDbEntity
  8
M3
 62
     7
100
AcDbCircle
 10
186.434608
 20
311.94211
 40
0.5
100
AcDbArc
 50
180.0
 51
270.0
  0
ARC
  5
468
100
AcDbEntity
  8
M3
 62
     7
100
AcDbCircle
 10
227.231877
 20
302.09211
 40
3.0
100
AcDbArc
 50
270.0
 51
310.364537
  0
ARC
  5
469
100
AcDbEntity
  8
M3
 62
     7
100
AcDbCircle
 10
233.034608
 20
329.64211
 40
0.5
100
AcDbArc
 50
270.0
 51
360.0
  0
ARC
  5
46A
100
AcDbEntity
  8
M3
 62
     7
100
AcDbCircle
 10
186.434608
 20
312.94211
 40
0.5
100
AcDbArc
 50
90.0
 51
180.0
  0
ARC
  5
46B
100
AcDbEntity
  8
M3
 62
     7
100
AcDbCircle
 10
220.391967
 20
286.94211
 40
3.0
100
AcDbArc
 50
270.0
 51
315.0
  0
LINE
  5
46C
100
AcDbEntity
  8
M3
 62
     7
100
AcDbLine
 10
186.934609
 20
330.942109
 11
189.63461
 21
330.942109
  0
LINE
  5
46D
100
AcDbEntity
  8
M3
  6
DASHED
 62
     7
100
AcDbLine
 10
172.034608
 20
304.042112
 11
156.934607
 21
304.042112
  0
LINE
  5
46E
100
AcDbEntity
  8
M3
  6
DASHED
 62
     7
100
AcDbLine
 10
172.034608
 20
350.842113
 11
156.934607
 21
350.842113
  0
LINE
  5
46F
100
AcDbEntity
  8
M3
  6
DASHED
 62
     7
100
AcDbLine
 10
208.634608
 20
360.941896
 11
209.634608
 21
360.941933
  0
LINE
  5
470
100
AcDbEntity
  8
M3
  6
DASHED
 62
     7
100
AcDbLine
 10
207.334559
 20
351.442602
 11
208.634608
 21
351.442602
  0
LINE
  5
471
100
AcDbEntity
  8
M3
  6
DASHED
 62
     7
100
AcDbLine
 10
208.634608
 20
350.941896
 11
209.634608
 21
350.941933
  0
LINE
  5
472
100
AcDbEntity
  8
M3
  6
DASHED
 62
     7
100
AcDbLine
 10
152.934608
 20
308.042112
 11
152.934608
 21
346.842112
  0
LINE
  5
473
100
AcDbEntity
  8
M3
  6
DASHED
 62
     7
100
AcDbLine
 10
205.494959
 20
351.603536
 11
207.334559
 21
351.442617
  0
LINE
  5
474
100
AcDbEntity
  8
M3
  6
DASHED
 62
     7
100
AcDbLine
 10
151.334608
 20
328.742112
 11
151.334608
 21
325.942112
  0
LINE
  5
475
100
AcDbEntity
  8
M3
  6
DASHED
 62
     7
100
AcDbLine
 10
151.334608
 20
328.742112
 11
152.934608
 21
328.742112
  0
LINE
  5
476
100
AcDbEntity
  8
M3
  6
DASHED
 62
     7
100
AcDbLine
 10
177.034608
 20
309.742118
 11
177.034608
 21
309.042112
  0
ARC
  5
477
100
AcDbEntity
  8
M3
  6
DASHED
 62
     7
100
AcDbCircle
 10
205.634608
 20
353.197439
 40
1.599998
100
AcDbArc
 50
179.999966
 51
264.99283
  0
ARC
  5
478
100
AcDbEntity
  8
M3
  6
DASHED
 62
     7
100
AcDbCircle
 10
205.634608
 20
358.687765
 40
1.599998
100
AcDbArc
 50
95.007035
 51
179.999966
  0
ARC
  5
479
100
AcDbEntity
  8
M3
  6
DASHED
 62
     7
100
AcDbCircle
 10
186.434608
 20
310.242118
 40
0.5
100
AcDbArc
 50
270.0
 51
360.0
  0
ARC
  5
47A
100
AcDbEntity
  8
M3
  6
DASHED
 62
     7
100
AcDbCircle
 10
172.034608
 20
309.042112
 40
5.0
100
AcDbArc
 50
270.0
 51
360.0
  0
ARC
  5
47B
100
AcDbEntity
  8
M3
  6
DASHED
 62
     7
100
AcDbCircle
 10
186.434608
 20
344.642106
 40
0.5
100
AcDbArc
 50
0.0
 51
90.0
  0
LINE
  5
47C
100
AcDbEntity
  8
M3
  6
DASHED
 62
     7
100
AcDbLine
 10
219.634608
 20
353.442373
 11
219.634608
 21
358.442309
  0
LINE
  5
47D
100
AcDbEntity
  8
M3
  6
DASHED
 62
     7
100
AcDbLine
 10
208.634608
 20
360.941896
 11
208.634608
 21
350.941896
  0
LINE
  5
47E
100
AcDbEntity
  8
M3
  6
DASHED
 62
     7
100
AcDbLine
 10
211.634608
 20
353.442373
 11
219.634608
 21
353.442373
  0
ARC
  5
47F
100
AcDbEntity
  8
M3
  6
DASHED
 62
     7
100
AcDbCircle
 10
156.934608
 20
308.042112
 40
4.0
100
AcDbArc
 50
180.0
 51
270.0
  0
ARC
  5
480
100
AcDbEntity
  8
M3
  6
DASHED
 62
     7
100
AcDbCircle
 10
156.934608
 20
346.842112
 40
4.0
100
AcDbArc
 50
90.0
 51
180.0
  0
ARC
  5
481
100
AcDbEntity
  8
M3
  6
DASHED
 62
     7
100
AcDbCircle
 10
172.034608
 20
345.842112
 40
5.0
100
AcDbArc
 50
0.0
 51
90.0
  0
LINE
  5
482
100
AcDbEntity
  8
M3
  6
DASHED
 62
     7
100
AcDbLine
 10
152.934608
 20
325.942112
 11
151.334608
 21
325.942112
  0
LINE
  5
483
100
AcDbEntity
  8
M3
  6
DASHED
 62
     7
100
AcDbLine
 10
186.434608
 20
345.142106
 11
177.034608
 21
345.142106
  0
LINE
  5
484
100
AcDbEntity
  8
M3
  6
DASHED
 62
     7
100
AcDbLine
 10
177.034608
 20
345.142106
 11
177.034608
 21
345.842112
  0
LINE
  5
485
100
AcDbEntity
  8
M3
  6
DASHED
 62
     7
100
AcDbLine
 10
185.234608
 20
347.142112
 11
185.834609
 21
345.142106
  0
LINE
  5
486
100
AcDbEntity
  8
M3
  6
DASHED
 62
     7
100
AcDbLine
 10
184.834607
 20
345.142106
 11
184.834607
 21
347.142112
  0
ELLIPSE
  5
487
100
AcDbEntity
  8
M3
 62
     7
100
AcDbEllipse
 10
183.134608
 20
331.249216
 11
-0.5
 21
0.0
210
0.0
220
0.0
230
1.0
 40
0.414214
 41
0.0
 42
1.570796326794897
  0
ARC
  5
488
100
AcDbEntity
  8
M3
 62
     7
100
AcDbCircle
 10
234.334608
 20
320.94211
 40
0.5
100
AcDbArc
 50
180.0
 51
270.0
  0
LINE
  5
489
100
AcDbEntity
  8
M3
  6
DASHED
 62
     7
100
AcDbLine
 10
219.634608
 20
358.442309
 11
211.634608
 21
358.442008
  0
LINE
  5
48A
100
AcDbEntity
  8
M3
 62
     7
100
AcDbLine
 10
177.634607
 20
356.662241
 11
177.634607
 21
374.862241
  0
ARC
  5
48B
100
AcDbEntity
  8
M3
 62
     7
100
AcDbCircle
 10
195.734608
 20
343.54211
 40
3.0
100
AcDbArc
 50
90.0
 51
180.0
  0
LINE
  5
48C
100
AcDbEntity
  8
M3
 62
     7
100
AcDbLine
 10
234.334607
 20
320.442109
 11
235.834608
 21
320.442109
  0
LINE
  5
48D
100
AcDbEntity
  8
M3
 62
     7
100
AcDbLine
 10
184.634608
 20
336.442109
 11
184.634608
 21
332.542109
  0
LINE
  5
48E
100
AcDbEntity
  8
M3
  6
DASHED
 62
     7
100
AcDbLine
 10
204.034648
 20
358.687765
 11
204.034648
 21
353.197439
  0
LINE
  5
48F
100
AcDbEntity
  8
M3
  6
DASHED
 62
     7
100
AcDbLine
 10
208.634608
 20
360.442602
 11
207.334559
 21
360.442602
  0
LINE
  5
490
100
AcDbEntity
  8
M3
  6
DASHED
 62
     7
100
AcDbLine
 10
207.334559
 20
351.442617
 11
207.334559
 21
360.442617
  0
LINE
  5
491
100
AcDbEntity
  8
M3
  6
DASHED
 62
     7
100
AcDbLine
 10
184.834607
 20
347.142112
 11
185.234608
 21
347.142112
  0
LINE
  5
492
100
AcDbEntity
  8
M3
  6
DASHED
 62
     7
100
AcDbLine
 10
186.434608
 20
309.742118
 11
177.034608
 21
309.742118
  0
LINE
  5
493
100
AcDbEntity
  8
M3
 62
     7
100
AcDbLine
 10
243.234609
 20
311.342109
 11
235.834608
 21
311.342109
  0
LINE
  5
494
100
AcDbEntity
  8
M3
 62
     7
100
AcDbLine
 10
233.83461
 20
320.94211
 11
233.83461
 21
331.942109
  0
LINE
  5
495
100
AcDbEntity
  8
M3
 62
     7
100
AcDbLine
 10
243.234609
 20
341.54211
 11
235.834608
 21
341.54211
  0
LINE
  5
496
100
AcDbEntity
  8
M3
  6
DASHED
 62
     7
100
AcDbLine
 10
205.494959
 20
360.281682
 11
207.334559
 21
360.442617
  0
LINE
  5
497
100
AcDbEntity
  8
M3
 62
     7
100
AcDbLine
 10
222.134609
 20
329.14211
 11
222.134609
 21
323.94211
  0
LINE
  5
498
100
AcDbEntity
  8
M3
 62
     7
100
AcDbLine
 10
235.834608
 20
301.642109
 11
231.334608
 21
301.642109
  0
LINE
  5
499
100
AcDbEntity
  8
M3
  6
DASHED
 62
     7
100
AcDbLine
 10
224.334608
 20
321.242109
 11
224.334608
 21
302.142109
  0
LINE
  5
49A
100
AcDbEntity
  8
M3
  6
DASHED
 62
     7
100
AcDbLine
 10
209.634608
 20
334.942108
 11
211.634608
 21
334.942108
  0
LINE
  5
49B
100
AcDbEntity
  8
M3
  6
DASHED
 62
     7
100
AcDbLine
 10
224.834608
 20
301.642109
 11
227.334608
 21
301.642109
  0
LINE
  5
49C
100
AcDbEntity
  8
M3
 62
     7
100
AcDbLine
 10
231.334608
 20
301.642109
 11
229.174823
 21
299.806291
  0
LINE
  5
49D
100
AcDbEntity
  8
M3
 62
     7
100
AcDbLine
 10
210.134607
 20
302.092109
 11
210.134607
 21
303.34211
  0
LINE
  5
49E
100
AcDbEntity
  8
M3
 62
     7
100
AcDbLine
 10
207.134608
 20
306.34211
 11
195.734609
 21
306.34211
  0
LINE
  5
49F
100
AcDbEntity
  8
M3
 62
     7
100
AcDbLine
 10
189.63461
 20
288.94211
 11
189.63461
 21
363.94211
  0
LINE
  5
4A0
100
AcDbEntity
  8
M3
 62
     7
100
AcDbLine
 10
190.634605
 20
332.64211
 11
192.734611
 21
332.64211
  0
ARC
  5
4A1
100
AcDbEntity
  8
M3
 62
     7
100
AcDbCircle
 10
193.734608
 20
331.14211
 40
1.0
100
AcDbArc
 50
180.0
 51
270.0
  0
ARC
  5
4A2
100
AcDbEntity
  8
M3
 62
     7
100
AcDbCircle
 10
230.134608
 20
284.94211
 40
1.0
100
AcDbArc
 50
180.0
 51
270.0
  0
ARC
  5
4A3
100
AcDbEntity
  8
M3
 62
     7
100
AcDbCircle
 10
195.734608
 20
309.34211
 40
3.0
100
AcDbArc
 50
180.0
 51
270.0
  0
ARC
  5
4A4
100
AcDbEntity
  8
M3
 62
     7
100
AcDbCircle
 10
194.634608
 20
288.94211
 40
5.0
100
AcDbArc
 50
180.0
 51
270.0
  0
ARC
  5
4A5
100
AcDbEntity
  8
M3
 62
     7
100
AcDbCircle
 10
190.634608
 20
331.64211
 40
1.0
100
AcDbArc
 50
90.0
 51
180.0
  0
ARC
  5
4A6
100
AcDbEntity
  8
M3
 62
     7
100
AcDbCircle
 10
183.134608
 20
336.94211
 40
0.5
100
AcDbArc
 50
90.0
 51
180.0
  0
ARC
  5
4A7
100
AcDbEntity
  8
M3
 62
     7
100
AcDbCircle
 10
222.634608
 20
323.94211
 40
0.5
100
AcDbArc
 50
180.0
 51
203.578178
  0
ARC
  5
4A8
100
AcDbEntity
  8
M3
 62
     7
100
AcDbCircle
 10
194.634608
 20
363.94211
 40
5.0
100
AcDbArc
 50
90.0
 51
180.0
  0
ARC
  5
4A9
100
AcDbEntity
  8
M3
 62
     7
100
AcDbCircle
 10
193.734608
 20
321.74211
 40
1.0
100
AcDbArc
 50
90.0
 51
180.0
  0
ARC
  5
4AA
100
AcDbEntity
  8
M3
 62
     7
100
AcDbCircle
 10
207.134608
 20
303.34211
 40
3.0
100
AcDbArc
 50
0.0
 51
90.0
  0
ARC
  5
4AB
100
AcDbEntity
  8
M3
 62
     7
100
AcDbCircle
 10
213.134608
 20
302.09211
 40
3.0
100
AcDbArc
 50
180.0
 51
270.0
  0
ARC
  5
4AC
100
AcDbEntity
  8
M3
 62
     7
100
AcDbCircle
 10
225.134608
 20
323.94211
 40
0.5
100
AcDbArc
 50
336.421822
 51
360.0
  0
ARC
  5
4AD
100
AcDbEntity
  8
M3
 62
     7
100
AcDbCircle
 10
233.534608
 20
329.44211
 40
0.5
100
AcDbArc
 50
53.130102
 51
90.0
  0
ARC
  5
4AE
100
AcDbEntity
  8
M3
 62
     7
100
AcDbCircle
 10
219.981102
 20
365.94211
 40
3.0
100
AcDbArc
 50
32.275644
 51
90.0
  0
LINE
  5
4AF
100
AcDbEntity
  8
M3
 62
     7
100
AcDbLine
 10
194.634605
 20
368.94211
 11
219.981101
 21
368.94211
  0
ARC
  5
4B0
100
AcDbEntity
  8
M3
 62
     7
100
AcDbCircle
 10
233.534608
 20
322.44211
 40
0.5
100
AcDbArc
 50
270.0
 51
306.869898
  0
LINE
  5
4B1
100
AcDbEntity
  8
M3
 62
     7
100
AcDbLine
 10
227.634609
 20
289.94211
 11
222.513288
 21
284.82079
  0
LINE
  5
4B2
100
AcDbEntity
  8
M3
 62
     7
100
AcDbLine
 10
227.623295
 20
299.117753
 11
227.623295
 21
289.94211
  0
LINE
  5
4B3
100
AcDbEntity
  8
M3
 62
     7
100
AcDbLine
 10
227.634609
 20
359.442109
 11
235.834608
 21
359.442109
  0
LINE
  5
4B4
100
AcDbEntity
  8
M3
 62
     7
100
AcDbLine
 10
183.134604
 20
337.442109
 11
183.634605
 21
337.442109
  0
LINE
  5
4B5
100
AcDbEntity
  8
M3
 62
     7
100
AcDbLine
 10
235.834608
 20
289.94211
 11
227.634609
 21
289.94211
  0
LINE
  5
4B6
100
AcDbEntity
  8
M3
 62
     7
100
AcDbLine
 10
192.734611
 20
320.242109
 11
190.634605
 21
320.242109
  0
LINE
  5
4B7
100
AcDbEntity
  8
M3
 62
     7
100
AcDbLine
 10
222.517569
 20
367.544087
 11
227.634609
 21
359.442109
  0
LINE
  5
4B8
100
AcDbEntity
  8
M3
 62
     7
100
AcDbLine
 10
220.391967
 20
283.942109
 11
194.634605
 21
283.942109
  0
LINE
  5
4B9
100
AcDbEntity
  8
M3
 62
     7
100
AcDbLine
 10
227.623295
 20
359.442109
 11
227.623295
 21
353.766466
  0
LINE
  5
4BA
100
AcDbEntity
  8
M3
 62
     7
100
AcDbLine
 10
233.83461
 20
330.74211
 11
233.534608
 21
330.74211
  0
LINE
  5
4BB
100
AcDbEntity
  8
M3
 62
     7
100
AcDbLine
 10
186.934609
 20
336.442109
 11
184.634608
 21
336.442109
  0
LINE
  5
4BC
100
AcDbEntity
  8
M3
 62
     7
100
AcDbLine
 10
192.734611
 20
309.342109
 11
192.734611
 21
321.74211
  0
LINE
  5
4BD
100
AcDbEntity
  8
M3
 62
     7
100
AcDbLine
 10
195.734609
 20
322.74211
 11
193.734605
 21
322.74211
  0
LINE
  5
4BE
100
AcDbEntity
  8
M3
 62
     7
100
AcDbLine
 10
193.734605
 20
330.14211
 11
193.734605
 21
322.74211
  0
LINE
  5
4BF
100
AcDbEntity
  8
M3
 62
     7
100
AcDbLine
 10
189.63461
 20
321.94211
 11
186.934609
 21
321.94211
  0
LINE
  5
4C0
100
AcDbEntity
  8
M3
 62
     7
100
AcDbLine
 10
227.231875
 20
299.09211
 11
213.134609
 21
299.09211
  0
LINE
  5
4C1
100
AcDbEntity
  8
M3
 62
     7
100
AcDbLine
 10
221.334607
 20
329.14211
 11
233.034607
 21
329.14211
  0
LINE
  5
4C2
100
AcDbEntity
  8
M3
 62
     7
100
AcDbLine
 10
213.134609
 20
353.792109
 11
227.231875
 21
353.792109
  0
LINE
  5
4C3
100
AcDbEntity
  8
M3
 62
     7
100
AcDbLine
 10
234.034609
 20
332.64211
 11
235.834608
 21
332.64211
  0
LINE
  5
4C4
100
AcDbEntity
  8
M3
 62
     7
100
AcDbLine
 10
187.43461
 20
319.24211
 11
189.63461
 21
319.24211
  0
LINE
  5
4C5
100
AcDbEntity
  8
M3
 62
     7
100
AcDbLine
 10
186.934609
 20
324.942109
 11
189.63461
 21
324.942109
  0
LINE
  5
4C6
100
AcDbEntity
  8
M3
 62
     7
100
AcDbLine
 10
196.734611
 20
331.142109
 11
196.734611
 21
321.74211
  0
LINE
  5
4C7
100
AcDbEntity
  8
M3
 62
     7
100
AcDbLine
 10
185.934607
 20
311.94211
 11
185.934607
 21
312.942109
  0
LINE
  5
4C8
100
AcDbEntity
  8
M3
 62
     7
100
AcDbLine
 10
229.134608
 20
284.942111
 11
229.134608
 21
289.94211
  0
LINE
  5
4C9
100
AcDbEntity
  8
M3
 62
     7
100
AcDbLine
 10
186.934609
 20
304.742109
 11
186.934609
 21
348.14211
  0
LINE
  5
4CA
100
AcDbEntity
  8
M3
 62
     7
100
AcDbLine
 10
186.434608
 20
313.442109
 11
186.934609
 21
313.442109
  0
LINE
  5
4CB
100
AcDbEntity
  8
M3
 62
     7
100
AcDbLine
 10
210.134607
 20
349.542109
 11
210.134607
 21
350.79211
  0
LINE
  5
4CC
100
AcDbEntity
  8
M3
 62
     7
100
AcDbLine
 10
186.934609
 20
311.44211
 11
186.434608
 21
311.44211
  0
LINE
  5
4CD
100
AcDbEntity
  8
M3
 62
     7
100
AcDbLine
 10
229.174823
 20
353.077928
 11
231.334608
 21
351.24211
  0
LINE
  5
4CE
100
AcDbEntity
  8
M3
 62
     7
100
AcDbLine
 10
243.234609
 20
306.34211
 11
235.834608
 21
306.34211
  0
LINE
  5
4CF
100
AcDbEntity
  8
M3
 62
     7
100
AcDbLine
 10
195.734609
 20
330.14211
 11
193.734605
 21
330.14211
  0
LINE
  5
4D0
100
AcDbEntity
  8
M3
 62
     7
100
AcDbLine
 10
189.63461
 20
303.742109
 11
187.934611
 21
303.742109
  0
LINE
  5
4D1
100
AcDbEntity
  8
M3
 62
     7
100
AcDbLine
 10
184.634608
 20
332.542109
 11
183.134604
 21
332.542109
  0
LINE
  5
4D2
100
AcDbEntity
  8
M3
 62
     7
100
AcDbLine
 10
188.434605
 20
327.94211
 11
188.434605
 21
324.942109
  0
LINE
  5
4D3
100
AcDbEntity
  8
M3
 62
     7
100
AcDbLine
 10
188.434605
 20
333.642109
 11
188.434605
 21
330.942109
  0
LINE
  5
4D4
100
AcDbEntity
  8
M3
 62
     7
100
AcDbLine
 10
188.434605
 20
319.24211
 11
188.434605
 21
321.94211
  0
LINE
  5
4D5
100
AcDbEntity
  8
M3
 62
     7
100
AcDbLine
 10
192.734611
 20
331.142109
 11
192.734611
 21
343.54211
  0
LINE
  5
4D6
100
AcDbEntity
  8
M3
  6
DASHED
 62
     7
100
AcDbLine
 10
223.334608
 20
321.242109
 11
223.334608
 21
302.142109
  0
LINE
  5
4D7
100
AcDbEntity
  8
M3
  6
DASHED
 62
     7
100
AcDbLine
 10
211.634608
 20
362.942108
 11
209.634608
 21
362.942108
  0
LINE
  5
4D8
100
AcDbEntity
  8
M3
  6
DASHED
 62
     7
100
AcDbLine
 10
209.634608
 20
362.942108
 11
209.634608
 21
334.942108
  0
LINE
  5
4D9
100
AcDbEntity
  8
M3
  6
DASHED
 62
     7
100
AcDbLine
 10
204.434608
 20
321.242109
 11
204.434608
 21
309.242109
  0
LINE
  5
4DA
100
AcDbEntity
  8
M3
  6
DASHED
 62
     7
100
AcDbLine
 10
203.434608
 20
321.242109
 11
203.434608
 21
309.242109
  0
LINE
  5
4DB
100
AcDbEntity
  8
M3
  6
DASHED
 62
     7
100
AcDbLine
 10
227.334608
 20
300.642109
 11
227.334608
 21
301.642109
  0
LINE
  5
4DC
100
AcDbEntity
  8
M3
 62
     7
100
AcDbLine
 10
225.634609
 20
323.94211
 11
225.634609
 21
329.14211
  0
LINE
  5
4DD
100
AcDbEntity
  8
M3
  6
DASHED
 62
     7
100
AcDbLine
 10
224.834608
 20
300.642109
 11
227.334608
 21
300.642109
  0
LINE
  5
4DE
100
AcDbEntity
  8
M3
  6
DASHED
 62
     7
100
AcDbLine
 10
211.634608
 20
334.942108
 11
211.634608
 21
362.942108
  0
LINE
  5
4DF
100
AcDbEntity
  8
M3
  6
DASHED
 62
     7
100
AcDbLine
 10
204.434608
 20
309.242109
 11
203.434608
 21
309.242109
  0
ARC
  5
4E0
100
AcDbEntity
  8
M3
 62
     7
100
AcDbCircle
 10
213.134608
 20
350.79211
 40
3.0
100
AcDbArc
 50
90.0
 51
180.0
  0
ARC
  5
4E1
100
AcDbEntity
  8
M3
 62
     7
100
AcDbCircle
 10
234.034608
 20
332.14211
 40
0.5
100
AcDbArc
 50
90.0
 51
180.0
  0
ARC
  5
4E2
100
AcDbEntity
  8
M3
 62
     7
100
AcDbCircle
 10
187.934608
 20
348.14211
 40
1.0
100
AcDbArc
 50
90.0
 51
180.0
  0
ARC
  5
4E3
100
AcDbEntity
  8
M3
 62
     7
100
AcDbCircle
 10
183.134608
 20
315.94211
 40
0.5
100
AcDbArc
 50
180.0
 51
270.0
  0
ARC
  5
4E4
100
AcDbEntity
  8
M3
 62
     7
100
AcDbCircle
 10
207.134608
 20
349.54211
 40
3.0
100
AcDbArc
 50
270.0
 51
360.0
  0
ARC
  5
4E5
100
AcDbEntity
  8
M3
  6
DASHED
 62
     7
100
AcDbCircle
 10
224.834608
 20
302.142109
 40
1.5
100
AcDbArc
 50
180.0
 51
270.0
  0
ARC
  5
4E6
100
AcDbEntity
  8
M3
  6
DASHED
 62
     7
100
AcDbCircle
 10
224.834608
 20
302.142109
 40
0.5
100
AcDbArc
 50
180.0
 51
270.0
  0
ARC
  5
4E7
100
AcDbEntity
  8
M3
 62
     7
100
AcDbCircle
 10
195.734608
 20
331.14211
 40
1.0
100
AcDbArc
 50
270.0
 51
360.0
  0
ARC
  5
4E8
100
AcDbEntity
  8
M3
 62
     7
100
AcDbCircle
 10
183.134608
 20
319.44211
 40
0.5
100
AcDbArc
 50
90.0
 51
180.0
  0
ARC
  5
4E9
100
AcDbEntity
  8
M3
 62
     7
100
AcDbCircle
 10
195.734608
 20
321.74211
 40
1.0
100
AcDbArc
 50
0.0
 51
90.0
  0
LINE
  5
4EA
100
AcDbEntity
  8
M3
  6
DASHED
 62
     7
100
AcDbLine
 10
204.434608
 20
321.242109
 11
203.434608
 21
321.242109
  0
LINE
  5
4EB
100
AcDbEntity
  8
M3
  6
DIVIDE
 62
     7
100
AcDbLine
 10
305.134607
 20
338.942119
 11
298.634607
 21
338.942119
  0
LINE
  5
4EC
100
AcDbEntity
  8
M3
  6
DIVIDE
 62
     7
100
AcDbLine
 10
305.134607
 20
338.942119
 11
305.134607
 21
313.942119
  0
LINE
  5
4ED
100
AcDbEntity
  8
M3
  6
DIVIDE
 62
     7
100
AcDbLine
 10
299.634607
 20
343.942119
 11
299.634607
 21
339.942119
  0
LINE
  5
4EE
100
AcDbEntity
  8
M3
  6
DIVIDE
 62
     7
100
AcDbLine
 10
306.134607
 20
339.942119
 11
299.634607
 21
339.942119
  0
LINE
  5
4EF
100
AcDbEntity
  8
M3
  6
DIVIDE
 62
     7
100
AcDbLine
 10
299.634607
 20
343.942119
 11
298.634607
 21
343.942119
  0
LINE
  5
4F0
100
AcDbEntity
  8
M3
  6
DIVIDE
 62
     7
100
AcDbLine
 10
306.134607
 20
312.942119
 11
299.634607
 21
312.942119
  0
LINE
  5
4F1
100
AcDbEntity
  8
M3
  6
DIVIDE
 62
     7
100
AcDbLine
 10
305.134607
 20
313.942119
 11
298.634607
 21
313.942119
  0
LINE
  5
4F2
100
AcDbEntity
  8
M3
  6
DIVIDE
 62
     7
100
AcDbLine
 10
298.634607
 20
308.942119
 11
299.634607
 21
308.942119
  0
LINE
  5
4F3
100
AcDbEntity
  8
M3
  6
DIVIDE
 62
     7
100
AcDbLine
 10
299.634607
 20
312.942119
 11
299.634607
 21
308.942119
  0
LINE
  5
4F4
100
AcDbEntity
  8
M3
  6
DIVIDE
 62
     7
100
AcDbLine
 10
306.134607
 20
312.942119
 11
306.134607
 21
339.942119
  0
LINE
  5
4F5
100
AcDbEntity
  8
M3
 62
     7
100
AcDbLine
 10
302.834608
 20
285.192109
 11
303.134608
 21
285.192109
  0
LINE
  5
4F6
100
AcDbEntity
  8
M3
 62
     7
100
AcDbLine
 10
247.734608
 20
343.502664
 11
263.234608
 21
343.502664
  0
LINE
  5
4F7
100
AcDbEntity
  8
M3
 62
     7
100
AcDbLine
 10
247.734608
 20
343.502664
 11
247.734608
 21
340.981554
  0
LINE
  5
4F8
100
AcDbEntity
  8
M3
 62
     7
100
AcDbLine
 10
292.134608
 20
284.942109
 11
292.134608
 21
301.642109
  0
LINE
  5
4F9
100
AcDbEntity
  8
M3
 62
     7
100
AcDbLine
 10
302.334608
 20
283.942109
 11
235.834608
 21
283.942109
  0
LINE
  5
4FA
100
AcDbEntity
  8
M3
 62
     7
100
AcDbLine
 10
302.834608
 20
353.942109
 11
302.834608
 21
352.942109
  0
LINE
  5
4FB
100
AcDbEntity
  8
M3
 62
     7
100
AcDbLine
 10
302.834608
 20
360.442109
 11
302.834608
 21
359.942109
  0
LINE
  5
4FC
100
AcDbEntity
  8
M3
 62
     7
100
AcDbLine
 10
302.834608
 20
341.742109
 11
302.834608
 21
344.742109
  0
LINE
  5
4FD
100
AcDbEntity
  8
M3
 62
     7
100
AcDbLine
 10
302.834608
 20
308.142109
 11
302.834608
 21
284.442109
  0
ARC
  5
4FE
100
AcDbEntity
  8
M3
 62
     7
100
AcDbCircle
 10
302.334608
 20
344.742109
 40
0.5
100
AcDbArc
 50
270.0
 51
360.0
  0
ARC
  5
4FF
100
AcDbEntity
  8
M3
 62
     7
100
AcDbCircle
 10
298.134608
 20
339.742109
 40
0.5
100
AcDbArc
 50
0.0
 51
90.0
  0
LINE
  5
500
100
AcDbEntity
  8
M3
 62
     7
100
AcDbLine
 10
247.734608
 20
309.381554
 11
247.734608
 21
311.902664
  0
LINE
  5
501
100
AcDbEntity
  8
M3
 62
     7
100
AcDbLine
 10
298.834608
 20
308.642109
 11
298.834608
 21
309.142109
  0
LINE
  5
502
100
AcDbEntity
  8
M3
 62
     7
100
AcDbLine
 10
303.134608
 20
290.232601
 11
302.834608
 21
290.232601
  0
LINE
  5
503
100
AcDbEntity
  8
M3
 62
     7
100
AcDbLine
 10
293.134608
 20
367.942109
 11
302.334608
 21
367.942109
  0
LINE
  5
504
100
AcDbEntity
  8
M3
 62
     7
100
AcDbLine
 10
303.134608
 20
363.352618
 11
302.834608
 21
363.352618
  0
LINE
  5
505
100
AcDbEntity
  8
M3
 62
     7
100
AcDbLine
 10
303.134608
 20
367.442109
 11
303.134608
 21
355.192109
  0
LINE
  5
506
100
AcDbEntity
  8
M3
 62
     7
100
AcDbLine
 10
303.134608
 20
357.692109
 11
302.834608
 21
357.692109
  0
LINE
  5
507
100
AcDbEntity
  8
M3
 62
     7
100
AcDbLine
 10
303.134608
 20
297.692109
 11
302.834608
 21
297.692109
  0
LINE
  5
508
100
AcDbEntity
  8
M3
 62
     7
100
AcDbLine
 10
302.834608
 20
355.192109
 11
302.834608
 21
353.942109
  0
LINE
  5
509
100
AcDbEntity
  8
M3
 62
     7
100
AcDbLine
 10
302.834608
 20
360.442109
 11
302.834608
 21
358.942109
  0
LINE
  5
50A
100
AcDbEntity
  8
M3
 62
     7
100
AcDbLine
 10
298.834608
 20
309.142109
 11
298.634608
 21
309.142109
  0
LINE
  5
50B
100
AcDbEntity
  8
M3
 62
     7
100
AcDbLine
 10
247.734608
 20
311.902664
 11
263.234608
 21
311.902664
  0
LINE
  5
50C
100
AcDbEntity
  8
M3
 62
     7
100
AcDbLine
 10
303.134608
 20
367.442109
 11
302.834608
 21
367.442109
  0
LINE
  5
50D
100
AcDbEntity
  8
M3
 62
     7
100
AcDbLine
 10
263.234608
 20
340.981554
 11
247.734608
 21
340.981554
  0
LINE
  5
50E
100
AcDbEntity
  8
M3
 62
     7
100
AcDbLine
 10
263.234608
 20
309.381554
 11
247.734608
 21
309.381554
  0
LINE
  5
50F
100
AcDbEntity
  8
M3
 62
     7
100
AcDbLine
 10
303.134608
 20
355.192109
 11
302.834608
 21
355.192109
  0
LINE
  5
510
100
AcDbEntity
  8
M3
 62
     7
100
AcDbLine
 10
302.834608
 20
360.442109
 11
302.834608
 21
358.942109
  0
LINE
  5
511
100
AcDbEntity
  8
M3
 62
     7
100
AcDbLine
 10
263.534608
 20
344.283852
 11
263.534608
 21
343.802664
  0
LINE
  5
512
100
AcDbEntity
  8
M3
 62
     7
100
AcDbLine
 10
302.834608
 20
358.942109
 11
302.834608
 21
359.942109
  0
LINE
  5
513
100
AcDbEntity
  8
M3
 62
     7
100
AcDbLine
 10
225.334608
 20
372.942109
 11
244.720394
 21
372.942109
  0
LINE
  5
514
100
AcDbEntity
  8
M3
 62
     7
100
AcDbLine
 10
302.834608
 20
360.053611
 11
302.834608
 21
359.053611
  0
LINE
  5
515
100
AcDbEntity
  8
M3
 62
     7
100
AcDbLine
 10
224.834608
 20
363.875443
 11
224.834608
 21
371.942109
  0
LINE
  5
516
100
AcDbEntity
  8
M3
 62
     7
100
AcDbLine
 10
224.834608
 20
371.942109
 11
224.834608
 21
372.442109
  0
LINE
  5
517
100
AcDbEntity
  8
M3
 62
     7
100
AcDbLine
 10
291.892213
 20
359.46244
 11
291.656394
 21
359.445281
  0
LINE
  5
518
100
AcDbEntity
  8
M3
 62
     7
100
AcDbLine
 10
292.13039
 20
359.549927
 11
291.892213
 21
359.46244
  0
LINE
  5
519
100
AcDbEntity
  8
M3
 62
     7
100
AcDbLine
 10
293.134608
 20
302.642109
 11
302.334608
 21
302.642109
  0
ARC
  5
51A
100
AcDbEntity
  8
M3
 62
     7
100
AcDbCircle
 10
244.720394
 20
371.942109
 40
1.0
100
AcDbArc
 50
45.0
 51
90.0
  0
LINE
  5
51B
100
AcDbEntity
  8
M3
 62
     7
100
AcDbLine
 10
244.834608
 20
289.942109
 11
235.834608
 21
289.942109
  0
ARC
  5
51C
100
AcDbEntity
  8
M3
 62
     7
100
AcDbCircle
 10
225.334608
 20
372.442109
 40
0.5
100
AcDbArc
 50
90.0
 51
180.0
  0
ARC
  5
51D
100
AcDbEntity
  8
M3
 62
     7
100
AcDbCircle
 10
227.834608
 20
369.942109
 40
3.0
100
AcDbArc
 50
90.0
 51
180.0
  0
LINE
  5
51E
100
AcDbEntity
  8
M3
 62
     7
100
AcDbLine
 10
235.834608
 20
351.242109
 11
292.134608
 21
351.242109
  0
LINE
  5
51F
100
AcDbEntity
  8
M3
 62
     7
100
AcDbLine
 10
303.134608
 20
297.692109
 11
303.134608
 21
285.192109
  0
LINE
  5
520
100
AcDbEntity
  8
M3
 62
     7
100
AcDbLine
 10
292.134608
 20
301.642109
 11
235.834608
 21
301.642109
  0
LINE
  5
521
100
AcDbEntity
  8
M3
 62
     7
100
AcDbLine
 10
235.834608
 20
359.442109
 11
291.720394
 21
359.442109
  0
LINE
  5
522
100
AcDbEntity
  8
M3
 62
     7
100
AcDbLine
 10
263.534608
 20
309.081554
 11
263.534608
 21
308.600367
  0
LINE
  5
523
100
AcDbEntity
  8
M3
 62
     7
100
AcDbLine
 10
243.234608
 20
306.342109
 11
243.234608
 21
311.342109
  0
LINE
  5
524
100
AcDbEntity
  8
M3
 62
     7
100
AcDbLine
 10
302.834608
 20
358.942109
 11
302.834608
 21
355.942109
  0
LINE
  5
525
100
AcDbEntity
  8
M3
 62
     7
100
AcDbLine
 10
263.534608
 20
308.642109
 11
302.334608
 21
308.642109
  0
ARC
  5
526
100
AcDbEntity
  8
M3
 62
     7
100
AcDbCircle
 10
249.134608
 20
367.527896
 40
1.0
100
AcDbArc
 50
0.0
 51
45.0
  0
ARC
  5
527
100
AcDbEntity
  8
M3
 62
     7
100
AcDbCircle
 10
298.134608
 20
313.142109
 40
0.5
100
AcDbArc
 50
270.0
 51
360.0
  0
LINE
  5
528
100
AcDbEntity
  8
M3
 62
     7
100
AcDbLine
 10
292.134608
 20
351.242109
 11
292.134608
 21
366.942109
  0
LINE
  5
529
100
AcDbEntity
  8
M3
 62
     7
100
AcDbLine
 10
299.334608
 20
309.642109
 11
300.834608
 21
309.642109
  0
LINE
  5
52A
100
AcDbEntity
  8
M3
 62
     7
100
AcDbLine
 10
302.834608
 20
360.442109
 11
302.834608
 21
360.053611
  0
LINE
  5
52B
100
AcDbEntity
  8
M3
 62
     7
100
AcDbLine
 10
300.834608
 20
309.142109
 11
300.834608
 21
308.642109
  0
LINE
  5
52C
100
AcDbEntity
  8
M3
 62
     7
100
AcDbLine
 10
303.134608
 20
364.531601
 11
302.834608
 21
364.531601
  0
LINE
  5
52D
100
AcDbEntity
  8
M3
 62
     7
100
AcDbLine
 10
300.834608
 20
309.642109
 11
300.834608
 21
309.142109
  0
ELLIPSE
  5
52E
100
AcDbEntity
  8
M3
 62
     7
100
AcDbEllipse
 10
302.334608
 20
302.617172
 11
-0.5
 21
0.0
210
0.0
220
0.0
230
1.0
 40
0.049876
 41
3.141592653589793
 42
4.71238898038469
  0
LINE
  5
52F
100
AcDbEntity
  8
M3
 62
     7
100
AcDbLine
 10
302.834608
 20
359.053611
 11
302.834608
 21
358.942109
  0
LINE
  5
530
100
AcDbEntity
  8
M3
 62
     7
100
AcDbLine
 10
281.334608
 20
362.942109
 11
282.834608
 21
362.942109
  0
LINE
  5
531
100
AcDbEntity
  8
M3
 62
     7
100
AcDbLine
 10
302.834608
 20
306.642109
 11
302.834608
 21
307.642109
  0
LINE
  5
532
100
AcDbEntity
  8
M3
 62
     7
100
AcDbLine
 10
303.134608
 20
292.472416
 11
302.834608
 21
292.472416
  0
LINE
  5
533
100
AcDbEntity
  8
M3
 62
     7
100
AcDbLine
 10
260.034608
 20
284.942109
 11
260.034608
 21
294.942109
  0
LINE
  5
534
100
AcDbEntity
  8
M3
 62
     7
100
AcDbLine
 10
280.334608
 20
362.942109
 11
292.134608
 21
362.942109
  0
LINE
  5
535
100
AcDbEntity
  8
M3
 62
     7
100
AcDbLine
 10
298.634608
 20
341.742109
 11
298.634608
 21
344.242109
  0
LINE
  5
536
100
AcDbEntity
  8
M3
 62
     7
100
AcDbLine
 10
299.634608
 20
344.242109
 11
299.634608
 21
342.742109
  0
LINE
  5
537
100
AcDbEntity
  8
M3
 62
     7
100
AcDbLine
 10
300.334608
 20
311.142109
 11
300.774608
 21
310.642109
  0
LINE
  5
538
100
AcDbEntity
  8
M3
 62
     7
100
AcDbLine
 10
298.634608
 20
338.242109
 11
298.934608
 21
338.742109
  0
LINE
  5
539
100
AcDbEntity
  8
M3
 62
     7
100
AcDbLine
 10
302.834608
 20
287.192109
 11
302.834608
 21
285.942109
  0
LINE
  5
53A
100
AcDbEntity
  8
M3
 62
     7
100
AcDbLine
 10
298.934608
 20
338.742109
 11
298.934608
 21
340.742109
  0
LINE
  5
53B
100
AcDbEntity
  8
M3
 62
     7
100
AcDbLine
 10
302.834608
 20
360.442109
 11
302.834608
 21
353.942109
  0
LINE
  5
53C
100
AcDbEntity
  8
M3
 62
     7
100
AcDbLine
 10
245.427501
 20
372.649216
 11
249.841714
 21
368.235003
  0
LINE
  5
53D
100
AcDbEntity
  8
M3
 62
     7
100
AcDbLine
 10
302.834608
 20
360.442109
 11
302.834608
 21
358.942109
  0
LINE
  5
53E
100
AcDbEntity
  8
M3
 62
     7
100
AcDbLine
 10
298.934608
 20
340.742109
 11
298.634608
 21
341.742109
  0
LINE
  5
53F
100
AcDbEntity
  8
M3
 62
     7
100
AcDbLine
 10
302.834608
 20
287.692109
 11
302.834608
 21
287.192109
  0
LINE
  5
540
100
AcDbEntity
  8
M3
 62
     7
100
AcDbLine
 10
298.634608
 20
339.742109
 11
298.634608
 21
313.142109
  0
LINE
  5
541
100
AcDbEntity
  8
M3
 62
     7
100
AcDbLine
 10
303.134608
 20
295.411803
 11
302.750148
 21
295.411803
  0
LINE
  5
542
100
AcDbEntity
  8
M3
 62
     7
100
AcDbLine
 10
263.534608
 20
312.683852
 11
263.534608
 21
312.202664
  0
LINE
  5
543
100
AcDbEntity
  8
M3
 62
     7
100
AcDbLine
 10
263.534608
 20
340.681554
 11
263.534608
 21
340.200367
  0
LINE
  5
544
100
AcDbEntity
  8
M3
 62
     7
100
AcDbLine
 10
299.634608
 20
311.142109
 11
300.334608
 21
311.142109
  0
LINE
  5
545
100
AcDbEntity
  8
M3
 62
     7
100
AcDbLine
 10
299.634608
 20
310.642109
 11
299.634608
 21
311.142109
  0
LINE
  5
546
100
AcDbEntity
  8
M3
 62
     7
100
AcDbLine
 10
299.634608
 20
310.642109
 11
299.634608
 21
309.642109
  0
LINE
  5
547
100
AcDbEntity
  8
M3
 62
     7
100
AcDbLine
 10
302.834608
 20
360.442109
 11
302.834608
 21
358.942109
  0
LINE
  5
548
100
AcDbEntity
  8
M3
 62
     7
100
AcDbLine
 10
302.834608
 20
353.942109
 11
302.834608
 21
352.942109
  0
LINE
  5
549
100
AcDbEntity
  8
M3
 62
     7
100
AcDbLine
 10
280.334608
 20
362.442109
 11
280.334608
 21
362.942109
  0
LINE
  5
54A
100
AcDbEntity
  8
M3
 62
     7
100
AcDbLine
 10
302.534608
 20
308.642109
 11
300.774608
 21
310.642109
  0
LINE
  5
54B
100
AcDbEntity
  8
M3
 62
     7
100
AcDbLine
 10
302.534608
 20
308.600367
 11
302.534608
 21
308.642109
  0
LINE
  5
54C
100
AcDbEntity
  8
M3
 62
     7
100
AcDbLine
 10
298.634608
 20
313.142109
 11
298.634608
 21
308.642109
  0
LINE
  5
54D
100
AcDbEntity
  8
M3
 62
     7
100
AcDbLine
 10
303.134608
 20
287.692109
 11
302.834608
 21
287.692109
  0
LINE
  5
54E
100
AcDbEntity
  8
M3
 62
     7
100
AcDbLine
 10
260.034608
 20
294.942109
 11
245.834608
 21
294.942109
  0
LINE
  5
54F
100
AcDbEntity
  8
M3
 62
     7
100
AcDbLine
 10
250.134608
 20
367.527896
 11
250.134608
 21
359.442109
  0
LINE
  5
550
100
AcDbEntity
  8
M3
 62
     7
100
AcDbLine
 10
302.834608
 20
284.942109
 11
302.834608
 21
285.942109
  0
LINE
  5
551
100
AcDbEntity
  8
M3
 62
     7
100
AcDbLine
 10
302.834608
 20
360.442109
 11
303.134608
 21
360.442109
  0
ARC
  5
552
100
AcDbEntity
  8
M3
 62
     7
100
AcDbCircle
 10
302.334608
 20
367.442109
 40
0.5
100
AcDbArc
 50
0.0
 51
90.0
  0
ARC
  5
553
100
AcDbEntity
  8
M3
 62
     7
100
AcDbCircle
 10
293.134608
 20
366.942109
 40
1.0
100
AcDbArc
 50
90.0
 51
180.0
  0
LINE
  5
554
100
AcDbEntity
  8
M3
 62
     7
100
AcDbLine
 10
298.634608
 20
344.242109
 11
298.634608
 21
339.742109
  0
LINE
  5
555
100
AcDbEntity
  8
M3
 62
     7
100
AcDbLine
 10
298.134608
 20
312.642109
 11
263.534608
 21
312.642109
  0
LINE
  5
556
100
AcDbEntity
  8
M3
 62
     7
100
AcDbLine
 10
282.834608
 20
362.942109
 11
292.134608
 21
362.942109
  0
LINE
  5
557
100
AcDbEntity
  8
M3
 62
     7
100
AcDbLine
 10
302.834608
 20
367.442109
 11
302.834608
 21
344.742109
  0
LINE
  5
558
100
AcDbEntity
  8
M3
 62
     7
100
AcDbLine
 10
243.234608
 20
341.542109
 11
243.234608
 21
346.542109
  0
LINE
  5
559
100
AcDbEntity
  8
M3
 62
     7
100
AcDbLine
 10
299.634608
 20
342.742109
 11
300.634608
 21
341.742109
  0
LINE
  5
55A
100
AcDbEntity
  8
M3
 62
     7
100
AcDbLine
 10
263.534608
 20
340.242109
 11
298.134608
 21
340.242109
  0
LINE
  5
55B
100
AcDbEntity
  8
M3
 62
     7
100
AcDbLine
 10
302.334608
 20
344.242109
 11
263.534608
 21
344.242109
  0
LINE
  5
55C
100
AcDbEntity
  8
M3
 62
     7
100
AcDbLine
 10
300.634608
 20
341.742109
 11
302.834608
 21
341.742109
  0
ARC
  5
55D
100
AcDbEntity
  8
M3
 62
     7
100
AcDbCircle
 10
302.334608
 20
308.142109
 40
0.5
100
AcDbArc
 50
0.0
 51
90.0
  0
ARC
  5
55E
100
AcDbEntity
  8
M3
 62
     7
100
AcDbCircle
 10
263.234608
 20
312.202664
 40
0.3
100
AcDbArc
 50
270.0
 51
360.0
  0
ARC
  5
55F
100
AcDbEntity
  8
M3
 62
     7
100
AcDbCircle
 10
299.334608
 20
309.142109
 40
0.5
100
AcDbArc
 50
90.0
 51
180.0
  0
ARC
  5
560
100
AcDbEntity
  8
M3
 62
     7
100
AcDbCircle
 10
263.234608
 20
309.081554
 40
0.3
100
AcDbArc
 50
0.0
 51
90.0
  0
LINE
  5
561
100
AcDbEntity
  8
M3
 62
     7
100
AcDbLine
 10
245.834608
 20
294.942109
 11
245.834608
 21
290.942109
  0
LINE
  5
562
100
AcDbEntity
  8
M3
 62
     7
100
AcDbLine
 10
302.834608
 20
306.642109
 11
302.834608
 21
297.692109
  0
LINE
  5
563
100
AcDbEntity
  8
M3
 62
     7
100
AcDbLine
 10
280.334608
 20
362.442109
 11
280.334608
 21
359.442109
  0
ARC
  5
564
100
AcDbEntity
  8
M3
 62
     7
100
AcDbCircle
 10
263.234608
 20
340.681554
 40
0.3
100
AcDbArc
 50
0.0
 51
90.0
  0
ARC
  5
565
100
AcDbEntity
  8
M3
 62
     7
100
AcDbCircle
 10
293.134608
 20
284.942109
 40
1.0
100
AcDbArc
 50
180.0
 51
270.0
  0
ARC
  5
566
100
AcDbEntity
  8
M3
 62
     7
100
AcDbCircle
 10
263.234608
 20
343.802664
 40
0.3
100
AcDbArc
 50
270.0
 51
360.0
  0
ARC
  5
567
100
AcDbEntity
  8
M3
 62
     7
100
AcDbCircle
 10
302.334608
 20
284.442109
 40
0.5
100
AcDbArc
 50
270.0
 51
360.0
  0
ARC
  5
568
100
AcDbEntity
  8
M3
 62
     7
100
AcDbCircle
 10
244.834608
 20
290.942109
 40
1.0
100
AcDbArc
 50
270.0
 51
360.0
  0
LINE
  5
569
100
AcDbEntity
  8
M3
 62
     7
100
AcDbLine
 10
302.834608
 20
360.442109
 11
302.834608
 21
355.942109
  0
ARC
  5
56A
100
AcDbEntity
  8
M3
 62
     7
100
AcDbCircle
 10
261.034608
 20
284.942109
 40
1.0
100
AcDbArc
 50
180.0
 51
270.0
  0
ARC
  5
56B
100
AcDbEntity
  8
M3
 62
     7
100
AcDbCircle
 10
295.489034
 20
299.315845
 40
4.084673
100
AcDbArc
 50
125.479015
 51
145.207394
  0
LINE
  5
56C
100
AcDbEntity
  8
M3
  6
DASHED
 62
     7
100
AcDbLine
 10
201.384608
 20
316.042109
 11
201.384608
 21
310.042109
  0
LINE
  5
56D
100
AcDbEntity
  8
M3
  6
DASHED
 62
     7
100
AcDbLine
 10
199.084608
 20
311.042109
 11
199.084608
 21
315.042109
  0
LINE
  5
56E
100
AcDbEntity
  8
M3
  6
DASHED
 62
     7
100
AcDbLine
 10
201.384608
 20
315.892109
 11
202.434608
 21
315.892109
  0
LINE
  5
56F
100
AcDbEntity
  8
M3
  6
DASHED
 62
     7
100
AcDbLine
 10
202.434608
 20
310.192109
 11
201.384608
 21
310.192109
  0
LINE
  5
570
100
AcDbEntity
  8
M3
  6
DASHED
 62
     7
100
AcDbLine
 10
203.434608
 20
316.867109
 11
202.434608
 21
316.867109
  0
LINE
  5
571
100
AcDbEntity
  8
M3
  6
DASHED
 62
     7
100
AcDbLine
 10
200.084608
 20
310.042109
 11
201.384608
 21
310.042109
  0
LINE
  5
572
100
AcDbEntity
  8
M3
  6
DASHED
 62
     7
100
AcDbLine
 10
203.434608
 20
309.217109
 11
202.434608
 21
309.217109
  0
LINE
  5
573
100
AcDbEntity
  8
M3
  6
DASHED
 62
     7
100
AcDbLine
 10
209.884608
 20
314.792109
 11
204.434608
 21
314.792109
  0
LINE
  5
574
100
AcDbEntity
  8
M3
  6
DASHED
 62
     7
100
AcDbLine
 10
202.434608
 20
316.867109
 11
202.434608
 21
309.217109
  0
LINE
  5
575
100
AcDbEntity
  8
M3
  6
DASHED
 62
     7
100
AcDbLine
 10
204.434608
 20
311.292109
 11
209.884608
 21
311.292109
  0
LINE
  5
576
100
AcDbEntity
  8
M3
  6
DASHED
 62
     7
100
AcDbLine
 10
209.884608
 20
314.792109
 11
209.884608
 21
311.292109
  0
ARC
  5
577
100
AcDbEntity
  8
M3
  6
DASHED
 62
     7
100
AcDbCircle
 10
200.084608
 20
315.042109
 40
1.0
100
AcDbArc
 50
90.0
 51
180.0
  0
ARC
  5
578
100
AcDbEntity
  8
M3
  6
DASHED
 62
     7
100
AcDbCircle
 10
200.084608
 20
311.042109
 40
1.0
100
AcDbArc
 50
180.0
 51
270.0
  0
LINE
  5
579
100
AcDbEntity
  8
M3
  6
DASHED
 62
     7
100
AcDbLine
 10
200.084608
 20
316.042109
 11
201.384608
 21
316.042109
  0
LINE
  5
57A
100
AcDbEntity
  8
M3
  6
DASHED
 62
     7
100
AcDbLine
 10
202.434608
 20
314.467109
 11
202.434608
 21
311.617109
  0
LINE
  5
57B
100
AcDbEntity
  8
M3
  6
DASHED
 62
     7
100
AcDbLine
 10
223.334608
 20
302.142109
 11
224.334608
 21
302.142109
  0
LINE
  5
57C
100
AcDbEntity
  8
M3
  6
DASHED
 62
     7
100
AcDbLine
 10
221.284608
 20
308.442109
 11
221.284608
 21
302.442109
  0
LINE
  5
57D
100
AcDbEntity
  8
M3
  6
DASHED
 62
     7
100
AcDbLine
 10
218.984608
 20
303.442109
 11
218.984608
 21
307.442109
  0
LINE
  5
57E
100
AcDbEntity
  8
M3
  6
DASHED
 62
     7
100
AcDbLine
 10
221.284608
 20
308.292109
 11
222.334608
 21
308.292109
  0
LINE
  5
57F
100
AcDbEntity
  8
M3
  6
DASHED
 62
     7
100
AcDbLine
 10
222.334608
 20
302.592109
 11
221.284608
 21
302.592109
  0
LINE
  5
580
100
AcDbEntity
  8
M3
  6
DASHED
 62
     7
100
AcDbLine
 10
223.334608
 20
309.267109
 11
222.334608
 21
309.267109
  0
LINE
  5
581
100
AcDbEntity
  8
M3
  6
DASHED
 62
     7
100
AcDbLine
 10
219.984608
 20
302.442109
 11
221.284608
 21
302.442109
  0
LINE
  5
582
100
AcDbEntity
  8
M3
  6
DASHED
 62
     7
100
AcDbLine
 10
223.334608
 20
301.617109
 11
222.334608
 21
301.617109
  0
LINE
  5
583
100
AcDbEntity
  8
M3
  6
DASHED
 62
     7
100
AcDbLine
 10
229.784608
 20
307.192109
 11
224.334608
 21
307.192109
  0
LINE
  5
584
100
AcDbEntity
  8
M3
  6
DASHED
 62
     7
100
AcDbLine
 10
222.334608
 20
309.267109
 11
222.334608
 21
301.617109
  0
LINE
  5
585
100
AcDbEntity
  8
M3
  6
DASHED
 62
     7
100
AcDbLine
 10
224.334608
 20
303.692109
 11
229.784608
 21
303.692109
  0
LINE
  5
586
100
AcDbEntity
  8
M3
  6
DASHED
 62
     7
100
AcDbLine
 10
229.784608
 20
307.192109
 11
229.784608
 21
303.692109
  0
ARC
  5
587
100
AcDbEntity
  8
M3
  6
DASHED
 62
     7
100
AcDbCircle
 10
219.984608
 20
307.442109
 40
1.0
100
AcDbArc
 50
90.0
 51
180.0
  0
ARC
  5
588
100
AcDbEntity
  8
M3
  6
DASHED
 62
     7
100
AcDbCircle
 10
219.984608
 20
303.442109
 40
1.0
100
AcDbArc
 50
180.0
 51
270.0
  0
LINE
  5
589
100
AcDbEntity
  8
M3
  6
DASHED
 62
     7
100
AcDbLine
 10
219.984608
 20
308.442109
 11
221.284608
 21
308.442109
  0
LINE
  5
58A
100
AcDbEntity
  8
M3
  6
DASHED
 62
     7
100
AcDbLine
 10
222.334608
 20
306.867109
 11
222.334608
 21
304.017109
  0
LINE
  5
58B
100
AcDbEntity
  8
M3
  6
DASHED
 62
     7
100
AcDbLine
 10
223.334608
 20
321.242109
 11
224.334608
 21
321.242109
  0
LINE
  5
58C
100
AcDbEntity
  8
DN0
100
AcDbLine
 10
63.56994
 20
86.704317
 11
79.799941
 21
86.704317
  0
TEXT
  5
58D
100
AcDbEntity
  8
DN0
100
AcDbText
 10
64.018274
 20
87.104317
 40
4.0
  1
せん孔図
 41
0.833333
  7
STANDARD
100
AcDbText
  0
TEXT
  5
58E
100
AcDbEntity
  8
DN0
100
AcDbText
 10
8.772466
 20
102.678352
 40
2.5
  1
（６０～）６５ｘ７０
 41
0.666667
  7
STANDARD
100
AcDbText
  0
TEXT
  5
58F
100
AcDbEntity
  8
DN0
100
AcDbText
 10
8.772466
 20
98.778351
 40
2.5
  1
（６４～）６８ｘ６７
 41
0.666667
  7
STANDARD
100
AcDbText
  0
TEXT
  5
590
100
AcDbEntity
  8
DN0
100
AcDbText
 10
8.772466
 20
94.878349
 40
2.5
  1
　も取付可能
 41
0.666667
  7
STANDARD
100
AcDbText
  0
ENDSEC
  0
SECTION
  2
OBJECTS
  0
DICTIONARY
  5
C
100
AcDbDictionary
  3
ACAD_GROUP
350
D
  3
ACAD_MLINESTYLE
350
E
  3
ACDBVARIABLEDICTIONARY
350
42F
  0
DICTIONARY
  5
D
102
{ACAD_REACTORS
330
C
102
}
100
AcDbDictionary
  0
DICTIONARY
  5
E
102
{ACAD_REACTORS
330
C
102
}
100
AcDbDictionary
  3
STANDARD
350
13
  0
DICTIONARY
  5
42F
102
{ACAD_REACTORS
330
C
102
}
100
AcDbDictionary
  3
SORTENTS
350
430
  0
MLINESTYLE
  5
13
102
{ACAD_REACTORS
330
E
102
}
100
AcDbMlineStyle
  2
STANDARD
 70
     0
  3

 62
     0
 51
90.0
 52
90.0
 71
     2
 49
0.5
 62
   256
  6
BYLAYER
 49
-0.5
 62
   256
  6
BYLAYER
  0
DICTIONARYVAR
  5
430
102
{ACAD_REACTORS
330
42F
102
}
100
DictionaryVariables
280
     0
  1
96
  0
ENDSEC
  0
EOF
