  0
SECTION
  2
HEADER
  9
$ACADVER
  1
AC1014
  9
$INSBASE
 10
0.000000
 20
0.000000
 30
0.0
  9
$VIEWCTR
 10
7.531722
 20
4.5
  9
$VIEWSIZE
 40
9.0
  9
$SNAPMODE
 70
     0
  9
$SNAPUNIT
 10
1.0
 20
1.0
  9
$SNAPBASE
 10
0.0
 20
0.0
  9
$SNAPANG
 50
0.0
  9
$SNAPSTYLE
 70
     0
  9
$SNAPISOPAIR
 70
     0
  9
$GRIDMODE
 70
     0
  9
$GRIDUNIT
 10
0.0
 20
0.0
  9
$ORTHOMODE
 70
     0
  9
$REGENMODE
 70
     1
  9
$FILLMODE
 70
     1
  9
$QTEXTMODE
 70
     0
  9
$DRAGMODE
 70
     2
  9
$LTSCALE
  40
     1.000000
  9
$OSMODE
 70
     0
  9
$ATTMODE
 70
     1
  9
$TEXTSIZE
 40
0.2
  9
$TRACEWID
 40
0.05
  9
$TEXTSTYLE
  7
STANDARD
  9
$CELTYPE
  6
BYLAYER
  9
$CECOLOR
 62
   256
  9
$DIMSCALE
 40
1.0
  9
$DIMASZ
 40
0.18
  9
$DIMEXO
 40
0.0625
  9
$DIMDLI
 40
0.38
  9
$DIMRND
 40
0.0
  9
$DIMDLE
 40
0.0
  9
$DIMEXE
 40
0.18
  9
$DIMTP
 40
0.0
  9
$DIMTM
 40
0.0
  9
$DIMTXT
 40
0.18
  9
$DIMCEN
 40
0.09
  9
$DIMTSZ
 40
0.0
  9
$DIMTOL
 70
     0
  9
$DIMLIM
 70
     0
  9
$DIMTIH
 70
     1
  9
$DIMTOH
 70
     1
  9
$DIMSE1
 70
     0
  9
$DIMSE2
 70
     0
  9
$DIMTAD
 70
     0
  9
$DIMZIN
 70
     0
  9
$DIMBLK
  1

  9
$LUNITS
 70
     2
  9
$LUPREC
 70
     4
  9
$AXISMODE
 70
     0
  9
$AXISUNIT
 10
0.0
 20
0.0
  9
$SKETCHINC
 40
0.1
  9
$FILLETRAD
 40
0.0
  9
$AUNITS
 70
     0
  9
$AUPREC
 70
     0
  9
$MENU
  1
ACAD
  9
$ELEVATION
 40
0.0
  9
$THICKNESS
 40
0.0
  9
$VIEWDIR
 10
0.0
 20
0.0
 30
1.0
  9
$LIMCHECK
 70
     0
  9
$BLIPMODE
 70
     1
  9
$CHAMFERA
 40
0.0
  9
$CHAMFERB
 40
0.0
  9
$FASTZOOM
 70
     1
  9
$SKPOLY
 70
     0
  9
$TDCREATE
 40
0000000.0000000000
  9
$TDUPDATE
 40
0000000.0000000000
  9
$TDINDWG
 40
0.0000000000
  9
$TDUSRTIMER
 40
0.0000000000
  9
$USRTIMER
 70
     1
  9
$ANGBASE
 50
0.0
  9
$ANGDIR
 70
     0
  9
$PDMODE
 70
     0
  9
$PDSIZE
 40
0.0
  9
$PLINEWID
 40
0.0
  9
$COORDS
 70
     0
  9
$USERI1
 70
     0
  9
$USERI2
 70
     0
  9
$USERI3
 70
     0
  9
$USERI4
 70
     0
  9
$USERI5
 70
     0
  9
$USERR1
 40
0.0
  9
$USERR2
 40
0.0
  9
$USERR3
 40
0.0
  9
$USERR4
 40
0.0
  9
$USERR5
 40
0.0
  9
$CLAYER
  8
M0
  9
$EXTMIN
 10
16.666666
 20
16.666666
  9
$EXTMAX
 10
333.33332
 20
474.999981
  9
$LIMMIN
 10
0.0
 20
0.0
  9
$LIMMAX
 10
210.0
 20
297.0
  9
$HANDSEED
  5
595
  0
ENDSEC
  0
SECTION
  2
CLASSES
  0
CLASS
  1
LWPOLYLINE
  2
AcDbPolyline
  3
"AutoCAD"
 90
        0
280
     0
281
     1
  0
CLASS
  1
DICTIONARYVAR
  2
AcDbDictionaryVar
  3
"AutoCAD"
 90
        0
280
     0
281
     0
  0
CLASS
  1
HATCH
  2
AcDbHatch
  3
"ACAD_SEDONA"
 90
        0
280
     0
281
     1
  0
ENDSEC
  0
SECTION
  2
TABLES
  0
TABLE
  2
VPORT
  5
8
100
AcDbSymbolTable
 70
     2
  0
VPORT
  5
14
100
AcDbSymbolTableRecord
100
AcDbViewportTableRecord
  2
*ACTIVE
 70
     0
 10
0.0
 20
0.0
 11
1.0
 21
1.0
 12
484.0
 22
297.0
 13
0.0
 23
0.0
 14
1.0
 24
1.0
 15
0.0
 25
0.0
 16
0.0
 26
0.0
 36
1.0
 17
0.0
 27
0.0
 37
0.0
 40
594.0
 41
2.0
 42
50.0
 43
0.0
 44
0.0
 50
0.0
 51
0.0
 71
     0
 72
   100
 73
     1
 74
     1
 75
     0
 76
     0
 77
     0
 78
     0
  0
ENDTAB
  0
TABLE
  2
LTYPE
  5
5
100
AcDbSymbolTable
 70
     5
  0
LTYPE
  5
15
100
AcDbSymbolTableRecord
100
AcDbLinetypeTableRecord
  2
BYBLOCK
 70
     0
  3

 72
    65
 73
     0
 40
0.0
  0
LTYPE
  5
16
100
AcDbSymbolTableRecord
100
AcDbLinetypeTableRecord
  2
BYLAYER
 70
     0
  3

 72
    65
 73
     0
 40
0.0
  0
LTYPE
  5
17
100
AcDbSymbolTableRecord
100
AcDbLinetypeTableRecord
  2
CONTINUOUS
 70
    64
  3
Solid line
 72
    65
 73
     0
 40
0.0
  0
LTYPE
  5
18
100
AcDbSymbolTableRecord
100
AcDbLinetypeTableRecord
  2
DASHED
 70
    64
  3
__ __ __ __ __ __ __ __ __ __ __ __ __ __ __ __
 72
    65
 73
     2
 40
0.75
 49
0.5
 74
     0
 49
-0.25
 74
     0
  0
LTYPE
  5
19
100
AcDbSymbolTableRecord
100
AcDbLinetypeTableRecord
  2
DASHDOT
 70
    64
  3
__ . __ . __ . __ . __ . __ . __ . __ . __ . __
 72
    65
 73
     4
 40
1.0
 49
0.5
 74
     0
 49
-0.25
 74
     0
 49
0.0
 74
     0
 49
-0.25
 74
     0
  0
LTYPE
  5
1A
100
AcDbSymbolTableRecord
100
AcDbLinetypeTableRecord
  2
DIVIDE
 70
    64
  3
____ . . ____ . . ____ . . ____ . . ____ . . __
 72
    65
 73
     6
 40
1.25
 49
0.5
 74
     0
 49
-0.25
 74
     0
 49
0.0
 74
     0
 49
-0.25
 74
     0
 49
0.0
 74
     0
 49
-0.25
 74
     0
  0
LTYPE
  5
1B
100
AcDbSymbolTableRecord
100
AcDbLinetypeTableRecord
  2
DOT
 70
    64
  3
. . . . . . . . . . . . . . . . . . . . . . . .
 72
    65
 73
     2
 40
0.25
 49
0.0
 74
     0
 49
-0.25
 74
     0
  0
ENDTAB
  0
TABLE
  2
LAYER
  5
2
100
AcDbSymbolTable
 70
   102
  0
LAYER
  5
F
100
AcDbSymbolTableRecord
100
AcDbLayerTableRecord
  2
0
 70
     0
 62
     7
  6
CONTINUOUS
  0
LAYER
  5
1C
100
AcDbSymbolTableRecord
100
AcDbLayerTableRecord
  2
DEFPOINTS
 70
     0
 62
     7
  6
CONTINUOUS
  0
LAYER
  5
1D
100
AcDbSymbolTableRecord
100
AcDbLayerTableRecord
  2
M0
 70
     0
 62
     3
  6
CONTINUOUS
  0
LAYER
  5
1E
100
AcDbSymbolTableRecord
100
AcDbLayerTableRecord
  2
M1
 70
     0
 62
     3
  6
CONTINUOUS
  0
LAYER
  5
1F
100
AcDbSymbolTableRecord
100
AcDbLayerTableRecord
  2
DD0
 70
     0
 62
     4
  6
CONTINUOUS
  0
LAYER
  5
20
100
AcDbSymbolTableRecord
100
AcDbLayerTableRecord
  2
DN0
 70
     0
 62
     2
  6
CONTINUOUS
  0
ENDTAB
  0
TABLE
  2
STYLE
  5
3
100
AcDbSymbolTable
 70
     2
  0
STYLE
  5
10
100
AcDbSymbolTableRecord
100
AcDbTextStyleTableRecord
  2
STANDARD
 70
     0
 40
0.0
 41
1.0
 50
0.0
 71
     0
 42
0.2
  3
txt
  4
BIGFONT
  0
ENDTAB
  0
TABLE
  2
VIEW
  5
6
100
AcDbSymbolTable
 70
     0
  0
ENDTAB
  0
TABLE
  2
UCS
  5
7
100
AcDbSymbolTable
 70
     0
  0
ENDTAB
  0
TABLE
  2
APPID
  5
9
100
AcDbSymbolTable
 70
     1
  0
APPID
  5
11
100
AcDbSymbolTableRecord
100
AcDbRegAppTableRecord
  2
ACAD
 70
     0
  0
ENDTAB
  0
TABLE
  2
DIMSTYLE
  5
A
100
AcDbSymbolTable
 70
     2
  0
DIMSTYLE
105
27
100
AcDbSymbolTableRecord
100
AcDbDimStyleTableRecord
  2
STANDARD
 70
     0
  3

  4

  5

  6
_OPEN
  7
_OPEN
 40
1.0
 41
5.0
 42
1.0
 43
8.0
 44
1.0
 45
0.0
 46
0.0
 47
0.0
 48
0.0
140
5.25
141
0.09
142
0.0
143
0.03937
144
1.0
145
0.0
146
1.0
147
0.6
 71
     0
 72
     0
 73
     1
 74
     1
 75
     0
 76
     0
 77
     3
 78
     8
170
     0
171
     2
172
     0
173
     1
174
     0
175
     0
176
     0
177
     0
178
     0
270
     2
271
     2
272
     4
273
     2
274
     2
340
10
275
     0
280
     0
281
     0
282
     0
283
     1
284
     0
285
     0
286
     0
287
     3
288
     0
  0
DIMSTYLE
105
28
100
AcDbSymbolTableRecord
100
AcDbDimStyleTableRecord
  2
LEADSTYL
 70
     0
  3

  4

  5

  6
_OPEN
  7
_OPEN
 40
1.0
 41
5.0
 42
0.0625
 43
0.38
 44
0.18
 45
0.0
 46
0.0
 47
0.0
 48
0.0
140
5.25
141
0.09
142
0.0
143
25.4
144
1.0
145
0.0
146
1.0
147
0.6
 71
     0
 72
     0
 73
     1
 74
     1
 75
     0
 76
     0
 77
     0
 78
     0
170
     0
171
     2
172
     0
173
     1
174
     0
175
     0
176
     0
177
     0
178
     0
270
     2
271
     4
272
     4
273
     2
274
     2
340
10
275
     0
280
     0
281
     0
282
     0
283
     1
284
     0
285
     0
286
     0
287
     3
288
     0
  0
ENDTAB
  0
TABLE
  2
BLOCK_RECORD
  5
1
100
AcDbSymbolTable
 70
    22
  0
BLOCK_RECORD
  5
21
100
AcDbSymbolTableRecord
100
AcDbBlockTableRecord
  2
*MODEL_SPACE
  0
BLOCK_RECORD
  5
24
100
AcDbSymbolTableRecord
100
AcDbBlockTableRecord
  2
*PAPER_SPACE
  0
BLOCK_RECORD
  5
29
100
AcDbSymbolTableRecord
100
AcDbBlockTableRecord
  2
_NONE
  0
BLOCK_RECORD
  5
2D
100
AcDbSymbolTableRecord
100
AcDbBlockTableRecord
  2
_OPEN
  0
BLOCK_RECORD
  5
33
100
AcDbSymbolTableRecord
100
AcDbBlockTableRecord
  2
_CLOSED
  0
BLOCK_RECORD
  5
3A
100
AcDbSymbolTableRecord
100
AcDbBlockTableRecord
  2
_ORIGIN
  0
BLOCK_RECORD
  5
3F
100
AcDbSymbolTableRecord
100
AcDbBlockTableRecord
  2
_DOT
  0
BLOCK_RECORD
  5
47
100
AcDbSymbolTableRecord
100
AcDbBlockTableRecord
  2
_OBLIQUE
  0
BLOCK_RECORD
  5
4B
100
AcDbSymbolTableRecord
100
AcDbBlockTableRecord
  2
DIMS0
  0
BLOCK_RECORD
  5
57
100
AcDbSymbolTableRecord
100
AcDbBlockTableRecord
  2
DIMS1
  0
BLOCK_RECORD
  5
63
100
AcDbSymbolTableRecord
100
AcDbBlockTableRecord
  2
DIMS2
  0
BLOCK_RECORD
  5
6F
100
AcDbSymbolTableRecord
100
AcDbBlockTableRecord
  2
DIMS3
  0
BLOCK_RECORD
  5
7B
100
AcDbSymbolTableRecord
100
AcDbBlockTableRecord
  2
DIMS4
  0
BLOCK_RECORD
  5
88
100
AcDbSymbolTableRecord
100
AcDbBlockTableRecord
  2
DIMS5
  0
BLOCK_RECORD
  5
94
100
AcDbSymbolTableRecord
100
AcDbBlockTableRecord
  2
DIMS6
  0
BLOCK_RECORD
  5
9F
100
AcDbSymbolTableRecord
100
AcDbBlockTableRecord
  2
DIMS7
  0
BLOCK_RECORD
  5
A4
100
AcDbSymbolTableRecord
100
AcDbBlockTableRecord
  2
DIMS8
  0
BLOCK_RECORD
  5
A9
100
AcDbSymbolTableRecord
100
AcDbBlockTableRecord
  2
DIMS9
  0
BLOCK_RECORD
  5
B4
100
AcDbSymbolTableRecord
100
AcDbBlockTableRecord
  2
DIMS10
  0
BLOCK_RECORD
  5
BF
100
AcDbSymbolTableRecord
100
AcDbBlockTableRecord
  2
DIMS11
  0
BLOCK_RECORD
  5
CA
100
AcDbSymbolTableRecord
100
AcDbBlockTableRecord
  2
DIMS12
  0
BLOCK_RECORD
  5
D5
100
AcDbSymbolTableRecord
100
AcDbBlockTableRecord
  2
DIMS13
  0
BLOCK_RECORD
  5
DD
100
AcDbSymbolTableRecord
100
AcDbBlockTableRecord
  2
DIMS14
  0
BLOCK_RECORD
  5
E9
100
AcDbSymbolTableRecord
100
AcDbBlockTableRecord
  2
DIMS15
  0
ENDTAB
  0
ENDSEC
  0
SECTION
  2
BLOCKS
  0
BLOCK
  5
22
100
AcDbEntity
  8
0
100
AcDbBlockBegin
  2
*MODEL_SPACE
 70
     0
 10
0.0
 20
0.0
 30
0.0
  3
*MODEL_SPACE
  1

  0
ENDBLK
  5
23
100
AcDbEntity
  8
0
100
AcDbBlockEnd
  0
BLOCK
  5
25
100
AcDbEntity
 67
     1
  8
0
100
AcDbBlockBegin
  2
*PAPER_SPACE
 70
     0
 10
0.0
 20
0.0
 30
0.0
  3
*PAPER_SPACE
  1

  0
ENDBLK
  5
26
100
AcDbEntity
 67
     1
  8
0
100
AcDbBlockEnd
  0
BLOCK
  5
2A
100
AcDbEntity
  8
0
100
AcDbBlockBegin
  2
_NONE
 70
     0
 10
0.0
 20
0.0
  0
CIRCLE
  5
2B
100
AcDbEntity
  8
0
 62
     0
100
AcDbCircle
 10
0.0
 20
0.0
 40
0.25
  0
ENDBLK
  5
2C
100
AcDbEntity
  8
0
100
AcDbBlockEnd
  0
BLOCK
  5
2E
100
AcDbEntity
  8
0
100
AcDbBlockBegin
  2
_OPEN
 70
     0
 10
0.0
 20
0.0
  0
LINE
  5
2F
100
AcDbEntity
  8
0
 62
     0
100
AcDbLine
 10
-0.965926
 20
0.258819
 11
0.0
 21
0.0
  0
LINE
  5
30
100
AcDbEntity
  8
0
 62
     0
100
AcDbLine
 10
0.0
 20
0.0
 11
-0.965926
 21
-0.258819
  0
LINE
  5
31
100
AcDbEntity
  8
0
 62
     0
100
AcDbLine
 10
0.0
 20
0.0
 11
-1.0
 21
0.0
  0
ENDBLK
  5
32
100
AcDbEntity
  8
0
100
AcDbBlockEnd
  0
BLOCK
  5
34
100
AcDbEntity
  8
0
100
AcDbBlockBegin
  2
_CLOSED
 70
     0
 10
0.0
 20
0.0
  0
LINE
  5
35
100
AcDbEntity
  8
0
 62
     0
100
AcDbLine
 10
-0.965926
 20
0.258819
 11
0.0
 21
0.0
  0
LINE
  5
36
100
AcDbEntity
  8
0
 62
     0
100
AcDbLine
 10
0.0
 20
0.0
 11
-0.965926
 21
-0.258819
  0
LINE
  5
37
100
AcDbEntity
  8
0
 62
     0
100
AcDbLine
 10
-0.965926
 20
0.258819
 11
-0.965926
 21
-0.258819
  0
LINE
  5
38
100
AcDbEntity
  8
0
 62
     0
100
AcDbLine
 10
0.0
 20
0.0
 11
-1.0
 21
0.0
  0
ENDBLK
  5
39
100
AcDbEntity
  8
0
100
AcDbBlockEnd
  0
BLOCK
  5
3B
100
AcDbEntity
  8
0
100
AcDbBlockBegin
  2
_ORIGIN
 70
     0
 10
0.0
 20
0.0
  0
CIRCLE
  5
3C
100
AcDbEntity
  8
0
 62
     0
100
AcDbCircle
 10
0.0
 20
0.0
 40
0.5
  0
LINE
  5
3D
100
AcDbEntity
  8
0
 62
     0
100
AcDbLine
 10
0.0
 20
0.0
 11
-1.0
 21
0.0
  0
ENDBLK
  5
3E
100
AcDbEntity
  8
0
100
AcDbBlockEnd
  0
BLOCK
  5
40
100
AcDbEntity
  8
0
100
AcDbBlockBegin
  2
_DOT
 70
     0
 10
0.0
 20
0.0
  0
POLYLINE
  5
41
100
AcDbEntity
  8
0
 62
     0
100
AcDb2dPolyline
 66
     1
 70
     1
 40
0.5
 41
0.5
  0
VERTEX
  5
42
100
AcDbEntity
  8
0
 62
     0
100
AcDbVertex
100
AcDb2dVertex
 10
-0.25
 20
0.0
 42
1.0
  0
VERTEX
  5
43
100
AcDbEntity
  8
0
 62
     0
100
AcDbVertex
100
AcDb2dVertex
 10
0.25
 20
0.0
 42
1.0
  0
SEQEND
  5
44
100
AcDbEntity
  8
0
 62
     0
  0
LINE
  5
45
100
AcDbEntity
  8
0
 62
     0
100
AcDbLine
 10
-0.5
 20
0.0
 11
-1.0
 21
0.0
  0
ENDBLK
  5
46
100
AcDbEntity
  8
0
100
AcDbBlockEnd
  0
BLOCK
  5
48
100
AcDbEntity
  8
0
100
AcDbBlockBegin
  2
_OBLIQUE
 70
     0
 10
0.0
 20
0.0
  0
LINE
  5
49
100
AcDbEntity
  8
0
 62
     0
100
AcDbLine
 10
-0.353553
 20
-0.353553
 11
0.353553
 21
0.353553
  0
ENDBLK
  5
4A
100
AcDbEntity
  8
0
100
AcDbBlockEnd
  0
BLOCK
  5
4C
100
AcDbEntity
  8
DD0
100
AcDbBlockBegin
  2
DIMS0
 70
     0
 10
0.0
 20
0.0
  0
LINE
  5
4D
100
AcDbEntity
  8
DD0
100
AcDbLine
 10
175.202617
 20
357.033932
 11
175.202617
 21
413.179635
  0
LINE
  5
4E
100
AcDbEntity
  8
DD0
100
AcDbLine
 10
180.202617
 20
357.033932
 11
180.202617
 21
413.179635
  0
LINE
  5
4F
100
AcDbEntity
  8
DD0
100
AcDbLine
 10
170.372988
 20
410.218874
 11
175.202617
 21
411.512969
  0
LINE
  5
50
100
AcDbEntity
  8
DD0
100
AcDbLine
 10
175.202617
 20
411.512969
 11
170.372988
 21
412.807064
  0
LINE
  5
51
100
AcDbEntity
  8
DD0
100
AcDbLine
 10
185.032246
 20
412.807064
 11
180.202617
 21
411.512969
  0
LINE
  5
52
100
AcDbEntity
  8
DD0
100
AcDbLine
 10
180.202617
 20
411.512969
 11
185.032246
 21
410.218874
  0
LINE
  5
53
100
AcDbEntity
  8
DD0
100
AcDbLine
 10
164.702617
 20
411.512969
 11
185.702617
 21
411.512969
  0
TEXT
  5
54
100
AcDbEntity
  8
DD0
100
AcDbText
 10
166.172058
 20
412.512979
 40
4.166667
  1
５
 41
0.666667
  7
STANDARD
100
AcDbText
  0
ENDBLK
  5
55
100
AcDbEntity
  8
DD0
100
AcDbBlockEnd
  0
BLOCK
  5
58
100
AcDbEntity
  8
DD0
100
AcDbBlockBegin
  2
DIMS1
 70
     0
 10
0.0
 20
0.0
  0
LINE
  5
59
100
AcDbEntity
  8
DD0
100
AcDbLine
 10
180.202617
 20
357.033932
 11
180.202617
 21
413.179635
  0
LINE
  5
5A
100
AcDbEntity
  8
DD0
100
AcDbLine
 10
317.302615
 20
380.783931
 11
317.302615
 21
413.179635
  0
LINE
  5
5B
100
AcDbEntity
  8
DD0
100
AcDbLine
 10
185.032246
 20
412.807064
 11
180.202617
 21
411.512969
  0
LINE
  5
5C
100
AcDbEntity
  8
DD0
100
AcDbLine
 10
180.202617
 20
411.512969
 11
185.032246
 21
410.218874
  0
LINE
  5
5D
100
AcDbEntity
  8
DD0
100
AcDbLine
 10
312.472986
 20
410.218874
 11
317.302615
 21
411.512969
  0
LINE
  5
5E
100
AcDbEntity
  8
DD0
100
AcDbLine
 10
317.302615
 20
411.512969
 11
312.472986
 21
412.807064
  0
LINE
  5
5F
100
AcDbEntity
  8
DD0
100
AcDbLine
 10
180.202617
 20
411.512969
 11
317.302615
 21
411.512969
  0
TEXT
  5
60
100
AcDbEntity
  8
DD0
100
AcDbText
 10
240.705377
 20
412.512979
 40
4.166667
  1
１３７．５
 41
0.666667
  7
STANDARD
100
AcDbText
  0
ENDBLK
  5
61
100
AcDbEntity
  8
DD0
100
AcDbBlockEnd
  0
BLOCK
  5
64
100
AcDbEntity
  8
DD0
100
AcDbBlockBegin
  2
DIMS2
 70
     0
 10
0.0
 20
0.0
  0
LINE
  5
65
100
AcDbEntity
  8
DD0
100
AcDbLine
 10
51.433259
 20
378.533946
 11
51.433259
 21
399.591049
  0
LINE
  5
66
100
AcDbEntity
  8
DD0
100
AcDbLine
 10
129.333262
 20
311.23394
 11
129.333262
 21
399.591049
  0
LINE
  5
67
100
AcDbEntity
  8
DD0
100
AcDbLine
 10
56.262888
 20
399.218477
 11
51.433259
 21
397.924382
  0
LINE
  5
68
100
AcDbEntity
  8
DD0
100
AcDbLine
 10
51.433259
 20
397.924382
 11
56.262888
 21
396.630287
  0
LINE
  5
69
100
AcDbEntity
  8
DD0
100
AcDbLine
 10
124.503633
 20
396.630287
 11
129.333262
 21
397.924382
  0
LINE
  5
6A
100
AcDbEntity
  8
DD0
100
AcDbLine
 10
129.333262
 20
397.924382
 11
124.503633
 21
399.218477
  0
LINE
  5
6B
100
AcDbEntity
  8
DD0
100
AcDbLine
 10
51.433259
 20
397.924382
 11
129.333262
 21
397.924382
  0
TEXT
  5
6C
100
AcDbEntity
  8
DD0
100
AcDbText
 10
87.33604
 20
398.924392
 40
4.166667
  1
７８
 41
0.666667
  7
STANDARD
100
AcDbText
  0
ENDBLK
  5
6D
100
AcDbEntity
  8
DD0
100
AcDbBlockEnd
  0
BLOCK
  5
70
100
AcDbEntity
  8
DD0
100
AcDbBlockBegin
  2
DIMS3
 70
     0
 10
0.0
 20
0.0
  0
LINE
  5
71
100
AcDbEntity
  8
DD0
100
AcDbLine
 10
127.999924
 20
295.867272
 11
156.538448
 21
295.867272
  0
LINE
  5
72
100
AcDbEntity
  8
DD0
100
AcDbLine
 10
113.499929
 20
384.867284
 11
156.538448
 21
384.867284
  0
LINE
  5
73
100
AcDbEntity
  8
DD0
100
AcDbLine
 10
153.577687
 20
300.696901
 11
154.871782
 21
295.867272
  0
LINE
  5
74
100
AcDbEntity
  8
DD0
100
AcDbLine
 10
154.871782
 20
295.867272
 11
156.165877
 21
300.696901
  0
LINE
  5
75
100
AcDbEntity
  8
DD0
100
AcDbLine
 10
156.165877
 20
380.037655
 11
154.871782
 21
384.867284
  0
LINE
  5
76
100
AcDbEntity
  8
DD0
100
AcDbLine
 10
154.871782
 20
384.867284
 11
153.577687
 21
380.037655
  0
LINE
  5
77
100
AcDbEntity
  8
DD0
100
AcDbLine
 10
154.871782
 20
295.867272
 11
154.871782
 21
384.867284
  0
TEXT
  5
78
100
AcDbEntity
  8
DD0
100
AcDbText
 10
153.871784
 20
337.320033
 40
4.166667
  1
８９
 50
90.000003
 41
0.666667
  7
STANDARD
100
AcDbText
  0
ENDBLK
  5
79
100
AcDbEntity
  8
DD0
100
AcDbBlockEnd
  0
BLOCK
  5
7C
100
AcDbEntity
  8
DD0
100
AcDbBlockBegin
  2
DIMS4
 70
     0
 10
0.0
 20
0.0
  0
LINE
  5
7D
100
AcDbEntity
  8
DD0
100
AcDbLine
 10
39.433265
 20
369.733948
 11
39.433265
 21
415.296309
  0
LINE
  5
7E
100
AcDbEntity
  8
DD0
100
AcDbLine
 10
141.333257
 20
369.733948
 11
141.333257
 21
415.296309
  0
LINE
  5
7F
100
AcDbEntity
  8
DD0
100
AcDbLine
 10
44.262894
 20
414.923738
 11
39.433265
 21
413.629643
  0
LINE
  5
80
100
AcDbEntity
  8
DD0
100
AcDbLine
 10
39.433265
 20
413.629643
 11
44.262894
 21
412.335547
  0
LINE
  5
81
100
AcDbEntity
  8
DD0
100
AcDbLine
 10
136.503628
 20
412.335547
 11
141.333257
 21
413.629643
  0
LINE
  5
82
100
AcDbEntity
  8
DD0
100
AcDbLine
 10
141.333257
 20
413.629643
 11
136.503628
 21
414.923738
  0
LINE
  5
83
100
AcDbEntity
  8
DD0
100
AcDbLine
 10
39.433265
 20
413.629643
 11
141.333257
 21
413.629643
  0
TEXT
  5
84
100
AcDbEntity
  8
DD0
100
AcDbText
 10
85.669373
 20
414.629653
 40
4.166667
  1
１０２
 41
0.666667
  7
STANDARD
100
AcDbText
  0
TEXT
  5
85
100
AcDbEntity
  8
DD0
100
AcDbText
 10
55.669374
 20
408.129663
 40
4.166667
  1
（補助接点サイドオンユニットを付けた場合）
 41
0.666667
  7
STANDARD
100
AcDbText
  0
ENDBLK
  5
86
100
AcDbEntity
  8
DD0
100
AcDbBlockEnd
  0
BLOCK
  5
89
100
AcDbEntity
  8
DD0
100
AcDbBlockBegin
  2
DIMS5
 70
     0
 10
0.0
 20
0.0
  0
LINE
  5
8A
100
AcDbEntity
  8
DD0
100
AcDbLine
 10
72.783257
 20
306.700605
 11
72.783257
 21
282.171721
  0
LINE
  5
8B
100
AcDbEntity
  8
DD0
100
AcDbLine
 10
90.383259
 20
289.200606
 11
90.383259
 21
282.171721
  0
LINE
  5
8C
100
AcDbEntity
  8
DD0
100
AcDbLine
 10
77.612886
 20
285.132483
 11
72.783257
 21
283.838388
  0
LINE
  5
8D
100
AcDbEntity
  8
DD0
100
AcDbLine
 10
72.783257
 20
283.838388
 11
77.612886
 21
282.544293
  0
LINE
  5
8E
100
AcDbEntity
  8
DD0
100
AcDbLine
 10
85.55363
 20
282.544293
 11
90.383259
 21
283.838388
  0
LINE
  5
8F
100
AcDbEntity
  8
DD0
100
AcDbLine
 10
90.383259
 20
283.838388
 11
85.55363
 21
285.132483
  0
LINE
  5
90
100
AcDbEntity
  8
DD0
100
AcDbLine
 10
72.783257
 20
283.838388
 11
90.383259
 21
283.838388
  0
TEXT
  5
91
100
AcDbEntity
  8
DD0
100
AcDbText
 10
75.202709
 20
284.838398
 40
4.166667
  1
１７．５
 41
0.666667
  7
STANDARD
100
AcDbText
  0
ENDBLK
  5
92
100
AcDbEntity
  8
DD0
100
AcDbBlockEnd
  0
BLOCK
  5
95
100
AcDbEntity
  8
DD0
100
AcDbBlockBegin
  2
DIMS6
 70
     0
 10
0.0
 20
0.0
  0
LINE
  5
96
100
AcDbEntity
  8
DD0
100
AcDbLine
 10
306.302605
 20
380.533941
 11
306.302605
 21
399.403543
  0
LINE
  5
97
100
AcDbEntity
  8
DD0
100
AcDbLine
 10
322.132244
 20
399.030972
 11
317.302615
 21
397.736877
  0
LINE
  5
98
100
AcDbEntity
  8
DD0
100
AcDbLine
 10
317.302615
 20
397.736877
 11
322.132244
 21
396.442782
  0
LINE
  5
99
100
AcDbEntity
  8
DD0
100
AcDbLine
 10
301.472976
 20
396.442782
 11
306.302605
 21
397.736877
  0
LINE
  5
9A
100
AcDbEntity
  8
DD0
100
AcDbLine
 10
306.302605
 20
397.736877
 11
301.472976
 21
399.030972
  0
LINE
  5
9B
100
AcDbEntity
  8
DD0
100
AcDbLine
 10
322.802615
 20
397.736877
 11
300.802606
 21
397.736877
  0
TEXT
  5
9C
100
AcDbEntity
  8
DD0
100
AcDbText
 10
308.755378
 20
398.736887
 40
4.166667
  1
１１
 41
0.666667
  7
STANDARD
100
AcDbText
  0
ENDBLK
  5
9D
100
AcDbEntity
  8
DD0
100
AcDbBlockEnd
  0
BLOCK
  5
A0
100
AcDbEntity
  8
DD0
100
AcDbBlockBegin
  2
DIMS7
 70
     0
 10
0.0
 20
0.0
  0
TEXT
  5
A1
100
AcDbEntity
  8
DD0
100
AcDbText
 10
135.36049
 20
291.148095
 40
4.166667
  1
　
 50
310.134438
 41
0.666667
  7
STANDARD
100
AcDbText
  0
ENDBLK
  5
A2
100
AcDbEntity
  8
DD0
100
AcDbBlockEnd
  0
BLOCK
  5
A5
100
AcDbEntity
  8
DD0
100
AcDbBlockBegin
  2
DIMS8
 70
     0
 10
0.0
 20
0.0
  0
TEXT
  5
A6
100
AcDbEntity
  8
DD0
100
AcDbText
 10
138.480256
 20
293.781668
 40
4.166667
  1
　
 50
317.115984
 41
0.666667
  7
STANDARD
100
AcDbText
  0
ENDBLK
  5
A7
100
AcDbEntity
  8
DD0
100
AcDbBlockEnd
  0
BLOCK
  5
AA
100
AcDbEntity
  8
DD0
100
AcDbBlockBegin
  2
DIMS9
 70
     0
 10
0.0
 20
0.0
  0
LINE
  5
AB
100
AcDbEntity
  8
DD0
100
AcDbLine
 10
52.452521
 20
193.048113
 11
156.538448
 21
193.048113
  0
LINE
  5
AC
100
AcDbEntity
  8
DD0
100
AcDbLine
 10
123.452525
 20
128.048116
 11
156.538448
 21
128.048116
  0
LWPOLYLINE
  5
AD
100
AcDbEntity
  8
DD0
100
AcDbPolyline
 90
        2
 70
     1
 43
0.833333
 10
154.455115
 20
193.048113
 42
1.0
 10
155.288449
 20
193.048113
 42
1.0
  0
LINE
  5
AE
100
AcDbEntity
  8
DD0
100
AcDbLine
 10
153.577687
 20
132.877745
 11
154.871782
 21
128.048116
  0
LINE
  5
AF
100
AcDbEntity
  8
DD0
100
AcDbLine
 10
154.871782
 20
128.048116
 11
156.165877
 21
132.877745
  0
LINE
  5
B0
100
AcDbEntity
  8
DD0
100
AcDbLine
 10
154.871782
 20
193.048113
 11
154.871782
 21
128.048116
  0
TEXT
  5
B1
100
AcDbEntity
  8
DD0
100
AcDbText
 10
153.871784
 20
157.500895
 40
4.166667
  1
６５
 50
90.000003
 41
0.666667
  7
STANDARD
100
AcDbText
  0
ENDBLK
  5
B2
100
AcDbEntity
  8
DD0
100
AcDbBlockEnd
  0
BLOCK
  5
B5
100
AcDbEntity
  8
DD0
100
AcDbBlockBegin
  2
DIMS10
 70
     0
 10
0.0
 20
0.0
  0
LINE
  5
B6
100
AcDbEntity
  8
DD0
100
AcDbLine
 10
60.647333
 20
193.048113
 11
156.538448
 21
193.048113
  0
LINE
  5
B7
100
AcDbEntity
  8
DD0
100
AcDbLine
 10
114.499927
 20
207.048115
 11
156.538448
 21
207.048115
  0
LWPOLYLINE
  5
B8
100
AcDbEntity
  8
DD0
100
AcDbPolyline
 90
        2
 70
     1
 43
0.833333
 10
154.455115
 20
193.048113
 42
1.0
 10
155.288449
 20
193.048113
 42
1.0
  0
LINE
  5
B9
100
AcDbEntity
  8
DD0
100
AcDbLine
 10
156.165877
 20
202.218487
 11
154.871782
 21
207.048115
  0
LINE
  5
BA
100
AcDbEntity
  8
DD0
100
AcDbLine
 10
154.871782
 20
207.048115
 11
153.577687
 21
202.218487
  0
LINE
  5
BB
100
AcDbEntity
  8
DD0
100
AcDbLine
 10
154.871782
 20
193.048113
 11
154.871782
 21
207.048115
  0
TEXT
  5
BC
100
AcDbEntity
  8
DD0
100
AcDbText
 10
153.871784
 20
197.000889
 40
4.166667
  1
１４
 50
90.000003
 41
0.666667
  7
STANDARD
100
AcDbText
  0
ENDBLK
  5
BD
100
AcDbEntity
  8
DD0
100
AcDbBlockEnd
  0
BLOCK
  5
C0
100
AcDbEntity
  8
DD0
100
AcDbBlockBegin
  2
DIMS11
 70
     0
 10
0.0
 20
0.0
  0
LINE
  5
C1
100
AcDbEntity
  8
DD0
100
AcDbLine
 10
54.883255
 20
198.812172
 11
54.883255
 21
222.531958
  0
LINE
  5
C2
100
AcDbEntity
  8
DD0
100
AcDbLine
 10
125.88325
 20
133.812174
 11
125.88325
 21
222.531958
  0
LWPOLYLINE
  5
C3
100
AcDbEntity
  8
DD0
100
AcDbPolyline
 90
        2
 70
     1
 43
0.833333
 10
54.466589
 20
220.865292
 42
1.0
 10
55.299922
 20
220.865292
 42
1.0
  0
LINE
  5
C4
100
AcDbEntity
  8
DD0
100
AcDbLine
 10
121.053621
 20
219.571197
 11
125.88325
 21
220.865292
  0
LINE
  5
C5
100
AcDbEntity
  8
DD0
100
AcDbLine
 10
125.88325
 20
220.865292
 11
121.053621
 21
222.159387
  0
LINE
  5
C6
100
AcDbEntity
  8
DD0
100
AcDbLine
 10
54.883255
 20
220.865292
 11
125.88325
 21
220.865292
  0
TEXT
  5
C7
100
AcDbEntity
  8
DD0
100
AcDbText
 10
75.669367
 20
221.865302
 40
4.166667
  1
７１（６８も可能）
 41
0.666667
  7
STANDARD
100
AcDbText
  0
ENDBLK
  5
C8
100
AcDbEntity
  8
DD0
100
AcDbBlockEnd
  0
BLOCK
  5
CB
100
AcDbEntity
  8
DD0
100
AcDbBlockBegin
  2
DIMS12
 70
     0
 10
0.0
 20
0.0
  0
LINE
  5
CC
100
AcDbEntity
  8
DD0
100
AcDbLine
 10
54.883255
 20
198.812172
 11
54.883255
 21
222.531958
  0
LINE
  5
CD
100
AcDbEntity
  8
DD0
100
AcDbLine
 10
51.433259
 20
204.71478
 11
51.433259
 21
222.531958
  0
LWPOLYLINE
  5
CE
100
AcDbEntity
  8
DD0
100
AcDbPolyline
 90
        2
 70
     1
 43
0.833333
 10
54.466589
 20
220.865292
 42
1.0
 10
55.299922
 20
220.865292
 42
1.0
  0
LINE
  5
CF
100
AcDbEntity
  8
DD0
100
AcDbLine
 10
46.60363
 20
219.571197
 11
51.433259
 21
220.865292
  0
LINE
  5
D0
100
AcDbEntity
  8
DD0
100
AcDbLine
 10
51.433259
 20
220.865292
 11
46.60363
 21
222.159387
  0
LINE
  5
D1
100
AcDbEntity
  8
DD0
100
AcDbLine
 10
54.883255
 20
220.865292
 11
34.266593
 21
220.865292
  0
TEXT
  5
D2
100
AcDbEntity
  8
DD0
100
AcDbText
 10
35.73604
 20
221.865302
 40
4.166667
  1
３．５
 41
0.666667
  7
STANDARD
100
AcDbText
  0
ENDBLK
  5
D3
100
AcDbEntity
  8
DD0
100
AcDbBlockEnd
  0
BLOCK
  5
D6
100
AcDbEntity
  8
DD0
100
AcDbBlockBegin
  2
DIMS13
 70
     0
 10
0.0
 20
0.0
  0
LINE
  5
D7
100
AcDbEntity
  8
DD0
100
AcDbLine
 10
131.209457
 20
123.581555
 11
127.149679
 21
126.50015
  0
LINE
  5
D8
100
AcDbEntity
  8
DD0
100
AcDbLine
 10
127.149679
 20
126.50015
 11
129.206253
 21
121.942684
  0
LINE
  5
D9
100
AcDbEntity
  8
DD0
100
AcDbLine
 10
127.149679
 20
126.50015
 11
136.871612
 21
114.616962
  0
TEXT
  5
DA
100
AcDbEntity
  8
DD0
100
AcDbText
 10
134.139499
 20
109.676077
 40
4.166667
  1
２－Ｍ４ねじ穴
 41
0.666667
  7
STANDARD
100
AcDbText
  0
ENDBLK
  5
DB
100
AcDbEntity
  8
DD0
100
AcDbBlockEnd
  0
BLOCK
  5
DE
100
AcDbEntity
  8
DD0
100
AcDbBlockBegin
  2
DIMS14
 70
     0
 10
0.0
 20
0.0
  0
LINE
  5
DF
100
AcDbEntity
  8
DD0
100
AcDbLine
 10
67.266595
 20
384.867284
 11
28.21632
 21
384.867284
  0
LINE
  5
E0
100
AcDbEntity
  8
DD0
100
AcDbLine
 10
71.116591
 20
367.867315
 11
28.21632
 21
367.867315
  0
LINE
  5
E1
100
AcDbEntity
  8
DD0
100
AcDbLine
 10
31.177081
 20
380.037655
 11
29.882986
 21
384.867284
  0
LINE
  5
E2
100
AcDbEntity
  8
DD0
100
AcDbLine
 10
29.882986
 20
384.867284
 11
28.588891
 21
380.037655
  0
LINE
  5
E3
100
AcDbEntity
  8
DD0
100
AcDbLine
 10
28.588891
 20
372.696944
 11
29.882986
 21
367.867315
  0
LINE
  5
E4
100
AcDbEntity
  8
DD0
100
AcDbLine
 10
29.882986
 20
367.867315
 11
31.177081
 21
372.696944
  0
LINE
  5
E5
100
AcDbEntity
  8
DD0
100
AcDbLine
 10
29.882986
 20
384.867284
 11
29.882986
 21
367.867315
  0
TEXT
  5
E6
100
AcDbEntity
  8
DD0
100
AcDbText
 10
28.882986
 20
373.320067
 40
4.166667
  1
１７
 50
90.000003
 41
0.666667
  7
STANDARD
100
AcDbText
  0
ENDBLK
  5
E7
100
AcDbEntity
  8
DD0
100
AcDbBlockEnd
  0
BLOCK
  5
EA
100
AcDbEntity
  8
DD0
100
AcDbBlockBegin
  2
DIMS15
 70
     0
 10
0.0
 20
0.0
  0
LINE
  5
EB
100
AcDbEntity
  8
DD0
100
AcDbLine
 10
71.116591
 20
367.867315
 11
28.21632
 21
367.867315
  0
LINE
  5
EC
100
AcDbEntity
  8
DD0
100
AcDbLine
 10
71.116591
 20
308.867252
 11
28.21632
 21
308.867252
  0
LINE
  5
ED
100
AcDbEntity
  8
DD0
100
AcDbLine
 10
31.177081
 20
363.037686
 11
29.882986
 21
367.867315
  0
LINE
  5
EE
100
AcDbEntity
  8
DD0
100
AcDbLine
 10
29.882986
 20
367.867315
 11
28.588891
 21
363.037686
  0
LINE
  5
EF
100
AcDbEntity
  8
DD0
100
AcDbLine
 10
28.588891
 20
313.69688
 11
29.882986
 21
308.867252
  0
LINE
  5
F0
100
AcDbEntity
  8
DD0
100
AcDbLine
 10
29.882986
 20
308.867252
 11
31.177081
 21
313.69688
  0
LINE
  5
F1
100
AcDbEntity
  8
DD0
100
AcDbLine
 10
29.882986
 20
367.867315
 11
29.882986
 21
308.867252
  0
TEXT
  5
F2
100
AcDbEntity
  8
DD0
100
AcDbText
 10
28.882986
 20
335.320064
 40
4.166667
  1
５９
 50
90.000003
 41
0.666667
  7
STANDARD
100
AcDbText
  0
ENDBLK
  5
F3
100
AcDbEntity
  8
DD0
100
AcDbBlockEnd
  0
ENDSEC
  0
SECTION
  2
ENTITIES
  0
INSERT
  5
56
100
AcDbEntity
  8
DD0
100
AcDbBlockReference
  2
DIMS0
 10
0.0
 20
0.0
  0
INSERT
  5
62
100
AcDbEntity
  8
DD0
100
AcDbBlockReference
  2
DIMS1
 10
0.0
 20
0.0
  0
INSERT
  5
6E
100
AcDbEntity
  8
DD0
100
AcDbBlockReference
  2
DIMS2
 10
0.0
 20
0.0
  0
INSERT
  5
7A
100
AcDbEntity
  8
DD0
100
AcDbBlockReference
  2
DIMS3
 10
0.0
 20
0.0
  0
INSERT
  5
87
100
AcDbEntity
  8
DD0
100
AcDbBlockReference
  2
DIMS4
 10
0.0
 20
0.0
  0
INSERT
  5
93
100
AcDbEntity
  8
DD0
100
AcDbBlockReference
  2
DIMS5
 10
0.0
 20
0.0
  0
INSERT
  5
9E
100
AcDbEntity
  8
DD0
100
AcDbBlockReference
  2
DIMS6
 10
0.0
 20
0.0
  0
INSERT
  5
A3
100
AcDbEntity
  8
DD0
100
AcDbBlockReference
  2
DIMS7
 10
0.0
 20
0.0
  0
INSERT
  5
A8
100
AcDbEntity
  8
DD0
100
AcDbBlockReference
  2
DIMS8
 10
0.0
 20
0.0
  0
INSERT
  5
B3
100
AcDbEntity
  8
DD0
100
AcDbBlockReference
  2
DIMS9
 10
0.0
 20
0.0
  0
INSERT
  5
BE
100
AcDbEntity
  8
DD0
100
AcDbBlockReference
  2
DIMS10
 10
0.0
 20
0.0
  0
INSERT
  5
C9
100
AcDbEntity
  8
DD0
100
AcDbBlockReference
  2
DIMS11
 10
0.0
 20
0.0
  0
INSERT
  5
D4
100
AcDbEntity
  8
DD0
100
AcDbBlockReference
  2
DIMS12
 10
0.0
 20
0.0
  0
INSERT
  5
DC
100
AcDbEntity
  8
DD0
100
AcDbBlockReference
  2
DIMS13
 10
0.0
 20
0.0
  0
INSERT
  5
E8
100
AcDbEntity
  8
DD0
100
AcDbBlockReference
  2
DIMS14
 10
0.0
 20
0.0
  0
INSERT
  5
F4
100
AcDbEntity
  8
DD0
100
AcDbBlockReference
  2
DIMS15
 10
0.0
 20
0.0
  0
LINE
  5
F5
100
AcDbEntity
  8
M0
 62
     7
100
AcDbLine
 10
227.702614
 20
320.367264
 11
181.202613
 21
320.367264
  0
LINE
  5
F6
100
AcDbEntity
  8
M0
 62
     7
100
AcDbLine
 10
186.302613
 20
343.367262
 11
181.202613
 21
343.367262
  0
LINE
  5
F7
100
AcDbEntity
  8
M0
 62
     7
100
AcDbLine
 10
181.202613
 20
345.567262
 11
186.302613
 21
345.567262
  0
LINE
  5
F8
100
AcDbEntity
  8
M0
 62
     7
100
AcDbLine
 10
186.302613
 20
345.567262
 11
186.302613
 21
355.367262
  0
ARC
  5
F9
100
AcDbEntity
  8
M0
 62
     7
100
AcDbCircle
 10
228.402614
 20
355.625448
 40
0.5
100
AcDbArc
 50
0.0
 51
44.92732
  0
ARC
  5
FA
100
AcDbEntity
  8
M0
 62
     7
100
AcDbCircle
 10
187.302614
 20
355.367262
 40
1.0
100
AcDbArc
 50
90.0
 51
180.0
  0
ARC
  5
FB
100
AcDbEntity
  8
M0
 62
     7
100
AcDbCircle
 10
182.702614
 20
334.067262
 40
0.5
100
AcDbArc
 50
180.0
 51
270.0
  0
ARC
  5
FC
100
AcDbEntity
  8
M0
 62
     7
100
AcDbCircle
 10
182.702614
 20
342.667262
 40
0.5
100
AcDbArc
 50
90.0
 51
180.0
  0
LINE
  5
FD
100
AcDbEntity
  8
M0
 62
     7
100
AcDbLine
 10
233.202614
 20
352.867262
 11
233.202614
 21
326.267263
  0
LINE
  5
FE
100
AcDbEntity
  8
M0
 62
     7
100
AcDbLine
 10
228.902614
 20
338.367263
 11
228.902614
 21
334.367262
  0
LINE
  5
FF
100
AcDbEntity
  8
M0
 62
     7
100
AcDbLine
 10
186.302613
 20
331.167262
 11
181.202614
 21
331.167262
  0
LINE
  5
100
100
AcDbEntity
  8
M0
 62
     7
100
AcDbLine
 10
232.202614
 20
325.267263
 11
231.646355
 21
325.267263
  0
LINE
  5
101
100
AcDbEntity
  8
M0
 62
     7
100
AcDbLine
 10
228.702614
 20
355.367262
 11
228.702614
 21
355.867262
  0
LINE
  5
102
100
AcDbEntity
  8
M0
 62
     7
100
AcDbLine
 10
181.202614
 20
356.367262
 11
228.202614
 21
356.367262
  0
LINE
  5
103
100
AcDbEntity
  8
M0
 62
     7
100
AcDbLine
 10
233.202614
 20
334.367262
 11
228.902614
 21
334.367262
  0
LINE
  5
104
100
AcDbEntity
  8
M0
 62
     7
100
AcDbLine
 10
183.202613
 20
343.167262
 11
185.802612
 21
343.167262
  0
ARC
  5
105
100
AcDbEntity
  8
M0
 62
     7
100
AcDbCircle
 10
187.302614
 20
321.367262
 40
1.0
100
AcDbArc
 50
180.0
 51
270.0
  0
ARC
  5
106
100
AcDbEntity
  8
M0
 62
     7
100
AcDbCircle
 10
227.702614
 20
321.367262
 40
1.0
100
AcDbArc
 50
270.0
 51
360.0
  0
ARC
  5
107
100
AcDbEntity
  8
M0
 62
     7
100
AcDbCircle
 10
185.802614
 20
342.667262
 40
0.5
100
AcDbArc
 50
0.0
 51
90.0
  0
ARC
  5
108
100
AcDbEntity
  8
M0
 62
     7
100
AcDbCircle
 10
185.802614
 20
334.067262
 40
0.5
100
AcDbArc
 50
270.0
 51
360.0
  0
LINE
  5
109
100
AcDbEntity
  8
M0
 62
     7
100
AcDbLine
 10
175.202614
 20
355.367262
 11
175.202614
 21
321.367262
  0
ARC
  5
10A
100
AcDbEntity
  8
M0
 62
     7
100
AcDbCircle
 10
181.202614
 20
332.167262
 40
1.0
100
AcDbArc
 50
180.0
 51
270.0
  0
ARC
  5
10B
100
AcDbEntity
  8
M0
 62
     7
100
AcDbCircle
 10
181.202614
 20
332.367262
 40
1.0
100
AcDbArc
 50
90.0
 51
180.0
  0
LINE
  5
10C
100
AcDbEntity
  8
M0
 62
     7
100
AcDbLine
 10
188.002612
 20
320.367264
 11
181.202613
 21
320.367264
  0
ARC
  5
10D
100
AcDbEntity
  8
M0
 62
     7
100
AcDbCircle
 10
232.202614
 20
350.467262
 40
1.0
100
AcDbArc
 50
0.0
 51
90.0
  0
ARC
  5
10E
100
AcDbEntity
  8
M0
 62
     7
100
AcDbCircle
 10
181.202614
 20
355.367262
 40
1.0
100
AcDbArc
 50
90.0
 51
180.0
  0
ARC
  5
10F
100
AcDbEntity
  8
M0
 62
     7
100
AcDbCircle
 10
228.202614
 20
355.867262
 40
0.5
100
AcDbArc
 50
0.0
 51
90.0
  0
ARC
  5
110
100
AcDbEntity
  8
M0
 62
     7
100
AcDbCircle
 10
181.202614
 20
344.567262
 40
1.0
100
AcDbArc
 50
90.0
 51
180.0
  0
ARC
  5
111
100
AcDbEntity
  8
M0
 62
     7
100
AcDbCircle
 10
232.202614
 20
326.267262
 40
1.0
100
AcDbArc
 50
270.0
 51
360.0
  0
ARC
  5
112
100
AcDbEntity
  8
M0
 62
     7
100
AcDbCircle
 10
227.90262
 20
321.367257
 40
0.999994
100
AcDbArc
 50
270.0
 51
360.0
  0
ARC
  5
113
100
AcDbEntity
  8
M0
 62
     7
100
AcDbCircle
 10
181.202614
 20
321.367262
 40
1.0
100
AcDbArc
 50
180.0
 51
270.0
  0
ARC
  5
114
100
AcDbEntity
  8
M0
 62
     7
100
AcDbCircle
 10
181.202614
 20
344.367262
 40
1.0
100
AcDbArc
 50
180.0
 51
270.0
  0
LINE
  5
115
100
AcDbEntity
  8
M0
 62
     7
100
AcDbLine
 10
181.202614
 20
333.367262
 11
186.302613
 21
333.367262
  0
LINE
  5
116
100
AcDbEntity
  8
M0
 62
     7
100
AcDbLine
 10
233.202614
 20
342.367262
 11
228.905339
 21
342.367262
  0
LINE
  5
117
100
AcDbEntity
  8
M0
 62
     7
100
AcDbLine
 10
228.902614
 20
355.625448
 11
228.902614
 21
351.467262
  0
LINE
  5
118
100
AcDbEntity
  8
M0
 62
     7
100
AcDbLine
 10
231.646355
 20
351.467262
 11
232.202614
 21
351.467262
  0
LINE
  5
119
100
AcDbEntity
  8
M0
 62
     7
100
AcDbLine
 10
227.202614
 20
356.367262
 11
227.898267
 21
356.367262
  0
LINE
  5
11A
100
AcDbEntity
  8
M0
 62
     7
100
AcDbLine
 10
228.702614
 20
355.367262
 11
228.702614
 21
321.367262
  0
LINE
  5
11B
100
AcDbEntity
  8
M0
 62
     7
100
AcDbLine
 10
183.202613
 20
343.167262
 11
182.702612
 21
343.167262
  0
LINE
  5
11C
100
AcDbEntity
  8
M0
 62
     7
100
AcDbLine
 10
231.952614
 20
351.467262
 11
228.902614
 21
351.467262
  0
LINE
  5
11D
100
AcDbEntity
  8
M0
 62
     7
100
AcDbLine
 10
228.902614
 20
351.467262
 11
231.646355
 21
351.467262
  0
LINE
  5
11E
100
AcDbEntity
  8
M0
 62
     7
100
AcDbLine
 10
182.372793
 20
343.367262
 11
182.372793
 21
343.043051
  0
LINE
  5
11F
100
AcDbEntity
  8
M0
 62
     7
100
AcDbLine
 10
231.202614
 20
355.367262
 11
231.202614
 21
356.367262
  0
LINE
  5
120
100
AcDbEntity
  8
M0
 62
     7
100
AcDbLine
 10
182.202615
 20
339.417262
 11
181.702614
 21
339.417262
  0
LINE
  5
121
100
AcDbEntity
  8
M0
 62
     7
100
AcDbLine
 10
180.202614
 20
321.367262
 11
180.202614
 21
355.367262
  0
LINE
  5
122
100
AcDbEntity
  8
M0
 62
     7
100
AcDbLine
 10
233.202614
 20
352.867262
 11
232.202614
 21
356.367262
  0
LINE
  5
123
100
AcDbEntity
  8
M0
 62
     7
100
AcDbLine
 10
228.905339
 20
342.367262
 11
228.905339
 21
338.367263
  0
LINE
  5
124
100
AcDbEntity
  8
M0
 62
     7
100
AcDbLine
 10
231.202614
 20
356.367262
 11
232.202614
 21
356.367262
  0
LINE
  5
125
100
AcDbEntity
  8
M0
 62
     7
100
AcDbLine
 10
231.202614
 20
351.467262
 11
231.202614
 21
355.367262
  0
LINE
  5
126
100
AcDbEntity
  8
M0
 62
     7
100
AcDbLine
 10
185.902614
 20
333.577365
 11
185.902614
 21
333.367262
  0
LINE
  5
127
100
AcDbEntity
  8
M0
 62
     7
100
AcDbLine
 10
181.702614
 20
339.367261
 11
182.202615
 21
339.367261
  0
LINE
  5
128
100
AcDbEntity
  8
M0
 62
     7
100
AcDbLine
 10
231.646355
 20
325.267263
 11
228.902614
 21
325.267263
  0
LINE
  5
129
100
AcDbEntity
  8
M0
 62
     7
100
AcDbLine
 10
187.302615
 20
320.367264
 11
181.202613
 21
320.367264
  0
LINE
  5
12A
100
AcDbEntity
  8
M0
 62
     7
100
AcDbLine
 10
186.302613
 20
321.367262
 11
186.302613
 21
331.167262
  0
LINE
  5
12B
100
AcDbEntity
  8
M0
 62
     7
100
AcDbLine
 10
186.302613
 20
333.367262
 11
186.302613
 21
343.367262
  0
LINE
  5
12C
100
AcDbEntity
  8
M0
 62
     7
100
AcDbLine
 10
187.802613
 20
320.367264
 11
181.202613
 21
320.367264
  0
LINE
  5
12D
100
AcDbEntity
  8
M0
 62
     7
100
AcDbLine
 10
182.372793
 20
333.367262
 11
182.372793
 21
333.691472
  0
LINE
  5
12E
100
AcDbEntity
  8
M0
 62
     7
100
AcDbLine
 10
182.702612
 20
333.567262
 11
183.202613
 21
333.567262
  0
LINE
  5
12F
100
AcDbEntity
  8
M0
 62
     7
100
AcDbLine
 10
185.802612
 20
333.567262
 11
183.202613
 21
333.567262
  0
LINE
  5
130
100
AcDbEntity
  8
M0
 62
     7
100
AcDbLine
 10
182.202615
 20
334.067263
 11
182.202615
 21
342.667262
  0
LINE
  5
131
100
AcDbEntity
  8
M0
 62
     7
100
AcDbLine
 10
231.852614
 20
338.367263
 11
231.852614
 21
342.367262
  0
LINE
  5
132
100
AcDbEntity
  8
M0
 62
     7
100
AcDbLine
 10
181.702614
 20
343.367262
 11
181.702614
 21
333.367262
  0
LINE
  5
133
100
AcDbEntity
  8
M0
 62
     7
100
AcDbLine
 10
228.902614
 20
325.267263
 11
228.902614
 21
321.367262
  0
LINE
  5
134
100
AcDbEntity
  8
M0
 62
     7
100
AcDbLine
 10
231.852614
 20
334.367262
 11
231.852614
 21
338.367263
  0
LINE
  5
135
100
AcDbEntity
  8
M0
 62
     7
100
AcDbLine
 10
228.754373
 20
355.975197
 11
228.663263
 21
356.061051
  0
LINE
  5
136
100
AcDbEntity
  8
M0
 62
     7
100
AcDbLine
 10
185.902614
 20
343.15716
 11
185.902614
 21
343.367262
  0
LINE
  5
137
100
AcDbEntity
  8
M0
 62
     7
100
AcDbLine
 10
63.13326
 20
336.967272
 11
63.13326
 21
336.867272
  0
LINE
  5
138
100
AcDbEntity
  8
M0
 62
     7
100
AcDbLine
 10
63.13326
 20
333.867272
 11
64.133261
 21
333.867272
  0
LINE
  5
139
100
AcDbEntity
  8
M0
 62
     7
100
AcDbLine
 10
63.63326
 20
331.167272
 11
64.133261
 21
331.167272
  0
LINE
  5
13A
100
AcDbEntity
  8
M0
 62
     7
100
AcDbLine
 10
64.833259
 20
361.067273
 11
64.833259
 21
361.267272
  0
LINE
  5
13B
100
AcDbEntity
  8
M0
 62
     7
100
AcDbLine
 10
62.13326
 20
343.067272
 11
64.133261
 21
343.067272
  0
LINE
  5
13C
100
AcDbEntity
  8
M0
 62
     7
100
AcDbLine
 10
63.13326
 20
339.867272
 11
63.13326
 21
339.767272
  0
LINE
  5
13D
100
AcDbEntity
  8
M0
 62
     7
100
AcDbLine
 10
80.23326
 20
362.767272
 11
82.93326
 21
362.767272
  0
LINE
  5
13E
100
AcDbEntity
  8
M0
 62
     7
100
AcDbLine
 10
63.13326
 20
379.867272
 11
63.13326
 21
344.567272
  0
LINE
  5
13F
100
AcDbEntity
  8
M0
 62
     7
100
AcDbLine
 10
122.134747
 20
305.949092
 11
122.134747
 21
305.91727
  0
LINE
  5
140
100
AcDbEntity
  8
M0
 62
     7
100
AcDbLine
 10
116.633259
 20
315.667271
 11
64.133261
 21
315.667271
  0
LINE
  5
141
100
AcDbEntity
  8
M0
 62
     7
100
AcDbLine
 10
116.633259
 20
331.167272
 11
117.13326
 21
331.167272
  0
LINE
  5
142
100
AcDbEntity
  8
M0
 62
     7
100
AcDbLine
 10
129.33326
 20
309.567272
 11
129.33326
 21
298.86727
  0
LINE
  5
143
100
AcDbEntity
  8
M0
 62
     7
100
AcDbLine
 10
64.133261
 20
336.867272
 11
63.13326
 21
336.867272
  0
LINE
  5
144
100
AcDbEntity
  8
M0
 62
     7
100
AcDbLine
 10
61.633259
 20
312.567271
 11
55.63326
 21
312.567271
  0
ARC
  5
145
100
AcDbEntity
  8
M0
 62
     7
100
AcDbCircle
 10
127.03326
 20
343.067272
 40
1.0
100
AcDbArc
 50
180.0
 51
270.0
  0
LINE
  5
146
100
AcDbEntity
  8
M0
 62
     7
100
AcDbLine
 10
101.033259
 20
383.367274
 11
79.73326
 21
383.367274
  0
ARC
  5
147
100
AcDbEntity
  8
M0
 62
     7
100
AcDbCircle
 10
107.73326
 20
298.867272
 40
2.65
100
AcDbArc
 50
170.223151
 51
189.776849
  0
ARC
  5
148
100
AcDbEntity
  8
M0
 62
     7
100
AcDbCircle
 10
52.93326
 20
357.467272
 40
1.0
100
AcDbArc
 50
90.0
 51
180.0
  0
LINE
  5
149
100
AcDbEntity
  8
M0
 62
     7
100
AcDbLine
 10
62.53326
 20
355.567273
 11
54.73326
 21
355.567273
  0
LINE
  5
14A
100
AcDbEntity
  8
M0
 62
     7
100
AcDbLine
 10
110.63326
 20
375.867273
 11
110.63326
 21
374.867271
  0
LINE
  5
14B
100
AcDbEntity
  8
M0
 62
     7
100
AcDbLine
 10
102.53326
 20
383.867271
 11
102.53326
 21
374.867271
  0
LINE
  5
14C
100
AcDbEntity
  8
M0
 62
     7
100
AcDbLine
 10
61.633259
 20
313.617272
 11
61.633259
 21
312.567271
  0
LINE
  5
14D
100
AcDbEntity
  8
M0
 62
     7
100
AcDbLine
 10
126.03326
 20
355.567273
 11
118.23326
 21
355.567273
  0
ARC
  5
14E
100
AcDbEntity
  8
M0
 62
     7
100
AcDbCircle
 10
127.83326
 20
343.067272
 40
1.0
100
AcDbArc
 50
270.0
 51
360.0
  0
LINE
  5
14F
100
AcDbEntity
  8
M0
 62
     7
100
AcDbLine
 10
55.63326
 20
312.567271
 11
55.63326
 21
313.617272
  0
LINE
  5
150
100
AcDbEntity
  8
M0
 62
     7
100
AcDbLine
 10
68.93326
 20
384.867273
 11
111.83326
 21
384.867273
  0
LINE
  5
151
100
AcDbEntity
  8
M0
 62
     7
100
AcDbLine
 10
117.633259
 20
296.867272
 11
117.633259
 21
332.167272
  0
LINE
  5
152
100
AcDbEntity
  8
M0
 62
     7
100
AcDbLine
 10
97.33326
 20
361.067273
 11
97.33326
 21
379.86727
  0
LINE
  5
153
100
AcDbEntity
  8
M0
 62
     7
100
AcDbLine
 10
114.93326
 20
361.067273
 11
114.93326
 21
379.86727
  0
LINE
  5
154
100
AcDbEntity
  8
M0
 62
     7
100
AcDbLine
 10
115.93326
 20
315.467272
 11
115.93326
 21
315.667271
  0
LINE
  5
155
100
AcDbEntity
  8
M0
 62
     7
100
AcDbLine
 10
82.433259
 20
380.867272
 11
80.73326
 21
380.867272
  0
LINE
  5
156
100
AcDbEntity
  8
M0
 62
     7
100
AcDbLine
 10
83.43326
 20
361.067273
 11
83.43326
 21
379.86727
  0
LINE
  5
157
100
AcDbEntity
  8
M0
 62
     7
100
AcDbLine
 10
64.833259
 20
380.867272
 11
64.13326
 21
380.867272
  0
LINE
  5
158
100
AcDbEntity
  8
M0
 62
     7
100
AcDbLine
 10
106.145809
 20
299.31727
 11
107.283259
 21
299.31727
  0
ELLIPSE
  5
159
100
AcDbEntity
  8
M0
 62
     7
100
AcDbEllipse
 10
316.502613
 20
309.542325
 11
-0.5
 21
0.0
210
0.0
220
0.0
230
1.0
 40
0.049876
 41
3.141592653589793
 42
4.71238898038469
  0
LINE
  5
15A
100
AcDbEntity
  8
M0
 62
     7
100
AcDbLine
 10
107.283259
 20
297.667272
 11
108.183259
 21
297.667272
  0
LINE
  5
15B
100
AcDbEntity
  8
M0
 62
     7
100
AcDbLine
 10
98.33326
 20
380.867272
 11
100.03326
 21
380.867272
  0
LINE
  5
15C
100
AcDbEntity
  8
M0
 62
     7
100
AcDbLine
 10
115.93326
 20
380.867272
 11
116.433256
 21
380.867272
  0
LINE
  5
15D
100
AcDbEntity
  8
M0
 62
     7
100
AcDbLine
 10
116.633259
 20
333.667272
 11
118.633259
 21
333.667272
  0
LINE
  5
15E
100
AcDbEntity
  8
M0
 62
     7
100
AcDbLine
 10
64.133261
 20
333.667272
 11
62.13326
 21
333.667272
  0
LINE
  5
15F
100
AcDbEntity
  8
M0
 62
     7
100
AcDbLine
 10
63.13326
 20
332.167272
 11
63.13326
 21
296.867272
  0
LINE
  5
160
100
AcDbEntity
  8
M0
 62
     7
100
AcDbLine
 10
64.833259
 20
361.267272
 11
65.83326
 21
361.267272
  0
LINE
  5
161
100
AcDbEntity
  8
M0
 62
     7
100
AcDbLine
 10
64.833259
 20
315.467272
 11
64.833259
 21
315.667271
  0
LINE
  5
162
100
AcDbEntity
  8
M0
 62
     7
100
AcDbLine
 10
125.127262
 20
303.203083
 11
125.127262
 21
303.317569
  0
LINE
  5
163
100
AcDbEntity
  8
M0
 62
     7
100
AcDbLine
 10
125.427263
 20
303.617567
 11
125.919735
 21
303.617567
  0
LINE
  5
164
100
AcDbEntity
  8
M0
 62
     7
100
AcDbLine
 10
115.93326
 20
361.067273
 11
115.93326
 21
361.267272
  0
LINE
  5
165
100
AcDbEntity
  8
M0
 62
     7
100
AcDbLine
 10
125.814459
 20
308.11622
 11
124.384916
 21
308.117272
  0
LINE
  5
166
100
AcDbEntity
  8
M0
 62
     7
100
AcDbLine
 10
116.433256
 20
380.867272
 11
116.633259
 21
380.867272
  0
LINE
  5
167
100
AcDbEntity
  8
M0
 62
     7
100
AcDbLine
 10
117.633259
 20
344.567272
 11
117.633259
 21
379.867272
  0
LINE
  5
168
100
AcDbEntity
  8
M0
 62
     7
100
AcDbLine
 10
115.93326
 20
361.267272
 11
114.93326
 21
361.267272
  0
LINE
  5
169
100
AcDbEntity
  8
M0
 62
     7
100
AcDbLine
 10
118.633259
 20
343.067272
 11
116.633259
 21
343.067272
  0
LINE
  5
16A
100
AcDbEntity
  8
M0
 62
     7
100
AcDbLine
 10
116.93326
 20
339.767272
 11
118.633259
 21
339.767272
  0
LINE
  5
16B
100
AcDbEntity
  8
M0
 62
     7
100
AcDbLine
 10
97.33326
 20
361.267272
 11
101.033259
 21
361.267272
  0
LINE
  5
16C
100
AcDbEntity
  8
M0
 62
     7
100
AcDbLine
 10
83.43326
 20
361.267272
 11
79.73326
 21
361.267272
  0
LINE
  5
16D
100
AcDbEntity
  8
M0
 62
     7
100
AcDbLine
 10
63.833259
 20
336.967272
 11
63.833259
 21
339.767272
  0
LINE
  5
16E
100
AcDbEntity
  8
M0
 62
     7
100
AcDbLine
 10
116.93326
 20
336.967272
 11
116.93326
 21
339.767272
  0
LINE
  5
16F
100
AcDbEntity
  8
M0
 62
     7
100
AcDbLine
 10
101.033259
 20
300.86727
 11
101.033259
 21
296.867274
  0
LINE
  5
170
100
AcDbEntity
  8
M0
 62
     7
100
AcDbLine
 10
99.533264
 20
295.867272
 11
98.33326
 21
295.867272
  0
LINE
  5
171
100
AcDbEntity
  8
M0
 62
     7
100
AcDbLine
 10
114.93326
 20
296.867274
 11
114.93326
 21
300.86727
  0
LINE
  5
172
100
AcDbEntity
  8
M0
 62
     7
100
AcDbLine
 10
119.13326
 20
363.117272
 11
119.13326
 21
364.167273
  0
LINE
  5
173
100
AcDbEntity
  8
M0
 62
     7
100
AcDbLine
 10
118.633259
 20
336.967272
 11
116.93326
 21
336.967272
  0
LINE
  5
174
100
AcDbEntity
  8
M0
 62
     7
100
AcDbLine
 10
79.73326
 20
315.667271
 11
79.73326
 21
296.867274
  0
LINE
  5
175
100
AcDbEntity
  8
M0
 62
     7
100
AcDbLine
 10
100.03326
 20
295.867272
 11
99.533264
 21
295.867272
  0
LINE
  5
176
100
AcDbEntity
  8
M0
 62
     7
100
AcDbLine
 10
65.83326
 20
296.867274
 11
65.83326
 21
300.86727
  0
LINE
  5
177
100
AcDbEntity
  8
M0
 62
     7
100
AcDbLine
 10
58.233259
 20
342.067272
 11
52.933259
 21
342.067272
  0
LINE
  5
178
100
AcDbEntity
  8
M0
 62
     7
100
AcDbLine
 10
126.03326
 20
364.717272
 11
126.03326
 21
343.067272
  0
LINE
  5
179
100
AcDbEntity
  8
M0
 62
     7
100
AcDbLine
 10
54.73326
 20
321.167271
 11
62.53326
 21
321.167271
  0
CIRCLE
  5
17A
100
AcDbEntity
  8
M0
 62
     7
100
AcDbCircle
 10
90.38326
 20
378.667272
 40
2.85
  0
CIRCLE
  5
17B
100
AcDbEntity
  8
M0
 62
     7
100
AcDbCircle
 10
90.38326
 20
378.667272
 40
2.825
  0
LINE
  5
17C
100
AcDbEntity
  8
M0
 62
     7
100
AcDbLine
 10
53.733262
 20
358.467271
 11
52.933259
 21
358.467271
  0
LINE
  5
17D
100
AcDbEntity
  8
M0
 62
     7
100
AcDbLine
 10
97.33326
 20
315.667271
 11
97.33326
 21
313.467271
  0
LINE
  5
17E
100
AcDbEntity
  8
M0
 62
     7
100
AcDbLine
 10
101.033259
 20
313.467271
 11
101.033259
 21
315.667271
  0
LINE
  5
17F
100
AcDbEntity
  8
M0
 62
     7
100
AcDbLine
 10
79.73326
 20
315.467272
 11
83.43326
 21
315.467272
  0
LINE
  5
180
100
AcDbEntity
  8
M0
 62
     7
100
AcDbLine
 10
127.033258
 20
342.067272
 11
127.83326
 21
342.067272
  0
LINE
  5
181
100
AcDbEntity
  8
M0
 62
     7
100
AcDbLine
 10
127.83326
 20
334.667272
 11
127.033258
 21
334.667272
  0
LINE
  5
182
100
AcDbEntity
  8
M0
 62
     7
100
AcDbLine
 10
101.033259
 20
315.467272
 11
97.33326
 21
315.467272
  0
LINE
  5
183
100
AcDbEntity
  8
M0
 62
     7
100
AcDbLine
 10
127.033258
 20
358.467271
 11
127.83326
 21
358.467271
  0
ARC
  5
184
100
AcDbEntity
  8
M0
 62
     7
100
AcDbCircle
 10
115.93326
 20
379.867272
 40
1.0
100
AcDbArc
 50
90.0
 51
180.0
  0
ARC
  5
185
100
AcDbEntity
  8
M0
 62
     7
100
AcDbCircle
 10
100.03326
 20
379.867272
 40
1.0
100
AcDbArc
 50
0.0
 51
90.0
  0
ARC
  5
186
100
AcDbEntity
  8
M0
 62
     7
100
AcDbCircle
 10
64.83326
 20
379.867272
 40
1.0
100
AcDbArc
 50
0.0
 51
90.0
  0
ARC
  5
187
100
AcDbEntity
  8
M0
 62
     7
100
AcDbCircle
 10
124.38326
 20
305.867272
 40
2.25
100
AcDbArc
 50
89.957854
 51
177.916058
  0
ARC
  5
188
100
AcDbEntity
  8
M0
 62
     7
100
AcDbCircle
 10
54.93326
 20
298.867272
 40
3.0
100
AcDbArc
 50
180.0
 51
270.0
  0
ARC
  5
189
100
AcDbEntity
  8
M0
 62
     7
100
AcDbCircle
 10
98.33326
 20
379.867272
 40
1.0
100
AcDbArc
 50
90.0
 51
180.0
  0
ARC
  5
18A
100
AcDbEntity
  8
M0
 62
     7
100
AcDbCircle
 10
82.43326
 20
379.867272
 40
1.0
100
AcDbArc
 50
0.0
 51
90.0
  0
ARC
  5
18B
100
AcDbEntity
  8
M0
 62
     7
100
AcDbCircle
 10
125.427261
 20
303.317568
 40
0.3
100
AcDbArc
 50
90.0
 51
180.0
  0
LINE
  5
18C
100
AcDbEntity
  8
M0
 62
     7
100
AcDbLine
 10
113.983261
 20
300.86727
 11
114.93326
 21
300.86727
  0
ARC
  5
18D
100
AcDbEntity
  8
M0
 62
     7
100
AcDbCircle
 10
64.13326
 20
379.867272
 40
1.0
100
AcDbArc
 50
90.0
 51
180.0
  0
ARC
  5
18E
100
AcDbEntity
  8
M0
 62
     7
100
AcDbCircle
 10
126.33326
 20
298.867272
 40
3.0
100
AcDbArc
 50
270.0
 51
360.0
  0
ARC
  5
18F
100
AcDbEntity
  8
M0
 62
     7
100
AcDbCircle
 10
80.73326
 20
379.867272
 40
1.0
100
AcDbArc
 50
90.0
 51
180.0
  0
ARC
  5
190
100
AcDbEntity
  8
M0
 62
     7
100
AcDbCircle
 10
125.88326
 20
305.867272
 40
2.25
100
AcDbArc
 50
270.928845
 51
451.752277
  0
LINE
  5
191
100
AcDbEntity
  8
M0
 62
     7
100
AcDbLine
 10
61.633259
 20
364.167273
 11
61.633259
 21
363.117272
  0
LINE
  5
192
100
AcDbEntity
  8
M0
 62
     7
100
AcDbLine
 10
55.63326
 20
363.117272
 11
55.63326
 21
364.167273
  0
LINE
  5
193
100
AcDbEntity
  8
M0
 62
     7
100
AcDbLine
 10
72.833259
 20
383.367274
 11
72.833259
 21
384.367272
  0
LINE
  5
194
100
AcDbEntity
  8
M0
 62
     7
100
AcDbLine
 10
125.133259
 20
364.167273
 11
125.133259
 21
363.117272
  0
LINE
  5
195
100
AcDbEntity
  8
M0
 62
     7
100
AcDbLine
 10
54.885766
 20
362.667272
 11
54.73326
 21
362.667272
  0
LINE
  5
196
100
AcDbEntity
  8
M0
 62
     7
100
AcDbLine
 10
55.63326
 20
364.167273
 11
61.633259
 21
364.167273
  0
LINE
  5
197
100
AcDbEntity
  8
M0
 62
     7
100
AcDbLine
 10
107.933261
 20
384.367272
 11
107.933261
 21
383.367274
  0
LINE
  5
198
100
AcDbEntity
  8
M0
 62
     7
100
AcDbLine
 10
101.033259
 20
361.067273
 11
101.033259
 21
383.367274
  0
ARC
  5
199
100
AcDbEntity
  8
M0
 62
     7
100
AcDbCircle
 10
53.73326
 20
357.467272
 40
1.0
100
AcDbArc
 50
0.0
 51
90.0
  0
LINE
  5
19A
100
AcDbEntity
  8
M0
 62
     7
100
AcDbLine
 10
78.23326
 20
374.867271
 11
78.23326
 21
383.867271
  0
LINE
  5
19B
100
AcDbEntity
  8
M0
 62
     7
100
AcDbLine
 10
119.13326
 20
364.167273
 11
125.133259
 21
364.167273
  0
ARC
  5
19C
100
AcDbEntity
  8
M0
 62
     7
100
AcDbCircle
 10
121.834748
 20
305.917272
 40
0.3
100
AcDbArc
 50
270.0
 51
360.0
  0
LINE
  5
19D
100
AcDbEntity
  8
M0
 62
     7
100
AcDbLine
 10
70.13326
 20
374.867271
 11
70.13326
 21
375.867273
  0
ARC
  5
19E
100
AcDbEntity
  8
M0
 62
     7
100
AcDbCircle
 10
55.38326
 20
321.717272
 40
0.5
100
AcDbArc
 50
180.0
 51
270.0
  0
LINE
  5
19F
100
AcDbEntity
  8
M0
 62
     7
100
AcDbLine
 10
90.850164
 20
310.748437
 11
88.502187
 21
308.400445
  0
ARC
  5
1A0
100
AcDbEntity
  8
M0
 62
     7
100
AcDbCircle
 10
125.38326
 20
355.017272
 40
0.5
100
AcDbArc
 50
0.0
 51
90.0
  0
LINE
  5
1A1
100
AcDbEntity
  8
M0
 62
     7
100
AcDbLine
 10
88.314305
 20
310.936212
 11
92.577275
 21
306.673272
  0
LINE
  5
1A2
100
AcDbEntity
  8
M0
 62
     7
100
AcDbLine
 10
108.450164
 20
310.748437
 11
106.102187
 21
308.400445
  0
ARC
  5
1A3
100
AcDbEntity
  8
M0
 62
     7
100
AcDbCircle
 10
118.88326
 20
355.017272
 40
0.5
100
AcDbArc
 50
90.0
 51
180.0
  0
ARC
  5
1A4
100
AcDbEntity
  8
M0
 62
     7
100
AcDbCircle
 10
125.38326
 20
314.117272
 40
0.5
100
AcDbArc
 50
270.0
 51
360.0
  0
ARC
  5
1A5
100
AcDbEntity
  8
M0
 62
     7
100
AcDbCircle
 10
118.88326
 20
348.517272
 40
0.5
100
AcDbArc
 50
180.0
 51
270.0
  0
ARC
  5
1A6
100
AcDbEntity
  8
M0
 62
     7
100
AcDbCircle
 10
64.13326
 20
360.067272
 40
1.0
100
AcDbArc
 50
90.0
 51
180.0
  0
ARC
  5
1A7
100
AcDbEntity
  8
M0
 62
     7
100
AcDbCircle
 10
118.883259
 20
320.617271
 40
0.5
100
AcDbArc
 50
90.0
 51
180.0
  0
LINE
  5
1A8
100
AcDbEntity
  8
M0
 62
     7
100
AcDbLine
 10
92.264363
 20
309.334222
 11
89.916387
 21
306.98623
  0
ARC
  5
1A9
100
AcDbEntity
  8
M0
 62
     7
100
AcDbCircle
 10
125.383259
 20
320.617272
 40
0.5
100
AcDbArc
 50
0.0
 51
90.0
  0
ARC
  5
1AA
100
AcDbEntity
  8
M0
 62
     7
100
AcDbCircle
 10
125.38326
 20
348.517272
 40
0.5
100
AcDbArc
 50
270.0
 51
360.0
  0
LINE
  5
1AB
100
AcDbEntity
  8
M0
  6
DASHED
 62
     7
100
AcDbLine
 10
141.333256
 20
368.067272
 11
128.833256
 21
368.067272
  0
LINE
  5
1AC
100
AcDbEntity
  8
M0
  6
DASHED
 62
     7
100
AcDbLine
 10
141.333256
 20
308.667272
 11
128.833256
 21
308.667272
  0
LINE
  5
1AD
100
AcDbEntity
  8
M0
  6
DASHED
 62
     7
100
AcDbLine
 10
141.333256
 20
368.067272
 11
128.833256
 21
368.067272
  0
LINE
  5
1AE
100
AcDbEntity
  8
M0
 62
     7
100
AcDbLine
 10
305.302613
 20
297.867263
 11
305.302613
 21
298.867261
  0
LINE
  5
1AF
100
AcDbEntity
  8
M0
 62
     7
100
AcDbLine
 10
293.302612
 20
306.867262
 11
306.302612
 21
306.867262
  0
LINE
  5
1B0
100
AcDbEntity
  8
M0
  6
DASHED
 62
     7
100
AcDbLine
 10
141.333256
 20
308.667272
 11
128.833256
 21
308.667272
  0
LINE
  5
1B1
100
AcDbEntity
  8
M0
  6
DASHED
 62
     7
100
AcDbLine
 10
39.433264
 20
368.067272
 11
39.433264
 21
308.667272
  0
LINE
  5
1B2
100
AcDbEntity
  8
M0
  6
DASHED
 62
     7
100
AcDbLine
 10
39.433264
 20
368.067272
 11
51.933264
 21
368.067272
  0
LINE
  5
1B3
100
AcDbEntity
  8
M0
 62
     7
100
AcDbLine
 10
109.864363
 20
309.334222
 11
107.516387
 21
306.98623
  0
LINE
  5
1B4
100
AcDbEntity
  8
M0
  6
DASHED
 62
     7
100
AcDbLine
 10
141.333256
 20
368.067272
 11
141.333256
 21
308.667272
  0
LINE
  5
1B5
100
AcDbEntity
  8
M0
 62
     7
100
AcDbLine
 10
282.102613
 20
301.867263
 11
287.386533
 21
301.867263
  0
LINE
  5
1B6
100
AcDbEntity
  8
M0
 62
     7
100
AcDbLine
 10
105.914305
 20
310.936212
 11
110.177275
 21
306.673272
  0
LINE
  5
1B7
100
AcDbEntity
  8
M0
  6
DASHED
 62
     7
100
AcDbLine
 10
39.433264
 20
308.667272
 11
51.933264
 21
308.667272
  0
LINE
  5
1B8
100
AcDbEntity
  8
M0
 62
     7
100
AcDbLine
 10
118.88326
 20
355.517272
 11
125.38326
 21
355.517272
  0
LINE
  5
1B9
100
AcDbEntity
  8
M0
 62
     7
100
AcDbLine
 10
125.38326
 20
348.017272
 11
118.88326
 21
348.017272
  0
LINE
  5
1BA
100
AcDbEntity
  8
M0
 62
     7
100
AcDbLine
 10
54.883259
 20
321.717271
 11
54.883259
 21
328.217272
  0
CIRCLE
  5
1BB
100
AcDbEntity
  8
M0
 62
     7
100
AcDbCircle
 10
55.38326
 20
300.367272
 40
2.25
  0
CIRCLE
  5
1BC
100
AcDbEntity
  8
M0
 62
     7
100
AcDbCircle
 10
125.38326
 20
375.367272
 40
2.25
  0
LINE
  5
1BD
100
AcDbEntity
  8
M0
 62
     7
100
AcDbLine
 10
61.88326
 20
321.217272
 11
55.38326
 21
321.217272
  0
LINE
  5
1BE
100
AcDbEntity
  8
M0
 62
     7
100
AcDbLine
 10
72.633259
 20
383.867271
 11
72.633259
 21
384.367272
  0
LINE
  5
1BF
100
AcDbEntity
  8
M0
 62
     7
100
AcDbLine
 10
69.93326
 20
376.367271
 11
70.433259
 21
376.367271
  0
LINE
  5
1C0
100
AcDbEntity
  8
M0
 62
     7
100
AcDbLine
 10
110.83326
 20
383.367274
 11
109.833259
 21
383.367274
  0
LINE
  5
1C1
100
AcDbEntity
  8
M0
 62
     7
100
AcDbLine
 10
64.133261
 20
361.067273
 11
116.633259
 21
361.067273
  0
LINE
  5
1C2
100
AcDbEntity
  8
M0
 62
     7
100
AcDbLine
 10
125.883261
 20
355.017272
 11
125.883261
 21
348.517272
  0
LINE
  5
1C3
100
AcDbEntity
  8
M0
 62
     7
100
AcDbLine
 10
110.83326
 20
376.367271
 11
110.33326
 21
376.367271
  0
LINE
  5
1C4
100
AcDbEntity
  8
M0
 62
     7
100
AcDbLine
 10
108.13326
 20
383.867271
 11
108.13326
 21
384.367272
  0
ARC
  5
1C5
100
AcDbEntity
  8
M0
 62
     7
100
AcDbCircle
 10
116.63326
 20
360.067272
 40
1.0
100
AcDbArc
 50
0.0
 51
90.0
  0
ARC
  5
1C6
100
AcDbEntity
  8
M0
 62
     7
100
AcDbCircle
 10
63.63326
 20
346.067272
 40
0.5
100
AcDbArc
 50
180.0
 51
270.0
  0
ARC
  5
1C7
100
AcDbEntity
  8
M0
 62
     7
100
AcDbCircle
 10
82.43326
 20
296.867272
 40
1.0
100
AcDbArc
 50
270.0
 51
360.0
  0
ARC
  5
1C8
100
AcDbEntity
  8
M0
 62
     7
100
AcDbCircle
 10
72.783259
 20
378.617272
 40
4.25
100
AcDbArc
 50
241.927521
 51
270.0
  0
ARC
  5
1C9
100
AcDbEntity
  8
M0
 62
     7
100
AcDbCircle
 10
72.783259
 20
378.617272
 40
4.25
100
AcDbArc
 50
241.927521
 51
298.072495
  0
ARC
  5
1CA
100
AcDbEntity
  8
M0
 62
     7
100
AcDbCircle
 10
116.63326
 20
296.867272
 40
1.0
100
AcDbArc
 50
270.0
 51
360.0
  0
ARC
  5
1CB
100
AcDbEntity
  8
M0
 62
     7
100
AcDbCircle
 10
100.53326
 20
363.267272
 40
0.5
100
AcDbArc
 50
270.0
 51
360.0
  0
ARC
  5
1CC
100
AcDbEntity
  8
M0
 62
     7
100
AcDbCircle
 10
82.93326
 20
363.267272
 40
0.5
100
AcDbArc
 50
270.0
 51
360.0
  0
ARC
  5
1CD
100
AcDbEntity
  8
M0
 62
     7
100
AcDbCircle
 10
62.13326
 20
343.567272
 40
1.0
100
AcDbArc
 50
90.0
 51
180.0
  0
ARC
  5
1CE
100
AcDbEntity
  8
M0
 62
     7
100
AcDbCircle
 10
118.63326
 20
343.567272
 40
1.0
100
AcDbArc
 50
0.0
 51
90.0
  0
ARC
  5
1CF
100
AcDbEntity
  8
M0
 62
     7
100
AcDbCircle
 10
117.13326
 20
346.067272
 40
0.5
100
AcDbArc
 50
270.0
 51
360.0
  0
ARC
  5
1D0
100
AcDbEntity
  8
M0
 62
     7
100
AcDbCircle
 10
97.83326
 20
363.267272
 40
0.5
100
AcDbArc
 50
180.0
 51
270.0
  0
ARC
  5
1D1
100
AcDbEntity
  8
M0
 62
     7
100
AcDbCircle
 10
316.502613
 20
296.367263
 40
0.5
100
AcDbArc
 50
270.0
 51
360.0
  0
ARC
  5
1D2
100
AcDbEntity
  8
M0
 62
     7
100
AcDbCircle
 10
280.602613
 20
343.867263
 40
0.5
100
AcDbArc
 50
90.0
 51
180.0
  0
ARC
  5
1D3
100
AcDbEntity
  8
M0
 62
     7
100
AcDbCircle
 10
287.516826
 20
375.367263
 40
1.0
100
AcDbArc
 50
90.0
 51
135.0
  0
ARC
  5
1D4
100
AcDbEntity
  8
M0
 62
     7
100
AcDbCircle
 10
274.102613
 20
381.867263
 40
3.0
100
AcDbArc
 50
90.0
 51
180.0
  0
ARC
  5
1D5
100
AcDbEntity
  8
M0
 62
     7
100
AcDbCircle
 10
305.802613
 20
297.867263
 40
0.5
100
AcDbArc
 50
180.0
 51
270.0
  0
ARC
  5
1D6
100
AcDbEntity
  8
M0
 62
     7
100
AcDbCircle
 10
309.657045
 20
311.240992
 40
4.084682
100
AcDbArc
 50
125.479034
 51
145.207368
  0
ARC
  5
1D7
100
AcDbEntity
  8
M0
 62
     7
100
AcDbCircle
 10
311.802613
 20
325.567263
 40
1.0
100
AcDbArc
 50
270.0
 51
360.0
  0
ARC
  5
1D8
100
AcDbEntity
  8
M0
 62
     7
100
AcDbCircle
 10
311.802613
 20
351.167263
 40
1.0
100
AcDbArc
 50
0.0
 51
90.0
  0
ARC
  5
1D9
100
AcDbEntity
  8
M0
 62
     7
100
AcDbCircle
 10
307.302613
 20
378.867263
 40
1.0
100
AcDbArc
 50
90.0
 51
180.0
  0
ARC
  5
1DA
100
AcDbEntity
  8
M0
 62
     7
100
AcDbCircle
 10
316.502613
 20
320.067263
 40
0.5
100
AcDbArc
 50
0.0
 51
90.0
  0
ARC
  5
1DB
100
AcDbEntity
  8
M0
 62
     7
100
AcDbCircle
 10
287.386533
 20
307.867263
 40
6.0
100
AcDbArc
 50
270.0
 51
350.405932
  0
ARC
  5
1DC
100
AcDbEntity
  8
M0
 62
     7
100
AcDbCircle
 10
280.602613
 20
332.867263
 40
0.5
100
AcDbArc
 50
180.0
 51
270.0
  0
ARC
  5
1DD
100
AcDbEntity
  8
M0
 62
     7
100
AcDbCircle
 10
316.502613
 20
356.667263
 40
0.5
100
AcDbArc
 50
270.0
 51
360.0
  0
ARC
  5
1DE
100
AcDbEntity
  8
M0
 62
     7
100
AcDbCircle
 10
279.302613
 20
335.167263
 40
0.5
100
AcDbArc
 50
0.0
 51
90.0
  0
ARC
  5
1DF
100
AcDbEntity
  8
M0
 62
     7
100
AcDbCircle
 10
280.302613
 20
332.667263
 40
0.5
100
AcDbArc
 50
180.0
 51
270.0
  0
ARC
  5
1E0
100
AcDbEntity
  8
M0
 62
     7
100
AcDbCircle
 10
273.499881
 20
362.717263
 40
3.0
100
AcDbArc
 50
49.635463
 51
90.0
  0
ELLIPSE
  5
1E1
100
AcDbEntity
  8
M0
 62
     7
100
AcDbEllipse
 10
316.502613
 20
314.542325
 11
-0.5
 21
0.0
210
0.0
220
0.0
230
1.0
 40
0.049876
 41
3.141592653589793
 42
4.71238898038469
  0
ELLIPSE
  5
1E2
100
AcDbEntity
  8
M0
 62
     7
100
AcDbEllipse
 10
307.302613
 20
309.517387
 11
-1.0
 21
0.0
210
0.0
220
0.0
230
1.0
 40
0.049876
 41
4.71238898038469
 42
6.283185307179586
  0
ARC
  5
1E3
100
AcDbEntity
  8
M0
 62
     7
100
AcDbCircle
 10
267.602613
 20
336.167263
 40
0.5
100
AcDbArc
 50
180.0
 51
270.0
  0
ARC
  5
1E4
100
AcDbEntity
  8
M0
 62
     7
100
AcDbCircle
 10
234.202613
 20
360.067263
 40
1.0
100
AcDbArc
 50
90.0
 51
180.0
  0
ARC
  5
1E5
100
AcDbEntity
  8
M0
 62
     7
100
AcDbCircle
 10
253.402613
 20
361.467263
 40
3.0
100
AcDbArc
 50
270.0
 51
360.0
  0
ARC
  5
1E6
100
AcDbEntity
  8
M0
 62
     7
100
AcDbCircle
 10
242.002613
 20
343.067263
 40
1.0
100
AcDbArc
 50
270.0
 51
360.0
  0
ARC
  5
1E7
100
AcDbEntity
  8
M0
 62
     7
100
AcDbCircle
 10
259.402613
 20
362.717263
 40
3.0
100
AcDbArc
 50
90.0
 51
180.0
  0
ARC
  5
1E8
100
AcDbEntity
  8
M0
 62
     7
100
AcDbCircle
 10
242.002613
 20
355.467263
 40
3.0
100
AcDbArc
 50
90.0
 51
180.0
  0
ARC
  5
1E9
100
AcDbEntity
  8
M0
 62
     7
100
AcDbCircle
 10
242.002613
 20
333.667263
 40
1.0
100
AcDbArc
 50
0.0
 51
90.0
  0
ARC
  5
1EA
100
AcDbEntity
  8
M0
 62
     7
100
AcDbCircle
 10
280.302613
 20
344.067263
 40
0.5
100
AcDbArc
 50
90.0
 51
180.0
  0
LINE
  5
1EB
100
AcDbEntity
  8
M0
 62
     7
100
AcDbLine
 10
280.302614
 20
332.167263
 11
282.102613
 21
332.167263
  0
LINE
  5
1EC
100
AcDbEntity
  8
M0
 62
     7
100
AcDbLine
 10
316.502613
 20
309.567263
 11
307.302613
 21
309.567263
  0
LINE
  5
1ED
100
AcDbEntity
  8
M0
 62
     7
100
AcDbLine
 10
316.502613
 20
314.567262
 11
307.302613
 21
314.567262
  0
LINE
  5
1EE
100
AcDbEntity
  8
M0
 62
     7
100
AcDbLine
 10
317.302612
 20
373.897569
 11
317.002612
 21
373.897569
  0
LINE
  5
1EF
100
AcDbEntity
  8
M0
 62
     7
100
AcDbLine
 10
317.302612
 20
304.39757
 11
317.002612
 21
304.39757
  0
LINE
  5
1F0
100
AcDbEntity
  8
M0
 62
     7
100
AcDbLine
 10
306.302612
 20
296.867263
 11
306.302612
 21
313.571744
  0
LINE
  5
1F1
100
AcDbEntity
  8
M0
 62
     7
100
AcDbLine
 10
287.516827
 20
376.367262
 11
306.302612
 21
376.367262
  0
LINE
  5
1F2
100
AcDbEntity
  8
M0
 62
     7
100
AcDbLine
 10
314.802613
 20
353.667263
 11
317.002612
 21
353.667263
  0
ARC
  5
1F3
100
AcDbEntity
  8
M0
 62
     7
100
AcDbCircle
 10
118.63326
 20
333.167272
 40
1.0
100
AcDbArc
 50
270.0
 51
360.0
  0
LINE
  5
1F4
100
AcDbEntity
  8
M0
 62
     7
100
AcDbLine
 10
317.302612
 20
307.336956
 11
317.002612
 21
307.336956
  0
LINE
  5
1F5
100
AcDbEntity
  8
M0
 62
     7
100
AcDbLine
 10
294.002613
 20
324.183491
 11
294.002613
 21
321.306707
  0
LINE
  5
1F6
100
AcDbEntity
  8
M0
 62
     7
100
AcDbLine
 10
317.002612
 20
304.39757
 11
317.002612
 21
296.367263
  0
LINE
  5
1F7
100
AcDbEntity
  8
M0
 62
     7
100
AcDbLine
 10
313.802613
 20
354.667263
 11
314.802613
 21
353.667263
  0
LINE
  5
1F8
100
AcDbEntity
  8
M0
  6
DASHDOT
 62
     7
100
AcDbLine
 10
72.28326
 20
308.867272
 11
73.28326
 21
308.867272
  0
LINE
  5
1F9
100
AcDbEntity
  8
M0
  6
DASHDOT
 62
     7
100
AcDbLine
 10
72.78326
 20
308.367272
 11
72.78326
 21
309.367272
  0
LINE
  5
1FA
100
AcDbEntity
  8
M0
 62
     7
100
AcDbLine
 10
289.502613
 20
353.467263
 11
282.102613
 21
353.467263
  0
ARC
  5
1FB
100
AcDbEntity
  8
M0
 62
     7
100
AcDbCircle
 10
307.302613
 20
296.867263
 40
1.0
100
AcDbArc
 50
180.0
 51
270.0
  0
ARC
  5
1FC
100
AcDbEntity
  8
M0
 62
     7
100
AcDbCircle
 10
316.502613
 20
379.367263
 40
0.5
100
AcDbArc
 50
0.0
 51
90.0
  0
LINE
  5
1FD
100
AcDbEntity
  8
M0
 62
     7
100
AcDbLine
 10
280.602611
 20
332.367263
 11
282.102613
 21
332.367263
  0
LINE
  5
1FE
100
AcDbEntity
  8
M0
 62
     7
100
AcDbLine
 10
280.602611
 20
344.367263
 11
282.102613
 21
344.367263
  0
LINE
  5
1FF
100
AcDbEntity
  8
M0
 62
     7
100
AcDbLine
 10
282.102613
 20
295.867262
 11
282.102613
 21
332.367263
  0
LINE
  5
200
100
AcDbEntity
  8
M0
 62
     7
100
AcDbLine
 10
316.502613
 20
295.867262
 11
276.402613
 21
295.867262
  0
LINE
  5
201
100
AcDbEntity
  8
M0
 62
     7
100
AcDbLine
 10
289.502613
 20
323.267262
 11
282.102613
 21
323.267262
  0
LINE
  5
202
100
AcDbEntity
  8
M0
  6
DASHDOT
 62
     7
100
AcDbLine
 10
107.48326
 20
308.867272
 11
108.48326
 21
308.867272
  0
LINE
  5
203
100
AcDbEntity
  8
M0
 62
     7
100
AcDbLine
 10
313.802613
 20
356.167262
 11
313.802613
 21
354.667263
  0
LINE
  5
204
100
AcDbEntity
  8
M0
 62
     7
100
AcDbLine
 10
280.102614
 20
332.867263
 11
280.102614
 21
343.867263
  0
ARC
  5
205
100
AcDbEntity
  8
M0
 62
     7
100
AcDbCircle
 10
100.03326
 20
296.867272
 40
1.0
100
AcDbArc
 50
270.0
 51
360.0
  0
ARC
  5
206
100
AcDbEntity
  8
M0
 62
     7
100
AcDbCircle
 10
80.73326
 20
296.867272
 40
1.0
100
AcDbArc
 50
180.0
 51
270.0
  0
ARC
  5
207
100
AcDbEntity
  8
M0
 62
     7
100
AcDbCircle
 10
64.83326
 20
296.867272
 40
1.0
100
AcDbArc
 50
270.0
 51
360.0
  0
ARC
  5
208
100
AcDbEntity
  8
M0
 62
     7
100
AcDbCircle
 10
127.83326
 20
357.467272
 40
1.0
100
AcDbArc
 50
0.0
 51
90.0
  0
ARC
  5
209
100
AcDbEntity
  8
M0
 62
     7
100
AcDbCircle
 10
77.53326
 20
375.567272
 40
0.6
100
AcDbArc
 50
270.0
 51
352.509835
  0
ARC
  5
20A
100
AcDbEntity
  8
M0
 62
     7
100
AcDbCircle
 10
127.03326
 20
333.667272
 40
1.0
100
AcDbArc
 50
90.0
 51
180.0
  0
ARC
  5
20B
100
AcDbEntity
  8
M0
 62
     7
100
AcDbCircle
 10
90.38326
 20
378.667272
 40
2.65
100
AcDbArc
 50
350.223151
 51
369.776849
  0
ARC
  5
20C
100
AcDbEntity
  8
M0
 62
     7
100
AcDbCircle
 10
64.13326
 20
296.867272
 40
1.0
100
AcDbArc
 50
180.0
 51
270.0
  0
ARC
  5
20D
100
AcDbEntity
  8
M0
 62
     7
100
AcDbCircle
 10
90.38326
 20
378.667272
 40
2.65
100
AcDbArc
 50
9.776849
 51
170.223151
  0
ARC
  5
20E
100
AcDbEntity
  8
M0
 62
     7
100
AcDbCircle
 10
115.93326
 20
296.867272
 40
1.0
100
AcDbArc
 50
180.0
 51
270.0
  0
ARC
  5
20F
100
AcDbEntity
  8
M0
 62
     7
100
AcDbCircle
 10
53.73326
 20
343.067272
 40
1.0
100
AcDbArc
 50
270.0
 51
360.0
  0
ARC
  5
210
100
AcDbEntity
  8
M0
 62
     7
100
AcDbCircle
 10
105.93326
 20
374.367272
 40
1.0
100
AcDbArc
 50
121.788346
 51
150.0
  0
ARC
  5
211
100
AcDbEntity
  8
M0
 62
     7
100
AcDbCircle
 10
127.03326
 20
357.467272
 40
1.0
100
AcDbArc
 50
90.0
 51
180.0
  0
LINE
  5
212
100
AcDbEntity
  8
M0
 62
     7
100
AcDbLine
 10
52.933259
 20
334.667272
 11
52.933259
 21
342.067272
  0
LINE
  5
213
100
AcDbEntity
  8
M0
 62
     7
100
AcDbLine
 10
54.233259
 20
342.067272
 11
54.233259
 21
334.667272
  0
LINE
  5
214
100
AcDbEntity
  8
M0
 62
     7
100
AcDbLine
 10
127.83326
 20
334.667272
 11
127.83326
 21
342.067272
  0
LINE
  5
215
100
AcDbEntity
  8
M0
 62
     7
100
AcDbLine
 10
65.83326
 20
361.067273
 11
65.83326
 21
379.86727
  0
LINE
  5
216
100
AcDbEntity
  8
M0
 62
     7
100
AcDbLine
 10
126.03326
 20
312.017271
 11
126.03326
 21
333.667272
  0
LINE
  5
217
100
AcDbEntity
  8
M0
 62
     7
100
AcDbLine
 10
126.533261
 20
342.067272
 11
126.533261
 21
334.667272
  0
LINE
  5
218
100
AcDbEntity
  8
M0
 62
     7
100
AcDbLine
 10
79.73326
 20
383.367274
 11
79.73326
 21
361.067273
  0
LINE
  5
219
100
AcDbEntity
  8
M0
 62
     7
100
AcDbLine
 10
114.93326
 20
298.86727
 11
114.93326
 21
299.867272
  0
LINE
  5
21A
100
AcDbEntity
  8
M0
 62
     7
100
AcDbLine
 10
54.73326
 20
329.067272
 11
62.53326
 21
329.067272
  0
LINE
  5
21B
100
AcDbEntity
  8
M0
 62
     7
100
AcDbLine
 10
65.83326
 20
298.86727
 11
65.83326
 21
299.867272
  0
LINE
  5
21C
100
AcDbEntity
  8
M0
 62
     7
100
AcDbLine
 10
114.93326
 20
377.867274
 11
114.93326
 21
379.86727
  0
LINE
  5
21D
100
AcDbEntity
  8
M0
 62
     7
100
AcDbLine
 10
114.93326
 20
376.867272
 11
114.93326
 21
377.867274
  0
LINE
  5
21E
100
AcDbEntity
  8
M0
 62
     7
100
AcDbLine
 10
101.033259
 20
299.867272
 11
101.033259
 21
298.86727
  0
LINE
  5
21F
100
AcDbEntity
  8
M0
 62
     7
100
AcDbLine
 10
70.93326
 20
383.367274
 11
70.433259
 21
382.867273
  0
LINE
  5
220
100
AcDbEntity
  8
M0
 62
     7
100
AcDbLine
 10
70.433259
 20
382.867273
 11
70.433259
 21
374.867271
  0
LINE
  5
221
100
AcDbEntity
  8
M0
 62
     7
100
AcDbLine
 10
109.833259
 20
383.367274
 11
102.53326
 21
383.367274
  0
LINE
  5
222
100
AcDbEntity
  8
M0
 62
     7
100
AcDbLine
 10
89.93326
 20
378.217272
 11
89.93326
 21
377.467271
  0
CIRCLE
  5
223
100
AcDbEntity
  8
M0
 62
     7
100
AcDbCircle
 10
107.73326
 20
298.867272
 40
2.825
  0
LINE
  5
224
100
AcDbEntity
  8
M0
 62
     7
100
AcDbLine
 10
89.93326
 20
378.217272
 11
88.795809
 21
378.217272
  0
LINE
  5
225
100
AcDbEntity
  8
M0
 62
     7
100
AcDbLine
 10
89.93326
 20
377.467271
 11
90.83326
 21
377.467271
  0
LINE
  5
226
100
AcDbEntity
  8
M0
 62
     7
100
AcDbLine
 10
88.795809
 20
379.117273
 11
89.93326
 21
379.117273
  0
LINE
  5
227
100
AcDbEntity
  8
M0
 62
     7
100
AcDbLine
 10
90.83326
 20
379.86727
 11
89.93326
 21
379.86727
  0
LINE
  5
228
100
AcDbEntity
  8
M0
 62
     7
100
AcDbLine
 10
89.93326
 20
379.86727
 11
89.93326
 21
379.117273
  0
LINE
  5
229
100
AcDbEntity
  8
M0
 62
     7
100
AcDbLine
 10
91.970711
 20
378.217272
 11
90.83326
 21
378.217272
  0
LINE
  5
22A
100
AcDbEntity
  8
M0
 62
     7
100
AcDbLine
 10
78.23326
 20
383.367274
 11
69.93326
 21
383.367274
  0
LINE
  5
22B
100
AcDbEntity
  8
M0
 62
     7
100
AcDbLine
 10
90.83326
 20
379.117273
 11
91.970711
 21
379.117273
  0
ARC
  5
22C
100
AcDbEntity
  8
M0
 62
     7
100
AcDbCircle
 10
105.93326
 20
374.367272
 40
1.0
100
AcDbArc
 50
30.0
 51
58.211672
  0
ARC
  5
22D
100
AcDbEntity
  8
M0
 62
     7
100
AcDbCircle
 10
90.38326
 20
378.667272
 40
2.65
100
AcDbArc
 50
170.223151
 51
189.776849
  0
ARC
  5
22E
100
AcDbEntity
  8
M0
 62
     7
100
AcDbCircle
 10
107.98326
 20
298.117272
 40
4.25
100
AcDbArc
 50
61.927513
 51
118.072487
  0
ARC
  5
22F
100
AcDbEntity
  8
M0
 62
     7
100
AcDbCircle
 10
107.73326
 20
298.867272
 40
2.65
100
AcDbArc
 50
350.223151
 51
369.776849
  0
ARC
  5
230
100
AcDbEntity
  8
M0
 62
     7
100
AcDbCircle
 10
103.23326
 20
375.567272
 40
0.6
100
AcDbArc
 50
187.490122
 51
324.314617
  0
ARC
  5
231
100
AcDbEntity
  8
M0
 62
     7
100
AcDbCircle
 10
77.53326
 20
375.567272
 40
0.6
100
AcDbArc
 50
215.685335
 51
270.0
  0
ARC
  5
232
100
AcDbEntity
  8
M0
 62
     7
100
AcDbCircle
 10
72.78326
 20
298.117272
 40
4.25
100
AcDbArc
 50
61.927513
 51
118.072487
  0
ARC
  5
233
100
AcDbEntity
  8
M0
 62
     7
100
AcDbCircle
 10
107.983259
 20
378.617272
 40
4.25
100
AcDbArc
 50
241.927521
 51
270.0
  0
ARC
  5
234
100
AcDbEntity
  8
M0
 62
     7
100
AcDbCircle
 10
107.983259
 20
378.617272
 40
4.25
100
AcDbArc
 50
241.927521
 51
298.072495
  0
ARC
  5
235
100
AcDbEntity
  8
M0
 62
     7
100
AcDbCircle
 10
90.383259
 20
378.617272
 40
4.25
100
AcDbArc
 50
241.927521
 51
270.0
  0
ARC
  5
236
100
AcDbEntity
  8
M0
 62
     7
100
AcDbCircle
 10
90.38326
 20
378.667272
 40
2.65
100
AcDbArc
 50
189.776849
 51
350.223151
  0
ARC
  5
237
100
AcDbEntity
  8
M0
 62
     7
100
AcDbCircle
 10
90.38326
 20
298.117272
 40
4.25
100
AcDbArc
 50
61.927513
 51
118.072487
  0
ARC
  5
238
100
AcDbEntity
  8
M0
 62
     7
100
AcDbCircle
 10
127.83326
 20
319.267272
 40
1.0
100
AcDbArc
 50
270.0
 51
360.0
  0
ARC
  5
239
100
AcDbEntity
  8
M0
 62
     7
100
AcDbCircle
 10
127.03326
 20
319.267272
 40
1.0
100
AcDbArc
 50
180.0
 51
270.0
  0
LINE
  5
23A
100
AcDbEntity
  8
M0
 62
     7
100
AcDbLine
 10
105.983259
 20
374.867271
 11
101.033259
 21
374.867271
  0
ARC
  5
23B
100
AcDbEntity
  8
M0
 62
     7
100
AcDbCircle
 10
63.13326
 20
318.867272
 40
0.6
100
AcDbArc
 50
180.0
 51
270.0
  0
ARC
  5
23C
100
AcDbEntity
  8
M0
 62
     7
100
AcDbCircle
 10
53.73326
 20
319.267272
 40
1.0
100
AcDbArc
 50
270.0
 51
360.0
  0
ARC
  5
23D
100
AcDbEntity
  8
M0
 62
     7
100
AcDbCircle
 10
53.73326
 20
333.667272
 40
1.0
100
AcDbArc
 50
0.0
 51
90.0
  0
LINE
  5
23E
100
AcDbEntity
  8
M0
 62
     7
100
AcDbLine
 10
119.13326
 20
312.567271
 11
119.13326
 21
313.617272
  0
LINE
  5
23F
100
AcDbEntity
  8
M0
 62
     7
100
AcDbLine
 10
101.033259
 20
371.567271
 11
101.033259
 21
374.36727
  0
LINE
  5
240
100
AcDbEntity
  8
M0
 62
     7
100
AcDbLine
 10
125.133259
 20
313.617272
 11
125.133259
 21
312.567271
  0
LINE
  5
241
100
AcDbEntity
  8
M0
 62
     7
100
AcDbLine
 10
74.78326
 20
301.867273
 11
79.73326
 21
301.867273
  0
ARC
  5
242
100
AcDbEntity
  8
M0
 62
     7
100
AcDbCircle
 10
65.575251
 20
327.77323
 40
3.350514
100
AcDbArc
 50
136.789285
 51
155.219178
  0
LINE
  5
243
100
AcDbEntity
  8
M0
 62
     7
100
AcDbLine
 10
118.23326
 20
314.067272
 11
118.385766
 21
314.067272
  0
LINE
  5
244
100
AcDbEntity
  8
M0
 62
     7
100
AcDbLine
 10
73.483261
 20
300.067272
 11
72.58326
 21
300.067272
  0
ARC
  5
245
100
AcDbEntity
  8
M0
 62
     7
100
AcDbCircle
 10
53.73326
 20
312.017272
 40
1.0
100
AcDbArc
 50
270.0
 51
360.0
  0
ARC
  5
246
100
AcDbEntity
  8
M0
 62
     7
100
AcDbCircle
 10
127.83326
 20
364.717272
 40
1.0
100
AcDbArc
 50
0.0
 51
90.0
  0
ARC
  5
247
100
AcDbEntity
  8
M0
 62
     7
100
AcDbCircle
 10
127.83326
 20
312.017272
 40
1.0
100
AcDbArc
 50
270.0
 51
360.0
  0
ARC
  5
248
100
AcDbEntity
  8
M0
 62
     7
100
AcDbCircle
 10
117.63326
 20
311.617272
 40
0.6
100
AcDbArc
 50
270.0
 51
360.0
  0
ARC
  5
249
100
AcDbEntity
  8
M0
 62
     7
100
AcDbCircle
 10
63.13326
 20
311.617272
 40
0.6
100
AcDbArc
 50
180.0
 51
270.0
  0
ARC
  5
24A
100
AcDbEntity
  8
M0
 62
     7
100
AcDbCircle
 10
63.13326
 20
365.117272
 40
0.6
100
AcDbArc
 50
90.0
 51
180.0
  0
ARC
  5
24B
100
AcDbEntity
  8
M0
 62
     7
100
AcDbCircle
 10
73.03326
 20
298.867272
 40
2.65
100
AcDbArc
 50
350.223151
 51
369.776849
  0
ARC
  5
24C
100
AcDbEntity
  8
M0
 62
     7
100
AcDbCircle
 10
73.03326
 20
298.867272
 40
2.65
100
AcDbArc
 50
170.223151
 51
189.776849
  0
ARC
  5
24D
100
AcDbEntity
  8
M0
 62
     7
100
AcDbCircle
 10
117.63326
 20
318.867272
 40
0.6
100
AcDbArc
 50
270.0
 51
360.0
  0
ARC
  5
24E
100
AcDbEntity
  8
M0
 62
     7
100
AcDbCircle
 10
107.73326
 20
298.867272
 40
2.65
100
AcDbArc
 50
189.776849
 51
350.223151
  0
ARC
  5
24F
100
AcDbEntity
  8
M0
 62
     7
100
AcDbCircle
 10
117.63326
 20
365.117272
 40
0.6
100
AcDbArc
 50
0.0
 51
90.0
  0
ARC
  5
250
100
AcDbEntity
  8
M0
 62
     7
100
AcDbCircle
 10
73.03326
 20
298.867272
 40
2.65
100
AcDbArc
 50
9.776849
 51
170.223151
  0
ARC
  5
251
100
AcDbEntity
  8
M0
 62
     7
100
AcDbCircle
 10
107.73326
 20
298.867272
 40
2.65
100
AcDbArc
 50
9.776849
 51
170.223151
  0
LINE
  5
252
100
AcDbEntity
  8
M0
 62
     7
100
AcDbLine
 10
71.44581
 20
299.31727
 11
70.421746
 21
299.31727
  0
LINE
  5
253
100
AcDbEntity
  8
M0
 62
     7
100
AcDbLine
 10
72.58326
 20
298.417274
 11
71.44581
 21
298.417274
  0
LINE
  5
254
100
AcDbEntity
  8
M0
 62
     7
100
AcDbLine
 10
72.58326
 20
297.667272
 11
73.483261
 21
297.667272
  0
LINE
  5
255
100
AcDbEntity
  8
M0
 62
     7
100
AcDbLine
 10
73.483261
 20
299.31727
 11
73.483261
 21
300.067272
  0
LINE
  5
256
100
AcDbEntity
  8
M0
 62
     7
100
AcDbLine
 10
74.620711
 20
298.417274
 11
75.644773
 21
298.417274
  0
LINE
  5
257
100
AcDbEntity
  8
M0
 62
     7
100
AcDbLine
 10
72.58326
 20
300.067272
 11
72.58326
 21
299.31727
  0
LINE
  5
258
100
AcDbEntity
  8
M0
 62
     7
100
AcDbLine
 10
54.73326
 20
312.017271
 11
54.73326
 21
333.667272
  0
LINE
  5
259
100
AcDbEntity
  8
M0
 62
     7
100
AcDbLine
 10
65.83326
 20
296.867274
 11
65.83326
 21
298.86727
  0
ARC
  5
25A
100
AcDbEntity
  8
M0
 62
     7
100
AcDbCircle
 10
90.383259
 20
378.617272
 40
4.25
100
AcDbArc
 50
241.927521
 51
298.072495
  0
LINE
  5
25B
100
AcDbEntity
  8
M0
 62
     7
100
AcDbLine
 10
75.644773
 20
299.31727
 11
74.620711
 21
299.31727
  0
LINE
  5
25C
100
AcDbEntity
  8
M0
 62
     7
100
AcDbLine
 10
73.483261
 20
299.31727
 11
74.620711
 21
299.31727
  0
LINE
  5
25D
100
AcDbEntity
  8
M0
 62
     7
100
AcDbLine
 10
118.23326
 20
329.177593
 11
118.23326
 21
311.617272
  0
LINE
  5
25E
100
AcDbEntity
  8
M0
 62
     7
100
AcDbLine
 10
101.033259
 20
298.86727
 11
101.033259
 21
296.867274
  0
LINE
  5
25F
100
AcDbEntity
  8
M0
 62
     7
100
AcDbLine
 10
105.121747
 20
298.417274
 11
106.145809
 21
298.417274
  0
LINE
  5
260
100
AcDbEntity
  8
M0
 62
     7
100
AcDbLine
 10
108.183259
 20
299.31727
 11
108.183259
 21
300.067272
  0
LINE
  5
261
100
AcDbEntity
  8
M0
 62
     7
100
AcDbLine
 10
109.32071
 20
298.417274
 11
110.344773
 21
298.417274
  0
LINE
  5
262
100
AcDbEntity
  8
M0
 62
     7
100
AcDbLine
 10
97.33326
 20
374.867271
 11
83.43326
 21
374.867271
  0
LINE
  5
263
100
AcDbEntity
  8
M0
 62
     7
100
AcDbLine
 10
125.133259
 20
312.567271
 11
119.13326
 21
312.567271
  0
LINE
  5
264
100
AcDbEntity
  8
M0
 62
     7
100
AcDbLine
 10
55.38326
 20
363.117272
 11
61.883259
 21
363.117272
  0
LINE
  5
265
100
AcDbEntity
  8
M0
 62
     7
100
AcDbLine
 10
71.44581
 20
299.31727
 11
72.58326
 21
299.31727
  0
LINE
  5
266
100
AcDbEntity
  8
M0
 62
     7
100
AcDbLine
 10
110.344773
 20
299.31727
 11
109.32071
 21
299.31727
  0
LINE
  5
267
100
AcDbEntity
  8
M0
 62
     7
100
AcDbLine
 10
70.421746
 20
298.417274
 11
71.44581
 21
298.417274
  0
LINE
  5
268
100
AcDbEntity
  8
M0
 62
     7
100
AcDbLine
 10
72.58326
 20
298.417274
 11
72.58326
 21
297.667272
  0
LINE
  5
269
100
AcDbEntity
  8
M0
 62
     7
100
AcDbLine
 10
106.145809
 20
299.31727
 11
105.121747
 21
299.31727
  0
LINE
  5
26A
100
AcDbEntity
  8
M0
 62
     7
100
AcDbLine
 10
74.620711
 20
298.417274
 11
73.483261
 21
298.417274
  0
LINE
  5
26B
100
AcDbEntity
  8
M0
 62
     7
100
AcDbLine
 10
73.483261
 20
297.667272
 11
73.483261
 21
298.417274
  0
LINE
  5
26C
100
AcDbEntity
  8
M0
 62
     7
100
AcDbLine
 10
279.802613
 20
335.167263
 11
279.802613
 21
332.667263
  0
LINE
  5
26D
100
AcDbEntity
  8
M0
 62
     7
100
AcDbLine
 10
289.502613
 20
353.467263
 11
289.502613
 21
358.467262
  0
LINE
  5
26E
100
AcDbEntity
  8
M0
 62
     7
100
AcDbLine
 10
233.202614
 20
316.667262
 11
233.202614
 21
360.067263
  0
LINE
  5
26F
100
AcDbEntity
  8
M0
 62
     7
100
AcDbLine
 10
242.002614
 20
358.467262
 11
253.402613
 21
358.467262
  0
LINE
  5
270
100
AcDbEntity
  8
M0
 62
     7
100
AcDbLine
 10
282.102613
 20
344.367263
 11
282.102613
 21
371.367263
  0
LINE
  5
271
100
AcDbEntity
  8
M0
 62
     7
100
AcDbLine
 10
259.402614
 20
365.717262
 11
273.49988
 21
365.717262
  0
LINE
  5
272
100
AcDbEntity
  8
M0
 62
     7
100
AcDbLine
 10
275.402613
 20
296.867264
 11
275.402613
 21
301.867263
  0
LINE
  5
273
100
AcDbEntity
  8
M0
 62
     7
100
AcDbLine
 10
243.002616
 20
343.067263
 11
243.002616
 21
333.667263
  0
LINE
  5
274
100
AcDbEntity
  8
M0
 62
     7
100
AcDbLine
 10
234.702609
 20
339.867263
 11
234.702609
 21
336.867263
  0
LINE
  5
275
100
AcDbEntity
  8
M0
 62
     7
100
AcDbLine
 10
280.302614
 20
344.567263
 11
282.102613
 21
344.567263
  0
LINE
  5
276
100
AcDbEntity
  8
M0
 62
     7
100
AcDbLine
 10
306.302612
 20
363.167263
 11
306.302612
 21
378.867263
  0
LINE
  5
277
100
AcDbEntity
  8
M0
 62
     7
100
AcDbLine
 10
234.702609
 20
331.167263
 11
234.702609
 21
333.867263
  0
LINE
  5
278
100
AcDbEntity
  8
M0
 62
     7
100
AcDbLine
 10
267.602611
 20
341.067263
 11
279.302612
 21
341.067263
  0
LINE
  5
279
100
AcDbEntity
  8
M0
 62
     7
100
AcDbLine
 10
277.602613
 20
363.167263
 11
306.302612
 21
363.167263
  0
LINE
  5
27A
100
AcDbEntity
  8
M0
 62
     7
100
AcDbLine
 10
242.002614
 20
342.067263
 11
240.00261
 21
342.067263
  0
LINE
  5
27B
100
AcDbEntity
  8
M0
 62
     7
100
AcDbLine
 10
306.302612
 20
297.367262
 11
305.802612
 21
297.367262
  0
LINE
  5
27C
100
AcDbEntity
  8
M0
 62
     7
100
AcDbLine
 10
294.002613
 20
355.427818
 11
294.002613
 21
352.551035
  0
LINE
  5
27D
100
AcDbEntity
  8
M0
 62
     7
100
AcDbLine
 10
289.502613
 20
358.467262
 11
282.102613
 21
358.467262
  0
LINE
  5
27E
100
AcDbEntity
  8
M0
 62
     7
100
AcDbLine
 10
239.002615
 20
343.067263
 11
239.002615
 21
355.467264
  0
LINE
  5
27F
100
AcDbEntity
  8
M0
 62
     7
100
AcDbLine
 10
309.802613
 20
352.167263
 11
311.802613
 21
352.167263
  0
LINE
  5
280
100
AcDbEntity
  8
M0
 62
     7
100
AcDbLine
 10
256.402612
 20
361.467263
 11
256.402612
 21
362.717263
  0
LINE
  5
281
100
AcDbEntity
  8
M0
 62
     7
100
AcDbLine
 10
242.002614
 20
334.667263
 11
242.002614
 21
342.067263
  0
LINE
  5
282
100
AcDbEntity
  8
M0
 62
     7
100
AcDbLine
 10
306.302612
 20
299.867263
 11
305.302613
 21
298.867261
  0
LINE
  5
283
100
AcDbEntity
  8
M0
 62
     7
100
AcDbLine
 10
289.502613
 20
318.267263
 11
282.102613
 21
318.267263
  0
LINE
  5
284
100
AcDbEntity
  8
M0
 62
     7
100
AcDbLine
 10
316.502613
 20
356.167262
 11
309.802613
 21
356.167262
  0
LINE
  5
285
100
AcDbEntity
  8
M0
 62
     7
100
AcDbLine
 10
275.442827
 20
365.003081
 11
277.602613
 21
363.167263
  0
ARC
  5
286
100
AcDbEntity
  8
M0
 62
     7
100
AcDbCircle
 10
70.63326
 20
375.867272
 40
0.5
100
AcDbArc
 50
113.578178
 51
180.0
  0
ARC
  5
287
100
AcDbEntity
  8
M0
 62
     7
100
AcDbCircle
 10
107.43326
 20
384.367272
 40
0.5
100
AcDbArc
 50
0.0
 51
90.0
  0
ARC
  5
288
100
AcDbEntity
  8
M0
 62
     7
100
AcDbCircle
 10
101.53326
 20
383.867272
 40
1.0
100
AcDbArc
 50
0.0
 51
90.0
  0
ARC
  5
289
100
AcDbEntity
  8
M0
 62
     7
100
AcDbCircle
 10
52.93326
 20
333.667272
 40
1.0
100
AcDbArc
 50
90.0
 51
180.0
  0
ARC
  5
28A
100
AcDbEntity
  8
M0
 62
     7
100
AcDbCircle
 10
52.93326
 20
343.067272
 40
1.0
100
AcDbArc
 50
180.0
 51
270.0
  0
ARC
  5
28B
100
AcDbEntity
  8
M0
 62
     7
100
AcDbCircle
 10
73.33326
 20
384.367272
 40
0.5
100
AcDbArc
 50
90.0
 51
180.0
  0
ARC
  5
28C
100
AcDbEntity
  8
M0
 62
     7
100
AcDbCircle
 10
63.63326
 20
330.667272
 40
0.5
100
AcDbArc
 50
90.0
 51
180.0
  0
ARC
  5
28D
100
AcDbEntity
  8
M0
 62
     7
100
AcDbCircle
 10
64.13326
 20
316.667272
 40
1.0
100
AcDbArc
 50
180.0
 51
270.0
  0
CIRCLE
  5
28E
100
AcDbEntity
  8
M0
 62
     7
100
AcDbCircle
 10
107.73326
 20
298.867272
 40
2.85
  0
ARC
  5
28F
100
AcDbEntity
  8
M0
 62
     7
100
AcDbCircle
 10
110.13326
 20
375.867272
 40
0.5
100
AcDbArc
 50
0.0
 51
66.421822
  0
ARC
  5
290
100
AcDbEntity
  8
M0
 62
     7
100
AcDbCircle
 10
79.23326
 20
383.867272
 40
1.0
100
AcDbArc
 50
90.0
 51
180.0
  0
ARC
  5
291
100
AcDbEntity
  8
M0
 62
     7
100
AcDbCircle
 10
116.63326
 20
316.667272
 40
1.0
100
AcDbArc
 50
270.0
 51
360.0
  0
ARC
  5
292
100
AcDbEntity
  8
M0
 62
     7
100
AcDbCircle
 10
117.13326
 20
330.667272
 40
0.5
100
AcDbArc
 50
0.0
 51
90.0
  0
LINE
  5
293
100
AcDbEntity
  8
M0
 62
     7
100
AcDbLine
 10
233.202614
 20
342.867263
 11
235.902615
 21
342.867263
  0
LINE
  5
294
100
AcDbEntity
  8
M0
 62
     7
100
AcDbLine
 10
235.902615
 20
315.667262
 11
234.202616
 21
315.667262
  0
LINE
  5
295
100
AcDbEntity
  8
M0
 62
     7
100
AcDbLine
 10
279.802613
 20
344.067263
 11
279.802613
 21
341.567263
  0
LINE
  5
296
100
AcDbEntity
  8
M0
 62
     7
100
AcDbLine
 10
233.702615
 20
331.167263
 11
235.902615
 21
331.167263
  0
LINE
  5
297
100
AcDbEntity
  8
M0
 62
     7
100
AcDbLine
 10
234.702609
 20
345.567263
 11
234.702609
 21
342.867263
  0
LINE
  5
298
100
AcDbEntity
  8
M0
 62
     7
100
AcDbLine
 10
267.102614
 20
340.567263
 11
267.102614
 21
336.167263
  0
LINE
  5
299
100
AcDbEntity
  8
M0
 62
     7
100
AcDbLine
 10
235.902615
 20
345.567263
 11
233.702615
 21
345.567263
  0
LINE
  5
29A
100
AcDbEntity
  8
M0
 62
     7
100
AcDbLine
 10
234.202616
 20
361.067263
 11
235.902615
 21
361.067263
  0
ARC
  5
29B
100
AcDbEntity
  8
M0
 62
     7
100
AcDbCircle
 10
127.83326
 20
333.667272
 40
1.0
100
AcDbArc
 50
0.0
 51
90.0
  0
LINE
  5
29C
100
AcDbEntity
  8
M0
 62
     7
100
AcDbLine
 10
267.602611
 20
335.667263
 11
279.302612
 21
335.667263
  0
LINE
  5
29D
100
AcDbEntity
  8
M0
 62
     7
100
AcDbLine
 10
233.202614
 20
336.867263
 11
235.902615
 21
336.867263
  0
LINE
  5
29E
100
AcDbEntity
  8
M0
 62
     7
100
AcDbLine
 10
270.902611
 20
376.117261
 11
270.902611
 21
382.167263
  0
LINE
  5
29F
100
AcDbEntity
  8
M0
 62
     7
100
AcDbLine
 10
83.43326
 20
301.867273
 11
88.38326
 21
301.867273
  0
LINE
  5
2A0
100
AcDbEntity
  8
M0
 62
     7
100
AcDbLine
 10
65.83326
 20
301.867273
 11
70.78326
 21
301.867273
  0
LINE
  5
2A1
100
AcDbEntity
  8
M0
 62
     7
100
AcDbLine
 10
114.93326
 20
374.867271
 11
109.98326
 21
374.867271
  0
LINE
  5
2A2
100
AcDbEntity
  8
M0
 62
     7
100
AcDbLine
 10
110.33326
 20
374.867271
 11
110.33326
 21
382.867273
  0
LINE
  5
2A3
100
AcDbEntity
  8
M0
 62
     7
100
AcDbLine
 10
118.23326
 20
321.167271
 11
126.03326
 21
321.167271
  0
LINE
  5
2A4
100
AcDbEntity
  8
M0
 62
     7
100
AcDbLine
 10
101.033259
 20
301.867273
 11
105.983259
 21
301.867273
  0
ARC
  5
2A5
100
AcDbEntity
  8
M0
 62
     7
100
AcDbCircle
 10
233.702613
 20
346.067263
 40
0.5
100
AcDbArc
 50
180.0
 51
270.0
  0
ARC
  5
2A6
100
AcDbEntity
  8
M0
 62
     7
100
AcDbCircle
 10
233.702613
 20
330.667263
 40
0.5
100
AcDbArc
 50
90.0
 51
180.0
  0
ARC
  5
2A7
100
AcDbEntity
  8
M0
 62
     7
100
AcDbCircle
 10
267.602613
 20
340.567263
 40
0.5
100
AcDbArc
 50
90.0
 51
180.0
  0
LINE
  5
2A8
100
AcDbEntity
  8
M0
 62
     7
100
AcDbLine
 10
92.38326
 20
301.867273
 11
97.33326
 21
301.867273
  0
LINE
  5
2A9
100
AcDbEntity
  8
M0
 62
     7
100
AcDbLine
 10
110.33326
 20
382.867273
 11
109.833259
 21
383.367274
  0
ARC
  5
2AA
100
AcDbEntity
  8
M0
 62
     7
100
AcDbCircle
 10
234.202613
 20
316.667263
 40
1.0
100
AcDbArc
 50
180.0
 51
270.0
  0
LINE
  5
2AB
100
AcDbEntity
  8
M0
 62
     7
100
AcDbLine
 10
109.98326
 20
301.867273
 11
114.93326
 21
301.867273
  0
LINE
  5
2AC
100
AcDbEntity
  8
M0
 62
     7
100
AcDbLine
 10
91.970711
 20
378.217272
 11
92.994773
 21
378.217272
  0
LINE
  5
2AD
100
AcDbEntity
  8
M0
 62
     7
100
AcDbLine
 10
109.32071
 20
298.417274
 11
108.183259
 21
298.417274
  0
LINE
  5
2AE
100
AcDbEntity
  8
M0
 62
     7
100
AcDbLine
 10
108.183259
 20
300.067272
 11
107.283259
 21
300.067272
  0
LINE
  5
2AF
100
AcDbEntity
  8
M0
 62
     7
100
AcDbLine
 10
107.283259
 20
298.417274
 11
106.145809
 21
298.417274
  0
LINE
  5
2B0
100
AcDbEntity
  8
M0
 62
     7
100
AcDbLine
 10
90.83326
 20
377.467271
 11
90.83326
 21
378.217272
  0
LINE
  5
2B1
100
AcDbEntity
  8
M0
 62
     7
100
AcDbLine
 10
92.994773
 20
379.117273
 11
91.970711
 21
379.117273
  0
LINE
  5
2B2
100
AcDbEntity
  8
M0
 62
     7
100
AcDbLine
 10
88.795809
 20
379.117273
 11
87.771747
 21
379.117273
  0
LINE
  5
2B3
100
AcDbEntity
  8
M0
 62
     7
100
AcDbLine
 10
107.283259
 20
300.067272
 11
107.283259
 21
299.31727
  0
LINE
  5
2B4
100
AcDbEntity
  8
M0
 62
     7
100
AcDbLine
 10
108.183259
 20
299.31727
 11
109.32071
 21
299.31727
  0
LINE
  5
2B5
100
AcDbEntity
  8
M0
 62
     7
100
AcDbLine
 10
87.771747
 20
378.217272
 11
88.795809
 21
378.217272
  0
LINE
  5
2B6
100
AcDbEntity
  8
M0
 62
     7
100
AcDbLine
 10
90.83326
 20
379.117273
 11
90.83326
 21
379.86727
  0
LINE
  5
2B7
100
AcDbEntity
  8
M0
 62
     7
100
AcDbLine
 10
107.283259
 20
298.417274
 11
107.283259
 21
297.667272
  0
LINE
  5
2B8
100
AcDbEntity
  8
M0
 62
     7
100
AcDbLine
 10
108.183259
 20
297.667272
 11
108.183259
 21
298.417274
  0
LINE
  5
2B9
100
AcDbEntity
  8
M0
 62
     7
100
AcDbLine
 10
289.502613
 20
318.267263
 11
289.502613
 21
323.267262
  0
LINE
  5
2BA
100
AcDbEntity
  8
M0
 62
     7
100
AcDbLine
 10
317.002612
 20
320.067262
 11
317.002612
 21
307.336956
  0
LINE
  5
2BB
100
AcDbEntity
  8
M0
 62
     7
100
AcDbLine
 10
311.802613
 20
324.567263
 11
309.802613
 21
324.567263
  0
LINE
  5
2BC
100
AcDbEntity
  8
M0
 62
     7
100
AcDbLine
 10
313.102613
 20
352.667263
 11
312.802613
 21
353.667263
  0
LINE
  5
2BD
100
AcDbEntity
  8
M0
 62
     7
100
AcDbLine
 10
309.802613
 20
320.567263
 11
316.502613
 21
320.567263
  0
LINE
  5
2BE
100
AcDbEntity
  8
M0
 62
     7
100
AcDbLine
 10
309.802613
 20
321.006708
 11
309.802613
 21
320.567263
  0
LINE
  5
2BF
100
AcDbEntity
  8
M0
 62
     7
100
AcDbLine
 10
317.302612
 20
376.836957
 11
317.002612
 21
376.836957
  0
LINE
  5
2C0
100
AcDbEntity
  8
M0
 62
     7
100
AcDbLine
 10
307.302613
 20
379.867261
 11
316.502613
 21
379.867261
  0
LINE
  5
2C1
100
AcDbEntity
  8
M0
 62
     7
100
AcDbLine
 10
235.902615
 20
339.867263
 11
233.202614
 21
339.867263
  0
LINE
  5
2C2
100
AcDbEntity
  8
M0
 62
     7
100
AcDbLine
 10
317.002612
 20
379.367264
 11
317.002612
 21
376.836957
  0
LINE
  5
2C3
100
AcDbEntity
  8
M0
 62
     7
100
AcDbLine
 10
306.302612
 20
313.567262
 11
282.102613
 21
313.567262
  0
LINE
  5
2C4
100
AcDbEntity
  8
M0
 62
     7
100
AcDbLine
 10
309.802613
 20
356.167262
 11
309.802613
 21
355.727818
  0
LINE
  5
2C5
100
AcDbEntity
  8
M0
 62
     7
100
AcDbLine
 10
317.302612
 20
379.117263
 11
317.302612
 21
367.117263
  0
ARC
  5
2C6
100
AcDbEntity
  8
M0
 62
     7
100
AcDbCircle
 10
240.902613
 20
375.867263
 40
5.0
100
AcDbArc
 50
90.0
 51
180.0
  0
ARC
  5
2C7
100
AcDbEntity
  8
M0
 62
     7
100
AcDbCircle
 10
236.902613
 20
333.167263
 40
1.0
100
AcDbArc
 50
180.0
 51
270.0
  0
ARC
  5
2C8
100
AcDbEntity
  8
M0
 62
     7
100
AcDbCircle
 10
253.402613
 20
315.267263
 40
3.0
100
AcDbArc
 50
0.0
 51
90.0
  0
ARC
  5
2C9
100
AcDbEntity
  8
M0
 62
     7
100
AcDbCircle
 10
266.659972
 20
298.867263
 40
3.0
100
AcDbArc
 50
270.0
 51
315.0
  0
ARC
  5
2CA
100
AcDbEntity
  8
M0
 62
     7
100
AcDbCircle
 10
279.302613
 20
341.567263
 40
0.5
100
AcDbArc
 50
270.0
 51
360.0
  0
ARC
  5
2CB
100
AcDbEntity
  8
M0
 62
     7
100
AcDbCircle
 10
271.902613
 20
382.167263
 40
1.0
100
AcDbArc
 50
143.130102
 51
180.0
  0
LINE
  5
2CC
100
AcDbEntity
  8
M0
 62
     7
100
AcDbLine
 10
282.102613
 20
371.367263
 11
286.80972
 21
376.074368
  0
ARC
  5
2CD
100
AcDbEntity
  8
M0
 62
     7
100
AcDbCircle
 10
259.402613
 20
314.017263
 40
3.0
100
AcDbArc
 50
180.0
 51
270.0
  0
LINE
  5
2CE
100
AcDbEntity
  8
M0
 62
     7
100
AcDbLine
 10
313.102613
 20
352.667263
 11
313.102613
 21
350.667262
  0
ARC
  5
2CF
100
AcDbEntity
  8
M0
 62
     7
100
AcDbCircle
 10
236.902613
 20
343.567263
 40
1.0
100
AcDbArc
 50
90.0
 51
180.0
  0
ARC
  5
2D0
100
AcDbEntity
  8
M0
 62
     7
100
AcDbCircle
 10
273.499881
 20
314.017263
 40
3.0
100
AcDbArc
 50
270.0
 51
310.364537
  0
LINE
  5
2D1
100
AcDbEntity
  8
M0
 62
     7
100
AcDbLine
 10
312.802613
 20
350.167263
 11
313.102613
 21
350.667262
  0
ARC
  5
2D2
100
AcDbEntity
  8
M0
 62
     7
100
AcDbCircle
 10
242.002613
 20
321.267263
 40
3.0
100
AcDbArc
 50
180.0
 51
270.0
  0
LINE
  5
2D3
100
AcDbEntity
  8
M0
 62
     7
100
AcDbLine
 10
73.250164
 20
369.748437
 11
70.902187
 21
367.400445
  0
LINE
  5
2D4
100
AcDbEntity
  8
M0
 62
     7
100
AcDbLine
 10
74.664363
 20
368.334222
 11
72.316387
 21
365.98623
  0
LINE
  5
2D5
100
AcDbEntity
  8
M0
 62
     7
100
AcDbLine
 10
110.83326
 20
374.867271
 11
110.83326
 21
383.867272
  0
LINE
  5
2D6
100
AcDbEntity
  8
M0
 62
     7
100
AcDbLine
 10
90.850164
 20
369.748437
 11
88.502187
 21
367.400445
  0
LINE
  5
2D7
100
AcDbEntity
  8
M0
 62
     7
100
AcDbLine
 10
92.264363
 20
368.334222
 11
89.916387
 21
365.98623
  0
LINE
  5
2D8
100
AcDbEntity
  8
M0
 62
     7
100
AcDbLine
 10
112.83326
 20
374.867271
 11
112.83326
 21
383.867271
  0
LINE
  5
2D9
100
AcDbEntity
  8
M0
  6
DASHDOT
 62
     7
100
AcDbLine
 10
107.98326
 20
368.367272
 11
107.98326
 21
367.367272
  0
LINE
  5
2DA
100
AcDbEntity
  8
M0
  6
DASHDOT
 62
     7
100
AcDbLine
 10
72.78326
 20
368.367272
 11
72.78326
 21
367.367272
  0
LINE
  5
2DB
100
AcDbEntity
  8
M0
  6
DASHDOT
 62
     7
100
AcDbLine
 10
89.88326
 20
367.867272
 11
90.88326
 21
367.867272
  0
LINE
  5
2DC
100
AcDbEntity
  8
M0
  6
DASHDOT
 62
     7
100
AcDbLine
 10
72.28326
 20
367.867272
 11
73.28326
 21
367.867272
  0
LINE
  5
2DD
100
AcDbEntity
  8
M0
 62
     7
100
AcDbLine
 10
70.714305
 20
369.936212
 11
74.977275
 21
365.673272
  0
LINE
  5
2DE
100
AcDbEntity
  8
M0
  6
DASHDOT
 62
     7
100
AcDbLine
 10
90.38326
 20
368.367272
 11
90.38326
 21
367.367272
  0
LINE
  5
2DF
100
AcDbEntity
  8
M0
  6
DASHDOT
 62
     7
100
AcDbLine
 10
107.48326
 20
367.867272
 11
108.48326
 21
367.867272
  0
LINE
  5
2E0
100
AcDbEntity
  8
M0
  6
DASHDOT
 62
     7
100
AcDbLine
 10
58.63326
 20
358.867272
 11
58.63326
 21
359.867272
  0
LINE
  5
2E1
100
AcDbEntity
  8
M0
 62
     7
100
AcDbLine
 10
106.686536
 20
380.381636
 11
104.918958
 21
378.613936
  0
LINE
  5
2E2
100
AcDbEntity
  8
M0
 62
     7
100
AcDbLine
 10
76.023844
 20
377.376627
 11
72.842203
 21
380.55839
  0
LINE
  5
2E3
100
AcDbEntity
  8
M0
 62
     7
100
AcDbLine
 10
107.923841
 20
377.376631
 11
104.7422
 21
380.558394
  0
LINE
  5
2E4
100
AcDbEntity
  8
M0
 62
     7
100
AcDbLine
 10
58.986538
 20
360.781634
 11
57.21896
 21
359.013933
  0
LINE
  5
2E5
100
AcDbEntity
  8
M0
  6
DASHDOT
 62
     7
100
AcDbLine
 10
58.13326
 20
359.367272
 11
59.13326
 21
359.367272
  0
LINE
  5
2E6
100
AcDbEntity
  8
M0
 62
     7
100
AcDbLine
 10
109.864363
 20
368.334222
 11
107.516387
 21
365.98623
  0
LINE
  5
2E7
100
AcDbEntity
  8
M0
 62
     7
100
AcDbLine
 10
105.914305
 20
369.936212
 11
110.177275
 21
365.673272
  0
LINE
  5
2E8
100
AcDbEntity
  8
M0
 62
     7
100
AcDbLine
 10
88.314305
 20
369.936212
 11
92.577275
 21
365.673272
  0
LINE
  5
2E9
100
AcDbEntity
  8
M0
 62
     7
100
AcDbLine
 10
75.847086
 20
379.320963
 11
74.079508
 21
377.553385
  0
LINE
  5
2EA
100
AcDbEntity
  8
M0
 62
     7
100
AcDbLine
 10
107.747083
 20
379.320967
 11
105.979505
 21
377.553389
  0
LINE
  5
2EB
100
AcDbEntity
  8
M0
 62
     7
100
AcDbLine
 10
108.450164
 20
369.748437
 11
106.102187
 21
367.400445
  0
LINE
  5
2EC
100
AcDbEntity
  8
M0
 62
     7
100
AcDbLine
 10
74.786539
 20
380.381632
 11
73.018961
 21
378.613932
  0
LINE
  5
2ED
100
AcDbEntity
  8
M0
 62
     7
100
AcDbLine
 10
55.333751
 20
373.117272
 11
54.883259
 21
373.117272
  0
LINE
  5
2EE
100
AcDbEntity
  8
M0
 62
     7
100
AcDbLine
 10
54.883259
 20
368.617272
 11
56.477523
 21
368.619248
  0
LINE
  5
2EF
100
AcDbEntity
  8
M0
 62
     7
100
AcDbLine
 10
63.13326
 20
298.86727
 11
62.483261
 21
298.86727
  0
CIRCLE
  5
2F0
100
AcDbEntity
  8
M0
 62
     7
100
AcDbCircle
 10
90.38326
 20
378.667272
 40
3.1
  0
ARC
  5
2F1
100
AcDbEntity
  8
M0
 62
     7
100
AcDbCircle
 10
107.73326
 20
298.867272
 40
3.5
100
AcDbArc
 50
58.997281
 51
88.05262
  0
LINE
  5
2F2
100
AcDbEntity
  8
M0
 62
     7
100
AcDbLine
 10
60.38326
 20
375.617273
 11
57.883261
 21
375.617273
  0
LINE
  5
2F3
100
AcDbEntity
  8
M0
 62
     7
100
AcDbLine
 10
110.83326
 20
380.467273
 11
110.33326
 21
380.467273
  0
LINE
  5
2F4
100
AcDbEntity
  8
M0
 62
     7
100
AcDbLine
 10
70.433259
 20
380.467273
 11
69.93326
 21
380.467273
  0
LINE
  5
2F5
100
AcDbEntity
  8
M0
 62
     7
100
AcDbLine
 10
63.13326
 20
299.867272
 11
61.98326
 21
299.867272
  0
LINE
  5
2F6
100
AcDbEntity
  8
M0
 62
     7
100
AcDbLine
 10
118.833259
 20
379.86727
 11
125.83326
 21
379.86727
  0
LINE
  5
2F7
100
AcDbEntity
  8
M0
 62
     7
100
AcDbLine
 10
58.932768
 20
371.117271
 11
60.38326
 21
371.117271
  0
LINE
  5
2F8
100
AcDbEntity
  8
M0
 62
     7
100
AcDbLine
 10
69.93326
 20
381.667271
 11
70.433259
 21
381.667271
  0
LINE
  5
2F9
100
AcDbEntity
  8
M0
 62
     7
100
AcDbLine
 10
128.833259
 20
314.567271
 11
129.33326
 21
309.567272
  0
ARC
  5
2FA
100
AcDbEntity
  8
M0
 62
     7
100
AcDbCircle
 10
73.03326
 20
298.867272
 40
3.5
100
AcDbArc
 50
121.002719
 51
180.0
  0
LINE
  5
2FB
100
AcDbEntity
  8
M0
  6
DASHDOT
 62
     7
100
AcDbLine
 10
107.98326
 20
308.367272
 11
107.98326
 21
309.367272
  0
ARC
  5
2FC
100
AcDbEntity
  8
M0
 62
     7
100
AcDbCircle
 10
73.03326
 20
298.867272
 40
3.5
100
AcDbArc
 50
91.94738
 51
121.002719
  0
LINE
  5
2FD
100
AcDbEntity
  8
M0
  6
DASHDOT
 62
     7
100
AcDbLine
 10
90.38326
 20
308.367272
 11
90.38326
 21
309.367272
  0
LINE
  5
2FE
100
AcDbEntity
  8
M0
 62
     7
100
AcDbLine
 10
62.383259
 20
355.017272
 11
62.383259
 21
348.517273
  0
ARC
  5
2FF
100
AcDbEntity
  8
M0
 62
     7
100
AcDbCircle
 10
100.33326
 20
382.667272
 40
0.5
100
AcDbArc
 50
0.0
 51
90.0
  0
ARC
  5
300
100
AcDbEntity
  8
M0
 62
     7
100
AcDbCircle
 10
73.03326
 20
298.867272
 40
3.5
100
AcDbArc
 50
0.0
 51
58.997281
  0
ARC
  5
301
100
AcDbEntity
  8
M0
 62
     7
100
AcDbCircle
 10
112.98326
 20
296.867272
 40
1.0
100
AcDbArc
 50
270.0
 51
360.0
  0
ARC
  5
302
100
AcDbEntity
  8
M0
 62
     7
100
AcDbCircle
 10
80.43326
 20
382.667272
 40
0.5
100
AcDbArc
 50
90.0
 51
180.0
  0
ARC
  5
303
100
AcDbEntity
  8
M0
 62
     7
100
AcDbCircle
 10
107.73326
 20
298.867272
 40
3.5
100
AcDbArc
 50
0.0
 51
58.997281
  0
LINE
  5
304
100
AcDbEntity
  8
M0
  6
DASHDOT
 62
     7
100
AcDbLine
 10
89.88326
 20
308.867272
 11
90.88326
 21
308.867272
  0
ARC
  5
305
100
AcDbEntity
  8
M0
 62
     7
100
AcDbCircle
 10
52.93326
 20
312.017272
 40
1.0
100
AcDbArc
 50
180.0
 51
270.0
  0
CIRCLE
  5
306
100
AcDbEntity
  8
M0
 62
     7
100
AcDbCircle
 10
58.633259
 20
324.96727
 40
3.0
  0
CIRCLE
  5
307
100
AcDbEntity
  8
M0
 62
     7
100
AcDbCircle
 10
58.633259
 20
317.36727
 40
3.0
  0
CIRCLE
  5
308
100
AcDbEntity
  8
M0
 62
     7
100
AcDbCircle
 10
58.633259
 20
359.367274
 40
3.0
  0
CIRCLE
  5
309
100
AcDbEntity
  8
M0
 62
     7
100
AcDbCircle
 10
122.133261
 20
351.767273
 40
3.0
  0
CIRCLE
  5
30A
100
AcDbEntity
  8
M0
 62
     7
100
AcDbCircle
 10
122.133261
 20
324.96727
 40
3.0
  0
CIRCLE
  5
30B
100
AcDbEntity
  8
M0
 62
     7
100
AcDbCircle
 10
58.633259
 20
351.767273
 40
3.0
  0
CIRCLE
  5
30C
100
AcDbEntity
  8
M0
 62
     7
100
AcDbCircle
 10
90.38326
 20
367.867303
 40
4.499996
  0
CIRCLE
  5
30D
100
AcDbEntity
  8
M0
 62
     7
100
AcDbCircle
 10
107.98326
 20
367.867303
 40
4.499996
  0
LINE
  5
30E
100
AcDbEntity
  8
M0
 62
     7
100
AcDbLine
 10
70.714305
 20
310.936212
 11
74.977275
 21
306.673272
  0
CIRCLE
  5
30F
100
AcDbEntity
  8
M0
 62
     7
100
AcDbCircle
 10
106.333257
 20
378.967276
 40
3.0
  0
CIRCLE
  5
310
100
AcDbEntity
  8
M0
 62
     7
100
AcDbCircle
 10
122.133261
 20
359.367274
 40
3.0
  0
CIRCLE
  5
311
100
AcDbEntity
  8
M0
 62
     7
100
AcDbCircle
 10
72.78326
 20
367.867303
 40
4.499996
  0
CIRCLE
  5
312
100
AcDbEntity
  8
M0
 62
     7
100
AcDbCircle
 10
74.43326
 20
378.967272
 40
3.0
  0
LINE
  5
313
100
AcDbEntity
  8
M0
  6
DASHDOT
 62
     7
100
AcDbLine
 10
90.38326
 20
290.867272
 11
90.38326
 21
389.867273
  0
LINE
  5
314
100
AcDbEntity
  8
M0
 62
     7
100
AcDbLine
 10
61.88326
 20
348.017272
 11
55.38326
 21
348.017272
  0
LINE
  5
315
100
AcDbEntity
  8
M0
 62
     7
100
AcDbLine
 10
118.383261
 20
348.517272
 11
118.383261
 21
355.017273
  0
LINE
  5
316
100
AcDbEntity
  8
M0
 62
     7
100
AcDbLine
 10
62.383259
 20
328.217272
 11
62.383259
 21
321.717272
  0
LINE
  5
317
100
AcDbEntity
  8
M0
 62
     7
100
AcDbLine
 10
125.38326
 20
321.217272
 11
118.88326
 21
321.217272
  0
LINE
  5
318
100
AcDbEntity
  8
M0
  6
DASHDOT
 62
     7
100
AcDbLine
 10
133.833259
 20
338.367272
 11
46.933261
 21
338.367272
  0
CIRCLE
  5
319
100
AcDbEntity
  8
M0
 62
     7
100
AcDbCircle
 10
90.38326
 20
308.867241
 40
4.499996
  0
CIRCLE
  5
31A
100
AcDbEntity
  8
M0
 62
     7
100
AcDbCircle
 10
107.98326
 20
308.867241
 40
4.499996
  0
CIRCLE
  5
31B
100
AcDbEntity
  8
M0
 62
     7
100
AcDbCircle
 10
122.133261
 20
317.36727
 40
3.0
  0
ARC
  5
31C
100
AcDbEntity
  8
M0
 62
     7
100
AcDbCircle
 10
111.83326
 20
383.867272
 40
1.0
100
AcDbArc
 50
0.0
 51
90.0
  0
LINE
  5
31D
100
AcDbEntity
  8
M0
 62
     7
100
AcDbLine
 10
55.383259
 20
355.517272
 11
61.88326
 21
355.517272
  0
CIRCLE
  5
31E
100
AcDbEntity
  8
M0
 62
     7
100
AcDbCircle
 10
72.78326
 20
308.867241
 40
4.499996
  0
ARC
  5
31F
100
AcDbEntity
  8
M0
 62
     7
100
AcDbCircle
 10
111.83326
 20
383.867272
 40
1.0
100
AcDbArc
 50
90.0
 51
180.0
  0
LINE
  5
320
100
AcDbEntity
  8
M0
 62
     7
100
AcDbLine
 10
60.223843
 20
315.776628
 11
57.042202
 21
318.958391
  0
LINE
  5
321
100
AcDbEntity
  8
M0
 62
     7
100
AcDbLine
 10
60.047085
 20
325.320964
 11
58.279507
 21
323.553386
  0
LINE
  5
322
100
AcDbEntity
  8
M0
 62
     7
100
AcDbLine
 10
58.986538
 20
318.781633
 11
57.21896
 21
317.013933
  0
LINE
  5
323
100
AcDbEntity
  8
M0
 62
     7
100
AcDbLine
 10
60.223843
 20
323.376629
 11
57.042202
 21
326.558391
  0
LINE
  5
324
100
AcDbEntity
  8
M0
 62
     7
100
AcDbLine
 10
123.547087
 20
359.720965
 11
121.779509
 21
357.953387
  0
LINE
  5
325
100
AcDbEntity
  8
M0
 62
     7
100
AcDbLine
 10
60.047085
 20
317.720964
 11
58.279507
 21
315.953386
  0
LINE
  5
326
100
AcDbEntity
  8
M0
 62
     7
100
AcDbLine
 10
60.223843
 20
357.776629
 11
57.042202
 21
360.958391
  0
LINE
  5
327
100
AcDbEntity
  8
M0
 62
     7
100
AcDbLine
 10
58.986538
 20
353.181634
 11
57.21896
 21
351.413933
  0
ARC
  5
328
100
AcDbEntity
  8
M0
 62
     7
100
AcDbCircle
 10
102.48326
 20
296.867272
 40
1.0
100
AcDbArc
 50
180.0
 51
270.0
  0
LINE
  5
329
100
AcDbEntity
  8
M0
 62
     7
100
AcDbLine
 10
60.223843
 20
350.176629
 11
57.042202
 21
353.358391
  0
LINE
  5
32A
100
AcDbEntity
  8
M0
 62
     7
100
AcDbLine
 10
58.986538
 20
326.381633
 11
57.21896
 21
324.613933
  0
LINE
  5
32B
100
AcDbEntity
  8
M0
 62
     7
100
AcDbLine
 10
60.047085
 20
359.720965
 11
58.279507
 21
357.953387
  0
LINE
  5
32C
100
AcDbEntity
  8
M0
 62
     7
100
AcDbLine
 10
60.047085
 20
352.120965
 11
58.279507
 21
350.353386
  0
LINE
  5
32D
100
AcDbEntity
  8
M0
 62
     7
100
AcDbLine
 10
123.723845
 20
315.776628
 11
120.542204
 21
318.958391
  0
LINE
  5
32E
100
AcDbEntity
  8
M0
 62
     7
100
AcDbLine
 10
122.48654
 20
318.781633
 11
120.718962
 21
317.013933
  0
LINE
  5
32F
100
AcDbEntity
  8
M0
 62
     7
100
AcDbLine
 10
123.547087
 20
325.320964
 11
121.779509
 21
323.553386
  0
LINE
  5
330
100
AcDbEntity
  8
M0
 62
     7
100
AcDbLine
 10
73.250164
 20
310.748437
 11
70.902187
 21
308.400445
  0
LINE
  5
331
100
AcDbEntity
  8
M0
 62
     7
100
AcDbLine
 10
74.664363
 20
309.334222
 11
72.316387
 21
306.98623
  0
LINE
  5
332
100
AcDbEntity
  8
M0
 62
     7
100
AcDbLine
 10
123.723845
 20
323.376629
 11
120.542204
 21
326.558391
  0
LINE
  5
333
100
AcDbEntity
  8
M0
 62
     7
100
AcDbLine
 10
123.723845
 20
350.176629
 11
120.542204
 21
353.358391
  0
LINE
  5
334
100
AcDbEntity
  8
M0
 62
     7
100
AcDbLine
 10
122.48654
 20
353.181634
 11
120.718962
 21
351.413933
  0
LINE
  5
335
100
AcDbEntity
  8
M0
 62
     7
100
AcDbLine
 10
123.723845
 20
357.776629
 11
120.542204
 21
360.958391
  0
LINE
  5
336
100
AcDbEntity
  8
M0
 62
     7
100
AcDbLine
 10
122.48654
 20
326.381633
 11
120.718962
 21
324.613933
  0
LINE
  5
337
100
AcDbEntity
  8
M0
 62
     7
100
AcDbLine
 10
123.547087
 20
317.720964
 11
121.779509
 21
315.953386
  0
LINE
  5
338
100
AcDbEntity
  8
M0
 62
     7
100
AcDbLine
 10
122.48654
 20
360.781634
 11
120.718962
 21
359.013933
  0
LINE
  5
339
100
AcDbEntity
  8
M0
 62
     7
100
AcDbLine
 10
123.547087
 20
352.120965
 11
121.779509
 21
350.353386
  0
ARC
  5
33A
100
AcDbEntity
  8
M0
 62
     7
100
AcDbCircle
 10
103.23326
 20
296.867272
 40
1.0
100
AcDbArc
 50
270.0
 51
360.0
  0
ARC
  5
33B
100
AcDbEntity
  8
M0
 62
     7
100
AcDbCircle
 10
68.53326
 20
296.867272
 40
1.0
100
AcDbArc
 50
270.0
 51
360.0
  0
ARC
  5
33C
100
AcDbEntity
  8
M0
 62
     7
100
AcDbCircle
 10
67.78326
 20
296.867272
 40
1.0
100
AcDbArc
 50
180.0
 51
270.0
  0
ARC
  5
33D
100
AcDbEntity
  8
M0
 62
     7
100
AcDbCircle
 10
54.43326
 20
376.867272
 40
3.0
100
AcDbArc
 50
90.0
 51
180.0
  0
ARC
  5
33E
100
AcDbEntity
  8
M0
 62
     7
100
AcDbCircle
 10
72.13326
 20
383.867272
 40
0.5
100
AcDbArc
 50
270.0
 51
360.0
  0
ARC
  5
33F
100
AcDbEntity
  8
M0
 62
     7
100
AcDbCircle
 10
68.93326
 20
383.867272
 40
1.0
100
AcDbArc
 50
90.0
 51
180.0
  0
ARC
  5
340
100
AcDbEntity
  8
M0
 62
     7
100
AcDbCircle
 10
68.93326
 20
383.867272
 40
1.0
100
AcDbArc
 50
0.0
 51
90.0
  0
ARC
  5
341
100
AcDbEntity
  8
M0
 62
     7
100
AcDbCircle
 10
77.53326
 20
296.867272
 40
1.0
100
AcDbArc
 50
180.0
 51
270.0
  0
LINE
  5
342
100
AcDbEntity
  8
M0
 62
     7
100
AcDbLine
 10
101.033259
 20
313.467271
 11
101.033259
 21
300.86727
  0
ARC
  5
343
100
AcDbEntity
  8
M0
 62
     7
100
AcDbCircle
 10
112.23326
 20
296.867272
 40
1.0
100
AcDbArc
 50
180.0
 51
270.0
  0
ARC
  5
344
100
AcDbEntity
  8
M0
 62
     7
100
AcDbCircle
 10
125.83326
 20
376.867272
 40
3.0
100
AcDbArc
 50
0.0
 51
90.0
  0
LINE
  5
345
100
AcDbEntity
  8
M0
 62
     7
100
AcDbLine
 10
114.93326
 20
300.86727
 11
114.93326
 21
315.467272
  0
ARC
  5
346
100
AcDbEntity
  8
M0
 62
     7
100
AcDbCircle
 10
78.28326
 20
296.867272
 40
1.0
100
AcDbArc
 50
270.0
 51
360.0
  0
ARC
  5
347
100
AcDbEntity
  8
M0
 62
     7
100
AcDbCircle
 10
54.88326
 20
370.867272
 40
2.25
100
AcDbArc
 50
90.0
 51
270.0
  0
ARC
  5
348
100
AcDbEntity
  8
M0
 62
     7
100
AcDbCircle
 10
98.33326
 20
296.867272
 40
1.0
100
AcDbArc
 50
180.0
 51
270.0
  0
ARC
  5
349
100
AcDbEntity
  8
M0
 62
     7
100
AcDbCircle
 10
82.93326
 20
313.467272
 40
0.5
100
AcDbArc
 50
0.0
 51
90.0
  0
ARC
  5
34A
100
AcDbEntity
  8
M0
 62
     7
100
AcDbCircle
 10
55.33375
 20
373.417272
 40
0.3
100
AcDbArc
 50
270.0
 51
358.876481
  0
ARC
  5
34B
100
AcDbEntity
  8
M0
 62
     7
100
AcDbCircle
 10
60.38326
 20
373.367272
 40
2.25
100
AcDbArc
 50
270.0
 51
450.0
  0
ARC
  5
34C
100
AcDbEntity
  8
M0
 62
     7
100
AcDbCircle
 10
80.23326
 20
313.467272
 40
0.5
100
AcDbArc
 50
90.0
 51
180.0
  0
ARC
  5
34D
100
AcDbEntity
  8
M0
 62
     7
100
AcDbCircle
 10
108.63326
 20
383.867272
 40
0.5
100
AcDbArc
 50
180.0
 51
270.0
  0
ARC
  5
34E
100
AcDbEntity
  8
M0
 62
     7
100
AcDbCircle
 10
56.38326
 20
370.867272
 40
2.25
100
AcDbArc
 50
272.401074
 51
358.876481
  0
ARC
  5
34F
100
AcDbEntity
  8
M0
 62
     7
100
AcDbCircle
 10
108.63326
 20
384.367272
 40
0.5
100
AcDbArc
 50
90.0
 51
180.0
  0
ARC
  5
350
100
AcDbEntity
  8
M0
 62
     7
100
AcDbCircle
 10
120.38326
 20
303.367272
 40
2.25
100
AcDbArc
 50
90.0
 51
270.0
  0
ARC
  5
351
100
AcDbEntity
  8
M0
 62
     7
100
AcDbCircle
 10
122.88326
 20
303.367272
 40
2.25
100
AcDbArc
 50
270.0
 51
355.815286
  0
ARC
  5
352
100
AcDbEntity
  8
M0
 62
     7
100
AcDbCircle
 10
62.48326
 20
297.867272
 40
0.5
100
AcDbArc
 50
180.0
 51
270.0
  0
ARC
  5
353
100
AcDbEntity
  8
M0
 62
     7
100
AcDbCircle
 10
100.53326
 20
313.467272
 40
0.5
100
AcDbArc
 50
0.0
 51
90.0
  0
LINE
  5
354
100
AcDbEntity
  8
M0
 62
     7
100
AcDbLine
 10
127.13326
 20
311.017273
 11
127.033258
 21
311.017273
  0
LINE
  5
355
100
AcDbEntity
  8
M0
 62
     7
100
AcDbLine
 10
119.13326
 20
313.567271
 11
118.23326
 21
313.567271
  0
LINE
  5
356
100
AcDbEntity
  8
M0
 62
     7
100
AcDbLine
 10
114.93326
 20
297.367271
 11
113.983261
 21
297.367271
  0
LINE
  5
357
100
AcDbEntity
  8
M0
 62
     7
100
AcDbLine
 10
63.833259
 20
339.767272
 11
62.13326
 21
339.767272
  0
LINE
  5
358
100
AcDbEntity
  8
M0
 62
     7
100
AcDbLine
 10
63.13326
 20
336.967272
 11
63.13326
 21
336.867272
  0
LINE
  5
359
100
AcDbEntity
  8
M0
 62
     7
100
AcDbLine
 10
51.933261
 20
362.167273
 11
51.43326
 21
367.167271
  0
LINE
  5
35A
100
AcDbEntity
  8
M0
 62
     7
100
AcDbLine
 10
61.98326
 20
297.867272
 11
61.98326
 21
299.367271
  0
LINE
  5
35B
100
AcDbEntity
  8
M0
 62
     7
100
AcDbLine
 10
63.13326
 20
297.367271
 11
62.483261
 21
297.367271
  0
LINE
  5
35C
100
AcDbEntity
  8
M0
 62
     7
100
AcDbLine
 10
61.633259
 20
313.567271
 11
62.53326
 21
313.567271
  0
LINE
  5
35D
100
AcDbEntity
  8
M0
 62
     7
100
AcDbLine
 10
114.93326
 20
298.86727
 11
113.983261
 21
298.86727
  0
LINE
  5
35E
100
AcDbEntity
  8
M0
 62
     7
100
AcDbLine
 10
126.03326
 20
313.567271
 11
125.133259
 21
313.567271
  0
LINE
  5
35F
100
AcDbEntity
  8
M0
 62
     7
100
AcDbLine
 10
62.53326
 20
363.167273
 11
61.633259
 21
363.167273
  0
LINE
  5
360
100
AcDbEntity
  8
M0
 62
     7
100
AcDbLine
 10
114.93326
 20
299.867272
 11
113.983261
 21
299.867272
  0
LINE
  5
361
100
AcDbEntity
  8
M0
 62
     7
100
AcDbLine
 10
118.633259
 20
332.167272
 11
117.633259
 21
332.167272
  0
LINE
  5
362
100
AcDbEntity
  8
M0
 62
     7
100
AcDbLine
 10
118.633259
 20
343.067272
 11
118.633259
 21
333.667272
  0
LINE
  5
363
100
AcDbEntity
  8
M0
 62
     7
100
AcDbLine
 10
63.13326
 20
339.767272
 11
63.13326
 21
339.867272
  0
LINE
  5
364
100
AcDbEntity
  8
M0
 62
     7
100
AcDbLine
 10
114.93326
 20
315.467272
 11
115.93326
 21
315.467272
  0
LINE
  5
365
100
AcDbEntity
  8
M0
 62
     7
100
AcDbLine
 10
100.03326
 20
313.967272
 11
100.53326
 21
313.967272
  0
LINE
  5
366
100
AcDbEntity
  8
M0
 62
     7
100
AcDbLine
 10
97.83326
 20
313.967272
 11
98.33326
 21
313.967272
  0
LINE
  5
367
100
AcDbEntity
  8
M0
 62
     7
100
AcDbLine
 10
61.13326
 20
343.567272
 11
61.13326
 21
333.167272
  0
LINE
  5
368
100
AcDbEntity
  8
M0
 62
     7
100
AcDbLine
 10
119.633259
 20
343.567272
 11
119.633259
 21
333.167272
  0
LINE
  5
369
100
AcDbEntity
  8
M0
 62
     7
100
AcDbLine
 10
65.83326
 20
315.467272
 11
64.833259
 21
315.467272
  0
LINE
  5
36A
100
AcDbEntity
  8
M0
 62
     7
100
AcDbLine
 10
62.13326
 20
332.167272
 11
63.13326
 21
332.167272
  0
LINE
  5
36B
100
AcDbEntity
  8
M0
 62
     7
100
AcDbLine
 10
62.13326
 20
343.067272
 11
62.13326
 21
333.667272
  0
LINE
  5
36C
100
AcDbEntity
  8
M0
 62
     7
100
AcDbLine
 10
62.13326
 20
336.967272
 11
63.833259
 21
336.967272
  0
LINE
  5
36D
100
AcDbEntity
  8
M0
 62
     7
100
AcDbLine
 10
98.33326
 20
313.967272
 11
100.03326
 21
313.967272
  0
LINE
  5
36E
100
AcDbEntity
  8
M0
 62
     7
100
AcDbLine
 10
78.28326
 20
295.867272
 11
54.93326
 21
295.867272
  0
LINE
  5
36F
100
AcDbEntity
  8
M0
 62
     7
100
AcDbLine
 10
97.33326
 20
300.86727
 11
97.33326
 21
313.467271
  0
LINE
  5
370
100
AcDbEntity
  8
M0
 62
     7
100
AcDbLine
 10
76.53326
 20
298.86727
 11
76.53326
 21
296.867274
  0
LINE
  5
371
100
AcDbEntity
  8
M0
 62
     7
100
AcDbLine
 10
81.233256
 20
295.867272
 11
82.433259
 21
295.867272
  0
LINE
  5
372
100
AcDbEntity
  8
M0
 62
     7
100
AcDbLine
 10
97.33326
 20
296.867274
 11
97.33326
 21
300.86727
  0
LINE
  5
373
100
AcDbEntity
  8
M0
 62
     7
100
AcDbLine
 10
52.933259
 20
311.017273
 11
53.733262
 21
311.017273
  0
LINE
  5
374
100
AcDbEntity
  8
M0
 62
     7
100
AcDbLine
 10
67.93326
 20
374.867271
 11
67.93326
 21
383.867271
  0
LINE
  5
375
100
AcDbEntity
  8
M0
 62
     7
100
AcDbLine
 10
113.983261
 20
301.867273
 11
113.983261
 21
296.867274
  0
LINE
  5
376
100
AcDbEntity
  8
M0
 62
     7
100
AcDbLine
 10
71.230484
 20
301.867273
 11
70.78326
 21
301.867273
  0
LINE
  5
377
100
AcDbEntity
  8
M0
 62
     7
100
AcDbLine
 10
111.233261
 20
296.867274
 11
111.233261
 21
298.86727
  0
LINE
  5
378
100
AcDbEntity
  8
M0
 62
     7
100
AcDbLine
 10
51.933261
 20
364.717272
 11
51.933261
 21
298.867272
  0
LINE
  5
379
100
AcDbEntity
  8
M0
 62
     7
100
AcDbLine
 10
109.536035
 20
301.867273
 11
109.98326
 21
301.867273
  0
LINE
  5
37A
100
AcDbEntity
  8
M0
 62
     7
100
AcDbLine
 10
65.83326
 20
376.367271
 11
67.93326
 21
376.367271
  0
LINE
  5
37B
100
AcDbEntity
  8
M0
 62
     7
100
AcDbLine
 10
112.83326
 20
376.367271
 11
114.93326
 21
376.367271
  0
LINE
  5
37C
100
AcDbEntity
  8
M0
 62
     7
100
AcDbLine
 10
128.833259
 20
376.867272
 11
128.833259
 21
312.017272
  0
LINE
  5
37D
100
AcDbEntity
  8
M0
 62
     7
100
AcDbLine
 10
69.93326
 20
379.367273
 11
70.433259
 21
379.367273
  0
LINE
  5
37E
100
AcDbEntity
  8
M0
 62
     7
100
AcDbLine
 10
61.98326
 20
299.367271
 11
61.98326
 21
299.867272
  0
LINE
  5
37F
100
AcDbEntity
  8
M0
 62
     7
100
AcDbLine
 10
63.13326
 20
306.867271
 11
61.98326
 21
306.867271
  0
LINE
  5
380
100
AcDbEntity
  8
M0
 62
     7
100
AcDbLine
 10
121.83475
 20
305.617273
 11
120.383259
 21
305.617273
  0
LINE
  5
381
100
AcDbEntity
  8
M0
 62
     7
100
AcDbLine
 10
61.98326
 20
300.86727
 11
63.13326
 21
300.86727
  0
LINE
  5
382
100
AcDbEntity
  8
M0
 62
     7
100
AcDbLine
 10
80.733259
 20
295.867272
 11
81.233256
 21
295.867272
  0
LINE
  5
383
100
AcDbEntity
  8
M0
 62
     7
100
AcDbLine
 10
54.433258
 20
379.86727
 11
61.933261
 21
379.86727
  0
LINE
  5
384
100
AcDbEntity
  8
M0
 62
     7
100
AcDbLine
 10
110.83326
 20
379.367273
 11
110.33326
 21
379.367273
  0
LINE
  5
385
100
AcDbEntity
  8
M0
 62
     7
100
AcDbLine
 10
51.43326
 20
367.167271
 11
51.43326
 21
376.867272
  0
LINE
  5
386
100
AcDbEntity
  8
M0
 62
     7
100
AcDbLine
 10
61.98326
 20
306.867271
 11
61.98326
 21
300.86727
  0
LINE
  5
387
100
AcDbEntity
  8
M0
 62
     7
100
AcDbLine
 10
127.13326
 20
365.717271
 11
127.033258
 21
365.717271
  0
LINE
  5
388
100
AcDbEntity
  8
M0
 62
     7
100
AcDbLine
 10
79.93326
 20
380.467273
 11
79.93326
 21
382.667273
  0
ARC
  5
389
100
AcDbEntity
  8
M0
 62
     7
100
AcDbCircle
 10
97.83326
 20
313.467272
 40
0.5
100
AcDbArc
 50
90.0
 51
180.0
  0
LINE
  5
38A
100
AcDbEntity
  8
M0
 62
     7
100
AcDbLine
 10
125.133259
 20
363.167273
 11
126.03326
 21
363.167273
  0
LINE
  5
38B
100
AcDbEntity
  8
M0
 62
     7
100
AcDbLine
 10
105.983258
 20
374.867271
 11
112.433261
 21
374.867271
  0
ARC
  5
38C
100
AcDbEntity
  8
M0
 62
     7
100
AcDbCircle
 10
107.73326
 20
298.867272
 40
3.5
100
AcDbArc
 50
121.002719
 51
180.0
  0
ARC
  5
38D
100
AcDbEntity
  8
M0
 62
     7
100
AcDbCircle
 10
72.13326
 20
384.367272
 40
0.5
100
AcDbArc
 50
0.0
 51
90.0
  0
ARC
  5
38E
100
AcDbEntity
  8
M0
 62
     7
100
AcDbCircle
 10
58.93277
 20
370.817272
 40
0.3
100
AcDbArc
 50
90.0
 51
178.876481
  0
LINE
  5
38F
100
AcDbEntity
  8
M0
 62
     7
100
AcDbLine
 10
65.83326
 20
300.86727
 11
65.83326
 21
315.467272
  0
ARC
  5
390
100
AcDbEntity
  8
M0
 62
     7
100
AcDbCircle
 10
80.23326
 20
363.267272
 40
0.5
100
AcDbArc
 50
180.0
 51
270.0
  0
LINE
  5
391
100
AcDbEntity
  8
M0
 62
     7
100
AcDbLine
 10
55.63326
 20
363.167273
 11
54.73326
 21
363.167273
  0
ARC
  5
392
100
AcDbEntity
  8
M0
 62
     7
100
AcDbCircle
 10
57.88326
 20
373.367272
 40
2.25
100
AcDbArc
 50
90.0
 51
178.876481
  0
ARC
  5
393
100
AcDbEntity
  8
M0
 62
     7
100
AcDbCircle
 10
62.13326
 20
333.167272
 40
1.0
100
AcDbArc
 50
180.0
 51
270.0
  0
LINE
  5
394
100
AcDbEntity
  8
M0
 62
     7
100
AcDbLine
 10
66.783259
 20
296.867274
 11
66.783259
 21
301.867273
  0
LINE
  5
395
100
AcDbEntity
  8
M0
 62
     7
100
AcDbLine
 10
79.28326
 20
296.867274
 11
79.28326
 21
301.867273
  0
LINE
  5
396
100
AcDbEntity
  8
M0
 62
     7
100
AcDbLine
 10
126.33326
 20
295.867272
 11
102.48326
 21
295.867272
  0
LINE
  5
397
100
AcDbEntity
  8
M0
 62
     7
100
AcDbLine
 10
53.63326
 20
311.017273
 11
53.733262
 21
311.017273
  0
LINE
  5
398
100
AcDbEntity
  8
M0
 62
     7
100
AcDbLine
 10
80.43326
 20
383.16727
 11
100.33326
 21
383.16727
  0
LINE
  5
399
100
AcDbEntity
  8
M0
 62
     7
100
AcDbLine
 10
100.83326
 20
382.667273
 11
100.83326
 21
380.467273
  0
LINE
  5
39A
100
AcDbEntity
  8
M0
 62
     7
100
AcDbLine
 10
69.533259
 20
298.86727
 11
69.533259
 21
296.867274
  0
LINE
  5
39B
100
AcDbEntity
  8
M0
 62
     7
100
AcDbLine
 10
104.23326
 20
298.86727
 11
104.23326
 21
296.867274
  0
LINE
  5
39C
100
AcDbEntity
  8
M0
 62
     7
100
AcDbLine
 10
88.38326
 20
301.867273
 11
92.38326
 21
301.867273
  0
LINE
  5
39D
100
AcDbEntity
  8
M0
 62
     7
100
AcDbLine
 10
53.63326
 20
365.717271
 11
53.733262
 21
365.717271
  0
LINE
  5
39E
100
AcDbEntity
  8
M0
 62
     7
100
AcDbLine
 10
101.48326
 20
296.867274
 11
101.48326
 21
301.867273
  0
LINE
  5
39F
100
AcDbEntity
  8
M0
 62
     7
100
AcDbLine
 10
118.23326
 20
363.167273
 11
119.13326
 21
363.167273
  0
LINE
  5
3A0
100
AcDbEntity
  8
M0
 62
     7
100
AcDbLine
 10
69.93326
 20
374.867271
 11
69.93326
 21
383.867272
  0
LINE
  5
3A1
100
AcDbEntity
  8
M0
 62
     7
100
AcDbLine
 10
240.90261
 20
380.867263
 11
266.249105
 21
380.867263
  0
LINE
  5
3A2
100
AcDbEntity
  8
M0
 62
     7
100
AcDbLine
 10
317.302612
 20
367.117263
 11
317.002612
 21
367.117263
  0
LINE
  5
3A3
100
AcDbEntity
  8
M0
 62
     7
100
AcDbLine
 10
239.002615
 20
321.267262
 11
239.002615
 21
333.667263
  0
LINE
  5
3A4
100
AcDbEntity
  8
M0
 62
     7
100
AcDbLine
 10
317.002612
 20
373.897569
 11
317.002612
 21
353.667263
  0
LINE
  5
3A5
100
AcDbEntity
  8
M0
 62
     7
100
AcDbLine
 10
242.002614
 20
334.667263
 11
240.00261
 21
334.667263
  0
LINE
  5
3A6
100
AcDbEntity
  8
M0
 62
     7
100
AcDbLine
 10
317.002612
 20
379.367264
 11
317.002612
 21
379.117263
  0
LINE
  5
3A7
100
AcDbEntity
  8
M0
 62
     7
100
AcDbLine
 10
294.002613
 20
355.427818
 11
309.502613
 21
355.427818
  0
LINE
  5
3A8
100
AcDbEntity
  8
M0
 62
     7
100
AcDbLine
 10
291.695505
 20
384.57437
 11
296.109719
 21
380.160155
  0
LINE
  5
3A9
100
AcDbEntity
  8
M0
 62
     7
100
AcDbLine
 10
282.202612
 20
384.867264
 11
274.102613
 21
384.867264
  0
LINE
  5
3AA
100
AcDbEntity
  8
M0
 62
     7
100
AcDbLine
 10
283.302612
 20
384.867264
 11
282.802613
 21
384.867264
  0
LINE
  5
3AB
100
AcDbEntity
  8
M0
 62
     7
100
AcDbLine
 10
317.302612
 20
367.119273
 11
317.002612
 21
367.119273
  0
LINE
  5
3AC
100
AcDbEntity
  8
M0
 62
     7
100
AcDbLine
 10
296.402612
 20
379.45305
 11
296.402612
 21
376.367262
  0
LINE
  5
3AD
100
AcDbEntity
  8
M0
 62
     7
100
AcDbLine
 10
312.802613
 20
320.567263
 11
312.802613
 21
356.167262
  0
LINE
  5
3AE
100
AcDbEntity
  8
M0
 62
     7
100
AcDbLine
 10
268.785573
 20
379.46924
 11
273.902613
 21
371.367263
  0
LINE
  5
3AF
100
AcDbEntity
  8
M0
 62
     7
100
AcDbLine
 10
239.002615
 20
332.167263
 11
236.902609
 21
332.167263
  0
LINE
  5
3B0
100
AcDbEntity
  8
M0
 62
     7
100
AcDbLine
 10
236.902609
 20
344.567263
 11
239.002615
 21
344.567263
  0
LINE
  5
3B1
100
AcDbEntity
  8
M0
 62
     7
100
AcDbLine
 10
240.00261
 20
342.067263
 11
240.00261
 21
334.667263
  0
LINE
  5
3B2
100
AcDbEntity
  8
M0
 62
     7
100
AcDbLine
 10
273.8913
 20
371.367263
 11
273.8913
 21
365.691619
  0
LINE
  5
3B3
100
AcDbEntity
  8
M0
 62
     7
100
AcDbLine
 10
235.902615
 20
300.867263
 11
235.902615
 21
375.867263
  0
LINE
  5
3B4
100
AcDbEntity
  8
M0
 62
     7
100
AcDbLine
 10
256.402612
 20
314.017262
 11
256.402612
 21
315.267263
  0
LINE
  5
3B5
100
AcDbEntity
  8
M0
 62
     7
100
AcDbLine
 10
277.602613
 20
313.567262
 11
275.442827
 21
311.731445
  0
LINE
  5
3B6
100
AcDbEntity
  8
M0
 62
     7
100
AcDbLine
 10
317.302612
 20
309.567263
 11
317.302612
 21
296.617264
  0
LINE
  5
3B7
100
AcDbEntity
  8
M0
 62
     7
100
AcDbLine
 10
271.902613
 20
335.867263
 11
271.902613
 21
341.067263
  0
LINE
  5
3B8
100
AcDbEntity
  8
M0
 62
     7
100
AcDbLine
 10
317.302612
 20
367.119273
 11
317.302612
 21
367.117263
  0
LINE
  5
3B9
100
AcDbEntity
  8
M0
 62
     7
100
AcDbLine
 10
253.402613
 20
318.267263
 11
242.002614
 21
318.267263
  0
LINE
  5
3BA
100
AcDbEntity
  8
M0
 62
     7
100
AcDbLine
 10
282.102613
 20
313.567262
 11
277.602613
 21
313.567262
  0
ARC
  5
3BB
100
AcDbEntity
  8
M0
 62
     7
100
AcDbCircle
 10
52.93326
 20
364.717272
 40
1.0
100
AcDbArc
 50
90.0
 51
180.0
  0
ARC
  5
3BC
100
AcDbEntity
  8
M0
 62
     7
100
AcDbCircle
 10
53.73326
 20
364.717272
 40
1.0
100
AcDbArc
 50
0.0
 51
90.0
  0
ARC
  5
3BD
100
AcDbEntity
  8
M0
 62
     7
100
AcDbCircle
 10
63.13326
 20
357.867272
 40
0.6
100
AcDbArc
 50
90.0
 51
180.0
  0
LINE
  5
3BE
100
AcDbEntity
  8
M0
 62
     7
100
AcDbLine
 10
309.502613
 20
321.306707
 11
294.002613
 21
321.306707
  0
LINE
  5
3BF
100
AcDbEntity
  8
M0
 62
     7
100
AcDbLine
 10
317.002612
 20
296.617264
 11
317.302612
 21
296.617264
  0
ARC
  5
3C0
100
AcDbEntity
  8
M0
 62
     7
100
AcDbCircle
 10
117.63326
 20
357.867272
 40
0.6
100
AcDbArc
 50
0.0
 51
90.0
  0
ARC
  5
3C1
100
AcDbEntity
  8
M0
 62
     7
100
AcDbCircle
 10
52.93326
 20
319.267272
 40
1.0
100
AcDbArc
 50
180.0
 51
270.0
  0
ARC
  5
3C2
100
AcDbEntity
  8
M0
 62
     7
100
AcDbCircle
 10
127.03326
 20
364.717272
 40
1.0
100
AcDbArc
 50
90.0
 51
180.0
  0
ARC
  5
3C3
100
AcDbEntity
  8
M0
 62
     7
100
AcDbCircle
 10
118.88326
 20
356.117272
 40
0.5
100
AcDbArc
 50
180.0
 51
270.0
  0
ARC
  5
3C4
100
AcDbEntity
  8
M0
 62
     7
100
AcDbCircle
 10
67.430128
 20
350.216528
 40
5.573176
100
AcDbArc
 50
208.520126
 51
219.557059
  0
ARC
  5
3C5
100
AcDbEntity
  8
M0
 62
     7
100
AcDbCircle
 10
127.03326
 20
312.017272
 40
1.0
100
AcDbArc
 50
180.0
 51
270.0
  0
ARC
  5
3C6
100
AcDbEntity
  8
M0
 62
     7
100
AcDbCircle
 10
115.191268
 20
327.77323
 40
3.350514
100
AcDbArc
 50
24.780822
 51
43.210715
  0
ARC
  5
3C7
100
AcDbEntity
  8
M0
 62
     7
100
AcDbCircle
 10
113.336392
 20
350.216528
 40
5.573176
100
AcDbArc
 50
320.442941
 51
331.479874
  0
LINE
  5
3C8
100
AcDbEntity
  8
M0
 62
     7
100
AcDbLine
 10
294.002613
 20
324.183491
 11
309.502613
 21
324.183491
  0
LINE
  5
3C9
100
AcDbEntity
  8
M0
 62
     7
100
AcDbLine
 10
309.502613
 20
352.551035
 11
294.002613
 21
352.551035
  0
LINE
  5
3CA
100
AcDbEntity
  8
M0
 62
     7
100
AcDbLine
 10
271.102611
 20
382.767262
 11
271.102611
 21
383.867262
  0
LINE
  5
3CB
100
AcDbEntity
  8
M0
 62
     7
100
AcDbLine
 10
235.902615
 20
333.867263
 11
233.202614
 21
333.867263
  0
LINE
  5
3CC
100
AcDbEntity
  8
M0
 62
     7
100
AcDbLine
 10
271.102611
 20
375.800596
 11
271.102611
 21
381.867262
  0
LINE
  5
3CD
100
AcDbEntity
  8
M0
 62
     7
100
AcDbLine
 10
317.302612
 20
379.117263
 11
317.002612
 21
379.117263
  0
LINE
  5
3CE
100
AcDbEntity
  8
M0
 62
     7
100
AcDbLine
 10
317.302612
 20
309.617262
 11
317.002612
 21
309.617262
  0
LINE
  5
3CF
100
AcDbEntity
  8
M0
 62
     7
100
AcDbLine
 10
312.802613
 20
353.667263
 11
312.802613
 21
356.167262
  0
LINE
  5
3D0
100
AcDbEntity
  8
M0
 62
     7
100
AcDbLine
 10
271.602612
 20
384.867264
 11
274.102613
 21
384.867264
  0
LINE
  5
3D1
100
AcDbEntity
  8
M0
 62
     7
100
AcDbLine
 10
271.102611
 20
381.867262
 11
271.102611
 21
383.867262
  0
LINE
  5
3D2
100
AcDbEntity
  8
M0
 62
     7
100
AcDbLine
 10
282.202612
 20
384.867264
 11
290.988398
 21
384.867264
  0
LINE
  5
3D3
100
AcDbEntity
  8
M0
 62
     7
100
AcDbLine
 10
271.102611
 20
383.867262
 11
271.102611
 21
384.367263
  0
LINE
  5
3D4
100
AcDbEntity
  8
M0
 62
     7
100
AcDbLine
 10
64.133261
 20
342.867272
 11
63.13326
 21
342.867272
  0
LINE
  5
3D5
100
AcDbEntity
  8
M0
 62
     7
100
AcDbLine
 10
116.633259
 20
333.867272
 11
116.633259
 21
331.167272
  0
LINE
  5
3D6
100
AcDbEntity
  8
M0
 62
     7
100
AcDbLine
 10
79.73326
 20
374.867271
 11
65.83326
 21
374.867271
  0
LINE
  5
3D7
100
AcDbEntity
  8
M0
 62
     7
100
AcDbLine
 10
63.13326
 20
336.867272
 11
63.13326
 21
333.667272
  0
LINE
  5
3D8
100
AcDbEntity
  8
M0
 62
     7
100
AcDbLine
 10
64.133261
 20
345.567272
 11
64.133261
 21
342.867272
  0
LINE
  5
3D9
100
AcDbEntity
  8
M0
 62
     7
100
AcDbLine
 10
116.633259
 20
345.567272
 11
116.633259
 21
342.867272
  0
LINE
  5
3DA
100
AcDbEntity
  8
M0
 62
     7
100
AcDbLine
 10
117.633259
 20
344.567272
 11
118.633259
 21
344.567272
  0
LINE
  5
3DB
100
AcDbEntity
  8
M0
 62
     7
100
AcDbLine
 10
63.13326
 20
344.567272
 11
62.13326
 21
344.567272
  0
LINE
  5
3DC
100
AcDbEntity
  8
M0
 62
     7
100
AcDbLine
 10
80.733259
 20
313.967272
 11
80.233259
 21
313.967272
  0
LINE
  5
3DD
100
AcDbEntity
  8
M0
 62
     7
100
AcDbLine
 10
120.383259
 20
301.117271
 11
122.883259
 21
301.117271
  0
LINE
  5
3DE
100
AcDbEntity
  8
M0
 62
     7
100
AcDbLine
 10
117.633259
 20
333.867272
 11
116.633259
 21
333.867272
  0
LINE
  5
3DF
100
AcDbEntity
  8
M0
 62
     7
100
AcDbLine
 10
82.93326
 20
313.967272
 11
82.433259
 21
313.967272
  0
LINE
  5
3E0
100
AcDbEntity
  8
M0
 62
     7
100
AcDbLine
 10
100.53326
 20
362.767272
 11
97.83326
 21
362.767272
  0
LINE
  5
3E1
100
AcDbEntity
  8
M0
 62
     7
100
AcDbLine
 10
63.13326
 20
343.067272
 11
63.13326
 21
339.867272
  0
LINE
  5
3E2
100
AcDbEntity
  8
M0
 62
     7
100
AcDbLine
 10
117.633259
 20
339.867272
 11
116.633259
 21
339.867272
  0
LINE
  5
3E3
100
AcDbEntity
  8
M0
 62
     7
100
AcDbLine
 10
64.133261
 20
345.567272
 11
63.63326
 21
345.567272
  0
LINE
  5
3E4
100
AcDbEntity
  8
M0
 62
     7
100
AcDbLine
 10
117.13326
 20
345.567272
 11
116.633259
 21
345.567272
  0
LINE
  5
3E5
100
AcDbEntity
  8
M0
 62
     7
100
AcDbLine
 10
110.33326
 20
381.667271
 11
110.83326
 21
381.667271
  0
LINE
  5
3E6
100
AcDbEntity
  8
M0
 62
     7
100
AcDbLine
 10
116.633259
 20
339.867272
 11
116.633259
 21
336.867272
  0
LINE
  5
3E7
100
AcDbEntity
  8
M0
 62
     7
100
AcDbLine
 10
117.633259
 20
336.967272
 11
117.633259
 21
333.667272
  0
LINE
  5
3E8
100
AcDbEntity
  8
M0
 62
     7
100
AcDbLine
 10
64.133261
 20
333.867272
 11
64.133261
 21
331.167272
  0
LINE
  5
3E9
100
AcDbEntity
  8
M0
 62
     7
100
AcDbLine
 10
116.633259
 20
336.867272
 11
117.633259
 21
336.867272
  0
LINE
  5
3EA
100
AcDbEntity
  8
M0
 62
     7
100
AcDbLine
 10
63.13326
 20
339.867272
 11
64.133261
 21
339.867272
  0
LINE
  5
3EB
100
AcDbEntity
  8
M0
 62
     7
100
AcDbLine
 10
117.633259
 20
343.067272
 11
117.633259
 21
339.767272
  0
LINE
  5
3EC
100
AcDbEntity
  8
M0
 62
     7
100
AcDbLine
 10
64.133261
 20
339.867272
 11
64.133261
 21
336.867272
  0
LINE
  5
3ED
100
AcDbEntity
  8
M0
 62
     7
100
AcDbLine
 10
116.633259
 20
342.867272
 11
117.633259
 21
342.867272
  0
ARC
  5
3EE
100
AcDbEntity
  8
M0
 62
     7
100
AcDbCircle
 10
268.902613
 20
335.867263
 40
0.5
100
AcDbArc
 50
180.0
 51
203.578178
  0
ARC
  5
3EF
100
AcDbEntity
  8
M0
 62
     7
100
AcDbCircle
 10
279.802613
 20
334.367263
 40
0.5
100
AcDbArc
 50
270.0
 51
306.869898
  0
LINE
  5
3F0
100
AcDbEntity
  8
M0
 62
     7
100
AcDbLine
 10
273.8913
 20
311.042907
 11
273.8913
 21
301.867263
  0
ARC
  5
3F1
100
AcDbEntity
  8
M0
 62
     7
100
AcDbCircle
 10
309.502613
 20
355.727818
 40
0.3
100
AcDbArc
 50
270.0
 51
360.0
  0
ARC
  5
3F2
100
AcDbEntity
  8
M0
 62
     7
100
AcDbCircle
 10
309.502613
 20
352.251035
 40
0.3
100
AcDbArc
 50
0.0
 51
90.0
  0
LINE
  5
3F3
100
AcDbEntity
  8
M0
 62
     7
100
AcDbLine
 10
273.902613
 20
301.867263
 11
268.781293
 21
296.745943
  0
LINE
  5
3F4
100
AcDbEntity
  8
M0
 62
     7
100
AcDbLine
 10
266.659971
 20
295.867262
 11
240.90261
 21
295.867262
  0
LINE
  5
3F5
100
AcDbEntity
  8
M0
 62
     7
100
AcDbLine
 10
280.102614
 20
342.667263
 11
279.802613
 21
342.667263
  0
LINE
  5
3F6
100
AcDbEntity
  8
M0
 62
     7
100
AcDbLine
 10
268.402613
 20
341.067263
 11
268.402613
 21
335.867263
  0
LINE
  5
3F7
100
AcDbEntity
  8
M0
 62
     7
100
AcDbLine
 10
282.102613
 20
301.867263
 11
273.902613
 21
301.867263
  0
ARC
  5
3F8
100
AcDbEntity
  8
M0
 62
     7
100
AcDbCircle
 10
309.502613
 20
324.483491
 40
0.3
100
AcDbArc
 50
270.0
 51
360.0
  0
LINE
  5
3F9
100
AcDbEntity
  8
M0
 62
     7
100
AcDbLine
 10
273.49988
 20
311.017264
 11
259.402614
 21
311.017264
  0
LINE
  5
3FA
100
AcDbEntity
  8
M0
 62
     7
100
AcDbLine
 10
273.902613
 20
371.367263
 11
282.102613
 21
371.367263
  0
ARC
  5
3FB
100
AcDbEntity
  8
M0
 62
     7
100
AcDbCircle
 10
240.002613
 20
333.667263
 40
1.0
100
AcDbArc
 50
90.0
 51
180.0
  0
ARC
  5
3FC
100
AcDbEntity
  8
M0
 62
     7
100
AcDbCircle
 10
276.402613
 20
296.867263
 40
1.0
100
AcDbArc
 50
180.0
 51
270.0
  0
ARC
  5
3FD
100
AcDbEntity
  8
M0
 62
     7
100
AcDbCircle
 10
271.602613
 20
384.367263
 40
0.5
100
AcDbArc
 50
90.0
 51
180.0
  0
LINE
  5
3FE
100
AcDbEntity
  8
M0
 62
     7
100
AcDbLine
 10
54.73326
 20
313.567271
 11
55.63326
 21
313.567271
  0
LINE
  5
3FF
100
AcDbEntity
  8
M0
 62
     7
100
AcDbLine
 10
82.433259
 20
313.967272
 11
80.733259
 21
313.967272
  0
ARC
  5
400
100
AcDbEntity
  8
M0
 62
     7
100
AcDbCircle
 10
240.002613
 20
343.067263
 40
1.0
100
AcDbArc
 50
180.0
 51
270.0
  0
ARC
  5
401
100
AcDbEntity
  8
M0
 62
     7
100
AcDbCircle
 10
271.402613
 20
335.867263
 40
0.5
100
AcDbArc
 50
336.421822
 51
360.0
  0
ARC
  5
402
100
AcDbEntity
  8
M0
 62
     7
100
AcDbCircle
 10
266.249106
 20
377.867263
 40
3.0
100
AcDbArc
 50
32.275644
 51
90.0
  0
ARC
  5
403
100
AcDbEntity
  8
M0
 62
     7
100
AcDbCircle
 10
295.402613
 20
379.453049
 40
1.0
100
AcDbArc
 50
0.0
 51
45.0
  0
ARC
  5
404
100
AcDbEntity
  8
M0
 62
     7
100
AcDbCircle
 10
309.502613
 20
321.006708
 40
0.3
100
AcDbArc
 50
0.0
 51
90.0
  0
ARC
  5
405
100
AcDbEntity
  8
M0
 62
     7
100
AcDbCircle
 10
240.902613
 20
300.867263
 40
5.0
100
AcDbArc
 50
180.0
 51
270.0
  0
ARC
  5
406
100
AcDbEntity
  8
M0
 62
     7
100
AcDbCircle
 10
290.988399
 20
383.867263
 40
1.0
100
AcDbArc
 50
45.0
 51
90.0
  0
ARC
  5
407
100
AcDbEntity
  8
M0
 62
     7
100
AcDbCircle
 10
279.802613
 20
341.367263
 40
0.5
100
AcDbArc
 50
53.130102
 51
90.0
  0
ARC
  5
408
100
AcDbEntity
  8
M0
 62
     7
100
AcDbCircle
 10
118.88326
 20
321.717271
 40
0.5
100
AcDbArc
 50
180.0
 51
270.0
  0
ARC
  5
409
100
AcDbEntity
  8
M0
 62
     7
100
AcDbCircle
 10
118.883259
 20
328.217271
 40
0.5
100
AcDbArc
 50
90.0
 51
180.0
  0
ARC
  5
40A
100
AcDbEntity
  8
M0
 62
     7
100
AcDbCircle
 10
125.383259
 20
328.217272
 40
0.5
100
AcDbArc
 50
0.0
 51
90.0
  0
ARC
  5
40B
100
AcDbEntity
  8
M0
 62
     7
100
AcDbCircle
 10
125.38326
 20
321.717272
 40
0.5
100
AcDbArc
 50
270.0
 51
360.0
  0
ARC
  5
40C
100
AcDbEntity
  8
M0
 62
     7
100
AcDbCircle
 10
125.38326
 20
321.717272
 40
0.5
100
AcDbArc
 50
270.0
 51
360.0
  0
ARC
  5
40D
100
AcDbEntity
  8
M0
 62
     7
100
AcDbCircle
 10
55.383259
 20
355.017271
 40
0.5
100
AcDbArc
 50
90.0
 51
180.0
  0
ARC
  5
40E
100
AcDbEntity
  8
M0
 62
     7
100
AcDbCircle
 10
55.383259
 20
355.017271
 40
0.5
100
AcDbArc
 50
90.0
 51
180.0
  0
ARC
  5
40F
100
AcDbEntity
  8
M0
 62
     7
100
AcDbCircle
 10
55.38326
 20
348.517271
 40
0.5
100
AcDbArc
 50
180.0
 51
270.0
  0
ARC
  5
410
100
AcDbEntity
  8
M0
 62
     7
100
AcDbCircle
 10
61.88326
 20
321.717272
 40
0.5
100
AcDbArc
 50
270.0
 51
360.0
  0
ARC
  5
411
100
AcDbEntity
  8
M0
 62
     7
100
AcDbCircle
 10
61.88326
 20
348.517272
 40
0.5
100
AcDbArc
 50
270.0
 51
360.0
  0
ARC
  5
412
100
AcDbEntity
  8
M0
 62
     7
100
AcDbCircle
 10
125.383259
 20
328.217272
 40
0.5
100
AcDbArc
 50
0.0
 51
90.0
  0
ARC
  5
413
100
AcDbEntity
  8
M0
 62
     7
100
AcDbCircle
 10
55.38326
 20
328.217272
 40
0.5
100
AcDbArc
 50
90.0
 51
180.0
  0
ARC
  5
414
100
AcDbEntity
  8
M0
 62
     7
100
AcDbCircle
 10
55.38326
 20
348.517271
 40
0.5
100
AcDbArc
 50
180.0
 51
270.0
  0
ARC
  5
415
100
AcDbEntity
  8
M0
 62
     7
100
AcDbCircle
 10
77.68326
 20
382.217272
 40
0.5
100
AcDbArc
 50
0.0
 51
90.0
  0
ARC
  5
416
100
AcDbEntity
  8
M0
 62
     7
100
AcDbCircle
 10
118.88326
 20
314.117271
 40
0.5
100
AcDbArc
 50
180.0
 51
270.0
  0
ARC
  5
417
100
AcDbEntity
  8
M0
 62
     7
100
AcDbCircle
 10
77.68326
 20
375.717272
 40
0.5
100
AcDbArc
 50
270.0
 51
360.0
  0
ARC
  5
418
100
AcDbEntity
  8
M0
 62
     7
100
AcDbCircle
 10
116.63326
 20
379.867272
 40
1.0
100
AcDbArc
 50
0.0
 51
90.0
  0
ARC
  5
419
100
AcDbEntity
  8
M0
 62
     7
100
AcDbCircle
 10
61.88326
 20
320.617272
 40
0.5
100
AcDbArc
 50
0.0
 51
90.0
  0
ARC
  5
41A
100
AcDbEntity
  8
M0
 62
     7
100
AcDbCircle
 10
55.38326
 20
320.617272
 40
0.5
100
AcDbArc
 50
90.0
 51
180.0
  0
ARC
  5
41B
100
AcDbEntity
  8
M0
 62
     7
100
AcDbCircle
 10
61.93326
 20
377.867272
 40
2.0
100
AcDbArc
 50
53.130102
 51
90.0
  0
ARC
  5
41C
100
AcDbEntity
  8
M0
 62
     7
100
AcDbCircle
 10
55.38326
 20
314.117272
 40
0.5
100
AcDbArc
 50
180.0
 51
270.0
  0
ARC
  5
41D
100
AcDbEntity
  8
M0
 62
     7
100
AcDbCircle
 10
62.48326
 20
299.367272
 40
0.5
100
AcDbArc
 50
180.0
 51
270.0
  0
ARC
  5
41E
100
AcDbEntity
  8
M0
 62
     7
100
AcDbCircle
 10
71.18326
 20
375.717272
 40
0.5
100
AcDbArc
 50
180.0
 51
270.0
  0
ARC
  5
41F
100
AcDbEntity
  8
M0
 62
     7
100
AcDbCircle
 10
125.383259
 20
320.617272
 40
0.5
100
AcDbArc
 50
0.0
 51
90.0
  0
ARC
  5
420
100
AcDbEntity
  8
M0
 62
     7
100
AcDbCircle
 10
118.83326
 20
377.867272
 40
2.0
100
AcDbArc
 50
90.0
 51
126.869898
  0
ARC
  5
421
100
AcDbEntity
  8
M0
 62
     7
100
AcDbCircle
 10
61.88326
 20
314.117272
 40
0.5
100
AcDbArc
 50
270.0
 51
360.0
  0
LINE
  5
422
100
AcDbEntity
  8
M0
 62
     7
100
AcDbLine
 10
125.38326
 20
313.617272
 11
118.88326
 21
313.617272
  0
LINE
  5
423
100
AcDbEntity
  8
M0
 62
     7
100
AcDbLine
 10
118.383261
 20
321.717271
 11
118.383261
 21
328.217271
  0
LINE
  5
424
100
AcDbEntity
  8
M0
 62
     7
100
AcDbLine
 10
118.383261
 20
314.117271
 11
118.383261
 21
320.617271
  0
LINE
  5
425
100
AcDbEntity
  8
M0
 62
     7
100
AcDbLine
 10
70.68326
 20
375.717271
 11
70.68326
 21
382.217272
  0
LINE
  5
426
100
AcDbEntity
  8
M0
 62
     7
100
AcDbLine
 10
77.68326
 20
375.217274
 11
71.18326
 21
375.217274
  0
LINE
  5
427
100
AcDbEntity
  8
M0
 62
     7
100
AcDbLine
 10
118.883259
 20
321.117272
 11
125.38326
 21
321.117272
  0
LINE
  5
428
100
AcDbEntity
  8
M0
 62
     7
100
AcDbLine
 10
118.88326
 20
328.717272
 11
125.383259
 21
328.717272
  0
LINE
  5
429
100
AcDbEntity
  8
M0
 62
     7
100
AcDbLine
 10
61.88326
 20
313.617272
 11
55.38326
 21
313.617272
  0
LINE
  5
42A
100
AcDbEntity
  8
M0
 62
     7
100
AcDbLine
 10
55.38326
 20
328.717272
 11
61.88326
 21
328.717272
  0
LINE
  5
42B
100
AcDbEntity
  8
M0
 62
     7
100
AcDbLine
 10
125.883261
 20
320.617272
 11
125.883261
 21
314.117272
  0
LINE
  5
42C
100
AcDbEntity
  8
M0
 62
     7
100
AcDbLine
 10
55.38326
 20
321.117272
 11
61.88326
 21
321.117272
  0
LINE
  5
42D
100
AcDbEntity
  8
M0
 62
     7
100
AcDbLine
 10
125.883261
 20
321.717273
 11
125.883261
 21
328.217272
  0
LINE
  5
42E
100
AcDbEntity
  8
M0
 62
     7
100
AcDbLine
 10
54.883259
 20
355.017271
 11
54.883259
 21
348.517271
  0
LINE
  5
42F
100
AcDbEntity
  8
M0
 62
     7
100
AcDbLine
 10
102.583261
 20
375.717271
 11
102.583257
 21
382.217271
  0
LINE
  5
430
100
AcDbEntity
  8
M0
 62
     7
100
AcDbLine
 10
114.93326
 20
296.867274
 11
114.93326
 21
298.86727
  0
LINE
  5
431
100
AcDbEntity
  8
M0
 62
     7
100
AcDbLine
 10
125.38326
 20
355.617272
 11
118.88326
 21
355.617272
  0
ARC
  5
432
100
AcDbEntity
  8
M0
 62
     7
100
AcDbCircle
 10
61.883259
 20
355.017272
 40
0.5
100
AcDbArc
 50
0.0
 51
90.0
  0
ARC
  5
433
100
AcDbEntity
  8
M0
 62
     7
100
AcDbCircle
 10
61.88326
 20
328.217272
 40
0.5
100
AcDbArc
 50
0.0
 51
90.0
  0
LINE
  5
434
100
AcDbEntity
  8
M0
 62
     7
100
AcDbLine
 10
71.18326
 20
382.71727
 11
77.68326
 21
382.71727
  0
LINE
  5
435
100
AcDbEntity
  8
M0
 62
     7
100
AcDbLine
 10
62.383259
 20
320.617272
 11
62.383259
 21
314.117271
  0
LINE
  5
436
100
AcDbEntity
  8
M0
 62
     7
100
AcDbLine
 10
78.18326
 20
382.217272
 11
78.18326
 21
375.717271
  0
LINE
  5
437
100
AcDbEntity
  8
M0
 62
     7
100
AcDbLine
 10
125.883261
 20
362.617273
 11
125.883261
 21
356.117272
  0
LINE
  5
438
100
AcDbEntity
  8
M0
 62
     7
100
AcDbLine
 10
118.383261
 20
356.117273
 11
118.383261
 21
362.617272
  0
LINE
  5
439
100
AcDbEntity
  8
M0
 62
     7
100
AcDbLine
 10
79.73326
 20
298.86727
 11
79.73326
 21
296.867274
  0
LINE
  5
43A
100
AcDbEntity
  8
M0
 62
     7
100
AcDbLine
 10
54.883259
 20
314.117271
 11
54.883259
 21
320.617272
  0
CIRCLE
  5
43B
100
AcDbEntity
  8
M0
 62
     7
100
AcDbCircle
 10
73.03326
 20
298.867272
 40
2.85
  0
ARC
  5
43C
100
AcDbEntity
  8
M0
 62
     7
100
AcDbCircle
 10
73.03326
 20
298.867272
 40
2.65
100
AcDbArc
 50
189.776849
 51
350.223151
  0
LINE
  5
43D
100
AcDbEntity
  8
M0
 62
     7
100
AcDbLine
 10
122.53326
 20
334.667272
 11
127.033258
 21
334.667272
  0
ARC
  5
43E
100
AcDbEntity
  8
M0
 62
     7
100
AcDbCircle
 10
55.38326
 20
356.117271
 40
0.5
100
AcDbArc
 50
180.0
 51
270.0
  0
ARC
  5
43F
100
AcDbEntity
  8
M0
 62
     7
100
AcDbCircle
 10
103.08326
 20
375.717271
 40
0.5
100
AcDbArc
 50
180.0
 51
270.0
  0
CIRCLE
  5
440
100
AcDbEntity
  8
M0
 62
     7
100
AcDbCircle
 10
73.03326
 20
298.867272
 40
2.825
  0
LINE
  5
441
100
AcDbEntity
  8
M0
 62
     7
100
AcDbLine
 10
127.033258
 20
342.067272
 11
122.53326
 21
342.067272
  0
LINE
  5
442
100
AcDbEntity
  8
M0
 62
     7
100
AcDbLine
 10
118.23326
 20
365.117272
 11
118.23326
 21
347.583787
  0
LINE
  5
443
100
AcDbEntity
  8
M0
 62
     7
100
AcDbLine
 10
58.233259
 20
342.067272
 11
58.233259
 21
334.667272
  0
LINE
  5
444
100
AcDbEntity
  8
M0
 62
     7
100
AcDbLine
 10
126.03326
 20
329.067272
 11
118.23326
 21
329.067272
  0
ARC
  5
445
100
AcDbEntity
  8
M0
 62
     7
100
AcDbCircle
 10
103.083259
 20
382.217271
 40
0.5
100
AcDbArc
 50
90.0
 51
180.0
  0
LINE
  5
446
100
AcDbEntity
  8
M0
 62
     7
100
AcDbLine
 10
62.53326
 20
347.667272
 11
54.73326
 21
347.667272
  0
LINE
  5
447
100
AcDbEntity
  8
M0
 62
     7
100
AcDbLine
 10
52.933259
 20
334.667272
 11
58.233259
 21
334.667272
  0
ARC
  5
448
100
AcDbEntity
  8
M0
 62
     7
100
AcDbCircle
 10
125.38326
 20
356.117272
 40
0.5
100
AcDbArc
 50
270.0
 51
360.0
  0
ARC
  5
449
100
AcDbEntity
  8
M0
 62
     7
100
AcDbCircle
 10
109.583259
 20
382.217272
 40
0.5
100
AcDbArc
 50
0.0
 51
90.0
  0
ARC
  5
44A
100
AcDbEntity
  8
M0
 62
     7
100
AcDbCircle
 10
71.18326
 20
382.217272
 40
0.5
100
AcDbArc
 50
90.0
 51
180.0
  0
ARC
  5
44B
100
AcDbEntity
  8
M0
 62
     7
100
AcDbCircle
 10
55.383259
 20
362.617271
 40
0.5
100
AcDbArc
 50
90.0
 51
180.0
  0
ARC
  5
44C
100
AcDbEntity
  8
M0
 62
     7
100
AcDbCircle
 10
55.38326
 20
356.117271
 40
0.5
100
AcDbArc
 50
180.0
 51
270.0
  0
ARC
  5
44D
100
AcDbEntity
  8
M0
 62
     7
100
AcDbCircle
 10
118.88326
 20
362.617272
 40
0.5
100
AcDbArc
 50
90.0
 51
180.0
  0
ARC
  5
44E
100
AcDbEntity
  8
M0
 62
     7
100
AcDbCircle
 10
109.583259
 20
382.217272
 40
0.5
100
AcDbArc
 50
0.0
 51
90.0
  0
ARC
  5
44F
100
AcDbEntity
  8
M0
 62
     7
100
AcDbCircle
 10
61.88326
 20
356.117272
 40
0.5
100
AcDbArc
 50
270.0
 51
360.0
  0
ARC
  5
450
100
AcDbEntity
  8
M0
 62
     7
100
AcDbCircle
 10
109.58326
 20
375.717272
 40
0.5
100
AcDbArc
 50
270.0
 51
360.0
  0
ARC
  5
451
100
AcDbEntity
  8
M0
 62
     7
100
AcDbCircle
 10
109.58326
 20
375.717272
 40
0.5
100
AcDbArc
 50
270.0
 51
360.0
  0
ARC
  5
452
100
AcDbEntity
  8
M0
 62
     7
100
AcDbCircle
 10
125.38326
 20
362.617272
 40
0.5
100
AcDbArc
 50
0.0
 51
90.0
  0
ARC
  5
453
100
AcDbEntity
  8
M0
 62
     7
100
AcDbCircle
 10
55.383259
 20
362.617271
 40
0.5
100
AcDbArc
 50
90.0
 51
180.0
  0
ARC
  5
454
100
AcDbEntity
  8
M0
 62
     7
100
AcDbCircle
 10
61.883259
 20
362.617272
 40
0.5
100
AcDbArc
 50
0.0
 51
90.0
  0
LINE
  5
455
100
AcDbEntity
  8
M0
 62
     7
100
AcDbLine
 10
62.383261
 20
362.617272
 11
62.383261
 21
356.117273
  0
LINE
  5
456
100
AcDbEntity
  8
M0
 62
     7
100
AcDbLine
 10
110.08326
 20
375.717271
 11
110.08326
 21
382.217272
  0
LINE
  5
457
100
AcDbEntity
  8
M0
 62
     7
100
AcDbLine
 10
109.58326
 20
375.21727
 11
103.083261
 21
375.21727
  0
LINE
  5
458
100
AcDbEntity
  8
M0
 62
     7
100
AcDbLine
 10
61.88326
 20
355.617273
 11
55.383261
 21
355.617266
  0
LINE
  5
459
100
AcDbEntity
  8
M0
 62
     7
100
AcDbLine
 10
114.93326
 20
315.467272
 11
114.93326
 21
315.667271
  0
LINE
  5
45A
100
AcDbEntity
  8
M0
 62
     7
100
AcDbLine
 10
54.883259
 20
362.617271
 11
54.883259
 21
356.117271
  0
LINE
  5
45B
100
AcDbEntity
  8
M0
 62
     7
100
AcDbLine
 10
127.033258
 20
318.267273
 11
127.13326
 21
318.267273
  0
LINE
  5
45C
100
AcDbEntity
  8
M0
 62
     7
100
AcDbLine
 10
127.13326
 20
358.467271
 11
127.033258
 21
358.467271
  0
LINE
  5
45D
100
AcDbEntity
  8
M0
 62
     7
100
AcDbLine
 10
118.88326
 20
363.117272
 11
125.38326
 21
363.117272
  0
LINE
  5
45E
100
AcDbEntity
  8
M0
 62
     7
100
AcDbLine
 10
53.733262
 20
318.267273
 11
53.63326
 21
318.267273
  0
LINE
  5
45F
100
AcDbEntity
  8
M0
 62
     7
100
AcDbLine
 10
103.083259
 20
382.717274
 11
109.583259
 21
382.717274
  0
ARC
  5
460
100
AcDbEntity
  8
M0
 62
     7
100
AcDbCircle
 10
125.38326
 20
314.117272
 40
0.5
100
AcDbArc
 50
270.0
 51
360.0
  0
LINE
  5
461
100
AcDbEntity
  8
M0
 62
     7
100
AcDbLine
 10
53.63326
 20
358.467271
 11
53.733262
 21
358.467271
  0
LINE
  5
462
100
AcDbEntity
  8
M0
 62
     7
100
AcDbLine
 10
118.23326
 20
347.667272
 11
126.03326
 21
347.667272
  0
LINE
  5
463
100
AcDbEntity
  8
M0
 62
     7
100
AcDbLine
 10
127.83326
 20
311.017273
 11
127.033258
 21
311.017273
  0
LINE
  5
464
100
AcDbEntity
  8
M0
 62
     7
100
AcDbLine
 10
62.53326
 20
329.177593
 11
62.53326
 21
311.617272
  0
LINE
  5
465
100
AcDbEntity
  8
M0
 62
     7
100
AcDbLine
 10
127.83326
 20
318.267273
 11
127.033258
 21
318.267273
  0
LINE
  5
466
100
AcDbEntity
  8
M0
 62
     7
100
AcDbLine
 10
52.933259
 20
318.267273
 11
53.733262
 21
318.267273
  0
LINE
  5
467
100
AcDbEntity
  8
M0
 62
     7
100
AcDbLine
 10
62.53326
 20
365.117272
 11
62.53326
 21
347.555519
  0
LINE
  5
468
100
AcDbEntity
  8
M0
 62
     7
100
AcDbLine
 10
127.033258
 20
365.717271
 11
127.83326
 21
365.717271
  0
LINE
  5
469
100
AcDbEntity
  8
M0
 62
     7
100
AcDbLine
 10
65.83326
 20
315.467272
 11
65.83326
 21
315.667271
  0
LINE
  5
46A
100
AcDbEntity
  8
M0
 62
     7
100
AcDbLine
 10
114.93326
 20
361.067273
 11
114.93326
 21
361.267272
  0
LINE
  5
46B
100
AcDbEntity
  8
M0
 62
     7
100
AcDbLine
 10
54.73326
 20
343.067272
 11
54.73326
 21
364.717273
  0
LINE
  5
46C
100
AcDbEntity
  8
M0
 62
     7
100
AcDbLine
 10
122.53326
 20
342.067272
 11
122.53326
 21
334.667272
  0
LINE
  5
46D
100
AcDbEntity
  8
M0
 62
     7
100
AcDbLine
 10
53.733262
 20
365.717271
 11
52.933259
 21
365.717271
  0
LINE
  5
46E
100
AcDbEntity
  8
M0
 62
     7
100
AcDbLine
 10
83.43326
 20
315.667271
 11
83.43326
 21
296.867272
  0
LINE
  5
46F
100
AcDbEntity
  8
M0
  6
DASHDOT
 62
     7
100
AcDbLine
 10
129.980664
 20
128.04811
 11
121.785855
 21
128.04811
  0
LINE
  5
470
100
AcDbEntity
  8
M0
  6
DASHDOT
 62
     7
100
AcDbLine
 10
125.883252
 20
132.145507
 11
125.883267
 21
123.950698
  0
LINE
  5
471
100
AcDbEntity
  8
M0
  6
DASHDOT
 62
     7
100
AcDbLine
 10
58.980664
 20
193.04811
 11
50.785855
 21
193.04811
  0
LINE
  5
472
100
AcDbEntity
  8
M0
  6
DASHDOT
 62
     7
100
AcDbLine
 10
54.883252
 20
197.145507
 11
54.883267
 21
188.950698
  0
CIRCLE
  5
473
100
AcDbEntity
  8
M0
 62
     7
100
AcDbCircle
 10
125.88326
 20
128.04811
 40
1.7
  0
CIRCLE
  5
474
100
AcDbEntity
  8
M0
 62
     7
100
AcDbCircle
 10
125.88326
 20
128.04811
 40
2.0
  0
CIRCLE
  5
475
100
AcDbEntity
  8
M0
 62
     7
100
AcDbCircle
 10
54.88326
 20
193.04811
 40
2.0
  0
CIRCLE
  5
476
100
AcDbEntity
  8
M0
 62
     7
100
AcDbCircle
 10
54.88326
 20
193.04811
 40
1.7
  0
HATCH
  5
477
100
AcDbEntity
  8
M0
 62
     7
100
AcDbHatch
 10
0.0
 20
0.0
210
0.0
220
0.0
230
1.0
  2
SOLID
 70
     1
 71
     0
 91
        1
 92
        1
 93
        7
 72
     1
 10
100.38326
 20
337.259186
 11
97.38326
 21
336.167275
 72
     1
 10
97.38326
 20
336.167275
 11
100.38326
 21
335.075365
 72
     1
 10
100.38326
 20
335.075365
 11
100.38326
 21
335.667275
 72
     1
 10
100.38326
 20
335.667275
 11
106.38326
 21
335.667275
 72
     1
 10
106.38326
 20
335.667275
 11
106.38326
 21
336.667275
 72
     1
 10
106.38326
 20
336.667275
 11
100.38326
 21
336.667275
 72
     1
 10
100.38326
 20
336.667275
 11
100.38326
 21
337.259186
 97
        0
 75
     0
 76
     1
 98
        1
 10
0.0
 20
0.0
  0
HATCH
  5
47A
100
AcDbEntity
  8
M0
 62
     7
100
AcDbHatch
 10
0.0
 20
0.0
210
0.0
220
0.0
230
1.0
  2
SOLID
 70
     1
 71
     0
 91
        1
 92
        1
 93
        4
 72
     1
 10
89.38306
 20
340.098073
 11
89.38306
 21
342.867273
 72
     1
 10
89.38306
 20
342.867273
 11
88.649221
 21
342.867273
 72
     1
 10
88.649221
 20
342.867273
 11
88.649221
 21
340.098073
 72
     1
 10
88.649221
 20
340.098073
 11
89.38306
 21
340.098073
 97
        0
 75
     0
 76
     1
 98
        1
 10
0.0
 20
0.0
  0
HATCH
  5
47B
100
AcDbEntity
  8
M0
 62
     7
100
AcDbHatch
 10
0.0
 20
0.0
210
0.0
220
0.0
230
1.0
  2
SOLID
 70
     1
 71
     0
 91
        1
 92
        1
 93
       20
 72
     2
 10
83.249282
 20
342.465739
 40
2.436895
 50
252.447306
 51
292.422669
 73
     1
 72
     2
 10
83.840795
 20
341.032231
 40
0.886144
 50
292.422669
 51
346.150662
 73
     1
 72
     2
 10
83.249282
 20
341.178061
 40
1.495367
 50
346.150662
 51
356.81526
 73
     1
 72
     1
 10
84.74234
 20
341.094985
 11
83.969274
 21
341.094985
 72
     2
 10
83.249282
 20
341.094985
 40
0.719992
 50
0.0
 51
25.643738
 73
     0
 72
     2
 10
83.424032
 20
341.011094
 40
0.526148
 50
25.643738
 51
72.512342
 73
     0
 72
     2
 10
83.249282
 20
341.565749
 40
1.10768
 50
72.512342
 51
111.534322
 73
     0
 72
     2
 10
83.081566
 20
341.140724
 40
0.650762
 50
111.534322
 51
163.518484
 73
     0
 72
     2
 10
84.143733
 20
341.45498
 40
1.758441
 50
163.518484
 51
199.911347
 73
     0
 72
     2
 10
83.10227
 20
341.832218
 40
0.650762
 50
199.911347
 51
251.231339
 73
     0
 72
     2
 10
83.249282
 20
341.399596
 40
1.10768
 50
251.231339
 51
287.055921
 73
     0
 72
     2
 10
83.419848
 20
341.955552
 40
0.526148
 50
287.055921
 51
341.370551
 73
     0
 72
     2
 10
83.249282
 20
341.898052
 40
0.706146
 50
341.370551
 51
357.752539
 73
     0
 72
     1
 10
83.954885
 20
341.925744
 11
84.725553
 21
341.925744
 72
     2
 10
83.249282
 20
341.80113
 40
1.481521
 50
4.824977
 51
11.570993
 73
     1
 72
     2
 10
83.818995
 20
341.917775
 40
0.89999
 50
11.570993
 51
66.454336
 73
     1
 72
     2
 10
83.249282
 20
340.610375
 40
2.326127
 50
66.454336
 51
109.456965
 73
     1
 72
     2
 10
82.88954
 20
341.628686
 40
1.246139
 50
109.456965
 51
161.721239
 73
     1
 72
     2
 10
83.415433
 20
341.45498
 40
1.799979
 50
161.721239
 51
190.751611
 73
     1
 72
     2
 10
82.898522
 20
341.356826
 40
1.273831
 50
190.751611
 51
252.447306
 73
     1
 97
        0
 75
     0
 76
     1
 98
        1
 10
0.0
 20
0.0
  0
HATCH
  5
47C
100
AcDbEntity
  8
M0
 62
     7
100
AcDbHatch
 10
0.0
 20
0.0
210
0.0
220
0.0
230
1.0
  2
SOLID
 70
     1
 71
     0
 91
        1
 92
        1
 93
        4
 72
     1
 10
175.202614
 20
355.367262
 11
173.202614
 21
355.367262
 72
     1
 10
173.202614
 20
355.367262
 11
173.202614
 21
321.367262
 72
     1
 10
173.202614
 20
321.367262
 11
175.202614
 21
321.367262
 72
     1
 10
175.202614
 20
321.367262
 11
175.202614
 21
355.367262
 97
        0
 75
     0
 76
     1
 98
        1
 10
0.0
 20
0.0
  0
HATCH
  5
47D
100
AcDbEntity
  8
M0
 62
     7
100
AcDbHatch
 10
0.0
 20
0.0
210
0.0
220
0.0
230
1.0
  2
SOLID
 70
     1
 71
     0
 91
        1
 92
        1
 93
        8
 72
     1
 10
77.766265
 20
340.098073
 11
77.766265
 21
342.396508
 72
     1
 10
77.766265
 20
342.396508
 11
78.887791
 21
342.396508
 72
     1
 10
78.887791
 20
342.396508
 11
78.887791
 21
342.867273
 72
     1
 10
78.887791
 20
342.867273
 11
75.910902
 21
342.867273
 72
     1
 10
75.910902
 20
342.867273
 11
75.910902
 21
342.396508
 72
     1
 10
75.910902
 20
342.396508
 11
77.032427
 21
342.396508
 72
     1
 10
77.032427
 20
342.396508
 11
77.032427
 21
340.098073
 72
     1
 10
77.032427
 20
340.098073
 11
77.766265
 21
340.098073
 97
        0
 75
     0
 76
     1
 98
        1
 10
0.0
 20
0.0
  0
HATCH
  5
47E
100
AcDbEntity
  8
M0
 62
     7
100
AcDbHatch
 10
0.0
 20
0.0
210
0.0
220
0.0
230
1.0
  2
SOLID
 70
     1
 71
     0
 91
        1
 92
        1
 93
       12
 72
     1
 10
72.117098
 20
340.098073
 11
72.117098
 21
341.31652
 72
     1
 10
72.117098
 20
341.31652
 11
73.59862
 21
341.31652
 72
     1
 10
73.59862
 20
341.31652
 11
73.59862
 21
340.098073
 72
     1
 10
73.59862
 20
340.098073
 11
74.332458
 21
340.098073
 72
     1
 10
74.332458
 20
340.098073
 11
74.332458
 21
342.867273
 72
     1
 10
74.332458
 20
342.867273
 11
73.59862
 21
342.867273
 72
     1
 10
73.59862
 20
342.867273
 11
73.59862
 21
341.759593
 72
     1
 10
73.59862
 20
341.759593
 11
72.117098
 21
341.759593
 72
     1
 10
72.117098
 20
341.759593
 11
72.117098
 21
342.867273
 72
     1
 10
72.117098
 20
342.867273
 11
71.38326
 21
342.867273
 72
     1
 10
71.38326
 20
342.867273
 11
71.38326
 21
340.098073
 72
     1
 10
71.38326
 20
340.098073
 11
72.117098
 21
340.098073
 97
        0
 75
     0
 76
     1
 98
        1
 10
0.0
 20
0.0
  0
LINE
  5
47F
100
AcDbEntity
  8
M0
 62
     7
100
AcDbLine
 10
80.445466
 20
342.867273
 11
81.740067
 21
340.098073
  0
LINE
  5
480
100
AcDbEntity
  8
M0
 62
     7
100
AcDbLine
 10
77.032427
 20
340.098073
 11
77.766265
 21
340.098073
  0
LINE
  5
481
100
AcDbEntity
  8
M0
 62
     7
100
AcDbLine
 10
89.38306
 20
342.867273
 11
88.649221
 21
342.867273
  0
LINE
  5
482
100
AcDbEntity
  8
M0
 62
     7
100
AcDbLine
 10
80.923153
 20
340.098073
 11
81.740067
 21
340.098073
  0
LINE
  5
483
100
AcDbEntity
  8
M0
 62
     7
100
AcDbLine
 10
79.067789
 20
340.098073
 11
79.308092
 21
340.693451
  0
LINE
  5
484
100
AcDbEntity
  8
M0
 62
     7
100
AcDbLine
 10
74.91399
 20
342.867273
 11
74.91399
 21
340.098073
  0
LINE
  5
485
100
AcDbEntity
  8
M0
 62
     7
100
AcDbLine
 10
106.38326
 20
335.667275
 11
100.38326
 21
335.667275
  0
LINE
  5
486
100
AcDbEntity
  8
M0
 62
     7
100
AcDbLine
 10
88.067689
 20
342.867273
 11
87.333851
 21
342.867273
  0
TEXT
  5
487
100
AcDbEntity
  8
M0
 62
     7
100
AcDbText
 10
93.508262
 20
330.867275
 40
2.0
  1
５６
 41
0.625
  7
STANDARD
100
AcDbText
  0
LINE
  5
488
100
AcDbEntity
  8
M0
 62
     7
100
AcDbLine
 10
87.333851
 20
341.759593
 11
85.852329
 21
341.759593
  0
TEXT
  5
489
100
AcDbEntity
  8
M0
 62
     7
100
AcDbText
 10
71.508251
 20
336.867275
 40
2.0
  1
ＬＡＴＣＨＥＤ
 41
0.625
  7
STANDARD
100
AcDbText
  0
LINE
  5
48A
100
AcDbEntity
  8
M0
 62
     7
100
AcDbLine
 10
87.333851
 20
341.759593
 11
87.333851
 21
342.867273
  0
LINE
  5
48B
100
AcDbEntity
  8
M0
 62
     7
100
AcDbLine
 10
84.74234
 20
341.094985
 11
83.969273
 21
341.094985
  0
TEXT
  5
48C
100
AcDbEntity
  8
M0
 62
     7
100
AcDbText
 10
93.508262
 20
343.867273
 40
2.0
  1
５５
 41
0.625
  7
STANDARD
100
AcDbText
  0
LINE
  5
48D
100
AcDbEntity
  8
M0
 62
     7
100
AcDbLine
 10
97.38326
 20
336.167275
 11
100.38326
 21
335.075365
  0
LINE
  5
48E
100
AcDbEntity
  8
M0
 62
     7
100
AcDbLine
 10
78.887791
 20
342.867273
 11
75.910902
 21
342.867273
  0
LINE
  5
48F
100
AcDbEntity
  8
M0
 62
     7
100
AcDbLine
 10
106.38326
 20
336.667275
 11
100.38326
 21
336.667275
  0
LINE
  5
490
100
AcDbEntity
  8
M0
 62
     7
100
AcDbLine
 10
79.545477
 20
342.867273
 11
78.250876
 21
340.098073
  0
LINE
  5
491
100
AcDbEntity
  8
M0
 62
     7
100
AcDbLine
 10
100.38326
 20
335.075365
 11
100.38326
 21
335.667275
  0
LINE
  5
492
100
AcDbEntity
  8
M0
 62
     7
100
AcDbLine
 10
77.032427
 20
342.396508
 11
77.032427
 21
340.098073
  0
LINE
  5
493
100
AcDbEntity
  8
M0
 62
     7
100
AcDbLine
 10
100.38326
 20
336.667275
 11
100.38326
 21
337.259186
  0
LINE
  5
494
100
AcDbEntity
  8
M0
 62
     7
100
AcDbLine
 10
97.38326
 20
336.167275
 11
100.38326
 21
337.259186
  0
LINE
  5
495
100
AcDbEntity
  8
M0
 62
     7
100
AcDbLine
 10
79.308092
 20
340.693451
 11
80.682851
 21
340.693451
  0
LINE
  5
496
100
AcDbEntity
  8
M0
 62
     7
100
AcDbLine
 10
80.50402
 20
341.136523
 11
79.995471
 21
342.396508
  0
LINE
  5
497
100
AcDbEntity
  8
M0
 62
     7
100
AcDbLine
 10
72.117098
 20
342.867273
 11
71.38326
 21
342.867273
  0
LINE
  5
498
100
AcDbEntity
  8
M0
 62
     7
100
AcDbLine
 10
74.332458
 20
342.867273
 11
73.59862
 21
342.867273
  0
LINE
  5
499
100
AcDbEntity
  8
M0
 62
     7
100
AcDbLine
 10
73.59862
 20
340.098073
 11
74.332458
 21
340.098073
  0
LINE
  5
49A
100
AcDbEntity
  8
M0
 62
     7
100
AcDbLine
 10
106.38326
 20
335.667275
 11
106.38326
 21
336.667275
  0
ARC
  5
49B
100
AcDbEntity
  8
M0
 62
     7
100
AcDbCircle
 10
113.846219
 20
334.067272
 40
0.5
100
AcDbArc
 50
270.0
 51
360.0
  0
ARC
  5
49C
100
AcDbEntity
  8
M0
 62
     7
100
AcDbCircle
 10
113.846219
 20
342.667272
 40
0.5
100
AcDbArc
 50
0.0
 51
90.0
  0
LINE
  5
49D
100
AcDbEntity
  8
M0
 62
     7
100
AcDbLine
 10
114.346218
 20
342.667272
 11
114.346218
 21
334.067273
  0
LINE
  5
49E
100
AcDbEntity
  8
M0
 62
     7
100
AcDbLine
 10
85.852329
 20
340.098073
 11
85.852329
 21
341.31652
  0
LINE
  5
49F
100
AcDbEntity
  8
M0
 62
     7
100
AcDbLine
 10
75.910902
 20
342.396508
 11
77.032427
 21
342.396508
  0
LINE
  5
4A0
100
AcDbEntity
  8
M0
 62
     7
100
AcDbLine
 10
109.483259
 20
343.167272
 11
113.846219
 21
343.167272
  0
LINE
  5
4A1
100
AcDbEntity
  8
M0
 62
     7
100
AcDbLine
 10
75.910902
 20
342.867273
 11
75.910902
 21
342.396508
  0
LINE
  5
4A2
100
AcDbEntity
  8
M0
 62
     7
100
AcDbLine
 10
98.78326
 20
323.167273
 11
106.58326
 21
323.167273
  0
LINE
  5
4A3
100
AcDbEntity
  8
M0
 62
     7
100
AcDbLine
 10
83.58326
 20
321.867273
 11
83.58326
 21
320.367274
  0
ARC
  5
4A4
100
AcDbEntity
  8
M0
 62
     7
100
AcDbCircle
 10
92.78326
 20
322.767272
 40
0.5
100
AcDbArc
 50
270.0
 51
360.0
  0
LINE
  5
4A5
100
AcDbEntity
  8
M0
 62
     7
100
AcDbLine
 10
75.98326
 20
321.367272
 11
75.88326
 21
321.367272
  0
LINE
  5
4A6
100
AcDbEntity
  8
M0
 62
     7
100
AcDbLine
 10
83.68326
 20
321.867273
 11
83.58326
 21
321.867273
  0
ARC
  5
4A7
100
AcDbEntity
  8
M0
 62
     7
100
AcDbCircle
 10
92.78326
 20
325.667272
 40
0.5
100
AcDbArc
 50
0.0
 51
90.0
  0
LINE
  5
4A8
100
AcDbEntity
  8
M0
 62
     7
100
AcDbLine
 10
75.98326
 20
320.367274
 11
75.98326
 21
321.367272
  0
LINE
  5
4A9
100
AcDbEntity
  8
M0
 62
     7
100
AcDbLine
 10
85.852329
 20
341.31652
 11
87.333851
 21
341.31652
  0
LINE
  5
4AA
100
AcDbEntity
  8
M0
 62
     7
100
AcDbLine
 10
85.852329
 20
342.867273
 11
85.118492
 21
342.867273
  0
LINE
  5
4AB
100
AcDbEntity
  8
M0
 62
     7
100
AcDbLine
 10
77.766265
 20
342.396508
 11
77.766265
 21
340.098073
  0
LINE
  5
4AC
100
AcDbEntity
  8
M0
 62
     7
100
AcDbLine
 10
88.649221
 20
340.098073
 11
89.38306
 21
340.098073
  0
LINE
  5
4AD
100
AcDbEntity
  8
M0
 62
     7
100
AcDbLine
 10
77.766265
 20
342.396508
 11
78.887791
 21
342.396508
  0
LINE
  5
4AE
100
AcDbEntity
  8
M0
 62
     7
100
AcDbLine
 10
71.38326
 20
340.098073
 11
72.117098
 21
340.098073
  0
LINE
  5
4AF
100
AcDbEntity
  8
M0
 62
     7
100
AcDbLine
 10
80.50402
 20
341.136523
 11
79.486923
 21
341.136523
  0
LINE
  5
4B0
100
AcDbEntity
  8
M0
 62
     7
100
AcDbLine
 10
88.067689
 20
340.098073
 11
88.067689
 21
342.867273
  0
LINE
  5
4B1
100
AcDbEntity
  8
M0
 62
     7
100
AcDbLine
 10
85.118492
 20
342.867273
 11
85.118492
 21
340.098073
  0
LINE
  5
4B2
100
AcDbEntity
  8
M0
 62
     7
100
AcDbLine
 10
75.647827
 20
342.867273
 11
75.647827
 21
340.098073
  0
LINE
  5
4B3
100
AcDbEntity
  8
M0
 62
     7
100
AcDbLine
 10
78.887791
 20
342.867273
 11
78.887791
 21
342.396508
  0
LINE
  5
4B4
100
AcDbEntity
  8
M0
 62
     7
100
AcDbLine
 10
87.333851
 20
340.098073
 11
87.333851
 21
341.31652
  0
LINE
  5
4B5
100
AcDbEntity
  8
M0
 62
     7
100
AcDbLine
 10
85.852329
 20
341.759593
 11
85.852329
 21
342.867273
  0
LINE
  5
4B6
100
AcDbEntity
  8
M0
 62
     7
100
AcDbLine
 10
80.136539
 20
325.681635
 11
78.368961
 21
323.913935
  0
LINE
  5
4B7
100
AcDbEntity
  8
M0
 62
     7
100
AcDbLine
 10
104.097086
 20
328.420966
 11
102.329508
 21
326.653388
  0
LINE
  5
4B8
100
AcDbEntity
  8
M0
 62
     7
100
AcDbLine
 10
81.373844
 20
322.67663
 11
78.192203
 21
325.858393
  0
LINE
  5
4B9
100
AcDbEntity
  8
M0
 62
     7
100
AcDbLine
 10
104.273844
 20
326.47663
 11
101.092203
 21
329.658393
  0
CIRCLE
  5
4BA
100
AcDbEntity
  8
M0
 62
     7
100
AcDbCircle
 10
102.68326
 20
348.667272
 40
3.0
  0
LINE
  5
4BB
100
AcDbEntity
  8
M0
 62
     7
100
AcDbLine
 10
81.197086
 20
324.620966
 11
79.429508
 21
322.853388
  0
LINE
  5
4BC
100
AcDbEntity
  8
M0
 62
     7
100
AcDbLine
 10
103.036539
 20
329.481635
 11
101.268961
 21
327.713935
  0
LINE
  5
4BD
100
AcDbEntity
  8
M0
 62
     7
100
AcDbLine
 10
103.036539
 20
350.081635
 11
101.268961
 21
348.313935
  0
LINE
  5
4BE
100
AcDbEntity
  8
M0
 62
     7
100
AcDbLine
 10
104.097086
 20
349.020966
 11
102.329508
 21
347.253388
  0
LINE
  5
4BF
100
AcDbEntity
  8
M0
 62
     7
100
AcDbLine
 10
69.38326
 20
341.567272
 11
69.38326
 21
338.367273
  0
LINE
  5
4C0
100
AcDbEntity
  8
M0
 62
     7
100
AcDbLine
 10
81.373844
 20
350.87663
 11
78.192203
 21
354.058393
  0
LINE
  5
4C1
100
AcDbEntity
  8
M0
 62
     7
100
AcDbLine
 10
81.197086
 20
352.820966
 11
79.429508
 21
351.053388
  0
LINE
  5
4C2
100
AcDbEntity
  8
M0
 62
     7
100
AcDbLine
 10
104.273844
 20
347.07663
 11
101.092203
 21
350.258393
  0
LINE
  5
4C3
100
AcDbEntity
  8
M0
 62
     7
100
AcDbLine
 10
80.136539
 20
353.881635
 11
78.368961
 21
352.113935
  0
ARC
  5
4C4
100
AcDbEntity
  8
M0
 62
     7
100
AcDbCircle
 10
83.249282
 20
341.898052
 40
0.706146
100
AcDbArc
 50
2.247463
 51
18.629353
  0
ARC
  5
4C5
100
AcDbEntity
  8
M0
 62
     7
100
AcDbCircle
 10
83.818995
 20
341.917775
 40
0.89999
100
AcDbArc
 50
11.57091
 51
66.454309
  0
ARC
  5
4C6
100
AcDbEntity
  8
M0
 62
     7
100
AcDbCircle
 10
83.249282
 20
341.565749
 40
1.10768
100
AcDbArc
 50
248.465704
 51
287.487613
  0
ARC
  5
4C7
100
AcDbEntity
  8
M0
 62
     7
100
AcDbCircle
 10
83.249282
 20
341.399596
 40
1.10768
100
AcDbArc
 50
72.944058
 51
108.768683
  0
ARC
  5
4C8
100
AcDbEntity
  8
M0
 62
     7
100
AcDbCircle
 10
84.143733
 20
341.45498
 40
1.758441
100
AcDbArc
 50
160.088603
 51
196.481482
  0
ARC
  5
4C9
100
AcDbEntity
  8
M0
 62
     7
100
AcDbCircle
 10
83.249282
 20
341.094985
 40
0.719992
100
AcDbArc
 50
334.356275
 51
360.0
  0
ARC
  5
4CA
100
AcDbEntity
  8
M0
 62
     7
100
AcDbCircle
 10
83.081566
 20
341.140724
 40
0.650762
100
AcDbArc
 50
196.481517
 51
248.465722
  0
CIRCLE
  5
4CB
100
AcDbEntity
  8
M0
 62
     7
100
AcDbCircle
 10
102.68326
 20
328.067272
 40
3.0
  0
ARC
  5
4CC
100
AcDbEntity
  8
M0
 62
     7
100
AcDbCircle
 10
83.419848
 20
341.955552
 40
0.526148
100
AcDbArc
 50
18.629246
 51
72.943922
  0
CIRCLE
  5
4CD
100
AcDbEntity
  8
M0
 62
     7
100
AcDbCircle
 10
79.78326
 20
352.467272
 40
3.0
  0
ARC
  5
4CE
100
AcDbEntity
  8
M0
 62
     7
100
AcDbCircle
 10
83.10227
 20
341.832218
 40
0.650762
100
AcDbArc
 50
108.768698
 51
160.088638
  0
ARC
  5
4CF
100
AcDbEntity
  8
M0
 62
     7
100
AcDbCircle
 10
83.840795
 20
341.032231
 40
0.886144
100
AcDbArc
 50
292.42259
 51
346.150643
  0
CIRCLE
  5
4D0
100
AcDbEntity
  8
M0
 62
     7
100
AcDbCircle
 10
79.78326
 20
324.267272
 40
3.0
  0
ARC
  5
4D1
100
AcDbEntity
  8
M0
 62
     7
100
AcDbCircle
 10
83.249282
 20
341.80113
 40
1.481521
100
AcDbArc
 50
4.824937
 51
11.570943
  0
LINE
  5
4D2
100
AcDbEntity
  8
M0
 62
     7
100
AcDbLine
 10
72.117098
 20
341.31652
 11
73.59862
 21
341.31652
  0
LINE
  5
4D3
100
AcDbEntity
  8
M0
 62
     7
100
AcDbLine
 10
80.923153
 20
340.098073
 11
80.682851
 21
340.693451
  0
LINE
  5
4D4
100
AcDbEntity
  8
M0
 62
     7
100
AcDbLine
 10
74.91399
 20
340.098073
 11
75.647827
 21
340.098073
  0
ARC
  5
4D5
100
AcDbEntity
  8
M0
 62
     7
100
AcDbCircle
 10
83.415433
 20
341.45498
 40
1.799979
100
AcDbArc
 50
161.72132
 51
190.751551
  0
ARC
  5
4D6
100
AcDbEntity
  8
M0
 62
     7
100
AcDbCircle
 10
82.88954
 20
341.628686
 40
1.246139
100
AcDbArc
 50
109.456972
 51
161.721309
  0
LINE
  5
4D7
100
AcDbEntity
  8
M0
 62
     7
100
AcDbLine
 10
84.725553
 20
341.925744
 11
83.954884
 21
341.925744
  0
LINE
  5
4D8
100
AcDbEntity
  8
M0
 62
     7
100
AcDbLine
 10
73.59862
 20
342.867273
 11
73.59862
 21
341.759593
  0
LINE
  5
4D9
100
AcDbEntity
  8
M0
 62
     7
100
AcDbLine
 10
80.445466
 20
342.867273
 11
79.545477
 21
342.867273
  0
LINE
  5
4DA
100
AcDbEntity
  8
M0
 62
     7
100
AcDbLine
 10
72.117098
 20
342.867273
 11
72.117098
 21
341.759593
  0
LINE
  5
4DB
100
AcDbEntity
  8
M0
 62
     7
100
AcDbLine
 10
79.486923
 20
341.136523
 11
79.995471
 21
342.396508
  0
LINE
  5
4DC
100
AcDbEntity
  8
M0
 62
     7
100
AcDbLine
 10
74.332458
 20
342.867273
 11
74.332458
 21
340.098073
  0
LINE
  5
4DD
100
AcDbEntity
  8
M0
 62
     7
100
AcDbLine
 10
78.250876
 20
340.098073
 11
79.067789
 21
340.098073
  0
LINE
  5
4DE
100
AcDbEntity
  8
M0
 62
     7
100
AcDbLine
 10
72.117098
 20
341.31652
 11
72.117098
 21
340.098073
  0
LINE
  5
4DF
100
AcDbEntity
  8
M0
 62
     7
100
AcDbLine
 10
85.118492
 20
340.098073
 11
85.852329
 21
340.098073
  0
LINE
  5
4E0
100
AcDbEntity
  8
M0
 62
     7
100
AcDbLine
 10
87.333851
 20
340.098073
 11
88.067689
 21
340.098073
  0
LINE
  5
4E1
100
AcDbEntity
  8
M0
 62
     7
100
AcDbLine
 10
73.59862
 20
341.31652
 11
73.59862
 21
340.098073
  0
TEXT
  5
4E2
100
AcDbEntity
  8
M0
 62
     7
100
AcDbText
 10
99.908252
 20
339.067271
 40
2.0
  1
ＯＦＦ
 41
0.625
  7
STANDARD
100
AcDbText
  0
LINE
  5
4E3
100
AcDbEntity
  8
M0
 62
     7
100
AcDbLine
 10
75.647827
 20
342.867273
 11
74.91399
 21
342.867273
  0
LINE
  5
4E4
100
AcDbEntity
  8
M0
 62
     7
100
AcDbLine
 10
73.59862
 20
341.759593
 11
72.117098
 21
341.759593
  0
TEXT
  5
4E5
100
AcDbEntity
  8
M0
 62
     7
100
AcDbText
 10
78.408252
 20
330.867275
 40
2.0
  1
Ｅ２
 41
0.625
  7
STANDARD
100
AcDbText
  0
LINE
  5
4E6
100
AcDbEntity
  8
M0
 62
     7
100
AcDbLine
 10
88.649221
 20
340.098073
 11
88.649221
 21
342.867273
  0
ARC
  5
4E7
100
AcDbEntity
  8
M0
 62
     7
100
AcDbCircle
 10
83.424032
 20
341.011094
 40
0.526148
100
AcDbArc
 50
287.487588
 51
334.356243
  0
ARC
  5
4E8
100
AcDbEntity
  8
M0
 62
     7
100
AcDbCircle
 10
82.898522
 20
341.356826
 40
1.273831
100
AcDbArc
 50
190.75155
 51
252.447271
  0
ARC
  5
4E9
100
AcDbEntity
  8
M0
 62
     7
100
AcDbCircle
 10
83.249282
 20
341.178061
 40
1.495367
100
AcDbArc
 50
346.150651
 51
356.815254
  0
TEXT
  5
4EA
100
AcDbEntity
  8
M0
 62
     7
100
AcDbText
 10
71.508251
 20
334.367275
 40
2.0
  1
ＣＯＮＴＡＣＴＯＲ
 41
0.625
  7
STANDARD
100
AcDbText
  0
TEXT
  5
4EB
100
AcDbEntity
  8
M0
 62
     7
100
AcDbText
 10
78.408252
 20
343.867273
 40
2.0
  1
Ｅ１
 41
0.625
  7
STANDARD
100
AcDbText
  0
ARC
  5
4EC
100
AcDbEntity
  8
M0
 62
     7
100
AcDbCircle
 10
83.249282
 20
342.465739
 40
2.436895
100
AcDbArc
 50
252.447278
 51
292.42262
  0
LINE
  5
4ED
100
AcDbEntity
  8
M0
 62
     7
100
AcDbLine
 10
109.88326
 20
355.367272
 11
109.88326
 21
345.567272
  0
LINE
  5
4EE
100
AcDbEntity
  8
M0
 62
     7
100
AcDbLine
 10
106.58326
 20
344.567272
 11
106.58326
 21
355.367272
  0
LINE
  5
4EF
100
AcDbEntity
  8
M0
 62
     7
100
AcDbLine
 10
109.88326
 20
345.567272
 11
112.38326
 21
345.567272
  0
LINE
  5
4F0
100
AcDbEntity
  8
M0
 62
     7
100
AcDbLine
 10
98.78326
 20
355.367272
 11
98.78326
 21
344.567272
  0
LINE
  5
4F1
100
AcDbEntity
  8
M0
 62
     7
100
AcDbLine
 10
75.88326
 20
348.367272
 11
83.68326
 21
348.367272
  0
LINE
  5
4F2
100
AcDbEntity
  8
M0
 62
     7
100
AcDbLine
 10
112.38326
 20
343.367272
 11
109.88326
 21
343.367272
  0
LINE
  5
4F3
100
AcDbEntity
  8
M0
 62
     7
100
AcDbLine
 10
98.78326
 20
344.567272
 11
106.58326
 21
344.567272
  0
LINE
  5
4F4
100
AcDbEntity
  8
M0
 62
     7
100
AcDbLine
 10
75.88326
 20
356.367272
 11
75.88326
 21
355.367272
  0
LINE
  5
4F5
100
AcDbEntity
  8
M0
 62
     7
100
AcDbLine
 10
83.68326
 20
355.367272
 11
83.68326
 21
356.367272
  0
LINE
  5
4F6
100
AcDbEntity
  8
M0
 62
     7
100
AcDbLine
 10
91.38326
 20
326.267273
 11
91.38326
 21
326.167271
  0
LINE
  5
4F7
100
AcDbEntity
  8
M0
 62
     7
100
AcDbLine
 10
114.38326
 20
344.567272
 11
114.38326
 21
344.367272
  0
LINE
  5
4F8
100
AcDbEntity
  8
M0
 62
     7
100
AcDbLine
 10
112.38326
 20
345.567272
 11
113.38326
 21
345.567272
  0
LINE
  5
4F9
100
AcDbEntity
  8
M0
 62
     7
100
AcDbLine
 10
93.28326
 20
326.267273
 11
93.28326
 21
326.167271
  0
LINE
  5
4FA
100
AcDbEntity
  8
M0
 62
     7
100
AcDbLine
 10
113.38326
 20
343.367272
 11
112.38326
 21
343.367272
  0
ARC
  5
4FB
100
AcDbEntity
  8
M0
 62
     7
100
AcDbCircle
 10
88.18326
 20
325.667272
 40
0.5
100
AcDbArc
 50
90.0
 51
180.0
  0
ARC
  5
4FC
100
AcDbEntity
  8
M0
 62
     7
100
AcDbCircle
 10
113.38326
 20
344.367272
 40
1.0
100
AcDbArc
 50
270.0
 51
360.0
  0
LINE
  5
4FD
100
AcDbEntity
  8
M0
 62
     7
100
AcDbLine
 10
106.43326
 20
351.917272
 11
106.43326
 21
345.417272
  0
ARC
  5
4FE
100
AcDbEntity
  8
M0
 62
     7
100
AcDbCircle
 10
108.88326
 20
355.367272
 40
1.0
100
AcDbArc
 50
0.0
 51
90.0
  0
ARC
  5
4FF
100
AcDbEntity
  8
M0
 62
     7
100
AcDbCircle
 10
109.88326
 20
342.867272
 40
0.5
100
AcDbArc
 50
90.0
 51
180.0
  0
ARC
  5
500
100
AcDbEntity
  8
M0
 62
     7
100
AcDbCircle
 10
88.18326
 20
322.767272
 40
0.5
100
AcDbArc
 50
180.0
 51
270.0
  0
ARC
  5
501
100
AcDbEntity
  8
M0
 62
     7
100
AcDbCircle
 10
113.38326
 20
344.567272
 40
1.0
100
AcDbArc
 50
0.0
 51
90.0
  0
LINE
  5
502
100
AcDbEntity
  8
M0
 62
     7
100
AcDbLine
 10
67.38326
 20
356.367272
 11
113.38326
 21
356.367272
  0
LINE
  5
503
100
AcDbEntity
  8
M0
 62
     7
100
AcDbLine
 10
67.38326
 20
341.567272
 11
66.883261
 21
341.567272
  0
LINE
  5
504
100
AcDbEntity
  8
M0
 62
     7
100
AcDbLine
 10
83.68326
 20
348.367272
 11
83.68326
 21
355.367272
  0
LINE
  5
505
100
AcDbEntity
  8
M0
 62
     7
100
AcDbLine
 10
99.43326
 20
352.417272
 11
105.93326
 21
352.417272
  0
LINE
  5
506
100
AcDbEntity
  8
M0
 62
     7
100
AcDbLine
 10
105.93326
 20
344.917272
 11
99.43326
 21
344.917272
  0
LINE
  5
507
100
AcDbEntity
  8
M0
 62
     7
100
AcDbLine
 10
75.88326
 20
355.367272
 11
75.88326
 21
348.367272
  0
LINE
  5
508
100
AcDbEntity
  8
M0
 62
     7
100
AcDbLine
 10
114.38326
 20
338.367273
 11
114.346218
 21
338.367273
  0
LINE
  5
509
100
AcDbEntity
  8
M0
 62
     7
100
AcDbLine
 10
76.53326
 20
356.217272
 11
83.03326
 21
356.217272
  0
ARC
  5
50A
100
AcDbEntity
  8
M0
 62
     7
100
AcDbCircle
 10
99.43326
 20
324.817272
 40
0.5
100
AcDbArc
 50
180.0
 51
270.0
  0
LINE
  5
50B
100
AcDbEntity
  8
M0
 62
     7
100
AcDbLine
 10
83.03326
 20
320.517272
 11
76.53326
 21
320.517272
  0
ARC
  5
50C
100
AcDbEntity
  8
M0
 62
     7
100
AcDbCircle
 10
83.03326
 20
327.517272
 40
0.5
100
AcDbArc
 50
0.0
 51
90.0
  0
ARC
  5
50D
100
AcDbEntity
  8
M0
 62
     7
100
AcDbCircle
 10
83.03326
 20
321.017272
 40
0.5
100
AcDbArc
 50
270.0
 51
360.0
  0
LINE
  5
50E
100
AcDbEntity
  8
M0
 62
     7
100
AcDbLine
 10
76.03326
 20
321.017272
 11
76.03326
 21
327.517272
  0
ARC
  5
50F
100
AcDbEntity
  8
M0
 62
     7
100
AcDbCircle
 10
99.43326
 20
331.317272
 40
0.5
100
AcDbArc
 50
90.0
 51
180.0
  0
LINE
  5
510
100
AcDbEntity
  8
M0
 62
     7
100
AcDbLine
 10
76.03326
 20
349.217272
 11
76.03326
 21
355.717272
  0
ARC
  5
511
100
AcDbEntity
  8
M0
 62
     7
100
AcDbCircle
 10
76.53326
 20
355.717272
 40
0.5
100
AcDbArc
 50
90.0
 51
180.0
  0
LINE
  5
512
100
AcDbEntity
  8
M0
 62
     7
100
AcDbLine
 10
83.53326
 20
355.717272
 11
83.53326
 21
349.217272
  0
LINE
  5
513
100
AcDbEntity
  8
M0
 62
     7
100
AcDbLine
 10
76.53326
 20
328.017273
 11
83.03326
 21
328.017273
  0
LINE
  5
514
100
AcDbEntity
  8
M0
 62
     7
100
AcDbLine
 10
83.53326
 20
327.517272
 11
83.53326
 21
321.017273
  0
LINE
  5
515
100
AcDbEntity
  8
M0
 62
     7
100
AcDbLine
 10
83.03326
 20
348.717272
 11
76.53326
 21
348.717272
  0
ARC
  5
516
100
AcDbEntity
  8
M0
 62
     7
100
AcDbCircle
 10
76.53326
 20
349.217272
 40
0.5
100
AcDbArc
 50
180.0
 51
270.0
  0
ARC
  5
517
100
AcDbEntity
  8
M0
 62
     7
100
AcDbCircle
 10
99.43326
 20
351.917272
 40
0.5
100
AcDbArc
 50
90.0
 51
180.0
  0
ARC
  5
518
100
AcDbEntity
  8
M0
 62
     7
100
AcDbCircle
 10
99.43326
 20
345.417272
 40
0.5
100
AcDbArc
 50
180.0
 51
270.0
  0
LINE
  5
519
100
AcDbEntity
  8
M0
 62
     7
100
AcDbLine
 10
105.93326
 20
324.317273
 11
99.43326
 21
324.317273
  0
ARC
  5
51A
100
AcDbEntity
  8
M0
 62
     7
100
AcDbCircle
 10
105.93326
 20
324.817272
 40
0.5
100
AcDbArc
 50
270.0
 51
360.0
  0
LINE
  5
51B
100
AcDbEntity
  8
M0
 62
     7
100
AcDbLine
 10
93.28326
 20
326.167271
 11
93.28326
 21
324.36727
  0
LINE
  5
51C
100
AcDbEntity
  8
M0
 62
     7
100
AcDbLine
 10
98.93326
 20
324.817271
 11
98.93326
 21
331.317272
  0
ARC
  5
51D
100
AcDbEntity
  8
M0
 62
     7
100
AcDbCircle
 10
105.93326
 20
331.317272
 40
0.5
100
AcDbArc
 50
0.0
 51
90.0
  0
ARC
  5
51E
100
AcDbEntity
  8
M0
 62
     7
100
AcDbCircle
 10
83.03326
 20
349.217272
 40
0.5
100
AcDbArc
 50
270.0
 51
360.0
  0
ARC
  5
51F
100
AcDbEntity
  8
M0
 62
     7
100
AcDbCircle
 10
83.03326
 20
355.717272
 40
0.5
100
AcDbArc
 50
0.0
 51
90.0
  0
ARC
  5
520
100
AcDbEntity
  8
M0
 62
     7
100
AcDbCircle
 10
76.53326
 20
327.517272
 40
0.5
100
AcDbArc
 50
90.0
 51
180.0
  0
LINE
  5
521
100
AcDbEntity
  8
M0
 62
     7
100
AcDbLine
 10
106.43326
 20
331.317272
 11
106.43326
 21
324.817271
  0
LINE
  5
522
100
AcDbEntity
  8
M0
 62
     7
100
AcDbLine
 10
99.43326
 20
331.817272
 11
105.93326
 21
331.817272
  0
ARC
  5
523
100
AcDbEntity
  8
M0
 62
     7
100
AcDbCircle
 10
76.53326
 20
321.017272
 40
0.5
100
AcDbArc
 50
180.0
 51
270.0
  0
LINE
  5
524
100
AcDbEntity
  8
M0
 62
     7
100
AcDbLine
 10
106.58326
 20
353.567272
 11
98.78326
 21
353.567272
  0
LINE
  5
525
100
AcDbEntity
  8
M0
 62
     7
100
AcDbLine
 10
93.28326
 20
322.767273
 11
93.28326
 21
323.26727
  0
LINE
  5
526
100
AcDbEntity
  8
M0
 62
     7
100
AcDbLine
 10
66.38326
 20
321.367272
 11
66.38326
 21
327.867272
  0
LINE
  5
527
100
AcDbEntity
  8
M0
 62
     7
100
AcDbLine
 10
88.18326
 20
326.167271
 11
92.78326
 21
326.167271
  0
LINE
  5
528
100
AcDbEntity
  8
M0
 62
     7
100
AcDbLine
 10
92.78326
 20
322.267272
 11
88.18326
 21
322.267272
  0
LINE
  5
529
100
AcDbEntity
  8
M0
 62
     7
100
AcDbLine
 10
93.58326
 20
326.067271
 11
93.58326
 21
324.36727
  0
LINE
  5
52A
100
AcDbEntity
  8
M0
 62
     7
100
AcDbLine
 10
93.28326
 20
325.667272
 11
93.28326
 21
323.26727
  0
LINE
  5
52B
100
AcDbEntity
  8
M0
 62
     7
100
AcDbLine
 10
66.883261
 20
335.167273
 11
67.38326
 21
335.167273
  0
LINE
  5
52C
100
AcDbEntity
  8
M0
 62
     7
100
AcDbLine
 10
114.38326
 20
355.367272
 11
114.38326
 21
321.367272
  0
LINE
  5
52D
100
AcDbEntity
  8
M0
 62
     7
100
AcDbLine
 10
67.38326
 20
335.167273
 11
67.38326
 21
341.567272
  0
LINE
  5
52E
100
AcDbEntity
  8
M0
 62
     7
100
AcDbLine
 10
93.58326
 20
321.867273
 11
87.68326
 21
321.867273
  0
LINE
  5
52F
100
AcDbEntity
  8
M0
 62
     7
100
AcDbLine
 10
69.883259
 20
320.367274
 11
67.38326
 21
320.367274
  0
LINE
  5
530
100
AcDbEntity
  8
M0
 62
     7
100
AcDbLine
 10
66.38326
 20
321.367272
 11
66.38326
 21
355.367272
  0
LINE
  5
531
100
AcDbEntity
  8
M0
 62
     7
100
AcDbLine
 10
114.346218
 20
338.367273
 11
114.38326
 21
338.367273
  0
ARC
  5
532
100
AcDbEntity
  8
M0
 62
     7
100
AcDbCircle
 10
74.88326
 20
321.367272
 40
1.0
100
AcDbArc
 50
270.0
 51
360.0
  0
ARC
  5
533
100
AcDbEntity
  8
M0
 62
     7
100
AcDbCircle
 10
67.38326
 20
321.367272
 40
1.0
100
AcDbArc
 50
180.0
 51
270.0
  0
ARC
  5
534
100
AcDbEntity
  8
M0
 62
     7
100
AcDbCircle
 10
86.68326
 20
321.367272
 40
1.0
100
AcDbArc
 50
270.0
 51
360.0
  0
ARC
  5
535
100
AcDbEntity
  8
M0
 62
     7
100
AcDbCircle
 10
113.38326
 20
321.367272
 40
1.0
100
AcDbArc
 50
270.0
 51
360.0
  0
ARC
  5
536
100
AcDbEntity
  8
M0
 62
     7
100
AcDbCircle
 10
83.249282
 20
340.610375
 40
2.326127
100
AcDbArc
 50
66.454301
 51
109.456969
  0
ARC
  5
537
100
AcDbEntity
  8
M0
 62
     7
100
AcDbCircle
 10
84.68326
 20
321.367272
 40
1.0
100
AcDbArc
 50
180.0
 51
270.0
  0
ARC
  5
538
100
AcDbEntity
  8
M0
 62
     7
100
AcDbCircle
 10
66.88326
 20
334.667272
 40
0.5
100
AcDbArc
 50
90.0
 51
180.0
  0
ARC
  5
539
100
AcDbEntity
  8
M0
 62
     7
100
AcDbCircle
 10
109.88326
 20
333.867272
 40
0.5
100
AcDbArc
 50
180.0
 51
270.0
  0
ARC
  5
53A
100
AcDbEntity
  8
M0
 62
     7
100
AcDbCircle
 10
108.88326
 20
321.367272
 40
1.0
100
AcDbArc
 50
270.0
 51
360.0
  0
ARC
  5
53B
100
AcDbEntity
  8
M0
 62
     7
100
AcDbCircle
 10
113.38326
 20
332.367272
 40
1.0
100
AcDbArc
 50
0.0
 51
90.0
  0
ARC
  5
53C
100
AcDbEntity
  8
M0
 62
     7
100
AcDbCircle
 10
97.78326
 20
321.367272
 40
1.0
100
AcDbArc
 50
270.0
 51
360.0
  0
ARC
  5
53D
100
AcDbEntity
  8
M0
 62
     7
100
AcDbCircle
 10
94.58326
 20
321.367272
 40
1.0
100
AcDbArc
 50
180.0
 51
270.0
  0
ARC
  5
53E
100
AcDbEntity
  8
M0
 62
     7
100
AcDbCircle
 10
113.38326
 20
332.167272
 40
1.0
100
AcDbArc
 50
270.0
 51
360.0
  0
ARC
  5
53F
100
AcDbEntity
  8
M0
 62
     7
100
AcDbCircle
 10
107.58326
 20
321.367272
 40
1.0
100
AcDbArc
 50
180.0
 51
270.0
  0
ARC
  5
540
100
AcDbEntity
  8
M0
 62
     7
100
AcDbCircle
 10
105.93326
 20
345.417272
 40
0.5
100
AcDbArc
 50
270.0
 51
360.0
  0
LINE
  5
541
100
AcDbEntity
  8
M0
 62
     7
100
AcDbLine
 10
113.846219
 20
333.567272
 11
109.483259
 21
333.567272
  0
ARC
  5
542
100
AcDbEntity
  8
M0
 62
     7
100
AcDbCircle
 10
113.38326
 20
355.367272
 40
1.0
100
AcDbArc
 50
0.0
 51
90.0
  0
LINE
  5
543
100
AcDbEntity
  8
M0
 62
     7
100
AcDbLine
 10
112.38326
 20
331.167272
 11
113.38326
 21
331.167272
  0
LINE
  5
544
100
AcDbEntity
  8
M0
 62
     7
100
AcDbLine
 10
114.38326
 20
332.367272
 11
114.38326
 21
332.167272
  0
ARC
  5
545
100
AcDbEntity
  8
M0
 62
     7
100
AcDbCircle
 10
105.93326
 20
351.917272
 40
0.5
100
AcDbArc
 50
0.0
 51
90.0
  0
LINE
  5
546
100
AcDbEntity
  8
M0
 62
     7
100
AcDbLine
 10
112.38326
 20
333.367272
 11
113.38326
 21
333.367272
  0
ARC
  5
547
100
AcDbEntity
  8
M0
 62
     7
100
AcDbCircle
 10
97.78326
 20
355.367272
 40
1.0
100
AcDbArc
 50
0.0
 51
90.0
  0
ARC
  5
548
100
AcDbEntity
  8
M0
 62
     7
100
AcDbCircle
 10
84.68326
 20
355.367272
 40
1.0
100
AcDbArc
 50
90.0
 51
180.0
  0
LINE
  5
549
100
AcDbEntity
  8
M0
 62
     7
100
AcDbLine
 10
98.93326
 20
345.417272
 11
98.93326
 21
351.917272
  0
ARC
  5
54A
100
AcDbEntity
  8
M0
 62
     7
100
AcDbCircle
 10
67.38326
 20
355.367272
 40
1.0
100
AcDbArc
 50
90.0
 51
180.0
  0
ARC
  5
54B
100
AcDbEntity
  8
M0
 62
     7
100
AcDbCircle
 10
66.88326
 20
342.067272
 40
0.5
100
AcDbArc
 50
180.0
 51
270.0
  0
ARC
  5
54C
100
AcDbEntity
  8
M0
 62
     7
100
AcDbCircle
 10
107.58326
 20
355.367272
 40
1.0
100
AcDbArc
 50
90.0
 51
180.0
  0
ARC
  5
54D
100
AcDbEntity
  8
M0
 62
     7
100
AcDbCircle
 10
74.88326
 20
355.367272
 40
1.0
100
AcDbArc
 50
0.0
 51
90.0
  0
LINE
  5
54E
100
AcDbEntity
  8
M0
 62
     7
100
AcDbLine
 10
87.68326
 20
326.267273
 11
87.68326
 21
321.367272
  0
LINE
  5
54F
100
AcDbEntity
  8
M0
 62
     7
100
AcDbLine
 10
83.68326
 20
321.367272
 11
83.68326
 21
328.367271
  0
LINE
  5
550
100
AcDbEntity
  8
M0
 62
     7
100
AcDbLine
 10
93.58326
 20
321.367272
 11
93.58326
 21
326.267273
  0
LINE
  5
551
100
AcDbEntity
  8
M0
 62
     7
100
AcDbLine
 10
75.88326
 20
328.367271
 11
75.88326
 21
321.367272
  0
LINE
  5
552
100
AcDbEntity
  8
M0
 62
     7
100
AcDbLine
 10
113.38326
 20
320.367274
 11
67.38326
 21
320.367274
  0
LINE
  5
553
100
AcDbEntity
  8
M0
 62
     7
100
AcDbLine
 10
93.58326
 20
326.267273
 11
87.68326
 21
326.267273
  0
LINE
  5
554
100
AcDbEntity
  8
M0
 62
     7
100
AcDbLine
 10
83.68326
 20
328.367271
 11
75.88326
 21
328.367271
  0
LINE
  5
555
100
AcDbEntity
  8
M0
 62
     7
100
AcDbLine
 10
109.88326
 20
331.167272
 11
109.88326
 21
321.367272
  0
LINE
  5
556
100
AcDbEntity
  8
M0
 62
     7
100
AcDbLine
 10
109.383259
 20
342.867272
 11
109.383259
 21
333.867271
  0
LINE
  5
557
100
AcDbEntity
  8
M0
 62
     7
100
AcDbLine
 10
112.38326
 20
331.167272
 11
109.88326
 21
331.167272
  0
LINE
  5
558
100
AcDbEntity
  8
M0
 62
     7
100
AcDbLine
 10
106.58326
 20
332.167272
 11
98.78326
 21
332.167272
  0
LINE
  5
559
100
AcDbEntity
  8
M0
 62
     7
100
AcDbLine
 10
98.78326
 20
332.167272
 11
98.78326
 21
321.367272
  0
LINE
  5
55A
100
AcDbEntity
  8
M0
 62
     7
100
AcDbLine
 10
109.88326
 20
333.367272
 11
112.38326
 21
333.367272
  0
LINE
  5
55B
100
AcDbEntity
  8
M0
 62
     7
100
AcDbLine
 10
106.58326
 20
321.367272
 11
106.58326
 21
332.167272
  0
LINE
  5
55C
100
AcDbEntity
  8
M0
 62
     7
100
AcDbLine
 10
69.88326
 20
346.867273
 11
96.88326
 21
346.867273
  0
LINE
  5
55D
100
AcDbEntity
  8
M0
 62
     7
100
AcDbLine
 10
69.38326
 20
346.367273
 11
69.38326
 21
330.367273
  0
LINE
  5
55E
100
AcDbEntity
  8
M0
 62
     7
100
AcDbLine
 10
69.88326
 20
329.867273
 11
96.88326
 21
329.867273
  0
LINE
  5
55F
100
AcDbEntity
  8
M0
 62
     7
100
AcDbLine
 10
107.38326
 20
334.367273
 11
107.38326
 21
342.367273
  0
LINE
  5
560
100
AcDbEntity
  8
M0
 62
     7
100
AcDbLine
 10
106.88326
 20
333.867273
 11
97.88326
 21
333.867273
  0
LINE
  5
561
100
AcDbEntity
  8
M0
 62
     7
100
AcDbLine
 10
106.88326
 20
342.867273
 11
97.88326
 21
342.867273
  0
LINE
  5
562
100
AcDbEntity
  8
M0
 62
     7
100
AcDbLine
 10
97.38326
 20
330.367273
 11
97.38326
 21
333.367273
  0
LINE
  5
563
100
AcDbEntity
  8
M0
 62
     7
100
AcDbLine
 10
97.38326
 20
343.367273
 11
97.38326
 21
346.367273
  0
ARC
  5
564
100
AcDbEntity
  8
M0
 62
     7
100
AcDbCircle
 10
69.88326
 20
346.367273
 40
0.5
100
AcDbArc
 50
90.0
 51
180.0
  0
ARC
  5
565
100
AcDbEntity
  8
M0
 62
     7
100
AcDbCircle
 10
96.88326
 20
346.367273
 40
0.5
100
AcDbArc
 50
0.0
 51
90.0
  0
ARC
  5
566
100
AcDbEntity
  8
M0
 62
     7
100
AcDbCircle
 10
97.88326
 20
343.367273
 40
0.5
100
AcDbArc
 50
180.0
 51
270.0
  0
ARC
  5
567
100
AcDbEntity
  8
M0
 62
     7
100
AcDbCircle
 10
106.88326
 20
342.367273
 40
0.5
100
AcDbArc
 50
0.0
 51
90.0
  0
ARC
  5
568
100
AcDbEntity
  8
M0
 62
     7
100
AcDbCircle
 10
106.88326
 20
334.367273
 40
0.5
100
AcDbArc
 50
270.0
 51
360.0
  0
ARC
  5
569
100
AcDbEntity
  8
M0
 62
     7
100
AcDbCircle
 10
97.88326
 20
333.367273
 40
0.5
100
AcDbArc
 50
90.0
 51
180.0
  0
ARC
  5
56A
100
AcDbEntity
  8
M0
 62
     7
100
AcDbCircle
 10
96.88326
 20
330.367273
 40
0.5
100
AcDbArc
 50
270.0
 51
360.0
  0
ARC
  5
56B
100
AcDbEntity
  8
M0
 62
     7
100
AcDbCircle
 10
69.88326
 20
330.367273
 40
0.5
100
AcDbArc
 50
180.0
 51
270.0
  0
HATCH
  5
56C
100
AcDbEntity
  8
M0
 62
     7
100
AcDbHatch
 10
0.0
 20
0.0
210
0.0
220
0.0
230
1.0
  2
SOLID
 70
     1
 71
     0
 91
        1
 92
        1
 93
       12
 72
     1
 10
85.852329
 20
340.098073
 11
85.852329
 21
341.31652
 72
     1
 10
85.852329
 20
341.31652
 11
87.333851
 21
341.31652
 72
     1
 10
87.333851
 20
341.31652
 11
87.333851
 21
340.098073
 72
     1
 10
87.333851
 20
340.098073
 11
88.067689
 21
340.098073
 72
     1
 10
88.067689
 20
340.098073
 11
88.067689
 21
342.867273
 72
     1
 10
88.067689
 20
342.867273
 11
87.333851
 21
342.867273
 72
     1
 10
87.333851
 20
342.867273
 11
87.333851
 21
341.759593
 72
     1
 10
87.333851
 20
341.759593
 11
85.852329
 21
341.759593
 72
     1
 10
85.852329
 20
341.759593
 11
85.852329
 21
342.867273
 72
     1
 10
85.852329
 20
342.867273
 11
85.118492
 21
342.867273
 72
     1
 10
85.118492
 20
342.867273
 11
85.118492
 21
340.098073
 72
     1
 10
85.118492
 20
340.098073
 11
85.852329
 21
340.098073
 97
        0
 75
     0
 76
     1
 98
        1
 10
0.0
 20
0.0
  0
HATCH
  5
56D
100
AcDbEntity
  8
M0
 62
     7
100
AcDbHatch
 10
0.0
 20
0.0
210
0.0
220
0.0
230
1.0
  2
SOLID
 70
     1
 71
     0
 91
        1
 92
        1
 93
        4
 72
     1
 10
75.647827
 20
340.098073
 11
75.647827
 21
342.867273
 72
     1
 10
75.647827
 20
342.867273
 11
74.91399
 21
342.867273
 72
     1
 10
74.91399
 20
342.867273
 11
74.91399
 21
340.098073
 72
     1
 10
74.91399
 20
340.098073
 11
75.647827
 21
340.098073
 97
        0
 75
     0
 76
     1
 98
        1
 10
0.0
 20
0.0
  0
HATCH
  5
56E
100
AcDbEntity
  8
M0
 62
     7
100
AcDbHatch
 10
0.0
 20
0.0
210
0.0
220
0.0
230
1.0
  2
SOLID
 70
     1
 71
     0
 91
        2
 92
        1
 93
        8
 72
     1
 10
79.308092
 20
340.693451
 11
80.682851
 21
340.693451
 72
     1
 10
80.682851
 20
340.693451
 11
80.923153
 21
340.098073
 72
     1
 10
80.923153
 20
340.098073
 11
81.740067
 21
340.098073
 72
     1
 10
81.740067
 20
340.098073
 11
80.445466
 21
342.867273
 72
     1
 10
80.445466
 20
342.867273
 11
79.545477
 21
342.867273
 72
     1
 10
79.545477
 20
342.867273
 11
78.250876
 21
340.098073
 72
     1
 10
78.250876
 20
340.098073
 11
79.067789
 21
340.098073
 72
     1
 10
79.067789
 20
340.098073
 11
79.308092
 21
340.693451
 97
        0
 92
       16
 93
        3
 72
     1
 10
79.995471
 20
342.396508
 11
79.486923
 21
341.136523
 72
     1
 10
79.486923
 20
341.136523
 11
80.50402
 21
341.136523
 72
     1
 10
80.50402
 20
341.136523
 11
79.995471
 21
342.396508
 97
        0
 75
     0
 76
     1
 98
        1
 10
0.0
 20
0.0
  0
LINE
  5
56F
100
AcDbEntity
  8
M0
  6
DASHED
 62
     7
100
AcDbLine
 10
186.302614
 20
353.892262
 11
186.302614
 21
351.042262
  0
LINE
  5
570
100
AcDbEntity
  8
M0
  6
DASHED
 62
     7
100
AcDbLine
 10
186.302614
 20
329.492264
 11
186.302614
 21
326.642264
  0
LINE
  5
571
100
AcDbEntity
  8
M0
  6
DIVIDE
 62
     7
100
AcDbLine
 10
320.302612
 20
351.867271
 11
313.802612
 21
351.867271
  0
LINE
  5
572
100
AcDbEntity
  8
M0
  6
DIVIDE
 62
     7
100
AcDbLine
 10
320.302612
 20
324.867271
 11
313.802612
 21
324.867271
  0
LINE
  5
573
100
AcDbEntity
  8
M0
  6
DIVIDE
 62
     7
100
AcDbLine
 10
319.302612
 20
350.867271
 11
312.802612
 21
350.867271
  0
LINE
  5
574
100
AcDbEntity
  8
M0
  6
DIVIDE
 62
     7
100
AcDbLine
 10
313.802612
 20
324.867271
 11
313.802612
 21
320.867271
  0
LINE
  5
575
100
AcDbEntity
  8
M0
  6
DIVIDE
 62
     7
100
AcDbLine
 10
319.302612
 20
325.867271
 11
312.802612
 21
325.867271
  0
LINE
  5
576
100
AcDbEntity
  8
M0
  6
DIVIDE
 62
     7
100
AcDbLine
 10
312.802612
 20
325.867271
 11
312.802612
 21
320.867271
  0
LINE
  5
577
100
AcDbEntity
  8
M0
  6
DIVIDE
 62
     7
100
AcDbLine
 10
313.802612
 20
355.867271
 11
312.802612
 21
355.867271
  0
LINE
  5
578
100
AcDbEntity
  8
M0
  6
DIVIDE
 62
     7
100
AcDbLine
 10
320.302612
 20
324.867271
 11
320.302612
 21
351.867271
  0
LINE
  5
579
100
AcDbEntity
  8
M0
  6
DIVIDE
 62
     7
100
AcDbLine
 10
312.802612
 20
355.867271
 11
312.802612
 21
350.867271
  0
LINE
  5
57A
100
AcDbEntity
  8
M0
  6
DIVIDE
 62
     7
100
AcDbLine
 10
313.802612
 20
355.867271
 11
313.802612
 21
351.867271
  0
LINE
  5
57B
100
AcDbEntity
  8
M0
  6
DIVIDE
 62
     7
100
AcDbLine
 10
312.802612
 20
320.867271
 11
313.802612
 21
320.867271
  0
LINE
  5
57C
100
AcDbEntity
  8
M0
  6
DIVIDE
 62
     7
100
AcDbLine
 10
319.302612
 20
350.867271
 11
319.302612
 21
325.867271
  0
LINE
  5
57D
100
AcDbEntity
  8
M0
  6
DIVIDE
 62
     7
100
AcDbLine
 10
67.93326
 20
203.04811
 11
51.43326
 21
203.04811
  0
LINE
  5
57E
100
AcDbEntity
  8
M0
  6
DIVIDE
 62
     7
100
AcDbLine
 10
51.43326
 20
203.04811
 11
51.43326
 21
118.04811
  0
LINE
  5
57F
100
AcDbEntity
  8
M0
  6
DIVIDE
 62
     7
100
AcDbLine
 10
67.93326
 20
203.04811
 11
67.93326
 21
207.048112
  0
LINE
  5
580
100
AcDbEntity
  8
M0
  6
DIVIDE
 62
     7
100
AcDbLine
 10
112.83326
 20
203.04811
 11
112.83326
 21
207.048112
  0
LINE
  5
581
100
AcDbEntity
  8
M0
  6
DIVIDE
 62
     7
100
AcDbLine
 10
112.83326
 20
203.04811
 11
129.33326
 21
203.04811
  0
LINE
  5
582
100
AcDbEntity
  8
M0
  6
DIVIDE
 62
     7
100
AcDbLine
 10
67.93326
 20
207.048112
 11
112.83326
 21
207.048112
  0
LINE
  5
583
100
AcDbEntity
  8
M0
  6
DIVIDE
 62
     7
100
AcDbLine
 10
129.33326
 20
118.04811
 11
129.33326
 21
203.04811
  0
LINE
  5
584
100
AcDbEntity
  8
M0
  6
DIVIDE
 62
     7
100
AcDbLine
 10
129.33326
 20
118.04811
 11
51.43326
 21
118.048111
  0
LINE
  5
585
100
AcDbEntity
  8
M1
 62
     2
100
AcDbLine
 10
16.666666
 20
16.666666
 11
16.666666
 21
474.999981
  0
LINE
  5
586
100
AcDbEntity
  8
M1
 62
     2
100
AcDbLine
 10
16.666666
 20
474.999981
 11
333.33332
 21
474.999981
  0
LINE
  5
587
100
AcDbEntity
  8
M1
 62
     2
100
AcDbLine
 10
333.33332
 20
474.999981
 11
333.33332
 21
16.666666
  0
LINE
  5
588
100
AcDbEntity
  8
M1
 62
     2
100
AcDbLine
 10
333.33332
 20
16.666666
 11
16.666666
 21
16.666666
  0
LINE
  5
589
100
AcDbEntity
  8
M1
 62
     2
100
AcDbLine
 10
333.33332
 20
33.333332
 11
166.66666
 21
33.333332
  0
LINE
  5
58A
100
AcDbEntity
  8
M1
 62
     2
100
AcDbLine
 10
333.33332
 20
49.999998
 11
166.66666
 21
49.999998
  0
LINE
  5
58B
100
AcDbEntity
  8
M1
 62
     2
100
AcDbLine
 10
333.33332
 20
66.666664
 11
166.66666
 21
66.666664
  0
LINE
  5
58C
100
AcDbEntity
  8
M1
 62
     2
100
AcDbLine
 10
166.66666
 20
16.666666
 11
166.66666
 21
66.666664
  0
TEXT
  5
58D
100
AcDbEntity
  8
M1
 62
     2
100
AcDbText
 10
170.833327
 20
20.833333
 40
8.333333
  1
適　用；
 41
1.0
  7
STANDARD
100
AcDbText
  0
TEXT
  5
58E
100
AcDbEntity
  8
M1
 62
     2
100
AcDbText
 10
170.833327
 20
54.166665
 40
8.333333
  1
登録名：
 41
1.0
  7
STANDARD
100
AcDbText
  0
TEXT
  5
58F
100
AcDbEntity
  8
M1
 62
     2
100
AcDbText
 10
210.833325
 20
54.166665
 40
8.333333
  1
ＤＭＨＳ３５ＬＲ００
 41
0.5
  7
STANDARD
100
AcDbText
  0
TEXT
  5
590
100
AcDbEntity
  8
M1
 62
     2
100
AcDbText
 10
170.833327
 20
37.499999
 40
8.333333
  1
形　式；
 41
1.0
  7
STANDARD
100
AcDbText
  0
TEXT
  5
591
100
AcDbEntity
  8
M1
 62
     2
100
AcDbText
 10
210.833325
 20
37.499999
 40
8.333333
  1
ＨＳ３５－Ｌ
 41
0.5
  7
STANDARD
100
AcDbText
  0
LINE
  5
592
100
AcDbEntity
  8
DN0
100
AcDbLine
 10
78.27615
 20
101.10579
 11
105.32615
 21
101.10579
  0
TEXT
  5
593
100
AcDbEntity
  8
DN0
100
AcDbText
 10
79.023373
 20
101.772457
 40
6.666666
  1
せん孔図
 41
0.833333
  7
STANDARD
100
AcDbText
  0
ENDSEC
  0
SECTION
  2
OBJECTS
  0
DICTIONARY
  5
C
100
AcDbDictionary
  3
ACAD_GROUP
350
D
  3
ACAD_MLINESTYLE
350
E
  3
ACDBVARIABLEDICTIONARY
350
478
  0
DICTIONARY
  5
D
102
{ACAD_REACTORS
330
C
102
}
100
AcDbDictionary
  0
DICTIONARY
  5
E
102
{ACAD_REACTORS
330
C
102
}
100
AcDbDictionary
  3
STANDARD
350
13
  0
DICTIONARY
  5
478
102
{ACAD_REACTORS
330
C
102
}
100
AcDbDictionary
  3
SORTENTS
350
479
  0
MLINESTYLE
  5
13
102
{ACAD_REACTORS
330
E
102
}
100
AcDbMlineStyle
  2
STANDARD
 70
     0
  3

 62
     0
 51
90.0
 52
90.0
 71
     2
 49
0.5
 62
   256
  6
BYLAYER
 49
-0.5
 62
   256
  6
BYLAYER
  0
DICTIONARYVAR
  5
479
102
{ACAD_REACTORS
330
478
102
}
100
DictionaryVariables
280
     0
  1
96
  0
ENDSEC
  0
EOF
