  0
SECTION
  2
HEADER
  9
$ACADVER
  1
AC1014
  9
$INSBASE
 10
0.000000
 20
0.000000
 30
0.0
  9
$VIEWCTR
 10
7.531722
 20
4.5
  9
$VIEWSIZE
 40
9.0
  9
$SNAPMODE
 70
     0
  9
$SNAPUNIT
 10
1.0
 20
1.0
  9
$SNAPBASE
 10
0.0
 20
0.0
  9
$SNAPANG
 50
0.0
  9
$SNAPSTYLE
 70
     0
  9
$SNAPISOPAIR
 70
     0
  9
$GRIDMODE
 70
     0
  9
$GRIDUNIT
 10
0.0
 20
0.0
  9
$ORTHOMODE
 70
     0
  9
$REGENMODE
 70
     1
  9
$FILLMODE
 70
     1
  9
$QTEXTMODE
 70
     0
  9
$DRAGMODE
 70
     2
  9
$LTSCALE
  40
     1.000000
  9
$OSMODE
 70
     0
  9
$ATTMODE
 70
     1
  9
$TEXTSIZE
 40
0.2
  9
$TRACEWID
 40
0.05
  9
$TEXTSTYLE
  7
STANDARD
  9
$CELTYPE
  6
BYLAYER
  9
$CECOLOR
 62
   256
  9
$DIMSCALE
 40
1.0
  9
$DIMASZ
 40
0.18
  9
$DIMEXO
 40
0.0625
  9
$DIMDLI
 40
0.38
  9
$DIMRND
 40
0.0
  9
$DIMDLE
 40
0.0
  9
$DIMEXE
 40
0.18
  9
$DIMTP
 40
0.0
  9
$DIMTM
 40
0.0
  9
$DIMTXT
 40
0.18
  9
$DIMCEN
 40
0.09
  9
$DIMTSZ
 40
0.0
  9
$DIMTOL
 70
     0
  9
$DIMLIM
 70
     0
  9
$DIMTIH
 70
     1
  9
$DIMTOH
 70
     1
  9
$DIMSE1
 70
     0
  9
$DIMSE2
 70
     0
  9
$DIMTAD
 70
     0
  9
$DIMZIN
 70
     0
  9
$DIMBLK
  1

  9
$LUNITS
 70
     2
  9
$LUPREC
 70
     4
  9
$AXISMODE
 70
     0
  9
$AXISUNIT
 10
0.0
 20
0.0
  9
$SKETCHINC
 40
0.1
  9
$FILLETRAD
 40
0.0
  9
$AUNITS
 70
     0
  9
$AUPREC
 70
     0
  9
$MENU
  1
ACAD
  9
$ELEVATION
 40
0.0
  9
$THICKNESS
 40
0.0
  9
$VIEWDIR
 10
0.0
 20
0.0
 30
1.0
  9
$LIMCHECK
 70
     0
  9
$BLIPMODE
 70
     1
  9
$CHAMFERA
 40
0.0
  9
$CHAMFERB
 40
0.0
  9
$FASTZOOM
 70
     1
  9
$SKPOLY
 70
     0
  9
$TDCREATE
 40
0000000.0000000000
  9
$TDUPDATE
 40
0000000.0000000000
  9
$TDINDWG
 40
0.0000000000
  9
$TDUSRTIMER
 40
0.0000000000
  9
$USRTIMER
 70
     1
  9
$ANGBASE
 50
0.0
  9
$ANGDIR
 70
     0
  9
$PDMODE
 70
     0
  9
$PDSIZE
 40
0.0
  9
$PLINEWID
 40
0.0
  9
$COORDS
 70
     0
  9
$USERI1
 70
     0
  9
$USERI2
 70
     0
  9
$USERI3
 70
     0
  9
$USERI4
 70
     0
  9
$USERI5
 70
     0
  9
$USERR1
 40
0.0
  9
$USERR2
 40
0.0
  9
$USERR3
 40
0.0
  9
$USERR4
 40
0.0
  9
$USERR5
 40
0.0
  9
$CLAYER
  8
M0
  9
$EXTMIN
 10
19.604359
 20
21.112386
  9
$EXTMAX
 10
399.604359
 20
571.112386
  9
$LIMMIN
 10
0.0
 20
0.0
  9
$LIMMAX
 10
210.0
 20
297.0
  9
$HANDSEED
  5
846
  0
ENDSEC
  0
SECTION
  2
CLASSES
  0
CLASS
  1
DICTIONARYVAR
  2
AcDbDictionaryVar
  3
"AutoCAD"
 90
        0
280
     0
281
     0
  0
CLASS
  1
HATCH
  2
AcDbHatch
  3
"ACAD_SEDONA"
 90
        0
280
     0
281
     1
  0
ENDSEC
  0
SECTION
  2
TABLES
  0
TABLE
  2
VPORT
  5
8
100
AcDbSymbolTable
 70
     2
  0
VPORT
  5
14
100
AcDbSymbolTableRecord
100
AcDbViewportTableRecord
  2
*ACTIVE
 70
     0
 10
0.0
 20
0.0
 11
1.0
 21
1.0
 12
484.0
 22
297.0
 13
0.0
 23
0.0
 14
1.0
 24
1.0
 15
0.0
 25
0.0
 16
0.0
 26
0.0
 36
1.0
 17
0.0
 27
0.0
 37
0.0
 40
594.0
 41
2.0
 42
50.0
 43
0.0
 44
0.0
 50
0.0
 51
0.0
 71
     0
 72
   100
 73
     1
 74
     1
 75
     0
 76
     0
 77
     0
 78
     0
  0
ENDTAB
  0
TABLE
  2
LTYPE
  5
5
100
AcDbSymbolTable
 70
     5
  0
LTYPE
  5
15
100
AcDbSymbolTableRecord
100
AcDbLinetypeTableRecord
  2
BYBLOCK
 70
     0
  3

 72
    65
 73
     0
 40
0.0
  0
LTYPE
  5
16
100
AcDbSymbolTableRecord
100
AcDbLinetypeTableRecord
  2
BYLAYER
 70
     0
  3

 72
    65
 73
     0
 40
0.0
  0
LTYPE
  5
17
100
AcDbSymbolTableRecord
100
AcDbLinetypeTableRecord
  2
CONTINUOUS
 70
    64
  3
Solid line
 72
    65
 73
     0
 40
0.0
  0
LTYPE
  5
18
100
AcDbSymbolTableRecord
100
AcDbLinetypeTableRecord
  2
DASHED
 70
    64
  3
__ __ __ __ __ __ __ __ __ __ __ __ __ __ __ __
 72
    65
 73
     2
 40
0.75
 49
0.5
 74
     0
 49
-0.25
 74
     0
  0
LTYPE
  5
19
100
AcDbSymbolTableRecord
100
AcDbLinetypeTableRecord
  2
DASHDOT
 70
    64
  3
__ . __ . __ . __ . __ . __ . __ . __ . __ . __
 72
    65
 73
     4
 40
1.0
 49
0.5
 74
     0
 49
-0.25
 74
     0
 49
0.0
 74
     0
 49
-0.25
 74
     0
  0
LTYPE
  5
1A
100
AcDbSymbolTableRecord
100
AcDbLinetypeTableRecord
  2
DIVIDE
 70
    64
  3
____ . . ____ . . ____ . . ____ . . ____ . . __
 72
    65
 73
     6
 40
1.25
 49
0.5
 74
     0
 49
-0.25
 74
     0
 49
0.0
 74
     0
 49
-0.25
 74
     0
 49
0.0
 74
     0
 49
-0.25
 74
     0
  0
LTYPE
  5
1B
100
AcDbSymbolTableRecord
100
AcDbLinetypeTableRecord
  2
DOT
 70
    64
  3
. . . . . . . . . . . . . . . . . . . . . . . .
 72
    65
 73
     2
 40
0.25
 49
0.0
 74
     0
 49
-0.25
 74
     0
  0
ENDTAB
  0
TABLE
  2
LAYER
  5
2
100
AcDbSymbolTable
 70
   102
  0
LAYER
  5
F
100
AcDbSymbolTableRecord
100
AcDbLayerTableRecord
  2
0
 70
     0
 62
     7
  6
CONTINUOUS
  0
LAYER
  5
1C
100
AcDbSymbolTableRecord
100
AcDbLayerTableRecord
  2
DEFPOINTS
 70
     0
 62
     7
  6
CONTINUOUS
  0
LAYER
  5
1D
100
AcDbSymbolTableRecord
100
AcDbLayerTableRecord
  2
M0
 70
     0
 62
     3
  6
CONTINUOUS
  0
LAYER
  5
1E
100
AcDbSymbolTableRecord
100
AcDbLayerTableRecord
  2
M3
 70
     0
 62
     3
  6
CONTINUOUS
  0
LAYER
  5
1F
100
AcDbSymbolTableRecord
100
AcDbLayerTableRecord
  2
DD0
 70
     0
 62
     4
  6
CONTINUOUS
  0
LAYER
  5
20
100
AcDbSymbolTableRecord
100
AcDbLayerTableRecord
  2
DN0
 70
     0
 62
     2
  6
CONTINUOUS
  0
ENDTAB
  0
TABLE
  2
STYLE
  5
3
100
AcDbSymbolTable
 70
     2
  0
STYLE
  5
10
100
AcDbSymbolTableRecord
100
AcDbTextStyleTableRecord
  2
STANDARD
 70
     0
 40
0.0
 41
1.0
 50
0.0
 71
     0
 42
0.2
  3
txt
  4
BIGFONT
  0
ENDTAB
  0
TABLE
  2
VIEW
  5
6
100
AcDbSymbolTable
 70
     0
  0
ENDTAB
  0
TABLE
  2
UCS
  5
7
100
AcDbSymbolTable
 70
     0
  0
ENDTAB
  0
TABLE
  2
APPID
  5
9
100
AcDbSymbolTable
 70
     1
  0
APPID
  5
11
100
AcDbSymbolTableRecord
100
AcDbRegAppTableRecord
  2
ACAD
 70
     0
  0
ENDTAB
  0
TABLE
  2
DIMSTYLE
  5
A
100
AcDbSymbolTable
 70
     2
  0
DIMSTYLE
105
27
100
AcDbSymbolTableRecord
100
AcDbDimStyleTableRecord
  2
STANDARD
 70
     0
  3

  4

  5

  6
_OPEN
  7
_OPEN
 40
1.0
 41
6.0
 42
1.0
 43
8.0
 44
1.0
 45
0.0
 46
0.0
 47
0.0
 48
0.0
140
6.3
141
0.09
142
0.0
143
0.03937
144
1.0
145
0.0
146
1.0
147
0.6
 71
     0
 72
     0
 73
     1
 74
     1
 75
     0
 76
     0
 77
     3
 78
     8
170
     0
171
     2
172
     0
173
     1
174
     0
175
     0
176
     0
177
     0
178
     0
270
     2
271
     2
272
     4
273
     2
274
     2
340
10
275
     0
280
     0
281
     0
282
     0
283
     1
284
     0
285
     0
286
     0
287
     3
288
     0
  0
DIMSTYLE
105
28
100
AcDbSymbolTableRecord
100
AcDbDimStyleTableRecord
  2
LEADSTYL
 70
     0
  3

  4

  5

  6
_OPEN
  7
_OPEN
 40
1.0
 41
6.0
 42
0.0625
 43
0.38
 44
0.18
 45
0.0
 46
0.0
 47
0.0
 48
0.0
140
6.3
141
0.09
142
0.0
143
25.4
144
1.0
145
0.0
146
1.0
147
0.6
 71
     0
 72
     0
 73
     1
 74
     1
 75
     0
 76
     0
 77
     0
 78
     0
170
     0
171
     2
172
     0
173
     1
174
     0
175
     0
176
     0
177
     0
178
     0
270
     2
271
     4
272
     4
273
     2
274
     2
340
10
275
     0
280
     0
281
     0
282
     0
283
     1
284
     0
285
     0
286
     0
287
     3
288
     0
  0
ENDTAB
  0
TABLE
  2
BLOCK_RECORD
  5
1
100
AcDbSymbolTable
 70
    22
  0
BLOCK_RECORD
  5
21
100
AcDbSymbolTableRecord
100
AcDbBlockTableRecord
  2
*MODEL_SPACE
  0
BLOCK_RECORD
  5
24
100
AcDbSymbolTableRecord
100
AcDbBlockTableRecord
  2
*PAPER_SPACE
  0
BLOCK_RECORD
  5
29
100
AcDbSymbolTableRecord
100
AcDbBlockTableRecord
  2
_NONE
  0
BLOCK_RECORD
  5
2D
100
AcDbSymbolTableRecord
100
AcDbBlockTableRecord
  2
_OPEN
  0
BLOCK_RECORD
  5
33
100
AcDbSymbolTableRecord
100
AcDbBlockTableRecord
  2
_CLOSED
  0
BLOCK_RECORD
  5
3A
100
AcDbSymbolTableRecord
100
AcDbBlockTableRecord
  2
_ORIGIN
  0
BLOCK_RECORD
  5
3F
100
AcDbSymbolTableRecord
100
AcDbBlockTableRecord
  2
_DOT
  0
BLOCK_RECORD
  5
47
100
AcDbSymbolTableRecord
100
AcDbBlockTableRecord
  2
_OBLIQUE
  0
BLOCK_RECORD
  5
4B
100
AcDbSymbolTableRecord
100
AcDbBlockTableRecord
  2
DIMS0
  0
BLOCK_RECORD
  5
57
100
AcDbSymbolTableRecord
100
AcDbBlockTableRecord
  2
DIMS1
  0
BLOCK_RECORD
  5
63
100
AcDbSymbolTableRecord
100
AcDbBlockTableRecord
  2
DIMS2
  0
BLOCK_RECORD
  5
6F
100
AcDbSymbolTableRecord
100
AcDbBlockTableRecord
  2
DIMS3
  0
BLOCK_RECORD
  5
7B
100
AcDbSymbolTableRecord
100
AcDbBlockTableRecord
  2
DIMS4
  0
BLOCK_RECORD
  5
88
100
AcDbSymbolTableRecord
100
AcDbBlockTableRecord
  2
DIMS5
  0
BLOCK_RECORD
  5
94
100
AcDbSymbolTableRecord
100
AcDbBlockTableRecord
  2
DIMS6
  0
BLOCK_RECORD
  5
9F
100
AcDbSymbolTableRecord
100
AcDbBlockTableRecord
  2
DIMS7
  0
BLOCK_RECORD
  5
AB
100
AcDbSymbolTableRecord
100
AcDbBlockTableRecord
  2
DIMS8
  0
BLOCK_RECORD
  5
B6
100
AcDbSymbolTableRecord
100
AcDbBlockTableRecord
  2
DIMS9
  0
BLOCK_RECORD
  5
BF
100
AcDbSymbolTableRecord
100
AcDbBlockTableRecord
  2
DIMS10
  0
BLOCK_RECORD
  5
CB
100
AcDbSymbolTableRecord
100
AcDbBlockTableRecord
  2
DIMS11
  0
BLOCK_RECORD
  5
D7
100
AcDbSymbolTableRecord
100
AcDbBlockTableRecord
  2
DIMS12
  0
BLOCK_RECORD
  5
E3
100
AcDbSymbolTableRecord
100
AcDbBlockTableRecord
  2
DIMS13
  0
BLOCK_RECORD
  5
EF
100
AcDbSymbolTableRecord
100
AcDbBlockTableRecord
  2
DIMS14
  0
BLOCK_RECORD
  5
FB
100
AcDbSymbolTableRecord
100
AcDbBlockTableRecord
  2
DIMS15
  0
ENDTAB
  0
ENDSEC
  0
SECTION
  2
BLOCKS
  0
BLOCK
  5
22
100
AcDbEntity
  8
0
100
AcDbBlockBegin
  2
*MODEL_SPACE
 70
     0
 10
0.0
 20
0.0
 30
0.0
  3
*MODEL_SPACE
  1

  0
ENDBLK
  5
23
100
AcDbEntity
  8
0
100
AcDbBlockEnd
  0
BLOCK
  5
25
100
AcDbEntity
 67
     1
  8
0
100
AcDbBlockBegin
  2
*PAPER_SPACE
 70
     0
 10
0.0
 20
0.0
 30
0.0
  3
*PAPER_SPACE
  1

  0
ENDBLK
  5
26
100
AcDbEntity
 67
     1
  8
0
100
AcDbBlockEnd
  0
BLOCK
  5
2A
100
AcDbEntity
  8
0
100
AcDbBlockBegin
  2
_NONE
 70
     0
 10
0.0
 20
0.0
  0
CIRCLE
  5
2B
100
AcDbEntity
  8
0
 62
     0
100
AcDbCircle
 10
0.0
 20
0.0
 40
0.25
  0
ENDBLK
  5
2C
100
AcDbEntity
  8
0
100
AcDbBlockEnd
  0
BLOCK
  5
2E
100
AcDbEntity
  8
0
100
AcDbBlockBegin
  2
_OPEN
 70
     0
 10
0.0
 20
0.0
  0
LINE
  5
2F
100
AcDbEntity
  8
0
 62
     0
100
AcDbLine
 10
-0.965926
 20
0.258819
 11
0.0
 21
0.0
  0
LINE
  5
30
100
AcDbEntity
  8
0
 62
     0
100
AcDbLine
 10
0.0
 20
0.0
 11
-0.965926
 21
-0.258819
  0
LINE
  5
31
100
AcDbEntity
  8
0
 62
     0
100
AcDbLine
 10
0.0
 20
0.0
 11
-1.0
 21
0.0
  0
ENDBLK
  5
32
100
AcDbEntity
  8
0
100
AcDbBlockEnd
  0
BLOCK
  5
34
100
AcDbEntity
  8
0
100
AcDbBlockBegin
  2
_CLOSED
 70
     0
 10
0.0
 20
0.0
  0
LINE
  5
35
100
AcDbEntity
  8
0
 62
     0
100
AcDbLine
 10
-0.965926
 20
0.258819
 11
0.0
 21
0.0
  0
LINE
  5
36
100
AcDbEntity
  8
0
 62
     0
100
AcDbLine
 10
0.0
 20
0.0
 11
-0.965926
 21
-0.258819
  0
LINE
  5
37
100
AcDbEntity
  8
0
 62
     0
100
AcDbLine
 10
-0.965926
 20
0.258819
 11
-0.965926
 21
-0.258819
  0
LINE
  5
38
100
AcDbEntity
  8
0
 62
     0
100
AcDbLine
 10
0.0
 20
0.0
 11
-1.0
 21
0.0
  0
ENDBLK
  5
39
100
AcDbEntity
  8
0
100
AcDbBlockEnd
  0
BLOCK
  5
3B
100
AcDbEntity
  8
0
100
AcDbBlockBegin
  2
_ORIGIN
 70
     0
 10
0.0
 20
0.0
  0
CIRCLE
  5
3C
100
AcDbEntity
  8
0
 62
     0
100
AcDbCircle
 10
0.0
 20
0.0
 40
0.5
  0
LINE
  5
3D
100
AcDbEntity
  8
0
 62
     0
100
AcDbLine
 10
0.0
 20
0.0
 11
-1.0
 21
0.0
  0
ENDBLK
  5
3E
100
AcDbEntity
  8
0
100
AcDbBlockEnd
  0
BLOCK
  5
40
100
AcDbEntity
  8
0
100
AcDbBlockBegin
  2
_DOT
 70
     0
 10
0.0
 20
0.0
  0
POLYLINE
  5
41
100
AcDbEntity
  8
0
 62
     0
100
AcDb2dPolyline
 66
     1
 70
     1
 40
0.5
 41
0.5
  0
VERTEX
  5
42
100
AcDbEntity
  8
0
 62
     0
100
AcDbVertex
100
AcDb2dVertex
 10
-0.25
 20
0.0
 42
1.0
  0
VERTEX
  5
43
100
AcDbEntity
  8
0
 62
     0
100
AcDbVertex
100
AcDb2dVertex
 10
0.25
 20
0.0
 42
1.0
  0
SEQEND
  5
44
100
AcDbEntity
  8
0
 62
     0
  0
LINE
  5
45
100
AcDbEntity
  8
0
 62
     0
100
AcDbLine
 10
-0.5
 20
0.0
 11
-1.0
 21
0.0
  0
ENDBLK
  5
46
100
AcDbEntity
  8
0
100
AcDbBlockEnd
  0
BLOCK
  5
48
100
AcDbEntity
  8
0
100
AcDbBlockBegin
  2
_OBLIQUE
 70
     0
 10
0.0
 20
0.0
  0
LINE
  5
49
100
AcDbEntity
  8
0
 62
     0
100
AcDbLine
 10
-0.353553
 20
-0.353553
 11
0.353553
 21
0.353553
  0
ENDBLK
  5
4A
100
AcDbEntity
  8
0
100
AcDbBlockEnd
  0
BLOCK
  5
4C
100
AcDbEntity
  8
DD0
100
AcDbBlockBegin
  2
DIMS0
 70
     0
 10
0.0
 20
0.0
  0
LINE
  5
4D
100
AcDbEntity
  8
DD0
100
AcDbLine
 10
95.736328
 20
466.340668
 11
95.736328
 21
478.768982
  0
LINE
  5
4E
100
AcDbEntity
  8
DD0
100
AcDbLine
 10
182.636322
 20
466.340668
 11
182.636322
 21
478.768982
  0
LINE
  5
4F
100
AcDbEntity
  8
DD0
100
AcDbLine
 10
101.531883
 20
478.321896
 11
95.736328
 21
476.768982
  0
LINE
  5
50
100
AcDbEntity
  8
DD0
100
AcDbLine
 10
95.736328
 20
476.768982
 11
101.531883
 21
475.216068
  0
LINE
  5
51
100
AcDbEntity
  8
DD0
100
AcDbLine
 10
176.840767
 20
475.216068
 11
182.636322
 21
476.768982
  0
LINE
  5
52
100
AcDbEntity
  8
DD0
100
AcDbLine
 10
182.636322
 20
476.768982
 11
176.840767
 21
478.321896
  0
LINE
  5
53
100
AcDbEntity
  8
DD0
100
AcDbLine
 10
95.736328
 20
476.768982
 11
182.636322
 21
476.768982
  0
TEXT
  5
54
100
AcDbEntity
  8
DD0
100
AcDbText
 10
131.529661
 20
477.968994
 40
5.0
  1
８６．９
 41
0.666667
  7
STANDARD
100
AcDbText
  0
ENDBLK
  5
55
100
AcDbEntity
  8
DD0
100
AcDbBlockEnd
  0
BLOCK
  5
58
100
AcDbEntity
  8
DD0
100
AcDbBlockBegin
  2
DIMS1
 70
     0
 10
0.0
 20
0.0
  0
LINE
  5
59
100
AcDbEntity
  8
DD0
100
AcDbLine
 10
95.736328
 20
363.340668
 11
95.736328
 21
353.350525
  0
LINE
  5
5A
100
AcDbEntity
  8
DD0
100
AcDbLine
 10
78.136322
 20
380.840668
 11
78.136322
 21
353.350525
  0
LINE
  5
5B
100
AcDbEntity
  8
DD0
100
AcDbLine
 10
89.940773
 20
353.797611
 11
95.736328
 21
355.350525
  0
LINE
  5
5C
100
AcDbEntity
  8
DD0
100
AcDbLine
 10
95.736328
 20
355.350525
 11
89.940773
 21
356.903439
  0
LINE
  5
5D
100
AcDbEntity
  8
DD0
100
AcDbLine
 10
83.931877
 20
356.903439
 11
78.136322
 21
355.350525
  0
LINE
  5
5E
100
AcDbEntity
  8
DD0
100
AcDbLine
 10
78.136322
 20
355.350525
 11
83.931877
 21
353.797611
  0
LINE
  5
5F
100
AcDbEntity
  8
DD0
100
AcDbLine
 10
95.736328
 20
355.350525
 11
78.136322
 21
355.350525
  0
TEXT
  5
60
100
AcDbEntity
  8
DD0
100
AcDbText
 10
79.279661
 20
356.550537
 40
5.0
  1
１７．５
 41
0.666667
  7
STANDARD
100
AcDbText
  0
ENDBLK
  5
61
100
AcDbEntity
  8
DD0
100
AcDbBlockEnd
  0
BLOCK
  5
64
100
AcDbEntity
  8
DD0
100
AcDbBlockBegin
  2
DIMS2
 70
     0
 10
0.0
 20
0.0
  0
LINE
  5
65
100
AcDbEntity
  8
DD0
100
AcDbLine
 10
206.086319
 20
459.340668
 11
251.222824
 21
459.340668
  0
LINE
  5
66
100
AcDbEntity
  8
DD0
100
AcDbLine
 10
220.586319
 20
370.340668
 11
251.222824
 21
370.340668
  0
LINE
  5
67
100
AcDbEntity
  8
DD0
100
AcDbLine
 10
250.775738
 20
453.545113
 11
249.222824
 21
459.340668
  0
LINE
  5
68
100
AcDbEntity
  8
DD0
100
AcDbLine
 10
249.222824
 20
459.340668
 11
247.66991
 21
453.545113
  0
LINE
  5
69
100
AcDbEntity
  8
DD0
100
AcDbLine
 10
247.66991
 20
376.136223
 11
249.222824
 21
370.340668
  0
LINE
  5
6A
100
AcDbEntity
  8
DD0
100
AcDbLine
 10
249.222824
 20
370.340668
 11
250.775738
 21
376.136223
  0
LINE
  5
6B
100
AcDbEntity
  8
DD0
100
AcDbLine
 10
249.222824
 20
459.340668
 11
249.222824
 21
370.340668
  0
TEXT
  5
6C
100
AcDbEntity
  8
DD0
100
AcDbText
 10
248.022827
 20
411.183989
 40
5.0
  1
８９
 50
90.000003
 41
0.666667
  7
STANDARD
100
AcDbText
  0
ENDBLK
  5
6D
100
AcDbEntity
  8
DD0
100
AcDbBlockEnd
  0
BLOCK
  5
70
100
AcDbEntity
  8
DD0
100
AcDbBlockBegin
  2
DIMS3
 70
     0
 10
0.0
 20
0.0
  0
LINE
  5
71
100
AcDbEntity
  8
DD0
100
AcDbLine
 10
56.786324
 20
453.340668
 11
56.786324
 21
492.607727
  0
LINE
  5
72
100
AcDbEntity
  8
DD0
100
AcDbLine
 10
221.586319
 20
386.040649
 11
221.586319
 21
492.607727
  0
LINE
  5
73
100
AcDbEntity
  8
DD0
100
AcDbLine
 10
62.581878
 20
492.160641
 11
56.786324
 21
490.607727
  0
LINE
  5
74
100
AcDbEntity
  8
DD0
100
AcDbLine
 10
56.786324
 20
490.607727
 11
62.581878
 21
489.054813
  0
LINE
  5
75
100
AcDbEntity
  8
DD0
100
AcDbLine
 10
215.790764
 20
489.054813
 11
221.586319
 21
490.607727
  0
LINE
  5
76
100
AcDbEntity
  8
DD0
100
AcDbLine
 10
221.586319
 20
490.607727
 11
215.790764
 21
492.160641
  0
LINE
  5
77
100
AcDbEntity
  8
DD0
100
AcDbLine
 10
56.786324
 20
490.607727
 11
221.586319
 21
490.607727
  0
TEXT
  5
78
100
AcDbEntity
  8
DD0
100
AcDbText
 10
129.529661
 20
491.807739
 40
5.0
  1
１６４．８
 41
0.666667
  7
STANDARD
100
AcDbText
  0
ENDBLK
  5
79
100
AcDbEntity
  8
DD0
100
AcDbBlockEnd
  0
BLOCK
  5
7C
100
AcDbEntity
  8
DD0
100
AcDbBlockBegin
  2
DIMS4
 70
     0
 10
0.0
 20
0.0
  0
LINE
  5
7D
100
AcDbEntity
  8
DD0
100
AcDbLine
 10
44.786327
 20
444.540649
 11
44.786327
 21
510.458588
  0
LINE
  5
7E
100
AcDbEntity
  8
DD0
100
AcDbLine
 10
233.586319
 20
444.540649
 11
233.586319
 21
510.458588
  0
LINE
  5
7F
100
AcDbEntity
  8
DD0
100
AcDbLine
 10
50.581882
 20
510.011502
 11
44.786327
 21
508.458588
  0
LINE
  5
80
100
AcDbEntity
  8
DD0
100
AcDbLine
 10
44.786327
 20
508.458588
 11
50.581882
 21
506.905673
  0
LINE
  5
81
100
AcDbEntity
  8
DD0
100
AcDbLine
 10
227.790764
 20
506.905673
 11
233.586319
 21
508.458588
  0
LINE
  5
82
100
AcDbEntity
  8
DD0
100
AcDbLine
 10
233.586319
 20
508.458588
 11
227.790764
 21
510.011502
  0
LINE
  5
83
100
AcDbEntity
  8
DD0
100
AcDbLine
 10
44.786327
 20
508.458588
 11
233.586319
 21
508.458588
  0
TEXT
  5
84
100
AcDbEntity
  8
DD0
100
AcDbText
 10
133.529661
 20
509.6586
 40
5.0
  1
１８９
 41
0.666667
  7
STANDARD
100
AcDbText
  0
TEXT
  5
85
100
AcDbEntity
  8
DD0
100
AcDbText
 10
97.529661
 20
501.858612
 40
5.0
  1
（補助接点サイドオンユニットを付けた場合）
 41
0.666667
  7
STANDARD
100
AcDbText
  0
ENDBLK
  5
86
100
AcDbEntity
  8
DD0
100
AcDbBlockEnd
  0
BLOCK
  5
89
100
AcDbEntity
  8
DD0
100
AcDbBlockBegin
  2
DIMS5
 70
     0
 10
0.0
 20
0.0
  0
LINE
  5
8A
100
AcDbEntity
  8
DD0
100
AcDbLine
 10
374.503387
 20
455.590668
 11
374.503387
 21
500.483429
  0
LINE
  5
8B
100
AcDbEntity
  8
DD0
100
AcDbLine
 10
254.803391
 20
417.140656
 11
254.803391
 21
500.483429
  0
LINE
  5
8C
100
AcDbEntity
  8
DD0
100
AcDbLine
 10
368.707833
 20
496.930515
 11
374.503387
 21
498.483429
  0
LINE
  5
8D
100
AcDbEntity
  8
DD0
100
AcDbLine
 10
374.503387
 20
498.483429
 11
368.707833
 21
500.036343
  0
LINE
  5
8E
100
AcDbEntity
  8
DD0
100
AcDbLine
 10
260.598945
 20
500.036343
 11
254.803391
 21
498.483429
  0
LINE
  5
8F
100
AcDbEntity
  8
DD0
100
AcDbLine
 10
254.803391
 20
498.483429
 11
260.598945
 21
496.930515
  0
LINE
  5
90
100
AcDbEntity
  8
DD0
100
AcDbLine
 10
374.503387
 20
498.483429
 11
254.803391
 21
498.483429
  0
TEXT
  5
91
100
AcDbEntity
  8
DD0
100
AcDbText
 10
266.996703
 20
499.683441
 40
5.0
  1
１２０（補助接点サイドオンユニットを付けた場合）
 41
0.666667
  7
STANDARD
100
AcDbText
  0
ENDBLK
  5
92
100
AcDbEntity
  8
DD0
100
AcDbBlockEnd
  0
BLOCK
  5
95
100
AcDbEntity
  8
DD0
100
AcDbBlockBegin
  2
DIMS6
 70
     0
 10
0.0
 20
0.0
  0
LINE
  5
96
100
AcDbEntity
  8
DD0
100
AcDbLine
 10
363.503387
 20
455.340668
 11
363.503387
 21
469.315491
  0
LINE
  5
97
100
AcDbEntity
  8
DD0
100
AcDbLine
 10
380.298942
 20
468.868405
 11
374.503387
 21
467.315491
  0
LINE
  5
98
100
AcDbEntity
  8
DD0
100
AcDbLine
 10
374.503387
 20
467.315491
 11
380.298942
 21
465.762576
  0
LINE
  5
99
100
AcDbEntity
  8
DD0
100
AcDbLine
 10
357.707833
 20
465.762576
 11
363.503387
 21
467.315491
  0
LINE
  5
9A
100
AcDbEntity
  8
DD0
100
AcDbLine
 10
363.503387
 20
467.315491
 11
357.707833
 21
468.868405
  0
LINE
  5
9B
100
AcDbEntity
  8
DD0
100
AcDbLine
 10
381.103387
 20
467.315491
 11
356.903388
 21
467.315491
  0
TEXT
  5
9C
100
AcDbEntity
  8
DD0
100
AcDbText
 10
365.072722
 20
468.515503
 40
5.0
  1
１１
 41
0.666667
  7
STANDARD
100
AcDbText
  0
ENDBLK
  5
9D
100
AcDbEntity
  8
DD0
100
AcDbBlockEnd
  0
BLOCK
  5
A0
100
AcDbEntity
  8
DD0
100
AcDbBlockBegin
  2
DIMS7
 70
     0
 10
0.0
 20
0.0
  0
LINE
  5
A1
100
AcDbEntity
  8
DD0
100
AcDbLine
 10
286.103394
 20
425.340668
 11
286.103394
 21
474.668976
  0
LINE
  5
A2
100
AcDbEntity
  8
DD0
100
AcDbLine
 10
281.103394
 20
463.260803
 11
281.103394
 21
474.668976
  0
LINE
  5
A3
100
AcDbEntity
  8
DD0
100
AcDbLine
 10
291.898949
 20
474.22189
 11
286.103394
 21
472.668976
  0
LINE
  5
A4
100
AcDbEntity
  8
DD0
100
AcDbLine
 10
286.103394
 20
472.668976
 11
291.898949
 21
471.116062
  0
LINE
  5
A5
100
AcDbEntity
  8
DD0
100
AcDbLine
 10
275.307839
 20
471.116062
 11
281.103394
 21
472.668976
  0
LINE
  5
A6
100
AcDbEntity
  8
DD0
100
AcDbLine
 10
281.103394
 20
472.668976
 11
275.307839
 21
474.22189
  0
LINE
  5
A7
100
AcDbEntity
  8
DD0
100
AcDbLine
 10
292.703393
 20
472.668976
 11
268.503393
 21
472.668976
  0
TEXT
  5
A8
100
AcDbEntity
  8
DD0
100
AcDbText
 10
270.266722
 20
473.868988
 40
5.0
  1
５
 41
0.666667
  7
STANDARD
100
AcDbText
  0
ENDBLK
  5
A9
100
AcDbEntity
  8
DD0
100
AcDbBlockEnd
  0
BLOCK
  5
AC
100
AcDbEntity
  8
DD0
100
AcDbBlockBegin
  2
DIMS8
 70
     0
 10
0.0
 20
0.0
  0
LINE
  5
AD
100
AcDbEntity
  8
DD0
100
AcDbLine
 10
286.103394
 20
425.340668
 11
286.103394
 21
493.110352
  0
LINE
  5
AE
100
AcDbEntity
  8
DD0
100
AcDbLine
 10
368.707833
 20
489.557437
 11
374.503387
 21
491.110352
  0
LINE
  5
AF
100
AcDbEntity
  8
DD0
100
AcDbLine
 10
374.503387
 20
491.110352
 11
368.707833
 21
492.663266
  0
LINE
  5
B0
100
AcDbEntity
  8
DD0
100
AcDbLine
 10
291.898949
 20
492.663266
 11
286.103394
 21
491.110352
  0
LINE
  5
B1
100
AcDbEntity
  8
DD0
100
AcDbLine
 10
286.103394
 20
491.110352
 11
291.898949
 21
489.557437
  0
LINE
  5
B2
100
AcDbEntity
  8
DD0
100
AcDbLine
 10
374.503387
 20
491.110352
 11
286.103394
 21
491.110352
  0
TEXT
  5
B3
100
AcDbEntity
  8
DD0
100
AcDbText
 10
322.646727
 20
492.310364
 40
5.0
  1
８８．５
 41
0.666667
  7
STANDARD
100
AcDbText
  0
ENDBLK
  5
B4
100
AcDbEntity
  8
DD0
100
AcDbBlockEnd
  0
BLOCK
  5
B7
100
AcDbEntity
  8
DD0
100
AcDbBlockBegin
  2
DIMS9
 70
     0
 10
0.0
 20
0.0
  0
TEXT
  5
B8
100
AcDbEntity
  8
DD0
100
AcDbText
 10
232.510252
 20
183.16835
 40
5.0
  1
４－Ｍ４ねじ穴
 41
0.666667
  7
STANDARD
100
AcDbText
  0
LINE
  5
B9
100
AcDbEntity
  8
DD0
100
AcDbLine
 10
222.170687
 20
193.433617
 11
218.397842
 21
198.098984
  0
LINE
  5
BA
100
AcDbEntity
  8
DD0
100
AcDbLine
 10
218.397842
 20
198.098984
 11
219.332538
 21
192.172236
  0
LINE
  5
BB
100
AcDbEntity
  8
DD0
100
AcDbLine
 10
218.397842
 20
198.098984
 11
225.56691
 21
181.968353
  0
LINE
  5
BC
100
AcDbEntity
  8
DD0
100
AcDbLine
 10
225.56691
 20
181.968353
 11
266.766907
 21
181.968353
  0
ENDBLK
  5
BD
100
AcDbEntity
  8
DD0
100
AcDbBlockEnd
  0
BLOCK
  5
C0
100
AcDbEntity
  8
DD0
100
AcDbBlockBegin
  2
DIMS10
 70
     0
 10
0.0
 20
0.0
  0
LINE
  5
C1
100
AcDbEntity
  8
DD0
100
AcDbLine
 10
207.086319
 20
279.081818
 11
242.539215
 21
279.081818
  0
LINE
  5
C2
100
AcDbEntity
  8
DD0
100
AcDbLine
 10
66.333733
 20
265.081818
 11
242.539215
 21
265.081818
  0
LINE
  5
C3
100
AcDbEntity
  8
DD0
100
AcDbLine
 10
238.986301
 20
284.877373
 11
240.539215
 21
279.081818
  0
LINE
  5
C4
100
AcDbEntity
  8
DD0
100
AcDbLine
 10
240.539215
 20
279.081818
 11
242.092129
 21
284.877373
  0
LINE
  5
C5
100
AcDbEntity
  8
DD0
100
AcDbLine
 10
242.092129
 20
259.286263
 11
240.539215
 21
265.081818
  0
LINE
  5
C6
100
AcDbEntity
  8
DD0
100
AcDbLine
 10
240.539215
 20
265.081818
 11
238.986301
 21
259.286263
  0
LINE
  5
C7
100
AcDbEntity
  8
DD0
100
AcDbLine
 10
240.539215
 20
295.681818
 11
240.539215
 21
258.481818
  0
TEXT
  5
C8
100
AcDbEntity
  8
DD0
100
AcDbText
 10
239.339218
 20
286.025145
 40
5.0
  1
１４
 50
90.000003
 41
0.666667
  7
STANDARD
100
AcDbText
  0
ENDBLK
  5
C9
100
AcDbEntity
  8
DD0
100
AcDbBlockEnd
  0
BLOCK
  5
CC
100
AcDbEntity
  8
DD0
100
AcDbBlockBegin
  2
DIMS11
 70
     0
 10
0.0
 20
0.0
  0
LINE
  5
CD
100
AcDbEntity
  8
DD0
100
AcDbLine
 10
66.333733
 20
265.081818
 11
242.539215
 21
265.081818
  0
LINE
  5
CE
100
AcDbEntity
  8
DD0
100
AcDbLine
 10
137.333725
 20
200.081802
 11
242.539215
 21
200.081802
  0
LINE
  5
CF
100
AcDbEntity
  8
DD0
100
AcDbLine
 10
242.092129
 20
259.286263
 11
240.539215
 21
265.081818
  0
LINE
  5
D0
100
AcDbEntity
  8
DD0
100
AcDbLine
 10
240.539215
 20
265.081818
 11
238.986301
 21
259.286263
  0
LINE
  5
D1
100
AcDbEntity
  8
DD0
100
AcDbLine
 10
238.986301
 20
205.877357
 11
240.539215
 21
200.081802
  0
LINE
  5
D2
100
AcDbEntity
  8
DD0
100
AcDbLine
 10
240.539215
 20
200.081802
 11
242.092129
 21
205.877357
  0
LINE
  5
D3
100
AcDbEntity
  8
DD0
100
AcDbLine
 10
240.539215
 20
265.081818
 11
240.539215
 21
200.081802
  0
TEXT
  5
D4
100
AcDbEntity
  8
DD0
100
AcDbText
 10
239.339218
 20
228.925154
 40
5.0
  1
６５
 50
90.000003
 41
0.666667
  7
STANDARD
100
AcDbText
  0
ENDBLK
  5
D5
100
AcDbEntity
  8
DD0
100
AcDbBlockEnd
  0
BLOCK
  5
D8
100
AcDbEntity
  8
DD0
100
AcDbBlockBegin
  2
DIMS12
 70
     0
 10
0.0
 20
0.0
  0
LINE
  5
D9
100
AcDbEntity
  8
DD0
100
AcDbLine
 10
131.236313
 20
206.179199
 11
131.236313
 21
301.027863
  0
LINE
  5
DA
100
AcDbEntity
  8
DD0
100
AcDbLine
 10
60.236317
 20
271.179199
 11
60.236317
 21
301.027863
  0
LINE
  5
DB
100
AcDbEntity
  8
DD0
100
AcDbLine
 10
125.440758
 20
297.474948
 11
131.236313
 21
299.027863
  0
LINE
  5
DC
100
AcDbEntity
  8
DD0
100
AcDbLine
 10
131.236313
 20
299.027863
 11
125.440758
 21
300.580777
  0
LINE
  5
DD
100
AcDbEntity
  8
DD0
100
AcDbLine
 10
66.031872
 20
300.580777
 11
60.236317
 21
299.027863
  0
LINE
  5
DE
100
AcDbEntity
  8
DD0
100
AcDbLine
 10
60.236317
 20
299.027863
 11
66.031872
 21
297.474948
  0
LINE
  5
DF
100
AcDbEntity
  8
DD0
100
AcDbLine
 10
131.236313
 20
299.027863
 11
60.236317
 21
299.027863
  0
TEXT
  5
E0
100
AcDbEntity
  8
DD0
100
AcDbText
 10
92.079649
 20
300.227875
 40
5.0
  1
７１
 41
0.666667
  7
STANDARD
100
AcDbText
  0
ENDBLK
  5
E1
100
AcDbEntity
  8
DD0
100
AcDbBlockEnd
  0
BLOCK
  5
E4
100
AcDbEntity
  8
DD0
100
AcDbBlockBegin
  2
DIMS13
 70
     0
 10
0.0
 20
0.0
  0
LINE
  5
E5
100
AcDbEntity
  8
DD0
100
AcDbLine
 10
60.236317
 20
271.179199
 11
60.236317
 21
301.027863
  0
LINE
  5
E6
100
AcDbEntity
  8
DD0
100
AcDbLine
 10
56.786324
 20
277.081818
 11
56.786324
 21
301.027863
  0
LINE
  5
E7
100
AcDbEntity
  8
DD0
100
AcDbLine
 10
66.031872
 20
300.580777
 11
60.236317
 21
299.027863
  0
LINE
  5
E8
100
AcDbEntity
  8
DD0
100
AcDbLine
 10
60.236317
 20
299.027863
 11
66.031872
 21
297.474948
  0
LINE
  5
E9
100
AcDbEntity
  8
DD0
100
AcDbLine
 10
50.990769
 20
297.474948
 11
56.786324
 21
299.027863
  0
LINE
  5
EA
100
AcDbEntity
  8
DD0
100
AcDbLine
 10
56.786324
 20
299.027863
 11
50.990769
 21
300.580777
  0
LINE
  5
EB
100
AcDbEntity
  8
DD0
100
AcDbLine
 10
66.836317
 20
299.027863
 11
36.186323
 21
299.027863
  0
TEXT
  5
EC
100
AcDbEntity
  8
DD0
100
AcDbText
 10
37.94966
 20
300.227875
 40
5.0
  1
３．５
 41
0.666667
  7
STANDARD
100
AcDbText
  0
ENDBLK
  5
ED
100
AcDbEntity
  8
DD0
100
AcDbBlockEnd
  0
BLOCK
  5
F0
100
AcDbEntity
  8
DD0
100
AcDbBlockBegin
  2
DIMS14
 70
     0
 10
0.0
 20
0.0
  0
LINE
  5
F1
100
AcDbEntity
  8
DD0
100
AcDbLine
 10
131.236313
 20
206.179199
 11
131.236313
 21
301.027863
  0
LINE
  5
F2
100
AcDbEntity
  8
DD0
100
AcDbLine
 10
147.136322
 20
271.179199
 11
147.136322
 21
301.027863
  0
LINE
  5
F3
100
AcDbEntity
  8
DD0
100
AcDbLine
 10
137.031868
 20
300.580777
 11
131.236313
 21
299.027863
  0
LINE
  5
F4
100
AcDbEntity
  8
DD0
100
AcDbLine
 10
131.236313
 20
299.027863
 11
137.031868
 21
297.474948
  0
LINE
  5
F5
100
AcDbEntity
  8
DD0
100
AcDbLine
 10
141.340767
 20
297.474948
 11
147.136322
 21
299.027863
  0
LINE
  5
F6
100
AcDbEntity
  8
DD0
100
AcDbLine
 10
147.136322
 20
299.027863
 11
141.340767
 21
300.580777
  0
LINE
  5
F7
100
AcDbEntity
  8
DD0
100
AcDbLine
 10
131.236313
 20
299.027863
 11
147.136322
 21
299.027863
  0
TEXT
  5
F8
100
AcDbEntity
  8
DD0
100
AcDbText
 10
135.529646
 20
300.227875
 40
5.0
  1
１６
 41
0.666667
  7
STANDARD
100
AcDbText
  0
ENDBLK
  5
F9
100
AcDbEntity
  8
DD0
100
AcDbBlockEnd
  0
BLOCK
  5
FC
100
AcDbEntity
  8
DD0
100
AcDbBlockBegin
  2
DIMS15
 70
     0
 10
0.0
 20
0.0
  0
LINE
  5
FD
100
AcDbEntity
  8
DD0
100
AcDbLine
 10
147.136322
 20
271.179199
 11
147.136322
 21
301.027863
  0
LINE
  5
FE
100
AcDbEntity
  8
DD0
100
AcDbLine
 10
218.136322
 20
206.179199
 11
218.136322
 21
301.027863
  0
LINE
  5
FF
100
AcDbEntity
  8
DD0
100
AcDbLine
 10
152.931877
 20
300.580777
 11
147.136322
 21
299.027863
  0
LINE
  5
100
100
AcDbEntity
  8
DD0
100
AcDbLine
 10
147.136322
 20
299.027863
 11
152.931877
 21
297.474948
  0
LINE
  5
101
100
AcDbEntity
  8
DD0
100
AcDbLine
 10
212.340767
 20
297.474948
 11
218.136322
 21
299.027863
  0
LINE
  5
102
100
AcDbEntity
  8
DD0
100
AcDbLine
 10
218.136322
 20
299.027863
 11
212.340767
 21
300.580777
  0
LINE
  5
103
100
AcDbEntity
  8
DD0
100
AcDbLine
 10
147.136322
 20
299.027863
 11
218.136322
 21
299.027863
  0
TEXT
  5
104
100
AcDbEntity
  8
DD0
100
AcDbText
 10
178.979658
 20
300.227875
 40
5.0
  1
７１
 41
0.666667
  7
STANDARD
100
AcDbText
  0
ENDBLK
  5
105
100
AcDbEntity
  8
DD0
100
AcDbBlockEnd
  0
ENDSEC
  0
SECTION
  2
ENTITIES
  0
INSERT
  5
56
100
AcDbEntity
  8
DD0
100
AcDbBlockReference
  2
DIMS0
 10
0.0
 20
0.0
  0
INSERT
  5
62
100
AcDbEntity
  8
DD0
100
AcDbBlockReference
  2
DIMS1
 10
0.0
 20
0.0
  0
INSERT
  5
6E
100
AcDbEntity
  8
DD0
100
AcDbBlockReference
  2
DIMS2
 10
0.0
 20
0.0
  0
INSERT
  5
7A
100
AcDbEntity
  8
DD0
100
AcDbBlockReference
  2
DIMS3
 10
0.0
 20
0.0
  0
INSERT
  5
87
100
AcDbEntity
  8
DD0
100
AcDbBlockReference
  2
DIMS4
 10
0.0
 20
0.0
  0
INSERT
  5
93
100
AcDbEntity
  8
DD0
100
AcDbBlockReference
  2
DIMS5
 10
0.0
 20
0.0
  0
INSERT
  5
9E
100
AcDbEntity
  8
DD0
100
AcDbBlockReference
  2
DIMS6
 10
0.0
 20
0.0
  0
INSERT
  5
AA
100
AcDbEntity
  8
DD0
100
AcDbBlockReference
  2
DIMS7
 10
0.0
 20
0.0
  0
INSERT
  5
B5
100
AcDbEntity
  8
DD0
100
AcDbBlockReference
  2
DIMS8
 10
0.0
 20
0.0
  0
INSERT
  5
BE
100
AcDbEntity
  8
DD0
100
AcDbBlockReference
  2
DIMS9
 10
0.0
 20
0.0
  0
INSERT
  5
CA
100
AcDbEntity
  8
DD0
100
AcDbBlockReference
  2
DIMS10
 10
0.0
 20
0.0
  0
INSERT
  5
D6
100
AcDbEntity
  8
DD0
100
AcDbBlockReference
  2
DIMS11
 10
0.0
 20
0.0
  0
INSERT
  5
E2
100
AcDbEntity
  8
DD0
100
AcDbBlockReference
  2
DIMS12
 10
0.0
 20
0.0
  0
INSERT
  5
EE
100
AcDbEntity
  8
DD0
100
AcDbBlockReference
  2
DIMS13
 10
0.0
 20
0.0
  0
INSERT
  5
FA
100
AcDbEntity
  8
DD0
100
AcDbBlockReference
  2
DIMS14
 10
0.0
 20
0.0
  0
INSERT
  5
106
100
AcDbEntity
  8
DD0
100
AcDbBlockReference
  2
DIMS15
 10
0.0
 20
0.0
  0
ARC
  5
107
100
AcDbEntity
  8
M0
100
AcDbCircle
 10
156.386322
 20
371.340659
 40
1.0
100
AcDbArc
 50
180.0
 51
270.0
  0
ARC
  5
108
100
AcDbEntity
  8
M0
100
AcDbCircle
 10
182.636322
 20
453.140659
 40
2.65
100
AcDbArc
 50
350.223151
 51
369.776849
  0
ARC
  5
109
100
AcDbEntity
  8
M0
100
AcDbCircle
 10
219.286322
 20
431.940659
 40
1.0
100
AcDbArc
 50
90.0
 51
180.0
  0
ARC
  5
10A
100
AcDbEntity
  8
M0
100
AcDbCircle
 10
157.086322
 20
371.340659
 40
1.0
100
AcDbArc
 50
270.0
 51
360.0
  0
ARC
  5
10B
100
AcDbEntity
  8
M0
100
AcDbCircle
 10
208.186322
 20
371.340659
 40
1.0
100
AcDbArc
 50
180.0
 51
270.0
  0
LINE
  5
10C
100
AcDbEntity
  8
M0
100
AcDbLine
 10
164.886322
 20
458.340658
 11
164.886322
 21
458.840659
  0
ARC
  5
10D
100
AcDbEntity
  8
M0
100
AcDbCircle
 10
182.636322
 20
453.140659
 40
2.65
100
AcDbArc
 50
189.776849
 51
350.223151
  0
ARC
  5
10E
100
AcDbEntity
  8
M0
100
AcDbCircle
 10
182.636322
 20
453.140659
 40
2.65
100
AcDbArc
 50
170.223151
 51
189.776849
  0
ARC
  5
10F
100
AcDbEntity
  8
M0
100
AcDbCircle
 10
199.986322
 20
373.340659
 40
2.65
100
AcDbArc
 50
350.223151
 51
369.776849
  0
ARC
  5
110
100
AcDbEntity
  8
M0
100
AcDbCircle
 10
182.636322
 20
453.140659
 40
2.65
100
AcDbArc
 50
9.776849
 51
170.223151
  0
ARC
  5
111
100
AcDbEntity
  8
M0
100
AcDbCircle
 10
195.486322
 20
450.040659
 40
0.6
100
AcDbArc
 50
187.490122
 51
324.314617
  0
ARC
  5
112
100
AcDbEntity
  8
M0
100
AcDbCircle
 10
198.186322
 20
448.840659
 40
1.0
100
AcDbArc
 50
121.788346
 51
150.0
  0
LINE
  5
113
100
AcDbEntity
  8
M0
100
AcDbLine
 10
189.136323
 20
399.840659
 11
191.136323
 21
399.840659
  0
LINE
  5
114
100
AcDbEntity
  8
M0
100
AcDbLine
 10
176.636322
 20
398.34066
 11
176.636322
 21
399.340659
  0
LINE
  5
115
100
AcDbEntity
  8
M0
100
AcDbLine
 10
173.636323
 20
399.340659
 11
173.636323
 21
398.34066
  0
LINE
  5
116
100
AcDbEntity
  8
M0
100
AcDbLine
 10
174.136322
 20
397.84066
 11
176.136322
 21
397.84066
  0
LINE
  5
117
100
AcDbEntity
  8
M0
100
AcDbLine
 10
191.136323
 20
397.84066
 11
189.136323
 21
397.84066
  0
LINE
  5
118
100
AcDbEntity
  8
M0
100
AcDbLine
 10
185.636322
 20
425.040659
 11
185.636322
 21
426.640659
  0
LINE
  5
119
100
AcDbEntity
  8
M0
100
AcDbLine
 10
200.386323
 20
458.340658
 11
200.386323
 21
458.840659
  0
LINE
  5
11A
100
AcDbEntity
  8
M0
100
AcDbLine
 10
162.186323
 20
450.840658
 11
162.686322
 21
450.840658
  0
LINE
  5
11B
100
AcDbEntity
  8
M0
100
AcDbLine
 10
191.636322
 20
399.340659
 11
191.636322
 21
398.34066
  0
LINE
  5
11C
100
AcDbEntity
  8
M0
100
AcDbLine
 10
156.386323
 20
435.54066
 11
208.886322
 21
435.54066
  0
LINE
  5
11D
100
AcDbEntity
  8
M0
100
AcDbLine
 10
187.536323
 20
423.04066
 11
187.536323
 21
422.54066
  0
LINE
  5
11E
100
AcDbEntity
  8
M0
100
AcDbLine
 10
147.136321
 20
396.190659
 11
147.136321
 21
402.690659
  0
LINE
  5
11F
100
AcDbEntity
  8
M0
100
AcDbLine
 10
182.186322
 20
452.69066
 11
182.186322
 21
451.940658
  0
LINE
  5
120
100
AcDbEntity
  8
M0
100
AcDbLine
 10
184.223773
 20
452.69066
 11
183.086322
 21
452.69066
  0
CIRCLE
  5
121
100
AcDbEntity
  8
M0
100
AcDbCircle
 10
199.986322
 20
373.340659
 40
2.825
  0
ARC
  5
122
100
AcDbEntity
  8
M0
100
AcDbCircle
 10
177.836322
 20
408.140659
 40
0.5
100
AcDbArc
 50
180.0
 51
270.0
  0
ARC
  5
123
100
AcDbEntity
  8
M0
100
AcDbCircle
 10
177.836322
 20
417.540659
 40
0.5
100
AcDbArc
 50
90.0
 51
180.0
  0
ARC
  5
124
100
AcDbEntity
  8
M0
100
AcDbCircle
 10
183.886322
 20
410.140659
 40
0.5
100
AcDbArc
 50
270.0
 51
360.0
  0
LINE
  5
125
100
AcDbEntity
  8
M0
100
AcDbLine
 10
202.086322
 20
457.840661
 11
194.786322
 21
457.840661
  0
LINE
  5
126
100
AcDbEntity
  8
M0
100
AcDbLine
 10
182.186322
 20
454.340658
 11
182.186322
 21
453.59066
  0
LINE
  5
127
100
AcDbEntity
  8
M0
100
AcDbLine
 10
182.186322
 20
452.69066
 11
181.048872
 21
452.69066
  0
LINE
  5
128
100
AcDbEntity
  8
M0
100
AcDbLine
 10
163.186323
 20
457.840661
 11
162.686322
 21
457.34066
  0
LINE
  5
129
100
AcDbEntity
  8
M0
100
AcDbLine
 10
176.586322
 20
423.840659
 11
174.436322
 21
423.840659
  0
LINE
  5
12A
100
AcDbEntity
  8
M0
100
AcDbLine
 10
162.686322
 20
457.34066
 11
162.686322
 21
449.340659
  0
ARC
  5
12B
100
AcDbEntity
  8
M0
100
AcDbCircle
 10
187.436322
 20
417.540659
 40
0.5
100
AcDbArc
 50
0.0
 51
90.0
  0
ARC
  5
12C
100
AcDbEntity
  8
M0
100
AcDbCircle
 10
182.636321
 20
453.090659
 40
4.25
100
AcDbArc
 50
241.927521
 51
298.072495
  0
ARC
  5
12D
100
AcDbEntity
  8
M0
100
AcDbCircle
 10
182.636321
 20
453.090659
 40
4.25
100
AcDbArc
 50
241.927521
 51
270.0
  0
ARC
  5
12E
100
AcDbEntity
  8
M0
100
AcDbCircle
 10
169.786322
 20
450.040659
 40
0.6
100
AcDbArc
 50
215.685335
 51
270.0
  0
ARC
  5
12F
100
AcDbEntity
  8
M0
100
AcDbCircle
 10
200.236322
 20
372.590659
 40
4.25
100
AcDbArc
 50
61.927513
 51
118.072487
  0
ARC
  5
130
100
AcDbEntity
  8
M0
100
AcDbCircle
 10
198.186322
 20
448.840659
 40
1.0
100
AcDbArc
 50
30.0
 51
58.211672
  0
ARC
  5
131
100
AcDbEntity
  8
M0
100
AcDbCircle
 10
182.636322
 20
372.590659
 40
4.25
100
AcDbArc
 50
61.927513
 51
118.072487
  0
ARC
  5
132
100
AcDbEntity
  8
M0
100
AcDbCircle
 10
200.236321
 20
453.090659
 40
4.25
100
AcDbArc
 50
241.927521
 51
298.072495
  0
ARC
  5
133
100
AcDbEntity
  8
M0
100
AcDbCircle
 10
165.036322
 20
372.590659
 40
4.25
100
AcDbArc
 50
61.927513
 51
118.072487
  0
ARC
  5
134
100
AcDbEntity
  8
M0
100
AcDbCircle
 10
187.436322
 20
408.140659
 40
0.5
100
AcDbArc
 50
270.0
 51
360.0
  0
ARC
  5
135
100
AcDbEntity
  8
M0
100
AcDbCircle
 10
200.236321
 20
453.090659
 40
4.25
100
AcDbArc
 50
241.927521
 51
270.0
  0
ARC
  5
136
100
AcDbEntity
  8
M0
100
AcDbCircle
 10
217.636323
 20
388.59066
 40
0.5
100
AcDbArc
 50
270.0
 51
360.0
  0
ARC
  5
137
100
AcDbEntity
  8
M0
100
AcDbCircle
 10
217.636322
 20
395.09066
 40
0.5
100
AcDbArc
 50
0.0
 51
90.0
  0
ARC
  5
138
100
AcDbEntity
  8
M0
100
AcDbCircle
 10
211.136322
 20
422.990659
 40
0.5
100
AcDbArc
 50
180.0
 51
270.0
  0
ARC
  5
139
100
AcDbEntity
  8
M0
100
AcDbCircle
 10
211.136322
 20
395.090659
 40
0.5
100
AcDbArc
 50
90.0
 51
180.0
  0
ARC
  5
13A
100
AcDbEntity
  8
M0
100
AcDbCircle
 10
217.636322
 20
422.990659
 40
0.5
100
AcDbArc
 50
270.0
 51
360.0
  0
ARC
  5
13B
100
AcDbEntity
  8
M0
100
AcDbCircle
 10
217.636322
 20
429.490659
 40
0.5
100
AcDbArc
 50
0.0
 51
90.0
  0
ARC
  5
13C
100
AcDbEntity
  8
M0
100
AcDbCircle
 10
188.536322
 20
423.040659
 40
1.0
100
AcDbArc
 50
90.0
 51
180.0
  0
ARC
  5
13D
100
AcDbEntity
  8
M0
100
AcDbCircle
 10
209.386322
 20
420.540659
 40
0.5
100
AcDbArc
 50
270.0
 51
360.0
  0
ARC
  5
13E
100
AcDbEntity
  8
M0
100
AcDbCircle
 10
165.036321
 20
453.090659
 40
4.25
100
AcDbArc
 50
241.927521
 51
270.0
  0
ARC
  5
13F
100
AcDbEntity
  8
M0
100
AcDbCircle
 10
165.036321
 20
453.090659
 40
4.25
100
AcDbArc
 50
241.927521
 51
298.072495
  0
ARC
  5
140
100
AcDbEntity
  8
M0
100
AcDbCircle
 10
176.736322
 20
423.040659
 40
1.0
100
AcDbArc
 50
0.0
 51
90.0
  0
ARC
  5
141
100
AcDbEntity
  8
M0
100
AcDbCircle
 10
156.386322
 20
434.540659
 40
1.0
100
AcDbArc
 50
90.0
 51
180.0
  0
ARC
  5
142
100
AcDbEntity
  8
M0
100
AcDbCircle
 10
147.636322
 20
402.690659
 40
0.5
100
AcDbArc
 50
90.0
 51
180.0
  0
ARC
  5
143
100
AcDbEntity
  8
M0
100
AcDbCircle
 10
154.136322
 20
396.190659
 40
0.5
100
AcDbArc
 50
270.0
 51
360.0
  0
ARC
  5
144
100
AcDbEntity
  8
M0
100
AcDbCircle
 10
147.636322
 20
429.490659
 40
0.5
100
AcDbArc
 50
90.0
 51
180.0
  0
ARC
  5
145
100
AcDbEntity
  8
M0
100
AcDbCircle
 10
147.636323
 20
422.990659
 40
0.5
100
AcDbArc
 50
180.0
 51
270.0
  0
ARC
  5
146
100
AcDbEntity
  8
M0
100
AcDbCircle
 10
147.636323
 20
422.990659
 40
0.5
100
AcDbArc
 50
180.0
 51
270.0
  0
ARC
  5
147
100
AcDbEntity
  8
M0
100
AcDbCircle
 10
154.136323
 20
422.99066
 40
0.5
100
AcDbArc
 50
270.0
 51
360.0
  0
ARC
  5
148
100
AcDbEntity
  8
M0
100
AcDbCircle
 10
147.636322
 20
396.190659
 40
0.5
100
AcDbArc
 50
180.0
 51
270.0
  0
ARC
  5
149
100
AcDbEntity
  8
M0
100
AcDbCircle
 10
211.136322
 20
429.490659
 40
0.5
100
AcDbArc
 50
90.0
 51
180.0
  0
ARC
  5
14A
100
AcDbEntity
  8
M0
100
AcDbCircle
 10
177.836323
 20
417.109613
 40
0.5
100
AcDbArc
 50
90.0
 51
180.0
  0
ARC
  5
14B
100
AcDbEntity
  8
M0
100
AcDbCircle
 10
154.136322
 20
429.49066
 40
0.5
100
AcDbArc
 50
0.0
 51
90.0
  0
ARC
  5
14C
100
AcDbEntity
  8
M0
100
AcDbCircle
 10
187.436322
 20
417.109613
 40
0.5
100
AcDbArc
 50
0.0
 51
90.0
  0
ARC
  5
14D
100
AcDbEntity
  8
M0
100
AcDbCircle
 10
154.136322
 20
402.690659
 40
0.5
100
AcDbArc
 50
0.0
 51
90.0
  0
LINE
  5
14E
100
AcDbEntity
  8
M0
100
AcDbLine
 10
191.036322
 20
424.040659
 11
188.536323
 21
424.040659
  0
LINE
  5
14F
100
AcDbEntity
  8
M0
100
AcDbLine
 10
192.036322
 20
402.640659
 11
192.036322
 21
423.04066
  0
LINE
  5
150
100
AcDbEntity
  8
M0
100
AcDbLine
 10
154.136322
 20
395.69066
 11
147.636322
 21
395.69066
  0
LINE
  5
151
100
AcDbEntity
  8
M0
100
AcDbLine
 10
217.636323
 20
422.49066
 11
211.136322
 21
422.49066
  0
LINE
  5
152
100
AcDbEntity
  8
M0
100
AcDbLine
 10
211.136322
 20
429.990659
 11
217.636323
 21
429.990659
  0
LINE
  5
153
100
AcDbEntity
  8
M0
100
AcDbLine
 10
218.136324
 20
429.490659
 11
218.136324
 21
422.99066
  0
LINE
  5
154
100
AcDbEntity
  8
M0
100
AcDbLine
 10
185.636322
 20
426.640659
 11
179.636322
 21
426.640659
  0
ARC
  5
155
100
AcDbEntity
  8
M0
100
AcDbCircle
 10
181.386322
 20
410.140659
 40
0.5
100
AcDbArc
 50
180.0
 51
270.0
  0
LINE
  5
156
100
AcDbEntity
  8
M0
100
AcDbLine
 10
179.636322
 20
425.040659
 11
179.636322
 21
426.640659
  0
LINE
  5
157
100
AcDbEntity
  8
M0
100
AcDbLine
 10
173.236323
 20
402.640659
 11
173.236323
 21
423.04066
  0
LINE
  5
158
100
AcDbEntity
  8
M0
100
AcDbLine
 10
179.636322
 20
425.040659
 11
185.636322
 21
425.040659
  0
LINE
  5
159
100
AcDbEntity
  8
M0
100
AcDbLine
 10
174.236323
 20
401.64066
 11
191.036322
 21
401.64066
  0
LINE
  5
15A
100
AcDbEntity
  8
M0
100
AcDbLine
 10
147.636322
 20
403.190659
 11
154.136322
 21
403.190659
  0
LINE
  5
15B
100
AcDbEntity
  8
M0
100
AcDbLine
 10
217.636323
 20
395.69066
 11
211.136323
 21
395.69066
  0
LINE
  5
15C
100
AcDbEntity
  8
M0
100
AcDbLine
 10
218.136324
 20
396.190661
 11
218.136324
 21
402.69066
  0
LINE
  5
15D
100
AcDbEntity
  8
M0
100
AcDbLine
 10
154.136322
 20
388.090659
 11
147.636322
 21
388.090659
  0
LINE
  5
15E
100
AcDbEntity
  8
M0
100
AcDbLine
 10
211.136322
 20
403.190659
 11
217.636322
 21
403.190659
  0
ARC
  5
15F
100
AcDbEntity
  8
M0
100
AcDbCircle
 10
155.886322
 20
420.540659
 40
0.5
100
AcDbArc
 50
180.0
 51
270.0
  0
LINE
  5
160
100
AcDbEntity
  8
M0
100
AcDbLine
 10
210.636323
 20
422.990659
 11
210.636323
 21
429.49066
  0
LINE
  5
161
100
AcDbEntity
  8
M0
  6
DASHDOT
100
AcDbLine
 10
182.636322
 20
365.340659
 11
182.636322
 21
464.34066
  0
LINE
  5
162
100
AcDbEntity
  8
M0
100
AcDbLine
 10
147.636322
 20
429.990659
 11
154.136322
 21
429.990659
  0
LINE
  5
163
100
AcDbEntity
  8
M0
100
AcDbLine
 10
154.136322
 20
422.49066
 11
147.636323
 21
422.49066
  0
LINE
  5
164
100
AcDbEntity
  8
M0
100
AcDbLine
 10
201.836323
 20
449.690657
 11
195.336323
 21
449.690657
  0
LINE
  5
165
100
AcDbEntity
  8
M0
100
AcDbLine
 10
145.986324
 20
392.74066
 11
145.886322
 21
392.74066
  0
LINE
  5
166
100
AcDbEntity
  8
M0
100
AcDbLine
 10
147.136321
 20
437.090658
 11
147.136321
 21
430.590659
  0
LINE
  5
167
100
AcDbEntity
  8
M0
100
AcDbLine
 10
202.336323
 20
450.190658
 11
202.336323
 21
456.69066
  0
LINE
  5
168
100
AcDbEntity
  8
M0
100
AcDbLine
 10
154.636323
 20
437.09066
 11
154.636323
 21
430.59066
  0
LINE
  5
169
100
AcDbEntity
  8
M0
100
AcDbLine
 10
195.336322
 20
457.190661
 11
201.836322
 21
457.190661
  0
LINE
  5
16A
100
AcDbEntity
  8
M0
100
AcDbLine
 10
207.186323
 20
371.340661
 11
207.186323
 21
373.340658
  0
LINE
  5
16B
100
AcDbEntity
  8
M0
100
AcDbLine
 10
194.836323
 20
450.190658
 11
194.83632
 21
456.690659
  0
LINE
  5
16C
100
AcDbEntity
  8
M0
100
AcDbLine
 10
171.986323
 20
373.340658
 11
171.986323
 21
371.340661
  0
LINE
  5
16D
100
AcDbEntity
  8
M0
100
AcDbLine
 10
219.386322
 20
432.940659
 11
219.286321
 21
432.940659
  0
LINE
  5
16E
100
AcDbEntity
  8
M0
100
AcDbLine
 10
219.286321
 20
392.74066
 11
219.386322
 21
392.74066
  0
LINE
  5
16F
100
AcDbEntity
  8
M0
100
AcDbLine
 10
145.886322
 20
432.940659
 11
145.986324
 21
432.940659
  0
ARC
  5
170
100
AcDbEntity
  8
M0
100
AcDbCircle
 10
217.636323
 20
396.19066
 40
0.5
100
AcDbArc
 50
270.0
 51
360.0
  0
ARC
  5
171
100
AcDbEntity
  8
M0
100
AcDbCircle
 10
217.636323
 20
396.19066
 40
0.5
100
AcDbArc
 50
270.0
 51
360.0
  0
ARC
  5
172
100
AcDbEntity
  8
M0
100
AcDbCircle
 10
154.736322
 20
373.840659
 40
0.5
100
AcDbArc
 50
180.0
 51
270.0
  0
ARC
  5
173
100
AcDbEntity
  8
M0
100
AcDbCircle
 10
154.186322
 20
452.340659
 40
2.0
100
AcDbArc
 50
53.130102
 51
90.0
  0
ARC
  5
174
100
AcDbEntity
  8
M0
100
AcDbCircle
 10
211.086322
 20
452.340659
 40
2.0
100
AcDbArc
 50
90.0
 51
126.869898
  0
ARC
  5
175
100
AcDbEntity
  8
M0
100
AcDbCircle
 10
147.636322
 20
388.590659
 40
0.5
100
AcDbArc
 50
180.0
 51
270.0
  0
CIRCLE
  5
176
100
AcDbEntity
  8
M0
100
AcDbCircle
 10
165.286322
 20
373.340659
 40
2.85
  0
CIRCLE
  5
177
100
AcDbEntity
  8
M0
100
AcDbCircle
 10
165.286322
 20
373.340659
 40
2.825
  0
ARC
  5
178
100
AcDbEntity
  8
M0
100
AcDbCircle
 10
147.636322
 20
429.490659
 40
0.5
100
AcDbArc
 50
90.0
 51
180.0
  0
ARC
  5
179
100
AcDbEntity
  8
M0
100
AcDbCircle
 10
211.136322
 20
402.690659
 40
0.5
100
AcDbArc
 50
90.0
 51
180.0
  0
ARC
  5
17A
100
AcDbEntity
  8
M0
100
AcDbCircle
 10
211.136323
 20
396.190659
 40
0.5
100
AcDbArc
 50
180.0
 51
270.0
  0
ARC
  5
17B
100
AcDbEntity
  8
M0
100
AcDbCircle
 10
217.636322
 20
402.69066
 40
0.5
100
AcDbArc
 50
0.0
 51
90.0
  0
LINE
  5
17C
100
AcDbEntity
  8
M0
100
AcDbLine
 10
147.136321
 20
429.490658
 11
147.136321
 21
422.990659
  0
ARC
  5
17D
100
AcDbEntity
  8
M0
100
AcDbCircle
 10
219.286322
 20
386.490659
 40
1.0
100
AcDbArc
 50
180.0
 51
270.0
  0
LINE
  5
17E
100
AcDbEntity
  8
M0
100
AcDbLine
 10
218.136324
 20
395.09066
 11
218.136324
 21
388.59066
  0
LINE
  5
17F
100
AcDbEntity
  8
M0
100
AcDbLine
 10
211.136322
 20
395.59066
 11
217.636323
 21
395.59066
  0
LINE
  5
180
100
AcDbEntity
  8
M0
100
AcDbLine
 10
210.636323
 20
388.590659
 11
210.636323
 21
395.090659
  0
LINE
  5
181
100
AcDbEntity
  8
M0
100
AcDbLine
 10
217.636323
 20
388.090659
 11
211.136322
 21
388.090659
  0
ARC
  5
182
100
AcDbEntity
  8
M0
100
AcDbCircle
 10
159.68319
 20
424.689916
 40
5.573176
100
AcDbArc
 50
208.520126
 51
219.557059
  0
ARC
  5
183
100
AcDbEntity
  8
M0
100
AcDbCircle
 10
205.589455
 20
424.689916
 40
5.573176
100
AcDbArc
 50
320.442941
 51
331.479874
  0
ARC
  5
184
100
AcDbEntity
  8
M0
100
AcDbCircle
 10
155.386322
 20
432.340659
 40
0.6
100
AcDbArc
 50
90.0
 51
180.0
  0
ARC
  5
185
100
AcDbEntity
  8
M0
100
AcDbCircle
 10
145.186322
 20
439.190659
 40
1.0
100
AcDbArc
 50
90.0
 51
180.0
  0
ARC
  5
186
100
AcDbEntity
  8
M0
100
AcDbCircle
 10
209.886322
 20
432.340659
 40
0.6
100
AcDbArc
 50
0.0
 51
90.0
  0
ARC
  5
187
100
AcDbEntity
  8
M0
100
AcDbCircle
 10
145.986322
 20
439.190659
 40
1.0
100
AcDbArc
 50
0.0
 51
90.0
  0
LINE
  5
188
100
AcDbEntity
  8
M0
100
AcDbLine
 10
170.436323
 20
456.690659
 11
170.436323
 21
450.190658
  0
LINE
  5
189
100
AcDbEntity
  8
M0
100
AcDbLine
 10
154.636322
 20
395.090659
 11
154.636322
 21
388.590659
  0
LINE
  5
18A
100
AcDbEntity
  8
M0
100
AcDbLine
 10
211.136322
 20
437.590659
 11
217.636323
 21
437.590659
  0
LINE
  5
18B
100
AcDbEntity
  8
M0
100
AcDbLine
 10
217.636323
 20
430.090659
 11
211.136322
 21
430.090659
  0
LINE
  5
18C
100
AcDbEntity
  8
M0
100
AcDbLine
 10
210.636323
 20
430.59066
 11
210.636323
 21
437.090659
  0
LINE
  5
18D
100
AcDbEntity
  8
M0
100
AcDbLine
 10
163.436322
 20
457.190658
 11
169.936323
 21
457.190658
  0
LINE
  5
18E
100
AcDbEntity
  8
M0
100
AcDbLine
 10
147.636322
 20
395.59066
 11
154.136322
 21
395.59066
  0
LINE
  5
18F
100
AcDbEntity
  8
M0
100
AcDbLine
 10
210.636323
 20
396.190659
 11
210.636323
 21
402.690659
  0
LINE
  5
190
100
AcDbEntity
  8
M0
100
AcDbLine
 10
162.936322
 20
450.190658
 11
162.936322
 21
456.690659
  0
LINE
  5
191
100
AcDbEntity
  8
M0
100
AcDbLine
 10
218.136324
 20
437.09066
 11
218.136324
 21
430.590659
  0
LINE
  5
192
100
AcDbEntity
  8
M0
100
AcDbLine
 10
169.936323
 20
449.690661
 11
163.436322
 21
449.690661
  0
LINE
  5
193
100
AcDbEntity
  8
M0
100
AcDbLine
 10
181.048872
 20
453.59066
 11
180.024809
 21
453.59066
  0
LINE
  5
194
100
AcDbEntity
  8
M0
100
AcDbLine
 10
199.536322
 20
372.890661
 11
199.536322
 21
372.14066
  0
LINE
  5
195
100
AcDbEntity
  8
M0
100
AcDbLine
 10
199.536322
 20
374.540659
 11
199.536322
 21
373.790658
  0
LINE
  5
196
100
AcDbEntity
  8
M0
100
AcDbLine
 10
180.024809
 20
452.69066
 11
181.048872
 21
452.69066
  0
LINE
  5
197
100
AcDbEntity
  8
M0
100
AcDbLine
 10
200.436322
 20
372.14066
 11
200.436322
 21
372.890661
  0
LINE
  5
198
100
AcDbEntity
  8
M0
100
AcDbLine
 10
200.436322
 20
374.540659
 11
199.536322
 21
374.540659
  0
LINE
  5
199
100
AcDbEntity
  8
M0
100
AcDbLine
 10
187.436323
 20
407.640659
 11
188.186322
 21
407.640659
  0
LINE
  5
19A
100
AcDbEntity
  8
M0
100
AcDbLine
 10
158.086322
 20
376.34066
 11
163.036322
 21
376.34066
  0
LINE
  5
19B
100
AcDbEntity
  8
M0
100
AcDbLine
 10
202.586323
 20
457.34066
 11
202.086322
 21
457.840661
  0
LINE
  5
19C
100
AcDbEntity
  8
M0
100
AcDbLine
 10
210.486323
 20
395.640659
 11
218.286322
 21
395.640659
  0
LINE
  5
19D
100
AcDbEntity
  8
M0
100
AcDbLine
 10
202.586323
 20
449.340659
 11
202.586323
 21
457.34066
  0
LINE
  5
19E
100
AcDbEntity
  8
M0
100
AcDbLine
 10
200.436322
 20
373.790658
 11
201.573772
 21
373.790658
  0
LINE
  5
19F
100
AcDbEntity
  8
M0
100
AcDbLine
 10
170.486323
 20
457.840661
 11
162.186323
 21
457.840661
  0
LINE
  5
1A0
100
AcDbEntity
  8
M0
100
AcDbLine
 10
183.086322
 20
454.340658
 11
182.186322
 21
454.340658
  0
LINE
  5
1A1
100
AcDbEntity
  8
M0
100
AcDbLine
 10
182.186322
 20
451.940658
 11
183.086322
 21
451.940658
  0
LINE
  5
1A2
100
AcDbEntity
  8
M0
100
AcDbLine
 10
183.086322
 20
453.59066
 11
184.223773
 21
453.59066
  0
LINE
  5
1A3
100
AcDbEntity
  8
M0
100
AcDbLine
 10
181.048872
 20
453.59066
 11
182.186322
 21
453.59066
  0
LINE
  5
1A4
100
AcDbEntity
  8
M0
100
AcDbLine
 10
154.636322
 20
402.690659
 11
154.636322
 21
396.190659
  0
LINE
  5
1A5
100
AcDbEntity
  8
M0
100
AcDbLine
 10
184.223773
 20
452.69066
 11
185.247835
 21
452.69066
  0
LINE
  5
1A6
100
AcDbEntity
  8
M0
100
AcDbLine
 10
185.247835
 20
453.59066
 11
184.223773
 21
453.59066
  0
LINE
  5
1A7
100
AcDbEntity
  8
M0
100
AcDbLine
 10
201.573772
 20
372.890661
 11
200.436322
 21
372.890661
  0
LINE
  5
1A8
100
AcDbEntity
  8
M0
100
AcDbLine
 10
199.536322
 20
372.890661
 11
198.398871
 21
372.890661
  0
LINE
  5
1A9
100
AcDbEntity
  8
M0
100
AcDbLine
 10
183.086322
 20
453.59066
 11
183.086322
 21
454.340658
  0
LINE
  5
1AA
100
AcDbEntity
  8
M0
100
AcDbLine
 10
183.086322
 20
451.940658
 11
183.086322
 21
452.69066
  0
ARC
  5
1AB
100
AcDbEntity
  8
M0
100
AcDbCircle
 10
217.636322
 20
395.09066
 40
0.5
100
AcDbArc
 50
0.0
 51
90.0
  0
ARC
  5
1AC
100
AcDbEntity
  8
M0
100
AcDbCircle
 10
211.136323
 20
388.590659
 40
0.5
100
AcDbArc
 50
180.0
 51
270.0
  0
ARC
  5
1AD
100
AcDbEntity
  8
M0
100
AcDbCircle
 10
208.886322
 20
454.340659
 40
1.0
100
AcDbArc
 50
0.0
 51
90.0
  0
ARC
  5
1AE
100
AcDbEntity
  8
M0
100
AcDbCircle
 10
217.636323
 20
388.59066
 40
0.5
100
AcDbArc
 50
270.0
 51
360.0
  0
ARC
  5
1AF
100
AcDbEntity
  8
M0
100
AcDbCircle
 10
154.136322
 20
395.090659
 40
0.5
100
AcDbArc
 50
0.0
 51
90.0
  0
ARC
  5
1B0
100
AcDbEntity
  8
M0
100
AcDbCircle
 10
165.286322
 20
373.340659
 40
2.65
100
AcDbArc
 50
189.776849
 51
350.223151
  0
ARC
  5
1B1
100
AcDbEntity
  8
M0
100
AcDbCircle
 10
154.136322
 20
388.590659
 40
0.5
100
AcDbArc
 50
270.0
 51
360.0
  0
LINE
  5
1B2
100
AcDbEntity
  8
M0
100
AcDbLine
 10
147.136321
 20
388.590659
 11
147.136321
 21
395.090659
  0
ARC
  5
1B3
100
AcDbEntity
  8
M0
100
AcDbCircle
 10
163.436322
 20
450.190659
 40
0.5
100
AcDbArc
 50
180.0
 51
270.0
  0
ARC
  5
1B4
100
AcDbEntity
  8
M0
100
AcDbCircle
 10
147.636322
 20
395.090659
 40
0.5
100
AcDbArc
 50
90.0
 51
180.0
  0
ARC
  5
1B5
100
AcDbEntity
  8
M0
100
AcDbCircle
 10
169.936322
 20
450.190659
 40
0.5
100
AcDbArc
 50
270.0
 51
360.0
  0
ARC
  5
1B6
100
AcDbEntity
  8
M0
100
AcDbCircle
 10
169.936322
 20
456.690659
 40
0.5
100
AcDbArc
 50
0.0
 51
90.0
  0
ARC
  5
1B7
100
AcDbEntity
  8
M0
100
AcDbCircle
 10
154.136322
 20
437.09066
 40
0.5
100
AcDbArc
 50
0.0
 51
90.0
  0
ARC
  5
1B8
100
AcDbEntity
  8
M0
100
AcDbCircle
 10
154.136323
 20
430.59066
 40
0.5
100
AcDbArc
 50
270.0
 51
360.0
  0
LINE
  5
1B9
100
AcDbEntity
  8
M0
100
AcDbLine
 10
207.186323
 20
449.340659
 11
202.236323
 21
449.340659
  0
LINE
  5
1BA
100
AcDbEntity
  8
M0
100
AcDbLine
 10
175.686323
 20
376.34066
 11
180.636322
 21
376.34066
  0
LINE
  5
1BB
100
AcDbEntity
  8
M0
100
AcDbLine
 10
193.286322
 20
376.34066
 11
198.236322
 21
376.34066
  0
LINE
  5
1BC
100
AcDbEntity
  8
M0
100
AcDbLine
 10
178.486323
 20
407.140659
 11
178.486323
 21
407.640659
  0
ARC
  5
1BD
100
AcDbEntity
  8
M0
100
AcDbCircle
 10
147.636323
 20
430.590659
 40
0.5
100
AcDbArc
 50
180.0
 51
270.0
  0
ARC
  5
1BE
100
AcDbEntity
  8
M0
100
AcDbCircle
 10
195.336322
 20
456.690659
 40
0.5
100
AcDbArc
 50
90.0
 51
180.0
  0
ARC
  5
1BF
100
AcDbEntity
  8
M0
100
AcDbCircle
 10
195.336323
 20
450.190659
 40
0.5
100
AcDbArc
 50
180.0
 51
270.0
  0
ARC
  5
1C0
100
AcDbEntity
  8
M0
100
AcDbCircle
 10
147.636322
 20
437.090659
 40
0.5
100
AcDbArc
 50
90.0
 51
180.0
  0
ARC
  5
1C1
100
AcDbEntity
  8
M0
100
AcDbCircle
 10
201.836323
 20
450.19066
 40
0.5
100
AcDbArc
 50
270.0
 51
360.0
  0
ARC
  5
1C2
100
AcDbEntity
  8
M0
100
AcDbCircle
 10
201.836322
 20
456.69066
 40
0.5
100
AcDbArc
 50
0.0
 51
90.0
  0
LINE
  5
1C3
100
AcDbEntity
  8
M0
100
AcDbLine
 10
147.886323
 20
437.64066
 11
146.986322
 21
437.64066
  0
LINE
  5
1C4
100
AcDbEntity
  8
M0
100
AcDbLine
 10
172.186323
 20
454.94066
 11
172.186323
 21
457.14066
  0
LINE
  5
1C5
100
AcDbEntity
  8
M0
100
AcDbLine
 10
217.386322
 20
437.64066
 11
218.286322
 21
437.64066
  0
LINE
  5
1C6
100
AcDbEntity
  8
M0
100
AcDbLine
 10
180.636322
 20
376.34066
 11
184.636323
 21
376.34066
  0
LINE
  5
1C7
100
AcDbEntity
  8
M0
100
AcDbLine
 10
198.236321
 20
449.340659
 11
204.686323
 21
449.340659
  0
LINE
  5
1C8
100
AcDbEntity
  8
M0
100
AcDbLine
 10
210.486323
 20
437.64066
 11
211.386323
 21
437.64066
  0
ARC
  5
1C9
100
AcDbEntity
  8
M0
100
AcDbCircle
 10
154.386322
 20
407.640659
 40
1.0
100
AcDbArc
 50
180.0
 51
270.0
  0
ARC
  5
1CA
100
AcDbEntity
  8
M0
100
AcDbCircle
 10
151.185832
 20
445.290659
 40
0.3
100
AcDbArc
 50
90.0
 51
178.876481
  0
ARC
  5
1CB
100
AcDbEntity
  8
M0
100
AcDbCircle
 10
172.486322
 20
437.740659
 40
0.5
100
AcDbArc
 50
180.0
 51
270.0
  0
ARC
  5
1CC
100
AcDbEntity
  8
M0
100
AcDbCircle
 10
199.986322
 20
373.340659
 40
3.5
100
AcDbArc
 50
121.002719
 51
180.0
  0
ARC
  5
1CD
100
AcDbEntity
  8
M0
100
AcDbCircle
 10
190.086322
 20
387.940659
 40
0.5
100
AcDbArc
 50
90.0
 51
180.0
  0
LINE
  5
1CE
100
AcDbEntity
  8
M0
100
AcDbLine
 10
219.386322
 20
440.190659
 11
219.286321
 21
440.190659
  0
LINE
  5
1CF
100
AcDbEntity
  8
M0
100
AcDbLine
 10
171.536323
 20
371.340661
 11
171.536323
 21
376.34066
  0
LINE
  5
1D0
100
AcDbEntity
  8
M0
100
AcDbLine
 10
159.036322
 20
371.340661
 11
159.036322
 21
376.34066
  0
LINE
  5
1D1
100
AcDbEntity
  8
M0
100
AcDbLine
 10
193.736322
 20
371.340661
 11
193.736322
 21
376.34066
  0
LINE
  5
1D2
100
AcDbEntity
  8
M0
100
AcDbLine
 10
172.686323
 20
457.640658
 11
192.586322
 21
457.640658
  0
LINE
  5
1D3
100
AcDbEntity
  8
M0
100
AcDbLine
 10
145.886322
 20
385.49066
 11
145.986324
 21
385.49066
  0
LINE
  5
1D4
100
AcDbEntity
  8
M0
100
AcDbLine
 10
206.236323
 20
376.34066
 11
206.236323
 21
371.340661
  0
LINE
  5
1D5
100
AcDbEntity
  8
M0
100
AcDbLine
 10
196.486322
 20
373.340658
 11
196.486322
 21
371.340661
  0
LINE
  5
1D6
100
AcDbEntity
  8
M0
100
AcDbLine
 10
161.786322
 20
373.340658
 11
161.786322
 21
371.340661
  0
LINE
  5
1D7
100
AcDbEntity
  8
M0
100
AcDbLine
 10
162.186323
 20
449.340659
 11
162.186323
 21
458.340659
  0
LINE
  5
1D8
100
AcDbEntity
  8
M0
100
AcDbLine
 10
218.586322
 20
370.340659
 11
194.736322
 21
370.340659
  0
LINE
  5
1D9
100
AcDbEntity
  8
M0
100
AcDbLine
 10
145.886322
 20
440.190659
 11
145.986324
 21
440.190659
  0
LINE
  5
1DA
100
AcDbEntity
  8
M0
100
AcDbLine
 10
193.086322
 20
457.14066
 11
193.086322
 21
454.94066
  0
ARC
  5
1DB
100
AcDbEntity
  8
M0
100
AcDbCircle
 10
146.686322
 20
451.340659
 40
3.0
100
AcDbArc
 50
90.0
 51
180.0
  0
ARC
  5
1DC
100
AcDbEntity
  8
M0
100
AcDbCircle
 10
218.086322
 20
451.340659
 40
3.0
100
AcDbArc
 50
0.0
 51
90.0
  0
ARC
  5
1DD
100
AcDbEntity
  8
M0
100
AcDbCircle
 10
164.386322
 20
458.340659
 40
0.5
100
AcDbArc
 50
270.0
 51
360.0
  0
ARC
  5
1DE
100
AcDbEntity
  8
M0
100
AcDbCircle
 10
154.736322
 20
372.340659
 40
0.5
100
AcDbArc
 50
180.0
 51
270.0
  0
ARC
  5
1DF
100
AcDbEntity
  8
M0
100
AcDbCircle
 10
200.886322
 20
458.840659
 40
0.5
100
AcDbArc
 50
90.0
 51
180.0
  0
ARC
  5
1E0
100
AcDbEntity
  8
M0
100
AcDbCircle
 10
200.886322
 20
458.340659
 40
0.5
100
AcDbArc
 50
180.0
 51
270.0
  0
ARC
  5
1E1
100
AcDbEntity
  8
M0
100
AcDbCircle
 10
204.486322
 20
371.340659
 40
1.0
100
AcDbArc
 50
180.0
 51
270.0
  0
ARC
  5
1E2
100
AcDbEntity
  8
M0
100
AcDbCircle
 10
170.536322
 20
371.340659
 40
1.0
100
AcDbArc
 50
270.0
 51
360.0
  0
ARC
  5
1E3
100
AcDbEntity
  8
M0
100
AcDbCircle
 10
160.036322
 20
371.340659
 40
1.0
100
AcDbArc
 50
180.0
 51
270.0
  0
ARC
  5
1E4
100
AcDbEntity
  8
M0
100
AcDbCircle
 10
195.486322
 20
371.340659
 40
1.0
100
AcDbArc
 50
270.0
 51
360.0
  0
ARC
  5
1E5
100
AcDbEntity
  8
M0
100
AcDbCircle
 10
161.186322
 20
458.340659
 40
1.0
100
AcDbArc
 50
90.0
 51
180.0
  0
ARC
  5
1E6
100
AcDbEntity
  8
M0
100
AcDbCircle
 10
160.786322
 20
371.340659
 40
1.0
100
AcDbArc
 50
270.0
 51
360.0
  0
ARC
  5
1E7
100
AcDbEntity
  8
M0
100
AcDbCircle
 10
215.136322
 20
377.840659
 40
2.25
100
AcDbArc
 50
270.0
 51
355.815286
  0
ARC
  5
1E8
100
AcDbEntity
  8
M0
100
AcDbCircle
 10
190.586322
 20
371.340659
 40
1.0
100
AcDbArc
 50
180.0
 51
270.0
  0
ARC
  5
1E9
100
AcDbEntity
  8
M0
100
AcDbCircle
 10
147.586813
 20
447.890659
 40
0.3
100
AcDbArc
 50
270.0
 51
358.876481
  0
ARC
  5
1EA
100
AcDbEntity
  8
M0
100
AcDbCircle
 10
150.136322
 20
447.840659
 40
2.25
100
AcDbArc
 50
90.0
 51
178.876481
  0
ARC
  5
1EB
100
AcDbEntity
  8
M0
100
AcDbCircle
 10
152.636322
 20
447.840659
 40
2.25
100
AcDbArc
 50
270.0
 51
450.0
  0
ARC
  5
1EC
100
AcDbEntity
  8
M0
100
AcDbCircle
 10
164.386322
 20
458.840659
 40
0.5
100
AcDbArc
 50
0.0
 51
90.0
  0
ARC
  5
1ED
100
AcDbEntity
  8
M0
100
AcDbCircle
 10
192.786322
 20
387.940659
 40
0.5
100
AcDbArc
 50
0.0
 51
90.0
  0
ARC
  5
1EE
100
AcDbEntity
  8
M0
100
AcDbCircle
 10
148.636322
 20
445.340659
 40
2.25
100
AcDbArc
 50
272.401074
 51
358.876481
  0
ARC
  5
1EF
100
AcDbEntity
  8
M0
100
AcDbCircle
 10
212.636322
 20
377.840659
 40
2.25
100
AcDbArc
 50
90.0
 51
270.0
  0
ARC
  5
1F0
100
AcDbEntity
  8
M0
100
AcDbCircle
 10
172.486322
 20
387.940659
 40
0.5
100
AcDbArc
 50
90.0
 51
180.0
  0
ARC
  5
1F1
100
AcDbEntity
  8
M0
100
AcDbCircle
 10
175.186322
 20
387.940659
 40
0.5
100
AcDbArc
 50
0.0
 51
90.0
  0
LINE
  5
1F2
100
AcDbEntity
  8
M0
100
AcDbLine
 10
211.086322
 20
454.340658
 11
218.086323
 21
454.340658
  0
LINE
  5
1F3
100
AcDbEntity
  8
M0
100
AcDbLine
 10
221.086321
 20
389.040659
 11
221.586322
 21
384.04066
  0
LINE
  5
1F4
100
AcDbEntity
  8
M0
100
AcDbLine
 10
155.386323
 20
373.340658
 11
154.736323
 21
373.340658
  0
LINE
  5
1F5
100
AcDbEntity
  8
M0
100
AcDbLine
 10
147.586813
 20
447.590659
 11
147.136321
 21
447.590659
  0
LINE
  5
1F6
100
AcDbEntity
  8
M0
100
AcDbLine
 10
152.636323
 20
450.09066
 11
150.136324
 21
450.09066
  0
LINE
  5
1F7
100
AcDbEntity
  8
M0
100
AcDbLine
 10
147.136321
 20
443.090659
 11
148.730585
 21
443.092635
  0
LINE
  5
1F8
100
AcDbEntity
  8
M0
100
AcDbLine
 10
154.236322
 20
373.840659
 11
154.236322
 21
374.34066
  0
LINE
  5
1F9
100
AcDbEntity
  8
M0
100
AcDbLine
 10
162.186323
 20
453.84066
 11
162.686322
 21
453.84066
  0
LINE
  5
1FA
100
AcDbEntity
  8
M0
100
AcDbLine
 10
155.386323
 20
374.34066
 11
154.236322
 21
374.34066
  0
LINE
  5
1FB
100
AcDbEntity
  8
M0
100
AcDbLine
 10
203.086322
 20
454.94066
 11
202.586323
 21
454.94066
  0
LINE
  5
1FC
100
AcDbEntity
  8
M0
100
AcDbLine
 10
162.186323
 20
456.140658
 11
162.686322
 21
456.140658
  0
LINE
  5
1FD
100
AcDbEntity
  8
M0
100
AcDbLine
 10
162.686322
 20
454.94066
 11
162.186323
 21
454.94066
  0
ARC
  5
1FE
100
AcDbEntity
  8
M0
100
AcDbCircle
 10
194.736322
 20
371.340659
 40
1.0
100
AcDbArc
 50
180.0
 51
270.0
  0
ARC
  5
1FF
100
AcDbEntity
  8
M0
100
AcDbCircle
 10
205.236322
 20
371.340659
 40
1.0
100
AcDbArc
 50
270.0
 51
360.0
  0
ARC
  5
200
100
AcDbEntity
  8
M0
100
AcDbCircle
 10
199.986322
 20
373.340659
 40
3.5
100
AcDbArc
 50
0.0
 51
58.997281
  0
ARC
  5
201
100
AcDbEntity
  8
M0
100
AcDbCircle
 10
192.586322
 20
457.140659
 40
0.5
100
AcDbArc
 50
0.0
 51
90.0
  0
ARC
  5
202
100
AcDbEntity
  8
M0
100
AcDbCircle
 10
165.286322
 20
373.340659
 40
3.5
100
AcDbArc
 50
91.94738
 51
121.002719
  0
ARC
  5
203
100
AcDbEntity
  8
M0
100
AcDbCircle
 10
165.286322
 20
373.340659
 40
3.5
100
AcDbArc
 50
121.002719
 51
180.0
  0
CIRCLE
  5
204
100
AcDbEntity
  8
M0
100
AcDbCircle
 10
182.636322
 20
453.140659
 40
3.1
  0
LINE
  5
205
100
AcDbEntity
  8
M0
100
AcDbLine
 10
151.185831
 20
445.590659
 11
152.636323
 21
445.590659
  0
ARC
  5
206
100
AcDbEntity
  8
M0
100
AcDbCircle
 10
199.986322
 20
373.340659
 40
3.5
100
AcDbArc
 50
58.997281
 51
88.05262
  0
ARC
  5
207
100
AcDbEntity
  8
M0
100
AcDbCircle
 10
145.186322
 20
386.490659
 40
1.0
100
AcDbArc
 50
180.0
 51
270.0
  0
ARC
  5
208
100
AcDbEntity
  8
M0
100
AcDbCircle
 10
172.686322
 20
457.140659
 40
0.5
100
AcDbArc
 50
90.0
 51
180.0
  0
ARC
  5
209
100
AcDbEntity
  8
M0
100
AcDbCircle
 10
165.286322
 20
373.340659
 40
3.5
100
AcDbArc
 50
0.0
 51
58.997281
  0
LINE
  5
20A
100
AcDbEntity
  8
M0
100
AcDbLine
 10
189.586322
 20
371.340661
 11
189.586322
 21
375.340658
  0
LINE
  5
20B
100
AcDbEntity
  8
M0
100
AcDbLine
 10
189.586322
 20
375.340658
 11
189.586322
 21
387.940659
  0
LINE
  5
20C
100
AcDbEntity
  8
M0
100
AcDbLine
 10
190.586323
 20
388.44066
 11
192.286323
 21
388.44066
  0
LINE
  5
20D
100
AcDbEntity
  8
M0
100
AcDbLine
 10
203.486323
 20
371.340661
 11
203.486323
 21
373.340658
  0
LINE
  5
20E
100
AcDbEntity
  8
M0
100
AcDbLine
 10
170.536322
 20
370.340659
 11
147.186322
 21
370.340659
  0
LINE
  5
20F
100
AcDbEntity
  8
M0
100
AcDbLine
 10
168.786323
 20
373.340658
 11
168.786323
 21
371.340661
  0
LINE
  5
210
100
AcDbEntity
  8
M0
100
AcDbLine
 10
144.186324
 20
439.190659
 11
144.186324
 21
373.340659
  0
ARC
  5
211
100
AcDbEntity
  8
M0
100
AcDbCircle
 10
147.136322
 20
445.340659
 40
2.25
100
AcDbArc
 50
90.0
 51
270.0
  0
LINE
  5
212
100
AcDbEntity
  8
M0
100
AcDbLine
 10
145.186322
 20
385.49066
 11
145.986324
 21
385.49066
  0
LINE
  5
213
100
AcDbEntity
  8
M0
100
AcDbLine
 10
201.789098
 20
376.34066
 11
202.236323
 21
376.34066
  0
LINE
  5
214
100
AcDbEntity
  8
M0
100
AcDbLine
 10
160.186322
 20
449.340659
 11
160.186322
 21
458.340658
  0
LINE
  5
215
100
AcDbEntity
  8
M0
100
AcDbLine
 10
163.483547
 20
376.34066
 11
163.036322
 21
376.34066
  0
LINE
  5
216
100
AcDbEntity
  8
M0
100
AcDbLine
 10
221.086321
 20
451.340659
 11
221.086321
 21
386.490659
  0
LINE
  5
217
100
AcDbEntity
  8
M0
100
AcDbLine
 10
146.686321
 20
454.340658
 11
154.186323
 21
454.340658
  0
LINE
  5
218
100
AcDbEntity
  8
M0
100
AcDbLine
 10
155.386323
 20
381.340659
 11
154.236322
 21
381.340659
  0
LINE
  5
219
100
AcDbEntity
  8
M0
100
AcDbLine
 10
205.086323
 20
450.840658
 11
207.186323
 21
450.840658
  0
LINE
  5
21A
100
AcDbEntity
  8
M0
100
AcDbLine
 10
158.086322
 20
450.840658
 11
160.186322
 21
450.840658
  0
LINE
  5
21B
100
AcDbEntity
  8
M0
100
AcDbLine
 10
203.086322
 20
453.84066
 11
202.586323
 21
453.84066
  0
LINE
  5
21C
100
AcDbEntity
  8
M0
100
AcDbLine
 10
172.986322
 20
370.340659
 11
173.486318
 21
370.340659
  0
LINE
  5
21D
100
AcDbEntity
  8
M0
100
AcDbLine
 10
173.486318
 20
370.340659
 11
174.686322
 21
370.340659
  0
LINE
  5
21E
100
AcDbEntity
  8
M0
100
AcDbLine
 10
143.686322
 20
441.640659
 11
143.686322
 21
451.340659
  0
LINE
  5
21F
100
AcDbEntity
  8
M0
100
AcDbLine
 10
154.236322
 20
375.340658
 11
155.386323
 21
375.340658
  0
LINE
  5
220
100
AcDbEntity
  8
M0
100
AcDbLine
 10
214.087812
 20
380.09066
 11
212.636322
 21
380.09066
  0
LINE
  5
221
100
AcDbEntity
  8
M0
100
AcDbLine
 10
209.886322
 20
417.540659
 11
209.886322
 21
414.240659
  0
LINE
  5
222
100
AcDbEntity
  8
M0
100
AcDbLine
 10
209.886322
 20
414.340659
 11
208.886322
 21
414.340659
  0
LINE
  5
223
100
AcDbEntity
  8
M0
100
AcDbLine
 10
209.386323
 20
420.040659
 11
208.886322
 21
420.040659
  0
LINE
  5
224
100
AcDbEntity
  8
M0
100
AcDbLine
 10
202.586323
 20
456.140658
 11
203.086322
 21
456.140658
  0
LINE
  5
225
100
AcDbEntity
  8
M0
100
AcDbLine
 10
176.136322
 20
399.840659
 11
174.136322
 21
399.840659
  0
LINE
  5
226
100
AcDbEntity
  8
M0
100
AcDbLine
 10
174.236323
 20
424.040659
 11
176.736322
 21
424.040659
  0
LINE
  5
227
100
AcDbEntity
  8
M0
100
AcDbLine
 10
208.886322
 20
417.340659
 11
209.886322
 21
417.340659
  0
LINE
  5
228
100
AcDbEntity
  8
M0
100
AcDbLine
 10
187.536323
 20
422.54066
 11
177.736322
 21
422.54066
  0
LINE
  5
229
100
AcDbEntity
  8
M0
100
AcDbLine
 10
155.386323
 20
414.340659
 11
156.386323
 21
414.340659
  0
LINE
  5
22A
100
AcDbEntity
  8
M0
100
AcDbLine
 10
208.886322
 20
414.340659
 11
208.886322
 21
411.340659
  0
LINE
  5
22B
100
AcDbEntity
  8
M0
100
AcDbLine
 10
156.386323
 20
420.040659
 11
155.886322
 21
420.040659
  0
LINE
  5
22C
100
AcDbEntity
  8
M0
100
AcDbLine
 10
155.386323
 20
417.540659
 11
155.386323
 21
414.340659
  0
ARC
  5
22D
100
AcDbEntity
  8
M0
100
AcDbCircle
 10
192.786322
 20
437.740659
 40
0.5
100
AcDbArc
 50
270.0
 51
360.0
  0
ARC
  5
22E
100
AcDbEntity
  8
M0
100
AcDbCircle
 10
190.086322
 20
437.740659
 40
0.5
100
AcDbArc
 50
180.0
 51
270.0
  0
ARC
  5
22F
100
AcDbEntity
  8
M0
100
AcDbCircle
 10
175.186322
 20
437.740659
 40
0.5
100
AcDbArc
 50
270.0
 51
360.0
  0
ARC
  5
230
100
AcDbEntity
  8
M0
100
AcDbCircle
 10
210.886322
 20
418.040659
 40
1.0
100
AcDbArc
 50
0.0
 51
90.0
  0
ARC
  5
231
100
AcDbEntity
  8
M0
100
AcDbCircle
 10
210.886322
 20
407.640659
 40
1.0
100
AcDbArc
 50
270.0
 51
360.0
  0
ARC
  5
232
100
AcDbEntity
  8
M0
100
AcDbCircle
 10
174.686322
 20
371.340659
 40
1.0
100
AcDbArc
 50
270.0
 51
360.0
  0
LINE
  5
233
100
AcDbEntity
  8
M0
100
AcDbLine
 10
203.086322
 20
457.840661
 11
202.086322
 21
457.840661
  0
LINE
  5
234
100
AcDbEntity
  8
M0
100
AcDbLine
 10
188.636323
 20
398.34066
 11
188.636323
 21
399.340659
  0
LINE
  5
235
100
AcDbEntity
  8
M0
100
AcDbLine
 10
203.086322
 20
450.840658
 11
202.586323
 21
450.840658
  0
CIRCLE
  5
236
100
AcDbEntity
  8
M0
100
AcDbCircle
 10
217.636322
 20
449.840659
 40
2.25
  0
CIRCLE
  5
237
100
AcDbEntity
  8
M0
100
AcDbCircle
 10
147.636322
 20
374.840659
 40
2.25
  0
ARC
  5
238
100
AcDbEntity
  8
M0
100
AcDbCircle
 10
154.386322
 20
418.040659
 40
1.0
100
AcDbArc
 50
90.0
 51
180.0
  0
LINE
  5
239
100
AcDbEntity
  8
M0
100
AcDbLine
 10
192.786322
 20
437.240659
 11
190.086322
 21
437.240659
  0
LINE
  5
23A
100
AcDbEntity
  8
M0
100
AcDbLine
 10
155.386323
 20
419.04066
 11
154.386323
 21
419.04066
  0
LINE
  5
23B
100
AcDbEntity
  8
M0
100
AcDbLine
 10
212.636322
 20
375.590658
 11
215.136321
 21
375.590658
  0
LINE
  5
23C
100
AcDbEntity
  8
M0
100
AcDbLine
 10
180.386323
 20
417.609613
 11
177.836323
 21
417.609613
  0
LINE
  5
23D
100
AcDbEntity
  8
M0
100
AcDbLine
 10
171.986323
 20
449.340659
 11
158.086322
 21
449.340659
  0
LINE
  5
23E
100
AcDbEntity
  8
M0
100
AcDbLine
 10
187.436322
 20
417.609613
 11
184.886322
 21
417.609613
  0
LINE
  5
23F
100
AcDbEntity
  8
M0
100
AcDbLine
 10
146.986322
 20
388.040659
 11
147.886323
 21
388.040659
  0
ARC
  5
240
100
AcDbEntity
  8
M0
100
AcDbCircle
 10
217.636322
 20
402.69066
 40
0.5
100
AcDbArc
 50
0.0
 51
90.0
  0
LINE
  5
241
100
AcDbEntity
  8
M0
100
AcDbLine
 10
174.686322
 20
388.44066
 11
172.986322
 21
388.44066
  0
LINE
  5
242
100
AcDbEntity
  8
M0
100
AcDbLine
 10
175.186323
 20
388.44066
 11
174.686322
 21
388.44066
  0
LINE
  5
243
100
AcDbEntity
  8
M0
100
AcDbLine
 10
172.986322
 20
388.44066
 11
172.486322
 21
388.44066
  0
LINE
  5
244
100
AcDbEntity
  8
M0
100
AcDbLine
 10
209.886322
 20
419.04066
 11
210.886322
 21
419.04066
  0
LINE
  5
245
100
AcDbEntity
  8
M0
100
AcDbLine
 10
177.736322
 20
423.04066
 11
177.736322
 21
422.54066
  0
LINE
  5
246
100
AcDbEntity
  8
M0
100
AcDbLine
 10
208.886322
 20
411.340659
 11
209.886322
 21
411.340659
  0
LINE
  5
247
100
AcDbEntity
  8
M0
100
AcDbLine
 10
156.386323
 20
414.340659
 11
156.386323
 21
411.340659
  0
LINE
  5
248
100
AcDbEntity
  8
M0
100
AcDbLine
 10
177.736322
 20
423.04066
 11
187.536323
 21
423.04066
  0
LINE
  5
249
100
AcDbEntity
  8
M0
100
AcDbLine
 10
209.886322
 20
411.440659
 11
209.886322
 21
408.140659
  0
LINE
  5
24A
100
AcDbEntity
  8
M0
100
AcDbLine
 10
156.386323
 20
408.34066
 11
156.386323
 21
405.640659
  0
LINE
  5
24B
100
AcDbEntity
  8
M0
100
AcDbLine
 10
156.386323
 20
417.340659
 11
155.386323
 21
417.340659
  0
LINE
  5
24C
100
AcDbEntity
  8
M0
100
AcDbLine
 10
208.886322
 20
420.040659
 11
208.886322
 21
417.340659
  0
LINE
  5
24D
100
AcDbEntity
  8
M0
100
AcDbLine
 10
208.886322
 20
408.34066
 11
208.886322
 21
405.640659
  0
LINE
  5
24E
100
AcDbEntity
  8
M0
100
AcDbLine
 10
155.386323
 20
411.340659
 11
155.386323
 21
408.140659
  0
LINE
  5
24F
100
AcDbEntity
  8
M0
100
AcDbLine
 10
209.886322
 20
408.34066
 11
208.886322
 21
408.34066
  0
LINE
  5
250
100
AcDbEntity
  8
M0
100
AcDbLine
 10
154.386323
 20
411.440659
 11
156.086322
 21
411.440659
  0
LINE
  5
251
100
AcDbEntity
  8
M0
100
AcDbLine
 10
158.086322
 20
389.940659
 11
157.086322
 21
389.940659
  0
LINE
  5
252
100
AcDbEntity
  8
M0
100
AcDbLine
 10
153.386323
 20
418.040659
 11
153.386323
 21
407.640659
  0
LINE
  5
253
100
AcDbEntity
  8
M0
100
AcDbLine
 10
158.086322
 20
375.340658
 11
158.086322
 21
389.940659
  0
LINE
  5
254
100
AcDbEntity
  8
M0
100
AcDbLine
 10
211.886322
 20
418.040659
 11
211.886322
 21
407.640659
  0
LINE
  5
255
100
AcDbEntity
  8
M0
100
AcDbLine
 10
154.386323
 20
406.640659
 11
155.386323
 21
406.640659
  0
LINE
  5
256
100
AcDbEntity
  8
M0
100
AcDbLine
 10
219.386322
 20
385.49066
 11
219.286321
 21
385.49066
  0
LINE
  5
257
100
AcDbEntity
  8
M0
100
AcDbLine
 10
144.186324
 20
436.64066
 11
143.686322
 21
441.640659
  0
LINE
  5
258
100
AcDbEntity
  8
M0
100
AcDbLine
 10
211.386323
 20
388.040659
 11
210.486323
 21
388.040659
  0
LINE
  5
259
100
AcDbEntity
  8
M0
100
AcDbLine
 10
156.086322
 20
414.240659
 11
154.386323
 21
414.240659
  0
LINE
  5
25A
100
AcDbEntity
  8
M0
100
AcDbLine
 10
218.286322
 20
388.040659
 11
217.386322
 21
388.040659
  0
LINE
  5
25B
100
AcDbEntity
  8
M0
100
AcDbLine
 10
155.386323
 20
411.440659
 11
155.386323
 21
411.340659
  0
LINE
  5
25C
100
AcDbEntity
  8
M0
100
AcDbLine
 10
193.286322
 20
387.940659
 11
193.286322
 21
375.340658
  0
LINE
  5
25D
100
AcDbEntity
  8
M0
100
AcDbLine
 10
192.286323
 20
388.44066
 11
192.786323
 21
388.44066
  0
LINE
  5
25E
100
AcDbEntity
  8
M0
100
AcDbLine
 10
207.186323
 20
375.340658
 11
207.186323
 21
389.940659
  0
ARC
  5
25F
100
AcDbEntity
  8
M0
100
AcDbCircle
 10
169.786322
 20
371.340659
 40
1.0
100
AcDbArc
 50
180.0
 51
270.0
  0
ARC
  5
260
100
AcDbEntity
  8
M0
100
AcDbCircle
 10
161.186322
 20
458.340659
 40
1.0
100
AcDbArc
 50
0.0
 51
90.0
  0
LINE
  5
261
100
AcDbEntity
  8
M0
100
AcDbLine
 10
154.236322
 20
381.340659
 11
154.236322
 21
375.340658
  0
LINE
  5
262
100
AcDbEntity
  8
M0
100
AcDbLine
 10
190.086322
 20
388.44066
 11
190.586323
 21
388.44066
  0
LINE
  5
263
100
AcDbEntity
  8
M0
100
AcDbLine
 10
155.386323
 20
414.240659
 11
155.386323
 21
414.340659
  0
LINE
  5
264
100
AcDbEntity
  8
M0
100
AcDbLine
 10
210.886322
 20
406.640659
 11
209.886322
 21
406.640659
  0
LINE
  5
265
100
AcDbEntity
  8
M0
100
AcDbLine
 10
154.386323
 20
417.540659
 11
154.386323
 21
408.140659
  0
LINE
  5
266
100
AcDbEntity
  8
M0
100
AcDbLine
 10
210.886322
 20
417.540659
 11
210.886322
 21
408.140659
  0
LINE
  5
267
100
AcDbEntity
  8
M0
100
AcDbLine
 10
207.186323
 20
389.940659
 11
208.186323
 21
389.940659
  0
ARC
  5
268
100
AcDbEntity
  8
M0
100
AcDbCircle
 10
174.236322
 20
402.640659
 40
1.0
100
AcDbArc
 50
180.0
 51
270.0
  0
ARC
  5
269
100
AcDbEntity
  8
M0
100
AcDbCircle
 10
208.886322
 20
434.540659
 40
1.0
100
AcDbArc
 50
0.0
 51
90.0
  0
ARC
  5
26A
100
AcDbEntity
  8
M0
100
AcDbCircle
 10
176.136322
 20
398.340659
 40
0.5
100
AcDbArc
 50
270.0
 51
360.0
  0
ARC
  5
26B
100
AcDbEntity
  8
M0
100
AcDbCircle
 10
191.136322
 20
398.340659
 40
0.5
100
AcDbArc
 50
270.0
 51
360.0
  0
ARC
  5
26C
100
AcDbEntity
  8
M0
100
AcDbCircle
 10
191.136322
 20
399.340659
 40
0.5
100
AcDbArc
 50
0.0
 51
90.0
  0
ARC
  5
26D
100
AcDbEntity
  8
M0
100
AcDbCircle
 10
176.136322
 20
399.340659
 40
0.5
100
AcDbArc
 50
0.0
 51
90.0
  0
ARC
  5
26E
100
AcDbEntity
  8
M0
100
AcDbCircle
 10
208.886322
 20
371.340659
 40
1.0
100
AcDbArc
 50
270.0
 51
360.0
  0
LINE
  5
26F
100
AcDbEntity
  8
M0
100
AcDbLine
 10
156.386323
 20
420.040659
 11
156.386323
 21
417.340659
  0
ARC
  5
270
100
AcDbEntity
  8
M0
100
AcDbCircle
 10
180.386322
 20
417.109613
 40
0.5
100
AcDbArc
 50
0.0
 51
90.0
  0
ARC
  5
271
100
AcDbEntity
  8
M0
100
AcDbCircle
 10
174.236322
 20
423.040659
 40
1.0
100
AcDbArc
 50
90.0
 51
180.0
  0
ARC
  5
272
100
AcDbEntity
  8
M0
100
AcDbCircle
 10
184.886322
 20
417.109613
 40
0.5
100
AcDbArc
 50
90.0
 51
180.0
  0
ARC
  5
273
100
AcDbEntity
  8
M0
100
AcDbCircle
 10
191.036322
 20
423.040659
 40
1.0
100
AcDbArc
 50
0.0
 51
90.0
  0
LINE
  5
274
100
AcDbEntity
  8
M0
100
AcDbLine
 10
154.236322
 20
372.340659
 11
154.236322
 21
373.840659
  0
LINE
  5
275
100
AcDbEntity
  8
M0
100
AcDbLine
 10
154.786322
 20
437.64066
 11
153.886322
 21
437.64066
  0
LINE
  5
276
100
AcDbEntity
  8
M0
100
AcDbLine
 10
155.386323
 20
371.840658
 11
154.736323
 21
371.840658
  0
LINE
  5
277
100
AcDbEntity
  8
M0
100
AcDbLine
 10
207.186323
 20
373.340658
 11
206.236323
 21
373.340658
  0
LINE
  5
278
100
AcDbEntity
  8
M0
100
AcDbLine
 10
207.186323
 20
374.34066
 11
206.236323
 21
374.34066
  0
LINE
  5
279
100
AcDbEntity
  8
M0
100
AcDbLine
 10
207.186323
 20
371.840658
 11
206.236323
 21
371.840658
  0
ARC
  5
27A
100
AcDbEntity
  8
M0
100
AcDbCircle
 10
189.136322
 20
399.340659
 40
0.5
100
AcDbArc
 50
90.0
 51
180.0
  0
ARC
  5
27B
100
AcDbEntity
  8
M0
100
AcDbCircle
 10
174.136322
 20
398.340659
 40
0.5
100
AcDbArc
 50
180.0
 51
270.0
  0
ARC
  5
27C
100
AcDbEntity
  8
M0
100
AcDbCircle
 10
189.136322
 20
398.340659
 40
0.5
100
AcDbArc
 50
180.0
 51
270.0
  0
ARC
  5
27D
100
AcDbEntity
  8
M0
100
AcDbCircle
 10
174.136322
 20
399.340659
 40
0.5
100
AcDbArc
 50
90.0
 51
180.0
  0
ARC
  5
27E
100
AcDbEntity
  8
M0
100
AcDbCircle
 10
191.036322
 20
402.640659
 40
1.0
100
AcDbArc
 50
270.0
 51
360.0
  0
LINE
  5
27F
100
AcDbEntity
  8
M0
100
AcDbLine
 10
153.886322
 20
388.040659
 11
154.786322
 21
388.040659
  0
ARC
  5
280
100
AcDbEntity
  8
M0
100
AcDbCircle
 10
174.436322
 20
422.840659
 40
1.0
100
AcDbArc
 50
90.0
 51
180.0
  0
ARC
  5
281
100
AcDbEntity
  8
M0
100
AcDbCircle
 10
177.086322
 20
418.840659
 40
0.5
100
AcDbArc
 50
270.0
 51
360.0
  0
ARC
  5
282
100
AcDbEntity
  8
M0
100
AcDbCircle
 10
156.386322
 20
391.140659
 40
1.0
100
AcDbArc
 50
180.0
 51
270.0
  0
ARC
  5
283
100
AcDbEntity
  8
M0
100
AcDbCircle
 10
209.386322
 20
405.140659
 40
0.5
100
AcDbArc
 50
0.0
 51
90.0
  0
ARC
  5
284
100
AcDbEntity
  8
M0
100
AcDbCircle
 10
174.436322
 20
405.340659
 40
1.0
100
AcDbArc
 50
90.0
 51
180.0
  0
LINE
  5
285
100
AcDbEntity
  8
M0
  6
DASHDOT
100
AcDbLine
 10
164.536322
 20
383.340659
 11
165.536322
 21
383.340659
  0
ARC
  5
286
100
AcDbEntity
  8
M0
100
AcDbCircle
 10
208.886322
 20
391.140659
 40
1.0
100
AcDbArc
 50
270.0
 51
360.0
  0
ARC
  5
287
100
AcDbEntity
  8
M0
100
AcDbCircle
 10
189.186322
 20
402.840659
 40
1.0
100
AcDbArc
 50
180.0
 51
270.0
  0
ARC
  5
288
100
AcDbEntity
  8
M0
100
AcDbCircle
 10
190.836322
 20
402.840659
 40
1.0
100
AcDbArc
 50
270.0
 51
360.0
  0
ARC
  5
289
100
AcDbEntity
  8
M0
100
AcDbCircle
 10
155.886322
 20
405.140659
 40
0.5
100
AcDbArc
 50
90.0
 51
180.0
  0
ARC
  5
28A
100
AcDbEntity
  8
M0
100
AcDbCircle
 10
174.436322
 20
402.840659
 40
1.0
100
AcDbArc
 50
180.0
 51
270.0
  0
ARC
  5
28B
100
AcDbEntity
  8
M0
100
AcDbCircle
 10
190.836322
 20
422.840659
 40
1.0
100
AcDbArc
 50
0.0
 51
90.0
  0
LINE
  5
28C
100
AcDbEntity
  8
M0
  6
DASHDOT
100
AcDbLine
 10
182.636322
 20
442.840659
 11
182.636322
 21
441.840659
  0
LINE
  5
28D
100
AcDbEntity
  8
M0
  6
DASHDOT
100
AcDbLine
 10
182.136322
 20
442.340659
 11
183.136322
 21
442.340659
  0
LINE
  5
28E
100
AcDbEntity
  8
M0
  6
DASHDOT
100
AcDbLine
 10
200.236322
 20
442.840659
 11
200.236322
 21
441.840659
  0
LINE
  5
28F
100
AcDbEntity
  8
M0
  6
DASHDOT
100
AcDbLine
 10
199.736322
 20
442.340659
 11
200.736322
 21
442.340659
  0
LINE
  5
290
100
AcDbEntity
  8
M0
  6
DASHDOT
100
AcDbLine
 10
165.036322
 20
442.840659
 11
165.036322
 21
441.840659
  0
LINE
  5
291
100
AcDbEntity
  8
M0
  6
DASHDOT
100
AcDbLine
 10
164.536322
 20
442.340659
 11
165.536322
 21
442.340659
  0
LINE
  5
292
100
AcDbEntity
  8
M0
  6
DASHDOT
100
AcDbLine
 10
199.736322
 20
383.340659
 11
200.736322
 21
383.340659
  0
LINE
  5
293
100
AcDbEntity
  8
M0
  6
DASHDOT
100
AcDbLine
 10
165.036322
 20
382.840659
 11
165.036322
 21
383.840659
  0
LINE
  5
294
100
AcDbEntity
  8
M0
  6
DASHDOT
100
AcDbLine
 10
200.236322
 20
382.840659
 11
200.236322
 21
383.840659
  0
LINE
  5
295
100
AcDbEntity
  8
M0
  6
DASHDOT
100
AcDbLine
 10
182.636322
 20
382.840659
 11
182.636322
 21
383.840659
  0
LINE
  5
296
100
AcDbEntity
  8
M0
  6
DASHDOT
100
AcDbLine
 10
182.136322
 20
383.340659
 11
183.136322
 21
383.340659
  0
LINE
  5
297
100
AcDbEntity
  8
M0
100
AcDbLine
 10
154.636322
 20
429.49066
 11
154.636322
 21
422.99066
  0
LINE
  5
298
100
AcDbEntity
  8
M0
100
AcDbLine
 10
193.286322
 20
435.54066
 11
193.286322
 21
457.840661
  0
LINE
  5
299
100
AcDbEntity
  8
M0
100
AcDbLine
 10
200.186323
 20
458.840659
 11
200.186323
 21
457.840661
  0
LINE
  5
29A
100
AcDbEntity
  8
M0
100
AcDbLine
 10
162.386322
 20
449.340659
 11
162.386322
 21
450.340661
  0
LINE
  5
29B
100
AcDbEntity
  8
M0
100
AcDbLine
 10
165.086322
 20
457.840661
 11
165.086322
 21
458.840659
  0
LINE
  5
29C
100
AcDbEntity
  8
M0
100
AcDbLine
 10
170.486323
 20
449.340659
 11
170.486323
 21
458.340658
  0
LINE
  5
29D
100
AcDbEntity
  8
M0
100
AcDbLine
 10
147.886323
 20
438.64066
 11
153.886322
 21
438.64066
  0
LINE
  5
29E
100
AcDbEntity
  8
M0
100
AcDbLine
 10
218.286322
 20
430.04066
 11
210.486323
 21
430.04066
  0
LINE
  5
29F
100
AcDbEntity
  8
M0
100
AcDbLine
 10
161.186322
 20
459.34066
 11
204.086322
 21
459.34066
  0
LINE
  5
2A0
100
AcDbEntity
  8
M0
100
AcDbLine
 10
193.286322
 20
457.840661
 11
171.986323
 21
457.840661
  0
LINE
  5
2A1
100
AcDbEntity
  8
M0
100
AcDbLine
 10
153.886322
 20
387.040658
 11
147.886323
 21
387.040658
  0
LINE
  5
2A2
100
AcDbEntity
  8
M0
100
AcDbLine
 10
154.786322
 20
430.04066
 11
146.986322
 21
430.04066
  0
LINE
  5
2A3
100
AcDbEntity
  8
M0
100
AcDbLine
 10
189.336322
 20
423.840659
 11
190.836322
 21
423.840659
  0
ARC
  5
2A4
100
AcDbEntity
  8
M0
100
AcDbCircle
 10
216.636322
 20
380.340659
 40
2.25
100
AcDbArc
 50
89.957854
 51
177.916058
  0
ARC
  5
2A5
100
AcDbEntity
  8
M0
100
AcDbCircle
 10
218.586322
 20
373.340659
 40
3.0
100
AcDbArc
 50
270.0
 51
360.0
  0
ARC
  5
2A6
100
AcDbEntity
  8
M0
100
AcDbCircle
 10
147.186322
 20
373.340659
 40
3.0
100
AcDbArc
 50
180.0
 51
270.0
  0
ARC
  5
2A7
100
AcDbEntity
  8
M0
100
AcDbCircle
 10
214.087811
 20
380.390659
 40
0.3
100
AcDbArc
 50
270.0
 51
360.0
  0
ARC
  5
2A8
100
AcDbEntity
  8
M0
100
AcDbCircle
 10
145.986322
 20
431.940659
 40
1.0
100
AcDbArc
 50
0.0
 51
90.0
  0
ARC
  5
2A9
100
AcDbEntity
  8
M0
100
AcDbCircle
 10
176.086322
 20
402.840659
 40
1.0
100
AcDbArc
 50
270.0
 51
360.0
  0
LINE
  5
2AA
100
AcDbEntity
  8
M0
100
AcDbLine
 10
147.886323
 20
437.590659
 11
147.886323
 21
438.64066
  0
LINE
  5
2AB
100
AcDbEntity
  8
M0
100
AcDbLine
 10
153.886322
 20
438.64066
 11
153.886322
 21
437.590659
  0
LINE
  5
2AC
100
AcDbEntity
  8
M0
100
AcDbLine
 10
211.386323
 20
438.64066
 11
217.386322
 21
438.64066
  0
LINE
  5
2AD
100
AcDbEntity
  8
M0
100
AcDbLine
 10
147.138828
 20
437.140659
 11
146.986322
 21
437.140659
  0
LINE
  5
2AE
100
AcDbEntity
  8
M0
100
AcDbLine
 10
217.386322
 20
438.64066
 11
217.386322
 21
437.590659
  0
LINE
  5
2AF
100
AcDbEntity
  8
M0
100
AcDbLine
 10
152.476905
 20
397.850016
 11
149.295265
 21
401.031779
  0
LINE
  5
2B0
100
AcDbEntity
  8
M0
100
AcDbLine
 10
151.2396
 20
400.855021
 11
149.472022
 21
399.087321
  0
LINE
  5
2B1
100
AcDbEntity
  8
M0
100
AcDbLine
 10
215.800149
 20
434.194352
 11
214.032571
 21
432.426774
  0
LINE
  5
2B2
100
AcDbEntity
  8
M0
100
AcDbLine
 10
214.739602
 20
435.255021
 11
212.972024
 21
433.487321
  0
LINE
  5
2B3
100
AcDbEntity
  8
M0
100
AcDbLine
 10
215.976907
 20
432.250016
 11
212.795267
 21
435.431779
  0
LINE
  5
2B4
100
AcDbEntity
  8
M0
100
AcDbLine
 10
215.976907
 20
424.650016
 11
212.795267
 21
427.831779
  0
LINE
  5
2B5
100
AcDbEntity
  8
M0
100
AcDbLine
 10
152.476905
 20
424.650016
 11
149.295265
 21
427.831779
  0
LINE
  5
2B6
100
AcDbEntity
  8
M0
100
AcDbLine
 10
152.300147
 20
426.594352
 11
150.532569
 21
424.826774
  0
LINE
  5
2B7
100
AcDbEntity
  8
M0
100
AcDbLine
 10
151.2396
 20
393.255021
 11
149.472022
 21
391.48732
  0
LINE
  5
2B8
100
AcDbEntity
  8
M0
100
AcDbLine
 10
152.476905
 20
390.250016
 11
149.295265
 21
393.431778
  0
LINE
  5
2B9
100
AcDbEntity
  8
M0
100
AcDbLine
 10
152.300147
 20
392.194352
 11
150.532569
 21
390.426774
  0
LINE
  5
2BA
100
AcDbEntity
  8
M0
100
AcDbLine
 10
152.300147
 20
399.794352
 11
150.532569
 21
398.026774
  0
CIRCLE
  5
2BB
100
AcDbEntity
  8
M0
100
AcDbCircle
 10
150.886321
 20
433.840661
 40
3.0
  0
CIRCLE
  5
2BC
100
AcDbEntity
  8
M0
100
AcDbCircle
 10
198.586319
 20
453.440663
 40
3.0
  0
CIRCLE
  5
2BD
100
AcDbEntity
  8
M0
100
AcDbCircle
 10
150.886321
 20
426.240661
 40
3.0
  0
CIRCLE
  5
2BE
100
AcDbEntity
  8
M0
100
AcDbCircle
 10
150.886321
 20
391.840658
 40
3.0
  0
CIRCLE
  5
2BF
100
AcDbEntity
  8
M0
100
AcDbCircle
 10
150.886321
 20
399.440658
 40
3.0
  0
CIRCLE
  5
2C0
100
AcDbEntity
  8
M0
100
AcDbCircle
 10
214.386323
 20
433.840661
 40
3.0
  0
LINE
  5
2C1
100
AcDbEntity
  8
M0
100
AcDbLine
 10
215.800149
 20
426.594352
 11
214.032571
 21
424.826774
  0
LINE
  5
2C2
100
AcDbEntity
  8
M0
100
AcDbLine
 10
214.739602
 20
427.655021
 11
212.972024
 21
425.887321
  0
CIRCLE
  5
2C3
100
AcDbEntity
  8
M0
100
AcDbCircle
 10
165.036322
 20
442.34069
 40
4.499996
  0
CIRCLE
  5
2C4
100
AcDbEntity
  8
M0
100
AcDbCircle
 10
200.236322
 20
442.34069
 40
4.499996
  0
CIRCLE
  5
2C5
100
AcDbEntity
  8
M0
100
AcDbCircle
 10
182.636322
 20
442.34069
 40
4.499996
  0
CIRCLE
  5
2C6
100
AcDbEntity
  8
M0
100
AcDbCircle
 10
166.686322
 20
453.440659
 40
3.0
  0
LINE
  5
2C7
100
AcDbEntity
  8
M0
100
AcDbLine
 10
184.517426
 20
442.807609
 11
182.169449
 21
440.459617
  0
LINE
  5
2C8
100
AcDbEntity
  8
M0
100
AcDbLine
 10
183.103226
 20
444.221824
 11
180.755249
 21
441.873832
  0
LINE
  5
2C9
100
AcDbEntity
  8
M0
100
AcDbLine
 10
180.567368
 20
444.409599
 11
184.830338
 21
440.14666
  0
LINE
  5
2CA
100
AcDbEntity
  8
M0
100
AcDbLine
 10
202.117426
 20
442.807609
 11
199.769449
 21
440.459617
  0
LINE
  5
2CB
100
AcDbEntity
  8
M0
100
AcDbLine
 10
200.703226
 20
444.221824
 11
198.355249
 21
441.873832
  0
LINE
  5
2CC
100
AcDbEntity
  8
M0
100
AcDbLine
 10
198.167368
 20
444.409599
 11
202.430338
 21
440.14666
  0
LINE
  5
2CD
100
AcDbEntity
  8
M0
100
AcDbLine
 10
203.086322
 20
449.340659
 11
203.086322
 21
458.340659
  0
LINE
  5
2CE
100
AcDbEntity
  8
M0
100
AcDbLine
 10
211.386323
 20
437.590659
 11
211.386323
 21
438.64066
  0
LINE
  5
2CF
100
AcDbEntity
  8
M0
100
AcDbLine
 10
205.086323
 20
449.340659
 11
205.086323
 21
458.340658
  0
LINE
  5
2D0
100
AcDbEntity
  8
M0
100
AcDbLine
 10
166.917426
 20
442.807609
 11
164.569449
 21
440.459617
  0
LINE
  5
2D1
100
AcDbEntity
  8
M0
100
AcDbLine
 10
165.503226
 20
444.221824
 11
163.155249
 21
441.873832
  0
LINE
  5
2D2
100
AcDbEntity
  8
M0
100
AcDbLine
 10
162.967368
 20
444.409599
 11
167.230338
 21
440.14666
  0
LINE
  5
2D3
100
AcDbEntity
  8
M0
100
AcDbLine
 10
200.176903
 20
451.850018
 11
196.995263
 21
455.031781
  0
LINE
  5
2D4
100
AcDbEntity
  8
M0
100
AcDbLine
 10
200.000145
 20
453.794354
 11
198.232567
 21
452.026776
  0
LINE
  5
2D5
100
AcDbEntity
  8
M0
100
AcDbLine
 10
151.2396
 20
435.255021
 11
149.472022
 21
433.487321
  0
LINE
  5
2D6
100
AcDbEntity
  8
M0
100
AcDbLine
 10
152.476905
 20
432.250016
 11
149.295265
 21
435.431779
  0
LINE
  5
2D7
100
AcDbEntity
  8
M0
100
AcDbLine
 10
152.300147
 20
434.194352
 11
150.532569
 21
432.426774
  0
LINE
  5
2D8
100
AcDbEntity
  8
M0
100
AcDbLine
 10
151.2396
 20
427.655021
 11
149.472022
 21
425.887321
  0
LINE
  5
2D9
100
AcDbEntity
  8
M0
100
AcDbLine
 10
168.100148
 20
453.79435
 11
166.33257
 21
452.026772
  0
LINE
  5
2DA
100
AcDbEntity
  8
M0
100
AcDbLine
 10
167.039602
 20
454.855019
 11
165.272023
 21
453.087319
  0
LINE
  5
2DB
100
AcDbEntity
  8
M0
100
AcDbLine
 10
168.276906
 20
451.850015
 11
165.095266
 21
455.031777
  0
LINE
  5
2DC
100
AcDbEntity
  8
M0
  6
DASHDOT
100
AcDbLine
 10
150.886323
 20
433.340659
 11
150.886323
 21
434.340659
  0
LINE
  5
2DD
100
AcDbEntity
  8
M0
  6
DASHDOT
100
AcDbLine
 10
150.386323
 20
433.840659
 11
151.386323
 21
433.840659
  0
LINE
  5
2DE
100
AcDbEntity
  8
M0
100
AcDbLine
 10
211.386323
 20
387.040658
 11
211.386323
 21
388.090659
  0
LINE
  5
2DF
100
AcDbEntity
  8
M0
100
AcDbLine
 10
177.336323
 20
408.548128
 11
177.336323
 21
408.140659
  0
LINE
  5
2E0
100
AcDbEntity
  8
M0
100
AcDbLine
 10
177.836322
 20
407.640659
 11
177.086323
 21
407.640659
  0
LINE
  5
2E1
100
AcDbEntity
  8
M0
100
AcDbLine
 10
186.786322
 20
418.040659
 11
186.786322
 21
418.340659
  0
LINE
  5
2E2
100
AcDbEntity
  8
M0
100
AcDbLine
 10
187.936322
 20
408.548128
 11
187.936322
 21
408.140659
  0
LINE
  5
2E3
100
AcDbEntity
  8
M0
100
AcDbLine
 10
177.086323
 20
418.040659
 11
188.186322
 21
418.040659
  0
LINE
  5
2E4
100
AcDbEntity
  8
M0
100
AcDbLine
 10
217.386322
 20
388.090659
 11
217.386322
 21
387.040658
  0
LINE
  5
2E5
100
AcDbEntity
  8
M0
100
AcDbLine
 10
217.386322
 20
387.040658
 11
211.386323
 21
387.040658
  0
LINE
  5
2E6
100
AcDbEntity
  8
M0
100
AcDbLine
 10
210.486323
 20
388.54066
 11
210.638829
 21
388.54066
  0
LINE
  5
2E7
100
AcDbEntity
  8
M0
100
AcDbLine
 10
184.386323
 20
417.088165
 11
184.386323
 21
417.109613
  0
LINE
  5
2E8
100
AcDbEntity
  8
M0
100
AcDbLine
 10
180.886322
 20
417.088165
 11
180.886322
 21
417.109613
  0
LINE
  5
2E9
100
AcDbEntity
  8
M0
100
AcDbLine
 10
177.336323
 20
417.109613
 11
177.336323
 21
417.088165
  0
LINE
  5
2EA
100
AcDbEntity
  8
M0
100
AcDbLine
 10
202.236323
 20
376.34066
 11
207.186323
 21
376.34066
  0
LINE
  5
2EB
100
AcDbEntity
  8
M0
100
AcDbLine
 10
198.236322
 20
449.340659
 11
193.286322
 21
449.340659
  0
LINE
  5
2EC
100
AcDbEntity
  8
M0
100
AcDbLine
 10
184.636323
 20
376.34066
 11
189.586322
 21
376.34066
  0
ARC
  5
2ED
100
AcDbEntity
  8
M0
100
AcDbCircle
 10
220.086322
 20
393.740659
 40
1.0
100
AcDbArc
 50
270.0
 51
360.0
  0
ARC
  5
2EE
100
AcDbEntity
  8
M0
100
AcDbCircle
 10
145.986322
 20
408.140659
 40
1.0
100
AcDbArc
 50
0.0
 51
90.0
  0
ARC
  5
2EF
100
AcDbEntity
  8
M0
100
AcDbCircle
 10
219.286322
 20
393.740659
 40
1.0
100
AcDbArc
 50
180.0
 51
270.0
  0
LINE
  5
2F0
100
AcDbEntity
  8
M0
100
AcDbLine
 10
193.286322
 20
446.040659
 11
193.286322
 21
448.840658
  0
LINE
  5
2F1
100
AcDbEntity
  8
M0
100
AcDbLine
 10
177.836322
 20
407.640659
 11
187.436323
 21
407.640659
  0
LINE
  5
2F2
100
AcDbEntity
  8
M0
100
AcDbLine
 10
178.486323
 20
418.040659
 11
178.486323
 21
418.340659
  0
LINE
  5
2F3
100
AcDbEntity
  8
M0
100
AcDbLine
 10
167.036323
 20
376.34066
 11
171.986323
 21
376.34066
  0
LINE
  5
2F4
100
AcDbEntity
  8
M0
100
AcDbLine
 10
165.736323
 20
374.540659
 11
164.836323
 21
374.540659
  0
LINE
  5
2F5
100
AcDbEntity
  8
M0
100
AcDbLine
 10
186.786322
 20
407.140659
 11
186.786322
 21
407.640659
  0
LINE
  5
2F6
100
AcDbEntity
  8
M0
100
AcDbLine
 10
165.736323
 20
373.790658
 11
166.873774
 21
373.790658
  0
LINE
  5
2F7
100
AcDbEntity
  8
M0
100
AcDbLine
 10
164.836323
 20
372.890661
 11
163.698873
 21
372.890661
  0
LINE
  5
2F8
100
AcDbEntity
  8
M0
100
AcDbLine
 10
165.736323
 20
373.790658
 11
165.736323
 21
374.540659
  0
LINE
  5
2F9
100
AcDbEntity
  8
M0
100
AcDbLine
 10
162.674809
 20
372.890661
 11
163.698873
 21
372.890661
  0
LINE
  5
2FA
100
AcDbEntity
  8
M0
100
AcDbLine
 10
166.873774
 20
372.890661
 11
167.897835
 21
372.890661
  0
LINE
  5
2FB
100
AcDbEntity
  8
M0
100
AcDbLine
 10
166.873774
 20
372.890661
 11
165.736323
 21
372.890661
  0
LINE
  5
2FC
100
AcDbEntity
  8
M0
100
AcDbLine
 10
193.286322
 20
373.340658
 11
193.286322
 21
371.340661
  0
LINE
  5
2FD
100
AcDbEntity
  8
M0
100
AcDbLine
 10
158.086322
 20
371.340661
 11
158.086322
 21
373.340658
  0
LINE
  5
2FE
100
AcDbEntity
  8
M0
100
AcDbLine
 10
167.897835
 20
373.790658
 11
166.873774
 21
373.790658
  0
LINE
  5
2FF
100
AcDbEntity
  8
M0
100
AcDbLine
 10
164.836323
 20
374.540659
 11
164.836323
 21
373.790658
  0
LINE
  5
300
100
AcDbEntity
  8
M0
100
AcDbLine
 10
164.836323
 20
372.14066
 11
165.736323
 21
372.14066
  0
LINE
  5
301
100
AcDbEntity
  8
M0
100
AcDbLine
 10
163.698873
 20
373.790658
 11
162.674809
 21
373.790658
  0
LINE
  5
302
100
AcDbEntity
  8
M0
100
AcDbLine
 10
200.436322
 20
373.790658
 11
200.436322
 21
374.540659
  0
LINE
  5
303
100
AcDbEntity
  8
M0
100
AcDbLine
 10
197.37481
 20
372.890661
 11
198.398871
 21
372.890661
  0
LINE
  5
304
100
AcDbEntity
  8
M0
100
AcDbLine
 10
198.398871
 20
373.790658
 11
197.37481
 21
373.790658
  0
LINE
  5
305
100
AcDbEntity
  8
M0
100
AcDbLine
 10
189.586322
 20
449.340659
 11
175.686323
 21
449.340659
  0
LINE
  5
306
100
AcDbEntity
  8
M0
100
AcDbLine
 10
184.386323
 20
410.140659
 11
184.386323
 21
417.088165
  0
LINE
  5
307
100
AcDbEntity
  8
M0
100
AcDbLine
 10
187.936322
 20
417.109613
 11
187.936322
 21
417.088165
  0
LINE
  5
308
100
AcDbEntity
  8
M0
100
AcDbLine
 10
202.597836
 20
373.790658
 11
201.573772
 21
373.790658
  0
LINE
  5
309
100
AcDbEntity
  8
M0
100
AcDbLine
 10
163.698873
 20
373.790658
 11
164.836323
 21
373.790658
  0
LINE
  5
30A
100
AcDbEntity
  8
M0
100
AcDbLine
 10
165.736323
 20
372.14066
 11
165.736323
 21
372.890661
  0
LINE
  5
30B
100
AcDbEntity
  8
M0
100
AcDbLine
 10
201.573772
 20
372.890661
 11
202.597836
 21
372.890661
  0
LINE
  5
30C
100
AcDbEntity
  8
M0
100
AcDbLine
 10
164.836323
 20
372.890661
 11
164.836323
 21
372.14066
  0
LINE
  5
30D
100
AcDbEntity
  8
M0
100
AcDbLine
 10
154.386323
 20
417.540659
 11
156.386323
 21
417.540659
  0
LINE
  5
30E
100
AcDbEntity
  8
M0
100
AcDbLine
 10
176.836323
 20
410.090659
 11
177.086323
 21
409.590659
  0
LINE
  5
30F
100
AcDbEntity
  8
M0
100
AcDbLine
 10
189.186323
 20
401.840659
 11
176.086322
 21
401.840659
  0
LINE
  5
310
100
AcDbEntity
  8
M0
100
AcDbLine
 10
176.086322
 20
401.840659
 11
174.436322
 21
401.840659
  0
LINE
  5
311
100
AcDbEntity
  8
M0
100
AcDbLine
 10
190.336322
 20
417.440659
 11
190.336322
 21
406.340659
  0
LINE
  5
312
100
AcDbEntity
  8
M0
100
AcDbLine
 10
190.336322
 20
401.840659
 11
190.836322
 21
401.840659
  0
LINE
  5
313
100
AcDbEntity
  8
M0
100
AcDbLine
 10
188.186322
 20
402.84066
 11
188.186322
 21
409.590659
  0
LINE
  5
314
100
AcDbEntity
  8
M0
100
AcDbLine
 10
174.436322
 20
406.340659
 11
174.936322
 21
406.340659
  0
LINE
  5
315
100
AcDbEntity
  8
M0
100
AcDbLine
 10
157.086322
 20
435.54066
 11
157.086322
 21
435.74066
  0
LINE
  5
316
100
AcDbEntity
  8
M0
100
AcDbLine
 10
188.186322
 20
409.590659
 11
188.436322
 21
410.090659
  0
LINE
  5
317
100
AcDbEntity
  8
M0
100
AcDbLine
 10
174.936322
 20
401.840659
 11
174.436322
 21
401.840659
  0
LINE
  5
318
100
AcDbEntity
  8
M0
100
AcDbLine
 10
177.086323
 20
409.590659
 11
177.086323
 21
402.84066
  0
LINE
  5
319
100
AcDbEntity
  8
M0
100
AcDbLine
 10
153.886322
 20
388.090659
 11
153.886322
 21
387.040658
  0
LINE
  5
31A
100
AcDbEntity
  8
M0
100
AcDbLine
 10
177.086323
 20
416.090659
 11
176.836323
 21
415.590659
  0
LINE
  5
31B
100
AcDbEntity
  8
M0
100
AcDbLine
 10
147.886323
 20
387.040658
 11
147.886323
 21
388.090659
  0
LINE
  5
31C
100
AcDbEntity
  8
M0
100
AcDbLine
 10
194.786322
 20
458.340658
 11
194.786322
 21
449.340659
  0
LINE
  5
31D
100
AcDbEntity
  8
M0
100
AcDbLine
 10
202.886323
 20
450.340661
 11
202.886323
 21
449.340659
  0
LINE
  5
31E
100
AcDbEntity
  8
M0
100
AcDbLine
 10
198.939599
 20
454.855023
 11
197.17202
 21
453.087323
  0
LINE
  5
31F
100
AcDbEntity
  8
M0
100
AcDbLine
 10
176.836323
 20
415.590659
 11
176.836323
 21
410.090659
  0
LINE
  5
320
100
AcDbEntity
  8
M0
100
AcDbLine
 10
175.936323
 20
423.840659
 11
174.436322
 21
423.840659
  0
LINE
  5
321
100
AcDbEntity
  8
M0
100
AcDbLine
 10
188.436322
 20
415.590659
 11
188.186322
 21
416.090659
  0
LINE
  5
322
100
AcDbEntity
  8
M0
100
AcDbLine
 10
188.436322
 20
410.090659
 11
188.436322
 21
415.590659
  0
LINE
  5
323
100
AcDbEntity
  8
M0
100
AcDbLine
 10
174.936322
 20
417.440659
 11
174.936322
 21
406.340659
  0
LINE
  5
324
100
AcDbEntity
  8
M0
100
AcDbLine
 10
190.336322
 20
406.340659
 11
190.836322
 21
406.340659
  0
ARC
  5
325
100
AcDbEntity
  8
M0
100
AcDbCircle
 10
165.286322
 20
373.340659
 40
2.65
100
AcDbArc
 50
170.223151
 51
189.776849
  0
ARC
  5
326
100
AcDbEntity
  8
M0
100
AcDbCircle
 10
165.286322
 20
373.340659
 40
2.65
100
AcDbArc
 50
350.223151
 51
369.776849
  0
ARC
  5
327
100
AcDbEntity
  8
M0
100
AcDbCircle
 10
199.986322
 20
373.340659
 40
2.65
100
AcDbArc
 50
9.776849
 51
170.223151
  0
ARC
  5
328
100
AcDbEntity
  8
M0
100
AcDbCircle
 10
220.086322
 20
386.490659
 40
1.0
100
AcDbArc
 50
270.0
 51
360.0
  0
ARC
  5
329
100
AcDbEntity
  8
M0
100
AcDbCircle
 10
199.986322
 20
373.340659
 40
2.65
100
AcDbArc
 50
189.776849
 51
350.223151
  0
ARC
  5
32A
100
AcDbEntity
  8
M0
100
AcDbCircle
 10
155.386322
 20
439.590659
 40
0.6
100
AcDbArc
 50
90.0
 51
180.0
  0
ARC
  5
32B
100
AcDbEntity
  8
M0
100
AcDbCircle
 10
157.828314
 20
402.246618
 40
3.350514
100
AcDbArc
 50
136.789285
 51
155.219178
  0
LINE
  5
32C
100
AcDbEntity
  8
M0
100
AcDbLine
 10
147.636322
 20
437.590659
 11
154.136322
 21
437.590659
  0
ARC
  5
32D
100
AcDbEntity
  8
M0
100
AcDbCircle
 10
155.386322
 20
393.340659
 40
0.6
100
AcDbArc
 50
180.0
 51
270.0
  0
ARC
  5
32E
100
AcDbEntity
  8
M0
100
AcDbCircle
 10
209.886322
 20
393.340659
 40
0.6
100
AcDbArc
 50
270.0
 51
360.0
  0
ARC
  5
32F
100
AcDbEntity
  8
M0
100
AcDbCircle
 10
145.986322
 20
393.740659
 40
1.0
100
AcDbArc
 50
270.0
 51
360.0
  0
ARC
  5
330
100
AcDbEntity
  8
M0
100
AcDbCircle
 10
165.286322
 20
373.340659
 40
2.65
100
AcDbArc
 50
9.776849
 51
170.223151
  0
LINE
  5
331
100
AcDbEntity
  8
M0
100
AcDbLine
 10
190.836322
 20
401.840659
 11
189.186323
 21
401.840659
  0
LINE
  5
332
100
AcDbEntity
  8
M0
100
AcDbLine
 10
188.186322
 20
416.090659
 11
188.186322
 21
418.340659
  0
LINE
  5
333
100
AcDbEntity
  8
M0
100
AcDbLine
 10
191.836323
 20
418.940659
 11
190.336322
 21
417.440659
  0
LINE
  5
334
100
AcDbEntity
  8
M0
100
AcDbLine
 10
208.886322
 20
405.640659
 11
209.386323
 21
405.640659
  0
LINE
  5
335
100
AcDbEntity
  8
M0
100
AcDbLine
 10
177.086323
 20
418.340659
 11
177.086323
 21
416.090659
  0
LINE
  5
336
100
AcDbEntity
  8
M0
100
AcDbLine
 10
191.836323
 20
422.840659
 11
191.836323
 21
402.840659
  0
ARC
  5
337
100
AcDbEntity
  8
M0
100
AcDbCircle
 10
220.086322
 20
439.190659
 40
1.0
100
AcDbArc
 50
0.0
 51
90.0
  0
ARC
  5
338
100
AcDbEntity
  8
M0
100
AcDbCircle
 10
145.986322
 20
386.490659
 40
1.0
100
AcDbArc
 50
270.0
 51
360.0
  0
ARC
  5
339
100
AcDbEntity
  8
M0
100
AcDbCircle
 10
209.886322
 20
439.590659
 40
0.6
100
AcDbArc
 50
0.0
 51
90.0
  0
ARC
  5
33A
100
AcDbEntity
  8
M0
100
AcDbCircle
 10
155.386322
 20
386.090659
 40
0.6
100
AcDbArc
 50
180.0
 51
270.0
  0
ARC
  5
33B
100
AcDbEntity
  8
M0
100
AcDbCircle
 10
209.886322
 20
386.090659
 40
0.6
100
AcDbArc
 50
270.0
 51
360.0
  0
LINE
  5
33C
100
AcDbEntity
  8
M0
100
AcDbLine
 10
155.386323
 20
408.34066
 11
156.386323
 21
408.34066
  0
ARC
  5
33D
100
AcDbEntity
  8
M0
100
AcDbCircle
 10
217.680324
 20
377.790955
 40
0.3
100
AcDbArc
 50
90.0
 51
180.0
  0
ARC
  5
33E
100
AcDbEntity
  8
M0
100
AcDbCircle
 10
174.686322
 20
454.340659
 40
1.0
100
AcDbArc
 50
0.0
 51
90.0
  0
ARC
  5
33F
100
AcDbEntity
  8
M0
100
AcDbCircle
 10
218.136322
 20
380.340659
 40
2.25
100
AcDbArc
 50
270.928845
 51
451.752277
  0
ARC
  5
340
100
AcDbEntity
  8
M0
100
AcDbCircle
 10
157.086322
 20
454.340659
 40
1.0
100
AcDbArc
 50
0.0
 51
90.0
  0
ARC
  5
341
100
AcDbEntity
  8
M0
100
AcDbCircle
 10
156.386322
 20
454.340659
 40
1.0
100
AcDbArc
 50
90.0
 51
180.0
  0
ARC
  5
342
100
AcDbEntity
  8
M0
100
AcDbCircle
 10
190.586322
 20
454.340659
 40
1.0
100
AcDbArc
 50
90.0
 51
180.0
  0
ARC
  5
343
100
AcDbEntity
  8
M0
100
AcDbCircle
 10
219.286322
 20
417.540659
 40
1.0
100
AcDbArc
 50
180.0
 51
270.0
  0
ARC
  5
344
100
AcDbEntity
  8
M0
100
AcDbCircle
 10
169.786322
 20
450.040659
 40
0.6
100
AcDbArc
 50
270.0
 51
352.509835
  0
ARC
  5
345
100
AcDbEntity
  8
M0
100
AcDbCircle
 10
220.086322
 20
417.540659
 40
1.0
100
AcDbArc
 50
270.0
 51
360.0
  0
ARC
  5
346
100
AcDbEntity
  8
M0
100
AcDbCircle
 10
145.186322
 20
431.940659
 40
1.0
100
AcDbArc
 50
90.0
 51
180.0
  0
ARC
  5
347
100
AcDbEntity
  8
M0
100
AcDbCircle
 10
199.986322
 20
373.340659
 40
2.65
100
AcDbArc
 50
170.223151
 51
189.776849
  0
ARC
  5
348
100
AcDbEntity
  8
M0
100
AcDbCircle
 10
172.986322
 20
454.340659
 40
1.0
100
AcDbArc
 50
90.0
 51
180.0
  0
LINE
  5
349
100
AcDbEntity
  8
M0
100
AcDbLine
 10
158.086322
 20
389.940659
 11
158.086322
 21
390.140659
  0
LINE
  5
34A
100
AcDbEntity
  8
M0
100
AcDbLine
 10
219.286321
 20
440.190659
 11
220.086323
 21
440.190659
  0
LINE
  5
34B
100
AcDbEntity
  8
M0
100
AcDbLine
 10
175.686323
 20
390.140659
 11
175.686323
 21
371.340659
  0
LINE
  5
34C
100
AcDbEntity
  8
M0
100
AcDbLine
 10
154.786322
 20
403.65098
 11
154.786322
 21
386.090659
  0
LINE
  5
34D
100
AcDbEntity
  8
M0
100
AcDbLine
 10
146.986322
 20
417.540659
 11
146.986322
 21
439.19066
  0
LINE
  5
34E
100
AcDbEntity
  8
M0
100
AcDbLine
 10
154.786322
 20
439.59066
 11
154.786322
 21
422.028906
  0
ARC
  5
34F
100
AcDbEntity
  8
M0
100
AcDbCircle
 10
192.286322
 20
454.340659
 40
1.0
100
AcDbArc
 50
0.0
 51
90.0
  0
ARC
  5
350
100
AcDbEntity
  8
M0
100
AcDbCircle
 10
208.186322
 20
454.340659
 40
1.0
100
AcDbArc
 50
90.0
 51
180.0
  0
LINE
  5
351
100
AcDbEntity
  8
M0
100
AcDbLine
 10
154.136322
 20
430.090661
 11
147.636324
 21
430.090654
  0
LINE
  5
352
100
AcDbEntity
  8
M0
100
AcDbLine
 10
207.186323
 20
435.54066
 11
207.186323
 21
435.74066
  0
LINE
  5
353
100
AcDbEntity
  8
M0
100
AcDbLine
 10
207.186323
 20
389.940659
 11
207.186323
 21
390.140659
  0
LINE
  5
354
100
AcDbEntity
  8
M0
100
AcDbLine
 10
145.986324
 20
440.190659
 11
145.186322
 21
440.190659
  0
LINE
  5
355
100
AcDbEntity
  8
M0
100
AcDbLine
 10
156.386323
 20
411.340659
 11
155.386323
 21
411.340659
  0
LINE
  5
356
100
AcDbEntity
  8
M0
100
AcDbLine
 10
173.436322
 20
418.940659
 11
174.936322
 21
417.440659
  0
LINE
  5
357
100
AcDbEntity
  8
M0
100
AcDbLine
 10
208.886322
 20
390.140659
 11
156.386323
 21
390.140659
  0
LINE
  5
358
100
AcDbEntity
  8
M0
100
AcDbLine
 10
188.186322
 20
405.640659
 11
177.086323
 21
405.640659
  0
LINE
  5
359
100
AcDbEntity
  8
M0
100
AcDbLine
 10
177.086323
 20
403.34066
 11
188.186322
 21
403.34066
  0
LINE
  5
35A
100
AcDbEntity
  8
M0
100
AcDbLine
 10
177.086323
 20
407.140659
 11
188.186322
 21
407.140659
  0
LINE
  5
35B
100
AcDbEntity
  8
M0
100
AcDbLine
 10
217.380324
 20
377.676471
 11
217.380324
 21
377.790956
  0
LINE
  5
35C
100
AcDbEntity
  8
M0
100
AcDbLine
 10
157.086322
 20
389.940659
 11
157.086322
 21
390.140659
  0
LINE
  5
35D
100
AcDbEntity
  8
M0
100
AcDbLine
 10
214.38781
 20
380.422479
 11
214.38781
 21
380.390658
  0
LINE
  5
35E
100
AcDbEntity
  8
M0
100
AcDbLine
 10
172.486322
 20
437.240659
 11
175.186322
 21
437.240659
  0
LINE
  5
35F
100
AcDbEntity
  8
M0
100
AcDbLine
 10
221.586322
 20
384.04066
 11
221.586322
 21
373.340658
  0
LINE
  5
360
100
AcDbEntity
  8
M0
100
AcDbLine
 10
155.386323
 20
454.340659
 11
155.386323
 21
419.04066
  0
ARC
  5
361
100
AcDbEntity
  8
M0
100
AcDbCircle
 10
219.286322
 20
408.140659
 40
1.0
100
AcDbArc
 50
90.0
 51
180.0
  0
LINE
  5
362
100
AcDbEntity
  8
M0
100
AcDbLine
 10
177.586323
 20
418.840659
 11
177.586323
 21
422.840659
  0
ARC
  5
363
100
AcDbEntity
  8
M0
100
AcDbCircle
 10
192.286322
 20
371.340659
 40
1.0
100
AcDbArc
 50
270.0
 51
360.0
  0
ARC
  5
364
100
AcDbEntity
  8
M0
100
AcDbCircle
 10
145.986322
 20
417.540659
 40
1.0
100
AcDbArc
 50
270.0
 51
360.0
  0
ARC
  5
365
100
AcDbEntity
  8
M0
100
AcDbCircle
 10
172.986322
 20
371.340659
 40
1.0
100
AcDbArc
 50
180.0
 51
270.0
  0
ARC
  5
366
100
AcDbEntity
  8
M0
100
AcDbCircle
 10
220.086322
 20
431.940659
 40
1.0
100
AcDbArc
 50
0.0
 51
90.0
  0
LINE
  5
367
100
AcDbEntity
  8
M0
100
AcDbLine
 10
155.386323
 20
414.340659
 11
155.386323
 21
414.240659
  0
LINE
  5
368
100
AcDbEntity
  8
M0
100
AcDbLine
 10
155.886322
 20
405.640659
 11
156.386323
 21
405.640659
  0
LINE
  5
369
100
AcDbEntity
  8
M0
100
AcDbLine
 10
155.386323
 20
411.440659
 11
155.386323
 21
411.340659
  0
LINE
  5
36A
100
AcDbEntity
  8
M0
100
AcDbLine
 10
173.436322
 20
422.840659
 11
173.436322
 21
402.507556
  0
LINE
  5
36B
100
AcDbEntity
  8
M0
100
AcDbLine
 10
188.686322
 20
423.840659
 11
190.836322
 21
423.840659
  0
LINE
  5
36C
100
AcDbEntity
  8
M0
100
AcDbLine
 10
207.186323
 20
452.340661
 11
207.186323
 21
454.340658
  0
LINE
  5
36D
100
AcDbEntity
  8
M0
100
AcDbLine
 10
146.486321
 20
416.540659
 11
146.486321
 21
409.140659
  0
LINE
  5
36E
100
AcDbEntity
  8
M0
100
AcDbLine
 10
158.086322
 20
435.54066
 11
158.086322
 21
454.340658
  0
LINE
  5
36F
100
AcDbEntity
  8
M0
100
AcDbLine
 10
210.486323
 20
403.65098
 11
210.486323
 21
386.090659
  0
LINE
  5
370
100
AcDbEntity
  8
M0
100
AcDbLine
 10
218.286322
 20
386.490658
 11
218.286322
 21
408.140659
  0
LINE
  5
371
100
AcDbEntity
  8
M0
100
AcDbLine
 10
146.986322
 20
386.490658
 11
146.986322
 21
408.140659
  0
LINE
  5
372
100
AcDbEntity
  8
M0
100
AcDbLine
 10
176.186322
 20
423.840659
 11
176.586322
 21
423.840659
  0
LINE
  5
373
100
AcDbEntity
  8
M0
100
AcDbLine
 10
158.086322
 20
373.340658
 11
158.086322
 21
374.34066
  0
LINE
  5
374
100
AcDbEntity
  8
M0
100
AcDbLine
 10
188.686322
 20
423.840659
 11
189.086323
 21
423.840659
  0
LINE
  5
375
100
AcDbEntity
  8
M0
100
AcDbLine
 10
218.786323
 20
416.540659
 11
218.786323
 21
409.140659
  0
LINE
  5
376
100
AcDbEntity
  8
M0
100
AcDbLine
 10
220.086323
 20
409.140659
 11
220.086323
 21
416.540659
  0
LINE
  5
377
100
AcDbEntity
  8
M0
100
AcDbLine
 10
145.186322
 20
409.140659
 11
145.186322
 21
416.540659
  0
ARC
  5
378
100
AcDbEntity
  8
M0
100
AcDbCircle
 10
147.636323
 20
430.590659
 40
0.5
100
AcDbArc
 50
180.0
 51
270.0
  0
ARC
  5
379
100
AcDbEntity
  8
M0
100
AcDbCircle
 10
147.636322
 20
437.090659
 40
0.5
100
AcDbArc
 50
90.0
 51
180.0
  0
ARC
  5
37A
100
AcDbEntity
  8
M0
100
AcDbCircle
 10
211.136322
 20
430.590659
 40
0.5
100
AcDbArc
 50
180.0
 51
270.0
  0
ARC
  5
37B
100
AcDbEntity
  8
M0
100
AcDbCircle
 10
145.186322
 20
393.740659
 40
1.0
100
AcDbArc
 50
180.0
 51
270.0
  0
ARC
  5
37C
100
AcDbEntity
  8
M0
100
AcDbCircle
 10
207.444331
 20
402.246618
 40
3.350514
100
AcDbArc
 50
24.780822
 51
43.210715
  0
ARC
  5
37D
100
AcDbEntity
  8
M0
100
AcDbCircle
 10
219.286322
 20
439.190659
 40
1.0
100
AcDbArc
 50
90.0
 51
180.0
  0
ARC
  5
37E
100
AcDbEntity
  8
M0
100
AcDbCircle
 10
163.436322
 20
456.690659
 40
0.5
100
AcDbArc
 50
90.0
 51
180.0
  0
ARC
  5
37F
100
AcDbEntity
  8
M0
100
AcDbCircle
 10
201.836323
 20
450.19066
 40
0.5
100
AcDbArc
 50
270.0
 51
360.0
  0
ARC
  5
380
100
AcDbEntity
  8
M0
100
AcDbCircle
 10
211.136322
 20
437.090659
 40
0.5
100
AcDbArc
 50
90.0
 51
180.0
  0
ARC
  5
381
100
AcDbEntity
  8
M0
100
AcDbCircle
 10
201.836322
 20
456.69066
 40
0.5
100
AcDbArc
 50
0.0
 51
90.0
  0
ARC
  5
382
100
AcDbEntity
  8
M0
100
AcDbCircle
 10
217.636322
 20
430.590659
 40
0.5
100
AcDbArc
 50
270.0
 51
360.0
  0
ARC
  5
383
100
AcDbEntity
  8
M0
100
AcDbCircle
 10
217.636322
 20
437.090659
 40
0.5
100
AcDbArc
 50
0.0
 51
90.0
  0
LINE
  5
384
100
AcDbEntity
  8
M0
100
AcDbLine
 10
180.886322
 20
410.140659
 11
180.886322
 21
417.088165
  0
LINE
  5
385
100
AcDbEntity
  8
M0
100
AcDbLine
 10
150.486322
 20
416.540659
 11
150.486322
 21
409.140659
  0
LINE
  5
386
100
AcDbEntity
  8
M0
100
AcDbLine
 10
187.936322
 20
417.540659
 11
187.936322
 21
409.045647
  0
LINE
  5
387
100
AcDbEntity
  8
M0
100
AcDbLine
 10
187.936322
 20
408.548128
 11
187.936322
 21
409.045647
  0
LINE
  5
388
100
AcDbEntity
  8
M0
100
AcDbLine
 10
177.336323
 20
417.540659
 11
177.336323
 21
409.045647
  0
LINE
  5
389
100
AcDbEntity
  8
M0
100
AcDbLine
 10
181.386322
 20
409.640659
 11
183.886322
 21
409.640659
  0
LINE
  5
38A
100
AcDbEntity
  8
M0
100
AcDbLine
 10
210.486323
 20
422.140659
 11
218.286322
 21
422.140659
  0
LINE
  5
38B
100
AcDbEntity
  8
M0
100
AcDbLine
 10
187.686322
 20
418.840659
 11
187.686322
 21
422.840659
  0
LINE
  5
38C
100
AcDbEntity
  8
M0
100
AcDbLine
 10
220.086323
 20
385.49066
 11
219.286321
 21
385.49066
  0
LINE
  5
38D
100
AcDbEntity
  8
M0
100
AcDbLine
 10
220.086323
 20
392.74066
 11
219.286321
 21
392.74066
  0
LINE
  5
38E
100
AcDbEntity
  8
M0
100
AcDbLine
 10
214.786323
 20
416.540659
 11
214.786323
 21
409.140659
  0
LINE
  5
38F
100
AcDbEntity
  8
M0
100
AcDbLine
 10
145.186322
 20
392.74066
 11
145.986324
 21
392.74066
  0
LINE
  5
390
100
AcDbEntity
  8
M0
100
AcDbLine
 10
146.986322
 20
403.540659
 11
154.786322
 21
403.540659
  0
LINE
  5
391
100
AcDbEntity
  8
M0
100
AcDbLine
 10
214.786323
 20
409.140659
 11
219.286321
 21
409.140659
  0
LINE
  5
392
100
AcDbEntity
  8
M0
100
AcDbLine
 10
207.186323
 20
451.340659
 11
207.186323
 21
452.340661
  0
LINE
  5
393
100
AcDbEntity
  8
M0
100
AcDbLine
 10
207.186323
 20
373.340658
 11
207.186323
 21
374.34066
  0
LINE
  5
394
100
AcDbEntity
  8
M0
100
AcDbLine
 10
171.986323
 20
457.840661
 11
171.986323
 21
435.54066
  0
LINE
  5
395
100
AcDbEntity
  8
M0
100
AcDbLine
 10
193.286322
 20
374.34066
 11
193.286322
 21
373.340658
  0
LINE
  5
396
100
AcDbEntity
  8
M0
100
AcDbLine
 10
154.786322
 20
422.140659
 11
146.986322
 21
422.140659
  0
LINE
  5
397
100
AcDbEntity
  8
M0
100
AcDbLine
 10
177.336323
 20
408.548128
 11
177.336323
 21
409.045647
  0
LINE
  5
398
100
AcDbEntity
  8
M0
100
AcDbLine
 10
219.286321
 20
416.540659
 11
214.786323
 21
416.540659
  0
LINE
  5
399
100
AcDbEntity
  8
M0
100
AcDbLine
 10
145.186322
 20
409.140659
 11
150.486322
 21
409.140659
  0
LINE
  5
39A
100
AcDbEntity
  8
M0
100
AcDbLine
 10
210.486323
 20
439.590659
 11
210.486323
 21
422.057175
  0
LINE
  5
39B
100
AcDbEntity
  8
M0
100
AcDbLine
 10
207.186323
 20
371.340661
 11
207.186323
 21
375.340658
  0
LINE
  5
39C
100
AcDbEntity
  8
M0
100
AcDbLine
 10
191.786326
 20
370.340659
 11
190.586323
 21
370.340659
  0
LINE
  5
39D
100
AcDbEntity
  8
M0
100
AcDbLine
 10
158.086322
 20
371.340661
 11
158.086322
 21
375.340658
  0
LINE
  5
39E
100
AcDbEntity
  8
M0
100
AcDbLine
 10
175.686323
 20
435.74066
 11
171.986323
 21
435.74066
  0
LINE
  5
39F
100
AcDbEntity
  8
M0
100
AcDbLine
 10
210.886322
 20
411.440659
 11
209.186323
 21
411.440659
  0
LINE
  5
3A0
100
AcDbEntity
  8
M0
100
AcDbLine
 10
193.286322
 20
375.340658
 11
193.286322
 21
371.340661
  0
CIRCLE
  5
3A1
100
AcDbEntity
  8
M0
100
AcDbCircle
 10
214.386323
 20
391.840658
 40
3.0
  0
CIRCLE
  5
3A2
100
AcDbEntity
  8
M0
100
AcDbCircle
 10
214.386323
 20
399.440658
 40
3.0
  0
CIRCLE
  5
3A3
100
AcDbEntity
  8
M0
100
AcDbCircle
 10
165.036322
 20
383.340628
 40
4.499996
  0
CIRCLE
  5
3A4
100
AcDbEntity
  8
M0
100
AcDbCircle
 10
200.236322
 20
383.340628
 40
4.499996
  0
CIRCLE
  5
3A5
100
AcDbEntity
  8
M0
100
AcDbCircle
 10
182.636322
 20
383.340628
 40
4.499996
  0
LINE
  5
3A6
100
AcDbEntity
  8
M0
100
AcDbLine
 10
192.286323
 20
370.340659
 11
191.786326
 21
370.340659
  0
LINE
  5
3A7
100
AcDbEntity
  8
M0
100
AcDbLine
 10
189.586322
 20
390.140659
 11
189.586322
 21
387.940659
  0
LINE
  5
3A8
100
AcDbEntity
  8
M0
100
AcDbLine
 10
193.286322
 20
389.940659
 11
189.586322
 21
389.940659
  0
LINE
  5
3A9
100
AcDbEntity
  8
M0
100
AcDbLine
 10
193.286322
 20
387.940659
 11
193.286322
 21
390.140659
  0
LINE
  5
3AA
100
AcDbEntity
  8
M0
100
AcDbLine
 10
219.286321
 20
416.540659
 11
220.086323
 21
416.540659
  0
LINE
  5
3AB
100
AcDbEntity
  8
M0
100
AcDbLine
 10
219.286321
 20
432.940659
 11
220.086323
 21
432.940659
  0
LINE
  5
3AC
100
AcDbEntity
  8
M0
100
AcDbLine
 10
146.986322
 20
395.640659
 11
154.786322
 21
395.640659
  0
LINE
  5
3AD
100
AcDbEntity
  8
M0
100
AcDbLine
 10
189.586322
 20
435.74066
 11
193.286322
 21
435.74066
  0
LINE
  5
3AE
100
AcDbEntity
  8
M0
100
AcDbLine
 10
209.186323
 20
414.240659
 11
210.886322
 21
414.240659
  0
LINE
  5
3AF
100
AcDbEntity
  8
M0
100
AcDbLine
 10
171.986323
 20
390.140659
 11
171.986323
 21
371.340661
  0
LINE
  5
3B0
100
AcDbEntity
  8
M0
100
AcDbLine
 10
209.186323
 20
411.440659
 11
209.186323
 21
414.240659
  0
LINE
  5
3B1
100
AcDbEntity
  8
M0
100
AcDbLine
 10
156.086322
 20
411.440659
 11
156.086322
 21
414.240659
  0
LINE
  5
3B2
100
AcDbEntity
  8
M0
100
AcDbLine
 10
171.986323
 20
389.940659
 11
175.686323
 21
389.940659
  0
LINE
  5
3B3
100
AcDbEntity
  8
M0
100
AcDbLine
 10
214.739602
 20
393.255021
 11
212.972024
 21
391.48732
  0
LINE
  5
3B4
100
AcDbEntity
  8
M0
100
AcDbLine
 10
215.976907
 20
390.250016
 11
212.795267
 21
393.431778
  0
LINE
  5
3B5
100
AcDbEntity
  8
M0
100
AcDbLine
 10
215.800149
 20
392.194352
 11
214.032571
 21
390.426774
  0
LINE
  5
3B6
100
AcDbEntity
  8
M0
100
AcDbLine
 10
166.917426
 20
383.807609
 11
164.569449
 21
381.459617
  0
LINE
  5
3B7
100
AcDbEntity
  8
M0
100
AcDbLine
 10
165.503226
 20
385.221824
 11
163.155249
 21
382.873832
  0
LINE
  5
3B8
100
AcDbEntity
  8
M0
100
AcDbLine
 10
162.967368
 20
385.409599
 11
167.230338
 21
381.14666
  0
ARC
  5
3B9
100
AcDbEntity
  8
M0
100
AcDbCircle
 10
204.086322
 20
458.340659
 40
1.0
100
AcDbArc
 50
90.0
 51
180.0
  0
CIRCLE
  5
3BA
100
AcDbEntity
  8
M0
100
AcDbCircle
 10
214.386323
 20
426.240661
 40
3.0
  0
ARC
  5
3BB
100
AcDbEntity
  8
M0
100
AcDbCircle
 10
204.086322
 20
458.340659
 40
1.0
100
AcDbArc
 50
0.0
 51
90.0
  0
LINE
  5
3BC
100
AcDbEntity
  8
M0
100
AcDbLine
 10
215.800149
 20
399.794352
 11
214.032571
 21
398.026774
  0
LINE
  5
3BD
100
AcDbEntity
  8
M0
100
AcDbLine
 10
214.739602
 20
400.855021
 11
212.972024
 21
399.087321
  0
LINE
  5
3BE
100
AcDbEntity
  8
M0
100
AcDbLine
 10
215.976907
 20
397.850016
 11
212.795267
 21
401.031779
  0
LINE
  5
3BF
100
AcDbEntity
  8
M0
100
AcDbLine
 10
184.517426
 20
383.807609
 11
182.169449
 21
381.459617
  0
LINE
  5
3C0
100
AcDbEntity
  8
M0
100
AcDbLine
 10
183.103226
 20
385.221824
 11
180.755249
 21
382.873832
  0
LINE
  5
3C1
100
AcDbEntity
  8
M0
100
AcDbLine
 10
180.567368
 20
385.409599
 11
184.830338
 21
381.14666
  0
LINE
  5
3C2
100
AcDbEntity
  8
M0
100
AcDbLine
 10
202.117426
 20
383.807609
 11
199.769449
 21
381.459617
  0
LINE
  5
3C3
100
AcDbEntity
  8
M0
100
AcDbLine
 10
200.703226
 20
385.221824
 11
198.355249
 21
382.873832
  0
LINE
  5
3C4
100
AcDbEntity
  8
M0
100
AcDbLine
 10
209.886322
 20
371.340659
 11
209.886322
 21
406.640659
  0
LINE
  5
3C5
100
AcDbEntity
  8
M0
100
AcDbLine
 10
175.686323
 20
435.54066
 11
175.686323
 21
454.340658
  0
LINE
  5
3C6
100
AcDbEntity
  8
M0
100
AcDbLine
 10
189.586322
 20
435.54066
 11
189.586322
 21
454.340658
  0
LINE
  5
3C7
100
AcDbEntity
  8
M0
100
AcDbLine
 10
208.186323
 20
389.940659
 11
208.186323
 21
390.140659
  0
LINE
  5
3C8
100
AcDbEntity
  8
M0
100
AcDbLine
 10
190.586323
 20
455.34066
 11
192.286322
 21
455.34066
  0
LINE
  5
3C9
100
AcDbEntity
  8
M0
100
AcDbLine
 10
174.686322
 20
455.34066
 11
172.986322
 21
455.34066
  0
LINE
  5
3CA
100
AcDbEntity
  8
M0
100
AcDbLine
 10
157.086322
 20
455.34066
 11
156.386322
 21
455.34066
  0
LINE
  5
3CB
100
AcDbEntity
  8
M0
100
AcDbLine
 10
177.586323
 20
418.840659
 11
187.686322
 21
418.840659
  0
LINE
  5
3CC
100
AcDbEntity
  8
M0
100
AcDbLine
 10
198.398871
 20
373.790658
 11
199.536322
 21
373.790658
  0
LINE
  5
3CD
100
AcDbEntity
  8
M0
100
AcDbLine
 10
199.536322
 20
372.14066
 11
200.436322
 21
372.14066
  0
LINE
  5
3CE
100
AcDbEntity
  8
M0
100
AcDbLine
 10
208.886322
 20
408.140659
 11
210.886322
 21
408.140659
  0
LINE
  5
3CF
100
AcDbEntity
  8
M0
100
AcDbLine
 10
207.186323
 20
435.54066
 11
207.186323
 21
454.340658
  0
LINE
  5
3D0
100
AcDbEntity
  8
M0
100
AcDbLine
 10
217.680326
 20
378.090954
 11
218.172798
 21
378.090954
  0
LINE
  5
3D1
100
AcDbEntity
  8
M0
100
AcDbLine
 10
157.086322
 20
435.74066
 11
158.086322
 21
435.74066
  0
LINE
  5
3D2
100
AcDbEntity
  8
M0
100
AcDbLine
 10
156.386323
 20
408.140659
 11
154.386323
 21
408.140659
  0
LINE
  5
3D3
100
AcDbEntity
  8
M0
100
AcDbLine
 10
208.186323
 20
435.74066
 11
207.186323
 21
435.74066
  0
LINE
  5
3D4
100
AcDbEntity
  8
M0
100
AcDbLine
 10
155.386323
 20
406.640659
 11
155.386323
 21
371.340659
  0
LINE
  5
3D5
100
AcDbEntity
  8
M0
100
AcDbLine
 10
218.286322
 20
403.540659
 11
210.486323
 21
403.540659
  0
LINE
  5
3D6
100
AcDbEntity
  8
M0
100
AcDbLine
 10
210.886322
 20
417.540659
 11
208.886322
 21
417.540659
  0
LINE
  5
3D7
100
AcDbEntity
  8
M0
100
AcDbLine
 10
208.686318
 20
455.34066
 11
208.886322
 21
455.34066
  0
LINE
  5
3D8
100
AcDbEntity
  8
M0
100
AcDbLine
 10
208.186323
 20
435.54066
 11
208.186323
 21
435.74066
  0
LINE
  5
3D9
100
AcDbEntity
  8
M0
100
AcDbLine
 10
206.236323
 20
375.340658
 11
207.186323
 21
375.340658
  0
LINE
  5
3DA
100
AcDbEntity
  8
M0
100
AcDbLine
 10
218.067521
 20
382.589607
 11
216.637978
 21
382.59066
  0
LINE
  5
3DB
100
AcDbEntity
  8
M0
100
AcDbLine
 10
209.886322
 20
419.04066
 11
209.886322
 21
454.340659
  0
CIRCLE
  5
3DC
100
AcDbEntity
  8
M0
100
AcDbCircle
 10
199.986322
 20
373.340659
 40
2.85
  0
CIRCLE
  5
3DD
100
AcDbEntity
  8
M0
100
AcDbCircle
 10
182.636322
 20
453.140659
 40
2.825
  0
ARC
  5
3DE
100
AcDbEntity
  8
M0
100
AcDbCircle
 10
202.386322
 20
450.340659
 40
0.5
100
AcDbArc
 50
0.0
 51
66.421822
  0
ARC
  5
3DF
100
AcDbEntity
  8
M0
100
AcDbCircle
 10
165.586322
 20
458.840659
 40
0.5
100
AcDbArc
 50
90.0
 51
180.0
  0
ARC
  5
3E0
100
AcDbEntity
  8
M0
100
AcDbCircle
 10
193.786322
 20
458.340659
 40
1.0
100
AcDbArc
 50
0.0
 51
90.0
  0
ARC
  5
3E1
100
AcDbEntity
  8
M0
100
AcDbCircle
 10
162.886322
 20
450.340659
 40
0.5
100
AcDbArc
 50
113.578178
 51
180.0
  0
LINE
  5
3E2
100
AcDbEntity
  8
M0
100
AcDbLine
 10
145.986324
 20
432.940659
 11
145.186322
 21
432.940659
  0
LINE
  5
3E3
100
AcDbEntity
  8
M0
100
AcDbLine
 10
198.167368
 20
385.409599
 11
202.430338
 21
381.14666
  0
LINE
  5
3E4
100
AcDbEntity
  8
M0
100
AcDbLine
 10
150.486322
 20
416.540659
 11
145.186322
 21
416.540659
  0
LINE
  5
3E5
100
AcDbEntity
  8
M0
100
AcDbLine
 10
220.086323
 20
409.140659
 11
219.286321
 21
409.140659
  0
LINE
  5
3E6
100
AcDbEntity
  8
M0
100
AcDbLine
 10
218.286322
 20
439.190659
 11
218.286322
 21
417.540659
  0
CIRCLE
  5
3E7
100
AcDbEntity
  8
M0
100
AcDbCircle
 10
182.636322
 20
453.140659
 40
2.85
  0
ARC
  5
3E8
100
AcDbEntity
  8
M0
100
AcDbCircle
 10
176.586322
 20
422.840659
 40
1.0
100
AcDbArc
 50
0.0
 51
90.0
  0
ARC
  5
3E9
100
AcDbEntity
  8
M0
100
AcDbCircle
 10
190.836322
 20
405.340659
 40
1.0
100
AcDbArc
 50
0.0
 51
90.0
  0
ARC
  5
3EA
100
AcDbEntity
  8
M0
100
AcDbCircle
 10
188.686322
 20
422.840659
 40
1.0
100
AcDbArc
 50
90.0
 51
180.0
  0
LINE
  5
3EB
100
AcDbEntity
  8
M0
100
AcDbLine
 10
188.186322
 20
418.340659
 11
177.086323
 21
418.340659
  0
LINE
  5
3EC
100
AcDbEntity
  8
M0
100
AcDbLine
 10
187.686322
 20
422.340659
 11
177.586323
 21
422.340659
  0
LINE
  5
3ED
100
AcDbEntity
  8
M0
100
AcDbLine
 10
208.186323
 20
455.34066
 11
208.686318
 21
455.34066
  0
ARC
  5
3EE
100
AcDbEntity
  8
M0
100
AcDbCircle
 10
171.486322
 20
458.340659
 40
1.0
100
AcDbArc
 50
90.0
 51
180.0
  0
ARC
  5
3EF
100
AcDbEntity
  8
M0
100
AcDbCircle
 10
199.686322
 20
458.840659
 40
0.5
100
AcDbArc
 50
0.0
 51
90.0
  0
ARC
  5
3F0
100
AcDbEntity
  8
M0
100
AcDbCircle
 10
145.186322
 20
408.140659
 40
1.0
100
AcDbArc
 50
90.0
 51
180.0
  0
ARC
  5
3F1
100
AcDbEntity
  8
M0
100
AcDbCircle
 10
220.086322
 20
408.140659
 40
1.0
100
AcDbArc
 50
0.0
 51
90.0
  0
ARC
  5
3F2
100
AcDbEntity
  8
M0
100
AcDbCircle
 10
145.186322
 20
417.540659
 40
1.0
100
AcDbArc
 50
180.0
 51
270.0
  0
ARC
  5
3F3
100
AcDbEntity
  8
M0
100
AcDbCircle
 10
188.186322
 20
418.840659
 40
0.5
100
AcDbArc
 50
180.0
 51
270.0
  0
ARC
  5
3F4
100
AcDbEntity
  8
M0
100
AcDbCircle
 10
69.486325
 20
371.340659
 40
1.0
100
AcDbArc
 50
180.0
 51
270.0
  0
ARC
  5
3F5
100
AcDbEntity
  8
M0
100
AcDbCircle
 10
95.736325
 20
453.140659
 40
2.65
100
AcDbArc
 50
350.223151
 51
369.776849
  0
ARC
  5
3F6
100
AcDbEntity
  8
M0
100
AcDbCircle
 10
132.386325
 20
431.940659
 40
1.0
100
AcDbArc
 50
90.0
 51
180.0
  0
ARC
  5
3F7
100
AcDbEntity
  8
M0
100
AcDbCircle
 10
70.186325
 20
371.340659
 40
1.0
100
AcDbArc
 50
270.0
 51
360.0
  0
ARC
  5
3F8
100
AcDbEntity
  8
M0
100
AcDbCircle
 10
121.286325
 20
371.340659
 40
1.0
100
AcDbArc
 50
180.0
 51
270.0
  0
LINE
  5
3F9
100
AcDbEntity
  8
M0
100
AcDbLine
 10
77.986324
 20
458.340658
 11
77.986324
 21
458.840659
  0
ARC
  5
3FA
100
AcDbEntity
  8
M0
100
AcDbCircle
 10
95.736325
 20
453.140659
 40
2.65
100
AcDbArc
 50
189.776849
 51
350.223151
  0
ARC
  5
3FB
100
AcDbEntity
  8
M0
100
AcDbCircle
 10
95.736325
 20
453.140659
 40
2.65
100
AcDbArc
 50
170.223151
 51
189.776849
  0
ARC
  5
3FC
100
AcDbEntity
  8
M0
100
AcDbCircle
 10
113.086325
 20
373.340659
 40
2.65
100
AcDbArc
 50
350.223151
 51
369.776849
  0
ARC
  5
3FD
100
AcDbEntity
  8
M0
100
AcDbCircle
 10
95.736325
 20
453.140659
 40
2.65
100
AcDbArc
 50
9.776849
 51
170.223151
  0
ARC
  5
3FE
100
AcDbEntity
  8
M0
100
AcDbCircle
 10
108.586325
 20
450.040659
 40
0.6
100
AcDbArc
 50
187.490122
 51
324.314617
  0
ARC
  5
3FF
100
AcDbEntity
  8
M0
100
AcDbCircle
 10
111.286325
 20
448.840659
 40
1.0
100
AcDbArc
 50
121.788346
 51
150.0
  0
LINE
  5
400
100
AcDbEntity
  8
M0
100
AcDbLine
 10
102.236325
 20
399.840659
 11
104.236325
 21
399.840659
  0
LINE
  5
401
100
AcDbEntity
  8
M0
100
AcDbLine
 10
89.736325
 20
398.34066
 11
89.736325
 21
399.340659
  0
LINE
  5
402
100
AcDbEntity
  8
M0
100
AcDbLine
 10
86.736325
 20
399.340659
 11
86.736325
 21
398.34066
  0
LINE
  5
403
100
AcDbEntity
  8
M0
100
AcDbLine
 10
87.236324
 20
397.84066
 11
89.236325
 21
397.84066
  0
LINE
  5
404
100
AcDbEntity
  8
M0
100
AcDbLine
 10
104.236325
 20
397.84066
 11
102.236325
 21
397.84066
  0
LINE
  5
405
100
AcDbEntity
  8
M0
100
AcDbLine
 10
98.736325
 20
425.040659
 11
98.736325
 21
426.640659
  0
LINE
  5
406
100
AcDbEntity
  8
M0
100
AcDbLine
 10
113.486325
 20
458.340658
 11
113.486325
 21
458.840659
  0
LINE
  5
407
100
AcDbEntity
  8
M0
100
AcDbLine
 10
75.286325
 20
450.840658
 11
75.786324
 21
450.840658
  0
LINE
  5
408
100
AcDbEntity
  8
M0
100
AcDbLine
 10
104.736324
 20
399.340659
 11
104.736324
 21
398.34066
  0
LINE
  5
409
100
AcDbEntity
  8
M0
100
AcDbLine
 10
69.486326
 20
435.54066
 11
121.986324
 21
435.54066
  0
LINE
  5
40A
100
AcDbEntity
  8
M0
100
AcDbLine
 10
100.636325
 20
423.04066
 11
100.636325
 21
422.54066
  0
LINE
  5
40B
100
AcDbEntity
  8
M0
100
AcDbLine
 10
60.236324
 20
396.190659
 11
60.236324
 21
402.690659
  0
LINE
  5
40C
100
AcDbEntity
  8
M0
100
AcDbLine
 10
95.286325
 20
452.69066
 11
95.286325
 21
451.940658
  0
LINE
  5
40D
100
AcDbEntity
  8
M0
100
AcDbLine
 10
97.323776
 20
452.69066
 11
96.186325
 21
452.69066
  0
CIRCLE
  5
40E
100
AcDbEntity
  8
M0
100
AcDbCircle
 10
113.086325
 20
373.340659
 40
2.825
  0
ARC
  5
40F
100
AcDbEntity
  8
M0
100
AcDbCircle
 10
90.936325
 20
408.140659
 40
0.5
100
AcDbArc
 50
180.0
 51
270.0
  0
ARC
  5
410
100
AcDbEntity
  8
M0
100
AcDbCircle
 10
90.936325
 20
417.540659
 40
0.5
100
AcDbArc
 50
90.0
 51
180.0
  0
ARC
  5
411
100
AcDbEntity
  8
M0
100
AcDbCircle
 10
96.986325
 20
410.140659
 40
0.5
100
AcDbArc
 50
270.0
 51
360.0
  0
LINE
  5
412
100
AcDbEntity
  8
M0
100
AcDbLine
 10
115.186324
 20
457.840661
 11
107.886325
 21
457.840661
  0
LINE
  5
413
100
AcDbEntity
  8
M0
100
AcDbLine
 10
95.286325
 20
454.340658
 11
95.286325
 21
453.59066
  0
LINE
  5
414
100
AcDbEntity
  8
M0
100
AcDbLine
 10
95.286325
 20
452.69066
 11
94.148874
 21
452.69066
  0
LINE
  5
415
100
AcDbEntity
  8
M0
100
AcDbLine
 10
76.286325
 20
457.840661
 11
75.786324
 21
457.34066
  0
LINE
  5
416
100
AcDbEntity
  8
M0
100
AcDbLine
 10
89.686325
 20
423.840659
 11
87.536325
 21
423.840659
  0
LINE
  5
417
100
AcDbEntity
  8
M0
100
AcDbLine
 10
75.786324
 20
457.34066
 11
75.786324
 21
449.340659
  0
ARC
  5
418
100
AcDbEntity
  8
M0
100
AcDbCircle
 10
100.536325
 20
417.540659
 40
0.5
100
AcDbArc
 50
0.0
 51
90.0
  0
ARC
  5
419
100
AcDbEntity
  8
M0
100
AcDbCircle
 10
95.736324
 20
453.090659
 40
4.25
100
AcDbArc
 50
241.927521
 51
298.072495
  0
ARC
  5
41A
100
AcDbEntity
  8
M0
100
AcDbCircle
 10
95.736324
 20
453.090659
 40
4.25
100
AcDbArc
 50
241.927521
 51
270.0
  0
ARC
  5
41B
100
AcDbEntity
  8
M0
100
AcDbCircle
 10
82.886325
 20
450.040659
 40
0.6
100
AcDbArc
 50
215.685335
 51
270.0
  0
ARC
  5
41C
100
AcDbEntity
  8
M0
100
AcDbCircle
 10
113.336325
 20
372.590659
 40
4.25
100
AcDbArc
 50
61.927513
 51
118.072487
  0
ARC
  5
41D
100
AcDbEntity
  8
M0
100
AcDbCircle
 10
111.286325
 20
448.840659
 40
1.0
100
AcDbArc
 50
30.0
 51
58.211672
  0
ARC
  5
41E
100
AcDbEntity
  8
M0
100
AcDbCircle
 10
95.736325
 20
372.590659
 40
4.25
100
AcDbArc
 50
61.927513
 51
118.072487
  0
ARC
  5
41F
100
AcDbEntity
  8
M0
100
AcDbCircle
 10
113.336324
 20
453.090659
 40
4.25
100
AcDbArc
 50
241.927521
 51
298.072495
  0
ARC
  5
420
100
AcDbEntity
  8
M0
100
AcDbCircle
 10
78.136325
 20
372.590659
 40
4.25
100
AcDbArc
 50
61.927513
 51
118.072487
  0
ARC
  5
421
100
AcDbEntity
  8
M0
100
AcDbCircle
 10
100.536325
 20
408.140659
 40
0.5
100
AcDbArc
 50
270.0
 51
360.0
  0
ARC
  5
422
100
AcDbEntity
  8
M0
100
AcDbCircle
 10
113.336324
 20
453.090659
 40
4.25
100
AcDbArc
 50
241.927521
 51
270.0
  0
ARC
  5
423
100
AcDbEntity
  8
M0
100
AcDbCircle
 10
130.736325
 20
388.59066
 40
0.5
100
AcDbArc
 50
270.0
 51
360.0
  0
ARC
  5
424
100
AcDbEntity
  8
M0
100
AcDbCircle
 10
130.736324
 20
395.09066
 40
0.5
100
AcDbArc
 50
0.0
 51
90.0
  0
ARC
  5
425
100
AcDbEntity
  8
M0
100
AcDbCircle
 10
124.236325
 20
422.990659
 40
0.5
100
AcDbArc
 50
180.0
 51
270.0
  0
ARC
  5
426
100
AcDbEntity
  8
M0
100
AcDbCircle
 10
124.236324
 20
395.090659
 40
0.5
100
AcDbArc
 50
90.0
 51
180.0
  0
ARC
  5
427
100
AcDbEntity
  8
M0
100
AcDbCircle
 10
130.736325
 20
422.990659
 40
0.5
100
AcDbArc
 50
270.0
 51
360.0
  0
ARC
  5
428
100
AcDbEntity
  8
M0
100
AcDbCircle
 10
130.736325
 20
429.490659
 40
0.5
100
AcDbArc
 50
0.0
 51
90.0
  0
ARC
  5
429
100
AcDbEntity
  8
M0
100
AcDbCircle
 10
101.636325
 20
423.040659
 40
1.0
100
AcDbArc
 50
90.0
 51
180.0
  0
ARC
  5
42A
100
AcDbEntity
  8
M0
100
AcDbCircle
 10
122.486325
 20
420.540659
 40
0.5
100
AcDbArc
 50
270.0
 51
360.0
  0
ARC
  5
42B
100
AcDbEntity
  8
M0
100
AcDbCircle
 10
78.136324
 20
453.090659
 40
4.25
100
AcDbArc
 50
241.927521
 51
270.0
  0
ARC
  5
42C
100
AcDbEntity
  8
M0
100
AcDbCircle
 10
78.136324
 20
453.090659
 40
4.25
100
AcDbArc
 50
241.927521
 51
298.072495
  0
ARC
  5
42D
100
AcDbEntity
  8
M0
100
AcDbCircle
 10
89.836325
 20
423.040659
 40
1.0
100
AcDbArc
 50
0.0
 51
90.0
  0
ARC
  5
42E
100
AcDbEntity
  8
M0
100
AcDbCircle
 10
69.486325
 20
434.540659
 40
1.0
100
AcDbArc
 50
90.0
 51
180.0
  0
ARC
  5
42F
100
AcDbEntity
  8
M0
100
AcDbCircle
 10
60.736325
 20
402.690659
 40
0.5
100
AcDbArc
 50
90.0
 51
180.0
  0
ARC
  5
430
100
AcDbEntity
  8
M0
100
AcDbCircle
 10
67.236325
 20
396.190659
 40
0.5
100
AcDbArc
 50
270.0
 51
360.0
  0
ARC
  5
431
100
AcDbEntity
  8
M0
100
AcDbCircle
 10
60.736324
 20
429.490659
 40
0.5
100
AcDbArc
 50
90.0
 51
180.0
  0
ARC
  5
432
100
AcDbEntity
  8
M0
100
AcDbCircle
 10
60.736325
 20
422.990659
 40
0.5
100
AcDbArc
 50
180.0
 51
270.0
  0
ARC
  5
433
100
AcDbEntity
  8
M0
100
AcDbCircle
 10
60.736325
 20
422.990659
 40
0.5
100
AcDbArc
 50
180.0
 51
270.0
  0
ARC
  5
434
100
AcDbEntity
  8
M0
100
AcDbCircle
 10
67.236325
 20
422.99066
 40
0.5
100
AcDbArc
 50
270.0
 51
360.0
  0
ARC
  5
435
100
AcDbEntity
  8
M0
100
AcDbCircle
 10
60.736325
 20
396.190659
 40
0.5
100
AcDbArc
 50
180.0
 51
270.0
  0
ARC
  5
436
100
AcDbEntity
  8
M0
100
AcDbCircle
 10
124.236325
 20
429.490659
 40
0.5
100
AcDbArc
 50
90.0
 51
180.0
  0
ARC
  5
437
100
AcDbEntity
  8
M0
100
AcDbCircle
 10
90.936325
 20
417.109613
 40
0.5
100
AcDbArc
 50
90.0
 51
180.0
  0
ARC
  5
438
100
AcDbEntity
  8
M0
100
AcDbCircle
 10
67.236324
 20
429.49066
 40
0.5
100
AcDbArc
 50
0.0
 51
90.0
  0
ARC
  5
439
100
AcDbEntity
  8
M0
100
AcDbCircle
 10
100.536325
 20
417.109613
 40
0.5
100
AcDbArc
 50
0.0
 51
90.0
  0
ARC
  5
43A
100
AcDbEntity
  8
M0
100
AcDbCircle
 10
67.236325
 20
402.690659
 40
0.5
100
AcDbArc
 50
0.0
 51
90.0
  0
LINE
  5
43B
100
AcDbEntity
  8
M0
100
AcDbLine
 10
104.136324
 20
424.040659
 11
101.636325
 21
424.040659
  0
LINE
  5
43C
100
AcDbEntity
  8
M0
100
AcDbLine
 10
105.136325
 20
402.640659
 11
105.136325
 21
423.04066
  0
LINE
  5
43D
100
AcDbEntity
  8
M0
100
AcDbLine
 10
67.236325
 20
395.69066
 11
60.736325
 21
395.69066
  0
LINE
  5
43E
100
AcDbEntity
  8
M0
100
AcDbLine
 10
130.736325
 20
422.49066
 11
124.236325
 21
422.49066
  0
LINE
  5
43F
100
AcDbEntity
  8
M0
100
AcDbLine
 10
124.236325
 20
429.990659
 11
130.736325
 21
429.990659
  0
LINE
  5
440
100
AcDbEntity
  8
M0
100
AcDbLine
 10
131.236326
 20
429.490659
 11
131.236326
 21
422.99066
  0
LINE
  5
441
100
AcDbEntity
  8
M0
100
AcDbLine
 10
98.736325
 20
426.640659
 11
92.736325
 21
426.640659
  0
ARC
  5
442
100
AcDbEntity
  8
M0
100
AcDbCircle
 10
94.486325
 20
410.140659
 40
0.5
100
AcDbArc
 50
180.0
 51
270.0
  0
LINE
  5
443
100
AcDbEntity
  8
M0
100
AcDbLine
 10
92.736325
 20
425.040659
 11
92.736325
 21
426.640659
  0
LINE
  5
444
100
AcDbEntity
  8
M0
100
AcDbLine
 10
86.336325
 20
402.640659
 11
86.336325
 21
423.04066
  0
LINE
  5
445
100
AcDbEntity
  8
M0
100
AcDbLine
 10
92.736325
 20
425.040659
 11
98.736325
 21
425.040659
  0
LINE
  5
446
100
AcDbEntity
  8
M0
100
AcDbLine
 10
87.336325
 20
401.64066
 11
104.136324
 21
401.64066
  0
LINE
  5
447
100
AcDbEntity
  8
M0
100
AcDbLine
 10
60.736325
 20
403.190659
 11
67.236325
 21
403.190659
  0
LINE
  5
448
100
AcDbEntity
  8
M0
100
AcDbLine
 10
130.736325
 20
395.69066
 11
124.236325
 21
395.69066
  0
LINE
  5
449
100
AcDbEntity
  8
M0
100
AcDbLine
 10
131.236326
 20
396.190661
 11
131.236326
 21
402.69066
  0
LINE
  5
44A
100
AcDbEntity
  8
M0
100
AcDbLine
 10
67.236325
 20
388.090659
 11
60.736325
 21
388.090659
  0
LINE
  5
44B
100
AcDbEntity
  8
M0
100
AcDbLine
 10
124.236325
 20
403.190659
 11
130.736324
 21
403.190659
  0
ARC
  5
44C
100
AcDbEntity
  8
M0
100
AcDbCircle
 10
68.986325
 20
420.540659
 40
0.5
100
AcDbArc
 50
180.0
 51
270.0
  0
LINE
  5
44D
100
AcDbEntity
  8
M0
  6
DASHDOT
100
AcDbLine
 10
235.586319
 20
412.840659
 11
42.786329
 21
412.840659
  0
LINE
  5
44E
100
AcDbEntity
  8
M0
100
AcDbLine
 10
123.736326
 20
422.990659
 11
123.736326
 21
429.49066
  0
LINE
  5
44F
100
AcDbEntity
  8
M0
  6
DASHDOT
100
AcDbLine
 10
95.736325
 20
365.340659
 11
95.736325
 21
464.34066
  0
LINE
  5
450
100
AcDbEntity
  8
M0
100
AcDbLine
 10
60.736324
 20
429.990659
 11
67.236325
 21
429.990659
  0
LINE
  5
451
100
AcDbEntity
  8
M0
100
AcDbLine
 10
67.236325
 20
422.49066
 11
60.736325
 21
422.49066
  0
LINE
  5
452
100
AcDbEntity
  8
M0
100
AcDbLine
 10
114.936325
 20
449.690657
 11
108.436326
 21
449.690657
  0
LINE
  5
453
100
AcDbEntity
  8
M0
100
AcDbLine
 10
59.086327
 20
392.74066
 11
58.986325
 21
392.74066
  0
LINE
  5
454
100
AcDbEntity
  8
M0
100
AcDbLine
 10
60.236324
 20
437.090658
 11
60.236324
 21
430.590659
  0
LINE
  5
455
100
AcDbEntity
  8
M0
100
AcDbLine
 10
115.436325
 20
450.190658
 11
115.436325
 21
456.69066
  0
LINE
  5
456
100
AcDbEntity
  8
M0
100
AcDbLine
 10
67.736326
 20
437.09066
 11
67.736326
 21
430.59066
  0
LINE
  5
457
100
AcDbEntity
  8
M0
100
AcDbLine
 10
108.436324
 20
457.190661
 11
114.936324
 21
457.190661
  0
LINE
  5
458
100
AcDbEntity
  8
M0
100
AcDbLine
 10
120.286325
 20
371.340661
 11
120.286325
 21
373.340658
  0
LINE
  5
459
100
AcDbEntity
  8
M0
100
AcDbLine
 10
107.936325
 20
450.190658
 11
107.936322
 21
456.690659
  0
LINE
  5
45A
100
AcDbEntity
  8
M0
100
AcDbLine
 10
85.086325
 20
373.340658
 11
85.086325
 21
371.340661
  0
LINE
  5
45B
100
AcDbEntity
  8
M0
100
AcDbLine
 10
132.486325
 20
432.940659
 11
132.386323
 21
432.940659
  0
LINE
  5
45C
100
AcDbEntity
  8
M0
100
AcDbLine
 10
132.386323
 20
392.74066
 11
132.486325
 21
392.74066
  0
LINE
  5
45D
100
AcDbEntity
  8
M0
100
AcDbLine
 10
58.986325
 20
432.940659
 11
59.086327
 21
432.940659
  0
ARC
  5
45E
100
AcDbEntity
  8
M0
100
AcDbCircle
 10
130.736325
 20
396.19066
 40
0.5
100
AcDbArc
 50
270.0
 51
360.0
  0
ARC
  5
45F
100
AcDbEntity
  8
M0
100
AcDbCircle
 10
130.736325
 20
396.19066
 40
0.5
100
AcDbArc
 50
270.0
 51
360.0
  0
ARC
  5
460
100
AcDbEntity
  8
M0
100
AcDbCircle
 10
67.836325
 20
373.840659
 40
0.5
100
AcDbArc
 50
180.0
 51
270.0
  0
ARC
  5
461
100
AcDbEntity
  8
M0
100
AcDbCircle
 10
67.286325
 20
452.340659
 40
2.0
100
AcDbArc
 50
53.130102
 51
90.0
  0
ARC
  5
462
100
AcDbEntity
  8
M0
100
AcDbCircle
 10
124.186325
 20
452.340659
 40
2.0
100
AcDbArc
 50
90.0
 51
126.869898
  0
ARC
  5
463
100
AcDbEntity
  8
M0
100
AcDbCircle
 10
60.736325
 20
388.590659
 40
0.5
100
AcDbArc
 50
180.0
 51
270.0
  0
CIRCLE
  5
464
100
AcDbEntity
  8
M0
100
AcDbCircle
 10
78.386325
 20
373.340659
 40
2.85
  0
CIRCLE
  5
465
100
AcDbEntity
  8
M0
100
AcDbCircle
 10
78.386325
 20
373.340659
 40
2.825
  0
ARC
  5
466
100
AcDbEntity
  8
M0
100
AcDbCircle
 10
60.736324
 20
429.490659
 40
0.5
100
AcDbArc
 50
90.0
 51
180.0
  0
ARC
  5
467
100
AcDbEntity
  8
M0
100
AcDbCircle
 10
124.236324
 20
402.690659
 40
0.5
100
AcDbArc
 50
90.0
 51
180.0
  0
ARC
  5
468
100
AcDbEntity
  8
M0
100
AcDbCircle
 10
124.236325
 20
396.190659
 40
0.5
100
AcDbArc
 50
180.0
 51
270.0
  0
ARC
  5
469
100
AcDbEntity
  8
M0
100
AcDbCircle
 10
130.736324
 20
402.69066
 40
0.5
100
AcDbArc
 50
0.0
 51
90.0
  0
LINE
  5
46A
100
AcDbEntity
  8
M0
100
AcDbLine
 10
60.236324
 20
429.490658
 11
60.236324
 21
422.990659
  0
ARC
  5
46B
100
AcDbEntity
  8
M0
100
AcDbCircle
 10
132.386325
 20
386.490659
 40
1.0
100
AcDbArc
 50
180.0
 51
270.0
  0
LINE
  5
46C
100
AcDbEntity
  8
M0
100
AcDbLine
 10
131.236326
 20
395.09066
 11
131.236326
 21
388.59066
  0
LINE
  5
46D
100
AcDbEntity
  8
M0
100
AcDbLine
 10
124.236324
 20
395.59066
 11
130.736325
 21
395.59066
  0
LINE
  5
46E
100
AcDbEntity
  8
M0
100
AcDbLine
 10
123.736326
 20
388.590659
 11
123.736326
 21
395.090659
  0
LINE
  5
46F
100
AcDbEntity
  8
M0
100
AcDbLine
 10
130.736325
 20
388.090659
 11
124.236325
 21
388.090659
  0
ARC
  5
470
100
AcDbEntity
  8
M0
100
AcDbCircle
 10
72.783193
 20
424.689916
 40
5.573176
100
AcDbArc
 50
208.520126
 51
219.557059
  0
ARC
  5
471
100
AcDbEntity
  8
M0
100
AcDbCircle
 10
118.689457
 20
424.689916
 40
5.573176
100
AcDbArc
 50
320.442941
 51
331.479874
  0
ARC
  5
472
100
AcDbEntity
  8
M0
100
AcDbCircle
 10
68.486325
 20
432.340659
 40
0.6
100
AcDbArc
 50
90.0
 51
180.0
  0
ARC
  5
473
100
AcDbEntity
  8
M0
100
AcDbCircle
 10
58.286325
 20
439.190659
 40
1.0
100
AcDbArc
 50
90.0
 51
180.0
  0
ARC
  5
474
100
AcDbEntity
  8
M0
100
AcDbCircle
 10
122.986325
 20
432.340659
 40
0.6
100
AcDbArc
 50
0.0
 51
90.0
  0
ARC
  5
475
100
AcDbEntity
  8
M0
100
AcDbCircle
 10
59.086325
 20
439.190659
 40
1.0
100
AcDbArc
 50
0.0
 51
90.0
  0
LINE
  5
476
100
AcDbEntity
  8
M0
100
AcDbLine
 10
83.536325
 20
456.690659
 11
83.536325
 21
450.190658
  0
LINE
  5
477
100
AcDbEntity
  8
M0
100
AcDbLine
 10
67.736324
 20
395.090659
 11
67.736324
 21
388.590659
  0
LINE
  5
478
100
AcDbEntity
  8
M0
100
AcDbLine
 10
124.236325
 20
437.590659
 11
130.736325
 21
437.590659
  0
LINE
  5
479
100
AcDbEntity
  8
M0
100
AcDbLine
 10
130.736325
 20
430.090659
 11
124.236325
 21
430.090659
  0
LINE
  5
47A
100
AcDbEntity
  8
M0
100
AcDbLine
 10
123.736326
 20
430.59066
 11
123.736326
 21
437.090659
  0
LINE
  5
47B
100
AcDbEntity
  8
M0
100
AcDbLine
 10
76.536325
 20
457.190658
 11
83.036325
 21
457.190658
  0
LINE
  5
47C
100
AcDbEntity
  8
M0
100
AcDbLine
 10
60.736325
 20
395.59066
 11
67.236325
 21
395.59066
  0
LINE
  5
47D
100
AcDbEntity
  8
M0
100
AcDbLine
 10
123.736326
 20
396.190659
 11
123.736326
 21
402.690659
  0
LINE
  5
47E
100
AcDbEntity
  8
M0
100
AcDbLine
 10
76.036325
 20
450.190658
 11
76.036325
 21
456.690659
  0
LINE
  5
47F
100
AcDbEntity
  8
M0
100
AcDbLine
 10
131.236326
 20
437.09066
 11
131.236326
 21
430.590659
  0
LINE
  5
480
100
AcDbEntity
  8
M0
100
AcDbLine
 10
83.036325
 20
449.690661
 11
76.536325
 21
449.690661
  0
LINE
  5
481
100
AcDbEntity
  8
M0
100
AcDbLine
 10
94.148874
 20
453.59066
 11
93.124812
 21
453.59066
  0
LINE
  5
482
100
AcDbEntity
  8
M0
100
AcDbLine
 10
112.636324
 20
372.890661
 11
112.636324
 21
372.14066
  0
LINE
  5
483
100
AcDbEntity
  8
M0
100
AcDbLine
 10
112.636324
 20
374.540659
 11
112.636324
 21
373.790658
  0
LINE
  5
484
100
AcDbEntity
  8
M0
100
AcDbLine
 10
93.124812
 20
452.69066
 11
94.148874
 21
452.69066
  0
LINE
  5
485
100
AcDbEntity
  8
M0
100
AcDbLine
 10
113.536324
 20
372.14066
 11
113.536324
 21
372.890661
  0
LINE
  5
486
100
AcDbEntity
  8
M0
100
AcDbLine
 10
113.536324
 20
374.540659
 11
112.636324
 21
374.540659
  0
LINE
  5
487
100
AcDbEntity
  8
M0
100
AcDbLine
 10
100.536325
 20
407.640659
 11
101.286325
 21
407.640659
  0
LINE
  5
488
100
AcDbEntity
  8
M0
100
AcDbLine
 10
71.186325
 20
376.34066
 11
76.136325
 21
376.34066
  0
LINE
  5
489
100
AcDbEntity
  8
M0
100
AcDbLine
 10
115.686325
 20
457.34066
 11
115.186324
 21
457.840661
  0
LINE
  5
48A
100
AcDbEntity
  8
M0
100
AcDbLine
 10
123.586325
 20
395.640659
 11
131.386325
 21
395.640659
  0
LINE
  5
48B
100
AcDbEntity
  8
M0
100
AcDbLine
 10
115.686325
 20
449.340659
 11
115.686325
 21
457.34066
  0
LINE
  5
48C
100
AcDbEntity
  8
M0
100
AcDbLine
 10
113.536324
 20
373.790658
 11
114.673775
 21
373.790658
  0
LINE
  5
48D
100
AcDbEntity
  8
M0
100
AcDbLine
 10
83.586325
 20
457.840661
 11
75.286325
 21
457.840661
  0
LINE
  5
48E
100
AcDbEntity
  8
M0
100
AcDbLine
 10
96.186325
 20
454.340658
 11
95.286325
 21
454.340658
  0
LINE
  5
48F
100
AcDbEntity
  8
M0
100
AcDbLine
 10
95.286325
 20
451.940658
 11
96.186325
 21
451.940658
  0
LINE
  5
490
100
AcDbEntity
  8
M0
100
AcDbLine
 10
96.186325
 20
453.59066
 11
97.323776
 21
453.59066
  0
LINE
  5
491
100
AcDbEntity
  8
M0
100
AcDbLine
 10
94.148874
 20
453.59066
 11
95.286325
 21
453.59066
  0
LINE
  5
492
100
AcDbEntity
  8
M0
100
AcDbLine
 10
67.736324
 20
402.690659
 11
67.736324
 21
396.190659
  0
LINE
  5
493
100
AcDbEntity
  8
M0
100
AcDbLine
 10
97.323776
 20
452.69066
 11
98.347838
 21
452.69066
  0
LINE
  5
494
100
AcDbEntity
  8
M0
100
AcDbLine
 10
98.347838
 20
453.59066
 11
97.323776
 21
453.59066
  0
LINE
  5
495
100
AcDbEntity
  8
M0
100
AcDbLine
 10
114.673775
 20
372.890661
 11
113.536324
 21
372.890661
  0
LINE
  5
496
100
AcDbEntity
  8
M0
100
AcDbLine
 10
112.636324
 20
372.890661
 11
111.498874
 21
372.890661
  0
LINE
  5
497
100
AcDbEntity
  8
M0
100
AcDbLine
 10
96.186325
 20
453.59066
 11
96.186325
 21
454.340658
  0
LINE
  5
498
100
AcDbEntity
  8
M0
100
AcDbLine
 10
96.186325
 20
451.940658
 11
96.186325
 21
452.69066
  0
ARC
  5
499
100
AcDbEntity
  8
M0
100
AcDbCircle
 10
130.736324
 20
395.09066
 40
0.5
100
AcDbArc
 50
0.0
 51
90.0
  0
ARC
  5
49A
100
AcDbEntity
  8
M0
100
AcDbCircle
 10
124.236325
 20
388.590659
 40
0.5
100
AcDbArc
 50
180.0
 51
270.0
  0
ARC
  5
49B
100
AcDbEntity
  8
M0
100
AcDbCircle
 10
121.986325
 20
454.340659
 40
1.0
100
AcDbArc
 50
0.0
 51
90.0
  0
ARC
  5
49C
100
AcDbEntity
  8
M0
100
AcDbCircle
 10
130.736325
 20
388.59066
 40
0.5
100
AcDbArc
 50
270.0
 51
360.0
  0
ARC
  5
49D
100
AcDbEntity
  8
M0
100
AcDbCircle
 10
67.236325
 20
395.090659
 40
0.5
100
AcDbArc
 50
0.0
 51
90.0
  0
ARC
  5
49E
100
AcDbEntity
  8
M0
100
AcDbCircle
 10
78.386325
 20
373.340659
 40
2.65
100
AcDbArc
 50
189.776849
 51
350.223151
  0
ARC
  5
49F
100
AcDbEntity
  8
M0
100
AcDbCircle
 10
67.236325
 20
388.590659
 40
0.5
100
AcDbArc
 50
270.0
 51
360.0
  0
LINE
  5
4A0
100
AcDbEntity
  8
M0
100
AcDbLine
 10
60.236324
 20
388.590659
 11
60.236324
 21
395.090659
  0
ARC
  5
4A1
100
AcDbEntity
  8
M0
100
AcDbCircle
 10
76.536325
 20
450.190659
 40
0.5
100
AcDbArc
 50
180.0
 51
270.0
  0
ARC
  5
4A2
100
AcDbEntity
  8
M0
100
AcDbCircle
 10
60.736325
 20
395.090659
 40
0.5
100
AcDbArc
 50
90.0
 51
180.0
  0
ARC
  5
4A3
100
AcDbEntity
  8
M0
100
AcDbCircle
 10
83.036325
 20
450.190659
 40
0.5
100
AcDbArc
 50
270.0
 51
360.0
  0
ARC
  5
4A4
100
AcDbEntity
  8
M0
100
AcDbCircle
 10
83.036325
 20
456.690659
 40
0.5
100
AcDbArc
 50
0.0
 51
90.0
  0
ARC
  5
4A5
100
AcDbEntity
  8
M0
100
AcDbCircle
 10
67.236324
 20
437.09066
 40
0.5
100
AcDbArc
 50
0.0
 51
90.0
  0
ARC
  5
4A6
100
AcDbEntity
  8
M0
100
AcDbCircle
 10
67.236325
 20
430.59066
 40
0.5
100
AcDbArc
 50
270.0
 51
360.0
  0
LINE
  5
4A7
100
AcDbEntity
  8
M0
100
AcDbLine
 10
120.286325
 20
449.340659
 11
115.336325
 21
449.340659
  0
LINE
  5
4A8
100
AcDbEntity
  8
M0
100
AcDbLine
 10
88.786325
 20
376.34066
 11
93.736325
 21
376.34066
  0
LINE
  5
4A9
100
AcDbEntity
  8
M0
100
AcDbLine
 10
106.386324
 20
376.34066
 11
111.336324
 21
376.34066
  0
LINE
  5
4AA
100
AcDbEntity
  8
M0
100
AcDbLine
 10
91.586325
 20
407.140659
 11
91.586325
 21
407.640659
  0
ARC
  5
4AB
100
AcDbEntity
  8
M0
100
AcDbCircle
 10
60.736325
 20
430.590659
 40
0.5
100
AcDbArc
 50
180.0
 51
270.0
  0
ARC
  5
4AC
100
AcDbEntity
  8
M0
100
AcDbCircle
 10
108.436324
 20
456.690659
 40
0.5
100
AcDbArc
 50
90.0
 51
180.0
  0
ARC
  5
4AD
100
AcDbEntity
  8
M0
100
AcDbCircle
 10
108.436325
 20
450.190659
 40
0.5
100
AcDbArc
 50
180.0
 51
270.0
  0
ARC
  5
4AE
100
AcDbEntity
  8
M0
100
AcDbCircle
 10
60.736324
 20
437.090659
 40
0.5
100
AcDbArc
 50
90.0
 51
180.0
  0
ARC
  5
4AF
100
AcDbEntity
  8
M0
100
AcDbCircle
 10
114.936325
 20
450.19066
 40
0.5
100
AcDbArc
 50
270.0
 51
360.0
  0
ARC
  5
4B0
100
AcDbEntity
  8
M0
100
AcDbCircle
 10
114.936324
 20
456.69066
 40
0.5
100
AcDbArc
 50
0.0
 51
90.0
  0
LINE
  5
4B1
100
AcDbEntity
  8
M0
100
AcDbLine
 10
60.986325
 20
437.64066
 11
60.086325
 21
437.64066
  0
LINE
  5
4B2
100
AcDbEntity
  8
M0
100
AcDbLine
 10
85.286325
 20
454.94066
 11
85.286325
 21
457.14066
  0
LINE
  5
4B3
100
AcDbEntity
  8
M0
100
AcDbLine
 10
130.486324
 20
437.64066
 11
131.386325
 21
437.64066
  0
LINE
  5
4B4
100
AcDbEntity
  8
M0
100
AcDbLine
 10
93.736325
 20
376.34066
 11
97.736325
 21
376.34066
  0
LINE
  5
4B5
100
AcDbEntity
  8
M0
100
AcDbLine
 10
111.336323
 20
449.340659
 11
117.786326
 21
449.340659
  0
LINE
  5
4B6
100
AcDbEntity
  8
M0
100
AcDbLine
 10
123.586325
 20
437.64066
 11
124.486325
 21
437.64066
  0
ARC
  5
4B7
100
AcDbEntity
  8
M0
100
AcDbCircle
 10
67.486325
 20
407.640659
 40
1.0
100
AcDbArc
 50
180.0
 51
270.0
  0
ARC
  5
4B8
100
AcDbEntity
  8
M0
100
AcDbCircle
 10
64.285835
 20
445.290659
 40
0.3
100
AcDbArc
 50
90.0
 51
178.876481
  0
ARC
  5
4B9
100
AcDbEntity
  8
M0
100
AcDbCircle
 10
85.586325
 20
437.740659
 40
0.5
100
AcDbArc
 50
180.0
 51
270.0
  0
ARC
  5
4BA
100
AcDbEntity
  8
M0
100
AcDbCircle
 10
113.086325
 20
373.340659
 40
3.5
100
AcDbArc
 50
121.002719
 51
180.0
  0
ARC
  5
4BB
100
AcDbEntity
  8
M0
100
AcDbCircle
 10
103.186325
 20
387.940659
 40
0.5
100
AcDbArc
 50
90.0
 51
180.0
  0
LINE
  5
4BC
100
AcDbEntity
  8
M0
100
AcDbLine
 10
132.486325
 20
440.190659
 11
132.386323
 21
440.190659
  0
LINE
  5
4BD
100
AcDbEntity
  8
M0
100
AcDbLine
 10
84.636325
 20
371.340661
 11
84.636325
 21
376.34066
  0
LINE
  5
4BE
100
AcDbEntity
  8
M0
100
AcDbLine
 10
72.136324
 20
371.340661
 11
72.136324
 21
376.34066
  0
LINE
  5
4BF
100
AcDbEntity
  8
M0
100
AcDbLine
 10
106.836325
 20
371.340661
 11
106.836325
 21
376.34066
  0
LINE
  5
4C0
100
AcDbEntity
  8
M0
100
AcDbLine
 10
85.786325
 20
457.640658
 11
105.686325
 21
457.640658
  0
LINE
  5
4C1
100
AcDbEntity
  8
M0
100
AcDbLine
 10
58.986325
 20
385.49066
 11
59.086327
 21
385.49066
  0
LINE
  5
4C2
100
AcDbEntity
  8
M0
100
AcDbLine
 10
119.336326
 20
376.34066
 11
119.336326
 21
371.340661
  0
LINE
  5
4C3
100
AcDbEntity
  8
M0
100
AcDbLine
 10
109.586325
 20
373.340658
 11
109.586325
 21
371.340661
  0
LINE
  5
4C4
100
AcDbEntity
  8
M0
100
AcDbLine
 10
74.886324
 20
373.340658
 11
74.886324
 21
371.340661
  0
LINE
  5
4C5
100
AcDbEntity
  8
M0
100
AcDbLine
 10
75.286325
 20
449.340659
 11
75.286325
 21
458.340659
  0
LINE
  5
4C6
100
AcDbEntity
  8
M0
100
AcDbLine
 10
131.686325
 20
370.340659
 11
107.836325
 21
370.340659
  0
LINE
  5
4C7
100
AcDbEntity
  8
M0
100
AcDbLine
 10
58.986325
 20
440.190659
 11
59.086327
 21
440.190659
  0
LINE
  5
4C8
100
AcDbEntity
  8
M0
100
AcDbLine
 10
106.186325
 20
457.14066
 11
106.186325
 21
454.94066
  0
ARC
  5
4C9
100
AcDbEntity
  8
M0
100
AcDbCircle
 10
59.786325
 20
451.340659
 40
3.0
100
AcDbArc
 50
90.0
 51
180.0
  0
ARC
  5
4CA
100
AcDbEntity
  8
M0
100
AcDbCircle
 10
131.186325
 20
451.340659
 40
3.0
100
AcDbArc
 50
0.0
 51
90.0
  0
ARC
  5
4CB
100
AcDbEntity
  8
M0
100
AcDbCircle
 10
77.486325
 20
458.340659
 40
0.5
100
AcDbArc
 50
270.0
 51
360.0
  0
ARC
  5
4CC
100
AcDbEntity
  8
M0
100
AcDbCircle
 10
67.836325
 20
372.340659
 40
0.5
100
AcDbArc
 50
180.0
 51
270.0
  0
ARC
  5
4CD
100
AcDbEntity
  8
M0
100
AcDbCircle
 10
113.986325
 20
458.840659
 40
0.5
100
AcDbArc
 50
90.0
 51
180.0
  0
ARC
  5
4CE
100
AcDbEntity
  8
M0
100
AcDbCircle
 10
113.986325
 20
458.340659
 40
0.5
100
AcDbArc
 50
180.0
 51
270.0
  0
ARC
  5
4CF
100
AcDbEntity
  8
M0
100
AcDbCircle
 10
117.586325
 20
371.340659
 40
1.0
100
AcDbArc
 50
180.0
 51
270.0
  0
ARC
  5
4D0
100
AcDbEntity
  8
M0
100
AcDbCircle
 10
83.636325
 20
371.340659
 40
1.0
100
AcDbArc
 50
270.0
 51
360.0
  0
ARC
  5
4D1
100
AcDbEntity
  8
M0
100
AcDbCircle
 10
73.136325
 20
371.340659
 40
1.0
100
AcDbArc
 50
180.0
 51
270.0
  0
ARC
  5
4D2
100
AcDbEntity
  8
M0
100
AcDbCircle
 10
108.586325
 20
371.340659
 40
1.0
100
AcDbArc
 50
270.0
 51
360.0
  0
ARC
  5
4D3
100
AcDbEntity
  8
M0
100
AcDbCircle
 10
74.286325
 20
458.340659
 40
1.0
100
AcDbArc
 50
90.0
 51
180.0
  0
ARC
  5
4D4
100
AcDbEntity
  8
M0
100
AcDbCircle
 10
73.886325
 20
371.340659
 40
1.0
100
AcDbArc
 50
270.0
 51
360.0
  0
ARC
  5
4D5
100
AcDbEntity
  8
M0
100
AcDbCircle
 10
128.236325
 20
377.840659
 40
2.25
100
AcDbArc
 50
270.0
 51
355.815286
  0
ARC
  5
4D6
100
AcDbEntity
  8
M0
100
AcDbCircle
 10
103.686325
 20
371.340659
 40
1.0
100
AcDbArc
 50
180.0
 51
270.0
  0
ARC
  5
4D7
100
AcDbEntity
  8
M0
100
AcDbCircle
 10
60.686815
 20
447.890659
 40
0.3
100
AcDbArc
 50
270.0
 51
358.876481
  0
ARC
  5
4D8
100
AcDbEntity
  8
M0
100
AcDbCircle
 10
63.236325
 20
447.840659
 40
2.25
100
AcDbArc
 50
90.0
 51
178.876481
  0
ARC
  5
4D9
100
AcDbEntity
  8
M0
100
AcDbCircle
 10
65.736325
 20
447.840659
 40
2.25
100
AcDbArc
 50
270.0
 51
450.0
  0
ARC
  5
4DA
100
AcDbEntity
  8
M0
100
AcDbCircle
 10
77.486325
 20
458.840659
 40
0.5
100
AcDbArc
 50
0.0
 51
90.0
  0
ARC
  5
4DB
100
AcDbEntity
  8
M0
100
AcDbCircle
 10
105.886325
 20
387.940659
 40
0.5
100
AcDbArc
 50
0.0
 51
90.0
  0
ARC
  5
4DC
100
AcDbEntity
  8
M0
100
AcDbCircle
 10
61.736325
 20
445.340659
 40
2.25
100
AcDbArc
 50
272.401074
 51
358.876481
  0
ARC
  5
4DD
100
AcDbEntity
  8
M0
100
AcDbCircle
 10
125.736325
 20
377.840659
 40
2.25
100
AcDbArc
 50
90.0
 51
270.0
  0
ARC
  5
4DE
100
AcDbEntity
  8
M0
100
AcDbCircle
 10
85.586325
 20
387.940659
 40
0.5
100
AcDbArc
 50
90.0
 51
180.0
  0
ARC
  5
4DF
100
AcDbEntity
  8
M0
100
AcDbCircle
 10
88.286325
 20
387.940659
 40
0.5
100
AcDbArc
 50
0.0
 51
90.0
  0
LINE
  5
4E0
100
AcDbEntity
  8
M0
100
AcDbLine
 10
124.186324
 20
454.340658
 11
131.186325
 21
454.340658
  0
LINE
  5
4E1
100
AcDbEntity
  8
M0
100
AcDbLine
 10
134.186324
 20
389.040659
 11
134.686325
 21
384.04066
  0
LINE
  5
4E2
100
AcDbEntity
  8
M0
100
AcDbLine
 10
68.486325
 20
373.340658
 11
67.836326
 21
373.340658
  0
LINE
  5
4E3
100
AcDbEntity
  8
M0
100
AcDbLine
 10
60.686816
 20
447.590659
 11
60.236324
 21
447.590659
  0
LINE
  5
4E4
100
AcDbEntity
  8
M0
100
AcDbLine
 10
65.736325
 20
450.09066
 11
63.236326
 21
450.09066
  0
LINE
  5
4E5
100
AcDbEntity
  8
M0
100
AcDbLine
 10
60.236324
 20
443.090659
 11
61.830588
 21
443.092635
  0
LINE
  5
4E6
100
AcDbEntity
  8
M0
100
AcDbLine
 10
67.336325
 20
373.840659
 11
67.336325
 21
374.34066
  0
LINE
  5
4E7
100
AcDbEntity
  8
M0
100
AcDbLine
 10
75.286325
 20
453.84066
 11
75.786324
 21
453.84066
  0
LINE
  5
4E8
100
AcDbEntity
  8
M0
100
AcDbLine
 10
68.486325
 20
374.34066
 11
67.336325
 21
374.34066
  0
LINE
  5
4E9
100
AcDbEntity
  8
M0
100
AcDbLine
 10
116.186325
 20
454.94066
 11
115.686325
 21
454.94066
  0
LINE
  5
4EA
100
AcDbEntity
  8
M0
100
AcDbLine
 10
75.286325
 20
456.140658
 11
75.786324
 21
456.140658
  0
LINE
  5
4EB
100
AcDbEntity
  8
M0
100
AcDbLine
 10
75.786324
 20
454.94066
 11
75.286325
 21
454.94066
  0
ARC
  5
4EC
100
AcDbEntity
  8
M0
100
AcDbCircle
 10
107.836325
 20
371.340659
 40
1.0
100
AcDbArc
 50
180.0
 51
270.0
  0
ARC
  5
4ED
100
AcDbEntity
  8
M0
100
AcDbCircle
 10
118.336325
 20
371.340659
 40
1.0
100
AcDbArc
 50
270.0
 51
360.0
  0
ARC
  5
4EE
100
AcDbEntity
  8
M0
100
AcDbCircle
 10
113.086325
 20
373.340659
 40
3.5
100
AcDbArc
 50
0.0
 51
58.997281
  0
ARC
  5
4EF
100
AcDbEntity
  8
M0
100
AcDbCircle
 10
105.686325
 20
457.140659
 40
0.5
100
AcDbArc
 50
0.0
 51
90.0
  0
ARC
  5
4F0
100
AcDbEntity
  8
M0
100
AcDbCircle
 10
78.386325
 20
373.340659
 40
3.5
100
AcDbArc
 50
91.94738
 51
121.002719
  0
ARC
  5
4F1
100
AcDbEntity
  8
M0
100
AcDbCircle
 10
78.386325
 20
373.340659
 40
3.5
100
AcDbArc
 50
121.002719
 51
180.0
  0
CIRCLE
  5
4F2
100
AcDbEntity
  8
M0
100
AcDbCircle
 10
95.736325
 20
453.140659
 40
3.1
  0
LINE
  5
4F3
100
AcDbEntity
  8
M0
100
AcDbLine
 10
64.285833
 20
445.590659
 11
65.736325
 21
445.590659
  0
ARC
  5
4F4
100
AcDbEntity
  8
M0
100
AcDbCircle
 10
113.086325
 20
373.340659
 40
3.5
100
AcDbArc
 50
58.997281
 51
88.05262
  0
ARC
  5
4F5
100
AcDbEntity
  8
M0
100
AcDbCircle
 10
58.286325
 20
386.490659
 40
1.0
100
AcDbArc
 50
180.0
 51
270.0
  0
ARC
  5
4F6
100
AcDbEntity
  8
M0
100
AcDbCircle
 10
85.786325
 20
457.140659
 40
0.5
100
AcDbArc
 50
90.0
 51
180.0
  0
ARC
  5
4F7
100
AcDbEntity
  8
M0
100
AcDbCircle
 10
78.386325
 20
373.340659
 40
3.5
100
AcDbArc
 50
0.0
 51
58.997281
  0
LINE
  5
4F8
100
AcDbEntity
  8
M0
100
AcDbLine
 10
102.686325
 20
371.340661
 11
102.686325
 21
375.340658
  0
LINE
  5
4F9
100
AcDbEntity
  8
M0
100
AcDbLine
 10
102.686325
 20
375.340658
 11
102.686325
 21
387.940659
  0
LINE
  5
4FA
100
AcDbEntity
  8
M0
100
AcDbLine
 10
103.686325
 20
388.44066
 11
105.386325
 21
388.44066
  0
LINE
  5
4FB
100
AcDbEntity
  8
M0
100
AcDbLine
 10
116.586326
 20
371.340661
 11
116.586326
 21
373.340658
  0
LINE
  5
4FC
100
AcDbEntity
  8
M0
100
AcDbLine
 10
83.636325
 20
370.340659
 11
60.286325
 21
370.340659
  0
LINE
  5
4FD
100
AcDbEntity
  8
M0
100
AcDbLine
 10
81.886325
 20
373.340658
 11
81.886325
 21
371.340661
  0
LINE
  5
4FE
100
AcDbEntity
  8
M0
100
AcDbLine
 10
57.286326
 20
439.190659
 11
57.286326
 21
373.340659
  0
ARC
  5
4FF
100
AcDbEntity
  8
M0
100
AcDbCircle
 10
60.236325
 20
445.340659
 40
2.25
100
AcDbArc
 50
90.0
 51
270.0
  0
LINE
  5
500
100
AcDbEntity
  8
M0
100
AcDbLine
 10
58.286324
 20
385.49066
 11
59.086327
 21
385.49066
  0
LINE
  5
501
100
AcDbEntity
  8
M0
100
AcDbLine
 10
114.8891
 20
376.34066
 11
115.336325
 21
376.34066
  0
LINE
  5
502
100
AcDbEntity
  8
M0
100
AcDbLine
 10
73.286325
 20
449.340659
 11
73.286325
 21
458.340658
  0
LINE
  5
503
100
AcDbEntity
  8
M0
100
AcDbLine
 10
76.583549
 20
376.34066
 11
76.136325
 21
376.34066
  0
LINE
  5
504
100
AcDbEntity
  8
M0
100
AcDbLine
 10
134.186324
 20
451.340659
 11
134.186324
 21
386.490659
  0
LINE
  5
505
100
AcDbEntity
  8
M0
100
AcDbLine
 10
59.786323
 20
454.340658
 11
67.286326
 21
454.340658
  0
LINE
  5
506
100
AcDbEntity
  8
M0
100
AcDbLine
 10
68.486325
 20
381.340659
 11
67.336325
 21
381.340659
  0
LINE
  5
507
100
AcDbEntity
  8
M0
100
AcDbLine
 10
118.186325
 20
450.840658
 11
120.286325
 21
450.840658
  0
LINE
  5
508
100
AcDbEntity
  8
M0
100
AcDbLine
 10
71.186325
 20
450.840658
 11
73.286325
 21
450.840658
  0
LINE
  5
509
100
AcDbEntity
  8
M0
100
AcDbLine
 10
116.186325
 20
453.84066
 11
115.686325
 21
453.84066
  0
LINE
  5
50A
100
AcDbEntity
  8
M0
100
AcDbLine
 10
86.086324
 20
370.340659
 11
86.586321
 21
370.340659
  0
LINE
  5
50B
100
AcDbEntity
  8
M0
100
AcDbLine
 10
86.586321
 20
370.340659
 11
87.786324
 21
370.340659
  0
LINE
  5
50C
100
AcDbEntity
  8
M0
100
AcDbLine
 10
56.786325
 20
441.640659
 11
56.786325
 21
451.340659
  0
LINE
  5
50D
100
AcDbEntity
  8
M0
100
AcDbLine
 10
67.336325
 20
375.340658
 11
68.486325
 21
375.340658
  0
LINE
  5
50E
100
AcDbEntity
  8
M0
100
AcDbLine
 10
127.187815
 20
380.09066
 11
125.736324
 21
380.09066
  0
LINE
  5
50F
100
AcDbEntity
  8
M0
100
AcDbLine
 10
122.986324
 20
417.540659
 11
122.986324
 21
414.240659
  0
LINE
  5
510
100
AcDbEntity
  8
M0
100
AcDbLine
 10
122.986324
 20
414.340659
 11
121.986324
 21
414.340659
  0
LINE
  5
511
100
AcDbEntity
  8
M0
100
AcDbLine
 10
122.486325
 20
420.040659
 11
121.986324
 21
420.040659
  0
LINE
  5
512
100
AcDbEntity
  8
M0
100
AcDbLine
 10
115.686325
 20
456.140658
 11
116.186325
 21
456.140658
  0
LINE
  5
513
100
AcDbEntity
  8
M0
100
AcDbLine
 10
89.236325
 20
399.840659
 11
87.236324
 21
399.840659
  0
LINE
  5
514
100
AcDbEntity
  8
M0
100
AcDbLine
 10
87.336325
 20
424.040659
 11
89.836325
 21
424.040659
  0
LINE
  5
515
100
AcDbEntity
  8
M0
100
AcDbLine
 10
121.986324
 20
417.340659
 11
122.986324
 21
417.340659
  0
LINE
  5
516
100
AcDbEntity
  8
M0
100
AcDbLine
 10
100.636325
 20
422.54066
 11
90.836325
 21
422.54066
  0
LINE
  5
517
100
AcDbEntity
  8
M0
100
AcDbLine
 10
68.486325
 20
414.340659
 11
69.486326
 21
414.340659
  0
LINE
  5
518
100
AcDbEntity
  8
M0
100
AcDbLine
 10
121.986324
 20
414.340659
 11
121.986324
 21
411.340659
  0
LINE
  5
519
100
AcDbEntity
  8
M0
100
AcDbLine
 10
69.486326
 20
420.040659
 11
68.986325
 21
420.040659
  0
LINE
  5
51A
100
AcDbEntity
  8
M0
100
AcDbLine
 10
68.486325
 20
417.540659
 11
68.486325
 21
414.340659
  0
ARC
  5
51B
100
AcDbEntity
  8
M0
100
AcDbCircle
 10
105.886325
 20
437.740659
 40
0.5
100
AcDbArc
 50
270.0
 51
360.0
  0
ARC
  5
51C
100
AcDbEntity
  8
M0
100
AcDbCircle
 10
103.186325
 20
437.740659
 40
0.5
100
AcDbArc
 50
180.0
 51
270.0
  0
ARC
  5
51D
100
AcDbEntity
  8
M0
100
AcDbCircle
 10
88.286325
 20
437.740659
 40
0.5
100
AcDbArc
 50
270.0
 51
360.0
  0
ARC
  5
51E
100
AcDbEntity
  8
M0
100
AcDbCircle
 10
123.986325
 20
418.040659
 40
1.0
100
AcDbArc
 50
0.0
 51
90.0
  0
ARC
  5
51F
100
AcDbEntity
  8
M0
100
AcDbCircle
 10
123.986325
 20
407.640659
 40
1.0
100
AcDbArc
 50
270.0
 51
360.0
  0
ARC
  5
520
100
AcDbEntity
  8
M0
100
AcDbCircle
 10
87.786325
 20
371.340659
 40
1.0
100
AcDbArc
 50
270.0
 51
360.0
  0
LINE
  5
521
100
AcDbEntity
  8
M0
100
AcDbLine
 10
116.186325
 20
457.840661
 11
115.186324
 21
457.840661
  0
LINE
  5
522
100
AcDbEntity
  8
M0
100
AcDbLine
 10
101.736325
 20
398.34066
 11
101.736325
 21
399.340659
  0
LINE
  5
523
100
AcDbEntity
  8
M0
100
AcDbLine
 10
116.186325
 20
450.840658
 11
115.686325
 21
450.840658
  0
CIRCLE
  5
524
100
AcDbEntity
  8
M0
100
AcDbCircle
 10
130.736325
 20
449.840659
 40
2.25
  0
CIRCLE
  5
525
100
AcDbEntity
  8
M0
100
AcDbCircle
 10
60.736325
 20
374.840659
 40
2.25
  0
ARC
  5
526
100
AcDbEntity
  8
M0
100
AcDbCircle
 10
67.486325
 20
418.040659
 40
1.0
100
AcDbArc
 50
90.0
 51
180.0
  0
LINE
  5
527
100
AcDbEntity
  8
M0
100
AcDbLine
 10
105.886325
 20
437.240659
 11
103.186325
 21
437.240659
  0
LINE
  5
528
100
AcDbEntity
  8
M0
100
AcDbLine
 10
68.486325
 20
419.04066
 11
67.486325
 21
419.04066
  0
LINE
  5
529
100
AcDbEntity
  8
M0
100
AcDbLine
 10
125.736324
 20
375.590658
 11
128.236324
 21
375.590658
  0
LINE
  5
52A
100
AcDbEntity
  8
M0
100
AcDbLine
 10
93.486325
 20
417.609613
 11
90.936325
 21
417.609613
  0
LINE
  5
52B
100
AcDbEntity
  8
M0
100
AcDbLine
 10
85.086325
 20
449.340659
 11
71.186325
 21
449.340659
  0
LINE
  5
52C
100
AcDbEntity
  8
M0
100
AcDbLine
 10
100.536325
 20
417.609613
 11
97.986325
 21
417.609613
  0
LINE
  5
52D
100
AcDbEntity
  8
M0
100
AcDbLine
 10
60.086325
 20
388.040659
 11
60.986325
 21
388.040659
  0
ARC
  5
52E
100
AcDbEntity
  8
M0
100
AcDbCircle
 10
130.736324
 20
402.69066
 40
0.5
100
AcDbArc
 50
0.0
 51
90.0
  0
LINE
  5
52F
100
AcDbEntity
  8
M0
100
AcDbLine
 10
87.786324
 20
388.44066
 11
86.086324
 21
388.44066
  0
LINE
  5
530
100
AcDbEntity
  8
M0
100
AcDbLine
 10
88.286325
 20
388.44066
 11
87.786324
 21
388.44066
  0
LINE
  5
531
100
AcDbEntity
  8
M0
100
AcDbLine
 10
86.086324
 20
388.44066
 11
85.586324
 21
388.44066
  0
LINE
  5
532
100
AcDbEntity
  8
M0
100
AcDbLine
 10
122.986324
 20
419.04066
 11
123.986324
 21
419.04066
  0
LINE
  5
533
100
AcDbEntity
  8
M0
100
AcDbLine
 10
90.836325
 20
423.04066
 11
90.836325
 21
422.54066
  0
LINE
  5
534
100
AcDbEntity
  8
M0
100
AcDbLine
 10
121.986324
 20
411.340659
 11
122.986324
 21
411.340659
  0
LINE
  5
535
100
AcDbEntity
  8
M0
100
AcDbLine
 10
69.486326
 20
414.340659
 11
69.486326
 21
411.340659
  0
LINE
  5
536
100
AcDbEntity
  8
M0
100
AcDbLine
 10
90.836325
 20
423.04066
 11
100.636325
 21
423.04066
  0
LINE
  5
537
100
AcDbEntity
  8
M0
100
AcDbLine
 10
122.986324
 20
411.440659
 11
122.986324
 21
408.140659
  0
LINE
  5
538
100
AcDbEntity
  8
M0
100
AcDbLine
 10
69.486326
 20
408.34066
 11
69.486326
 21
405.640659
  0
LINE
  5
539
100
AcDbEntity
  8
M0
100
AcDbLine
 10
69.486326
 20
417.340659
 11
68.486325
 21
417.340659
  0
LINE
  5
53A
100
AcDbEntity
  8
M0
100
AcDbLine
 10
121.986324
 20
420.040659
 11
121.986324
 21
417.340659
  0
LINE
  5
53B
100
AcDbEntity
  8
M0
100
AcDbLine
 10
121.986324
 20
408.34066
 11
121.986324
 21
405.640659
  0
LINE
  5
53C
100
AcDbEntity
  8
M0
100
AcDbLine
 10
68.486325
 20
411.340659
 11
68.486325
 21
408.140659
  0
LINE
  5
53D
100
AcDbEntity
  8
M0
100
AcDbLine
 10
122.986324
 20
408.34066
 11
121.986324
 21
408.34066
  0
LINE
  5
53E
100
AcDbEntity
  8
M0
100
AcDbLine
 10
67.486325
 20
411.440659
 11
69.186324
 21
411.440659
  0
LINE
  5
53F
100
AcDbEntity
  8
M0
100
AcDbLine
 10
71.186325
 20
389.940659
 11
70.186324
 21
389.940659
  0
LINE
  5
540
100
AcDbEntity
  8
M0
100
AcDbLine
 10
66.486325
 20
418.040659
 11
66.486325
 21
407.640659
  0
LINE
  5
541
100
AcDbEntity
  8
M0
100
AcDbLine
 10
71.186325
 20
375.340658
 11
71.186325
 21
389.940659
  0
LINE
  5
542
100
AcDbEntity
  8
M0
100
AcDbLine
 10
124.986324
 20
418.040659
 11
124.986324
 21
407.640659
  0
LINE
  5
543
100
AcDbEntity
  8
M0
100
AcDbLine
 10
67.486325
 20
406.640659
 11
68.486325
 21
406.640659
  0
LINE
  5
544
100
AcDbEntity
  8
M0
100
AcDbLine
 10
132.486325
 20
385.49066
 11
132.386323
 21
385.49066
  0
LINE
  5
545
100
AcDbEntity
  8
M0
100
AcDbLine
 10
57.286326
 20
436.64066
 11
56.786325
 21
441.640659
  0
LINE
  5
546
100
AcDbEntity
  8
M0
100
AcDbLine
 10
124.486325
 20
388.040659
 11
123.586325
 21
388.040659
  0
LINE
  5
547
100
AcDbEntity
  8
M0
100
AcDbLine
 10
69.186324
 20
414.240659
 11
67.486325
 21
414.240659
  0
LINE
  5
548
100
AcDbEntity
  8
M0
100
AcDbLine
 10
131.386325
 20
388.040659
 11
130.486324
 21
388.040659
  0
LINE
  5
549
100
AcDbEntity
  8
M0
100
AcDbLine
 10
68.486325
 20
411.440659
 11
68.486325
 21
411.340659
  0
LINE
  5
54A
100
AcDbEntity
  8
M0
100
AcDbLine
 10
106.386324
 20
387.940659
 11
106.386324
 21
375.340658
  0
LINE
  5
54B
100
AcDbEntity
  8
M0
100
AcDbLine
 10
105.386325
 20
388.44066
 11
105.886325
 21
388.44066
  0
LINE
  5
54C
100
AcDbEntity
  8
M0
100
AcDbLine
 10
120.286325
 20
375.340658
 11
120.286325
 21
389.940659
  0
ARC
  5
54D
100
AcDbEntity
  8
M0
100
AcDbCircle
 10
82.886325
 20
371.340659
 40
1.0
100
AcDbArc
 50
180.0
 51
270.0
  0
ARC
  5
54E
100
AcDbEntity
  8
M0
100
AcDbCircle
 10
74.286325
 20
458.340659
 40
1.0
100
AcDbArc
 50
0.0
 51
90.0
  0
LINE
  5
54F
100
AcDbEntity
  8
M0
100
AcDbLine
 10
67.336325
 20
381.340659
 11
67.336325
 21
375.340658
  0
LINE
  5
550
100
AcDbEntity
  8
M0
100
AcDbLine
 10
103.186325
 20
388.44066
 11
103.686325
 21
388.44066
  0
LINE
  5
551
100
AcDbEntity
  8
M0
100
AcDbLine
 10
68.486325
 20
414.240659
 11
68.486325
 21
414.340659
  0
LINE
  5
552
100
AcDbEntity
  8
M0
100
AcDbLine
 10
123.986324
 20
406.640659
 11
122.986324
 21
406.640659
  0
LINE
  5
553
100
AcDbEntity
  8
M0
100
AcDbLine
 10
67.486325
 20
417.540659
 11
67.486325
 21
408.140659
  0
LINE
  5
554
100
AcDbEntity
  8
M0
100
AcDbLine
 10
123.986324
 20
417.540659
 11
123.986324
 21
408.140659
  0
LINE
  5
555
100
AcDbEntity
  8
M0
100
AcDbLine
 10
120.286325
 20
389.940659
 11
121.286325
 21
389.940659
  0
ARC
  5
556
100
AcDbEntity
  8
M0
100
AcDbCircle
 10
87.336325
 20
402.640659
 40
1.0
100
AcDbArc
 50
180.0
 51
270.0
  0
ARC
  5
557
100
AcDbEntity
  8
M0
100
AcDbCircle
 10
121.986325
 20
434.540659
 40
1.0
100
AcDbArc
 50
0.0
 51
90.0
  0
ARC
  5
558
100
AcDbEntity
  8
M0
100
AcDbCircle
 10
89.236325
 20
398.340659
 40
0.5
100
AcDbArc
 50
270.0
 51
360.0
  0
ARC
  5
559
100
AcDbEntity
  8
M0
100
AcDbCircle
 10
104.236325
 20
398.340659
 40
0.5
100
AcDbArc
 50
270.0
 51
360.0
  0
ARC
  5
55A
100
AcDbEntity
  8
M0
100
AcDbCircle
 10
104.236325
 20
399.340659
 40
0.5
100
AcDbArc
 50
0.0
 51
90.0
  0
ARC
  5
55B
100
AcDbEntity
  8
M0
100
AcDbCircle
 10
89.236325
 20
399.340659
 40
0.5
100
AcDbArc
 50
0.0
 51
90.0
  0
ARC
  5
55C
100
AcDbEntity
  8
M0
100
AcDbCircle
 10
121.986325
 20
371.340659
 40
1.0
100
AcDbArc
 50
270.0
 51
360.0
  0
LINE
  5
55D
100
AcDbEntity
  8
M0
100
AcDbLine
 10
69.486326
 20
420.040659
 11
69.486326
 21
417.340659
  0
ARC
  5
55E
100
AcDbEntity
  8
M0
100
AcDbCircle
 10
93.486325
 20
417.109613
 40
0.5
100
AcDbArc
 50
0.0
 51
90.0
  0
ARC
  5
55F
100
AcDbEntity
  8
M0
100
AcDbCircle
 10
87.336325
 20
423.040659
 40
1.0
100
AcDbArc
 50
90.0
 51
180.0
  0
ARC
  5
560
100
AcDbEntity
  8
M0
100
AcDbCircle
 10
97.986325
 20
417.109613
 40
0.5
100
AcDbArc
 50
90.0
 51
180.0
  0
ARC
  5
561
100
AcDbEntity
  8
M0
100
AcDbCircle
 10
104.136325
 20
423.040659
 40
1.0
100
AcDbArc
 50
0.0
 51
90.0
  0
LINE
  5
562
100
AcDbEntity
  8
M0
100
AcDbLine
 10
67.336325
 20
372.340659
 11
67.336325
 21
373.840659
  0
LINE
  5
563
100
AcDbEntity
  8
M0
100
AcDbLine
 10
67.886325
 20
437.64066
 11
66.986324
 21
437.64066
  0
LINE
  5
564
100
AcDbEntity
  8
M0
100
AcDbLine
 10
68.486325
 20
371.840658
 11
67.836326
 21
371.840658
  0
LINE
  5
565
100
AcDbEntity
  8
M0
100
AcDbLine
 10
120.286325
 20
373.340658
 11
119.336326
 21
373.340658
  0
LINE
  5
566
100
AcDbEntity
  8
M0
100
AcDbLine
 10
120.286325
 20
374.34066
 11
119.336326
 21
374.34066
  0
LINE
  5
567
100
AcDbEntity
  8
M0
100
AcDbLine
 10
120.286325
 20
371.840658
 11
119.336326
 21
371.840658
  0
ARC
  5
568
100
AcDbEntity
  8
M0
100
AcDbCircle
 10
102.236325
 20
399.340659
 40
0.5
100
AcDbArc
 50
90.0
 51
180.0
  0
ARC
  5
569
100
AcDbEntity
  8
M0
100
AcDbCircle
 10
87.236325
 20
398.340659
 40
0.5
100
AcDbArc
 50
180.0
 51
270.0
  0
ARC
  5
56A
100
AcDbEntity
  8
M0
100
AcDbCircle
 10
102.236325
 20
398.340659
 40
0.5
100
AcDbArc
 50
180.0
 51
270.0
  0
ARC
  5
56B
100
AcDbEntity
  8
M0
100
AcDbCircle
 10
87.236325
 20
399.340659
 40
0.5
100
AcDbArc
 50
90.0
 51
180.0
  0
ARC
  5
56C
100
AcDbEntity
  8
M0
100
AcDbCircle
 10
104.136325
 20
402.640659
 40
1.0
100
AcDbArc
 50
270.0
 51
360.0
  0
LINE
  5
56D
100
AcDbEntity
  8
M0
100
AcDbLine
 10
66.986324
 20
388.040659
 11
67.886325
 21
388.040659
  0
ARC
  5
56E
100
AcDbEntity
  8
M0
100
AcDbCircle
 10
87.536325
 20
422.840659
 40
1.0
100
AcDbArc
 50
90.0
 51
180.0
  0
ARC
  5
56F
100
AcDbEntity
  8
M0
100
AcDbCircle
 10
90.186325
 20
418.840659
 40
0.5
100
AcDbArc
 50
270.0
 51
360.0
  0
ARC
  5
570
100
AcDbEntity
  8
M0
100
AcDbCircle
 10
69.486325
 20
391.140659
 40
1.0
100
AcDbArc
 50
180.0
 51
270.0
  0
ARC
  5
571
100
AcDbEntity
  8
M0
100
AcDbCircle
 10
122.486325
 20
405.140659
 40
0.5
100
AcDbArc
 50
0.0
 51
90.0
  0
ARC
  5
572
100
AcDbEntity
  8
M0
100
AcDbCircle
 10
87.536325
 20
405.340659
 40
1.0
100
AcDbArc
 50
90.0
 51
180.0
  0
LINE
  5
573
100
AcDbEntity
  8
M0
  6
DASHDOT
100
AcDbLine
 10
77.636325
 20
383.340659
 11
78.636325
 21
383.340659
  0
ARC
  5
574
100
AcDbEntity
  8
M0
100
AcDbCircle
 10
121.986325
 20
391.140659
 40
1.0
100
AcDbArc
 50
270.0
 51
360.0
  0
ARC
  5
575
100
AcDbEntity
  8
M0
100
AcDbCircle
 10
102.286325
 20
402.840659
 40
1.0
100
AcDbArc
 50
180.0
 51
270.0
  0
ARC
  5
576
100
AcDbEntity
  8
M0
100
AcDbCircle
 10
103.936325
 20
402.840659
 40
1.0
100
AcDbArc
 50
270.0
 51
360.0
  0
ARC
  5
577
100
AcDbEntity
  8
M0
100
AcDbCircle
 10
68.986325
 20
405.140659
 40
0.5
100
AcDbArc
 50
90.0
 51
180.0
  0
ARC
  5
578
100
AcDbEntity
  8
M0
100
AcDbCircle
 10
87.536325
 20
402.840659
 40
1.0
100
AcDbArc
 50
180.0
 51
270.0
  0
ARC
  5
579
100
AcDbEntity
  8
M0
100
AcDbCircle
 10
103.936325
 20
422.840659
 40
1.0
100
AcDbArc
 50
0.0
 51
90.0
  0
LINE
  5
57A
100
AcDbEntity
  8
M0
  6
DASHDOT
100
AcDbLine
 10
95.736325
 20
442.840659
 11
95.736325
 21
441.840659
  0
LINE
  5
57B
100
AcDbEntity
  8
M0
  6
DASHDOT
100
AcDbLine
 10
95.236325
 20
442.340659
 11
96.236325
 21
442.340659
  0
LINE
  5
57C
100
AcDbEntity
  8
M0
  6
DASHDOT
100
AcDbLine
 10
113.336325
 20
442.840659
 11
113.336325
 21
441.840659
  0
LINE
  5
57D
100
AcDbEntity
  8
M0
  6
DASHDOT
100
AcDbLine
 10
112.836325
 20
442.340659
 11
113.836325
 21
442.340659
  0
LINE
  5
57E
100
AcDbEntity
  8
M0
  6
DASHDOT
100
AcDbLine
 10
78.136325
 20
442.840659
 11
78.136325
 21
441.840659
  0
LINE
  5
57F
100
AcDbEntity
  8
M0
  6
DASHDOT
100
AcDbLine
 10
77.636325
 20
442.340659
 11
78.636325
 21
442.340659
  0
LINE
  5
580
100
AcDbEntity
  8
M0
  6
DASHDOT
100
AcDbLine
 10
112.836325
 20
383.340659
 11
113.836325
 21
383.340659
  0
LINE
  5
581
100
AcDbEntity
  8
M0
  6
DASHDOT
100
AcDbLine
 10
78.136325
 20
382.840659
 11
78.136325
 21
383.840659
  0
LINE
  5
582
100
AcDbEntity
  8
M0
  6
DASHDOT
100
AcDbLine
 10
113.336325
 20
382.840659
 11
113.336325
 21
383.840659
  0
LINE
  5
583
100
AcDbEntity
  8
M0
  6
DASHDOT
100
AcDbLine
 10
95.736325
 20
382.840659
 11
95.736325
 21
383.840659
  0
LINE
  5
584
100
AcDbEntity
  8
M0
  6
DASHDOT
100
AcDbLine
 10
95.236325
 20
383.340659
 11
96.236325
 21
383.340659
  0
LINE
  5
585
100
AcDbEntity
  8
M0
100
AcDbLine
 10
67.736324
 20
429.49066
 11
67.736324
 21
422.99066
  0
LINE
  5
586
100
AcDbEntity
  8
M0
100
AcDbLine
 10
106.386324
 20
435.54066
 11
106.386324
 21
457.840661
  0
LINE
  5
587
100
AcDbEntity
  8
M0
100
AcDbLine
 10
113.286326
 20
458.840659
 11
113.286326
 21
457.840661
  0
LINE
  5
588
100
AcDbEntity
  8
M0
100
AcDbLine
 10
75.486325
 20
449.340659
 11
75.486325
 21
450.340661
  0
LINE
  5
589
100
AcDbEntity
  8
M0
100
AcDbLine
 10
78.186324
 20
457.840661
 11
78.186324
 21
458.840659
  0
LINE
  5
58A
100
AcDbEntity
  8
M0
100
AcDbLine
 10
83.586325
 20
449.340659
 11
83.586325
 21
458.340658
  0
LINE
  5
58B
100
AcDbEntity
  8
M0
100
AcDbLine
 10
60.986325
 20
438.64066
 11
66.986324
 21
438.64066
  0
LINE
  5
58C
100
AcDbEntity
  8
M0
100
AcDbLine
 10
131.386325
 20
430.04066
 11
123.586325
 21
430.04066
  0
LINE
  5
58D
100
AcDbEntity
  8
M0
100
AcDbLine
 10
74.286325
 20
459.34066
 11
117.186325
 21
459.34066
  0
LINE
  5
58E
100
AcDbEntity
  8
M0
100
AcDbLine
 10
106.386324
 20
457.840661
 11
85.086325
 21
457.840661
  0
LINE
  5
58F
100
AcDbEntity
  8
M0
100
AcDbLine
 10
66.986324
 20
387.040658
 11
60.986325
 21
387.040658
  0
LINE
  5
590
100
AcDbEntity
  8
M0
100
AcDbLine
 10
67.886325
 20
430.04066
 11
60.086325
 21
430.04066
  0
LINE
  5
591
100
AcDbEntity
  8
M0
100
AcDbLine
 10
102.436325
 20
423.840659
 11
103.936325
 21
423.840659
  0
ARC
  5
592
100
AcDbEntity
  8
M0
100
AcDbCircle
 10
129.736325
 20
380.340659
 40
2.25
100
AcDbArc
 50
89.957854
 51
177.916058
  0
ARC
  5
593
100
AcDbEntity
  8
M0
100
AcDbCircle
 10
131.686325
 20
373.340659
 40
3.0
100
AcDbArc
 50
270.0
 51
360.0
  0
ARC
  5
594
100
AcDbEntity
  8
M0
100
AcDbCircle
 10
60.286325
 20
373.340659
 40
3.0
100
AcDbArc
 50
180.0
 51
270.0
  0
ARC
  5
595
100
AcDbEntity
  8
M0
100
AcDbCircle
 10
127.187813
 20
380.390659
 40
0.3
100
AcDbArc
 50
270.0
 51
360.0
  0
ARC
  5
596
100
AcDbEntity
  8
M0
100
AcDbCircle
 10
59.086325
 20
431.940659
 40
1.0
100
AcDbArc
 50
0.0
 51
90.0
  0
ARC
  5
597
100
AcDbEntity
  8
M0
100
AcDbCircle
 10
89.186325
 20
402.840659
 40
1.0
100
AcDbArc
 50
270.0
 51
360.0
  0
LINE
  5
598
100
AcDbEntity
  8
M0
100
AcDbLine
 10
60.986325
 20
437.590659
 11
60.986325
 21
438.64066
  0
LINE
  5
599
100
AcDbEntity
  8
M0
100
AcDbLine
 10
66.986324
 20
438.64066
 11
66.986324
 21
437.590659
  0
LINE
  5
59A
100
AcDbEntity
  8
M0
100
AcDbLine
 10
124.486325
 20
438.64066
 11
130.486324
 21
438.64066
  0
LINE
  5
59B
100
AcDbEntity
  8
M0
100
AcDbLine
 10
60.238831
 20
437.140659
 11
60.086325
 21
437.140659
  0
LINE
  5
59C
100
AcDbEntity
  8
M0
100
AcDbLine
 10
130.486324
 20
438.64066
 11
130.486324
 21
437.590659
  0
LINE
  5
59D
100
AcDbEntity
  8
M0
100
AcDbLine
 10
65.576907
 20
397.850016
 11
62.395267
 21
401.031779
  0
LINE
  5
59E
100
AcDbEntity
  8
M0
100
AcDbLine
 10
64.339603
 20
400.855021
 11
62.572025
 21
399.087321
  0
LINE
  5
59F
100
AcDbEntity
  8
M0
100
AcDbLine
 10
128.900152
 20
434.194352
 11
127.132574
 21
432.426774
  0
LINE
  5
5A0
100
AcDbEntity
  8
M0
100
AcDbLine
 10
127.839605
 20
435.255021
 11
126.072027
 21
433.487321
  0
LINE
  5
5A1
100
AcDbEntity
  8
M0
100
AcDbLine
 10
129.07691
 20
432.250016
 11
125.895269
 21
435.431779
  0
LINE
  5
5A2
100
AcDbEntity
  8
M0
100
AcDbLine
 10
129.07691
 20
424.650016
 11
125.895269
 21
427.831779
  0
LINE
  5
5A3
100
AcDbEntity
  8
M0
100
AcDbLine
 10
65.576907
 20
424.650016
 11
62.395267
 21
427.831779
  0
LINE
  5
5A4
100
AcDbEntity
  8
M0
100
AcDbLine
 10
65.40015
 20
426.594352
 11
63.632572
 21
424.826774
  0
LINE
  5
5A5
100
AcDbEntity
  8
M0
100
AcDbLine
 10
64.339603
 20
393.255021
 11
62.572025
 21
391.48732
  0
LINE
  5
5A6
100
AcDbEntity
  8
M0
100
AcDbLine
 10
65.576907
 20
390.250016
 11
62.395267
 21
393.431778
  0
LINE
  5
5A7
100
AcDbEntity
  8
M0
100
AcDbLine
 10
65.40015
 20
392.194352
 11
63.632572
 21
390.426774
  0
LINE
  5
5A8
100
AcDbEntity
  8
M0
100
AcDbLine
 10
65.40015
 20
399.794352
 11
63.632572
 21
398.026774
  0
CIRCLE
  5
5A9
100
AcDbEntity
  8
M0
100
AcDbCircle
 10
63.986324
 20
433.840661
 40
3.0
  0
CIRCLE
  5
5AA
100
AcDbEntity
  8
M0
100
AcDbCircle
 10
111.686322
 20
453.440663
 40
3.0
  0
CIRCLE
  5
5AB
100
AcDbEntity
  8
M0
100
AcDbCircle
 10
63.986324
 20
426.240661
 40
3.0
  0
CIRCLE
  5
5AC
100
AcDbEntity
  8
M0
100
AcDbCircle
 10
63.986324
 20
391.840658
 40
3.0
  0
CIRCLE
  5
5AD
100
AcDbEntity
  8
M0
100
AcDbCircle
 10
63.986324
 20
399.440658
 40
3.0
  0
CIRCLE
  5
5AE
100
AcDbEntity
  8
M0
100
AcDbCircle
 10
127.486326
 20
433.840661
 40
3.0
  0
LINE
  5
5AF
100
AcDbEntity
  8
M0
100
AcDbLine
 10
128.900152
 20
426.594352
 11
127.132574
 21
424.826774
  0
LINE
  5
5B0
100
AcDbEntity
  8
M0
100
AcDbLine
 10
127.839605
 20
427.655021
 11
126.072027
 21
425.887321
  0
CIRCLE
  5
5B1
100
AcDbEntity
  8
M0
100
AcDbCircle
 10
78.136325
 20
442.34069
 40
4.499996
  0
CIRCLE
  5
5B2
100
AcDbEntity
  8
M0
100
AcDbCircle
 10
113.336325
 20
442.34069
 40
4.499996
  0
CIRCLE
  5
5B3
100
AcDbEntity
  8
M0
100
AcDbCircle
 10
95.736325
 20
442.34069
 40
4.499996
  0
CIRCLE
  5
5B4
100
AcDbEntity
  8
M0
100
AcDbCircle
 10
79.786325
 20
453.440659
 40
3.0
  0
LINE
  5
5B5
100
AcDbEntity
  8
M0
100
AcDbLine
 10
97.617428
 20
442.807609
 11
95.269452
 21
440.459617
  0
LINE
  5
5B6
100
AcDbEntity
  8
M0
100
AcDbLine
 10
96.203228
 20
444.221824
 11
93.855252
 21
441.873832
  0
LINE
  5
5B7
100
AcDbEntity
  8
M0
100
AcDbLine
 10
93.66737
 20
444.409599
 11
97.93034
 21
440.14666
  0
LINE
  5
5B8
100
AcDbEntity
  8
M0
100
AcDbLine
 10
115.217428
 20
442.807609
 11
112.869452
 21
440.459617
  0
LINE
  5
5B9
100
AcDbEntity
  8
M0
100
AcDbLine
 10
113.803228
 20
444.221824
 11
111.455252
 21
441.873832
  0
LINE
  5
5BA
100
AcDbEntity
  8
M0
100
AcDbLine
 10
111.26737
 20
444.409599
 11
115.53034
 21
440.14666
  0
LINE
  5
5BB
100
AcDbEntity
  8
M0
100
AcDbLine
 10
116.186325
 20
449.340659
 11
116.186325
 21
458.340659
  0
LINE
  5
5BC
100
AcDbEntity
  8
M0
100
AcDbLine
 10
124.486325
 20
437.590659
 11
124.486325
 21
438.64066
  0
LINE
  5
5BD
100
AcDbEntity
  8
M0
100
AcDbLine
 10
118.186325
 20
449.340659
 11
118.186325
 21
458.340658
  0
LINE
  5
5BE
100
AcDbEntity
  8
M0
100
AcDbLine
 10
80.017428
 20
442.807609
 11
77.669452
 21
440.459617
  0
LINE
  5
5BF
100
AcDbEntity
  8
M0
100
AcDbLine
 10
78.603228
 20
444.221824
 11
76.255252
 21
441.873832
  0
LINE
  5
5C0
100
AcDbEntity
  8
M0
100
AcDbLine
 10
76.06737
 20
444.409599
 11
80.33034
 21
440.14666
  0
LINE
  5
5C1
100
AcDbEntity
  8
M0
100
AcDbLine
 10
113.276906
 20
451.850018
 11
110.095265
 21
455.031781
  0
LINE
  5
5C2
100
AcDbEntity
  8
M0
100
AcDbLine
 10
113.100148
 20
453.794354
 11
111.33257
 21
452.026776
  0
LINE
  5
5C3
100
AcDbEntity
  8
M0
100
AcDbLine
 10
64.339603
 20
435.255021
 11
62.572025
 21
433.487321
  0
LINE
  5
5C4
100
AcDbEntity
  8
M0
100
AcDbLine
 10
65.576907
 20
432.250016
 11
62.395267
 21
435.431779
  0
LINE
  5
5C5
100
AcDbEntity
  8
M0
100
AcDbLine
 10
65.40015
 20
434.194352
 11
63.632572
 21
432.426774
  0
LINE
  5
5C6
100
AcDbEntity
  8
M0
100
AcDbLine
 10
64.339603
 20
427.655021
 11
62.572025
 21
425.887321
  0
LINE
  5
5C7
100
AcDbEntity
  8
M0
100
AcDbLine
 10
81.200151
 20
453.79435
 11
79.432573
 21
452.026772
  0
LINE
  5
5C8
100
AcDbEntity
  8
M0
100
AcDbLine
 10
80.139604
 20
454.855019
 11
78.372026
 21
453.087319
  0
LINE
  5
5C9
100
AcDbEntity
  8
M0
100
AcDbLine
 10
81.376909
 20
451.850015
 11
78.195268
 21
455.031777
  0
LINE
  5
5CA
100
AcDbEntity
  8
M0
  6
DASHDOT
100
AcDbLine
 10
63.986325
 20
433.340659
 11
63.986325
 21
434.340659
  0
LINE
  5
5CB
100
AcDbEntity
  8
M0
  6
DASHDOT
100
AcDbLine
 10
63.486325
 20
433.840659
 11
64.486325
 21
433.840659
  0
LINE
  5
5CC
100
AcDbEntity
  8
M0
100
AcDbLine
 10
124.486325
 20
387.040658
 11
124.486325
 21
388.090659
  0
LINE
  5
5CD
100
AcDbEntity
  8
M0
100
AcDbLine
 10
90.436325
 20
408.548128
 11
90.436325
 21
408.140659
  0
LINE
  5
5CE
100
AcDbEntity
  8
M0
100
AcDbLine
 10
90.936325
 20
407.640659
 11
90.186325
 21
407.640659
  0
LINE
  5
5CF
100
AcDbEntity
  8
M0
100
AcDbLine
 10
99.886325
 20
418.040659
 11
99.886325
 21
418.340659
  0
LINE
  5
5D0
100
AcDbEntity
  8
M0
100
AcDbLine
 10
101.036325
 20
408.548128
 11
101.036325
 21
408.140659
  0
LINE
  5
5D1
100
AcDbEntity
  8
M0
100
AcDbLine
 10
90.186325
 20
418.040659
 11
101.286325
 21
418.040659
  0
LINE
  5
5D2
100
AcDbEntity
  8
M0
100
AcDbLine
 10
130.486324
 20
388.090659
 11
130.486324
 21
387.040658
  0
LINE
  5
5D3
100
AcDbEntity
  8
M0
100
AcDbLine
 10
130.486324
 20
387.040658
 11
124.486325
 21
387.040658
  0
LINE
  5
5D4
100
AcDbEntity
  8
M0
100
AcDbLine
 10
123.586325
 20
388.54066
 11
123.738831
 21
388.54066
  0
LINE
  5
5D5
100
AcDbEntity
  8
M0
100
AcDbLine
 10
97.486325
 20
417.088165
 11
97.486325
 21
417.109613
  0
LINE
  5
5D6
100
AcDbEntity
  8
M0
100
AcDbLine
 10
93.986325
 20
417.088165
 11
93.986325
 21
417.109613
  0
LINE
  5
5D7
100
AcDbEntity
  8
M0
100
AcDbLine
 10
90.436325
 20
417.109613
 11
90.436325
 21
417.088165
  0
LINE
  5
5D8
100
AcDbEntity
  8
M0
100
AcDbLine
 10
115.336325
 20
376.34066
 11
120.286325
 21
376.34066
  0
LINE
  5
5D9
100
AcDbEntity
  8
M0
100
AcDbLine
 10
111.336324
 20
449.340659
 11
106.386324
 21
449.340659
  0
LINE
  5
5DA
100
AcDbEntity
  8
M0
100
AcDbLine
 10
97.736325
 20
376.34066
 11
102.686325
 21
376.34066
  0
ARC
  5
5DB
100
AcDbEntity
  8
M0
100
AcDbCircle
 10
133.186325
 20
393.740659
 40
1.0
100
AcDbArc
 50
270.0
 51
360.0
  0
ARC
  5
5DC
100
AcDbEntity
  8
M0
100
AcDbCircle
 10
59.086325
 20
408.140659
 40
1.0
100
AcDbArc
 50
0.0
 51
90.0
  0
ARC
  5
5DD
100
AcDbEntity
  8
M0
100
AcDbCircle
 10
132.386325
 20
393.740659
 40
1.0
100
AcDbArc
 50
180.0
 51
270.0
  0
LINE
  5
5DE
100
AcDbEntity
  8
M0
100
AcDbLine
 10
106.386324
 20
446.040659
 11
106.386324
 21
448.840658
  0
LINE
  5
5DF
100
AcDbEntity
  8
M0
100
AcDbLine
 10
90.936325
 20
407.640659
 11
100.536325
 21
407.640659
  0
LINE
  5
5E0
100
AcDbEntity
  8
M0
100
AcDbLine
 10
91.586325
 20
418.040659
 11
91.586325
 21
418.340659
  0
LINE
  5
5E1
100
AcDbEntity
  8
M0
100
AcDbLine
 10
80.136325
 20
376.34066
 11
85.086325
 21
376.34066
  0
LINE
  5
5E2
100
AcDbEntity
  8
M0
100
AcDbLine
 10
78.836326
 20
374.540659
 11
77.936325
 21
374.540659
  0
LINE
  5
5E3
100
AcDbEntity
  8
M0
100
AcDbLine
 10
99.886325
 20
407.140659
 11
99.886325
 21
407.640659
  0
LINE
  5
5E4
100
AcDbEntity
  8
M0
100
AcDbLine
 10
78.836326
 20
373.790658
 11
79.973776
 21
373.790658
  0
LINE
  5
5E5
100
AcDbEntity
  8
M0
100
AcDbLine
 10
77.936325
 20
372.890661
 11
76.798875
 21
372.890661
  0
LINE
  5
5E6
100
AcDbEntity
  8
M0
100
AcDbLine
 10
78.836326
 20
373.790658
 11
78.836326
 21
374.540659
  0
LINE
  5
5E7
100
AcDbEntity
  8
M0
100
AcDbLine
 10
75.774811
 20
372.890661
 11
76.798875
 21
372.890661
  0
LINE
  5
5E8
100
AcDbEntity
  8
M0
100
AcDbLine
 10
79.973776
 20
372.890661
 11
80.997838
 21
372.890661
  0
LINE
  5
5E9
100
AcDbEntity
  8
M0
100
AcDbLine
 10
79.973776
 20
372.890661
 11
78.836326
 21
372.890661
  0
LINE
  5
5EA
100
AcDbEntity
  8
M0
100
AcDbLine
 10
106.386324
 20
373.340658
 11
106.386324
 21
371.340661
  0
LINE
  5
5EB
100
AcDbEntity
  8
M0
100
AcDbLine
 10
71.186325
 20
371.340661
 11
71.186325
 21
373.340658
  0
LINE
  5
5EC
100
AcDbEntity
  8
M0
100
AcDbLine
 10
80.997838
 20
373.790658
 11
79.973776
 21
373.790658
  0
LINE
  5
5ED
100
AcDbEntity
  8
M0
100
AcDbLine
 10
77.936325
 20
374.540659
 11
77.936325
 21
373.790658
  0
LINE
  5
5EE
100
AcDbEntity
  8
M0
100
AcDbLine
 10
77.936325
 20
372.14066
 11
78.836326
 21
372.14066
  0
LINE
  5
5EF
100
AcDbEntity
  8
M0
100
AcDbLine
 10
76.798875
 20
373.790658
 11
75.774811
 21
373.790658
  0
LINE
  5
5F0
100
AcDbEntity
  8
M0
100
AcDbLine
 10
113.536324
 20
373.790658
 11
113.536324
 21
374.540659
  0
LINE
  5
5F1
100
AcDbEntity
  8
M0
100
AcDbLine
 10
110.474812
 20
372.890661
 11
111.498874
 21
372.890661
  0
LINE
  5
5F2
100
AcDbEntity
  8
M0
100
AcDbLine
 10
111.498874
 20
373.790658
 11
110.474812
 21
373.790658
  0
LINE
  5
5F3
100
AcDbEntity
  8
M0
100
AcDbLine
 10
102.686325
 20
449.340659
 11
88.786325
 21
449.340659
  0
LINE
  5
5F4
100
AcDbEntity
  8
M0
100
AcDbLine
 10
97.486325
 20
410.140659
 11
97.486325
 21
417.088165
  0
LINE
  5
5F5
100
AcDbEntity
  8
M0
100
AcDbLine
 10
101.036325
 20
417.109613
 11
101.036325
 21
417.088165
  0
LINE
  5
5F6
100
AcDbEntity
  8
M0
100
AcDbLine
 10
115.697838
 20
373.790658
 11
114.673775
 21
373.790658
  0
LINE
  5
5F7
100
AcDbEntity
  8
M0
100
AcDbLine
 10
76.798875
 20
373.790658
 11
77.936325
 21
373.790658
  0
LINE
  5
5F8
100
AcDbEntity
  8
M0
100
AcDbLine
 10
78.836326
 20
372.14066
 11
78.836326
 21
372.890661
  0
LINE
  5
5F9
100
AcDbEntity
  8
M0
100
AcDbLine
 10
114.673775
 20
372.890661
 11
115.697838
 21
372.890661
  0
LINE
  5
5FA
100
AcDbEntity
  8
M0
100
AcDbLine
 10
77.936325
 20
372.890661
 11
77.936325
 21
372.14066
  0
LINE
  5
5FB
100
AcDbEntity
  8
M0
100
AcDbLine
 10
67.486325
 20
417.540659
 11
69.486326
 21
417.540659
  0
LINE
  5
5FC
100
AcDbEntity
  8
M0
100
AcDbLine
 10
89.936325
 20
410.090659
 11
90.186325
 21
409.590659
  0
LINE
  5
5FD
100
AcDbEntity
  8
M0
100
AcDbLine
 10
102.286325
 20
401.840659
 11
89.186325
 21
401.840659
  0
LINE
  5
5FE
100
AcDbEntity
  8
M0
100
AcDbLine
 10
89.186325
 20
401.840659
 11
87.536325
 21
401.840659
  0
LINE
  5
5FF
100
AcDbEntity
  8
M0
100
AcDbLine
 10
103.436325
 20
417.440659
 11
103.436325
 21
406.340659
  0
LINE
  5
600
100
AcDbEntity
  8
M0
100
AcDbLine
 10
103.436325
 20
401.840659
 11
103.936325
 21
401.840659
  0
LINE
  5
601
100
AcDbEntity
  8
M0
100
AcDbLine
 10
101.286325
 20
402.84066
 11
101.286325
 21
409.590659
  0
LINE
  5
602
100
AcDbEntity
  8
M0
100
AcDbLine
 10
87.536325
 20
406.340659
 11
88.036325
 21
406.340659
  0
LINE
  5
603
100
AcDbEntity
  8
M0
100
AcDbLine
 10
70.186324
 20
435.54066
 11
70.186324
 21
435.74066
  0
LINE
  5
604
100
AcDbEntity
  8
M0
100
AcDbLine
 10
101.286325
 20
409.590659
 11
101.536325
 21
410.090659
  0
LINE
  5
605
100
AcDbEntity
  8
M0
100
AcDbLine
 10
88.036325
 20
401.840659
 11
87.536325
 21
401.840659
  0
LINE
  5
606
100
AcDbEntity
  8
M0
100
AcDbLine
 10
90.186325
 20
409.590659
 11
90.186325
 21
402.84066
  0
LINE
  5
607
100
AcDbEntity
  8
M0
100
AcDbLine
 10
66.986324
 20
388.090659
 11
66.986324
 21
387.040658
  0
LINE
  5
608
100
AcDbEntity
  8
M0
100
AcDbLine
 10
90.186325
 20
416.090659
 11
89.936325
 21
415.590659
  0
LINE
  5
609
100
AcDbEntity
  8
M0
100
AcDbLine
 10
60.986325
 20
387.040658
 11
60.986325
 21
388.090659
  0
LINE
  5
60A
100
AcDbEntity
  8
M0
100
AcDbLine
 10
107.886325
 20
458.340658
 11
107.886325
 21
449.340659
  0
LINE
  5
60B
100
AcDbEntity
  8
M0
100
AcDbLine
 10
115.986325
 20
450.340661
 11
115.986325
 21
449.340659
  0
LINE
  5
60C
100
AcDbEntity
  8
M0
100
AcDbLine
 10
112.039601
 20
454.855023
 11
110.272023
 21
453.087323
  0
LINE
  5
60D
100
AcDbEntity
  8
M0
100
AcDbLine
 10
89.936325
 20
415.590659
 11
89.936325
 21
410.090659
  0
LINE
  5
60E
100
AcDbEntity
  8
M0
100
AcDbLine
 10
89.036325
 20
423.840659
 11
87.536325
 21
423.840659
  0
LINE
  5
60F
100
AcDbEntity
  8
M0
100
AcDbLine
 10
101.536325
 20
415.590659
 11
101.286325
 21
416.090659
  0
LINE
  5
610
100
AcDbEntity
  8
M0
100
AcDbLine
 10
101.536325
 20
410.090659
 11
101.536325
 21
415.590659
  0
LINE
  5
611
100
AcDbEntity
  8
M0
100
AcDbLine
 10
88.036325
 20
417.440659
 11
88.036325
 21
406.340659
  0
LINE
  5
612
100
AcDbEntity
  8
M0
100
AcDbLine
 10
103.436325
 20
406.340659
 11
103.936325
 21
406.340659
  0
ARC
  5
613
100
AcDbEntity
  8
M0
100
AcDbCircle
 10
78.386325
 20
373.340659
 40
2.65
100
AcDbArc
 50
170.223151
 51
189.776849
  0
ARC
  5
614
100
AcDbEntity
  8
M0
100
AcDbCircle
 10
78.386325
 20
373.340659
 40
2.65
100
AcDbArc
 50
350.223151
 51
369.776849
  0
ARC
  5
615
100
AcDbEntity
  8
M0
100
AcDbCircle
 10
113.086325
 20
373.340659
 40
2.65
100
AcDbArc
 50
9.776849
 51
170.223151
  0
ARC
  5
616
100
AcDbEntity
  8
M0
100
AcDbCircle
 10
133.186325
 20
386.490659
 40
1.0
100
AcDbArc
 50
270.0
 51
360.0
  0
ARC
  5
617
100
AcDbEntity
  8
M0
100
AcDbCircle
 10
113.086325
 20
373.340659
 40
2.65
100
AcDbArc
 50
189.776849
 51
350.223151
  0
ARC
  5
618
100
AcDbEntity
  8
M0
100
AcDbCircle
 10
68.486325
 20
439.590659
 40
0.6
100
AcDbArc
 50
90.0
 51
180.0
  0
ARC
  5
619
100
AcDbEntity
  8
M0
100
AcDbCircle
 10
70.928316
 20
402.246618
 40
3.350514
100
AcDbArc
 50
136.789285
 51
155.219178
  0
LINE
  5
61A
100
AcDbEntity
  8
M0
100
AcDbLine
 10
60.736325
 20
437.590659
 11
67.236324
 21
437.590659
  0
ARC
  5
61B
100
AcDbEntity
  8
M0
100
AcDbCircle
 10
68.486325
 20
393.340659
 40
0.6
100
AcDbArc
 50
180.0
 51
270.0
  0
ARC
  5
61C
100
AcDbEntity
  8
M0
100
AcDbCircle
 10
122.986325
 20
393.340659
 40
0.6
100
AcDbArc
 50
270.0
 51
360.0
  0
ARC
  5
61D
100
AcDbEntity
  8
M0
100
AcDbCircle
 10
59.086325
 20
393.740659
 40
1.0
100
AcDbArc
 50
270.0
 51
360.0
  0
ARC
  5
61E
100
AcDbEntity
  8
M0
100
AcDbCircle
 10
78.386325
 20
373.340659
 40
2.65
100
AcDbArc
 50
9.776849
 51
170.223151
  0
LINE
  5
61F
100
AcDbEntity
  8
M0
100
AcDbLine
 10
103.936325
 20
401.840659
 11
102.286325
 21
401.840659
  0
LINE
  5
620
100
AcDbEntity
  8
M0
100
AcDbLine
 10
101.286325
 20
416.090659
 11
101.286325
 21
418.340659
  0
LINE
  5
621
100
AcDbEntity
  8
M0
100
AcDbLine
 10
104.936325
 20
418.940659
 11
103.436325
 21
417.440659
  0
LINE
  5
622
100
AcDbEntity
  8
M0
100
AcDbLine
 10
121.986324
 20
405.640659
 11
122.486325
 21
405.640659
  0
LINE
  5
623
100
AcDbEntity
  8
M0
100
AcDbLine
 10
90.186325
 20
418.340659
 11
90.186325
 21
416.090659
  0
LINE
  5
624
100
AcDbEntity
  8
M0
100
AcDbLine
 10
104.936325
 20
422.840659
 11
104.936325
 21
402.840659
  0
ARC
  5
625
100
AcDbEntity
  8
M0
100
AcDbCircle
 10
133.186325
 20
439.190659
 40
1.0
100
AcDbArc
 50
0.0
 51
90.0
  0
ARC
  5
626
100
AcDbEntity
  8
M0
100
AcDbCircle
 10
59.086325
 20
386.490659
 40
1.0
100
AcDbArc
 50
270.0
 51
360.0
  0
ARC
  5
627
100
AcDbEntity
  8
M0
100
AcDbCircle
 10
122.986325
 20
439.590659
 40
0.6
100
AcDbArc
 50
0.0
 51
90.0
  0
ARC
  5
628
100
AcDbEntity
  8
M0
100
AcDbCircle
 10
68.486325
 20
386.090659
 40
0.6
100
AcDbArc
 50
180.0
 51
270.0
  0
ARC
  5
629
100
AcDbEntity
  8
M0
100
AcDbCircle
 10
122.986325
 20
386.090659
 40
0.6
100
AcDbArc
 50
270.0
 51
360.0
  0
LINE
  5
62A
100
AcDbEntity
  8
M0
100
AcDbLine
 10
68.486325
 20
408.34066
 11
69.486326
 21
408.34066
  0
ARC
  5
62B
100
AcDbEntity
  8
M0
100
AcDbCircle
 10
130.780326
 20
377.790955
 40
0.3
100
AcDbArc
 50
90.0
 51
180.0
  0
ARC
  5
62C
100
AcDbEntity
  8
M0
100
AcDbCircle
 10
87.786325
 20
454.340659
 40
1.0
100
AcDbArc
 50
0.0
 51
90.0
  0
ARC
  5
62D
100
AcDbEntity
  8
M0
100
AcDbCircle
 10
131.236325
 20
380.340659
 40
2.25
100
AcDbArc
 50
270.928845
 51
451.752277
  0
ARC
  5
62E
100
AcDbEntity
  8
M0
100
AcDbCircle
 10
70.186325
 20
454.340659
 40
1.0
100
AcDbArc
 50
0.0
 51
90.0
  0
ARC
  5
62F
100
AcDbEntity
  8
M0
100
AcDbCircle
 10
69.486325
 20
454.340659
 40
1.0
100
AcDbArc
 50
90.0
 51
180.0
  0
ARC
  5
630
100
AcDbEntity
  8
M0
100
AcDbCircle
 10
103.686325
 20
454.340659
 40
1.0
100
AcDbArc
 50
90.0
 51
180.0
  0
ARC
  5
631
100
AcDbEntity
  8
M0
100
AcDbCircle
 10
132.386325
 20
417.540659
 40
1.0
100
AcDbArc
 50
180.0
 51
270.0
  0
ARC
  5
632
100
AcDbEntity
  8
M0
100
AcDbCircle
 10
82.886325
 20
450.040659
 40
0.6
100
AcDbArc
 50
270.0
 51
352.509835
  0
ARC
  5
633
100
AcDbEntity
  8
M0
100
AcDbCircle
 10
133.186325
 20
417.540659
 40
1.0
100
AcDbArc
 50
270.0
 51
360.0
  0
ARC
  5
634
100
AcDbEntity
  8
M0
100
AcDbCircle
 10
58.286325
 20
431.940659
 40
1.0
100
AcDbArc
 50
90.0
 51
180.0
  0
ARC
  5
635
100
AcDbEntity
  8
M0
100
AcDbCircle
 10
113.086325
 20
373.340659
 40
2.65
100
AcDbArc
 50
170.223151
 51
189.776849
  0
ARC
  5
636
100
AcDbEntity
  8
M0
100
AcDbCircle
 10
86.086325
 20
454.340659
 40
1.0
100
AcDbArc
 50
90.0
 51
180.0
  0
LINE
  5
637
100
AcDbEntity
  8
M0
100
AcDbLine
 10
71.186325
 20
389.940659
 11
71.186325
 21
390.140659
  0
LINE
  5
638
100
AcDbEntity
  8
M0
100
AcDbLine
 10
132.386323
 20
440.190659
 11
133.186325
 21
440.190659
  0
LINE
  5
639
100
AcDbEntity
  8
M0
100
AcDbLine
 10
88.786325
 20
390.140659
 11
88.786325
 21
371.340659
  0
LINE
  5
63A
100
AcDbEntity
  8
M0
100
AcDbLine
 10
67.886325
 20
403.65098
 11
67.886325
 21
386.090659
  0
LINE
  5
63B
100
AcDbEntity
  8
M0
100
AcDbLine
 10
60.086325
 20
417.540659
 11
60.086325
 21
439.19066
  0
LINE
  5
63C
100
AcDbEntity
  8
M0
100
AcDbLine
 10
67.886325
 20
439.59066
 11
67.886325
 21
422.028906
  0
ARC
  5
63D
100
AcDbEntity
  8
M0
100
AcDbCircle
 10
105.386325
 20
454.340659
 40
1.0
100
AcDbArc
 50
0.0
 51
90.0
  0
ARC
  5
63E
100
AcDbEntity
  8
M0
100
AcDbCircle
 10
121.286325
 20
454.340659
 40
1.0
100
AcDbArc
 50
90.0
 51
180.0
  0
LINE
  5
63F
100
AcDbEntity
  8
M0
100
AcDbLine
 10
67.236325
 20
430.090661
 11
60.736326
 21
430.090654
  0
LINE
  5
640
100
AcDbEntity
  8
M0
100
AcDbLine
 10
120.286325
 20
435.54066
 11
120.286325
 21
435.74066
  0
LINE
  5
641
100
AcDbEntity
  8
M0
100
AcDbLine
 10
120.286325
 20
389.940659
 11
120.286325
 21
390.140659
  0
LINE
  5
642
100
AcDbEntity
  8
M0
100
AcDbLine
 10
59.086327
 20
440.190659
 11
58.286324
 21
440.190659
  0
LINE
  5
643
100
AcDbEntity
  8
M0
100
AcDbLine
 10
69.486326
 20
411.340659
 11
68.486325
 21
411.340659
  0
LINE
  5
644
100
AcDbEntity
  8
M0
100
AcDbLine
 10
86.536325
 20
418.940659
 11
88.036325
 21
417.440659
  0
LINE
  5
645
100
AcDbEntity
  8
M0
100
AcDbLine
 10
121.986324
 20
390.140659
 11
69.486326
 21
390.140659
  0
LINE
  5
646
100
AcDbEntity
  8
M0
100
AcDbLine
 10
101.286325
 20
405.640659
 11
90.186325
 21
405.640659
  0
LINE
  5
647
100
AcDbEntity
  8
M0
100
AcDbLine
 10
90.186325
 20
403.34066
 11
101.286325
 21
403.34066
  0
LINE
  5
648
100
AcDbEntity
  8
M0
100
AcDbLine
 10
90.186325
 20
407.140659
 11
101.286325
 21
407.140659
  0
LINE
  5
649
100
AcDbEntity
  8
M0
100
AcDbLine
 10
130.480327
 20
377.676471
 11
130.480327
 21
377.790956
  0
LINE
  5
64A
100
AcDbEntity
  8
M0
100
AcDbLine
 10
70.186324
 20
389.940659
 11
70.186324
 21
390.140659
  0
LINE
  5
64B
100
AcDbEntity
  8
M0
100
AcDbLine
 10
127.487812
 20
380.422479
 11
127.487812
 21
380.390658
  0
LINE
  5
64C
100
AcDbEntity
  8
M0
100
AcDbLine
 10
85.586325
 20
437.240659
 11
88.286325
 21
437.240659
  0
LINE
  5
64D
100
AcDbEntity
  8
M0
100
AcDbLine
 10
134.686325
 20
384.04066
 11
134.686325
 21
373.340658
  0
LINE
  5
64E
100
AcDbEntity
  8
M0
100
AcDbLine
 10
68.486325
 20
454.340659
 11
68.486325
 21
419.04066
  0
ARC
  5
64F
100
AcDbEntity
  8
M0
100
AcDbCircle
 10
132.386325
 20
408.140659
 40
1.0
100
AcDbArc
 50
90.0
 51
180.0
  0
LINE
  5
650
100
AcDbEntity
  8
M0
100
AcDbLine
 10
90.686325
 20
418.840659
 11
90.686325
 21
422.840659
  0
ARC
  5
651
100
AcDbEntity
  8
M0
100
AcDbCircle
 10
105.386325
 20
371.340659
 40
1.0
100
AcDbArc
 50
270.0
 51
360.0
  0
ARC
  5
652
100
AcDbEntity
  8
M0
100
AcDbCircle
 10
59.086325
 20
417.540659
 40
1.0
100
AcDbArc
 50
270.0
 51
360.0
  0
ARC
  5
653
100
AcDbEntity
  8
M0
100
AcDbCircle
 10
86.086325
 20
371.340659
 40
1.0
100
AcDbArc
 50
180.0
 51
270.0
  0
ARC
  5
654
100
AcDbEntity
  8
M0
100
AcDbCircle
 10
133.186325
 20
431.940659
 40
1.0
100
AcDbArc
 50
0.0
 51
90.0
  0
LINE
  5
655
100
AcDbEntity
  8
M0
100
AcDbLine
 10
68.486325
 20
414.340659
 11
68.486325
 21
414.240659
  0
LINE
  5
656
100
AcDbEntity
  8
M0
100
AcDbLine
 10
68.986325
 20
405.640659
 11
69.486326
 21
405.640659
  0
LINE
  5
657
100
AcDbEntity
  8
M0
100
AcDbLine
 10
68.486325
 20
411.440659
 11
68.486325
 21
411.340659
  0
LINE
  5
658
100
AcDbEntity
  8
M0
100
AcDbLine
 10
86.536325
 20
422.840659
 11
86.536325
 21
402.507556
  0
LINE
  5
659
100
AcDbEntity
  8
M0
100
AcDbLine
 10
101.786325
 20
423.840659
 11
103.936325
 21
423.840659
  0
LINE
  5
65A
100
AcDbEntity
  8
M0
100
AcDbLine
 10
120.286325
 20
452.340661
 11
120.286325
 21
454.340658
  0
LINE
  5
65B
100
AcDbEntity
  8
M0
100
AcDbLine
 10
59.586324
 20
416.540659
 11
59.586324
 21
409.140659
  0
LINE
  5
65C
100
AcDbEntity
  8
M0
100
AcDbLine
 10
71.186325
 20
435.54066
 11
71.186325
 21
454.340658
  0
LINE
  5
65D
100
AcDbEntity
  8
M0
100
AcDbLine
 10
123.586325
 20
403.65098
 11
123.586325
 21
386.090659
  0
LINE
  5
65E
100
AcDbEntity
  8
M0
100
AcDbLine
 10
131.386325
 20
386.490658
 11
131.386325
 21
408.140659
  0
LINE
  5
65F
100
AcDbEntity
  8
M0
100
AcDbLine
 10
60.086325
 20
386.490658
 11
60.086325
 21
408.140659
  0
LINE
  5
660
100
AcDbEntity
  8
M0
100
AcDbLine
 10
89.286325
 20
423.840659
 11
89.686325
 21
423.840659
  0
LINE
  5
661
100
AcDbEntity
  8
M0
100
AcDbLine
 10
71.186325
 20
373.340658
 11
71.186325
 21
374.34066
  0
LINE
  5
662
100
AcDbEntity
  8
M0
100
AcDbLine
 10
101.786325
 20
423.840659
 11
102.186325
 21
423.840659
  0
LINE
  5
663
100
AcDbEntity
  8
M0
100
AcDbLine
 10
131.886326
 20
416.540659
 11
131.886326
 21
409.140659
  0
LINE
  5
664
100
AcDbEntity
  8
M0
100
AcDbLine
 10
133.186325
 20
409.140659
 11
133.186325
 21
416.540659
  0
LINE
  5
665
100
AcDbEntity
  8
M0
100
AcDbLine
 10
58.286324
 20
409.140659
 11
58.286324
 21
416.540659
  0
ARC
  5
666
100
AcDbEntity
  8
M0
100
AcDbCircle
 10
60.736325
 20
430.590659
 40
0.5
100
AcDbArc
 50
180.0
 51
270.0
  0
ARC
  5
667
100
AcDbEntity
  8
M0
100
AcDbCircle
 10
60.736324
 20
437.090659
 40
0.5
100
AcDbArc
 50
90.0
 51
180.0
  0
ARC
  5
668
100
AcDbEntity
  8
M0
100
AcDbCircle
 10
124.236325
 20
430.590659
 40
0.5
100
AcDbArc
 50
180.0
 51
270.0
  0
ARC
  5
669
100
AcDbEntity
  8
M0
100
AcDbCircle
 10
58.286325
 20
393.740659
 40
1.0
100
AcDbArc
 50
180.0
 51
270.0
  0
ARC
  5
66A
100
AcDbEntity
  8
M0
100
AcDbCircle
 10
120.544333
 20
402.246618
 40
3.350514
100
AcDbArc
 50
24.780822
 51
43.210715
  0
ARC
  5
66B
100
AcDbEntity
  8
M0
100
AcDbCircle
 10
132.386325
 20
439.190659
 40
1.0
100
AcDbArc
 50
90.0
 51
180.0
  0
ARC
  5
66C
100
AcDbEntity
  8
M0
100
AcDbCircle
 10
76.536325
 20
456.690659
 40
0.5
100
AcDbArc
 50
90.0
 51
180.0
  0
ARC
  5
66D
100
AcDbEntity
  8
M0
100
AcDbCircle
 10
114.936325
 20
450.19066
 40
0.5
100
AcDbArc
 50
270.0
 51
360.0
  0
ARC
  5
66E
100
AcDbEntity
  8
M0
100
AcDbCircle
 10
124.236325
 20
437.090659
 40
0.5
100
AcDbArc
 50
90.0
 51
180.0
  0
ARC
  5
66F
100
AcDbEntity
  8
M0
100
AcDbCircle
 10
114.936324
 20
456.69066
 40
0.5
100
AcDbArc
 50
0.0
 51
90.0
  0
ARC
  5
670
100
AcDbEntity
  8
M0
100
AcDbCircle
 10
130.736325
 20
430.590659
 40
0.5
100
AcDbArc
 50
270.0
 51
360.0
  0
ARC
  5
671
100
AcDbEntity
  8
M0
100
AcDbCircle
 10
130.736325
 20
437.090659
 40
0.5
100
AcDbArc
 50
0.0
 51
90.0
  0
LINE
  5
672
100
AcDbEntity
  8
M0
100
AcDbLine
 10
93.986325
 20
410.140659
 11
93.986325
 21
417.088165
  0
LINE
  5
673
100
AcDbEntity
  8
M0
100
AcDbLine
 10
63.586324
 20
416.540659
 11
63.586324
 21
409.140659
  0
LINE
  5
674
100
AcDbEntity
  8
M0
100
AcDbLine
 10
101.036325
 20
417.540659
 11
101.036325
 21
409.045647
  0
LINE
  5
675
100
AcDbEntity
  8
M0
100
AcDbLine
 10
101.036325
 20
408.548128
 11
101.036325
 21
409.045647
  0
LINE
  5
676
100
AcDbEntity
  8
M0
100
AcDbLine
 10
90.436325
 20
417.540659
 11
90.436325
 21
409.045647
  0
LINE
  5
677
100
AcDbEntity
  8
M0
100
AcDbLine
 10
94.486325
 20
409.640659
 11
96.986325
 21
409.640659
  0
LINE
  5
678
100
AcDbEntity
  8
M0
100
AcDbLine
 10
123.586325
 20
422.140659
 11
131.386325
 21
422.140659
  0
LINE
  5
679
100
AcDbEntity
  8
M0
100
AcDbLine
 10
100.786325
 20
418.840659
 11
100.786325
 21
422.840659
  0
LINE
  5
67A
100
AcDbEntity
  8
M0
100
AcDbLine
 10
133.186325
 20
385.49066
 11
132.386323
 21
385.49066
  0
LINE
  5
67B
100
AcDbEntity
  8
M0
100
AcDbLine
 10
133.186325
 20
392.74066
 11
132.386323
 21
392.74066
  0
LINE
  5
67C
100
AcDbEntity
  8
M0
100
AcDbLine
 10
127.886325
 20
416.540659
 11
127.886325
 21
409.140659
  0
LINE
  5
67D
100
AcDbEntity
  8
M0
100
AcDbLine
 10
58.286324
 20
392.74066
 11
59.086327
 21
392.74066
  0
LINE
  5
67E
100
AcDbEntity
  8
M0
100
AcDbLine
 10
60.086325
 20
403.540659
 11
67.886325
 21
403.540659
  0
LINE
  5
67F
100
AcDbEntity
  8
M0
100
AcDbLine
 10
127.886325
 20
409.140659
 11
132.386323
 21
409.140659
  0
LINE
  5
680
100
AcDbEntity
  8
M0
100
AcDbLine
 10
120.286325
 20
451.340659
 11
120.286325
 21
452.340661
  0
LINE
  5
681
100
AcDbEntity
  8
M0
100
AcDbLine
 10
120.286325
 20
373.340658
 11
120.286325
 21
374.34066
  0
LINE
  5
682
100
AcDbEntity
  8
M0
100
AcDbLine
 10
85.086325
 20
457.840661
 11
85.086325
 21
435.54066
  0
LINE
  5
683
100
AcDbEntity
  8
M0
100
AcDbLine
 10
106.386324
 20
374.34066
 11
106.386324
 21
373.340658
  0
LINE
  5
684
100
AcDbEntity
  8
M0
100
AcDbLine
 10
67.886325
 20
422.140659
 11
60.086325
 21
422.140659
  0
LINE
  5
685
100
AcDbEntity
  8
M0
100
AcDbLine
 10
90.436325
 20
408.548128
 11
90.436325
 21
409.045647
  0
LINE
  5
686
100
AcDbEntity
  8
M0
100
AcDbLine
 10
132.386323
 20
416.540659
 11
127.886325
 21
416.540659
  0
LINE
  5
687
100
AcDbEntity
  8
M0
100
AcDbLine
 10
58.286324
 20
409.140659
 11
63.586324
 21
409.140659
  0
LINE
  5
688
100
AcDbEntity
  8
M0
100
AcDbLine
 10
123.586325
 20
439.590659
 11
123.586325
 21
422.057175
  0
LINE
  5
689
100
AcDbEntity
  8
M0
100
AcDbLine
 10
120.286325
 20
371.340661
 11
120.286325
 21
375.340658
  0
LINE
  5
68A
100
AcDbEntity
  8
M0
100
AcDbLine
 10
104.886329
 20
370.340659
 11
103.686325
 21
370.340659
  0
LINE
  5
68B
100
AcDbEntity
  8
M0
100
AcDbLine
 10
71.186325
 20
371.340661
 11
71.186325
 21
375.340658
  0
LINE
  5
68C
100
AcDbEntity
  8
M0
100
AcDbLine
 10
88.786325
 20
435.74066
 11
85.086325
 21
435.74066
  0
LINE
  5
68D
100
AcDbEntity
  8
M0
100
AcDbLine
 10
123.986324
 20
411.440659
 11
122.286325
 21
411.440659
  0
LINE
  5
68E
100
AcDbEntity
  8
M0
100
AcDbLine
 10
106.386324
 20
375.340658
 11
106.386324
 21
371.340661
  0
CIRCLE
  5
68F
100
AcDbEntity
  8
M0
100
AcDbCircle
 10
127.486326
 20
391.840658
 40
3.0
  0
CIRCLE
  5
690
100
AcDbEntity
  8
M0
100
AcDbCircle
 10
127.486326
 20
399.440658
 40
3.0
  0
CIRCLE
  5
691
100
AcDbEntity
  8
M0
100
AcDbCircle
 10
78.136325
 20
383.340628
 40
4.499996
  0
CIRCLE
  5
692
100
AcDbEntity
  8
M0
100
AcDbCircle
 10
113.336325
 20
383.340628
 40
4.499996
  0
CIRCLE
  5
693
100
AcDbEntity
  8
M0
100
AcDbCircle
 10
95.736325
 20
383.340628
 40
4.499996
  0
LINE
  5
694
100
AcDbEntity
  8
M0
100
AcDbLine
 10
105.386325
 20
370.340659
 11
104.886329
 21
370.340659
  0
LINE
  5
695
100
AcDbEntity
  8
M0
100
AcDbLine
 10
102.686325
 20
390.140659
 11
102.686325
 21
387.940659
  0
LINE
  5
696
100
AcDbEntity
  8
M0
100
AcDbLine
 10
106.386324
 20
389.940659
 11
102.686325
 21
389.940659
  0
LINE
  5
697
100
AcDbEntity
  8
M0
100
AcDbLine
 10
106.386324
 20
387.940659
 11
106.386324
 21
390.140659
  0
LINE
  5
698
100
AcDbEntity
  8
M0
100
AcDbLine
 10
132.386323
 20
416.540659
 11
133.186325
 21
416.540659
  0
LINE
  5
699
100
AcDbEntity
  8
M0
100
AcDbLine
 10
132.386323
 20
432.940659
 11
133.186325
 21
432.940659
  0
LINE
  5
69A
100
AcDbEntity
  8
M0
100
AcDbLine
 10
60.086325
 20
395.640659
 11
67.886325
 21
395.640659
  0
LINE
  5
69B
100
AcDbEntity
  8
M0
100
AcDbLine
 10
102.686325
 20
435.74066
 11
106.386324
 21
435.74066
  0
LINE
  5
69C
100
AcDbEntity
  8
M0
100
AcDbLine
 10
122.286325
 20
414.240659
 11
123.986324
 21
414.240659
  0
LINE
  5
69D
100
AcDbEntity
  8
M0
100
AcDbLine
 10
85.086325
 20
390.140659
 11
85.086325
 21
371.340661
  0
LINE
  5
69E
100
AcDbEntity
  8
M0
100
AcDbLine
 10
122.286325
 20
411.440659
 11
122.286325
 21
414.240659
  0
LINE
  5
69F
100
AcDbEntity
  8
M0
100
AcDbLine
 10
69.186324
 20
411.440659
 11
69.186324
 21
414.240659
  0
LINE
  5
6A0
100
AcDbEntity
  8
M0
100
AcDbLine
 10
85.086325
 20
389.940659
 11
88.786325
 21
389.940659
  0
LINE
  5
6A1
100
AcDbEntity
  8
M0
100
AcDbLine
 10
127.839605
 20
393.255021
 11
126.072027
 21
391.48732
  0
LINE
  5
6A2
100
AcDbEntity
  8
M0
100
AcDbLine
 10
129.07691
 20
390.250016
 11
125.895269
 21
393.431778
  0
LINE
  5
6A3
100
AcDbEntity
  8
M0
100
AcDbLine
 10
128.900152
 20
392.194352
 11
127.132574
 21
390.426774
  0
LINE
  5
6A4
100
AcDbEntity
  8
M0
100
AcDbLine
 10
80.017428
 20
383.807609
 11
77.669452
 21
381.459617
  0
LINE
  5
6A5
100
AcDbEntity
  8
M0
100
AcDbLine
 10
78.603228
 20
385.221824
 11
76.255252
 21
382.873832
  0
LINE
  5
6A6
100
AcDbEntity
  8
M0
100
AcDbLine
 10
76.06737
 20
385.409599
 11
80.33034
 21
381.14666
  0
ARC
  5
6A7
100
AcDbEntity
  8
M0
100
AcDbCircle
 10
117.186325
 20
458.340659
 40
1.0
100
AcDbArc
 50
90.0
 51
180.0
  0
CIRCLE
  5
6A8
100
AcDbEntity
  8
M0
100
AcDbCircle
 10
127.486326
 20
426.240661
 40
3.0
  0
ARC
  5
6A9
100
AcDbEntity
  8
M0
100
AcDbCircle
 10
117.186325
 20
458.340659
 40
1.0
100
AcDbArc
 50
0.0
 51
90.0
  0
LINE
  5
6AA
100
AcDbEntity
  8
M0
100
AcDbLine
 10
128.900152
 20
399.794352
 11
127.132574
 21
398.026774
  0
LINE
  5
6AB
100
AcDbEntity
  8
M0
100
AcDbLine
 10
127.839605
 20
400.855021
 11
126.072027
 21
399.087321
  0
LINE
  5
6AC
100
AcDbEntity
  8
M0
100
AcDbLine
 10
129.07691
 20
397.850016
 11
125.895269
 21
401.031779
  0
LINE
  5
6AD
100
AcDbEntity
  8
M0
100
AcDbLine
 10
97.617428
 20
383.807609
 11
95.269452
 21
381.459617
  0
LINE
  5
6AE
100
AcDbEntity
  8
M0
100
AcDbLine
 10
96.203228
 20
385.221824
 11
93.855252
 21
382.873832
  0
LINE
  5
6AF
100
AcDbEntity
  8
M0
100
AcDbLine
 10
93.66737
 20
385.409599
 11
97.93034
 21
381.14666
  0
LINE
  5
6B0
100
AcDbEntity
  8
M0
100
AcDbLine
 10
115.217428
 20
383.807609
 11
112.869452
 21
381.459617
  0
LINE
  5
6B1
100
AcDbEntity
  8
M0
100
AcDbLine
 10
113.803228
 20
385.221824
 11
111.455252
 21
382.873832
  0
LINE
  5
6B2
100
AcDbEntity
  8
M0
100
AcDbLine
 10
122.986324
 20
371.340659
 11
122.986324
 21
406.640659
  0
LINE
  5
6B3
100
AcDbEntity
  8
M0
100
AcDbLine
 10
88.786325
 20
435.54066
 11
88.786325
 21
454.340658
  0
LINE
  5
6B4
100
AcDbEntity
  8
M0
100
AcDbLine
 10
102.686325
 20
435.54066
 11
102.686325
 21
454.340658
  0
LINE
  5
6B5
100
AcDbEntity
  8
M0
100
AcDbLine
 10
121.286325
 20
389.940659
 11
121.286325
 21
390.140659
  0
LINE
  5
6B6
100
AcDbEntity
  8
M0
100
AcDbLine
 10
103.686325
 20
455.34066
 11
105.386325
 21
455.34066
  0
LINE
  5
6B7
100
AcDbEntity
  8
M0
100
AcDbLine
 10
87.786324
 20
455.34066
 11
86.086325
 21
455.34066
  0
LINE
  5
6B8
100
AcDbEntity
  8
M0
100
AcDbLine
 10
70.186324
 20
455.34066
 11
69.486325
 21
455.34066
  0
LINE
  5
6B9
100
AcDbEntity
  8
M0
100
AcDbLine
 10
90.686325
 20
418.840659
 11
100.786325
 21
418.840659
  0
LINE
  5
6BA
100
AcDbEntity
  8
M0
100
AcDbLine
 10
111.498874
 20
373.790658
 11
112.636324
 21
373.790658
  0
LINE
  5
6BB
100
AcDbEntity
  8
M0
100
AcDbLine
 10
112.636324
 20
372.14066
 11
113.536324
 21
372.14066
  0
LINE
  5
6BC
100
AcDbEntity
  8
M0
100
AcDbLine
 10
121.986324
 20
408.140659
 11
123.986324
 21
408.140659
  0
LINE
  5
6BD
100
AcDbEntity
  8
M0
100
AcDbLine
 10
120.286325
 20
435.54066
 11
120.286325
 21
454.340658
  0
LINE
  5
6BE
100
AcDbEntity
  8
M0
100
AcDbLine
 10
130.780328
 20
378.090954
 11
131.2728
 21
378.090954
  0
LINE
  5
6BF
100
AcDbEntity
  8
M0
100
AcDbLine
 10
70.186324
 20
435.74066
 11
71.186325
 21
435.74066
  0
LINE
  5
6C0
100
AcDbEntity
  8
M0
100
AcDbLine
 10
69.486326
 20
408.140659
 11
67.486325
 21
408.140659
  0
LINE
  5
6C1
100
AcDbEntity
  8
M0
100
AcDbLine
 10
121.286325
 20
435.74066
 11
120.286325
 21
435.74066
  0
LINE
  5
6C2
100
AcDbEntity
  8
M0
100
AcDbLine
 10
68.486325
 20
406.640659
 11
68.486325
 21
371.340659
  0
LINE
  5
6C3
100
AcDbEntity
  8
M0
100
AcDbLine
 10
131.386325
 20
403.540659
 11
123.586325
 21
403.540659
  0
LINE
  5
6C4
100
AcDbEntity
  8
M0
100
AcDbLine
 10
123.986324
 20
417.540659
 11
121.986324
 21
417.540659
  0
LINE
  5
6C5
100
AcDbEntity
  8
M0
100
AcDbLine
 10
121.786321
 20
455.34066
 11
121.986324
 21
455.34066
  0
LINE
  5
6C6
100
AcDbEntity
  8
M0
100
AcDbLine
 10
121.286325
 20
435.54066
 11
121.286325
 21
435.74066
  0
LINE
  5
6C7
100
AcDbEntity
  8
M0
100
AcDbLine
 10
119.336326
 20
375.340658
 11
120.286325
 21
375.340658
  0
LINE
  5
6C8
100
AcDbEntity
  8
M0
100
AcDbLine
 10
131.167524
 20
382.589607
 11
129.737981
 21
382.59066
  0
LINE
  5
6C9
100
AcDbEntity
  8
M0
100
AcDbLine
 10
122.986324
 20
419.04066
 11
122.986324
 21
454.340659
  0
CIRCLE
  5
6CA
100
AcDbEntity
  8
M0
100
AcDbCircle
 10
113.086325
 20
373.340659
 40
2.85
  0
CIRCLE
  5
6CB
100
AcDbEntity
  8
M0
100
AcDbCircle
 10
95.736325
 20
453.140659
 40
2.825
  0
ARC
  5
6CC
100
AcDbEntity
  8
M0
100
AcDbCircle
 10
115.486325
 20
450.340659
 40
0.5
100
AcDbArc
 50
0.0
 51
66.421822
  0
ARC
  5
6CD
100
AcDbEntity
  8
M0
100
AcDbCircle
 10
78.686325
 20
458.840659
 40
0.5
100
AcDbArc
 50
90.0
 51
180.0
  0
ARC
  5
6CE
100
AcDbEntity
  8
M0
100
AcDbCircle
 10
106.886325
 20
458.340659
 40
1.0
100
AcDbArc
 50
0.0
 51
90.0
  0
ARC
  5
6CF
100
AcDbEntity
  8
M0
100
AcDbCircle
 10
75.986325
 20
450.340659
 40
0.5
100
AcDbArc
 50
113.578178
 51
180.0
  0
LINE
  5
6D0
100
AcDbEntity
  8
M0
100
AcDbLine
 10
59.086327
 20
432.940659
 11
58.286324
 21
432.940659
  0
LINE
  5
6D1
100
AcDbEntity
  8
M0
100
AcDbLine
 10
111.26737
 20
385.409599
 11
115.53034
 21
381.14666
  0
LINE
  5
6D2
100
AcDbEntity
  8
M0
100
AcDbLine
 10
63.586324
 20
416.540659
 11
58.286324
 21
416.540659
  0
LINE
  5
6D3
100
AcDbEntity
  8
M0
100
AcDbLine
 10
133.186325
 20
409.140659
 11
132.386323
 21
409.140659
  0
LINE
  5
6D4
100
AcDbEntity
  8
M0
100
AcDbLine
 10
131.386325
 20
439.190659
 11
131.386325
 21
417.540659
  0
CIRCLE
  5
6D5
100
AcDbEntity
  8
M0
100
AcDbCircle
 10
95.736325
 20
453.140659
 40
2.85
  0
ARC
  5
6D6
100
AcDbEntity
  8
M0
100
AcDbCircle
 10
89.686325
 20
422.840659
 40
1.0
100
AcDbArc
 50
0.0
 51
90.0
  0
ARC
  5
6D7
100
AcDbEntity
  8
M0
100
AcDbCircle
 10
103.936325
 20
405.340659
 40
1.0
100
AcDbArc
 50
0.0
 51
90.0
  0
ARC
  5
6D8
100
AcDbEntity
  8
M0
100
AcDbCircle
 10
101.786325
 20
422.840659
 40
1.0
100
AcDbArc
 50
90.0
 51
180.0
  0
LINE
  5
6D9
100
AcDbEntity
  8
M0
100
AcDbLine
 10
101.286325
 20
418.340659
 11
90.186325
 21
418.340659
  0
LINE
  5
6DA
100
AcDbEntity
  8
M0
100
AcDbLine
 10
100.786325
 20
422.340659
 11
90.686325
 21
422.340659
  0
LINE
  5
6DB
100
AcDbEntity
  8
M0
100
AcDbLine
 10
121.286325
 20
455.34066
 11
121.786321
 21
455.34066
  0
ARC
  5
6DC
100
AcDbEntity
  8
M0
100
AcDbCircle
 10
84.586325
 20
458.340659
 40
1.0
100
AcDbArc
 50
90.0
 51
180.0
  0
ARC
  5
6DD
100
AcDbEntity
  8
M0
100
AcDbCircle
 10
112.786325
 20
458.840659
 40
0.5
100
AcDbArc
 50
0.0
 51
90.0
  0
ARC
  5
6DE
100
AcDbEntity
  8
M0
100
AcDbCircle
 10
58.286325
 20
408.140659
 40
1.0
100
AcDbArc
 50
90.0
 51
180.0
  0
ARC
  5
6DF
100
AcDbEntity
  8
M0
100
AcDbCircle
 10
133.186325
 20
408.140659
 40
1.0
100
AcDbArc
 50
0.0
 51
90.0
  0
ARC
  5
6E0
100
AcDbEntity
  8
M0
100
AcDbCircle
 10
58.286325
 20
417.540659
 40
1.0
100
AcDbArc
 50
180.0
 51
270.0
  0
ARC
  5
6E1
100
AcDbEntity
  8
M0
100
AcDbCircle
 10
101.286325
 20
418.840659
 40
0.5
100
AcDbArc
 50
180.0
 51
270.0
  0
LINE
  5
6E2
100
AcDbEntity
  8
M0
  6
DASHED
100
AcDbLine
 10
44.786329
 20
442.540659
 11
44.786329
 21
383.140659
  0
LINE
  5
6E3
100
AcDbEntity
  8
M0
  6
DASHED
100
AcDbLine
 10
44.786329
 20
442.540659
 11
57.286329
 21
442.540659
  0
LINE
  5
6E4
100
AcDbEntity
  8
M0
  6
DASHED
100
AcDbLine
 10
44.786329
 20
383.140659
 11
57.286329
 21
383.140659
  0
LINE
  5
6E5
100
AcDbEntity
  8
M0
  6
DASHED
100
AcDbLine
 10
233.586319
 20
442.540659
 11
221.086319
 21
442.540659
  0
LINE
  5
6E6
100
AcDbEntity
  8
M0
  6
DASHED
100
AcDbLine
 10
233.586319
 20
442.540659
 11
233.586319
 21
383.140659
  0
LINE
  5
6E7
100
AcDbEntity
  8
M0
  6
DASHED
100
AcDbLine
 10
233.586319
 20
383.140659
 11
221.086319
 21
383.140659
  0
LINE
  5
6E8
100
AcDbEntity
  8
M0
  6
DIVIDE
100
AcDbLine
 10
377.503389
 20
426.340668
 11
371.003389
 21
426.340668
  0
LINE
  5
6E9
100
AcDbEntity
  8
M0
  6
DIVIDE
100
AcDbLine
 10
377.503389
 20
399.340668
 11
371.003389
 21
399.340668
  0
LINE
  5
6EA
100
AcDbEntity
  8
M0
  6
DIVIDE
100
AcDbLine
 10
376.503389
 20
425.340668
 11
370.003389
 21
425.340668
  0
LINE
  5
6EB
100
AcDbEntity
  8
M0
  6
DIVIDE
100
AcDbLine
 10
371.003389
 20
399.340668
 11
371.003389
 21
395.340668
  0
LINE
  5
6EC
100
AcDbEntity
  8
M0
  6
DIVIDE
100
AcDbLine
 10
376.503389
 20
400.340668
 11
370.003389
 21
400.340668
  0
LINE
  5
6ED
100
AcDbEntity
  8
M0
  6
DIVIDE
100
AcDbLine
 10
370.003389
 20
400.340668
 11
370.003389
 21
395.340668
  0
LINE
  5
6EE
100
AcDbEntity
  8
M0
  6
DIVIDE
100
AcDbLine
 10
371.003389
 20
430.340668
 11
370.003389
 21
430.340668
  0
LINE
  5
6EF
100
AcDbEntity
  8
M0
  6
DIVIDE
100
AcDbLine
 10
377.503389
 20
399.340668
 11
377.503389
 21
426.340668
  0
LINE
  5
6F0
100
AcDbEntity
  8
M0
  6
DIVIDE
100
AcDbLine
 10
370.003389
 20
430.340668
 11
370.003389
 21
425.340668
  0
LINE
  5
6F1
100
AcDbEntity
  8
M0
  6
DIVIDE
100
AcDbLine
 10
371.003389
 20
430.340668
 11
371.003389
 21
426.340668
  0
LINE
  5
6F2
100
AcDbEntity
  8
M0
  6
DIVIDE
100
AcDbLine
 10
370.003389
 20
395.340668
 11
371.003389
 21
395.340668
  0
LINE
  5
6F3
100
AcDbEntity
  8
M0
  6
DIVIDE
100
AcDbLine
 10
376.503389
 20
425.340668
 11
376.503389
 21
400.340668
  0
LINE
  5
6F4
100
AcDbEntity
  8
M0
100
AcDbLine
 10
144.186324
 20
437.14066
 11
144.186324
 21
412.840659
  0
LINE
  5
6F5
100
AcDbEntity
  8
M0
100
AcDbLine
 10
144.186324
 20
430.240659
 11
139.186324
 21
430.240659
  0
LINE
  5
6F6
100
AcDbEntity
  8
M0
100
AcDbLine
 10
141.586324
 20
438.240661
 11
136.786324
 21
438.240661
  0
LINE
  5
6F7
100
AcDbEntity
  8
M0
100
AcDbLine
 10
134.186324
 20
430.240659
 11
139.186324
 21
430.240659
  0
LINE
  5
6F8
100
AcDbEntity
  8
M0
100
AcDbLine
 10
144.186324
 20
434.34066
 11
139.186324
 21
434.34066
  0
LINE
  5
6F9
100
AcDbEntity
  8
M0
100
AcDbLine
 10
134.186324
 20
395.440659
 11
139.186324
 21
395.440659
  0
ARC
  5
6FA
100
AcDbEntity
  8
M0
100
AcDbCircle
 10
143.686324
 20
437.14066
 40
0.5
100
AcDbArc
 50
23.578178
 51
90.0
  0
LINE
  5
6FB
100
AcDbEntity
  8
M0
100
AcDbLine
 10
141.586324
 20
387.440658
 11
136.786324
 21
387.440658
  0
ARC
  5
6FC
100
AcDbEntity
  8
M0
100
AcDbCircle
 10
136.786324
 20
437.64066
 40
0.6
100
AcDbArc
 50
90.0
 51
180.0
  0
ARC
  5
6FD
100
AcDbEntity
  8
M0
100
AcDbCircle
 10
134.686324
 20
437.14066
 40
0.5
100
AcDbArc
 50
90.0
 51
156.421822
  0
LINE
  5
6FE
100
AcDbEntity
  8
M0
100
AcDbLine
 10
134.186324
 20
412.840659
 11
134.186324
 21
388.540659
  0
ARC
  5
6FF
100
AcDbEntity
  8
M0
100
AcDbCircle
 10
141.586324
 20
437.64066
 40
0.6
100
AcDbArc
 50
0.0
 51
90.0
  0
LINE
  5
700
100
AcDbEntity
  8
M0
100
AcDbLine
 10
144.186324
 20
388.540659
 11
144.186324
 21
412.840659
  0
LINE
  5
701
100
AcDbEntity
  8
M0
100
AcDbLine
 10
144.186324
 20
391.340659
 11
139.186324
 21
391.340659
  0
ARC
  5
702
100
AcDbEntity
  8
M0
100
AcDbCircle
 10
141.586324
 20
388.040659
 40
0.6
100
AcDbArc
 50
270.0
 51
360.0
  0
LINE
  5
703
100
AcDbEntity
  8
M0
  6
DASHDOT
100
AcDbLine
 10
139.186324
 20
442.840659
 11
139.186324
 21
383.840659
  0
ARC
  5
704
100
AcDbEntity
  8
M0
100
AcDbCircle
 10
143.686324
 20
388.540659
 40
0.5
100
AcDbArc
 50
270.0
 51
336.421822
  0
LINE
  5
705
100
AcDbEntity
  8
M0
100
AcDbLine
 10
144.186324
 20
395.440659
 11
139.186324
 21
395.440659
  0
LINE
  5
706
100
AcDbEntity
  8
M0
100
AcDbLine
 10
134.186324
 20
434.34066
 11
139.186324
 21
434.34066
  0
ARC
  5
707
100
AcDbEntity
  8
M0
100
AcDbCircle
 10
134.686324
 20
388.540659
 40
0.5
100
AcDbArc
 50
203.578178
 51
270.0
  0
LINE
  5
708
100
AcDbEntity
  8
M0
100
AcDbLine
 10
134.186324
 20
412.840659
 11
134.186324
 21
437.14066
  0
LINE
  5
709
100
AcDbEntity
  8
M0
100
AcDbLine
 10
134.686324
 20
388.040661
 11
143.686324
 21
388.040661
  0
ARC
  5
70A
100
AcDbEntity
  8
M0
100
AcDbCircle
 10
136.786324
 20
388.040659
 40
0.6
100
AcDbArc
 50
180.0
 51
270.0
  0
LINE
  5
70B
100
AcDbEntity
  8
M0
100
AcDbLine
 10
134.686324
 20
437.640658
 11
143.686324
 21
437.640658
  0
LINE
  5
70C
100
AcDbEntity
  8
M0
100
AcDbLine
 10
134.186324
 20
391.340659
 11
139.186324
 21
391.340659
  0
HATCH
  5
70D
100
AcDbEntity
  8
M0
 62
     7
100
AcDbHatch
 10
0.0
 20
0.0
210
0.0
220
0.0
230
1.0
  2
SOLID
 70
     1
 71
     0
 91
        1
 92
        1
 93
        4
 72
     1
 10
281.103389
 20
461.26079
 11
279.103389
 21
461.26079
 72
     1
 10
279.103389
 20
461.26079
 11
279.103389
 21
443.06079
 72
     1
 10
279.103389
 20
443.06079
 11
281.103389
 21
443.06079
 72
     1
 10
281.103389
 20
443.06079
 11
281.103389
 21
461.26079
 97
        0
 75
     0
 76
     1
 98
        1
 10
0.0
 20
0.0
  0
LINE
  5
710
100
AcDbEntity
  8
M0
  6
DASHED
100
AcDbLine
 10
256.40339
 20
394.440662
 11
256.40339
 21
433.240662
  0
LINE
  5
711
100
AcDbEntity
  8
M0
  6
DASHED
100
AcDbLine
 10
254.80339
 20
415.140662
 11
254.80339
 21
412.340662
  0
LINE
  5
712
100
AcDbEntity
  8
M0
  6
DASHED
100
AcDbLine
 10
323.10339
 20
444.840859
 11
315.10339
 21
444.840558
  0
LINE
  5
713
100
AcDbEntity
  8
M0
  6
DASHED
100
AcDbLine
 10
323.10339
 20
439.840922
 11
323.10339
 21
444.840859
  0
LINE
  5
714
100
AcDbEntity
  8
M0
  6
DASHED
100
AcDbLine
 10
280.50339
 20
396.140668
 11
280.50339
 21
395.440662
  0
LINE
  5
715
100
AcDbEntity
  8
M0
  6
DASHED
100
AcDbLine
 10
254.80339
 20
415.140662
 11
256.40339
 21
415.140662
  0
LINE
  5
716
100
AcDbEntity
  8
M0
  6
DASHED
100
AcDbLine
 10
275.50339
 20
437.240662
 11
260.403389
 21
437.240662
  0
LINE
  5
717
100
AcDbEntity
  8
M0
  6
DASHED
100
AcDbLine
 10
275.50339
 20
390.440662
 11
260.403389
 21
390.440662
  0
LINE
  5
718
100
AcDbEntity
  8
M0
  6
DASHED
100
AcDbLine
 10
312.10339
 20
446.841151
 11
310.803341
 21
446.841151
  0
LINE
  5
719
100
AcDbEntity
  8
M0
  6
DASHED
100
AcDbLine
 10
310.803341
 20
437.841151
 11
312.10339
 21
437.841151
  0
LINE
  5
71A
100
AcDbEntity
  8
M0
  6
DASHED
100
AcDbLine
 10
308.963742
 20
438.002086
 11
310.803341
 21
437.841167
  0
LINE
  5
71B
100
AcDbEntity
  8
M0
  6
DASHED
100
AcDbLine
 10
310.803341
 20
437.841167
 11
310.803341
 21
446.841167
  0
LINE
  5
71C
100
AcDbEntity
  8
M0
  6
DASHED
100
AcDbLine
 10
312.10339
 20
437.340445
 11
313.10339
 21
437.340483
  0
LINE
  5
71D
100
AcDbEntity
  8
M0
  6
DASHED
100
AcDbLine
 10
315.10339
 20
439.840922
 11
323.10339
 21
439.840922
  0
LINE
  5
71E
100
AcDbEntity
  8
M0
  6
DASHED
100
AcDbLine
 10
312.10339
 20
447.340445
 11
312.10339
 21
437.340445
  0
LINE
  5
71F
100
AcDbEntity
  8
M0
  6
DASHED
100
AcDbLine
 10
312.10339
 20
447.340445
 11
313.10339
 21
447.340483
  0
ARC
  5
720
100
AcDbEntity
  8
M0
  6
DASHED
100
AcDbCircle
 10
260.40339
 20
433.240662
 40
4.0
100
AcDbArc
 50
90.0
 51
180.0
  0
ARC
  5
721
100
AcDbEntity
  8
M0
  6
DASHED
100
AcDbCircle
 10
260.40339
 20
394.440662
 40
4.0
100
AcDbArc
 50
180.0
 51
270.0
  0
ARC
  5
722
100
AcDbEntity
  8
M0
  6
DASHED
100
AcDbCircle
 10
309.10339
 20
445.086314
 40
1.599998
100
AcDbArc
 50
95.007035
 51
179.999966
  0
ARC
  5
723
100
AcDbEntity
  8
M0
  6
DASHED
100
AcDbCircle
 10
309.10339
 20
439.595988
 40
1.599998
100
AcDbArc
 50
179.999966
 51
264.99283
  0
ARC
  5
724
100
AcDbEntity
  8
M0
  6
DASHED
100
AcDbCircle
 10
289.90339
 20
396.640668
 40
0.5
100
AcDbArc
 50
270.0
 51
360.0
  0
ARC
  5
725
100
AcDbEntity
  8
M0
  6
DASHED
100
AcDbCircle
 10
289.90339
 20
431.040656
 40
0.5
100
AcDbArc
 50
0.0
 51
90.0
  0
ARC
  5
726
100
AcDbEntity
  8
M0
  6
DASHED
100
AcDbCircle
 10
275.50339
 20
395.440662
 40
5.0
100
AcDbArc
 50
270.0
 51
360.0
  0
ARC
  5
727
100
AcDbEntity
  8
M0
  6
DASHED
100
AcDbCircle
 10
275.50339
 20
432.240662
 40
5.0
100
AcDbArc
 50
0.0
 51
90.0
  0
LINE
  5
728
100
AcDbEntity
  8
M0
100
AcDbLine
 10
281.103389
 20
443.06079
 11
281.103389
 21
461.26079
  0
LINE
  5
729
100
AcDbEntity
  8
M0
  6
DASHED
100
AcDbLine
 10
289.90339
 20
431.540655
 11
280.50339
 21
431.540655
  0
LINE
  5
72A
100
AcDbEntity
  8
M0
  6
DASHED
100
AcDbLine
 10
256.40339
 20
412.340662
 11
254.80339
 21
412.340662
  0
LINE
  5
72B
100
AcDbEntity
  8
M0
  6
DASHED
100
AcDbLine
 10
280.50339
 20
431.540655
 11
280.50339
 21
432.240662
  0
LINE
  5
72C
100
AcDbEntity
  8
M0
  6
DASHED
100
AcDbLine
 10
288.303389
 20
431.540655
 11
288.303389
 21
433.540661
  0
LINE
  5
72D
100
AcDbEntity
  8
M0
  6
DASHED
100
AcDbLine
 10
288.70339
 20
433.540661
 11
289.303391
 21
431.540655
  0
LINE
  5
72E
100
AcDbEntity
  8
M0
  6
DASHED
100
AcDbLine
 10
289.90339
 20
396.140668
 11
280.50339
 21
396.140668
  0
LINE
  5
72F
100
AcDbEntity
  8
M0
  6
DASHED
100
AcDbLine
 10
288.303389
 20
433.540661
 11
288.70339
 21
433.540661
  0
LINE
  5
730
100
AcDbEntity
  8
M0
  6
DASHED
100
AcDbLine
 10
313.10339
 20
449.340658
 11
313.10339
 21
421.340658
  0
LINE
  5
731
100
AcDbEntity
  8
M0
  6
DASHED
100
AcDbLine
 10
313.10339
 20
421.340658
 11
315.10339
 21
421.340658
  0
LINE
  5
732
100
AcDbEntity
  8
M0
  6
DASHED
100
AcDbLine
 10
315.10339
 20
421.340658
 11
315.10339
 21
449.340658
  0
LINE
  5
733
100
AcDbEntity
  8
M0
  6
DASHED
100
AcDbLine
 10
315.10339
 20
449.340658
 11
313.10339
 21
449.340658
  0
ARC
  5
734
100
AcDbEntity
  8
M0
100
AcDbCircle
 10
290.90339
 20
405.140659
 40
0.5
100
AcDbArc
 50
90.0
 51
180.0
  0
ELLIPSE
  5
735
100
AcDbEntity
  8
M0
100
AcDbEllipse
 10
286.60339
 20
419.147766
 11
-0.5
 21
0.0
210
0.0
220
0.0
230
1.0
 40
0.414214
 41
0.0
 42
1.570796326794897
  0
LINE
  5
736
100
AcDbEntity
  8
M0
  6
DASHED
100
AcDbLine
 10
338.00339
 20
450.840658
 11
338.00339
 21
459.34066
  0
LINE
  5
737
100
AcDbEntity
  8
M0
  6
DASHED
100
AcDbLine
 10
339.00339
 20
459.34066
 11
339.00339
 21
450.840658
  0
LINE
  5
738
100
AcDbEntity
  8
M0
100
AcDbLine
 10
374.50339
 20
453.59066
 11
374.20339
 21
453.59066
  0
LINE
  5
739
100
AcDbEntity
  8
M0
100
AcDbLine
 10
351.20339
 20
398.656887
 11
366.70339
 21
398.656887
  0
LINE
  5
73A
100
AcDbEntity
  8
M0
100
AcDbLine
 10
328.303388
 20
456.340658
 11
328.303388
 21
458.340658
  0
LINE
  5
73B
100
AcDbEntity
  8
M0
100
AcDbLine
 10
328.303388
 20
457.240658
 11
328.303388
 21
458.340658
  0
LINE
  5
73C
100
AcDbEntity
  8
M0
  6
DASHED
100
AcDbLine
 10
307.50343
 20
445.086314
 11
307.50343
 21
439.595988
  0
LINE
  5
73D
100
AcDbEntity
  8
M0
  6
DASHED
100
AcDbLine
 10
308.963742
 20
446.680232
 11
310.803341
 21
446.841167
  0
LINE
  5
73E
100
AcDbEntity
  8
M0
100
AcDbLine
 10
374.20339
 20
371.09066
 11
374.50339
 21
371.09066
  0
LINE
  5
73F
100
AcDbEntity
  8
M0
100
AcDbLine
 10
328.803389
 20
459.34066
 11
331.303391
 21
459.34066
  0
LINE
  5
740
100
AcDbEntity
  8
M0
100
AcDbLine
 10
366.70339
 20
395.780104
 11
351.20339
 21
395.780104
  0
LINE
  5
741
100
AcDbEntity
  8
M0
100
AcDbLine
 10
370.00339
 20
428.140659
 11
370.00339
 21
430.640659
  0
LINE
  5
742
100
AcDbEntity
  8
M0
100
AcDbLine
 10
325.603391
 20
415.540659
 11
325.603391
 21
410.340659
  0
LINE
  5
743
100
AcDbEntity
  8
M0
100
AcDbLine
 10
328.303388
 20
458.340658
 11
328.303388
 21
458.840659
  0
LINE
  5
744
100
AcDbEntity
  8
M0
100
AcDbLine
 10
374.50339
 20
384.090659
 11
374.20339
 21
384.090659
  0
ARC
  5
745
100
AcDbEntity
  8
M0
100
AcDbCircle
 10
286.60339
 20
402.340659
 40
0.5
100
AcDbArc
 50
180.0
 51
270.0
  0
ARC
  5
746
100
AcDbEntity
  8
M0
100
AcDbCircle
 10
366.857823
 20
385.714388
 40
4.084682
100
AcDbArc
 50
125.479034
 51
145.207368
  0
ARC
  5
747
100
AcDbEntity
  8
M0
100
AcDbCircle
 10
373.70339
 20
394.540659
 40
0.5
100
AcDbArc
 50
0.0
 51
90.0
  0
ARC
  5
748
100
AcDbEntity
  8
M0
100
AcDbCircle
 10
344.717604
 20
449.840659
 40
1.0
100
AcDbArc
 50
90.0
 51
135.0
  0
ARC
  5
749
100
AcDbEntity
  8
M0
100
AcDbCircle
 10
344.58731
 20
382.340659
 40
6.0
100
AcDbArc
 50
270.0
 51
350.405932
  0
ARC
  5
74A
100
AcDbEntity
  8
M0
100
AcDbCircle
 10
331.30339
 20
456.340659
 40
3.0
100
AcDbArc
 50
90.0
 51
180.0
  0
ARC
  5
74B
100
AcDbEntity
  8
M0
100
AcDbCircle
 10
373.70339
 20
370.840659
 40
0.5
100
AcDbArc
 50
270.0
 51
360.0
  0
ARC
  5
74C
100
AcDbEntity
  8
M0
100
AcDbCircle
 10
337.80339
 20
418.340659
 40
0.5
100
AcDbArc
 50
90.0
 51
180.0
  0
ARC
  5
74D
100
AcDbEntity
  8
M0
100
AcDbCircle
 10
373.70339
 20
453.840659
 40
0.5
100
AcDbArc
 50
0.0
 51
90.0
  0
ARC
  5
74E
100
AcDbEntity
  8
M0
100
AcDbCircle
 10
364.50339
 20
453.340659
 40
1.0
100
AcDbArc
 50
90.0
 51
180.0
  0
LINE
  5
74F
100
AcDbEntity
  8
M0
100
AcDbLine
 10
339.30339
 20
370.340659
 11
339.30339
 21
406.840659
  0
ARC
  5
750
100
AcDbEntity
  8
M0
100
AcDbCircle
 10
364.50339
 20
371.340659
 40
1.0
100
AcDbArc
 50
180.0
 51
270.0
  0
ARC
  5
751
100
AcDbEntity
  8
M0
100
AcDbCircle
 10
369.00339
 20
425.640659
 40
1.0
100
AcDbArc
 50
0.0
 51
90.0
  0
ARC
  5
752
100
AcDbEntity
  8
M0
100
AcDbCircle
 10
373.70339
 20
431.140659
 40
0.5
100
AcDbArc
 50
270.0
 51
360.0
  0
ARC
  5
753
100
AcDbEntity
  8
M0
100
AcDbCircle
 10
337.80339
 20
407.340659
 40
0.5
100
AcDbArc
 50
180.0
 51
270.0
  0
ARC
  5
754
100
AcDbEntity
  8
M0
100
AcDbCircle
 10
369.00339
 20
400.040659
 40
1.0
100
AcDbArc
 50
270.0
 51
360.0
  0
ARC
  5
755
100
AcDbEntity
  8
M0
100
AcDbCircle
 10
336.50339
 20
409.640659
 40
0.5
100
AcDbArc
 50
0.0
 51
90.0
  0
ARC
  5
756
100
AcDbEntity
  8
M0
100
AcDbCircle
 10
337.50339
 20
407.140659
 40
0.5
100
AcDbArc
 50
180.0
 51
270.0
  0
ARC
  5
757
100
AcDbEntity
  8
M0
100
AcDbCircle
 10
330.700659
 20
437.190659
 40
3.0
100
AcDbArc
 50
49.635463
 51
90.0
  0
ARC
  5
758
100
AcDbEntity
  8
M0
100
AcDbCircle
 10
324.80339
 20
410.640659
 40
0.5
100
AcDbArc
 50
180.0
 51
270.0
  0
ELLIPSE
  5
759
100
AcDbEntity
  8
M0
100
AcDbEllipse
 10
286.60339
 20
417.647766
 11
-0.5
 21
0.0
210
0.0
220
0.0
230
1.0
 40
0.414214
 41
0.0
 42
1.570796326794897
  0
ELLIPSE
  5
75A
100
AcDbEntity
  8
M0
100
AcDbEllipse
 10
373.70339
 20
384.015721
 11
-0.5
 21
0.0
210
0.0
220
0.0
230
1.0
 40
0.049876
 41
3.141592653589793
 42
4.71238898038469
  0
ELLIPSE
  5
75B
100
AcDbEntity
  8
M0
100
AcDbEllipse
 10
373.70339
 20
389.015721
 11
-0.5
 21
0.0
210
0.0
220
0.0
230
1.0
 40
0.049876
 41
3.141592653589793
 42
4.71238898038469
  0
ELLIPSE
  5
75C
100
AcDbEntity
  8
M0
100
AcDbEllipse
 10
364.50339
 20
383.990784
 11
-1.0
 21
0.0
210
0.0
220
0.0
230
1.0
 40
0.049876
 41
4.71238898038469
 42
6.283185307179586
  0
ARC
  5
75D
100
AcDbEntity
  8
M0
100
AcDbCircle
 10
299.20339
 20
417.540659
 40
1.0
100
AcDbArc
 50
270.0
 51
360.0
  0
ARC
  5
75E
100
AcDbEntity
  8
M0
100
AcDbCircle
 10
299.20339
 20
408.140659
 40
1.0
100
AcDbArc
 50
0.0
 51
90.0
  0
ARC
  5
75F
100
AcDbEntity
  8
M0
100
AcDbCircle
 10
363.00339
 20
372.340659
 40
0.5
100
AcDbArc
 50
180.0
 51
270.0
  0
ARC
  5
760
100
AcDbEntity
  8
M0
100
AcDbCircle
 10
286.60339
 20
405.840659
 40
0.5
100
AcDbArc
 50
90.0
 51
180.0
  0
ARC
  5
761
100
AcDbEntity
  8
M0
100
AcDbCircle
 10
337.50339
 20
418.540659
 40
0.5
100
AcDbArc
 50
90.0
 51
180.0
  0
ARC
  5
762
100
AcDbEntity
  8
M0
100
AcDbCircle
 10
316.60339
 20
437.190659
 40
3.0
100
AcDbArc
 50
90.0
 51
180.0
  0
ARC
  5
763
100
AcDbEntity
  8
M0
100
AcDbCircle
 10
291.40339
 20
434.540659
 40
1.0
100
AcDbArc
 50
90.0
 51
180.0
  0
ARC
  5
764
100
AcDbEntity
  8
M0
100
AcDbCircle
 10
310.60339
 20
435.940659
 40
3.0
100
AcDbArc
 50
270.0
 51
360.0
  0
LINE
  5
765
100
AcDbEntity
  8
M0
100
AcDbLine
 10
372.00339
 20
428.140659
 11
374.20339
 21
428.140659
  0
LINE
  5
766
100
AcDbEntity
  8
M0
100
AcDbLine
 10
371.00339
 20
429.14066
 11
372.00339
 21
428.140659
  0
LINE
  5
767
100
AcDbEntity
  8
M0
100
AcDbLine
 10
374.20339
 20
378.870966
 11
374.20339
 21
370.840659
  0
LINE
  5
768
100
AcDbEntity
  8
M0
100
AcDbLine
 10
344.717604
 20
450.840658
 11
363.50339
 21
450.840658
  0
LINE
  5
769
100
AcDbEntity
  8
M0
100
AcDbLine
 10
288.10339
 20
406.340659
 11
288.10339
 21
401.840659
  0
LINE
  5
76A
100
AcDbEntity
  8
M0
100
AcDbLine
 10
374.50339
 20
381.810353
 11
374.20339
 21
381.810353
  0
LINE
  5
76B
100
AcDbEntity
  8
M0
100
AcDbLine
 10
286.603387
 20
406.340659
 11
288.10339
 21
406.340659
  0
LINE
  5
76C
100
AcDbEntity
  8
M0
100
AcDbLine
 10
287.103388
 20
423.840659
 11
290.403391
 21
423.840659
  0
LINE
  5
76D
100
AcDbEntity
  8
M0
100
AcDbLine
 10
346.703391
 20
397.740659
 11
339.30339
 21
397.740659
  0
LINE
  5
76E
100
AcDbEntity
  8
M0
100
AcDbLine
 10
346.703391
 20
427.94066
 11
339.30339
 21
427.94066
  0
LINE
  5
76F
100
AcDbEntity
  8
M0
100
AcDbLine
 10
337.303392
 20
407.340659
 11
337.303392
 21
418.340659
  0
LINE
  5
770
100
AcDbEntity
  8
M0
100
AcDbLine
 10
288.10339
 20
422.840659
 11
288.10339
 21
418.940659
  0
LINE
  5
771
100
AcDbEntity
  8
M0
100
AcDbLine
 10
362.50339
 20
372.340659
 11
362.50339
 21
373.340657
  0
LINE
  5
772
100
AcDbEntity
  8
M0
100
AcDbLine
 10
350.50339
 20
381.340659
 11
363.50339
 21
381.340659
  0
LINE
  5
773
100
AcDbEntity
  8
M0
100
AcDbLine
 10
337.803389
 20
406.840659
 11
339.30339
 21
406.840659
  0
ARC
  5
774
100
AcDbEntity
  8
M0
100
AcDbCircle
 10
299.20339
 20
429.940659
 40
3.0
100
AcDbArc
 50
90.0
 51
180.0
  0
LINE
  5
775
100
AcDbEntity
  8
M0
100
AcDbLine
 10
373.70339
 20
370.340659
 11
333.60339
 21
370.340659
  0
LINE
  5
776
100
AcDbEntity
  8
M0
100
AcDbLine
 10
288.10339
 20
417.440659
 11
286.603387
 21
417.440659
  0
LINE
  5
777
100
AcDbEntity
  8
M0
100
AcDbLine
 10
374.50339
 20
448.370966
 11
374.20339
 21
448.370966
  0
LINE
  5
778
100
AcDbEntity
  8
M0
100
AcDbLine
 10
374.50339
 20
378.870966
 11
374.20339
 21
378.870966
  0
LINE
  5
779
100
AcDbEntity
  8
M0
100
AcDbLine
 10
371.00339
 20
430.640659
 11
371.00339
 21
429.14066
  0
LINE
  5
77A
100
AcDbEntity
  8
M0
100
AcDbLine
 10
337.803389
 20
418.840659
 11
339.30339
 21
418.840659
  0
LINE
  5
77B
100
AcDbEntity
  8
M0
100
AcDbLine
 10
288.10339
 20
418.940659
 11
288.10339
 21
417.440659
  0
LINE
  5
77C
100
AcDbEntity
  8
M0
100
AcDbLine
 10
288.10339
 20
418.940659
 11
286.603387
 21
418.940659
  0
LINE
  5
77D
100
AcDbEntity
  8
M0
100
AcDbLine
 10
286.103393
 20
402.340659
 11
286.103393
 21
423.340659
  0
LINE
  5
77E
100
AcDbEntity
  8
M0
100
AcDbLine
 10
373.70339
 20
389.040659
 11
364.50339
 21
389.040659
  0
LINE
  5
77F
100
AcDbEntity
  8
M0
100
AcDbLine
 10
286.603387
 20
401.840659
 11
290.403391
 21
401.840659
  0
LINE
  5
780
100
AcDbEntity
  8
M0
100
AcDbLine
 10
287.103388
 20
423.840659
 11
286.603387
 21
423.840659
  0
LINE
  5
781
100
AcDbEntity
  8
M0
100
AcDbLine
 10
373.70339
 20
384.04066
 11
364.50339
 21
384.04066
  0
LINE
  5
782
100
AcDbEntity
  8
M0
100
AcDbLine
 10
351.20339
 20
398.656887
 11
351.20339
 21
395.780104
  0
LINE
  5
783
100
AcDbEntity
  8
M0
100
AcDbLine
 10
363.50339
 20
371.340659
 11
363.50339
 21
388.04514
  0
LINE
  5
784
100
AcDbEntity
  8
M0
100
AcDbLine
 10
337.503391
 20
406.640659
 11
339.30339
 21
406.640659
  0
ARC
  5
785
100
AcDbEntity
  8
M0
100
AcDbCircle
 10
366.70339
 20
430.201214
 40
0.3
100
AcDbArc
 50
270.0
 51
360.0
  0
ARC
  5
786
100
AcDbEntity
  8
M0
100
AcDbCircle
 10
366.70339
 20
426.724432
 40
0.3
100
AcDbArc
 50
0.0
 51
90.0
  0
ARC
  5
787
100
AcDbEntity
  8
M0
100
AcDbCircle
 10
337.00339
 20
408.840659
 40
0.5
100
AcDbArc
 50
270.0
 51
306.869898
  0
ARC
  5
788
100
AcDbEntity
  8
M0
100
AcDbCircle
 10
366.70339
 20
398.956887
 40
0.3
100
AcDbArc
 50
270.0
 51
360.0
  0
ARC
  5
789
100
AcDbEntity
  8
M0
100
AcDbCircle
 10
328.60339
 20
410.340659
 40
0.5
100
AcDbArc
 50
336.421822
 51
360.0
  0
ARC
  5
78A
100
AcDbEntity
  8
M0
100
AcDbCircle
 10
323.449884
 20
452.340659
 40
3.0
100
AcDbArc
 50
32.275644
 51
90.0
  0
ARC
  5
78B
100
AcDbEntity
  8
M0
100
AcDbCircle
 10
352.60339
 20
453.926446
 40
1.0
100
AcDbArc
 50
0.0
 51
45.0
  0
ARC
  5
78C
100
AcDbEntity
  8
M0
100
AcDbCircle
 10
348.189177
 20
458.340659
 40
1.0
100
AcDbArc
 50
45.0
 51
90.0
  0
LINE
  5
78D
100
AcDbEntity
  8
M0
100
AcDbLine
 10
331.103391
 20
445.840659
 11
339.30339
 21
445.840659
  0
LINE
  5
78E
100
AcDbEntity
  8
M0
100
AcDbLine
 10
339.30339
 20
376.34066
 11
331.103391
 21
376.34066
  0
LINE
  5
78F
100
AcDbEntity
  8
M0
100
AcDbLine
 10
323.860749
 20
370.340659
 11
298.103388
 21
370.340659
  0
LINE
  5
790
100
AcDbEntity
  8
M0
100
AcDbLine
 10
337.303392
 20
417.140659
 11
337.00339
 21
417.140659
  0
LINE
  5
791
100
AcDbEntity
  8
M0
100
AcDbLine
 10
286.603387
 20
423.840659
 11
287.103388
 21
423.840659
  0
ARC
  5
792
100
AcDbEntity
  8
M0
100
AcDbCircle
 10
326.10339
 20
410.340659
 40
0.5
100
AcDbArc
 50
180.0
 51
203.578178
  0
LINE
  5
793
100
AcDbEntity
  8
M0
100
AcDbLine
 10
331.092077
 20
385.516303
 11
331.092077
 21
376.34066
  0
LINE
  5
794
100
AcDbEntity
  8
M0
100
AcDbLine
 10
331.103391
 20
376.34066
 11
325.982071
 21
371.219339
  0
ARC
  5
795
100
AcDbEntity
  8
M0
100
AcDbCircle
 10
310.60339
 20
389.740659
 40
3.0
100
AcDbArc
 50
0.0
 51
90.0
  0
ARC
  5
796
100
AcDbEntity
  8
M0
100
AcDbCircle
 10
329.10339
 20
456.640659
 40
1.0
100
AcDbArc
 50
143.130102
 51
180.0
  0
ARC
  5
797
100
AcDbEntity
  8
M0
100
AcDbCircle
 10
299.20339
 20
395.740659
 40
3.0
100
AcDbArc
 50
180.0
 51
270.0
  0
ARC
  5
798
100
AcDbEntity
  8
M0
100
AcDbCircle
 10
294.10339
 20
418.040659
 40
1.0
100
AcDbArc
 50
90.0
 51
180.0
  0
LINE
  5
799
100
AcDbEntity
  8
M0
100
AcDbLine
 10
328.103389
 20
450.590658
 11
328.103389
 21
456.640659
  0
LINE
  5
79A
100
AcDbEntity
  8
M0
100
AcDbLine
 10
293.103392
 20
420.040659
 11
290.903392
 21
420.040659
  0
ARC
  5
79B
100
AcDbEntity
  8
M0
100
AcDbCircle
 10
286.60339
 20
423.340659
 40
0.5
100
AcDbArc
 50
90.0
 51
180.0
  0
ARC
  5
79C
100
AcDbEntity
  8
M0
100
AcDbCircle
 10
298.10339
 20
450.340659
 40
5.0
100
AcDbArc
 50
90.0
 51
180.0
  0
ARC
  5
79D
100
AcDbEntity
  8
M0
100
AcDbCircle
 10
328.80339
 20
458.840659
 40
0.5
100
AcDbArc
 50
90.0
 51
180.0
  0
ARC
  5
79E
100
AcDbEntity
  8
M0
100
AcDbCircle
 10
297.20339
 20
417.540659
 40
1.0
100
AcDbArc
 50
180.0
 51
270.0
  0
ARC
  5
79F
100
AcDbEntity
  8
M0
100
AcDbCircle
 10
337.00339
 20
415.840659
 40
0.5
100
AcDbArc
 50
53.130102
 51
90.0
  0
ARC
  5
7A0
100
AcDbEntity
  8
M0
100
AcDbCircle
 10
366.70339
 20
395.480104
 40
0.3
100
AcDbArc
 50
0.0
 51
90.0
  0
ARC
  5
7A1
100
AcDbEntity
  8
M0
100
AcDbCircle
 10
298.10339
 20
375.340659
 40
5.0
100
AcDbArc
 50
180.0
 51
270.0
  0
ARC
  5
7A2
100
AcDbEntity
  8
M0
100
AcDbCircle
 10
316.60339
 20
388.490659
 40
3.0
100
AcDbArc
 50
180.0
 51
270.0
  0
ARC
  5
7A3
100
AcDbEntity
  8
M0
100
AcDbCircle
 10
297.20339
 20
408.140659
 40
1.0
100
AcDbArc
 50
90.0
 51
180.0
  0
ARC
  5
7A4
100
AcDbEntity
  8
M0
100
AcDbCircle
 10
333.60339
 20
371.340659
 40
1.0
100
AcDbArc
 50
180.0
 51
270.0
  0
LINE
  5
7A5
100
AcDbEntity
  8
M0
100
AcDbLine
 10
296.203393
 20
395.740659
 11
296.203393
 21
408.140659
  0
LINE
  5
7A6
100
AcDbEntity
  8
M0
100
AcDbLine
 10
374.20339
 20
453.84066
 11
374.20339
 21
453.59066
  0
LINE
  5
7A7
100
AcDbEntity
  8
M0
100
AcDbLine
 10
370.00339
 20
395.04066
 11
370.00339
 21
430.640659
  0
LINE
  5
7A8
100
AcDbEntity
  8
M0
100
AcDbLine
 10
340.50339
 20
459.34066
 11
340.003391
 21
459.34066
  0
LINE
  5
7A9
100
AcDbEntity
  8
M0
100
AcDbLine
 10
374.50339
 20
441.59267
 11
374.20339
 21
441.59267
  0
LINE
  5
7AA
100
AcDbEntity
  8
M0
100
AcDbLine
 10
374.20339
 20
448.370966
 11
374.20339
 21
428.140659
  0
LINE
  5
7AB
100
AcDbEntity
  8
M0
100
AcDbLine
 10
298.103388
 20
455.34066
 11
323.449883
 21
455.34066
  0
LINE
  5
7AC
100
AcDbEntity
  8
M0
100
AcDbLine
 10
374.50339
 20
441.59066
 11
374.20339
 21
441.59066
  0
LINE
  5
7AD
100
AcDbEntity
  8
M0
100
AcDbLine
 10
293.103392
 20
408.340659
 11
290.403391
 21
408.340659
  0
LINE
  5
7AE
100
AcDbEntity
  8
M0
100
AcDbLine
 10
328.303388
 20
450.273993
 11
328.303388
 21
456.340658
  0
LINE
  5
7AF
100
AcDbEntity
  8
M0
100
AcDbLine
 10
366.70339
 20
427.024431
 11
351.20339
 21
427.024431
  0
LINE
  5
7B0
100
AcDbEntity
  8
M0
100
AcDbLine
 10
339.40339
 20
459.34066
 11
348.189176
 21
459.34066
  0
LINE
  5
7B1
100
AcDbEntity
  8
M0
100
AcDbLine
 10
351.20339
 20
429.901215
 11
366.70339
 21
429.901215
  0
LINE
  5
7B2
100
AcDbEntity
  8
M0
100
AcDbLine
 10
348.896283
 20
459.047767
 11
353.310497
 21
454.633551
  0
LINE
  5
7B3
100
AcDbEntity
  8
M0
100
AcDbLine
 10
339.40339
 20
459.34066
 11
331.303391
 21
459.34066
  0
LINE
  5
7B4
100
AcDbEntity
  8
M0
100
AcDbLine
 10
353.60339
 20
453.926446
 11
353.60339
 21
450.840658
  0
LINE
  5
7B5
100
AcDbEntity
  8
M0
100
AcDbLine
 10
325.986351
 20
453.942636
 11
331.103391
 21
445.840659
  0
LINE
  5
7B6
100
AcDbEntity
  8
M0
100
AcDbLine
 10
296.203393
 20
406.640659
 11
294.103387
 21
406.640659
  0
LINE
  5
7B7
100
AcDbEntity
  8
M0
100
AcDbLine
 10
294.103387
 20
419.040659
 11
296.203393
 21
419.040659
  0
LINE
  5
7B8
100
AcDbEntity
  8
M0
100
AcDbLine
 10
293.103392
 20
375.340659
 11
293.103392
 21
450.340659
  0
LINE
  5
7B9
100
AcDbEntity
  8
M0
100
AcDbLine
 10
331.092077
 20
445.840659
 11
331.092077
 21
440.165015
  0
LINE
  5
7BA
100
AcDbEntity
  8
M0
100
AcDbLine
 10
330.700657
 20
385.49066
 11
316.603391
 21
385.49066
  0
LINE
  5
7BB
100
AcDbEntity
  8
M0
100
AcDbLine
 10
374.50339
 20
441.59267
 11
374.50339
 21
441.59066
  0
LINE
  5
7BC
100
AcDbEntity
  8
M0
100
AcDbLine
 10
297.203387
 20
416.540659
 11
297.203387
 21
409.140659
  0
LINE
  5
7BD
100
AcDbEntity
  8
M0
100
AcDbLine
 10
374.50339
 20
384.04066
 11
374.50339
 21
371.09066
  0
LINE
  5
7BE
100
AcDbEntity
  8
M0
100
AcDbLine
 10
310.60339
 20
392.74066
 11
299.203391
 21
392.74066
  0
LINE
  5
7BF
100
AcDbEntity
  8
M0
100
AcDbLine
 10
290.403391
 20
422.840659
 11
288.10339
 21
422.840659
  0
LINE
  5
7C0
100
AcDbEntity
  8
M0
100
AcDbLine
 10
299.203391
 20
409.140659
 11
297.203387
 21
409.140659
  0
LINE
  5
7C1
100
AcDbEntity
  8
M0
100
AcDbLine
 10
339.30339
 20
388.040659
 11
334.80339
 21
388.040659
  0
LINE
  5
7C2
100
AcDbEntity
  8
M0
100
AcDbLine
 10
329.103391
 20
410.340659
 11
329.103391
 21
415.540659
  0
LINE
  5
7C3
100
AcDbEntity
  8
M0
100
AcDbLine
 10
313.603389
 20
388.490659
 11
313.603389
 21
389.740659
  0
LINE
  5
7C4
100
AcDbEntity
  8
M0
100
AcDbLine
 10
334.80339
 20
388.040659
 11
332.643605
 21
386.204841
  0
LINE
  5
7C5
100
AcDbEntity
  8
M0
100
AcDbLine
 10
374.50339
 20
453.59066
 11
374.50339
 21
441.59066
  0
LINE
  5
7C6
100
AcDbEntity
  8
M0
100
AcDbLine
 10
374.20339
 20
453.84066
 11
374.20339
 21
451.310354
  0
LINE
  5
7C7
100
AcDbEntity
  8
M0
100
AcDbLine
 10
374.50339
 20
451.310354
 11
374.20339
 21
451.310354
  0
LINE
  5
7C8
100
AcDbEntity
  8
M0
100
AcDbLine
 10
364.50339
 20
454.340658
 11
373.70339
 21
454.340658
  0
LINE
  5
7C9
100
AcDbEntity
  8
M0
100
AcDbLine
 10
346.703391
 20
392.74066
 11
346.703391
 21
397.740659
  0
LINE
  5
7CA
100
AcDbEntity
  8
M0
100
AcDbLine
 10
374.20339
 20
394.540659
 11
374.20339
 21
381.810353
  0
LINE
  5
7CB
100
AcDbEntity
  8
M0
100
AcDbLine
 10
369.00339
 20
399.040659
 11
367.00339
 21
399.040659
  0
LINE
  5
7CC
100
AcDbEntity
  8
M0
100
AcDbLine
 10
367.00339
 20
395.480104
 11
367.00339
 21
395.04066
  0
LINE
  5
7CD
100
AcDbEntity
  8
M0
100
AcDbLine
 10
334.80339
 20
437.64066
 11
363.50339
 21
437.64066
  0
LINE
  5
7CE
100
AcDbEntity
  8
M0
100
AcDbLine
 10
299.203391
 20
416.540659
 11
297.203387
 21
416.540659
  0
LINE
  5
7CF
100
AcDbEntity
  8
M0
100
AcDbLine
 10
363.50339
 20
371.840658
 11
363.00339
 21
371.840658
  0
LINE
  5
7D0
100
AcDbEntity
  8
M0
100
AcDbLine
 10
296.203393
 20
417.540659
 11
296.203393
 21
429.94066
  0
LINE
  5
7D1
100
AcDbEntity
  8
M0
100
AcDbLine
 10
346.703391
 20
432.940659
 11
339.30339
 21
432.940659
  0
LINE
  5
7D2
100
AcDbEntity
  8
M0
100
AcDbLine
 10
367.00339
 20
430.640659
 11
367.00339
 21
430.201214
  0
LINE
  5
7D3
100
AcDbEntity
  8
M0
100
AcDbLine
 10
346.703391
 20
392.74066
 11
339.30339
 21
392.74066
  0
LINE
  5
7D4
100
AcDbEntity
  8
M0
100
AcDbLine
 10
351.20339
 20
429.901215
 11
351.20339
 21
427.024431
  0
ARC
  5
7D5
100
AcDbEntity
  8
M0
100
AcDbCircle
 10
289.90339
 20
399.340659
 40
0.5
100
AcDbArc
 50
90.0
 51
180.0
  0
ARC
  5
7D6
100
AcDbEntity
  8
M0
100
AcDbCircle
 10
289.90339
 20
398.340659
 40
0.5
100
AcDbArc
 50
180.0
 51
270.0
  0
ARC
  5
7D7
100
AcDbEntity
  8
M0
100
AcDbCircle
 10
330.700659
 20
388.490659
 40
3.0
100
AcDbArc
 50
270.0
 51
310.364537
  0
ARC
  5
7D8
100
AcDbEntity
  8
M0
100
AcDbCircle
 10
323.860749
 20
373.340659
 40
3.0
100
AcDbArc
 50
270.0
 51
315.0
  0
ARC
  5
7D9
100
AcDbEntity
  8
M0
100
AcDbCircle
 10
291.40339
 20
391.140659
 40
1.0
100
AcDbArc
 50
180.0
 51
270.0
  0
ARC
  5
7DA
100
AcDbEntity
  8
M0
100
AcDbCircle
 10
290.90339
 20
420.540659
 40
0.5
100
AcDbArc
 50
180.0
 51
270.0
  0
ARC
  5
7DB
100
AcDbEntity
  8
M0
100
AcDbCircle
 10
336.50339
 20
416.040659
 40
0.5
100
AcDbArc
 50
270.0
 51
360.0
  0
ARC
  5
7DC
100
AcDbEntity
  8
M0
100
AcDbCircle
 10
324.80339
 20
415.040659
 40
0.5
100
AcDbArc
 50
90.0
 51
180.0
  0
LINE
  5
7DD
100
AcDbEntity
  8
M0
100
AcDbLine
 10
367.00339
 20
395.04066
 11
373.70339
 21
395.04066
  0
LINE
  5
7DE
100
AcDbEntity
  8
M0
100
AcDbLine
 10
370.30339
 20
427.140659
 11
370.30339
 21
425.140659
  0
LINE
  5
7DF
100
AcDbEntity
  8
M0
100
AcDbLine
 10
363.50339
 20
388.040659
 11
339.30339
 21
388.040659
  0
LINE
  5
7E0
100
AcDbEntity
  8
M0
100
AcDbLine
 10
370.30339
 20
427.140659
 11
370.00339
 21
428.140659
  0
LINE
  5
7E1
100
AcDbEntity
  8
M0
100
AcDbLine
 10
339.30339
 20
376.34066
 11
344.58731
 21
376.34066
  0
ARC
  5
7E2
100
AcDbEntity
  8
M0
100
AcDbCircle
 10
294.10339
 20
407.640659
 40
1.0
100
AcDbArc
 50
180.0
 51
270.0
  0
LINE
  5
7E3
100
AcDbEntity
  8
M0
100
AcDbLine
 10
370.00339
 20
424.64066
 11
370.30339
 21
425.140659
  0
LINE
  5
7E4
100
AcDbEntity
  8
M0
100
AcDbLine
 10
339.30339
 20
445.840659
 11
344.010497
 21
450.547765
  0
LINE
  5
7E5
100
AcDbEntity
  8
M0
100
AcDbLine
 10
290.403391
 20
397.84066
 11
289.90339
 21
397.84066
  0
LINE
  5
7E6
100
AcDbEntity
  8
M0
100
AcDbLine
 10
291.903387
 20
414.340659
 11
291.903387
 21
411.340659
  0
LINE
  5
7E7
100
AcDbEntity
  8
M0
100
AcDbLine
 10
290.903392
 20
405.640659
 11
293.103392
 21
405.640659
  0
LINE
  5
7E8
100
AcDbEntity
  8
M0
100
AcDbLine
 10
291.903387
 20
420.040659
 11
291.903387
 21
417.340659
  0
LINE
  5
7E9
100
AcDbEntity
  8
M0
100
AcDbLine
 10
289.90339
 20
399.840659
 11
290.403391
 21
399.840659
  0
LINE
  5
7EA
100
AcDbEntity
  8
M0
100
AcDbLine
 10
289.403389
 20
398.34066
 11
289.403389
 21
399.340659
  0
LINE
  5
7EB
100
AcDbEntity
  8
M0
100
AcDbLine
 10
291.903387
 20
405.640659
 11
291.903387
 21
408.340659
  0
LINE
  5
7EC
100
AcDbEntity
  8
M0
100
AcDbLine
 10
332.60339
 20
371.340661
 11
332.60339
 21
376.34066
  0
LINE
  5
7ED
100
AcDbEntity
  8
M0
100
AcDbLine
 10
324.803389
 20
410.140659
 11
336.503389
 21
410.140659
  0
LINE
  5
7EE
100
AcDbEntity
  8
M0
100
AcDbLine
 10
337.00339
 20
418.540659
 11
337.00339
 21
416.040659
  0
LINE
  5
7EF
100
AcDbEntity
  8
M0
100
AcDbLine
 10
291.403393
 20
435.54066
 11
293.103392
 21
435.54066
  0
LINE
  5
7F0
100
AcDbEntity
  8
M0
100
AcDbLine
 10
293.103392
 20
414.340659
 11
290.403391
 21
414.340659
  0
LINE
  5
7F1
100
AcDbEntity
  8
M0
100
AcDbLine
 10
293.103392
 20
390.140659
 11
291.403393
 21
390.140659
  0
LINE
  5
7F2
100
AcDbEntity
  8
M0
100
AcDbLine
 10
290.403391
 20
411.340659
 11
293.103392
 21
411.340659
  0
LINE
  5
7F3
100
AcDbEntity
  8
M0
100
AcDbLine
 10
324.303391
 20
415.040659
 11
324.303391
 21
410.640659
  0
LINE
  5
7F4
100
AcDbEntity
  8
M0
100
AcDbLine
 10
290.403391
 20
417.340659
 11
293.103392
 21
417.340659
  0
LINE
  5
7F5
100
AcDbEntity
  8
M0
100
AcDbLine
 10
299.203391
 20
409.140659
 11
299.203391
 21
416.540659
  0
LINE
  5
7F6
100
AcDbEntity
  8
M0
100
AcDbLine
 10
373.70339
 20
430.640659
 11
367.00339
 21
430.640659
  0
LINE
  5
7F7
100
AcDbEntity
  8
M0
100
AcDbLine
 10
299.203391
 20
432.940659
 11
310.60339
 21
432.940659
  0
LINE
  5
7F8
100
AcDbEntity
  8
M0
100
AcDbLine
 10
339.30339
 20
418.840659
 11
339.30339
 21
445.840659
  0
LINE
  5
7F9
100
AcDbEntity
  8
M0
100
AcDbLine
 10
332.643605
 20
439.476477
 11
334.80339
 21
437.64066
  0
LINE
  5
7FA
100
AcDbEntity
  8
M0
100
AcDbLine
 10
363.50339
 20
374.340659
 11
362.50339
 21
373.340658
  0
LINE
  5
7FB
100
AcDbEntity
  8
M0
100
AcDbLine
 10
367.00339
 20
426.640659
 11
369.00339
 21
426.640659
  0
LINE
  5
7FC
100
AcDbEntity
  8
M0
100
AcDbLine
 10
313.603389
 20
435.940659
 11
313.603389
 21
437.19066
  0
LINE
  5
7FD
100
AcDbEntity
  8
M0
100
AcDbLine
 10
337.503391
 20
419.040659
 11
339.30339
 21
419.040659
  0
LINE
  5
7FE
100
AcDbEntity
  8
M0
100
AcDbLine
 10
290.403391
 20
391.140659
 11
290.403391
 21
434.540659
  0
LINE
  5
7FF
100
AcDbEntity
  8
M0
100
AcDbLine
 10
300.203393
 20
417.540659
 11
300.203393
 21
408.140659
  0
LINE
  5
800
100
AcDbEntity
  8
M0
100
AcDbLine
 10
324.803389
 20
415.540659
 11
336.503389
 21
415.540659
  0
LINE
  5
801
100
AcDbEntity
  8
M0
100
AcDbLine
 10
346.703391
 20
427.94066
 11
346.703391
 21
432.940659
  0
LINE
  5
802
100
AcDbEntity
  8
M0
100
AcDbLine
 10
363.50339
 20
437.64066
 11
363.50339
 21
453.340659
  0
LINE
  5
803
100
AcDbEntity
  8
M0
100
AcDbLine
 10
316.603391
 20
440.190658
 11
330.700657
 21
440.190658
  0
LINE
  5
804
100
AcDbEntity
  8
M0
100
AcDbLine
 10
337.00339
 20
409.640659
 11
337.00339
 21
407.140659
  0
CIRCLE
  5
805
100
AcDbEntity
  8
M0
100
AcDbCircle
 10
200.236322
 20
442.340659
 40
5.0
  0
CIRCLE
  5
806
100
AcDbEntity
  8
M0
100
AcDbCircle
 10
182.636322
 20
442.340659
 40
5.0
  0
CIRCLE
  5
807
100
AcDbEntity
  8
M0
100
AcDbCircle
 10
165.036322
 20
442.340659
 40
5.0
  0
CIRCLE
  5
808
100
AcDbEntity
  8
M0
100
AcDbCircle
 10
200.236322
 20
383.340597
 40
5.0
  0
CIRCLE
  5
809
100
AcDbEntity
  8
M0
100
AcDbCircle
 10
182.636322
 20
383.340597
 40
5.0
  0
CIRCLE
  5
80A
100
AcDbEntity
  8
M0
100
AcDbCircle
 10
165.036322
 20
383.340597
 40
5.0
  0
CIRCLE
  5
80B
100
AcDbEntity
  8
M0
100
AcDbCircle
 10
113.336325
 20
383.340597
 40
5.0
  0
CIRCLE
  5
80C
100
AcDbEntity
  8
M0
100
AcDbCircle
 10
95.736325
 20
383.340597
 40
5.0
  0
CIRCLE
  5
80D
100
AcDbEntity
  8
M0
100
AcDbCircle
 10
78.136325
 20
383.340597
 40
5.0
  0
CIRCLE
  5
80E
100
AcDbEntity
  8
M0
100
AcDbCircle
 10
78.136325
 20
442.340659
 40
5.0
  0
CIRCLE
  5
80F
100
AcDbEntity
  8
M0
100
AcDbCircle
 10
95.736325
 20
442.340659
 40
5.0
  0
CIRCLE
  5
810
100
AcDbEntity
  8
M0
100
AcDbCircle
 10
113.336325
 20
442.340659
 40
5.0
  0
CIRCLE
  5
811
100
AcDbEntity
  8
M0
  6
DIVIDE
 62
     7
100
AcDbCircle
 10
60.236325
 20
265.081807
 40
1.7
  0
CIRCLE
  5
812
100
AcDbEntity
  8
M0
  6
DIVIDE
 62
     7
100
AcDbCircle
 10
131.236325
 20
200.081807
 40
1.7
  0
CIRCLE
  5
813
100
AcDbEntity
  8
M0
  6
DIVIDE
 62
     7
100
AcDbCircle
 10
60.236325
 20
265.081807
 40
2.0
  0
CIRCLE
  5
814
100
AcDbEntity
  8
M0
  6
DIVIDE
 62
     7
100
AcDbCircle
 10
131.236325
 20
200.081807
 40
2.0
  0
CIRCLE
  5
815
100
AcDbEntity
  8
M0
  6
DIVIDE
 62
     7
100
AcDbCircle
 10
218.136322
 20
200.081807
 40
2.0
  0
CIRCLE
  5
816
100
AcDbEntity
  8
M0
  6
DIVIDE
 62
     7
100
AcDbCircle
 10
218.136322
 20
200.081807
 40
1.7
  0
CIRCLE
  5
817
100
AcDbEntity
  8
M0
  6
DIVIDE
 62
     7
100
AcDbCircle
 10
147.136322
 20
265.081807
 40
2.0
  0
CIRCLE
  5
818
100
AcDbEntity
  8
M0
  6
DIVIDE
 62
     7
100
AcDbCircle
 10
147.136322
 20
265.081807
 40
1.7
  0
LINE
  5
819
100
AcDbEntity
  8
M0
  6
DIVIDE
 62
     7
100
AcDbLine
 10
134.686325
 20
207.181808
 11
143.686322
 21
207.181808
  0
LINE
  5
81A
100
AcDbEntity
  8
M0
  6
DASHDOT
 62
     7
100
AcDbLine
 10
64.333729
 20
265.081807
 11
56.13892
 21
265.081807
  0
LINE
  5
81B
100
AcDbEntity
  8
M0
  6
DASHDOT
 62
     7
100
AcDbLine
 10
151.233727
 20
265.081807
 11
143.038918
 21
265.081807
  0
LINE
  5
81C
100
AcDbEntity
  8
M0
  6
DASHDOT
 62
     7
100
AcDbLine
 10
60.236317
 20
269.179204
 11
60.236332
 21
260.984395
  0
LINE
  5
81D
100
AcDbEntity
  8
M0
  6
DASHDOT
 62
     7
100
AcDbLine
 10
135.333729
 20
200.081807
 11
127.13892
 21
200.081807
  0
LINE
  5
81E
100
AcDbEntity
  8
M0
  6
DASHDOT
 62
     7
100
AcDbLine
 10
222.233727
 20
200.081807
 11
214.038918
 21
200.081807
  0
LINE
  5
81F
100
AcDbEntity
  8
M0
  6
DIVIDE
 62
     7
100
AcDbLine
 10
134.686325
 20
257.981808
 11
143.686322
 21
257.981808
  0
LINE
  5
820
100
AcDbEntity
  8
M0
  6
DASHDOT
 62
     7
100
AcDbLine
 10
147.136315
 20
269.179204
 11
147.13633
 21
260.984395
  0
LINE
  5
821
100
AcDbEntity
  8
M0
  6
DASHDOT
 62
     7
100
AcDbLine
 10
218.136315
 20
204.179204
 11
218.13633
 21
195.984395
  0
LINE
  5
822
100
AcDbEntity
  8
M0
  6
DASHDOT
 62
     7
100
AcDbLine
 10
131.236317
 20
204.179204
 11
131.236332
 21
195.984395
  0
LINE
  5
823
100
AcDbEntity
  8
M0
  6
DIVIDE
 62
     7
100
AcDbLine
 10
73.286325
 20
275.081807
 11
56.786325
 21
275.081807
  0
LINE
  5
824
100
AcDbEntity
  8
M0
  6
DIVIDE
 62
     7
100
AcDbLine
 10
56.786325
 20
275.081807
 11
56.786325
 21
190.081807
  0
LINE
  5
825
100
AcDbEntity
  8
M0
  6
DIVIDE
 62
     7
100
AcDbLine
 10
73.286325
 20
275.081807
 11
73.286325
 21
279.081808
  0
LINE
  5
826
100
AcDbEntity
  8
M0
  6
DIVIDE
 62
     7
100
AcDbLine
 10
118.186325
 20
275.081807
 11
118.186325
 21
279.081808
  0
LINE
  5
827
100
AcDbEntity
  8
M0
  6
DIVIDE
 62
     7
100
AcDbLine
 10
118.186325
 20
275.081807
 11
134.686325
 21
275.081807
  0
LINE
  5
828
100
AcDbEntity
  8
M0
  6
DIVIDE
 62
     7
100
AcDbLine
 10
73.286325
 20
279.081808
 11
118.186325
 21
279.081808
  0
LINE
  5
829
100
AcDbEntity
  8
M0
  6
DIVIDE
 62
     7
100
AcDbLine
 10
134.686325
 20
190.081807
 11
134.686325
 21
207.181808
  0
LINE
  5
82A
100
AcDbEntity
  8
M0
  6
DIVIDE
 62
     7
100
AcDbLine
 10
134.686325
 20
190.081807
 11
56.786325
 21
190.081808
  0
LINE
  5
82B
100
AcDbEntity
  8
M0
  6
DIVIDE
 62
     7
100
AcDbLine
 10
134.686325
 20
257.981808
 11
134.686325
 21
275.081807
  0
LINE
  5
82C
100
AcDbEntity
  8
M0
  6
DASHDOT
 62
     7
100
AcDbLine
 10
139.186324
 20
288.93544
 11
139.186324
 21
180.248626
  0
LINE
  5
82D
100
AcDbEntity
  8
M0
  6
DIVIDE
 62
     7
100
AcDbLine
 10
160.186322
 20
275.081807
 11
143.686322
 21
275.081807
  0
LINE
  5
82E
100
AcDbEntity
  8
M0
  6
DIVIDE
 62
     7
100
AcDbLine
 10
143.686322
 20
275.081807
 11
143.686322
 21
257.981808
  0
LINE
  5
82F
100
AcDbEntity
  8
M0
  6
DIVIDE
 62
     7
100
AcDbLine
 10
160.186322
 20
275.081807
 11
160.186322
 21
279.081808
  0
LINE
  5
830
100
AcDbEntity
  8
M0
  6
DIVIDE
 62
     7
100
AcDbLine
 10
205.086323
 20
275.081807
 11
205.086322
 21
279.081808
  0
LINE
  5
831
100
AcDbEntity
  8
M0
  6
DIVIDE
 62
     7
100
AcDbLine
 10
205.086323
 20
275.081807
 11
221.586322
 21
275.081807
  0
LINE
  5
832
100
AcDbEntity
  8
M0
  6
DIVIDE
 62
     7
100
AcDbLine
 10
160.186322
 20
279.081808
 11
205.086322
 21
279.081808
  0
LINE
  5
833
100
AcDbEntity
  8
M0
  6
DIVIDE
 62
     7
100
AcDbLine
 10
221.586322
 20
190.081807
 11
221.586322
 21
275.081807
  0
LINE
  5
834
100
AcDbEntity
  8
M0
  6
DIVIDE
 62
     7
100
AcDbLine
 10
221.586322
 20
190.081807
 11
143.686322
 21
190.081808
  0
LINE
  5
835
100
AcDbEntity
  8
M0
  6
DIVIDE
 62
     7
100
AcDbLine
 10
143.686322
 20
207.181808
 11
143.686322
 21
190.081807
  0
LINE
  5
836
100
AcDbEntity
  8
M3
 62
     2
100
AcDbLine
 10
399.604359
 20
81.112386
 11
199.604359
 21
81.112386
  0
LINE
  5
837
100
AcDbEntity
  8
M3
 62
     2
100
AcDbLine
 10
19.604359
 20
21.112386
 11
19.604359
 21
571.112386
  0
LINE
  5
838
100
AcDbEntity
  8
M3
 62
     2
100
AcDbLine
 10
399.604359
 20
21.112386
 11
19.604359
 21
21.112386
  0
LINE
  5
839
100
AcDbEntity
  8
M3
 62
     2
100
AcDbLine
 10
399.604359
 20
41.112386
 11
199.604359
 21
41.112386
  0
TEXT
  5
83A
100
AcDbEntity
  8
M3
 62
     2
100
AcDbText
 10
203.937687
 20
46.112386
 40
10.0
  1
形　式；
  7
STANDARD
100
AcDbText
  0
LINE
  5
83B
100
AcDbEntity
  8
M3
 62
     2
100
AcDbLine
 10
399.604359
 20
61.112386
 11
199.604359
 21
61.112386
  0
TEXT
  5
83C
100
AcDbEntity
  8
M3
 62
     2
100
AcDbText
 10
203.937687
 20
66.112386
 40
10.0
  1
登録名：
  7
STANDARD
100
AcDbText
  0
LINE
  5
83D
100
AcDbEntity
  8
M3
 62
     2
100
AcDbLine
 10
199.604359
 20
21.112386
 11
199.604359
 21
81.112386
  0
TEXT
  5
83E
100
AcDbEntity
  8
M3
 62
     2
100
AcDbText
 10
203.937687
 20
26.112386
 40
10.0
  1
適　用；
  7
STANDARD
100
AcDbText
  0
LINE
  5
83F
100
AcDbEntity
  8
M3
 62
     2
100
AcDbLine
 10
19.604359
 20
571.112386
 11
399.604359
 21
571.112386
  0
LINE
  5
840
100
AcDbEntity
  8
M3
 62
     2
100
AcDbLine
 10
399.604359
 20
571.112386
 11
399.604359
 21
21.112386
  0
TEXT
  5
841
100
AcDbEntity
  8
M3
 62
     2
100
AcDbText
 10
252.27103
 20
66.112386
 40
10.0
  1
ＤＭＨＳ３５ＲＲ００
 41
0.5
  7
STANDARD
100
AcDbText
  0
TEXT
  5
842
100
AcDbEntity
  8
M3
 62
     2
100
AcDbText
 10
252.27103
 20
46.112386
 40
10.0
  1
ＨＳ３５－Ｒ
 41
0.5
  7
STANDARD
100
AcDbText
  0
LINE
  5
843
100
AcDbEntity
  8
DN0
100
AcDbLine
 10
126.128673
 20
156.567569
 11
158.588681
 21
156.567569
  0
TEXT
  5
844
100
AcDbEntity
  8
DN0
100
AcDbText
 10
127.02534
 20
157.367569
 40
8.0
  1
せん孔図
 41
0.833333
  7
STANDARD
100
AcDbText
  0
ENDSEC
  0
SECTION
  2
OBJECTS
  0
DICTIONARY
  5
C
100
AcDbDictionary
  3
ACAD_GROUP
350
D
  3
ACAD_MLINESTYLE
350
E
  3
ACDBVARIABLEDICTIONARY
350
70E
  0
DICTIONARY
  5
D
102
{ACAD_REACTORS
330
C
102
}
100
AcDbDictionary
  0
DICTIONARY
  5
E
102
{ACAD_REACTORS
330
C
102
}
100
AcDbDictionary
  3
STANDARD
350
13
  0
DICTIONARY
  5
70E
102
{ACAD_REACTORS
330
C
102
}
100
AcDbDictionary
  3
SORTENTS
350
70F
  0
MLINESTYLE
  5
13
102
{ACAD_REACTORS
330
E
102
}
100
AcDbMlineStyle
  2
STANDARD
 70
     0
  3

 62
     0
 51
90.0
 52
90.0
 71
     2
 49
0.5
 62
   256
  6
BYLAYER
 49
-0.5
 62
   256
  6
BYLAYER
  0
DICTIONARYVAR
  5
70F
102
{ACAD_REACTORS
330
70E
102
}
100
DictionaryVariables
280
     0
  1
96
  0
ENDSEC
  0
EOF
