  0
SECTION
  2
HEADER
  9
$ACADVER
  1
AC1014
  9
$INSBASE
 10
0.000000
 20
0.000000
 30
0.0
  9
$VIEWCTR
 10
7.531722
 20
4.5
  9
$VIEWSIZE
 40
9.0
  9
$SNAPMODE
 70
     0
  9
$SNAPUNIT
 10
1.0
 20
1.0
  9
$SNAPBASE
 10
0.0
 20
0.0
  9
$SNAPANG
 50
0.0
  9
$SNAPSTYLE
 70
     0
  9
$SNAPISOPAIR
 70
     0
  9
$GRIDMODE
 70
     0
  9
$GRIDUNIT
 10
0.0
 20
0.0
  9
$ORTHOMODE
 70
     0
  9
$REGENMODE
 70
     1
  9
$FILLMODE
 70
     1
  9
$QTEXTMODE
 70
     0
  9
$DRAGMODE
 70
     2
  9
$LTSCALE
  40
     1.000000
  9
$OSMODE
 70
     0
  9
$ATTMODE
 70
     1
  9
$TEXTSIZE
 40
0.2
  9
$TRACEWID
 40
0.05
  9
$TEXTSTYLE
  7
STANDARD
  9
$CELTYPE
  6
BYLAYER
  9
$CECOLOR
 62
   256
  9
$DIMSCALE
 40
1.0
  9
$DIMASZ
 40
0.18
  9
$DIMEXO
 40
0.0625
  9
$DIMDLI
 40
0.38
  9
$DIMRND
 40
0.0
  9
$DIMDLE
 40
0.0
  9
$DIMEXE
 40
0.18
  9
$DIMTP
 40
0.0
  9
$DIMTM
 40
0.0
  9
$DIMTXT
 40
0.18
  9
$DIMCEN
 40
0.09
  9
$DIMTSZ
 40
0.0
  9
$DIMTOL
 70
     0
  9
$DIMLIM
 70
     0
  9
$DIMTIH
 70
     1
  9
$DIMTOH
 70
     1
  9
$DIMSE1
 70
     0
  9
$DIMSE2
 70
     0
  9
$DIMTAD
 70
     0
  9
$DIMZIN
 70
     0
  9
$DIMBLK
  1

  9
$LUNITS
 70
     2
  9
$LUPREC
 70
     4
  9
$AXISMODE
 70
     0
  9
$AXISUNIT
 10
0.0
 20
0.0
  9
$SKETCHINC
 40
0.1
  9
$FILLETRAD
 40
0.0
  9
$AUNITS
 70
     0
  9
$AUPREC
 70
     0
  9
$MENU
  1
ACAD
  9
$ELEVATION
 40
0.0
  9
$THICKNESS
 40
0.0
  9
$VIEWDIR
 10
0.0
 20
0.0
 30
1.0
  9
$LIMCHECK
 70
     0
  9
$BLIPMODE
 70
     1
  9
$CHAMFERA
 40
0.0
  9
$CHAMFERB
 40
0.0
  9
$FASTZOOM
 70
     1
  9
$SKPOLY
 70
     0
  9
$TDCREATE
 40
0000000.0000000000
  9
$TDUPDATE
 40
0000000.0000000000
  9
$TDINDWG
 40
0.0000000000
  9
$TDUSRTIMER
 40
0.0000000000
  9
$USRTIMER
 70
     1
  9
$ANGBASE
 50
0.0
  9
$ANGDIR
 70
     0
  9
$PDMODE
 70
     0
  9
$PDSIZE
 40
0.0
  9
$PLINEWID
 40
0.0
  9
$COORDS
 70
     0
  9
$USERI1
 70
     0
  9
$USERI2
 70
     0
  9
$USERI3
 70
     0
  9
$USERI4
 70
     0
  9
$USERI5
 70
     0
  9
$USERR1
 40
0.0
  9
$USERR2
 40
0.0
  9
$USERR3
 40
0.0
  9
$USERR4
 40
0.0
  9
$USERR5
 40
0.0
  9
$CLAYER
  8
M0
  9
$EXTMIN
 10
22.222223
 20
22.222223
  9
$EXTMAX
 10
444.444456
 20
633.33335
  9
$LIMMIN
 10
0.0
 20
0.0
  9
$LIMMAX
 10
210.0
 20
297.0
  9
$HANDSEED
  5
978
  0
ENDSEC
  0
SECTION
  2
CLASSES
  0
CLASS
  1
DICTIONARYVAR
  2
AcDbDictionaryVar
  3
"AutoCAD"
 90
        0
280
     0
281
     0
  0
CLASS
  1
HATCH
  2
AcDbHatch
  3
"ACAD_SEDONA"
 90
        0
280
     0
281
     1
  0
ENDSEC
  0
SECTION
  2
TABLES
  0
TABLE
  2
VPORT
  5
8
100
AcDbSymbolTable
 70
     2
  0
VPORT
  5
14
100
AcDbSymbolTableRecord
100
AcDbViewportTableRecord
  2
*ACTIVE
 70
     0
 10
0.0
 20
0.0
 11
1.0
 21
1.0
 12
484.0
 22
297.0
 13
0.0
 23
0.0
 14
1.0
 24
1.0
 15
0.0
 25
0.0
 16
0.0
 26
0.0
 36
1.0
 17
0.0
 27
0.0
 37
0.0
 40
594.0
 41
2.0
 42
50.0
 43
0.0
 44
0.0
 50
0.0
 51
0.0
 71
     0
 72
   100
 73
     1
 74
     1
 75
     0
 76
     0
 77
     0
 78
     0
  0
ENDTAB
  0
TABLE
  2
LTYPE
  5
5
100
AcDbSymbolTable
 70
     5
  0
LTYPE
  5
15
100
AcDbSymbolTableRecord
100
AcDbLinetypeTableRecord
  2
BYBLOCK
 70
     0
  3

 72
    65
 73
     0
 40
0.0
  0
LTYPE
  5
16
100
AcDbSymbolTableRecord
100
AcDbLinetypeTableRecord
  2
BYLAYER
 70
     0
  3

 72
    65
 73
     0
 40
0.0
  0
LTYPE
  5
17
100
AcDbSymbolTableRecord
100
AcDbLinetypeTableRecord
  2
CONTINUOUS
 70
    64
  3
Solid line
 72
    65
 73
     0
 40
0.0
  0
LTYPE
  5
18
100
AcDbSymbolTableRecord
100
AcDbLinetypeTableRecord
  2
DASHED
 70
    64
  3
__ __ __ __ __ __ __ __ __ __ __ __ __ __ __ __
 72
    65
 73
     2
 40
0.75
 49
0.5
 74
     0
 49
-0.25
 74
     0
  0
LTYPE
  5
19
100
AcDbSymbolTableRecord
100
AcDbLinetypeTableRecord
  2
DASHDOT
 70
    64
  3
__ . __ . __ . __ . __ . __ . __ . __ . __ . __
 72
    65
 73
     4
 40
1.0
 49
0.5
 74
     0
 49
-0.25
 74
     0
 49
0.0
 74
     0
 49
-0.25
 74
     0
  0
LTYPE
  5
1A
100
AcDbSymbolTableRecord
100
AcDbLinetypeTableRecord
  2
DIVIDE
 70
    64
  3
____ . . ____ . . ____ . . ____ . . ____ . . __
 72
    65
 73
     6
 40
1.25
 49
0.5
 74
     0
 49
-0.25
 74
     0
 49
0.0
 74
     0
 49
-0.25
 74
     0
 49
0.0
 74
     0
 49
-0.25
 74
     0
  0
LTYPE
  5
1B
100
AcDbSymbolTableRecord
100
AcDbLinetypeTableRecord
  2
DOT
 70
    64
  3
. . . . . . . . . . . . . . . . . . . . . . . .
 72
    65
 73
     2
 40
0.25
 49
0.0
 74
     0
 49
-0.25
 74
     0
  0
ENDTAB
  0
TABLE
  2
LAYER
  5
2
100
AcDbSymbolTable
 70
   102
  0
LAYER
  5
F
100
AcDbSymbolTableRecord
100
AcDbLayerTableRecord
  2
0
 70
     0
 62
     7
  6
CONTINUOUS
  0
LAYER
  5
1C
100
AcDbSymbolTableRecord
100
AcDbLayerTableRecord
  2
DEFPOINTS
 70
     0
 62
     7
  6
CONTINUOUS
  0
LAYER
  5
1D
100
AcDbSymbolTableRecord
100
AcDbLayerTableRecord
  2
M0
 70
     0
 62
     3
  6
CONTINUOUS
  0
LAYER
  5
1E
100
AcDbSymbolTableRecord
100
AcDbLayerTableRecord
  2
M1
 70
     0
 62
     3
  6
CONTINUOUS
  0
LAYER
  5
1F
100
AcDbSymbolTableRecord
100
AcDbLayerTableRecord
  2
DD0
 70
     0
 62
     4
  6
CONTINUOUS
  0
LAYER
  5
20
100
AcDbSymbolTableRecord
100
AcDbLayerTableRecord
  2
DN0
 70
     0
 62
     2
  6
CONTINUOUS
  0
ENDTAB
  0
TABLE
  2
STYLE
  5
3
100
AcDbSymbolTable
 70
     2
  0
STYLE
  5
10
100
AcDbSymbolTableRecord
100
AcDbTextStyleTableRecord
  2
STANDARD
 70
     0
 40
0.0
 41
1.0
 50
0.0
 71
     0
 42
0.2
  3
txt
  4
BIGFONT
  0
ENDTAB
  0
TABLE
  2
VIEW
  5
6
100
AcDbSymbolTable
 70
     0
  0
ENDTAB
  0
TABLE
  2
UCS
  5
7
100
AcDbSymbolTable
 70
     0
  0
ENDTAB
  0
TABLE
  2
APPID
  5
9
100
AcDbSymbolTable
 70
     1
  0
APPID
  5
11
100
AcDbSymbolTableRecord
100
AcDbRegAppTableRecord
  2
ACAD
 70
     0
  0
ENDTAB
  0
TABLE
  2
DIMSTYLE
  5
A
100
AcDbSymbolTable
 70
     2
  0
DIMSTYLE
105
27
100
AcDbSymbolTableRecord
100
AcDbDimStyleTableRecord
  2
STANDARD
 70
     0
  3

  4

  5

  6
_OPEN
  7
_OPEN
 40
1.0
 41
6.666667
 42
1.0
 43
8.0
 44
1.0
 45
0.0
 46
0.0
 47
0.0
 48
0.0
140
7.0
141
0.09
142
0.0
143
0.03937
144
1.0
145
0.0
146
1.0
147
0.6
 71
     0
 72
     0
 73
     1
 74
     1
 75
     0
 76
     0
 77
     3
 78
     8
170
     0
171
     2
172
     0
173
     1
174
     0
175
     0
176
     0
177
     0
178
     0
270
     2
271
     2
272
     4
273
     2
274
     2
340
10
275
     0
280
     0
281
     0
282
     0
283
     1
284
     0
285
     0
286
     0
287
     3
288
     0
  0
DIMSTYLE
105
28
100
AcDbSymbolTableRecord
100
AcDbDimStyleTableRecord
  2
LEADSTYL
 70
     0
  3

  4

  5

  6
_OPEN
  7
_OPEN
 40
1.0
 41
6.666667
 42
0.0625
 43
0.38
 44
0.18
 45
0.0
 46
0.0
 47
0.0
 48
0.0
140
7.0
141
0.09
142
0.0
143
25.4
144
1.0
145
0.0
146
1.0
147
0.6
 71
     0
 72
     0
 73
     1
 74
     1
 75
     0
 76
     0
 77
     0
 78
     0
170
     0
171
     2
172
     0
173
     1
174
     0
175
     0
176
     0
177
     0
178
     0
270
     2
271
     4
272
     4
273
     2
274
     2
340
10
275
     0
280
     0
281
     0
282
     0
283
     1
284
     0
285
     0
286
     0
287
     3
288
     0
  0
ENDTAB
  0
TABLE
  2
BLOCK_RECORD
  5
1
100
AcDbSymbolTable
 70
    29
  0
BLOCK_RECORD
  5
21
100
AcDbSymbolTableRecord
100
AcDbBlockTableRecord
  2
*MODEL_SPACE
  0
BLOCK_RECORD
  5
24
100
AcDbSymbolTableRecord
100
AcDbBlockTableRecord
  2
*PAPER_SPACE
  0
BLOCK_RECORD
  5
29
100
AcDbSymbolTableRecord
100
AcDbBlockTableRecord
  2
_NONE
  0
BLOCK_RECORD
  5
2D
100
AcDbSymbolTableRecord
100
AcDbBlockTableRecord
  2
_OPEN
  0
BLOCK_RECORD
  5
33
100
AcDbSymbolTableRecord
100
AcDbBlockTableRecord
  2
_CLOSED
  0
BLOCK_RECORD
  5
3A
100
AcDbSymbolTableRecord
100
AcDbBlockTableRecord
  2
_ORIGIN
  0
BLOCK_RECORD
  5
3F
100
AcDbSymbolTableRecord
100
AcDbBlockTableRecord
  2
_DOT
  0
BLOCK_RECORD
  5
47
100
AcDbSymbolTableRecord
100
AcDbBlockTableRecord
  2
_OBLIQUE
  0
BLOCK_RECORD
  5
4B
100
AcDbSymbolTableRecord
100
AcDbBlockTableRecord
  2
DIMS0
  0
BLOCK_RECORD
  5
57
100
AcDbSymbolTableRecord
100
AcDbBlockTableRecord
  2
DIMS1
  0
BLOCK_RECORD
  5
63
100
AcDbSymbolTableRecord
100
AcDbBlockTableRecord
  2
DIMS2
  0
BLOCK_RECORD
  5
68
100
AcDbSymbolTableRecord
100
AcDbBlockTableRecord
  2
DIMS3
  0
BLOCK_RECORD
  5
6D
100
AcDbSymbolTableRecord
100
AcDbBlockTableRecord
  2
DIMS4
  0
BLOCK_RECORD
  5
72
100
AcDbSymbolTableRecord
100
AcDbBlockTableRecord
  2
DIMS5
  0
BLOCK_RECORD
  5
7E
100
AcDbSymbolTableRecord
100
AcDbBlockTableRecord
  2
DIMS6
  0
BLOCK_RECORD
  5
87
100
AcDbSymbolTableRecord
100
AcDbBlockTableRecord
  2
DIMS7
  0
BLOCK_RECORD
  5
93
100
AcDbSymbolTableRecord
100
AcDbBlockTableRecord
  2
DIMS8
  0
BLOCK_RECORD
  5
9F
100
AcDbSymbolTableRecord
100
AcDbBlockTableRecord
  2
DIMS9
  0
BLOCK_RECORD
  5
AB
100
AcDbSymbolTableRecord
100
AcDbBlockTableRecord
  2
DIMS10
  0
BLOCK_RECORD
  5
B0
100
AcDbSymbolTableRecord
100
AcDbBlockTableRecord
  2
DIMS11
  0
BLOCK_RECORD
  5
B5
100
AcDbSymbolTableRecord
100
AcDbBlockTableRecord
  2
DIMS12
  0
BLOCK_RECORD
  5
BA
100
AcDbSymbolTableRecord
100
AcDbBlockTableRecord
  2
DIMS13
  0
BLOCK_RECORD
  5
C6
100
AcDbSymbolTableRecord
100
AcDbBlockTableRecord
  2
DIMS14
  0
BLOCK_RECORD
  5
D2
100
AcDbSymbolTableRecord
100
AcDbBlockTableRecord
  2
DIMS15
  0
BLOCK_RECORD
  5
DE
100
AcDbSymbolTableRecord
100
AcDbBlockTableRecord
  2
DIMS16
  0
BLOCK_RECORD
  5
EA
100
AcDbSymbolTableRecord
100
AcDbBlockTableRecord
  2
DIMS17
  0
BLOCK_RECORD
  5
F5
100
AcDbSymbolTableRecord
100
AcDbBlockTableRecord
  2
DIMS18
  0
BLOCK_RECORD
  5
101
100
AcDbSymbolTableRecord
100
AcDbBlockTableRecord
  2
DIMS19
  0
BLOCK_RECORD
  5
10D
100
AcDbSymbolTableRecord
100
AcDbBlockTableRecord
  2
DIMS20
  0
BLOCK_RECORD
  5
119
100
AcDbSymbolTableRecord
100
AcDbBlockTableRecord
  2
DIMS21
  0
BLOCK_RECORD
  5
126
100
AcDbSymbolTableRecord
100
AcDbBlockTableRecord
  2
DIMS22
  0
ENDTAB
  0
ENDSEC
  0
SECTION
  2
BLOCKS
  0
BLOCK
  5
22
100
AcDbEntity
  8
0
100
AcDbBlockBegin
  2
*MODEL_SPACE
 70
     0
 10
0.0
 20
0.0
 30
0.0
  3
*MODEL_SPACE
  1

  0
ENDBLK
  5
23
100
AcDbEntity
  8
0
100
AcDbBlockEnd
  0
BLOCK
  5
25
100
AcDbEntity
 67
     1
  8
0
100
AcDbBlockBegin
  2
*PAPER_SPACE
 70
     0
 10
0.0
 20
0.0
 30
0.0
  3
*PAPER_SPACE
  1

  0
ENDBLK
  5
26
100
AcDbEntity
 67
     1
  8
0
100
AcDbBlockEnd
  0
BLOCK
  5
2A
100
AcDbEntity
  8
0
100
AcDbBlockBegin
  2
_NONE
 70
     0
 10
0.0
 20
0.0
  0
CIRCLE
  5
2B
100
AcDbEntity
  8
0
 62
     0
100
AcDbCircle
 10
0.0
 20
0.0
 40
0.25
  0
ENDBLK
  5
2C
100
AcDbEntity
  8
0
100
AcDbBlockEnd
  0
BLOCK
  5
2E
100
AcDbEntity
  8
0
100
AcDbBlockBegin
  2
_OPEN
 70
     0
 10
0.0
 20
0.0
  0
LINE
  5
2F
100
AcDbEntity
  8
0
 62
     0
100
AcDbLine
 10
-0.965926
 20
0.258819
 11
0.0
 21
0.0
  0
LINE
  5
30
100
AcDbEntity
  8
0
 62
     0
100
AcDbLine
 10
0.0
 20
0.0
 11
-0.965926
 21
-0.258819
  0
LINE
  5
31
100
AcDbEntity
  8
0
 62
     0
100
AcDbLine
 10
0.0
 20
0.0
 11
-1.0
 21
0.0
  0
ENDBLK
  5
32
100
AcDbEntity
  8
0
100
AcDbBlockEnd
  0
BLOCK
  5
34
100
AcDbEntity
  8
0
100
AcDbBlockBegin
  2
_CLOSED
 70
     0
 10
0.0
 20
0.0
  0
LINE
  5
35
100
AcDbEntity
  8
0
 62
     0
100
AcDbLine
 10
-0.965926
 20
0.258819
 11
0.0
 21
0.0
  0
LINE
  5
36
100
AcDbEntity
  8
0
 62
     0
100
AcDbLine
 10
0.0
 20
0.0
 11
-0.965926
 21
-0.258819
  0
LINE
  5
37
100
AcDbEntity
  8
0
 62
     0
100
AcDbLine
 10
-0.965926
 20
0.258819
 11
-0.965926
 21
-0.258819
  0
LINE
  5
38
100
AcDbEntity
  8
0
 62
     0
100
AcDbLine
 10
0.0
 20
0.0
 11
-1.0
 21
0.0
  0
ENDBLK
  5
39
100
AcDbEntity
  8
0
100
AcDbBlockEnd
  0
BLOCK
  5
3B
100
AcDbEntity
  8
0
100
AcDbBlockBegin
  2
_ORIGIN
 70
     0
 10
0.0
 20
0.0
  0
CIRCLE
  5
3C
100
AcDbEntity
  8
0
 62
     0
100
AcDbCircle
 10
0.0
 20
0.0
 40
0.5
  0
LINE
  5
3D
100
AcDbEntity
  8
0
 62
     0
100
AcDbLine
 10
0.0
 20
0.0
 11
-1.0
 21
0.0
  0
ENDBLK
  5
3E
100
AcDbEntity
  8
0
100
AcDbBlockEnd
  0
BLOCK
  5
40
100
AcDbEntity
  8
0
100
AcDbBlockBegin
  2
_DOT
 70
     0
 10
0.0
 20
0.0
  0
POLYLINE
  5
41
100
AcDbEntity
  8
0
 62
     0
100
AcDb2dPolyline
 66
     1
 70
     1
 40
0.5
 41
0.5
  0
VERTEX
  5
42
100
AcDbEntity
  8
0
 62
     0
100
AcDbVertex
100
AcDb2dVertex
 10
-0.25
 20
0.0
 42
1.0
  0
VERTEX
  5
43
100
AcDbEntity
  8
0
 62
     0
100
AcDbVertex
100
AcDb2dVertex
 10
0.25
 20
0.0
 42
1.0
  0
SEQEND
  5
44
100
AcDbEntity
  8
0
 62
     0
  0
LINE
  5
45
100
AcDbEntity
  8
0
 62
     0
100
AcDbLine
 10
-0.5
 20
0.0
 11
-1.0
 21
0.0
  0
ENDBLK
  5
46
100
AcDbEntity
  8
0
100
AcDbBlockEnd
  0
BLOCK
  5
48
100
AcDbEntity
  8
0
100
AcDbBlockBegin
  2
_OBLIQUE
 70
     0
 10
0.0
 20
0.0
  0
LINE
  5
49
100
AcDbEntity
  8
0
 62
     0
100
AcDbLine
 10
-0.353553
 20
-0.353553
 11
0.353553
 21
0.353553
  0
ENDBLK
  5
4A
100
AcDbEntity
  8
0
100
AcDbBlockEnd
  0
BLOCK
  5
4C
100
AcDbEntity
  8
DD0
100
AcDbBlockBegin
  2
DIMS0
 70
     0
 10
0.0
 20
0.0
  0
LINE
  5
4D
100
AcDbEntity
  8
DD0
100
AcDbLine
 10
218.013651
 20
325.814557
 11
250.764981
 21
325.814557
  0
LINE
  5
4E
100
AcDbEntity
  8
DD0
100
AcDbLine
 10
77.261058
 20
311.81455
 11
250.764981
 21
311.81455
  0
LINE
  5
4F
100
AcDbEntity
  8
DD0
100
AcDbLine
 10
246.817298
 20
332.254062
 11
248.542758
 21
325.814557
  0
LINE
  5
50
100
AcDbEntity
  8
DD0
100
AcDbLine
 10
248.542758
 20
325.814557
 11
250.268219
 21
332.254062
  0
LINE
  5
51
100
AcDbEntity
  8
DD0
100
AcDbLine
 10
250.268219
 20
305.375044
 11
248.542758
 21
311.81455
  0
LINE
  5
52
100
AcDbEntity
  8
DD0
100
AcDbLine
 10
248.542758
 20
311.81455
 11
246.817298
 21
305.375044
  0
LINE
  5
53
100
AcDbEntity
  8
DD0
100
AcDbLine
 10
248.542758
 20
344.259002
 11
248.542758
 21
304.481216
  0
TEXT
  5
54
100
AcDbEntity
  8
DD0
100
AcDbText
 10
247.209428
 20
333.529365
 40
5.555556
  1
１４
 50
90.000003
 41
0.666667
  7
STANDARD
100
AcDbText
  0
ENDBLK
  5
55
100
AcDbEntity
  8
DD0
100
AcDbBlockEnd
  0
BLOCK
  5
58
100
AcDbEntity
  8
DD0
100
AcDbBlockBegin
  2
DIMS1
 70
     0
 10
0.0
 20
0.0
  0
LINE
  5
59
100
AcDbEntity
  8
DD0
100
AcDbLine
 10
77.261058
 20
311.81455
 11
250.764998
 21
311.81455
  0
LINE
  5
5A
100
AcDbEntity
  8
DD0
100
AcDbLine
 10
148.261061
 20
246.814548
 11
250.764998
 21
246.814548
  0
LINE
  5
5B
100
AcDbEntity
  8
DD0
100
AcDbLine
 10
250.268236
 20
305.375044
 11
248.542775
 21
311.81455
  0
LINE
  5
5C
100
AcDbEntity
  8
DD0
100
AcDbLine
 10
248.542775
 20
311.81455
 11
246.817315
 21
305.375044
  0
LINE
  5
5D
100
AcDbEntity
  8
DD0
100
AcDbLine
 10
246.817315
 20
253.254053
 11
248.542775
 21
246.814548
  0
LINE
  5
5E
100
AcDbEntity
  8
DD0
100
AcDbLine
 10
248.542775
 20
246.814548
 11
250.268236
 21
253.254053
  0
LINE
  5
5F
100
AcDbEntity
  8
DD0
100
AcDbLine
 10
248.542775
 20
311.81455
 11
248.542775
 21
246.814548
  0
TEXT
  5
60
100
AcDbEntity
  8
DD0
100
AcDbText
 10
247.209445
 20
275.251589
 40
5.555556
  1
６５
 50
90.000003
 41
0.666667
  7
STANDARD
100
AcDbText
  0
ENDBLK
  5
61
100
AcDbEntity
  8
DD0
100
AcDbBlockEnd
  0
BLOCK
  5
64
100
AcDbEntity
  8
DD0
100
AcDbBlockBegin
  2
DIMS2
 70
     0
 10
0.0
 20
0.0
  0
TEXT
  5
65
100
AcDbEntity
  8
DD0
100
AcDbText
 10
225.155256
 20
423.003513
 40
7.0
  1
　
 50
114.970976
 41
0.833333
  7
STANDARD
100
AcDbText
  0
ENDBLK
  5
66
100
AcDbEntity
  8
DD0
100
AcDbBlockEnd
  0
BLOCK
  5
69
100
AcDbEntity
  8
DD0
100
AcDbBlockBegin
  2
DIMS3
 70
     0
 10
0.0
 20
0.0
  0
TEXT
  5
6A
100
AcDbEntity
  8
DD0
100
AcDbText
 10
214.794757
 20
422.715064
 40
7.0
  1
　
 50
101.275504
 41
0.833333
  7
STANDARD
100
AcDbText
  0
ENDBLK
  5
6B
100
AcDbEntity
  8
DD0
100
AcDbBlockEnd
  0
BLOCK
  5
6E
100
AcDbEntity
  8
DD0
100
AcDbBlockBegin
  2
DIMS4
 70
     0
 10
0.0
 20
0.0
  0
TEXT
  5
6F
100
AcDbEntity
  8
DD0
100
AcDbText
 10
234.084237
 20
551.018397
 40
7.0
  1
　
 50
50.389529
 41
0.833333
  7
STANDARD
100
AcDbText
  0
ENDBLK
  5
70
100
AcDbEntity
  8
DD0
100
AcDbBlockEnd
  0
BLOCK
  5
73
100
AcDbEntity
  8
DD0
100
AcDbBlockBegin
  2
DIMS5
 70
     0
 10
0.0
 20
0.0
  0
LINE
  5
74
100
AcDbEntity
  8
DD0
100
AcDbLine
 10
70.941427
 20
318.134164
 11
70.941427
 21
340.035918
  0
LINE
  5
75
100
AcDbEntity
  8
DD0
100
AcDbLine
 10
67.491436
 20
324.036772
 11
67.491436
 21
340.035918
  0
LINE
  5
76
100
AcDbEntity
  8
DD0
100
AcDbLine
 10
77.380932
 20
339.539156
 11
70.941427
 21
337.813696
  0
LINE
  5
77
100
AcDbEntity
  8
DD0
100
AcDbLine
 10
70.941427
 20
337.813696
 11
77.380932
 21
336.088235
  0
LINE
  5
78
100
AcDbEntity
  8
DD0
100
AcDbLine
 10
61.05193
 20
336.088235
 11
67.491436
 21
337.813696
  0
LINE
  5
79
100
AcDbEntity
  8
DD0
100
AcDbLine
 10
67.491436
 20
337.813696
 11
61.05193
 21
339.539156
  0
LINE
  5
7A
100
AcDbEntity
  8
DD0
100
AcDbLine
 10
78.27476
 20
337.813696
 11
44.602546
 21
337.813696
  0
TEXT
  5
7B
100
AcDbEntity
  8
DD0
100
AcDbText
 10
46.561809
 20
339.147043
 40
5.555556
  1
３．５
 41
0.666667
  7
STANDARD
100
AcDbText
  0
ENDBLK
  5
7C
100
AcDbEntity
  8
DD0
100
AcDbBlockEnd
  0
BLOCK
  5
7F
100
AcDbEntity
  8
DD0
100
AcDbBlockBegin
  2
DIMS6
 70
     0
 10
0.0
 20
0.0
  0
TEXT
  5
80
100
AcDbEntity
  8
DD0
100
AcDbText
 10
246.403389
 20
217.66219
 40
5.555556
  1
４－Ｍ４ねじ穴
 41
0.666667
  7
STANDARD
100
AcDbText
  0
LINE
  5
81
100
AcDbEntity
  8
DD0
100
AcDbLine
 10
232.791055
 20
239.278138
 11
229.102942
 21
244.831719
  0
LINE
  5
82
100
AcDbEntity
  8
DD0
100
AcDbLine
 10
229.102942
 20
244.831719
 11
229.520151
 21
238.17812
  0
LINE
  5
83
100
AcDbEntity
  8
DD0
100
AcDbLine
 10
229.102942
 20
244.831719
 11
238.688564
 21
216.32886
  0
LINE
  5
84
100
AcDbEntity
  8
DD0
100
AcDbLine
 10
238.688564
 20
216.32886
 11
284.466357
 21
216.32886
  0
ENDBLK
  5
85
100
AcDbEntity
  8
DD0
100
AcDbBlockEnd
  0
BLOCK
  5
88
100
AcDbEntity
  8
DD0
100
AcDbBlockBegin
  2
DIMS7
 70
     0
 10
0.0
 20
0.0
  0
LINE
  5
89
100
AcDbEntity
  8
DD0
100
AcDbLine
 10
141.94143
 20
253.134162
 11
141.94143
 21
340.035918
  0
LINE
  5
8A
100
AcDbEntity
  8
DD0
100
AcDbLine
 10
70.941427
 20
318.134164
 11
70.941427
 21
340.035918
  0
LINE
  5
8B
100
AcDbEntity
  8
DD0
100
AcDbLine
 10
135.501925
 20
336.088235
 11
141.94143
 21
337.813696
  0
LINE
  5
8C
100
AcDbEntity
  8
DD0
100
AcDbLine
 10
141.94143
 20
337.813696
 11
135.501925
 21
339.539156
  0
LINE
  5
8D
100
AcDbEntity
  8
DD0
100
AcDbLine
 10
77.380932
 20
339.539156
 11
70.941427
 21
337.813696
  0
LINE
  5
8E
100
AcDbEntity
  8
DD0
100
AcDbLine
 10
70.941427
 20
337.813696
 11
77.380932
 21
336.088235
  0
LINE
  5
8F
100
AcDbEntity
  8
DD0
100
AcDbLine
 10
141.94143
 20
337.813696
 11
70.941427
 21
337.813696
  0
TEXT
  5
90
100
AcDbEntity
  8
DD0
100
AcDbText
 10
102.378473
 20
339.147043
 40
5.555556
  1
７１
 41
0.666667
  7
STANDARD
100
AcDbText
  0
ENDBLK
  5
91
100
AcDbEntity
  8
DD0
100
AcDbBlockEnd
  0
BLOCK
  5
94
100
AcDbEntity
  8
DD0
100
AcDbBlockBegin
  2
DIMS8
 70
     0
 10
0.0
 20
0.0
  0
LINE
  5
95
100
AcDbEntity
  8
DD0
100
AcDbLine
 10
141.94143
 20
253.134162
 11
141.94143
 21
340.035918
  0
LINE
  5
96
100
AcDbEntity
  8
DD0
100
AcDbLine
 10
157.841428
 20
318.134164
 11
157.841428
 21
340.035918
  0
LINE
  5
97
100
AcDbEntity
  8
DD0
100
AcDbLine
 10
135.501925
 20
336.088235
 11
141.94143
 21
337.813696
  0
LINE
  5
98
100
AcDbEntity
  8
DD0
100
AcDbLine
 10
141.94143
 20
337.813696
 11
135.501925
 21
339.539156
  0
LINE
  5
99
100
AcDbEntity
  8
DD0
100
AcDbLine
 10
164.280934
 20
339.539156
 11
157.841428
 21
337.813696
  0
LINE
  5
9A
100
AcDbEntity
  8
DD0
100
AcDbLine
 10
157.841428
 20
337.813696
 11
164.280934
 21
336.088235
  0
LINE
  5
9B
100
AcDbEntity
  8
DD0
100
AcDbLine
 10
134.608097
 20
337.813696
 11
165.174761
 21
337.813696
  0
TEXT
  5
9C
100
AcDbEntity
  8
DD0
100
AcDbText
 10
145.82847
 20
339.147043
 40
5.555556
  1
１６
 41
0.666667
  7
STANDARD
100
AcDbText
  0
ENDBLK
  5
9D
100
AcDbEntity
  8
DD0
100
AcDbBlockEnd
  0
BLOCK
  5
A0
100
AcDbEntity
  8
DD0
100
AcDbBlockBegin
  2
DIMS9
 70
     0
 10
0.0
 20
0.0
  0
LINE
  5
A1
100
AcDbEntity
  8
DD0
100
AcDbLine
 10
157.841428
 20
318.134164
 11
157.841428
 21
340.035918
  0
LINE
  5
A2
100
AcDbEntity
  8
DD0
100
AcDbLine
 10
228.841423
 20
253.134162
 11
228.841423
 21
340.035918
  0
LINE
  5
A3
100
AcDbEntity
  8
DD0
100
AcDbLine
 10
164.280934
 20
339.539156
 11
157.841428
 21
337.813696
  0
LINE
  5
A4
100
AcDbEntity
  8
DD0
100
AcDbLine
 10
157.841428
 20
337.813696
 11
164.280934
 21
336.088235
  0
LINE
  5
A5
100
AcDbEntity
  8
DD0
100
AcDbLine
 10
222.401917
 20
336.088235
 11
228.841423
 21
337.813696
  0
LINE
  5
A6
100
AcDbEntity
  8
DD0
100
AcDbLine
 10
228.841423
 20
337.813696
 11
222.401917
 21
339.539156
  0
LINE
  5
A7
100
AcDbEntity
  8
DD0
100
AcDbLine
 10
157.841428
 20
337.813696
 11
228.841423
 21
337.813696
  0
TEXT
  5
A8
100
AcDbEntity
  8
DD0
100
AcDbText
 10
189.278466
 20
339.147043
 40
5.555556
  1
７１
 41
0.666667
  7
STANDARD
100
AcDbText
  0
ENDBLK
  5
A9
100
AcDbEntity
  8
DD0
100
AcDbBlockEnd
  0
BLOCK
  5
AC
100
AcDbEntity
  8
DD0
100
AcDbBlockBegin
  2
DIMS10
 70
     0
 10
0.0
 20
0.0
  0
TEXT
  5
AD
100
AcDbEntity
  8
DD0
100
AcDbText
 10
138.255254
 20
423.003513
 40
7.0
  1
　
 50
114.970976
 41
0.833333
  7
STANDARD
100
AcDbText
  0
ENDBLK
  5
AE
100
AcDbEntity
  8
DD0
100
AcDbBlockEnd
  0
BLOCK
  5
B1
100
AcDbEntity
  8
DD0
100
AcDbBlockBegin
  2
DIMS11
 70
     0
 10
0.0
 20
0.0
  0
TEXT
  5
B2
100
AcDbEntity
  8
DD0
100
AcDbText
 10
127.894756
 20
422.715064
 40
7.0
  1
　
 50
101.275504
 41
0.833333
  7
STANDARD
100
AcDbText
  0
ENDBLK
  5
B3
100
AcDbEntity
  8
DD0
100
AcDbBlockEnd
  0
BLOCK
  5
B6
100
AcDbEntity
  8
DD0
100
AcDbBlockBegin
  2
DIMS12
 70
     0
 10
0.0
 20
0.0
  0
TEXT
  5
B7
100
AcDbEntity
  8
DD0
100
AcDbText
 10
147.184245
 20
551.018397
 40
7.0
  1
　
 50
50.389529
 41
0.833333
  7
STANDARD
100
AcDbText
  0
ENDBLK
  5
B8
100
AcDbEntity
  8
DD0
100
AcDbBlockEnd
  0
BLOCK
  5
BB
100
AcDbEntity
  8
DD0
100
AcDbBlockBegin
  2
DIMS13
 70
     0
 10
0.0
 20
0.0
  0
LINE
  5
BC
100
AcDbEntity
  8
DD0
100
AcDbLine
 10
288.240703
 20
492.851304
 11
288.240703
 21
574.658557
  0
LINE
  5
BD
100
AcDbEntity
  8
DD0
100
AcDbLine
 10
425.340723
 20
516.601305
 11
425.340723
 21
574.658557
  0
LINE
  5
BE
100
AcDbEntity
  8
DD0
100
AcDbLine
 10
294.680209
 20
574.161796
 11
288.240703
 21
572.436335
  0
LINE
  5
BF
100
AcDbEntity
  8
DD0
100
AcDbLine
 10
288.240703
 20
572.436335
 11
294.680209
 21
570.710875
  0
LINE
  5
C0
100
AcDbEntity
  8
DD0
100
AcDbLine
 10
418.901217
 20
570.710875
 11
425.340723
 21
572.436335
  0
LINE
  5
C1
100
AcDbEntity
  8
DD0
100
AcDbLine
 10
425.340723
 20
572.436335
 11
418.901217
 21
574.161796
  0
LINE
  5
C2
100
AcDbEntity
  8
DD0
100
AcDbLine
 10
288.240703
 20
572.436335
 11
425.340723
 21
572.436335
  0
TEXT
  5
C3
100
AcDbEntity
  8
DD0
100
AcDbText
 10
346.06107
 20
573.769682
 40
5.555556
  1
１３７．５
 41
0.666667
  7
STANDARD
100
AcDbText
  0
ENDBLK
  5
C4
100
AcDbEntity
  8
DD0
100
AcDbBlockEnd
  0
BLOCK
  5
C7
100
AcDbEntity
  8
DD0
100
AcDbBlockBegin
  2
DIMS14
 70
     0
 10
0.0
 20
0.0
  0
LINE
  5
C8
100
AcDbEntity
  8
DD0
100
AcDbLine
 10
283.24072
 20
492.851304
 11
283.24072
 21
574.658557
  0
LINE
  5
C9
100
AcDbEntity
  8
DD0
100
AcDbLine
 10
288.240703
 20
492.851304
 11
288.240703
 21
574.658557
  0
LINE
  5
CA
100
AcDbEntity
  8
DD0
100
AcDbLine
 10
276.801214
 20
570.710875
 11
283.24072
 21
572.436335
  0
LINE
  5
CB
100
AcDbEntity
  8
DD0
100
AcDbLine
 10
283.24072
 20
572.436335
 11
276.801214
 21
574.161796
  0
LINE
  5
CC
100
AcDbEntity
  8
DD0
100
AcDbLine
 10
294.680209
 20
574.161796
 11
288.240703
 21
572.436335
  0
LINE
  5
CD
100
AcDbEntity
  8
DD0
100
AcDbLine
 10
288.240703
 20
572.436335
 11
294.680209
 21
570.710875
  0
LINE
  5
CE
100
AcDbEntity
  8
DD0
100
AcDbLine
 10
271.017887
 20
572.436335
 11
295.574037
 21
572.436335
  0
TEXT
  5
CF
100
AcDbEntity
  8
DD0
100
AcDbText
 10
273.621594
 20
573.769682
 40
5.555556
  1
５
 41
0.666667
  7
STANDARD
100
AcDbText
  0
ENDBLK
  5
D0
100
AcDbEntity
  8
DD0
100
AcDbBlockEnd
  0
BLOCK
  5
D3
100
AcDbEntity
  8
DD0
100
AcDbBlockBegin
  2
DIMS15
 70
     0
 10
0.0
 20
0.0
  0
LINE
  5
D4
100
AcDbEntity
  8
DD0
100
AcDbLine
 10
86.619214
 20
503.129116
 11
39.56858
 21
503.129116
  0
LINE
  5
D5
100
AcDbEntity
  8
DD0
100
AcDbLine
 10
86.619214
 20
444.12904
 11
39.56858
 21
444.12904
  0
LINE
  5
D6
100
AcDbEntity
  8
DD0
100
AcDbLine
 10
43.516263
 20
496.689611
 11
41.790802
 21
503.129116
  0
LINE
  5
D7
100
AcDbEntity
  8
DD0
100
AcDbLine
 10
41.790802
 20
503.129116
 11
40.065342
 21
496.689611
  0
LINE
  5
D8
100
AcDbEntity
  8
DD0
100
AcDbLine
 10
40.065342
 20
450.568546
 11
41.790802
 21
444.12904
  0
LINE
  5
D9
100
AcDbEntity
  8
DD0
100
AcDbLine
 10
41.790802
 20
444.12904
 11
43.516263
 21
450.568546
  0
LINE
  5
DA
100
AcDbEntity
  8
DD0
100
AcDbLine
 10
41.790802
 20
503.129116
 11
41.790802
 21
444.12904
  0
TEXT
  5
DB
100
AcDbEntity
  8
DD0
100
AcDbText
 10
40.457468
 20
469.566119
 40
5.555556
  1
５９
 50
90.000003
 41
0.666667
  7
STANDARD
100
AcDbText
  0
ENDBLK
  5
DC
100
AcDbEntity
  8
DD0
100
AcDbBlockEnd
  0
BLOCK
  5
DF
100
AcDbEntity
  8
DD0
100
AcDbBlockBegin
  2
DIMS16
 70
     0
 10
0.0
 20
0.0
  0
LINE
  5
E0
100
AcDbEntity
  8
DD0
100
AcDbLine
 10
82.76921
 20
520.129103
 11
39.56858
 21
520.129103
  0
LINE
  5
E1
100
AcDbEntity
  8
DD0
100
AcDbLine
 10
86.619214
 20
503.129116
 11
39.56858
 21
503.129116
  0
LINE
  5
E2
100
AcDbEntity
  8
DD0
100
AcDbLine
 10
40.065342
 20
526.568609
 11
41.790802
 21
520.129103
  0
LINE
  5
E3
100
AcDbEntity
  8
DD0
100
AcDbLine
 10
41.790802
 20
520.129103
 11
43.516263
 21
526.568609
  0
LINE
  5
E4
100
AcDbEntity
  8
DD0
100
AcDbLine
 10
43.516263
 20
496.689611
 11
41.790802
 21
503.129116
  0
LINE
  5
E5
100
AcDbEntity
  8
DD0
100
AcDbLine
 10
41.790802
 20
503.129116
 11
40.065342
 21
496.689611
  0
LINE
  5
E6
100
AcDbEntity
  8
DD0
100
AcDbLine
 10
41.790802
 20
527.462437
 11
41.790802
 21
495.795783
  0
TEXT
  5
E7
100
AcDbEntity
  8
DD0
100
AcDbText
 10
40.457468
 20
507.566133
 40
5.555556
  1
１７
 50
90.000003
 41
0.666667
  7
STANDARD
100
AcDbText
  0
ENDBLK
  5
E8
100
AcDbEntity
  8
DD0
100
AcDbBlockEnd
  0
BLOCK
  5
EB
100
AcDbEntity
  8
DD0
100
AcDbBlockBegin
  2
DIMS17
 70
     0
 10
0.0
 20
0.0
  0
LINE
  5
EC
100
AcDbEntity
  8
DD0
100
AcDbLine
 10
414.34073
 20
516.351298
 11
414.34073
 21
554.600438
  0
LINE
  5
ED
100
AcDbEntity
  8
DD0
100
AcDbLine
 10
431.780229
 20
554.103676
 11
425.340723
 21
552.378216
  0
LINE
  5
EE
100
AcDbEntity
  8
DD0
100
AcDbLine
 10
425.340723
 20
552.378216
 11
431.780229
 21
550.652755
  0
LINE
  5
EF
100
AcDbEntity
  8
DD0
100
AcDbLine
 10
407.901224
 20
550.652755
 11
414.34073
 21
552.378216
  0
LINE
  5
F0
100
AcDbEntity
  8
DD0
100
AcDbLine
 10
414.34073
 20
552.378216
 11
407.901224
 21
554.103676
  0
LINE
  5
F1
100
AcDbEntity
  8
DD0
100
AcDbLine
 10
432.674056
 20
552.378216
 11
407.007396
 21
552.378216
  0
TEXT
  5
F2
100
AcDbEntity
  8
DD0
100
AcDbText
 10
415.777733
 20
553.711563
 40
5.555556
  1
１１
 41
0.666667
  7
STANDARD
100
AcDbText
  0
ENDBLK
  5
F3
100
AcDbEntity
  8
DD0
100
AcDbBlockEnd
  0
BLOCK
  5
F6
100
AcDbEntity
  8
DD0
100
AcDbBlockBegin
  2
DIMS18
 70
     0
 10
0.0
 20
0.0
  0
LINE
  5
F7
100
AcDbEntity
  8
DD0
100
AcDbLine
 10
106.441433
 20
527.351326
 11
106.441433
 21
542.886265
  0
LINE
  5
F8
100
AcDbEntity
  8
DD0
100
AcDbLine
 10
193.341426
 20
527.351326
 11
193.341426
 21
542.886265
  0
LINE
  5
F9
100
AcDbEntity
  8
DD0
100
AcDbLine
 10
112.880938
 20
542.389503
 11
106.441433
 21
540.664043
  0
LINE
  5
FA
100
AcDbEntity
  8
DD0
100
AcDbLine
 10
106.441433
 20
540.664043
 11
112.880938
 21
538.938583
  0
LINE
  5
FB
100
AcDbEntity
  8
DD0
100
AcDbLine
 10
186.90192
 20
538.938583
 11
193.341426
 21
540.664043
  0
LINE
  5
FC
100
AcDbEntity
  8
DD0
100
AcDbLine
 10
193.341426
 20
540.664043
 11
186.90192
 21
542.389503
  0
LINE
  5
FD
100
AcDbEntity
  8
DD0
100
AcDbLine
 10
106.441433
 20
540.664043
 11
193.341426
 21
540.664043
  0
TEXT
  5
FE
100
AcDbEntity
  8
DD0
100
AcDbText
 10
141.384025
 20
541.99739
 40
5.555556
  1
８６．９
 41
0.666667
  7
STANDARD
100
AcDbText
  0
ENDBLK
  5
FF
100
AcDbEntity
  8
DD0
100
AcDbBlockEnd
  0
BLOCK
  5
102
100
AcDbEntity
  8
DD0
100
AcDbBlockBegin
  2
DIMS19
 70
     0
 10
0.0
 20
0.0
  0
LINE
  5
103
100
AcDbEntity
  8
DD0
100
AcDbLine
 10
106.441433
 20
423.906872
 11
106.441433
 21
412.806713
  0
LINE
  5
104
100
AcDbEntity
  8
DD0
100
AcDbLine
 10
88.841436
 20
441.406872
 11
88.841436
 21
412.806713
  0
LINE
  5
105
100
AcDbEntity
  8
DD0
100
AcDbLine
 10
100.001927
 20
413.303474
 11
106.441433
 21
415.028935
  0
LINE
  5
106
100
AcDbEntity
  8
DD0
100
AcDbLine
 10
106.441433
 20
415.028935
 11
100.001927
 21
416.754395
  0
LINE
  5
107
100
AcDbEntity
  8
DD0
100
AcDbLine
 10
95.280942
 20
416.754395
 11
88.841436
 21
415.028935
  0
LINE
  5
108
100
AcDbEntity
  8
DD0
100
AcDbLine
 10
88.841436
 20
415.028935
 11
95.280942
 21
413.303474
  0
LINE
  5
109
100
AcDbEntity
  8
DD0
100
AcDbLine
 10
106.441433
 20
415.028935
 11
88.841436
 21
415.028935
  0
TEXT
  5
10A
100
AcDbEntity
  8
DD0
100
AcDbText
 10
89.13403
 20
416.362282
 40
5.555556
  1
１７．５
 41
0.666667
  7
STANDARD
100
AcDbText
  0
ENDBLK
  5
10B
100
AcDbEntity
  8
DD0
100
AcDbBlockEnd
  0
BLOCK
  5
10E
100
AcDbEntity
  8
DD0
100
AcDbBlockBegin
  2
DIMS20
 70
     0
 10
0.0
 20
0.0
  0
LINE
  5
10F
100
AcDbEntity
  8
DD0
100
AcDbLine
 10
67.491436
 20
514.351312
 11
67.491436
 21
554.600438
  0
LINE
  5
110
100
AcDbEntity
  8
DD0
100
AcDbLine
 10
232.291435
 20
447.051336
 11
232.291435
 21
554.600438
  0
LINE
  5
111
100
AcDbEntity
  8
DD0
100
AcDbLine
 10
73.930941
 20
554.103676
 11
67.491436
 21
552.378216
  0
LINE
  5
112
100
AcDbEntity
  8
DD0
100
AcDbLine
 10
67.491436
 20
552.378216
 11
73.930941
 21
550.652755
  0
LINE
  5
113
100
AcDbEntity
  8
DD0
100
AcDbLine
 10
225.85193
 20
550.652755
 11
232.291435
 21
552.378216
  0
LINE
  5
114
100
AcDbEntity
  8
DD0
100
AcDbLine
 10
232.291435
 20
552.378216
 11
225.85193
 21
554.103676
  0
LINE
  5
115
100
AcDbEntity
  8
DD0
100
AcDbLine
 10
67.491436
 20
552.378216
 11
232.291435
 21
552.378216
  0
TEXT
  5
116
100
AcDbEntity
  8
DD0
100
AcDbText
 10
139.161803
 20
553.711563
 40
5.555556
  1
１６４．８
 41
0.666667
  7
STANDARD
100
AcDbText
  0
ENDBLK
  5
117
100
AcDbEntity
  8
DD0
100
AcDbBlockEnd
  0
BLOCK
  5
11A
100
AcDbEntity
  8
DD0
100
AcDbBlockBegin
  2
DIMS21
 70
     0
 10
0.0
 20
0.0
  0
LINE
  5
11B
100
AcDbEntity
  8
DD0
100
AcDbLine
 10
55.49144
 20
505.55133
 11
55.49144
 21
576.06969
  0
LINE
  5
11C
100
AcDbEntity
  8
DD0
100
AcDbLine
 10
244.291422
 20
505.55133
 11
244.291422
 21
576.06969
  0
LINE
  5
11D
100
AcDbEntity
  8
DD0
100
AcDbLine
 10
61.930946
 20
575.572928
 11
55.49144
 21
573.847468
  0
LINE
  5
11E
100
AcDbEntity
  8
DD0
100
AcDbLine
 10
55.49144
 20
573.847468
 11
61.930946
 21
572.122008
  0
LINE
  5
11F
100
AcDbEntity
  8
DD0
100
AcDbLine
 10
237.851917
 20
572.122008
 11
244.291422
 21
573.847468
  0
LINE
  5
120
100
AcDbEntity
  8
DD0
100
AcDbLine
 10
244.291422
 20
573.847468
 11
237.851917
 21
575.572928
  0
LINE
  5
121
100
AcDbEntity
  8
DD0
100
AcDbLine
 10
55.49144
 20
573.847468
 11
244.291422
 21
573.847468
  0
TEXT
  5
122
100
AcDbEntity
  8
DD0
100
AcDbText
 10
143.606247
 20
575.180815
 40
5.555556
  1
１８９
 41
0.666667
  7
STANDARD
100
AcDbText
  0
TEXT
  5
123
100
AcDbEntity
  8
DD0
100
AcDbText
 10
103.606246
 20
566.514162
 40
5.555556
  1
（補助接点サイドオンユニットを付けた場合）
 41
0.666667
  7
STANDARD
100
AcDbText
  0
ENDBLK
  5
124
100
AcDbEntity
  8
DD0
100
AcDbBlockEnd
  0
BLOCK
  5
127
100
AcDbEntity
  8
DD0
100
AcDbBlockBegin
  2
DIMS22
 70
     0
 10
0.0
 20
0.0
  0
LINE
  5
128
100
AcDbEntity
  8
DD0
100
AcDbLine
 10
217.013657
 20
520.129103
 11
262.902195
 21
520.129103
  0
LINE
  5
129
100
AcDbEntity
  8
DD0
100
AcDbLine
 10
231.513661
 20
431.129094
 11
262.902195
 21
431.129094
  0
LINE
  5
12A
100
AcDbEntity
  8
DD0
100
AcDbLine
 10
262.405433
 20
513.689597
 11
260.679972
 21
520.129103
  0
LINE
  5
12B
100
AcDbEntity
  8
DD0
100
AcDbLine
 10
260.679972
 20
520.129103
 11
258.954512
 21
513.689597
  0
LINE
  5
12C
100
AcDbEntity
  8
DD0
100
AcDbLine
 10
258.954512
 20
437.5686
 11
260.679972
 21
431.129094
  0
LINE
  5
12D
100
AcDbEntity
  8
DD0
100
AcDbLine
 10
260.679972
 20
431.129094
 11
262.405433
 21
437.5686
  0
LINE
  5
12E
100
AcDbEntity
  8
DD0
100
AcDbLine
 10
260.679972
 20
520.129103
 11
260.679972
 21
431.129094
  0
TEXT
  5
12F
100
AcDbEntity
  8
DD0
100
AcDbText
 10
259.346642
 20
471.566105
 40
5.555556
  1
８９
 50
90.000003
 41
0.666667
  7
STANDARD
100
AcDbText
  0
ENDBLK
  5
130
100
AcDbEntity
  8
DD0
100
AcDbBlockEnd
  0
ENDSEC
  0
SECTION
  2
ENTITIES
  0
INSERT
  5
56
100
AcDbEntity
  8
DD0
100
AcDbBlockReference
  2
DIMS0
 10
0.0
 20
0.0
  0
INSERT
  5
62
100
AcDbEntity
  8
DD0
100
AcDbBlockReference
  2
DIMS1
 10
0.0
 20
0.0
  0
INSERT
  5
67
100
AcDbEntity
  8
DD0
100
AcDbBlockReference
  2
DIMS2
 10
0.0
 20
0.0
  0
INSERT
  5
6C
100
AcDbEntity
  8
DD0
100
AcDbBlockReference
  2
DIMS3
 10
0.0
 20
0.0
  0
INSERT
  5
71
100
AcDbEntity
  8
DD0
100
AcDbBlockReference
  2
DIMS4
 10
0.0
 20
0.0
  0
INSERT
  5
7D
100
AcDbEntity
  8
DD0
100
AcDbBlockReference
  2
DIMS5
 10
0.0
 20
0.0
  0
INSERT
  5
86
100
AcDbEntity
  8
DD0
100
AcDbBlockReference
  2
DIMS6
 10
0.0
 20
0.0
  0
INSERT
  5
92
100
AcDbEntity
  8
DD0
100
AcDbBlockReference
  2
DIMS7
 10
0.0
 20
0.0
  0
INSERT
  5
9E
100
AcDbEntity
  8
DD0
100
AcDbBlockReference
  2
DIMS8
 10
0.0
 20
0.0
  0
INSERT
  5
AA
100
AcDbEntity
  8
DD0
100
AcDbBlockReference
  2
DIMS9
 10
0.0
 20
0.0
  0
INSERT
  5
AF
100
AcDbEntity
  8
DD0
100
AcDbBlockReference
  2
DIMS10
 10
0.0
 20
0.0
  0
INSERT
  5
B4
100
AcDbEntity
  8
DD0
100
AcDbBlockReference
  2
DIMS11
 10
0.0
 20
0.0
  0
INSERT
  5
B9
100
AcDbEntity
  8
DD0
100
AcDbBlockReference
  2
DIMS12
 10
0.0
 20
0.0
  0
INSERT
  5
C5
100
AcDbEntity
  8
DD0
100
AcDbBlockReference
  2
DIMS13
 10
0.0
 20
0.0
  0
INSERT
  5
D1
100
AcDbEntity
  8
DD0
100
AcDbBlockReference
  2
DIMS14
 10
0.0
 20
0.0
  0
INSERT
  5
DD
100
AcDbEntity
  8
DD0
100
AcDbBlockReference
  2
DIMS15
 10
0.0
 20
0.0
  0
INSERT
  5
E9
100
AcDbEntity
  8
DD0
100
AcDbBlockReference
  2
DIMS16
 10
0.0
 20
0.0
  0
INSERT
  5
F4
100
AcDbEntity
  8
DD0
100
AcDbBlockReference
  2
DIMS17
 10
0.0
 20
0.0
  0
INSERT
  5
100
100
AcDbEntity
  8
DD0
100
AcDbBlockReference
  2
DIMS18
 10
0.0
 20
0.0
  0
INSERT
  5
10C
100
AcDbEntity
  8
DD0
100
AcDbBlockReference
  2
DIMS19
 10
0.0
 20
0.0
  0
INSERT
  5
118
100
AcDbEntity
  8
DD0
100
AcDbBlockReference
  2
DIMS20
 10
0.0
 20
0.0
  0
INSERT
  5
125
100
AcDbEntity
  8
DD0
100
AcDbBlockReference
  2
DIMS21
 10
0.0
 20
0.0
  0
INSERT
  5
131
100
AcDbEntity
  8
DD0
100
AcDbBlockReference
  2
DIMS22
 10
0.0
 20
0.0
  0
HATCH
  5
132
100
AcDbEntity
  8
M0
 62
     7
100
AcDbHatch
 10
0.0
 20
0.0
210
0.0
220
0.0
230
1.0
  2
SOLID
 70
     1
 71
     0
 91
        1
 92
        1
 93
        4
 72
     1
 10
192.341233
 20
475.3599
 11
192.341233
 21
478.1291
 72
     1
 10
192.341233
 20
478.1291
 11
191.607394
 21
478.1291
 72
     1
 10
191.607394
 20
478.1291
 11
191.607394
 21
475.3599
 72
     1
 10
191.607394
 20
475.3599
 11
192.341233
 21
475.3599
 97
        0
 75
     0
 76
     1
 98
        1
 10
0.0
 20
0.0
  0
HATCH
  5
135
100
AcDbEntity
  8
M0
 62
     7
100
AcDbHatch
 10
0.0
 20
0.0
210
0.0
220
0.0
230
1.0
  2
SOLID
 70
     1
 71
     0
 91
        1
 92
        1
 93
        7
 72
     1
 10
203.341433
 20
472.521014
 11
200.341433
 21
471.429103
 72
     1
 10
200.341433
 20
471.429103
 11
203.341433
 21
470.337192
 72
     1
 10
203.341433
 20
470.337192
 11
203.341433
 21
470.929103
 72
     1
 10
203.341433
 20
470.929103
 11
209.341433
 21
470.929103
 72
     1
 10
209.341433
 20
470.929103
 11
209.341433
 21
471.929103
 72
     1
 10
209.341433
 20
471.929103
 11
203.341433
 21
471.929103
 72
     1
 10
203.341433
 20
471.929103
 11
203.341433
 21
472.521014
 97
        0
 75
     0
 76
     1
 98
        1
 10
0.0
 20
0.0
  0
LINE
  5
136
100
AcDbEntity
  8
M0
  6
DIVIDE
 62
     7
100
AcDbLine
 10
170.891433
 20
321.814549
 11
154.391433
 21
321.814549
  0
LINE
  5
137
100
AcDbEntity
  8
M0
  6
DIVIDE
 62
     7
100
AcDbLine
 10
154.391433
 20
321.814549
 11
154.391433
 21
304.71455
  0
LINE
  5
138
100
AcDbEntity
  8
M0
  6
DIVIDE
 62
     7
100
AcDbLine
 10
170.891433
 20
321.814549
 11
170.891433
 21
325.81455
  0
LINE
  5
139
100
AcDbEntity
  8
M0
  6
DIVIDE
 62
     7
100
AcDbLine
 10
215.791433
 20
321.814549
 11
215.791433
 21
325.81455
  0
LINE
  5
13A
100
AcDbEntity
  8
M0
  6
DIVIDE
 62
     7
100
AcDbLine
 10
215.791433
 20
321.814549
 11
232.291433
 21
321.814549
  0
LINE
  5
13B
100
AcDbEntity
  8
M0
  6
DIVIDE
 62
     7
100
AcDbLine
 10
170.891433
 20
325.81455
 11
215.791433
 21
325.81455
  0
LINE
  5
13C
100
AcDbEntity
  8
M0
  6
DIVIDE
 62
     7
100
AcDbLine
 10
232.291433
 20
236.814549
 11
232.291433
 21
321.814549
  0
LINE
  5
13D
100
AcDbEntity
  8
M0
  6
DIVIDE
 62
     7
100
AcDbLine
 10
232.291433
 20
236.814549
 11
154.391433
 21
236.81455
  0
LINE
  5
13E
100
AcDbEntity
  8
M0
  6
DIVIDE
 62
     7
100
AcDbLine
 10
154.391433
 20
253.91455
 11
154.391433
 21
236.814549
  0
LINE
  5
13F
100
AcDbEntity
  8
M0
100
AcDbLine
 10
183.403639
 20
478.1291
 11
184.69824
 21
475.3599
  0
LINE
  5
140
100
AcDbEntity
  8
M0
100
AcDbLine
 10
179.9906
 20
475.3599
 11
180.724438
 21
475.3599
  0
LINE
  5
141
100
AcDbEntity
  8
M0
100
AcDbLine
 10
192.341233
 20
478.1291
 11
191.607394
 21
478.1291
  0
LINE
  5
142
100
AcDbEntity
  8
M0
100
AcDbLine
 10
183.881326
 20
475.3599
 11
184.69824
 21
475.3599
  0
LINE
  5
143
100
AcDbEntity
  8
M0
100
AcDbLine
 10
182.025962
 20
475.3599
 11
182.266265
 21
475.955278
  0
LINE
  5
144
100
AcDbEntity
  8
M0
100
AcDbLine
 10
177.872162
 20
478.1291
 11
177.872162
 21
475.3599
  0
LINE
  5
145
100
AcDbEntity
  8
M0
100
AcDbLine
 10
209.341433
 20
470.929103
 11
203.341433
 21
470.929103
  0
LINE
  5
146
100
AcDbEntity
  8
M0
100
AcDbLine
 10
191.025862
 20
478.1291
 11
190.292024
 21
478.1291
  0
TEXT
  5
147
100
AcDbEntity
  8
M0
100
AcDbText
 10
196.466433
 20
466.129103
 40
2.0
  1
５６
 41
0.625
  7
STANDARD
100
AcDbText
  0
LINE
  5
148
100
AcDbEntity
  8
M0
100
AcDbLine
 10
190.292024
 20
477.02142
 11
188.810502
 21
477.02142
  0
TEXT
  5
149
100
AcDbEntity
  8
M0
100
AcDbText
 10
174.466425
 20
472.129103
 40
2.0
  1
ＬＡＴＣＨＥＤ
 41
0.625
  7
STANDARD
100
AcDbText
  0
LINE
  5
14A
100
AcDbEntity
  8
M0
100
AcDbLine
 10
190.292024
 20
477.02142
 11
190.292024
 21
478.1291
  0
LINE
  5
14B
100
AcDbEntity
  8
M0
100
AcDbLine
 10
187.700512
 20
476.356812
 11
186.927446
 21
476.356812
  0
TEXT
  5
14C
100
AcDbEntity
  8
M0
100
AcDbText
 10
196.466433
 20
479.129101
 40
2.0
  1
５５
 41
0.625
  7
STANDARD
100
AcDbText
  0
LINE
  5
14D
100
AcDbEntity
  8
M0
100
AcDbLine
 10
200.341433
 20
471.429103
 11
203.341433
 21
470.337192
  0
LINE
  5
14E
100
AcDbEntity
  8
M0
100
AcDbLine
 10
181.845964
 20
478.1291
 11
178.869075
 21
478.1291
  0
LINE
  5
14F
100
AcDbEntity
  8
M0
100
AcDbLine
 10
209.341433
 20
471.929103
 11
203.341433
 21
471.929103
  0
LINE
  5
150
100
AcDbEntity
  8
M0
100
AcDbLine
 10
182.50365
 20
478.1291
 11
181.209049
 21
475.3599
  0
LINE
  5
151
100
AcDbEntity
  8
M0
100
AcDbLine
 10
203.341433
 20
470.337192
 11
203.341433
 21
470.929103
  0
LINE
  5
152
100
AcDbEntity
  8
M0
100
AcDbLine
 10
179.9906
 20
477.658336
 11
179.9906
 21
475.3599
  0
LINE
  5
153
100
AcDbEntity
  8
M0
100
AcDbLine
 10
203.341433
 20
471.929103
 11
203.341433
 21
472.521014
  0
LINE
  5
154
100
AcDbEntity
  8
M0
100
AcDbLine
 10
200.341433
 20
471.429103
 11
203.341433
 21
472.521014
  0
LINE
  5
155
100
AcDbEntity
  8
M0
100
AcDbLine
 10
182.266265
 20
475.955278
 11
183.641023
 21
475.955278
  0
LINE
  5
156
100
AcDbEntity
  8
M0
100
AcDbLine
 10
183.462193
 20
476.39835
 11
182.953644
 21
477.658336
  0
LINE
  5
157
100
AcDbEntity
  8
M0
100
AcDbLine
 10
175.075271
 20
478.1291
 11
174.341433
 21
478.1291
  0
LINE
  5
158
100
AcDbEntity
  8
M0
100
AcDbLine
 10
177.29063
 20
478.1291
 11
176.556793
 21
478.1291
  0
LINE
  5
159
100
AcDbEntity
  8
M0
100
AcDbLine
 10
176.556793
 20
475.3599
 11
177.29063
 21
475.3599
  0
LINE
  5
15A
100
AcDbEntity
  8
M0
100
AcDbLine
 10
209.341433
 20
470.929103
 11
209.341433
 21
471.929103
  0
ARC
  5
15B
100
AcDbEntity
  8
M0
100
AcDbCircle
 10
216.804391
 20
469.3291
 40
0.5
100
AcDbArc
 50
270.0
 51
360.0
  0
ARC
  5
15C
100
AcDbEntity
  8
M0
100
AcDbCircle
 10
216.804391
 20
477.9291
 40
0.5
100
AcDbArc
 50
0.0
 51
90.0
  0
LINE
  5
15D
100
AcDbEntity
  8
M0
100
AcDbLine
 10
217.304391
 20
477.929099
 11
217.304391
 21
469.3291
  0
LINE
  5
15E
100
AcDbEntity
  8
M0
100
AcDbLine
 10
188.810502
 20
475.3599
 11
188.810502
 21
476.578348
  0
LINE
  5
15F
100
AcDbEntity
  8
M0
100
AcDbLine
 10
178.869075
 20
477.658336
 11
179.9906
 21
477.658336
  0
LINE
  5
160
100
AcDbEntity
  8
M0
100
AcDbLine
 10
212.441432
 20
478.4291
 11
216.804391
 21
478.4291
  0
LINE
  5
161
100
AcDbEntity
  8
M0
100
AcDbLine
 10
178.869075
 20
478.1291
 11
178.869075
 21
477.658336
  0
LINE
  5
162
100
AcDbEntity
  8
M0
100
AcDbLine
 10
201.741433
 20
458.4291
 11
209.541433
 21
458.4291
  0
LINE
  5
163
100
AcDbEntity
  8
M0
100
AcDbLine
 10
186.541433
 20
457.1291
 11
186.541433
 21
455.629101
  0
ARC
  5
164
100
AcDbEntity
  8
M0
100
AcDbCircle
 10
195.741433
 20
458.0291
 40
0.5
100
AcDbArc
 50
270.0
 51
360.0
  0
LINE
  5
165
100
AcDbEntity
  8
M0
100
AcDbLine
 10
178.941433
 20
456.629099
 11
178.841433
 21
456.629099
  0
LINE
  5
166
100
AcDbEntity
  8
M0
100
AcDbLine
 10
186.641433
 20
457.1291
 11
186.541433
 21
457.1291
  0
ARC
  5
167
100
AcDbEntity
  8
M0
100
AcDbCircle
 10
195.741433
 20
460.9291
 40
0.5
100
AcDbArc
 50
0.0
 51
90.0
  0
LINE
  5
168
100
AcDbEntity
  8
M0
100
AcDbLine
 10
178.941433
 20
455.629101
 11
178.941433
 21
456.629099
  0
LINE
  5
169
100
AcDbEntity
  8
M0
100
AcDbLine
 10
188.810502
 20
476.578348
 11
190.292024
 21
476.578348
  0
LINE
  5
16A
100
AcDbEntity
  8
M0
100
AcDbLine
 10
188.810502
 20
478.1291
 11
188.076664
 21
478.1291
  0
LINE
  5
16B
100
AcDbEntity
  8
M0
100
AcDbLine
 10
180.724438
 20
477.658336
 11
180.724438
 21
475.3599
  0
LINE
  5
16C
100
AcDbEntity
  8
M0
100
AcDbLine
 10
191.607394
 20
475.3599
 11
192.341233
 21
475.3599
  0
LINE
  5
16D
100
AcDbEntity
  8
M0
100
AcDbLine
 10
180.724438
 20
477.658336
 11
181.845964
 21
477.658336
  0
LINE
  5
16E
100
AcDbEntity
  8
M0
100
AcDbLine
 10
174.341433
 20
475.3599
 11
175.075271
 21
475.3599
  0
LINE
  5
16F
100
AcDbEntity
  8
M0
100
AcDbLine
 10
183.462193
 20
476.39835
 11
182.445095
 21
476.39835
  0
LINE
  5
170
100
AcDbEntity
  8
M0
100
AcDbLine
 10
191.025862
 20
475.3599
 11
191.025862
 21
478.1291
  0
LINE
  5
171
100
AcDbEntity
  8
M0
100
AcDbLine
 10
188.076664
 20
478.1291
 11
188.076664
 21
475.3599
  0
LINE
  5
172
100
AcDbEntity
  8
M0
100
AcDbLine
 10
178.606
 20
478.1291
 11
178.606
 21
475.3599
  0
LINE
  5
173
100
AcDbEntity
  8
M0
100
AcDbLine
 10
181.845964
 20
478.1291
 11
181.845964
 21
477.658336
  0
LINE
  5
174
100
AcDbEntity
  8
M0
100
AcDbLine
 10
190.292024
 20
475.3599
 11
190.292024
 21
476.578348
  0
LINE
  5
175
100
AcDbEntity
  8
M0
100
AcDbLine
 10
188.810502
 20
477.02142
 11
188.810502
 21
478.1291
  0
LINE
  5
176
100
AcDbEntity
  8
M0
100
AcDbLine
 10
183.094712
 20
460.943463
 11
181.327134
 21
459.175763
  0
LINE
  5
177
100
AcDbEntity
  8
M0
100
AcDbLine
 10
207.055259
 20
463.682794
 11
205.28768
 21
461.915215
  0
LINE
  5
178
100
AcDbEntity
  8
M0
100
AcDbLine
 10
184.332017
 20
457.938458
 11
181.150376
 21
461.120221
  0
LINE
  5
179
100
AcDbEntity
  8
M0
100
AcDbLine
 10
207.232016
 20
461.738458
 11
204.050376
 21
464.92022
  0
CIRCLE
  5
17A
100
AcDbEntity
  8
M0
100
AcDbCircle
 10
205.641433
 20
483.9291
 40
3.0
  0
LINE
  5
17B
100
AcDbEntity
  8
M0
100
AcDbLine
 10
184.155259
 20
459.882794
 11
182.387681
 21
458.115216
  0
LINE
  5
17C
100
AcDbEntity
  8
M0
100
AcDbLine
 10
205.994712
 20
464.743462
 11
204.227134
 21
462.975762
  0
LINE
  5
17D
100
AcDbEntity
  8
M0
100
AcDbLine
 10
205.994712
 20
485.343462
 11
204.227134
 21
483.575762
  0
LINE
  5
17E
100
AcDbEntity
  8
M0
100
AcDbLine
 10
207.055259
 20
484.282794
 11
205.28768
 21
482.515215
  0
LINE
  5
17F
100
AcDbEntity
  8
M0
100
AcDbLine
 10
172.341433
 20
476.8291
 11
172.341433
 21
473.6291
  0
LINE
  5
180
100
AcDbEntity
  8
M0
100
AcDbLine
 10
184.332017
 20
486.138458
 11
181.150376
 21
489.32022
  0
LINE
  5
181
100
AcDbEntity
  8
M0
100
AcDbLine
 10
184.155259
 20
488.082794
 11
182.387681
 21
486.315215
  0
LINE
  5
182
100
AcDbEntity
  8
M0
100
AcDbLine
 10
207.232016
 20
482.338458
 11
204.050376
 21
485.52022
  0
LINE
  5
183
100
AcDbEntity
  8
M0
100
AcDbLine
 10
183.094712
 20
489.143462
 11
181.327134
 21
487.375762
  0
ARC
  5
184
100
AcDbEntity
  8
M0
100
AcDbCircle
 10
186.207455
 20
477.15988
 40
0.706146
100
AcDbArc
 50
2.247463
 51
18.629353
  0
ARC
  5
185
100
AcDbEntity
  8
M0
100
AcDbCircle
 10
186.777168
 20
477.179602
 40
0.89999
100
AcDbArc
 50
11.57091
 51
66.454309
  0
ARC
  5
186
100
AcDbEntity
  8
M0
100
AcDbCircle
 10
186.207455
 20
476.827576
 40
1.10768
100
AcDbArc
 50
248.465704
 51
287.487613
  0
ARC
  5
187
100
AcDbEntity
  8
M0
100
AcDbCircle
 10
186.207455
 20
476.661424
 40
1.10768
100
AcDbArc
 50
72.944058
 51
108.768683
  0
ARC
  5
188
100
AcDbEntity
  8
M0
100
AcDbCircle
 10
187.101906
 20
476.716807
 40
1.758441
100
AcDbArc
 50
160.088603
 51
196.481482
  0
ARC
  5
189
100
AcDbEntity
  8
M0
100
AcDbCircle
 10
186.207455
 20
476.356812
 40
0.719992
100
AcDbArc
 50
334.356275
 51
360.0
  0
ARC
  5
18A
100
AcDbEntity
  8
M0
100
AcDbCircle
 10
186.039739
 20
476.402552
 40
0.650762
100
AcDbArc
 50
196.481517
 51
248.465722
  0
CIRCLE
  5
18B
100
AcDbEntity
  8
M0
100
AcDbCircle
 10
205.641433
 20
463.3291
 40
3.0
  0
ARC
  5
18C
100
AcDbEntity
  8
M0
100
AcDbCircle
 10
186.378021
 20
477.217379
 40
0.526148
100
AcDbArc
 50
18.629246
 51
72.943922
  0
CIRCLE
  5
18D
100
AcDbEntity
  8
M0
100
AcDbCircle
 10
182.741433
 20
487.7291
 40
3.0
  0
ARC
  5
18E
100
AcDbEntity
  8
M0
100
AcDbCircle
 10
186.060442
 20
477.094045
 40
0.650762
100
AcDbArc
 50
108.768698
 51
160.088638
  0
ARC
  5
18F
100
AcDbEntity
  8
M0
100
AcDbCircle
 10
186.798968
 20
476.294059
 40
0.886144
100
AcDbArc
 50
292.42259
 51
346.150643
  0
CIRCLE
  5
190
100
AcDbEntity
  8
M0
100
AcDbCircle
 10
182.741433
 20
459.5291
 40
3.0
  0
ARC
  5
191
100
AcDbEntity
  8
M0
100
AcDbCircle
 10
186.207455
 20
477.062958
 40
1.481521
100
AcDbArc
 50
4.824937
 51
11.570943
  0
LINE
  5
192
100
AcDbEntity
  8
M0
100
AcDbLine
 10
175.075271
 20
476.578348
 11
176.556793
 21
476.578348
  0
LINE
  5
193
100
AcDbEntity
  8
M0
100
AcDbLine
 10
183.881326
 20
475.3599
 11
183.641023
 21
475.955278
  0
LINE
  5
194
100
AcDbEntity
  8
M0
100
AcDbLine
 10
177.872162
 20
475.3599
 11
178.606
 21
475.3599
  0
ARC
  5
195
100
AcDbEntity
  8
M0
100
AcDbCircle
 10
186.373606
 20
476.716807
 40
1.799979
100
AcDbArc
 50
161.72132
 51
190.751551
  0
ARC
  5
196
100
AcDbEntity
  8
M0
100
AcDbCircle
 10
185.847712
 20
476.890514
 40
1.246139
100
AcDbArc
 50
109.456972
 51
161.721309
  0
LINE
  5
197
100
AcDbEntity
  8
M0
100
AcDbLine
 10
187.683726
 20
477.187572
 11
186.913057
 21
477.187572
  0
LINE
  5
198
100
AcDbEntity
  8
M0
100
AcDbLine
 10
176.556793
 20
478.1291
 11
176.556793
 21
477.02142
  0
LINE
  5
199
100
AcDbEntity
  8
M0
100
AcDbLine
 10
183.403639
 20
478.1291
 11
182.50365
 21
478.1291
  0
LINE
  5
19A
100
AcDbEntity
  8
M0
100
AcDbLine
 10
175.075271
 20
478.1291
 11
175.075271
 21
477.02142
  0
LINE
  5
19B
100
AcDbEntity
  8
M0
100
AcDbLine
 10
182.445095
 20
476.39835
 11
182.953644
 21
477.658336
  0
LINE
  5
19C
100
AcDbEntity
  8
M0
100
AcDbLine
 10
177.29063
 20
478.1291
 11
177.29063
 21
475.3599
  0
LINE
  5
19D
100
AcDbEntity
  8
M0
100
AcDbLine
 10
181.209049
 20
475.3599
 11
182.025962
 21
475.3599
  0
LINE
  5
19E
100
AcDbEntity
  8
M0
100
AcDbLine
 10
175.075271
 20
476.578348
 11
175.075271
 21
475.3599
  0
LINE
  5
19F
100
AcDbEntity
  8
M0
100
AcDbLine
 10
188.076664
 20
475.3599
 11
188.810502
 21
475.3599
  0
LINE
  5
1A0
100
AcDbEntity
  8
M0
100
AcDbLine
 10
190.292024
 20
475.3599
 11
191.025862
 21
475.3599
  0
LINE
  5
1A1
100
AcDbEntity
  8
M0
100
AcDbLine
 10
176.556793
 20
476.578348
 11
176.556793
 21
475.3599
  0
TEXT
  5
1A2
100
AcDbEntity
  8
M0
100
AcDbText
 10
202.866427
 20
474.3291
 40
2.0
  1
ＯＦＦ
 41
0.625
  7
STANDARD
100
AcDbText
  0
LINE
  5
1A3
100
AcDbEntity
  8
M0
100
AcDbLine
 10
178.606
 20
478.1291
 11
177.872162
 21
478.1291
  0
LINE
  5
1A4
100
AcDbEntity
  8
M0
100
AcDbLine
 10
176.556793
 20
477.02142
 11
175.075271
 21
477.02142
  0
TEXT
  5
1A5
100
AcDbEntity
  8
M0
100
AcDbText
 10
181.366427
 20
466.129103
 40
2.0
  1
Ｅ２
 41
0.625
  7
STANDARD
100
AcDbText
  0
LINE
  5
1A6
100
AcDbEntity
  8
M0
100
AcDbLine
 10
191.607394
 20
475.3599
 11
191.607394
 21
478.1291
  0
ARC
  5
1A7
100
AcDbEntity
  8
M0
100
AcDbCircle
 10
186.382205
 20
476.272922
 40
0.526148
100
AcDbArc
 50
287.487588
 51
334.356243
  0
ARC
  5
1A8
100
AcDbEntity
  8
M0
100
AcDbCircle
 10
185.856694
 20
476.618654
 40
1.273831
100
AcDbArc
 50
190.75155
 51
252.447271
  0
ARC
  5
1A9
100
AcDbEntity
  8
M0
100
AcDbCircle
 10
186.207455
 20
476.439888
 40
1.495367
100
AcDbArc
 50
346.150651
 51
356.815254
  0
TEXT
  5
1AA
100
AcDbEntity
  8
M0
100
AcDbText
 10
174.466425
 20
469.629103
 40
2.0
  1
ＣＯＮＴＡＣＴＯＲ
 41
0.625
  7
STANDARD
100
AcDbText
  0
TEXT
  5
1AB
100
AcDbEntity
  8
M0
100
AcDbText
 10
181.366427
 20
479.129101
 40
2.0
  1
Ｅ１
 41
0.625
  7
STANDARD
100
AcDbText
  0
ARC
  5
1AC
100
AcDbEntity
  8
M0
100
AcDbCircle
 10
186.207455
 20
477.727566
 40
2.436895
100
AcDbArc
 50
252.447278
 51
292.42262
  0
LINE
  5
1AD
100
AcDbEntity
  8
M0
100
AcDbLine
 10
212.841433
 20
490.629099
 11
212.841433
 21
480.829099
  0
LINE
  5
1AE
100
AcDbEntity
  8
M0
100
AcDbLine
 10
209.541433
 20
479.829099
 11
209.541433
 21
490.629099
  0
LINE
  5
1AF
100
AcDbEntity
  8
M0
100
AcDbLine
 10
212.841433
 20
480.829099
 11
215.341433
 21
480.829099
  0
LINE
  5
1B0
100
AcDbEntity
  8
M0
100
AcDbLine
 10
201.741433
 20
490.629099
 11
201.741433
 21
479.829099
  0
LINE
  5
1B1
100
AcDbEntity
  8
M0
100
AcDbLine
 10
178.841433
 20
483.629099
 11
186.641433
 21
483.629099
  0
LINE
  5
1B2
100
AcDbEntity
  8
M0
100
AcDbLine
 10
215.341433
 20
478.629099
 11
212.841433
 21
478.629099
  0
LINE
  5
1B3
100
AcDbEntity
  8
M0
100
AcDbLine
 10
201.741433
 20
479.829099
 11
209.541433
 21
479.829099
  0
LINE
  5
1B4
100
AcDbEntity
  8
M0
100
AcDbLine
 10
178.841433
 20
491.6291
 11
178.841433
 21
490.629099
  0
LINE
  5
1B5
100
AcDbEntity
  8
M0
100
AcDbLine
 10
186.641433
 20
490.629099
 11
186.641433
 21
491.6291
  0
LINE
  5
1B6
100
AcDbEntity
  8
M0
100
AcDbLine
 10
194.341433
 20
461.5291
 11
194.341433
 21
461.429099
  0
LINE
  5
1B7
100
AcDbEntity
  8
M0
100
AcDbLine
 10
217.341433
 20
479.829099
 11
217.341433
 21
479.629099
  0
LINE
  5
1B8
100
AcDbEntity
  8
M0
100
AcDbLine
 10
215.341433
 20
480.829099
 11
216.341433
 21
480.829099
  0
LINE
  5
1B9
100
AcDbEntity
  8
M0
100
AcDbLine
 10
196.241433
 20
461.5291
 11
196.241433
 21
461.429099
  0
LINE
  5
1BA
100
AcDbEntity
  8
M0
100
AcDbLine
 10
216.341433
 20
478.629099
 11
215.341433
 21
478.629099
  0
ARC
  5
1BB
100
AcDbEntity
  8
M0
100
AcDbCircle
 10
191.141433
 20
460.9291
 40
0.5
100
AcDbArc
 50
90.0
 51
180.0
  0
ARC
  5
1BC
100
AcDbEntity
  8
M0
100
AcDbCircle
 10
216.341433
 20
479.6291
 40
1.0
100
AcDbArc
 50
270.0
 51
360.0
  0
LINE
  5
1BD
100
AcDbEntity
  8
M0
100
AcDbLine
 10
209.391433
 20
487.1791
 11
209.391433
 21
480.6791
  0
ARC
  5
1BE
100
AcDbEntity
  8
M0
100
AcDbCircle
 10
211.841433
 20
490.6291
 40
1.0
100
AcDbArc
 50
0.0
 51
90.0
  0
ARC
  5
1BF
100
AcDbEntity
  8
M0
100
AcDbCircle
 10
212.841433
 20
478.1291
 40
0.5
100
AcDbArc
 50
90.0
 51
180.0
  0
ARC
  5
1C0
100
AcDbEntity
  8
M0
100
AcDbCircle
 10
191.141433
 20
458.0291
 40
0.5
100
AcDbArc
 50
180.0
 51
270.0
  0
ARC
  5
1C1
100
AcDbEntity
  8
M0
100
AcDbCircle
 10
216.341433
 20
479.8291
 40
1.0
100
AcDbArc
 50
0.0
 51
90.0
  0
LINE
  5
1C2
100
AcDbEntity
  8
M0
100
AcDbLine
 10
170.341433
 20
491.6291
 11
216.341433
 21
491.6291
  0
LINE
  5
1C3
100
AcDbEntity
  8
M0
100
AcDbLine
 10
170.341433
 20
476.8291
 11
169.841434
 21
476.8291
  0
LINE
  5
1C4
100
AcDbEntity
  8
M0
100
AcDbLine
 10
186.641433
 20
483.629099
 11
186.641433
 21
490.629099
  0
LINE
  5
1C5
100
AcDbEntity
  8
M0
100
AcDbLine
 10
202.391433
 20
487.6791
 11
208.891432
 21
487.6791
  0
LINE
  5
1C6
100
AcDbEntity
  8
M0
100
AcDbLine
 10
208.891432
 20
480.179099
 11
202.391433
 21
480.179099
  0
LINE
  5
1C7
100
AcDbEntity
  8
M0
100
AcDbLine
 10
178.841433
 20
490.629099
 11
178.841433
 21
483.629099
  0
LINE
  5
1C8
100
AcDbEntity
  8
M0
100
AcDbLine
 10
217.341433
 20
473.6291
 11
217.304391
 21
473.6291
  0
LINE
  5
1C9
100
AcDbEntity
  8
M0
100
AcDbLine
 10
179.491433
 20
491.4791
 11
185.991433
 21
491.4791
  0
ARC
  5
1CA
100
AcDbEntity
  8
M0
100
AcDbCircle
 10
202.391433
 20
460.0791
 40
0.5
100
AcDbArc
 50
180.0
 51
270.0
  0
LINE
  5
1CB
100
AcDbEntity
  8
M0
100
AcDbLine
 10
185.991433
 20
455.7791
 11
179.491433
 21
455.7791
  0
ARC
  5
1CC
100
AcDbEntity
  8
M0
100
AcDbCircle
 10
185.991433
 20
462.7791
 40
0.5
100
AcDbArc
 50
0.0
 51
90.0
  0
ARC
  5
1CD
100
AcDbEntity
  8
M0
100
AcDbCircle
 10
185.991433
 20
456.2791
 40
0.5
100
AcDbArc
 50
270.0
 51
360.0
  0
LINE
  5
1CE
100
AcDbEntity
  8
M0
100
AcDbLine
 10
178.991433
 20
456.2791
 11
178.991433
 21
462.779099
  0
ARC
  5
1CF
100
AcDbEntity
  8
M0
100
AcDbCircle
 10
202.391433
 20
466.5791
 40
0.5
100
AcDbArc
 50
90.0
 51
180.0
  0
LINE
  5
1D0
100
AcDbEntity
  8
M0
100
AcDbLine
 10
178.991433
 20
484.4791
 11
178.991433
 21
490.9791
  0
ARC
  5
1D1
100
AcDbEntity
  8
M0
100
AcDbCircle
 10
179.491433
 20
490.9791
 40
0.5
100
AcDbArc
 50
90.0
 51
180.0
  0
LINE
  5
1D2
100
AcDbEntity
  8
M0
100
AcDbLine
 10
186.491433
 20
490.9791
 11
186.491433
 21
484.4791
  0
LINE
  5
1D3
100
AcDbEntity
  8
M0
100
AcDbLine
 10
179.491433
 20
463.2791
 11
185.991433
 21
463.2791
  0
LINE
  5
1D4
100
AcDbEntity
  8
M0
100
AcDbLine
 10
186.491433
 20
462.7791
 11
186.491433
 21
456.279101
  0
LINE
  5
1D5
100
AcDbEntity
  8
M0
100
AcDbLine
 10
185.991433
 20
483.979099
 11
179.491433
 21
483.979099
  0
ARC
  5
1D6
100
AcDbEntity
  8
M0
100
AcDbCircle
 10
179.491433
 20
484.4791
 40
0.5
100
AcDbArc
 50
180.0
 51
270.0
  0
ARC
  5
1D7
100
AcDbEntity
  8
M0
100
AcDbCircle
 10
202.391433
 20
487.1791
 40
0.5
100
AcDbArc
 50
90.0
 51
180.0
  0
ARC
  5
1D8
100
AcDbEntity
  8
M0
100
AcDbCircle
 10
202.391433
 20
480.6791
 40
0.5
100
AcDbArc
 50
180.0
 51
270.0
  0
LINE
  5
1D9
100
AcDbEntity
  8
M0
100
AcDbLine
 10
208.891433
 20
459.579101
 11
202.391433
 21
459.579101
  0
ARC
  5
1DA
100
AcDbEntity
  8
M0
100
AcDbCircle
 10
208.891433
 20
460.0791
 40
0.5
100
AcDbArc
 50
270.0
 51
360.0
  0
LINE
  5
1DB
100
AcDbEntity
  8
M0
100
AcDbLine
 10
196.241433
 20
461.429099
 11
196.241433
 21
459.629098
  0
LINE
  5
1DC
100
AcDbEntity
  8
M0
100
AcDbLine
 10
201.891433
 20
460.079098
 11
201.891433
 21
466.5791
  0
ARC
  5
1DD
100
AcDbEntity
  8
M0
100
AcDbCircle
 10
208.891433
 20
466.5791
 40
0.5
100
AcDbArc
 50
0.0
 51
90.0
  0
ARC
  5
1DE
100
AcDbEntity
  8
M0
100
AcDbCircle
 10
185.991433
 20
484.4791
 40
0.5
100
AcDbArc
 50
270.0
 51
360.0
  0
ARC
  5
1DF
100
AcDbEntity
  8
M0
100
AcDbCircle
 10
185.991433
 20
490.9791
 40
0.5
100
AcDbArc
 50
0.0
 51
90.0
  0
ARC
  5
1E0
100
AcDbEntity
  8
M0
100
AcDbCircle
 10
179.491433
 20
462.7791
 40
0.5
100
AcDbArc
 50
90.0
 51
180.0
  0
LINE
  5
1E1
100
AcDbEntity
  8
M0
100
AcDbLine
 10
209.391433
 20
466.5791
 11
209.391433
 21
460.079098
  0
LINE
  5
1E2
100
AcDbEntity
  8
M0
100
AcDbLine
 10
202.391433
 20
467.079099
 11
208.891432
 21
467.079099
  0
ARC
  5
1E3
100
AcDbEntity
  8
M0
100
AcDbCircle
 10
179.491433
 20
456.2791
 40
0.5
100
AcDbArc
 50
180.0
 51
270.0
  0
LINE
  5
1E4
100
AcDbEntity
  8
M0
100
AcDbLine
 10
209.541433
 20
488.8291
 11
201.741433
 21
488.8291
  0
LINE
  5
1E5
100
AcDbEntity
  8
M0
100
AcDbLine
 10
196.241433
 20
458.029101
 11
196.241433
 21
458.529098
  0
LINE
  5
1E6
100
AcDbEntity
  8
M0
100
AcDbLine
 10
169.341433
 20
456.629099
 11
169.341433
 21
463.129099
  0
LINE
  5
1E7
100
AcDbEntity
  8
M0
100
AcDbLine
 10
191.141433
 20
461.429099
 11
195.741433
 21
461.429099
  0
LINE
  5
1E8
100
AcDbEntity
  8
M0
100
AcDbLine
 10
195.741433
 20
457.5291
 11
191.141433
 21
457.5291
  0
LINE
  5
1E9
100
AcDbEntity
  8
M0
100
AcDbLine
 10
196.541433
 20
461.329099
 11
196.541433
 21
459.629098
  0
LINE
  5
1EA
100
AcDbEntity
  8
M0
100
AcDbLine
 10
196.241433
 20
460.9291
 11
196.241433
 21
458.529098
  0
LINE
  5
1EB
100
AcDbEntity
  8
M0
100
AcDbLine
 10
169.841434
 20
470.4291
 11
170.341433
 21
470.4291
  0
LINE
  5
1EC
100
AcDbEntity
  8
M0
100
AcDbLine
 10
217.341433
 20
490.6291
 11
217.341433
 21
456.629099
  0
LINE
  5
1ED
100
AcDbEntity
  8
M0
100
AcDbLine
 10
170.341433
 20
470.4291
 11
170.341433
 21
476.8291
  0
LINE
  5
1EE
100
AcDbEntity
  8
M0
100
AcDbLine
 10
196.541433
 20
457.1291
 11
190.641433
 21
457.1291
  0
LINE
  5
1EF
100
AcDbEntity
  8
M0
100
AcDbLine
 10
172.841432
 20
455.629101
 11
170.341433
 21
455.629101
  0
LINE
  5
1F0
100
AcDbEntity
  8
M0
100
AcDbLine
 10
169.341433
 20
456.629099
 11
169.341433
 21
490.6291
  0
LINE
  5
1F1
100
AcDbEntity
  8
M0
100
AcDbLine
 10
217.304391
 20
473.6291
 11
217.341433
 21
473.6291
  0
ARC
  5
1F2
100
AcDbEntity
  8
M0
100
AcDbCircle
 10
177.841433
 20
456.6291
 40
1.0
100
AcDbArc
 50
270.0
 51
360.0
  0
ARC
  5
1F3
100
AcDbEntity
  8
M0
100
AcDbCircle
 10
170.341433
 20
456.6291
 40
1.0
100
AcDbArc
 50
180.0
 51
270.0
  0
ARC
  5
1F4
100
AcDbEntity
  8
M0
100
AcDbCircle
 10
189.641433
 20
456.6291
 40
1.0
100
AcDbArc
 50
270.0
 51
360.0
  0
ARC
  5
1F5
100
AcDbEntity
  8
M0
100
AcDbCircle
 10
216.341433
 20
456.6291
 40
1.0
100
AcDbArc
 50
270.0
 51
360.0
  0
ARC
  5
1F6
100
AcDbEntity
  8
M0
100
AcDbCircle
 10
186.207455
 20
475.872202
 40
2.326127
100
AcDbArc
 50
66.454301
 51
109.456969
  0
ARC
  5
1F7
100
AcDbEntity
  8
M0
100
AcDbCircle
 10
187.641433
 20
456.6291
 40
1.0
100
AcDbArc
 50
180.0
 51
270.0
  0
ARC
  5
1F8
100
AcDbEntity
  8
M0
100
AcDbCircle
 10
169.841433
 20
469.9291
 40
0.5
100
AcDbArc
 50
90.0
 51
180.0
  0
ARC
  5
1F9
100
AcDbEntity
  8
M0
100
AcDbCircle
 10
212.841433
 20
469.1291
 40
0.5
100
AcDbArc
 50
180.0
 51
270.0
  0
ARC
  5
1FA
100
AcDbEntity
  8
M0
100
AcDbCircle
 10
211.841433
 20
456.6291
 40
1.0
100
AcDbArc
 50
270.0
 51
360.0
  0
ARC
  5
1FB
100
AcDbEntity
  8
M0
100
AcDbCircle
 10
216.341433
 20
467.6291
 40
1.0
100
AcDbArc
 50
0.0
 51
90.0
  0
ARC
  5
1FC
100
AcDbEntity
  8
M0
100
AcDbCircle
 10
200.741433
 20
456.6291
 40
1.0
100
AcDbArc
 50
270.0
 51
360.0
  0
ARC
  5
1FD
100
AcDbEntity
  8
M0
100
AcDbCircle
 10
197.541433
 20
456.6291
 40
1.0
100
AcDbArc
 50
180.0
 51
270.0
  0
ARC
  5
1FE
100
AcDbEntity
  8
M0
100
AcDbCircle
 10
216.341433
 20
467.4291
 40
1.0
100
AcDbArc
 50
270.0
 51
360.0
  0
ARC
  5
1FF
100
AcDbEntity
  8
M0
100
AcDbCircle
 10
210.541433
 20
456.6291
 40
1.0
100
AcDbArc
 50
180.0
 51
270.0
  0
ARC
  5
200
100
AcDbEntity
  8
M0
100
AcDbCircle
 10
208.891433
 20
480.6791
 40
0.5
100
AcDbArc
 50
270.0
 51
360.0
  0
LINE
  5
201
100
AcDbEntity
  8
M0
100
AcDbLine
 10
216.804391
 20
468.829099
 11
212.441432
 21
468.829099
  0
ARC
  5
202
100
AcDbEntity
  8
M0
100
AcDbCircle
 10
216.341433
 20
490.6291
 40
1.0
100
AcDbArc
 50
0.0
 51
90.0
  0
LINE
  5
203
100
AcDbEntity
  8
M0
100
AcDbLine
 10
215.341433
 20
466.429099
 11
216.341433
 21
466.429099
  0
LINE
  5
204
100
AcDbEntity
  8
M0
100
AcDbLine
 10
217.341433
 20
467.629099
 11
217.341433
 21
467.4291
  0
ARC
  5
205
100
AcDbEntity
  8
M0
100
AcDbCircle
 10
208.891433
 20
487.1791
 40
0.5
100
AcDbArc
 50
0.0
 51
90.0
  0
LINE
  5
206
100
AcDbEntity
  8
M0
100
AcDbLine
 10
215.341433
 20
468.629099
 11
216.341433
 21
468.629099
  0
ARC
  5
207
100
AcDbEntity
  8
M0
100
AcDbCircle
 10
200.741433
 20
490.6291
 40
1.0
100
AcDbArc
 50
0.0
 51
90.0
  0
ARC
  5
208
100
AcDbEntity
  8
M0
100
AcDbCircle
 10
187.641433
 20
490.6291
 40
1.0
100
AcDbArc
 50
90.0
 51
180.0
  0
LINE
  5
209
100
AcDbEntity
  8
M0
100
AcDbLine
 10
201.891433
 20
480.679099
 11
201.891433
 21
487.1791
  0
ARC
  5
20A
100
AcDbEntity
  8
M0
100
AcDbCircle
 10
170.341433
 20
490.6291
 40
1.0
100
AcDbArc
 50
90.0
 51
180.0
  0
ARC
  5
20B
100
AcDbEntity
  8
M0
100
AcDbCircle
 10
169.841433
 20
477.3291
 40
0.5
100
AcDbArc
 50
180.0
 51
270.0
  0
ARC
  5
20C
100
AcDbEntity
  8
M0
100
AcDbCircle
 10
210.541433
 20
490.6291
 40
1.0
100
AcDbArc
 50
90.0
 51
180.0
  0
ARC
  5
20D
100
AcDbEntity
  8
M0
100
AcDbCircle
 10
177.841433
 20
490.6291
 40
1.0
100
AcDbArc
 50
0.0
 51
90.0
  0
LINE
  5
20E
100
AcDbEntity
  8
M0
100
AcDbLine
 10
190.641433
 20
461.5291
 11
190.641433
 21
456.629099
  0
LINE
  5
20F
100
AcDbEntity
  8
M0
100
AcDbLine
 10
186.641433
 20
456.629099
 11
186.641433
 21
463.629099
  0
LINE
  5
210
100
AcDbEntity
  8
M0
100
AcDbLine
 10
196.541433
 20
456.629099
 11
196.541433
 21
461.5291
  0
LINE
  5
211
100
AcDbEntity
  8
M0
100
AcDbLine
 10
178.841433
 20
463.629099
 11
178.841433
 21
456.629099
  0
LINE
  5
212
100
AcDbEntity
  8
M0
100
AcDbLine
 10
216.341433
 20
455.629101
 11
170.341433
 21
455.629101
  0
LINE
  5
213
100
AcDbEntity
  8
M0
100
AcDbLine
 10
196.541433
 20
461.5291
 11
190.641433
 21
461.5291
  0
LINE
  5
214
100
AcDbEntity
  8
M0
100
AcDbLine
 10
186.641433
 20
463.629099
 11
178.841433
 21
463.629099
  0
LINE
  5
215
100
AcDbEntity
  8
M0
100
AcDbLine
 10
212.841433
 20
466.429099
 11
212.841433
 21
456.629099
  0
LINE
  5
216
100
AcDbEntity
  8
M0
100
AcDbLine
 10
212.341432
 20
478.1291
 11
212.341432
 21
469.129099
  0
LINE
  5
217
100
AcDbEntity
  8
M0
100
AcDbLine
 10
215.341433
 20
466.429099
 11
212.841433
 21
466.429099
  0
LINE
  5
218
100
AcDbEntity
  8
M0
100
AcDbLine
 10
209.541433
 20
467.4291
 11
201.741433
 21
467.4291
  0
LINE
  5
219
100
AcDbEntity
  8
M0
100
AcDbLine
 10
201.741433
 20
467.4291
 11
201.741433
 21
456.629099
  0
LINE
  5
21A
100
AcDbEntity
  8
M0
100
AcDbLine
 10
212.841433
 20
468.629099
 11
215.341433
 21
468.629099
  0
LINE
  5
21B
100
AcDbEntity
  8
M0
100
AcDbLine
 10
209.541433
 20
456.629099
 11
209.541433
 21
467.4291
  0
LINE
  5
21C
100
AcDbEntity
  8
M0
100
AcDbLine
 10
172.841433
 20
482.1291
 11
199.841433
 21
482.1291
  0
LINE
  5
21D
100
AcDbEntity
  8
M0
100
AcDbLine
 10
172.341433
 20
481.6291
 11
172.341433
 21
465.6291
  0
LINE
  5
21E
100
AcDbEntity
  8
M0
100
AcDbLine
 10
172.841433
 20
465.1291
 11
199.841433
 21
465.1291
  0
LINE
  5
21F
100
AcDbEntity
  8
M0
100
AcDbLine
 10
210.341433
 20
469.6291
 11
210.341433
 21
477.6291
  0
LINE
  5
220
100
AcDbEntity
  8
M0
100
AcDbLine
 10
209.841433
 20
469.1291
 11
200.841433
 21
469.1291
  0
LINE
  5
221
100
AcDbEntity
  8
M0
100
AcDbLine
 10
209.841433
 20
478.1291
 11
200.841433
 21
478.1291
  0
LINE
  5
222
100
AcDbEntity
  8
M0
100
AcDbLine
 10
200.341433
 20
465.6291
 11
200.341433
 21
468.6291
  0
LINE
  5
223
100
AcDbEntity
  8
M0
100
AcDbLine
 10
200.341433
 20
478.6291
 11
200.341433
 21
481.6291
  0
ARC
  5
224
100
AcDbEntity
  8
M0
100
AcDbCircle
 10
172.841433
 20
481.6291
 40
0.5
100
AcDbArc
 50
90.0
 51
180.0
  0
ARC
  5
225
100
AcDbEntity
  8
M0
100
AcDbCircle
 10
199.841433
 20
481.6291
 40
0.5
100
AcDbArc
 50
0.0
 51
90.0
  0
ARC
  5
226
100
AcDbEntity
  8
M0
100
AcDbCircle
 10
200.841433
 20
478.6291
 40
0.5
100
AcDbArc
 50
180.0
 51
270.0
  0
ARC
  5
227
100
AcDbEntity
  8
M0
100
AcDbCircle
 10
209.841433
 20
477.6291
 40
0.5
100
AcDbArc
 50
0.0
 51
90.0
  0
ARC
  5
228
100
AcDbEntity
  8
M0
100
AcDbCircle
 10
209.841433
 20
469.6291
 40
0.5
100
AcDbArc
 50
270.0
 51
360.0
  0
ARC
  5
229
100
AcDbEntity
  8
M0
100
AcDbCircle
 10
200.841433
 20
468.6291
 40
0.5
100
AcDbArc
 50
90.0
 51
180.0
  0
ARC
  5
22A
100
AcDbEntity
  8
M0
100
AcDbCircle
 10
199.841433
 20
465.6291
 40
0.5
100
AcDbArc
 50
270.0
 51
360.0
  0
ARC
  5
22B
100
AcDbEntity
  8
M0
100
AcDbCircle
 10
172.841433
 20
465.6291
 40
0.5
100
AcDbArc
 50
180.0
 51
270.0
  0
LINE
  5
22C
100
AcDbEntity
  8
M0
  6
DIVIDE
 62
     7
100
AcDbLine
 10
83.991435
 20
321.814549
 11
67.491435
 21
321.814549
  0
LINE
  5
22D
100
AcDbEntity
  8
M0
  6
DIVIDE
 62
     7
100
AcDbLine
 10
67.491435
 20
321.814549
 11
67.491435
 21
236.814549
  0
LINE
  5
22E
100
AcDbEntity
  8
M0
  6
DIVIDE
 62
     7
100
AcDbLine
 10
83.991435
 20
321.814549
 11
83.991435
 21
325.81455
  0
LINE
  5
22F
100
AcDbEntity
  8
M0
  6
DIVIDE
 62
     7
100
AcDbLine
 10
128.891435
 20
321.814549
 11
128.891435
 21
325.81455
  0
LINE
  5
230
100
AcDbEntity
  8
M0
  6
DIVIDE
 62
     7
100
AcDbLine
 10
128.891435
 20
321.814549
 11
145.391435
 21
321.814549
  0
LINE
  5
231
100
AcDbEntity
  8
M0
  6
DIVIDE
 62
     7
100
AcDbLine
 10
83.991435
 20
325.81455
 11
128.891435
 21
325.81455
  0
LINE
  5
232
100
AcDbEntity
  8
M0
  6
DIVIDE
 62
     7
100
AcDbLine
 10
145.391435
 20
236.814549
 11
145.391435
 21
253.91455
  0
LINE
  5
233
100
AcDbEntity
  8
M0
  6
DIVIDE
 62
     7
100
AcDbLine
 10
145.391435
 20
236.814549
 11
67.491435
 21
236.81455
  0
LINE
  5
234
100
AcDbEntity
  8
M0
  6
DIVIDE
 62
     7
100
AcDbLine
 10
145.391435
 20
304.71455
 11
145.391435
 21
321.814549
  0
HATCH
  5
235
100
AcDbEntity
  8
M0
 62
     7
100
AcDbHatch
 10
0.0
 20
0.0
210
0.0
220
0.0
230
1.0
  2
SOLID
 70
     1
 71
     0
 91
        1
 92
        1
 93
        4
 72
     1
 10
105.441235
 20
475.3599
 11
105.441235
 21
478.1291
 72
     1
 10
105.441235
 20
478.1291
 11
104.707396
 21
478.1291
 72
     1
 10
104.707396
 20
478.1291
 11
104.707396
 21
475.3599
 72
     1
 10
104.707396
 20
475.3599
 11
105.441235
 21
475.3599
 97
        0
 75
     0
 76
     1
 98
        1
 10
0.0
 20
0.0
  0
HATCH
  5
236
100
AcDbEntity
  8
M0
 62
     7
100
AcDbHatch
 10
0.0
 20
0.0
210
0.0
220
0.0
230
1.0
  2
SOLID
 70
     1
 71
     0
 91
        1
 92
        1
 93
        8
 72
     1
 10
180.724438
 20
475.3599
 11
180.724438
 21
477.658336
 72
     1
 10
180.724438
 20
477.658336
 11
181.845964
 21
477.658336
 72
     1
 10
181.845964
 20
477.658336
 11
181.845964
 21
478.1291
 72
     1
 10
181.845964
 20
478.1291
 11
178.869075
 21
478.1291
 72
     1
 10
178.869075
 20
478.1291
 11
178.869075
 21
477.658336
 72
     1
 10
178.869075
 20
477.658336
 11
179.9906
 21
477.658336
 72
     1
 10
179.9906
 20
477.658336
 11
179.9906
 21
475.3599
 72
     1
 10
179.9906
 20
475.3599
 11
180.724438
 21
475.3599
 97
        0
 75
     0
 76
     1
 98
        1
 10
0.0
 20
0.0
  0
CIRCLE
  5
237
100
AcDbEntity
  8
M0
  6
DIVIDE
 62
     7
100
AcDbCircle
 10
70.941435
 20
311.814549
 40
1.7
  0
CIRCLE
  5
238
100
AcDbEntity
  8
M0
  6
DIVIDE
 62
     7
100
AcDbCircle
 10
141.941435
 20
246.814549
 40
1.7
  0
CIRCLE
  5
239
100
AcDbEntity
  8
M0
  6
DIVIDE
 62
     7
100
AcDbCircle
 10
70.941435
 20
311.814549
 40
2.0
  0
CIRCLE
  5
23A
100
AcDbEntity
  8
M0
  6
DIVIDE
 62
     7
100
AcDbCircle
 10
141.941435
 20
246.814549
 40
2.0
  0
CIRCLE
  5
23B
100
AcDbEntity
  8
M0
  6
DIVIDE
 62
     7
100
AcDbCircle
 10
228.841433
 20
246.814549
 40
2.0
  0
CIRCLE
  5
23C
100
AcDbEntity
  8
M0
  6
DIVIDE
 62
     7
100
AcDbCircle
 10
228.841433
 20
246.814549
 40
1.7
  0
CIRCLE
  5
23D
100
AcDbEntity
  8
M0
  6
DIVIDE
 62
     7
100
AcDbCircle
 10
157.841433
 20
311.814549
 40
2.0
  0
CIRCLE
  5
23E
100
AcDbEntity
  8
M0
  6
DIVIDE
 62
     7
100
AcDbCircle
 10
157.841433
 20
311.814549
 40
1.7
  0
LINE
  5
23F
100
AcDbEntity
  8
M0
  6
DIVIDE
 62
     7
100
AcDbLine
 10
145.391435
 20
253.91455
 11
154.391433
 21
253.91455
  0
LINE
  5
240
100
AcDbEntity
  8
M0
  6
DASHDOT
 62
     7
100
AcDbLine
 10
75.03884
 20
311.814549
 11
66.844031
 21
311.814549
  0
LINE
  5
241
100
AcDbEntity
  8
M0
  6
DASHDOT
 62
     7
100
AcDbLine
 10
161.938837
 20
311.814549
 11
153.744028
 21
311.814549
  0
LINE
  5
242
100
AcDbEntity
  8
M0
  6
DASHDOT
 62
     7
100
AcDbLine
 10
70.941428
 20
315.911946
 11
70.941443
 21
307.717137
  0
LINE
  5
243
100
AcDbEntity
  8
M0
  6
DASHDOT
 62
     7
100
AcDbLine
 10
146.03884
 20
246.814549
 11
137.844031
 21
246.814549
  0
LINE
  5
244
100
AcDbEntity
  8
M0
  6
DASHDOT
 62
     7
100
AcDbLine
 10
232.938837
 20
246.814549
 11
224.744028
 21
246.814549
  0
LINE
  5
245
100
AcDbEntity
  8
M0
  6
DIVIDE
 62
     7
100
AcDbLine
 10
145.391435
 20
304.71455
 11
154.391433
 21
304.71455
  0
LINE
  5
246
100
AcDbEntity
  8
M0
  6
DASHDOT
 62
     7
100
AcDbLine
 10
157.841425
 20
315.911946
 11
157.841441
 21
307.717137
  0
LINE
  5
247
100
AcDbEntity
  8
M0
  6
DASHDOT
 62
     7
100
AcDbLine
 10
228.841425
 20
250.911946
 11
228.841441
 21
242.717137
  0
LINE
  5
248
100
AcDbEntity
  8
M0
  6
DASHDOT
 62
     7
100
AcDbLine
 10
141.941428
 20
250.911946
 11
141.941443
 21
242.717137
  0
HATCH
  5
249
100
AcDbEntity
  8
M0
 62
     7
100
AcDbHatch
 10
0.0
 20
0.0
210
0.0
220
0.0
230
1.0
  2
SOLID
 70
     1
 71
     0
 91
        1
 92
        1
 93
       12
 72
     1
 10
175.075271
 20
475.3599
 11
175.075271
 21
476.578348
 72
     1
 10
175.075271
 20
476.578348
 11
176.556793
 21
476.578348
 72
     1
 10
176.556793
 20
476.578348
 11
176.556793
 21
475.3599
 72
     1
 10
176.556793
 20
475.3599
 11
177.29063
 21
475.3599
 72
     1
 10
177.29063
 20
475.3599
 11
177.29063
 21
478.1291
 72
     1
 10
177.29063
 20
478.1291
 11
176.556793
 21
478.1291
 72
     1
 10
176.556793
 20
478.1291
 11
176.556793
 21
477.02142
 72
     1
 10
176.556793
 20
477.02142
 11
175.075271
 21
477.02142
 72
     1
 10
175.075271
 20
477.02142
 11
175.075271
 21
478.1291
 72
     1
 10
175.075271
 20
478.1291
 11
174.341433
 21
478.1291
 72
     1
 10
174.341433
 20
478.1291
 11
174.341433
 21
475.3599
 72
     1
 10
174.341433
 20
475.3599
 11
175.075271
 21
475.3599
 97
        0
 75
     0
 76
     1
 98
        1
 10
0.0
 20
0.0
  0
LINE
  5
24A
100
AcDbEntity
  8
M0
100
AcDbLine
 10
96.503641
 20
478.1291
 11
97.798242
 21
475.3599
  0
LINE
  5
24B
100
AcDbEntity
  8
M0
100
AcDbLine
 10
93.090602
 20
475.3599
 11
93.82444
 21
475.3599
  0
LINE
  5
24C
100
AcDbEntity
  8
M0
100
AcDbLine
 10
105.441235
 20
478.1291
 11
104.707396
 21
478.1291
  0
LINE
  5
24D
100
AcDbEntity
  8
M0
100
AcDbLine
 10
96.981329
 20
475.3599
 11
97.798242
 21
475.3599
  0
LINE
  5
24E
100
AcDbEntity
  8
M0
100
AcDbLine
 10
95.125964
 20
475.3599
 11
95.366267
 21
475.955278
  0
LINE
  5
24F
100
AcDbEntity
  8
M0
100
AcDbLine
 10
90.972165
 20
478.1291
 11
90.972165
 21
475.3599
  0
LINE
  5
250
100
AcDbEntity
  8
M0
100
AcDbLine
 10
122.441435
 20
470.929103
 11
116.441435
 21
470.929103
  0
LINE
  5
251
100
AcDbEntity
  8
M0
100
AcDbLine
 10
104.125864
 20
478.1291
 11
103.392027
 21
478.1291
  0
TEXT
  5
252
100
AcDbEntity
  8
M0
100
AcDbText
 10
109.566435
 20
466.129103
 40
2.0
  1
５６
 41
0.625
  7
STANDARD
100
AcDbText
  0
LINE
  5
253
100
AcDbEntity
  8
M0
100
AcDbLine
 10
103.392027
 20
477.02142
 11
101.910505
 21
477.02142
  0
TEXT
  5
254
100
AcDbEntity
  8
M0
100
AcDbText
 10
87.566428
 20
472.129103
 40
2.0
  1
ＬＡＴＣＨＥＤ
 41
0.625
  7
STANDARD
100
AcDbText
  0
LINE
  5
255
100
AcDbEntity
  8
M0
100
AcDbLine
 10
103.392027
 20
477.02142
 11
103.392027
 21
478.1291
  0
LINE
  5
256
100
AcDbEntity
  8
M0
100
AcDbLine
 10
100.800515
 20
476.356812
 11
100.027448
 21
476.356812
  0
TEXT
  5
257
100
AcDbEntity
  8
M0
100
AcDbText
 10
109.566435
 20
479.129101
 40
2.0
  1
５５
 41
0.625
  7
STANDARD
100
AcDbText
  0
LINE
  5
258
100
AcDbEntity
  8
M0
100
AcDbLine
 10
113.441435
 20
471.429103
 11
116.441435
 21
470.337192
  0
LINE
  5
259
100
AcDbEntity
  8
M0
100
AcDbLine
 10
94.945967
 20
478.1291
 11
91.969077
 21
478.1291
  0
LINE
  5
25A
100
AcDbEntity
  8
M0
100
AcDbLine
 10
122.441435
 20
471.929103
 11
116.441435
 21
471.929103
  0
LINE
  5
25B
100
AcDbEntity
  8
M0
100
AcDbLine
 10
95.603652
 20
478.1291
 11
94.309051
 21
475.3599
  0
LINE
  5
25C
100
AcDbEntity
  8
M0
100
AcDbLine
 10
116.441435
 20
470.337192
 11
116.441435
 21
470.929103
  0
LINE
  5
25D
100
AcDbEntity
  8
M0
100
AcDbLine
 10
93.090602
 20
477.658336
 11
93.090602
 21
475.3599
  0
LINE
  5
25E
100
AcDbEntity
  8
M0
100
AcDbLine
 10
116.441435
 20
471.929103
 11
116.441435
 21
472.521014
  0
LINE
  5
25F
100
AcDbEntity
  8
M0
100
AcDbLine
 10
113.441435
 20
471.429103
 11
116.441435
 21
472.521014
  0
LINE
  5
260
100
AcDbEntity
  8
M0
100
AcDbLine
 10
95.366267
 20
475.955278
 11
96.741026
 21
475.955278
  0
LINE
  5
261
100
AcDbEntity
  8
M0
100
AcDbLine
 10
96.562195
 20
476.39835
 11
96.053646
 21
477.658336
  0
LINE
  5
262
100
AcDbEntity
  8
M0
100
AcDbLine
 10
88.175273
 20
478.1291
 11
87.441435
 21
478.1291
  0
LINE
  5
263
100
AcDbEntity
  8
M0
100
AcDbLine
 10
90.390633
 20
478.1291
 11
89.656795
 21
478.1291
  0
LINE
  5
264
100
AcDbEntity
  8
M0
100
AcDbLine
 10
89.656795
 20
475.3599
 11
90.390633
 21
475.3599
  0
LINE
  5
265
100
AcDbEntity
  8
M0
100
AcDbLine
 10
122.441435
 20
470.929103
 11
122.441435
 21
471.929103
  0
ARC
  5
266
100
AcDbEntity
  8
M0
100
AcDbCircle
 10
129.904394
 20
469.3291
 40
0.5
100
AcDbArc
 50
270.0
 51
360.0
  0
ARC
  5
267
100
AcDbEntity
  8
M0
100
AcDbCircle
 10
129.904394
 20
477.9291
 40
0.5
100
AcDbArc
 50
0.0
 51
90.0
  0
LINE
  5
268
100
AcDbEntity
  8
M0
100
AcDbLine
 10
130.404393
 20
477.929099
 11
130.404393
 21
469.3291
  0
LINE
  5
269
100
AcDbEntity
  8
M0
100
AcDbLine
 10
101.910505
 20
475.3599
 11
101.910505
 21
476.578348
  0
LINE
  5
26A
100
AcDbEntity
  8
M0
100
AcDbLine
 10
91.969077
 20
477.658336
 11
93.090602
 21
477.658336
  0
LINE
  5
26B
100
AcDbEntity
  8
M0
100
AcDbLine
 10
125.541434
 20
478.4291
 11
129.904394
 21
478.4291
  0
LINE
  5
26C
100
AcDbEntity
  8
M0
100
AcDbLine
 10
91.969077
 20
478.1291
 11
91.969077
 21
477.658336
  0
LINE
  5
26D
100
AcDbEntity
  8
M0
100
AcDbLine
 10
114.841435
 20
458.4291
 11
122.641436
 21
458.4291
  0
LINE
  5
26E
100
AcDbEntity
  8
M0
100
AcDbLine
 10
99.641435
 20
457.1291
 11
99.641435
 21
455.629101
  0
ARC
  5
26F
100
AcDbEntity
  8
M0
100
AcDbCircle
 10
108.841435
 20
458.0291
 40
0.5
100
AcDbArc
 50
270.0
 51
360.0
  0
LINE
  5
270
100
AcDbEntity
  8
M0
100
AcDbLine
 10
92.041435
 20
456.629099
 11
91.941436
 21
456.629099
  0
LINE
  5
271
100
AcDbEntity
  8
M0
100
AcDbLine
 10
99.741435
 20
457.1291
 11
99.641435
 21
457.1291
  0
ARC
  5
272
100
AcDbEntity
  8
M0
100
AcDbCircle
 10
108.841435
 20
460.9291
 40
0.5
100
AcDbArc
 50
0.0
 51
90.0
  0
LINE
  5
273
100
AcDbEntity
  8
M0
100
AcDbLine
 10
92.041435
 20
455.629101
 11
92.041435
 21
456.629099
  0
LINE
  5
274
100
AcDbEntity
  8
M0
100
AcDbLine
 10
101.910505
 20
476.578348
 11
103.392027
 21
476.578348
  0
LINE
  5
275
100
AcDbEntity
  8
M0
100
AcDbLine
 10
101.910505
 20
478.1291
 11
101.176667
 21
478.1291
  0
LINE
  5
276
100
AcDbEntity
  8
M0
100
AcDbLine
 10
93.82444
 20
477.658336
 11
93.82444
 21
475.3599
  0
LINE
  5
277
100
AcDbEntity
  8
M0
100
AcDbLine
 10
104.707396
 20
475.3599
 11
105.441235
 21
475.3599
  0
LINE
  5
278
100
AcDbEntity
  8
M0
100
AcDbLine
 10
93.82444
 20
477.658336
 11
94.945967
 21
477.658336
  0
LINE
  5
279
100
AcDbEntity
  8
M0
100
AcDbLine
 10
87.441435
 20
475.3599
 11
88.175273
 21
475.3599
  0
LINE
  5
27A
100
AcDbEntity
  8
M0
100
AcDbLine
 10
96.562195
 20
476.39835
 11
95.545098
 21
476.39835
  0
LINE
  5
27B
100
AcDbEntity
  8
M0
100
AcDbLine
 10
104.125864
 20
475.3599
 11
104.125864
 21
478.1291
  0
LINE
  5
27C
100
AcDbEntity
  8
M0
100
AcDbLine
 10
101.176667
 20
478.1291
 11
101.176667
 21
475.3599
  0
LINE
  5
27D
100
AcDbEntity
  8
M0
100
AcDbLine
 10
91.706002
 20
478.1291
 11
91.706002
 21
475.3599
  0
LINE
  5
27E
100
AcDbEntity
  8
M0
100
AcDbLine
 10
94.945967
 20
478.1291
 11
94.945967
 21
477.658336
  0
LINE
  5
27F
100
AcDbEntity
  8
M0
100
AcDbLine
 10
103.392027
 20
475.3599
 11
103.392027
 21
476.578348
  0
LINE
  5
280
100
AcDbEntity
  8
M0
100
AcDbLine
 10
101.910505
 20
477.02142
 11
101.910505
 21
478.1291
  0
LINE
  5
281
100
AcDbEntity
  8
M0
100
AcDbLine
 10
96.194714
 20
460.943463
 11
94.427136
 21
459.175763
  0
LINE
  5
282
100
AcDbEntity
  8
M0
100
AcDbLine
 10
120.155261
 20
463.682794
 11
118.387683
 21
461.915215
  0
LINE
  5
283
100
AcDbEntity
  8
M0
100
AcDbLine
 10
97.432019
 20
457.938458
 11
94.250378
 21
461.120221
  0
LINE
  5
284
100
AcDbEntity
  8
M0
100
AcDbLine
 10
120.332019
 20
461.738458
 11
117.150378
 21
464.92022
  0
CIRCLE
  5
285
100
AcDbEntity
  8
M0
100
AcDbCircle
 10
118.741435
 20
483.9291
 40
3.0
  0
LINE
  5
286
100
AcDbEntity
  8
M0
100
AcDbLine
 10
97.255261
 20
459.882794
 11
95.487683
 21
458.115216
  0
LINE
  5
287
100
AcDbEntity
  8
M0
100
AcDbLine
 10
119.094714
 20
464.743462
 11
117.327136
 21
462.975762
  0
LINE
  5
288
100
AcDbEntity
  8
M0
100
AcDbLine
 10
119.094714
 20
485.343462
 11
117.327136
 21
483.575762
  0
LINE
  5
289
100
AcDbEntity
  8
M0
100
AcDbLine
 10
120.155261
 20
484.282794
 11
118.387683
 21
482.515215
  0
LINE
  5
28A
100
AcDbEntity
  8
M0
100
AcDbLine
 10
85.441435
 20
476.8291
 11
85.441435
 21
473.6291
  0
LINE
  5
28B
100
AcDbEntity
  8
M0
100
AcDbLine
 10
97.432019
 20
486.138458
 11
94.250378
 21
489.32022
  0
LINE
  5
28C
100
AcDbEntity
  8
M0
100
AcDbLine
 10
97.255261
 20
488.082794
 11
95.487683
 21
486.315215
  0
LINE
  5
28D
100
AcDbEntity
  8
M0
100
AcDbLine
 10
120.332019
 20
482.338458
 11
117.150378
 21
485.52022
  0
LINE
  5
28E
100
AcDbEntity
  8
M0
100
AcDbLine
 10
96.194714
 20
489.143462
 11
94.427136
 21
487.375762
  0
ARC
  5
28F
100
AcDbEntity
  8
M0
100
AcDbCircle
 10
99.307457
 20
477.15988
 40
0.706146
100
AcDbArc
 50
2.247463
 51
18.629353
  0
ARC
  5
290
100
AcDbEntity
  8
M0
100
AcDbCircle
 10
99.87717
 20
477.179602
 40
0.89999
100
AcDbArc
 50
11.57091
 51
66.454309
  0
ARC
  5
291
100
AcDbEntity
  8
M0
100
AcDbCircle
 10
99.307457
 20
476.827576
 40
1.10768
100
AcDbArc
 50
248.465704
 51
287.487613
  0
ARC
  5
292
100
AcDbEntity
  8
M0
100
AcDbCircle
 10
99.307457
 20
476.661424
 40
1.10768
100
AcDbArc
 50
72.944058
 51
108.768683
  0
ARC
  5
293
100
AcDbEntity
  8
M0
100
AcDbCircle
 10
100.201908
 20
476.716807
 40
1.758441
100
AcDbArc
 50
160.088603
 51
196.481482
  0
ARC
  5
294
100
AcDbEntity
  8
M0
100
AcDbCircle
 10
99.307457
 20
476.356812
 40
0.719992
100
AcDbArc
 50
334.356275
 51
360.0
  0
ARC
  5
295
100
AcDbEntity
  8
M0
100
AcDbCircle
 10
99.139741
 20
476.402552
 40
0.650762
100
AcDbArc
 50
196.481517
 51
248.465722
  0
CIRCLE
  5
296
100
AcDbEntity
  8
M0
100
AcDbCircle
 10
118.741435
 20
463.3291
 40
3.0
  0
ARC
  5
297
100
AcDbEntity
  8
M0
100
AcDbCircle
 10
99.478023
 20
477.217379
 40
0.526148
100
AcDbArc
 50
18.629246
 51
72.943922
  0
CIRCLE
  5
298
100
AcDbEntity
  8
M0
100
AcDbCircle
 10
95.841435
 20
487.7291
 40
3.0
  0
ARC
  5
299
100
AcDbEntity
  8
M0
100
AcDbCircle
 10
99.160445
 20
477.094045
 40
0.650762
100
AcDbArc
 50
108.768698
 51
160.088638
  0
ARC
  5
29A
100
AcDbEntity
  8
M0
100
AcDbCircle
 10
99.89897
 20
476.294059
 40
0.886144
100
AcDbArc
 50
292.42259
 51
346.150643
  0
CIRCLE
  5
29B
100
AcDbEntity
  8
M0
100
AcDbCircle
 10
95.841435
 20
459.5291
 40
3.0
  0
ARC
  5
29C
100
AcDbEntity
  8
M0
100
AcDbCircle
 10
99.307457
 20
477.062958
 40
1.481521
100
AcDbArc
 50
4.824937
 51
11.570943
  0
LINE
  5
29D
100
AcDbEntity
  8
M0
100
AcDbLine
 10
88.175273
 20
476.578348
 11
89.656795
 21
476.578348
  0
LINE
  5
29E
100
AcDbEntity
  8
M0
100
AcDbLine
 10
96.981329
 20
475.3599
 11
96.741026
 21
475.955278
  0
LINE
  5
29F
100
AcDbEntity
  8
M0
100
AcDbLine
 10
90.972165
 20
475.3599
 11
91.706002
 21
475.3599
  0
ARC
  5
2A0
100
AcDbEntity
  8
M0
100
AcDbCircle
 10
99.473608
 20
476.716807
 40
1.799979
100
AcDbArc
 50
161.72132
 51
190.751551
  0
ARC
  5
2A1
100
AcDbEntity
  8
M0
100
AcDbCircle
 10
98.947715
 20
476.890514
 40
1.246139
100
AcDbArc
 50
109.456972
 51
161.721309
  0
LINE
  5
2A2
100
AcDbEntity
  8
M0
100
AcDbLine
 10
100.783729
 20
477.187572
 11
100.013059
 21
477.187572
  0
LINE
  5
2A3
100
AcDbEntity
  8
M0
100
AcDbLine
 10
89.656795
 20
478.1291
 11
89.656795
 21
477.02142
  0
LINE
  5
2A4
100
AcDbEntity
  8
M0
100
AcDbLine
 10
96.503641
 20
478.1291
 11
95.603652
 21
478.1291
  0
LINE
  5
2A5
100
AcDbEntity
  8
M0
100
AcDbLine
 10
88.175273
 20
478.1291
 11
88.175273
 21
477.02142
  0
LINE
  5
2A6
100
AcDbEntity
  8
M0
100
AcDbLine
 10
95.545098
 20
476.39835
 11
96.053646
 21
477.658336
  0
LINE
  5
2A7
100
AcDbEntity
  8
M0
100
AcDbLine
 10
90.390633
 20
478.1291
 11
90.390633
 21
475.3599
  0
LINE
  5
2A8
100
AcDbEntity
  8
M0
100
AcDbLine
 10
94.309051
 20
475.3599
 11
95.125964
 21
475.3599
  0
LINE
  5
2A9
100
AcDbEntity
  8
M0
100
AcDbLine
 10
88.175273
 20
476.578348
 11
88.175273
 21
475.3599
  0
LINE
  5
2AA
100
AcDbEntity
  8
M0
100
AcDbLine
 10
101.176667
 20
475.3599
 11
101.910505
 21
475.3599
  0
LINE
  5
2AB
100
AcDbEntity
  8
M0
100
AcDbLine
 10
103.392027
 20
475.3599
 11
104.125864
 21
475.3599
  0
LINE
  5
2AC
100
AcDbEntity
  8
M0
100
AcDbLine
 10
89.656795
 20
476.578348
 11
89.656795
 21
475.3599
  0
TEXT
  5
2AD
100
AcDbEntity
  8
M0
100
AcDbText
 10
115.966429
 20
474.3291
 40
2.0
  1
ＯＦＦ
 41
0.625
  7
STANDARD
100
AcDbText
  0
LINE
  5
2AE
100
AcDbEntity
  8
M0
100
AcDbLine
 10
91.706002
 20
478.1291
 11
90.972165
 21
478.1291
  0
LINE
  5
2AF
100
AcDbEntity
  8
M0
100
AcDbLine
 10
89.656795
 20
477.02142
 11
88.175273
 21
477.02142
  0
TEXT
  5
2B0
100
AcDbEntity
  8
M0
100
AcDbText
 10
94.466429
 20
466.129103
 40
2.0
  1
Ｅ２
 41
0.625
  7
STANDARD
100
AcDbText
  0
LINE
  5
2B1
100
AcDbEntity
  8
M0
100
AcDbLine
 10
104.707396
 20
475.3599
 11
104.707396
 21
478.1291
  0
ARC
  5
2B2
100
AcDbEntity
  8
M0
100
AcDbCircle
 10
99.482207
 20
476.272922
 40
0.526148
100
AcDbArc
 50
287.487588
 51
334.356243
  0
ARC
  5
2B3
100
AcDbEntity
  8
M0
100
AcDbCircle
 10
98.956697
 20
476.618654
 40
1.273831
100
AcDbArc
 50
190.75155
 51
252.447271
  0
ARC
  5
2B4
100
AcDbEntity
  8
M0
100
AcDbCircle
 10
99.307457
 20
476.439888
 40
1.495367
100
AcDbArc
 50
346.150651
 51
356.815254
  0
TEXT
  5
2B5
100
AcDbEntity
  8
M0
100
AcDbText
 10
87.566428
 20
469.629103
 40
2.0
  1
ＣＯＮＴＡＣＴＯＲ
 41
0.625
  7
STANDARD
100
AcDbText
  0
TEXT
  5
2B6
100
AcDbEntity
  8
M0
100
AcDbText
 10
94.466429
 20
479.129101
 40
2.0
  1
Ｅ１
 41
0.625
  7
STANDARD
100
AcDbText
  0
ARC
  5
2B7
100
AcDbEntity
  8
M0
100
AcDbCircle
 10
99.307457
 20
477.727566
 40
2.436895
100
AcDbArc
 50
252.447278
 51
292.42262
  0
LINE
  5
2B8
100
AcDbEntity
  8
M0
100
AcDbLine
 10
125.941436
 20
490.629099
 11
125.941436
 21
480.829099
  0
LINE
  5
2B9
100
AcDbEntity
  8
M0
100
AcDbLine
 10
122.641436
 20
479.829099
 11
122.641436
 21
490.629099
  0
LINE
  5
2BA
100
AcDbEntity
  8
M0
100
AcDbLine
 10
125.941436
 20
480.829099
 11
128.441435
 21
480.829099
  0
LINE
  5
2BB
100
AcDbEntity
  8
M0
100
AcDbLine
 10
114.841435
 20
490.629099
 11
114.841435
 21
479.829099
  0
LINE
  5
2BC
100
AcDbEntity
  8
M0
100
AcDbLine
 10
91.941436
 20
483.629099
 11
99.741435
 21
483.629099
  0
LINE
  5
2BD
100
AcDbEntity
  8
M0
100
AcDbLine
 10
128.441435
 20
478.629099
 11
125.941436
 21
478.629099
  0
LINE
  5
2BE
100
AcDbEntity
  8
M0
100
AcDbLine
 10
114.841435
 20
479.829099
 11
122.641436
 21
479.829099
  0
LINE
  5
2BF
100
AcDbEntity
  8
M0
100
AcDbLine
 10
91.941436
 20
491.6291
 11
91.941436
 21
490.629099
  0
LINE
  5
2C0
100
AcDbEntity
  8
M0
100
AcDbLine
 10
99.741435
 20
490.629099
 11
99.741435
 21
491.6291
  0
LINE
  5
2C1
100
AcDbEntity
  8
M0
100
AcDbLine
 10
107.441435
 20
461.5291
 11
107.441435
 21
461.429099
  0
LINE
  5
2C2
100
AcDbEntity
  8
M0
100
AcDbLine
 10
130.441435
 20
479.829099
 11
130.441435
 21
479.629099
  0
LINE
  5
2C3
100
AcDbEntity
  8
M0
100
AcDbLine
 10
128.441435
 20
480.829099
 11
129.441435
 21
480.829099
  0
LINE
  5
2C4
100
AcDbEntity
  8
M0
100
AcDbLine
 10
109.341435
 20
461.5291
 11
109.341435
 21
461.429099
  0
LINE
  5
2C5
100
AcDbEntity
  8
M0
100
AcDbLine
 10
129.441435
 20
478.629099
 11
128.441435
 21
478.629099
  0
ARC
  5
2C6
100
AcDbEntity
  8
M0
100
AcDbCircle
 10
104.241435
 20
460.9291
 40
0.5
100
AcDbArc
 50
90.0
 51
180.0
  0
ARC
  5
2C7
100
AcDbEntity
  8
M0
100
AcDbCircle
 10
129.441435
 20
479.6291
 40
1.0
100
AcDbArc
 50
270.0
 51
360.0
  0
LINE
  5
2C8
100
AcDbEntity
  8
M0
100
AcDbLine
 10
122.491435
 20
487.1791
 11
122.491435
 21
480.6791
  0
ARC
  5
2C9
100
AcDbEntity
  8
M0
100
AcDbCircle
 10
124.941435
 20
490.6291
 40
1.0
100
AcDbArc
 50
0.0
 51
90.0
  0
ARC
  5
2CA
100
AcDbEntity
  8
M0
100
AcDbCircle
 10
125.941435
 20
478.1291
 40
0.5
100
AcDbArc
 50
90.0
 51
180.0
  0
ARC
  5
2CB
100
AcDbEntity
  8
M0
100
AcDbCircle
 10
104.241435
 20
458.0291
 40
0.5
100
AcDbArc
 50
180.0
 51
270.0
  0
ARC
  5
2CC
100
AcDbEntity
  8
M0
100
AcDbCircle
 10
129.441435
 20
479.8291
 40
1.0
100
AcDbArc
 50
0.0
 51
90.0
  0
LINE
  5
2CD
100
AcDbEntity
  8
M0
100
AcDbLine
 10
83.441435
 20
491.6291
 11
129.441435
 21
491.6291
  0
LINE
  5
2CE
100
AcDbEntity
  8
M0
100
AcDbLine
 10
83.441435
 20
476.8291
 11
82.941436
 21
476.8291
  0
LINE
  5
2CF
100
AcDbEntity
  8
M0
100
AcDbLine
 10
99.741435
 20
483.629099
 11
99.741435
 21
490.629099
  0
LINE
  5
2D0
100
AcDbEntity
  8
M0
100
AcDbLine
 10
115.491435
 20
487.6791
 11
121.991435
 21
487.6791
  0
LINE
  5
2D1
100
AcDbEntity
  8
M0
100
AcDbLine
 10
121.991435
 20
480.179099
 11
115.491435
 21
480.179099
  0
LINE
  5
2D2
100
AcDbEntity
  8
M0
100
AcDbLine
 10
91.941436
 20
490.629099
 11
91.941436
 21
483.629099
  0
LINE
  5
2D3
100
AcDbEntity
  8
M0
100
AcDbLine
 10
130.441435
 20
473.6291
 11
130.404393
 21
473.6291
  0
LINE
  5
2D4
100
AcDbEntity
  8
M0
100
AcDbLine
 10
92.591435
 20
491.4791
 11
99.091435
 21
491.4791
  0
ARC
  5
2D5
100
AcDbEntity
  8
M0
100
AcDbCircle
 10
115.491435
 20
460.0791
 40
0.5
100
AcDbArc
 50
180.0
 51
270.0
  0
LINE
  5
2D6
100
AcDbEntity
  8
M0
100
AcDbLine
 10
99.091435
 20
455.7791
 11
92.591435
 21
455.7791
  0
ARC
  5
2D7
100
AcDbEntity
  8
M0
100
AcDbCircle
 10
99.091435
 20
462.7791
 40
0.5
100
AcDbArc
 50
0.0
 51
90.0
  0
ARC
  5
2D8
100
AcDbEntity
  8
M0
100
AcDbCircle
 10
99.091435
 20
456.2791
 40
0.5
100
AcDbArc
 50
270.0
 51
360.0
  0
LINE
  5
2D9
100
AcDbEntity
  8
M0
100
AcDbLine
 10
92.091435
 20
456.2791
 11
92.091435
 21
462.779099
  0
ARC
  5
2DA
100
AcDbEntity
  8
M0
100
AcDbCircle
 10
115.491435
 20
466.5791
 40
0.5
100
AcDbArc
 50
90.0
 51
180.0
  0
LINE
  5
2DB
100
AcDbEntity
  8
M0
100
AcDbLine
 10
92.091435
 20
484.4791
 11
92.091435
 21
490.9791
  0
ARC
  5
2DC
100
AcDbEntity
  8
M0
100
AcDbCircle
 10
92.591435
 20
490.9791
 40
0.5
100
AcDbArc
 50
90.0
 51
180.0
  0
LINE
  5
2DD
100
AcDbEntity
  8
M0
100
AcDbLine
 10
99.591435
 20
490.9791
 11
99.591435
 21
484.4791
  0
LINE
  5
2DE
100
AcDbEntity
  8
M0
100
AcDbLine
 10
92.591435
 20
463.2791
 11
99.091435
 21
463.2791
  0
LINE
  5
2DF
100
AcDbEntity
  8
M0
100
AcDbLine
 10
99.591435
 20
462.7791
 11
99.591435
 21
456.279101
  0
LINE
  5
2E0
100
AcDbEntity
  8
M0
100
AcDbLine
 10
99.091435
 20
483.979099
 11
92.591435
 21
483.979099
  0
ARC
  5
2E1
100
AcDbEntity
  8
M0
100
AcDbCircle
 10
92.591435
 20
484.4791
 40
0.5
100
AcDbArc
 50
180.0
 51
270.0
  0
ARC
  5
2E2
100
AcDbEntity
  8
M0
100
AcDbCircle
 10
115.491435
 20
487.1791
 40
0.5
100
AcDbArc
 50
90.0
 51
180.0
  0
ARC
  5
2E3
100
AcDbEntity
  8
M0
100
AcDbCircle
 10
115.491435
 20
480.6791
 40
0.5
100
AcDbArc
 50
180.0
 51
270.0
  0
LINE
  5
2E4
100
AcDbEntity
  8
M0
100
AcDbLine
 10
121.991435
 20
459.579101
 11
115.491436
 21
459.579101
  0
ARC
  5
2E5
100
AcDbEntity
  8
M0
100
AcDbCircle
 10
121.991435
 20
460.0791
 40
0.5
100
AcDbArc
 50
270.0
 51
360.0
  0
LINE
  5
2E6
100
AcDbEntity
  8
M0
100
AcDbLine
 10
109.341435
 20
461.429099
 11
109.341435
 21
459.629098
  0
LINE
  5
2E7
100
AcDbEntity
  8
M0
100
AcDbLine
 10
114.991436
 20
460.079098
 11
114.991436
 21
466.5791
  0
ARC
  5
2E8
100
AcDbEntity
  8
M0
100
AcDbCircle
 10
121.991435
 20
466.5791
 40
0.5
100
AcDbArc
 50
0.0
 51
90.0
  0
ARC
  5
2E9
100
AcDbEntity
  8
M0
100
AcDbCircle
 10
99.091435
 20
484.4791
 40
0.5
100
AcDbArc
 50
270.0
 51
360.0
  0
ARC
  5
2EA
100
AcDbEntity
  8
M0
100
AcDbCircle
 10
99.091435
 20
490.9791
 40
0.5
100
AcDbArc
 50
0.0
 51
90.0
  0
ARC
  5
2EB
100
AcDbEntity
  8
M0
100
AcDbCircle
 10
92.591435
 20
462.7791
 40
0.5
100
AcDbArc
 50
90.0
 51
180.0
  0
LINE
  5
2EC
100
AcDbEntity
  8
M0
100
AcDbLine
 10
122.491435
 20
466.5791
 11
122.491435
 21
460.079098
  0
LINE
  5
2ED
100
AcDbEntity
  8
M0
100
AcDbLine
 10
115.491435
 20
467.079099
 11
121.991435
 21
467.079099
  0
ARC
  5
2EE
100
AcDbEntity
  8
M0
100
AcDbCircle
 10
92.591435
 20
456.2791
 40
0.5
100
AcDbArc
 50
180.0
 51
270.0
  0
LINE
  5
2EF
100
AcDbEntity
  8
M0
100
AcDbLine
 10
122.641436
 20
488.8291
 11
114.841435
 21
488.8291
  0
LINE
  5
2F0
100
AcDbEntity
  8
M0
100
AcDbLine
 10
109.341435
 20
458.029101
 11
109.341435
 21
458.529098
  0
LINE
  5
2F1
100
AcDbEntity
  8
M0
100
AcDbLine
 10
82.441435
 20
456.629099
 11
82.441435
 21
463.129099
  0
LINE
  5
2F2
100
AcDbEntity
  8
M0
100
AcDbLine
 10
104.241435
 20
461.429099
 11
108.841435
 21
461.429099
  0
LINE
  5
2F3
100
AcDbEntity
  8
M0
100
AcDbLine
 10
108.841435
 20
457.5291
 11
104.241435
 21
457.5291
  0
LINE
  5
2F4
100
AcDbEntity
  8
M0
100
AcDbLine
 10
109.641435
 20
461.329099
 11
109.641435
 21
459.629098
  0
LINE
  5
2F5
100
AcDbEntity
  8
M0
100
AcDbLine
 10
109.341435
 20
460.9291
 11
109.341435
 21
458.529098
  0
LINE
  5
2F6
100
AcDbEntity
  8
M0
100
AcDbLine
 10
82.941436
 20
470.4291
 11
83.441435
 21
470.4291
  0
LINE
  5
2F7
100
AcDbEntity
  8
M0
100
AcDbLine
 10
130.441435
 20
490.6291
 11
130.441435
 21
456.629099
  0
LINE
  5
2F8
100
AcDbEntity
  8
M0
100
AcDbLine
 10
83.441435
 20
470.4291
 11
83.441435
 21
476.8291
  0
LINE
  5
2F9
100
AcDbEntity
  8
M0
100
AcDbLine
 10
109.641435
 20
457.1291
 11
103.741435
 21
457.1291
  0
LINE
  5
2FA
100
AcDbEntity
  8
M0
100
AcDbLine
 10
85.941435
 20
455.629101
 11
83.441435
 21
455.629101
  0
LINE
  5
2FB
100
AcDbEntity
  8
M0
100
AcDbLine
 10
82.441435
 20
456.629099
 11
82.441435
 21
490.6291
  0
LINE
  5
2FC
100
AcDbEntity
  8
M0
100
AcDbLine
 10
130.404393
 20
473.6291
 11
130.441435
 21
473.6291
  0
ARC
  5
2FD
100
AcDbEntity
  8
M0
100
AcDbCircle
 10
90.941435
 20
456.6291
 40
1.0
100
AcDbArc
 50
270.0
 51
360.0
  0
ARC
  5
2FE
100
AcDbEntity
  8
M0
100
AcDbCircle
 10
83.441435
 20
456.6291
 40
1.0
100
AcDbArc
 50
180.0
 51
270.0
  0
ARC
  5
2FF
100
AcDbEntity
  8
M0
100
AcDbCircle
 10
102.741435
 20
456.6291
 40
1.0
100
AcDbArc
 50
270.0
 51
360.0
  0
ARC
  5
300
100
AcDbEntity
  8
M0
100
AcDbCircle
 10
129.441435
 20
456.6291
 40
1.0
100
AcDbArc
 50
270.0
 51
360.0
  0
ARC
  5
301
100
AcDbEntity
  8
M0
100
AcDbCircle
 10
99.307457
 20
475.872202
 40
2.326127
100
AcDbArc
 50
66.454301
 51
109.456969
  0
ARC
  5
302
100
AcDbEntity
  8
M0
100
AcDbCircle
 10
100.741435
 20
456.6291
 40
1.0
100
AcDbArc
 50
180.0
 51
270.0
  0
ARC
  5
303
100
AcDbEntity
  8
M0
100
AcDbCircle
 10
82.941435
 20
469.9291
 40
0.5
100
AcDbArc
 50
90.0
 51
180.0
  0
ARC
  5
304
100
AcDbEntity
  8
M0
100
AcDbCircle
 10
125.941435
 20
469.1291
 40
0.5
100
AcDbArc
 50
180.0
 51
270.0
  0
ARC
  5
305
100
AcDbEntity
  8
M0
100
AcDbCircle
 10
124.941435
 20
456.6291
 40
1.0
100
AcDbArc
 50
270.0
 51
360.0
  0
ARC
  5
306
100
AcDbEntity
  8
M0
100
AcDbCircle
 10
129.441435
 20
467.6291
 40
1.0
100
AcDbArc
 50
0.0
 51
90.0
  0
ARC
  5
307
100
AcDbEntity
  8
M0
100
AcDbCircle
 10
113.841435
 20
456.6291
 40
1.0
100
AcDbArc
 50
270.0
 51
360.0
  0
ARC
  5
308
100
AcDbEntity
  8
M0
100
AcDbCircle
 10
110.641435
 20
456.6291
 40
1.0
100
AcDbArc
 50
180.0
 51
270.0
  0
ARC
  5
309
100
AcDbEntity
  8
M0
100
AcDbCircle
 10
129.441435
 20
467.4291
 40
1.0
100
AcDbArc
 50
270.0
 51
360.0
  0
ARC
  5
30A
100
AcDbEntity
  8
M0
100
AcDbCircle
 10
123.641435
 20
456.6291
 40
1.0
100
AcDbArc
 50
180.0
 51
270.0
  0
ARC
  5
30B
100
AcDbEntity
  8
M0
100
AcDbCircle
 10
121.991435
 20
480.6791
 40
0.5
100
AcDbArc
 50
270.0
 51
360.0
  0
LINE
  5
30C
100
AcDbEntity
  8
M0
100
AcDbLine
 10
129.904394
 20
468.829099
 11
125.541434
 21
468.829099
  0
ARC
  5
30D
100
AcDbEntity
  8
M0
100
AcDbCircle
 10
129.441435
 20
490.6291
 40
1.0
100
AcDbArc
 50
0.0
 51
90.0
  0
LINE
  5
30E
100
AcDbEntity
  8
M0
100
AcDbLine
 10
128.441435
 20
466.429099
 11
129.441435
 21
466.429099
  0
LINE
  5
30F
100
AcDbEntity
  8
M0
100
AcDbLine
 10
130.441435
 20
467.629099
 11
130.441435
 21
467.4291
  0
ARC
  5
310
100
AcDbEntity
  8
M0
100
AcDbCircle
 10
121.991435
 20
487.1791
 40
0.5
100
AcDbArc
 50
0.0
 51
90.0
  0
LINE
  5
311
100
AcDbEntity
  8
M0
100
AcDbLine
 10
128.441435
 20
468.629099
 11
129.441435
 21
468.629099
  0
ARC
  5
312
100
AcDbEntity
  8
M0
100
AcDbCircle
 10
113.841435
 20
490.6291
 40
1.0
100
AcDbArc
 50
0.0
 51
90.0
  0
ARC
  5
313
100
AcDbEntity
  8
M0
100
AcDbCircle
 10
100.741435
 20
490.6291
 40
1.0
100
AcDbArc
 50
90.0
 51
180.0
  0
LINE
  5
314
100
AcDbEntity
  8
M0
100
AcDbLine
 10
114.991436
 20
480.679099
 11
114.991436
 21
487.1791
  0
ARC
  5
315
100
AcDbEntity
  8
M0
100
AcDbCircle
 10
83.441435
 20
490.6291
 40
1.0
100
AcDbArc
 50
90.0
 51
180.0
  0
ARC
  5
316
100
AcDbEntity
  8
M0
100
AcDbCircle
 10
82.941435
 20
477.3291
 40
0.5
100
AcDbArc
 50
180.0
 51
270.0
  0
ARC
  5
317
100
AcDbEntity
  8
M0
100
AcDbCircle
 10
123.641435
 20
490.6291
 40
1.0
100
AcDbArc
 50
90.0
 51
180.0
  0
ARC
  5
318
100
AcDbEntity
  8
M0
100
AcDbCircle
 10
90.941435
 20
490.6291
 40
1.0
100
AcDbArc
 50
0.0
 51
90.0
  0
LINE
  5
319
100
AcDbEntity
  8
M0
100
AcDbLine
 10
103.741435
 20
461.5291
 11
103.741435
 21
456.629099
  0
LINE
  5
31A
100
AcDbEntity
  8
M0
100
AcDbLine
 10
99.741435
 20
456.629099
 11
99.741435
 21
463.629099
  0
LINE
  5
31B
100
AcDbEntity
  8
M0
100
AcDbLine
 10
109.641435
 20
456.629099
 11
109.641435
 21
461.5291
  0
LINE
  5
31C
100
AcDbEntity
  8
M0
100
AcDbLine
 10
91.941436
 20
463.629099
 11
91.941436
 21
456.629099
  0
LINE
  5
31D
100
AcDbEntity
  8
M0
100
AcDbLine
 10
129.441435
 20
455.629101
 11
83.441435
 21
455.629101
  0
LINE
  5
31E
100
AcDbEntity
  8
M0
100
AcDbLine
 10
109.641435
 20
461.5291
 11
103.741435
 21
461.5291
  0
LINE
  5
31F
100
AcDbEntity
  8
M0
100
AcDbLine
 10
99.741435
 20
463.629099
 11
91.941436
 21
463.629099
  0
LINE
  5
320
100
AcDbEntity
  8
M0
100
AcDbLine
 10
125.941436
 20
466.429099
 11
125.941436
 21
456.629099
  0
LINE
  5
321
100
AcDbEntity
  8
M0
100
AcDbLine
 10
125.441435
 20
478.1291
 11
125.441435
 21
469.129099
  0
LINE
  5
322
100
AcDbEntity
  8
M0
100
AcDbLine
 10
128.441435
 20
466.429099
 11
125.941436
 21
466.429099
  0
LINE
  5
323
100
AcDbEntity
  8
M0
100
AcDbLine
 10
122.641436
 20
467.4291
 11
114.841435
 21
467.4291
  0
LINE
  5
324
100
AcDbEntity
  8
M0
100
AcDbLine
 10
114.841435
 20
467.4291
 11
114.841435
 21
456.629099
  0
LINE
  5
325
100
AcDbEntity
  8
M0
100
AcDbLine
 10
125.941436
 20
468.629099
 11
128.441435
 21
468.629099
  0
LINE
  5
326
100
AcDbEntity
  8
M0
100
AcDbLine
 10
122.641436
 20
456.629099
 11
122.641436
 21
467.4291
  0
LINE
  5
327
100
AcDbEntity
  8
M0
100
AcDbLine
 10
85.941435
 20
482.1291
 11
112.941435
 21
482.1291
  0
LINE
  5
328
100
AcDbEntity
  8
M0
100
AcDbLine
 10
85.441435
 20
481.6291
 11
85.441435
 21
465.6291
  0
LINE
  5
329
100
AcDbEntity
  8
M0
100
AcDbLine
 10
85.941435
 20
465.1291
 11
112.941435
 21
465.1291
  0
LINE
  5
32A
100
AcDbEntity
  8
M0
100
AcDbLine
 10
123.441435
 20
469.6291
 11
123.441435
 21
477.6291
  0
LINE
  5
32B
100
AcDbEntity
  8
M0
100
AcDbLine
 10
122.941435
 20
469.1291
 11
113.941435
 21
469.1291
  0
LINE
  5
32C
100
AcDbEntity
  8
M0
100
AcDbLine
 10
122.941435
 20
478.1291
 11
113.941435
 21
478.1291
  0
LINE
  5
32D
100
AcDbEntity
  8
M0
100
AcDbLine
 10
113.441435
 20
465.6291
 11
113.441435
 21
468.6291
  0
LINE
  5
32E
100
AcDbEntity
  8
M0
100
AcDbLine
 10
113.441435
 20
478.6291
 11
113.441435
 21
481.6291
  0
ARC
  5
32F
100
AcDbEntity
  8
M0
100
AcDbCircle
 10
85.941435
 20
481.6291
 40
0.5
100
AcDbArc
 50
90.0
 51
180.0
  0
ARC
  5
330
100
AcDbEntity
  8
M0
100
AcDbCircle
 10
112.941435
 20
481.6291
 40
0.5
100
AcDbArc
 50
0.0
 51
90.0
  0
ARC
  5
331
100
AcDbEntity
  8
M0
100
AcDbCircle
 10
113.941435
 20
478.6291
 40
0.5
100
AcDbArc
 50
180.0
 51
270.0
  0
ARC
  5
332
100
AcDbEntity
  8
M0
100
AcDbCircle
 10
122.941435
 20
477.6291
 40
0.5
100
AcDbArc
 50
0.0
 51
90.0
  0
ARC
  5
333
100
AcDbEntity
  8
M0
100
AcDbCircle
 10
122.941435
 20
469.6291
 40
0.5
100
AcDbArc
 50
270.0
 51
360.0
  0
ARC
  5
334
100
AcDbEntity
  8
M0
100
AcDbCircle
 10
113.941435
 20
468.6291
 40
0.5
100
AcDbArc
 50
90.0
 51
180.0
  0
ARC
  5
335
100
AcDbEntity
  8
M0
100
AcDbCircle
 10
112.941435
 20
465.6291
 40
0.5
100
AcDbArc
 50
270.0
 51
360.0
  0
ARC
  5
336
100
AcDbEntity
  8
M0
100
AcDbCircle
 10
85.941435
 20
465.6291
 40
0.5
100
AcDbArc
 50
180.0
 51
270.0
  0
HATCH
  5
337
100
AcDbEntity
  8
M0
 62
     7
100
AcDbHatch
 10
0.0
 20
0.0
210
0.0
220
0.0
230
1.0
  2
SOLID
 70
     1
 71
     0
 91
        1
 92
        1
 93
        8
 72
     1
 10
93.82444
 20
475.3599
 11
93.82444
 21
477.658336
 72
     1
 10
93.82444
 20
477.658336
 11
94.945967
 21
477.658336
 72
     1
 10
94.945967
 20
477.658336
 11
94.945967
 21
478.1291
 72
     1
 10
94.945967
 20
478.1291
 11
91.969077
 21
478.1291
 72
     1
 10
91.969077
 20
478.1291
 11
91.969077
 21
477.658336
 72
     1
 10
91.969077
 20
477.658336
 11
93.090602
 21
477.658336
 72
     1
 10
93.090602
 20
477.658336
 11
93.090602
 21
475.3599
 72
     1
 10
93.090602
 20
475.3599
 11
93.82444
 21
475.3599
 97
        0
 75
     0
 76
     1
 98
        1
 10
0.0
 20
0.0
  0
HATCH
  5
338
100
AcDbEntity
  8
M0
 62
     7
100
AcDbHatch
 10
0.0
 20
0.0
210
0.0
220
0.0
230
1.0
  2
SOLID
 70
     1
 71
     0
 91
        1
 92
        1
 93
       20
 72
     2
 10
186.207455
 20
477.727566
 40
2.436895
 50
252.447306
 51
292.422669
 73
     1
 72
     2
 10
186.798968
 20
476.294059
 40
0.886144
 50
292.422669
 51
346.150662
 73
     1
 72
     2
 10
186.207455
 20
476.439888
 40
1.495367
 50
346.150662
 51
356.81526
 73
     1
 72
     1
 10
187.700513
 20
476.356812
 11
186.927447
 21
476.356812
 72
     2
 10
186.207455
 20
476.356812
 40
0.719992
 50
0.0
 51
25.643738
 73
     0
 72
     2
 10
186.382205
 20
476.272922
 40
0.526148
 50
25.643738
 51
72.512342
 73
     0
 72
     2
 10
186.207455
 20
476.827576
 40
1.10768
 50
72.512342
 51
111.534322
 73
     0
 72
     2
 10
186.039739
 20
476.402552
 40
0.650762
 50
111.534322
 51
163.518484
 73
     0
 72
     2
 10
187.101906
 20
476.716807
 40
1.758441
 50
163.518484
 51
199.911347
 73
     0
 72
     2
 10
186.060442
 20
477.094045
 40
0.650762
 50
199.911347
 51
251.231339
 73
     0
 72
     2
 10
186.207455
 20
476.661424
 40
1.10768
 50
251.231339
 51
287.055921
 73
     0
 72
     2
 10
186.378021
 20
477.217379
 40
0.526148
 50
287.055921
 51
341.370551
 73
     0
 72
     2
 10
186.207455
 20
477.15988
 40
0.706146
 50
341.370551
 51
357.752539
 73
     0
 72
     1
 10
186.913058
 20
477.187572
 11
187.683726
 21
477.187572
 72
     2
 10
186.207455
 20
477.062958
 40
1.481521
 50
4.824977
 51
11.570993
 73
     1
 72
     2
 10
186.777168
 20
477.179602
 40
0.89999
 50
11.570993
 51
66.454336
 73
     1
 72
     2
 10
186.207455
 20
475.872202
 40
2.326127
 50
66.454336
 51
109.456965
 73
     1
 72
     2
 10
185.847712
 20
476.890514
 40
1.246139
 50
109.456965
 51
161.721239
 73
     1
 72
     2
 10
186.373606
 20
476.716807
 40
1.799979
 50
161.721239
 51
190.751611
 73
     1
 72
     2
 10
185.856694
 20
476.618654
 40
1.273831
 50
190.751611
 51
252.447306
 73
     1
 97
        0
 75
     0
 76
     1
 98
        1
 10
0.0
 20
0.0
  0
HATCH
  5
339
100
AcDbEntity
  8
M0
 62
     7
100
AcDbHatch
 10
0.0
 20
0.0
210
0.0
220
0.0
230
1.0
  2
SOLID
 70
     1
 71
     0
 91
        2
 92
        1
 93
        8
 72
     1
 10
182.266265
 20
475.955278
 11
183.641023
 21
475.955278
 72
     1
 10
183.641023
 20
475.955278
 11
183.881326
 21
475.3599
 72
     1
 10
183.881326
 20
475.3599
 11
184.69824
 21
475.3599
 72
     1
 10
184.69824
 20
475.3599
 11
183.403639
 21
478.1291
 72
     1
 10
183.403639
 20
478.1291
 11
182.50365
 21
478.1291
 72
     1
 10
182.50365
 20
478.1291
 11
181.209049
 21
475.3599
 72
     1
 10
181.209049
 20
475.3599
 11
182.025962
 21
475.3599
 72
     1
 10
182.025962
 20
475.3599
 11
182.266265
 21
475.955278
 97
        0
 92
       16
 93
        3
 72
     1
 10
182.953644
 20
477.658336
 11
182.445095
 21
476.39835
 72
     1
 10
182.445095
 20
476.39835
 11
183.462193
 21
476.39835
 72
     1
 10
183.462193
 20
476.39835
 11
182.953644
 21
477.658336
 97
        0
 75
     0
 76
     1
 98
        1
 10
0.0
 20
0.0
  0
HATCH
  5
33A
100
AcDbEntity
  8
M0
 62
     7
100
AcDbHatch
 10
0.0
 20
0.0
210
0.0
220
0.0
230
1.0
  2
SOLID
 70
     1
 71
     0
 91
        1
 92
        1
 93
        7
 72
     1
 10
116.441435
 20
472.521014
 11
113.441435
 21
471.429103
 72
     1
 10
113.441435
 20
471.429103
 11
116.441435
 21
470.337192
 72
     1
 10
116.441435
 20
470.337192
 11
116.441435
 21
470.929103
 72
     1
 10
116.441435
 20
470.929103
 11
122.441435
 21
470.929103
 72
     1
 10
122.441435
 20
470.929103
 11
122.441435
 21
471.929103
 72
     1
 10
122.441435
 20
471.929103
 11
116.441435
 21
471.929103
 72
     1
 10
116.441435
 20
471.929103
 11
116.441435
 21
472.521014
 97
        0
 75
     0
 76
     1
 98
        1
 10
0.0
 20
0.0
  0
HATCH
  5
33B
100
AcDbEntity
  8
M0
 62
     7
100
AcDbHatch
 10
0.0
 20
0.0
210
0.0
220
0.0
230
1.0
  2
SOLID
 70
     1
 71
     0
 91
        1
 92
        1
 93
       12
 72
     1
 10
88.175273
 20
475.3599
 11
88.175273
 21
476.578348
 72
     1
 10
88.175273
 20
476.578348
 11
89.656795
 21
476.578348
 72
     1
 10
89.656795
 20
476.578348
 11
89.656795
 21
475.3599
 72
     1
 10
89.656795
 20
475.3599
 11
90.390633
 21
475.3599
 72
     1
 10
90.390633
 20
475.3599
 11
90.390633
 21
478.1291
 72
     1
 10
90.390633
 20
478.1291
 11
89.656795
 21
478.1291
 72
     1
 10
89.656795
 20
478.1291
 11
89.656795
 21
477.02142
 72
     1
 10
89.656795
 20
477.02142
 11
88.175273
 21
477.02142
 72
     1
 10
88.175273
 20
477.02142
 11
88.175273
 21
478.1291
 72
     1
 10
88.175273
 20
478.1291
 11
87.441435
 21
478.1291
 72
     1
 10
87.441435
 20
478.1291
 11
87.441435
 21
475.3599
 72
     1
 10
87.441435
 20
475.3599
 11
88.175273
 21
475.3599
 97
        0
 75
     0
 76
     1
 98
        1
 10
0.0
 20
0.0
  0
HATCH
  5
33C
100
AcDbEntity
  8
M0
 62
     7
100
AcDbHatch
 10
0.0
 20
0.0
210
0.0
220
0.0
230
1.0
  2
SOLID
 70
     1
 71
     0
 91
        2
 92
        1
 93
        8
 72
     1
 10
95.366267
 20
475.955278
 11
96.741026
 21
475.955278
 72
     1
 10
96.741026
 20
475.955278
 11
96.981329
 21
475.3599
 72
     1
 10
96.981329
 20
475.3599
 11
97.798242
 21
475.3599
 72
     1
 10
97.798242
 20
475.3599
 11
96.503641
 21
478.1291
 72
     1
 10
96.503641
 20
478.1291
 11
95.603652
 21
478.1291
 72
     1
 10
95.603652
 20
478.1291
 11
94.309051
 21
475.3599
 72
     1
 10
94.309051
 20
475.3599
 11
95.125964
 21
475.3599
 72
     1
 10
95.125964
 20
475.3599
 11
95.366267
 21
475.955278
 97
        0
 92
       16
 93
        3
 72
     1
 10
96.053646
 20
477.658336
 11
95.545098
 21
476.39835
 72
     1
 10
95.545098
 20
476.39835
 11
96.562195
 21
476.39835
 72
     1
 10
96.562195
 20
476.39835
 11
96.053646
 21
477.658336
 97
        0
 75
     0
 76
     1
 98
        1
 10
0.0
 20
0.0
  0
HATCH
  5
33D
100
AcDbEntity
  8
M0
 62
     7
100
AcDbHatch
 10
0.0
 20
0.0
210
0.0
220
0.0
230
1.0
  2
SOLID
 70
     1
 71
     0
 91
        1
 92
        1
 93
       20
 72
     2
 10
99.307457
 20
477.727566
 40
2.436895
 50
252.447306
 51
292.422669
 73
     1
 72
     2
 10
99.89897
 20
476.294059
 40
0.886144
 50
292.422669
 51
346.150662
 73
     1
 72
     2
 10
99.307457
 20
476.439888
 40
1.495367
 50
346.150662
 51
356.81526
 73
     1
 72
     1
 10
100.800515
 20
476.356812
 11
100.027449
 21
476.356812
 72
     2
 10
99.307457
 20
476.356812
 40
0.719992
 50
0.0
 51
25.643738
 73
     0
 72
     2
 10
99.482207
 20
476.272922
 40
0.526148
 50
25.643738
 51
72.512342
 73
     0
 72
     2
 10
99.307457
 20
476.827576
 40
1.10768
 50
72.512342
 51
111.534322
 73
     0
 72
     2
 10
99.139741
 20
476.402552
 40
0.650762
 50
111.534322
 51
163.518484
 73
     0
 72
     2
 10
100.201908
 20
476.716807
 40
1.758441
 50
163.518484
 51
199.911347
 73
     0
 72
     2
 10
99.160445
 20
477.094045
 40
0.650762
 50
199.911347
 51
251.231339
 73
     0
 72
     2
 10
99.307457
 20
476.661424
 40
1.10768
 50
251.231339
 51
287.055921
 73
     0
 72
     2
 10
99.478023
 20
477.217379
 40
0.526148
 50
287.055921
 51
341.370551
 73
     0
 72
     2
 10
99.307457
 20
477.15988
 40
0.706146
 50
341.370551
 51
357.752539
 73
     0
 72
     1
 10
100.01306
 20
477.187572
 11
100.783728
 21
477.187572
 72
     2
 10
99.307457
 20
477.062958
 40
1.481521
 50
4.824977
 51
11.570993
 73
     1
 72
     2
 10
99.87717
 20
477.179602
 40
0.89999
 50
11.570993
 51
66.454336
 73
     1
 72
     2
 10
99.307457
 20
475.872202
 40
2.326127
 50
66.454336
 51
109.456965
 73
     1
 72
     2
 10
98.947715
 20
476.890514
 40
1.246139
 50
109.456965
 51
161.721239
 73
     1
 72
     2
 10
99.473608
 20
476.716807
 40
1.799979
 50
161.721239
 51
190.751611
 73
     1
 72
     2
 10
98.956697
 20
476.618654
 40
1.273831
 50
190.751611
 51
252.447306
 73
     1
 97
        0
 75
     0
 76
     1
 98
        1
 10
0.0
 20
0.0
  0
HATCH
  5
33E
100
AcDbEntity
  8
M0
 62
     7
100
AcDbHatch
 10
0.0
 20
0.0
210
0.0
220
0.0
230
1.0
  2
SOLID
 70
     1
 71
     0
 91
        1
 92
        1
 93
        4
 72
     1
 10
91.706002
 20
475.3599
 11
91.706002
 21
478.1291
 72
     1
 10
91.706002
 20
478.1291
 11
90.972165
 21
478.1291
 72
     1
 10
90.972165
 20
478.1291
 11
90.972165
 21
475.3599
 72
     1
 10
90.972165
 20
475.3599
 11
91.706002
 21
475.3599
 97
        0
 75
     0
 76
     1
 98
        1
 10
0.0
 20
0.0
  0
HATCH
  5
33F
100
AcDbEntity
  8
M0
 62
     7
100
AcDbHatch
 10
0.0
 20
0.0
210
0.0
220
0.0
230
1.0
  2
SOLID
 70
     1
 71
     0
 91
        1
 92
        1
 93
       12
 72
     1
 10
101.910505
 20
475.3599
 11
101.910505
 21
476.578348
 72
     1
 10
101.910505
 20
476.578348
 11
103.392027
 21
476.578348
 72
     1
 10
103.392027
 20
476.578348
 11
103.392027
 21
475.3599
 72
     1
 10
103.392027
 20
475.3599
 11
104.125864
 21
475.3599
 72
     1
 10
104.125864
 20
475.3599
 11
104.125864
 21
478.1291
 72
     1
 10
104.125864
 20
478.1291
 11
103.392027
 21
478.1291
 72
     1
 10
103.392027
 20
478.1291
 11
103.392027
 21
477.02142
 72
     1
 10
103.392027
 20
477.02142
 11
101.910505
 21
477.02142
 72
     1
 10
101.910505
 20
477.02142
 11
101.910505
 21
478.1291
 72
     1
 10
101.910505
 20
478.1291
 11
101.176667
 21
478.1291
 72
     1
 10
101.176667
 20
478.1291
 11
101.176667
 21
475.3599
 72
     1
 10
101.176667
 20
475.3599
 11
101.910505
 21
475.3599
 97
        0
 75
     0
 76
     1
 98
        1
 10
0.0
 20
0.0
  0
HATCH
  5
340
100
AcDbEntity
  8
M0
 62
     7
100
AcDbHatch
 10
0.0
 20
0.0
210
0.0
220
0.0
230
1.0
  2
SOLID
 70
     1
 71
     0
 91
        1
 92
        1
 93
        4
 72
     1
 10
283.240715
 20
490.629089
 11
281.240715
 21
490.629089
 72
     1
 10
281.240715
 20
490.629089
 11
281.240715
 21
456.62909
 72
     1
 10
281.240715
 20
456.62909
 11
283.240715
 21
456.62909
 72
     1
 10
283.240715
 20
456.62909
 11
283.240715
 21
490.629089
 97
        0
 75
     0
 76
     1
 98
        1
 10
0.0
 20
0.0
  0
LINE
  5
341
100
AcDbEntity
  8
M0
  6
DASHED
 62
     7
100
AcDbLine
 10
294.340715
 20
489.15409
 11
294.340715
 21
486.30409
  0
LINE
  5
342
100
AcDbEntity
  8
M0
  6
DASHED
 62
     7
100
AcDbLine
 10
295.340715
 20
491.55409
 11
294.340715
 21
491.55409
  0
LINE
  5
343
100
AcDbEntity
  8
M0
  6
DASHED
 62
     7
100
AcDbLine
 10
294.340715
 20
491.55409
 11
294.340715
 21
483.90409
  0
LINE
  5
344
100
AcDbEntity
  8
M0
  6
DASHED
 62
     7
100
AcDbLine
 10
294.340715
 20
464.754091
 11
294.340715
 21
461.904091
  0
HATCH
  5
345
100
AcDbEntity
  8
M0
 62
     7
100
AcDbHatch
 10
0.0
 20
0.0
210
0.0
220
0.0
230
1.0
  2
SOLID
 70
     1
 71
     0
 91
        1
 92
        1
 93
       12
 72
     1
 10
188.810502
 20
475.3599
 11
188.810502
 21
476.578348
 72
     1
 10
188.810502
 20
476.578348
 11
190.292024
 21
476.578348
 72
     1
 10
190.292024
 20
476.578348
 11
190.292024
 21
475.3599
 72
     1
 10
190.292024
 20
475.3599
 11
191.025862
 21
475.3599
 72
     1
 10
191.025862
 20
475.3599
 11
191.025862
 21
478.1291
 72
     1
 10
191.025862
 20
478.1291
 11
190.292024
 21
478.1291
 72
     1
 10
190.292024
 20
478.1291
 11
190.292024
 21
477.02142
 72
     1
 10
190.292024
 20
477.02142
 11
188.810502
 21
477.02142
 72
     1
 10
188.810502
 20
477.02142
 11
188.810502
 21
478.1291
 72
     1
 10
188.810502
 20
478.1291
 11
188.076664
 21
478.1291
 72
     1
 10
188.076664
 20
478.1291
 11
188.076664
 21
475.3599
 72
     1
 10
188.076664
 20
475.3599
 11
188.810502
 21
475.3599
 97
        0
 75
     0
 76
     1
 98
        1
 10
0.0
 20
0.0
  0
HATCH
  5
346
100
AcDbEntity
  8
M0
 62
     7
100
AcDbHatch
 10
0.0
 20
0.0
210
0.0
220
0.0
230
1.0
  2
SOLID
 70
     1
 71
     0
 91
        1
 92
        1
 93
        4
 72
     1
 10
178.606
 20
475.3599
 11
178.606
 21
478.1291
 72
     1
 10
178.606
 20
478.1291
 11
177.872162
 21
478.1291
 72
     1
 10
177.872162
 20
478.1291
 11
177.872162
 21
475.3599
 72
     1
 10
177.872162
 20
475.3599
 11
178.606
 21
475.3599
 97
        0
 75
     0
 76
     1
 98
        1
 10
0.0
 20
0.0
  0
LINE
  5
347
100
AcDbEntity
  8
M0
  6
DIVIDE
 62
     7
100
AcDbLine
 10
428.340713
 20
487.129099
 11
421.840713
 21
487.129099
  0
LINE
  5
348
100
AcDbEntity
  8
M0
  6
DIVIDE
 62
     7
100
AcDbLine
 10
428.340713
 20
460.129099
 11
421.840713
 21
460.129099
  0
LINE
  5
349
100
AcDbEntity
  8
M0
  6
DIVIDE
 62
     7
100
AcDbLine
 10
427.340713
 20
486.129099
 11
420.840713
 21
486.129099
  0
LINE
  5
34A
100
AcDbEntity
  8
M0
  6
DIVIDE
 62
     7
100
AcDbLine
 10
421.840713
 20
460.129099
 11
421.840713
 21
456.129099
  0
LINE
  5
34B
100
AcDbEntity
  8
M0
  6
DIVIDE
 62
     7
100
AcDbLine
 10
427.340713
 20
461.129099
 11
420.840713
 21
461.129099
  0
LINE
  5
34C
100
AcDbEntity
  8
M0
  6
DIVIDE
 62
     7
100
AcDbLine
 10
420.840713
 20
461.129099
 11
420.840713
 21
456.129099
  0
LINE
  5
34D
100
AcDbEntity
  8
M0
  6
DIVIDE
 62
     7
100
AcDbLine
 10
421.840713
 20
491.129099
 11
420.840713
 21
491.129099
  0
LINE
  5
34E
100
AcDbEntity
  8
M0
  6
DIVIDE
 62
     7
100
AcDbLine
 10
428.340713
 20
460.129099
 11
428.340713
 21
487.129099
  0
LINE
  5
34F
100
AcDbEntity
  8
M0
  6
DIVIDE
 62
     7
100
AcDbLine
 10
420.840713
 20
491.129099
 11
420.840713
 21
486.129099
  0
LINE
  5
350
100
AcDbEntity
  8
M0
  6
DIVIDE
 62
     7
100
AcDbLine
 10
421.840713
 20
491.129099
 11
421.840713
 21
487.129099
  0
LINE
  5
351
100
AcDbEntity
  8
M0
  6
DIVIDE
 62
     7
100
AcDbLine
 10
420.840713
 20
456.129099
 11
421.840713
 21
456.129099
  0
LINE
  5
352
100
AcDbEntity
  8
M0
  6
DIVIDE
 62
     7
100
AcDbLine
 10
427.340713
 20
486.129099
 11
427.340713
 21
461.129099
  0
LINE
  5
353
100
AcDbEntity
  8
M0
 62
     7
100
AcDbLine
 10
388.340715
 20
479.82909
 11
390.140714
 21
479.82909
  0
LINE
  5
354
100
AcDbEntity
  8
M0
 62
     7
100
AcDbLine
 10
424.540714
 20
449.82909
 11
415.340714
 21
449.82909
  0
ARC
  5
355
100
AcDbEntity
  8
M0
 62
     7
100
AcDbCircle
 10
341.740714
 20
465.92909
 40
0.5
100
AcDbArc
 50
90.0
 51
180.0
  0
ARC
  5
356
100
AcDbEntity
  8
M0
 62
     7
100
AcDbCircle
 10
374.698073
 20
434.12909
 40
3.0
100
AcDbArc
 50
270.0
 51
315.0
  0
LINE
  5
357
100
AcDbEntity
  8
M0
 62
     7
100
AcDbLine
 10
424.540714
 20
444.829091
 11
415.340714
 21
444.829091
  0
LINE
  5
358
100
AcDbEntity
  8
M0
 62
     7
100
AcDbLine
 10
402.040714
 20
459.445318
 11
402.040714
 21
456.568535
  0
LINE
  5
359
100
AcDbEntity
  8
M0
 62
     7
100
AcDbLine
 10
414.340714
 20
432.12909
 11
414.340714
 21
448.833571
  0
LINE
  5
35A
100
AcDbEntity
  8
M0
 62
     7
100
AcDbLine
 10
421.840714
 20
489.929091
 11
422.840714
 21
488.92909
  0
ARC
  5
35B
100
AcDbEntity
  8
M0
 62
     7
100
AcDbCircle
 10
419.840714
 20
460.82909
 40
1.0
100
AcDbArc
 50
270.0
 51
360.0
  0
ARC
  5
35C
100
AcDbEntity
  8
M0
 62
     7
100
AcDbCircle
 10
424.540714
 20
455.32909
 40
0.5
100
AcDbArc
 50
0.0
 51
90.0
  0
ARC
  5
35D
100
AcDbEntity
  8
M0
 62
     7
100
AcDbCircle
 10
395.554927
 20
510.62909
 40
1.0
100
AcDbArc
 50
90.0
 51
135.0
  0
ARC
  5
35E
100
AcDbEntity
  8
M0
 62
     7
100
AcDbCircle
 10
417.695147
 20
446.502819
 40
4.084682
100
AcDbArc
 50
125.479034
 51
145.207368
  0
ARC
  5
35F
100
AcDbEntity
  8
M0
 62
     7
100
AcDbCircle
 10
381.537983
 20
449.27909
 40
3.0
100
AcDbArc
 50
270.0
 51
310.364537
  0
ARC
  5
360
100
AcDbEntity
  8
M0
 62
     7
100
AcDbCircle
 10
341.740714
 20
481.32909
 40
0.5
100
AcDbArc
 50
180.0
 51
270.0
  0
ARC
  5
361
100
AcDbEntity
  8
M0
 62
     7
100
AcDbCircle
 10
387.340714
 20
476.82909
 40
0.5
100
AcDbArc
 50
270.0
 51
360.0
  0
ARC
  5
362
100
AcDbEntity
  8
M0
 62
     7
100
AcDbCircle
 10
375.640714
 20
475.82909
 40
0.5
100
AcDbArc
 50
90.0
 51
180.0
  0
LINE
  5
363
100
AcDbEntity
  8
M0
 62
     7
100
AcDbLine
 10
341.240715
 20
469.62909
 11
336.940715
 21
469.62909
  0
LINE
  5
364
100
AcDbEntity
  8
M0
 62
     7
100
AcDbLine
 10
291.240714
 20
478.42909
 11
293.840713
 21
478.42909
  0
LINE
  5
365
100
AcDbEntity
  8
M0
 62
     7
100
AcDbLine
 10
294.340714
 20
478.629089
 11
289.240714
 21
478.629089
  0
LINE
  5
366
100
AcDbEntity
  8
M0
 62
     7
100
AcDbLine
 10
335.740715
 20
455.629091
 11
289.240714
 21
455.629091
  0
LINE
  5
367
100
AcDbEntity
  8
M0
 62
     7
100
AcDbLine
 10
289.240714
 20
480.829089
 11
294.340714
 21
480.829089
  0
LINE
  5
368
100
AcDbEntity
  8
M0
 62
     7
100
AcDbLine
 10
294.340714
 20
480.829089
 11
294.340714
 21
490.629089
  0
LINE
  5
369
100
AcDbEntity
  8
M0
 62
     7
100
AcDbLine
 10
341.240715
 20
488.129089
 11
341.240715
 21
461.52909
  0
LINE
  5
36A
100
AcDbEntity
  8
M0
 62
     7
100
AcDbLine
 10
336.940715
 20
473.62909
 11
336.940715
 21
469.62909
  0
LINE
  5
36B
100
AcDbEntity
  8
M0
 62
     7
100
AcDbLine
 10
413.340714
 20
433.12909
 11
413.340714
 21
434.129088
  0
LINE
  5
36C
100
AcDbEntity
  8
M0
 62
     7
100
AcDbLine
 10
401.340713
 20
442.12909
 11
414.340714
 21
442.12909
  0
LINE
  5
36D
100
AcDbEntity
  8
M0
 62
     7
100
AcDbLine
 10
425.340714
 20
442.598784
 11
425.040714
 21
442.598784
  0
LINE
  5
36E
100
AcDbEntity
  8
M0
 62
     7
100
AcDbLine
 10
388.340715
 20
467.42909
 11
390.140714
 21
467.42909
  0
LINE
  5
36F
100
AcDbEntity
  8
M0
 62
     7
100
AcDbLine
 10
390.140714
 20
437.129091
 11
395.424634
 21
437.129091
  0
LINE
  5
370
100
AcDbEntity
  8
M0
 62
     7
100
AcDbLine
 10
425.040714
 20
439.659397
 11
425.040714
 21
431.62909
  0
LINE
  5
371
100
AcDbEntity
  8
M0
 62
     7
100
AcDbLine
 10
395.554928
 20
511.629089
 11
414.340714
 21
511.629089
  0
LINE
  5
372
100
AcDbEntity
  8
M0
 62
     7
100
AcDbLine
 10
422.840714
 20
488.92909
 11
425.040714
 21
488.92909
  0
ARC
  5
373
100
AcDbEntity
  8
M0
 62
     7
100
AcDbCircle
 10
424.540714
 20
491.92909
 40
0.5
100
AcDbArc
 50
270.0
 51
360.0
  0
LINE
  5
374
100
AcDbEntity
  8
M0
 62
     7
100
AcDbLine
 10
388.640713
 20
467.62909
 11
390.140714
 21
467.62909
  0
LINE
  5
375
100
AcDbEntity
  8
M0
 62
     7
100
AcDbLine
 10
397.540714
 20
458.52909
 11
390.140714
 21
458.52909
  0
LINE
  5
376
100
AcDbEntity
  8
M0
 62
     7
100
AcDbLine
 10
367.440715
 20
500.979089
 11
381.537981
 21
500.979089
  0
LINE
  5
377
100
AcDbEntity
  8
M0
 62
     7
100
AcDbLine
 10
383.440714
 20
432.129092
 11
383.440714
 21
437.129091
  0
LINE
  5
378
100
AcDbEntity
  8
M0
 62
     7
100
AcDbLine
 10
421.840714
 20
491.42909
 11
421.840714
 21
489.929091
  0
LINE
  5
379
100
AcDbEntity
  8
M0
 62
     7
100
AcDbLine
 10
425.340714
 20
509.159397
 11
425.040714
 21
509.159397
  0
LINE
  5
37A
100
AcDbEntity
  8
M0
 62
     7
100
AcDbLine
 10
397.540714
 20
488.729091
 11
390.140714
 21
488.729091
  0
LINE
  5
37B
100
AcDbEntity
  8
M0
 62
     7
100
AcDbLine
 10
424.540714
 20
431.12909
 11
384.440714
 21
431.12909
  0
LINE
  5
37C
100
AcDbEntity
  8
M0
 62
     7
100
AcDbLine
 10
397.540714
 20
488.729091
 11
397.540714
 21
493.72909
  0
LINE
  5
37D
100
AcDbEntity
  8
M0
 62
     7
100
AcDbLine
 10
390.140714
 20
479.62909
 11
390.140714
 21
506.62909
  0
LINE
  5
37E
100
AcDbEntity
  8
M0
 62
     7
100
AcDbLine
 10
350.040715
 20
469.92909
 11
350.040715
 21
477.32909
  0
LINE
  5
37F
100
AcDbEntity
  8
M0
 62
     7
100
AcDbLine
 10
424.540714
 20
491.42909
 11
417.840714
 21
491.42909
  0
LINE
  5
380
100
AcDbEntity
  8
M0
 62
     7
100
AcDbLine
 10
375.640712
 20
470.92909
 11
387.340713
 21
470.92909
  0
LINE
  5
381
100
AcDbEntity
  8
M0
 62
     7
100
AcDbLine
 10
341.240715
 20
451.92909
 11
341.240715
 21
495.32909
  0
LINE
  5
382
100
AcDbEntity
  8
M0
 62
     7
100
AcDbLine
 10
351.040717
 20
478.32909
 11
351.040717
 21
468.92909
  0
LINE
  5
383
100
AcDbEntity
  8
M0
 62
     7
100
AcDbLine
 10
375.640712
 20
476.32909
 11
387.340713
 21
476.32909
  0
ARC
  5
384
100
AcDbEntity
  8
M0
 62
     7
100
AcDbCircle
 10
424.540714
 20
431.62909
 40
0.5
100
AcDbArc
 50
270.0
 51
360.0
  0
ARC
  5
385
100
AcDbEntity
  8
M0
 62
     7
100
AcDbCircle
 10
350.040714
 20
478.32909
 40
1.0
100
AcDbArc
 50
270.0
 51
360.0
  0
ARC
  5
386
100
AcDbEntity
  8
M0
 62
     7
100
AcDbCircle
 10
395.424634
 20
443.12909
 40
6.0
100
AcDbArc
 50
270.0
 51
350.405932
  0
ARC
  5
387
100
AcDbEntity
  8
M0
 62
     7
100
AcDbCircle
 10
382.140714
 20
517.12909
 40
3.0
100
AcDbArc
 50
90.0
 51
180.0
  0
ARC
  5
388
100
AcDbEntity
  8
M0
 62
     7
100
AcDbCircle
 10
413.840714
 20
433.12909
 40
0.5
100
AcDbArc
 50
180.0
 51
270.0
  0
ARC
  5
389
100
AcDbEntity
  8
M0
 62
     7
100
AcDbCircle
 10
419.840714
 20
486.42909
 40
1.0
100
AcDbArc
 50
0.0
 51
90.0
  0
ARC
  5
38A
100
AcDbEntity
  8
M0
 62
     7
100
AcDbCircle
 10
350.040714
 20
468.92909
 40
1.0
100
AcDbArc
 50
0.0
 51
90.0
  0
ARC
  5
38B
100
AcDbEntity
  8
M0
 62
     7
100
AcDbCircle
 10
388.640714
 20
479.12909
 40
0.5
100
AcDbArc
 50
90.0
 51
180.0
  0
LINE
  5
38C
100
AcDbEntity
  8
M0
 62
     7
100
AcDbLine
 10
425.340714
 20
439.659397
 11
425.040714
 21
439.659397
  0
LINE
  5
38D
100
AcDbEntity
  8
M0
 62
     7
100
AcDbLine
 10
388.640713
 20
479.62909
 11
390.140714
 21
479.62909
  0
LINE
  5
38E
100
AcDbEntity
  8
M0
 62
     7
100
AcDbLine
 10
390.140714
 20
431.12909
 11
390.140714
 21
467.62909
  0
LINE
  5
38F
100
AcDbEntity
  8
M0
 62
     7
100
AcDbLine
 10
388.140715
 20
468.12909
 11
388.140715
 21
479.12909
  0
ARC
  5
390
100
AcDbEntity
  8
M0
 62
     7
100
AcDbCircle
 10
388.640714
 20
468.12909
 40
0.5
100
AcDbArc
 50
180.0
 51
270.0
  0
ARC
  5
391
100
AcDbEntity
  8
M0
 62
     7
100
AcDbCircle
 10
424.540714
 20
514.62909
 40
0.5
100
AcDbArc
 50
0.0
 51
90.0
  0
ARC
  5
392
100
AcDbEntity
  8
M0
 62
     7
100
AcDbCircle
 10
415.340714
 20
432.12909
 40
1.0
100
AcDbArc
 50
180.0
 51
270.0
  0
ARC
  5
393
100
AcDbEntity
  8
M0
 62
     7
100
AcDbCircle
 10
415.340714
 20
514.12909
 40
1.0
100
AcDbArc
 50
90.0
 51
180.0
  0
LINE
  5
394
100
AcDbEntity
  8
M0
 62
     7
100
AcDbLine
 10
336.94344
 20
477.629089
 11
336.94344
 21
473.62909
  0
LINE
  5
395
100
AcDbEntity
  8
M0
 62
     7
100
AcDbLine
 10
339.240715
 20
491.62909
 11
340.240715
 21
491.62909
  0
LINE
  5
396
100
AcDbEntity
  8
M0
 62
     7
100
AcDbLine
 10
288.240715
 20
456.62909
 11
288.240715
 21
490.629089
  0
LINE
  5
397
100
AcDbEntity
  8
M0
 62
     7
100
AcDbLine
 10
341.240715
 20
488.129089
 11
340.240715
 21
491.62909
  0
LINE
  5
398
100
AcDbEntity
  8
M0
 62
     7
100
AcDbLine
 10
290.410895
 20
468.629089
 11
290.410895
 21
468.9533
  0
LINE
  5
399
100
AcDbEntity
  8
M0
 62
     7
100
AcDbLine
 10
294.340714
 20
456.629089
 11
294.340714
 21
466.429089
  0
LINE
  5
39A
100
AcDbEntity
  8
M0
 62
     7
100
AcDbLine
 10
339.240715
 20
486.729089
 11
339.240715
 21
490.629089
  0
LINE
  5
39B
100
AcDbEntity
  8
M0
 62
     7
100
AcDbLine
 10
293.940715
 20
478.418988
 11
293.940715
 21
478.629089
  0
LINE
  5
39C
100
AcDbEntity
  8
M0
 62
     7
100
AcDbLine
 10
336.940715
 20
486.729089
 11
339.684456
 21
486.729089
  0
LINE
  5
39D
100
AcDbEntity
  8
M0
 62
     7
100
AcDbLine
 10
336.740715
 20
490.629089
 11
336.740715
 21
456.62909
  0
ARC
  5
39E
100
AcDbEntity
  8
M0
 62
     7
100
AcDbCircle
 10
293.840715
 20
477.92909
 40
0.5
100
AcDbArc
 50
0.0
 51
90.0
  0
ARC
  5
39F
100
AcDbEntity
  8
M0
 62
     7
100
AcDbCircle
 10
293.840715
 20
469.32909
 40
0.5
100
AcDbArc
 50
270.0
 51
360.0
  0
LINE
  5
3A0
100
AcDbEntity
  8
M0
 62
     7
100
AcDbLine
 10
339.240715
 20
490.629089
 11
339.240715
 21
491.62909
  0
LINE
  5
3A1
100
AcDbEntity
  8
M0
 62
     7
100
AcDbLine
 10
290.240716
 20
474.679089
 11
289.740715
 21
474.679089
  0
LINE
  5
3A2
100
AcDbEntity
  8
M0
 62
     7
100
AcDbLine
 10
339.684456
 20
486.729089
 11
340.240715
 21
486.729089
  0
LINE
  5
3A3
100
AcDbEntity
  8
M0
 62
     7
100
AcDbLine
 10
290.410895
 20
478.629089
 11
290.410895
 21
478.304878
  0
LINE
  5
3A4
100
AcDbEntity
  8
M0
 62
     7
100
AcDbLine
 10
339.684456
 20
460.52909
 11
336.940715
 21
460.52909
  0
LINE
  5
3A5
100
AcDbEntity
  8
M0
 62
     7
100
AcDbLine
 10
295.340716
 20
455.629091
 11
289.240714
 21
455.629091
  0
LINE
  5
3A6
100
AcDbEntity
  8
M0
 62
     7
100
AcDbLine
 10
290.740713
 20
468.829089
 11
291.240714
 21
468.829089
  0
LINE
  5
3A7
100
AcDbEntity
  8
M0
 62
     7
100
AcDbLine
 10
293.840713
 20
468.829089
 11
291.240714
 21
468.829089
  0
LINE
  5
3A8
100
AcDbEntity
  8
M0
 62
     7
100
AcDbLine
 10
339.890715
 20
473.62909
 11
339.890715
 21
477.629089
  0
ARC
  5
3A9
100
AcDbEntity
  8
M0
 62
     7
100
AcDbCircle
 10
289.240715
 20
490.62909
 40
1.0
100
AcDbArc
 50
90.0
 51
180.0
  0
LINE
  5
3AA
100
AcDbEntity
  8
M0
 62
     7
100
AcDbLine
 10
289.740715
 20
478.629089
 11
289.740715
 21
468.629089
  0
LINE
  5
3AB
100
AcDbEntity
  8
M0
 62
     7
100
AcDbLine
 10
336.940715
 20
460.52909
 11
336.940715
 21
456.629089
  0
LINE
  5
3AC
100
AcDbEntity
  8
M0
 62
     7
100
AcDbLine
 10
294.340714
 20
466.429089
 11
289.240715
 21
466.429089
  0
LINE
  5
3AD
100
AcDbEntity
  8
M0
 62
     7
100
AcDbLine
 10
294.340714
 20
468.629089
 11
294.340714
 21
478.629089
  0
LINE
  5
3AE
100
AcDbEntity
  8
M0
 62
     7
100
AcDbLine
 10
289.740715
 20
474.629089
 11
290.240716
 21
474.629089
  0
LINE
  5
3AF
100
AcDbEntity
  8
M0
 62
     7
100
AcDbLine
 10
295.840714
 20
455.629091
 11
289.240714
 21
455.629091
  0
LINE
  5
3B0
100
AcDbEntity
  8
M0
 62
     7
100
AcDbLine
 10
339.890715
 20
469.62909
 11
339.890715
 21
473.62909
  0
LINE
  5
3B1
100
AcDbEntity
  8
M0
 62
     7
100
AcDbLine
 10
336.792474
 20
491.237025
 11
336.701364
 21
491.322878
  0
LINE
  5
3B2
100
AcDbEntity
  8
M0
 62
     7
100
AcDbLine
 10
289.240715
 20
468.629089
 11
294.340714
 21
468.629089
  0
LINE
  5
3B3
100
AcDbEntity
  8
M0
 62
     7
100
AcDbLine
 10
293.940715
 20
468.839192
 11
293.940715
 21
468.629089
  0
ARC
  5
3B4
100
AcDbEntity
  8
M0
 62
     7
100
AcDbCircle
 10
335.740715
 20
456.62909
 40
1.0
100
AcDbArc
 50
270.0
 51
360.0
  0
LINE
  5
3B5
100
AcDbEntity
  8
M0
 62
     7
100
AcDbLine
 10
290.240716
 20
469.32909
 11
290.240716
 21
477.92909
  0
ARC
  5
3B6
100
AcDbEntity
  8
M0
 62
     7
100
AcDbCircle
 10
342.240714
 20
451.92909
 40
1.0
100
AcDbArc
 50
180.0
 51
270.0
  0
LINE
  5
3B7
100
AcDbEntity
  8
M0
 62
     7
100
AcDbLine
 10
341.240715
 20
477.629089
 11
336.94344
 21
477.629089
  0
LINE
  5
3B8
100
AcDbEntity
  8
M0
 62
     7
100
AcDbLine
 10
291.240714
 20
478.42909
 11
290.740713
 21
478.42909
  0
ARC
  5
3B9
100
AcDbEntity
  8
M0
 62
     7
100
AcDbCircle
 10
348.940714
 20
511.12909
 40
5.0
100
AcDbArc
 50
90.0
 51
180.0
  0
ARC
  5
3BA
100
AcDbEntity
  8
M0
 62
     7
100
AcDbCircle
 10
344.940714
 20
468.42909
 40
1.0
100
AcDbArc
 50
180.0
 51
270.0
  0
ARC
  5
3BB
100
AcDbEntity
  8
M0
 62
     7
100
AcDbCircle
 10
344.940714
 20
478.82909
 40
1.0
100
AcDbArc
 50
90.0
 51
180.0
  0
ARC
  5
3BC
100
AcDbEntity
  8
M0
 62
     7
100
AcDbCircle
 10
361.440714
 20
450.52909
 40
3.0
100
AcDbArc
 50
0.0
 51
90.0
  0
LINE
  5
3BD
100
AcDbEntity
  8
M0
 62
     7
100
AcDbLine
 10
340.240715
 20
460.52909
 11
339.684456
 21
460.52909
  0
LINE
  5
3BE
100
AcDbEntity
  8
M0
 62
     7
100
AcDbLine
 10
296.040713
 20
455.629091
 11
289.240714
 21
455.629091
  0
LINE
  5
3BF
100
AcDbEntity
  8
M0
 62
     7
100
AcDbLine
 10
336.740715
 20
490.629089
 11
336.740715
 21
491.129089
  0
LINE
  5
3C0
100
AcDbEntity
  8
M0
 62
     7
100
AcDbLine
 10
289.240715
 20
491.62909
 11
336.240715
 21
491.62909
  0
LINE
  5
3C1
100
AcDbEntity
  8
M0
 62
     7
100
AcDbLine
 10
339.990715
 20
486.729089
 11
336.940715
 21
486.729089
  0
LINE
  5
3C2
100
AcDbEntity
  8
M0
 62
     7
100
AcDbLine
 10
335.240715
 20
491.62909
 11
335.936368
 21
491.62909
  0
LINE
  5
3C3
100
AcDbEntity
  8
M0
 62
     7
100
AcDbLine
 10
283.240715
 20
490.629089
 11
283.240715
 21
456.62909
  0
LINE
  5
3C4
100
AcDbEntity
  8
M0
 62
     7
100
AcDbLine
 10
336.940715
 20
490.887276
 11
336.940715
 21
486.729089
  0
ARC
  5
3C5
100
AcDbEntity
  8
M0
 62
     7
100
AcDbCircle
 10
289.240715
 20
467.62909
 40
1.0
100
AcDbArc
 50
90.0
 51
180.0
  0
ARC
  5
3C6
100
AcDbEntity
  8
M0
 62
     7
100
AcDbCircle
 10
340.240715
 20
461.52909
 40
1.0
100
AcDbArc
 50
270.0
 51
360.0
  0
ARC
  5
3C7
100
AcDbEntity
  8
M0
 62
     7
100
AcDbCircle
 10
336.240715
 20
491.12909
 40
0.5
100
AcDbArc
 50
0.0
 51
90.0
  0
ARC
  5
3C8
100
AcDbEntity
  8
M0
 62
     7
100
AcDbCircle
 10
289.240715
 20
467.42909
 40
1.0
100
AcDbArc
 50
180.0
 51
270.0
  0
ARC
  5
3C9
100
AcDbEntity
  8
M0
 62
     7
100
AcDbCircle
 10
289.240715
 20
479.62909
 40
1.0
100
AcDbArc
 50
180.0
 51
270.0
  0
ARC
  5
3CA
100
AcDbEntity
  8
M0
 62
     7
100
AcDbCircle
 10
295.340715
 20
456.62909
 40
1.0
100
AcDbArc
 50
180.0
 51
270.0
  0
ARC
  5
3CB
100
AcDbEntity
  8
M0
 62
     7
100
AcDbCircle
 10
335.940721
 20
456.629084
 40
0.999994
100
AcDbArc
 50
270.0
 51
360.0
  0
ARC
  5
3CC
100
AcDbEntity
  8
M0
 62
     7
100
AcDbCircle
 10
289.240715
 20
456.62909
 40
1.0
100
AcDbArc
 50
180.0
 51
270.0
  0
ARC
  5
3CD
100
AcDbEntity
  8
M0
 62
     7
100
AcDbCircle
 10
290.740715
 20
477.92909
 40
0.5
100
AcDbArc
 50
90.0
 51
180.0
  0
ARC
  5
3CE
100
AcDbEntity
  8
M0
 62
     7
100
AcDbCircle
 10
336.440715
 20
490.887276
 40
0.5
100
AcDbArc
 50
0.0
 51
44.92732
  0
ARC
  5
3CF
100
AcDbEntity
  8
M0
 62
     7
100
AcDbCircle
 10
350.040714
 20
456.52909
 40
3.0
100
AcDbArc
 50
180.0
 51
270.0
  0
ARC
  5
3D0
100
AcDbEntity
  8
M0
 62
     7
100
AcDbCircle
 10
379.940714
 20
517.42909
 40
1.0
100
AcDbArc
 50
143.130102
 51
180.0
  0
ARC
  5
3D1
100
AcDbEntity
  8
M0
 62
     7
100
AcDbCircle
 10
340.240715
 20
485.72909
 40
1.0
100
AcDbArc
 50
0.0
 51
90.0
  0
ARC
  5
3D2
100
AcDbEntity
  8
M0
 62
     7
100
AcDbCircle
 10
295.340715
 20
490.62909
 40
1.0
100
AcDbArc
 50
90.0
 51
180.0
  0
ARC
  5
3D3
100
AcDbEntity
  8
M0
 62
     7
100
AcDbCircle
 10
290.740715
 20
469.32909
 40
0.5
100
AcDbArc
 50
180.0
 51
270.0
  0
ARC
  5
3D4
100
AcDbEntity
  8
M0
 62
     7
100
AcDbCircle
 10
289.240715
 20
479.82909
 40
1.0
100
AcDbArc
 50
90.0
 51
180.0
  0
CIRCLE
  5
3D5
100
AcDbEntity
  8
M0
100
AcDbCircle
 10
193.341433
 20
444.129038
 40
5.0
  0
CIRCLE
  5
3D6
100
AcDbEntity
  8
M0
100
AcDbCircle
 10
175.741433
 20
444.129038
 40
5.0
  0
CIRCLE
  5
3D7
100
AcDbEntity
  8
M0
100
AcDbCircle
 10
175.741433
 20
503.1291
 40
5.0
  0
CIRCLE
  5
3D8
100
AcDbEntity
  8
M0
100
AcDbCircle
 10
210.941433
 20
444.129038
 40
5.0
  0
CIRCLE
  5
3D9
100
AcDbEntity
  8
M0
100
AcDbCircle
 10
88.841435
 20
444.129038
 40
5.0
  0
CIRCLE
  5
3DA
100
AcDbEntity
  8
M0
100
AcDbCircle
 10
88.841435
 20
503.1291
 40
5.0
  0
CIRCLE
  5
3DB
100
AcDbEntity
  8
M0
100
AcDbCircle
 10
124.041435
 20
444.129038
 40
5.0
  0
CIRCLE
  5
3DC
100
AcDbEntity
  8
M0
100
AcDbCircle
 10
106.441435
 20
444.129038
 40
5.0
  0
LINE
  5
3DD
100
AcDbEntity
  8
M0
 62
     7
100
AcDbLine
 10
379.140712
 20
519.129089
 11
379.140712
 21
519.62909
  0
LINE
  5
3DE
100
AcDbEntity
  8
M0
 62
     7
100
AcDbLine
 10
420.840714
 20
488.92909
 11
420.840714
 21
491.42909
  0
LINE
  5
3DF
100
AcDbEntity
  8
M0
 62
     7
100
AcDbLine
 10
417.540714
 20
487.812862
 11
402.040714
 21
487.812862
  0
LINE
  5
3E0
100
AcDbEntity
  8
M0
 62
     7
100
AcDbLine
 10
379.640713
 20
520.129091
 11
382.140714
 21
520.129091
  0
CIRCLE
  5
3E1
100
AcDbEntity
  8
M0
100
AcDbCircle
 10
210.941433
 20
503.1291
 40
5.0
  0
CIRCLE
  5
3E2
100
AcDbEntity
  8
M0
100
AcDbCircle
 10
193.341433
 20
503.1291
 40
5.0
  0
LINE
  5
3E3
100
AcDbEntity
  8
M0
 62
     7
100
AcDbLine
 10
376.440715
 20
476.32909
 11
376.440715
 21
471.12909
  0
LINE
  5
3E4
100
AcDbEntity
  8
M0
 62
     7
100
AcDbLine
 10
425.040714
 20
431.879091
 11
425.340714
 21
431.879091
  0
ARC
  5
3E5
100
AcDbEntity
  8
M0
 62
     7
100
AcDbCircle
 10
381.537983
 20
497.97909
 40
3.0
100
AcDbArc
 50
49.635463
 51
90.0
  0
ELLIPSE
  5
3E6
100
AcDbEntity
  8
M0
 62
     7
100
AcDbEllipse
 10
424.540714
 20
449.804152
 11
-0.5
 21
0.0
210
0.0
220
0.0
230
1.0
 40
0.049876
 41
3.141592653589793
 42
4.71238898038469
  0
ARC
  5
3E7
100
AcDbEntity
  8
M0
 62
     7
100
AcDbCircle
 10
387.340714
 20
470.42909
 40
0.5
100
AcDbArc
 50
0.0
 51
90.0
  0
ARC
  5
3E8
100
AcDbEntity
  8
M0
 62
     7
100
AcDbCircle
 10
361.440714
 20
496.72909
 40
3.0
100
AcDbArc
 50
270.0
 51
360.0
  0
LINE
  5
3E9
100
AcDbEntity
  8
M0
 62
     7
100
AcDbLine
 10
381.940715
 20
437.129091
 11
376.819394
 21
432.00777
  0
LINE
  5
3EA
100
AcDbEntity
  8
M0
 62
     7
100
AcDbLine
 10
374.698072
 20
431.12909
 11
348.940711
 21
431.12909
  0
ELLIPSE
  5
3EB
100
AcDbEntity
  8
M0
 62
     7
100
AcDbEllipse
 10
415.340714
 20
444.779215
 11
-1.0
 21
0.0
210
0.0
220
0.0
230
1.0
 40
0.049876
 41
4.71238898038469
 42
6.283185307179586
  0
ELLIPSE
  5
3EC
100
AcDbEntity
  8
M0
 62
     7
100
AcDbEllipse
 10
424.540714
 20
444.804152
 11
-0.5
 21
0.0
210
0.0
220
0.0
230
1.0
 40
0.049876
 41
3.141592653589793
 42
4.71238898038469
  0
ARC
  5
3ED
100
AcDbEntity
  8
M0
 62
     7
100
AcDbCircle
 10
388.340714
 20
467.92909
 40
0.5
100
AcDbArc
 50
180.0
 51
270.0
  0
ARC
  5
3EE
100
AcDbEntity
  8
M0
 62
     7
100
AcDbCircle
 10
350.040714
 20
490.72909
 40
3.0
100
AcDbArc
 50
90.0
 51
180.0
  0
CIRCLE
  5
3EF
100
AcDbEntity
  8
M0
100
AcDbCircle
 10
106.441435
 20
503.1291
 40
5.0
  0
CIRCLE
  5
3F0
100
AcDbEntity
  8
M0
100
AcDbCircle
 10
124.041435
 20
503.1291
 40
5.0
  0
ARC
  5
3F1
100
AcDbEntity
  8
M0
 62
     7
100
AcDbCircle
 10
342.240714
 20
495.32909
 40
1.0
100
AcDbArc
 50
90.0
 51
180.0
  0
ARC
  5
3F2
100
AcDbEntity
  8
M0
 62
     7
100
AcDbCircle
 10
375.640714
 20
471.42909
 40
0.5
100
AcDbArc
 50
180.0
 51
270.0
  0
ARC
  5
3F3
100
AcDbEntity
  8
M0
 62
     7
100
AcDbCircle
 10
388.340714
 20
479.32909
 40
0.5
100
AcDbArc
 50
90.0
 51
180.0
  0
ARC
  5
3F4
100
AcDbEntity
  8
M0
 62
     7
100
AcDbCircle
 10
367.440714
 20
497.97909
 40
3.0
100
AcDbArc
 50
90.0
 51
180.0
  0
LINE
  5
3F5
100
AcDbEntity
  8
M0
 62
     7
100
AcDbLine
 10
379.140712
 20
518.029089
 11
379.140712
 21
519.129089
  0
LINE
  5
3F6
100
AcDbEntity
  8
M0
 62
     7
100
AcDbLine
 10
391.340714
 20
520.129091
 11
390.840714
 21
520.129091
  0
LINE
  5
3F7
100
AcDbEntity
  8
M0
 62
     7
100
AcDbLine
 10
390.240714
 20
520.129091
 11
382.140714
 21
520.129091
  0
LINE
  5
3F8
100
AcDbEntity
  8
M0
 62
     7
100
AcDbLine
 10
379.140712
 20
511.062424
 11
379.140712
 21
517.129089
  0
LINE
  5
3F9
100
AcDbEntity
  8
M0
 62
     7
100
AcDbLine
 10
420.840714
 20
455.829091
 11
420.840714
 21
491.42909
  0
LINE
  5
3FA
100
AcDbEntity
  8
M0
 62
     7
100
AcDbLine
 10
344.94071
 20
479.82909
 11
347.040716
 21
479.82909
  0
LINE
  5
3FB
100
AcDbEntity
  8
M0
 62
     7
100
AcDbLine
 10
348.040711
 20
477.32909
 11
348.040711
 21
469.92909
  0
LINE
  5
3FC
100
AcDbEntity
  8
M0
 62
     7
100
AcDbLine
 10
376.823675
 20
514.731068
 11
381.940715
 21
506.62909
  0
LINE
  5
3FD
100
AcDbEntity
  8
M0
 62
     7
100
AcDbLine
 10
347.040716
 20
467.42909
 11
344.94071
 21
467.42909
  0
LINE
  5
3FE
100
AcDbEntity
  8
M0
 62
     7
100
AcDbLine
 10
425.040714
 20
509.159397
 11
425.040714
 21
488.92909
  0
LINE
  5
3FF
100
AcDbEntity
  8
M0
 62
     7
100
AcDbLine
 10
350.040715
 20
469.92909
 11
348.040711
 21
469.92909
  0
LINE
  5
400
100
AcDbEntity
  8
M0
 62
     7
100
AcDbLine
 10
425.340714
 20
502.379091
 11
425.040714
 21
502.379091
  0
LINE
  5
401
100
AcDbEntity
  8
M0
 62
     7
100
AcDbLine
 10
347.040716
 20
456.52909
 11
347.040716
 21
468.92909
  0
LINE
  5
402
100
AcDbEntity
  8
M0
 62
     7
100
AcDbLine
 10
404.440714
 20
514.714877
 11
404.440714
 21
511.629089
  0
LINE
  5
403
100
AcDbEntity
  8
M0
 62
     7
100
AcDbLine
 10
402.040714
 20
490.689646
 11
417.540714
 21
490.689646
  0
LINE
  5
404
100
AcDbEntity
  8
M0
 62
     7
100
AcDbLine
 10
425.040714
 20
514.629091
 11
425.040714
 21
514.379091
  0
LINE
  5
405
100
AcDbEntity
  8
M0
 62
     7
100
AcDbLine
 10
425.340714
 20
502.381101
 11
425.040714
 21
502.381101
  0
LINE
  5
406
100
AcDbEntity
  8
M0
 62
     7
100
AcDbLine
 10
417.540714
 20
456.568535
 11
402.040714
 21
456.568535
  0
LINE
  5
407
100
AcDbEntity
  8
M0
 62
     7
100
AcDbLine
 10
425.340714
 20
514.379091
 11
425.040714
 21
514.379091
  0
LINE
  5
408
100
AcDbEntity
  8
M0
 62
     7
100
AcDbLine
 10
425.340714
 20
444.829091
 11
425.340714
 21
431.879091
  0
LINE
  5
409
100
AcDbEntity
  8
M0
 62
     7
100
AcDbLine
 10
385.640714
 20
448.82909
 11
383.480928
 21
446.993272
  0
LINE
  5
40A
100
AcDbEntity
  8
M0
 62
     7
100
AcDbLine
 10
390.240714
 20
520.129091
 11
399.0265
 21
520.129091
  0
LINE
  5
40B
100
AcDbEntity
  8
M0
 62
     7
100
AcDbLine
 10
343.940716
 20
469.12909
 11
341.240715
 21
469.12909
  0
LINE
  5
40C
100
AcDbEntity
  8
M0
 62
     7
100
AcDbLine
 10
402.040714
 20
459.445318
 11
417.540714
 21
459.445318
  0
LINE
  5
40D
100
AcDbEntity
  8
M0
 62
     7
100
AcDbLine
 10
379.140712
 20
517.129089
 11
379.140712
 21
519.129089
  0
LINE
  5
40E
100
AcDbEntity
  8
M0
 62
     7
100
AcDbLine
 10
425.340714
 20
502.381101
 11
425.340714
 21
502.379091
  0
LINE
  5
40F
100
AcDbEntity
  8
M0
 62
     7
100
AcDbLine
 10
361.440714
 20
453.529091
 11
350.040715
 21
453.529091
  0
LINE
  5
410
100
AcDbEntity
  8
M0
 62
     7
100
AcDbLine
 10
381.929401
 20
506.62909
 11
381.929401
 21
500.953446
  0
LINE
  5
411
100
AcDbEntity
  8
M0
 62
     7
100
AcDbLine
 10
343.940716
 20
436.12909
 11
343.940716
 21
511.12909
  0
LINE
  5
412
100
AcDbEntity
  8
M0
 62
     7
100
AcDbLine
 10
390.140714
 20
448.82909
 11
385.640714
 21
448.82909
  0
LINE
  5
413
100
AcDbEntity
  8
M0
 62
     7
100
AcDbLine
 10
379.940714
 20
471.12909
 11
379.940714
 21
476.32909
  0
LINE
  5
414
100
AcDbEntity
  8
M0
 62
     7
100
AcDbLine
 10
364.440713
 20
449.27909
 11
364.440713
 21
450.52909
  0
LINE
  5
415
100
AcDbEntity
  8
M0
 62
     7
100
AcDbLine
 10
399.733606
 20
519.836198
 11
404.14782
 21
515.421982
  0
ARC
  5
416
100
AcDbEntity
  8
M0
 62
     7
100
AcDbCircle
 10
399.0265
 20
519.12909
 40
1.0
100
AcDbArc
 50
45.0
 51
90.0
  0
ARC
  5
417
100
AcDbEntity
  8
M0
 62
     7
100
AcDbCircle
 10
387.840714
 20
476.62909
 40
0.5
100
AcDbArc
 50
53.130102
 51
90.0
  0
ARC
  5
418
100
AcDbEntity
  8
M0
 62
     7
100
AcDbCircle
 10
417.540714
 20
456.268535
 40
0.3
100
AcDbArc
 50
0.0
 51
90.0
  0
ARC
  5
419
100
AcDbEntity
  8
M0
 62
     7
100
AcDbCircle
 10
379.640714
 20
519.62909
 40
0.5
100
AcDbArc
 50
90.0
 51
180.0
  0
LINE
  5
41A
100
AcDbEntity
  8
M0
 62
     7
100
AcDbLine
 10
425.340714
 20
514.379091
 11
425.340714
 21
502.379091
  0
LINE
  5
41B
100
AcDbEntity
  8
M0
 62
     7
100
AcDbLine
 10
417.840714
 20
456.268535
 11
417.840714
 21
455.829091
  0
ARC
  5
41C
100
AcDbEntity
  8
M0
 62
     7
100
AcDbCircle
 10
367.440714
 20
449.27909
 40
3.0
100
AcDbArc
 50
180.0
 51
270.0
  0
LINE
  5
41D
100
AcDbEntity
  8
M0
 62
     7
100
AcDbLine
 10
425.040714
 20
455.32909
 11
425.040714
 21
442.598784
  0
ARC
  5
41E
100
AcDbEntity
  8
M0
 62
     7
100
AcDbCircle
 10
384.440714
 20
432.12909
 40
1.0
100
AcDbArc
 50
180.0
 51
270.0
  0
ARC
  5
41F
100
AcDbEntity
  8
M0
 62
     7
100
AcDbCircle
 10
348.940714
 20
436.12909
 40
5.0
100
AcDbArc
 50
180.0
 51
270.0
  0
ARC
  5
420
100
AcDbEntity
  8
M0
 62
     7
100
AcDbCircle
 10
376.940714
 20
471.12909
 40
0.5
100
AcDbArc
 50
180.0
 51
203.578178
  0
ARC
  5
421
100
AcDbEntity
  8
M0
 62
     7
100
AcDbCircle
 10
417.540714
 20
490.989645
 40
0.3
100
AcDbArc
 50
270.0
 51
360.0
  0
ARC
  5
422
100
AcDbEntity
  8
M0
 62
     7
100
AcDbCircle
 10
379.440714
 20
471.12909
 40
0.5
100
AcDbArc
 50
336.421822
 51
360.0
  0
ARC
  5
423
100
AcDbEntity
  8
M0
 62
     7
100
AcDbCircle
 10
374.287208
 20
513.12909
 40
3.0
100
AcDbArc
 50
32.275644
 51
90.0
  0
ARC
  5
424
100
AcDbEntity
  8
M0
 62
     7
100
AcDbCircle
 10
348.040714
 20
478.32909
 40
1.0
100
AcDbArc
 50
180.0
 51
270.0
  0
ARC
  5
425
100
AcDbEntity
  8
M0
 62
     7
100
AcDbCircle
 10
348.040714
 20
468.92909
 40
1.0
100
AcDbArc
 50
90.0
 51
180.0
  0
LINE
  5
426
100
AcDbEntity
  8
M0
 62
     7
100
AcDbLine
 10
387.840714
 20
479.32909
 11
387.840714
 21
476.82909
  0
LINE
  5
427
100
AcDbEntity
  8
M0
 62
     7
100
AcDbLine
 10
375.140715
 20
475.82909
 11
375.140715
 21
471.42909
  0
LINE
  5
428
100
AcDbEntity
  8
M0
 62
     7
100
AcDbLine
 10
343.940716
 20
475.12909
 11
341.240715
 21
475.12909
  0
LINE
  5
429
100
AcDbEntity
  8
M0
 62
     7
100
AcDbLine
 10
378.940712
 20
511.379089
 11
378.940712
 21
517.42909
  0
LINE
  5
42A
100
AcDbEntity
  8
M0
 62
     7
100
AcDbLine
 10
350.040715
 20
493.72909
 11
361.440714
 21
493.72909
  0
LINE
  5
42B
100
AcDbEntity
  8
M0
 62
     7
100
AcDbLine
 10
387.840714
 20
470.42909
 11
387.840714
 21
467.92909
  0
LINE
  5
42C
100
AcDbEntity
  8
M0
 62
     7
100
AcDbLine
 10
343.940716
 20
480.82909
 11
341.740716
 21
480.82909
  0
LINE
  5
42D
100
AcDbEntity
  8
M0
 62
     7
100
AcDbLine
 10
414.340714
 20
498.429091
 11
414.340714
 21
514.12909
  0
LINE
  5
42E
100
AcDbEntity
  8
M0
 62
     7
100
AcDbLine
 10
341.240715
 20
478.12909
 11
343.940716
 21
478.12909
  0
LINE
  5
42F
100
AcDbEntity
  8
M0
 62
     7
100
AcDbLine
 10
342.74071
 20
475.12909
 11
342.74071
 21
472.12909
  0
LINE
  5
430
100
AcDbEntity
  8
M0
 62
     7
100
AcDbLine
 10
341.240715
 20
472.12909
 11
343.940716
 21
472.12909
  0
LINE
  5
431
100
AcDbEntity
  8
M0
 62
     7
100
AcDbLine
 10
341.740716
 20
466.42909
 11
343.940716
 21
466.42909
  0
LINE
  5
432
100
AcDbEntity
  8
M0
 62
     7
100
AcDbLine
 10
342.74071
 20
480.82909
 11
342.74071
 21
478.12909
  0
LINE
  5
433
100
AcDbEntity
  8
M0
 62
     7
100
AcDbLine
 10
342.240717
 20
496.329091
 11
343.940716
 21
496.329091
  0
LINE
  5
434
100
AcDbEntity
  8
M0
 62
     7
100
AcDbLine
 10
342.74071
 20
466.42909
 11
342.74071
 21
469.12909
  0
LINE
  5
435
100
AcDbEntity
  8
M0
 62
     7
100
AcDbLine
 10
343.940716
 20
450.92909
 11
342.240717
 21
450.92909
  0
ARC
  5
436
100
AcDbEntity
  8
M0
 62
     7
100
AcDbCircle
 10
403.440714
 20
514.714877
 40
1.0
100
AcDbArc
 50
0.0
 51
45.0
  0
LINE
  5
437
100
AcDbEntity
  8
M0
 62
     7
100
AcDbLine
 10
415.340714
 20
515.129089
 11
424.540714
 21
515.129089
  0
LINE
  5
438
100
AcDbEntity
  8
M0
 62
     7
100
AcDbLine
 10
397.540714
 20
453.529091
 11
390.140714
 21
453.529091
  0
LINE
  5
439
100
AcDbEntity
  8
M0
 62
     7
100
AcDbLine
 10
350.040715
 20
477.32909
 11
348.040711
 21
477.32909
  0
LINE
  5
43A
100
AcDbEntity
  8
M0
 62
     7
100
AcDbLine
 10
425.340714
 20
512.098785
 11
425.040714
 21
512.098785
  0
LINE
  5
43B
100
AcDbEntity
  8
M0
 62
     7
100
AcDbLine
 10
414.340714
 20
435.12909
 11
413.340714
 21
434.129089
  0
LINE
  5
43C
100
AcDbEntity
  8
M0
 62
     7
100
AcDbLine
 10
417.840714
 20
487.42909
 11
419.840714
 21
487.42909
  0
LINE
  5
43D
100
AcDbEntity
  8
M0
 62
     7
100
AcDbLine
 10
417.840714
 20
491.42909
 11
417.840714
 21
490.989645
  0
LINE
  5
43E
100
AcDbEntity
  8
M0
 62
     7
100
AcDbLine
 10
383.480928
 20
500.264908
 11
385.640714
 21
498.429091
  0
LINE
  5
43F
100
AcDbEntity
  8
M0
 62
     7
100
AcDbLine
 10
390.140714
 20
437.129091
 11
381.940715
 21
437.129091
  0
LINE
  5
440
100
AcDbEntity
  8
M0
 62
     7
100
AcDbLine
 10
381.929401
 20
446.304734
 11
381.929401
 21
437.129091
  0
LINE
  5
441
100
AcDbEntity
  8
M0
 62
     7
100
AcDbLine
 10
388.140715
 20
477.92909
 11
387.840714
 21
477.92909
  0
LINE
  5
442
100
AcDbEntity
  8
M0
 62
     7
100
AcDbLine
 10
425.340714
 20
444.87909
 11
425.040714
 21
444.87909
  0
LINE
  5
443
100
AcDbEntity
  8
M0
 62
     7
100
AcDbLine
 10
402.040714
 20
490.689646
 11
402.040714
 21
487.812862
  0
LINE
  5
444
100
AcDbEntity
  8
M0
 62
     7
100
AcDbLine
 10
397.540714
 20
493.72909
 11
390.140714
 21
493.72909
  0
LINE
  5
445
100
AcDbEntity
  8
M0
 62
     7
100
AcDbLine
 10
381.537981
 20
446.279091
 11
367.440715
 21
446.279091
  0
LINE
  5
446
100
AcDbEntity
  8
M0
 62
     7
100
AcDbLine
 10
381.940715
 20
506.62909
 11
390.140714
 21
506.62909
  0
LINE
  5
447
100
AcDbEntity
  8
M0
 62
     7
100
AcDbLine
 10
419.840714
 20
459.82909
 11
417.840714
 21
459.82909
  0
LINE
  5
448
100
AcDbEntity
  8
M0
 62
     7
100
AcDbLine
 10
414.340714
 20
432.629089
 11
413.840714
 21
432.629089
  0
LINE
  5
449
100
AcDbEntity
  8
M0
 62
     7
100
AcDbLine
 10
420.840714
 20
485.429091
 11
421.140714
 21
485.92909
  0
LINE
  5
44A
100
AcDbEntity
  8
M0
 62
     7
100
AcDbLine
 10
425.040714
 20
514.629091
 11
425.040714
 21
512.098785
  0
ARC
  5
44B
100
AcDbEntity
  8
M0
 62
     7
100
AcDbCircle
 10
417.540714
 20
459.745318
 40
0.3
100
AcDbArc
 50
270.0
 51
360.0
  0
ARC
  5
44C
100
AcDbEntity
  8
M0
 62
     7
100
AcDbCircle
 10
417.540714
 20
487.512863
 40
0.3
100
AcDbArc
 50
0.0
 51
90.0
  0
LINE
  5
44D
100
AcDbEntity
  8
M0
 62
     7
100
AcDbLine
 10
397.540714
 20
453.529091
 11
397.540714
 21
458.52909
  0
ARC
  5
44E
100
AcDbEntity
  8
M0
 62
     7
100
AcDbCircle
 10
387.840714
 20
469.62909
 40
0.5
100
AcDbArc
 50
270.0
 51
306.869898
  0
LINE
  5
44F
100
AcDbEntity
  8
M0
 62
     7
100
AcDbLine
 10
364.440713
 20
496.72909
 11
364.440713
 21
497.979091
  0
LINE
  5
450
100
AcDbEntity
  8
M0
 62
     7
100
AcDbLine
 10
417.840714
 20
455.829091
 11
424.540714
 21
455.829091
  0
LINE
  5
451
100
AcDbEntity
  8
M0
 62
     7
100
AcDbLine
 10
347.040716
 20
478.32909
 11
347.040716
 21
490.729091
  0
LINE
  5
452
100
AcDbEntity
  8
M0
 62
     7
100
AcDbLine
 10
385.640714
 20
498.429091
 11
414.340714
 21
498.429091
  0
LINE
  5
453
100
AcDbEntity
  8
M0
 62
     7
100
AcDbLine
 10
390.140714
 20
506.62909
 11
394.847821
 21
511.336196
  0
LINE
  5
454
100
AcDbEntity
  8
M0
 62
     7
100
AcDbLine
 10
421.140714
 20
487.92909
 11
420.840714
 21
488.92909
  0
LINE
  5
455
100
AcDbEntity
  8
M0
 62
     7
100
AcDbLine
 10
421.140714
 20
487.92909
 11
421.140714
 21
485.92909
  0
LINE
  5
456
100
AcDbEntity
  8
M0
 62
     7
100
AcDbLine
 10
414.340714
 20
448.82909
 11
390.140714
 21
448.82909
  0
LINE
  5
457
100
AcDbEntity
  8
M0
 62
     7
100
AcDbLine
 10
348.940711
 20
516.129091
 11
374.287206
 21
516.129091
  0
ARC
  5
458
100
AcDbEntity
  8
M0
100
AcDbCircle
 10
80.191435
 20
432.1291
 40
1.0
100
AcDbArc
 50
180.0
 51
270.0
  0
ARC
  5
459
100
AcDbEntity
  8
M0
100
AcDbCircle
 10
106.441435
 20
513.9291
 40
2.65
100
AcDbArc
 50
350.223151
 51
369.776849
  0
ARC
  5
45A
100
AcDbEntity
  8
M0
100
AcDbCircle
 10
143.091435
 20
492.7291
 40
1.0
100
AcDbArc
 50
90.0
 51
180.0
  0
ARC
  5
45B
100
AcDbEntity
  8
M0
100
AcDbCircle
 10
80.891435
 20
432.1291
 40
1.0
100
AcDbArc
 50
270.0
 51
360.0
  0
ARC
  5
45C
100
AcDbEntity
  8
M0
100
AcDbCircle
 10
131.991435
 20
432.1291
 40
1.0
100
AcDbArc
 50
180.0
 51
270.0
  0
LINE
  5
45D
100
AcDbEntity
  8
M0
100
AcDbLine
 10
88.691434
 20
519.129099
 11
88.691434
 21
519.6291
  0
ARC
  5
45E
100
AcDbEntity
  8
M0
100
AcDbCircle
 10
106.441435
 20
513.9291
 40
2.65
100
AcDbArc
 50
189.776849
 51
350.223151
  0
ARC
  5
45F
100
AcDbEntity
  8
M0
100
AcDbCircle
 10
106.441435
 20
513.9291
 40
2.65
100
AcDbArc
 50
170.223151
 51
189.776849
  0
ARC
  5
460
100
AcDbEntity
  8
M0
100
AcDbCircle
 10
123.791435
 20
434.1291
 40
2.65
100
AcDbArc
 50
350.223151
 51
369.776849
  0
ARC
  5
461
100
AcDbEntity
  8
M0
100
AcDbCircle
 10
106.441435
 20
513.9291
 40
2.65
100
AcDbArc
 50
9.776849
 51
170.223151
  0
ARC
  5
462
100
AcDbEntity
  8
M0
100
AcDbCircle
 10
119.291435
 20
510.8291
 40
0.6
100
AcDbArc
 50
187.490122
 51
324.314617
  0
ARC
  5
463
100
AcDbEntity
  8
M0
100
AcDbCircle
 10
121.991435
 20
509.6291
 40
1.0
100
AcDbArc
 50
121.788346
 51
150.0
  0
LINE
  5
464
100
AcDbEntity
  8
M0
100
AcDbLine
 10
124.191436
 20
519.129099
 11
124.191436
 21
519.6291
  0
LINE
  5
465
100
AcDbEntity
  8
M0
100
AcDbLine
 10
85.991435
 20
511.629098
 11
86.491434
 21
511.629098
  0
LINE
  5
466
100
AcDbEntity
  8
M0
100
AcDbLine
 10
80.191436
 20
496.3291
 11
132.691434
 21
496.3291
  0
LINE
  5
467
100
AcDbEntity
  8
M0
100
AcDbLine
 10
70.941434
 20
456.979099
 11
70.941434
 21
463.4791
  0
LINE
  5
468
100
AcDbEntity
  8
M0
100
AcDbLine
 10
105.991435
 20
513.4791
 11
105.991435
 21
512.729098
  0
LINE
  5
469
100
AcDbEntity
  8
M0
100
AcDbLine
 10
108.028886
 20
513.4791
 11
106.891435
 21
513.4791
  0
CIRCLE
  5
46A
100
AcDbEntity
  8
M0
100
AcDbCircle
 10
123.791435
 20
434.1291
 40
2.825
  0
LINE
  5
46B
100
AcDbEntity
  8
M0
100
AcDbLine
 10
125.891434
 20
518.629101
 11
118.591435
 21
518.629101
  0
LINE
  5
46C
100
AcDbEntity
  8
M0
100
AcDbLine
 10
105.991435
 20
515.129098
 11
105.991435
 21
514.3791
  0
LINE
  5
46D
100
AcDbEntity
  8
M0
100
AcDbLine
 10
105.991435
 20
513.4791
 11
104.853984
 21
513.4791
  0
LINE
  5
46E
100
AcDbEntity
  8
M0
100
AcDbLine
 10
86.991435
 20
518.629101
 11
86.491434
 21
518.1291
  0
LINE
  5
46F
100
AcDbEntity
  8
M0
100
AcDbLine
 10
86.491434
 20
518.1291
 11
86.491434
 21
510.129099
  0
ARC
  5
470
100
AcDbEntity
  8
M0
100
AcDbCircle
 10
106.441434
 20
513.8791
 40
4.25
100
AcDbArc
 50
241.927521
 51
298.072495
  0
ARC
  5
471
100
AcDbEntity
  8
M0
100
AcDbCircle
 10
106.441434
 20
513.8791
 40
4.25
100
AcDbArc
 50
241.927521
 51
270.0
  0
ARC
  5
472
100
AcDbEntity
  8
M0
100
AcDbCircle
 10
93.591435
 20
510.8291
 40
0.6
100
AcDbArc
 50
215.685335
 51
270.0
  0
ARC
  5
473
100
AcDbEntity
  8
M0
100
AcDbCircle
 10
124.041435
 20
433.3791
 40
4.25
100
AcDbArc
 50
61.927513
 51
118.072487
  0
ARC
  5
474
100
AcDbEntity
  8
M0
100
AcDbCircle
 10
121.991435
 20
509.6291
 40
1.0
100
AcDbArc
 50
30.0
 51
58.211672
  0
ARC
  5
475
100
AcDbEntity
  8
M0
100
AcDbCircle
 10
106.441435
 20
433.3791
 40
4.25
100
AcDbArc
 50
61.927513
 51
118.072487
  0
ARC
  5
476
100
AcDbEntity
  8
M0
100
AcDbCircle
 10
124.041434
 20
513.8791
 40
4.25
100
AcDbArc
 50
241.927521
 51
298.072495
  0
ARC
  5
477
100
AcDbEntity
  8
M0
100
AcDbCircle
 10
88.841435
 20
433.3791
 40
4.25
100
AcDbArc
 50
61.927513
 51
118.072487
  0
ARC
  5
478
100
AcDbEntity
  8
M0
100
AcDbCircle
 10
124.041434
 20
513.8791
 40
4.25
100
AcDbArc
 50
241.927521
 51
270.0
  0
ARC
  5
479
100
AcDbEntity
  8
M0
100
AcDbCircle
 10
141.441435
 20
449.3791
 40
0.5
100
AcDbArc
 50
270.0
 51
360.0
  0
ARC
  5
47A
100
AcDbEntity
  8
M0
100
AcDbCircle
 10
141.441434
 20
455.8791
 40
0.5
100
AcDbArc
 50
0.0
 51
90.0
  0
ARC
  5
47B
100
AcDbEntity
  8
M0
100
AcDbCircle
 10
134.941435
 20
483.7791
 40
0.5
100
AcDbArc
 50
180.0
 51
270.0
  0
ARC
  5
47C
100
AcDbEntity
  8
M0
100
AcDbCircle
 10
134.941434
 20
455.879099
 40
0.5
100
AcDbArc
 50
90.0
 51
180.0
  0
ARC
  5
47D
100
AcDbEntity
  8
M0
100
AcDbCircle
 10
141.441435
 20
483.7791
 40
0.5
100
AcDbArc
 50
270.0
 51
360.0
  0
ARC
  5
47E
100
AcDbEntity
  8
M0
100
AcDbCircle
 10
141.441435
 20
490.2791
 40
0.5
100
AcDbArc
 50
0.0
 51
90.0
  0
ARC
  5
47F
100
AcDbEntity
  8
M0
100
AcDbCircle
 10
133.191435
 20
481.3291
 40
0.5
100
AcDbArc
 50
270.0
 51
360.0
  0
ARC
  5
480
100
AcDbEntity
  8
M0
100
AcDbCircle
 10
88.841434
 20
513.8791
 40
4.25
100
AcDbArc
 50
241.927521
 51
270.0
  0
ARC
  5
481
100
AcDbEntity
  8
M0
100
AcDbCircle
 10
88.841434
 20
513.8791
 40
4.25
100
AcDbArc
 50
241.927521
 51
298.072495
  0
ARC
  5
482
100
AcDbEntity
  8
M0
100
AcDbCircle
 10
80.191435
 20
495.3291
 40
1.0
100
AcDbArc
 50
90.0
 51
180.0
  0
ARC
  5
483
100
AcDbEntity
  8
M0
100
AcDbCircle
 10
71.441435
 20
463.4791
 40
0.5
100
AcDbArc
 50
90.0
 51
180.0
  0
ARC
  5
484
100
AcDbEntity
  8
M0
100
AcDbCircle
 10
77.941435
 20
456.9791
 40
0.5
100
AcDbArc
 50
270.0
 51
360.0
  0
ARC
  5
485
100
AcDbEntity
  8
M0
100
AcDbCircle
 10
71.441434
 20
490.279099
 40
0.5
100
AcDbArc
 50
90.0
 51
180.0
  0
ARC
  5
486
100
AcDbEntity
  8
M0
100
AcDbCircle
 10
71.441435
 20
483.779099
 40
0.5
100
AcDbArc
 50
180.0
 51
270.0
  0
ARC
  5
487
100
AcDbEntity
  8
M0
100
AcDbCircle
 10
71.441435
 20
483.779099
 40
0.5
100
AcDbArc
 50
180.0
 51
270.0
  0
ARC
  5
488
100
AcDbEntity
  8
M0
100
AcDbCircle
 10
77.941435
 20
483.7791
 40
0.5
100
AcDbArc
 50
270.0
 51
360.0
  0
ARC
  5
489
100
AcDbEntity
  8
M0
100
AcDbCircle
 10
71.441435
 20
456.9791
 40
0.5
100
AcDbArc
 50
180.0
 51
270.0
  0
ARC
  5
48A
100
AcDbEntity
  8
M0
100
AcDbCircle
 10
134.941435
 20
490.2791
 40
0.5
100
AcDbArc
 50
90.0
 51
180.0
  0
ARC
  5
48B
100
AcDbEntity
  8
M0
100
AcDbCircle
 10
77.941434
 20
490.2791
 40
0.5
100
AcDbArc
 50
0.0
 51
90.0
  0
ARC
  5
48C
100
AcDbEntity
  8
M0
100
AcDbCircle
 10
77.941435
 20
463.4791
 40
0.5
100
AcDbArc
 50
0.0
 51
90.0
  0
LINE
  5
48D
100
AcDbEntity
  8
M0
100
AcDbLine
 10
77.941435
 20
456.4791
 11
71.441435
 21
456.4791
  0
LINE
  5
48E
100
AcDbEntity
  8
M0
100
AcDbLine
 10
141.441435
 20
483.2791
 11
134.941435
 21
483.2791
  0
LINE
  5
48F
100
AcDbEntity
  8
M0
100
AcDbLine
 10
134.941435
 20
490.779099
 11
141.441435
 21
490.779099
  0
LINE
  5
490
100
AcDbEntity
  8
M0
100
AcDbLine
 10
141.941436
 20
490.2791
 11
141.941436
 21
483.7791
  0
LINE
  5
491
100
AcDbEntity
  8
M0
100
AcDbLine
 10
71.441435
 20
463.979099
 11
77.941435
 21
463.979099
  0
LINE
  5
492
100
AcDbEntity
  8
M0
100
AcDbLine
 10
141.441435
 20
456.4791
 11
134.941435
 21
456.4791
  0
LINE
  5
493
100
AcDbEntity
  8
M0
100
AcDbLine
 10
141.941436
 20
456.979101
 11
141.941436
 21
463.4791
  0
LINE
  5
494
100
AcDbEntity
  8
M0
100
AcDbLine
 10
77.941435
 20
448.8791
 11
71.441435
 21
448.8791
  0
LINE
  5
495
100
AcDbEntity
  8
M0
100
AcDbLine
 10
134.941435
 20
463.979099
 11
141.441434
 21
463.979099
  0
ARC
  5
496
100
AcDbEntity
  8
M0
100
AcDbCircle
 10
79.691435
 20
481.3291
 40
0.5
100
AcDbArc
 50
180.0
 51
270.0
  0
LINE
  5
497
100
AcDbEntity
  8
M0
  6
DASHDOT
100
AcDbLine
 10
246.291429
 20
473.6291
 11
53.491439
 21
473.6291
  0
LINE
  5
498
100
AcDbEntity
  8
M0
100
AcDbLine
 10
134.441436
 20
483.7791
 11
134.441436
 21
490.2791
  0
LINE
  5
499
100
AcDbEntity
  8
M0
  6
DASHDOT
100
AcDbLine
 10
106.441435
 20
426.129099
 11
106.441435
 21
525.129101
  0
LINE
  5
49A
100
AcDbEntity
  8
M0
100
AcDbLine
 10
71.441434
 20
490.779099
 11
77.941435
 21
490.779099
  0
LINE
  5
49B
100
AcDbEntity
  8
M0
100
AcDbLine
 10
77.941435
 20
483.2791
 11
71.441435
 21
483.2791
  0
LINE
  5
49C
100
AcDbEntity
  8
M0
100
AcDbLine
 10
125.641435
 20
510.479097
 11
119.141436
 21
510.479097
  0
LINE
  5
49D
100
AcDbEntity
  8
M0
100
AcDbLine
 10
69.791437
 20
453.5291
 11
69.691435
 21
453.5291
  0
LINE
  5
49E
100
AcDbEntity
  8
M0
100
AcDbLine
 10
70.941434
 20
497.879098
 11
70.941434
 21
491.379099
  0
LINE
  5
49F
100
AcDbEntity
  8
M0
100
AcDbLine
 10
126.141435
 20
510.979098
 11
126.141435
 21
517.4791
  0
LINE
  5
4A0
100
AcDbEntity
  8
M0
100
AcDbLine
 10
78.441436
 20
497.8791
 11
78.441436
 21
491.3791
  0
LINE
  5
4A1
100
AcDbEntity
  8
M0
100
AcDbLine
 10
119.141434
 20
517.979101
 11
125.641434
 21
517.979101
  0
LINE
  5
4A2
100
AcDbEntity
  8
M0
100
AcDbLine
 10
130.991435
 20
432.129101
 11
130.991435
 21
434.129098
  0
LINE
  5
4A3
100
AcDbEntity
  8
M0
100
AcDbLine
 10
118.641436
 20
510.979098
 11
118.641432
 21
517.479099
  0
LINE
  5
4A4
100
AcDbEntity
  8
M0
100
AcDbLine
 10
95.791435
 20
434.129098
 11
95.791435
 21
432.129101
  0
LINE
  5
4A5
100
AcDbEntity
  8
M0
100
AcDbLine
 10
143.191435
 20
493.729099
 11
143.091433
 21
493.729099
  0
LINE
  5
4A6
100
AcDbEntity
  8
M0
100
AcDbLine
 10
143.091433
 20
453.5291
 11
143.191435
 21
453.5291
  0
LINE
  5
4A7
100
AcDbEntity
  8
M0
100
AcDbLine
 10
69.691435
 20
493.729099
 11
69.791437
 21
493.729099
  0
ARC
  5
4A8
100
AcDbEntity
  8
M0
100
AcDbCircle
 10
141.441435
 20
456.9791
 40
0.5
100
AcDbArc
 50
270.0
 51
360.0
  0
ARC
  5
4A9
100
AcDbEntity
  8
M0
100
AcDbCircle
 10
141.441435
 20
456.9791
 40
0.5
100
AcDbArc
 50
270.0
 51
360.0
  0
ARC
  5
4AA
100
AcDbEntity
  8
M0
100
AcDbCircle
 10
78.541435
 20
434.6291
 40
0.5
100
AcDbArc
 50
180.0
 51
270.0
  0
ARC
  5
4AB
100
AcDbEntity
  8
M0
100
AcDbCircle
 10
77.991435
 20
513.1291
 40
2.0
100
AcDbArc
 50
53.130102
 51
90.0
  0
ARC
  5
4AC
100
AcDbEntity
  8
M0
100
AcDbCircle
 10
134.891435
 20
513.1291
 40
2.0
100
AcDbArc
 50
90.0
 51
126.869898
  0
ARC
  5
4AD
100
AcDbEntity
  8
M0
100
AcDbCircle
 10
71.441435
 20
449.3791
 40
0.5
100
AcDbArc
 50
180.0
 51
270.0
  0
CIRCLE
  5
4AE
100
AcDbEntity
  8
M0
100
AcDbCircle
 10
89.091435
 20
434.1291
 40
2.85
  0
CIRCLE
  5
4AF
100
AcDbEntity
  8
M0
100
AcDbCircle
 10
89.091435
 20
434.1291
 40
2.825
  0
ARC
  5
4B0
100
AcDbEntity
  8
M0
100
AcDbCircle
 10
71.441434
 20
490.279099
 40
0.5
100
AcDbArc
 50
90.0
 51
180.0
  0
ARC
  5
4B1
100
AcDbEntity
  8
M0
100
AcDbCircle
 10
134.941434
 20
463.479099
 40
0.5
100
AcDbArc
 50
90.0
 51
180.0
  0
ARC
  5
4B2
100
AcDbEntity
  8
M0
100
AcDbCircle
 10
134.941435
 20
456.979099
 40
0.5
100
AcDbArc
 50
180.0
 51
270.0
  0
ARC
  5
4B3
100
AcDbEntity
  8
M0
100
AcDbCircle
 10
141.441434
 20
463.4791
 40
0.5
100
AcDbArc
 50
0.0
 51
90.0
  0
LINE
  5
4B4
100
AcDbEntity
  8
M0
100
AcDbLine
 10
70.941434
 20
490.279098
 11
70.941434
 21
483.779099
  0
ARC
  5
4B5
100
AcDbEntity
  8
M0
100
AcDbCircle
 10
143.091435
 20
447.2791
 40
1.0
100
AcDbArc
 50
180.0
 51
270.0
  0
LINE
  5
4B6
100
AcDbEntity
  8
M0
100
AcDbLine
 10
141.941436
 20
455.8791
 11
141.941436
 21
449.3791
  0
LINE
  5
4B7
100
AcDbEntity
  8
M0
100
AcDbLine
 10
134.941434
 20
456.3791
 11
141.441435
 21
456.3791
  0
LINE
  5
4B8
100
AcDbEntity
  8
M0
100
AcDbLine
 10
134.441436
 20
449.379099
 11
134.441436
 21
455.879099
  0
LINE
  5
4B9
100
AcDbEntity
  8
M0
100
AcDbLine
 10
141.441435
 20
448.8791
 11
134.941435
 21
448.8791
  0
ARC
  5
4BA
100
AcDbEntity
  8
M0
100
AcDbCircle
 10
83.488303
 20
485.478356
 40
5.573176
100
AcDbArc
 50
208.520126
 51
219.557059
  0
ARC
  5
4BB
100
AcDbEntity
  8
M0
100
AcDbCircle
 10
129.394567
 20
485.478356
 40
5.573176
100
AcDbArc
 50
320.442941
 51
331.479874
  0
ARC
  5
4BC
100
AcDbEntity
  8
M0
100
AcDbCircle
 10
79.191435
 20
493.1291
 40
0.6
100
AcDbArc
 50
90.0
 51
180.0
  0
ARC
  5
4BD
100
AcDbEntity
  8
M0
100
AcDbCircle
 10
68.991435
 20
499.9791
 40
1.0
100
AcDbArc
 50
90.0
 51
180.0
  0
ARC
  5
4BE
100
AcDbEntity
  8
M0
100
AcDbCircle
 10
133.691435
 20
493.1291
 40
0.6
100
AcDbArc
 50
0.0
 51
90.0
  0
ARC
  5
4BF
100
AcDbEntity
  8
M0
100
AcDbCircle
 10
69.791435
 20
499.9791
 40
1.0
100
AcDbArc
 50
0.0
 51
90.0
  0
LINE
  5
4C0
100
AcDbEntity
  8
M0
100
AcDbLine
 10
94.241435
 20
517.4791
 11
94.241435
 21
510.979098
  0
LINE
  5
4C1
100
AcDbEntity
  8
M0
100
AcDbLine
 10
78.441434
 20
455.8791
 11
78.441434
 21
449.379099
  0
LINE
  5
4C2
100
AcDbEntity
  8
M0
100
AcDbLine
 10
134.941435
 20
498.379099
 11
141.441435
 21
498.379099
  0
LINE
  5
4C3
100
AcDbEntity
  8
M0
100
AcDbLine
 10
141.441435
 20
490.879099
 11
134.941435
 21
490.879099
  0
LINE
  5
4C4
100
AcDbEntity
  8
M0
100
AcDbLine
 10
134.441436
 20
491.3791
 11
134.441436
 21
497.8791
  0
LINE
  5
4C5
100
AcDbEntity
  8
M0
100
AcDbLine
 10
87.241435
 20
517.979098
 11
93.741435
 21
517.979098
  0
LINE
  5
4C6
100
AcDbEntity
  8
M0
100
AcDbLine
 10
71.441435
 20
456.3791
 11
77.941435
 21
456.3791
  0
LINE
  5
4C7
100
AcDbEntity
  8
M0
100
AcDbLine
 10
134.441436
 20
456.979099
 11
134.441436
 21
463.479099
  0
LINE
  5
4C8
100
AcDbEntity
  8
M0
100
AcDbLine
 10
86.741435
 20
510.979098
 11
86.741435
 21
517.4791
  0
LINE
  5
4C9
100
AcDbEntity
  8
M0
100
AcDbLine
 10
141.941436
 20
497.8791
 11
141.941436
 21
491.3791
  0
LINE
  5
4CA
100
AcDbEntity
  8
M0
100
AcDbLine
 10
93.741435
 20
510.479101
 11
87.241435
 21
510.479101
  0
LINE
  5
4CB
100
AcDbEntity
  8
M0
100
AcDbLine
 10
104.853984
 20
514.3791
 11
103.829922
 21
514.3791
  0
LINE
  5
4CC
100
AcDbEntity
  8
M0
100
AcDbLine
 10
123.341434
 20
433.679101
 11
123.341434
 21
432.9291
  0
LINE
  5
4CD
100
AcDbEntity
  8
M0
100
AcDbLine
 10
123.341434
 20
435.329099
 11
123.341434
 21
434.579098
  0
LINE
  5
4CE
100
AcDbEntity
  8
M0
100
AcDbLine
 10
103.829922
 20
513.4791
 11
104.853984
 21
513.4791
  0
LINE
  5
4CF
100
AcDbEntity
  8
M0
100
AcDbLine
 10
124.241434
 20
432.9291
 11
124.241434
 21
433.679101
  0
LINE
  5
4D0
100
AcDbEntity
  8
M0
100
AcDbLine
 10
124.241434
 20
435.329099
 11
123.341434
 21
435.329099
  0
LINE
  5
4D1
100
AcDbEntity
  8
M0
100
AcDbLine
 10
81.891435
 20
437.1291
 11
86.841435
 21
437.1291
  0
LINE
  5
4D2
100
AcDbEntity
  8
M0
100
AcDbLine
 10
126.391435
 20
518.1291
 11
125.891434
 21
518.629101
  0
LINE
  5
4D3
100
AcDbEntity
  8
M0
100
AcDbLine
 10
134.291435
 20
456.429099
 11
142.091435
 21
456.429099
  0
LINE
  5
4D4
100
AcDbEntity
  8
M0
100
AcDbLine
 10
126.391435
 20
510.129099
 11
126.391435
 21
518.1291
  0
LINE
  5
4D5
100
AcDbEntity
  8
M0
100
AcDbLine
 10
124.241434
 20
434.579098
 11
125.378885
 21
434.579098
  0
LINE
  5
4D6
100
AcDbEntity
  8
M0
100
AcDbLine
 10
94.291435
 20
518.629101
 11
85.991435
 21
518.629101
  0
LINE
  5
4D7
100
AcDbEntity
  8
M0
100
AcDbLine
 10
106.891435
 20
515.129098
 11
105.991435
 21
515.129098
  0
LINE
  5
4D8
100
AcDbEntity
  8
M0
100
AcDbLine
 10
105.991435
 20
512.729098
 11
106.891435
 21
512.729098
  0
LINE
  5
4D9
100
AcDbEntity
  8
M0
100
AcDbLine
 10
106.891435
 20
514.3791
 11
108.028886
 21
514.3791
  0
LINE
  5
4DA
100
AcDbEntity
  8
M0
100
AcDbLine
 10
104.853984
 20
514.3791
 11
105.991435
 21
514.3791
  0
LINE
  5
4DB
100
AcDbEntity
  8
M0
100
AcDbLine
 10
78.441434
 20
463.479099
 11
78.441434
 21
456.9791
  0
LINE
  5
4DC
100
AcDbEntity
  8
M0
100
AcDbLine
 10
108.028886
 20
513.4791
 11
109.052948
 21
513.4791
  0
LINE
  5
4DD
100
AcDbEntity
  8
M0
100
AcDbLine
 10
109.052948
 20
514.3791
 11
108.028886
 21
514.3791
  0
LINE
  5
4DE
100
AcDbEntity
  8
M0
100
AcDbLine
 10
125.378885
 20
433.679101
 11
124.241434
 21
433.679101
  0
LINE
  5
4DF
100
AcDbEntity
  8
M0
100
AcDbLine
 10
123.341434
 20
433.679101
 11
122.203984
 21
433.679101
  0
LINE
  5
4E0
100
AcDbEntity
  8
M0
100
AcDbLine
 10
106.891435
 20
514.3791
 11
106.891435
 21
515.129098
  0
LINE
  5
4E1
100
AcDbEntity
  8
M0
100
AcDbLine
 10
106.891435
 20
512.729098
 11
106.891435
 21
513.4791
  0
ARC
  5
4E2
100
AcDbEntity
  8
M0
100
AcDbCircle
 10
141.441434
 20
455.8791
 40
0.5
100
AcDbArc
 50
0.0
 51
90.0
  0
ARC
  5
4E3
100
AcDbEntity
  8
M0
100
AcDbCircle
 10
134.941435
 20
449.379099
 40
0.5
100
AcDbArc
 50
180.0
 51
270.0
  0
ARC
  5
4E4
100
AcDbEntity
  8
M0
100
AcDbCircle
 10
132.691435
 20
515.1291
 40
1.0
100
AcDbArc
 50
0.0
 51
90.0
  0
ARC
  5
4E5
100
AcDbEntity
  8
M0
100
AcDbCircle
 10
141.441435
 20
449.3791
 40
0.5
100
AcDbArc
 50
270.0
 51
360.0
  0
ARC
  5
4E6
100
AcDbEntity
  8
M0
100
AcDbCircle
 10
77.941435
 20
455.8791
 40
0.5
100
AcDbArc
 50
0.0
 51
90.0
  0
ARC
  5
4E7
100
AcDbEntity
  8
M0
100
AcDbCircle
 10
89.091435
 20
434.1291
 40
2.65
100
AcDbArc
 50
189.776849
 51
350.223151
  0
ARC
  5
4E8
100
AcDbEntity
  8
M0
100
AcDbCircle
 10
77.941435
 20
449.3791
 40
0.5
100
AcDbArc
 50
270.0
 51
360.0
  0
LINE
  5
4E9
100
AcDbEntity
  8
M0
100
AcDbLine
 10
70.941434
 20
449.379099
 11
70.941434
 21
455.8791
  0
ARC
  5
4EA
100
AcDbEntity
  8
M0
100
AcDbCircle
 10
87.241435
 20
510.9791
 40
0.5
100
AcDbArc
 50
180.0
 51
270.0
  0
ARC
  5
4EB
100
AcDbEntity
  8
M0
100
AcDbCircle
 10
71.441435
 20
455.8791
 40
0.5
100
AcDbArc
 50
90.0
 51
180.0
  0
ARC
  5
4EC
100
AcDbEntity
  8
M0
100
AcDbCircle
 10
93.741435
 20
510.9791
 40
0.5
100
AcDbArc
 50
270.0
 51
360.0
  0
ARC
  5
4ED
100
AcDbEntity
  8
M0
100
AcDbCircle
 10
93.741435
 20
517.4791
 40
0.5
100
AcDbArc
 50
0.0
 51
90.0
  0
ARC
  5
4EE
100
AcDbEntity
  8
M0
100
AcDbCircle
 10
77.941434
 20
497.8791
 40
0.5
100
AcDbArc
 50
0.0
 51
90.0
  0
ARC
  5
4EF
100
AcDbEntity
  8
M0
100
AcDbCircle
 10
77.941435
 20
491.3791
 40
0.5
100
AcDbArc
 50
270.0
 51
360.0
  0
LINE
  5
4F0
100
AcDbEntity
  8
M0
100
AcDbLine
 10
130.991435
 20
510.129099
 11
126.041435
 21
510.129099
  0
LINE
  5
4F1
100
AcDbEntity
  8
M0
100
AcDbLine
 10
99.491435
 20
437.1291
 11
104.441435
 21
437.1291
  0
LINE
  5
4F2
100
AcDbEntity
  8
M0
100
AcDbLine
 10
117.091435
 20
437.1291
 11
122.041435
 21
437.1291
  0
ARC
  5
4F3
100
AcDbEntity
  8
M0
100
AcDbCircle
 10
71.441435
 20
491.379099
 40
0.5
100
AcDbArc
 50
180.0
 51
270.0
  0
ARC
  5
4F4
100
AcDbEntity
  8
M0
100
AcDbCircle
 10
119.141434
 20
517.479099
 40
0.5
100
AcDbArc
 50
90.0
 51
180.0
  0
ARC
  5
4F5
100
AcDbEntity
  8
M0
100
AcDbCircle
 10
119.141435
 20
510.979099
 40
0.5
100
AcDbArc
 50
180.0
 51
270.0
  0
ARC
  5
4F6
100
AcDbEntity
  8
M0
100
AcDbCircle
 10
71.441434
 20
497.879099
 40
0.5
100
AcDbArc
 50
90.0
 51
180.0
  0
ARC
  5
4F7
100
AcDbEntity
  8
M0
100
AcDbCircle
 10
125.641435
 20
510.9791
 40
0.5
100
AcDbArc
 50
270.0
 51
360.0
  0
ARC
  5
4F8
100
AcDbEntity
  8
M0
100
AcDbCircle
 10
125.641434
 20
517.4791
 40
0.5
100
AcDbArc
 50
0.0
 51
90.0
  0
LINE
  5
4F9
100
AcDbEntity
  8
M0
100
AcDbLine
 10
71.691435
 20
498.4291
 11
70.791435
 21
498.4291
  0
LINE
  5
4FA
100
AcDbEntity
  8
M0
100
AcDbLine
 10
95.991435
 20
515.729101
 11
95.991435
 21
517.929101
  0
LINE
  5
4FB
100
AcDbEntity
  8
M0
100
AcDbLine
 10
141.191435
 20
498.4291
 11
142.091435
 21
498.4291
  0
LINE
  5
4FC
100
AcDbEntity
  8
M0
100
AcDbLine
 10
104.441435
 20
437.1291
 11
108.441435
 21
437.1291
  0
LINE
  5
4FD
100
AcDbEntity
  8
M0
100
AcDbLine
 10
122.041434
 20
510.129099
 11
128.491436
 21
510.129099
  0
LINE
  5
4FE
100
AcDbEntity
  8
M0
100
AcDbLine
 10
134.291435
 20
498.4291
 11
135.191435
 21
498.4291
  0
ARC
  5
4FF
100
AcDbEntity
  8
M0
100
AcDbCircle
 10
78.191435
 20
468.4291
 40
1.0
100
AcDbArc
 50
180.0
 51
270.0
  0
ARC
  5
500
100
AcDbEntity
  8
M0
100
AcDbCircle
 10
74.990945
 20
506.0791
 40
0.3
100
AcDbArc
 50
90.0
 51
178.876481
  0
ARC
  5
501
100
AcDbEntity
  8
M0
100
AcDbCircle
 10
96.291435
 20
498.5291
 40
0.5
100
AcDbArc
 50
180.0
 51
270.0
  0
ARC
  5
502
100
AcDbEntity
  8
M0
100
AcDbCircle
 10
123.791435
 20
434.1291
 40
3.5
100
AcDbArc
 50
121.002719
 51
180.0
  0
ARC
  5
503
100
AcDbEntity
  8
M0
100
AcDbCircle
 10
113.891435
 20
448.7291
 40
0.5
100
AcDbArc
 50
90.0
 51
180.0
  0
LINE
  5
504
100
AcDbEntity
  8
M0
100
AcDbLine
 10
143.191435
 20
500.979099
 11
143.091433
 21
500.979099
  0
LINE
  5
505
100
AcDbEntity
  8
M0
100
AcDbLine
 10
95.341435
 20
432.129101
 11
95.341435
 21
437.1291
  0
LINE
  5
506
100
AcDbEntity
  8
M0
100
AcDbLine
 10
82.841434
 20
432.129101
 11
82.841434
 21
437.1291
  0
LINE
  5
507
100
AcDbEntity
  8
M0
100
AcDbLine
 10
117.541435
 20
432.129101
 11
117.541435
 21
437.1291
  0
LINE
  5
508
100
AcDbEntity
  8
M0
100
AcDbLine
 10
96.491435
 20
518.429098
 11
116.391435
 21
518.429098
  0
LINE
  5
509
100
AcDbEntity
  8
M0
100
AcDbLine
 10
69.691435
 20
446.2791
 11
69.791437
 21
446.2791
  0
LINE
  5
50A
100
AcDbEntity
  8
M0
100
AcDbLine
 10
130.041436
 20
437.1291
 11
130.041436
 21
432.129101
  0
LINE
  5
50B
100
AcDbEntity
  8
M0
100
AcDbLine
 10
120.291435
 20
434.129098
 11
120.291435
 21
432.129101
  0
LINE
  5
50C
100
AcDbEntity
  8
M0
100
AcDbLine
 10
85.591434
 20
434.129098
 11
85.591434
 21
432.129101
  0
LINE
  5
50D
100
AcDbEntity
  8
M0
100
AcDbLine
 10
85.991435
 20
510.129099
 11
85.991435
 21
519.1291
  0
LINE
  5
50E
100
AcDbEntity
  8
M0
100
AcDbLine
 10
142.391435
 20
431.129099
 11
118.541435
 21
431.129099
  0
LINE
  5
50F
100
AcDbEntity
  8
M0
100
AcDbLine
 10
69.691435
 20
500.979099
 11
69.791437
 21
500.979099
  0
LINE
  5
510
100
AcDbEntity
  8
M0
100
AcDbLine
 10
116.891435
 20
517.929101
 11
116.891435
 21
515.729101
  0
ARC
  5
511
100
AcDbEntity
  8
M0
100
AcDbCircle
 10
70.491435
 20
512.1291
 40
3.0
100
AcDbArc
 50
90.0
 51
180.0
  0
ARC
  5
512
100
AcDbEntity
  8
M0
100
AcDbCircle
 10
141.891435
 20
512.1291
 40
3.0
100
AcDbArc
 50
0.0
 51
90.0
  0
ARC
  5
513
100
AcDbEntity
  8
M0
100
AcDbCircle
 10
88.191435
 20
519.1291
 40
0.5
100
AcDbArc
 50
270.0
 51
360.0
  0
ARC
  5
514
100
AcDbEntity
  8
M0
100
AcDbCircle
 10
78.541435
 20
433.1291
 40
0.5
100
AcDbArc
 50
180.0
 51
270.0
  0
ARC
  5
515
100
AcDbEntity
  8
M0
100
AcDbCircle
 10
124.691435
 20
519.6291
 40
0.5
100
AcDbArc
 50
90.0
 51
180.0
  0
ARC
  5
516
100
AcDbEntity
  8
M0
100
AcDbCircle
 10
124.691435
 20
519.1291
 40
0.5
100
AcDbArc
 50
180.0
 51
270.0
  0
ARC
  5
517
100
AcDbEntity
  8
M0
100
AcDbCircle
 10
128.291435
 20
432.1291
 40
1.0
100
AcDbArc
 50
180.0
 51
270.0
  0
ARC
  5
518
100
AcDbEntity
  8
M0
100
AcDbCircle
 10
94.341435
 20
432.1291
 40
1.0
100
AcDbArc
 50
270.0
 51
360.0
  0
ARC
  5
519
100
AcDbEntity
  8
M0
100
AcDbCircle
 10
83.841435
 20
432.1291
 40
1.0
100
AcDbArc
 50
180.0
 51
270.0
  0
ARC
  5
51A
100
AcDbEntity
  8
M0
100
AcDbCircle
 10
119.291435
 20
432.1291
 40
1.0
100
AcDbArc
 50
270.0
 51
360.0
  0
ARC
  5
51B
100
AcDbEntity
  8
M0
100
AcDbCircle
 10
84.991435
 20
519.1291
 40
1.0
100
AcDbArc
 50
90.0
 51
180.0
  0
ARC
  5
51C
100
AcDbEntity
  8
M0
100
AcDbCircle
 10
84.591435
 20
432.1291
 40
1.0
100
AcDbArc
 50
270.0
 51
360.0
  0
ARC
  5
51D
100
AcDbEntity
  8
M0
100
AcDbCircle
 10
138.941435
 20
438.6291
 40
2.25
100
AcDbArc
 50
270.0
 51
355.815286
  0
ARC
  5
51E
100
AcDbEntity
  8
M0
100
AcDbCircle
 10
114.391435
 20
432.1291
 40
1.0
100
AcDbArc
 50
180.0
 51
270.0
  0
ARC
  5
51F
100
AcDbEntity
  8
M0
100
AcDbCircle
 10
71.391925
 20
508.6791
 40
0.3
100
AcDbArc
 50
270.0
 51
358.876481
  0
ARC
  5
520
100
AcDbEntity
  8
M0
100
AcDbCircle
 10
73.941435
 20
508.6291
 40
2.25
100
AcDbArc
 50
90.0
 51
178.876481
  0
ARC
  5
521
100
AcDbEntity
  8
M0
100
AcDbCircle
 10
76.441435
 20
508.6291
 40
2.25
100
AcDbArc
 50
270.0
 51
450.0
  0
ARC
  5
522
100
AcDbEntity
  8
M0
100
AcDbCircle
 10
88.191435
 20
519.6291
 40
0.5
100
AcDbArc
 50
0.0
 51
90.0
  0
ARC
  5
523
100
AcDbEntity
  8
M0
100
AcDbCircle
 10
116.591435
 20
448.7291
 40
0.5
100
AcDbArc
 50
0.0
 51
90.0
  0
ARC
  5
524
100
AcDbEntity
  8
M0
100
AcDbCircle
 10
72.441435
 20
506.1291
 40
2.25
100
AcDbArc
 50
272.401074
 51
358.876481
  0
ARC
  5
525
100
AcDbEntity
  8
M0
100
AcDbCircle
 10
136.441435
 20
438.6291
 40
2.25
100
AcDbArc
 50
90.0
 51
270.0
  0
ARC
  5
526
100
AcDbEntity
  8
M0
100
AcDbCircle
 10
96.291435
 20
448.7291
 40
0.5
100
AcDbArc
 50
90.0
 51
180.0
  0
ARC
  5
527
100
AcDbEntity
  8
M0
100
AcDbCircle
 10
98.991435
 20
448.7291
 40
0.5
100
AcDbArc
 50
0.0
 51
90.0
  0
LINE
  5
528
100
AcDbEntity
  8
M0
100
AcDbLine
 10
134.891434
 20
515.129098
 11
141.891435
 21
515.129098
  0
LINE
  5
529
100
AcDbEntity
  8
M0
100
AcDbLine
 10
144.891434
 20
449.829099
 11
145.391435
 21
444.8291
  0
LINE
  5
52A
100
AcDbEntity
  8
M0
100
AcDbLine
 10
79.191436
 20
434.129098
 11
78.541436
 21
434.129098
  0
LINE
  5
52B
100
AcDbEntity
  8
M0
100
AcDbLine
 10
71.391926
 20
508.379099
 11
70.941434
 21
508.379099
  0
LINE
  5
52C
100
AcDbEntity
  8
M0
100
AcDbLine
 10
76.441436
 20
510.8791
 11
73.941436
 21
510.8791
  0
LINE
  5
52D
100
AcDbEntity
  8
M0
100
AcDbLine
 10
70.941434
 20
503.879099
 11
72.535698
 21
503.881076
  0
LINE
  5
52E
100
AcDbEntity
  8
M0
100
AcDbLine
 10
78.041435
 20
434.629099
 11
78.041435
 21
435.1291
  0
LINE
  5
52F
100
AcDbEntity
  8
M0
100
AcDbLine
 10
85.991435
 20
514.629101
 11
86.491434
 21
514.629101
  0
LINE
  5
530
100
AcDbEntity
  8
M0
100
AcDbLine
 10
79.191436
 20
435.1291
 11
78.041435
 21
435.1291
  0
LINE
  5
531
100
AcDbEntity
  8
M0
100
AcDbLine
 10
126.891435
 20
515.729101
 11
126.391435
 21
515.729101
  0
LINE
  5
532
100
AcDbEntity
  8
M0
100
AcDbLine
 10
85.991435
 20
516.929099
 11
86.491434
 21
516.929099
  0
LINE
  5
533
100
AcDbEntity
  8
M0
100
AcDbLine
 10
86.491434
 20
515.729101
 11
85.991435
 21
515.729101
  0
ARC
  5
534
100
AcDbEntity
  8
M0
100
AcDbCircle
 10
118.541435
 20
432.1291
 40
1.0
100
AcDbArc
 50
180.0
 51
270.0
  0
ARC
  5
535
100
AcDbEntity
  8
M0
100
AcDbCircle
 10
129.041435
 20
432.1291
 40
1.0
100
AcDbArc
 50
270.0
 51
360.0
  0
ARC
  5
536
100
AcDbEntity
  8
M0
100
AcDbCircle
 10
123.791435
 20
434.1291
 40
3.5
100
AcDbArc
 50
0.0
 51
58.997281
  0
ARC
  5
537
100
AcDbEntity
  8
M0
100
AcDbCircle
 10
116.391435
 20
517.9291
 40
0.5
100
AcDbArc
 50
0.0
 51
90.0
  0
ARC
  5
538
100
AcDbEntity
  8
M0
100
AcDbCircle
 10
89.091435
 20
434.1291
 40
3.5
100
AcDbArc
 50
91.94738
 51
121.002719
  0
ARC
  5
539
100
AcDbEntity
  8
M0
100
AcDbCircle
 10
89.091435
 20
434.1291
 40
3.5
100
AcDbArc
 50
121.002719
 51
180.0
  0
CIRCLE
  5
53A
100
AcDbEntity
  8
M0
100
AcDbCircle
 10
106.441435
 20
513.9291
 40
3.1
  0
LINE
  5
53B
100
AcDbEntity
  8
M0
100
AcDbLine
 10
74.990944
 20
506.379099
 11
76.441436
 21
506.379099
  0
ARC
  5
53C
100
AcDbEntity
  8
M0
100
AcDbCircle
 10
123.791435
 20
434.1291
 40
3.5
100
AcDbArc
 50
58.997281
 51
88.05262
  0
ARC
  5
53D
100
AcDbEntity
  8
M0
100
AcDbCircle
 10
68.991435
 20
447.2791
 40
1.0
100
AcDbArc
 50
180.0
 51
270.0
  0
ARC
  5
53E
100
AcDbEntity
  8
M0
100
AcDbCircle
 10
96.491435
 20
517.9291
 40
0.5
100
AcDbArc
 50
90.0
 51
180.0
  0
ARC
  5
53F
100
AcDbEntity
  8
M0
100
AcDbCircle
 10
89.091435
 20
434.1291
 40
3.5
100
AcDbArc
 50
0.0
 51
58.997281
  0
LINE
  5
540
100
AcDbEntity
  8
M0
100
AcDbLine
 10
113.391435
 20
432.129101
 11
113.391435
 21
436.129098
  0
LINE
  5
541
100
AcDbEntity
  8
M0
100
AcDbLine
 10
113.391435
 20
436.129098
 11
113.391435
 21
448.729099
  0
LINE
  5
542
100
AcDbEntity
  8
M0
100
AcDbLine
 10
114.391435
 20
449.2291
 11
116.091435
 21
449.2291
  0
LINE
  5
543
100
AcDbEntity
  8
M0
100
AcDbLine
 10
127.291436
 20
432.129101
 11
127.291436
 21
434.129098
  0
LINE
  5
544
100
AcDbEntity
  8
M0
100
AcDbLine
 10
94.341435
 20
431.129099
 11
70.991435
 21
431.129099
  0
LINE
  5
545
100
AcDbEntity
  8
M0
100
AcDbLine
 10
92.591435
 20
434.129098
 11
92.591435
 21
432.129101
  0
LINE
  5
546
100
AcDbEntity
  8
M0
100
AcDbLine
 10
67.991436
 20
499.9791
 11
67.991436
 21
434.1291
  0
ARC
  5
547
100
AcDbEntity
  8
M0
100
AcDbCircle
 10
70.941435
 20
506.1291
 40
2.25
100
AcDbArc
 50
90.0
 51
270.0
  0
LINE
  5
548
100
AcDbEntity
  8
M0
100
AcDbLine
 10
68.991434
 20
446.2791
 11
69.791437
 21
446.2791
  0
LINE
  5
549
100
AcDbEntity
  8
M0
100
AcDbLine
 10
125.59421
 20
437.1291
 11
126.041435
 21
437.1291
  0
LINE
  5
54A
100
AcDbEntity
  8
M0
100
AcDbLine
 10
83.991435
 20
510.129099
 11
83.991435
 21
519.129099
  0
LINE
  5
54B
100
AcDbEntity
  8
M0
100
AcDbLine
 10
87.28866
 20
437.1291
 11
86.841435
 21
437.1291
  0
LINE
  5
54C
100
AcDbEntity
  8
M0
100
AcDbLine
 10
144.891434
 20
512.1291
 11
144.891434
 21
447.2791
  0
LINE
  5
54D
100
AcDbEntity
  8
M0
100
AcDbLine
 10
70.491434
 20
515.129098
 11
77.991436
 21
515.129098
  0
LINE
  5
54E
100
AcDbEntity
  8
M0
100
AcDbLine
 10
79.191436
 20
442.129099
 11
78.041435
 21
442.129099
  0
LINE
  5
54F
100
AcDbEntity
  8
M0
100
AcDbLine
 10
128.891435
 20
511.629098
 11
130.991435
 21
511.629098
  0
LINE
  5
550
100
AcDbEntity
  8
M0
100
AcDbLine
 10
81.891435
 20
511.629098
 11
83.991435
 21
511.629098
  0
LINE
  5
551
100
AcDbEntity
  8
M0
100
AcDbLine
 10
126.891435
 20
514.629101
 11
126.391435
 21
514.629101
  0
LINE
  5
552
100
AcDbEntity
  8
M0
100
AcDbLine
 10
96.791435
 20
431.129099
 11
97.291431
 21
431.129099
  0
LINE
  5
553
100
AcDbEntity
  8
M0
100
AcDbLine
 10
97.291431
 20
431.129099
 11
98.491434
 21
431.129099
  0
LINE
  5
554
100
AcDbEntity
  8
M0
100
AcDbLine
 10
67.491435
 20
502.429099
 11
67.491435
 21
512.129099
  0
LINE
  5
555
100
AcDbEntity
  8
M0
100
AcDbLine
 10
78.041435
 20
436.129098
 11
79.191436
 21
436.129098
  0
LINE
  5
556
100
AcDbEntity
  8
M0
100
AcDbLine
 10
137.892925
 20
440.8791
 11
136.441434
 21
440.8791
  0
LINE
  5
557
100
AcDbEntity
  8
M0
100
AcDbLine
 10
133.691434
 20
478.329099
 11
133.691434
 21
475.029099
  0
LINE
  5
558
100
AcDbEntity
  8
M0
100
AcDbLine
 10
133.691434
 20
475.1291
 11
132.691434
 21
475.1291
  0
LINE
  5
559
100
AcDbEntity
  8
M0
100
AcDbLine
 10
133.191435
 20
480.829099
 11
132.691434
 21
480.829099
  0
LINE
  5
55A
100
AcDbEntity
  8
M0
100
AcDbLine
 10
126.391435
 20
516.929099
 11
126.891435
 21
516.929099
  0
LINE
  5
55B
100
AcDbEntity
  8
M0
100
AcDbLine
 10
132.691434
 20
478.129099
 11
133.691434
 21
478.129099
  0
LINE
  5
55C
100
AcDbEntity
  8
M0
100
AcDbLine
 10
79.191436
 20
475.1291
 11
80.191436
 21
475.1291
  0
LINE
  5
55D
100
AcDbEntity
  8
M0
100
AcDbLine
 10
132.691434
 20
475.1291
 11
132.691434
 21
472.129099
  0
LINE
  5
55E
100
AcDbEntity
  8
M0
100
AcDbLine
 10
80.191436
 20
480.829099
 11
79.691435
 21
480.829099
  0
LINE
  5
55F
100
AcDbEntity
  8
M0
100
AcDbLine
 10
79.191436
 20
478.329099
 11
79.191436
 21
475.1291
  0
ARC
  5
560
100
AcDbEntity
  8
M0
100
AcDbCircle
 10
116.591435
 20
498.5291
 40
0.5
100
AcDbArc
 50
270.0
 51
360.0
  0
ARC
  5
561
100
AcDbEntity
  8
M0
100
AcDbCircle
 10
113.891435
 20
498.5291
 40
0.5
100
AcDbArc
 50
180.0
 51
270.0
  0
ARC
  5
562
100
AcDbEntity
  8
M0
100
AcDbCircle
 10
98.991435
 20
498.5291
 40
0.5
100
AcDbArc
 50
270.0
 51
360.0
  0
ARC
  5
563
100
AcDbEntity
  8
M0
100
AcDbCircle
 10
134.691435
 20
478.8291
 40
1.0
100
AcDbArc
 50
0.0
 51
90.0
  0
ARC
  5
564
100
AcDbEntity
  8
M0
100
AcDbCircle
 10
134.691435
 20
468.4291
 40
1.0
100
AcDbArc
 50
270.0
 51
360.0
  0
ARC
  5
565
100
AcDbEntity
  8
M0
100
AcDbCircle
 10
98.491435
 20
432.1291
 40
1.0
100
AcDbArc
 50
270.0
 51
360.0
  0
LINE
  5
566
100
AcDbEntity
  8
M0
100
AcDbLine
 10
126.891435
 20
518.629101
 11
125.891434
 21
518.629101
  0
LINE
  5
567
100
AcDbEntity
  8
M0
100
AcDbLine
 10
126.891435
 20
511.629098
 11
126.391435
 21
511.629098
  0
CIRCLE
  5
568
100
AcDbEntity
  8
M0
100
AcDbCircle
 10
141.441435
 20
510.6291
 40
2.25
  0
CIRCLE
  5
569
100
AcDbEntity
  8
M0
100
AcDbCircle
 10
71.441435
 20
435.6291
 40
2.25
  0
ARC
  5
56A
100
AcDbEntity
  8
M0
100
AcDbCircle
 10
78.191435
 20
478.8291
 40
1.0
100
AcDbArc
 50
90.0
 51
180.0
  0
LINE
  5
56B
100
AcDbEntity
  8
M0
100
AcDbLine
 10
116.591435
 20
498.029099
 11
113.891435
 21
498.029099
  0
LINE
  5
56C
100
AcDbEntity
  8
M0
100
AcDbLine
 10
79.191436
 20
479.8291
 11
78.191435
 21
479.8291
  0
LINE
  5
56D
100
AcDbEntity
  8
M0
100
AcDbLine
 10
136.441434
 20
436.379099
 11
138.941434
 21
436.379099
  0
LINE
  5
56E
100
AcDbEntity
  8
M0
100
AcDbLine
 10
95.791435
 20
510.129099
 11
81.891435
 21
510.129099
  0
LINE
  5
56F
100
AcDbEntity
  8
M0
100
AcDbLine
 10
70.791435
 20
448.829099
 11
71.691435
 21
448.829099
  0
ARC
  5
570
100
AcDbEntity
  8
M0
100
AcDbCircle
 10
141.441434
 20
463.4791
 40
0.5
100
AcDbArc
 50
0.0
 51
90.0
  0
LINE
  5
571
100
AcDbEntity
  8
M0
100
AcDbLine
 10
98.491434
 20
449.2291
 11
96.791435
 21
449.2291
  0
LINE
  5
572
100
AcDbEntity
  8
M0
100
AcDbLine
 10
98.991435
 20
449.2291
 11
98.491434
 21
449.2291
  0
LINE
  5
573
100
AcDbEntity
  8
M0
100
AcDbLine
 10
96.791435
 20
449.2291
 11
96.291434
 21
449.2291
  0
LINE
  5
574
100
AcDbEntity
  8
M0
100
AcDbLine
 10
133.691434
 20
479.8291
 11
134.691434
 21
479.8291
  0
LINE
  5
575
100
AcDbEntity
  8
M0
100
AcDbLine
 10
132.691434
 20
472.129099
 11
133.691434
 21
472.129099
  0
LINE
  5
576
100
AcDbEntity
  8
M0
100
AcDbLine
 10
80.191436
 20
475.1291
 11
80.191436
 21
472.129099
  0
LINE
  5
577
100
AcDbEntity
  8
M0
100
AcDbLine
 10
133.691434
 20
472.2291
 11
133.691434
 21
468.9291
  0
LINE
  5
578
100
AcDbEntity
  8
M0
100
AcDbLine
 10
80.191436
 20
469.1291
 11
80.191436
 21
466.4291
  0
LINE
  5
579
100
AcDbEntity
  8
M0
100
AcDbLine
 10
80.191436
 20
478.129099
 11
79.191436
 21
478.129099
  0
LINE
  5
57A
100
AcDbEntity
  8
M0
100
AcDbLine
 10
132.691434
 20
480.829099
 11
132.691434
 21
478.129099
  0
LINE
  5
57B
100
AcDbEntity
  8
M0
100
AcDbLine
 10
132.691434
 20
469.1291
 11
132.691434
 21
466.4291
  0
LINE
  5
57C
100
AcDbEntity
  8
M0
100
AcDbLine
 10
79.191436
 20
472.129099
 11
79.191436
 21
468.9291
  0
LINE
  5
57D
100
AcDbEntity
  8
M0
100
AcDbLine
 10
133.691434
 20
469.1291
 11
132.691434
 21
469.1291
  0
LINE
  5
57E
100
AcDbEntity
  8
M0
100
AcDbLine
 10
78.191435
 20
472.2291
 11
79.891434
 21
472.2291
  0
LINE
  5
57F
100
AcDbEntity
  8
M0
100
AcDbLine
 10
81.891435
 20
450.729099
 11
80.891435
 21
450.729099
  0
LINE
  5
580
100
AcDbEntity
  8
M0
100
AcDbLine
 10
77.191435
 20
478.8291
 11
77.191435
 21
468.429099
  0
LINE
  5
581
100
AcDbEntity
  8
M0
100
AcDbLine
 10
81.891435
 20
436.129098
 11
81.891435
 21
450.729099
  0
LINE
  5
582
100
AcDbEntity
  8
M0
100
AcDbLine
 10
135.691435
 20
478.8291
 11
135.691435
 21
468.429099
  0
LINE
  5
583
100
AcDbEntity
  8
M0
100
AcDbLine
 10
78.191435
 20
467.429099
 11
79.191436
 21
467.429099
  0
LINE
  5
584
100
AcDbEntity
  8
M0
100
AcDbLine
 10
143.191435
 20
446.2791
 11
143.091433
 21
446.2791
  0
LINE
  5
585
100
AcDbEntity
  8
M0
100
AcDbLine
 10
67.991436
 20
497.4291
 11
67.491435
 21
502.429099
  0
LINE
  5
586
100
AcDbEntity
  8
M0
100
AcDbLine
 10
135.191435
 20
448.829099
 11
134.291435
 21
448.829099
  0
LINE
  5
587
100
AcDbEntity
  8
M0
100
AcDbLine
 10
79.891434
 20
475.029099
 11
78.191435
 21
475.029099
  0
LINE
  5
588
100
AcDbEntity
  8
M0
100
AcDbLine
 10
142.091435
 20
448.829099
 11
141.191435
 21
448.829099
  0
LINE
  5
589
100
AcDbEntity
  8
M0
100
AcDbLine
 10
79.191436
 20
472.2291
 11
79.191436
 21
472.129099
  0
LINE
  5
58A
100
AcDbEntity
  8
M0
100
AcDbLine
 10
117.091435
 20
448.729099
 11
117.091435
 21
436.129098
  0
LINE
  5
58B
100
AcDbEntity
  8
M0
100
AcDbLine
 10
116.091435
 20
449.2291
 11
116.591435
 21
449.2291
  0
LINE
  5
58C
100
AcDbEntity
  8
M0
100
AcDbLine
 10
130.991435
 20
436.129098
 11
130.991435
 21
450.729099
  0
ARC
  5
58D
100
AcDbEntity
  8
M0
100
AcDbCircle
 10
93.591435
 20
432.1291
 40
1.0
100
AcDbArc
 50
180.0
 51
270.0
  0
ARC
  5
58E
100
AcDbEntity
  8
M0
100
AcDbCircle
 10
84.991435
 20
519.1291
 40
1.0
100
AcDbArc
 50
0.0
 51
90.0
  0
LINE
  5
58F
100
AcDbEntity
  8
M0
100
AcDbLine
 10
78.041435
 20
442.129099
 11
78.041435
 21
436.129098
  0
LINE
  5
590
100
AcDbEntity
  8
M0
100
AcDbLine
 10
113.891435
 20
449.2291
 11
114.391435
 21
449.2291
  0
LINE
  5
591
100
AcDbEntity
  8
M0
100
AcDbLine
 10
79.191436
 20
475.029099
 11
79.191436
 21
475.1291
  0
LINE
  5
592
100
AcDbEntity
  8
M0
100
AcDbLine
 10
134.691434
 20
467.429099
 11
133.691434
 21
467.429099
  0
LINE
  5
593
100
AcDbEntity
  8
M0
100
AcDbLine
 10
78.191435
 20
478.329099
 11
78.191435
 21
468.9291
  0
LINE
  5
594
100
AcDbEntity
  8
M0
100
AcDbLine
 10
134.691434
 20
478.329099
 11
134.691434
 21
468.9291
  0
LINE
  5
595
100
AcDbEntity
  8
M0
100
AcDbLine
 10
130.991435
 20
450.729099
 11
131.991435
 21
450.729099
  0
ARC
  5
596
100
AcDbEntity
  8
M0
100
AcDbCircle
 10
132.691435
 20
495.3291
 40
1.0
100
AcDbArc
 50
0.0
 51
90.0
  0
ARC
  5
597
100
AcDbEntity
  8
M0
100
AcDbCircle
 10
132.691435
 20
432.1291
 40
1.0
100
AcDbArc
 50
270.0
 51
360.0
  0
LINE
  5
598
100
AcDbEntity
  8
M0
100
AcDbLine
 10
80.191436
 20
480.829099
 11
80.191436
 21
478.129099
  0
LINE
  5
599
100
AcDbEntity
  8
M0
100
AcDbLine
 10
78.041435
 20
433.129099
 11
78.041435
 21
434.629099
  0
LINE
  5
59A
100
AcDbEntity
  8
M0
100
AcDbLine
 10
78.591435
 20
498.4291
 11
77.691434
 21
498.4291
  0
LINE
  5
59B
100
AcDbEntity
  8
M0
100
AcDbLine
 10
79.191436
 20
432.629098
 11
78.541436
 21
432.629098
  0
LINE
  5
59C
100
AcDbEntity
  8
M0
100
AcDbLine
 10
130.991435
 20
434.129098
 11
130.041436
 21
434.129098
  0
LINE
  5
59D
100
AcDbEntity
  8
M0
100
AcDbLine
 10
130.991435
 20
435.1291
 11
130.041436
 21
435.1291
  0
LINE
  5
59E
100
AcDbEntity
  8
M0
100
AcDbLine
 10
130.991435
 20
432.629098
 11
130.041436
 21
432.629098
  0
LINE
  5
59F
100
AcDbEntity
  8
M0
100
AcDbLine
 10
77.691434
 20
448.829099
 11
78.591435
 21
448.829099
  0
ARC
  5
5A0
100
AcDbEntity
  8
M0
100
AcDbCircle
 10
80.191435
 20
451.9291
 40
1.0
100
AcDbArc
 50
180.0
 51
270.0
  0
ARC
  5
5A1
100
AcDbEntity
  8
M0
100
AcDbCircle
 10
133.191435
 20
465.9291
 40
0.5
100
AcDbArc
 50
0.0
 51
90.0
  0
LINE
  5
5A2
100
AcDbEntity
  8
M0
  6
DASHDOT
100
AcDbLine
 10
88.341435
 20
444.1291
 11
89.341435
 21
444.1291
  0
ARC
  5
5A3
100
AcDbEntity
  8
M0
100
AcDbCircle
 10
132.691435
 20
451.9291
 40
1.0
100
AcDbArc
 50
270.0
 51
360.0
  0
ARC
  5
5A4
100
AcDbEntity
  8
M0
100
AcDbCircle
 10
79.691435
 20
465.9291
 40
0.5
100
AcDbArc
 50
90.0
 51
180.0
  0
LINE
  5
5A5
100
AcDbEntity
  8
M0
  6
DASHDOT
100
AcDbLine
 10
106.441435
 20
503.6291
 11
106.441435
 21
502.6291
  0
LINE
  5
5A6
100
AcDbEntity
  8
M0
  6
DASHDOT
100
AcDbLine
 10
105.941435
 20
503.1291
 11
106.941435
 21
503.1291
  0
LINE
  5
5A7
100
AcDbEntity
  8
M0
  6
DASHDOT
100
AcDbLine
 10
124.041435
 20
503.6291
 11
124.041435
 21
502.6291
  0
LINE
  5
5A8
100
AcDbEntity
  8
M0
  6
DASHDOT
100
AcDbLine
 10
123.541435
 20
503.1291
 11
124.541435
 21
503.1291
  0
LINE
  5
5A9
100
AcDbEntity
  8
M0
  6
DASHDOT
100
AcDbLine
 10
88.841435
 20
503.6291
 11
88.841435
 21
502.6291
  0
LINE
  5
5AA
100
AcDbEntity
  8
M0
  6
DASHDOT
100
AcDbLine
 10
88.341435
 20
503.1291
 11
89.341435
 21
503.1291
  0
LINE
  5
5AB
100
AcDbEntity
  8
M0
  6
DASHDOT
100
AcDbLine
 10
123.541435
 20
444.1291
 11
124.541435
 21
444.1291
  0
LINE
  5
5AC
100
AcDbEntity
  8
M0
  6
DASHDOT
100
AcDbLine
 10
88.841435
 20
443.6291
 11
88.841435
 21
444.6291
  0
LINE
  5
5AD
100
AcDbEntity
  8
M0
  6
DASHDOT
100
AcDbLine
 10
124.041435
 20
443.6291
 11
124.041435
 21
444.6291
  0
LINE
  5
5AE
100
AcDbEntity
  8
M0
  6
DASHDOT
100
AcDbLine
 10
106.441435
 20
443.6291
 11
106.441435
 21
444.6291
  0
LINE
  5
5AF
100
AcDbEntity
  8
M0
  6
DASHDOT
100
AcDbLine
 10
105.941435
 20
444.1291
 11
106.941435
 21
444.1291
  0
LINE
  5
5B0
100
AcDbEntity
  8
M0
100
AcDbLine
 10
78.441434
 20
490.2791
 11
78.441434
 21
483.7791
  0
LINE
  5
5B1
100
AcDbEntity
  8
M0
100
AcDbLine
 10
117.091435
 20
496.3291
 11
117.091435
 21
518.629101
  0
LINE
  5
5B2
100
AcDbEntity
  8
M0
100
AcDbLine
 10
123.991436
 20
519.6291
 11
123.991436
 21
518.629101
  0
LINE
  5
5B3
100
AcDbEntity
  8
M0
100
AcDbLine
 10
86.191435
 20
510.129099
 11
86.191435
 21
511.129101
  0
LINE
  5
5B4
100
AcDbEntity
  8
M0
100
AcDbLine
 10
88.891434
 20
518.629101
 11
88.891434
 21
519.6291
  0
LINE
  5
5B5
100
AcDbEntity
  8
M0
100
AcDbLine
 10
94.291435
 20
510.129099
 11
94.291435
 21
519.129099
  0
LINE
  5
5B6
100
AcDbEntity
  8
M0
100
AcDbLine
 10
71.691435
 20
499.4291
 11
77.691434
 21
499.4291
  0
LINE
  5
5B7
100
AcDbEntity
  8
M0
100
AcDbLine
 10
142.091435
 20
490.8291
 11
134.291435
 21
490.8291
  0
LINE
  5
5B8
100
AcDbEntity
  8
M0
100
AcDbLine
 10
84.991435
 20
520.129101
 11
127.891435
 21
520.129101
  0
LINE
  5
5B9
100
AcDbEntity
  8
M0
100
AcDbLine
 10
117.091435
 20
518.629101
 11
95.791435
 21
518.629101
  0
LINE
  5
5BA
100
AcDbEntity
  8
M0
100
AcDbLine
 10
77.691434
 20
447.829099
 11
71.691435
 21
447.829099
  0
LINE
  5
5BB
100
AcDbEntity
  8
M0
100
AcDbLine
 10
78.591435
 20
490.8291
 11
70.791435
 21
490.8291
  0
ARC
  5
5BC
100
AcDbEntity
  8
M0
100
AcDbCircle
 10
140.441435
 20
441.1291
 40
2.25
100
AcDbArc
 50
89.957854
 51
177.916058
  0
ARC
  5
5BD
100
AcDbEntity
  8
M0
100
AcDbCircle
 10
142.391435
 20
434.1291
 40
3.0
100
AcDbArc
 50
270.0
 51
360.0
  0
ARC
  5
5BE
100
AcDbEntity
  8
M0
100
AcDbCircle
 10
70.991435
 20
434.1291
 40
3.0
100
AcDbArc
 50
180.0
 51
270.0
  0
ARC
  5
5BF
100
AcDbEntity
  8
M0
100
AcDbCircle
 10
137.892923
 20
441.1791
 40
0.3
100
AcDbArc
 50
270.0
 51
360.0
  0
ARC
  5
5C0
100
AcDbEntity
  8
M0
100
AcDbCircle
 10
69.791435
 20
492.7291
 40
1.0
100
AcDbArc
 50
0.0
 51
90.0
  0
LINE
  5
5C1
100
AcDbEntity
  8
M0
100
AcDbLine
 10
71.691435
 20
498.379099
 11
71.691435
 21
499.4291
  0
LINE
  5
5C2
100
AcDbEntity
  8
M0
100
AcDbLine
 10
77.691434
 20
499.4291
 11
77.691434
 21
498.379099
  0
LINE
  5
5C3
100
AcDbEntity
  8
M0
100
AcDbLine
 10
135.191435
 20
499.4291
 11
141.191435
 21
499.4291
  0
LINE
  5
5C4
100
AcDbEntity
  8
M0
100
AcDbLine
 10
70.943941
 20
497.929099
 11
70.791435
 21
497.929099
  0
LINE
  5
5C5
100
AcDbEntity
  8
M0
100
AcDbLine
 10
141.191435
 20
499.4291
 11
141.191435
 21
498.379099
  0
LINE
  5
5C6
100
AcDbEntity
  8
M0
100
AcDbLine
 10
76.282018
 20
458.638456
 11
73.100377
 21
461.820219
  0
LINE
  5
5C7
100
AcDbEntity
  8
M0
100
AcDbLine
 10
75.044713
 20
461.643461
 11
73.277135
 21
459.875761
  0
LINE
  5
5C8
100
AcDbEntity
  8
M0
100
AcDbLine
 10
139.605262
 20
494.982792
 11
137.837684
 21
493.215214
  0
LINE
  5
5C9
100
AcDbEntity
  8
M0
100
AcDbLine
 10
138.544715
 20
496.043461
 11
136.777137
 21
494.275761
  0
LINE
  5
5CA
100
AcDbEntity
  8
M0
100
AcDbLine
 10
139.78202
 20
493.038456
 11
136.600379
 21
496.220219
  0
LINE
  5
5CB
100
AcDbEntity
  8
M0
100
AcDbLine
 10
139.78202
 20
485.438456
 11
136.600379
 21
488.620219
  0
LINE
  5
5CC
100
AcDbEntity
  8
M0
100
AcDbLine
 10
76.282018
 20
485.438456
 11
73.100377
 21
488.620219
  0
LINE
  5
5CD
100
AcDbEntity
  8
M0
100
AcDbLine
 10
76.10526
 20
487.382792
 11
74.337682
 21
485.615214
  0
LINE
  5
5CE
100
AcDbEntity
  8
M0
100
AcDbLine
 10
75.044713
 20
454.043461
 11
73.277135
 21
452.275761
  0
LINE
  5
5CF
100
AcDbEntity
  8
M0
100
AcDbLine
 10
76.282018
 20
451.038456
 11
73.100377
 21
454.220219
  0
LINE
  5
5D0
100
AcDbEntity
  8
M0
100
AcDbLine
 10
76.10526
 20
452.982792
 11
74.337682
 21
451.215214
  0
LINE
  5
5D1
100
AcDbEntity
  8
M0
100
AcDbLine
 10
76.10526
 20
460.582792
 11
74.337682
 21
458.815214
  0
CIRCLE
  5
5D2
100
AcDbEntity
  8
M0
100
AcDbCircle
 10
74.691434
 20
494.629101
 40
3.0
  0
CIRCLE
  5
5D3
100
AcDbEntity
  8
M0
100
AcDbCircle
 10
122.391432
 20
514.229103
 40
3.0
  0
CIRCLE
  5
5D4
100
AcDbEntity
  8
M0
100
AcDbCircle
 10
74.691434
 20
487.029101
 40
3.0
  0
CIRCLE
  5
5D5
100
AcDbEntity
  8
M0
100
AcDbCircle
 10
74.691434
 20
452.629098
 40
3.0
  0
CIRCLE
  5
5D6
100
AcDbEntity
  8
M0
100
AcDbCircle
 10
74.691434
 20
460.229098
 40
3.0
  0
CIRCLE
  5
5D7
100
AcDbEntity
  8
M0
100
AcDbCircle
 10
138.191436
 20
494.629101
 40
3.0
  0
LINE
  5
5D8
100
AcDbEntity
  8
M0
100
AcDbLine
 10
139.605262
 20
487.382792
 11
137.837684
 21
485.615214
  0
LINE
  5
5D9
100
AcDbEntity
  8
M0
100
AcDbLine
 10
138.544715
 20
488.443461
 11
136.777137
 21
486.675761
  0
CIRCLE
  5
5DA
100
AcDbEntity
  8
M0
100
AcDbCircle
 10
88.841435
 20
503.12913
 40
4.499996
  0
CIRCLE
  5
5DB
100
AcDbEntity
  8
M0
100
AcDbCircle
 10
124.041435
 20
503.12913
 40
4.499996
  0
CIRCLE
  5
5DC
100
AcDbEntity
  8
M0
100
AcDbCircle
 10
106.441435
 20
503.12913
 40
4.499996
  0
CIRCLE
  5
5DD
100
AcDbEntity
  8
M0
100
AcDbCircle
 10
90.491435
 20
514.2291
 40
3.0
  0
LINE
  5
5DE
100
AcDbEntity
  8
M0
100
AcDbLine
 10
108.322538
 20
503.596049
 11
105.974562
 21
501.248057
  0
LINE
  5
5DF
100
AcDbEntity
  8
M0
100
AcDbLine
 10
106.908339
 20
505.010265
 11
104.560362
 21
502.662273
  0
LINE
  5
5E0
100
AcDbEntity
  8
M0
100
AcDbLine
 10
104.37248
 20
505.198039
 11
108.63545
 21
500.9351
  0
LINE
  5
5E1
100
AcDbEntity
  8
M0
100
AcDbLine
 10
125.922538
 20
503.596049
 11
123.574562
 21
501.248057
  0
LINE
  5
5E2
100
AcDbEntity
  8
M0
100
AcDbLine
 10
124.508339
 20
505.010265
 11
122.160362
 21
502.662273
  0
LINE
  5
5E3
100
AcDbEntity
  8
M0
100
AcDbLine
 10
121.97248
 20
505.198039
 11
126.23545
 21
500.9351
  0
LINE
  5
5E4
100
AcDbEntity
  8
M0
100
AcDbLine
 10
126.891435
 20
510.129099
 11
126.891435
 21
519.1291
  0
LINE
  5
5E5
100
AcDbEntity
  8
M0
100
AcDbLine
 10
135.191435
 20
498.379099
 11
135.191435
 21
499.4291
  0
LINE
  5
5E6
100
AcDbEntity
  8
M0
100
AcDbLine
 10
128.891435
 20
510.129099
 11
128.891435
 21
519.129099
  0
LINE
  5
5E7
100
AcDbEntity
  8
M0
100
AcDbLine
 10
90.722538
 20
503.596049
 11
88.374562
 21
501.248057
  0
LINE
  5
5E8
100
AcDbEntity
  8
M0
100
AcDbLine
 10
89.308339
 20
505.010265
 11
86.960362
 21
502.662273
  0
LINE
  5
5E9
100
AcDbEntity
  8
M0
100
AcDbLine
 10
86.77248
 20
505.198039
 11
91.03545
 21
500.9351
  0
LINE
  5
5EA
100
AcDbEntity
  8
M0
100
AcDbLine
 10
123.982016
 20
512.638458
 11
120.800375
 21
515.820221
  0
LINE
  5
5EB
100
AcDbEntity
  8
M0
100
AcDbLine
 10
123.805258
 20
514.582794
 11
122.03768
 21
512.815216
  0
LINE
  5
5EC
100
AcDbEntity
  8
M0
100
AcDbLine
 10
75.044713
 20
496.043461
 11
73.277135
 21
494.275761
  0
LINE
  5
5ED
100
AcDbEntity
  8
M0
100
AcDbLine
 10
76.282018
 20
493.038456
 11
73.100377
 21
496.220219
  0
LINE
  5
5EE
100
AcDbEntity
  8
M0
100
AcDbLine
 10
76.10526
 20
494.982792
 11
74.337682
 21
493.215214
  0
LINE
  5
5EF
100
AcDbEntity
  8
M0
100
AcDbLine
 10
75.044713
 20
488.443461
 11
73.277135
 21
486.675761
  0
LINE
  5
5F0
100
AcDbEntity
  8
M0
100
AcDbLine
 10
91.905261
 20
514.582791
 11
90.137683
 21
512.815212
  0
LINE
  5
5F1
100
AcDbEntity
  8
M0
100
AcDbLine
 10
90.844714
 20
515.64346
 11
89.077136
 21
513.875759
  0
LINE
  5
5F2
100
AcDbEntity
  8
M0
100
AcDbLine
 10
92.082019
 20
512.638455
 11
88.900378
 21
515.820217
  0
LINE
  5
5F3
100
AcDbEntity
  8
M0
  6
DASHDOT
100
AcDbLine
 10
74.691435
 20
494.1291
 11
74.691435
 21
495.1291
  0
LINE
  5
5F4
100
AcDbEntity
  8
M0
  6
DASHDOT
100
AcDbLine
 10
74.191435
 20
494.6291
 11
75.191435
 21
494.6291
  0
LINE
  5
5F5
100
AcDbEntity
  8
M0
100
AcDbLine
 10
135.191435
 20
447.829099
 11
135.191435
 21
448.8791
  0
LINE
  5
5F6
100
AcDbEntity
  8
M0
100
AcDbLine
 10
141.191435
 20
448.8791
 11
141.191435
 21
447.829099
  0
LINE
  5
5F7
100
AcDbEntity
  8
M0
100
AcDbLine
 10
141.191435
 20
447.829099
 11
135.191435
 21
447.829099
  0
LINE
  5
5F8
100
AcDbEntity
  8
M0
100
AcDbLine
 10
134.291435
 20
449.3291
 11
134.443941
 21
449.3291
  0
LINE
  5
5F9
100
AcDbEntity
  8
M0
100
AcDbLine
 10
126.041435
 20
437.1291
 11
130.991435
 21
437.1291
  0
LINE
  5
5FA
100
AcDbEntity
  8
M0
100
AcDbLine
 10
122.041435
 20
510.129099
 11
117.091435
 21
510.129099
  0
LINE
  5
5FB
100
AcDbEntity
  8
M0
100
AcDbLine
 10
108.441435
 20
437.1291
 11
113.391435
 21
437.1291
  0
ARC
  5
5FC
100
AcDbEntity
  8
M0
100
AcDbCircle
 10
143.891435
 20
454.5291
 40
1.0
100
AcDbArc
 50
270.0
 51
360.0
  0
ARC
  5
5FD
100
AcDbEntity
  8
M0
100
AcDbCircle
 10
69.791435
 20
468.9291
 40
1.0
100
AcDbArc
 50
0.0
 51
90.0
  0
ARC
  5
5FE
100
AcDbEntity
  8
M0
100
AcDbCircle
 10
143.091435
 20
454.5291
 40
1.0
100
AcDbArc
 50
180.0
 51
270.0
  0
LINE
  5
5FF
100
AcDbEntity
  8
M0
100
AcDbLine
 10
117.091435
 20
506.829099
 11
117.091435
 21
509.629098
  0
LINE
  5
600
100
AcDbEntity
  8
M0
100
AcDbLine
 10
90.841435
 20
437.1291
 11
95.791435
 21
437.1291
  0
LINE
  5
601
100
AcDbEntity
  8
M0
100
AcDbLine
 10
89.541436
 20
435.329099
 11
88.641435
 21
435.329099
  0
LINE
  5
602
100
AcDbEntity
  8
M0
100
AcDbLine
 10
89.541436
 20
434.579098
 11
90.678886
 21
434.579098
  0
LINE
  5
603
100
AcDbEntity
  8
M0
100
AcDbLine
 10
88.641435
 20
433.679101
 11
87.503985
 21
433.679101
  0
LINE
  5
604
100
AcDbEntity
  8
M0
100
AcDbLine
 10
89.541436
 20
434.579098
 11
89.541436
 21
435.329099
  0
LINE
  5
605
100
AcDbEntity
  8
M0
100
AcDbLine
 10
86.479921
 20
433.679101
 11
87.503985
 21
433.679101
  0
LINE
  5
606
100
AcDbEntity
  8
M0
100
AcDbLine
 10
90.678886
 20
433.679101
 11
91.702948
 21
433.679101
  0
LINE
  5
607
100
AcDbEntity
  8
M0
100
AcDbLine
 10
90.678886
 20
433.679101
 11
89.541436
 21
433.679101
  0
LINE
  5
608
100
AcDbEntity
  8
M0
100
AcDbLine
 10
117.091435
 20
434.129098
 11
117.091435
 21
432.129101
  0
LINE
  5
609
100
AcDbEntity
  8
M0
100
AcDbLine
 10
81.891435
 20
432.129101
 11
81.891435
 21
434.129098
  0
LINE
  5
60A
100
AcDbEntity
  8
M0
100
AcDbLine
 10
91.702948
 20
434.579098
 11
90.678886
 21
434.579098
  0
LINE
  5
60B
100
AcDbEntity
  8
M0
100
AcDbLine
 10
88.641435
 20
435.329099
 11
88.641435
 21
434.579098
  0
LINE
  5
60C
100
AcDbEntity
  8
M0
100
AcDbLine
 10
88.641435
 20
432.9291
 11
89.541436
 21
432.9291
  0
LINE
  5
60D
100
AcDbEntity
  8
M0
100
AcDbLine
 10
87.503985
 20
434.579098
 11
86.479921
 21
434.579098
  0
LINE
  5
60E
100
AcDbEntity
  8
M0
100
AcDbLine
 10
124.241434
 20
434.579098
 11
124.241434
 21
435.329099
  0
LINE
  5
60F
100
AcDbEntity
  8
M0
100
AcDbLine
 10
121.179922
 20
433.679101
 11
122.203984
 21
433.679101
  0
LINE
  5
610
100
AcDbEntity
  8
M0
100
AcDbLine
 10
122.203984
 20
434.579098
 11
121.179922
 21
434.579098
  0
LINE
  5
611
100
AcDbEntity
  8
M0
100
AcDbLine
 10
113.391435
 20
510.129099
 11
99.491435
 21
510.129099
  0
LINE
  5
612
100
AcDbEntity
  8
M0
100
AcDbLine
 10
126.402949
 20
434.579098
 11
125.378885
 21
434.579098
  0
LINE
  5
613
100
AcDbEntity
  8
M0
100
AcDbLine
 10
87.503985
 20
434.579098
 11
88.641435
 21
434.579098
  0
LINE
  5
614
100
AcDbEntity
  8
M0
100
AcDbLine
 10
89.541436
 20
432.9291
 11
89.541436
 21
433.679101
  0
LINE
  5
615
100
AcDbEntity
  8
M0
100
AcDbLine
 10
125.378885
 20
433.679101
 11
126.402949
 21
433.679101
  0
LINE
  5
616
100
AcDbEntity
  8
M0
100
AcDbLine
 10
88.641435
 20
433.679101
 11
88.641435
 21
432.9291
  0
LINE
  5
617
100
AcDbEntity
  8
M0
100
AcDbLine
 10
78.191435
 20
478.329099
 11
80.191436
 21
478.329099
  0
LINE
  5
618
100
AcDbEntity
  8
M0
100
AcDbLine
 10
80.891435
 20
496.3291
 11
80.891435
 21
496.5291
  0
LINE
  5
619
100
AcDbEntity
  8
M0
100
AcDbLine
 10
77.691434
 20
448.8791
 11
77.691434
 21
447.829099
  0
LINE
  5
61A
100
AcDbEntity
  8
M0
100
AcDbLine
 10
71.691435
 20
447.829099
 11
71.691435
 21
448.8791
  0
LINE
  5
61B
100
AcDbEntity
  8
M0
100
AcDbLine
 10
118.591435
 20
519.129099
 11
118.591435
 21
510.129099
  0
LINE
  5
61C
100
AcDbEntity
  8
M0
100
AcDbLine
 10
126.691435
 20
511.129101
 11
126.691435
 21
510.129099
  0
LINE
  5
61D
100
AcDbEntity
  8
M0
100
AcDbLine
 10
122.744711
 20
515.643463
 11
120.977133
 21
513.875763
  0
ARC
  5
61E
100
AcDbEntity
  8
M0
100
AcDbCircle
 10
89.091435
 20
434.1291
 40
2.65
100
AcDbArc
 50
170.223151
 51
189.776849
  0
ARC
  5
61F
100
AcDbEntity
  8
M0
100
AcDbCircle
 10
89.091435
 20
434.1291
 40
2.65
100
AcDbArc
 50
350.223151
 51
369.776849
  0
ARC
  5
620
100
AcDbEntity
  8
M0
100
AcDbCircle
 10
123.791435
 20
434.1291
 40
2.65
100
AcDbArc
 50
9.776849
 51
170.223151
  0
ARC
  5
621
100
AcDbEntity
  8
M0
100
AcDbCircle
 10
143.891435
 20
447.2791
 40
1.0
100
AcDbArc
 50
270.0
 51
360.0
  0
ARC
  5
622
100
AcDbEntity
  8
M0
100
AcDbCircle
 10
123.791435
 20
434.1291
 40
2.65
100
AcDbArc
 50
189.776849
 51
350.223151
  0
ARC
  5
623
100
AcDbEntity
  8
M0
100
AcDbCircle
 10
79.191435
 20
500.3791
 40
0.6
100
AcDbArc
 50
90.0
 51
180.0
  0
ARC
  5
624
100
AcDbEntity
  8
M0
100
AcDbCircle
 10
81.633426
 20
463.035058
 40
3.350514
100
AcDbArc
 50
136.789285
 51
155.219178
  0
LINE
  5
625
100
AcDbEntity
  8
M0
100
AcDbLine
 10
71.441435
 20
498.379099
 11
77.941434
 21
498.379099
  0
ARC
  5
626
100
AcDbEntity
  8
M0
100
AcDbCircle
 10
79.191435
 20
454.1291
 40
0.6
100
AcDbArc
 50
180.0
 51
270.0
  0
ARC
  5
627
100
AcDbEntity
  8
M0
100
AcDbCircle
 10
133.691435
 20
454.1291
 40
0.6
100
AcDbArc
 50
270.0
 51
360.0
  0
ARC
  5
628
100
AcDbEntity
  8
M0
100
AcDbCircle
 10
69.791435
 20
454.5291
 40
1.0
100
AcDbArc
 50
270.0
 51
360.0
  0
ARC
  5
629
100
AcDbEntity
  8
M0
100
AcDbCircle
 10
89.091435
 20
434.1291
 40
2.65
100
AcDbArc
 50
9.776849
 51
170.223151
  0
LINE
  5
62A
100
AcDbEntity
  8
M0
100
AcDbLine
 10
132.691434
 20
466.4291
 11
133.191435
 21
466.4291
  0
ARC
  5
62B
100
AcDbEntity
  8
M0
100
AcDbCircle
 10
143.891435
 20
499.9791
 40
1.0
100
AcDbArc
 50
0.0
 51
90.0
  0
ARC
  5
62C
100
AcDbEntity
  8
M0
100
AcDbCircle
 10
69.791435
 20
447.2791
 40
1.0
100
AcDbArc
 50
270.0
 51
360.0
  0
ARC
  5
62D
100
AcDbEntity
  8
M0
100
AcDbCircle
 10
133.691435
 20
500.3791
 40
0.6
100
AcDbArc
 50
0.0
 51
90.0
  0
ARC
  5
62E
100
AcDbEntity
  8
M0
100
AcDbCircle
 10
79.191435
 20
446.8791
 40
0.6
100
AcDbArc
 50
180.0
 51
270.0
  0
ARC
  5
62F
100
AcDbEntity
  8
M0
100
AcDbCircle
 10
133.691435
 20
446.8791
 40
0.6
100
AcDbArc
 50
270.0
 51
360.0
  0
LINE
  5
630
100
AcDbEntity
  8
M0
100
AcDbLine
 10
79.191436
 20
469.1291
 11
80.191436
 21
469.1291
  0
ARC
  5
631
100
AcDbEntity
  8
M0
100
AcDbCircle
 10
141.485436
 20
438.579395
 40
0.3
100
AcDbArc
 50
90.0
 51
180.0
  0
ARC
  5
632
100
AcDbEntity
  8
M0
100
AcDbCircle
 10
98.491435
 20
515.1291
 40
1.0
100
AcDbArc
 50
0.0
 51
90.0
  0
ARC
  5
633
100
AcDbEntity
  8
M0
100
AcDbCircle
 10
141.941435
 20
441.1291
 40
2.25
100
AcDbArc
 50
270.928845
 51
451.752277
  0
ARC
  5
634
100
AcDbEntity
  8
M0
100
AcDbCircle
 10
80.891435
 20
515.1291
 40
1.0
100
AcDbArc
 50
0.0
 51
90.0
  0
ARC
  5
635
100
AcDbEntity
  8
M0
100
AcDbCircle
 10
80.191435
 20
515.1291
 40
1.0
100
AcDbArc
 50
90.0
 51
180.0
  0
ARC
  5
636
100
AcDbEntity
  8
M0
100
AcDbCircle
 10
114.391435
 20
515.1291
 40
1.0
100
AcDbArc
 50
90.0
 51
180.0
  0
ARC
  5
637
100
AcDbEntity
  8
M0
100
AcDbCircle
 10
143.091435
 20
478.3291
 40
1.0
100
AcDbArc
 50
180.0
 51
270.0
  0
ARC
  5
638
100
AcDbEntity
  8
M0
100
AcDbCircle
 10
93.591435
 20
510.8291
 40
0.6
100
AcDbArc
 50
270.0
 51
352.509835
  0
ARC
  5
639
100
AcDbEntity
  8
M0
100
AcDbCircle
 10
143.891435
 20
478.3291
 40
1.0
100
AcDbArc
 50
270.0
 51
360.0
  0
ARC
  5
63A
100
AcDbEntity
  8
M0
100
AcDbCircle
 10
68.991435
 20
492.7291
 40
1.0
100
AcDbArc
 50
90.0
 51
180.0
  0
ARC
  5
63B
100
AcDbEntity
  8
M0
100
AcDbCircle
 10
123.791435
 20
434.1291
 40
2.65
100
AcDbArc
 50
170.223151
 51
189.776849
  0
ARC
  5
63C
100
AcDbEntity
  8
M0
100
AcDbCircle
 10
96.791435
 20
515.1291
 40
1.0
100
AcDbArc
 50
90.0
 51
180.0
  0
LINE
  5
63D
100
AcDbEntity
  8
M0
100
AcDbLine
 10
81.891435
 20
450.729099
 11
81.891435
 21
450.929099
  0
LINE
  5
63E
100
AcDbEntity
  8
M0
100
AcDbLine
 10
143.091433
 20
500.979099
 11
143.891436
 21
500.979099
  0
LINE
  5
63F
100
AcDbEntity
  8
M0
100
AcDbLine
 10
99.491435
 20
450.929099
 11
99.491435
 21
432.1291
  0
LINE
  5
640
100
AcDbEntity
  8
M0
100
AcDbLine
 10
78.591435
 20
464.43942
 11
78.591435
 21
446.879099
  0
LINE
  5
641
100
AcDbEntity
  8
M0
100
AcDbLine
 10
70.791435
 20
478.3291
 11
70.791435
 21
499.9791
  0
LINE
  5
642
100
AcDbEntity
  8
M0
100
AcDbLine
 10
78.591435
 20
500.3791
 11
78.591435
 21
482.817346
  0
ARC
  5
643
100
AcDbEntity
  8
M0
100
AcDbCircle
 10
116.091435
 20
515.1291
 40
1.0
100
AcDbArc
 50
0.0
 51
90.0
  0
ARC
  5
644
100
AcDbEntity
  8
M0
100
AcDbCircle
 10
131.991435
 20
515.1291
 40
1.0
100
AcDbArc
 50
90.0
 51
180.0
  0
LINE
  5
645
100
AcDbEntity
  8
M0
100
AcDbLine
 10
77.941435
 20
490.879101
 11
71.441436
 21
490.879094
  0
LINE
  5
646
100
AcDbEntity
  8
M0
100
AcDbLine
 10
130.991435
 20
496.3291
 11
130.991435
 21
496.5291
  0
LINE
  5
647
100
AcDbEntity
  8
M0
100
AcDbLine
 10
130.991435
 20
450.729099
 11
130.991435
 21
450.929099
  0
LINE
  5
648
100
AcDbEntity
  8
M0
100
AcDbLine
 10
69.791437
 20
500.979099
 11
68.991434
 21
500.979099
  0
LINE
  5
649
100
AcDbEntity
  8
M0
100
AcDbLine
 10
80.191436
 20
472.129099
 11
79.191436
 21
472.129099
  0
LINE
  5
64A
100
AcDbEntity
  8
M0
100
AcDbLine
 10
132.691434
 20
450.929099
 11
80.191436
 21
450.929099
  0
LINE
  5
64B
100
AcDbEntity
  8
M0
100
AcDbLine
 10
141.185437
 20
438.464911
 11
141.185437
 21
438.579397
  0
LINE
  5
64C
100
AcDbEntity
  8
M0
100
AcDbLine
 10
80.891435
 20
450.729099
 11
80.891435
 21
450.929099
  0
LINE
  5
64D
100
AcDbEntity
  8
M0
100
AcDbLine
 10
138.192922
 20
441.210919
 11
138.192922
 21
441.179098
  0
LINE
  5
64E
100
AcDbEntity
  8
M0
100
AcDbLine
 10
96.291435
 20
498.029099
 11
98.991435
 21
498.029099
  0
LINE
  5
64F
100
AcDbEntity
  8
M0
100
AcDbLine
 10
145.391435
 20
444.8291
 11
145.391435
 21
434.129098
  0
LINE
  5
650
100
AcDbEntity
  8
M0
100
AcDbLine
 10
79.191436
 20
515.1291
 11
79.191436
 21
479.8291
  0
ARC
  5
651
100
AcDbEntity
  8
M0
100
AcDbCircle
 10
143.091435
 20
468.9291
 40
1.0
100
AcDbArc
 50
90.0
 51
180.0
  0
ARC
  5
652
100
AcDbEntity
  8
M0
100
AcDbCircle
 10
116.091435
 20
432.1291
 40
1.0
100
AcDbArc
 50
270.0
 51
360.0
  0
ARC
  5
653
100
AcDbEntity
  8
M0
100
AcDbCircle
 10
69.791435
 20
478.3291
 40
1.0
100
AcDbArc
 50
270.0
 51
360.0
  0
ARC
  5
654
100
AcDbEntity
  8
M0
100
AcDbCircle
 10
96.791435
 20
432.1291
 40
1.0
100
AcDbArc
 50
180.0
 51
270.0
  0
ARC
  5
655
100
AcDbEntity
  8
M0
100
AcDbCircle
 10
143.891435
 20
492.7291
 40
1.0
100
AcDbArc
 50
0.0
 51
90.0
  0
LINE
  5
656
100
AcDbEntity
  8
M0
100
AcDbLine
 10
79.191436
 20
475.1291
 11
79.191436
 21
475.029099
  0
LINE
  5
657
100
AcDbEntity
  8
M0
100
AcDbLine
 10
79.691435
 20
466.4291
 11
80.191436
 21
466.4291
  0
LINE
  5
658
100
AcDbEntity
  8
M0
100
AcDbLine
 10
79.191436
 20
472.2291
 11
79.191436
 21
472.129099
  0
LINE
  5
659
100
AcDbEntity
  8
M0
100
AcDbLine
 10
130.991435
 20
513.129101
 11
130.991435
 21
515.129098
  0
LINE
  5
65A
100
AcDbEntity
  8
M0
100
AcDbLine
 10
70.291434
 20
477.3291
 11
70.291434
 21
469.9291
  0
LINE
  5
65B
100
AcDbEntity
  8
M0
100
AcDbLine
 10
81.891435
 20
496.3291
 11
81.891435
 21
515.129098
  0
LINE
  5
65C
100
AcDbEntity
  8
M0
100
AcDbLine
 10
134.291435
 20
464.43942
 11
134.291435
 21
446.879099
  0
LINE
  5
65D
100
AcDbEntity
  8
M0
100
AcDbLine
 10
142.091435
 20
447.279099
 11
142.091435
 21
468.9291
  0
LINE
  5
65E
100
AcDbEntity
  8
M0
100
AcDbLine
 10
70.791435
 20
447.279099
 11
70.791435
 21
468.9291
  0
LINE
  5
65F
100
AcDbEntity
  8
M0
100
AcDbLine
 10
81.891435
 20
434.129098
 11
81.891435
 21
435.1291
  0
LINE
  5
660
100
AcDbEntity
  8
M0
100
AcDbLine
 10
142.591436
 20
477.3291
 11
142.591436
 21
469.9291
  0
LINE
  5
661
100
AcDbEntity
  8
M0
100
AcDbLine
 10
143.891436
 20
469.9291
 11
143.891436
 21
477.3291
  0
LINE
  5
662
100
AcDbEntity
  8
M0
100
AcDbLine
 10
68.991434
 20
469.9291
 11
68.991434
 21
477.3291
  0
ARC
  5
663
100
AcDbEntity
  8
M0
100
AcDbCircle
 10
71.441435
 20
491.379099
 40
0.5
100
AcDbArc
 50
180.0
 51
270.0
  0
ARC
  5
664
100
AcDbEntity
  8
M0
100
AcDbCircle
 10
71.441434
 20
497.879099
 40
0.5
100
AcDbArc
 50
90.0
 51
180.0
  0
ARC
  5
665
100
AcDbEntity
  8
M0
100
AcDbCircle
 10
134.941435
 20
491.3791
 40
0.5
100
AcDbArc
 50
180.0
 51
270.0
  0
ARC
  5
666
100
AcDbEntity
  8
M0
100
AcDbCircle
 10
68.991435
 20
454.5291
 40
1.0
100
AcDbArc
 50
180.0
 51
270.0
  0
ARC
  5
667
100
AcDbEntity
  8
M0
100
AcDbCircle
 10
131.249443
 20
463.035058
 40
3.350514
100
AcDbArc
 50
24.780822
 51
43.210715
  0
ARC
  5
668
100
AcDbEntity
  8
M0
100
AcDbCircle
 10
143.091435
 20
499.9791
 40
1.0
100
AcDbArc
 50
90.0
 51
180.0
  0
ARC
  5
669
100
AcDbEntity
  8
M0
100
AcDbCircle
 10
87.241435
 20
517.4791
 40
0.5
100
AcDbArc
 50
90.0
 51
180.0
  0
ARC
  5
66A
100
AcDbEntity
  8
M0
100
AcDbCircle
 10
125.641435
 20
510.9791
 40
0.5
100
AcDbArc
 50
270.0
 51
360.0
  0
ARC
  5
66B
100
AcDbEntity
  8
M0
100
AcDbCircle
 10
134.941435
 20
497.8791
 40
0.5
100
AcDbArc
 50
90.0
 51
180.0
  0
ARC
  5
66C
100
AcDbEntity
  8
M0
100
AcDbCircle
 10
125.641434
 20
517.4791
 40
0.5
100
AcDbArc
 50
0.0
 51
90.0
  0
ARC
  5
66D
100
AcDbEntity
  8
M0
100
AcDbCircle
 10
141.441435
 20
491.3791
 40
0.5
100
AcDbArc
 50
270.0
 51
360.0
  0
ARC
  5
66E
100
AcDbEntity
  8
M0
100
AcDbCircle
 10
141.441435
 20
497.8791
 40
0.5
100
AcDbArc
 50
0.0
 51
90.0
  0
LINE
  5
66F
100
AcDbEntity
  8
M0
100
AcDbLine
 10
74.291435
 20
477.3291
 11
74.291435
 21
469.9291
  0
LINE
  5
670
100
AcDbEntity
  8
M0
100
AcDbLine
 10
134.291435
 20
482.9291
 11
142.091435
 21
482.9291
  0
LINE
  5
671
100
AcDbEntity
  8
M0
100
AcDbLine
 10
143.891436
 20
446.2791
 11
143.091433
 21
446.2791
  0
LINE
  5
672
100
AcDbEntity
  8
M0
100
AcDbLine
 10
143.891436
 20
453.5291
 11
143.091433
 21
453.5291
  0
LINE
  5
673
100
AcDbEntity
  8
M0
100
AcDbLine
 10
138.591435
 20
477.3291
 11
138.591435
 21
469.9291
  0
LINE
  5
674
100
AcDbEntity
  8
M0
100
AcDbLine
 10
68.991434
 20
453.5291
 11
69.791437
 21
453.5291
  0
LINE
  5
675
100
AcDbEntity
  8
M0
100
AcDbLine
 10
70.791435
 20
464.329099
 11
78.591435
 21
464.329099
  0
LINE
  5
676
100
AcDbEntity
  8
M0
100
AcDbLine
 10
138.591435
 20
469.9291
 11
143.091433
 21
469.9291
  0
LINE
  5
677
100
AcDbEntity
  8
M0
100
AcDbLine
 10
130.991435
 20
512.129099
 11
130.991435
 21
513.129101
  0
LINE
  5
678
100
AcDbEntity
  8
M0
100
AcDbLine
 10
130.991435
 20
434.129098
 11
130.991435
 21
435.1291
  0
LINE
  5
679
100
AcDbEntity
  8
M0
100
AcDbLine
 10
95.791435
 20
518.629101
 11
95.791435
 21
496.3291
  0
LINE
  5
67A
100
AcDbEntity
  8
M0
100
AcDbLine
 10
117.091435
 20
435.1291
 11
117.091435
 21
434.129098
  0
LINE
  5
67B
100
AcDbEntity
  8
M0
100
AcDbLine
 10
78.591435
 20
482.9291
 11
70.791435
 21
482.9291
  0
LINE
  5
67C
100
AcDbEntity
  8
M0
100
AcDbLine
 10
143.091433
 20
477.3291
 11
138.591435
 21
477.3291
  0
LINE
  5
67D
100
AcDbEntity
  8
M0
100
AcDbLine
 10
68.991434
 20
469.9291
 11
74.291435
 21
469.9291
  0
LINE
  5
67E
100
AcDbEntity
  8
M0
100
AcDbLine
 10
134.291435
 20
500.3791
 11
134.291435
 21
482.845615
  0
LINE
  5
67F
100
AcDbEntity
  8
M0
100
AcDbLine
 10
130.991435
 20
432.129101
 11
130.991435
 21
436.129098
  0
LINE
  5
680
100
AcDbEntity
  8
M0
100
AcDbLine
 10
115.591439
 20
431.129099
 11
114.391435
 21
431.129099
  0
LINE
  5
681
100
AcDbEntity
  8
M0
100
AcDbLine
 10
81.891435
 20
432.129101
 11
81.891435
 21
436.129098
  0
LINE
  5
682
100
AcDbEntity
  8
M0
100
AcDbLine
 10
99.491435
 20
496.5291
 11
95.791435
 21
496.5291
  0
LINE
  5
683
100
AcDbEntity
  8
M0
100
AcDbLine
 10
134.691434
 20
472.2291
 11
132.991435
 21
472.2291
  0
LINE
  5
684
100
AcDbEntity
  8
M0
100
AcDbLine
 10
117.091435
 20
436.129098
 11
117.091435
 21
432.129101
  0
CIRCLE
  5
685
100
AcDbEntity
  8
M0
100
AcDbCircle
 10
138.191436
 20
452.629098
 40
3.0
  0
CIRCLE
  5
686
100
AcDbEntity
  8
M0
100
AcDbCircle
 10
138.191436
 20
460.229098
 40
3.0
  0
CIRCLE
  5
687
100
AcDbEntity
  8
M0
100
AcDbCircle
 10
88.841435
 20
444.129069
 40
4.499996
  0
CIRCLE
  5
688
100
AcDbEntity
  8
M0
100
AcDbCircle
 10
124.041435
 20
444.129069
 40
4.499996
  0
CIRCLE
  5
689
100
AcDbEntity
  8
M0
100
AcDbCircle
 10
106.441435
 20
444.129069
 40
4.499996
  0
LINE
  5
68A
100
AcDbEntity
  8
M0
100
AcDbLine
 10
116.091435
 20
431.129099
 11
115.591439
 21
431.129099
  0
LINE
  5
68B
100
AcDbEntity
  8
M0
100
AcDbLine
 10
113.391435
 20
450.929099
 11
113.391435
 21
448.729099
  0
LINE
  5
68C
100
AcDbEntity
  8
M0
100
AcDbLine
 10
117.091435
 20
450.729099
 11
113.391435
 21
450.729099
  0
LINE
  5
68D
100
AcDbEntity
  8
M0
100
AcDbLine
 10
117.091435
 20
448.729099
 11
117.091435
 21
450.929099
  0
LINE
  5
68E
100
AcDbEntity
  8
M0
100
AcDbLine
 10
143.091433
 20
477.3291
 11
143.891436
 21
477.3291
  0
LINE
  5
68F
100
AcDbEntity
  8
M0
100
AcDbLine
 10
143.091433
 20
493.729099
 11
143.891436
 21
493.729099
  0
LINE
  5
690
100
AcDbEntity
  8
M0
100
AcDbLine
 10
70.791435
 20
456.429099
 11
78.591435
 21
456.429099
  0
LINE
  5
691
100
AcDbEntity
  8
M0
100
AcDbLine
 10
113.391435
 20
496.5291
 11
117.091435
 21
496.5291
  0
LINE
  5
692
100
AcDbEntity
  8
M0
100
AcDbLine
 10
132.991435
 20
475.029099
 11
134.691434
 21
475.029099
  0
LINE
  5
693
100
AcDbEntity
  8
M0
100
AcDbLine
 10
95.791435
 20
450.929099
 11
95.791435
 21
432.129101
  0
LINE
  5
694
100
AcDbEntity
  8
M0
100
AcDbLine
 10
132.991435
 20
472.2291
 11
132.991435
 21
475.029099
  0
LINE
  5
695
100
AcDbEntity
  8
M0
100
AcDbLine
 10
79.891434
 20
472.2291
 11
79.891434
 21
475.029099
  0
LINE
  5
696
100
AcDbEntity
  8
M0
100
AcDbLine
 10
95.791435
 20
450.729099
 11
99.491435
 21
450.729099
  0
LINE
  5
697
100
AcDbEntity
  8
M0
100
AcDbLine
 10
138.544715
 20
454.043461
 11
136.777137
 21
452.275761
  0
LINE
  5
698
100
AcDbEntity
  8
M0
100
AcDbLine
 10
139.78202
 20
451.038456
 11
136.600379
 21
454.220219
  0
LINE
  5
699
100
AcDbEntity
  8
M0
100
AcDbLine
 10
139.605262
 20
452.982792
 11
137.837684
 21
451.215214
  0
LINE
  5
69A
100
AcDbEntity
  8
M0
100
AcDbLine
 10
90.722538
 20
444.596049
 11
88.374562
 21
442.248057
  0
LINE
  5
69B
100
AcDbEntity
  8
M0
100
AcDbLine
 10
89.308339
 20
446.010265
 11
86.960362
 21
443.662273
  0
LINE
  5
69C
100
AcDbEntity
  8
M0
100
AcDbLine
 10
86.77248
 20
446.198039
 11
91.03545
 21
441.9351
  0
ARC
  5
69D
100
AcDbEntity
  8
M0
100
AcDbCircle
 10
127.891435
 20
519.1291
 40
1.0
100
AcDbArc
 50
90.0
 51
180.0
  0
CIRCLE
  5
69E
100
AcDbEntity
  8
M0
100
AcDbCircle
 10
138.191436
 20
487.029101
 40
3.0
  0
ARC
  5
69F
100
AcDbEntity
  8
M0
100
AcDbCircle
 10
127.891435
 20
519.1291
 40
1.0
100
AcDbArc
 50
0.0
 51
90.0
  0
LINE
  5
6A0
100
AcDbEntity
  8
M0
100
AcDbLine
 10
139.605262
 20
460.582792
 11
137.837684
 21
458.815214
  0
LINE
  5
6A1
100
AcDbEntity
  8
M0
100
AcDbLine
 10
138.544715
 20
461.643461
 11
136.777137
 21
459.875761
  0
LINE
  5
6A2
100
AcDbEntity
  8
M0
100
AcDbLine
 10
139.78202
 20
458.638456
 11
136.600379
 21
461.820219
  0
LINE
  5
6A3
100
AcDbEntity
  8
M0
100
AcDbLine
 10
108.322538
 20
444.596049
 11
105.974562
 21
442.248057
  0
LINE
  5
6A4
100
AcDbEntity
  8
M0
100
AcDbLine
 10
106.908339
 20
446.010265
 11
104.560362
 21
443.662273
  0
LINE
  5
6A5
100
AcDbEntity
  8
M0
100
AcDbLine
 10
104.37248
 20
446.198039
 11
108.63545
 21
441.9351
  0
LINE
  5
6A6
100
AcDbEntity
  8
M0
100
AcDbLine
 10
125.922538
 20
444.596049
 11
123.574562
 21
442.248057
  0
LINE
  5
6A7
100
AcDbEntity
  8
M0
100
AcDbLine
 10
124.508339
 20
446.010265
 11
122.160362
 21
443.662273
  0
LINE
  5
6A8
100
AcDbEntity
  8
M0
100
AcDbLine
 10
133.691434
 20
432.1291
 11
133.691434
 21
467.429099
  0
LINE
  5
6A9
100
AcDbEntity
  8
M0
100
AcDbLine
 10
99.491435
 20
496.3291
 11
99.491435
 21
515.129098
  0
LINE
  5
6AA
100
AcDbEntity
  8
M0
100
AcDbLine
 10
113.391435
 20
496.3291
 11
113.391435
 21
515.129098
  0
LINE
  5
6AB
100
AcDbEntity
  8
M0
100
AcDbLine
 10
131.991435
 20
450.729099
 11
131.991435
 21
450.929099
  0
LINE
  5
6AC
100
AcDbEntity
  8
M0
100
AcDbLine
 10
114.391435
 20
516.1291
 11
116.091435
 21
516.1291
  0
LINE
  5
6AD
100
AcDbEntity
  8
M0
100
AcDbLine
 10
98.491434
 20
516.1291
 11
96.791435
 21
516.1291
  0
LINE
  5
6AE
100
AcDbEntity
  8
M0
100
AcDbLine
 10
80.891435
 20
516.1291
 11
80.191435
 21
516.1291
  0
LINE
  5
6AF
100
AcDbEntity
  8
M0
100
AcDbLine
 10
122.203984
 20
434.579098
 11
123.341434
 21
434.579098
  0
LINE
  5
6B0
100
AcDbEntity
  8
M0
100
AcDbLine
 10
123.341434
 20
432.9291
 11
124.241434
 21
432.9291
  0
LINE
  5
6B1
100
AcDbEntity
  8
M0
100
AcDbLine
 10
132.691434
 20
468.9291
 11
134.691434
 21
468.9291
  0
LINE
  5
6B2
100
AcDbEntity
  8
M0
100
AcDbLine
 10
130.991435
 20
496.3291
 11
130.991435
 21
515.129098
  0
LINE
  5
6B3
100
AcDbEntity
  8
M0
100
AcDbLine
 10
141.485438
 20
438.879394
 11
141.97791
 21
438.879394
  0
LINE
  5
6B4
100
AcDbEntity
  8
M0
100
AcDbLine
 10
80.891435
 20
496.5291
 11
81.891435
 21
496.5291
  0
LINE
  5
6B5
100
AcDbEntity
  8
M0
100
AcDbLine
 10
80.191436
 20
468.9291
 11
78.191435
 21
468.9291
  0
LINE
  5
6B6
100
AcDbEntity
  8
M0
100
AcDbLine
 10
131.991435
 20
496.5291
 11
130.991435
 21
496.5291
  0
LINE
  5
6B7
100
AcDbEntity
  8
M0
100
AcDbLine
 10
79.191436
 20
467.429099
 11
79.191436
 21
432.1291
  0
LINE
  5
6B8
100
AcDbEntity
  8
M0
100
AcDbLine
 10
142.091435
 20
464.329099
 11
134.291435
 21
464.329099
  0
LINE
  5
6B9
100
AcDbEntity
  8
M0
100
AcDbLine
 10
134.691434
 20
478.329099
 11
132.691434
 21
478.329099
  0
LINE
  5
6BA
100
AcDbEntity
  8
M0
100
AcDbLine
 10
132.491431
 20
516.1291
 11
132.691434
 21
516.1291
  0
LINE
  5
6BB
100
AcDbEntity
  8
M0
100
AcDbLine
 10
131.991435
 20
496.3291
 11
131.991435
 21
496.5291
  0
LINE
  5
6BC
100
AcDbEntity
  8
M0
100
AcDbLine
 10
130.041436
 20
436.129098
 11
130.991435
 21
436.129098
  0
LINE
  5
6BD
100
AcDbEntity
  8
M0
100
AcDbLine
 10
141.872634
 20
443.378047
 11
140.443091
 21
443.3791
  0
LINE
  5
6BE
100
AcDbEntity
  8
M0
100
AcDbLine
 10
133.691434
 20
479.8291
 11
133.691434
 21
515.1291
  0
CIRCLE
  5
6BF
100
AcDbEntity
  8
M0
100
AcDbCircle
 10
123.791435
 20
434.1291
 40
2.85
  0
CIRCLE
  5
6C0
100
AcDbEntity
  8
M0
100
AcDbCircle
 10
106.441435
 20
513.9291
 40
2.825
  0
ARC
  5
6C1
100
AcDbEntity
  8
M0
100
AcDbCircle
 10
126.191435
 20
511.1291
 40
0.5
100
AcDbArc
 50
0.0
 51
66.421822
  0
ARC
  5
6C2
100
AcDbEntity
  8
M0
100
AcDbCircle
 10
89.391435
 20
519.6291
 40
0.5
100
AcDbArc
 50
90.0
 51
180.0
  0
ARC
  5
6C3
100
AcDbEntity
  8
M0
100
AcDbCircle
 10
117.591435
 20
519.1291
 40
1.0
100
AcDbArc
 50
0.0
 51
90.0
  0
ARC
  5
6C4
100
AcDbEntity
  8
M0
100
AcDbCircle
 10
86.691435
 20
511.1291
 40
0.5
100
AcDbArc
 50
113.578178
 51
180.0
  0
LINE
  5
6C5
100
AcDbEntity
  8
M0
100
AcDbLine
 10
69.791437
 20
493.729099
 11
68.991434
 21
493.729099
  0
LINE
  5
6C6
100
AcDbEntity
  8
M0
100
AcDbLine
 10
121.97248
 20
446.198039
 11
126.23545
 21
441.9351
  0
LINE
  5
6C7
100
AcDbEntity
  8
M0
100
AcDbLine
 10
74.291435
 20
477.3291
 11
68.991434
 21
477.3291
  0
LINE
  5
6C8
100
AcDbEntity
  8
M0
100
AcDbLine
 10
143.891436
 20
469.9291
 11
143.091433
 21
469.9291
  0
LINE
  5
6C9
100
AcDbEntity
  8
M0
100
AcDbLine
 10
142.091435
 20
499.9791
 11
142.091435
 21
478.329099
  0
CIRCLE
  5
6CA
100
AcDbEntity
  8
M0
100
AcDbCircle
 10
106.441435
 20
513.9291
 40
2.85
  0
LINE
  5
6CB
100
AcDbEntity
  8
M0
100
AcDbLine
 10
131.991435
 20
516.1291
 11
132.491431
 21
516.1291
  0
ARC
  5
6CC
100
AcDbEntity
  8
M0
100
AcDbCircle
 10
95.291435
 20
519.1291
 40
1.0
100
AcDbArc
 50
90.0
 51
180.0
  0
ARC
  5
6CD
100
AcDbEntity
  8
M0
100
AcDbCircle
 10
123.491435
 20
519.6291
 40
0.5
100
AcDbArc
 50
0.0
 51
90.0
  0
ARC
  5
6CE
100
AcDbEntity
  8
M0
100
AcDbCircle
 10
68.991435
 20
468.9291
 40
1.0
100
AcDbArc
 50
90.0
 51
180.0
  0
ARC
  5
6CF
100
AcDbEntity
  8
M0
100
AcDbCircle
 10
143.891435
 20
468.9291
 40
1.0
100
AcDbArc
 50
0.0
 51
90.0
  0
ARC
  5
6D0
100
AcDbEntity
  8
M0
100
AcDbCircle
 10
68.991435
 20
478.3291
 40
1.0
100
AcDbArc
 50
180.0
 51
270.0
  0
LINE
  5
6D1
100
AcDbEntity
  8
M0
  6
DASHED
100
AcDbLine
 10
55.491439
 20
503.3291
 11
55.491439
 21
443.9291
  0
LINE
  5
6D2
100
AcDbEntity
  8
M0
  6
DASHED
100
AcDbLine
 10
55.491439
 20
503.3291
 11
67.991439
 21
503.3291
  0
LINE
  5
6D3
100
AcDbEntity
  8
M0
  6
DASHED
100
AcDbLine
 10
55.491439
 20
443.9291
 11
67.991439
 21
443.9291
  0
LINE
  5
6D4
100
AcDbEntity
  8
M0
  6
DASHED
100
AcDbLine
 10
244.291429
 20
503.3291
 11
231.791429
 21
503.3291
  0
LINE
  5
6D5
100
AcDbEntity
  8
M0
  6
DASHED
100
AcDbLine
 10
244.291429
 20
503.3291
 11
244.291429
 21
443.9291
  0
LINE
  5
6D6
100
AcDbEntity
  8
M0
  6
DASHED
100
AcDbLine
 10
244.291429
 20
443.9291
 11
231.791429
 21
443.9291
  0
ARC
  5
6D7
100
AcDbEntity
  8
M0
100
AcDbCircle
 10
167.091433
 20
432.1291
 40
1.0
100
AcDbArc
 50
180.0
 51
270.0
  0
ARC
  5
6D8
100
AcDbEntity
  8
M0
100
AcDbCircle
 10
193.341433
 20
513.9291
 40
2.65
100
AcDbArc
 50
350.223151
 51
369.776849
  0
ARC
  5
6D9
100
AcDbEntity
  8
M0
100
AcDbCircle
 10
229.991433
 20
492.7291
 40
1.0
100
AcDbArc
 50
90.0
 51
180.0
  0
ARC
  5
6DA
100
AcDbEntity
  8
M0
100
AcDbCircle
 10
167.791433
 20
432.1291
 40
1.0
100
AcDbArc
 50
270.0
 51
360.0
  0
ARC
  5
6DB
100
AcDbEntity
  8
M0
100
AcDbCircle
 10
218.891433
 20
432.1291
 40
1.0
100
AcDbArc
 50
180.0
 51
270.0
  0
LINE
  5
6DC
100
AcDbEntity
  8
M0
100
AcDbLine
 10
175.591432
 20
519.129099
 11
175.591432
 21
519.6291
  0
ARC
  5
6DD
100
AcDbEntity
  8
M0
100
AcDbCircle
 10
193.341433
 20
513.9291
 40
2.65
100
AcDbArc
 50
189.776849
 51
350.223151
  0
ARC
  5
6DE
100
AcDbEntity
  8
M0
100
AcDbCircle
 10
193.341433
 20
513.9291
 40
2.65
100
AcDbArc
 50
170.223151
 51
189.776849
  0
ARC
  5
6DF
100
AcDbEntity
  8
M0
100
AcDbCircle
 10
210.691433
 20
434.1291
 40
2.65
100
AcDbArc
 50
350.223151
 51
369.776849
  0
ARC
  5
6E0
100
AcDbEntity
  8
M0
100
AcDbCircle
 10
193.341433
 20
513.9291
 40
2.65
100
AcDbArc
 50
9.776849
 51
170.223151
  0
ARC
  5
6E1
100
AcDbEntity
  8
M0
100
AcDbCircle
 10
206.191433
 20
510.8291
 40
0.6
100
AcDbArc
 50
187.490122
 51
324.314617
  0
ARC
  5
6E2
100
AcDbEntity
  8
M0
100
AcDbCircle
 10
208.891433
 20
509.6291
 40
1.0
100
AcDbArc
 50
121.788346
 51
150.0
  0
LINE
  5
6E3
100
AcDbEntity
  8
M0
100
AcDbLine
 10
211.091433
 20
519.129099
 11
211.091433
 21
519.6291
  0
LINE
  5
6E4
100
AcDbEntity
  8
M0
100
AcDbLine
 10
172.891433
 20
511.629098
 11
173.391432
 21
511.629098
  0
LINE
  5
6E5
100
AcDbEntity
  8
M0
100
AcDbLine
 10
167.091433
 20
496.3291
 11
219.591432
 21
496.3291
  0
LINE
  5
6E6
100
AcDbEntity
  8
M0
100
AcDbLine
 10
157.841431
 20
456.979099
 11
157.841431
 21
463.4791
  0
LINE
  5
6E7
100
AcDbEntity
  8
M0
100
AcDbLine
 10
192.891433
 20
513.4791
 11
192.891433
 21
512.729098
  0
LINE
  5
6E8
100
AcDbEntity
  8
M0
100
AcDbLine
 10
194.928883
 20
513.4791
 11
193.791433
 21
513.4791
  0
CIRCLE
  5
6E9
100
AcDbEntity
  8
M0
100
AcDbCircle
 10
210.691433
 20
434.1291
 40
2.825
  0
LINE
  5
6EA
100
AcDbEntity
  8
M0
100
AcDbLine
 10
212.791432
 20
518.629101
 11
205.491432
 21
518.629101
  0
LINE
  5
6EB
100
AcDbEntity
  8
M0
100
AcDbLine
 10
192.891433
 20
515.129098
 11
192.891433
 21
514.3791
  0
LINE
  5
6EC
100
AcDbEntity
  8
M0
100
AcDbLine
 10
192.891433
 20
513.4791
 11
191.753982
 21
513.4791
  0
LINE
  5
6ED
100
AcDbEntity
  8
M0
100
AcDbLine
 10
173.891433
 20
518.629101
 11
173.391432
 21
518.1291
  0
LINE
  5
6EE
100
AcDbEntity
  8
M0
100
AcDbLine
 10
173.391432
 20
518.1291
 11
173.391432
 21
510.129099
  0
ARC
  5
6EF
100
AcDbEntity
  8
M0
100
AcDbCircle
 10
193.341431
 20
513.8791
 40
4.25
100
AcDbArc
 50
241.927521
 51
298.072495
  0
ARC
  5
6F0
100
AcDbEntity
  8
M0
100
AcDbCircle
 10
193.341432
 20
513.8791
 40
4.25
100
AcDbArc
 50
241.927521
 51
270.0
  0
ARC
  5
6F1
100
AcDbEntity
  8
M0
100
AcDbCircle
 10
180.491433
 20
510.8291
 40
0.6
100
AcDbArc
 50
215.685335
 51
270.0
  0
ARC
  5
6F2
100
AcDbEntity
  8
M0
100
AcDbCircle
 10
210.941433
 20
433.3791
 40
4.25
100
AcDbArc
 50
61.927513
 51
118.072487
  0
ARC
  5
6F3
100
AcDbEntity
  8
M0
100
AcDbCircle
 10
208.891433
 20
509.6291
 40
1.0
100
AcDbArc
 50
30.0
 51
58.211672
  0
ARC
  5
6F4
100
AcDbEntity
  8
M0
100
AcDbCircle
 10
193.341433
 20
433.3791
 40
4.25
100
AcDbArc
 50
61.927513
 51
118.072487
  0
ARC
  5
6F5
100
AcDbEntity
  8
M0
100
AcDbCircle
 10
210.941431
 20
513.8791
 40
4.25
100
AcDbArc
 50
241.927521
 51
298.072495
  0
ARC
  5
6F6
100
AcDbEntity
  8
M0
100
AcDbCircle
 10
175.741433
 20
433.3791
 40
4.25
100
AcDbArc
 50
61.927513
 51
118.072487
  0
ARC
  5
6F7
100
AcDbEntity
  8
M0
100
AcDbCircle
 10
210.941432
 20
513.8791
 40
4.25
100
AcDbArc
 50
241.927521
 51
270.0
  0
ARC
  5
6F8
100
AcDbEntity
  8
M0
100
AcDbCircle
 10
228.341433
 20
449.3791
 40
0.5
100
AcDbArc
 50
270.0
 51
360.0
  0
ARC
  5
6F9
100
AcDbEntity
  8
M0
100
AcDbCircle
 10
228.341432
 20
455.8791
 40
0.5
100
AcDbArc
 50
0.0
 51
90.0
  0
ARC
  5
6FA
100
AcDbEntity
  8
M0
100
AcDbCircle
 10
221.841433
 20
483.7791
 40
0.5
100
AcDbArc
 50
180.0
 51
270.0
  0
ARC
  5
6FB
100
AcDbEntity
  8
M0
100
AcDbCircle
 10
221.841432
 20
455.879099
 40
0.5
100
AcDbArc
 50
90.0
 51
180.0
  0
ARC
  5
6FC
100
AcDbEntity
  8
M0
100
AcDbCircle
 10
228.341433
 20
483.7791
 40
0.5
100
AcDbArc
 50
270.0
 51
360.0
  0
ARC
  5
6FD
100
AcDbEntity
  8
M0
100
AcDbCircle
 10
228.341433
 20
490.2791
 40
0.5
100
AcDbArc
 50
0.0
 51
90.0
  0
ARC
  5
6FE
100
AcDbEntity
  8
M0
100
AcDbCircle
 10
220.091433
 20
481.3291
 40
0.5
100
AcDbArc
 50
270.0
 51
360.0
  0
ARC
  5
6FF
100
AcDbEntity
  8
M0
100
AcDbCircle
 10
175.741432
 20
513.8791
 40
4.25
100
AcDbArc
 50
241.927521
 51
270.0
  0
ARC
  5
700
100
AcDbEntity
  8
M0
100
AcDbCircle
 10
175.741431
 20
513.8791
 40
4.25
100
AcDbArc
 50
241.927521
 51
298.072495
  0
ARC
  5
701
100
AcDbEntity
  8
M0
100
AcDbCircle
 10
167.091433
 20
495.3291
 40
1.0
100
AcDbArc
 50
90.0
 51
180.0
  0
ARC
  5
702
100
AcDbEntity
  8
M0
100
AcDbCircle
 10
158.341433
 20
463.4791
 40
0.5
100
AcDbArc
 50
90.0
 51
180.0
  0
ARC
  5
703
100
AcDbEntity
  8
M0
100
AcDbCircle
 10
164.841433
 20
456.9791
 40
0.5
100
AcDbArc
 50
270.0
 51
360.0
  0
ARC
  5
704
100
AcDbEntity
  8
M0
100
AcDbCircle
 10
158.341432
 20
490.279099
 40
0.5
100
AcDbArc
 50
90.0
 51
180.0
  0
ARC
  5
705
100
AcDbEntity
  8
M0
100
AcDbCircle
 10
158.341433
 20
483.779099
 40
0.5
100
AcDbArc
 50
180.0
 51
270.0
  0
ARC
  5
706
100
AcDbEntity
  8
M0
100
AcDbCircle
 10
158.341433
 20
483.779099
 40
0.5
100
AcDbArc
 50
180.0
 51
270.0
  0
ARC
  5
707
100
AcDbEntity
  8
M0
100
AcDbCircle
 10
164.841433
 20
483.7791
 40
0.5
100
AcDbArc
 50
270.0
 51
360.0
  0
ARC
  5
708
100
AcDbEntity
  8
M0
100
AcDbCircle
 10
158.341433
 20
456.9791
 40
0.5
100
AcDbArc
 50
180.0
 51
270.0
  0
ARC
  5
709
100
AcDbEntity
  8
M0
100
AcDbCircle
 10
221.841433
 20
490.2791
 40
0.5
100
AcDbArc
 50
90.0
 51
180.0
  0
ARC
  5
70A
100
AcDbEntity
  8
M0
100
AcDbCircle
 10
164.841432
 20
490.2791
 40
0.5
100
AcDbArc
 50
0.0
 51
90.0
  0
ARC
  5
70B
100
AcDbEntity
  8
M0
100
AcDbCircle
 10
164.841433
 20
463.4791
 40
0.5
100
AcDbArc
 50
0.0
 51
90.0
  0
LINE
  5
70C
100
AcDbEntity
  8
M0
100
AcDbLine
 10
164.841433
 20
456.4791
 11
158.341432
 21
456.4791
  0
LINE
  5
70D
100
AcDbEntity
  8
M0
100
AcDbLine
 10
228.341433
 20
483.2791
 11
221.841433
 21
483.2791
  0
LINE
  5
70E
100
AcDbEntity
  8
M0
100
AcDbLine
 10
221.841433
 20
490.779099
 11
228.341433
 21
490.779099
  0
LINE
  5
70F
100
AcDbEntity
  8
M0
100
AcDbLine
 10
228.841434
 20
490.2791
 11
228.841434
 21
483.7791
  0
LINE
  5
710
100
AcDbEntity
  8
M0
100
AcDbLine
 10
158.341433
 20
463.979099
 11
164.841433
 21
463.979099
  0
LINE
  5
711
100
AcDbEntity
  8
M0
100
AcDbLine
 10
228.341433
 20
456.4791
 11
221.841433
 21
456.4791
  0
LINE
  5
712
100
AcDbEntity
  8
M0
100
AcDbLine
 10
228.841434
 20
456.979101
 11
228.841434
 21
463.4791
  0
LINE
  5
713
100
AcDbEntity
  8
M0
100
AcDbLine
 10
164.841433
 20
448.8791
 11
158.341433
 21
448.8791
  0
LINE
  5
714
100
AcDbEntity
  8
M0
100
AcDbLine
 10
221.841433
 20
463.979099
 11
228.341432
 21
463.979099
  0
ARC
  5
715
100
AcDbEntity
  8
M0
100
AcDbCircle
 10
166.591433
 20
481.3291
 40
0.5
100
AcDbArc
 50
180.0
 51
270.0
  0
LINE
  5
716
100
AcDbEntity
  8
M0
100
AcDbLine
 10
221.341433
 20
483.7791
 11
221.341433
 21
490.2791
  0
LINE
  5
717
100
AcDbEntity
  8
M0
  6
DASHDOT
100
AcDbLine
 10
193.341433
 20
426.129099
 11
193.341433
 21
525.129101
  0
LINE
  5
718
100
AcDbEntity
  8
M0
100
AcDbLine
 10
158.341432
 20
490.779099
 11
164.841433
 21
490.779099
  0
LINE
  5
719
100
AcDbEntity
  8
M0
100
AcDbLine
 10
164.841433
 20
483.2791
 11
158.341433
 21
483.2791
  0
LINE
  5
71A
100
AcDbEntity
  8
M0
100
AcDbLine
 10
212.541433
 20
510.479097
 11
206.041433
 21
510.479097
  0
LINE
  5
71B
100
AcDbEntity
  8
M0
100
AcDbLine
 10
156.691434
 20
453.5291
 11
156.591433
 21
453.5291
  0
LINE
  5
71C
100
AcDbEntity
  8
M0
100
AcDbLine
 10
157.841431
 20
497.879098
 11
157.841431
 21
491.379099
  0
LINE
  5
71D
100
AcDbEntity
  8
M0
100
AcDbLine
 10
213.041433
 20
510.979098
 11
213.041433
 21
517.4791
  0
LINE
  5
71E
100
AcDbEntity
  8
M0
100
AcDbLine
 10
165.341434
 20
497.8791
 11
165.341434
 21
491.3791
  0
LINE
  5
71F
100
AcDbEntity
  8
M0
100
AcDbLine
 10
206.041432
 20
517.979101
 11
212.541432
 21
517.979101
  0
LINE
  5
720
100
AcDbEntity
  8
M0
100
AcDbLine
 10
217.891433
 20
432.129101
 11
217.891433
 21
434.129098
  0
LINE
  5
721
100
AcDbEntity
  8
M0
100
AcDbLine
 10
205.541433
 20
510.979098
 11
205.54143
 21
517.479099
  0
LINE
  5
722
100
AcDbEntity
  8
M0
100
AcDbLine
 10
182.691433
 20
434.129098
 11
182.691433
 21
432.129101
  0
LINE
  5
723
100
AcDbEntity
  8
M0
100
AcDbLine
 10
230.091433
 20
493.729099
 11
229.991431
 21
493.729099
  0
LINE
  5
724
100
AcDbEntity
  8
M0
100
AcDbLine
 10
229.991431
 20
453.5291
 11
230.091433
 21
453.5291
  0
LINE
  5
725
100
AcDbEntity
  8
M0
100
AcDbLine
 10
156.591433
 20
493.729099
 11
156.691434
 21
493.729099
  0
ARC
  5
726
100
AcDbEntity
  8
M0
100
AcDbCircle
 10
228.341433
 20
456.9791
 40
0.5
100
AcDbArc
 50
270.0
 51
360.0
  0
ARC
  5
727
100
AcDbEntity
  8
M0
100
AcDbCircle
 10
228.341433
 20
456.9791
 40
0.5
100
AcDbArc
 50
270.0
 51
360.0
  0
ARC
  5
728
100
AcDbEntity
  8
M0
100
AcDbCircle
 10
165.441433
 20
434.6291
 40
0.5
100
AcDbArc
 50
180.0
 51
270.0
  0
ARC
  5
729
100
AcDbEntity
  8
M0
100
AcDbCircle
 10
164.891433
 20
513.1291
 40
2.0
100
AcDbArc
 50
53.130102
 51
90.0
  0
ARC
  5
72A
100
AcDbEntity
  8
M0
100
AcDbCircle
 10
221.791433
 20
513.1291
 40
2.0
100
AcDbArc
 50
90.0
 51
126.869898
  0
ARC
  5
72B
100
AcDbEntity
  8
M0
100
AcDbCircle
 10
158.341433
 20
449.3791
 40
0.5
100
AcDbArc
 50
180.0
 51
270.0
  0
CIRCLE
  5
72C
100
AcDbEntity
  8
M0
100
AcDbCircle
 10
175.991433
 20
434.1291
 40
2.85
  0
CIRCLE
  5
72D
100
AcDbEntity
  8
M0
100
AcDbCircle
 10
175.991433
 20
434.1291
 40
2.825
  0
ARC
  5
72E
100
AcDbEntity
  8
M0
100
AcDbCircle
 10
158.341432
 20
490.279099
 40
0.5
100
AcDbArc
 50
90.0
 51
180.0
  0
ARC
  5
72F
100
AcDbEntity
  8
M0
100
AcDbCircle
 10
221.841432
 20
463.479099
 40
0.5
100
AcDbArc
 50
90.0
 51
180.0
  0
ARC
  5
730
100
AcDbEntity
  8
M0
100
AcDbCircle
 10
221.841433
 20
456.979099
 40
0.5
100
AcDbArc
 50
180.0
 51
270.0
  0
ARC
  5
731
100
AcDbEntity
  8
M0
100
AcDbCircle
 10
228.341432
 20
463.4791
 40
0.5
100
AcDbArc
 50
0.0
 51
90.0
  0
LINE
  5
732
100
AcDbEntity
  8
M0
100
AcDbLine
 10
157.841431
 20
490.279098
 11
157.841431
 21
483.779099
  0
ARC
  5
733
100
AcDbEntity
  8
M0
100
AcDbCircle
 10
229.991433
 20
447.2791
 40
1.0
100
AcDbArc
 50
180.0
 51
270.0
  0
LINE
  5
734
100
AcDbEntity
  8
M0
100
AcDbLine
 10
228.841434
 20
455.8791
 11
228.841434
 21
449.3791
  0
LINE
  5
735
100
AcDbEntity
  8
M0
100
AcDbLine
 10
221.841432
 20
456.3791
 11
228.341433
 21
456.3791
  0
LINE
  5
736
100
AcDbEntity
  8
M0
100
AcDbLine
 10
221.341433
 20
449.379099
 11
221.341433
 21
455.879099
  0
LINE
  5
737
100
AcDbEntity
  8
M0
100
AcDbLine
 10
228.341433
 20
448.8791
 11
221.841433
 21
448.8791
  0
ARC
  5
738
100
AcDbEntity
  8
M0
100
AcDbCircle
 10
170.3883
 20
485.478356
 40
5.573176
100
AcDbArc
 50
208.520126
 51
219.557059
  0
ARC
  5
739
100
AcDbEntity
  8
M0
100
AcDbCircle
 10
216.294565
 20
485.478356
 40
5.573176
100
AcDbArc
 50
320.442941
 51
331.479874
  0
ARC
  5
73A
100
AcDbEntity
  8
M0
100
AcDbCircle
 10
166.091433
 20
493.1291
 40
0.6
100
AcDbArc
 50
90.0
 51
180.0
  0
ARC
  5
73B
100
AcDbEntity
  8
M0
100
AcDbCircle
 10
155.891433
 20
499.9791
 40
1.0
100
AcDbArc
 50
90.0
 51
180.0
  0
ARC
  5
73C
100
AcDbEntity
  8
M0
100
AcDbCircle
 10
220.591433
 20
493.1291
 40
0.6
100
AcDbArc
 50
0.0
 51
90.0
  0
ARC
  5
73D
100
AcDbEntity
  8
M0
100
AcDbCircle
 10
156.691433
 20
499.9791
 40
1.0
100
AcDbArc
 50
0.0
 51
90.0
  0
LINE
  5
73E
100
AcDbEntity
  8
M0
100
AcDbLine
 10
181.141433
 20
517.4791
 11
181.141433
 21
510.979098
  0
LINE
  5
73F
100
AcDbEntity
  8
M0
100
AcDbLine
 10
165.341432
 20
455.8791
 11
165.341432
 21
449.379099
  0
LINE
  5
740
100
AcDbEntity
  8
M0
100
AcDbLine
 10
221.841433
 20
498.379099
 11
228.341433
 21
498.379099
  0
LINE
  5
741
100
AcDbEntity
  8
M0
100
AcDbLine
 10
228.341433
 20
490.879099
 11
221.841433
 21
490.879099
  0
LINE
  5
742
100
AcDbEntity
  8
M0
100
AcDbLine
 10
221.341433
 20
491.3791
 11
221.341433
 21
497.8791
  0
LINE
  5
743
100
AcDbEntity
  8
M0
100
AcDbLine
 10
174.141433
 20
517.979098
 11
180.641433
 21
517.979098
  0
LINE
  5
744
100
AcDbEntity
  8
M0
100
AcDbLine
 10
158.341432
 20
456.3791
 11
164.841433
 21
456.3791
  0
LINE
  5
745
100
AcDbEntity
  8
M0
100
AcDbLine
 10
221.341433
 20
456.979099
 11
221.341433
 21
463.479099
  0
LINE
  5
746
100
AcDbEntity
  8
M0
100
AcDbLine
 10
173.641433
 20
510.979098
 11
173.641433
 21
517.4791
  0
LINE
  5
747
100
AcDbEntity
  8
M0
100
AcDbLine
 10
228.841434
 20
497.8791
 11
228.841434
 21
491.3791
  0
LINE
  5
748
100
AcDbEntity
  8
M0
100
AcDbLine
 10
180.641433
 20
510.479101
 11
174.141433
 21
510.479101
  0
LINE
  5
749
100
AcDbEntity
  8
M0
100
AcDbLine
 10
191.753982
 20
514.3791
 11
190.72992
 21
514.3791
  0
LINE
  5
74A
100
AcDbEntity
  8
M0
100
AcDbLine
 10
210.241432
 20
433.679101
 11
210.241432
 21
432.9291
  0
LINE
  5
74B
100
AcDbEntity
  8
M0
100
AcDbLine
 10
210.241432
 20
435.329099
 11
210.241432
 21
434.579098
  0
LINE
  5
74C
100
AcDbEntity
  8
M0
100
AcDbLine
 10
190.72992
 20
513.4791
 11
191.753982
 21
513.4791
  0
LINE
  5
74D
100
AcDbEntity
  8
M0
100
AcDbLine
 10
211.141432
 20
432.9291
 11
211.141432
 21
433.679101
  0
LINE
  5
74E
100
AcDbEntity
  8
M0
100
AcDbLine
 10
211.141432
 20
435.329099
 11
210.241432
 21
435.329099
  0
LINE
  5
74F
100
AcDbEntity
  8
M0
100
AcDbLine
 10
168.791432
 20
437.1291
 11
173.741432
 21
437.1291
  0
LINE
  5
750
100
AcDbEntity
  8
M0
100
AcDbLine
 10
213.291433
 20
518.1291
 11
212.791432
 21
518.629101
  0
LINE
  5
751
100
AcDbEntity
  8
M0
100
AcDbLine
 10
221.191433
 20
456.429099
 11
228.991433
 21
456.429099
  0
LINE
  5
752
100
AcDbEntity
  8
M0
100
AcDbLine
 10
213.291433
 20
510.129099
 11
213.291433
 21
518.1291
  0
LINE
  5
753
100
AcDbEntity
  8
M0
100
AcDbLine
 10
211.141432
 20
434.579098
 11
212.278882
 21
434.579098
  0
LINE
  5
754
100
AcDbEntity
  8
M0
100
AcDbLine
 10
181.191433
 20
518.629101
 11
172.891433
 21
518.629101
  0
LINE
  5
755
100
AcDbEntity
  8
M0
100
AcDbLine
 10
193.791433
 20
515.129098
 11
192.891433
 21
515.129098
  0
LINE
  5
756
100
AcDbEntity
  8
M0
100
AcDbLine
 10
192.891433
 20
512.729098
 11
193.791433
 21
512.729098
  0
LINE
  5
757
100
AcDbEntity
  8
M0
100
AcDbLine
 10
193.791433
 20
514.3791
 11
194.928883
 21
514.3791
  0
LINE
  5
758
100
AcDbEntity
  8
M0
100
AcDbLine
 10
191.753982
 20
514.3791
 11
192.891433
 21
514.3791
  0
LINE
  5
759
100
AcDbEntity
  8
M0
100
AcDbLine
 10
165.341432
 20
463.479099
 11
165.341432
 21
456.9791
  0
LINE
  5
75A
100
AcDbEntity
  8
M0
100
AcDbLine
 10
194.928883
 20
513.4791
 11
195.952946
 21
513.4791
  0
LINE
  5
75B
100
AcDbEntity
  8
M0
100
AcDbLine
 10
195.952946
 20
514.3791
 11
194.928883
 21
514.3791
  0
LINE
  5
75C
100
AcDbEntity
  8
M0
100
AcDbLine
 10
212.278882
 20
433.679101
 11
211.141432
 21
433.679101
  0
LINE
  5
75D
100
AcDbEntity
  8
M0
100
AcDbLine
 10
210.241432
 20
433.679101
 11
209.103981
 21
433.679101
  0
LINE
  5
75E
100
AcDbEntity
  8
M0
100
AcDbLine
 10
193.791433
 20
514.3791
 11
193.791433
 21
515.129098
  0
LINE
  5
75F
100
AcDbEntity
  8
M0
100
AcDbLine
 10
193.791433
 20
512.729098
 11
193.791433
 21
513.4791
  0
ARC
  5
760
100
AcDbEntity
  8
M0
100
AcDbCircle
 10
228.341432
 20
455.8791
 40
0.5
100
AcDbArc
 50
0.0
 51
90.0
  0
ARC
  5
761
100
AcDbEntity
  8
M0
100
AcDbCircle
 10
221.841433
 20
449.379099
 40
0.5
100
AcDbArc
 50
180.0
 51
270.0
  0
ARC
  5
762
100
AcDbEntity
  8
M0
100
AcDbCircle
 10
219.591433
 20
515.1291
 40
1.0
100
AcDbArc
 50
0.0
 51
90.0
  0
ARC
  5
763
100
AcDbEntity
  8
M0
100
AcDbCircle
 10
228.341433
 20
449.3791
 40
0.5
100
AcDbArc
 50
270.0
 51
360.0
  0
ARC
  5
764
100
AcDbEntity
  8
M0
100
AcDbCircle
 10
164.841433
 20
455.8791
 40
0.5
100
AcDbArc
 50
0.0
 51
90.0
  0
ARC
  5
765
100
AcDbEntity
  8
M0
100
AcDbCircle
 10
175.991433
 20
434.1291
 40
2.65
100
AcDbArc
 50
189.776849
 51
350.223151
  0
ARC
  5
766
100
AcDbEntity
  8
M0
100
AcDbCircle
 10
164.841433
 20
449.3791
 40
0.5
100
AcDbArc
 50
270.0
 51
360.0
  0
LINE
  5
767
100
AcDbEntity
  8
M0
100
AcDbLine
 10
157.841431
 20
449.379099
 11
157.841431
 21
455.8791
  0
ARC
  5
768
100
AcDbEntity
  8
M0
100
AcDbCircle
 10
174.141433
 20
510.9791
 40
0.5
100
AcDbArc
 50
180.0
 51
270.0
  0
ARC
  5
769
100
AcDbEntity
  8
M0
100
AcDbCircle
 10
158.341433
 20
455.8791
 40
0.5
100
AcDbArc
 50
90.0
 51
180.0
  0
ARC
  5
76A
100
AcDbEntity
  8
M0
100
AcDbCircle
 10
180.641433
 20
510.9791
 40
0.5
100
AcDbArc
 50
270.0
 51
360.0
  0
ARC
  5
76B
100
AcDbEntity
  8
M0
100
AcDbCircle
 10
180.641433
 20
517.4791
 40
0.5
100
AcDbArc
 50
0.0
 51
90.0
  0
ARC
  5
76C
100
AcDbEntity
  8
M0
100
AcDbCircle
 10
164.841432
 20
497.8791
 40
0.5
100
AcDbArc
 50
0.0
 51
90.0
  0
ARC
  5
76D
100
AcDbEntity
  8
M0
100
AcDbCircle
 10
164.841433
 20
491.3791
 40
0.5
100
AcDbArc
 50
270.0
 51
360.0
  0
LINE
  5
76E
100
AcDbEntity
  8
M0
100
AcDbLine
 10
217.891433
 20
510.129099
 11
212.941433
 21
510.129099
  0
LINE
  5
76F
100
AcDbEntity
  8
M0
100
AcDbLine
 10
186.391433
 20
437.1291
 11
191.341433
 21
437.1291
  0
LINE
  5
770
100
AcDbEntity
  8
M0
100
AcDbLine
 10
203.991432
 20
437.1291
 11
208.941432
 21
437.1291
  0
ARC
  5
771
100
AcDbEntity
  8
M0
100
AcDbCircle
 10
158.341433
 20
491.379099
 40
0.5
100
AcDbArc
 50
180.0
 51
270.0
  0
ARC
  5
772
100
AcDbEntity
  8
M0
100
AcDbCircle
 10
206.041432
 20
517.479099
 40
0.5
100
AcDbArc
 50
90.0
 51
180.0
  0
ARC
  5
773
100
AcDbEntity
  8
M0
100
AcDbCircle
 10
206.041433
 20
510.979099
 40
0.5
100
AcDbArc
 50
180.0
 51
270.0
  0
ARC
  5
774
100
AcDbEntity
  8
M0
100
AcDbCircle
 10
158.341432
 20
497.879099
 40
0.5
100
AcDbArc
 50
90.0
 51
180.0
  0
ARC
  5
775
100
AcDbEntity
  8
M0
100
AcDbCircle
 10
212.541433
 20
510.9791
 40
0.5
100
AcDbArc
 50
270.0
 51
360.0
  0
ARC
  5
776
100
AcDbEntity
  8
M0
100
AcDbCircle
 10
212.541432
 20
517.4791
 40
0.5
100
AcDbArc
 50
0.0
 51
90.0
  0
LINE
  5
777
100
AcDbEntity
  8
M0
100
AcDbLine
 10
158.591433
 20
498.4291
 11
157.691433
 21
498.4291
  0
LINE
  5
778
100
AcDbEntity
  8
M0
100
AcDbLine
 10
182.891433
 20
515.729101
 11
182.891433
 21
517.929101
  0
LINE
  5
779
100
AcDbEntity
  8
M0
100
AcDbLine
 10
228.091432
 20
498.4291
 11
228.991433
 21
498.4291
  0
LINE
  5
77A
100
AcDbEntity
  8
M0
100
AcDbLine
 10
191.341433
 20
437.1291
 11
195.341433
 21
437.1291
  0
LINE
  5
77B
100
AcDbEntity
  8
M0
100
AcDbLine
 10
208.941431
 20
510.129099
 11
215.391433
 21
510.129099
  0
LINE
  5
77C
100
AcDbEntity
  8
M0
100
AcDbLine
 10
221.191433
 20
498.4291
 11
222.091433
 21
498.4291
  0
ARC
  5
77D
100
AcDbEntity
  8
M0
100
AcDbCircle
 10
165.091433
 20
468.4291
 40
1.0
100
AcDbArc
 50
180.0
 51
270.0
  0
ARC
  5
77E
100
AcDbEntity
  8
M0
100
AcDbCircle
 10
161.890942
 20
506.0791
 40
0.3
100
AcDbArc
 50
90.0
 51
178.876481
  0
ARC
  5
77F
100
AcDbEntity
  8
M0
100
AcDbCircle
 10
183.191433
 20
498.5291
 40
0.5
100
AcDbArc
 50
180.0
 51
270.0
  0
ARC
  5
780
100
AcDbEntity
  8
M0
100
AcDbCircle
 10
210.691433
 20
434.1291
 40
3.5
100
AcDbArc
 50
121.002719
 51
180.0
  0
ARC
  5
781
100
AcDbEntity
  8
M0
100
AcDbCircle
 10
200.791433
 20
448.7291
 40
0.5
100
AcDbArc
 50
90.0
 51
180.0
  0
LINE
  5
782
100
AcDbEntity
  8
M0
100
AcDbLine
 10
230.091433
 20
500.979099
 11
229.991431
 21
500.979099
  0
LINE
  5
783
100
AcDbEntity
  8
M0
100
AcDbLine
 10
182.241433
 20
432.129101
 11
182.241433
 21
437.1291
  0
LINE
  5
784
100
AcDbEntity
  8
M0
100
AcDbLine
 10
169.741432
 20
432.129101
 11
169.741432
 21
437.1291
  0
LINE
  5
785
100
AcDbEntity
  8
M0
100
AcDbLine
 10
204.441432
 20
432.129101
 11
204.441432
 21
437.1291
  0
LINE
  5
786
100
AcDbEntity
  8
M0
100
AcDbLine
 10
183.391433
 20
518.429098
 11
203.291432
 21
518.429098
  0
LINE
  5
787
100
AcDbEntity
  8
M0
100
AcDbLine
 10
156.591433
 20
446.2791
 11
156.691434
 21
446.2791
  0
LINE
  5
788
100
AcDbEntity
  8
M0
100
AcDbLine
 10
216.941433
 20
437.1291
 11
216.941433
 21
432.129101
  0
LINE
  5
789
100
AcDbEntity
  8
M0
100
AcDbLine
 10
207.191432
 20
434.129098
 11
207.191432
 21
432.129101
  0
LINE
  5
78A
100
AcDbEntity
  8
M0
100
AcDbLine
 10
172.491432
 20
434.129098
 11
172.491432
 21
432.129101
  0
LINE
  5
78B
100
AcDbEntity
  8
M0
100
AcDbLine
 10
172.891433
 20
510.129099
 11
172.891433
 21
519.1291
  0
LINE
  5
78C
100
AcDbEntity
  8
M0
100
AcDbLine
 10
229.291433
 20
431.129099
 11
205.441433
 21
431.129099
  0
LINE
  5
78D
100
AcDbEntity
  8
M0
100
AcDbLine
 10
156.591433
 20
500.979099
 11
156.691434
 21
500.979099
  0
LINE
  5
78E
100
AcDbEntity
  8
M0
100
AcDbLine
 10
203.791433
 20
517.929101
 11
203.791433
 21
515.729101
  0
ARC
  5
78F
100
AcDbEntity
  8
M0
100
AcDbCircle
 10
157.391433
 20
512.1291
 40
3.0
100
AcDbArc
 50
90.0
 51
180.0
  0
ARC
  5
790
100
AcDbEntity
  8
M0
100
AcDbCircle
 10
228.791433
 20
512.1291
 40
3.0
100
AcDbArc
 50
0.0
 51
90.0
  0
ARC
  5
791
100
AcDbEntity
  8
M0
100
AcDbCircle
 10
175.091433
 20
519.1291
 40
0.5
100
AcDbArc
 50
270.0
 51
360.0
  0
ARC
  5
792
100
AcDbEntity
  8
M0
100
AcDbCircle
 10
165.441433
 20
433.1291
 40
0.5
100
AcDbArc
 50
180.0
 51
270.0
  0
ARC
  5
793
100
AcDbEntity
  8
M0
100
AcDbCircle
 10
211.591433
 20
519.6291
 40
0.5
100
AcDbArc
 50
90.0
 51
180.0
  0
ARC
  5
794
100
AcDbEntity
  8
M0
100
AcDbCircle
 10
211.591433
 20
519.1291
 40
0.5
100
AcDbArc
 50
180.0
 51
270.0
  0
ARC
  5
795
100
AcDbEntity
  8
M0
100
AcDbCircle
 10
215.191433
 20
432.1291
 40
1.0
100
AcDbArc
 50
180.0
 51
270.0
  0
ARC
  5
796
100
AcDbEntity
  8
M0
100
AcDbCircle
 10
181.241433
 20
432.1291
 40
1.0
100
AcDbArc
 50
270.0
 51
360.0
  0
ARC
  5
797
100
AcDbEntity
  8
M0
100
AcDbCircle
 10
170.741433
 20
432.1291
 40
1.0
100
AcDbArc
 50
180.0
 51
270.0
  0
ARC
  5
798
100
AcDbEntity
  8
M0
100
AcDbCircle
 10
206.191433
 20
432.1291
 40
1.0
100
AcDbArc
 50
270.0
 51
360.0
  0
ARC
  5
799
100
AcDbEntity
  8
M0
100
AcDbCircle
 10
171.891433
 20
519.1291
 40
1.0
100
AcDbArc
 50
90.0
 51
180.0
  0
ARC
  5
79A
100
AcDbEntity
  8
M0
100
AcDbCircle
 10
171.491433
 20
432.1291
 40
1.0
100
AcDbArc
 50
270.0
 51
360.0
  0
ARC
  5
79B
100
AcDbEntity
  8
M0
100
AcDbCircle
 10
225.841433
 20
438.6291
 40
2.25
100
AcDbArc
 50
270.0
 51
355.815286
  0
ARC
  5
79C
100
AcDbEntity
  8
M0
100
AcDbCircle
 10
201.291433
 20
432.1291
 40
1.0
100
AcDbArc
 50
180.0
 51
270.0
  0
ARC
  5
79D
100
AcDbEntity
  8
M0
100
AcDbCircle
 10
158.291923
 20
508.6791
 40
0.3
100
AcDbArc
 50
270.0
 51
358.876481
  0
ARC
  5
79E
100
AcDbEntity
  8
M0
100
AcDbCircle
 10
160.841433
 20
508.6291
 40
2.25
100
AcDbArc
 50
90.0
 51
178.876481
  0
ARC
  5
79F
100
AcDbEntity
  8
M0
100
AcDbCircle
 10
163.341433
 20
508.6291
 40
2.25
100
AcDbArc
 50
270.0
 51
450.0
  0
ARC
  5
7A0
100
AcDbEntity
  8
M0
100
AcDbCircle
 10
175.091433
 20
519.6291
 40
0.5
100
AcDbArc
 50
0.0
 51
90.0
  0
ARC
  5
7A1
100
AcDbEntity
  8
M0
100
AcDbCircle
 10
203.491433
 20
448.7291
 40
0.5
100
AcDbArc
 50
0.0
 51
90.0
  0
ARC
  5
7A2
100
AcDbEntity
  8
M0
100
AcDbCircle
 10
159.341433
 20
506.1291
 40
2.25
100
AcDbArc
 50
272.401074
 51
358.876481
  0
ARC
  5
7A3
100
AcDbEntity
  8
M0
100
AcDbCircle
 10
223.341433
 20
438.6291
 40
2.25
100
AcDbArc
 50
90.0
 51
270.0
  0
ARC
  5
7A4
100
AcDbEntity
  8
M0
100
AcDbCircle
 10
183.191433
 20
448.7291
 40
0.5
100
AcDbArc
 50
90.0
 51
180.0
  0
ARC
  5
7A5
100
AcDbEntity
  8
M0
100
AcDbCircle
 10
185.891433
 20
448.7291
 40
0.5
100
AcDbArc
 50
0.0
 51
90.0
  0
LINE
  5
7A6
100
AcDbEntity
  8
M0
100
AcDbLine
 10
221.791432
 20
515.129098
 11
228.791433
 21
515.129098
  0
LINE
  5
7A7
100
AcDbEntity
  8
M0
100
AcDbLine
 10
231.791432
 20
449.829099
 11
232.291433
 21
444.8291
  0
LINE
  5
7A8
100
AcDbEntity
  8
M0
100
AcDbLine
 10
166.091433
 20
434.129098
 11
165.441433
 21
434.129098
  0
LINE
  5
7A9
100
AcDbEntity
  8
M0
100
AcDbLine
 10
158.291923
 20
508.379099
 11
157.841431
 21
508.379099
  0
LINE
  5
7AA
100
AcDbEntity
  8
M0
100
AcDbLine
 10
163.341433
 20
510.8791
 11
160.841434
 21
510.8791
  0
LINE
  5
7AB
100
AcDbEntity
  8
M0
100
AcDbLine
 10
157.841431
 20
503.879099
 11
159.435695
 21
503.881076
  0
LINE
  5
7AC
100
AcDbEntity
  8
M0
100
AcDbLine
 10
164.941432
 20
434.629099
 11
164.941432
 21
435.1291
  0
LINE
  5
7AD
100
AcDbEntity
  8
M0
100
AcDbLine
 10
172.891433
 20
514.629101
 11
173.391432
 21
514.629101
  0
LINE
  5
7AE
100
AcDbEntity
  8
M0
100
AcDbLine
 10
166.091433
 20
435.1291
 11
164.941432
 21
435.1291
  0
LINE
  5
7AF
100
AcDbEntity
  8
M0
100
AcDbLine
 10
213.791432
 20
515.729101
 11
213.291433
 21
515.729101
  0
LINE
  5
7B0
100
AcDbEntity
  8
M0
100
AcDbLine
 10
172.891433
 20
516.929099
 11
173.391432
 21
516.929099
  0
LINE
  5
7B1
100
AcDbEntity
  8
M0
100
AcDbLine
 10
173.391432
 20
515.729101
 11
172.891433
 21
515.729101
  0
ARC
  5
7B2
100
AcDbEntity
  8
M0
100
AcDbCircle
 10
205.441433
 20
432.1291
 40
1.0
100
AcDbArc
 50
180.0
 51
270.0
  0
ARC
  5
7B3
100
AcDbEntity
  8
M0
100
AcDbCircle
 10
215.941433
 20
432.1291
 40
1.0
100
AcDbArc
 50
270.0
 51
360.0
  0
ARC
  5
7B4
100
AcDbEntity
  8
M0
100
AcDbCircle
 10
210.691433
 20
434.1291
 40
3.5
100
AcDbArc
 50
0.0
 51
58.997281
  0
ARC
  5
7B5
100
AcDbEntity
  8
M0
100
AcDbCircle
 10
203.291433
 20
517.9291
 40
0.5
100
AcDbArc
 50
0.0
 51
90.0
  0
ARC
  5
7B6
100
AcDbEntity
  8
M0
100
AcDbCircle
 10
175.991433
 20
434.1291
 40
3.5
100
AcDbArc
 50
91.94738
 51
121.002719
  0
ARC
  5
7B7
100
AcDbEntity
  8
M0
100
AcDbCircle
 10
175.991433
 20
434.1291
 40
3.5
100
AcDbArc
 50
121.002719
 51
180.0
  0
CIRCLE
  5
7B8
100
AcDbEntity
  8
M0
100
AcDbCircle
 10
193.341433
 20
513.9291
 40
3.1
  0
LINE
  5
7B9
100
AcDbEntity
  8
M0
100
AcDbLine
 10
161.890941
 20
506.379099
 11
163.341433
 21
506.379099
  0
ARC
  5
7BA
100
AcDbEntity
  8
M0
100
AcDbCircle
 10
210.691433
 20
434.1291
 40
3.5
100
AcDbArc
 50
58.997281
 51
88.05262
  0
ARC
  5
7BB
100
AcDbEntity
  8
M0
100
AcDbCircle
 10
155.891433
 20
447.2791
 40
1.0
100
AcDbArc
 50
180.0
 51
270.0
  0
ARC
  5
7BC
100
AcDbEntity
  8
M0
100
AcDbCircle
 10
183.391433
 20
517.9291
 40
0.5
100
AcDbArc
 50
90.0
 51
180.0
  0
ARC
  5
7BD
100
AcDbEntity
  8
M0
100
AcDbCircle
 10
175.991433
 20
434.1291
 40
3.5
100
AcDbArc
 50
0.0
 51
58.997281
  0
LINE
  5
7BE
100
AcDbEntity
  8
M0
100
AcDbLine
 10
200.291432
 20
432.129101
 11
200.291432
 21
436.129098
  0
LINE
  5
7BF
100
AcDbEntity
  8
M0
100
AcDbLine
 10
200.291432
 20
436.129098
 11
200.291432
 21
448.729099
  0
LINE
  5
7C0
100
AcDbEntity
  8
M0
100
AcDbLine
 10
201.291433
 20
449.2291
 11
202.991433
 21
449.2291
  0
LINE
  5
7C1
100
AcDbEntity
  8
M0
100
AcDbLine
 10
214.191433
 20
432.129101
 11
214.191433
 21
434.129098
  0
LINE
  5
7C2
100
AcDbEntity
  8
M0
100
AcDbLine
 10
181.241433
 20
431.129099
 11
157.891433
 21
431.129099
  0
LINE
  5
7C3
100
AcDbEntity
  8
M0
100
AcDbLine
 10
179.491433
 20
434.129098
 11
179.491433
 21
432.129101
  0
LINE
  5
7C4
100
AcDbEntity
  8
M0
100
AcDbLine
 10
154.891434
 20
499.9791
 11
154.891434
 21
434.1291
  0
ARC
  5
7C5
100
AcDbEntity
  8
M0
100
AcDbCircle
 10
157.841433
 20
506.1291
 40
2.25
100
AcDbArc
 50
90.0
 51
270.0
  0
LINE
  5
7C6
100
AcDbEntity
  8
M0
100
AcDbLine
 10
155.891432
 20
446.2791
 11
156.691434
 21
446.2791
  0
LINE
  5
7C7
100
AcDbEntity
  8
M0
100
AcDbLine
 10
212.494208
 20
437.1291
 11
212.941433
 21
437.1291
  0
LINE
  5
7C8
100
AcDbEntity
  8
M0
100
AcDbLine
 10
170.891433
 20
510.129099
 11
170.891433
 21
519.129099
  0
LINE
  5
7C9
100
AcDbEntity
  8
M0
100
AcDbLine
 10
174.188657
 20
437.1291
 11
173.741432
 21
437.1291
  0
LINE
  5
7CA
100
AcDbEntity
  8
M0
100
AcDbLine
 10
231.791432
 20
512.1291
 11
231.791432
 21
447.2791
  0
LINE
  5
7CB
100
AcDbEntity
  8
M0
100
AcDbLine
 10
157.391431
 20
515.129098
 11
164.891433
 21
515.129098
  0
LINE
  5
7CC
100
AcDbEntity
  8
M0
100
AcDbLine
 10
166.091433
 20
442.129099
 11
164.941432
 21
442.129099
  0
LINE
  5
7CD
100
AcDbEntity
  8
M0
100
AcDbLine
 10
215.791433
 20
511.629098
 11
217.891433
 21
511.629098
  0
LINE
  5
7CE
100
AcDbEntity
  8
M0
100
AcDbLine
 10
168.791432
 20
511.629098
 11
170.891433
 21
511.629098
  0
LINE
  5
7CF
100
AcDbEntity
  8
M0
100
AcDbLine
 10
213.791432
 20
514.629101
 11
213.291433
 21
514.629101
  0
LINE
  5
7D0
100
AcDbEntity
  8
M0
100
AcDbLine
 10
183.691432
 20
431.129099
 11
184.191429
 21
431.129099
  0
LINE
  5
7D1
100
AcDbEntity
  8
M0
100
AcDbLine
 10
184.191429
 20
431.129099
 11
185.391432
 21
431.129099
  0
LINE
  5
7D2
100
AcDbEntity
  8
M0
100
AcDbLine
 10
154.391433
 20
502.429099
 11
154.391433
 21
512.129099
  0
LINE
  5
7D3
100
AcDbEntity
  8
M0
100
AcDbLine
 10
164.941432
 20
436.129098
 11
166.091433
 21
436.129098
  0
LINE
  5
7D4
100
AcDbEntity
  8
M0
100
AcDbLine
 10
224.792922
 20
440.8791
 11
223.341432
 21
440.8791
  0
LINE
  5
7D5
100
AcDbEntity
  8
M0
100
AcDbLine
 10
220.591432
 20
478.329099
 11
220.591432
 21
475.029099
  0
LINE
  5
7D6
100
AcDbEntity
  8
M0
100
AcDbLine
 10
220.591432
 20
475.1291
 11
219.591432
 21
475.1291
  0
LINE
  5
7D7
100
AcDbEntity
  8
M0
100
AcDbLine
 10
220.091433
 20
480.829099
 11
219.591432
 21
480.829099
  0
LINE
  5
7D8
100
AcDbEntity
  8
M0
100
AcDbLine
 10
213.291433
 20
516.929099
 11
213.791432
 21
516.929099
  0
LINE
  5
7D9
100
AcDbEntity
  8
M0
100
AcDbLine
 10
219.591432
 20
478.129099
 11
220.591432
 21
478.129099
  0
LINE
  5
7DA
100
AcDbEntity
  8
M0
100
AcDbLine
 10
166.091433
 20
475.1291
 11
167.091433
 21
475.1291
  0
LINE
  5
7DB
100
AcDbEntity
  8
M0
100
AcDbLine
 10
219.591432
 20
475.1291
 11
219.591432
 21
472.129099
  0
LINE
  5
7DC
100
AcDbEntity
  8
M0
100
AcDbLine
 10
167.091433
 20
480.829099
 11
166.591432
 21
480.829099
  0
LINE
  5
7DD
100
AcDbEntity
  8
M0
100
AcDbLine
 10
166.091433
 20
478.329099
 11
166.091433
 21
475.1291
  0
ARC
  5
7DE
100
AcDbEntity
  8
M0
100
AcDbCircle
 10
203.491433
 20
498.5291
 40
0.5
100
AcDbArc
 50
270.0
 51
360.0
  0
ARC
  5
7DF
100
AcDbEntity
  8
M0
100
AcDbCircle
 10
200.791433
 20
498.5291
 40
0.5
100
AcDbArc
 50
180.0
 51
270.0
  0
ARC
  5
7E0
100
AcDbEntity
  8
M0
100
AcDbCircle
 10
185.891433
 20
498.5291
 40
0.5
100
AcDbArc
 50
270.0
 51
360.0
  0
ARC
  5
7E1
100
AcDbEntity
  8
M0
100
AcDbCircle
 10
221.591433
 20
478.8291
 40
1.0
100
AcDbArc
 50
0.0
 51
90.0
  0
ARC
  5
7E2
100
AcDbEntity
  8
M0
100
AcDbCircle
 10
221.591433
 20
468.4291
 40
1.0
100
AcDbArc
 50
270.0
 51
360.0
  0
ARC
  5
7E3
100
AcDbEntity
  8
M0
100
AcDbCircle
 10
185.391433
 20
432.1291
 40
1.0
100
AcDbArc
 50
270.0
 51
360.0
  0
LINE
  5
7E4
100
AcDbEntity
  8
M0
100
AcDbLine
 10
213.791432
 20
518.629101
 11
212.791432
 21
518.629101
  0
LINE
  5
7E5
100
AcDbEntity
  8
M0
100
AcDbLine
 10
213.791432
 20
511.629098
 11
213.291433
 21
511.629098
  0
CIRCLE
  5
7E6
100
AcDbEntity
  8
M0
100
AcDbCircle
 10
228.341433
 20
510.6291
 40
2.25
  0
CIRCLE
  5
7E7
100
AcDbEntity
  8
M0
100
AcDbCircle
 10
158.341433
 20
435.6291
 40
2.25
  0
ARC
  5
7E8
100
AcDbEntity
  8
M0
100
AcDbCircle
 10
165.091433
 20
478.8291
 40
1.0
100
AcDbArc
 50
90.0
 51
180.0
  0
LINE
  5
7E9
100
AcDbEntity
  8
M0
100
AcDbLine
 10
203.491433
 20
498.029099
 11
200.791433
 21
498.029099
  0
LINE
  5
7EA
100
AcDbEntity
  8
M0
100
AcDbLine
 10
166.091433
 20
479.8291
 11
165.091433
 21
479.8291
  0
LINE
  5
7EB
100
AcDbEntity
  8
M0
100
AcDbLine
 10
223.341432
 20
436.379099
 11
225.841431
 21
436.379099
  0
LINE
  5
7EC
100
AcDbEntity
  8
M0
100
AcDbLine
 10
182.691433
 20
510.129099
 11
168.791432
 21
510.129099
  0
LINE
  5
7ED
100
AcDbEntity
  8
M0
100
AcDbLine
 10
157.691433
 20
448.829099
 11
158.591433
 21
448.829099
  0
ARC
  5
7EE
100
AcDbEntity
  8
M0
100
AcDbCircle
 10
228.341432
 20
463.4791
 40
0.5
100
AcDbArc
 50
0.0
 51
90.0
  0
LINE
  5
7EF
100
AcDbEntity
  8
M0
100
AcDbLine
 10
185.391432
 20
449.2291
 11
183.691432
 21
449.2291
  0
LINE
  5
7F0
100
AcDbEntity
  8
M0
100
AcDbLine
 10
185.891433
 20
449.2291
 11
185.391432
 21
449.2291
  0
LINE
  5
7F1
100
AcDbEntity
  8
M0
100
AcDbLine
 10
183.691432
 20
449.2291
 11
183.191432
 21
449.2291
  0
LINE
  5
7F2
100
AcDbEntity
  8
M0
100
AcDbLine
 10
220.591432
 20
479.8291
 11
221.591432
 21
479.8291
  0
LINE
  5
7F3
100
AcDbEntity
  8
M0
100
AcDbLine
 10
219.591432
 20
472.129099
 11
220.591432
 21
472.129099
  0
LINE
  5
7F4
100
AcDbEntity
  8
M0
100
AcDbLine
 10
167.091433
 20
475.1291
 11
167.091433
 21
472.129099
  0
LINE
  5
7F5
100
AcDbEntity
  8
M0
100
AcDbLine
 10
220.591432
 20
472.2291
 11
220.591432
 21
468.9291
  0
LINE
  5
7F6
100
AcDbEntity
  8
M0
100
AcDbLine
 10
167.091433
 20
469.1291
 11
167.091433
 21
466.4291
  0
LINE
  5
7F7
100
AcDbEntity
  8
M0
100
AcDbLine
 10
167.091433
 20
478.129099
 11
166.091433
 21
478.129099
  0
LINE
  5
7F8
100
AcDbEntity
  8
M0
100
AcDbLine
 10
219.591432
 20
480.829099
 11
219.591432
 21
478.129099
  0
LINE
  5
7F9
100
AcDbEntity
  8
M0
100
AcDbLine
 10
219.591432
 20
469.1291
 11
219.591432
 21
466.4291
  0
LINE
  5
7FA
100
AcDbEntity
  8
M0
100
AcDbLine
 10
166.091433
 20
472.129099
 11
166.091433
 21
468.9291
  0
LINE
  5
7FB
100
AcDbEntity
  8
M0
100
AcDbLine
 10
220.591432
 20
469.1291
 11
219.591432
 21
469.1291
  0
LINE
  5
7FC
100
AcDbEntity
  8
M0
100
AcDbLine
 10
165.091433
 20
472.2291
 11
166.791432
 21
472.2291
  0
LINE
  5
7FD
100
AcDbEntity
  8
M0
100
AcDbLine
 10
168.791432
 20
450.729099
 11
167.791432
 21
450.729099
  0
LINE
  5
7FE
100
AcDbEntity
  8
M0
100
AcDbLine
 10
164.091433
 20
478.8291
 11
164.091433
 21
468.429099
  0
LINE
  5
7FF
100
AcDbEntity
  8
M0
100
AcDbLine
 10
168.791432
 20
436.129098
 11
168.791432
 21
450.729099
  0
LINE
  5
800
100
AcDbEntity
  8
M0
100
AcDbLine
 10
222.591432
 20
478.8291
 11
222.591432
 21
468.429099
  0
LINE
  5
801
100
AcDbEntity
  8
M0
100
AcDbLine
 10
165.091433
 20
467.429099
 11
166.091433
 21
467.429099
  0
LINE
  5
802
100
AcDbEntity
  8
M0
100
AcDbLine
 10
230.091433
 20
446.2791
 11
229.991431
 21
446.2791
  0
LINE
  5
803
100
AcDbEntity
  8
M0
100
AcDbLine
 10
154.891434
 20
497.4291
 11
154.391433
 21
502.429099
  0
LINE
  5
804
100
AcDbEntity
  8
M0
100
AcDbLine
 10
222.091433
 20
448.829099
 11
221.191433
 21
448.829099
  0
LINE
  5
805
100
AcDbEntity
  8
M0
100
AcDbLine
 10
166.791432
 20
475.029099
 11
165.091433
 21
475.029099
  0
LINE
  5
806
100
AcDbEntity
  8
M0
100
AcDbLine
 10
228.991433
 20
448.829099
 11
228.091432
 21
448.829099
  0
LINE
  5
807
100
AcDbEntity
  8
M0
100
AcDbLine
 10
166.091433
 20
472.2291
 11
166.091433
 21
472.129099
  0
LINE
  5
808
100
AcDbEntity
  8
M0
100
AcDbLine
 10
203.991432
 20
448.729099
 11
203.991432
 21
436.129098
  0
LINE
  5
809
100
AcDbEntity
  8
M0
100
AcDbLine
 10
202.991433
 20
449.2291
 11
203.491433
 21
449.2291
  0
LINE
  5
80A
100
AcDbEntity
  8
M0
100
AcDbLine
 10
217.891433
 20
436.129098
 11
217.891433
 21
450.729099
  0
ARC
  5
80B
100
AcDbEntity
  8
M0
100
AcDbCircle
 10
180.491433
 20
432.1291
 40
1.0
100
AcDbArc
 50
180.0
 51
270.0
  0
ARC
  5
80C
100
AcDbEntity
  8
M0
100
AcDbCircle
 10
171.891433
 20
519.1291
 40
1.0
100
AcDbArc
 50
0.0
 51
90.0
  0
LINE
  5
80D
100
AcDbEntity
  8
M0
100
AcDbLine
 10
164.941432
 20
442.129099
 11
164.941432
 21
436.129098
  0
LINE
  5
80E
100
AcDbEntity
  8
M0
100
AcDbLine
 10
200.791433
 20
449.2291
 11
201.291433
 21
449.2291
  0
LINE
  5
80F
100
AcDbEntity
  8
M0
100
AcDbLine
 10
166.091433
 20
475.029099
 11
166.091433
 21
475.1291
  0
LINE
  5
810
100
AcDbEntity
  8
M0
100
AcDbLine
 10
221.591432
 20
467.429099
 11
220.591432
 21
467.429099
  0
LINE
  5
811
100
AcDbEntity
  8
M0
100
AcDbLine
 10
165.091433
 20
478.329099
 11
165.091433
 21
468.9291
  0
LINE
  5
812
100
AcDbEntity
  8
M0
100
AcDbLine
 10
221.591432
 20
478.329099
 11
221.591432
 21
468.9291
  0
LINE
  5
813
100
AcDbEntity
  8
M0
100
AcDbLine
 10
217.891433
 20
450.729099
 11
218.891433
 21
450.729099
  0
ARC
  5
814
100
AcDbEntity
  8
M0
100
AcDbCircle
 10
219.591433
 20
495.3291
 40
1.0
100
AcDbArc
 50
0.0
 51
90.0
  0
ARC
  5
815
100
AcDbEntity
  8
M0
100
AcDbCircle
 10
219.591433
 20
432.1291
 40
1.0
100
AcDbArc
 50
270.0
 51
360.0
  0
LINE
  5
816
100
AcDbEntity
  8
M0
100
AcDbLine
 10
167.091433
 20
480.829099
 11
167.091433
 21
478.129099
  0
LINE
  5
817
100
AcDbEntity
  8
M0
100
AcDbLine
 10
164.941432
 20
433.129099
 11
164.941432
 21
434.629099
  0
LINE
  5
818
100
AcDbEntity
  8
M0
100
AcDbLine
 10
165.491432
 20
498.4291
 11
164.591432
 21
498.4291
  0
LINE
  5
819
100
AcDbEntity
  8
M0
100
AcDbLine
 10
166.091433
 20
432.629098
 11
165.441433
 21
432.629098
  0
LINE
  5
81A
100
AcDbEntity
  8
M0
100
AcDbLine
 10
217.891433
 20
434.129098
 11
216.941433
 21
434.129098
  0
LINE
  5
81B
100
AcDbEntity
  8
M0
100
AcDbLine
 10
217.891433
 20
435.1291
 11
216.941433
 21
435.1291
  0
LINE
  5
81C
100
AcDbEntity
  8
M0
100
AcDbLine
 10
217.891433
 20
432.629098
 11
216.941433
 21
432.629098
  0
LINE
  5
81D
100
AcDbEntity
  8
M0
100
AcDbLine
 10
164.591432
 20
448.829099
 11
165.491432
 21
448.829099
  0
ARC
  5
81E
100
AcDbEntity
  8
M0
100
AcDbCircle
 10
167.091433
 20
451.9291
 40
1.0
100
AcDbArc
 50
180.0
 51
270.0
  0
ARC
  5
81F
100
AcDbEntity
  8
M0
100
AcDbCircle
 10
220.091433
 20
465.9291
 40
0.5
100
AcDbArc
 50
0.0
 51
90.0
  0
LINE
  5
820
100
AcDbEntity
  8
M0
  6
DASHDOT
100
AcDbLine
 10
175.241433
 20
444.1291
 11
176.241433
 21
444.1291
  0
ARC
  5
821
100
AcDbEntity
  8
M0
100
AcDbCircle
 10
219.591433
 20
451.9291
 40
1.0
100
AcDbArc
 50
270.0
 51
360.0
  0
ARC
  5
822
100
AcDbEntity
  8
M0
100
AcDbCircle
 10
166.591433
 20
465.9291
 40
0.5
100
AcDbArc
 50
90.0
 51
180.0
  0
LINE
  5
823
100
AcDbEntity
  8
M0
  6
DASHDOT
100
AcDbLine
 10
193.341433
 20
503.6291
 11
193.341433
 21
502.6291
  0
LINE
  5
824
100
AcDbEntity
  8
M0
  6
DASHDOT
100
AcDbLine
 10
192.841433
 20
503.1291
 11
193.841433
 21
503.1291
  0
LINE
  5
825
100
AcDbEntity
  8
M0
  6
DASHDOT
100
AcDbLine
 10
210.941433
 20
503.6291
 11
210.941433
 21
502.6291
  0
LINE
  5
826
100
AcDbEntity
  8
M0
  6
DASHDOT
100
AcDbLine
 10
210.441433
 20
503.1291
 11
211.441433
 21
503.1291
  0
LINE
  5
827
100
AcDbEntity
  8
M0
  6
DASHDOT
100
AcDbLine
 10
175.741433
 20
503.6291
 11
175.741433
 21
502.6291
  0
LINE
  5
828
100
AcDbEntity
  8
M0
  6
DASHDOT
100
AcDbLine
 10
175.241433
 20
503.1291
 11
176.241433
 21
503.1291
  0
LINE
  5
829
100
AcDbEntity
  8
M0
  6
DASHDOT
100
AcDbLine
 10
210.441433
 20
444.1291
 11
211.441433
 21
444.1291
  0
LINE
  5
82A
100
AcDbEntity
  8
M0
  6
DASHDOT
100
AcDbLine
 10
175.741433
 20
443.6291
 11
175.741433
 21
444.6291
  0
LINE
  5
82B
100
AcDbEntity
  8
M0
  6
DASHDOT
100
AcDbLine
 10
210.941433
 20
443.6291
 11
210.941433
 21
444.6291
  0
LINE
  5
82C
100
AcDbEntity
  8
M0
  6
DASHDOT
100
AcDbLine
 10
193.341433
 20
443.6291
 11
193.341433
 21
444.6291
  0
LINE
  5
82D
100
AcDbEntity
  8
M0
  6
DASHDOT
100
AcDbLine
 10
192.841433
 20
444.1291
 11
193.841433
 21
444.1291
  0
LINE
  5
82E
100
AcDbEntity
  8
M0
100
AcDbLine
 10
165.341432
 20
490.2791
 11
165.341432
 21
483.7791
  0
LINE
  5
82F
100
AcDbEntity
  8
M0
100
AcDbLine
 10
203.991432
 20
496.3291
 11
203.991432
 21
518.629101
  0
LINE
  5
830
100
AcDbEntity
  8
M0
100
AcDbLine
 10
210.891434
 20
519.6291
 11
210.891434
 21
518.629101
  0
LINE
  5
831
100
AcDbEntity
  8
M0
100
AcDbLine
 10
173.091433
 20
510.129099
 11
173.091433
 21
511.129101
  0
LINE
  5
832
100
AcDbEntity
  8
M0
100
AcDbLine
 10
175.791432
 20
518.629101
 11
175.791432
 21
519.6291
  0
LINE
  5
833
100
AcDbEntity
  8
M0
100
AcDbLine
 10
181.191433
 20
510.129099
 11
181.191433
 21
519.129099
  0
LINE
  5
834
100
AcDbEntity
  8
M0
100
AcDbLine
 10
158.591433
 20
499.4291
 11
164.591432
 21
499.4291
  0
LINE
  5
835
100
AcDbEntity
  8
M0
100
AcDbLine
 10
228.991433
 20
490.8291
 11
221.191433
 21
490.8291
  0
LINE
  5
836
100
AcDbEntity
  8
M0
100
AcDbLine
 10
171.891433
 20
520.129101
 11
214.791433
 21
520.129101
  0
LINE
  5
837
100
AcDbEntity
  8
M0
100
AcDbLine
 10
203.991432
 20
518.629101
 11
182.691433
 21
518.629101
  0
LINE
  5
838
100
AcDbEntity
  8
M0
100
AcDbLine
 10
164.591432
 20
447.829099
 11
158.591433
 21
447.829099
  0
LINE
  5
839
100
AcDbEntity
  8
M0
100
AcDbLine
 10
165.491432
 20
490.8291
 11
157.691433
 21
490.8291
  0
ARC
  5
83A
100
AcDbEntity
  8
M0
100
AcDbCircle
 10
227.341433
 20
441.1291
 40
2.25
100
AcDbArc
 50
89.957854
 51
177.916058
  0
ARC
  5
83B
100
AcDbEntity
  8
M0
100
AcDbCircle
 10
229.291433
 20
434.1291
 40
3.0
100
AcDbArc
 50
270.0
 51
360.0
  0
ARC
  5
83C
100
AcDbEntity
  8
M0
100
AcDbCircle
 10
157.891433
 20
434.1291
 40
3.0
100
AcDbArc
 50
180.0
 51
270.0
  0
ARC
  5
83D
100
AcDbEntity
  8
M0
100
AcDbCircle
 10
224.792921
 20
441.1791
 40
0.3
100
AcDbArc
 50
270.0
 51
360.0
  0
ARC
  5
83E
100
AcDbEntity
  8
M0
100
AcDbCircle
 10
156.691433
 20
492.7291
 40
1.0
100
AcDbArc
 50
0.0
 51
90.0
  0
LINE
  5
83F
100
AcDbEntity
  8
M0
100
AcDbLine
 10
158.591433
 20
498.379099
 11
158.591433
 21
499.4291
  0
LINE
  5
840
100
AcDbEntity
  8
M0
100
AcDbLine
 10
164.591432
 20
499.4291
 11
164.591432
 21
498.379099
  0
LINE
  5
841
100
AcDbEntity
  8
M0
100
AcDbLine
 10
222.091433
 20
499.4291
 11
228.091432
 21
499.4291
  0
LINE
  5
842
100
AcDbEntity
  8
M0
100
AcDbLine
 10
157.843939
 20
497.929099
 11
157.691433
 21
497.929099
  0
LINE
  5
843
100
AcDbEntity
  8
M0
100
AcDbLine
 10
228.091432
 20
499.4291
 11
228.091432
 21
498.379099
  0
LINE
  5
844
100
AcDbEntity
  8
M0
100
AcDbLine
 10
163.182015
 20
458.638456
 11
160.000375
 21
461.820219
  0
LINE
  5
845
100
AcDbEntity
  8
M0
100
AcDbLine
 10
161.944711
 20
461.643461
 11
160.177132
 21
459.875761
  0
LINE
  5
846
100
AcDbEntity
  8
M0
100
AcDbLine
 10
226.50526
 20
494.982792
 11
224.737681
 21
493.215214
  0
LINE
  5
847
100
AcDbEntity
  8
M0
100
AcDbLine
 10
225.444713
 20
496.043461
 11
223.677135
 21
494.275761
  0
LINE
  5
848
100
AcDbEntity
  8
M0
100
AcDbLine
 10
226.682017
 20
493.038456
 11
223.500377
 21
496.220219
  0
LINE
  5
849
100
AcDbEntity
  8
M0
100
AcDbLine
 10
226.682017
 20
485.438456
 11
223.500377
 21
488.620219
  0
LINE
  5
84A
100
AcDbEntity
  8
M0
100
AcDbLine
 10
163.182015
 20
485.438456
 11
160.000375
 21
488.620219
  0
LINE
  5
84B
100
AcDbEntity
  8
M0
100
AcDbLine
 10
163.005257
 20
487.382792
 11
161.237679
 21
485.615214
  0
LINE
  5
84C
100
AcDbEntity
  8
M0
100
AcDbLine
 10
161.944711
 20
454.043461
 11
160.177132
 21
452.275761
  0
LINE
  5
84D
100
AcDbEntity
  8
M0
100
AcDbLine
 10
163.182015
 20
451.038456
 11
160.000375
 21
454.220219
  0
LINE
  5
84E
100
AcDbEntity
  8
M0
100
AcDbLine
 10
163.005257
 20
452.982792
 11
161.237679
 21
451.215214
  0
LINE
  5
84F
100
AcDbEntity
  8
M0
100
AcDbLine
 10
163.005257
 20
460.582792
 11
161.237679
 21
458.815214
  0
CIRCLE
  5
850
100
AcDbEntity
  8
M0
100
AcDbCircle
 10
161.591431
 20
494.629101
 40
3.0
  0
CIRCLE
  5
851
100
AcDbEntity
  8
M0
100
AcDbCircle
 10
209.29143
 20
514.229103
 40
3.0
  0
CIRCLE
  5
852
100
AcDbEntity
  8
M0
100
AcDbCircle
 10
161.591431
 20
487.029101
 40
3.0
  0
CIRCLE
  5
853
100
AcDbEntity
  8
M0
100
AcDbCircle
 10
161.591431
 20
452.629098
 40
3.0
  0
CIRCLE
  5
854
100
AcDbEntity
  8
M0
100
AcDbCircle
 10
161.591431
 20
460.229098
 40
3.0
  0
CIRCLE
  5
855
100
AcDbEntity
  8
M0
100
AcDbCircle
 10
225.091434
 20
494.629101
 40
3.0
  0
LINE
  5
856
100
AcDbEntity
  8
M0
100
AcDbLine
 10
226.50526
 20
487.382792
 11
224.737681
 21
485.615214
  0
LINE
  5
857
100
AcDbEntity
  8
M0
100
AcDbLine
 10
225.444713
 20
488.443461
 11
223.677135
 21
486.675761
  0
CIRCLE
  5
858
100
AcDbEntity
  8
M0
100
AcDbCircle
 10
175.741433
 20
503.12913
 40
4.499996
  0
CIRCLE
  5
859
100
AcDbEntity
  8
M0
100
AcDbCircle
 10
210.941433
 20
503.12913
 40
4.499996
  0
CIRCLE
  5
85A
100
AcDbEntity
  8
M0
100
AcDbCircle
 10
193.341433
 20
503.12913
 40
4.499996
  0
CIRCLE
  5
85B
100
AcDbEntity
  8
M0
100
AcDbCircle
 10
177.391433
 20
514.2291
 40
3.0
  0
LINE
  5
85C
100
AcDbEntity
  8
M0
100
AcDbLine
 10
195.222536
 20
503.596049
 11
192.874559
 21
501.248057
  0
LINE
  5
85D
100
AcDbEntity
  8
M0
100
AcDbLine
 10
193.808336
 20
505.010265
 11
191.46036
 21
502.662273
  0
LINE
  5
85E
100
AcDbEntity
  8
M0
100
AcDbLine
 10
191.272478
 20
505.198039
 11
195.535448
 21
500.9351
  0
LINE
  5
85F
100
AcDbEntity
  8
M0
100
AcDbLine
 10
212.822536
 20
503.596049
 11
210.474559
 21
501.248057
  0
LINE
  5
860
100
AcDbEntity
  8
M0
100
AcDbLine
 10
211.408336
 20
505.010265
 11
209.06036
 21
502.662273
  0
LINE
  5
861
100
AcDbEntity
  8
M0
100
AcDbLine
 10
208.872478
 20
505.198039
 11
213.135448
 21
500.9351
  0
LINE
  5
862
100
AcDbEntity
  8
M0
100
AcDbLine
 10
213.791432
 20
510.129099
 11
213.791432
 21
519.1291
  0
LINE
  5
863
100
AcDbEntity
  8
M0
100
AcDbLine
 10
222.091433
 20
498.379099
 11
222.091433
 21
499.4291
  0
LINE
  5
864
100
AcDbEntity
  8
M0
100
AcDbLine
 10
215.791433
 20
510.129099
 11
215.791433
 21
519.129099
  0
LINE
  5
865
100
AcDbEntity
  8
M0
100
AcDbLine
 10
177.622536
 20
503.596049
 11
175.274559
 21
501.248057
  0
LINE
  5
866
100
AcDbEntity
  8
M0
100
AcDbLine
 10
176.208336
 20
505.010265
 11
173.86036
 21
502.662273
  0
LINE
  5
867
100
AcDbEntity
  8
M0
100
AcDbLine
 10
173.672478
 20
505.198039
 11
177.935448
 21
500.9351
  0
LINE
  5
868
100
AcDbEntity
  8
M0
100
AcDbLine
 10
210.882013
 20
512.638458
 11
207.700373
 21
515.820221
  0
LINE
  5
869
100
AcDbEntity
  8
M0
100
AcDbLine
 10
210.705256
 20
514.582794
 11
208.937677
 21
512.815216
  0
LINE
  5
86A
100
AcDbEntity
  8
M0
100
AcDbLine
 10
161.944711
 20
496.043461
 11
160.177132
 21
494.275761
  0
LINE
  5
86B
100
AcDbEntity
  8
M0
100
AcDbLine
 10
163.182015
 20
493.038456
 11
160.000375
 21
496.220219
  0
LINE
  5
86C
100
AcDbEntity
  8
M0
100
AcDbLine
 10
163.005257
 20
494.982792
 11
161.237679
 21
493.215214
  0
LINE
  5
86D
100
AcDbEntity
  8
M0
100
AcDbLine
 10
161.944711
 20
488.443461
 11
160.177132
 21
486.675761
  0
LINE
  5
86E
100
AcDbEntity
  8
M0
100
AcDbLine
 10
178.805259
 20
514.582791
 11
177.03768
 21
512.815212
  0
LINE
  5
86F
100
AcDbEntity
  8
M0
100
AcDbLine
 10
177.744712
 20
515.64346
 11
175.977134
 21
513.875759
  0
LINE
  5
870
100
AcDbEntity
  8
M0
100
AcDbLine
 10
178.982016
 20
512.638455
 11
175.800376
 21
515.820217
  0
LINE
  5
871
100
AcDbEntity
  8
M0
  6
DASHDOT
100
AcDbLine
 10
161.591433
 20
494.1291
 11
161.591433
 21
495.1291
  0
LINE
  5
872
100
AcDbEntity
  8
M0
  6
DASHDOT
100
AcDbLine
 10
161.091433
 20
494.6291
 11
162.091433
 21
494.6291
  0
LINE
  5
873
100
AcDbEntity
  8
M0
100
AcDbLine
 10
222.091433
 20
447.829099
 11
222.091433
 21
448.8791
  0
LINE
  5
874
100
AcDbEntity
  8
M0
100
AcDbLine
 10
228.091432
 20
448.8791
 11
228.091432
 21
447.829099
  0
LINE
  5
875
100
AcDbEntity
  8
M0
100
AcDbLine
 10
228.091432
 20
447.829099
 11
222.091433
 21
447.829099
  0
LINE
  5
876
100
AcDbEntity
  8
M0
100
AcDbLine
 10
221.191433
 20
449.3291
 11
221.343939
 21
449.3291
  0
LINE
  5
877
100
AcDbEntity
  8
M0
100
AcDbLine
 10
212.941433
 20
437.1291
 11
217.891433
 21
437.1291
  0
LINE
  5
878
100
AcDbEntity
  8
M0
100
AcDbLine
 10
208.941432
 20
510.129099
 11
203.991432
 21
510.129099
  0
LINE
  5
879
100
AcDbEntity
  8
M0
100
AcDbLine
 10
195.341433
 20
437.1291
 11
200.291432
 21
437.1291
  0
ARC
  5
87A
100
AcDbEntity
  8
M0
100
AcDbCircle
 10
230.791433
 20
454.5291
 40
1.0
100
AcDbArc
 50
270.0
 51
360.0
  0
ARC
  5
87B
100
AcDbEntity
  8
M0
100
AcDbCircle
 10
156.691433
 20
468.9291
 40
1.0
100
AcDbArc
 50
0.0
 51
90.0
  0
ARC
  5
87C
100
AcDbEntity
  8
M0
100
AcDbCircle
 10
229.991433
 20
454.5291
 40
1.0
100
AcDbArc
 50
180.0
 51
270.0
  0
LINE
  5
87D
100
AcDbEntity
  8
M0
100
AcDbLine
 10
203.991432
 20
506.829099
 11
203.991432
 21
509.629098
  0
LINE
  5
87E
100
AcDbEntity
  8
M0
100
AcDbLine
 10
177.741433
 20
437.1291
 11
182.691433
 21
437.1291
  0
LINE
  5
87F
100
AcDbEntity
  8
M0
100
AcDbLine
 10
176.441433
 20
435.329099
 11
175.541433
 21
435.329099
  0
LINE
  5
880
100
AcDbEntity
  8
M0
100
AcDbLine
 10
176.441433
 20
434.579098
 11
177.578884
 21
434.579098
  0
LINE
  5
881
100
AcDbEntity
  8
M0
100
AcDbLine
 10
175.541433
 20
433.679101
 11
174.403983
 21
433.679101
  0
LINE
  5
882
100
AcDbEntity
  8
M0
100
AcDbLine
 10
176.441433
 20
434.579098
 11
176.441433
 21
435.329099
  0
LINE
  5
883
100
AcDbEntity
  8
M0
100
AcDbLine
 10
173.379919
 20
433.679101
 11
174.403983
 21
433.679101
  0
LINE
  5
884
100
AcDbEntity
  8
M0
100
AcDbLine
 10
177.578884
 20
433.679101
 11
178.602946
 21
433.679101
  0
LINE
  5
885
100
AcDbEntity
  8
M0
100
AcDbLine
 10
177.578884
 20
433.679101
 11
176.441433
 21
433.679101
  0
LINE
  5
886
100
AcDbEntity
  8
M0
100
AcDbLine
 10
203.991432
 20
434.129098
 11
203.991432
 21
432.129101
  0
LINE
  5
887
100
AcDbEntity
  8
M0
100
AcDbLine
 10
168.791432
 20
432.129101
 11
168.791432
 21
434.129098
  0
LINE
  5
888
100
AcDbEntity
  8
M0
100
AcDbLine
 10
178.602946
 20
434.579098
 11
177.578884
 21
434.579098
  0
LINE
  5
889
100
AcDbEntity
  8
M0
100
AcDbLine
 10
175.541433
 20
435.329099
 11
175.541433
 21
434.579098
  0
LINE
  5
88A
100
AcDbEntity
  8
M0
100
AcDbLine
 10
175.541433
 20
432.9291
 11
176.441433
 21
432.9291
  0
LINE
  5
88B
100
AcDbEntity
  8
M0
100
AcDbLine
 10
174.403983
 20
434.579098
 11
173.379919
 21
434.579098
  0
LINE
  5
88C
100
AcDbEntity
  8
M0
100
AcDbLine
 10
211.141432
 20
434.579098
 11
211.141432
 21
435.329099
  0
LINE
  5
88D
100
AcDbEntity
  8
M0
100
AcDbLine
 10
208.07992
 20
433.679101
 11
209.103981
 21
433.679101
  0
LINE
  5
88E
100
AcDbEntity
  8
M0
100
AcDbLine
 10
209.103981
 20
434.579098
 11
208.07992
 21
434.579098
  0
LINE
  5
88F
100
AcDbEntity
  8
M0
100
AcDbLine
 10
200.291432
 20
510.129099
 11
186.391433
 21
510.129099
  0
LINE
  5
890
100
AcDbEntity
  8
M0
100
AcDbLine
 10
213.302946
 20
434.579098
 11
212.278882
 21
434.579098
  0
LINE
  5
891
100
AcDbEntity
  8
M0
100
AcDbLine
 10
174.403983
 20
434.579098
 11
175.541433
 21
434.579098
  0
LINE
  5
892
100
AcDbEntity
  8
M0
100
AcDbLine
 10
176.441433
 20
432.9291
 11
176.441433
 21
433.679101
  0
LINE
  5
893
100
AcDbEntity
  8
M0
100
AcDbLine
 10
212.278882
 20
433.679101
 11
213.302946
 21
433.679101
  0
LINE
  5
894
100
AcDbEntity
  8
M0
100
AcDbLine
 10
175.541433
 20
433.679101
 11
175.541433
 21
432.9291
  0
LINE
  5
895
100
AcDbEntity
  8
M0
100
AcDbLine
 10
165.091433
 20
478.329099
 11
167.091433
 21
478.329099
  0
LINE
  5
896
100
AcDbEntity
  8
M0
100
AcDbLine
 10
167.791432
 20
496.3291
 11
167.791432
 21
496.5291
  0
LINE
  5
897
100
AcDbEntity
  8
M0
100
AcDbLine
 10
164.591432
 20
448.8791
 11
164.591432
 21
447.829099
  0
LINE
  5
898
100
AcDbEntity
  8
M0
100
AcDbLine
 10
158.591433
 20
447.829099
 11
158.591433
 21
448.8791
  0
LINE
  5
899
100
AcDbEntity
  8
M0
100
AcDbLine
 10
205.491432
 20
519.129099
 11
205.491432
 21
510.129099
  0
LINE
  5
89A
100
AcDbEntity
  8
M0
100
AcDbLine
 10
213.591433
 20
511.129101
 11
213.591433
 21
510.129099
  0
LINE
  5
89B
100
AcDbEntity
  8
M0
100
AcDbLine
 10
209.644709
 20
515.643463
 11
207.877131
 21
513.875763
  0
ARC
  5
89C
100
AcDbEntity
  8
M0
100
AcDbCircle
 10
175.991433
 20
434.1291
 40
2.65
100
AcDbArc
 50
170.223151
 51
189.776849
  0
ARC
  5
89D
100
AcDbEntity
  8
M0
100
AcDbCircle
 10
175.991433
 20
434.1291
 40
2.65
100
AcDbArc
 50
350.223151
 51
369.776849
  0
ARC
  5
89E
100
AcDbEntity
  8
M0
100
AcDbCircle
 10
210.691433
 20
434.1291
 40
2.65
100
AcDbArc
 50
9.776849
 51
170.223151
  0
ARC
  5
89F
100
AcDbEntity
  8
M0
100
AcDbCircle
 10
230.791433
 20
447.2791
 40
1.0
100
AcDbArc
 50
270.0
 51
360.0
  0
ARC
  5
8A0
100
AcDbEntity
  8
M0
100
AcDbCircle
 10
210.691433
 20
434.1291
 40
2.65
100
AcDbArc
 50
189.776849
 51
350.223151
  0
ARC
  5
8A1
100
AcDbEntity
  8
M0
100
AcDbCircle
 10
166.091433
 20
500.3791
 40
0.6
100
AcDbArc
 50
90.0
 51
180.0
  0
ARC
  5
8A2
100
AcDbEntity
  8
M0
100
AcDbCircle
 10
168.533424
 20
463.035058
 40
3.350514
100
AcDbArc
 50
136.789285
 51
155.219178
  0
LINE
  5
8A3
100
AcDbEntity
  8
M0
100
AcDbLine
 10
158.341432
 20
498.379099
 11
164.841432
 21
498.379099
  0
ARC
  5
8A4
100
AcDbEntity
  8
M0
100
AcDbCircle
 10
166.091433
 20
454.1291
 40
0.6
100
AcDbArc
 50
180.0
 51
270.0
  0
ARC
  5
8A5
100
AcDbEntity
  8
M0
100
AcDbCircle
 10
220.591433
 20
454.1291
 40
0.6
100
AcDbArc
 50
270.0
 51
360.0
  0
ARC
  5
8A6
100
AcDbEntity
  8
M0
100
AcDbCircle
 10
156.691433
 20
454.5291
 40
1.0
100
AcDbArc
 50
270.0
 51
360.0
  0
ARC
  5
8A7
100
AcDbEntity
  8
M0
100
AcDbCircle
 10
175.991433
 20
434.1291
 40
2.65
100
AcDbArc
 50
9.776849
 51
170.223151
  0
LINE
  5
8A8
100
AcDbEntity
  8
M0
100
AcDbLine
 10
219.591432
 20
466.4291
 11
220.091433
 21
466.4291
  0
ARC
  5
8A9
100
AcDbEntity
  8
M0
100
AcDbCircle
 10
230.791433
 20
499.9791
 40
1.0
100
AcDbArc
 50
0.0
 51
90.0
  0
ARC
  5
8AA
100
AcDbEntity
  8
M0
100
AcDbCircle
 10
156.691433
 20
447.2791
 40
1.0
100
AcDbArc
 50
270.0
 51
360.0
  0
ARC
  5
8AB
100
AcDbEntity
  8
M0
100
AcDbCircle
 10
220.591433
 20
500.3791
 40
0.6
100
AcDbArc
 50
0.0
 51
90.0
  0
ARC
  5
8AC
100
AcDbEntity
  8
M0
100
AcDbCircle
 10
166.091433
 20
446.8791
 40
0.6
100
AcDbArc
 50
180.0
 51
270.0
  0
ARC
  5
8AD
100
AcDbEntity
  8
M0
100
AcDbCircle
 10
220.591433
 20
446.8791
 40
0.6
100
AcDbArc
 50
270.0
 51
360.0
  0
LINE
  5
8AE
100
AcDbEntity
  8
M0
100
AcDbLine
 10
166.091433
 20
469.1291
 11
167.091433
 21
469.1291
  0
ARC
  5
8AF
100
AcDbEntity
  8
M0
100
AcDbCircle
 10
228.385434
 20
438.579395
 40
0.3
100
AcDbArc
 50
90.0
 51
180.0
  0
ARC
  5
8B0
100
AcDbEntity
  8
M0
100
AcDbCircle
 10
185.391433
 20
515.1291
 40
1.0
100
AcDbArc
 50
0.0
 51
90.0
  0
ARC
  5
8B1
100
AcDbEntity
  8
M0
100
AcDbCircle
 10
228.841433
 20
441.1291
 40
2.25
100
AcDbArc
 50
270.928845
 51
451.752277
  0
ARC
  5
8B2
100
AcDbEntity
  8
M0
100
AcDbCircle
 10
167.791433
 20
515.1291
 40
1.0
100
AcDbArc
 50
0.0
 51
90.0
  0
ARC
  5
8B3
100
AcDbEntity
  8
M0
100
AcDbCircle
 10
167.091433
 20
515.1291
 40
1.0
100
AcDbArc
 50
90.0
 51
180.0
  0
ARC
  5
8B4
100
AcDbEntity
  8
M0
100
AcDbCircle
 10
201.291433
 20
515.1291
 40
1.0
100
AcDbArc
 50
90.0
 51
180.0
  0
ARC
  5
8B5
100
AcDbEntity
  8
M0
100
AcDbCircle
 10
229.991433
 20
478.3291
 40
1.0
100
AcDbArc
 50
180.0
 51
270.0
  0
ARC
  5
8B6
100
AcDbEntity
  8
M0
100
AcDbCircle
 10
180.491433
 20
510.8291
 40
0.6
100
AcDbArc
 50
270.0
 51
352.509835
  0
ARC
  5
8B7
100
AcDbEntity
  8
M0
100
AcDbCircle
 10
230.791433
 20
478.3291
 40
1.0
100
AcDbArc
 50
270.0
 51
360.0
  0
ARC
  5
8B8
100
AcDbEntity
  8
M0
100
AcDbCircle
 10
155.891433
 20
492.7291
 40
1.0
100
AcDbArc
 50
90.0
 51
180.0
  0
ARC
  5
8B9
100
AcDbEntity
  8
M0
100
AcDbCircle
 10
210.691433
 20
434.1291
 40
2.65
100
AcDbArc
 50
170.223151
 51
189.776849
  0
ARC
  5
8BA
100
AcDbEntity
  8
M0
100
AcDbCircle
 10
183.691433
 20
515.1291
 40
1.0
100
AcDbArc
 50
90.0
 51
180.0
  0
LINE
  5
8BB
100
AcDbEntity
  8
M0
100
AcDbLine
 10
168.791432
 20
450.729099
 11
168.791432
 21
450.929099
  0
LINE
  5
8BC
100
AcDbEntity
  8
M0
100
AcDbLine
 10
229.991431
 20
500.979099
 11
230.791433
 21
500.979099
  0
LINE
  5
8BD
100
AcDbEntity
  8
M0
100
AcDbLine
 10
186.391433
 20
450.929099
 11
186.391433
 21
432.1291
  0
LINE
  5
8BE
100
AcDbEntity
  8
M0
100
AcDbLine
 10
165.491432
 20
464.43942
 11
165.491432
 21
446.879099
  0
LINE
  5
8BF
100
AcDbEntity
  8
M0
100
AcDbLine
 10
157.691433
 20
478.3291
 11
157.691433
 21
499.9791
  0
LINE
  5
8C0
100
AcDbEntity
  8
M0
100
AcDbLine
 10
165.491432
 20
500.3791
 11
165.491432
 21
482.817346
  0
ARC
  5
8C1
100
AcDbEntity
  8
M0
100
AcDbCircle
 10
202.991433
 20
515.1291
 40
1.0
100
AcDbArc
 50
0.0
 51
90.0
  0
ARC
  5
8C2
100
AcDbEntity
  8
M0
100
AcDbCircle
 10
218.891433
 20
515.1291
 40
1.0
100
AcDbArc
 50
90.0
 51
180.0
  0
LINE
  5
8C3
100
AcDbEntity
  8
M0
100
AcDbLine
 10
164.841433
 20
490.879101
 11
158.341434
 21
490.879094
  0
LINE
  5
8C4
100
AcDbEntity
  8
M0
100
AcDbLine
 10
217.891433
 20
496.3291
 11
217.891433
 21
496.5291
  0
LINE
  5
8C5
100
AcDbEntity
  8
M0
100
AcDbLine
 10
217.891433
 20
450.729099
 11
217.891433
 21
450.929099
  0
LINE
  5
8C6
100
AcDbEntity
  8
M0
100
AcDbLine
 10
156.691434
 20
500.979099
 11
155.891432
 21
500.979099
  0
LINE
  5
8C7
100
AcDbEntity
  8
M0
100
AcDbLine
 10
167.091433
 20
472.129099
 11
166.091433
 21
472.129099
  0
LINE
  5
8C8
100
AcDbEntity
  8
M0
100
AcDbLine
 10
219.591432
 20
450.929099
 11
167.091433
 21
450.929099
  0
LINE
  5
8C9
100
AcDbEntity
  8
M0
100
AcDbLine
 10
228.085435
 20
438.464911
 11
228.085435
 21
438.579397
  0
LINE
  5
8CA
100
AcDbEntity
  8
M0
100
AcDbLine
 10
167.791432
 20
450.729099
 11
167.791432
 21
450.929099
  0
LINE
  5
8CB
100
AcDbEntity
  8
M0
100
AcDbLine
 10
225.09292
 20
441.210919
 11
225.09292
 21
441.179098
  0
LINE
  5
8CC
100
AcDbEntity
  8
M0
100
AcDbLine
 10
183.191433
 20
498.029099
 11
185.891433
 21
498.029099
  0
LINE
  5
8CD
100
AcDbEntity
  8
M0
100
AcDbLine
 10
232.291433
 20
444.8291
 11
232.291433
 21
434.129098
  0
LINE
  5
8CE
100
AcDbEntity
  8
M0
100
AcDbLine
 10
166.091433
 20
515.1291
 11
166.091433
 21
479.8291
  0
ARC
  5
8CF
100
AcDbEntity
  8
M0
100
AcDbCircle
 10
229.991433
 20
468.9291
 40
1.0
100
AcDbArc
 50
90.0
 51
180.0
  0
ARC
  5
8D0
100
AcDbEntity
  8
M0
100
AcDbCircle
 10
202.991433
 20
432.1291
 40
1.0
100
AcDbArc
 50
270.0
 51
360.0
  0
ARC
  5
8D1
100
AcDbEntity
  8
M0
100
AcDbCircle
 10
156.691433
 20
478.3291
 40
1.0
100
AcDbArc
 50
270.0
 51
360.0
  0
ARC
  5
8D2
100
AcDbEntity
  8
M0
100
AcDbCircle
 10
183.691433
 20
432.1291
 40
1.0
100
AcDbArc
 50
180.0
 51
270.0
  0
ARC
  5
8D3
100
AcDbEntity
  8
M0
100
AcDbCircle
 10
230.791433
 20
492.7291
 40
1.0
100
AcDbArc
 50
0.0
 51
90.0
  0
LINE
  5
8D4
100
AcDbEntity
  8
M0
100
AcDbLine
 10
166.091433
 20
475.1291
 11
166.091433
 21
475.029099
  0
LINE
  5
8D5
100
AcDbEntity
  8
M0
100
AcDbLine
 10
166.591432
 20
466.4291
 11
167.091433
 21
466.4291
  0
LINE
  5
8D6
100
AcDbEntity
  8
M0
100
AcDbLine
 10
166.091433
 20
472.2291
 11
166.091433
 21
472.129099
  0
LINE
  5
8D7
100
AcDbEntity
  8
M0
100
AcDbLine
 10
217.891433
 20
513.129101
 11
217.891433
 21
515.129098
  0
LINE
  5
8D8
100
AcDbEntity
  8
M0
100
AcDbLine
 10
157.191432
 20
477.3291
 11
157.191432
 21
469.9291
  0
LINE
  5
8D9
100
AcDbEntity
  8
M0
100
AcDbLine
 10
168.791432
 20
496.3291
 11
168.791432
 21
515.129098
  0
LINE
  5
8DA
100
AcDbEntity
  8
M0
100
AcDbLine
 10
221.191433
 20
464.43942
 11
221.191433
 21
446.879099
  0
LINE
  5
8DB
100
AcDbEntity
  8
M0
100
AcDbLine
 10
228.991433
 20
447.279099
 11
228.991433
 21
468.9291
  0
LINE
  5
8DC
100
AcDbEntity
  8
M0
100
AcDbLine
 10
157.691433
 20
447.279099
 11
157.691433
 21
468.9291
  0
LINE
  5
8DD
100
AcDbEntity
  8
M0
100
AcDbLine
 10
168.791432
 20
434.129098
 11
168.791432
 21
435.1291
  0
LINE
  5
8DE
100
AcDbEntity
  8
M0
100
AcDbLine
 10
229.491434
 20
477.3291
 11
229.491434
 21
469.9291
  0
LINE
  5
8DF
100
AcDbEntity
  8
M0
100
AcDbLine
 10
230.791433
 20
469.9291
 11
230.791433
 21
477.3291
  0
LINE
  5
8E0
100
AcDbEntity
  8
M0
100
AcDbLine
 10
155.891432
 20
469.9291
 11
155.891432
 21
477.3291
  0
ARC
  5
8E1
100
AcDbEntity
  8
M0
100
AcDbCircle
 10
158.341433
 20
491.379099
 40
0.5
100
AcDbArc
 50
180.0
 51
270.0
  0
ARC
  5
8E2
100
AcDbEntity
  8
M0
100
AcDbCircle
 10
158.341432
 20
497.879099
 40
0.5
100
AcDbArc
 50
90.0
 51
180.0
  0
ARC
  5
8E3
100
AcDbEntity
  8
M0
100
AcDbCircle
 10
221.841433
 20
491.3791
 40
0.5
100
AcDbArc
 50
180.0
 51
270.0
  0
ARC
  5
8E4
100
AcDbEntity
  8
M0
100
AcDbCircle
 10
155.891433
 20
454.5291
 40
1.0
100
AcDbArc
 50
180.0
 51
270.0
  0
ARC
  5
8E5
100
AcDbEntity
  8
M0
100
AcDbCircle
 10
218.149441
 20
463.035058
 40
3.350514
100
AcDbArc
 50
24.780822
 51
43.210715
  0
ARC
  5
8E6
100
AcDbEntity
  8
M0
100
AcDbCircle
 10
229.991433
 20
499.9791
 40
1.0
100
AcDbArc
 50
90.0
 51
180.0
  0
ARC
  5
8E7
100
AcDbEntity
  8
M0
100
AcDbCircle
 10
174.141433
 20
517.4791
 40
0.5
100
AcDbArc
 50
90.0
 51
180.0
  0
ARC
  5
8E8
100
AcDbEntity
  8
M0
100
AcDbCircle
 10
212.541433
 20
510.9791
 40
0.5
100
AcDbArc
 50
270.0
 51
360.0
  0
ARC
  5
8E9
100
AcDbEntity
  8
M0
100
AcDbCircle
 10
221.841433
 20
497.8791
 40
0.5
100
AcDbArc
 50
90.0
 51
180.0
  0
ARC
  5
8EA
100
AcDbEntity
  8
M0
100
AcDbCircle
 10
212.541432
 20
517.4791
 40
0.5
100
AcDbArc
 50
0.0
 51
90.0
  0
ARC
  5
8EB
100
AcDbEntity
  8
M0
100
AcDbCircle
 10
228.341433
 20
491.3791
 40
0.5
100
AcDbArc
 50
270.0
 51
360.0
  0
ARC
  5
8EC
100
AcDbEntity
  8
M0
100
AcDbCircle
 10
228.341433
 20
497.8791
 40
0.5
100
AcDbArc
 50
0.0
 51
90.0
  0
LINE
  5
8ED
100
AcDbEntity
  8
M0
100
AcDbLine
 10
161.191432
 20
477.3291
 11
161.191432
 21
469.9291
  0
LINE
  5
8EE
100
AcDbEntity
  8
M0
100
AcDbLine
 10
221.191433
 20
482.9291
 11
228.991433
 21
482.9291
  0
LINE
  5
8EF
100
AcDbEntity
  8
M0
100
AcDbLine
 10
230.791433
 20
446.2791
 11
229.991431
 21
446.2791
  0
LINE
  5
8F0
100
AcDbEntity
  8
M0
100
AcDbLine
 10
230.791433
 20
453.5291
 11
229.991431
 21
453.5291
  0
LINE
  5
8F1
100
AcDbEntity
  8
M0
100
AcDbLine
 10
225.491433
 20
477.3291
 11
225.491433
 21
469.9291
  0
LINE
  5
8F2
100
AcDbEntity
  8
M0
100
AcDbLine
 10
155.891432
 20
453.5291
 11
156.691434
 21
453.5291
  0
LINE
  5
8F3
100
AcDbEntity
  8
M0
100
AcDbLine
 10
157.691433
 20
464.329099
 11
165.491432
 21
464.329099
  0
LINE
  5
8F4
100
AcDbEntity
  8
M0
100
AcDbLine
 10
225.491433
 20
469.9291
 11
229.991431
 21
469.9291
  0
LINE
  5
8F5
100
AcDbEntity
  8
M0
100
AcDbLine
 10
217.891433
 20
512.129099
 11
217.891433
 21
513.129101
  0
LINE
  5
8F6
100
AcDbEntity
  8
M0
100
AcDbLine
 10
217.891433
 20
434.129098
 11
217.891433
 21
435.1291
  0
LINE
  5
8F7
100
AcDbEntity
  8
M0
100
AcDbLine
 10
182.691433
 20
518.629101
 11
182.691433
 21
496.3291
  0
LINE
  5
8F8
100
AcDbEntity
  8
M0
100
AcDbLine
 10
203.991432
 20
435.1291
 11
203.991432
 21
434.129098
  0
LINE
  5
8F9
100
AcDbEntity
  8
M0
100
AcDbLine
 10
165.491432
 20
482.9291
 11
157.691433
 21
482.9291
  0
LINE
  5
8FA
100
AcDbEntity
  8
M0
100
AcDbLine
 10
229.991431
 20
477.3291
 11
225.491433
 21
477.3291
  0
LINE
  5
8FB
100
AcDbEntity
  8
M0
100
AcDbLine
 10
155.891432
 20
469.9291
 11
161.191432
 21
469.9291
  0
LINE
  5
8FC
100
AcDbEntity
  8
M0
100
AcDbLine
 10
221.191433
 20
500.3791
 11
221.191433
 21
482.845615
  0
LINE
  5
8FD
100
AcDbEntity
  8
M0
100
AcDbLine
 10
217.891433
 20
432.129101
 11
217.891433
 21
436.129098
  0
LINE
  5
8FE
100
AcDbEntity
  8
M0
100
AcDbLine
 10
202.491437
 20
431.129099
 11
201.291433
 21
431.129099
  0
LINE
  5
8FF
100
AcDbEntity
  8
M0
100
AcDbLine
 10
168.791432
 20
432.129101
 11
168.791432
 21
436.129098
  0
LINE
  5
900
100
AcDbEntity
  8
M0
100
AcDbLine
 10
186.391433
 20
496.5291
 11
182.691433
 21
496.5291
  0
LINE
  5
901
100
AcDbEntity
  8
M0
100
AcDbLine
 10
221.591432
 20
472.2291
 11
219.891433
 21
472.2291
  0
LINE
  5
902
100
AcDbEntity
  8
M0
100
AcDbLine
 10
203.991432
 20
436.129098
 11
203.991432
 21
432.129101
  0
CIRCLE
  5
903
100
AcDbEntity
  8
M0
100
AcDbCircle
 10
225.091434
 20
452.629098
 40
3.0
  0
CIRCLE
  5
904
100
AcDbEntity
  8
M0
100
AcDbCircle
 10
225.091434
 20
460.229098
 40
3.0
  0
CIRCLE
  5
905
100
AcDbEntity
  8
M0
100
AcDbCircle
 10
175.741433
 20
444.129069
 40
4.499996
  0
CIRCLE
  5
906
100
AcDbEntity
  8
M0
100
AcDbCircle
 10
210.941433
 20
444.129069
 40
4.499996
  0
CIRCLE
  5
907
100
AcDbEntity
  8
M0
100
AcDbCircle
 10
193.341433
 20
444.129069
 40
4.499996
  0
LINE
  5
908
100
AcDbEntity
  8
M0
100
AcDbLine
 10
202.991433
 20
431.129099
 11
202.491437
 21
431.129099
  0
LINE
  5
909
100
AcDbEntity
  8
M0
100
AcDbLine
 10
200.291432
 20
450.929099
 11
200.291432
 21
448.729099
  0
LINE
  5
90A
100
AcDbEntity
  8
M0
100
AcDbLine
 10
203.991432
 20
450.729099
 11
200.291432
 21
450.729099
  0
LINE
  5
90B
100
AcDbEntity
  8
M0
100
AcDbLine
 10
203.991432
 20
448.729099
 11
203.991432
 21
450.929099
  0
LINE
  5
90C
100
AcDbEntity
  8
M0
100
AcDbLine
 10
229.991431
 20
477.3291
 11
230.791433
 21
477.3291
  0
LINE
  5
90D
100
AcDbEntity
  8
M0
100
AcDbLine
 10
229.991431
 20
493.729099
 11
230.791433
 21
493.729099
  0
LINE
  5
90E
100
AcDbEntity
  8
M0
100
AcDbLine
 10
157.691433
 20
456.429099
 11
165.491432
 21
456.429099
  0
LINE
  5
90F
100
AcDbEntity
  8
M0
100
AcDbLine
 10
200.291432
 20
496.5291
 11
203.991432
 21
496.5291
  0
LINE
  5
910
100
AcDbEntity
  8
M0
100
AcDbLine
 10
219.891433
 20
475.029099
 11
221.591432
 21
475.029099
  0
LINE
  5
911
100
AcDbEntity
  8
M0
100
AcDbLine
 10
182.691433
 20
450.929099
 11
182.691433
 21
432.129101
  0
LINE
  5
912
100
AcDbEntity
  8
M0
100
AcDbLine
 10
219.891433
 20
472.2291
 11
219.891433
 21
475.029099
  0
LINE
  5
913
100
AcDbEntity
  8
M0
100
AcDbLine
 10
166.791432
 20
472.2291
 11
166.791432
 21
475.029099
  0
LINE
  5
914
100
AcDbEntity
  8
M0
100
AcDbLine
 10
182.691433
 20
450.729099
 11
186.391433
 21
450.729099
  0
LINE
  5
915
100
AcDbEntity
  8
M0
100
AcDbLine
 10
225.444713
 20
454.043461
 11
223.677135
 21
452.275761
  0
LINE
  5
916
100
AcDbEntity
  8
M0
100
AcDbLine
 10
226.682017
 20
451.038456
 11
223.500377
 21
454.220219
  0
LINE
  5
917
100
AcDbEntity
  8
M0
100
AcDbLine
 10
226.50526
 20
452.982792
 11
224.737681
 21
451.215214
  0
LINE
  5
918
100
AcDbEntity
  8
M0
100
AcDbLine
 10
177.622536
 20
444.596049
 11
175.274559
 21
442.248057
  0
LINE
  5
919
100
AcDbEntity
  8
M0
100
AcDbLine
 10
176.208336
 20
446.010265
 11
173.86036
 21
443.662273
  0
LINE
  5
91A
100
AcDbEntity
  8
M0
100
AcDbLine
 10
173.672478
 20
446.198039
 11
177.935448
 21
441.9351
  0
ARC
  5
91B
100
AcDbEntity
  8
M0
100
AcDbCircle
 10
214.791433
 20
519.1291
 40
1.0
100
AcDbArc
 50
90.0
 51
180.0
  0
CIRCLE
  5
91C
100
AcDbEntity
  8
M0
100
AcDbCircle
 10
225.091434
 20
487.029101
 40
3.0
  0
ARC
  5
91D
100
AcDbEntity
  8
M0
100
AcDbCircle
 10
214.791433
 20
519.1291
 40
1.0
100
AcDbArc
 50
0.0
 51
90.0
  0
LINE
  5
91E
100
AcDbEntity
  8
M0
100
AcDbLine
 10
226.50526
 20
460.582792
 11
224.737681
 21
458.815214
  0
LINE
  5
91F
100
AcDbEntity
  8
M0
100
AcDbLine
 10
225.444713
 20
461.643461
 11
223.677135
 21
459.875761
  0
LINE
  5
920
100
AcDbEntity
  8
M0
100
AcDbLine
 10
226.682017
 20
458.638456
 11
223.500377
 21
461.820219
  0
LINE
  5
921
100
AcDbEntity
  8
M0
100
AcDbLine
 10
195.222536
 20
444.596049
 11
192.874559
 21
442.248057
  0
LINE
  5
922
100
AcDbEntity
  8
M0
100
AcDbLine
 10
193.808336
 20
446.010265
 11
191.46036
 21
443.662273
  0
LINE
  5
923
100
AcDbEntity
  8
M0
100
AcDbLine
 10
191.272478
 20
446.198039
 11
195.535448
 21
441.9351
  0
LINE
  5
924
100
AcDbEntity
  8
M0
100
AcDbLine
 10
212.822536
 20
444.596049
 11
210.474559
 21
442.248057
  0
LINE
  5
925
100
AcDbEntity
  8
M0
100
AcDbLine
 10
211.408336
 20
446.010265
 11
209.06036
 21
443.662273
  0
LINE
  5
926
100
AcDbEntity
  8
M0
100
AcDbLine
 10
220.591432
 20
432.1291
 11
220.591432
 21
467.429099
  0
LINE
  5
927
100
AcDbEntity
  8
M0
100
AcDbLine
 10
186.391433
 20
496.3291
 11
186.391433
 21
515.129098
  0
LINE
  5
928
100
AcDbEntity
  8
M0
100
AcDbLine
 10
200.291432
 20
496.3291
 11
200.291432
 21
515.129098
  0
LINE
  5
929
100
AcDbEntity
  8
M0
100
AcDbLine
 10
218.891433
 20
450.729099
 11
218.891433
 21
450.929099
  0
LINE
  5
92A
100
AcDbEntity
  8
M0
100
AcDbLine
 10
201.291433
 20
516.1291
 11
202.991433
 21
516.1291
  0
LINE
  5
92B
100
AcDbEntity
  8
M0
100
AcDbLine
 10
185.391432
 20
516.1291
 11
183.691433
 21
516.1291
  0
LINE
  5
92C
100
AcDbEntity
  8
M0
100
AcDbLine
 10
167.791432
 20
516.1291
 11
167.091433
 21
516.1291
  0
LINE
  5
92D
100
AcDbEntity
  8
M0
100
AcDbLine
 10
209.103981
 20
434.579098
 11
210.241432
 21
434.579098
  0
LINE
  5
92E
100
AcDbEntity
  8
M0
100
AcDbLine
 10
210.241432
 20
432.9291
 11
211.141432
 21
432.9291
  0
LINE
  5
92F
100
AcDbEntity
  8
M0
100
AcDbLine
 10
219.591432
 20
468.9291
 11
221.591432
 21
468.9291
  0
LINE
  5
930
100
AcDbEntity
  8
M0
100
AcDbLine
 10
217.891433
 20
496.3291
 11
217.891433
 21
515.129098
  0
LINE
  5
931
100
AcDbEntity
  8
M0
100
AcDbLine
 10
228.385436
 20
438.879394
 11
228.877908
 21
438.879394
  0
LINE
  5
932
100
AcDbEntity
  8
M0
100
AcDbLine
 10
167.791432
 20
496.5291
 11
168.791432
 21
496.5291
  0
LINE
  5
933
100
AcDbEntity
  8
M0
100
AcDbLine
 10
167.091433
 20
468.9291
 11
165.091433
 21
468.9291
  0
LINE
  5
934
100
AcDbEntity
  8
M0
100
AcDbLine
 10
218.891433
 20
496.5291
 11
217.891433
 21
496.5291
  0
LINE
  5
935
100
AcDbEntity
  8
M0
100
AcDbLine
 10
166.091433
 20
467.429099
 11
166.091433
 21
432.1291
  0
LINE
  5
936
100
AcDbEntity
  8
M0
100
AcDbLine
 10
228.991433
 20
464.329099
 11
221.191433
 21
464.329099
  0
LINE
  5
937
100
AcDbEntity
  8
M0
100
AcDbLine
 10
221.591432
 20
478.329099
 11
219.591432
 21
478.329099
  0
LINE
  5
938
100
AcDbEntity
  8
M0
100
AcDbLine
 10
219.391428
 20
516.1291
 11
219.591432
 21
516.1291
  0
LINE
  5
939
100
AcDbEntity
  8
M0
100
AcDbLine
 10
218.891433
 20
496.3291
 11
218.891433
 21
496.5291
  0
LINE
  5
93A
100
AcDbEntity
  8
M0
100
AcDbLine
 10
216.941433
 20
436.129098
 11
217.891433
 21
436.129098
  0
LINE
  5
93B
100
AcDbEntity
  8
M0
100
AcDbLine
 10
228.772631
 20
443.378047
 11
227.343088
 21
443.3791
  0
LINE
  5
93C
100
AcDbEntity
  8
M0
100
AcDbLine
 10
220.591432
 20
479.8291
 11
220.591432
 21
515.1291
  0
CIRCLE
  5
93D
100
AcDbEntity
  8
M0
100
AcDbCircle
 10
210.691433
 20
434.1291
 40
2.85
  0
CIRCLE
  5
93E
100
AcDbEntity
  8
M0
100
AcDbCircle
 10
193.341433
 20
513.9291
 40
2.825
  0
ARC
  5
93F
100
AcDbEntity
  8
M0
100
AcDbCircle
 10
213.091433
 20
511.1291
 40
0.5
100
AcDbArc
 50
0.0
 51
66.421822
  0
ARC
  5
940
100
AcDbEntity
  8
M0
100
AcDbCircle
 10
176.291433
 20
519.6291
 40
0.5
100
AcDbArc
 50
90.0
 51
180.0
  0
ARC
  5
941
100
AcDbEntity
  8
M0
100
AcDbCircle
 10
204.491433
 20
519.1291
 40
1.0
100
AcDbArc
 50
0.0
 51
90.0
  0
ARC
  5
942
100
AcDbEntity
  8
M0
100
AcDbCircle
 10
173.591433
 20
511.1291
 40
0.5
100
AcDbArc
 50
113.578178
 51
180.0
  0
LINE
  5
943
100
AcDbEntity
  8
M0
100
AcDbLine
 10
156.691434
 20
493.729099
 11
155.891432
 21
493.729099
  0
LINE
  5
944
100
AcDbEntity
  8
M0
100
AcDbLine
 10
208.872478
 20
446.198039
 11
213.135448
 21
441.9351
  0
LINE
  5
945
100
AcDbEntity
  8
M0
100
AcDbLine
 10
161.191432
 20
477.3291
 11
155.891432
 21
477.3291
  0
LINE
  5
946
100
AcDbEntity
  8
M0
100
AcDbLine
 10
230.791433
 20
469.9291
 11
229.991431
 21
469.9291
  0
LINE
  5
947
100
AcDbEntity
  8
M0
100
AcDbLine
 10
228.991433
 20
499.9791
 11
228.991433
 21
478.329099
  0
CIRCLE
  5
948
100
AcDbEntity
  8
M0
100
AcDbCircle
 10
193.341433
 20
513.9291
 40
2.85
  0
LINE
  5
949
100
AcDbEntity
  8
M0
100
AcDbLine
 10
218.891433
 20
516.1291
 11
219.391428
 21
516.1291
  0
ARC
  5
94A
100
AcDbEntity
  8
M0
100
AcDbCircle
 10
182.191433
 20
519.1291
 40
1.0
100
AcDbArc
 50
90.0
 51
180.0
  0
ARC
  5
94B
100
AcDbEntity
  8
M0
100
AcDbCircle
 10
210.391433
 20
519.6291
 40
0.5
100
AcDbArc
 50
0.0
 51
90.0
  0
ARC
  5
94C
100
AcDbEntity
  8
M0
100
AcDbCircle
 10
155.891433
 20
468.9291
 40
1.0
100
AcDbArc
 50
90.0
 51
180.0
  0
ARC
  5
94D
100
AcDbEntity
  8
M0
100
AcDbCircle
 10
230.791433
 20
468.9291
 40
1.0
100
AcDbArc
 50
0.0
 51
90.0
  0
ARC
  5
94E
100
AcDbEntity
  8
M0
100
AcDbCircle
 10
155.891433
 20
478.3291
 40
1.0
100
AcDbArc
 50
180.0
 51
270.0
  0
LINE
  5
94F
100
AcDbEntity
  8
M0
100
AcDbLine
 10
154.891434
 20
497.9291
 11
154.891434
 21
473.6291
  0
LINE
  5
950
100
AcDbEntity
  8
M0
100
AcDbLine
 10
154.891434
 20
491.029099
 11
149.891434
 21
491.029099
  0
LINE
  5
951
100
AcDbEntity
  8
M0
100
AcDbLine
 10
152.291434
 20
499.029101
 11
147.491434
 21
499.029101
  0
LINE
  5
952
100
AcDbEntity
  8
M0
100
AcDbLine
 10
144.891434
 20
491.029099
 11
149.891434
 21
491.029099
  0
LINE
  5
953
100
AcDbEntity
  8
M0
100
AcDbLine
 10
154.891434
 20
495.1291
 11
149.891434
 21
495.1291
  0
LINE
  5
954
100
AcDbEntity
  8
M0
100
AcDbLine
 10
144.891434
 20
456.2291
 11
149.891434
 21
456.2291
  0
ARC
  5
955
100
AcDbEntity
  8
M0
100
AcDbCircle
 10
154.391434
 20
497.9291
 40
0.5
100
AcDbArc
 50
23.578178
 51
90.0
  0
LINE
  5
956
100
AcDbEntity
  8
M0
100
AcDbLine
 10
152.291434
 20
448.229098
 11
147.491434
 21
448.229098
  0
ARC
  5
957
100
AcDbEntity
  8
M0
100
AcDbCircle
 10
147.491434
 20
498.4291
 40
0.6
100
AcDbArc
 50
90.0
 51
180.0
  0
ARC
  5
958
100
AcDbEntity
  8
M0
100
AcDbCircle
 10
145.391434
 20
497.9291
 40
0.5
100
AcDbArc
 50
90.0
 51
156.421822
  0
LINE
  5
959
100
AcDbEntity
  8
M0
100
AcDbLine
 10
144.891434
 20
473.6291
 11
144.891434
 21
449.329099
  0
ARC
  5
95A
100
AcDbEntity
  8
M0
100
AcDbCircle
 10
152.291434
 20
498.4291
 40
0.6
100
AcDbArc
 50
0.0
 51
90.0
  0
LINE
  5
95B
100
AcDbEntity
  8
M0
100
AcDbLine
 10
154.891434
 20
449.329099
 11
154.891434
 21
473.6291
  0
LINE
  5
95C
100
AcDbEntity
  8
M0
100
AcDbLine
 10
154.891434
 20
452.129099
 11
149.891434
 21
452.129099
  0
ARC
  5
95D
100
AcDbEntity
  8
M0
100
AcDbCircle
 10
152.291434
 20
448.829099
 40
0.6
100
AcDbArc
 50
270.0
 51
360.0
  0
LINE
  5
95E
100
AcDbEntity
  8
M0
  6
DASHDOT
100
AcDbLine
 10
149.891434
 20
503.629099
 11
149.891434
 21
444.629099
  0
ARC
  5
95F
100
AcDbEntity
  8
M0
100
AcDbCircle
 10
154.391434
 20
449.329099
 40
0.5
100
AcDbArc
 50
270.0
 51
336.421822
  0
LINE
  5
960
100
AcDbEntity
  8
M0
100
AcDbLine
 10
154.891434
 20
456.2291
 11
149.891434
 21
456.2291
  0
LINE
  5
961
100
AcDbEntity
  8
M0
100
AcDbLine
 10
144.891434
 20
495.1291
 11
149.891434
 21
495.1291
  0
ARC
  5
962
100
AcDbEntity
  8
M0
100
AcDbCircle
 10
145.391434
 20
449.329099
 40
0.5
100
AcDbArc
 50
203.578178
 51
270.0
  0
LINE
  5
963
100
AcDbEntity
  8
M0
100
AcDbLine
 10
144.891434
 20
473.6291
 11
144.891434
 21
497.9291
  0
LINE
  5
964
100
AcDbEntity
  8
M0
100
AcDbLine
 10
145.391434
 20
448.829101
 11
154.391434
 21
448.829101
  0
ARC
  5
965
100
AcDbEntity
  8
M0
100
AcDbCircle
 10
147.491434
 20
448.829099
 40
0.6
100
AcDbArc
 50
180.0
 51
270.0
  0
LINE
  5
966
100
AcDbEntity
  8
M0
100
AcDbLine
 10
145.391434
 20
498.429098
 11
154.391434
 21
498.429098
  0
LINE
  5
967
100
AcDbEntity
  8
M0
100
AcDbLine
 10
144.891434
 20
452.129099
 11
149.891434
 21
452.129099
  0
LINE
  5
968
100
AcDbEntity
  8
M1
 62
     2
100
AcDbLine
 10
22.222223
 20
22.222223
 11
22.222223
 21
633.33335
  0
LINE
  5
969
100
AcDbEntity
  8
M1
 62
     2
100
AcDbLine
 10
22.222223
 20
633.33335
 11
444.444456
 21
633.33335
  0
LINE
  5
96A
100
AcDbEntity
  8
M1
 62
     2
100
AcDbLine
 10
444.444456
 20
633.33335
 11
444.444456
 21
22.222223
  0
LINE
  5
96B
100
AcDbEntity
  8
M1
 62
     2
100
AcDbLine
 10
444.444456
 20
22.222223
 11
22.222223
 21
22.222223
  0
LINE
  5
96C
100
AcDbEntity
  8
M1
 62
     2
100
AcDbLine
 10
444.444456
 20
44.444446
 11
222.222228
 21
44.444446
  0
LINE
  5
96D
100
AcDbEntity
  8
M1
 62
     2
100
AcDbLine
 10
444.444456
 20
66.666668
 11
222.222228
 21
66.666668
  0
LINE
  5
96E
100
AcDbEntity
  8
M1
 62
     2
100
AcDbLine
 10
444.444456
 20
88.888891
 11
222.222228
 21
88.888891
  0
LINE
  5
96F
100
AcDbEntity
  8
M1
 62
     2
100
AcDbLine
 10
222.222228
 20
22.222223
 11
222.222228
 21
88.888891
  0
TEXT
  5
970
100
AcDbEntity
  8
M1
 62
     2
100
AcDbText
 10
227.777784
 20
27.777779
 40
11.111112
  1
適　用；
  7
STANDARD
100
AcDbText
  0
TEXT
  5
971
100
AcDbEntity
  8
M1
 62
     2
100
AcDbText
 10
227.777784
 20
72.222224
 40
11.111112
  1
登録名：
  7
STANDARD
100
AcDbText
  0
TEXT
  5
972
100
AcDbEntity
  8
M1
 62
     2
100
AcDbText
 10
281.111119
 20
72.222224
 40
11.111112
  1
ＤＭＨＳ３５ＲＬＲ００
 41
0.5
  7
STANDARD
100
AcDbText
  0
TEXT
  5
973
100
AcDbEntity
  8
M1
 62
     2
100
AcDbText
 10
227.777784
 20
50.000001
 40
11.111112
  1
形　式；
  7
STANDARD
100
AcDbText
  0
TEXT
  5
974
100
AcDbEntity
  8
M1
 62
     2
100
AcDbText
 10
281.111119
 20
50.000001
 40
11.111112
  1
ＨＳ３５－ＲＬ
 41
0.5
  7
STANDARD
100
AcDbText
  0
LINE
  5
975
100
AcDbEntity
  8
DN0
100
AcDbLine
 10
131.458145
 20
204.459051
 11
167.524822
 21
204.459051
  0
TEXT
  5
976
100
AcDbEntity
  8
DN0
100
AcDbText
 10
132.454442
 20
205.34794
 40
8.888889
  1
せん孔図
 41
0.833333
  7
STANDARD
100
AcDbText
  0
ENDSEC
  0
SECTION
  2
OBJECTS
  0
DICTIONARY
  5
C
100
AcDbDictionary
  3
ACAD_GROUP
350
D
  3
ACAD_MLINESTYLE
350
E
  3
ACDBVARIABLEDICTIONARY
350
133
  0
DICTIONARY
  5
D
102
{ACAD_REACTORS
330
C
102
}
100
AcDbDictionary
  0
DICTIONARY
  5
E
102
{ACAD_REACTORS
330
C
102
}
100
AcDbDictionary
  3
STANDARD
350
13
  0
DICTIONARY
  5
133
102
{ACAD_REACTORS
330
C
102
}
100
AcDbDictionary
  3
SORTENTS
350
134
  0
MLINESTYLE
  5
13
102
{ACAD_REACTORS
330
E
102
}
100
AcDbMlineStyle
  2
STANDARD
 70
     0
  3

 62
     0
 51
90.0
 52
90.0
 71
     2
 49
0.5
 62
   256
  6
BYLAYER
 49
-0.5
 62
   256
  6
BYLAYER
  0
DICTIONARYVAR
  5
134
102
{ACAD_REACTORS
330
133
102
}
100
DictionaryVariables
280
     0
  1
96
  0
ENDSEC
  0
EOF
