  0
SECTION
  2
HEADER
  9
$ACADVER
  1
AC1014
  9
$INSBASE
 10
0.000000
 20
0.000000
 30
0.0
  9
$VIEWCTR
 10
7.531722
 20
4.5
  9
$VIEWSIZE
 40
9.0
  9
$SNAPMODE
 70
     0
  9
$SNAPUNIT
 10
1.0
 20
1.0
  9
$SNAPBASE
 10
0.0
 20
0.0
  9
$SNAPANG
 50
0.0
  9
$SNAPSTYLE
 70
     0
  9
$SNAPISOPAIR
 70
     0
  9
$GRIDMODE
 70
     0
  9
$GRIDUNIT
 10
0.0
 20
0.0
  9
$ORTHOMODE
 70
     0
  9
$REGENMODE
 70
     1
  9
$FILLMODE
 70
     1
  9
$QTEXTMODE
 70
     0
  9
$DRAGMODE
 70
     2
  9
$LTSCALE
  40
     1.000000
  9
$OSMODE
 70
     0
  9
$ATTMODE
 70
     1
  9
$TEXTSIZE
 40
0.2
  9
$TRACEWID
 40
0.05
  9
$TEXTSTYLE
  7
STANDARD
  9
$CELTYPE
  6
BYLAYER
  9
$CECOLOR
 62
   256
  9
$DIMSCALE
 40
1.0
  9
$DIMASZ
 40
0.18
  9
$DIMEXO
 40
0.0625
  9
$DIMDLI
 40
0.38
  9
$DIMRND
 40
0.0
  9
$DIMDLE
 40
0.0
  9
$DIMEXE
 40
0.18
  9
$DIMTP
 40
0.0
  9
$DIMTM
 40
0.0
  9
$DIMTXT
 40
0.18
  9
$DIMCEN
 40
0.09
  9
$DIMTSZ
 40
0.0
  9
$DIMTOL
 70
     0
  9
$DIMLIM
 70
     0
  9
$DIMTIH
 70
     1
  9
$DIMTOH
 70
     1
  9
$DIMSE1
 70
     0
  9
$DIMSE2
 70
     0
  9
$DIMTAD
 70
     0
  9
$DIMZIN
 70
     0
  9
$DIMBLK
  1

  9
$LUNITS
 70
     2
  9
$LUPREC
 70
     4
  9
$AXISMODE
 70
     0
  9
$AXISUNIT
 10
0.0
 20
0.0
  9
$SKETCHINC
 40
0.1
  9
$FILLETRAD
 40
0.0
  9
$AUNITS
 70
     0
  9
$AUPREC
 70
     0
  9
$MENU
  1
ACAD
  9
$ELEVATION
 40
0.0
  9
$THICKNESS
 40
0.0
  9
$VIEWDIR
 10
0.0
 20
0.0
 30
1.0
  9
$LIMCHECK
 70
     0
  9
$BLIPMODE
 70
     1
  9
$CHAMFERA
 40
0.0
  9
$CHAMFERB
 40
0.0
  9
$FASTZOOM
 70
     1
  9
$SKPOLY
 70
     0
  9
$TDCREATE
 40
0000000.0000000000
  9
$TDUPDATE
 40
0000000.0000000000
  9
$TDINDWG
 40
0.0000000000
  9
$TDUSRTIMER
 40
0.0000000000
  9
$USRTIMER
 70
     1
  9
$ANGBASE
 50
0.0
  9
$ANGDIR
 70
     0
  9
$PDMODE
 70
     0
  9
$PDSIZE
 40
0.0
  9
$PLINEWID
 40
0.0
  9
$COORDS
 70
     0
  9
$USERI1
 70
     0
  9
$USERI2
 70
     0
  9
$USERI3
 70
     0
  9
$USERI4
 70
     0
  9
$USERI5
 70
     0
  9
$USERR1
 40
0.0
  9
$USERR2
 40
0.0
  9
$USERR3
 40
0.0
  9
$USERR4
 40
0.0
  9
$USERR5
 40
0.0
  9
$CLAYER
  8
M0
  9
$EXTMIN
 10
14.717987
 20
15.85014
  9
$EXTMAX
 10
300.003268
 20
428.763047
  9
$LIMMIN
 10
0.0
 20
0.0
  9
$LIMMAX
 10
210.0
 20
297.0
  9
$HANDSEED
  5
742
  0
ENDSEC
  0
SECTION
  2
CLASSES
  0
CLASS
  1
DICTIONARYVAR
  2
AcDbDictionaryVar
  3
"AutoCAD"
 90
        0
280
     0
281
     0
  0
CLASS
  1
HATCH
  2
AcDbHatch
  3
"ACAD_SEDONA"
 90
        0
280
     0
281
     1
  0
ENDSEC
  0
SECTION
  2
TABLES
  0
TABLE
  2
VPORT
  5
8
100
AcDbSymbolTable
 70
     2
  0
VPORT
  5
14
100
AcDbSymbolTableRecord
100
AcDbViewportTableRecord
  2
*ACTIVE
 70
     0
 10
0.0
 20
0.0
 11
1.0
 21
1.0
 12
484.0
 22
297.0
 13
0.0
 23
0.0
 14
1.0
 24
1.0
 15
0.0
 25
0.0
 16
0.0
 26
0.0
 36
1.0
 17
0.0
 27
0.0
 37
0.0
 40
594.0
 41
2.0
 42
50.0
 43
0.0
 44
0.0
 50
0.0
 51
0.0
 71
     0
 72
   100
 73
     1
 74
     1
 75
     0
 76
     0
 77
     0
 78
     0
  0
ENDTAB
  0
TABLE
  2
LTYPE
  5
5
100
AcDbSymbolTable
 70
     5
  0
LTYPE
  5
15
100
AcDbSymbolTableRecord
100
AcDbLinetypeTableRecord
  2
BYBLOCK
 70
     0
  3

 72
    65
 73
     0
 40
0.0
  0
LTYPE
  5
16
100
AcDbSymbolTableRecord
100
AcDbLinetypeTableRecord
  2
BYLAYER
 70
     0
  3

 72
    65
 73
     0
 40
0.0
  0
LTYPE
  5
17
100
AcDbSymbolTableRecord
100
AcDbLinetypeTableRecord
  2
CONTINUOUS
 70
    64
  3
Solid line
 72
    65
 73
     0
 40
0.0
  0
LTYPE
  5
18
100
AcDbSymbolTableRecord
100
AcDbLinetypeTableRecord
  2
DASHED
 70
    64
  3
__ __ __ __ __ __ __ __ __ __ __ __ __ __ __ __
 72
    65
 73
     2
 40
0.75
 49
0.5
 74
     0
 49
-0.25
 74
     0
  0
LTYPE
  5
19
100
AcDbSymbolTableRecord
100
AcDbLinetypeTableRecord
  2
DASHDOT
 70
    64
  3
__ . __ . __ . __ . __ . __ . __ . __ . __ . __
 72
    65
 73
     4
 40
1.0
 49
0.5
 74
     0
 49
-0.25
 74
     0
 49
0.0
 74
     0
 49
-0.25
 74
     0
  0
LTYPE
  5
1A
100
AcDbSymbolTableRecord
100
AcDbLinetypeTableRecord
  2
DIVIDE
 70
    64
  3
____ . . ____ . . ____ . . ____ . . ____ . . __
 72
    65
 73
     6
 40
1.25
 49
0.5
 74
     0
 49
-0.25
 74
     0
 49
0.0
 74
     0
 49
-0.25
 74
     0
 49
0.0
 74
     0
 49
-0.25
 74
     0
  0
LTYPE
  5
1B
100
AcDbSymbolTableRecord
100
AcDbLinetypeTableRecord
  2
DOT
 70
    64
  3
. . . . . . . . . . . . . . . . . . . . . . . .
 72
    65
 73
     2
 40
0.25
 49
0.0
 74
     0
 49
-0.25
 74
     0
  0
ENDTAB
  0
TABLE
  2
LAYER
  5
2
100
AcDbSymbolTable
 70
   102
  0
LAYER
  5
F
100
AcDbSymbolTableRecord
100
AcDbLayerTableRecord
  2
0
 70
     0
 62
     7
  6
CONTINUOUS
  0
LAYER
  5
1C
100
AcDbSymbolTableRecord
100
AcDbLayerTableRecord
  2
DEFPOINTS
 70
     0
 62
     7
  6
CONTINUOUS
  0
LAYER
  5
1D
100
AcDbSymbolTableRecord
100
AcDbLayerTableRecord
  2
M0
 70
     0
 62
     3
  6
CONTINUOUS
  0
LAYER
  5
1E
100
AcDbSymbolTableRecord
100
AcDbLayerTableRecord
  2
M3
 70
     0
 62
     3
  6
CONTINUOUS
  0
LAYER
  5
1F
100
AcDbSymbolTableRecord
100
AcDbLayerTableRecord
  2
DD0
 70
     0
 62
     4
  6
CONTINUOUS
  0
LAYER
  5
20
100
AcDbSymbolTableRecord
100
AcDbLayerTableRecord
  2
DN0
 70
     0
 62
     2
  6
CONTINUOUS
  0
ENDTAB
  0
TABLE
  2
STYLE
  5
3
100
AcDbSymbolTable
 70
     2
  0
STYLE
  5
10
100
AcDbSymbolTableRecord
100
AcDbTextStyleTableRecord
  2
STANDARD
 70
     0
 40
0.0
 41
1.0
 50
0.0
 71
     0
 42
0.2
  3
txt
  4
BIGFONT
  0
ENDTAB
  0
TABLE
  2
VIEW
  5
6
100
AcDbSymbolTable
 70
     0
  0
ENDTAB
  0
TABLE
  2
UCS
  5
7
100
AcDbSymbolTable
 70
     0
  0
ENDTAB
  0
TABLE
  2
APPID
  5
9
100
AcDbSymbolTable
 70
     1
  0
APPID
  5
11
100
AcDbSymbolTableRecord
100
AcDbRegAppTableRecord
  2
ACAD
 70
     0
  0
ENDTAB
  0
TABLE
  2
DIMSTYLE
  5
A
100
AcDbSymbolTable
 70
     2
  0
DIMSTYLE
105
27
100
AcDbSymbolTableRecord
100
AcDbDimStyleTableRecord
  2
STANDARD
 70
     0
  3

  4

  5

  6
_OPEN
  7
_OPEN
 40
1.0
 41
4.504504
 42
1.0
 43
8.0
 44
1.0
 45
0.0
 46
0.0
 47
0.0
 48
0.0
140
4.72973
141
0.09
142
0.0
143
0.03937
144
1.0
145
0.0
146
1.0
147
0.6
 71
     0
 72
     0
 73
     1
 74
     1
 75
     0
 76
     0
 77
     3
 78
     8
170
     0
171
     2
172
     0
173
     1
174
     0
175
     0
176
     0
177
     0
178
     0
270
     2
271
     2
272
     4
273
     2
274
     2
340
10
275
     0
280
     0
281
     0
282
     0
283
     1
284
     0
285
     0
286
     0
287
     3
288
     0
  0
DIMSTYLE
105
28
100
AcDbSymbolTableRecord
100
AcDbDimStyleTableRecord
  2
LEADSTYL
 70
     0
  3

  4

  5

  6
_OPEN
  7
_OPEN
 40
1.0
 41
4.504504
 42
0.0625
 43
0.38
 44
0.18
 45
0.0
 46
0.0
 47
0.0
 48
0.0
140
4.72973
141
0.09
142
0.0
143
25.4
144
1.0
145
0.0
146
1.0
147
0.6
 71
     0
 72
     0
 73
     1
 74
     1
 75
     0
 76
     0
 77
     0
 78
     0
170
     0
171
     2
172
     0
173
     1
174
     0
175
     0
176
     0
177
     0
178
     0
270
     2
271
     4
272
     4
273
     2
274
     2
340
10
275
     0
280
     0
281
     0
282
     0
283
     1
284
     0
285
     0
286
     0
287
     3
288
     0
  0
ENDTAB
  0
TABLE
  2
BLOCK_RECORD
  5
1
100
AcDbSymbolTable
 70
    21
  0
BLOCK_RECORD
  5
21
100
AcDbSymbolTableRecord
100
AcDbBlockTableRecord
  2
*MODEL_SPACE
  0
BLOCK_RECORD
  5
24
100
AcDbSymbolTableRecord
100
AcDbBlockTableRecord
  2
*PAPER_SPACE
  0
BLOCK_RECORD
  5
29
100
AcDbSymbolTableRecord
100
AcDbBlockTableRecord
  2
_NONE
  0
BLOCK_RECORD
  5
2D
100
AcDbSymbolTableRecord
100
AcDbBlockTableRecord
  2
_OPEN
  0
BLOCK_RECORD
  5
33
100
AcDbSymbolTableRecord
100
AcDbBlockTableRecord
  2
_CLOSED
  0
BLOCK_RECORD
  5
3A
100
AcDbSymbolTableRecord
100
AcDbBlockTableRecord
  2
_ORIGIN
  0
BLOCK_RECORD
  5
3F
100
AcDbSymbolTableRecord
100
AcDbBlockTableRecord
  2
_DOT
  0
BLOCK_RECORD
  5
47
100
AcDbSymbolTableRecord
100
AcDbBlockTableRecord
  2
_OBLIQUE
  0
BLOCK_RECORD
  5
4B
100
AcDbSymbolTableRecord
100
AcDbBlockTableRecord
  2
DIMS0
  0
BLOCK_RECORD
  5
57
100
AcDbSymbolTableRecord
100
AcDbBlockTableRecord
  2
DIMS1
  0
BLOCK_RECORD
  5
63
100
AcDbSymbolTableRecord
100
AcDbBlockTableRecord
  2
DIMS2
  0
BLOCK_RECORD
  5
70
100
AcDbSymbolTableRecord
100
AcDbBlockTableRecord
  2
DIMS3
  0
BLOCK_RECORD
  5
7C
100
AcDbSymbolTableRecord
100
AcDbBlockTableRecord
  2
DIMS4
  0
BLOCK_RECORD
  5
88
100
AcDbSymbolTableRecord
100
AcDbBlockTableRecord
  2
DIMS5
  0
BLOCK_RECORD
  5
93
100
AcDbSymbolTableRecord
100
AcDbBlockTableRecord
  2
DIMS6
  0
BLOCK_RECORD
  5
9F
100
AcDbSymbolTableRecord
100
AcDbBlockTableRecord
  2
DIMS7
  0
BLOCK_RECORD
  5
AB
100
AcDbSymbolTableRecord
100
AcDbBlockTableRecord
  2
DIMS8
  0
BLOCK_RECORD
  5
B6
100
AcDbSymbolTableRecord
100
AcDbBlockTableRecord
  2
DIMS9
  0
BLOCK_RECORD
  5
C2
100
AcDbSymbolTableRecord
100
AcDbBlockTableRecord
  2
DIMS10
  0
BLOCK_RECORD
  5
CB
100
AcDbSymbolTableRecord
100
AcDbBlockTableRecord
  2
DIMS11
  0
BLOCK_RECORD
  5
D7
100
AcDbSymbolTableRecord
100
AcDbBlockTableRecord
  2
DIMS12
  0
BLOCK_RECORD
  5
E3
100
AcDbSymbolTableRecord
100
AcDbBlockTableRecord
  2
DIMS13
  0
BLOCK_RECORD
  5
EF
100
AcDbSymbolTableRecord
100
AcDbBlockTableRecord
  2
DIMS14
  0
ENDTAB
  0
ENDSEC
  0
SECTION
  2
BLOCKS
  0
BLOCK
  5
22
100
AcDbEntity
  8
0
100
AcDbBlockBegin
  2
*MODEL_SPACE
 70
     0
 10
0.0
 20
0.0
 30
0.0
  3
*MODEL_SPACE
  1

  0
ENDBLK
  5
23
100
AcDbEntity
  8
0
100
AcDbBlockEnd
  0
BLOCK
  5
25
100
AcDbEntity
 67
     1
  8
0
100
AcDbBlockBegin
  2
*PAPER_SPACE
 70
     0
 10
0.0
 20
0.0
 30
0.0
  3
*PAPER_SPACE
  1

  0
ENDBLK
  5
26
100
AcDbEntity
 67
     1
  8
0
100
AcDbBlockEnd
  0
BLOCK
  5
2A
100
AcDbEntity
  8
0
100
AcDbBlockBegin
  2
_NONE
 70
     0
 10
0.0
 20
0.0
  0
CIRCLE
  5
2B
100
AcDbEntity
  8
0
 62
     0
100
AcDbCircle
 10
0.0
 20
0.0
 40
0.25
  0
ENDBLK
  5
2C
100
AcDbEntity
  8
0
100
AcDbBlockEnd
  0
BLOCK
  5
2E
100
AcDbEntity
  8
0
100
AcDbBlockBegin
  2
_OPEN
 70
     0
 10
0.0
 20
0.0
  0
LINE
  5
2F
100
AcDbEntity
  8
0
 62
     0
100
AcDbLine
 10
-0.965926
 20
0.258819
 11
0.0
 21
0.0
  0
LINE
  5
30
100
AcDbEntity
  8
0
 62
     0
100
AcDbLine
 10
0.0
 20
0.0
 11
-0.965926
 21
-0.258819
  0
LINE
  5
31
100
AcDbEntity
  8
0
 62
     0
100
AcDbLine
 10
0.0
 20
0.0
 11
-1.0
 21
0.0
  0
ENDBLK
  5
32
100
AcDbEntity
  8
0
100
AcDbBlockEnd
  0
BLOCK
  5
34
100
AcDbEntity
  8
0
100
AcDbBlockBegin
  2
_CLOSED
 70
     0
 10
0.0
 20
0.0
  0
LINE
  5
35
100
AcDbEntity
  8
0
 62
     0
100
AcDbLine
 10
-0.965926
 20
0.258819
 11
0.0
 21
0.0
  0
LINE
  5
36
100
AcDbEntity
  8
0
 62
     0
100
AcDbLine
 10
0.0
 20
0.0
 11
-0.965926
 21
-0.258819
  0
LINE
  5
37
100
AcDbEntity
  8
0
 62
     0
100
AcDbLine
 10
-0.965926
 20
0.258819
 11
-0.965926
 21
-0.258819
  0
LINE
  5
38
100
AcDbEntity
  8
0
 62
     0
100
AcDbLine
 10
0.0
 20
0.0
 11
-1.0
 21
0.0
  0
ENDBLK
  5
39
100
AcDbEntity
  8
0
100
AcDbBlockEnd
  0
BLOCK
  5
3B
100
AcDbEntity
  8
0
100
AcDbBlockBegin
  2
_ORIGIN
 70
     0
 10
0.0
 20
0.0
  0
CIRCLE
  5
3C
100
AcDbEntity
  8
0
 62
     0
100
AcDbCircle
 10
0.0
 20
0.0
 40
0.5
  0
LINE
  5
3D
100
AcDbEntity
  8
0
 62
     0
100
AcDbLine
 10
0.0
 20
0.0
 11
-1.0
 21
0.0
  0
ENDBLK
  5
3E
100
AcDbEntity
  8
0
100
AcDbBlockEnd
  0
BLOCK
  5
40
100
AcDbEntity
  8
0
100
AcDbBlockBegin
  2
_DOT
 70
     0
 10
0.0
 20
0.0
  0
POLYLINE
  5
41
100
AcDbEntity
  8
0
 62
     0
100
AcDb2dPolyline
 66
     1
 70
     1
 40
0.5
 41
0.5
  0
VERTEX
  5
42
100
AcDbEntity
  8
0
 62
     0
100
AcDbVertex
100
AcDb2dVertex
 10
-0.25
 20
0.0
 42
1.0
  0
VERTEX
  5
43
100
AcDbEntity
  8
0
 62
     0
100
AcDbVertex
100
AcDb2dVertex
 10
0.25
 20
0.0
 42
1.0
  0
SEQEND
  5
44
100
AcDbEntity
  8
0
 62
     0
  0
LINE
  5
45
100
AcDbEntity
  8
0
 62
     0
100
AcDbLine
 10
-0.5
 20
0.0
 11
-1.0
 21
0.0
  0
ENDBLK
  5
46
100
AcDbEntity
  8
0
100
AcDbBlockEnd
  0
BLOCK
  5
48
100
AcDbEntity
  8
0
100
AcDbBlockBegin
  2
_OBLIQUE
 70
     0
 10
0.0
 20
0.0
  0
LINE
  5
49
100
AcDbEntity
  8
0
 62
     0
100
AcDbLine
 10
-0.353553
 20
-0.353553
 11
0.353553
 21
0.353553
  0
ENDBLK
  5
4A
100
AcDbEntity
  8
0
100
AcDbBlockEnd
  0
BLOCK
  5
4C
100
AcDbEntity
  8
DD0
100
AcDbBlockBegin
  2
DIMS0
 70
     0
 10
0.0
 20
0.0
  0
LINE
  5
4D
100
AcDbEntity
  8
DD0
100
AcDbLine
 10
68.180049
 20
363.726866
 11
68.180049
 21
391.81266
  0
LINE
  5
4E
100
AcDbEntity
  8
DD0
100
AcDbLine
 10
85.780048
 20
385.226866
 11
85.780048
 21
391.81266
  0
LINE
  5
4F
100
AcDbEntity
  8
DD0
100
AcDbLine
 10
72.531066
 20
391.47701
 11
68.180049
 21
390.311159
  0
LINE
  5
50
100
AcDbEntity
  8
DD0
100
AcDbLine
 10
68.180049
 20
390.311159
 11
72.531066
 21
389.145307
  0
LINE
  5
51
100
AcDbEntity
  8
DD0
100
AcDbLine
 10
81.429031
 20
389.145307
 11
85.780048
 21
390.311159
  0
LINE
  5
52
100
AcDbEntity
  8
DD0
100
AcDbLine
 10
85.780048
 20
390.311159
 11
81.429031
 21
391.47701
  0
LINE
  5
53
100
AcDbEntity
  8
DD0
100
AcDbLine
 10
68.180049
 20
390.311159
 11
85.780048
 21
390.311159
  0
TEXT
  5
54
100
AcDbEntity
  8
DD0
100
AcDbText
 10
71.231806
 20
391.212069
 40
3.753754
  1
１７．５
 41
0.666667
  7
STANDARD
100
AcDbText
  0
ENDBLK
  5
55
100
AcDbEntity
  8
DD0
100
AcDbBlockEnd
  0
BLOCK
  5
58
100
AcDbEntity
  8
DD0
100
AcDbBlockBegin
  2
DIMS1
 70
     0
 10
0.0
 20
0.0
  0
LINE
  5
59
100
AcDbEntity
  8
DD0
100
AcDbLine
 10
108.731552
 20
378.725362
 11
148.024113
 21
378.725362
  0
LINE
  5
5A
100
AcDbEntity
  8
DD0
100
AcDbLine
 10
120.784999
 20
235.022831
 11
148.024113
 21
235.022831
  0
LINE
  5
5B
100
AcDbEntity
  8
DD0
100
AcDbLine
 10
147.688463
 20
374.374345
 11
146.522612
 21
378.725362
  0
LINE
  5
5C
100
AcDbEntity
  8
DD0
100
AcDbLine
 10
146.522612
 20
378.725362
 11
145.35676
 21
374.374345
  0
LINE
  5
5D
100
AcDbEntity
  8
DD0
100
AcDbLine
 10
145.35676
 20
239.373848
 11
146.522612
 21
235.022831
  0
LINE
  5
5E
100
AcDbEntity
  8
DD0
100
AcDbLine
 10
146.522612
 20
235.022831
 11
147.688463
 21
239.373848
  0
LINE
  5
5F
100
AcDbEntity
  8
DD0
100
AcDbLine
 10
146.522612
 20
378.725362
 11
146.522612
 21
235.022831
  0
TEXT
  5
60
100
AcDbEntity
  8
DD0
100
AcDbText
 10
145.621713
 20
302.627329
 40
3.753754
  1
１４４
 50
90.000003
 41
0.666667
  7
STANDARD
100
AcDbText
  0
ENDBLK
  5
61
100
AcDbEntity
  8
DD0
100
AcDbBlockEnd
  0
BLOCK
  5
64
100
AcDbEntity
  8
DD0
100
AcDbBlockBegin
  2
DIMS2
 70
     0
 10
0.0
 20
0.0
  0
LINE
  5
65
100
AcDbEntity
  8
DD0
100
AcDbLine
 10
34.830053
 20
363.426868
 11
34.830053
 21
412.234693
  0
LINE
  5
66
100
AcDbEntity
  8
DD0
100
AcDbLine
 10
136.730043
 20
363.426868
 11
136.730043
 21
412.234693
  0
LINE
  5
67
100
AcDbEntity
  8
DD0
100
AcDbLine
 10
39.18107
 20
411.899043
 11
34.830053
 21
410.733192
  0
LINE
  5
68
100
AcDbEntity
  8
DD0
100
AcDbLine
 10
34.830053
 20
410.733192
 11
39.18107
 21
409.56734
  0
LINE
  5
69
100
AcDbEntity
  8
DD0
100
AcDbLine
 10
132.379026
 20
409.56734
 11
136.730043
 21
410.733192
  0
LINE
  5
6A
100
AcDbEntity
  8
DD0
100
AcDbLine
 10
136.730043
 20
410.733192
 11
132.379026
 21
411.899043
  0
LINE
  5
6B
100
AcDbEntity
  8
DD0
100
AcDbLine
 10
34.830053
 20
410.733192
 11
136.730043
 21
410.733192
  0
TEXT
  5
6C
100
AcDbEntity
  8
DD0
100
AcDbText
 10
81.533304
 20
411.634102
 40
3.753754
  1
１０２
 41
0.666667
  7
STANDARD
100
AcDbText
  0
TEXT
  5
6D
100
AcDbEntity
  8
DD0
100
AcDbText
 10
54.506277
 20
405.778255
 40
3.753754
  1
（補助接点サイドオンユニットを付けた場合）
 41
0.666667
  7
STANDARD
100
AcDbText
  0
ENDBLK
  5
6E
100
AcDbEntity
  8
DD0
100
AcDbBlockEnd
  0
BLOCK
  5
71
100
AcDbEntity
  8
DD0
100
AcDbBlockBegin
  2
DIMS3
 70
     0
 10
0.0
 20
0.0
  0
LINE
  5
72
100
AcDbEntity
  8
DD0
100
AcDbLine
 10
46.28005
 20
281.02698
 11
46.28005
 21
399.658473
  0
LINE
  5
73
100
AcDbEntity
  8
DD0
100
AcDbLine
 10
131.283515
 20
281.024322
 11
131.283515
 21
399.658473
  0
LINE
  5
74
100
AcDbEntity
  8
DD0
100
AcDbLine
 10
50.631067
 20
399.322823
 11
46.28005
 21
398.156971
  0
LINE
  5
75
100
AcDbEntity
  8
DD0
100
AcDbLine
 10
46.28005
 20
398.156971
 11
50.631067
 21
396.99112
  0
LINE
  5
76
100
AcDbEntity
  8
DD0
100
AcDbLine
 10
126.932498
 20
396.99112
 11
131.283515
 21
398.156971
  0
LINE
  5
77
100
AcDbEntity
  8
DD0
100
AcDbLine
 10
131.283515
 20
398.156971
 11
126.932498
 21
399.322823
  0
LINE
  5
78
100
AcDbEntity
  8
DD0
100
AcDbLine
 10
46.28005
 20
398.156971
 11
131.283515
 21
398.156971
  0
TEXT
  5
79
100
AcDbEntity
  8
DD0
100
AcDbText
 10
86.036542
 20
399.057881
 40
3.753754
  1
８５
 41
0.666667
  7
STANDARD
100
AcDbText
  0
ENDBLK
  5
7A
100
AcDbEntity
  8
DD0
100
AcDbBlockEnd
  0
BLOCK
  5
7D
100
AcDbEntity
  8
DD0
100
AcDbBlockBegin
  2
DIMS4
 70
     0
 10
0.0
 20
0.0
  0
LINE
  5
7E
100
AcDbEntity
  8
DD0
100
AcDbLine
 10
57.779919
 20
246.023272
 11
57.779919
 21
227.587631
  0
LINE
  5
7F
100
AcDbEntity
  8
DD0
100
AcDbLine
 10
77.779918
 20
246.023272
 11
77.779918
 21
227.587631
  0
LINE
  5
80
100
AcDbEntity
  8
DD0
100
AcDbLine
 10
62.130936
 20
230.254984
 11
57.779919
 21
229.089133
  0
LINE
  5
81
100
AcDbEntity
  8
DD0
100
AcDbLine
 10
57.779919
 20
229.089133
 11
62.130936
 21
227.923281
  0
LINE
  5
82
100
AcDbEntity
  8
DD0
100
AcDbLine
 10
73.428901
 20
227.923281
 11
77.779918
 21
229.089133
  0
LINE
  5
83
100
AcDbEntity
  8
DD0
100
AcDbLine
 10
77.779918
 20
229.089133
 11
73.428901
 21
230.254984
  0
LINE
  5
84
100
AcDbEntity
  8
DD0
100
AcDbLine
 10
57.779919
 20
229.089133
 11
77.779918
 21
229.089133
  0
TEXT
  5
85
100
AcDbEntity
  8
DD0
100
AcDbText
 10
65.034675
 20
229.990043
 40
3.753754
  1
２０
 41
0.666667
  7
STANDARD
100
AcDbText
  0
ENDBLK
  5
86
100
AcDbEntity
  8
DD0
100
AcDbBlockEnd
  0
BLOCK
  5
89
100
AcDbEntity
  8
DD0
100
AcDbBlockBegin
  2
DIMS5
 70
     0
 10
0.0
 20
0.0
  0
LINE
  5
8A
100
AcDbEntity
  8
DD0
100
AcDbLine
 10
191.53707
 20
344.226867
 11
191.53707
 21
406.497205
  0
LINE
  5
8B
100
AcDbEntity
  8
DD0
100
AcDbLine
 10
275.586059
 20
403.829852
 11
279.937076
 21
404.995704
  0
LINE
  5
8C
100
AcDbEntity
  8
DD0
100
AcDbLine
 10
279.937076
 20
404.995704
 11
275.586059
 21
406.161556
  0
LINE
  5
8D
100
AcDbEntity
  8
DD0
100
AcDbLine
 10
195.888087
 20
406.161556
 11
191.53707
 21
404.995704
  0
LINE
  5
8E
100
AcDbEntity
  8
DD0
100
AcDbLine
 10
191.53707
 20
404.995704
 11
195.888087
 21
403.829852
  0
LINE
  5
8F
100
AcDbEntity
  8
DD0
100
AcDbLine
 10
279.937076
 20
404.995704
 11
191.53707
 21
404.995704
  0
TEXT
  5
90
100
AcDbEntity
  8
DD0
100
AcDbText
 10
229.988804
 20
405.896614
 40
3.753754
  1
８８．５
 41
0.666667
  7
STANDARD
100
AcDbText
  0
ENDBLK
  5
91
100
AcDbEntity
  8
DD0
100
AcDbBlockEnd
  0
BLOCK
  5
94
100
AcDbEntity
  8
DD0
100
AcDbBlockBegin
  2
DIMS6
 70
     0
 10
0.0
 20
0.0
  0
LINE
  5
95
100
AcDbEntity
  8
DD0
100
AcDbLine
 10
279.937076
 20
374.476866
 11
279.937076
 21
413.329706
  0
LINE
  5
96
100
AcDbEntity
  8
DD0
100
AcDbLine
 10
160.237067
 20
336.026872
 11
160.237067
 21
413.329706
  0
LINE
  5
97
100
AcDbEntity
  8
DD0
100
AcDbLine
 10
275.586059
 20
410.662353
 11
279.937076
 21
411.828205
  0
LINE
  5
98
100
AcDbEntity
  8
DD0
100
AcDbLine
 10
279.937076
 20
411.828205
 11
275.586059
 21
412.994056
  0
LINE
  5
99
100
AcDbEntity
  8
DD0
100
AcDbLine
 10
164.588084
 20
412.994056
 11
160.237067
 21
411.828205
  0
LINE
  5
9A
100
AcDbEntity
  8
DD0
100
AcDbLine
 10
160.237067
 20
411.828205
 11
164.588084
 21
410.662353
  0
LINE
  5
9B
100
AcDbEntity
  8
DD0
100
AcDbLine
 10
279.937076
 20
411.828205
 11
160.237067
 21
411.828205
  0
TEXT
  5
9C
100
AcDbEntity
  8
DD0
100
AcDbText
 10
184.308779
 20
412.729115
 40
3.753754
  1
１２０（補助接点ヘッドオンユニットを付けた場合）
 41
0.666667
  7
STANDARD
100
AcDbText
  0
ENDBLK
  5
9D
100
AcDbEntity
  8
DD0
100
AcDbBlockEnd
  0
BLOCK
  5
A0
100
AcDbEntity
  8
DD0
100
AcDbBlockBegin
  2
DIMS7
 70
     0
 10
0.0
 20
0.0
  0
LINE
  5
A1
100
AcDbEntity
  8
DD0
100
AcDbLine
 10
191.53707
 20
344.226867
 11
191.53707
 21
389.880201
  0
LINE
  5
A2
100
AcDbEntity
  8
DD0
100
AcDbLine
 10
186.537067
 20
382.146997
 11
186.537067
 21
389.880201
  0
LINE
  5
A3
100
AcDbEntity
  8
DD0
100
AcDbLine
 10
195.888087
 20
389.544551
 11
191.53707
 21
388.3787
  0
LINE
  5
A4
100
AcDbEntity
  8
DD0
100
AcDbLine
 10
191.53707
 20
388.3787
 11
195.888087
 21
387.212848
  0
LINE
  5
A5
100
AcDbEntity
  8
DD0
100
AcDbLine
 10
182.18605
 20
387.212848
 11
186.537067
 21
388.3787
  0
LINE
  5
A6
100
AcDbEntity
  8
DD0
100
AcDbLine
 10
186.537067
 20
388.3787
 11
182.18605
 21
389.544551
  0
LINE
  5
A7
100
AcDbEntity
  8
DD0
100
AcDbLine
 10
196.492025
 20
388.3787
 11
177.077608
 21
388.3787
  0
TEXT
  5
A8
100
AcDbEntity
  8
DD0
100
AcDbText
 10
178.401428
 20
389.27961
 40
3.753754
  1
５
 41
0.666667
  7
STANDARD
100
AcDbText
  0
ENDBLK
  5
A9
100
AcDbEntity
  8
DD0
100
AcDbBlockEnd
  0
BLOCK
  5
AC
100
AcDbEntity
  8
DD0
100
AcDbBlockBegin
  2
DIMS8
 70
     0
 10
0.0
 20
0.0
  0
LINE
  5
AD
100
AcDbEntity
  8
DD0
100
AcDbLine
 10
268.93707
 20
374.22686
 11
268.93707
 21
385.884002
  0
LINE
  5
AE
100
AcDbEntity
  8
DD0
100
AcDbLine
 10
275.586059
 20
383.216672
 11
279.937076
 21
384.382524
  0
LINE
  5
AF
100
AcDbEntity
  8
DD0
100
AcDbLine
 10
279.937076
 20
384.382524
 11
275.586059
 21
385.548375
  0
LINE
  5
B0
100
AcDbEntity
  8
DD0
100
AcDbLine
 10
273.288087
 20
385.548375
 11
268.93707
 21
384.382524
  0
LINE
  5
B1
100
AcDbEntity
  8
DD0
100
AcDbLine
 10
268.93707
 20
384.382524
 11
273.288087
 21
383.216672
  0
LINE
  5
B2
100
AcDbEntity
  8
DD0
100
AcDbLine
 10
279.937076
 20
384.382524
 11
268.93707
 21
384.382524
  0
TEXT
  5
B3
100
AcDbEntity
  8
DD0
100
AcDbText
 10
271.440885
 20
386.703028
 40
3.753754
  1
１１
 41
0.666667
  7
STANDARD
100
AcDbText
  0
ENDBLK
  5
B4
100
AcDbEntity
  8
DD0
100
AcDbBlockEnd
  0
BLOCK
  5
B7
100
AcDbEntity
  8
DD0
100
AcDbBlockBegin
  2
DIMS9
 70
     0
 10
0.0
 20
0.0
  0
LINE
  5
B8
100
AcDbEntity
  8
DD0
100
AcDbLine
 10
125.575697
 20
205.410539
 11
148.024113
 21
205.410539
  0
LINE
  5
B9
100
AcDbEntity
  8
DD0
100
AcDbLine
 10
55.878848
 20
192.366062
 11
148.024113
 21
192.366062
  0
LINE
  5
BA
100
AcDbEntity
  8
DD0
100
AcDbLine
 10
147.688463
 20
201.059522
 11
146.522612
 21
205.410539
  0
LINE
  5
BB
100
AcDbEntity
  8
DD0
100
AcDbLine
 10
146.522612
 20
205.410539
 11
145.35676
 21
201.059522
  0
LINE
  5
BC
100
AcDbEntity
  8
DD0
100
AcDbLine
 10
145.35676
 20
196.717079
 11
146.522612
 21
192.366062
  0
LINE
  5
BD
100
AcDbEntity
  8
DD0
100
AcDbLine
 10
146.522612
 20
192.366062
 11
147.688463
 21
196.717079
  0
LINE
  5
BE
100
AcDbEntity
  8
DD0
100
AcDbLine
 10
146.522612
 20
217.873002
 11
146.522612
 21
192.366062
  0
TEXT
  5
BF
100
AcDbEntity
  8
DD0
100
AcDbText
 10
145.621713
 20
210.623248
 40
3.753754
  1
１３
 50
90.000003
 41
0.666667
  7
STANDARD
100
AcDbText
  0
ENDBLK
  5
C0
100
AcDbEntity
  8
DD0
100
AcDbBlockEnd
  0
BLOCK
  5
C3
100
AcDbEntity
  8
DD0
100
AcDbBlockBegin
  2
DIMS10
 70
     0
 10
0.0
 20
0.0
  0
TEXT
  5
C4
100
AcDbEntity
  8
DD0
100
AcDbText
 10
131.221597
 20
119.814599
 40
3.753754
  1
２－Ｍ４ねじ穴
 41
0.666667
  7
STANDARD
100
AcDbText
  0
LINE
  5
C5
100
AcDbEntity
  8
DD0
100
AcDbLine
 10
125.527343
 20
121.537799
 11
122.011384
 21
124.353573
  0
LINE
  5
C6
100
AcDbEntity
  8
DD0
100
AcDbLine
 10
122.011384
 20
124.353573
 11
123.648407
 21
120.157061
  0
LINE
  5
C7
100
AcDbEntity
  8
DD0
100
AcDbLine
 10
122.011384
 20
124.353573
 11
126.008877
 21
118.913701
  0
LINE
  5
C8
100
AcDbEntity
  8
DD0
100
AcDbLine
 10
126.008877
 20
118.913701
 11
156.939817
 21
118.913701
  0
ENDBLK
  5
C9
100
AcDbEntity
  8
DD0
100
AcDbBlockEnd
  0
BLOCK
  5
CC
100
AcDbEntity
  8
DD0
100
AcDbBlockBegin
  2
DIMS11
 70
     0
 10
0.0
 20
0.0
  0
LINE
  5
CD
100
AcDbEntity
  8
DD0
100
AcDbLine
 10
121.279935
 20
132.964949
 11
121.279935
 21
217.863475
  0
LINE
  5
CE
100
AcDbEntity
  8
DD0
100
AcDbLine
 10
50.279932
 20
197.964961
 11
50.279932
 21
217.863475
  0
LINE
  5
CF
100
AcDbEntity
  8
DD0
100
AcDbLine
 10
116.928918
 20
215.196122
 11
121.279935
 21
216.361974
  0
LINE
  5
D0
100
AcDbEntity
  8
DD0
100
AcDbLine
 10
121.279935
 20
216.361974
 11
116.928918
 21
217.527825
  0
LINE
  5
D1
100
AcDbEntity
  8
DD0
100
AcDbLine
 10
54.630949
 20
217.527825
 11
50.279932
 21
216.361974
  0
LINE
  5
D2
100
AcDbEntity
  8
DD0
100
AcDbLine
 10
50.279932
 20
216.361974
 11
54.630949
 21
215.196122
  0
LINE
  5
D3
100
AcDbEntity
  8
DD0
100
AcDbLine
 10
121.279935
 20
216.361974
 11
50.279932
 21
216.361974
  0
TEXT
  5
D4
100
AcDbEntity
  8
DD0
100
AcDbText
 10
83.034691
 20
217.262884
 40
3.753754
  1
７１
 41
0.666667
  7
STANDARD
100
AcDbText
  0
ENDBLK
  5
D5
100
AcDbEntity
  8
DD0
100
AcDbBlockEnd
  0
BLOCK
  5
D8
100
AcDbEntity
  8
DD0
100
AcDbBlockBegin
  2
DIMS12
 70
     0
 10
0.0
 20
0.0
  0
LINE
  5
D9
100
AcDbEntity
  8
DD0
100
AcDbLine
 10
50.279932
 20
197.964961
 11
50.279932
 21
217.863475
  0
LINE
  5
DA
100
AcDbEntity
  8
DD0
100
AcDbLine
 10
46.279915
 20
206.912041
 11
46.279915
 21
217.863475
  0
LINE
  5
DB
100
AcDbEntity
  8
DD0
100
AcDbLine
 10
54.630949
 20
217.527825
 11
50.279932
 21
216.361974
  0
LINE
  5
DC
100
AcDbEntity
  8
DD0
100
AcDbLine
 10
50.279932
 20
216.361974
 11
54.630949
 21
215.196122
  0
LINE
  5
DD
100
AcDbEntity
  8
DD0
100
AcDbLine
 10
41.928898
 20
215.196122
 11
46.279915
 21
216.361974
  0
LINE
  5
DE
100
AcDbEntity
  8
DD0
100
AcDbLine
 10
46.279915
 20
216.361974
 11
41.928898
 21
217.527825
  0
LINE
  5
DF
100
AcDbEntity
  8
DD0
100
AcDbLine
 10
55.234887
 20
216.361974
 11
36.820456
 21
216.361974
  0
TEXT
  5
E0
100
AcDbEntity
  8
DD0
100
AcDbText
 10
38.144282
 20
217.262884
 40
3.753754
  1
４
 41
0.666667
  7
STANDARD
100
AcDbText
  0
ENDBLK
  5
E1
100
AcDbEntity
  8
DD0
100
AcDbBlockEnd
  0
BLOCK
  5
E4
100
AcDbEntity
  8
DD0
100
AcDbBlockBegin
  2
DIMS13
 70
     0
 10
0.0
 20
0.0
  0
LINE
  5
E5
100
AcDbEntity
  8
DD0
100
AcDbLine
 10
55.878848
 20
192.366062
 11
148.024113
 21
192.366062
  0
LINE
  5
E6
100
AcDbEntity
  8
DD0
100
AcDbLine
 10
126.878846
 20
127.36605
 11
148.024113
 21
127.36605
  0
LINE
  5
E7
100
AcDbEntity
  8
DD0
100
AcDbLine
 10
147.688463
 20
188.015045
 11
146.522612
 21
192.366062
  0
LINE
  5
E8
100
AcDbEntity
  8
DD0
100
AcDbLine
 10
146.522612
 20
192.366062
 11
145.35676
 21
188.015045
  0
LINE
  5
E9
100
AcDbEntity
  8
DD0
100
AcDbLine
 10
145.35676
 20
131.717067
 11
146.522612
 21
127.36605
  0
LINE
  5
EA
100
AcDbEntity
  8
DD0
100
AcDbLine
 10
146.522612
 20
127.36605
 11
147.688463
 21
131.717067
  0
LINE
  5
EB
100
AcDbEntity
  8
DD0
100
AcDbLine
 10
146.522612
 20
192.366062
 11
146.522612
 21
127.36605
  0
TEXT
  5
EC
100
AcDbEntity
  8
DD0
100
AcDbText
 10
145.621713
 20
157.120813
 40
3.753754
  1
６５
 50
90.000003
 41
0.666667
  7
STANDARD
100
AcDbText
  0
ENDBLK
  5
ED
100
AcDbEntity
  8
DD0
100
AcDbBlockEnd
  0
BLOCK
  5
F0
100
AcDbEntity
  8
DD0
100
AcDbBlockBegin
  2
DIMS14
 70
     0
 10
0.0
 20
0.0
  0
LINE
  5
F1
100
AcDbEntity
  8
DD0
100
AcDbLine
 10
279.937076
 20
288.973876
 11
279.937076
 21
213.553761
  0
LINE
  5
F2
100
AcDbEntity
  8
DD0
100
AcDbLine
 10
205.082865
 20
257.97386
 11
205.082865
 21
213.553761
  0
LINE
  5
F3
100
AcDbEntity
  8
DD0
100
AcDbLine
 10
275.586059
 20
213.889411
 11
279.937076
 21
215.055262
  0
LINE
  5
F4
100
AcDbEntity
  8
DD0
100
AcDbLine
 10
279.937076
 20
215.055262
 11
275.586059
 21
216.221114
  0
LINE
  5
F5
100
AcDbEntity
  8
DD0
100
AcDbLine
 10
209.433882
 20
216.221114
 11
205.082865
 21
215.055262
  0
LINE
  5
F6
100
AcDbEntity
  8
DD0
100
AcDbLine
 10
205.082865
 20
215.055262
 11
209.433882
 21
213.889411
  0
LINE
  5
F7
100
AcDbEntity
  8
DD0
100
AcDbLine
 10
279.937076
 20
215.055262
 11
205.082865
 21
215.055262
  0
TEXT
  5
F8
100
AcDbEntity
  8
DD0
100
AcDbText
 10
238.166888
 20
215.956173
 40
4.72973
  1
７５
 41
0.833333
  7
STANDARD
100
AcDbText
  0
ENDBLK
  5
F9
100
AcDbEntity
  8
DD0
100
AcDbBlockEnd
  0
ENDSEC
  0
SECTION
  2
ENTITIES
  0
INSERT
  5
56
100
AcDbEntity
  8
DD0
100
AcDbBlockReference
  2
DIMS0
 10
0.0
 20
0.0
  0
INSERT
  5
62
100
AcDbEntity
  8
DD0
100
AcDbBlockReference
  2
DIMS1
 10
0.0
 20
0.0
  0
INSERT
  5
6F
100
AcDbEntity
  8
DD0
100
AcDbBlockReference
  2
DIMS2
 10
0.0
 20
0.0
  0
INSERT
  5
7B
100
AcDbEntity
  8
DD0
100
AcDbBlockReference
  2
DIMS3
 10
0.0
 20
0.0
  0
INSERT
  5
87
100
AcDbEntity
  8
DD0
100
AcDbBlockReference
  2
DIMS4
 10
0.0
 20
0.0
  0
INSERT
  5
92
100
AcDbEntity
  8
DD0
100
AcDbBlockReference
  2
DIMS5
 10
0.0
 20
0.0
  0
INSERT
  5
9E
100
AcDbEntity
  8
DD0
100
AcDbBlockReference
  2
DIMS6
 10
0.0
 20
0.0
  0
INSERT
  5
AA
100
AcDbEntity
  8
DD0
100
AcDbBlockReference
  2
DIMS7
 10
0.0
 20
0.0
  0
INSERT
  5
B5
100
AcDbEntity
  8
DD0
100
AcDbBlockReference
  2
DIMS8
 10
0.0
 20
0.0
  0
INSERT
  5
C1
100
AcDbEntity
  8
DD0
100
AcDbBlockReference
  2
DIMS9
 10
0.0
 20
0.0
  0
INSERT
  5
CA
100
AcDbEntity
  8
DD0
100
AcDbBlockReference
  2
DIMS10
 10
0.0
 20
0.0
  0
INSERT
  5
D6
100
AcDbEntity
  8
DD0
100
AcDbBlockReference
  2
DIMS11
 10
0.0
 20
0.0
  0
INSERT
  5
E2
100
AcDbEntity
  8
DD0
100
AcDbBlockReference
  2
DIMS12
 10
0.0
 20
0.0
  0
INSERT
  5
EE
100
AcDbEntity
  8
DD0
100
AcDbBlockReference
  2
DIMS13
 10
0.0
 20
0.0
  0
INSERT
  5
FA
100
AcDbEntity
  8
DD0
100
AcDbBlockReference
  2
DIMS14
 10
0.0
 20
0.0
  0
ARC
  5
FB
100
AcDbEntity
  8
M0
 62
   154
100
AcDbCircle
 10
94.380049
 20
288.525367
 40
1.0
100
AcDbArc
 50
90.0
 51
180.0
  0
ARC
  5
FC
100
AcDbEntity
  8
M0
 62
   154
100
AcDbCircle
 10
92.380049
 20
286.525367
 40
1.0
100
AcDbArc
 50
270.0
 51
360.0
  0
ARC
  5
FD
100
AcDbEntity
  8
M0
 62
   154
100
AcDbCircle
 10
76.380049
 20
286.525367
 40
1.0
100
AcDbArc
 50
180.0
 51
270.0
  0
ARC
  5
FE
100
AcDbEntity
  8
M0
 62
   154
100
AcDbCircle
 10
74.380049
 20
288.525367
 40
1.0
100
AcDbArc
 50
0.0
 51
90.0
  0
LINE
  5
FF
100
AcDbEntity
  8
M0
 62
   154
100
AcDbLine
 10
94.380049
 20
289.525367
 11
100.547603
 21
289.525367
  0
LINE
  5
100
100
AcDbEntity
  8
M0
 62
   154
100
AcDbLine
 10
58.280049
 20
300.325367
 11
58.53005
 21
300.325367
  0
LINE
  5
101
100
AcDbEntity
  8
M0
 62
   154
100
AcDbLine
 10
93.380049
 20
286.525367
 11
93.380049
 21
288.525367
  0
LINE
  5
102
100
AcDbEntity
  8
M0
 62
   154
100
AcDbLine
 10
76.380049
 20
285.525367
 11
79.267897
 21
285.525367
  0
LINE
  5
103
100
AcDbEntity
  8
M0
 62
   154
100
AcDbLine
 10
75.380049
 20
288.525367
 11
75.380049
 21
286.525367
  0
LINE
  5
104
100
AcDbEntity
  8
M0
 62
   154
100
AcDbLine
 10
74.380049
 20
289.525367
 11
70.461394
 21
289.525367
  0
LINE
  5
105
100
AcDbEntity
  8
M0
 62
   154
100
AcDbLine
 10
58.280049
 20
283.117984
 11
58.280049
 21
300.325367
  0
LINE
  5
106
100
AcDbEntity
  8
M0
 62
   154
100
AcDbLine
 10
110.480049
 20
290.198587
 11
110.480049
 21
279.025367
  0
LINE
  5
107
100
AcDbEntity
  8
M0
 62
   154
100
AcDbLine
 10
109.280049
 20
279.025367
 11
109.280049
 21
290.289479
  0
LINE
  5
108
100
AcDbEntity
  8
M0
 62
   154
100
AcDbLine
 10
59.480049
 20
289.725368
 11
59.480049
 21
284.698934
  0
LINE
  5
109
100
AcDbEntity
  8
M0
 62
   154
100
AcDbLine
 10
107.495532
 20
289.525367
 11
109.280049
 21
289.525367
  0
LINE
  5
10A
100
AcDbEntity
  8
M0
 62
   154
100
AcDbLine
 10
86.916393
 20
285.525367
 11
92.380049
 21
285.525367
  0
LINE
  5
10B
100
AcDbEntity
  8
M0
 62
   154
100
AcDbLine
 10
63.143491
 20
289.525367
 11
59.480049
 21
289.525367
  0
LINE
  5
10C
100
AcDbEntity
  8
M0
100
AcDbLine
 10
122.530049
 20
359.575368
 11
122.430047
 21
359.575368
  0
LINE
  5
10D
100
AcDbEntity
  8
M0
100
AcDbLine
 10
75.330049
 20
374.32537
 11
75.330049
 21
376.52537
  0
LINE
  5
10E
100
AcDbEntity
  8
M0
100
AcDbLine
 10
51.03005
 20
357.02537
 11
50.130049
 21
357.02537
  0
LINE
  5
10F
100
AcDbEntity
  8
M0
100
AcDbLine
 10
120.530049
 20
357.02537
 11
121.430049
 21
357.02537
  0
LINE
  5
110
100
AcDbEntity
  8
M0
100
AcDbLine
 10
101.380048
 20
368.725368
 11
107.83005
 21
368.725368
  0
LINE
  5
111
100
AcDbEntity
  8
M0
100
AcDbLine
 10
113.630049
 20
357.02537
 11
114.53005
 21
357.02537
  0
LINE
  5
112
100
AcDbEntity
  8
M0
100
AcDbLine
 10
99.630049
 20
292.725367
 11
99.630049
 21
290.72537
  0
LINE
  5
113
100
AcDbEntity
  8
M0
100
AcDbLine
 10
65.330049
 20
368.725368
 11
65.330049
 21
377.725369
  0
LINE
  5
114
100
AcDbEntity
  8
M0
100
AcDbLine
 10
49.030049
 20
359.575368
 11
49.130051
 21
359.575368
  0
LINE
  5
115
100
AcDbEntity
  8
M0
100
AcDbLine
 10
121.730049
 20
289.725368
 11
107.495127
 21
289.725368
  0
LINE
  5
116
100
AcDbEntity
  8
M0
100
AcDbLine
 10
96.230049
 20
376.52537
 11
96.230049
 21
374.32537
  0
LINE
  5
117
100
AcDbEntity
  8
M0
100
AcDbLine
 10
62.180048
 20
290.72537
 11
62.180048
 21
295.725369
  0
LINE
  5
118
100
AcDbEntity
  8
M0
100
AcDbLine
 10
74.680049
 20
290.72537
 11
74.680049
 21
295.725369
  0
LINE
  5
119
100
AcDbEntity
  8
M0
100
AcDbLine
 10
96.880049
 20
290.72537
 11
96.880049
 21
295.725369
  0
LINE
  5
11A
100
AcDbEntity
  8
M0
100
AcDbLine
 10
49.030049
 20
304.87537
 11
49.130051
 21
304.87537
  0
LINE
  5
11B
100
AcDbEntity
  8
M0
100
AcDbLine
 10
75.830049
 20
377.025367
 11
95.730049
 21
377.025367
  0
LINE
  5
11C
100
AcDbEntity
  8
M0
100
AcDbLine
 10
109.38005
 20
295.725369
 11
109.38005
 21
290.72537
  0
LINE
  5
11D
100
AcDbEntity
  8
M0
100
AcDbLine
 10
47.33005
 20
358.575369
 11
47.33005
 21
292.725369
  0
LINE
  5
11E
100
AcDbEntity
  8
M0
100
AcDbLine
 10
48.330049
 20
304.87537
 11
49.130051
 21
304.87537
  0
LINE
  5
11F
100
AcDbEntity
  8
M0
100
AcDbLine
 10
63.330049
 20
368.725368
 11
63.330049
 21
377.725368
  0
CIRCLE
  5
120
100
AcDbEntity
  8
M0
100
AcDbCircle
 10
85.780049
 20
372.525369
 40
3.1
  0
ARC
  5
121
100
AcDbEntity
  8
M0
100
AcDbCircle
 10
75.830049
 20
376.525369
 40
0.5
100
AcDbArc
 50
90.0
 51
180.0
  0
LINE
  5
122
100
AcDbEntity
  8
M0
100
AcDbLine
 10
92.730049
 20
294.725367
 11
92.730049
 21
307.325368
  0
LINE
  5
123
100
AcDbEntity
  8
M0
100
AcDbLine
 10
92.730049
 20
290.72537
 11
92.730049
 21
294.725367
  0
ARC
  5
124
100
AcDbEntity
  8
M0
100
AcDbCircle
 10
48.330049
 20
305.875369
 40
1.0
100
AcDbArc
 50
180.0
 51
270.0
  0
LINE
  5
125
100
AcDbEntity
  8
M0
100
AcDbLine
 10
93.73005
 20
307.825369
 11
95.43005
 21
307.825369
  0
ARC
  5
126
100
AcDbEntity
  8
M0
100
AcDbCircle
 10
68.430049
 20
292.725369
 40
3.5
100
AcDbArc
 50
0.0
 51
41.78523
  0
ARC
  5
127
100
AcDbEntity
  8
M0
100
AcDbCircle
 10
108.380049
 20
290.725369
 40
1.0
100
AcDbArc
 50
270.0
 51
360.0
  0
ARC
  5
128
100
AcDbEntity
  8
M0
100
AcDbCircle
 10
97.880049
 20
290.725369
 40
1.0
100
AcDbArc
 50
180.0
 51
270.0
  0
ARC
  5
129
100
AcDbEntity
  8
M0
100
AcDbCircle
 10
95.730049
 20
376.525369
 40
0.5
100
AcDbArc
 50
0.0
 51
90.0
  0
LINE
  5
12A
100
AcDbEntity
  8
M0
100
AcDbLine
 10
73.680049
 20
289.725368
 11
70.478815
 21
289.725368
  0
LINE
  5
12B
100
AcDbEntity
  8
M0
100
AcDbLine
 10
71.930049
 20
292.725367
 11
71.930049
 21
290.72537
  0
LINE
  5
12C
100
AcDbEntity
  8
M0
100
AcDbLine
 10
76.630045
 20
289.725368
 11
77.830049
 21
289.725368
  0
LINE
  5
12D
100
AcDbEntity
  8
M0
100
AcDbLine
 10
76.130049
 20
289.725368
 11
76.630045
 21
289.725368
  0
LINE
  5
12E
100
AcDbEntity
  8
M0
100
AcDbLine
 10
46.830049
 20
361.025368
 11
46.830049
 21
370.725369
  0
LINE
  5
12F
100
AcDbEntity
  8
M0
100
AcDbLine
 10
117.231539
 20
299.47537
 11
115.780049
 21
299.47537
  0
LINE
  5
130
100
AcDbEntity
  8
M0
100
AcDbLine
 10
57.380049
 20
294.725367
 11
58.280049
 21
294.725367
  0
LINE
  5
131
100
AcDbEntity
  8
M0
100
AcDbLine
 10
57.380049
 20
300.725368
 11
57.380049
 21
294.725367
  0
LINE
  5
132
100
AcDbEntity
  8
M0
100
AcDbLine
 10
49.830048
 20
373.725367
 11
57.33005
 21
373.725367
  0
LINE
  5
133
100
AcDbEntity
  8
M0
100
AcDbLine
 10
124.230048
 20
370.725369
 11
124.230048
 21
305.875369
  0
LINE
  5
134
100
AcDbEntity
  8
M0
100
AcDbLine
 10
58.53005
 20
300.725368
 11
57.380049
 21
300.725368
  0
LINE
  5
135
100
AcDbEntity
  8
M0
100
AcDbLine
 10
61.230049
 20
370.225368
 11
63.330049
 21
370.225368
  0
LINE
  5
136
100
AcDbEntity
  8
M0
100
AcDbLine
 10
108.230049
 20
370.225368
 11
110.330049
 21
370.225368
  0
LINE
  5
137
100
AcDbEntity
  8
M0
100
AcDbLine
 10
106.230049
 20
373.22537
 11
105.73005
 21
373.22537
  0
LINE
  5
138
100
AcDbEntity
  8
M0
100
AcDbLine
 10
65.330049
 20
373.22537
 11
65.830049
 21
373.22537
  0
LINE
  5
139
100
AcDbEntity
  8
M0
100
AcDbLine
 10
57.380049
 20
293.225368
 11
57.380049
 21
293.725369
  0
LINE
  5
13A
100
AcDbEntity
  8
M0
100
AcDbLine
 10
58.280049
 20
293.725369
 11
57.380049
 21
293.725369
  0
LINE
  5
13B
100
AcDbEntity
  8
M0
100
AcDbLine
 10
65.330049
 20
375.525368
 11
65.830049
 21
375.525368
  0
LINE
  5
13C
100
AcDbEntity
  8
M0
100
AcDbLine
 10
106.230049
 20
374.32537
 11
105.73005
 21
374.32537
  0
LINE
  5
13D
100
AcDbEntity
  8
M0
100
AcDbLine
 10
65.830049
 20
374.32537
 11
65.330049
 21
374.32537
  0
LINE
  5
13E
100
AcDbEntity
  8
M0
100
AcDbLine
 10
124.230048
 20
308.425368
 11
124.730049
 21
303.425369
  0
LINE
  5
13F
100
AcDbEntity
  8
M0
100
AcDbLine
 10
114.230048
 20
373.725367
 11
121.23005
 21
373.725367
  0
LINE
  5
140
100
AcDbEntity
  8
M0
100
AcDbLine
 10
58.280049
 20
292.725367
 11
57.88005
 21
292.725367
  0
LINE
  5
141
100
AcDbEntity
  8
M0
100
AcDbLine
 10
55.78005
 20
369.47537
 11
53.28005
 21
369.47537
  0
LINE
  5
142
100
AcDbEntity
  8
M0
100
AcDbLine
 10
50.73054
 20
366.975369
 11
50.280048
 21
366.975369
  0
LINE
  5
143
100
AcDbEntity
  8
M0
100
AcDbLine
 10
50.280048
 20
362.475369
 11
51.874312
 21
362.477345
  0
LINE
  5
144
100
AcDbEntity
  8
M0
100
AcDbLine
 10
54.329558
 20
364.975368
 11
55.78005
 21
364.975368
  0
ARC
  5
145
100
AcDbEntity
  8
M0
100
AcDbCircle
 10
64.330049
 20
377.725369
 40
1.0
100
AcDbArc
 50
0.0
 51
90.0
  0
ARC
  5
146
100
AcDbEntity
  8
M0
100
AcDbCircle
 10
72.930049
 20
290.725369
 40
1.0
100
AcDbArc
 50
180.0
 51
270.0
  0
ARC
  5
147
100
AcDbEntity
  8
M0
100
AcDbCircle
 10
73.680049
 20
290.725369
 40
1.0
100
AcDbArc
 50
270.0
 51
360.0
  0
ARC
  5
148
100
AcDbEntity
  8
M0
100
AcDbCircle
 10
107.630049
 20
290.725369
 40
1.0
100
AcDbArc
 50
262.312742
 51
270.0
  0
ARC
  5
149
100
AcDbEntity
  8
M0
100
AcDbCircle
 10
63.180049
 20
290.725369
 40
1.0
100
AcDbArc
 50
180.0
 51
270.0
  0
ARC
  5
14A
100
AcDbEntity
  8
M0
100
AcDbCircle
 10
64.330049
 20
377.725369
 40
1.0
100
AcDbArc
 50
90.0
 51
180.0
  0
LINE
  5
14B
100
AcDbEntity
  8
M0
100
AcDbLine
 10
57.030049
 20
307.425368
 11
57.930049
 21
307.425368
  0
ARC
  5
14C
100
AcDbEntity
  8
M0
100
AcDbCircle
 10
98.630049
 20
290.725369
 40
1.0
100
AcDbArc
 50
270.0
 51
360.0
  0
LINE
  5
14D
100
AcDbEntity
  8
M0
100
AcDbLine
 10
57.930049
 20
357.02537
 11
57.030049
 21
357.02537
  0
LINE
  5
14E
100
AcDbEntity
  8
M0
100
AcDbLine
 10
57.380049
 20
291.725369
 11
57.380049
 21
293.225368
  0
LINE
  5
14F
100
AcDbEntity
  8
M0
100
AcDbLine
 10
58.280049
 20
291.225368
 11
57.88005
 21
291.225368
  0
LINE
  5
150
100
AcDbEntity
  8
M0
100
AcDbLine
 10
47.33005
 20
356.025369
 11
46.830049
 21
361.025368
  0
LINE
  5
151
100
AcDbEntity
  8
M0
100
AcDbLine
 10
122.530049
 20
304.87537
 11
122.430047
 21
304.87537
  0
LINE
  5
152
100
AcDbEntity
  8
M0
100
AcDbLine
 10
114.53005
 20
307.425368
 11
113.630049
 21
307.425368
  0
LINE
  5
153
100
AcDbEntity
  8
M0
100
AcDbLine
 10
121.430049
 20
307.425368
 11
120.530049
 21
307.425368
  0
ARC
  5
154
100
AcDbEntity
  8
M0
100
AcDbCircle
 10
121.230049
 20
370.725369
 40
3.0
100
AcDbArc
 50
0.0
 51
90.0
  0
ARC
  5
155
100
AcDbEntity
  8
M0
100
AcDbCircle
 10
49.830049
 20
370.725369
 40
3.0
100
AcDbArc
 50
90.0
 51
180.0
  0
LINE
  5
156
100
AcDbEntity
  8
M0
100
AcDbLine
 10
59.230049
 20
333.625369
 11
57.53005
 21
333.625369
  0
ARC
  5
157
100
AcDbEntity
  8
M0
100
AcDbCircle
 10
67.530049
 20
377.725369
 40
0.5
100
AcDbArc
 50
270.0
 51
360.0
  0
ARC
  5
158
100
AcDbEntity
  8
M0
100
AcDbCircle
 10
104.030049
 20
378.225369
 40
0.5
100
AcDbArc
 50
90.0
 51
180.0
  0
ARC
  5
159
100
AcDbEntity
  8
M0
100
AcDbCircle
 10
57.880049
 20
291.725369
 40
0.5
100
AcDbArc
 50
180.0
 51
270.0
  0
ARC
  5
15A
100
AcDbEntity
  8
M0
100
AcDbCircle
 10
104.030049
 20
377.725369
 40
0.5
100
AcDbArc
 50
180.0
 51
270.0
  0
LINE
  5
15B
100
AcDbEntity
  8
M0
100
AcDbLine
 10
58.53005
 20
330.825369
 11
58.53005
 21
330.725369
  0
LINE
  5
15C
100
AcDbEntity
  8
M0
100
AcDbLine
 10
61.230049
 20
309.325369
 11
60.230049
 21
309.325369
  0
LINE
  5
15D
100
AcDbEntity
  8
M0
100
AcDbLine
 10
57.53005
 20
330.825369
 11
59.230049
 21
330.825369
  0
ARC
  5
15E
100
AcDbEntity
  8
M0
100
AcDbCircle
 10
51.780049
 20
364.725369
 40
2.25
100
AcDbArc
 50
272.401074
 51
358.876481
  0
ARC
  5
15F
100
AcDbEntity
  8
M0
100
AcDbCircle
 10
95.930049
 20
307.325369
 40
0.5
100
AcDbArc
 50
0.0
 51
90.0
  0
ARC
  5
160
100
AcDbEntity
  8
M0
100
AcDbCircle
 10
115.780049
 20
297.225369
 40
2.25
100
AcDbArc
 50
90.0
 51
270.0
  0
ARC
  5
161
100
AcDbEntity
  8
M0
100
AcDbCircle
 10
78.330049
 20
307.325369
 40
0.5
100
AcDbArc
 50
0.0
 51
90.0
  0
ARC
  5
162
100
AcDbEntity
  8
M0
100
AcDbCircle
 10
75.630049
 20
307.325369
 40
0.5
100
AcDbArc
 50
90.0
 51
180.0
  0
ARC
  5
163
100
AcDbEntity
  8
M0
100
AcDbCircle
 10
50.280049
 20
364.725369
 40
2.25
100
AcDbArc
 50
90.0
 51
270.0
  0
ARC
  5
164
100
AcDbEntity
  8
M0
100
AcDbCircle
 10
93.730049
 20
290.725369
 40
1.0
100
AcDbArc
 50
180.0
 51
270.0
  0
ARC
  5
165
100
AcDbEntity
  8
M0
100
AcDbCircle
 10
118.280049
 20
297.225369
 40
2.25
100
AcDbArc
 50
270.0
 51
355.815286
  0
ARC
  5
166
100
AcDbEntity
  8
M0
100
AcDbCircle
 10
50.730539
 20
367.275369
 40
0.3
100
AcDbArc
 50
270.0
 51
358.876481
  0
ARC
  5
167
100
AcDbEntity
  8
M0
100
AcDbCircle
 10
55.780049
 20
367.225369
 40
2.25
100
AcDbArc
 50
270.0
 51
450.0
  0
ARC
  5
168
100
AcDbEntity
  8
M0
100
AcDbCircle
 10
53.280049
 20
367.225369
 40
2.25
100
AcDbArc
 50
90.0
 51
178.876481
  0
ARC
  5
169
100
AcDbEntity
  8
M0
100
AcDbCircle
 10
67.530049
 20
378.225369
 40
0.5
100
AcDbArc
 50
0.0
 51
90.0
  0
ARC
  5
16A
100
AcDbEntity
  8
M0
100
AcDbCircle
 10
54.329559
 20
364.675369
 40
0.3
100
AcDbArc
 50
90.0
 51
178.876481
  0
LINE
  5
16B
100
AcDbEntity
  8
M0
100
AcDbLine
 10
56.53005
 20
337.425369
 11
56.53005
 21
327.025369
  0
LINE
  5
16C
100
AcDbEntity
  8
M0
100
AcDbLine
 10
115.030049
 20
337.425369
 11
115.030049
 21
327.025369
  0
LINE
  5
16D
100
AcDbEntity
  8
M0
100
AcDbLine
 10
61.230049
 20
294.725367
 11
61.230049
 21
309.325369
  0
LINE
  5
16E
100
AcDbEntity
  8
M0
100
AcDbLine
 10
57.53005
 20
326.025369
 11
58.53005
 21
326.025369
  0
LINE
  5
16F
100
AcDbEntity
  8
M0
100
AcDbLine
 10
58.53005
 20
333.625369
 11
58.53005
 21
333.725369
  0
LINE
  5
170
100
AcDbEntity
  8
M0
100
AcDbLine
 10
93.230049
 20
307.825369
 11
93.73005
 21
307.825369
  0
LINE
  5
171
100
AcDbEntity
  8
M0
100
AcDbLine
 10
114.030049
 20
326.025369
 11
113.030049
 21
326.025369
  0
LINE
  5
172
100
AcDbEntity
  8
M0
100
AcDbLine
 10
114.030049
 20
336.925369
 11
114.030049
 21
327.525369
  0
LINE
  5
173
100
AcDbEntity
  8
M0
100
AcDbLine
 10
57.53005
 20
336.925369
 11
57.53005
 21
327.525369
  0
LINE
  5
174
100
AcDbEntity
  8
M0
100
AcDbLine
 10
110.330049
 20
309.325369
 11
111.33005
 21
309.325369
  0
LINE
  5
175
100
AcDbEntity
  8
M0
100
AcDbLine
 10
95.43005
 20
307.825369
 11
95.93005
 21
307.825369
  0
LINE
  5
176
100
AcDbEntity
  8
M0
100
AcDbLine
 10
96.430049
 20
307.325368
 11
96.430049
 21
294.725367
  0
LINE
  5
177
100
AcDbEntity
  8
M0
100
AcDbLine
 10
110.330049
 20
294.725367
 11
110.330049
 21
309.325369
  0
ARC
  5
178
100
AcDbEntity
  8
M0
100
AcDbCircle
 10
57.530049
 20
327.025369
 40
1.0
100
AcDbArc
 50
180.0
 51
270.0
  0
ARC
  5
179
100
AcDbEntity
  8
M0
100
AcDbCircle
 10
75.630049
 20
357.125369
 40
0.5
100
AcDbArc
 50
180.0
 51
270.0
  0
ARC
  5
17A
100
AcDbEntity
  8
M0
100
AcDbCircle
 10
93.230049
 20
307.325369
 40
0.5
100
AcDbArc
 50
90.0
 51
180.0
  0
ARC
  5
17B
100
AcDbEntity
  8
M0
100
AcDbCircle
 10
103.130049
 20
292.725369
 40
3.5
100
AcDbArc
 50
138.21477
 51
180.0
  0
LINE
  5
17C
100
AcDbEntity
  8
M0
100
AcDbLine
 10
50.130049
 20
307.425368
 11
51.03005
 21
307.425368
  0
ARC
  5
17D
100
AcDbEntity
  8
M0
100
AcDbCircle
 10
57.530049
 20
337.425369
 40
1.0
100
AcDbArc
 50
90.0
 51
180.0
  0
ARC
  5
17E
100
AcDbEntity
  8
M0
100
AcDbCircle
 10
93.230049
 20
357.125369
 40
0.5
100
AcDbArc
 50
180.0
 51
270.0
  0
LINE
  5
17F
100
AcDbEntity
  8
M0
100
AcDbLine
 10
77.830049
 20
307.825369
 11
76.130049
 21
307.825369
  0
LINE
  5
180
100
AcDbEntity
  8
M0
100
AcDbLine
 10
76.130049
 20
307.825369
 11
75.630049
 21
307.825369
  0
ARC
  5
181
100
AcDbEntity
  8
M0
100
AcDbCircle
 10
95.930049
 20
357.125369
 40
0.5
100
AcDbArc
 50
270.0
 51
360.0
  0
ARC
  5
182
100
AcDbEntity
  8
M0
100
AcDbCircle
 10
78.330049
 20
357.125369
 40
0.5
100
AcDbArc
 50
270.0
 51
360.0
  0
LINE
  5
183
100
AcDbEntity
  8
M0
100
AcDbLine
 10
78.330049
 20
307.825369
 11
77.830049
 21
307.825369
  0
ARC
  5
184
100
AcDbEntity
  8
M0
100
AcDbCircle
 10
114.030049
 20
327.025369
 40
1.0
100
AcDbArc
 50
270.0
 51
360.0
  0
LINE
  5
185
100
AcDbEntity
  8
M0
100
AcDbLine
 10
113.030049
 20
338.425369
 11
114.030049
 21
338.425369
  0
LINE
  5
186
100
AcDbEntity
  8
M0
100
AcDbLine
 10
58.53005
 20
338.425369
 11
57.53005
 21
338.425369
  0
LINE
  5
187
100
AcDbEntity
  8
M0
100
AcDbLine
 10
95.930049
 20
356.625368
 11
93.230049
 21
356.625368
  0
ARC
  5
188
100
AcDbEntity
  8
M0
100
AcDbCircle
 10
114.030049
 20
337.425369
 40
1.0
100
AcDbArc
 50
0.0
 51
90.0
  0
CIRCLE
  5
189
100
AcDbEntity
  8
M0
100
AcDbCircle
 10
50.780049
 20
294.225369
 40
2.25
  0
ARC
  5
18A
100
AcDbEntity
  8
M0
100
AcDbCircle
 10
77.830049
 20
290.725369
 40
1.0
100
AcDbArc
 50
270.0
 51
360.0
  0
LINE
  5
18B
100
AcDbEntity
  8
M0
100
AcDbLine
 10
115.780049
 20
294.975368
 11
118.280048
 21
294.975368
  0
ARC
  5
18C
100
AcDbEntity
  8
M0
100
AcDbCircle
 10
112.030049
 20
290.725369
 40
1.0
100
AcDbArc
 50
270.0
 51
360.0
  0
LINE
  5
18D
100
AcDbEntity
  8
M0
100
AcDbLine
 10
75.13005
 20
368.725368
 11
61.230049
 21
368.725368
  0
CIRCLE
  5
18E
100
AcDbEntity
  8
M0
100
AcDbCircle
 10
120.780049
 20
369.225369
 40
2.25
  0
ARC
  5
18F
100
AcDbEntity
  8
M0
100
AcDbCircle
 10
83.530049
 20
336.494323
 40
0.5
100
AcDbArc
 50
0.0
 51
90.0
  0
LINE
  5
190
100
AcDbEntity
  8
M0
100
AcDbLine
 10
83.530049
 20
336.994323
 11
80.980049
 21
336.994323
  0
LINE
  5
191
100
AcDbEntity
  8
M0
100
AcDbLine
 10
90.580049
 20
336.994323
 11
88.030049
 21
336.994323
  0
LINE
  5
192
100
AcDbEntity
  8
M0
100
AcDbLine
 10
112.030048
 20
339.425369
 11
112.030048
 21
336.725369
  0
LINE
  5
193
100
AcDbEntity
  8
M0
100
AcDbLine
 10
59.53005
 20
336.725369
 11
58.53005
 21
336.725369
  0
LINE
  5
194
100
AcDbEntity
  8
M0
100
AcDbLine
 10
112.030048
 20
327.725369
 11
112.030048
 21
325.025369
  0
LINE
  5
195
100
AcDbEntity
  8
M0
100
AcDbLine
 10
113.030049
 20
327.725369
 11
112.030048
 21
327.725369
  0
LINE
  5
196
100
AcDbEntity
  8
M0
100
AcDbLine
 10
58.53005
 20
330.725369
 11
58.53005
 21
327.525369
  0
LINE
  5
197
100
AcDbEntity
  8
M0
100
AcDbLine
 10
59.53005
 20
339.425369
 11
59.53005
 21
336.725369
  0
LINE
  5
198
100
AcDbEntity
  8
M0
100
AcDbLine
 10
112.030048
 20
330.725369
 11
113.030049
 21
330.725369
  0
LINE
  5
199
100
AcDbEntity
  8
M0
100
AcDbLine
 10
80.880049
 20
342.425369
 11
80.880049
 21
341.925369
  0
LINE
  5
19A
100
AcDbEntity
  8
M0
100
AcDbLine
 10
59.53005
 20
333.725369
 11
59.53005
 21
330.725369
  0
LINE
  5
19B
100
AcDbEntity
  8
M0
100
AcDbLine
 10
113.030049
 20
330.825369
 11
113.030049
 21
327.525369
  0
LINE
  5
19C
100
AcDbEntity
  8
M0
100
AcDbLine
 10
80.880049
 20
342.425369
 11
90.680049
 21
342.425369
  0
LINE
  5
19D
100
AcDbEntity
  8
M0
100
AcDbLine
 10
59.53005
 20
327.725369
 11
59.53005
 21
325.025369
  0
LINE
  5
19E
100
AcDbEntity
  8
M0
100
AcDbLine
 10
90.680049
 20
341.925369
 11
80.880049
 21
341.925369
  0
LINE
  5
19F
100
AcDbEntity
  8
M0
100
AcDbLine
 10
112.030048
 20
336.725369
 11
113.030049
 21
336.725369
  0
LINE
  5
1A0
100
AcDbEntity
  8
M0
100
AcDbLine
 10
58.53005
 20
333.725369
 11
59.53005
 21
333.725369
  0
LINE
  5
1A1
100
AcDbEntity
  8
M0
100
AcDbLine
 10
59.53005
 20
339.425369
 11
59.030049
 21
339.425369
  0
LINE
  5
1A2
100
AcDbEntity
  8
M0
100
AcDbLine
 10
112.030048
 20
333.725369
 11
112.030048
 21
330.725369
  0
LINE
  5
1A3
100
AcDbEntity
  8
M0
100
AcDbLine
 10
58.53005
 20
336.925369
 11
58.53005
 21
333.725369
  0
LINE
  5
1A4
100
AcDbEntity
  8
M0
100
AcDbLine
 10
113.030049
 20
333.725369
 11
112.030048
 21
333.725369
  0
LINE
  5
1A5
100
AcDbEntity
  8
M0
100
AcDbLine
 10
113.030049
 20
336.925369
 11
113.030049
 21
333.625369
  0
LINE
  5
1A6
100
AcDbEntity
  8
M0
100
AcDbLine
 10
112.530049
 20
339.425369
 11
112.030048
 21
339.425369
  0
ARC
  5
1A7
100
AcDbEntity
  8
M0
100
AcDbCircle
 10
88.030049
 20
336.494323
 40
0.5
100
AcDbArc
 50
90.0
 51
180.0
  0
ARC
  5
1A8
100
AcDbEntity
  8
M0
100
AcDbCircle
 10
77.380049
 20
342.425369
 40
1.0
100
AcDbArc
 50
90.0
 51
180.0
  0
ARC
  5
1A9
100
AcDbEntity
  8
M0
100
AcDbCircle
 10
94.180049
 20
342.425369
 40
1.0
100
AcDbArc
 50
0.0
 51
90.0
  0
ARC
  5
1AA
100
AcDbEntity
  8
M0
100
AcDbCircle
 10
112.030049
 20
353.925369
 40
1.0
100
AcDbArc
 50
0.0
 51
90.0
  0
ARC
  5
1AB
100
AcDbEntity
  8
M0
100
AcDbCircle
 10
77.380049
 20
322.025369
 40
1.0
100
AcDbArc
 50
180.0
 51
270.0
  0
ARC
  5
1AC
100
AcDbEntity
  8
M0
100
AcDbCircle
 10
79.280049
 20
317.725369
 40
0.5
100
AcDbArc
 50
270.0
 51
360.0
  0
ARC
  5
1AD
100
AcDbEntity
  8
M0
100
AcDbCircle
 10
94.280049
 20
318.725369
 40
0.5
100
AcDbArc
 50
0.0
 51
90.0
  0
ARC
  5
1AE
100
AcDbEntity
  8
M0
100
AcDbCircle
 10
94.280049
 20
317.725369
 40
0.5
100
AcDbArc
 50
270.0
 51
360.0
  0
ARC
  5
1AF
100
AcDbEntity
  8
M0
100
AcDbCircle
 10
79.280049
 20
318.725369
 40
0.5
100
AcDbArc
 50
0.0
 51
90.0
  0
ARC
  5
1B0
100
AcDbEntity
  8
M0
100
AcDbCircle
 10
77.280049
 20
317.725369
 40
0.5
100
AcDbArc
 50
180.0
 51
270.0
  0
ARC
  5
1B1
100
AcDbEntity
  8
M0
100
AcDbCircle
 10
92.280049
 20
318.725369
 40
0.5
100
AcDbArc
 50
90.0
 51
180.0
  0
ARC
  5
1B2
100
AcDbEntity
  8
M0
100
AcDbCircle
 10
92.280049
 20
317.725369
 40
0.5
100
AcDbArc
 50
180.0
 51
270.0
  0
ARC
  5
1B3
100
AcDbEntity
  8
M0
100
AcDbCircle
 10
94.180049
 20
322.025369
 40
1.0
100
AcDbArc
 50
270.0
 51
360.0
  0
ARC
  5
1B4
100
AcDbEntity
  8
M0
100
AcDbCircle
 10
77.280049
 20
318.725369
 40
0.5
100
AcDbArc
 50
90.0
 51
180.0
  0
LINE
  5
1B5
100
AcDbEntity
  8
M0
100
AcDbLine
 10
79.280049
 20
319.225369
 11
77.280049
 21
319.225369
  0
LINE
  5
1B6
100
AcDbEntity
  8
M0
100
AcDbLine
 10
105.73005
 20
375.525368
 11
106.230049
 21
375.525368
  0
LINE
  5
1B7
100
AcDbEntity
  8
M0
100
AcDbLine
 10
77.380049
 20
343.425369
 11
79.880049
 21
343.425369
  0
LINE
  5
1B8
100
AcDbEntity
  8
M0
100
AcDbLine
 10
91.780049
 20
317.725369
 11
91.780049
 21
318.725369
  0
LINE
  5
1B9
100
AcDbEntity
  8
M0
100
AcDbLine
 10
106.230049
 20
377.225371
 11
105.230049
 21
377.225371
  0
LINE
  5
1BA
100
AcDbEntity
  8
M0
100
AcDbLine
 10
106.230049
 20
370.225368
 11
105.73005
 21
370.225368
  0
LINE
  5
1BB
100
AcDbEntity
  8
M0
100
AcDbLine
 10
68.030049
 20
377.725368
 11
68.030049
 21
378.225369
  0
LINE
  5
1BC
100
AcDbEntity
  8
M0
100
AcDbLine
 10
65.330049
 20
370.225368
 11
65.830049
 21
370.225368
  0
LINE
  5
1BD
100
AcDbEntity
  8
M0
100
AcDbLine
 10
103.53005
 20
377.725368
 11
103.53005
 21
378.225369
  0
LINE
  5
1BE
100
AcDbEntity
  8
M0
100
AcDbLine
 10
94.780049
 20
318.725369
 11
94.780049
 21
317.725369
  0
LINE
  5
1BF
100
AcDbEntity
  8
M0
100
AcDbLine
 10
90.680049
 20
342.425369
 11
90.680049
 21
341.925369
  0
LINE
  5
1C0
100
AcDbEntity
  8
M0
100
AcDbLine
 10
59.53005
 20
354.925369
 11
112.030048
 21
354.925369
  0
LINE
  5
1C1
100
AcDbEntity
  8
M0
100
AcDbLine
 10
50.280048
 20
315.575368
 11
50.280048
 21
322.075369
  0
LINE
  5
1C2
100
AcDbEntity
  8
M0
100
AcDbLine
 10
79.780049
 20
317.725369
 11
79.780049
 21
318.725369
  0
LINE
  5
1C3
100
AcDbEntity
  8
M0
100
AcDbLine
 10
92.280049
 20
319.225369
 11
94.28005
 21
319.225369
  0
LINE
  5
1C4
100
AcDbEntity
  8
M0
100
AcDbLine
 10
76.78005
 20
318.725369
 11
76.78005
 21
317.725369
  0
LINE
  5
1C5
100
AcDbEntity
  8
M0
100
AcDbLine
 10
94.28005
 20
317.225369
 11
92.280049
 21
317.225369
  0
LINE
  5
1C6
100
AcDbEntity
  8
M0
100
AcDbLine
 10
77.280049
 20
317.225369
 11
79.280049
 21
317.225369
  0
LINE
  5
1C7
100
AcDbEntity
  8
M0
100
AcDbLine
 10
88.780049
 20
344.425369
 11
88.780049
 21
346.025369
  0
LINE
  5
1C8
100
AcDbEntity
  8
M0
100
AcDbLine
 10
88.780049
 20
346.025369
 11
82.780049
 21
346.025369
  0
LINE
  5
1C9
100
AcDbEntity
  8
M0
100
AcDbLine
 10
82.780049
 20
344.425369
 11
82.780049
 21
346.025369
  0
LINE
  5
1CA
100
AcDbEntity
  8
M0
100
AcDbLine
 10
82.780049
 20
344.425369
 11
88.780049
 21
344.425369
  0
LINE
  5
1CB
100
AcDbEntity
  8
M0
100
AcDbLine
 10
76.380049
 20
322.025369
 11
76.380049
 21
342.425369
  0
LINE
  5
1CC
100
AcDbEntity
  8
M0
100
AcDbLine
 10
77.380049
 20
321.025369
 11
94.180049
 21
321.025369
  0
LINE
  5
1CD
100
AcDbEntity
  8
M0
100
AcDbLine
 10
95.180049
 20
322.025369
 11
95.180049
 21
342.425369
  0
ARC
  5
1CE
100
AcDbEntity
  8
M0
100
AcDbCircle
 10
59.030049
 20
339.925369
 40
0.5
100
AcDbArc
 50
180.0
 51
270.0
  0
ARC
  5
1CF
100
AcDbEntity
  8
M0
100
AcDbCircle
 10
112.530049
 20
339.925369
 40
0.5
100
AcDbArc
 50
270.0
 51
360.0
  0
ARC
  5
1D0
100
AcDbEntity
  8
M0
100
AcDbCircle
 10
91.680049
 20
342.425369
 40
1.0
100
AcDbArc
 50
90.0
 51
180.0
  0
ARC
  5
1D1
100
AcDbEntity
  8
M0
100
AcDbCircle
 10
68.180048
 20
372.475369
 40
4.25
100
AcDbArc
 50
241.927521
 51
270.0
  0
ARC
  5
1D2
100
AcDbEntity
  8
M0
100
AcDbCircle
 10
79.880049
 20
342.425369
 40
1.0
100
AcDbArc
 50
0.0
 51
90.0
  0
ARC
  5
1D3
100
AcDbEntity
  8
M0
100
AcDbCircle
 10
68.180048
 20
372.475369
 40
4.25
100
AcDbArc
 50
241.927521
 51
298.072495
  0
LINE
  5
1D4
100
AcDbEntity
  8
M0
100
AcDbLine
 10
94.180049
 20
343.425369
 11
91.680049
 21
343.425369
  0
ARC
  5
1D5
100
AcDbEntity
  8
M0
100
AcDbCircle
 10
59.530049
 20
353.925369
 40
1.0
100
AcDbArc
 50
90.0
 51
180.0
  0
LINE
  5
1D6
100
AcDbEntity
  8
M0
100
AcDbLine
 10
57.280049
 20
315.075369
 11
50.780049
 21
315.075369
  0
LINE
  5
1D7
100
AcDbEntity
  8
M0
100
AcDbLine
 10
114.280049
 20
349.375369
 11
120.780049
 21
349.375369
  0
LINE
  5
1D8
100
AcDbEntity
  8
M0
100
AcDbLine
 10
120.780049
 20
341.875369
 11
114.280049
 21
341.875369
  0
LINE
  5
1D9
100
AcDbEntity
  8
M0
100
AcDbLine
 10
121.28005
 20
348.875369
 11
121.28005
 21
342.375369
  0
ARC
  5
1DA
100
AcDbEntity
  8
M0
100
AcDbCircle
 10
120.780049
 20
314.475369
 40
0.5
100
AcDbArc
 50
0.0
 51
90.0
  0
ARC
  5
1DB
100
AcDbEntity
  8
M0
100
AcDbCircle
 10
120.78005
 20
307.975369
 40
0.5
100
AcDbArc
 50
270.0
 51
360.0
  0
ARC
  5
1DC
100
AcDbEntity
  8
M0
100
AcDbCircle
 10
114.280049
 20
342.375369
 40
0.5
100
AcDbArc
 50
180.0
 51
270.0
  0
ARC
  5
1DD
100
AcDbEntity
  8
M0
100
AcDbCircle
 10
120.780049
 20
342.375369
 40
0.5
100
AcDbArc
 50
270.0
 51
360.0
  0
ARC
  5
1DE
100
AcDbEntity
  8
M0
100
AcDbCircle
 10
114.280049
 20
314.475368
 40
0.5
100
AcDbArc
 50
90.0
 51
180.0
  0
ARC
  5
1DF
100
AcDbEntity
  8
M0
100
AcDbCircle
 10
120.780049
 20
348.875369
 40
0.5
100
AcDbArc
 50
0.0
 51
90.0
  0
ARC
  5
1E0
100
AcDbEntity
  8
M0
100
AcDbCircle
 10
114.280049
 20
348.875369
 40
0.5
100
AcDbArc
 50
90.0
 51
180.0
  0
ARC
  5
1E1
100
AcDbEntity
  8
M0
100
AcDbCircle
 10
50.780049
 20
315.575369
 40
0.5
100
AcDbArc
 50
180.0
 51
270.0
  0
LINE
  5
1E2
100
AcDbEntity
  8
M0
100
AcDbLine
 10
113.78005
 20
342.375369
 11
113.78005
 21
348.875369
  0
LINE
  5
1E3
100
AcDbEntity
  8
M0
  6
DASHDOT
100
AcDbLine
 10
129.230048
 20
332.225369
 11
42.33005
 21
332.225369
  0
LINE
  5
1E4
100
AcDbEntity
  8
M0
  6
DASHDOT
100
AcDbLine
 10
85.780049
 20
284.725368
 11
85.780049
 21
383.72537
  0
ARC
  5
1E5
100
AcDbEntity
  8
M0
100
AcDbCircle
 10
80.980049
 20
336.494323
 40
0.5
100
AcDbArc
 50
90.0
 51
180.0
  0
ARC
  5
1E6
100
AcDbEntity
  8
M0
100
AcDbCircle
 10
90.580049
 20
336.494323
 40
0.5
100
AcDbArc
 50
0.0
 51
90.0
  0
LINE
  5
1E7
100
AcDbEntity
  8
M0
100
AcDbLine
 10
57.280049
 20
341.875369
 11
50.78005
 21
341.875369
  0
LINE
  5
1E8
100
AcDbEntity
  8
M0
100
AcDbLine
 10
50.780049
 20
349.375369
 11
57.280049
 21
349.375369
  0
LINE
  5
1E9
100
AcDbEntity
  8
M0
100
AcDbLine
 10
57.780048
 20
322.075368
 11
57.780048
 21
315.575369
  0
LINE
  5
1EA
100
AcDbEntity
  8
M0
100
AcDbLine
 10
120.780049
 20
315.075369
 11
114.28005
 21
315.075369
  0
LINE
  5
1EB
100
AcDbEntity
  8
M0
100
AcDbLine
 10
50.780049
 20
322.575369
 11
57.280049
 21
322.575369
  0
ARC
  5
1EC
100
AcDbEntity
  8
M0
100
AcDbCircle
 10
57.280049
 20
348.875369
 40
0.5
100
AcDbArc
 50
0.0
 51
90.0
  0
ARC
  5
1ED
100
AcDbEntity
  8
M0
100
AcDbCircle
 10
57.280049
 20
322.075369
 40
0.5
100
AcDbArc
 50
0.0
 51
90.0
  0
ARC
  5
1EE
100
AcDbEntity
  8
M0
100
AcDbCircle
 10
57.280049
 20
315.575369
 40
0.5
100
AcDbArc
 50
270.0
 51
360.0
  0
ARC
  5
1EF
100
AcDbEntity
  8
M0
100
AcDbCircle
 10
50.780049
 20
322.075369
 40
0.5
100
AcDbArc
 50
90.0
 51
180.0
  0
ARC
  5
1F0
100
AcDbEntity
  8
M0
100
AcDbCircle
 10
50.780049
 20
348.875368
 40
0.5
100
AcDbArc
 50
90.0
 51
180.0
  0
ARC
  5
1F1
100
AcDbEntity
  8
M0
100
AcDbCircle
 10
50.78005
 20
342.375368
 40
0.5
100
AcDbArc
 50
180.0
 51
270.0
  0
ARC
  5
1F2
100
AcDbEntity
  8
M0
100
AcDbCircle
 10
50.78005
 20
342.375368
 40
0.5
100
AcDbArc
 50
180.0
 51
270.0
  0
ARC
  5
1F3
100
AcDbEntity
  8
M0
100
AcDbCircle
 10
57.28005
 20
342.375369
 40
0.5
100
AcDbArc
 50
270.0
 51
360.0
  0
LINE
  5
1F4
100
AcDbEntity
  8
M0
100
AcDbLine
 10
121.28005
 20
315.57537
 11
121.28005
 21
322.075369
  0
LINE
  5
1F5
100
AcDbEntity
  8
M0
100
AcDbLine
 10
114.280049
 20
322.575369
 11
120.780049
 21
322.575369
  0
LINE
  5
1F6
100
AcDbEntity
  8
M0
100
AcDbLine
 10
57.280049
 20
307.475369
 11
50.780049
 21
307.475369
  0
ARC
  5
1F7
100
AcDbEntity
  8
M0
100
AcDbCircle
 10
120.780049
 20
322.075369
 40
0.5
100
AcDbArc
 50
0.0
 51
90.0
  0
ARC
  5
1F8
100
AcDbEntity
  8
M0
100
AcDbCircle
 10
50.780049
 20
348.875368
 40
0.5
100
AcDbArc
 50
90.0
 51
180.0
  0
ARC
  5
1F9
100
AcDbEntity
  8
M0
100
AcDbCircle
 10
114.28005
 20
315.575368
 40
0.5
100
AcDbArc
 50
180.0
 51
270.0
  0
ARC
  5
1FA
100
AcDbEntity
  8
M0
100
AcDbCircle
 10
114.280049
 20
322.075368
 40
0.5
100
AcDbArc
 50
90.0
 51
180.0
  0
ARC
  5
1FB
100
AcDbEntity
  8
M0
100
AcDbCircle
 10
120.780049
 20
322.075369
 40
0.5
100
AcDbArc
 50
0.0
 51
90.0
  0
ARC
  5
1FC
100
AcDbEntity
  8
M0
100
AcDbCircle
 10
120.78005
 20
315.575369
 40
0.5
100
AcDbArc
 50
270.0
 51
360.0
  0
ARC
  5
1FD
100
AcDbEntity
  8
M0
100
AcDbCircle
 10
120.78005
 20
315.575369
 40
0.5
100
AcDbArc
 50
270.0
 51
360.0
  0
LINE
  5
1FE
100
AcDbEntity
  8
M0
100
AcDbLine
 10
50.280048
 20
348.875368
 11
50.280048
 21
342.375368
  0
LINE
  5
1FF
100
AcDbEntity
  8
M0
100
AcDbLine
 10
121.28005
 20
314.475369
 11
121.28005
 21
307.975369
  0
LINE
  5
200
100
AcDbEntity
  8
M0
100
AcDbLine
 10
113.78005
 20
307.975368
 11
113.78005
 21
314.475368
  0
LINE
  5
201
100
AcDbEntity
  8
M0
100
AcDbLine
 10
114.280049
 20
314.975369
 11
120.780049
 21
314.975369
  0
LINE
  5
202
100
AcDbEntity
  8
M0
100
AcDbLine
 10
120.78005
 20
307.475369
 11
114.280049
 21
307.475369
  0
ARC
  5
203
100
AcDbEntity
  8
M0
100
AcDbCircle
 10
57.880049
 20
293.225369
 40
0.5
100
AcDbArc
 50
180.0
 51
270.0
  0
LINE
  5
204
100
AcDbEntity
  8
M0
100
AcDbLine
 10
113.78005
 20
315.575368
 11
113.78005
 21
322.075368
  0
ARC
  5
205
100
AcDbEntity
  8
M0
100
AcDbCircle
 10
114.230049
 20
371.725369
 40
2.0
100
AcDbArc
 50
90.0
 51
126.869898
  0
ARC
  5
206
100
AcDbEntity
  8
M0
100
AcDbCircle
 10
57.330049
 20
371.725369
 40
2.0
100
AcDbArc
 50
53.130102
 51
90.0
  0
LINE
  5
207
100
AcDbEntity
  8
M0
100
AcDbLine
 10
50.780049
 20
314.975369
 11
57.280049
 21
314.975369
  0
ARC
  5
208
100
AcDbEntity
  8
M0
100
AcDbCircle
 10
50.780049
 20
307.975369
 40
0.5
100
AcDbArc
 50
180.0
 51
270.0
  0
ARC
  5
209
100
AcDbEntity
  8
M0
100
AcDbCircle
 10
57.280049
 20
307.975369
 40
0.5
100
AcDbArc
 50
270.0
 51
360.0
  0
ARC
  5
20A
100
AcDbEntity
  8
M0
100
AcDbCircle
 10
66.580049
 20
369.575369
 40
0.5
100
AcDbArc
 50
180.0
 51
270.0
  0
ARC
  5
20B
100
AcDbEntity
  8
M0
100
AcDbCircle
 10
73.080049
 20
369.575369
 40
0.5
100
AcDbArc
 50
270.0
 51
360.0
  0
ARC
  5
20C
100
AcDbEntity
  8
M0
100
AcDbCircle
 10
50.780049
 20
314.475369
 40
0.5
100
AcDbArc
 50
90.0
 51
180.0
  0
ARC
  5
20D
100
AcDbEntity
  8
M0
100
AcDbCircle
 10
73.080049
 20
376.075369
 40
0.5
100
AcDbArc
 50
0.0
 51
90.0
  0
ARC
  5
20E
100
AcDbEntity
  8
M0
100
AcDbCircle
 10
114.28005
 20
307.975368
 40
0.5
100
AcDbArc
 50
180.0
 51
270.0
  0
ARC
  5
20F
100
AcDbEntity
  8
M0
100
AcDbCircle
 10
120.780049
 20
314.475369
 40
0.5
100
AcDbArc
 50
0.0
 51
90.0
  0
ARC
  5
210
100
AcDbEntity
  8
M0
100
AcDbCircle
 10
112.030049
 20
373.725369
 40
1.0
100
AcDbArc
 50
0.0
 51
90.0
  0
ARC
  5
211
100
AcDbEntity
  8
M0
100
AcDbCircle
 10
57.280049
 20
314.475369
 40
0.5
100
AcDbArc
 50
0.0
 51
90.0
  0
ARC
  5
212
100
AcDbEntity
  8
M0
100
AcDbCircle
 10
120.78005
 20
307.975369
 40
0.5
100
AcDbArc
 50
270.0
 51
360.0
  0
LINE
  5
213
100
AcDbEntity
  8
M0
100
AcDbLine
 10
66.080049
 20
369.575368
 11
66.080049
 21
376.075369
  0
LINE
  5
214
100
AcDbEntity
  8
M0
100
AcDbLine
 10
73.080049
 20
369.075371
 11
66.580049
 21
369.075371
  0
LINE
  5
215
100
AcDbEntity
  8
M0
100
AcDbLine
 10
121.28005
 20
356.47537
 11
121.28005
 21
349.975369
  0
LINE
  5
216
100
AcDbEntity
  8
M0
100
AcDbLine
 10
50.280048
 20
307.975368
 11
50.280048
 21
314.475369
  0
LINE
  5
217
100
AcDbEntity
  8
M0
100
AcDbLine
 10
57.780048
 20
314.475369
 11
57.780048
 21
307.975368
  0
LINE
  5
218
100
AcDbEntity
  8
M0
100
AcDbLine
 10
73.580049
 20
376.075369
 11
73.580049
 21
369.575368
  0
LINE
  5
219
100
AcDbEntity
  8
M0
100
AcDbLine
 10
114.280049
 20
356.975369
 11
120.780049
 21
356.975369
  0
LINE
  5
21A
100
AcDbEntity
  8
M0
100
AcDbLine
 10
113.78005
 20
349.975369
 11
113.78005
 21
356.475369
  0
LINE
  5
21B
100
AcDbEntity
  8
M0
100
AcDbLine
 10
120.780049
 20
349.475368
 11
114.280049
 21
349.475368
  0
LINE
  5
21C
100
AcDbEntity
  8
M0
100
AcDbLine
 10
66.580049
 20
376.575367
 11
73.080049
 21
376.575367
  0
LINE
  5
21D
100
AcDbEntity
  8
M0
100
AcDbLine
 10
97.98005
 20
369.575368
 11
97.980046
 21
376.075368
  0
LINE
  5
21E
100
AcDbEntity
  8
M0
100
AcDbLine
 10
110.330049
 20
290.72537
 11
110.330049
 21
292.725367
  0
LINE
  5
21F
100
AcDbEntity
  8
M0
100
AcDbLine
 10
75.13005
 20
292.725367
 11
75.13005
 21
290.72537
  0
LINE
  5
220
100
AcDbEntity
  8
M0
100
AcDbLine
 10
122.430047
 20
312.12537
 11
122.530049
 21
312.12537
  0
LINE
  5
221
100
AcDbEntity
  8
M0
100
AcDbLine
 10
122.530049
 20
352.325368
 11
122.430047
 21
352.325368
  0
LINE
  5
222
100
AcDbEntity
  8
M0
100
AcDbLine
 10
49.030049
 20
352.325368
 11
49.130051
 21
352.325368
  0
LINE
  5
223
100
AcDbEntity
  8
M0
100
AcDbLine
 10
49.130051
 20
312.12537
 11
49.030049
 21
312.12537
  0
LINE
  5
224
100
AcDbEntity
  8
M0
100
AcDbLine
 10
104.98005
 20
369.075367
 11
98.48005
 21
369.075367
  0
LINE
  5
225
100
AcDbEntity
  8
M0
100
AcDbLine
 10
50.280048
 20
356.475368
 11
50.280048
 21
349.975368
  0
LINE
  5
226
100
AcDbEntity
  8
M0
100
AcDbLine
 10
57.78005
 20
356.475369
 11
57.78005
 21
349.975369
  0
ARC
  5
227
100
AcDbEntity
  8
M0
100
AcDbCircle
 10
68.430049
 20
292.725369
 40
2.65
100
AcDbArc
 50
324.234014
 51
350.223151
  0
ARC
  5
228
100
AcDbEntity
  8
M0
100
AcDbCircle
 10
98.480049
 20
376.075368
 40
0.5
100
AcDbArc
 50
90.0
 51
180.0
  0
ARC
  5
229
100
AcDbEntity
  8
M0
100
AcDbCircle
 10
50.78005
 20
349.975368
 40
0.5
100
AcDbArc
 50
180.0
 51
270.0
  0
ARC
  5
22A
100
AcDbEntity
  8
M0
100
AcDbCircle
 10
98.48005
 20
369.575368
 40
0.5
100
AcDbArc
 50
180.0
 51
270.0
  0
ARC
  5
22B
100
AcDbEntity
  8
M0
100
AcDbCircle
 10
104.98005
 20
369.575369
 40
0.5
100
AcDbArc
 50
270.0
 51
360.0
  0
ARC
  5
22C
100
AcDbEntity
  8
M0
100
AcDbCircle
 10
50.780049
 20
356.475368
 40
0.5
100
AcDbArc
 50
90.0
 51
180.0
  0
ARC
  5
22D
100
AcDbEntity
  8
M0
100
AcDbCircle
 10
104.980049
 20
376.075369
 40
0.5
100
AcDbArc
 50
0.0
 51
90.0
  0
LINE
  5
22E
100
AcDbEntity
  8
M0
100
AcDbLine
 10
105.480049
 20
369.575368
 11
105.480049
 21
376.075369
  0
LINE
  5
22F
100
AcDbEntity
  8
M0
100
AcDbLine
 10
98.480049
 20
376.575371
 11
104.980048
 21
376.575371
  0
ARC
  5
230
100
AcDbEntity
  8
M0
100
AcDbCircle
 10
57.28005
 20
349.975369
 40
0.5
100
AcDbArc
 50
270.0
 51
360.0
  0
ARC
  5
231
100
AcDbEntity
  8
M0
100
AcDbCircle
 10
57.280049
 20
356.475369
 40
0.5
100
AcDbArc
 50
0.0
 51
90.0
  0
ARC
  5
232
100
AcDbEntity
  8
M0
100
AcDbCircle
 10
104.98005
 20
369.575369
 40
0.5
100
AcDbArc
 50
270.0
 51
360.0
  0
ARC
  5
233
100
AcDbEntity
  8
M0
100
AcDbCircle
 10
66.580049
 20
376.075369
 40
0.5
100
AcDbArc
 50
90.0
 51
180.0
  0
ARC
  5
234
100
AcDbEntity
  8
M0
100
AcDbCircle
 10
114.280049
 20
356.475369
 40
0.5
100
AcDbArc
 50
90.0
 51
180.0
  0
LINE
  5
235
100
AcDbEntity
  8
M0
100
AcDbLine
 10
57.280049
 20
349.47537
 11
50.78005
 21
349.475363
  0
ARC
  5
236
100
AcDbEntity
  8
M0
100
AcDbCircle
 10
120.780049
 20
349.975369
 40
0.5
100
AcDbArc
 50
270.0
 51
360.0
  0
ARC
  5
237
100
AcDbEntity
  8
M0
100
AcDbCircle
 10
104.980049
 20
376.075369
 40
0.5
100
AcDbArc
 50
0.0
 51
90.0
  0
ARC
  5
238
100
AcDbEntity
  8
M0
100
AcDbCircle
 10
120.780049
 20
356.475369
 40
0.5
100
AcDbArc
 50
0.0
 51
90.0
  0
ARC
  5
239
100
AcDbEntity
  8
M0
100
AcDbCircle
 10
50.780049
 20
356.475368
 40
0.5
100
AcDbArc
 50
90.0
 51
180.0
  0
ARC
  5
23A
100
AcDbEntity
  8
M0
100
AcDbCircle
 10
50.78005
 20
349.975368
 40
0.5
100
AcDbArc
 50
180.0
 51
270.0
  0
ARC
  5
23B
100
AcDbEntity
  8
M0
100
AcDbCircle
 10
114.280049
 20
349.975369
 40
0.5
100
AcDbArc
 50
180.0
 51
270.0
  0
LINE
  5
23C
100
AcDbEntity
  8
M0
100
AcDbLine
 10
110.330049
 20
309.325369
 11
110.330049
 21
309.525368
  0
LINE
  5
23D
100
AcDbEntity
  8
M0
100
AcDbLine
 10
110.330049
 20
354.925369
 11
110.330049
 21
355.125369
  0
LINE
  5
23E
100
AcDbEntity
  8
M0
100
AcDbLine
 10
49.130051
 20
359.575368
 11
48.330049
 21
359.575368
  0
LINE
  5
23F
100
AcDbEntity
  8
M0
100
AcDbLine
 10
122.430047
 20
359.575368
 11
123.23005
 21
359.575368
  0
LINE
  5
240
100
AcDbEntity
  8
M0
100
AcDbLine
 10
61.230049
 20
309.325369
 11
61.230049
 21
309.525368
  0
LINE
  5
241
100
AcDbEntity
  8
M0
100
AcDbLine
 10
78.830049
 20
309.525368
 11
78.830049
 21
290.725369
  0
LINE
  5
242
100
AcDbEntity
  8
M0
100
AcDbLine
 10
50.130049
 20
336.925369
 11
50.130049
 21
358.57537
  0
LINE
  5
243
100
AcDbEntity
  8
M0
100
AcDbLine
 10
57.930049
 20
323.035689
 11
57.930049
 21
305.475369
  0
LINE
  5
244
100
AcDbEntity
  8
M0
100
AcDbLine
 10
57.930049
 20
358.975369
 11
57.930049
 21
341.413615
  0
LINE
  5
245
100
AcDbEntity
  8
M0
100
AcDbLine
 10
113.630049
 20
341.525369
 11
121.430049
 21
341.525369
  0
LINE
  5
246
100
AcDbEntity
  8
M0
100
AcDbLine
 10
123.23005
 20
304.87537
 11
122.430047
 21
304.87537
  0
LINE
  5
247
100
AcDbEntity
  8
M0
100
AcDbLine
 10
117.93005
 20
335.925369
 11
117.93005
 21
328.525369
  0
ARC
  5
248
100
AcDbEntity
  8
M0
100
AcDbCircle
 10
110.588058
 20
321.631327
 40
3.350514
100
AcDbArc
 50
24.780822
 51
43.210715
  0
ARC
  5
249
100
AcDbEntity
  8
M0
100
AcDbCircle
 10
48.330049
 20
313.125369
 40
1.0
100
AcDbArc
 50
180.0
 51
270.0
  0
ARC
  5
24A
100
AcDbEntity
  8
M0
100
AcDbCircle
 10
122.430049
 20
358.575369
 40
1.0
100
AcDbArc
 50
90.0
 51
180.0
  0
ARC
  5
24B
100
AcDbEntity
  8
M0
100
AcDbCircle
 10
108.733181
 20
344.074625
 40
5.573176
100
AcDbArc
 50
320.442941
 51
331.479874
  0
ARC
  5
24C
100
AcDbEntity
  8
M0
100
AcDbCircle
 10
62.826917
 20
344.074625
 40
5.573176
100
AcDbArc
 50
208.520126
 51
219.557059
  0
ARC
  5
24D
100
AcDbEntity
  8
M0
100
AcDbCircle
 10
58.530049
 20
351.725369
 40
0.6
100
AcDbArc
 50
90.0
 51
180.0
  0
ARC
  5
24E
100
AcDbEntity
  8
M0
100
AcDbCircle
 10
113.030049
 20
351.725369
 40
0.6
100
AcDbArc
 50
0.0
 51
90.0
  0
ARC
  5
24F
100
AcDbEntity
  8
M0
100
AcDbCircle
 10
48.330049
 20
358.575369
 40
1.0
100
AcDbArc
 50
90.0
 51
180.0
  0
ARC
  5
250
100
AcDbEntity
  8
M0
100
AcDbCircle
 10
49.130049
 20
358.575369
 40
1.0
100
AcDbArc
 50
0.0
 51
90.0
  0
ARC
  5
251
100
AcDbEntity
  8
M0
100
AcDbCircle
 10
122.430049
 20
305.875369
 40
1.0
100
AcDbArc
 50
180.0
 51
270.0
  0
LINE
  5
252
100
AcDbEntity
  8
M0
100
AcDbLine
 10
123.23005
 20
312.12537
 11
122.430047
 21
312.12537
  0
LINE
  5
253
100
AcDbEntity
  8
M0
100
AcDbLine
 10
48.330049
 20
312.12537
 11
49.130051
 21
312.12537
  0
LINE
  5
254
100
AcDbEntity
  8
M0
100
AcDbLine
 10
53.630049
 20
335.925369
 11
53.630049
 21
328.525369
  0
LINE
  5
255
100
AcDbEntity
  8
M0
100
AcDbLine
 10
84.030049
 20
329.525369
 11
84.030049
 21
336.472875
  0
LINE
  5
256
100
AcDbEntity
  8
M0
100
AcDbLine
 10
91.080049
 20
336.925369
 11
91.080049
 21
328.430357
  0
LINE
  5
257
100
AcDbEntity
  8
M0
100
AcDbLine
 10
80.480049
 20
336.925369
 11
80.480049
 21
328.430357
  0
LINE
  5
258
100
AcDbEntity
  8
M0
100
AcDbLine
 10
91.080049
 20
327.932838
 11
91.080049
 21
328.430357
  0
LINE
  5
259
100
AcDbEntity
  8
M0
100
AcDbLine
 10
84.530049
 20
329.025369
 11
87.030049
 21
329.025369
  0
LINE
  5
25A
100
AcDbEntity
  8
M0
100
AcDbLine
 10
80.480049
 20
327.932838
 11
80.480049
 21
328.430357
  0
LINE
  5
25B
100
AcDbEntity
  8
M0
100
AcDbLine
 10
57.930049
 20
341.525369
 11
50.130049
 21
341.525369
  0
LINE
  5
25C
100
AcDbEntity
  8
M0
100
AcDbLine
 10
122.430047
 20
335.925369
 11
117.93005
 21
335.925369
  0
LINE
  5
25D
100
AcDbEntity
  8
M0
100
AcDbLine
 10
113.630049
 20
358.975369
 11
113.630049
 21
341.441884
  0
LINE
  5
25E
100
AcDbEntity
  8
M0
100
AcDbLine
 10
48.330049
 20
328.525369
 11
53.630049
 21
328.525369
  0
LINE
  5
25F
100
AcDbEntity
  8
M0
100
AcDbLine
 10
121.430049
 20
322.925369
 11
113.630049
 21
322.925369
  0
LINE
  5
260
100
AcDbEntity
  8
M0
100
AcDbLine
 10
117.93005
 20
328.525369
 11
122.430047
 21
328.525369
  0
LINE
  5
261
100
AcDbEntity
  8
M0
100
AcDbLine
 10
50.130049
 20
322.925369
 11
57.930049
 21
322.925369
  0
LINE
  5
262
100
AcDbEntity
  8
M0
100
AcDbLine
 10
110.330049
 20
370.725369
 11
110.330049
 21
371.725371
  0
LINE
  5
263
100
AcDbEntity
  8
M0
100
AcDbLine
 10
75.13005
 20
377.225371
 11
75.13005
 21
354.925369
  0
LINE
  5
264
100
AcDbEntity
  8
M0
100
AcDbLine
 10
110.330049
 20
292.725367
 11
110.330049
 21
293.725369
  0
LINE
  5
265
100
AcDbEntity
  8
M0
100
AcDbLine
 10
96.430049
 20
293.725369
 11
96.430049
 21
292.725367
  0
LINE
  5
266
100
AcDbEntity
  8
M0
100
AcDbLine
 10
61.230049
 20
292.725367
 11
61.230049
 21
293.725369
  0
LINE
  5
267
100
AcDbEntity
  8
M0
100
AcDbLine
 10
79.330049
 20
343.225369
 11
79.730049
 21
343.225369
  0
LINE
  5
268
100
AcDbEntity
  8
M0
100
AcDbLine
 10
91.830049
 20
343.225369
 11
92.230049
 21
343.225369
  0
LINE
  5
269
100
AcDbEntity
  8
M0
100
AcDbLine
 10
123.23005
 20
328.525369
 11
123.23005
 21
335.925369
  0
LINE
  5
26A
100
AcDbEntity
  8
M0
100
AcDbLine
 10
121.93005
 20
335.925369
 11
121.93005
 21
328.525369
  0
LINE
  5
26B
100
AcDbEntity
  8
M0
100
AcDbLine
 10
48.330049
 20
328.525369
 11
48.330049
 21
335.925369
  0
LINE
  5
26C
100
AcDbEntity
  8
M0
100
AcDbLine
 10
49.630048
 20
335.925369
 11
49.630048
 21
328.525369
  0
LINE
  5
26D
100
AcDbEntity
  8
M0
100
AcDbLine
 10
110.330049
 20
371.725371
 11
110.330049
 21
373.725367
  0
LINE
  5
26E
100
AcDbEntity
  8
M0
100
AcDbLine
 10
61.230049
 20
354.925369
 11
61.230049
 21
373.725367
  0
LINE
  5
26F
100
AcDbEntity
  8
M0
100
AcDbLine
 10
121.430049
 20
305.875368
 11
121.430049
 21
327.525369
  0
LINE
  5
270
100
AcDbEntity
  8
M0
100
AcDbLine
 10
113.630049
 20
323.035689
 11
113.630049
 21
305.475369
  0
LINE
  5
271
100
AcDbEntity
  8
M0
100
AcDbLine
 10
50.130049
 20
305.875368
 11
50.130049
 21
327.525369
  0
ARC
  5
272
100
AcDbEntity
  8
M0
100
AcDbCircle
 10
49.130049
 20
327.525369
 40
1.0
100
AcDbArc
 50
0.0
 51
90.0
  0
ARC
  5
273
100
AcDbEntity
  8
M0
100
AcDbCircle
 10
123.230049
 20
313.125369
 40
1.0
100
AcDbArc
 50
270.0
 51
360.0
  0
ARC
  5
274
100
AcDbEntity
  8
M0
100
AcDbCircle
 10
122.430049
 20
313.125369
 40
1.0
100
AcDbArc
 50
180.0
 51
270.0
  0
ARC
  5
275
100
AcDbEntity
  8
M0
100
AcDbCircle
 10
60.972041
 20
321.631327
 40
3.350514
100
AcDbArc
 50
136.789285
 51
155.219178
  0
ARC
  5
276
100
AcDbEntity
  8
M0
100
AcDbCircle
 10
58.530049
 20
312.725369
 40
0.6
100
AcDbArc
 50
180.0
 51
270.0
  0
ARC
  5
277
100
AcDbEntity
  8
M0
100
AcDbCircle
 10
49.130049
 20
313.125369
 40
1.0
100
AcDbArc
 50
270.0
 51
360.0
  0
LINE
  5
278
100
AcDbEntity
  8
M0
100
AcDbLine
 10
61.230049
 20
290.72537
 11
61.230049
 21
292.725367
  0
ARC
  5
279
100
AcDbEntity
  8
M0
100
AcDbCircle
 10
113.030049
 20
312.725369
 40
0.6
100
AcDbArc
 50
270.0
 51
360.0
  0
LINE
  5
27A
100
AcDbEntity
  8
M0
100
AcDbLine
 10
96.430049
 20
292.725367
 11
96.430049
 21
290.72537
  0
LINE
  5
27B
100
AcDbEntity
  8
M0
100
AcDbLine
 10
71.041562
 20
293.175367
 11
70.720062
 21
293.175367
  0
LINE
  5
27C
100
AcDbEntity
  8
M0
100
AcDbLine
 10
70.657128
 20
292.275371
 11
71.041562
 21
292.275371
  0
LINE
  5
27D
100
AcDbEntity
  8
M0
100
AcDbLine
 10
50.780049
 20
356.975369
 11
57.280049
 21
356.975369
  0
LINE
  5
27E
100
AcDbEntity
  8
M0
100
AcDbLine
 10
100.518536
 20
292.275371
 11
100.90297
 21
292.275371
  0
LINE
  5
27F
100
AcDbEntity
  8
M0
100
AcDbLine
 10
100.840036
 20
293.175367
 11
100.518536
 21
293.175367
  0
ARC
  5
280
100
AcDbEntity
  8
M0
100
AcDbCircle
 10
68.430049
 20
292.725369
 40
2.65
100
AcDbArc
 50
9.776849
 51
27.519543
  0
ARC
  5
281
100
AcDbEntity
  8
M0
100
AcDbCircle
 10
68.430049
 20
292.725369
 40
2.65
100
AcDbArc
 50
350.223151
 51
369.776849
  0
ARC
  5
282
100
AcDbEntity
  8
M0
100
AcDbCircle
 10
103.130049
 20
292.725369
 40
2.65
100
AcDbArc
 50
152.234014
 51
170.223151
  0
ARC
  5
283
100
AcDbEntity
  8
M0
100
AcDbCircle
 10
103.130049
 20
292.725369
 40
2.65
100
AcDbArc
 50
189.776849
 51
215.765986
  0
LINE
  5
284
100
AcDbEntity
  8
M0
100
AcDbLine
 10
87.530049
 20
329.525369
 11
87.530049
 21
336.472875
  0
LINE
  5
285
100
AcDbEntity
  8
M0
100
AcDbLine
 10
92.730049
 20
368.725368
 11
78.830049
 21
368.725368
  0
LINE
  5
286
100
AcDbEntity
  8
M0
100
AcDbLine
 10
91.080049
 20
336.494323
 11
91.080049
 21
336.472875
  0
LINE
  5
287
100
AcDbEntity
  8
M0
100
AcDbLine
 10
120.530049
 20
306.425368
 11
114.53005
 21
306.425368
  0
LINE
  5
288
100
AcDbEntity
  8
M0
100
AcDbLine
 10
120.530049
 20
307.475369
 11
120.530049
 21
306.425368
  0
LINE
  5
289
100
AcDbEntity
  8
M0
100
AcDbLine
 10
113.630049
 20
307.925369
 11
113.782555
 21
307.925369
  0
ARC
  5
28A
100
AcDbEntity
  8
M0
100
AcDbCircle
 10
123.230049
 20
305.875369
 40
1.0
100
AcDbArc
 50
270.0
 51
360.0
  0
ARC
  5
28B
100
AcDbEntity
  8
M0
100
AcDbCircle
 10
58.530049
 20
358.975369
 40
0.6
100
AcDbArc
 50
90.0
 51
180.0
  0
ARC
  5
28C
100
AcDbEntity
  8
M0
100
AcDbCircle
 10
49.130049
 20
305.875369
 40
1.0
100
AcDbArc
 50
270.0
 51
360.0
  0
ARC
  5
28D
100
AcDbEntity
  8
M0
100
AcDbCircle
 10
123.230049
 20
358.575369
 40
1.0
100
AcDbArc
 50
0.0
 51
90.0
  0
ARC
  5
28E
100
AcDbEntity
  8
M0
100
AcDbCircle
 10
113.030049
 20
358.975369
 40
0.6
100
AcDbArc
 50
0.0
 51
90.0
  0
ARC
  5
28F
100
AcDbEntity
  8
M0
100
AcDbCircle
 10
113.030049
 20
305.475369
 40
0.6
100
AcDbArc
 50
270.0
 51
360.0
  0
LINE
  5
290
100
AcDbEntity
  8
M0
100
AcDbLine
 10
84.030049
 20
336.472875
 11
84.030049
 21
336.494322
  0
LINE
  5
291
100
AcDbEntity
  8
M0
100
AcDbLine
 10
87.530049
 20
336.472875
 11
87.530049
 21
336.494322
  0
LINE
  5
292
100
AcDbEntity
  8
M0
100
AcDbLine
 10
80.480049
 20
336.494323
 11
80.480049
 21
336.472875
  0
LINE
  5
293
100
AcDbEntity
  8
M0
100
AcDbLine
 10
80.480049
 20
327.932838
 11
80.480049
 21
327.525369
  0
ARC
  5
294
100
AcDbEntity
  8
M0
100
AcDbCircle
 10
58.530049
 20
305.475369
 40
0.6
100
AcDbArc
 50
180.0
 51
270.0
  0
LINE
  5
295
100
AcDbEntity
  8
M0
100
AcDbLine
 10
114.53005
 20
306.425368
 11
114.53005
 21
307.475369
  0
LINE
  5
296
100
AcDbEntity
  8
M0
100
AcDbLine
 10
80.980049
 20
327.025369
 11
80.230049
 21
327.025369
  0
LINE
  5
297
100
AcDbEntity
  8
M0
100
AcDbLine
 10
91.080049
 20
327.932838
 11
91.080049
 21
327.525369
  0
LINE
  5
298
100
AcDbEntity
  8
M0
100
AcDbLine
 10
89.930049
 20
337.425369
 11
89.930049
 21
337.725369
  0
LINE
  5
299
100
AcDbEntity
  8
M0
100
AcDbLine
 10
80.230049
 20
337.425369
 11
91.330049
 21
337.425369
  0
LINE
  5
29A
100
AcDbEntity
  8
M0
100
AcDbLine
 10
80.980049
 20
327.025369
 11
90.580049
 21
327.025369
  0
LINE
  5
29B
100
AcDbEntity
  8
M0
100
AcDbLine
 10
96.430049
 20
365.425368
 11
96.430049
 21
368.225367
  0
LINE
  5
29C
100
AcDbEntity
  8
M0
100
AcDbLine
 10
81.630049
 20
337.425369
 11
81.630049
 21
337.725369
  0
LINE
  5
29D
100
AcDbEntity
  8
M0
100
AcDbLine
 10
71.521877
 20
295.725369
 11
75.13005
 21
295.725369
  0
LINE
  5
29E
100
AcDbEntity
  8
M0
100
AcDbLine
 10
89.930049
 20
326.525369
 11
89.930049
 21
327.025369
  0
LINE
  5
29F
100
AcDbEntity
  8
M0
100
AcDbLine
 10
101.380049
 20
368.725368
 11
96.430049
 21
368.725368
  0
LINE
  5
2A0
100
AcDbEntity
  8
M0
100
AcDbLine
 10
107.353028
 20
295.725369
 11
110.330049
 21
295.725369
  0
LINE
  5
2A1
100
AcDbEntity
  8
M0
100
AcDbLine
 10
89.408818
 20
295.725369
 11
92.730049
 21
295.725369
  0
LINE
  5
2A2
100
AcDbEntity
  8
M0
100
AcDbLine
 10
110.330049
 20
368.725368
 11
105.380049
 21
368.725368
  0
LINE
  5
2A3
100
AcDbEntity
  8
M0
100
AcDbLine
 10
96.430049
 20
295.725369
 11
100.038222
 21
295.725369
  0
LINE
  5
2A4
100
AcDbEntity
  8
M0
100
AcDbLine
 10
78.830049
 20
295.725369
 11
82.15128
 21
295.725369
  0
LINE
  5
2A5
100
AcDbEntity
  8
M0
100
AcDbLine
 10
81.630049
 20
326.525369
 11
81.630049
 21
327.025369
  0
LINE
  5
2A6
100
AcDbEntity
  8
M0
100
AcDbLine
 10
61.230049
 20
295.725369
 11
64.207071
 21
295.725369
  0
LINE
  5
2A7
100
AcDbEntity
  8
M0
100
AcDbLine
 10
90.580049
 20
327.025369
 11
91.330049
 21
327.025369
  0
LINE
  5
2A8
100
AcDbEntity
  8
M0
100
AcDbLine
 10
105.73005
 20
376.72537
 11
105.230049
 21
377.225371
  0
LINE
  5
2A9
100
AcDbEntity
  8
M0
100
AcDbLine
 10
105.73005
 20
368.725368
 11
105.73005
 21
376.72537
  0
ARC
  5
2AA
100
AcDbEntity
  8
M0
100
AcDbCircle
 10
80.980049
 20
336.925369
 40
0.5
100
AcDbArc
 50
90.0
 51
180.0
  0
ARC
  5
2AB
100
AcDbEntity
  8
M0
100
AcDbCircle
 10
80.980049
 20
327.525369
 40
0.5
100
AcDbArc
 50
180.0
 51
270.0
  0
ARC
  5
2AC
100
AcDbEntity
  8
M0
100
AcDbCircle
 10
87.030049
 20
329.525369
 40
0.5
100
AcDbArc
 50
270.0
 51
360.0
  0
LINE
  5
2AD
100
AcDbEntity
  8
M0
100
AcDbLine
 10
113.630049
 20
315.025368
 11
121.430049
 21
315.025368
  0
ARC
  5
2AE
100
AcDbEntity
  8
M0
100
AcDbCircle
 10
103.380048
 20
372.475369
 40
4.25
100
AcDbArc
 50
241.927521
 51
298.072495
  0
LINE
  5
2AF
100
AcDbEntity
  8
M0
100
AcDbLine
 10
84.192598
 20
372.97537
 11
83.168536
 21
372.97537
  0
LINE
  5
2B0
100
AcDbEntity
  8
M0
100
AcDbLine
 10
83.168536
 20
372.075369
 11
84.192598
 21
372.075369
  0
LINE
  5
2B1
100
AcDbEntity
  8
M0
100
AcDbLine
 10
88.391562
 20
372.97537
 11
87.3675
 21
372.97537
  0
LINE
  5
2B2
100
AcDbEntity
  8
M0
100
AcDbLine
 10
87.3675
 20
372.075369
 11
88.391562
 21
372.075369
  0
LINE
  5
2B3
100
AcDbEntity
  8
M0
100
AcDbLine
 10
86.230049
 20
372.97537
 11
86.230049
 21
373.725367
  0
LINE
  5
2B4
100
AcDbEntity
  8
M0
100
AcDbLine
 10
86.230049
 20
371.325368
 11
86.230049
 21
372.075369
  0
LINE
  5
2B5
100
AcDbEntity
  8
M0
100
AcDbLine
 10
86.230049
 20
373.725367
 11
85.330049
 21
373.725367
  0
LINE
  5
2B6
100
AcDbEntity
  8
M0
100
AcDbLine
 10
73.630049
 20
377.225371
 11
65.330049
 21
377.225371
  0
LINE
  5
2B7
100
AcDbEntity
  8
M0
100
AcDbLine
 10
85.330049
 20
371.325368
 11
86.230049
 21
371.325368
  0
LINE
  5
2B8
100
AcDbEntity
  8
M0
100
AcDbLine
 10
84.192598
 20
372.97537
 11
85.330049
 21
372.97537
  0
LINE
  5
2B9
100
AcDbEntity
  8
M0
100
AcDbLine
 10
86.230049
 20
372.97537
 11
87.3675
 21
372.97537
  0
LINE
  5
2BA
100
AcDbEntity
  8
M0
100
AcDbLine
 10
85.330049
 20
373.725367
 11
85.330049
 21
372.97537
  0
LINE
  5
2BB
100
AcDbEntity
  8
M0
100
AcDbLine
 10
105.230049
 20
377.225371
 11
97.930049
 21
377.225371
  0
LINE
  5
2BC
100
AcDbEntity
  8
M0
100
AcDbLine
 10
85.330049
 20
372.075369
 11
84.192598
 21
372.075369
  0
LINE
  5
2BD
100
AcDbEntity
  8
M0
100
AcDbLine
 10
79.730049
 20
343.225369
 11
77.580049
 21
343.225369
  0
LINE
  5
2BE
100
AcDbEntity
  8
M0
100
AcDbLine
 10
66.33005
 20
377.225371
 11
65.830049
 21
376.72537
  0
LINE
  5
2BF
100
AcDbEntity
  8
M0
100
AcDbLine
 10
65.830049
 20
376.72537
 11
65.830049
 21
368.725368
  0
ARC
  5
2C0
100
AcDbEntity
  8
M0
100
AcDbCircle
 10
103.380048
 20
372.475369
 40
4.25
100
AcDbArc
 50
241.927521
 51
270.0
  0
ARC
  5
2C1
100
AcDbEntity
  8
M0
100
AcDbCircle
 10
90.580049
 20
327.525369
 40
0.5
100
AcDbArc
 50
270.0
 51
360.0
  0
ARC
  5
2C2
100
AcDbEntity
  8
M0
100
AcDbCircle
 10
84.530049
 20
329.525369
 40
0.5
100
AcDbArc
 50
180.0
 51
270.0
  0
ARC
  5
2C3
100
AcDbEntity
  8
M0
100
AcDbCircle
 10
85.780048
 20
372.475369
 40
4.25
100
AcDbArc
 50
241.927521
 51
298.072495
  0
ARC
  5
2C4
100
AcDbEntity
  8
M0
100
AcDbCircle
 10
90.580049
 20
336.925369
 40
0.5
100
AcDbArc
 50
0.0
 51
90.0
  0
LINE
  5
2C5
100
AcDbEntity
  8
M0
100
AcDbLine
 10
87.3675
 20
372.075369
 11
86.230049
 21
372.075369
  0
ARC
  5
2C6
100
AcDbEntity
  8
M0
100
AcDbCircle
 10
85.780048
 20
372.475369
 40
4.25
100
AcDbArc
 50
241.927521
 51
270.0
  0
LINE
  5
2C7
100
AcDbEntity
  8
M0
100
AcDbLine
 10
85.330049
 20
372.075369
 11
85.330049
 21
371.325368
  0
ARC
  5
2C8
100
AcDbEntity
  8
M0
100
AcDbCircle
 10
72.930049
 20
369.425369
 40
0.6
100
AcDbArc
 50
215.685335
 51
270.0
  0
ARC
  5
2C9
100
AcDbEntity
  8
M0
100
AcDbCircle
 10
101.330049
 20
368.225369
 40
1.0
100
AcDbArc
 50
30.0
 51
58.211672
  0
ARC
  5
2CA
100
AcDbEntity
  8
M0
100
AcDbCircle
 10
85.780049
 20
372.525369
 40
2.65
100
AcDbArc
 50
170.223151
 51
189.776849
  0
ARC
  5
2CB
100
AcDbEntity
  8
M0
100
AcDbCircle
 10
85.780049
 20
372.525369
 40
2.65
100
AcDbArc
 50
189.776849
 51
350.223151
  0
ARC
  5
2CC
100
AcDbEntity
  8
M0
100
AcDbCircle
 10
98.630049
 20
369.425369
 40
0.6
100
AcDbArc
 50
187.490122
 51
324.314617
  0
ARC
  5
2CD
100
AcDbEntity
  8
M0
100
AcDbCircle
 10
85.780049
 20
372.525369
 40
2.65
100
AcDbArc
 50
9.776849
 51
170.223151
  0
ARC
  5
2CE
100
AcDbEntity
  8
M0
100
AcDbCircle
 10
101.330049
 20
368.225369
 40
1.0
100
AcDbArc
 50
121.788346
 51
150.0
  0
ARC
  5
2CF
100
AcDbEntity
  8
M0
100
AcDbCircle
 10
85.780049
 20
372.525369
 40
2.65
100
AcDbArc
 50
350.223151
 51
369.776849
  0
ARC
  5
2D0
100
AcDbEntity
  8
M0
100
AcDbCircle
 10
59.530049
 20
290.725369
 40
1.0
100
AcDbArc
 50
180.0
 51
270.0
  0
ARC
  5
2D1
100
AcDbEntity
  8
M0
100
AcDbCircle
 10
122.430049
 20
351.325369
 40
1.0
100
AcDbArc
 50
90.0
 51
180.0
  0
ARC
  5
2D2
100
AcDbEntity
  8
M0
100
AcDbCircle
 10
111.330049
 20
290.725369
 40
1.0
100
AcDbArc
 50
180.0
 51
270.0
  0
ARC
  5
2D3
100
AcDbEntity
  8
M0
100
AcDbCircle
 10
60.230049
 20
290.725369
 40
1.0
100
AcDbArc
 50
270.0
 51
360.0
  0
ARC
  5
2D4
100
AcDbEntity
  8
M0
100
AcDbCircle
 10
122.430049
 20
327.525369
 40
1.0
100
AcDbArc
 50
90.0
 51
180.0
  0
ARC
  5
2D5
100
AcDbEntity
  8
M0
100
AcDbCircle
 10
95.430049
 20
290.725369
 40
1.0
100
AcDbArc
 50
270.0
 51
360.0
  0
ARC
  5
2D6
100
AcDbEntity
  8
M0
100
AcDbCircle
 10
76.130049
 20
290.725369
 40
1.0
100
AcDbArc
 50
180.0
 51
270.0
  0
ARC
  5
2D7
100
AcDbEntity
  8
M0
100
AcDbCircle
 10
49.130049
 20
336.925369
 40
1.0
100
AcDbArc
 50
270.0
 51
360.0
  0
ARC
  5
2D8
100
AcDbEntity
  8
M0
100
AcDbCircle
 10
123.230049
 20
351.325369
 40
1.0
100
AcDbArc
 50
0.0
 51
90.0
  0
ARC
  5
2D9
100
AcDbEntity
  8
M0
100
AcDbCircle
 10
72.930049
 20
369.425369
 40
0.6
100
AcDbArc
 50
270.0
 51
352.509835
  0
ARC
  5
2DA
100
AcDbEntity
  8
M0
100
AcDbCircle
 10
122.430049
 20
336.925369
 40
1.0
100
AcDbArc
 50
180.0
 51
270.0
  0
ARC
  5
2DB
100
AcDbEntity
  8
M0
100
AcDbCircle
 10
123.230049
 20
336.925369
 40
1.0
100
AcDbArc
 50
270.0
 51
360.0
  0
ARC
  5
2DC
100
AcDbEntity
  8
M0
100
AcDbCircle
 10
103.130049
 20
292.725369
 40
2.65
100
AcDbArc
 50
170.223151
 51
189.776849
  0
ARC
  5
2DD
100
AcDbEntity
  8
M0
100
AcDbCircle
 10
48.330049
 20
351.325369
 40
1.0
100
AcDbArc
 50
90.0
 51
180.0
  0
LINE
  5
2DE
100
AcDbEntity
  8
M0
100
AcDbLine
 10
90.830049
 20
341.725369
 11
80.730049
 21
341.725369
  0
LINE
  5
2DF
100
AcDbEntity
  8
M0
100
AcDbLine
 10
91.330049
 20
337.725369
 11
80.230049
 21
337.725369
  0
LINE
  5
2E0
100
AcDbEntity
  8
M0
100
AcDbLine
 10
111.33005
 20
374.725369
 11
111.830045
 21
374.725369
  0
LINE
  5
2E1
100
AcDbEntity
  8
M0
100
AcDbLine
 10
80.730049
 20
338.225369
 11
90.830049
 21
338.225369
  0
LINE
  5
2E2
100
AcDbEntity
  8
M0
100
AcDbLine
 10
60.230049
 20
374.725369
 11
59.530049
 21
374.725369
  0
LINE
  5
2E3
100
AcDbEntity
  8
M0
100
AcDbLine
 10
112.030048
 20
327.525369
 11
114.030049
 21
327.525369
  0
LINE
  5
2E4
100
AcDbEntity
  8
M0
100
AcDbLine
 10
110.330049
 20
354.925369
 11
110.330049
 21
373.725367
  0
LINE
  5
2E5
100
AcDbEntity
  8
M0
100
AcDbLine
 10
78.830049
 20
354.925369
 11
78.830049
 21
373.725367
  0
LINE
  5
2E6
100
AcDbEntity
  8
M0
100
AcDbLine
 10
113.030049
 20
290.725369
 11
113.030049
 21
326.025369
  0
LINE
  5
2E7
100
AcDbEntity
  8
M0
100
AcDbLine
 10
92.730049
 20
354.925369
 11
92.730049
 21
373.725367
  0
LINE
  5
2E8
100
AcDbEntity
  8
M0
100
AcDbLine
 10
93.73005
 20
374.725369
 11
95.430049
 21
374.725369
  0
LINE
  5
2E9
100
AcDbEntity
  8
M0
100
AcDbLine
 10
111.33005
 20
309.325369
 11
111.33005
 21
309.525368
  0
LINE
  5
2EA
100
AcDbEntity
  8
M0
100
AcDbLine
 10
77.830049
 20
374.725369
 11
76.130049
 21
374.725369
  0
LINE
  5
2EB
100
AcDbEntity
  8
M0
100
AcDbLine
 10
111.830045
 20
374.725369
 11
112.030048
 21
374.725369
  0
LINE
  5
2EC
100
AcDbEntity
  8
M0
100
AcDbLine
 10
114.030049
 20
336.925369
 11
112.030048
 21
336.925369
  0
LINE
  5
2ED
100
AcDbEntity
  8
M0
100
AcDbLine
 10
111.33005
 20
354.925369
 11
111.33005
 21
355.125369
  0
LINE
  5
2EE
100
AcDbEntity
  8
M0
100
AcDbLine
 10
121.211248
 20
301.974317
 11
119.781705
 21
301.975369
  0
LINE
  5
2EF
100
AcDbEntity
  8
M0
100
AcDbLine
 10
109.38005
 20
294.725367
 11
110.330049
 21
294.725367
  0
LINE
  5
2F0
100
AcDbEntity
  8
M0
100
AcDbLine
 10
113.030049
 20
338.425369
 11
113.030049
 21
373.725369
  0
LINE
  5
2F1
100
AcDbEntity
  8
M0
100
AcDbLine
 10
60.230049
 20
355.125369
 11
61.230049
 21
355.125369
  0
LINE
  5
2F2
100
AcDbEntity
  8
M0
100
AcDbLine
 10
120.824052
 20
297.475664
 11
121.316525
 21
297.475664
  0
LINE
  5
2F3
100
AcDbEntity
  8
M0
100
AcDbLine
 10
59.53005
 20
327.525369
 11
57.53005
 21
327.525369
  0
LINE
  5
2F4
100
AcDbEntity
  8
M0
100
AcDbLine
 10
58.53005
 20
326.025369
 11
58.53005
 21
290.725369
  0
LINE
  5
2F5
100
AcDbEntity
  8
M0
100
AcDbLine
 10
111.33005
 20
355.125369
 11
110.330049
 21
355.125369
  0
LINE
  5
2F6
100
AcDbEntity
  8
M0
100
AcDbLine
 10
60.230049
 20
309.325369
 11
60.230049
 21
309.525368
  0
ARC
  5
2F7
100
AcDbEntity
  8
M0
100
AcDbCircle
 10
76.130049
 20
373.725369
 40
1.0
100
AcDbArc
 50
90.0
 51
180.0
  0
ARC
  5
2F8
100
AcDbEntity
  8
M0
100
AcDbCircle
 10
77.830049
 20
373.725369
 40
1.0
100
AcDbArc
 50
0.0
 51
90.0
  0
ARC
  5
2F9
100
AcDbEntity
  8
M0
100
AcDbCircle
 10
120.824051
 20
297.175665
 40
0.3
100
AcDbArc
 50
90.0
 51
180.0
  0
ARC
  5
2FA
100
AcDbEntity
  8
M0
100
AcDbCircle
 10
121.280049
 20
299.725369
 40
2.25
100
AcDbArc
 50
270.928845
 51
451.752277
  0
ARC
  5
2FB
100
AcDbEntity
  8
M0
100
AcDbCircle
 10
59.530049
 20
373.725369
 40
1.0
100
AcDbArc
 50
90.0
 51
180.0
  0
ARC
  5
2FC
100
AcDbEntity
  8
M0
100
AcDbCircle
 10
60.230049
 20
373.725369
 40
1.0
100
AcDbArc
 50
0.0
 51
90.0
  0
ARC
  5
2FD
100
AcDbEntity
  8
M0
100
AcDbCircle
 10
93.730049
 20
373.725369
 40
1.0
100
AcDbArc
 50
90.0
 51
180.0
  0
ARC
  5
2FE
100
AcDbEntity
  8
M0
100
AcDbCircle
 10
111.330049
 20
373.725369
 40
1.0
100
AcDbArc
 50
90.0
 51
180.0
  0
LINE
  5
2FF
100
AcDbEntity
  8
M0
100
AcDbLine
 10
120.524051
 20
297.06118
 11
120.524051
 21
297.175666
  0
LINE
  5
300
100
AcDbEntity
  8
M0
100
AcDbLine
 10
117.531537
 20
299.807189
 11
117.531537
 21
299.775367
  0
LINE
  5
301
100
AcDbEntity
  8
M0
100
AcDbLine
 10
124.730049
 20
303.425369
 11
124.730049
 21
292.725367
  0
LINE
  5
302
100
AcDbEntity
  8
M0
100
AcDbLine
 10
75.630049
 20
356.625368
 11
78.330049
 21
356.625368
  0
LINE
  5
303
100
AcDbEntity
  8
M0
100
AcDbLine
 10
58.53005
 20
373.725369
 11
58.53005
 21
338.425369
  0
ARC
  5
304
100
AcDbEntity
  8
M0
100
AcDbCircle
 10
95.430049
 20
373.725369
 40
1.0
100
AcDbArc
 50
0.0
 51
90.0
  0
LINE
  5
305
100
AcDbEntity
  8
M0
100
AcDbLine
 10
76.580049
 20
338.325369
 11
78.080049
 21
336.825369
  0
LINE
  5
306
100
AcDbEntity
  8
M0
100
AcDbLine
 10
59.53005
 20
330.725369
 11
58.53005
 21
330.725369
  0
LINE
  5
307
100
AcDbEntity
  8
M0
100
AcDbLine
 10
112.030048
 20
309.525368
 11
59.53005
 21
309.525368
  0
LINE
  5
308
100
AcDbEntity
  8
M0
100
AcDbLine
 10
80.230049
 20
322.725369
 11
91.330049
 21
322.725369
  0
LINE
  5
309
100
AcDbEntity
  8
M0
100
AcDbLine
 10
91.330049
 20
325.025369
 11
80.230049
 21
325.025369
  0
LINE
  5
30A
100
AcDbEntity
  8
M0
100
AcDbLine
 10
80.230049
 20
326.525369
 11
91.330049
 21
326.525369
  0
LINE
  5
30B
100
AcDbEntity
  8
M0
100
AcDbLine
 10
59.030049
 20
325.025369
 11
59.53005
 21
325.025369
  0
LINE
  5
30C
100
AcDbEntity
  8
M0
100
AcDbLine
 10
58.53005
 20
333.725369
 11
58.53005
 21
333.625369
  0
LINE
  5
30D
100
AcDbEntity
  8
M0
100
AcDbLine
 10
58.53005
 20
330.825369
 11
58.53005
 21
330.725369
  0
LINE
  5
30E
100
AcDbEntity
  8
M0
100
AcDbLine
 10
91.830049
 20
343.225369
 11
93.980049
 21
343.225369
  0
LINE
  5
30F
100
AcDbEntity
  8
M0
100
AcDbLine
 10
76.580049
 20
342.225369
 11
76.580049
 21
321.892265
  0
LINE
  5
310
100
AcDbEntity
  8
M0
100
AcDbLine
 10
90.830049
 20
338.225369
 11
90.830049
 21
342.225369
  0
LINE
  5
311
100
AcDbEntity
  8
M0
100
AcDbLine
 10
80.730049
 20
338.225369
 11
80.730049
 21
342.225369
  0
LINE
  5
312
100
AcDbEntity
  8
M0
100
AcDbLine
 10
58.53005
 20
327.725369
 11
59.53005
 21
327.725369
  0
LINE
  5
313
100
AcDbEntity
  8
M0
100
AcDbLine
 10
91.330049
 20
335.475369
 11
91.330049
 21
337.725369
  0
LINE
  5
314
100
AcDbEntity
  8
M0
100
AcDbLine
 10
93.980049
 20
321.225369
 11
92.330049
 21
321.225369
  0
LINE
  5
315
100
AcDbEntity
  8
M0
100
AcDbLine
 10
94.980049
 20
338.325369
 11
93.480049
 21
336.825369
  0
LINE
  5
316
100
AcDbEntity
  8
M0
100
AcDbLine
 10
80.230049
 20
337.725369
 11
80.230049
 21
335.475369
  0
LINE
  5
317
100
AcDbEntity
  8
M0
100
AcDbLine
 10
112.030048
 20
325.025369
 11
112.530049
 21
325.025369
  0
LINE
  5
318
100
AcDbEntity
  8
M0
100
AcDbLine
 10
94.980049
 20
342.225369
 11
94.980049
 21
322.225369
  0
LINE
  5
319
100
AcDbEntity
  8
M0
100
AcDbLine
 10
77.580049
 20
325.725369
 11
78.080049
 21
325.725369
  0
LINE
  5
31A
100
AcDbEntity
  8
M0
100
AcDbLine
 10
91.330049
 20
322.225369
 11
91.330049
 21
328.975369
  0
LINE
  5
31B
100
AcDbEntity
  8
M0
100
AcDbLine
 10
60.230049
 20
354.925369
 11
60.230049
 21
355.125369
  0
LINE
  5
31C
100
AcDbEntity
  8
M0
100
AcDbLine
 10
78.080049
 20
321.225369
 11
77.580049
 21
321.225369
  0
LINE
  5
31D
100
AcDbEntity
  8
M0
100
AcDbLine
 10
91.330049
 20
328.975369
 11
91.580049
 21
329.475369
  0
LINE
  5
31E
100
AcDbEntity
  8
M0
100
AcDbLine
 10
80.230049
 20
328.975369
 11
80.230049
 21
322.225369
  0
LINE
  5
31F
100
AcDbEntity
  8
M0
100
AcDbLine
 10
79.980049
 20
329.475369
 11
80.230049
 21
328.975369
  0
ARC
  5
320
100
AcDbEntity
  8
M0
100
AcDbCircle
 10
121.730049
 20
292.725369
 40
3.0
100
AcDbArc
 50
270.0
 51
360.0
  0
ARC
  5
321
100
AcDbEntity
  8
M0
100
AcDbCircle
 10
119.780049
 20
299.725369
 40
2.25
100
AcDbArc
 50
89.957854
 51
177.916058
  0
ARC
  5
322
100
AcDbEntity
  8
M0
100
AcDbCircle
 10
50.330049
 20
292.725369
 40
3.0
100
AcDbArc
 50
180.0
 51
270.0
  0
LINE
  5
323
100
AcDbEntity
  8
M0
100
AcDbLine
 10
57.53005
 20
336.925369
 11
59.53005
 21
336.925369
  0
ARC
  5
324
100
AcDbEntity
  8
M0
100
AcDbCircle
 10
49.130049
 20
351.325369
 40
1.0
100
AcDbArc
 50
0.0
 51
90.0
  0
LINE
  5
325
100
AcDbEntity
  8
M0
100
AcDbLine
 10
92.330049
 20
321.225369
 11
79.230049
 21
321.225369
  0
LINE
  5
326
100
AcDbEntity
  8
M0
100
AcDbLine
 10
93.480049
 20
336.825369
 11
93.480049
 21
325.725369
  0
LINE
  5
327
100
AcDbEntity
  8
M0
100
AcDbLine
 10
79.230049
 20
321.225369
 11
77.580049
 21
321.225369
  0
LINE
  5
328
100
AcDbEntity
  8
M0
100
AcDbLine
 10
93.480049
 20
321.225369
 11
93.980049
 21
321.225369
  0
LINE
  5
329
100
AcDbEntity
  8
M0
100
AcDbLine
 10
79.080049
 20
343.225369
 11
77.580049
 21
343.225369
  0
LINE
  5
32A
100
AcDbEntity
  8
M0
100
AcDbLine
 10
79.980049
 20
334.975369
 11
79.980049
 21
329.475369
  0
LINE
  5
32B
100
AcDbEntity
  8
M0
100
AcDbLine
 10
91.580049
 20
334.975369
 11
91.330049
 21
335.475369
  0
ARC
  5
32C
100
AcDbEntity
  8
M0
100
AcDbCircle
 10
117.231537
 20
299.775369
 40
0.3
100
AcDbArc
 50
270.0
 51
360.0
  0
LINE
  5
32D
100
AcDbEntity
  8
M0
100
AcDbLine
 10
78.080049
 20
336.825369
 11
78.080049
 21
325.725369
  0
LINE
  5
32E
100
AcDbEntity
  8
M0
100
AcDbLine
 10
91.580049
 20
329.475369
 11
91.580049
 21
334.975369
  0
LINE
  5
32F
100
AcDbEntity
  8
M0
100
AcDbLine
 10
93.480049
 20
325.725369
 11
93.980049
 21
325.725369
  0
LINE
  5
330
100
AcDbEntity
  8
M0
100
AcDbLine
 10
80.230049
 20
335.475369
 11
79.980049
 21
334.975369
  0
LINE
  5
331
100
AcDbEntity
  8
M0
100
AcDbLine
 10
57.030049
 20
307.475369
 11
57.030049
 21
306.425368
  0
LINE
  5
332
100
AcDbEntity
  8
M0
100
AcDbLine
 10
51.03005
 20
306.425368
 11
51.03005
 21
307.475369
  0
LINE
  5
333
100
AcDbEntity
  8
M0
100
AcDbLine
 10
106.030049
 20
369.72537
 11
106.030049
 21
368.725368
  0
LINE
  5
334
100
AcDbEntity
  8
M0
100
AcDbLine
 10
97.930049
 20
377.725368
 11
97.930049
 21
368.725368
  0
LINE
  5
335
100
AcDbEntity
  8
M0
100
AcDbLine
 10
64.330049
 20
378.72537
 11
107.230049
 21
378.72537
  0
LINE
  5
336
100
AcDbEntity
  8
M0
100
AcDbLine
 10
121.430049
 20
349.425369
 11
113.630049
 21
349.425369
  0
LINE
  5
337
100
AcDbEntity
  8
M0
100
AcDbLine
 10
96.430049
 20
377.225371
 11
75.13005
 21
377.225371
  0
LINE
  5
338
100
AcDbEntity
  8
M0
100
AcDbLine
 10
57.930049
 20
349.425369
 11
50.130049
 21
349.425369
  0
LINE
  5
339
100
AcDbEntity
  8
M0
100
AcDbLine
 10
57.030049
 20
306.425368
 11
51.03005
 21
306.425368
  0
LINE
  5
33A
100
AcDbEntity
  8
M0
100
AcDbLine
 10
92.480049
 20
343.225369
 11
93.980049
 21
343.225369
  0
ARC
  5
33B
100
AcDbEntity
  8
M0
100
AcDbCircle
 10
79.230049
 20
322.225369
 40
1.0
100
AcDbArc
 50
270.0
 51
360.0
  0
ARC
  5
33C
100
AcDbEntity
  8
M0
100
AcDbCircle
 10
92.330049
 20
322.225369
 40
1.0
100
AcDbArc
 50
180.0
 51
270.0
  0
ARC
  5
33D
100
AcDbEntity
  8
M0
100
AcDbCircle
 10
112.030049
 20
310.525369
 40
1.0
100
AcDbArc
 50
270.0
 51
360.0
  0
ARC
  5
33E
100
AcDbEntity
  8
M0
100
AcDbCircle
 10
93.980049
 20
322.225369
 40
1.0
100
AcDbArc
 50
270.0
 51
360.0
  0
ARC
  5
33F
100
AcDbEntity
  8
M0
100
AcDbCircle
 10
77.580049
 20
322.225369
 40
1.0
100
AcDbArc
 50
180.0
 51
270.0
  0
ARC
  5
340
100
AcDbEntity
  8
M0
100
AcDbCircle
 10
59.030049
 20
324.525369
 40
0.5
100
AcDbArc
 50
90.0
 51
180.0
  0
ARC
  5
341
100
AcDbEntity
  8
M0
100
AcDbCircle
 10
93.980049
 20
342.225369
 40
1.0
100
AcDbArc
 50
0.0
 51
90.0
  0
ARC
  5
342
100
AcDbEntity
  8
M0
100
AcDbCircle
 10
80.230049
 20
338.225369
 40
0.5
100
AcDbArc
 50
270.0
 51
360.0
  0
ARC
  5
343
100
AcDbEntity
  8
M0
100
AcDbCircle
 10
77.580049
 20
342.225369
 40
1.0
100
AcDbArc
 50
90.0
 51
180.0
  0
ARC
  5
344
100
AcDbEntity
  8
M0
100
AcDbCircle
 10
59.530049
 20
310.525369
 40
1.0
100
AcDbArc
 50
180.0
 51
270.0
  0
ARC
  5
345
100
AcDbEntity
  8
M0
100
AcDbCircle
 10
77.580049
 20
324.725369
 40
1.0
100
AcDbArc
 50
90.0
 51
180.0
  0
LINE
  5
346
100
AcDbEntity
  8
M0
100
AcDbLine
 10
103.33005
 20
378.225369
 11
103.33005
 21
377.225371
  0
LINE
  5
347
100
AcDbEntity
  8
M0
100
AcDbLine
 10
96.430049
 20
354.925369
 11
96.430049
 21
377.225371
  0
ARC
  5
348
100
AcDbEntity
  8
M0
100
AcDbCircle
 10
112.530049
 20
324.525369
 40
0.5
100
AcDbArc
 50
0.0
 51
90.0
  0
LINE
  5
349
100
AcDbEntity
  8
M0
100
AcDbLine
 10
65.530049
 20
368.725368
 11
65.530049
 21
369.72537
  0
LINE
  5
34A
100
AcDbEntity
  8
M0
100
AcDbLine
 10
73.630049
 20
368.725368
 11
73.630049
 21
377.725368
  0
LINE
  5
34B
100
AcDbEntity
  8
M0
100
AcDbLine
 10
68.230048
 20
377.225371
 11
68.230048
 21
378.225369
  0
LINE
  5
34C
100
AcDbEntity
  8
M0
100
AcDbLine
 10
51.03005
 20
358.02537
 11
57.030049
 21
358.02537
  0
LINE
  5
34D
100
AcDbEntity
  8
M0
100
AcDbLine
 10
57.030049
 20
358.02537
 11
57.030049
 21
356.975369
  0
LINE
  5
34E
100
AcDbEntity
  8
M0
100
AcDbLine
 10
51.03005
 20
356.975369
 11
51.03005
 21
358.02537
  0
LINE
  5
34F
100
AcDbEntity
  8
M0
100
AcDbLine
 10
114.53005
 20
358.02537
 11
120.530049
 21
358.02537
  0
LINE
  5
350
100
AcDbEntity
  8
M0
100
AcDbLine
 10
120.530049
 20
358.02537
 11
120.530049
 21
356.975369
  0
LINE
  5
351
100
AcDbEntity
  8
M0
100
AcDbLine
 10
50.282555
 20
356.525369
 11
50.130049
 21
356.525369
  0
LINE
  5
352
100
AcDbEntity
  8
M0
100
AcDbLine
 10
114.53005
 20
356.975369
 11
114.53005
 21
358.02537
  0
ARC
  5
353
100
AcDbEntity
  8
M0
100
AcDbCircle
 10
105.530049
 20
369.725369
 40
0.5
100
AcDbArc
 50
0.0
 51
66.421822
  0
ARC
  5
354
100
AcDbEntity
  8
M0
100
AcDbCircle
 10
96.930049
 20
377.725369
 40
1.0
100
AcDbArc
 50
0.0
 51
90.0
  0
LINE
  5
355
100
AcDbEntity
  8
M0
100
AcDbLine
 10
95.43005
 20
289.725368
 11
94.930053
 21
289.725368
  0
ARC
  5
356
100
AcDbEntity
  8
M0
100
AcDbCircle
 10
68.730049
 20
378.225369
 40
0.5
100
AcDbArc
 50
90.0
 51
180.0
  0
ARC
  5
357
100
AcDbEntity
  8
M0
100
AcDbCircle
 10
66.030049
 20
369.725369
 40
0.5
100
AcDbArc
 50
113.578178
 51
180.0
  0
ARC
  5
358
100
AcDbEntity
  8
M0
100
AcDbCircle
 10
102.830049
 20
378.225369
 40
0.5
100
AcDbArc
 50
0.0
 51
90.0
  0
ARC
  5
359
100
AcDbEntity
  8
M0
100
AcDbCircle
 10
74.630049
 20
377.725369
 40
1.0
100
AcDbArc
 50
90.0
 51
180.0
  0
LINE
  5
35A
100
AcDbEntity
  8
M0
100
AcDbLine
 10
94.930053
 20
289.725368
 11
93.73005
 21
289.725368
  0
LINE
  5
35B
100
AcDbEntity
  8
M0
100
AcDbLine
 10
110.330049
 20
290.72537
 11
110.330049
 21
294.725367
  0
LINE
  5
35C
100
AcDbEntity
  8
M0
100
AcDbLine
 10
61.230049
 20
290.72537
 11
61.230049
 21
294.725367
  0
LINE
  5
35D
100
AcDbEntity
  8
M0
100
AcDbLine
 10
114.030049
 20
330.825369
 11
112.33005
 21
330.825369
  0
LINE
  5
35E
100
AcDbEntity
  8
M0
100
AcDbLine
 10
78.830049
 20
355.125369
 11
75.13005
 21
355.125369
  0
LINE
  5
35F
100
AcDbEntity
  8
M0
100
AcDbLine
 10
96.430049
 20
294.725367
 11
96.430049
 21
290.72537
  0
LINE
  5
360
100
AcDbEntity
  8
M0
100
AcDbLine
 10
112.33005
 20
333.625369
 11
114.030049
 21
333.625369
  0
LINE
  5
361
100
AcDbEntity
  8
M0
100
AcDbLine
 10
92.730049
 20
355.125369
 11
96.430049
 21
355.125369
  0
LINE
  5
362
100
AcDbEntity
  8
M0
100
AcDbLine
 10
75.13005
 20
309.525368
 11
75.13005
 21
290.72537
  0
LINE
  5
363
100
AcDbEntity
  8
M0
100
AcDbLine
 10
59.230049
 20
330.825369
 11
59.230049
 21
333.625369
  0
LINE
  5
364
100
AcDbEntity
  8
M0
100
AcDbLine
 10
112.33005
 20
330.825369
 11
112.33005
 21
333.625369
  0
LINE
  5
365
100
AcDbEntity
  8
M0
100
AcDbLine
 10
75.13005
 20
309.325369
 11
78.830049
 21
309.325369
  0
LINE
  5
366
100
AcDbEntity
  8
M0
100
AcDbLine
 10
96.430049
 20
309.325369
 11
92.730049
 21
309.325369
  0
LINE
  5
367
100
AcDbEntity
  8
M0
100
AcDbLine
 10
92.730049
 20
309.525368
 11
92.730049
 21
307.325368
  0
LINE
  5
368
100
AcDbEntity
  8
M0
100
AcDbLine
 10
96.430049
 20
307.325368
 11
96.430049
 21
309.525368
  0
LINE
  5
369
100
AcDbEntity
  8
M0
100
AcDbLine
 10
122.430047
 20
352.325368
 11
123.23005
 21
352.325368
  0
LINE
  5
36A
100
AcDbEntity
  8
M0
100
AcDbLine
 10
122.430047
 20
335.925369
 11
123.23005
 21
335.925369
  0
LINE
  5
36B
100
AcDbEntity
  8
M0
100
AcDbLine
 10
50.130049
 20
315.025368
 11
57.930049
 21
315.025368
  0
ARC
  5
36C
100
AcDbEntity
  8
M0
100
AcDbCircle
 10
48.330049
 20
327.525369
 40
1.0
100
AcDbArc
 50
90.0
 51
180.0
  0
CIRCLE
  5
36D
100
AcDbEntity
  8
M0
100
AcDbCircle
 10
85.780049
 20
372.525369
 40
2.85
  0
ARC
  5
36E
100
AcDbEntity
  8
M0
100
AcDbCircle
 10
48.330049
 20
336.925369
 40
1.0
100
AcDbArc
 50
180.0
 51
270.0
  0
CIRCLE
  5
36F
100
AcDbEntity
  8
M0
100
AcDbCircle
 10
85.780049
 20
372.525369
 40
2.825
  0
ARC
  5
370
100
AcDbEntity
  8
M0
100
AcDbCircle
 10
123.230049
 20
327.525369
 40
1.0
100
AcDbArc
 50
0.0
 51
90.0
  0
ARC
  5
371
100
AcDbEntity
  8
M0
100
AcDbCircle
 10
91.330049
 20
338.225369
 40
0.5
100
AcDbArc
 50
180.0
 51
270.0
  0
ARC
  5
372
100
AcDbEntity
  8
M0
100
AcDbCircle
 10
93.980049
 20
324.725369
 40
1.0
100
AcDbArc
 50
0.0
 51
90.0
  0
ARC
  5
373
100
AcDbEntity
  8
M0
100
AcDbCircle
 10
79.730049
 20
342.225369
 40
1.0
100
AcDbArc
 50
0.0
 51
90.0
  0
ARC
  5
374
100
AcDbEntity
  8
M0
100
AcDbCircle
 10
91.830049
 20
342.225369
 40
1.0
100
AcDbArc
 50
90.0
 51
180.0
  0
LINE
  5
375
100
AcDbEntity
  8
M0
100
AcDbLine
 10
49.130051
 20
352.325368
 11
48.330049
 21
352.325368
  0
LINE
  5
376
100
AcDbEntity
  8
M0
100
AcDbLine
 10
53.630049
 20
335.925369
 11
48.330049
 21
335.925369
  0
LINE
  5
377
100
AcDbEntity
  8
M0
100
AcDbLine
 10
121.430049
 20
358.575369
 11
121.430049
 21
336.925369
  0
LINE
  5
378
100
AcDbEntity
  8
M0
100
AcDbLine
 10
123.23005
 20
328.525369
 11
122.430047
 21
328.525369
  0
LINE
  5
379
100
AcDbEntity
  8
M0
  6
DASHDOT
100
AcDbLine
 10
67.680049
 20
302.725369
 11
68.680049
 21
302.725369
  0
LINE
  5
37A
100
AcDbEntity
  8
M0
  6
DASHDOT
100
AcDbLine
 10
68.180049
 20
302.225369
 11
68.180049
 21
303.225369
  0
LINE
  5
37B
100
AcDbEntity
  8
M0
  6
DASHDOT
100
AcDbLine
 10
102.880049
 20
302.725369
 11
103.880049
 21
302.725369
  0
LINE
  5
37C
100
AcDbEntity
  8
M0
  6
DASHDOT
100
AcDbLine
 10
103.380049
 20
302.225369
 11
103.380049
 21
303.225369
  0
LINE
  5
37D
100
AcDbEntity
  8
M0
  6
DASHDOT
100
AcDbLine
 10
85.280049
 20
302.725369
 11
86.280049
 21
302.725369
  0
LINE
  5
37E
100
AcDbEntity
  8
M0
  6
DASHDOT
100
AcDbLine
 10
85.780049
 20
302.225369
 11
85.780049
 21
303.225369
  0
LINE
  5
37F
100
AcDbEntity
  8
M0
100
AcDbLine
 10
57.780049
 20
348.875369
 11
57.780049
 21
342.375369
  0
LINE
  5
380
100
AcDbEntity
  8
M0
  6
DASHDOT
100
AcDbLine
 10
85.280049
 20
361.725369
 11
86.280049
 21
361.725369
  0
LINE
  5
381
100
AcDbEntity
  8
M0
  6
DASHDOT
100
AcDbLine
 10
85.780049
 20
362.225369
 11
85.780049
 21
361.225369
  0
LINE
  5
382
100
AcDbEntity
  8
M0
  6
DASHDOT
100
AcDbLine
 10
103.380049
 20
362.225369
 11
103.380049
 21
361.225369
  0
LINE
  5
383
100
AcDbEntity
  8
M0
  6
DASHDOT
100
AcDbLine
 10
68.180049
 20
362.225369
 11
68.180049
 21
361.225369
  0
LINE
  5
384
100
AcDbEntity
  8
M0
  6
DASHDOT
100
AcDbLine
 10
102.880049
 20
361.725369
 11
103.880049
 21
361.725369
  0
LINE
  5
385
100
AcDbEntity
  8
M0
  6
DASHDOT
100
AcDbLine
 10
67.680049
 20
361.725369
 11
68.680049
 21
361.725369
  0
ARC
  5
386
100
AcDbEntity
  8
M0
100
AcDbCircle
 10
107.230049
 20
377.725369
 40
1.0
100
AcDbArc
 50
90.0
 51
180.0
  0
ARC
  5
387
100
AcDbEntity
  8
M0
100
AcDbCircle
 10
107.230049
 20
377.725369
 40
1.0
100
AcDbArc
 50
0.0
 51
90.0
  0
LINE
  5
388
100
AcDbEntity
  8
M0
100
AcDbLine
 10
106.230049
 20
368.725368
 11
106.230049
 21
377.725369
  0
LINE
  5
389
100
AcDbEntity
  8
M0
100
AcDbLine
 10
108.230049
 20
368.725368
 11
108.230049
 21
377.725368
  0
CIRCLE
  5
38A
100
AcDbEntity
  8
M0
100
AcDbCircle
 10
68.180049
 20
361.7254
 40
4.499996
  0
LINE
  5
38B
100
AcDbEntity
  8
M0
100
AcDbLine
 10
68.646953
 20
363.606534
 11
66.298976
 21
361.258542
  0
LINE
  5
38C
100
AcDbEntity
  8
M0
100
AcDbLine
 10
70.061153
 20
362.192319
 11
67.713176
 21
359.844327
  0
LINE
  5
38D
100
AcDbEntity
  8
M0
100
AcDbLine
 10
66.111095
 20
363.794309
 11
70.374065
 21
359.531369
  0
CIRCLE
  5
38E
100
AcDbEntity
  8
M0
100
AcDbCircle
 10
85.780049
 20
361.7254
 40
4.499996
  0
LINE
  5
38F
100
AcDbEntity
  8
M0
100
AcDbLine
 10
86.246953
 20
363.606534
 11
83.898976
 21
361.258542
  0
LINE
  5
390
100
AcDbEntity
  8
M0
100
AcDbLine
 10
87.661153
 20
362.192319
 11
85.313176
 21
359.844327
  0
LINE
  5
391
100
AcDbEntity
  8
M0
100
AcDbLine
 10
83.711095
 20
363.794309
 11
87.974065
 21
359.531369
  0
CIRCLE
  5
392
100
AcDbEntity
  8
M0
100
AcDbCircle
 10
103.380049
 20
361.7254
 40
4.499996
  0
LINE
  5
393
100
AcDbEntity
  8
M0
100
AcDbLine
 10
103.846953
 20
363.606534
 11
101.498976
 21
361.258542
  0
LINE
  5
394
100
AcDbEntity
  8
M0
100
AcDbLine
 10
105.261153
 20
362.192319
 11
102.913176
 21
359.844327
  0
LINE
  5
395
100
AcDbEntity
  8
M0
100
AcDbLine
 10
101.311095
 20
363.794309
 11
105.574065
 21
359.531369
  0
CIRCLE
  5
396
100
AcDbEntity
  8
M0
100
AcDbCircle
 10
69.830049
 20
372.825369
 40
3.0
  0
LINE
  5
397
100
AcDbEntity
  8
M0
100
AcDbLine
 10
70.183328
 20
374.239729
 11
68.41575
 21
372.472029
  0
LINE
  5
398
100
AcDbEntity
  8
M0
100
AcDbLine
 10
71.243875
 20
373.17906
 11
69.476297
 21
371.411482
  0
LINE
  5
399
100
AcDbEntity
  8
M0
100
AcDbLine
 10
71.420633
 20
371.234724
 11
68.238992
 21
374.416487
  0
LINE
  5
39A
100
AcDbEntity
  8
M0
  6
DASHDOT
100
AcDbLine
 10
53.530049
 20
353.225369
 11
54.530049
 21
353.225369
  0
LINE
  5
39B
100
AcDbEntity
  8
M0
  6
DASHDOT
100
AcDbLine
 10
54.030049
 20
352.725369
 11
54.030049
 21
353.725369
  0
CIRCLE
  5
39C
100
AcDbEntity
  8
M0
100
AcDbCircle
 10
101.730046
 20
372.825373
 40
3.0
  0
LINE
  5
39D
100
AcDbEntity
  8
M0
100
AcDbLine
 10
102.083325
 20
374.239733
 11
100.315747
 21
372.472032
  0
LINE
  5
39E
100
AcDbEntity
  8
M0
100
AcDbLine
 10
103.143872
 20
373.179064
 11
101.376294
 21
371.411486
  0
LINE
  5
39F
100
AcDbEntity
  8
M0
100
AcDbLine
 10
103.32063
 20
371.234728
 11
100.138989
 21
374.416491
  0
CIRCLE
  5
3A0
100
AcDbEntity
  8
M0
100
AcDbCircle
 10
54.030048
 20
353.225371
 40
3.0
  0
LINE
  5
3A1
100
AcDbEntity
  8
M0
100
AcDbLine
 10
54.383327
 20
354.639731
 11
52.615749
 21
352.87203
  0
LINE
  5
3A2
100
AcDbEntity
  8
M0
100
AcDbLine
 10
55.443874
 20
353.579062
 11
53.676296
 21
351.811484
  0
LINE
  5
3A3
100
AcDbEntity
  8
M0
100
AcDbLine
 10
55.620632
 20
351.634726
 11
52.438991
 21
354.816488
  0
CIRCLE
  5
3A4
100
AcDbEntity
  8
M0
100
AcDbCircle
 10
54.030048
 20
345.62537
 40
3.0
  0
LINE
  5
3A5
100
AcDbEntity
  8
M0
100
AcDbLine
 10
54.383327
 20
347.03973
 11
52.615749
 21
345.27203
  0
LINE
  5
3A6
100
AcDbEntity
  8
M0
100
AcDbLine
 10
55.443874
 20
345.979062
 11
53.676296
 21
344.211483
  0
LINE
  5
3A7
100
AcDbEntity
  8
M0
100
AcDbLine
 10
55.620632
 20
344.034726
 11
52.438991
 21
347.216488
  0
CIRCLE
  5
3A8
100
AcDbEntity
  8
M0
100
AcDbCircle
 10
54.030048
 20
318.825367
 40
3.0
  0
CIRCLE
  5
3A9
100
AcDbEntity
  8
M0
100
AcDbCircle
 10
54.030048
 20
311.225367
 40
3.0
  0
LINE
  5
3AA
100
AcDbEntity
  8
M0
100
AcDbLine
 10
54.383327
 20
312.63973
 11
52.615749
 21
310.87203
  0
LINE
  5
3AB
100
AcDbEntity
  8
M0
100
AcDbLine
 10
55.443874
 20
311.579061
 11
53.676296
 21
309.811483
  0
LINE
  5
3AC
100
AcDbEntity
  8
M0
100
AcDbLine
 10
55.620632
 20
309.634725
 11
52.438991
 21
312.816488
  0
LINE
  5
3AD
100
AcDbEntity
  8
M0
100
AcDbLine
 10
55.443874
 20
319.179061
 11
53.676296
 21
317.411483
  0
LINE
  5
3AE
100
AcDbEntity
  8
M0
100
AcDbLine
 10
54.383327
 20
320.23973
 11
52.615749
 21
318.47203
  0
LINE
  5
3AF
100
AcDbEntity
  8
M0
100
AcDbLine
 10
55.620632
 20
317.234725
 11
52.438991
 21
320.416488
  0
CIRCLE
  5
3B0
100
AcDbEntity
  8
M0
100
AcDbCircle
 10
117.53005
 20
353.225371
 40
3.0
  0
LINE
  5
3B1
100
AcDbEntity
  8
M0
100
AcDbLine
 10
118.943876
 20
353.579062
 11
117.176298
 21
351.811484
  0
LINE
  5
3B2
100
AcDbEntity
  8
M0
100
AcDbLine
 10
119.120634
 20
351.634726
 11
115.938993
 21
354.816488
  0
LINE
  5
3B3
100
AcDbEntity
  8
M0
100
AcDbLine
 10
117.883329
 20
354.639731
 11
116.115751
 21
352.87203
  0
CIRCLE
  5
3B4
100
AcDbEntity
  8
M0
100
AcDbCircle
 10
117.53005
 20
345.62537
 40
3.0
  0
LINE
  5
3B5
100
AcDbEntity
  8
M0
100
AcDbLine
 10
119.120634
 20
344.034726
 11
115.938993
 21
347.216488
  0
LINE
  5
3B6
100
AcDbEntity
  8
M0
100
AcDbLine
 10
117.883329
 20
347.03973
 11
116.115751
 21
345.27203
  0
LINE
  5
3B7
100
AcDbEntity
  8
M0
100
AcDbLine
 10
118.943876
 20
345.979062
 11
117.176298
 21
344.211483
  0
CIRCLE
  5
3B8
100
AcDbEntity
  8
M0
100
AcDbCircle
 10
117.53005
 20
318.825367
 40
3.0
  0
LINE
  5
3B9
100
AcDbEntity
  8
M0
100
AcDbLine
 10
117.883329
 20
320.23973
 11
116.115751
 21
318.47203
  0
LINE
  5
3BA
100
AcDbEntity
  8
M0
100
AcDbLine
 10
118.943876
 20
319.179061
 11
117.176298
 21
317.411483
  0
LINE
  5
3BB
100
AcDbEntity
  8
M0
100
AcDbLine
 10
119.120634
 20
317.234725
 11
115.938993
 21
320.416488
  0
CIRCLE
  5
3BC
100
AcDbEntity
  8
M0
100
AcDbCircle
 10
117.53005
 20
311.225367
 40
3.0
  0
LINE
  5
3BD
100
AcDbEntity
  8
M0
100
AcDbLine
 10
119.120634
 20
309.634725
 11
115.938993
 21
312.816488
  0
LINE
  5
3BE
100
AcDbEntity
  8
M0
100
AcDbLine
 10
117.883329
 20
312.63973
 11
116.115751
 21
310.87203
  0
LINE
  5
3BF
100
AcDbEntity
  8
M0
100
AcDbLine
 10
118.943876
 20
311.579061
 11
117.176298
 21
309.811483
  0
CIRCLE
  5
3C0
100
AcDbEntity
  8
M0
100
AcDbCircle
 10
68.180049
 20
302.725338
 40
4.499996
  0
CIRCLE
  5
3C1
100
AcDbEntity
  8
M0
100
AcDbCircle
 10
85.780049
 20
302.725338
 40
4.499996
  0
CIRCLE
  5
3C2
100
AcDbEntity
  8
M0
100
AcDbCircle
 10
103.380049
 20
302.725338
 40
4.499996
  0
LINE
  5
3C3
100
AcDbEntity
  8
M0
100
AcDbLine
 10
68.646953
 20
304.606534
 11
66.298976
 21
302.258542
  0
LINE
  5
3C4
100
AcDbEntity
  8
M0
100
AcDbLine
 10
70.061153
 20
303.192319
 11
67.713176
 21
300.844327
  0
LINE
  5
3C5
100
AcDbEntity
  8
M0
100
AcDbLine
 10
66.111095
 20
304.794309
 11
70.374065
 21
300.531369
  0
LINE
  5
3C6
100
AcDbEntity
  8
M0
100
AcDbLine
 10
86.246953
 20
304.606534
 11
83.898976
 21
302.258542
  0
LINE
  5
3C7
100
AcDbEntity
  8
M0
100
AcDbLine
 10
87.661153
 20
303.192319
 11
85.313176
 21
300.844327
  0
LINE
  5
3C8
100
AcDbEntity
  8
M0
100
AcDbLine
 10
83.711095
 20
304.794309
 11
87.974065
 21
300.531369
  0
LINE
  5
3C9
100
AcDbEntity
  8
M0
100
AcDbLine
 10
103.846953
 20
304.606534
 11
101.498976
 21
302.258542
  0
LINE
  5
3CA
100
AcDbEntity
  8
M0
100
AcDbLine
 10
105.261153
 20
303.192319
 11
102.913176
 21
300.844327
  0
LINE
  5
3CB
100
AcDbEntity
  8
M0
100
AcDbLine
 10
101.311095
 20
304.794309
 11
105.574065
 21
300.531369
  0
LINE
  5
3CC
100
AcDbEntity
  8
M0
  6
DASHED
100
AcDbLine
 10
34.830053
 20
361.925369
 11
34.830053
 21
302.525369
  0
LINE
  5
3CD
100
AcDbEntity
  8
M0
  6
DASHED
100
AcDbLine
 10
34.830053
 20
361.925369
 11
47.330053
 21
361.925369
  0
LINE
  5
3CE
100
AcDbEntity
  8
M0
  6
DASHED
100
AcDbLine
 10
34.830053
 20
302.525369
 11
47.330053
 21
302.525369
  0
LINE
  5
3CF
100
AcDbEntity
  8
M0
  6
DASHED
100
AcDbLine
 10
136.730045
 20
361.925369
 11
136.730045
 21
302.525369
  0
LINE
  5
3D0
100
AcDbEntity
  8
M0
  6
DASHED
100
AcDbLine
 10
136.730045
 20
361.925369
 11
124.230045
 21
361.925369
  0
LINE
  5
3D1
100
AcDbEntity
  8
M0
  6
DASHED
100
AcDbLine
 10
136.730045
 20
302.525369
 11
124.230045
 21
302.525369
  0
CIRCLE
  5
3D2
100
AcDbEntity
  8
M0
100
AcDbCircle
 10
85.780049
 20
302.725369
 40
5.0
  0
CIRCLE
  5
3D3
100
AcDbEntity
  8
M0
100
AcDbCircle
 10
103.380049
 20
302.725369
 40
5.0
  0
CIRCLE
  5
3D4
100
AcDbEntity
  8
M0
100
AcDbCircle
 10
68.180049
 20
302.725369
 40
5.0
  0
CIRCLE
  5
3D5
100
AcDbEntity
  8
M0
100
AcDbCircle
 10
68.180049
 20
361.725369
 40
5.0
  0
CIRCLE
  5
3D6
100
AcDbEntity
  8
M0
100
AcDbCircle
 10
85.780049
 20
361.725369
 40
5.0
  0
CIRCLE
  5
3D7
100
AcDbEntity
  8
M0
100
AcDbCircle
 10
103.380049
 20
361.725369
 40
5.0
  0
ARC
  5
3D8
100
AcDbEntity
  8
M0
100
AcDbCircle
 10
103.130049
 20
292.725369
 40
2.825
100
AcDbArc
 50
147.029184
 51
220.262187
  0
ARC
  5
3D9
100
AcDbEntity
  8
M0
100
AcDbCircle
 10
103.130049
 20
292.725369
 40
2.85
100
AcDbArc
 50
146.446983
 51
220.780622
  0
LINE
  5
3DA
100
AcDbEntity
  8
M0
100
AcDbLine
 10
100.658205
 20
289.725368
 11
97.880049
 21
289.725368
  0
LINE
  5
3DB
100
AcDbEntity
  8
M0
100
AcDbLine
 10
63.295299
 20
289.725368
 11
50.330049
 21
289.725368
  0
ARC
  5
3DC
100
AcDbEntity
  8
M0
100
AcDbCircle
 10
68.430049
 20
292.725369
 40
2.85
100
AcDbArc
 50
318.236176
 51
393.553017
  0
ARC
  5
3DD
100
AcDbEntity
  8
M0
100
AcDbCircle
 10
68.430049
 20
292.725369
 40
2.825
100
AcDbArc
 50
318.895617
 51
392.970816
  0
LINE
  5
3DE
100
AcDbEntity
  8
M0
 62
     6
100
AcDbLine
 10
88.279901
 20
237.025327
 11
87.279901
 21
237.025331
  0
LINE
  5
3DF
100
AcDbEntity
  8
M0
 62
     6
100
AcDbLine
 10
49.27994
 20
244.025463
 11
51.279932
 21
246.025701
  0
LINE
  5
3E0
100
AcDbEntity
  8
M0
 62
     6
100
AcDbLine
 10
66.279925
 20
239.525404
 11
64.279916
 21
241.525655
  0
LINE
  5
3E1
100
AcDbEntity
  8
M0
 62
     6
100
AcDbLine
 10
89.279925
 20
239.525324
 11
91.279916
 21
241.525561
  0
LINE
  5
3E2
100
AcDbEntity
  8
M0
 62
     6
100
AcDbLine
 10
69.279925
 20
239.525394
 11
71.279916
 21
241.525631
  0
LINE
  5
3E3
100
AcDbEntity
  8
M0
 62
     6
100
AcDbLine
 10
86.279925
 20
239.525334
 11
84.279916
 21
241.52583
  0
LINE
  5
3E4
100
AcDbEntity
  8
M0
 62
     6
100
AcDbLine
 10
89.279904
 20
238.025324
 11
89.280044
 21
278.025324
  0
LINE
  5
3E5
100
AcDbEntity
  8
M0
 62
     6
100
AcDbLine
 10
86.279904
 20
238.025334
 11
86.280044
 21
278.025334
  0
LINE
  5
3E6
100
AcDbEntity
  8
M0
 62
     6
100
AcDbLine
 10
66.280039
 20
276.525404
 11
61.627839
 21
276.52542
  0
LINE
  5
3E7
100
AcDbEntity
  8
M0
 62
     6
100
AcDbLine
 10
84.279916
 20
241.52583
 11
84.27996
 21
254.025341
  0
LINE
  5
3E8
100
AcDbEntity
  8
M0
 62
     6
100
AcDbLine
 10
69.279904
 20
238.025394
 11
69.280044
 21
278.025394
  0
LINE
  5
3E9
100
AcDbEntity
  8
M0
 62
     6
100
AcDbLine
 10
46.279916
 20
241.325523
 11
46.280049
 21
279.525474
  0
LINE
  5
3EA
100
AcDbEntity
  8
M0
 62
     6
100
AcDbLine
 10
109.130038
 20
276.525255
 11
100.676937
 21
276.525284
  0
ARC
  5
3EB
100
AcDbEntity
  8
M0
 62
     6
100
AcDbCircle
 10
52.27996
 20
254.025453
 40
1.0
100
AcDbArc
 50
89.998926
 51
179.9998
  0
ARC
  5
3EC
100
AcDbEntity
  8
M0
 62
     6
100
AcDbCircle
 10
92.279988
 20
262.025313
 40
1.0
100
AcDbArc
 50
179.9998
 51
270.0
  0
LINE
  5
3ED
100
AcDbEntity
  8
M0
 62
     6
100
AcDbLine
 10
105.279982
 20
262.025268
 11
105.280033
 21
276.525268
  0
ARC
  5
3EE
100
AcDbEntity
  8
M0
 62
     6
100
AcDbCircle
 10
72.27996
 20
254.025383
 40
1.0
100
AcDbArc
 50
89.998926
 51
179.9998
  0
ARC
  5
3EF
100
AcDbEntity
  8
M0
 62
     6
100
AcDbCircle
 10
65.279988
 20
262.025408
 40
1.0
100
AcDbArc
 50
270.0
 51
359.9998
  0
LINE
  5
3F0
100
AcDbEntity
  8
M0
 62
     6
100
AcDbLine
 10
66.280054
 20
276.525404
 11
64.280077
 21
274.525655
  0
ARC
  5
3F1
100
AcDbEntity
  8
M0
 62
     6
100
AcDbCircle
 10
48.279923
 20
243.525467
 40
1.0
100
AcDbArc
 50
270.0
 51
359.9998
  0
LINE
  5
3F2
100
AcDbEntity
  8
M0
 62
     6
100
AcDbLine
 10
66.279916
 20
241.325453
 11
46.279916
 21
241.325523
  0
LINE
  5
3F3
100
AcDbEntity
  8
M0
 62
     6
100
AcDbLine
 10
68.279901
 20
237.025397
 11
67.279901
 21
237.025401
  0
LINE
  5
3F4
100
AcDbEntity
  8
M0
 62
     6
100
AcDbLine
 10
86.279916
 20
241.325383
 11
69.279916
 21
241.325442
  0
LINE
  5
3F5
100
AcDbEntity
  8
M0
 62
     6
100
AcDbLine
 10
69.280054
 20
276.525394
 11
71.280032
 21
274.525387
  0
LINE
  5
3F6
100
AcDbEntity
  8
M0
 62
     6
100
AcDbLine
 10
48.280044
 20
278.025467
 11
46.280044
 21
278.025474
  0
LINE
  5
3F7
100
AcDbEntity
  8
M0
 62
     6
100
AcDbLine
 10
109.129909
 20
239.525255
 11
109.129965
 21
255.522813
  0
ARC
  5
3F8
100
AcDbEntity
  8
M0
 62
     6
100
AcDbCircle
 10
90.279971
 20
257.02532
 40
1.0
100
AcDbArc
 50
89.998926
 51
179.9998
  0
ARC
  5
3F9
100
AcDbEntity
  8
M0
 62
     6
100
AcDbCircle
 10
88.279904
 20
238.025327
 40
1.0
100
AcDbArc
 50
270.0
 51
359.9998
  0
ARC
  5
3FA
100
AcDbEntity
  8
M0
 62
     6
100
AcDbCircle
 10
67.279904
 20
238.025401
 40
1.0
100
AcDbArc
 50
179.9998
 51
270.0
  0
ARC
  5
3FB
100
AcDbEntity
  8
M0
 62
     6
100
AcDbCircle
 10
48.28004
 20
277.025467
 40
1.0
100
AcDbArc
 50
359.9998
 51
449.998926
  0
ARC
  5
3FC
100
AcDbEntity
  8
M0
 62
     6
100
AcDbCircle
 10
119.129991
 20
263.02522
 40
13.299996
100
AcDbArc
 50
165.18762
 51
194.810764
  0
ARC
  5
3FD
100
AcDbEntity
  8
M0
 62
     6
100
AcDbCircle
 10
68.279904
 20
238.025397
 40
1.0
100
AcDbArc
 50
270.0
 51
359.9998
  0
ARC
  5
3FE
100
AcDbEntity
  8
M0
 62
     6
100
AcDbCircle
 10
65.279971
 20
257.025408
 40
1.0
100
AcDbArc
 50
359.9998
 51
449.998926
  0
ARC
  5
3FF
100
AcDbEntity
  8
M0
 62
     6
100
AcDbCircle
 10
87.279904
 20
238.025331
 40
1.0
100
AcDbArc
 50
179.9998
 51
270.0
  0
ARC
  5
400
100
AcDbEntity
  8
M0
 62
     6
100
AcDbCircle
 10
70.279971
 20
257.02539
 40
1.0
100
AcDbArc
 50
89.998926
 51
179.9998
  0
ARC
  5
401
100
AcDbEntity
  8
M0
 62
     6
100
AcDbCircle
 10
50.279971
 20
257.02546
 40
1.0
100
AcDbArc
 50
89.998926
 51
179.9998
  0
ARC
  5
402
100
AcDbEntity
  8
M0
 62
     6
100
AcDbCircle
 10
108.629909
 20
239.525256
 40
0.5
100
AcDbArc
 50
270.0
 51
359.9998
  0
ARC
  5
403
100
AcDbEntity
  8
M0
 62
     6
100
AcDbCircle
 10
85.279971
 20
257.025338
 40
1.0
100
AcDbArc
 50
359.9998
 51
449.998926
  0
ARC
  5
404
100
AcDbEntity
  8
M0
 62
     6
100
AcDbCircle
 10
104.279982
 20
262.025271
 40
1.0
100
AcDbArc
 50
270.0
 51
359.9998
  0
ARC
  5
405
100
AcDbEntity
  8
M0
 62
     6
100
AcDbCircle
 10
106.779904
 20
239.525263
 40
0.5
100
AcDbArc
 50
179.9998
 51
270.0
  0
CIRCLE
  5
406
100
AcDbEntity
  8
M0
 62
     6
100
AcDbCircle
 10
57.779934
 20
268.025125
 40
5.0
  0
LINE
  5
407
100
AcDbEntity
  8
M0
 62
     6
100
AcDbLine
 10
49.279923
 20
243.525463
 11
49.28004
 21
277.025463
  0
CIRCLE
  5
408
100
AcDbEntity
  8
M0
 62
     6
100
AcDbCircle
 10
97.779903
 20
268.024881
 40
5.0
  0
LINE
  5
409
100
AcDbEntity
  8
M0
 62
     6
100
AcDbLine
 10
71.279916
 20
241.525631
 11
71.27996
 21
254.025387
  0
LINE
  5
40A
100
AcDbEntity
  8
M0
 62
     6
100
AcDbLine
 10
66.279904
 20
238.025404
 11
66.280044
 21
278.025404
  0
CIRCLE
  5
40B
100
AcDbEntity
  8
M0
 62
     6
100
AcDbCircle
 10
77.780041
 20
268.025369
 40
5.0
  0
LINE
  5
40C
100
AcDbEntity
  8
M0
 62
     6
100
AcDbLine
 10
106.279904
 20
239.525264
 11
106.279965
 21
257.025264
  0
ARC
  5
40D
100
AcDbEntity
  8
M0
 62
     6
100
AcDbCircle
 10
68.280044
 20
278.025397
 40
1.0
100
AcDbArc
 50
359.9998
 51
449.998926
  0
ARC
  5
40E
100
AcDbEntity
  8
M0
 62
     6
100
AcDbCircle
 10
88.280044
 20
278.025327
 40
1.0
100
AcDbArc
 50
359.9998
 51
449.998926
  0
ARC
  5
40F
100
AcDbEntity
  8
M0
 62
     6
100
AcDbCircle
 10
87.280044
 20
278.025331
 40
1.0
100
AcDbArc
 50
89.998926
 51
179.9998
  0
CIRCLE
  5
410
100
AcDbEntity
  8
M0
 62
     6
100
AcDbCircle
 10
77.779919
 20
248.024637
 40
5.0
  0
CIRCLE
  5
411
100
AcDbEntity
  8
M0
 62
     6
100
AcDbCircle
 10
97.779774
 20
248.024766
 40
5.0
  0
ARC
  5
412
100
AcDbEntity
  8
M0
 62
     6
100
AcDbCircle
 10
67.280044
 20
278.025401
 40
1.0
100
AcDbArc
 50
89.998926
 51
179.9998
  0
LINE
  5
413
100
AcDbEntity
  8
M0
 62
     6
100
AcDbLine
 10
103.415177
 20
279.025274
 11
102.012966
 21
279.025279
  0
LINE
  5
414
100
AcDbEntity
  8
M0
 62
     6
100
AcDbLine
 10
71.279988
 20
262.025387
 11
71.280032
 21
274.525387
  0
LINE
  5
415
100
AcDbEntity
  8
M0
 62
     6
100
AcDbLine
 10
85.279984
 20
261.025338
 11
70.279984
 21
261.02539
  0
LINE
  5
416
100
AcDbEntity
  8
M0
 62
     6
100
AcDbLine
 10
121.918896
 20
279.025256
 11
109.144275
 21
279.025007
  0
LINE
  5
417
100
AcDbEntity
  8
M0
 62
     6
100
AcDbLine
 10
55.553035
 20
279.525256
 11
46.280049
 21
279.525256
  0
LINE
  5
418
100
AcDbEntity
  8
M0
 62
     6
100
AcDbLine
 10
104.279979
 20
261.025271
 11
89.279984
 21
261.025324
  0
LINE
  5
419
100
AcDbEntity
  8
M0
 62
     6
100
AcDbLine
 10
64.280034
 20
262.025411
 11
64.280077
 21
274.525655
  0
LINE
  5
41A
100
AcDbEntity
  8
M0
 62
     6
100
AcDbLine
 10
105.279958
 20
255.025268
 11
90.279964
 21
255.02532
  0
LINE
  5
41B
100
AcDbEntity
  8
M0
 62
     6
100
AcDbLine
 10
65.279974
 20
258.025408
 11
50.279974
 21
258.02546
  0
LINE
  5
41C
100
AcDbEntity
  8
M0
 62
     6
100
AcDbLine
 10
51.280034
 20
262.025456
 11
51.280077
 21
274.526189
  0
LINE
  5
41D
100
AcDbEntity
  8
M0
 62
     6
100
AcDbLine
 10
48.27992
 20
242.525467
 11
46.27992
 21
242.525474
  0
LINE
  5
41E
100
AcDbEntity
  8
M0
 62
     6
100
AcDbLine
 10
85.279974
 20
258.025338
 11
70.279974
 21
258.02539
  0
LINE
  5
41F
100
AcDbEntity
  8
M0
 62
     6
100
AcDbLine
 10
85.279964
 20
255.025338
 11
70.279964
 21
255.02539
  0
LINE
  5
420
100
AcDbEntity
  8
M0
 62
     6
100
AcDbLine
 10
86.280039
 20
276.525334
 11
81.164997
 21
276.525352
  0
LINE
  5
421
100
AcDbEntity
  8
M0
 62
     6
100
AcDbLine
 10
131.283508
 20
277.522813
 11
101.173108
 21
277.522522
  0
LINE
  5
422
100
AcDbEntity
  8
M0
 62
     6
100
AcDbLine
 10
86.280042
 20
277.525334
 11
81.681359
 21
277.52535
  0
LINE
  5
423
100
AcDbEntity
  8
M0
 62
     6
100
AcDbLine
 10
66.280042
 20
277.525404
 11
62.06992
 21
277.525419
  0
LINE
  5
424
100
AcDbEntity
  8
M0
 62
     6
100
AcDbLine
 10
106.283506
 20
258.022813
 11
106.283505
 21
255.522813
  0
LINE
  5
425
100
AcDbEntity
  8
M0
 62
     6
100
AcDbLine
 10
102.783504
 20
255.025277
 11
102.783508
 21
261.025277
  0
LINE
  5
426
100
AcDbEntity
  8
M0
 62
     6
100
AcDbLine
 10
109.133518
 20
266.422813
 11
106.271287
 21
266.422813
  0
LINE
  5
427
100
AcDbEntity
  8
M0
 62
     6
100
AcDbLine
 10
109.133513
 20
259.622813
 11
106.27256
 21
259.622813
  0
LINE
  5
428
100
AcDbEntity
  8
M0
 62
     6
100
AcDbLine
 10
64.279916
 20
241.525655
 11
64.27996
 21
254.025411
  0
LINE
  5
429
100
AcDbEntity
  8
M0
 62
     6
100
AcDbLine
 10
84.279988
 20
262.025341
 11
84.280032
 21
274.525341
  0
LINE
  5
42A
100
AcDbEntity
  8
M0
 62
     6
100
AcDbLine
 10
91.279916
 20
241.525561
 11
91.27996
 21
254.025317
  0
LINE
  5
42B
100
AcDbEntity
  8
M0
 62
     6
100
AcDbLine
 10
104.27991
 20
241.32532
 11
104.279954
 21
254.025271
  0
LINE
  5
42C
100
AcDbEntity
  8
M0
 62
     6
100
AcDbLine
 10
91.279988
 20
262.025317
 11
91.280032
 21
274.525805
  0
LINE
  5
42D
100
AcDbEntity
  8
M0
 62
     6
100
AcDbLine
 10
104.279982
 20
262.025271
 11
104.280033
 21
276.525271
  0
ARC
  5
42E
100
AcDbEntity
  8
M0
 62
     6
100
AcDbCircle
 10
90.27996
 20
254.02532
 40
1.0
100
AcDbArc
 50
89.998926
 51
179.9998
  0
ARC
  5
42F
100
AcDbEntity
  8
M0
 62
     6
100
AcDbCircle
 10
105.279954
 20
254.025268
 40
1.0
100
AcDbArc
 50
359.9998
 51
450.0
  0
ARC
  5
430
100
AcDbEntity
  8
M0
 62
     6
100
AcDbCircle
 10
85.27996
 20
254.025338
 40
1.0
100
AcDbArc
 50
359.9998
 51
449.998926
  0
ARC
  5
431
100
AcDbEntity
  8
M0
 62
     6
100
AcDbCircle
 10
65.27996
 20
254.025408
 40
1.0
100
AcDbArc
 50
359.9998
 51
449.998926
  0
ARC
  5
432
100
AcDbEntity
  8
M0
 62
     6
100
AcDbCircle
 10
50.27996
 20
254.02546
 40
1.0
100
AcDbArc
 50
89.998926
 51
179.9998
  0
ARC
  5
433
100
AcDbEntity
  8
M0
 62
     6
100
AcDbCircle
 10
103.279982
 20
262.025275
 40
1.0
100
AcDbArc
 50
270.0
 51
359.9998
  0
ARC
  5
434
100
AcDbEntity
  8
M0
 62
     6
100
AcDbCircle
 10
85.279988
 20
262.025338
 40
1.0
100
AcDbArc
 50
270.0
 51
359.9998
  0
ARC
  5
435
100
AcDbEntity
  8
M0
 62
     6
100
AcDbCircle
 10
70.279988
 20
262.02539
 40
1.0
100
AcDbArc
 50
179.9998
 51
270.0
  0
ARC
  5
436
100
AcDbEntity
  8
M0
 62
     6
100
AcDbCircle
 10
103.279954
 20
254.025275
 40
1.0
100
AcDbArc
 50
359.9998
 51
450.0
  0
CIRCLE
  5
437
100
AcDbEntity
  8
M0
 62
     6
100
AcDbCircle
 10
57.779919
 20
248.024637
 40
5.0
  0
ARC
  5
438
100
AcDbEntity
  8
M0
 62
     6
100
AcDbCircle
 10
63.27996
 20
254.025415
 40
1.0
100
AcDbArc
 50
359.9998
 51
449.998926
  0
ARC
  5
439
100
AcDbEntity
  8
M0
 62
     6
100
AcDbCircle
 10
83.27996
 20
254.025345
 40
1.0
100
AcDbArc
 50
359.9998
 51
449.998926
  0
ARC
  5
43A
100
AcDbEntity
  8
M0
 62
     6
100
AcDbCircle
 10
50.279988
 20
262.02546
 40
1.0
100
AcDbArc
 50
179.9998
 51
270.0
  0
ARC
  5
43B
100
AcDbEntity
  8
M0
 62
     6
100
AcDbCircle
 10
92.27996
 20
254.025313
 40
1.0
100
AcDbArc
 50
89.998926
 51
179.9998
  0
LINE
  5
43C
100
AcDbEntity
  8
M0
 62
     6
100
AcDbLine
 10
106.27991
 20
241.325313
 11
89.279916
 21
241.325373
  0
LINE
  5
43D
100
AcDbEntity
  8
M0
 62
     6
100
AcDbLine
 10
65.279964
 20
255.025408
 11
50.279964
 21
255.02546
  0
LINE
  5
43E
100
AcDbEntity
  8
M0
 62
     6
100
AcDbLine
 10
86.280115
 20
276.525334
 11
84.280032
 21
274.525341
  0
LINE
  5
43F
100
AcDbEntity
  8
M0
 62
     6
100
AcDbLine
 10
65.279984
 20
261.025408
 11
50.279984
 21
261.02546
  0
LINE
  5
440
100
AcDbEntity
  8
M0
 62
     6
100
AcDbLine
 10
102.783506
 20
258.025277
 11
90.279974
 21
258.02532
  0
LINE
  5
441
100
AcDbEntity
  8
M0
 62
     6
100
AcDbLine
 10
49.280115
 20
276.525708
 11
51.280077
 21
274.526189
  0
LINE
  5
442
100
AcDbEntity
  8
M0
 62
     6
100
AcDbLine
 10
51.279932
 20
246.025701
 11
51.27996
 21
254.025456
  0
ARC
  5
443
100
AcDbEntity
  8
M0
 62
     6
100
AcDbCircle
 10
70.27996
 20
254.02539
 40
1.0
100
AcDbArc
 50
89.998926
 51
179.9998
  0
ARC
  5
444
100
AcDbEntity
  8
M0
 62
     6
100
AcDbCircle
 10
52.280034
 20
262.025453
 40
1.0
100
AcDbArc
 50
179.9998
 51
270.0
  0
ARC
  5
445
100
AcDbEntity
  8
M0
 62
     6
100
AcDbCircle
 10
63.280034
 20
262.025415
 40
1.0
100
AcDbArc
 50
270.0
 51
359.9998
  0
LINE
  5
446
100
AcDbEntity
  8
M0
 62
     6
100
AcDbLine
 10
89.280115
 20
276.525324
 11
91.280032
 21
274.525805
  0
LINE
  5
447
100
AcDbEntity
  8
M0
 62
     6
100
AcDbLine
 10
108.629907
 20
239.025256
 11
106.779902
 21
239.025263
  0
ARC
  5
448
100
AcDbEntity
  8
M0
 62
     6
100
AcDbCircle
 10
83.279988
 20
262.025345
 40
1.0
100
AcDbArc
 50
270.0
 51
359.9998
  0
ARC
  5
449
100
AcDbEntity
  8
M0
 62
     6
100
AcDbCircle
 10
72.279988
 20
262.025383
 40
1.0
100
AcDbArc
 50
179.9998
 51
270.0
  0
CIRCLE
  5
44A
100
AcDbEntity
  8
M0
 62
     6
100
AcDbCircle
 10
97.779903
 20
268.02501
 40
4.5
  0
LINE
  5
44B
100
AcDbEntity
  8
M0
 62
     6
100
AcDbLine
 10
95.819897
 20
269.984971
 11
99.739895
 21
266.064805
  0
LINE
  5
44C
100
AcDbEntity
  8
M0
 62
     6
100
AcDbLine
 10
98.647839
 20
270.306993
 11
95.497738
 21
267.156846
  0
LINE
  5
44D
100
AcDbEntity
  8
M0
 62
     6
100
AcDbLine
 10
100.062038
 20
268.89293
 11
96.911938
 21
265.742784
  0
LINE
  5
44E
100
AcDbEntity
  8
M0
  6
DASHDOT
 62
     6
100
AcDbLine
 10
97.279903
 20
268.02501
 11
98.279903
 21
268.02501
  0
LINE
  5
44F
100
AcDbEntity
  8
M0
  6
DASHDOT
 62
     6
100
AcDbLine
 10
97.779903
 20
267.52501
 11
97.779903
 21
268.52501
  0
CIRCLE
  5
450
100
AcDbEntity
  8
M0
 62
     6
100
AcDbCircle
 10
57.779919
 20
248.024766
 40
4.5
  0
LINE
  5
451
100
AcDbEntity
  8
M0
 62
     6
100
AcDbLine
 10
55.819912
 20
249.984727
 11
59.73991
 21
246.064561
  0
LINE
  5
452
100
AcDbEntity
  8
M0
 62
     6
100
AcDbLine
 10
58.647854
 20
250.306749
 11
55.497753
 21
247.156602
  0
LINE
  5
453
100
AcDbEntity
  8
M0
 62
     6
100
AcDbLine
 10
60.062054
 20
248.892686
 11
56.911953
 21
245.74254
  0
LINE
  5
454
100
AcDbEntity
  8
M0
  6
DASHDOT
 62
     6
100
AcDbLine
 10
57.279919
 20
248.024766
 11
58.279919
 21
248.024766
  0
LINE
  5
455
100
AcDbEntity
  8
M0
  6
DASHDOT
 62
     6
100
AcDbLine
 10
57.779919
 20
247.524766
 11
57.779919
 21
248.524766
  0
CIRCLE
  5
456
100
AcDbEntity
  8
M0
 62
     6
100
AcDbCircle
 10
97.779903
 20
248.024766
 40
4.5
  0
LINE
  5
457
100
AcDbEntity
  8
M0
 62
     6
100
AcDbLine
 10
95.819897
 20
249.984727
 11
99.739895
 21
246.064561
  0
LINE
  5
458
100
AcDbEntity
  8
M0
 62
     6
100
AcDbLine
 10
98.647839
 20
250.306749
 11
95.497738
 21
247.156602
  0
LINE
  5
459
100
AcDbEntity
  8
M0
 62
     6
100
AcDbLine
 10
100.062038
 20
248.892686
 11
96.911938
 21
245.74254
  0
LINE
  5
45A
100
AcDbEntity
  8
M0
  6
DASHDOT
 62
     6
100
AcDbLine
 10
97.279903
 20
248.024766
 11
98.279903
 21
248.024766
  0
LINE
  5
45B
100
AcDbEntity
  8
M0
  6
DASHDOT
 62
     6
100
AcDbLine
 10
97.779903
 20
247.524766
 11
97.779903
 21
248.524766
  0
CIRCLE
  5
45C
100
AcDbEntity
  8
M0
 62
     6
100
AcDbCircle
 10
77.779919
 20
248.024766
 40
4.5
  0
LINE
  5
45D
100
AcDbEntity
  8
M0
 62
     6
100
AcDbLine
 10
75.819912
 20
249.984727
 11
79.73991
 21
246.064561
  0
LINE
  5
45E
100
AcDbEntity
  8
M0
 62
     6
100
AcDbLine
 10
78.647854
 20
250.306749
 11
75.497753
 21
247.156602
  0
LINE
  5
45F
100
AcDbEntity
  8
M0
 62
     6
100
AcDbLine
 10
80.062054
 20
248.892686
 11
76.911953
 21
245.74254
  0
LINE
  5
460
100
AcDbEntity
  8
M0
  6
DASHDOT
 62
     6
100
AcDbLine
 10
77.279919
 20
248.024766
 11
78.279919
 21
248.024766
  0
LINE
  5
461
100
AcDbEntity
  8
M0
  6
DASHDOT
 62
     6
100
AcDbLine
 10
77.779919
 20
247.524766
 11
77.779919
 21
248.524766
  0
CIRCLE
  5
462
100
AcDbEntity
  8
M0
 62
     6
100
AcDbCircle
 10
113.282299
 20
251.022813
 40
2.999997
  0
LINE
  5
463
100
AcDbEntity
  8
M0
 62
     6
100
AcDbLine
 10
110.493701
 20
255.522813
 11
109.507153
 21
252.322862
  0
LINE
  5
464
100
AcDbEntity
  8
M0
 62
     6
100
AcDbLine
 10
110.323315
 20
247.075563
 11
109.507153
 21
249.722886
  0
LINE
  5
465
100
AcDbEntity
  8
M0
 62
     6
100
AcDbLine
 10
116.222149
 20
255.030626
 11
117.057201
 21
252.322862
  0
LINE
  5
466
100
AcDbEntity
  8
M0
 62
     6
100
AcDbLine
 10
116.240795
 20
247.075548
 11
117.057201
 21
249.722886
  0
LINE
  5
467
100
AcDbEntity
  8
M0
 62
     6
100
AcDbLine
 10
110.801342
 20
246.722886
 11
115.763012
 21
246.722886
  0
LINE
  5
468
100
AcDbEntity
  8
M0
 62
     6
100
AcDbLine
 10
117.057201
 20
249.722886
 11
117.057201
 21
252.322862
  0
LINE
  5
469
100
AcDbEntity
  8
M0
 62
     6
100
AcDbLine
 10
109.507153
 20
252.322862
 11
109.507153
 21
249.722886
  0
LINE
  5
46A
100
AcDbEntity
  8
M0
 62
     6
100
AcDbLine
 10
114.872875
 20
249.431993
 11
111.691235
 21
252.613756
  0
LINE
  5
46B
100
AcDbEntity
  8
M0
 62
     6
100
AcDbLine
 10
113.635571
 20
252.436998
 11
111.867992
 21
250.669298
  0
LINE
  5
46C
100
AcDbEntity
  8
M0
 62
     6
100
AcDbLine
 10
114.696117
 20
251.376329
 11
112.928539
 21
249.608751
  0
ARC
  5
46D
100
AcDbEntity
  8
M0
 62
     6
100
AcDbCircle
 10
110.801342
 20
247.222886
 40
0.5
100
AcDbArc
 50
197.128737
 51
270.0
  0
ARC
  5
46E
100
AcDbEntity
  8
M0
 62
     6
100
AcDbCircle
 10
115.763012
 20
247.222886
 40
0.5
100
AcDbArc
 50
270.0
 51
342.861308
  0
ARC
  5
46F
100
AcDbEntity
  8
M0
 62
     6
100
AcDbCircle
 10
115.763012
 20
254.82274
 40
0.5
100
AcDbArc
 50
17.138692
 51
90.0
  0
LINE
  5
470
100
AcDbEntity
  8
M0
 62
     6
100
AcDbLine
 10
110.801342
 20
255.32274
 11
115.763012
 21
255.32274
  0
ARC
  5
471
100
AcDbEntity
  8
M0
 62
     6
100
AcDbCircle
 10
110.801342
 20
254.82274
 40
0.5
100
AcDbArc
 50
90.0
 51
162.871263
  0
LINE
  5
472
100
AcDbEntity
  8
M0
  6
DASHDOT
 62
     6
100
AcDbLine
 10
112.782299
 20
251.022813
 11
113.782299
 21
251.022813
  0
LINE
  5
473
100
AcDbEntity
  8
M0
  6
DASHDOT
 62
     6
100
AcDbLine
 10
113.282299
 20
250.522813
 11
113.282299
 21
251.522813
  0
CIRCLE
  5
474
100
AcDbEntity
  8
M0
 62
     6
100
AcDbCircle
 10
124.282299
 20
251.022813
 40
2.999997
  0
LINE
  5
475
100
AcDbEntity
  8
M0
 62
     6
100
AcDbLine
 10
121.339058
 20
255.021213
 11
120.507153
 21
252.322862
  0
LINE
  5
476
100
AcDbEntity
  8
M0
 62
     6
100
AcDbLine
 10
121.323315
 20
247.075563
 11
120.507153
 21
249.722886
  0
LINE
  5
477
100
AcDbEntity
  8
M0
 62
     6
100
AcDbLine
 10
127.260212
 20
254.907205
 11
128.057201
 21
252.322862
  0
LINE
  5
478
100
AcDbEntity
  8
M0
 62
     6
100
AcDbLine
 10
127.240795
 20
247.075548
 11
128.057201
 21
249.722886
  0
LINE
  5
479
100
AcDbEntity
  8
M0
 62
     6
100
AcDbLine
 10
121.801342
 20
246.722886
 11
126.763012
 21
246.722886
  0
LINE
  5
47A
100
AcDbEntity
  8
M0
 62
     6
100
AcDbLine
 10
128.057201
 20
249.722886
 11
128.057201
 21
252.322862
  0
LINE
  5
47B
100
AcDbEntity
  8
M0
 62
     6
100
AcDbLine
 10
120.507153
 20
252.322862
 11
120.507153
 21
249.722886
  0
LINE
  5
47C
100
AcDbEntity
  8
M0
 62
     6
100
AcDbLine
 10
125.872875
 20
249.431993
 11
122.691235
 21
252.613756
  0
LINE
  5
47D
100
AcDbEntity
  8
M0
 62
     6
100
AcDbLine
 10
124.635571
 20
252.436998
 11
122.867992
 21
250.669298
  0
LINE
  5
47E
100
AcDbEntity
  8
M0
 62
     6
100
AcDbLine
 10
125.696117
 20
251.376329
 11
123.928539
 21
249.608751
  0
ARC
  5
47F
100
AcDbEntity
  8
M0
 62
     6
100
AcDbCircle
 10
121.801342
 20
247.222886
 40
0.5
100
AcDbArc
 50
197.128737
 51
270.0
  0
ARC
  5
480
100
AcDbEntity
  8
M0
 62
     6
100
AcDbCircle
 10
126.763012
 20
247.222886
 40
0.5
100
AcDbArc
 50
270.0
 51
342.861308
  0
ARC
  5
481
100
AcDbEntity
  8
M0
 62
     6
100
AcDbCircle
 10
126.763012
 20
254.82274
 40
0.5
100
AcDbArc
 50
17.138692
 51
90.0
  0
LINE
  5
482
100
AcDbEntity
  8
M0
 62
     6
100
AcDbLine
 10
122.231724
 20
255.32274
 11
126.763012
 21
255.32274
  0
ARC
  5
483
100
AcDbEntity
  8
M0
 62
     6
100
AcDbCircle
 10
121.801342
 20
254.82274
 40
0.5
100
AcDbArc
 50
156.480883
 51
162.871263
  0
LINE
  5
484
100
AcDbEntity
  8
M0
  6
DASHDOT
 62
     6
100
AcDbLine
 10
123.782299
 20
251.022813
 11
124.782299
 21
251.022813
  0
LINE
  5
485
100
AcDbEntity
  8
M0
  6
DASHDOT
 62
     6
100
AcDbLine
 10
124.282299
 20
250.522813
 11
124.282299
 21
251.522813
  0
CIRCLE
  5
486
100
AcDbEntity
  8
M0
 62
     6
100
AcDbCircle
 10
57.779934
 20
268.025255
 40
4.5
  0
LINE
  5
487
100
AcDbEntity
  8
M0
 62
     6
100
AcDbLine
 10
55.819927
 20
269.985215
 11
59.739925
 21
266.065049
  0
LINE
  5
488
100
AcDbEntity
  8
M0
 62
     6
100
AcDbLine
 10
58.647869
 20
270.307237
 11
55.497768
 21
267.15709
  0
LINE
  5
489
100
AcDbEntity
  8
M0
 62
     6
100
AcDbLine
 10
60.062069
 20
268.893174
 11
56.911968
 21
265.743028
  0
LINE
  5
48A
100
AcDbEntity
  8
M0
  6
DASHDOT
 62
     6
100
AcDbLine
 10
57.279934
 20
268.025255
 11
58.279934
 21
268.025255
  0
LINE
  5
48B
100
AcDbEntity
  8
M0
  6
DASHDOT
 62
     6
100
AcDbLine
 10
57.779934
 20
267.525255
 11
57.779934
 21
268.525255
  0
CIRCLE
  5
48C
100
AcDbEntity
  8
M0
 62
     6
100
AcDbCircle
 10
77.780041
 20
268.025499
 40
4.5
  0
LINE
  5
48D
100
AcDbEntity
  8
M0
 62
     6
100
AcDbLine
 10
75.820034
 20
269.98546
 11
79.740032
 21
266.065294
  0
LINE
  5
48E
100
AcDbEntity
  8
M0
 62
     6
100
AcDbLine
 10
78.647976
 20
270.307481
 11
75.497875
 21
267.157335
  0
LINE
  5
48F
100
AcDbEntity
  8
M0
 62
     6
100
AcDbLine
 10
80.062176
 20
268.893419
 11
76.912075
 21
265.743272
  0
LINE
  5
490
100
AcDbEntity
  8
M0
  6
DASHDOT
 62
     6
100
AcDbLine
 10
77.280041
 20
268.025499
 11
78.280041
 21
268.025499
  0
LINE
  5
491
100
AcDbEntity
  8
M0
  6
DASHDOT
 62
     6
100
AcDbLine
 10
77.780041
 20
267.525499
 11
77.780041
 21
268.525499
  0
ARC
  5
492
100
AcDbEntity
  8
M0
 62
     6
100
AcDbCircle
 10
124.28352
 20
244.022813
 40
2.999997
100
AcDbArc
 50
115.844051
 51
424.156194
  0
LINE
  5
493
100
AcDbEntity
  8
M0
 62
     6
100
AcDbLine
 10
121.186031
 20
247.520616
 11
120.508373
 21
245.322862
  0
LINE
  5
494
100
AcDbEntity
  8
M0
 62
     6
100
AcDbLine
 10
121.324535
 20
240.075563
 11
120.508373
 21
242.722886
  0
LINE
  5
495
100
AcDbEntity
  8
M0
 62
     6
100
AcDbLine
 10
127.379345
 20
247.524766
 11
128.058422
 21
245.322862
  0
LINE
  5
496
100
AcDbEntity
  8
M0
 62
     6
100
AcDbLine
 10
127.242016
 20
240.075548
 11
128.058422
 21
242.722886
  0
LINE
  5
497
100
AcDbEntity
  8
M0
 62
     6
100
AcDbLine
 10
121.802563
 20
239.722886
 11
126.764233
 21
239.722886
  0
LINE
  5
498
100
AcDbEntity
  8
M0
 62
     6
100
AcDbLine
 10
128.058422
 20
242.722886
 11
128.058422
 21
245.322862
  0
LINE
  5
499
100
AcDbEntity
  8
M0
 62
     6
100
AcDbLine
 10
120.508373
 20
245.322862
 11
120.508373
 21
242.722886
  0
LINE
  5
49A
100
AcDbEntity
  8
M0
 62
     6
100
AcDbLine
 10
125.874096
 20
242.431993
 11
122.692455
 21
245.613756
  0
LINE
  5
49B
100
AcDbEntity
  8
M0
 62
     6
100
AcDbLine
 10
124.636791
 20
245.436998
 11
122.869213
 21
243.669298
  0
LINE
  5
49C
100
AcDbEntity
  8
M0
 62
     6
100
AcDbLine
 10
125.697338
 20
244.376329
 11
123.92976
 21
242.608751
  0
ARC
  5
49D
100
AcDbEntity
  8
M0
 62
     6
100
AcDbCircle
 10
121.802563
 20
240.222886
 40
0.5
100
AcDbArc
 50
197.128737
 51
270.0
  0
ARC
  5
49E
100
AcDbEntity
  8
M0
 62
     6
100
AcDbCircle
 10
126.764233
 20
240.222886
 40
0.5
100
AcDbArc
 50
270.0
 51
342.861308
  0
LINE
  5
49F
100
AcDbEntity
  8
M0
  6
DASHDOT
 62
     6
100
AcDbLine
 10
123.78352
 20
244.022813
 11
124.78352
 21
244.022813
  0
LINE
  5
4A0
100
AcDbEntity
  8
M0
  6
DASHDOT
 62
     6
100
AcDbLine
 10
124.28352
 20
243.522813
 11
124.28352
 21
244.522813
  0
LINE
  5
4A1
100
AcDbEntity
  8
M0
 62
     6
100
AcDbLine
 10
108.279644
 20
279.5226
 11
104.279644
 21
279.522585
  0
LINE
  5
4A2
100
AcDbEntity
  8
M0
 62
     6
100
AcDbLine
 10
103.279644
 20
278.522585
 11
103.279644
 21
277.5226
  0
LINE
  5
4A3
100
AcDbEntity
  8
M0
 62
     6
100
AcDbLine
 10
109.279644
 20
278.5226
 11
109.279644
 21
277.5226
  0
ARC
  5
4A4
100
AcDbEntity
  8
M0
 62
     6
100
AcDbCircle
 10
108.279644
 20
278.5226
 40
1.0
100
AcDbArc
 50
0.0
 51
89.999126
  0
ARC
  5
4A5
100
AcDbEntity
  8
M0
 62
     6
100
AcDbCircle
 10
104.279644
 20
278.522585
 40
1.0
100
AcDbArc
 50
89.999126
 51
179.999966
  0
ARC
  5
4A6
100
AcDbEntity
  8
M0
 62
     6
100
AcDbCircle
 10
119.283492
 20
236.022821
 40
1.0
100
AcDbArc
 50
179.999964
 51
270.0
  0
ARC
  5
4A7
100
AcDbEntity
  8
M0
 62
     6
100
AcDbCircle
 10
119.283492
 20
236.022821
 40
1.0
100
AcDbArc
 50
270.0
 51
359.999964
  0
LINE
  5
4A8
100
AcDbEntity
  8
M0
 62
     6
100
AcDbLine
 10
110.283523
 20
236.022826
 11
107.283523
 21
236.022828
  0
LINE
  5
4A9
100
AcDbEntity
  8
M0
 62
     6
100
AcDbLine
 10
131.283518
 20
276.522813
 11
106.117517
 21
276.52257
  0
LINE
  5
4AA
100
AcDbEntity
  8
M0
 62
     6
100
AcDbLine
 10
110.28351
 20
240.022826
 11
111.340807
 21
240.022826
  0
LINE
  5
4AB
100
AcDbEntity
  8
M0
 62
     6
100
AcDbLine
 10
131.283493
 20
237.522813
 11
131.28352
 21
279.522813
  0
LINE
  5
4AC
100
AcDbEntity
  8
M0
 62
     6
100
AcDbLine
 10
128.283494
 20
238.022815
 11
128.283505
 21
255.522813
  0
LINE
  5
4AD
100
AcDbEntity
  8
M0
 62
     6
100
AcDbLine
 10
130.783483
 20
246.022813
 11
129.283483
 21
246.022814
  0
ARC
  5
4AE
100
AcDbEntity
  8
M0
 62
     6
100
AcDbCircle
 10
130.783484
 20
246.522813
 40
0.5
100
AcDbArc
 50
270.0
 51
359.999964
  0
ARC
  5
4AF
100
AcDbEntity
  8
M0
 62
     6
100
AcDbCircle
 10
129.283484
 20
247.022814
 40
1.0
100
AcDbArc
 50
179.999964
 51
270.0
  0
LINE
  5
4B0
100
AcDbEntity
  8
M0
 62
     6
100
AcDbLine
 10
130.783494
 20
239.022813
 11
129.283494
 21
239.022814
  0
LINE
  5
4B1
100
AcDbEntity
  8
M0
 62
     6
100
AcDbLine
 10
130.783493
 20
237.022813
 11
129.283493
 21
237.022814
  0
ARC
  5
4B2
100
AcDbEntity
  8
M0
 62
     6
100
AcDbCircle
 10
130.783493
 20
237.522813
 40
0.5
100
AcDbArc
 50
270.0
 51
359.999964
  0
ARC
  5
4B3
100
AcDbEntity
  8
M0
 62
     6
100
AcDbCircle
 10
129.283494
 20
238.022814
 40
1.0
100
AcDbArc
 50
179.999964
 51
270.0
  0
ARC
  5
4B4
100
AcDbEntity
  8
M0
 62
     6
100
AcDbCircle
 10
130.783495
 20
239.522813
 40
0.5
100
AcDbArc
 50
270.0
 51
359.999964
  0
ARC
  5
4B5
100
AcDbEntity
  8
M0
 62
     6
100
AcDbCircle
 10
129.283495
 20
240.022814
 40
1.0
100
AcDbArc
 50
179.999964
 51
270.0
  0
LINE
  5
4B6
100
AcDbEntity
  8
M0
 62
     6
100
AcDbLine
 10
130.783497
 20
244.022813
 11
129.283497
 21
244.022814
  0
ARC
  5
4B7
100
AcDbEntity
  8
M0
 62
     6
100
AcDbCircle
 10
129.283498
 20
245.022814
 40
1.0
100
AcDbArc
 50
179.999964
 51
270.0
  0
ARC
  5
4B8
100
AcDbEntity
  8
M0
 62
     6
100
AcDbCircle
 10
130.783498
 20
244.522813
 40
0.5
100
AcDbArc
 50
270.0
 51
359.999964
  0
LINE
  5
4B9
100
AcDbEntity
  8
M0
 62
     6
100
AcDbLine
 10
120.283492
 20
236.02282
 11
120.283504
 21
254.802866
  0
LINE
  5
4BA
100
AcDbEntity
  8
M0
 62
     6
100
AcDbLine
 10
127.225756
 20
240.022816
 11
128.283464
 21
240.022815
  0
LINE
  5
4BB
100
AcDbEntity
  8
M0
 62
     6
100
AcDbLine
 10
128.283469
 20
247.022815
 11
127.534155
 21
247.022571
  0
LINE
  5
4BC
100
AcDbEntity
  8
M0
 62
     6
100
AcDbLine
 10
121.032538
 20
247.022575
 11
120.283469
 21
247.02282
  0
LINE
  5
4BD
100
AcDbEntity
  8
M0
 62
     6
100
AcDbLine
 10
117.283466
 20
243.022822
 11
117.283491
 21
254.931621
  0
LINE
  5
4BE
100
AcDbEntity
  8
M0
 62
     6
100
AcDbLine
 10
119.283496
 20
242.022821
 11
118.283496
 21
242.022821
  0
ARC
  5
4BF
100
AcDbEntity
  8
M0
 62
     6
100
AcDbCircle
 10
119.283497
 20
243.022821
 40
1.0
100
AcDbArc
 50
270.0
 51
359.999964
  0
ARC
  5
4C0
100
AcDbEntity
  8
M0
 62
     6
100
AcDbCircle
 10
118.283497
 20
243.022821
 40
1.0
100
AcDbArc
 50
179.999964
 51
270.0
  0
LINE
  5
4C1
100
AcDbEntity
  8
M0
 62
     6
100
AcDbLine
 10
116.224555
 20
247.022823
 11
117.283499
 21
247.022822
  0
LINE
  5
4C2
100
AcDbEntity
  8
M0
 62
     6
100
AcDbLine
 10
111.28351
 20
240.022826
 11
111.28351
 21
240.208617
  0
LINE
  5
4C3
100
AcDbEntity
  8
M0
 62
     6
100
AcDbLine
 10
110.283523
 20
236.022826
 11
110.283515
 21
247.204711
  0
LINE
  5
4C4
100
AcDbEntity
  8
M0
 62
     6
100
AcDbLine
 10
118.283492
 20
236.022821
 11
118.283496
 21
242.022821
  0
LINE
  5
4C5
100
AcDbEntity
  8
M0
 62
     6
100
AcDbLine
 10
120.283464
 20
240.02282
 11
121.340792
 21
240.022819
  0
LINE
  5
4C6
100
AcDbEntity
  8
M0
 62
     6
100
AcDbLine
 10
110.283511
 20
241.522826
 11
109.12987
 21
241.522583
  0
LINE
  5
4C7
100
AcDbEntity
  8
M0
 62
     6
100
AcDbLine
 10
110.283512
 20
243.522826
 11
109.129872
 21
243.522583
  0
LINE
  5
4C8
100
AcDbEntity
  8
M0
 62
     6
100
AcDbLine
 10
107.283508
 20
236.022828
 11
107.28351
 21
239.025025
  0
ARC
  5
4C9
100
AcDbEntity
  8
M0
 62
     6
100
AcDbCircle
 10
126.783504
 20
254.022816
 40
1.499996
100
AcDbArc
 50
359.999964
 51
371.546587
  0
LINE
  5
4CA
100
AcDbEntity
  8
M0
 62
     6
100
AcDbLine
 10
109.133515
 20
263.022827
 11
107.633515
 21
261.522843
  0
LINE
  5
4CB
100
AcDbEntity
  8
M0
 62
     6
100
AcDbLine
 10
109.133515
 20
263.022827
 11
107.633516
 21
264.522828
  0
LINE
  5
4CC
100
AcDbEntity
  8
M0
 62
     6
100
AcDbLine
 10
106.783554
 20
261.522813
 11
106.783556
 21
264.522813
  0
LINE
  5
4CD
100
AcDbEntity
  8
M0
 62
     6
100
AcDbLine
 10
109.133522
 20
274.022813
 11
109.133512
 21
258.022813
  0
LINE
  5
4CE
100
AcDbEntity
  8
M0
 62
     6
100
AcDbLine
 10
107.633499
 20
261.522584
 11
106.783539
 21
261.522829
  0
LINE
  5
4CF
100
AcDbEntity
  8
M0
 62
     6
100
AcDbLine
 10
107.633516
 20
264.522584
 11
106.783556
 21
264.522829
  0
LINE
  5
4D0
100
AcDbEntity
  8
M0
 62
     6
100
AcDbLine
 10
117.225771
 20
240.022822
 11
118.283464
 21
240.022821
  0
LINE
  5
4D1
100
AcDbEntity
  8
M0
 62
     6
100
AcDbLine
 10
131.28352
 20
279.522813
 11
122.78352
 21
279.522818
  0
LINE
  5
4D2
100
AcDbEntity
  8
M0
 62
     6
100
AcDbLine
 10
121.783518
 20
277.522721
 11
121.783519
 21
278.522819
  0
ARC
  5
4D3
100
AcDbEntity
  8
M0
 62
     6
100
AcDbCircle
 10
122.783519
 20
278.522818
 40
1.0
100
AcDbArc
 50
90.0
 51
179.999964
  0
LINE
  5
4D4
100
AcDbEntity
  8
M0
 62
     6
100
AcDbLine
 10
109.583501
 20
268.536565
 11
109.133519
 21
268.796356
  0
LINE
  5
4D5
100
AcDbEntity
  8
M0
 62
     6
100
AcDbLine
 10
110.283539
 20
238.022826
 11
107.283524
 21
238.022828
  0
ARC
  5
4D6
100
AcDbEntity
  8
M0
 62
     6
100
AcDbCircle
 10
109.283525
 20
239.022827
 40
1.0
100
AcDbArc
 50
179.999964
 51
270.0
  0
ARC
  5
4D7
100
AcDbEntity
  8
M0
 62
     6
100
AcDbCircle
 10
109.283525
 20
239.022827
 40
1.0
100
AcDbArc
 50
270.0
 51
359.999964
  0
LINE
  5
4D8
100
AcDbEntity
  8
M0
 62
     6
100
AcDbLine
 10
122.911326
 20
268.477232
 11
125.161082
 21
265.796076
  0
LINE
  5
4D9
100
AcDbEntity
  8
M0
 62
     6
100
AcDbLine
 10
125.161082
 20
265.796076
 11
125.773918
 21
266.310306
  0
LINE
  5
4DA
100
AcDbEntity
  8
M0
 62
     6
100
AcDbLine
 10
125.773918
 20
266.310306
 11
123.524161
 21
268.991462
  0
LINE
  5
4DB
100
AcDbEntity
  8
M0
 62
     6
100
AcDbLine
 10
123.524161
 20
268.991462
 11
122.911326
 21
268.477232
  0
CIRCLE
  5
4DC
100
AcDbEntity
  8
M0
 62
     6
100
AcDbCircle
 10
119.13352
 20
263.022813
 40
3.75
  0
LINE
  5
4DD
100
AcDbEntity
  8
M0
 62
     6
100
AcDbLine
 10
119.73352
 20
265.522813
 11
119.73352
 21
260.522813
  0
LINE
  5
4DE
100
AcDbEntity
  8
M0
 62
     6
100
AcDbLine
 10
118.53352
 20
265.522813
 11
118.53352
 21
260.522813
  0
LINE
  5
4DF
100
AcDbEntity
  8
M0
 62
     6
100
AcDbLine
 10
119.73352
 20
260.522813
 11
118.53352
 21
260.522813
  0
LINE
  5
4E0
100
AcDbEntity
  8
M0
 62
     6
100
AcDbLine
 10
119.73352
 20
265.522813
 11
118.53352
 21
265.522813
  0
TEXT
  5
4E1
100
AcDbEntity
  8
M0
 62
     6
100
AcDbText
 10
130.633525
 20
256.339635
 40
2.0
  1
ＡＵＴＯ
 50
90.000556
 41
0.583333
  7
STANDARD
100
AcDbText
  0
CIRCLE
  5
4E2
100
AcDbEntity
  8
M0
 62
     6
100
AcDbCircle
 10
129.58352
 20
263.022813
 40
0.75
  0
CIRCLE
  5
4E3
100
AcDbEntity
  8
M0
 62
     6
100
AcDbCircle
 10
119.13352
 20
263.022813
 40
8.3
  0
TEXT
  5
4E4
100
AcDbEntity
  8
M0
 62
     6
100
AcDbText
 10
130.632479
 20
270.348167
 40
2.0
  1
ＴＲＩＰ
 50
90.000563
 41
0.625
  7
STANDARD
100
AcDbText
  0
LINE
  5
4E5
100
AcDbEntity
  8
M0
 62
     6
100
AcDbLine
 10
125.934608
 20
270.722651
 11
124.107165
 21
269.667575
  0
LINE
  5
4E6
100
AcDbEntity
  8
M0
 62
     6
100
AcDbLine
 10
125.934608
 20
270.722651
 11
123.934579
 21
271.877363
  0
LINE
  5
4E7
100
AcDbEntity
  8
M0
 62
     6
100
AcDbLine
 10
123.934577
 20
270.972639
 11
123.934579
 21
271.877363
  0
LINE
  5
4E8
100
AcDbEntity
  8
M0
 62
     6
100
AcDbLine
 10
123.934576
 20
269.793327
 11
123.934577
 21
270.472639
  0
LINE
  5
4E9
100
AcDbEntity
  8
M0
 62
     6
100
AcDbLine
 10
123.934577
 20
270.472639
 11
122.792765
 21
270.47264
  0
LINE
  5
4EA
100
AcDbEntity
  8
M0
 62
     6
100
AcDbLine
 10
123.934577
 20
270.972639
 11
122.434577
 21
270.972641
  0
LINE
  5
4EB
100
AcDbEntity
  8
M0
 62
     6
100
AcDbLine
 10
127.43352
 20
276.522813
 11
127.43352
 21
272.022813
  0
LINE
  5
4EC
100
AcDbEntity
  8
M0
 62
     6
100
AcDbLine
 10
116.13352
 20
272.022813
 11
127.43352
 21
272.022813
  0
LINE
  5
4ED
100
AcDbEntity
  8
M0
 62
     6
100
AcDbLine
 10
120.183534
 20
273.072813
 11
123.583534
 21
273.072813
  0
LINE
  5
4EE
100
AcDbEntity
  8
M0
 62
     6
100
AcDbLine
 10
120.183534
 20
275.372813
 11
123.583534
 21
275.372813
  0
LINE
  5
4EF
100
AcDbEntity
  8
M0
 62
     6
100
AcDbLine
 10
123.583534
 20
275.372813
 11
123.583534
 21
273.072813
  0
LINE
  5
4F0
100
AcDbEntity
  8
M0
 62
     6
100
AcDbLine
 10
120.183534
 20
275.372813
 11
120.183534
 21
273.072813
  0
LINE
  5
4F1
100
AcDbEntity
  8
M0
  6
DOT
 62
     6
100
AcDbLine
 10
118.575141
 20
274.222813
 11
118.575141
 21
272.022813
  0
LINE
  5
4F2
100
AcDbEntity
  8
M0
  6
DOT
 62
     6
100
AcDbLine
 10
116.13352
 20
274.222813
 11
118.575141
 21
274.222813
  0
LINE
  5
4F3
100
AcDbEntity
  8
M0
 62
     6
100
AcDbLine
 10
116.13352
 20
274.222813
 11
116.13352
 21
272.022813
  0
LINE
  5
4F4
100
AcDbEntity
  8
M0
 62
     6
100
AcDbLine
 10
116.13352
 20
274.222813
 11
112.93352
 21
274.222813
  0
LINE
  5
4F5
100
AcDbEntity
  8
M0
 62
     6
100
AcDbLine
 10
112.93352
 20
276.522813
 11
112.93352
 21
274.222813
  0
LINE
  5
4F6
100
AcDbEntity
  8
M0
 62
     6
100
AcDbLine
 10
111.823424
 20
267.243299
 11
109.13352
 21
268.796316
  0
LINE
  5
4F7
100
AcDbEntity
  8
M0
 62
     6
100
AcDbLine
 10
110.43352
 20
274.022813
 11
105.280024
 21
274.022813
  0
ARC
  5
4F8
100
AcDbEntity
  8
M0
 62
     6
100
AcDbCircle
 10
110.43352
 20
274.522813
 40
0.5
100
AcDbArc
 50
270.0
 51
360.0
  0
LINE
  5
4F9
100
AcDbEntity
  8
M0
 62
     6
100
AcDbLine
 10
110.93352
 20
276.522813
 11
110.93352
 21
274.522813
  0
LINE
  5
4FA
100
AcDbEntity
  8
M0
 62
     6
100
AcDbLine
 10
131.28352
 20
255.522813
 11
122.688798
 21
255.522813
  0
LINE
  5
4FB
100
AcDbEntity
  8
M0
 62
     6
100
AcDbLine
 10
123.463647
 20
255.522813
 11
123.463647
 21
255.941853
  0
LINE
  5
4FC
100
AcDbEntity
  8
M0
 62
     6
100
AcDbLine
 10
114.803393
 20
255.522813
 11
114.803393
 21
255.941853
  0
LINE
  5
4FD
100
AcDbEntity
  8
M0
 62
     6
100
AcDbLine
 10
115.578242
 20
255.522813
 11
106.28352
 21
255.522813
  0
LINE
  5
4FE
100
AcDbEntity
  8
M0
 62
     6
100
AcDbLine
 10
110.93352
 20
255.522813
 11
110.93352
 21
257.522813
  0
ARC
  5
4FF
100
AcDbEntity
  8
M0
 62
     6
100
AcDbCircle
 10
110.43352
 20
257.522813
 40
0.5
100
AcDbArc
 50
0.0
 51
90.0
  0
LINE
  5
500
100
AcDbEntity
  8
M0
 62
     6
100
AcDbLine
 10
106.28352
 20
258.022813
 11
110.43352
 21
258.022813
  0
LINE
  5
501
100
AcDbEntity
  8
M0
  6
DASHDOT
 62
     6
100
AcDbLine
 10
107.830517
 20
263.022813
 11
130.436523
 21
263.022813
  0
LINE
  5
502
100
AcDbEntity
  8
M0
  6
DASHDOT
 62
     6
100
AcDbLine
 10
119.13352
 20
251.71981
 11
119.13352
 21
274.325816
  0
ARC
  5
503
100
AcDbEntity
  8
M0
 62
     6
100
AcDbCircle
 10
114.28352
 20
244.022813
 40
2.999997
100
AcDbArc
 50
115.844051
 51
424.156194
  0
LINE
  5
504
100
AcDbEntity
  8
M0
 62
     6
100
AcDbLine
 10
110.939999
 20
246.722764
 11
110.508373
 21
245.322862
  0
LINE
  5
505
100
AcDbEntity
  8
M0
 62
     6
100
AcDbLine
 10
111.324535
 20
240.075563
 11
110.508373
 21
242.722886
  0
LINE
  5
506
100
AcDbEntity
  8
M0
 62
     6
100
AcDbLine
 10
117.242016
 20
240.075548
 11
117.87019
 21
242.112413
  0
LINE
  5
507
100
AcDbEntity
  8
M0
 62
     6
100
AcDbLine
 10
111.802563
 20
239.722886
 11
116.764233
 21
239.722886
  0
LINE
  5
508
100
AcDbEntity
  8
M0
 62
     6
100
AcDbLine
 10
110.508373
 20
245.322862
 11
110.508373
 21
242.722886
  0
LINE
  5
509
100
AcDbEntity
  8
M0
 62
     6
100
AcDbLine
 10
115.874096
 20
242.431993
 11
112.692455
 21
245.613756
  0
LINE
  5
50A
100
AcDbEntity
  8
M0
 62
     6
100
AcDbLine
 10
114.636791
 20
245.436998
 11
112.869213
 21
243.669298
  0
LINE
  5
50B
100
AcDbEntity
  8
M0
 62
     6
100
AcDbLine
 10
115.697338
 20
244.376329
 11
113.92976
 21
242.608751
  0
ARC
  5
50C
100
AcDbEntity
  8
M0
 62
     6
100
AcDbCircle
 10
111.802563
 20
240.222886
 40
0.5
100
AcDbArc
 50
197.128737
 51
270.0
  0
ARC
  5
50D
100
AcDbEntity
  8
M0
 62
     6
100
AcDbCircle
 10
116.764233
 20
240.222886
 40
0.5
100
AcDbArc
 50
270.0
 51
342.861308
  0
LINE
  5
50E
100
AcDbEntity
  8
M0
  6
DASHDOT
 62
     6
100
AcDbLine
 10
113.78352
 20
244.022813
 11
114.78352
 21
244.022813
  0
LINE
  5
50F
100
AcDbEntity
  8
M0
  6
DASHDOT
 62
     6
100
AcDbLine
 10
114.28352
 20
243.522813
 11
114.28352
 21
244.522813
  0
LINE
  5
510
100
AcDbEntity
  8
M0
 62
     6
100
AcDbLine
 10
94.046121
 20
277.522453
 11
89.280042
 21
277.522407
  0
LINE
  5
511
100
AcDbEntity
  8
M0
 62
     6
100
AcDbLine
 10
94.681294
 20
279.025305
 11
82.662924
 21
279.025347
  0
LINE
  5
512
100
AcDbEntity
  8
M0
 62
     6
100
AcDbLine
 10
94.034909
 20
276.525307
 11
89.280039
 21
276.525324
  0
LINE
  5
513
100
AcDbEntity
  8
M0
 62
     6
100
AcDbLine
 10
74.630049
 20
276.525375
 11
69.280039
 21
276.525394
  0
LINE
  5
514
100
AcDbEntity
  8
M0
 62
     6
100
AcDbLine
 10
74.630105
 20
277.525375
 11
69.280042
 21
277.525394
  0
LINE
  5
515
100
AcDbEntity
  8
M0
 62
     6
100
AcDbLine
 10
75.014445
 20
279.025374
 11
63.208473
 21
279.025415
  0
LINE
  5
516
100
AcDbEntity
  8
M0
 62
     6
100
AcDbLine
 10
55.240672
 20
277.525443
 11
49.146067
 21
277.525464
  0
LINE
  5
517
100
AcDbEntity
  8
M0
 62
     6
100
AcDbLine
 10
55.170745
 20
276.525443
 11
49.280039
 21
276.525463
  0
HATCH
  5
518
100
AcDbEntity
  8
M0
 62
     7
100
AcDbHatch
 10
0.0
 20
0.0
210
0.0
220
0.0
230
1.0
  2
SOLID
 70
     1
 71
     0
 91
        1
 92
        1
 93
        4
 72
     1
 10
186.537066
 20
380.6455
 11
184.537066
 21
380.6455
 72
     1
 10
184.537066
 20
380.6455
 11
184.537066
 21
362.4455
 72
     1
 10
184.537066
 20
362.4455
 11
186.537066
 21
362.4455
 72
     1
 10
186.537066
 20
362.4455
 11
186.537066
 21
380.6455
 97
        0
 75
     0
 76
     1
 98
        1
 10
0.0
 20
0.0
  0
ARC
  5
51B
100
AcDbEntity
  8
M0
 62
   154
100
AcDbCircle
 10
263.132851
 20
299.025368
 40
1.5
100
AcDbArc
 50
90.0
 51
180.0
  0
LINE
  5
51C
100
AcDbEntity
  8
M0
 62
   154
100
AcDbLine
 10
279.832851
 20
289.725368
 11
279.832851
 21
246.325368
  0
LINE
  5
51D
100
AcDbEntity
  8
M0
 62
   154
100
AcDbLine
 10
279.832851
 20
279.225368
 11
263.132851
 21
279.225368
  0
ARC
  5
51E
100
AcDbEntity
  8
M0
 62
   154
100
AcDbCircle
 10
263.132851
 20
280.725368
 40
1.5
100
AcDbArc
 50
180.0
 51
270.0
  0
ARC
  5
51F
100
AcDbEntity
  8
M0
 62
   154
100
AcDbCircle
 10
278.132851
 20
246.325368
 40
1.7
100
AcDbArc
 50
287.104635
 51
360.0
  0
LINE
  5
520
100
AcDbEntity
  8
M0
 62
   154
100
AcDbLine
 10
279.832851
 20
248.025368
 11
278.632851
 21
248.025368
  0
LINE
  5
521
100
AcDbEntity
  8
M0
 62
   154
100
AcDbLine
 10
268.937067
 20
294.925368
 11
268.732851
 21
294.925368
  0
LINE
  5
522
100
AcDbEntity
  8
M0
 62
   154
100
AcDbLine
 10
268.232851
 20
294.425368
 11
268.232851
 21
290.225368
  0
LINE
  5
523
100
AcDbEntity
  8
M0
 62
   154
100
AcDbLine
 10
268.732851
 20
289.725368
 11
279.832851
 21
289.725368
  0
LINE
  5
524
100
AcDbEntity
  8
M0
 62
   154
100
AcDbLine
 10
278.632851
 20
279.225368
 11
278.632851
 21
246.325368
  0
LINE
  5
525
100
AcDbEntity
  8
M0
 62
   154
100
AcDbLine
 10
261.632851
 20
280.725368
 11
261.632851
 21
299.025368
  0
LINE
  5
526
100
AcDbEntity
  8
M0
 62
   154
100
AcDbLine
 10
263.132851
 20
300.525368
 11
268.937067
 21
300.525368
  0
ARC
  5
527
100
AcDbEntity
  8
M0
 62
   154
100
AcDbCircle
 10
268.732851
 20
294.425368
 40
0.5
100
AcDbArc
 50
90.0
 51
180.0
  0
ARC
  5
528
100
AcDbEntity
  8
M0
 62
   154
100
AcDbCircle
 10
268.732851
 20
290.225368
 40
0.5
100
AcDbArc
 50
180.0
 51
270.0
  0
LINE
  5
529
100
AcDbEntity
  8
M0
 62
     2
100
AcDbLine
 10
66.090702
 20
282.822632
 11
58.460837
 21
283.356164
  0
LINE
  5
52A
100
AcDbEntity
  8
M0
 62
     2
100
AcDbLine
 10
62.073538
 20
288.115749
 11
69.690737
 21
287.583103
  0
ARC
  5
52B
100
AcDbEntity
  8
M0
 62
     2
100
AcDbCircle
 10
64.468819
 20
306.994651
 40
1.0
100
AcDbArc
 50
86.0
 51
176.0
  0
ARC
  5
52C
100
AcDbEntity
  8
M0
 62
     2
100
AcDbCircle
 10
72.449331
 20
306.436599
 40
1.0
100
AcDbArc
 50
356.0
 51
446.0
  0
LINE
  5
52D
100
AcDbEntity
  8
M0
 62
     2
100
AcDbLine
 10
72.519088
 20
307.434163
 11
64.538575
 21
307.992215
  0
LINE
  5
52E
100
AcDbEntity
  8
M0
 62
     2
100
AcDbLine
 10
62.819688
 20
297.746572
 11
63.471255
 21
307.064407
  0
LINE
  5
52F
100
AcDbEntity
  8
M0
 62
     2
100
AcDbLine
 10
72.795329
 20
297.049008
 11
73.446895
 21
306.366843
  0
ARC
  5
530
100
AcDbEntity
  8
M0
 62
     2
100
AcDbCircle
 10
63.817252
 20
297.676816
 40
1.0
100
AcDbArc
 50
176.0
 51
236.940719
  0
LINE
  5
531
100
AcDbEntity
  8
M0
 62
     2
100
AcDbLine
 10
52.64948
 20
273.441523
 11
52.04231
 21
264.758596
  0
LINE
  5
532
100
AcDbEntity
  8
M0
 62
     2
100
AcDbLine
 10
52.970118
 20
263.691275
 11
61.948194
 21
263.063467
  0
LINE
  5
533
100
AcDbEntity
  8
M0
 62
     2
100
AcDbLine
 10
55.903717
 20
279.987266
 11
63.600395
 21
290.12732
  0
LINE
  5
534
100
AcDbEntity
  8
M0
 62
     2
100
AcDbLine
 10
55.30062
 20
278.382744
 11
55.173226
 21
276.560931
  0
LINE
  5
535
100
AcDbEntity
  8
M0
 62
     2
100
AcDbLine
 10
62.155038
 20
277.637558
 11
69.851716
 21
287.777612
  0
LINE
  5
536
100
AcDbEntity
  8
M0
 62
     2
100
AcDbLine
 10
70.454813
 20
289.382134
 11
70.7863
 21
294.12261
  0
LINE
  5
537
100
AcDbEntity
  8
M0
 62
     2
100
AcDbLine
 10
64.203493
 20
291.731842
 11
64.40189
 21
294.569052
  0
LINE
  5
538
100
AcDbEntity
  8
M0
 62
     2
100
AcDbLine
 10
61.55194
 20
276.033037
 11
61.557636
 21
276.114489
  0
LINE
  5
539
100
AcDbEntity
  8
M0
 62
     2
100
AcDbLine
 10
63.015515
 20
263.991274
 11
63.622684
 21
272.674202
  0
ARC
  5
53A
100
AcDbEntity
  8
M0
 62
     2
100
AcDbCircle
 10
62.62512
 20
272.743959
 40
1.0
100
AcDbArc
 50
356.0
 51
425.948957
  0
ARC
  5
53B
100
AcDbEntity
  8
M0
 62
     2
100
AcDbCircle
 10
61.90798
 20
294.743443
 40
2.5
100
AcDbArc
 50
356.0
 51
416.940719
  0
ARC
  5
53C
100
AcDbEntity
  8
M0
 62
     2
100
AcDbCircle
 10
73.28021
 20
293.948219
 40
2.5
100
AcDbArc
 50
115.059281
 51
176.0
  0
ARC
  5
53D
100
AcDbEntity
  8
M0
 62
     2
100
AcDbCircle
 10
71.797765
 20
297.118764
 40
1.0
100
AcDbArc
 50
295.059281
 51
356.0
  0
ARC
  5
53E
100
AcDbEntity
  8
M0
 62
     2
100
AcDbCircle
 10
52.679316
 20
276.735322
 40
2.5
100
AcDbArc
 50
286.051043
 51
356.0
  0
ARC
  5
53F
100
AcDbEntity
  8
M0
 62
     2
100
AcDbCircle
 10
64.051546
 20
275.940098
 40
2.5
100
AcDbArc
 50
176.0
 51
245.948957
  0
ARC
  5
540
100
AcDbEntity
  8
M0
 62
     2
100
AcDbCircle
 10
53.647044
 20
273.371767
 40
1.0
100
AcDbArc
 50
106.051043
 51
176.0
  0
ARC
  5
541
100
AcDbEntity
  8
M0
 62
     2
100
AcDbCircle
 10
58.293312
 20
278.173475
 40
3.0
100
AcDbArc
 50
142.800152
 51
176.0
  0
ARC
  5
542
100
AcDbEntity
  8
M0
 62
     2
100
AcDbCircle
 10
64.544633
 20
275.823767
 40
3.0
100
AcDbArc
 50
142.800152
 51
176.0
  0
ARC
  5
543
100
AcDbEntity
  8
M0
 62
     2
100
AcDbCircle
 10
67.462121
 20
289.591403
 40
3.0
100
AcDbArc
 50
322.800152
 51
356.0
  0
ARC
  5
544
100
AcDbEntity
  8
M0
 62
     2
100
AcDbCircle
 10
61.210801
 20
291.941111
 40
3.0
100
AcDbArc
 50
322.800152
 51
356.0
  0
ARC
  5
545
100
AcDbEntity
  8
M0
 62
     2
100
AcDbCircle
 10
53.039874
 20
264.688839
 40
1.0
100
AcDbArc
 50
176.0
 51
266.0
  0
ARC
  5
546
100
AcDbEntity
  8
M0
 62
     2
100
AcDbCircle
 10
62.017951
 20
264.061031
 40
1.0
100
AcDbArc
 50
266.0
 51
356.0
  0
LINE
  5
547
100
AcDbEntity
  8
M0
 62
     2
100
AcDbLine
 10
85.084136
 20
282.725369
 11
77.43564
 21
282.725369
  0
LINE
  5
548
100
AcDbEntity
  8
M0
 62
     2
100
AcDbLine
 10
80.707529
 20
287.725369
 11
88.343328
 21
287.725369
  0
ARC
  5
549
100
AcDbEntity
  8
M0
 62
     2
100
AcDbCircle
 10
81.780049
 20
306.725369
 40
1.0
100
AcDbArc
 50
90.0
 51
180.0
  0
ARC
  5
54A
100
AcDbEntity
  8
M0
 62
     2
100
AcDbCircle
 10
89.780049
 20
306.725369
 40
1.0
100
AcDbArc
 50
0.0
 51
90.0
  0
LINE
  5
54B
100
AcDbEntity
  8
M0
 62
     2
100
AcDbLine
 10
89.780049
 20
307.725369
 11
81.780049
 21
307.725369
  0
LINE
  5
54C
100
AcDbEntity
  8
M0
 62
     2
100
AcDbLine
 10
80.780049
 20
297.384781
 11
80.780049
 21
306.725369
  0
LINE
  5
54D
100
AcDbEntity
  8
M0
 62
     2
100
AcDbLine
 10
90.780049
 20
297.384781
 11
90.780049
 21
306.725369
  0
ARC
  5
54E
100
AcDbEntity
  8
M0
 62
     2
100
AcDbCircle
 10
81.780049
 20
297.384781
 40
1.0
100
AcDbArc
 50
180.0
 51
240.940719
  0
LINE
  5
54F
100
AcDbEntity
  8
M0
 62
     2
100
AcDbLine
 10
72.330049
 20
272.4295
 11
72.330049
 21
263.725369
  0
LINE
  5
550
100
AcDbEntity
  8
M0
 62
     2
100
AcDbLine
 10
73.330049
 20
262.725369
 11
82.330049
 21
262.725369
  0
LINE
  5
551
100
AcDbEntity
  8
M0
 62
     2
100
AcDbLine
 10
75.119752
 20
279.186301
 11
82.090346
 21
289.838548
  0
LINE
  5
552
100
AcDbEntity
  8
M0
 62
     2
100
AcDbLine
 10
74.630049
 20
277.543618
 11
74.630049
 21
275.717356
  0
LINE
  5
553
100
AcDbEntity
  8
M0
 62
     2
100
AcDbLine
 10
81.519752
 20
277.278387
 11
88.490346
 21
287.930634
  0
LINE
  5
554
100
AcDbEntity
  8
M0
 62
     2
100
AcDbLine
 10
88.980049
 20
289.573317
 11
88.980049
 21
294.325369
  0
LINE
  5
555
100
AcDbEntity
  8
M0
 62
     2
100
AcDbLine
 10
82.580049
 20
291.481231
 11
82.580049
 21
294.325369
  0
LINE
  5
556
100
AcDbEntity
  8
M0
 62
     2
100
AcDbLine
 10
81.030049
 20
275.635704
 11
81.030049
 21
275.717356
  0
LINE
  5
557
100
AcDbEntity
  8
M0
 62
     2
100
AcDbLine
 10
83.330049
 20
263.725369
 11
83.330049
 21
272.4295
  0
ARC
  5
558
100
AcDbEntity
  8
M0
 62
     2
100
AcDbCircle
 10
82.330049
 20
272.4295
 40
1.0
100
AcDbArc
 50
0.0
 51
69.948957
  0
ARC
  5
559
100
AcDbEntity
  8
M0
 62
     2
100
AcDbCircle
 10
80.080049
 20
294.325369
 40
2.5
100
AcDbArc
 50
0.0
 51
60.940719
  0
ARC
  5
55A
100
AcDbEntity
  8
M0
 62
     2
100
AcDbCircle
 10
91.480049
 20
294.325369
 40
2.5
100
AcDbArc
 50
119.059281
 51
180.0
  0
ARC
  5
55B
100
AcDbEntity
  8
M0
 62
     2
100
AcDbCircle
 10
89.780049
 20
297.384781
 40
1.0
100
AcDbArc
 50
299.059281
 51
360.0
  0
ARC
  5
55C
100
AcDbEntity
  8
M0
 62
     2
100
AcDbCircle
 10
72.130049
 20
275.717356
 40
2.5
100
AcDbArc
 50
290.051043
 51
360.0
  0
ARC
  5
55D
100
AcDbEntity
  8
M0
 62
     2
100
AcDbCircle
 10
83.530049
 20
275.717356
 40
2.5
100
AcDbArc
 50
180.0
 51
249.948957
  0
ARC
  5
55E
100
AcDbEntity
  8
M0
 62
     2
100
AcDbCircle
 10
73.330049
 20
272.4295
 40
1.0
100
AcDbArc
 50
110.051043
 51
180.0
  0
ARC
  5
55F
100
AcDbEntity
  8
M0
 62
     2
100
AcDbCircle
 10
77.630049
 20
277.543618
 40
3.0
100
AcDbArc
 50
146.800152
 51
180.0
  0
ARC
  5
560
100
AcDbEntity
  8
M0
 62
     2
100
AcDbCircle
 10
84.030049
 20
275.635704
 40
3.0
100
AcDbArc
 50
146.800152
 51
180.0
  0
ARC
  5
561
100
AcDbEntity
  8
M0
 62
     2
100
AcDbCircle
 10
85.980049
 20
289.573317
 40
3.0
100
AcDbArc
 50
326.800152
 51
360.0
  0
ARC
  5
562
100
AcDbEntity
  8
M0
 62
     2
100
AcDbCircle
 10
79.580049
 20
291.481231
 40
3.0
100
AcDbArc
 50
326.800152
 51
360.0
  0
ARC
  5
563
100
AcDbEntity
  8
M0
 62
     2
100
AcDbCircle
 10
73.330049
 20
263.725369
 40
1.0
100
AcDbArc
 50
180.0
 51
270.0
  0
ARC
  5
564
100
AcDbEntity
  8
M0
 62
     2
100
AcDbCircle
 10
82.330049
 20
263.725369
 40
1.0
100
AcDbArc
 50
270.0
 51
360.0
  0
LINE
  5
565
100
AcDbEntity
  8
M0
  6
DIVIDE
 62
     7
100
AcDbLine
 10
282.937066
 20
345.725378
 11
276.437066
 21
345.725378
  0
LINE
  5
566
100
AcDbEntity
  8
M0
  6
DIVIDE
 62
     7
100
AcDbLine
 10
282.937066
 20
318.725378
 11
276.437066
 21
318.725378
  0
LINE
  5
567
100
AcDbEntity
  8
M0
  6
DIVIDE
 62
     7
100
AcDbLine
 10
281.937066
 20
344.725378
 11
275.437066
 21
344.725378
  0
LINE
  5
568
100
AcDbEntity
  8
M0
  6
DIVIDE
 62
     7
100
AcDbLine
 10
276.437066
 20
318.725378
 11
276.437066
 21
314.725378
  0
LINE
  5
569
100
AcDbEntity
  8
M0
  6
DIVIDE
 62
     7
100
AcDbLine
 10
281.937066
 20
319.725378
 11
275.437066
 21
319.725378
  0
LINE
  5
56A
100
AcDbEntity
  8
M0
  6
DIVIDE
 62
     7
100
AcDbLine
 10
275.437066
 20
319.725378
 11
275.437066
 21
314.725378
  0
LINE
  5
56B
100
AcDbEntity
  8
M0
  6
DIVIDE
 62
     7
100
AcDbLine
 10
276.437066
 20
349.725378
 11
275.437066
 21
349.725378
  0
LINE
  5
56C
100
AcDbEntity
  8
M0
  6
DIVIDE
 62
     7
100
AcDbLine
 10
282.937066
 20
318.725378
 11
282.937066
 21
345.725378
  0
LINE
  5
56D
100
AcDbEntity
  8
M0
  6
DIVIDE
 62
     7
100
AcDbLine
 10
275.437066
 20
349.725378
 11
275.437066
 21
344.725378
  0
LINE
  5
56E
100
AcDbEntity
  8
M0
  6
DIVIDE
 62
     7
100
AcDbLine
 10
276.437066
 20
349.725378
 11
276.437066
 21
345.725378
  0
LINE
  5
56F
100
AcDbEntity
  8
M0
  6
DIVIDE
 62
     7
100
AcDbLine
 10
275.437066
 20
314.725378
 11
276.437066
 21
314.725378
  0
LINE
  5
570
100
AcDbEntity
  8
M0
  6
DIVIDE
 62
     7
100
AcDbLine
 10
281.937066
 20
344.725378
 11
281.937066
 21
319.725378
  0
LINE
  5
571
100
AcDbEntity
  8
M0
 62
     6
100
AcDbLine
 10
209.882851
 20
263.225368
 11
212.582851
 21
263.225368
  0
LINE
  5
572
100
AcDbEntity
  8
M0
 62
     6
100
AcDbLine
 10
212.582851
 20
263.225368
 11
212.582851
 21
262.225368
  0
LINE
  5
573
100
AcDbEntity
  8
M0
 62
     6
100
AcDbLine
 10
209.882851
 20
262.225368
 11
212.582851
 21
262.225368
  0
LINE
  5
574
100
AcDbEntity
  8
M0
 62
     6
100
AcDbLine
 10
209.882851
 20
265.433933
 11
209.882851
 21
263.225368
  0
LINE
  5
575
100
AcDbEntity
  8
M0
 62
     6
100
AcDbLine
 10
209.882851
 20
265.433933
 11
212.582851
 21
265.433933
  0
LINE
  5
576
100
AcDbEntity
  8
M0
 62
     6
100
AcDbLine
 10
209.882851
 20
266.357812
 11
212.582851
 21
266.357812
  0
LINE
  5
577
100
AcDbEntity
  8
M0
 62
     6
100
AcDbLine
 10
209.882851
 20
268.230142
 11
212.582851
 21
268.230142
  0
LINE
  5
578
100
AcDbEntity
  8
M0
 62
     6
100
AcDbLine
 10
215.132851
 20
270.225368
 11
214.582851
 21
270.225368
  0
LINE
  5
579
100
AcDbEntity
  8
M0
 62
     6
100
AcDbLine
 10
209.882851
 20
268.937249
 11
212.582851
 21
268.937249
  0
LINE
  5
57A
100
AcDbEntity
  8
M0
 62
     6
100
AcDbLine
 10
209.882851
 20
270.1883
 11
209.882851
 21
268.937249
  0
LINE
  5
57B
100
AcDbEntity
  8
M0
 62
     6
100
AcDbLine
 10
208.682851
 20
271.025368
 11
212.582851
 21
271.025368
  0
LINE
  5
57C
100
AcDbEntity
  8
M0
 62
     6
100
AcDbLine
 10
212.582851
 20
268.937249
 11
212.582851
 21
268.230142
  0
LINE
  5
57D
100
AcDbEntity
  8
M0
 62
     6
100
AcDbLine
 10
212.582851
 20
266.357812
 11
212.582851
 21
265.433933
  0
LINE
  5
57E
100
AcDbEntity
  8
M0
 62
     6
100
AcDbLine
 10
212.582851
 20
270.570984
 11
212.582851
 21
270.1883
  0
LINE
  5
57F
100
AcDbEntity
  8
M0
 62
     6
100
AcDbLine
 10
209.882851
 20
270.570984
 11
212.582851
 21
270.570984
  0
LINE
  5
580
100
AcDbEntity
  8
M0
 62
     6
100
AcDbLine
 10
209.882851
 20
271.025368
 11
209.882851
 21
270.570984
  0
LINE
  5
581
100
AcDbEntity
  8
M0
 62
     6
100
AcDbLine
 10
212.582851
 20
271.025368
 11
212.582851
 21
270.725368
  0
LINE
  5
582
100
AcDbEntity
  8
M0
 62
     6
100
AcDbLine
 10
209.882851
 20
268.230142
 11
209.882851
 21
266.357812
  0
LINE
  5
583
100
AcDbEntity
  8
M0
 62
     6
100
AcDbLine
 10
212.582851
 20
270.725368
 11
214.582851
 21
270.725368
  0
LINE
  5
584
100
AcDbEntity
  8
M0
 62
     6
100
AcDbLine
 10
209.882851
 20
270.1883
 11
212.582851
 21
270.1883
  0
LINE
  5
585
100
AcDbEntity
  8
M0
 62
     6
100
AcDbLine
 10
203.632851
 20
257.725368
 11
203.632851
 21
273.725368
  0
ARC
  5
586
100
AcDbEntity
  8
M0
 62
     6
100
AcDbCircle
 10
204.632851
 20
266.975368
 40
1.0
100
AcDbArc
 50
180.0
 51
270.0
  0
ARC
  5
587
100
AcDbEntity
  8
M0
 62
     6
100
AcDbCircle
 10
205.582861
 20
265.975368
 40
0.5
100
AcDbArc
 50
90.0
 51
179.998251
  0
LINE
  5
588
100
AcDbEntity
  8
M0
 62
     6
100
AcDbLine
 10
205.082861
 20
259.475368
 11
205.082861
 21
265.975368
  0
LINE
  5
589
100
AcDbEntity
  8
M0
 62
     6
100
AcDbLine
 10
205.582861
 20
266.475368
 11
208.682851
 21
266.475368
  0
ARC
  5
58A
100
AcDbEntity
  8
M0
 62
     6
100
AcDbCircle
 10
205.582861
 20
259.475368
 40
0.5
100
AcDbArc
 50
179.998251
 51
270.0
  0
LINE
  5
58B
100
AcDbEntity
  8
M0
 62
     6
100
AcDbLine
 10
208.682851
 20
258.975368
 11
205.582861
 21
258.975368
  0
LINE
  5
58C
100
AcDbEntity
  8
M0
 62
     6
100
AcDbLine
 10
208.682851
 20
271.025368
 11
208.682851
 21
254.425368
  0
LINE
  5
58D
100
AcDbEntity
  8
M0
 62
     6
100
AcDbLine
 10
209.882851
 20
254.879753
 11
212.582851
 21
254.879753
  0
LINE
  5
58E
100
AcDbEntity
  8
M0
 62
     6
100
AcDbLine
 10
209.882851
 20
255.262436
 11
212.582851
 21
255.262436
  0
LINE
  5
58F
100
AcDbEntity
  8
M0
 62
     6
100
AcDbLine
 10
208.682851
 20
254.425368
 11
212.582851
 21
254.425368
  0
LINE
  5
590
100
AcDbEntity
  8
M0
 62
     6
100
AcDbLine
 10
209.882851
 20
259.092925
 11
209.882851
 21
257.220594
  0
LINE
  5
591
100
AcDbEntity
  8
M0
 62
     6
100
AcDbLine
 10
209.882851
 20
256.513488
 11
209.882851
 21
255.262436
  0
LINE
  5
592
100
AcDbEntity
  8
M0
 62
     6
100
AcDbLine
 10
209.882851
 20
262.225368
 11
209.882851
 21
260.016804
  0
LINE
  5
593
100
AcDbEntity
  8
M0
 62
     6
100
AcDbLine
 10
212.582851
 20
260.331227
 11
212.582851
 21
254.425368
  0
LINE
  5
594
100
AcDbEntity
  8
M0
 62
     6
100
AcDbLine
 10
209.882851
 20
259.092925
 11
212.582851
 21
259.092925
  0
LINE
  5
595
100
AcDbEntity
  8
M0
 62
     6
100
AcDbLine
 10
212.582851
 20
255.262436
 11
212.582851
 21
254.879753
  0
LINE
  5
596
100
AcDbEntity
  8
M0
 62
     6
100
AcDbLine
 10
209.882851
 20
256.513488
 11
212.582851
 21
256.513488
  0
LINE
  5
597
100
AcDbEntity
  8
M0
 62
     6
100
AcDbLine
 10
209.882851
 20
257.220594
 11
212.582851
 21
257.220594
  0
LINE
  5
598
100
AcDbEntity
  8
M0
 62
     6
100
AcDbLine
 10
209.882851
 20
260.016804
 11
212.582851
 21
260.016804
  0
LINE
  5
599
100
AcDbEntity
  8
M0
 62
     6
100
AcDbLine
 10
209.882851
 20
254.879753
 11
209.882851
 21
254.425368
  0
LINE
  5
59A
100
AcDbEntity
  8
M0
 62
     6
100
AcDbLine
 10
214.582851
 20
260.331227
 11
212.582851
 21
260.331227
  0
LINE
  5
59B
100
AcDbEntity
  8
M0
 62
     6
100
AcDbLine
 10
214.582851
 20
255.725368
 11
212.582851
 21
255.725368
  0
LINE
  5
59C
100
AcDbEntity
  8
M0
 62
     6
100
AcDbLine
 10
214.582851
 20
255.225368
 11
214.582851
 21
270.725368
  0
LINE
  5
59D
100
AcDbEntity
  8
M0
 62
     6
100
AcDbLine
 10
222.332851
 20
255.225368
 11
214.582851
 21
255.225368
  0
LINE
  5
59E
100
AcDbEntity
  8
M0
 62
     6
100
AcDbLine
 10
215.132851
 20
256.601644
 11
214.582851
 21
256.601644
  0
LINE
  5
59F
100
AcDbEntity
  8
M0
 62
     6
100
AcDbLine
 10
215.132851
 20
271.725368
 11
208.132851
 21
271.725368
  0
LINE
  5
5A0
100
AcDbEntity
  8
M0
 62
     6
100
AcDbLine
 10
208.132851
 20
273.725368
 11
208.132851
 21
271.725368
  0
LINE
  5
5A1
100
AcDbEntity
  8
M0
 62
     6
100
AcDbLine
 10
203.632851
 20
273.725368
 11
208.132851
 21
273.725368
  0
ARC
  5
5A2
100
AcDbEntity
  8
M0
 62
     6
100
AcDbCircle
 10
203.632851
 20
274.725368
 40
1.0
100
AcDbArc
 50
180.0
 51
270.0
  0
ARC
  5
5A3
100
AcDbEntity
  8
M0
 62
     6
100
AcDbCircle
 10
203.632851
 20
256.725368
 40
1.0
100
AcDbArc
 50
90.0
 51
180.0
  0
LINE
  5
5A4
100
AcDbEntity
  8
M0
 62
     6
100
AcDbLine
 10
202.632851
 20
255.225368
 11
202.632851
 21
256.725368
  0
LINE
  5
5A5
100
AcDbEntity
  8
M0
 62
     6
100
AcDbLine
 10
208.682851
 20
255.225368
 11
202.632851
 21
255.225368
  0
LINE
  5
5A6
100
AcDbEntity
  8
M0
 62
     6
100
AcDbLine
 10
208.682851
 20
257.725368
 11
203.632851
 21
257.725368
  0
LINE
  5
5A7
100
AcDbEntity
  8
M0
 62
     6
100
AcDbLine
 10
204.632851
 20
265.975368
 11
205.082861
 21
265.975368
  0
ARC
  5
5A8
100
AcDbEntity
  8
M0
 62
     6
100
AcDbCircle
 10
204.632851
 20
258.475368
 40
1.0
100
AcDbArc
 50
90.0
 51
180.0
  0
LINE
  5
5A9
100
AcDbEntity
  8
M0
 62
     6
100
AcDbLine
 10
204.632851
 20
259.475368
 11
205.082861
 21
259.475368
  0
LINE
  5
5AA
100
AcDbEntity
  8
M0
 62
     6
100
AcDbLine
 10
215.132851
 20
255.225368
 11
215.132851
 21
276.225368
  0
LINE
  5
5AB
100
AcDbEntity
  8
M0
 62
     6
100
AcDbLine
 10
221.932851
 20
276.225368
 11
202.632851
 21
276.225368
  0
LINE
  5
5AC
100
AcDbEntity
  8
M0
 62
     6
100
AcDbLine
 10
213.132851
 20
272.775368
 11
215.132851
 21
272.775368
  0
LINE
  5
5AD
100
AcDbEntity
  8
M0
 62
     6
100
AcDbLine
 10
213.132851
 20
275.075368
 11
213.132851
 21
272.775368
  0
LINE
  5
5AE
100
AcDbEntity
  8
M0
 62
     6
100
AcDbLine
 10
213.132851
 20
275.075368
 11
215.132851
 21
275.075368
  0
LINE
  5
5AF
100
AcDbEntity
  8
M0
 62
     6
100
AcDbLine
 10
202.632851
 20
274.725368
 11
202.632851
 21
276.225368
  0
LINE
  5
5B0
100
AcDbEntity
  8
M0
  6
DASHED
100
AcDbLine
 10
244.437067
 20
378.72537
 11
244.437067
 21
370.225368
  0
LINE
  5
5B1
100
AcDbEntity
  8
M0
  6
DASHED
100
AcDbLine
 10
243.437067
 20
370.225368
 11
243.437067
 21
378.72537
  0
LINE
  5
5B2
100
AcDbEntity
  8
M0
  6
DASHED
100
AcDbLine
 10
218.537067
 20
368.725367
 11
218.537067
 21
340.725367
  0
LINE
  5
5B3
100
AcDbEntity
  8
M0
  6
DASHED
100
AcDbLine
 10
220.537067
 20
340.725367
 11
220.537067
 21
368.725367
  0
LINE
  5
5B4
100
AcDbEntity
  8
M0
  6
DASHED
100
AcDbLine
 10
220.537067
 20
368.725367
 11
218.537067
 21
368.725367
  0
LINE
  5
5B5
100
AcDbEntity
  8
M0
  6
DASHED
100
AcDbLine
 10
218.537067
 20
340.725367
 11
220.537067
 21
340.725367
  0
LINE
  5
5B6
100
AcDbEntity
  8
M0
100
AcDbLine
 10
272.137067
 20
315.164813
 11
256.637067
 21
315.164813
  0
LINE
  5
5B7
100
AcDbEntity
  8
M0
100
AcDbLine
 10
279.637067
 20
290.47537
 11
279.937067
 21
290.47537
  0
LINE
  5
5B8
100
AcDbEntity
  8
M0
100
AcDbLine
 10
234.237066
 20
378.72537
 11
236.737067
 21
378.72537
  0
LINE
  5
5B9
100
AcDbEntity
  8
M0
100
AcDbLine
 10
233.737065
 20
377.725368
 11
233.737065
 21
378.225369
  0
LINE
  5
5BA
100
AcDbEntity
  8
M0
100
AcDbLine
 10
279.937067
 20
303.475368
 11
279.637067
 21
303.475368
  0
LINE
  5
5BB
100
AcDbEntity
  8
M0
100
AcDbLine
 10
275.437067
 20
347.525369
 11
275.437067
 21
350.025368
  0
LINE
  5
5BC
100
AcDbEntity
  8
M0
100
AcDbLine
 10
231.037068
 20
334.925369
 11
231.037068
 21
329.725369
  0
LINE
  5
5BD
100
AcDbEntity
  8
M0
100
AcDbLine
 10
233.737065
 20
375.725368
 11
233.737065
 21
377.725368
  0
LINE
  5
5BE
100
AcDbEntity
  8
M0
100
AcDbLine
 10
233.737065
 20
376.625368
 11
233.737065
 21
377.725368
  0
LINE
  5
5BF
100
AcDbEntity
  8
M0
100
AcDbLine
 10
279.937067
 20
372.975369
 11
279.637067
 21
372.975369
  0
LINE
  5
5C0
100
AcDbEntity
  8
M0
100
AcDbLine
 10
256.637067
 20
318.041597
 11
272.137067
 21
318.041597
  0
LINE
  5
5C1
100
AcDbEntity
  8
M0
100
AcDbLine
 10
272.137067
 20
346.409141
 11
256.637067
 21
346.409141
  0
ARC
  5
5C2
100
AcDbEntity
  8
M0
100
AcDbCircle
 10
231.537067
 20
329.725369
 40
0.5
100
AcDbArc
 50
180.0
 51
203.578178
  0
ARC
  5
5C3
100
AcDbEntity
  8
M0
100
AcDbCircle
 10
242.437067
 20
328.225369
 40
0.5
100
AcDbArc
 50
270.0
 51
306.869898
  0
ARC
  5
5C4
100
AcDbEntity
  8
M0
100
AcDbCircle
 10
272.137067
 20
318.341597
 40
0.3
100
AcDbArc
 50
270.0
 51
360.0
  0
ARC
  5
5C5
100
AcDbEntity
  8
M0
100
AcDbCircle
 10
272.137067
 20
349.585924
 40
0.3
100
AcDbArc
 50
270.0
 51
360.0
  0
ARC
  5
5C6
100
AcDbEntity
  8
M0
100
AcDbCircle
 10
272.137067
 20
346.109141
 40
0.3
100
AcDbArc
 50
0.0
 51
90.0
  0
LINE
  5
5C7
100
AcDbEntity
  8
M0
100
AcDbLine
 10
244.837067
 20
378.72537
 11
253.622853
 21
378.72537
  0
LINE
  5
5C8
100
AcDbEntity
  8
M0
100
AcDbLine
 10
198.537069
 20
327.725369
 11
195.837068
 21
327.725369
  0
LINE
  5
5C9
100
AcDbEntity
  8
M0
100
AcDbLine
 10
233.737065
 20
369.658703
 11
233.737065
 21
375.725368
  0
LINE
  5
5CA
100
AcDbEntity
  8
M0
100
AcDbLine
 10
244.837067
 20
378.72537
 11
236.737067
 21
378.72537
  0
LINE
  5
5CB
100
AcDbEntity
  8
M0
100
AcDbLine
 10
259.037067
 20
373.311156
 11
259.037067
 21
370.225368
  0
LINE
  5
5CC
100
AcDbEntity
  8
M0
100
AcDbLine
 10
256.637067
 20
349.285924
 11
272.137067
 21
349.285924
  0
ARC
  5
5CD
100
AcDbEntity
  8
M0
100
AcDbCircle
 10
258.037067
 20
373.311155
 40
1.0
100
AcDbArc
 50
0.0
 51
45.0
  0
LINE
  5
5CE
100
AcDbEntity
  8
M0
100
AcDbLine
 10
254.329959
 20
378.432476
 11
258.744173
 21
374.018261
  0
LINE
  5
5CF
100
AcDbEntity
  8
M0
100
AcDbLine
 10
275.437067
 20
314.425369
 11
275.437067
 21
350.025368
  0
ARC
  5
5D0
100
AcDbEntity
  8
M0
100
AcDbCircle
 10
253.622853
 20
377.725369
 40
1.0
100
AcDbArc
 50
45.0
 51
90.0
  0
LINE
  5
5D1
100
AcDbEntity
  8
M0
100
AcDbLine
 10
245.937067
 20
378.72537
 11
245.437068
 21
378.72537
  0
LINE
  5
5D2
100
AcDbEntity
  8
M0
100
AcDbLine
 10
201.637069
 20
315.125368
 11
201.637069
 21
327.525369
  0
LINE
  5
5D3
100
AcDbEntity
  8
M0
100
AcDbLine
 10
279.637067
 20
373.22537
 11
279.637067
 21
372.975369
  0
LINE
  5
5D4
100
AcDbEntity
  8
M0
100
AcDbLine
 10
203.537064
 20
374.725369
 11
228.883559
 21
374.725369
  0
LINE
  5
5D5
100
AcDbEntity
  8
M0
100
AcDbLine
 10
279.937067
 20
360.975369
 11
279.637067
 21
360.975369
  0
LINE
  5
5D6
100
AcDbEntity
  8
M0
100
AcDbLine
 10
279.937067
 20
360.977379
 11
279.637067
 21
360.977379
  0
LINE
  5
5D7
100
AcDbEntity
  8
M0
100
AcDbLine
 10
279.637067
 20
367.755675
 11
279.637067
 21
347.525369
  0
LINE
  5
5D8
100
AcDbEntity
  8
M0
100
AcDbLine
 10
195.837068
 20
342.225369
 11
193.537066
 21
342.225369
  0
LINE
  5
5D9
100
AcDbEntity
  8
M0
100
AcDbLine
 10
204.637068
 20
328.525369
 11
202.637064
 21
328.525369
  0
LINE
  5
5DA
100
AcDbEntity
  8
M0
100
AcDbLine
 10
279.937067
 20
303.425369
 11
279.937067
 21
290.47537
  0
LINE
  5
5DB
100
AcDbEntity
  8
M0
100
AcDbLine
 10
216.037067
 20
312.125369
 11
204.637068
 21
312.125369
  0
LINE
  5
5DC
100
AcDbEntity
  8
M0
100
AcDbLine
 10
219.037066
 20
307.875368
 11
219.037066
 21
309.125369
  0
LINE
  5
5DD
100
AcDbEntity
  8
M0
100
AcDbLine
 10
240.237067
 20
307.425368
 11
238.077282
 21
305.589551
  0
LINE
  5
5DE
100
AcDbEntity
  8
M0
100
AcDbLine
 10
244.737067
 20
307.425368
 11
240.237067
 21
307.425368
  0
LINE
  5
5DF
100
AcDbEntity
  8
M0
100
AcDbLine
 10
234.537067
 20
329.725369
 11
234.537067
 21
334.925369
  0
LINE
  5
5E0
100
AcDbEntity
  8
M0
100
AcDbLine
 10
199.537064
 20
338.425369
 11
201.637069
 21
338.425369
  0
LINE
  5
5E1
100
AcDbEntity
  8
M0
100
AcDbLine
 10
198.537069
 20
294.725369
 11
198.537069
 21
369.725369
  0
LINE
  5
5E2
100
AcDbEntity
  8
M0
100
AcDbLine
 10
231.420028
 20
373.327346
 11
236.537068
 21
365.225369
  0
LINE
  5
5E3
100
AcDbEntity
  8
M0
100
AcDbLine
 10
201.637069
 20
326.025369
 11
199.537064
 21
326.025369
  0
LINE
  5
5E4
100
AcDbEntity
  8
M0
100
AcDbLine
 10
279.937067
 20
360.977379
 11
279.937067
 21
360.975369
  0
LINE
  5
5E5
100
AcDbEntity
  8
M0
100
AcDbLine
 10
202.637064
 20
335.925369
 11
202.637064
 21
328.525369
  0
LINE
  5
5E6
100
AcDbEntity
  8
M0
100
AcDbLine
 10
236.525754
 20
365.225369
 11
236.525754
 21
359.549725
  0
LINE
  5
5E7
100
AcDbEntity
  8
M0
100
AcDbLine
 10
236.134334
 20
304.87537
 11
222.037068
 21
304.87537
  0
LINE
  5
5E8
100
AcDbEntity
  8
M0
100
AcDbLine
 10
229.294425
 20
289.725368
 11
203.537064
 21
289.725368
  0
LINE
  5
5E9
100
AcDbEntity
  8
M0
100
AcDbLine
 10
242.737068
 20
336.525369
 11
242.437067
 21
336.525369
  0
LINE
  5
5EA
100
AcDbEntity
  8
M0
100
AcDbLine
 10
236.537068
 20
365.225369
 11
244.737067
 21
365.225369
  0
ARC
  5
5EB
100
AcDbEntity
  8
M0
100
AcDbCircle
 10
234.037067
 20
329.725369
 40
0.5
100
AcDbArc
 50
336.421822
 51
360.0
  0
ARC
  5
5EC
100
AcDbEntity
  8
M0
100
AcDbCircle
 10
228.883561
 20
371.725369
 40
3.0
100
AcDbArc
 50
32.275644
 51
90.0
  0
ARC
  5
5ED
100
AcDbEntity
  8
M0
100
AcDbCircle
 10
242.437067
 20
335.225369
 40
0.5
100
AcDbArc
 50
53.130102
 51
90.0
  0
ARC
  5
5EE
100
AcDbEntity
  8
M0
100
AcDbCircle
 10
272.137067
 20
314.864814
 40
0.3
100
AcDbArc
 50
0.0
 51
90.0
  0
LINE
  5
5EF
100
AcDbEntity
  8
M0
100
AcDbLine
 10
244.737067
 20
295.725369
 11
236.537068
 21
295.725369
  0
LINE
  5
5F0
100
AcDbEntity
  8
M0
100
AcDbLine
 10
236.525754
 20
304.901013
 11
236.525754
 21
295.725369
  0
ARC
  5
5F1
100
AcDbEntity
  8
M0
100
AcDbCircle
 10
234.237067
 20
378.225369
 40
0.5
100
AcDbArc
 50
90.0
 51
180.0
  0
LINE
  5
5F2
100
AcDbEntity
  8
M0
100
AcDbLine
 10
236.537068
 20
295.725369
 11
231.415747
 21
290.604049
  0
ARC
  5
5F3
100
AcDbEntity
  8
M0
100
AcDbCircle
 10
202.637067
 20
336.925369
 40
1.0
100
AcDbArc
 50
180.0
 51
270.0
  0
ARC
  5
5F4
100
AcDbEntity
  8
M0
100
AcDbCircle
 10
202.637067
 20
327.525369
 40
1.0
100
AcDbArc
 50
90.0
 51
180.0
  0
ARC
  5
5F5
100
AcDbEntity
  8
M0
100
AcDbCircle
 10
239.037067
 20
290.725369
 40
1.0
100
AcDbArc
 50
180.0
 51
270.0
  0
ARC
  5
5F6
100
AcDbEntity
  8
M0
100
AcDbCircle
 10
203.537067
 20
294.725369
 40
5.0
100
AcDbArc
 50
180.0
 51
270.0
  0
LINE
  5
5F7
100
AcDbEntity
  8
M0
100
AcDbLine
 10
192.037063
 20
343.225369
 11
192.537064
 21
343.225369
  0
ARC
  5
5F8
100
AcDbEntity
  8
M0
100
AcDbCircle
 10
222.037067
 20
307.875369
 40
3.0
100
AcDbArc
 50
180.0
 51
270.0
  0
ARC
  5
5F9
100
AcDbEntity
  8
M0
100
AcDbCircle
 10
204.637067
 20
315.125369
 40
3.0
100
AcDbArc
 50
180.0
 51
270.0
  0
ARC
  5
5FA
100
AcDbEntity
  8
M0
100
AcDbCircle
 10
199.537067
 20
337.425369
 40
1.0
100
AcDbArc
 50
90.0
 51
180.0
  0
ARC
  5
5FB
100
AcDbEntity
  8
M0
100
AcDbCircle
 10
216.037067
 20
309.125369
 40
3.0
100
AcDbArc
 50
0.0
 51
90.0
  0
ARC
  5
5FC
100
AcDbEntity
  8
M0
100
AcDbCircle
 10
234.537067
 20
376.025369
 40
1.0
100
AcDbArc
 50
143.130102
 51
180.0
  0
ARC
  5
5FD
100
AcDbEntity
  8
M0
100
AcDbCircle
 10
192.037067
 20
342.725369
 40
0.5
100
AcDbArc
 50
90.0
 51
180.0
  0
ARC
  5
5FE
100
AcDbEntity
  8
M0
100
AcDbCircle
 10
203.537067
 20
369.725369
 40
5.0
100
AcDbArc
 50
90.0
 51
180.0
  0
ARC
  5
5FF
100
AcDbEntity
  8
M0
100
AcDbCircle
 10
199.537067
 20
327.025369
 40
1.0
100
AcDbArc
 50
180.0
 51
270.0
  0
LINE
  5
600
100
AcDbEntity
  8
M0
100
AcDbLine
 10
233.537065
 20
369.975367
 11
233.537065
 21
376.025369
  0
ARC
  5
601
100
AcDbEntity
  8
M0
100
AcDbCircle
 10
236.134336
 20
307.875369
 40
3.0
100
AcDbArc
 50
270.0
 51
310.364537
  0
ELLIPSE
  5
602
100
AcDbEntity
  8
M0
100
AcDbEllipse
 10
192.037067
 20
338.532476
 11
-0.5
 21
0.0
210
0.0
220
0.0
230
1.0
 40
0.414214
 41
0.0
 42
1.570796326794897
  0
ARC
  5
603
100
AcDbEntity
  8
M0
100
AcDbCircle
 10
229.294426
 20
292.725369
 40
3.0
100
AcDbArc
 50
270.0
 51
315.0
  0
LINE
  5
604
100
AcDbEntity
  8
M0
100
AcDbLine
 10
198.537069
 20
339.425369
 11
196.337069
 21
339.425369
  0
LINE
  5
605
100
AcDbEntity
  8
M0
100
AcDbLine
 10
196.83707
 20
354.925369
 11
198.537069
 21
354.925369
  0
LINE
  5
606
100
AcDbEntity
  8
M0
100
AcDbLine
 10
198.537069
 20
333.725369
 11
195.837068
 21
333.725369
  0
LINE
  5
607
100
AcDbEntity
  8
M0
100
AcDbLine
 10
230.237065
 20
329.525369
 11
241.937066
 21
329.525369
  0
LINE
  5
608
100
AcDbEntity
  8
M0
100
AcDbLine
 10
242.437067
 20
337.925369
 11
242.437067
 21
335.425369
  0
LINE
  5
609
100
AcDbEntity
  8
M0
100
AcDbLine
 10
229.737068
 20
334.425369
 11
229.737068
 21
330.025369
  0
LINE
  5
60A
100
AcDbEntity
  8
M0
100
AcDbLine
 10
195.837068
 20
336.725369
 11
198.537069
 21
336.725369
  0
LINE
  5
60B
100
AcDbEntity
  8
M0
100
AcDbLine
 10
198.537069
 20
309.525368
 11
196.83707
 21
309.525368
  0
LINE
  5
60C
100
AcDbEntity
  8
M0
100
AcDbLine
 10
195.837068
 20
330.725369
 11
198.537069
 21
330.725369
  0
LINE
  5
60D
100
AcDbEntity
  8
M0
100
AcDbLine
 10
196.337069
 20
325.025369
 11
198.537069
 21
325.025369
  0
LINE
  5
60E
100
AcDbEntity
  8
M0
100
AcDbLine
 10
197.337064
 20
339.425369
 11
197.337064
 21
336.725369
  0
LINE
  5
60F
100
AcDbEntity
  8
M0
100
AcDbLine
 10
195.837068
 20
317.225369
 11
195.337067
 21
317.225369
  0
LINE
  5
610
100
AcDbEntity
  8
M0
100
AcDbLine
 10
197.337064
 20
333.725369
 11
197.337064
 21
330.725369
  0
LINE
  5
611
100
AcDbEntity
  8
M0
100
AcDbLine
 10
197.337064
 20
325.025369
 11
197.337064
 21
327.725369
  0
LINE
  5
612
100
AcDbEntity
  8
M0
100
AcDbLine
 10
238.037067
 20
290.72537
 11
238.037067
 21
295.725369
  0
LINE
  5
613
100
AcDbEntity
  8
M0
100
AcDbLine
 10
195.337067
 20
319.225369
 11
195.837068
 21
319.225369
  0
LINE
  5
614
100
AcDbEntity
  8
M0
100
AcDbLine
 10
194.837066
 20
317.725369
 11
194.837066
 21
318.725368
  0
LINE
  5
615
100
AcDbEntity
  8
M0
100
AcDbLine
 10
205.63707
 20
336.925369
 11
205.63707
 21
327.525369
  0
LINE
  5
616
100
AcDbEntity
  8
M0
100
AcDbLine
 10
230.237065
 20
334.925369
 11
241.937066
 21
334.925369
  0
LINE
  5
617
100
AcDbEntity
  8
M0
100
AcDbLine
 10
242.937068
 20
338.425369
 11
244.737067
 21
338.425369
  0
LINE
  5
618
100
AcDbEntity
  8
M0
100
AcDbLine
 10
195.837068
 20
310.525368
 11
195.837068
 21
353.925369
  0
LINE
  5
619
100
AcDbEntity
  8
M0
100
AcDbLine
 10
222.037068
 20
359.575368
 11
236.134334
 21
359.575368
  0
LINE
  5
61A
100
AcDbEntity
  8
M0
100
AcDbLine
 10
242.437067
 20
329.025369
 11
242.437067
 21
326.525369
  0
LINE
  5
61B
100
AcDbEntity
  8
M0
100
AcDbLine
 10
252.137067
 20
347.325369
 11
252.137067
 21
352.325368
  0
LINE
  5
61C
100
AcDbEntity
  8
M0
100
AcDbLine
 10
268.937067
 20
357.02537
 11
268.937067
 21
372.725369
  0
LINE
  5
61D
100
AcDbEntity
  8
M0
100
AcDbLine
 10
204.637068
 20
352.325368
 11
216.037067
 21
352.325368
  0
LINE
  5
61E
100
AcDbEntity
  8
M0
100
AcDbLine
 10
244.737067
 20
338.225369
 11
244.737067
 21
365.225369
  0
LINE
  5
61F
100
AcDbEntity
  8
M0
100
AcDbLine
 10
204.637068
 20
328.525369
 11
204.637068
 21
335.925369
  0
LINE
  5
620
100
AcDbEntity
  8
M0
100
AcDbLine
 10
279.137067
 20
350.025368
 11
272.437067
 21
350.025368
  0
LINE
  5
621
100
AcDbEntity
  8
M0
100
AcDbLine
 10
272.437067
 20
346.025369
 11
274.437067
 21
346.025369
  0
LINE
  5
622
100
AcDbEntity
  8
M0
100
AcDbLine
 10
219.037066
 20
355.325369
 11
219.037066
 21
356.575369
  0
LINE
  5
623
100
AcDbEntity
  8
M0
100
AcDbLine
 10
238.077282
 20
358.861187
 11
240.237067
 21
357.02537
  0
LINE
  5
624
100
AcDbEntity
  8
M0
100
AcDbLine
 10
268.937067
 20
293.725369
 11
268.232851
 21
293.021152
  0
LINE
  5
625
100
AcDbEntity
  8
M0
100
AcDbLine
 10
268.937067
 20
291.225368
 11
268.437067
 21
291.225368
  0
LINE
  5
626
100
AcDbEntity
  8
M0
100
AcDbLine
 10
201.637069
 20
336.925369
 11
201.637069
 21
349.32537
  0
LINE
  5
627
100
AcDbEntity
  8
M0
100
AcDbLine
 10
240.237067
 20
357.02537
 11
268.937067
 21
357.02537
  0
LINE
  5
628
100
AcDbEntity
  8
M0
100
AcDbLine
 10
204.637068
 20
335.925369
 11
202.637064
 21
335.925369
  0
ARC
  5
629
100
AcDbEntity
  8
M0
100
AcDbCircle
 10
195.337067
 20
318.725369
 40
0.5
100
AcDbArc
 50
90.0
 51
180.0
  0
ARC
  5
62A
100
AcDbEntity
  8
M0
100
AcDbCircle
 10
195.337067
 20
317.725369
 40
0.5
100
AcDbArc
 50
180.0
 51
270.0
  0
LINE
  5
62B
100
AcDbEntity
  8
M0
100
AcDbLine
 10
252.137067
 20
312.125369
 11
244.737067
 21
312.125369
  0
LINE
  5
62C
100
AcDbEntity
  8
M0
100
AcDbLine
 10
256.637067
 20
349.285924
 11
256.637067
 21
346.409141
  0
ARC
  5
62D
100
AcDbEntity
  8
M0
100
AcDbCircle
 10
241.937067
 20
335.425369
 40
0.5
100
AcDbArc
 50
270.0
 51
360.0
  0
ARC
  5
62E
100
AcDbEntity
  8
M0
100
AcDbCircle
 10
230.237067
 20
334.425369
 40
0.5
100
AcDbArc
 50
90.0
 51
180.0
  0
ARC
  5
62F
100
AcDbEntity
  8
M0
100
AcDbCircle
 10
196.837067
 20
310.525369
 40
1.0
100
AcDbArc
 50
180.0
 51
270.0
  0
ARC
  5
630
100
AcDbEntity
  8
M0
100
AcDbCircle
 10
196.337067
 20
339.925369
 40
0.5
100
AcDbArc
 50
180.0
 51
270.0
  0
LINE
  5
631
100
AcDbEntity
  8
M0
100
AcDbLine
 10
252.137067
 20
352.325368
 11
244.737067
 21
352.325368
  0
LINE
  5
632
100
AcDbEntity
  8
M0
100
AcDbLine
 10
272.437067
 20
350.025368
 11
272.437067
 21
349.585924
  0
LINE
  5
633
100
AcDbEntity
  8
M0
100
AcDbLine
 10
279.937067
 20
370.695063
 11
279.637067
 21
370.695063
  0
ARC
  5
634
100
AcDbEntity
  8
M0
100
AcDbCircle
 10
196.337067
 20
324.525369
 40
0.5
100
AcDbArc
 50
90.0
 51
180.0
  0
LINE
  5
635
100
AcDbEntity
  8
M0
100
AcDbLine
 10
269.937067
 20
373.725367
 11
279.137067
 21
373.725367
  0
LINE
  5
636
100
AcDbEntity
  8
M0
100
AcDbLine
 10
279.937067
 20
372.975369
 11
279.937067
 21
360.975369
  0
LINE
  5
637
100
AcDbEntity
  8
M0
100
AcDbLine
 10
279.637067
 20
373.22537
 11
279.637067
 21
370.695063
  0
LINE
  5
638
100
AcDbEntity
  8
M0
100
AcDbLine
 10
274.437067
 20
318.425369
 11
272.437067
 21
318.425369
  0
LINE
  5
639
100
AcDbEntity
  8
M0
100
AcDbLine
 10
272.437067
 20
314.864814
 11
272.437067
 21
314.425369
  0
LINE
  5
63A
100
AcDbEntity
  8
M0
100
AcDbLine
 10
252.137067
 20
312.125369
 11
252.137067
 21
317.125368
  0
LINE
  5
63B
100
AcDbEntity
  8
M0
100
AcDbLine
 10
279.637067
 20
313.925368
 11
279.637067
 21
301.195062
  0
LINE
  5
63C
100
AcDbEntity
  8
M0
100
AcDbLine
 10
268.937067
 20
307.425368
 11
244.737067
 21
307.425368
  0
LINE
  5
63D
100
AcDbEntity
  8
M0
100
AcDbLine
 10
275.737067
 20
346.525369
 11
275.437067
 21
347.525369
  0
LINE
  5
63E
100
AcDbEntity
  8
M0
100
AcDbLine
 10
272.437067
 20
314.425369
 11
279.137067
 21
314.425369
  0
LINE
  5
63F
100
AcDbEntity
  8
M0
100
AcDbLine
 10
275.737067
 20
346.525369
 11
275.737067
 21
344.525368
  0
LINE
  5
640
100
AcDbEntity
  8
M0
100
AcDbLine
 10
275.437067
 20
344.025369
 11
275.737067
 21
344.525368
  0
LINE
  5
641
100
AcDbEntity
  8
M0
100
AcDbLine
 10
244.737067
 20
365.225369
 11
249.444174
 21
369.932474
  0
LINE
  5
642
100
AcDbEntity
  8
M0
100
AcDbLine
 10
244.737067
 20
295.725369
 11
250.020987
 21
295.725369
  0
LINE
  5
643
100
AcDbEntity
  8
M0
100
AcDbLine
 10
255.937066
 20
300.725368
 11
268.937067
 21
300.725368
  0
LINE
  5
644
100
AcDbEntity
  8
M0
100
AcDbLine
 10
279.637067
 20
298.255676
 11
279.637067
 21
290.225369
  0
LINE
  5
645
100
AcDbEntity
  8
M0
100
AcDbLine
 10
250.151281
 20
370.225368
 11
268.937067
 21
370.225368
  0
LINE
  5
646
100
AcDbEntity
  8
M0
100
AcDbLine
 10
277.437067
 20
347.525369
 11
279.637067
 21
347.525369
  0
LINE
  5
647
100
AcDbEntity
  8
M0
100
AcDbLine
 10
276.437067
 20
348.525369
 11
277.437067
 21
347.525369
  0
LINE
  5
648
100
AcDbEntity
  8
M0
100
AcDbLine
 10
192.037063
 20
325.725369
 11
193.537066
 21
325.725369
  0
LINE
  5
649
100
AcDbEntity
  8
M0
100
AcDbLine
 10
192.537064
 20
343.225369
 11
195.837068
 21
343.225369
  0
LINE
  5
64A
100
AcDbEntity
  8
M0
100
AcDbLine
 10
193.537066
 20
325.725369
 11
193.537066
 21
321.225369
  0
ARC
  5
64B
100
AcDbEntity
  8
M0
100
AcDbCircle
 10
269.937067
 20
290.725369
 40
1.0
100
AcDbArc
 50
180.0
 51
270.0
  0
ARC
  5
64C
100
AcDbEntity
  8
M0
100
AcDbCircle
 10
279.137067
 20
373.225369
 40
0.5
100
AcDbArc
 50
0.0
 51
90.0
  0
ARC
  5
64D
100
AcDbEntity
  8
M0
100
AcDbCircle
 10
269.937067
 20
372.725369
 40
1.0
100
AcDbArc
 50
90.0
 51
180.0
  0
ARC
  5
64E
100
AcDbEntity
  8
M0
100
AcDbCircle
 10
243.237067
 20
326.725369
 40
0.5
100
AcDbArc
 50
180.0
 51
270.0
  0
LINE
  5
64F
100
AcDbEntity
  8
M0
100
AcDbLine
 10
279.937067
 20
301.195062
 11
279.637067
 21
301.195062
  0
LINE
  5
650
100
AcDbEntity
  8
M0
100
AcDbLine
 10
192.037063
 20
321.225369
 11
195.837068
 21
321.225369
  0
LINE
  5
651
100
AcDbEntity
  8
M0
100
AcDbLine
 10
192.537064
 20
343.225369
 11
192.037063
 21
343.225369
  0
LINE
  5
652
100
AcDbEntity
  8
M0
100
AcDbLine
 10
191.53707
 20
321.725369
 11
191.53707
 21
342.725369
  0
LINE
  5
653
100
AcDbEntity
  8
M0
100
AcDbLine
 10
279.137067
 20
308.425368
 11
269.937067
 21
308.425368
  0
LINE
  5
654
100
AcDbEntity
  8
M0
100
AcDbLine
 10
268.937067
 20
290.725369
 11
268.937067
 21
307.42985
  0
ARC
  5
655
100
AcDbEntity
  8
M0
100
AcDbCircle
 10
274.437067
 20
319.425369
 40
1.0
100
AcDbArc
 50
270.0
 51
360.0
  0
ARC
  5
656
100
AcDbEntity
  8
M0
100
AcDbCircle
 10
274.437067
 20
345.025369
 40
1.0
100
AcDbArc
 50
0.0
 51
90.0
  0
ARC
  5
657
100
AcDbEntity
  8
M0
100
AcDbCircle
 10
279.137067
 20
350.525369
 40
0.5
100
AcDbArc
 50
270.0
 51
360.0
  0
ARC
  5
658
100
AcDbEntity
  8
M0
100
AcDbCircle
 10
279.137067
 20
313.925369
 40
0.5
100
AcDbArc
 50
0.0
 51
90.0
  0
ARC
  5
659
100
AcDbEntity
  8
M0
100
AcDbCircle
 10
250.15128
 20
369.225369
 40
1.0
100
AcDbArc
 50
90.0
 51
135.0
  0
ELLIPSE
  5
65A
100
AcDbEntity
  8
M0
100
AcDbEllipse
 10
279.137067
 20
308.400431
 11
-0.5
 21
0.0
210
0.0
220
0.0
230
1.0
 40
0.049876
 41
3.141592653589793
 42
4.71238898038469
  0
LINE
  5
65B
100
AcDbEntity
  8
M0
100
AcDbLine
 10
242.937068
 20
326.025369
 11
244.737067
 21
326.025369
  0
ELLIPSE
  5
65C
100
AcDbEntity
  8
M0
100
AcDbEllipse
 10
269.937067
 20
303.375493
 11
-1.0
 21
0.0
210
0.0
220
0.0
230
1.0
 40
0.049876
 41
4.71238898038469
 42
6.283185307179586
  0
ELLIPSE
  5
65D
100
AcDbEntity
  8
M0
100
AcDbEllipse
 10
192.037067
 20
337.032476
 11
-0.5
 21
0.0
210
0.0
220
0.0
230
1.0
 40
0.414214
 41
0.0
 42
1.570796326794897
  0
ARC
  5
65E
100
AcDbEntity
  8
M0
100
AcDbCircle
 10
192.037067
 20
321.725369
 40
0.5
100
AcDbArc
 50
180.0
 51
270.0
  0
ARC
  5
65F
100
AcDbEntity
  8
M0
100
AcDbCircle
 10
272.2915
 20
305.099098
 40
4.084682
100
AcDbArc
 50
125.479034
 51
145.207368
  0
ARC
  5
660
100
AcDbEntity
  8
M0
100
AcDbCircle
 10
279.137067
 20
290.225369
 40
0.5
100
AcDbArc
 50
270.0
 51
360.0
  0
ARC
  5
661
100
AcDbEntity
  8
M0
100
AcDbCircle
 10
243.237067
 20
337.725369
 40
0.5
100
AcDbArc
 50
90.0
 51
180.0
  0
LINE
  5
662
100
AcDbEntity
  8
M0
100
AcDbLine
 10
279.137067
 20
303.425369
 11
269.937067
 21
303.425369
  0
ARC
  5
663
100
AcDbEntity
  8
M0
100
AcDbCircle
 10
250.020987
 20
301.725369
 40
6.0
100
AcDbArc
 50
270.0
 51
350.405932
  0
ELLIPSE
  5
664
100
AcDbEntity
  8
M0
100
AcDbEllipse
 10
279.137067
 20
303.400431
 11
-0.5
 21
0.0
210
0.0
220
0.0
230
1.0
 40
0.049876
 41
3.141592653589793
 42
4.71238898038469
  0
ARC
  5
665
100
AcDbEntity
  8
M0
100
AcDbCircle
 10
236.737067
 20
375.725369
 40
3.0
100
AcDbArc
 50
90.0
 51
180.0
  0
ARC
  5
666
100
AcDbEntity
  8
M0
100
AcDbCircle
 10
268.437067
 20
291.725369
 40
0.5
100
AcDbArc
 50
245.893597
 51
270.0
  0
ARC
  5
667
100
AcDbEntity
  8
M0
100
AcDbCircle
 10
192.037067
 20
325.225369
 40
0.5
100
AcDbArc
 50
90.0
 51
180.0
  0
ARC
  5
668
100
AcDbEntity
  8
M0
100
AcDbCircle
 10
204.637067
 20
336.925369
 40
1.0
100
AcDbArc
 50
270.0
 51
360.0
  0
LINE
  5
669
100
AcDbEntity
  8
M0
100
AcDbLine
 10
256.637067
 20
318.041597
 11
256.637067
 21
315.164813
  0
ARC
  5
66A
100
AcDbEntity
  8
M0
100
AcDbCircle
 10
204.637067
 20
327.525369
 40
1.0
100
AcDbArc
 50
0.0
 51
90.0
  0
LINE
  5
66B
100
AcDbEntity
  8
M0
100
AcDbLine
 10
279.937067
 20
367.755675
 11
279.637067
 21
367.755675
  0
LINE
  5
66C
100
AcDbEntity
  8
M0
100
AcDbLine
 10
279.937067
 20
298.255676
 11
279.637067
 21
298.255676
  0
LINE
  5
66D
100
AcDbEntity
  8
M0
100
AcDbLine
 10
279.137067
 20
289.725368
 11
269.937067
 21
289.725368
  0
ARC
  5
66E
100
AcDbEntity
  8
M0
100
AcDbCircle
 10
196.837067
 20
353.925369
 40
1.0
100
AcDbArc
 50
90.0
 51
180.0
  0
ARC
  5
66F
100
AcDbEntity
  8
M0
100
AcDbCircle
 10
216.037067
 20
355.325369
 40
3.0
100
AcDbArc
 50
270.0
 51
360.0
  0
ARC
  5
670
100
AcDbEntity
  8
M0
100
AcDbCircle
 10
242.937067
 20
337.925369
 40
0.5
100
AcDbArc
 50
90.0
 51
180.0
  0
ARC
  5
671
100
AcDbEntity
  8
M0
100
AcDbCircle
 10
222.037067
 20
356.575369
 40
3.0
100
AcDbArc
 50
90.0
 51
180.0
  0
ARC
  5
672
100
AcDbEntity
  8
M0
100
AcDbCircle
 10
236.134336
 20
356.575369
 40
3.0
100
AcDbArc
 50
49.635463
 51
90.0
  0
ARC
  5
673
100
AcDbEntity
  8
M0
100
AcDbCircle
 10
230.237067
 20
330.025369
 40
0.5
100
AcDbArc
 50
180.0
 51
270.0
  0
ARC
  5
674
100
AcDbEntity
  8
M0
100
AcDbCircle
 10
241.937067
 20
329.025369
 40
0.5
100
AcDbArc
 50
0.0
 51
90.0
  0
ARC
  5
675
100
AcDbEntity
  8
M0
100
AcDbCircle
 10
242.937067
 20
326.525369
 40
0.5
100
AcDbArc
 50
180.0
 51
270.0
  0
LINE
  5
676
100
AcDbEntity
  8
M0
100
AcDbLine
 10
193.537066
 20
336.825369
 11
192.037063
 21
336.825369
  0
LINE
  5
677
100
AcDbEntity
  8
M0
100
AcDbLine
 10
193.537066
 20
338.325369
 11
193.537066
 21
336.825369
  0
LINE
  5
678
100
AcDbEntity
  8
M0
100
AcDbLine
 10
193.537066
 20
338.325369
 11
192.037063
 21
338.325369
  0
LINE
  5
679
100
AcDbEntity
  8
M0
100
AcDbLine
 10
276.437067
 20
350.025368
 11
276.437067
 21
348.525369
  0
LINE
  5
67A
100
AcDbEntity
  8
M0
100
AcDbLine
 10
243.237066
 20
338.225369
 11
244.737067
 21
338.225369
  0
LINE
  5
67B
100
AcDbEntity
  8
M0
100
AcDbLine
 10
244.737067
 20
289.725368
 11
244.737067
 21
326.225369
  0
LINE
  5
67C
100
AcDbEntity
  8
M0
100
AcDbLine
 10
242.737068
 20
326.725369
 11
242.737068
 21
337.725369
  0
ARC
  5
67D
100
AcDbEntity
  8
M0
100
AcDbCircle
 10
204.637067
 20
349.325369
 40
3.0
100
AcDbArc
 50
90.0
 51
180.0
  0
LINE
  5
67E
100
AcDbEntity
  8
M0
100
AcDbLine
 10
193.537066
 20
342.225369
 11
193.537066
 21
338.325369
  0
LINE
  5
67F
100
AcDbEntity
  8
M0
100
AcDbLine
 10
252.137067
 20
317.125368
 11
244.737067
 21
317.125368
  0
LINE
  5
680
100
AcDbEntity
  8
M0
100
AcDbLine
 10
252.137067
 20
347.325369
 11
244.737067
 21
347.325369
  0
LINE
  5
681
100
AcDbEntity
  8
M0
100
AcDbLine
 10
243.237066
 20
326.225369
 11
244.737067
 21
326.225369
  0
LINE
  5
682
100
AcDbEntity
  8
M0
  6
DASHED
100
AcDbLine
 10
212.937106
 20
364.471024
 11
212.937106
 21
358.980698
  0
ARC
  5
683
100
AcDbEntity
  8
M0
  6
DASHED
100
AcDbCircle
 10
214.537067
 20
364.471024
 40
1.599998
100
AcDbArc
 50
95.007035
 51
179.999966
  0
LINE
  5
684
100
AcDbEntity
  8
M0
  6
DASHED
100
AcDbLine
 10
214.397418
 20
366.064942
 11
216.237018
 21
366.225876
  0
LINE
  5
685
100
AcDbEntity
  8
M0
  6
DASHED
100
AcDbLine
 10
214.397418
 20
357.386795
 11
216.237018
 21
357.225876
  0
ARC
  5
686
100
AcDbEntity
  8
M0
  6
DASHED
100
AcDbCircle
 10
214.537067
 20
358.980698
 40
1.599998
100
AcDbArc
 50
179.999966
 51
264.99283
  0
LINE
  5
687
100
AcDbEntity
  8
M0
  6
DASHED
100
AcDbLine
 10
216.237018
 20
357.225876
 11
216.237018
 21
366.225876
  0
LINE
  5
688
100
AcDbEntity
  8
M0
  6
DASHED
100
AcDbLine
 10
217.537067
 20
366.225861
 11
216.237018
 21
366.225861
  0
LINE
  5
689
100
AcDbEntity
  8
M0
  6
DASHED
100
AcDbLine
 10
216.237018
 20
357.225861
 11
217.537067
 21
357.225861
  0
LINE
  5
68A
100
AcDbEntity
  8
M0
  6
DASHED
100
AcDbLine
 10
217.537067
 20
366.725155
 11
217.537067
 21
356.725155
  0
LINE
  5
68B
100
AcDbEntity
  8
M0
  6
DASHED
100
AcDbLine
 10
217.537067
 20
366.725155
 11
218.537067
 21
366.725193
  0
LINE
  5
68C
100
AcDbEntity
  8
M0
  6
DASHED
100
AcDbLine
 10
217.537067
 20
356.725155
 11
218.537067
 21
356.725193
  0
LINE
  5
68D
100
AcDbEntity
  8
M0
  6
DASHED
100
AcDbLine
 10
220.537067
 20
359.225632
 11
228.537067
 21
359.225632
  0
LINE
  5
68E
100
AcDbEntity
  8
M0
  6
DASHED
100
AcDbLine
 10
228.537067
 20
364.225568
 11
220.537067
 21
364.225268
  0
LINE
  5
68F
100
AcDbEntity
  8
M0
  6
DASHED
100
AcDbLine
 10
228.537067
 20
359.225632
 11
228.537067
 21
364.225568
  0
LINE
  5
690
100
AcDbEntity
  8
M0
  6
DASHED
100
AcDbLine
 10
161.837066
 20
313.825371
 11
161.837066
 21
352.625371
  0
LINE
  5
691
100
AcDbEntity
  8
M0
  6
DASHED
100
AcDbLine
 10
160.237067
 20
334.525371
 11
160.237067
 21
331.725371
  0
LINE
  5
692
100
AcDbEntity
  8
M0
  6
DASHED
100
AcDbLine
 10
180.937066
 20
356.625372
 11
165.837066
 21
356.625372
  0
ARC
  5
693
100
AcDbEntity
  8
M0
  6
DASHED
100
AcDbCircle
 10
165.837066
 20
352.625371
 40
4.0
100
AcDbArc
 50
90.0
 51
180.0
  0
ARC
  5
694
100
AcDbEntity
  8
M0
  6
DASHED
100
AcDbCircle
 10
165.837066
 20
313.825371
 40
4.0
100
AcDbArc
 50
180.0
 51
270.0
  0
LINE
  5
695
100
AcDbEntity
  8
M0
  6
DASHED
100
AcDbLine
 10
180.937066
 20
309.825371
 11
165.837066
 21
309.825371
  0
LINE
  5
696
100
AcDbEntity
  8
M0
  6
DASHED
100
AcDbLine
 10
185.937066
 20
315.525378
 11
185.937066
 21
314.825371
  0
ARC
  5
697
100
AcDbEntity
  8
M0
  6
DASHED
100
AcDbCircle
 10
180.937066
 20
314.825371
 40
5.0
100
AcDbArc
 50
270.0
 51
360.0
  0
ARC
  5
698
100
AcDbEntity
  8
M0
  6
DASHED
100
AcDbCircle
 10
180.937066
 20
351.625371
 40
5.0
100
AcDbArc
 50
0.0
 51
90.0
  0
LINE
  5
699
100
AcDbEntity
  8
M0
  6
DASHED
100
AcDbLine
 10
160.237067
 20
334.525371
 11
161.837066
 21
334.525371
  0
LINE
  5
69A
100
AcDbEntity
  8
M0
  6
DASHED
100
AcDbLine
 10
161.837066
 20
331.725371
 11
160.237067
 21
331.725371
  0
LINE
  5
69B
100
AcDbEntity
  8
M0
  6
DASHED
100
AcDbLine
 10
185.937066
 20
350.925365
 11
185.937066
 21
351.625371
  0
LINE
  5
69C
100
AcDbEntity
  8
M0
100
AcDbLine
 10
186.537066
 20
362.4455
 11
186.537066
 21
380.6455
  0
LINE
  5
69D
100
AcDbEntity
  8
M0
  6
DASHED
100
AcDbLine
 10
195.337066
 20
350.925365
 11
185.937066
 21
350.925365
  0
LINE
  5
69E
100
AcDbEntity
  8
M0
  6
DASHED
100
AcDbLine
 10
195.337067
 20
315.525378
 11
185.937066
 21
315.525378
  0
ARC
  5
69F
100
AcDbEntity
  8
M0
  6
DASHED
100
AcDbCircle
 10
195.337066
 20
316.025377
 40
0.5
100
AcDbArc
 50
270.0
 51
360.0
  0
LINE
  5
6A0
100
AcDbEntity
  8
M0
  6
DASHED
100
AcDbLine
 10
193.737066
 20
352.925371
 11
194.137066
 21
352.925371
  0
ARC
  5
6A1
100
AcDbEntity
  8
M0
  6
DASHED
100
AcDbCircle
 10
195.337066
 20
350.425365
 40
0.5
100
AcDbArc
 50
0.0
 51
90.0
  0
LINE
  5
6A2
100
AcDbEntity
  8
M0
  6
DASHED
100
AcDbLine
 10
193.737066
 20
350.925365
 11
193.737066
 21
352.925371
  0
LINE
  5
6A3
100
AcDbEntity
  8
M0
  6
DASHED
100
AcDbLine
 10
194.137066
 20
352.925371
 11
194.737068
 21
350.925365
  0
LINE
  5
6A4
100
AcDbEntity
  8
M0
100
AcDbLine
 10
261.632851
 20
289.725368
 11
239.037067
 21
289.725368
  0
ARC
  5
6A5
100
AcDbEntity
  8
M0
 62
     2
100
AcDbCircle
 10
211.33711
 20
280.78877
 40
3.599999
100
AcDbArc
 50
134.999796
 51
180.0
  0
ARC
  5
6A6
100
AcDbEntity
  8
M0
 62
     2
100
AcDbCircle
 10
211.33711
 20
280.788755
 40
2.0
100
AcDbArc
 50
135.000425
 51
180.0
  0
LINE
  5
6A7
100
AcDbEntity
  8
M0
 62
     2
100
AcDbLine
 10
215.18261
 20
289.725368
 11
208.791532
 21
283.334363
  0
LINE
  5
6A8
100
AcDbEntity
  8
M0
 62
     2
100
AcDbLine
 10
209.336973
 20
280.788556
 11
209.336973
 21
278.725368
  0
LINE
  5
6A9
100
AcDbEntity
  8
M0
 62
     2
100
AcDbLine
 10
217.445309
 20
289.725368
 11
209.922895
 21
282.202955
  0
LINE
  5
6AA
100
AcDbEntity
  8
M0
 62
     2
100
AcDbLine
 10
207.737119
 20
280.788556
 11
207.737119
 21
278.725368
  0
LINE
  5
6AB
100
AcDbEntity
  8
M0
 62
     2
100
AcDbLine
 10
104.080961
 20
282.725543
 11
96.451096
 21
282.192011
  0
LINE
  5
6AC
100
AcDbEntity
  8
M0
 62
     2
100
AcDbLine
 10
99.366233
 20
287.408067
 11
106.983431
 21
287.940713
  0
ARC
  5
6AD
100
AcDbEntity
  8
M0
 62
     2
100
AcDbCircle
 10
99.110767
 20
306.436599
 40
1.0
100
AcDbArc
 50
94.0
 51
184.0
  0
ARC
  5
6AE
100
AcDbEntity
  8
M0
 62
     2
100
AcDbCircle
 10
107.091279
 20
306.994651
 40
1.0
100
AcDbArc
 50
4.0
 51
94.0
  0
LINE
  5
6AF
100
AcDbEntity
  8
M0
 62
     2
100
AcDbLine
 10
107.021523
 20
307.992215
 11
99.041011
 21
307.434163
  0
LINE
  5
6B0
100
AcDbEntity
  8
M0
 62
     2
100
AcDbLine
 10
98.76477
 20
297.049008
 11
98.113203
 21
306.366843
  0
LINE
  5
6B1
100
AcDbEntity
  8
M0
 62
     2
100
AcDbLine
 10
108.74041
 20
297.746572
 11
108.088844
 21
307.064407
  0
ARC
  5
6B2
100
AcDbEntity
  8
M0
 62
     2
100
AcDbCircle
 10
99.762334
 20
297.118764
 40
1.0
100
AcDbArc
 50
184.0
 51
244.940719
  0
LINE
  5
6B3
100
AcDbEntity
  8
M0
 62
     2
100
AcDbLine
 10
92.076146
 20
271.565074
 11
92.683315
 21
262.882146
  0
LINE
  5
6B4
100
AcDbEntity
  8
M0
 62
     2
100
AcDbLine
 10
93.750636
 20
261.954339
 11
102.728712
 21
262.582147
  0
LINE
  5
6B5
100
AcDbEntity
  8
M0
 62
     2
100
AcDbLine
 10
94.387722
 20
278.500016
 11
100.598274
 21
289.612559
  0
LINE
  5
6B6
100
AcDbEntity
  8
M0
 62
     2
100
AcDbLine
 10
94.0138
 20
276.827175
 11
94.141194
 21
275.005362
  0
LINE
  5
6B7
100
AcDbEntity
  8
M0
 62
     2
100
AcDbLine
 10
100.905221
 20
277.043192
 11
107.115773
 21
288.155734
  0
LINE
  5
6B8
100
AcDbEntity
  8
M0
 62
     2
100
AcDbLine
 10
107.489695
 20
289.828575
 11
107.158209
 21
294.569052
  0
LINE
  5
6B9
100
AcDbEntity
  8
M0
 62
     2
100
AcDbLine
 10
100.972196
 20
291.2854
 11
100.773799
 21
294.12261
  0
LINE
  5
6BA
100
AcDbEntity
  8
M0
 62
     2
100
AcDbLine
 10
100.531299
 20
275.37035
 11
100.525604
 21
275.451803
  0
LINE
  5
6BB
100
AcDbEntity
  8
M0
 62
     2
100
AcDbLine
 10
103.65652
 20
263.649468
 11
103.04935
 21
272.332395
  0
ARC
  5
6BC
100
AcDbEntity
  8
M0
 62
     2
100
AcDbCircle
 10
102.051786
 20
272.262639
 40
1.0
100
AcDbArc
 50
4.0
 51
73.948957
  0
ARC
  5
6BD
100
AcDbEntity
  8
M0
 62
     2
100
AcDbCircle
 10
98.279888
 20
293.948219
 40
2.5
100
AcDbArc
 50
4.0
 51
64.940719
  0
ARC
  5
6BE
100
AcDbEntity
  8
M0
 62
     2
100
AcDbCircle
 10
109.652119
 20
294.743443
 40
2.5
100
AcDbArc
 50
123.059281
 51
184.0
  0
ARC
  5
6BF
100
AcDbEntity
  8
M0
 62
     2
100
AcDbCircle
 10
107.742846
 20
297.676816
 40
1.0
100
AcDbArc
 50
303.059281
 51
364.0
  0
ARC
  5
6C0
100
AcDbEntity
  8
M0
 62
     2
100
AcDbCircle
 10
91.647284
 20
274.83097
 40
2.5
100
AcDbArc
 50
294.051043
 51
364.0
  0
ARC
  5
6C1
100
AcDbEntity
  8
M0
 62
     2
100
AcDbCircle
 10
103.019514
 20
275.626194
 40
2.5
100
AcDbArc
 50
184.0
 51
253.948957
  0
ARC
  5
6C2
100
AcDbEntity
  8
M0
 62
     2
100
AcDbCircle
 10
93.07371
 20
271.634831
 40
1.0
100
AcDbArc
 50
114.051043
 51
184.0
  0
ARC
  5
6C3
100
AcDbEntity
  8
M0
 62
     2
100
AcDbCircle
 10
97.006492
 20
277.036444
 40
3.0
100
AcDbArc
 50
150.800152
 51
184.0
  0
ARC
  5
6C4
100
AcDbEntity
  8
M0
 62
     2
100
AcDbCircle
 10
103.523992
 20
275.57962
 40
3.0
100
AcDbArc
 50
150.800152
 51
184.0
  0
ARC
  5
6C5
100
AcDbEntity
  8
M0
 62
     2
100
AcDbCircle
 10
104.497003
 20
289.619306
 40
3.0
100
AcDbArc
 50
330.800152
 51
364.0
  0
ARC
  5
6C6
100
AcDbEntity
  8
M0
 62
     2
100
AcDbCircle
 10
97.979504
 20
291.076131
 40
3.0
100
AcDbArc
 50
330.800152
 51
364.0
  0
ARC
  5
6C7
100
AcDbEntity
  8
M0
 62
     2
100
AcDbCircle
 10
93.680879
 20
262.951903
 40
1.0
100
AcDbArc
 50
184.0
 51
274.0
  0
ARC
  5
6C8
100
AcDbEntity
  8
M0
 62
     2
100
AcDbCircle
 10
102.658956
 20
263.579711
 40
1.0
100
AcDbArc
 50
274.0
 51
364.0
  0
LINE
  5
6C9
100
AcDbEntity
  8
M0
  6
DASHED
 62
     6
100
AcDbLine
 10
209.132851
 20
255.225368
 11
209.132851
 21
256.425368
  0
LINE
  5
6CA
100
AcDbEntity
  8
M0
  6
DASHED
 62
     6
100
AcDbLine
 10
202.632851
 20
256.425368
 11
209.132851
 21
256.425368
  0
LINE
  5
6CB
100
AcDbEntity
  8
M0
 62
     6
100
AcDbLine
 10
209.132853
 20
255.225363
 11
212.958216
 21
240.948911
  0
LINE
  5
6CC
100
AcDbEntity
  8
M0
 62
     6
100
AcDbLine
 10
216.132851
 20
255.225368
 11
219.154368
 21
243.948911
  0
LINE
  5
6CD
100
AcDbEntity
  8
M0
 62
     6
100
AcDbLine
 10
215.132851
 20
255.225368
 11
215.132851
 21
276.225368
  0
LINE
  5
6CE
100
AcDbEntity
  8
M0
 62
     6
100
AcDbLine
 10
203.632851
 20
257.725368
 11
203.632851
 21
273.725368
  0
LINE
  5
6CF
100
AcDbEntity
  8
M0
 62
     6
100
AcDbLine
 10
202.632851
 20
276.225368
 11
202.632851
 21
274.725368
  0
LINE
  5
6D0
100
AcDbEntity
  8
M0
 62
     6
100
AcDbLine
 10
202.632851
 20
256.725368
 11
202.632851
 21
255.225368
  0
LINE
  5
6D1
100
AcDbEntity
  8
M0
 62
     6
100
AcDbLine
 10
200.632851
 20
261.725368
 11
200.632851
 21
273.225368
  0
LINE
  5
6D2
100
AcDbEntity
  8
M0
 62
     6
100
AcDbLine
 10
209.132851
 20
254.725368
 11
209.132851
 21
255.225368
  0
LINE
  5
6D3
100
AcDbEntity
  8
M0
 62
     6
100
AcDbLine
 10
210.191065
 20
241.445931
 11
206.632851
 21
254.725368
  0
LINE
  5
6D4
100
AcDbEntity
  8
M0
 62
     6
100
AcDbLine
 10
222.332851
 20
255.225368
 11
222.332851
 21
248.725368
  0
LINE
  5
6D5
100
AcDbEntity
  8
M0
 62
     6
100
AcDbLine
 10
201.632851
 20
274.225368
 11
202.779404
 21
274.225368
  0
LINE
  5
6D6
100
AcDbEntity
  8
M0
 62
     6
100
AcDbLine
 10
208.132851
 20
273.725368
 11
203.632851
 21
273.725368
  0
LINE
  5
6D7
100
AcDbEntity
  8
M0
 62
     6
100
AcDbLine
 10
225.832851
 20
274.225368
 11
222.632851
 21
274.225368
  0
LINE
  5
6D8
100
AcDbEntity
  8
M0
 62
     6
100
AcDbLine
 10
222.632851
 20
275.525368
 11
222.632851
 21
274.225368
  0
LINE
  5
6D9
100
AcDbEntity
  8
M0
 62
     6
100
AcDbLine
 10
235.432851
 20
277.125368
 11
224.432851
 21
277.125368
  0
LINE
  5
6DA
100
AcDbEntity
  8
M0
 62
     6
100
AcDbLine
 10
264.432851
 20
277.125368
 11
239.432851
 21
277.125368
  0
LINE
  5
6DB
100
AcDbEntity
  8
M0
 62
     6
100
AcDbLine
 10
199.632851
 20
278.725368
 11
222.932851
 21
278.725368
  0
LINE
  5
6DC
100
AcDbEntity
  8
M0
 62
     6
100
AcDbLine
 10
275.632851
 20
279.225368
 11
278.632851
 21
279.225368
  0
LINE
  5
6DD
100
AcDbEntity
  8
M0
 62
     6
100
AcDbLine
 10
226.532851
 20
276.225368
 11
275.632851
 21
276.225368
  0
LINE
  5
6DE
100
AcDbEntity
  8
M0
 62
     6
100
AcDbLine
 10
226.432851
 20
276.225368
 11
201.632851
 21
276.225368
  0
LINE
  5
6DF
100
AcDbEntity
  8
M0
 62
     6
100
AcDbLine
 10
268.632851
 20
277.125368
 11
275.617015
 21
277.125368
  0
ARC
  5
6E0
100
AcDbEntity
  8
M0
 62
     6
100
AcDbCircle
 10
221.932851
 20
275.525368
 40
0.7
100
AcDbArc
 50
0.0
 51
90.0
  0
ARC
  5
6E1
100
AcDbEntity
  8
M0
 62
     6
100
AcDbCircle
 10
222.932851
 20
277.225368
 40
1.5
100
AcDbArc
 50
0.0
 51
90.0
  0
ARC
  5
6E2
100
AcDbEntity
  8
M0
 62
     6
100
AcDbCircle
 10
204.329092
 20
240.725368
 40
4.0
100
AcDbArc
 50
195.0
 51
270.0
  0
ARC
  5
6E3
100
AcDbEntity
  8
M0
 62
     6
100
AcDbCircle
 10
199.632851
 20
274.725368
 40
4.0
100
AcDbArc
 50
90.0
 51
180.0
  0
ARC
  5
6E4
100
AcDbEntity
  8
M0
 62
     6
100
AcDbCircle
 10
230.678279
 20
240.725368
 40
4.0
100
AcDbArc
 50
270.0
 51
301.169221
  0
ARC
  5
6E5
100
AcDbEntity
  8
M0
 62
     6
100
AcDbCircle
 10
201.632851
 20
273.225368
 40
3.0
100
AcDbArc
 50
90.0
 51
179.938788
  0
ARC
  5
6E6
100
AcDbEntity
  8
M0
 62
     6
100
AcDbCircle
 10
213.088044
 20
242.225368
 40
3.0
100
AcDbArc
 50
195.058919
 51
269.938297
  0
ARC
  5
6E7
100
AcDbEntity
  8
M0
 62
     6
100
AcDbCircle
 10
226.532851
 20
275.525368
 40
0.7
100
AcDbArc
 50
90.0
 51
180.0
  0
ARC
  5
6E8
100
AcDbEntity
  8
M0
 62
     6
100
AcDbCircle
 10
201.632851
 20
273.225368
 40
1.0
100
AcDbArc
 50
90.0
 51
180.0
  0
LINE
  5
6E9
100
AcDbEntity
  8
M0
 62
     6
100
AcDbLine
 10
195.632851
 20
257.725368
 11
195.632851
 21
274.725368
  0
LINE
  5
6EA
100
AcDbEntity
  8
M0
 62
     6
100
AcDbLine
 10
195.925744
 20
258.740533
 11
195.925744
 21
260.725368
  0
ARC
  5
6EB
100
AcDbEntity
  8
M0
 62
     6
100
AcDbCircle
 10
249.079047
 20
236.725368
 40
2.0
100
AcDbArc
 50
194.99833
 51
270.0
  0
ARC
  5
6EC
100
AcDbEntity
  8
M0
 62
     6
100
AcDbCircle
 10
272.632851
 20
237.725368
 40
2.0
100
AcDbArc
 50
269.998343
 51
360.0
  0
ARC
  5
6ED
100
AcDbEntity
  8
M0
 62
     6
100
AcDbCircle
 10
265.225373
 20
236.725368
 40
2.0
100
AcDbArc
 50
269.999042
 51
330.0
  0
LINE
  5
6EE
100
AcDbEntity
  8
M0
 62
     6
100
AcDbLine
 10
195.632851
 20
257.725368
 11
200.465388
 21
239.690092
  0
LINE
  5
6EF
100
AcDbEntity
  8
M0
 62
     6
100
AcDbLine
 10
197.832851
 20
260.725368
 11
197.832851
 21
258.025368
  0
LINE
  5
6F0
100
AcDbEntity
  8
M0
 62
     6
100
AcDbLine
 10
198.632851
 20
257.725368
 11
198.632851
 21
273.228573
  0
ARC
  5
6F1
100
AcDbEntity
  8
M0
 62
     6
100
AcDbCircle
 10
248.007251
 20
240.725368
 40
2.0
100
AcDbArc
 50
195.0
 51
270.0
  0
ARC
  5
6F2
100
AcDbEntity
  8
M0
 62
     6
100
AcDbCircle
 10
266.380074
 20
238.725368
 40
2.0
100
AcDbArc
 50
270.0
 51
330.0
  0
ARC
  5
6F3
100
AcDbEntity
  8
M0
 62
     6
100
AcDbCircle
 10
225.332851
 20
248.725368
 40
3.0
100
AcDbArc
 50
180.0
 51
270.0
  0
ARC
  5
6F4
100
AcDbEntity
  8
M0
 62
     6
100
AcDbCircle
 10
203.632851
 20
256.725368
 40
1.0
100
AcDbArc
 50
90.0
 51
180.0
  0
ARC
  5
6F5
100
AcDbEntity
  8
M0
 62
     6
100
AcDbCircle
 10
203.632851
 20
274.725368
 40
1.0
100
AcDbArc
 50
180.0
 51
270.0
  0
ARC
  5
6F6
100
AcDbEntity
  8
M0
 62
     6
100
AcDbCircle
 10
277.882851
 20
240.475368
 40
0.75
100
AcDbArc
 50
270.0
 51
360.0
  0
ARC
  5
6F7
100
AcDbEntity
  8
M0
 62
     6
100
AcDbCircle
 10
215.855993
 20
241.725368
 40
3.0
100
AcDbArc
 50
195.0
 51
270.0
  0
ARC
  5
6F8
100
AcDbEntity
  8
M0
 62
     6
100
AcDbCircle
 10
239.632851
 20
237.725368
 40
1.0
100
AcDbArc
 50
270.246868
 51
360.0
  0
LINE
  5
6F9
100
AcDbEntity
  8
M0
 62
     6
100
AcDbLine
 10
215.855993
 20
238.725368
 11
230.632851
 21
238.725368
  0
LINE
  5
6FA
100
AcDbEntity
  8
M0
 62
     6
100
AcDbLine
 10
248.007251
 20
238.725368
 11
252.632851
 21
238.725368
  0
LINE
  5
6FB
100
AcDbEntity
  8
M0
 62
     6
100
AcDbLine
 10
214.201795
 20
239.225368
 11
213.084813
 21
239.225368
  0
LINE
  5
6FC
100
AcDbEntity
  8
M0
 62
     6
100
AcDbLine
 10
240.632851
 20
237.725368
 11
246.740546
 21
237.725368
  0
LINE
  5
6FD
100
AcDbEntity
  8
M0
 62
     6
100
AcDbLine
 10
233.632851
 20
236.725368
 11
230.632851
 21
238.725368
  0
LINE
  5
6FE
100
AcDbEntity
  8
M0
 62
     6
100
AcDbLine
 10
233.632851
 20
243.725368
 11
245.132851
 21
243.725368
  0
LINE
  5
6FF
100
AcDbEntity
  8
M0
  6
DASHED
 62
     6
100
AcDbLine
 10
205.299517
 20
255.225368
 11
202.632851
 21
256.225368
  0
LINE
  5
700
100
AcDbEntity
  8
M0
 62
     6
100
AcDbLine
 10
206.632851
 20
254.725368
 11
205.299517
 21
255.225368
  0
LINE
  5
701
100
AcDbEntity
  8
M0
 62
     6
100
AcDbLine
 10
233.632851
 20
243.725368
 11
230.632851
 21
245.725368
  0
LINE
  5
702
100
AcDbEntity
  8
M0
 62
     6
100
AcDbLine
 10
277.882851
 20
239.725368
 11
274.632851
 21
239.725368
  0
LINE
  5
703
100
AcDbEntity
  8
M0
 62
     6
100
AcDbLine
 10
270.132851
 20
241.225368
 11
278.632851
 21
241.225368
  0
LINE
  5
704
100
AcDbEntity
  8
M0
 62
     6
100
AcDbLine
 10
245.668749
 20
241.725368
 11
222.052146
 21
241.725368
  0
LINE
  5
705
100
AcDbEntity
  8
M0
 62
     6
100
AcDbLine
 10
266.957424
 20
235.725368
 11
270.132851
 21
241.225368
  0
LINE
  5
706
100
AcDbEntity
  8
M0
 62
     6
100
AcDbLine
 10
264.432851
 20
277.125368
 11
264.674005
 21
276.225368
  0
LINE
  5
707
100
AcDbEntity
  8
M0
 62
     6
100
AcDbLine
 10
278.632851
 20
240.475368
 11
278.632851
 21
279.225368
  0
LINE
  5
708
100
AcDbEntity
  8
M0
 62
     6
100
AcDbLine
 10
275.632851
 20
276.225368
 11
275.632851
 21
279.225368
  0
LINE
  5
709
100
AcDbEntity
  8
M0
 62
     6
100
AcDbLine
 10
274.632851
 20
237.725368
 11
274.632851
 21
241.225368
  0
LINE
  5
70A
100
AcDbEntity
  8
M0
 62
     6
100
AcDbLine
 10
204.329092
 20
236.725368
 11
230.678279
 21
236.725368
  0
LINE
  5
70B
100
AcDbEntity
  8
M0
 62
     6
100
AcDbLine
 10
266.957424
 20
235.725368
 11
272.632793
 21
235.725368
  0
LINE
  5
70C
100
AcDbEntity
  8
M0
 62
     6
100
AcDbLine
 10
236.628761
 20
236.725368
 11
239.638749
 21
236.725368
  0
LINE
  5
70D
100
AcDbEntity
  8
M0
 62
     6
100
AcDbLine
 10
255.632851
 20
236.725368
 11
266.380074
 21
236.725368
  0
LINE
  5
70E
100
AcDbEntity
  8
M0
 62
     6
100
AcDbLine
 10
236.622851
 20
236.725368
 11
233.632851
 21
236.725368
  0
LINE
  5
70F
100
AcDbEntity
  8
M0
 62
     6
100
AcDbLine
 10
268.391696
 20
276.225368
 11
268.632851
 21
277.125368
  0
LINE
  5
710
100
AcDbEntity
  8
M0
 62
     6
100
AcDbLine
 10
249.079047
 20
234.725368
 11
265.22534
 21
234.725368
  0
LINE
  5
711
100
AcDbEntity
  8
M0
 62
     6
100
AcDbLine
 10
230.632851
 20
241.725368
 11
230.632851
 21
238.725368
  0
LINE
  5
712
100
AcDbEntity
  8
M0
 62
     6
100
AcDbLine
 10
208.682851
 20
257.725368
 11
203.632851
 21
257.725368
  0
LINE
  5
713
100
AcDbEntity
  8
M0
 62
     6
100
AcDbLine
 10
239.191696
 20
276.225368
 11
239.432851
 21
277.125368
  0
LINE
  5
714
100
AcDbEntity
  8
M0
 62
     6
100
AcDbLine
 10
203.632851
 20
260.725368
 11
195.632851
 21
260.725368
  0
LINE
  5
715
100
AcDbEntity
  8
M0
 62
     6
100
AcDbLine
 10
225.832851
 20
275.525368
 11
225.832851
 21
274.225368
  0
LINE
  5
716
100
AcDbEntity
  8
M0
 62
     6
100
AcDbLine
 10
224.432851
 20
277.225368
 11
224.432851
 21
276.225368
  0
ARC
  5
717
100
AcDbEntity
  8
M0
 62
     6
100
AcDbCircle
 10
222.052146
 20
244.725368
 40
3.0
100
AcDbArc
 50
195.0
 51
270.0
  0
LINE
  5
718
100
AcDbEntity
  8
M0
 62
     6
100
AcDbLine
 10
255.632851
 20
236.725368
 11
252.632851
 21
238.725368
  0
LINE
  5
719
100
AcDbEntity
  8
M0
 62
     6
100
AcDbLine
 10
225.332851
 20
245.725368
 11
230.632851
 21
245.725368
  0
LINE
  5
71A
100
AcDbEntity
  8
M0
 62
     6
100
AcDbLine
 10
206.632851
 20
254.725368
 11
209.266825
 21
254.725368
  0
LINE
  5
71B
100
AcDbEntity
  8
M0
 62
     6
100
AcDbLine
 10
245.132851
 20
243.725368
 11
247.147181
 21
236.207786
  0
LINE
  5
71C
100
AcDbEntity
  8
M0
 62
     6
100
AcDbLine
 10
235.432851
 20
277.125368
 11
235.674005
 21
276.225368
  0
LINE
  5
71D
100
AcDbEntity
  8
M0
 62
     6
100
AcDbLine
 10
200.218637
 20
260.725368
 11
200.341409
 21
260.770304
  0
LINE
  5
71E
100
AcDbEntity
  8
M0
 62
     6
100
AcDbLine
 10
200.341409
 20
260.770304
 11
200.45513
 21
260.904379
  0
LINE
  5
71F
100
AcDbEntity
  8
M0
 62
     6
100
AcDbLine
 10
200.45513
 20
260.904379
 11
200.548488
 21
261.120508
  0
LINE
  5
720
100
AcDbEntity
  8
M0
 62
     6
100
AcDbLine
 10
200.548488
 20
261.120508
 11
200.610683
 21
261.402612
  0
LINE
  5
721
100
AcDbEntity
  8
M0
 62
     6
100
AcDbLine
 10
200.610683
 20
261.402612
 11
200.632851
 21
261.725368
  0
LINE
  5
722
100
AcDbEntity
  8
M0
 62
     6
100
AcDbLine
 10
202.632851
 20
256.225368
 11
195.632851
 21
258.850368
  0
LINE
  5
723
100
AcDbEntity
  8
M0
  6
DIVIDE
 62
     7
100
AcDbLine
 10
46.279916
 20
205.410536
 11
124.074194
 21
205.410536
  0
LINE
  5
724
100
AcDbEntity
  8
M0
  6
DIVIDE
 62
     7
100
AcDbLine
 10
124.074194
 20
205.410536
 11
124.074194
 21
106.410536
  0
CIRCLE
  5
725
100
AcDbEntity
  8
M0
 62
     7
100
AcDbCircle
 10
121.279948
 20
127.366053
 40
3.099999
  0
CIRCLE
  5
726
100
AcDbEntity
  8
M0
 62
     7
100
AcDbCircle
 10
121.279948
 20
127.366053
 40
1.549994
  0
LINE
  5
727
100
AcDbEntity
  8
M0
  6
DASHDOT
 62
     7
100
AcDbLine
 10
121.279932
 20
131.46345
 11
121.279948
 21
122.268641
  0
LINE
  5
728
100
AcDbEntity
  8
M0
  6
DASHDOT
 62
     7
100
AcDbLine
 10
125.377344
 20
127.366053
 11
117.182536
 21
127.366053
  0
CIRCLE
  5
729
100
AcDbEntity
  8
M0
 62
     7
100
AcDbCircle
 10
50.279948
 20
192.366053
 40
1.549994
  0
CIRCLE
  5
72A
100
AcDbEntity
  8
M0
 62
     7
100
AcDbCircle
 10
50.279948
 20
192.366053
 40
3.099999
  0
LINE
  5
72B
100
AcDbEntity
  8
M0
  6
DASHDOT
 62
     7
100
AcDbLine
 10
50.279932
 20
196.46345
 11
50.279948
 21
188.268641
  0
LINE
  5
72C
100
AcDbEntity
  8
M0
  6
DASHDOT
 62
     7
100
AcDbLine
 10
54.377344
 20
192.366053
 11
46.182536
 21
192.366053
  0
LINE
  5
72D
100
AcDbEntity
  8
M0
  6
DIVIDE
 62
     7
100
AcDbLine
 10
46.279916
 20
61.410536
 11
131.279916
 21
61.410536
  0
LINE
  5
72E
100
AcDbEntity
  8
M0
  6
DIVIDE
 62
     7
100
AcDbLine
 10
131.279916
 20
106.410536
 11
124.074194
 21
106.410536
  0
LINE
  5
72F
100
AcDbEntity
  8
M0
  6
DIVIDE
 62
     7
100
AcDbLine
 10
46.279916
 20
205.410536
 11
46.279916
 21
61.410536
  0
LINE
  5
730
100
AcDbEntity
  8
M0
  6
DIVIDE
 62
     7
100
AcDbLine
 10
131.279916
 20
106.410536
 11
131.279916
 21
61.410536
  0
LINE
  5
731
100
AcDbEntity
  8
M0
  6
DASHDOT
 62
     7
100
AcDbLine
 10
85.780049
 20
214.269212
 11
85.780049
 21
55.366721
  0
LINE
  5
732
100
AcDbEntity
  8
M3
 62
     2
100
AcDbLine
 10
300.003268
 20
60.895184
 11
149.85312
 21
60.895184
  0
LINE
  5
733
100
AcDbEntity
  8
M3
 62
     2
100
AcDbLine
 10
14.717987
 20
15.85014
 11
14.717987
 21
428.763047
  0
LINE
  5
734
100
AcDbEntity
  8
M3
 62
     2
100
AcDbLine
 10
300.003268
 20
15.85014
 11
14.717987
 21
15.85014
  0
LINE
  5
735
100
AcDbEntity
  8
M3
 62
     2
100
AcDbLine
 10
300.003268
 20
30.865154
 11
149.85312
 21
30.865154
  0
TEXT
  5
736
100
AcDbEntity
  8
M3
 62
     2
100
AcDbText
 10
153.106369
 20
34.618908
 40
7.507507
  1
形　式；
 41
1.0
  7
STANDARD
100
AcDbText
  0
LINE
  5
737
100
AcDbEntity
  8
M3
 62
     2
100
AcDbLine
 10
300.003268
 20
45.880169
 11
149.85312
 21
45.880169
  0
TEXT
  5
738
100
AcDbEntity
  8
M3
 62
     2
100
AcDbText
 10
153.106369
 20
49.633923
 40
7.507507
  1
登録名：
 41
1.0
  7
STANDARD
100
AcDbText
  0
LINE
  5
739
100
AcDbEntity
  8
M3
 62
     2
100
AcDbLine
 10
149.85312
 20
15.85014
 11
149.85312
 21
60.895184
  0
TEXT
  5
73A
100
AcDbEntity
  8
M3
 62
     2
100
AcDbText
 10
153.106369
 20
19.603893
 40
7.507507
  1
適　用；
 41
1.0
  7
STANDARD
100
AcDbText
  0
LINE
  5
73B
100
AcDbEntity
  8
M3
 62
     2
100
AcDbLine
 10
14.717987
 20
428.763047
 11
300.003268
 21
428.763047
  0
LINE
  5
73C
100
AcDbEntity
  8
M3
 62
     2
100
AcDbLine
 10
300.003268
 20
428.763047
 11
300.003268
 21
15.85014
  0
TEXT
  5
73D
100
AcDbEntity
  8
M3
 62
     2
100
AcDbText
 10
189.392663
 20
49.633923
 40
7.507507
  1
ＤＭＨＳ３５ＴＲ００
 41
0.5
  7
STANDARD
100
AcDbText
  0
TEXT
  5
73E
100
AcDbEntity
  8
M3
 62
     2
100
AcDbText
 10
189.392663
 20
34.618908
 40
7.507507
  1
ＨＳ３５－Ｔ，ＨＳ３５－ＴＫ
 41
0.5
  7
STANDARD
100
AcDbText
  0
LINE
  5
73F
100
AcDbEntity
  8
DN0
100
AcDbLine
 10
73.224381
 20
47.158054
 11
97.593745
 21
47.158054
  0
TEXT
  5
740
100
AcDbEntity
  8
DN0
100
AcDbText
 10
73.897554
 20
47.758655
 40
6.006006
  1
せん孔図
 41
0.833333
  7
STANDARD
100
AcDbText
  0
ENDSEC
  0
SECTION
  2
OBJECTS
  0
DICTIONARY
  5
C
100
AcDbDictionary
  3
ACAD_GROUP
350
D
  3
ACAD_MLINESTYLE
350
E
  3
ACDBVARIABLEDICTIONARY
350
519
  0
DICTIONARY
  5
D
102
{ACAD_REACTORS
330
C
102
}
100
AcDbDictionary
  0
DICTIONARY
  5
E
102
{ACAD_REACTORS
330
C
102
}
100
AcDbDictionary
  3
STANDARD
350
13
  0
DICTIONARY
  5
519
102
{ACAD_REACTORS
330
C
102
}
100
AcDbDictionary
  3
SORTENTS
350
51A
  0
MLINESTYLE
  5
13
102
{ACAD_REACTORS
330
E
102
}
100
AcDbMlineStyle
  2
STANDARD
 70
     0
  3

 62
     0
 51
90.0
 52
90.0
 71
     2
 49
0.5
 62
   256
  6
BYLAYER
 49
-0.5
 62
   256
  6
BYLAYER
  0
DICTIONARYVAR
  5
51A
102
{ACAD_REACTORS
330
519
102
}
100
DictionaryVariables
280
     0
  1
96
  0
ENDSEC
  0
EOF
