  0
SECTION
  2
HEADER
  9
$ACADVER
  1
AC1014
  9
$INSBASE
 10
0.000000
 20
0.000000
 30
0.0
  9
$VIEWCTR
 10
7.531722
 20
4.5
  9
$VIEWSIZE
 40
9.0
  9
$SNAPMODE
 70
     0
  9
$SNAPUNIT
 10
1.0
 20
1.0
  9
$SNAPBASE
 10
0.0
 20
0.0
  9
$SNAPANG
 50
0.0
  9
$SNAPSTYLE
 70
     0
  9
$SNAPISOPAIR
 70
     0
  9
$GRIDMODE
 70
     0
  9
$GRIDUNIT
 10
0.0
 20
0.0
  9
$ORTHOMODE
 70
     0
  9
$REGENMODE
 70
     1
  9
$FILLMODE
 70
     1
  9
$QTEXTMODE
 70
     0
  9
$DRAGMODE
 70
     2
  9
$LTSCALE
  40
     1.000000
  9
$OSMODE
 70
     0
  9
$ATTMODE
 70
     1
  9
$TEXTSIZE
 40
0.2
  9
$TRACEWID
 40
0.05
  9
$TEXTSTYLE
  7
STANDARD
  9
$CELTYPE
  6
BYLAYER
  9
$CECOLOR
 62
   256
  9
$DIMSCALE
 40
1.0
  9
$DIMASZ
 40
0.18
  9
$DIMEXO
 40
0.0625
  9
$DIMDLI
 40
0.38
  9
$DIMRND
 40
0.0
  9
$DIMDLE
 40
0.0
  9
$DIMEXE
 40
0.18
  9
$DIMTP
 40
0.0
  9
$DIMTM
 40
0.0
  9
$DIMTXT
 40
0.18
  9
$DIMCEN
 40
0.09
  9
$DIMTSZ
 40
0.0
  9
$DIMTOL
 70
     0
  9
$DIMLIM
 70
     0
  9
$DIMTIH
 70
     1
  9
$DIMTOH
 70
     1
  9
$DIMSE1
 70
     0
  9
$DIMSE2
 70
     0
  9
$DIMTAD
 70
     0
  9
$DIMZIN
 70
     0
  9
$DIMBLK
  1

  9
$LUNITS
 70
     2
  9
$LUPREC
 70
     4
  9
$AXISMODE
 70
     0
  9
$AXISUNIT
 10
0.0
 20
0.0
  9
$SKETCHINC
 40
0.1
  9
$FILLETRAD
 40
0.0
  9
$AUNITS
 70
     0
  9
$AUPREC
 70
     0
  9
$MENU
  1
ACAD
  9
$ELEVATION
 40
0.0
  9
$THICKNESS
 40
0.0
  9
$VIEWDIR
 10
0.0
 20
0.0
 30
1.0
  9
$LIMCHECK
 70
     0
  9
$BLIPMODE
 70
     1
  9
$CHAMFERA
 40
0.0
  9
$CHAMFERB
 40
0.0
  9
$FASTZOOM
 70
     1
  9
$SKPOLY
 70
     0
  9
$TDCREATE
 40
0000000.0000000000
  9
$TDUPDATE
 40
0000000.0000000000
  9
$TDINDWG
 40
0.0000000000
  9
$TDUSRTIMER
 40
0.0000000000
  9
$USRTIMER
 70
     1
  9
$ANGBASE
 50
0.0
  9
$ANGDIR
 70
     0
  9
$PDMODE
 70
     0
  9
$PDSIZE
 40
0.0
  9
$PLINEWID
 40
0.0
  9
$COORDS
 70
     0
  9
$USERI1
 70
     0
  9
$USERI2
 70
     0
  9
$USERI3
 70
     0
  9
$USERI4
 70
     0
  9
$USERI5
 70
     0
  9
$USERR1
 40
0.0
  9
$USERR2
 40
0.0
  9
$USERR3
 40
0.0
  9
$USERR4
 40
0.0
  9
$USERR5
 40
0.0
  9
$CLAYER
  8
M0
  9
$EXTMIN
 10
18.181818
 20
18.181818
  9
$EXTMAX
 10
363.636356
 20
518.181807
  9
$LIMMIN
 10
0.0
 20
0.0
  9
$LIMMAX
 10
210.0
 20
297.0
  9
$HANDSEED
  5
765
  0
ENDSEC
  0
SECTION
  2
CLASSES
  0
CLASS
  1
DICTIONARYVAR
  2
AcDbDictionaryVar
  3
"AutoCAD"
 90
        0
280
     0
281
     0
  0
CLASS
  1
HATCH
  2
AcDbHatch
  3
"ACAD_SEDONA"
 90
        0
280
     0
281
     1
  0
ENDSEC
  0
SECTION
  2
TABLES
  0
TABLE
  2
VPORT
  5
8
100
AcDbSymbolTable
 70
     2
  0
VPORT
  5
14
100
AcDbSymbolTableRecord
100
AcDbViewportTableRecord
  2
*ACTIVE
 70
     0
 10
0.0
 20
0.0
 11
1.0
 21
1.0
 12
484.0
 22
297.0
 13
0.0
 23
0.0
 14
1.0
 24
1.0
 15
0.0
 25
0.0
 16
0.0
 26
0.0
 36
1.0
 17
0.0
 27
0.0
 37
0.0
 40
594.0
 41
2.0
 42
50.0
 43
0.0
 44
0.0
 50
0.0
 51
0.0
 71
     0
 72
   100
 73
     1
 74
     1
 75
     0
 76
     0
 77
     0
 78
     0
  0
ENDTAB
  0
TABLE
  2
LTYPE
  5
5
100
AcDbSymbolTable
 70
     5
  0
LTYPE
  5
15
100
AcDbSymbolTableRecord
100
AcDbLinetypeTableRecord
  2
BYBLOCK
 70
     0
  3

 72
    65
 73
     0
 40
0.0
  0
LTYPE
  5
16
100
AcDbSymbolTableRecord
100
AcDbLinetypeTableRecord
  2
BYLAYER
 70
     0
  3

 72
    65
 73
     0
 40
0.0
  0
LTYPE
  5
17
100
AcDbSymbolTableRecord
100
AcDbLinetypeTableRecord
  2
CONTINUOUS
 70
    64
  3
Solid line
 72
    65
 73
     0
 40
0.0
  0
LTYPE
  5
18
100
AcDbSymbolTableRecord
100
AcDbLinetypeTableRecord
  2
DASHED
 70
    64
  3
__ __ __ __ __ __ __ __ __ __ __ __ __ __ __ __
 72
    65
 73
     2
 40
0.75
 49
0.5
 74
     0
 49
-0.25
 74
     0
  0
LTYPE
  5
19
100
AcDbSymbolTableRecord
100
AcDbLinetypeTableRecord
  2
DASHDOT
 70
    64
  3
__ . __ . __ . __ . __ . __ . __ . __ . __ . __
 72
    65
 73
     4
 40
1.0
 49
0.5
 74
     0
 49
-0.25
 74
     0
 49
0.0
 74
     0
 49
-0.25
 74
     0
  0
LTYPE
  5
1A
100
AcDbSymbolTableRecord
100
AcDbLinetypeTableRecord
  2
DIVIDE
 70
    64
  3
____ . . ____ . . ____ . . ____ . . ____ . . __
 72
    65
 73
     6
 40
1.25
 49
0.5
 74
     0
 49
-0.25
 74
     0
 49
0.0
 74
     0
 49
-0.25
 74
     0
 49
0.0
 74
     0
 49
-0.25
 74
     0
  0
LTYPE
  5
1B
100
AcDbSymbolTableRecord
100
AcDbLinetypeTableRecord
  2
DOT
 70
    64
  3
. . . . . . . . . . . . . . . . . . . . . . . .
 72
    65
 73
     2
 40
0.25
 49
0.0
 74
     0
 49
-0.25
 74
     0
  0
ENDTAB
  0
TABLE
  2
LAYER
  5
2
100
AcDbSymbolTable
 70
   102
  0
LAYER
  5
F
100
AcDbSymbolTableRecord
100
AcDbLayerTableRecord
  2
0
 70
     0
 62
     7
  6
CONTINUOUS
  0
LAYER
  5
1C
100
AcDbSymbolTableRecord
100
AcDbLayerTableRecord
  2
DEFPOINTS
 70
     0
 62
     7
  6
CONTINUOUS
  0
LAYER
  5
1D
100
AcDbSymbolTableRecord
100
AcDbLayerTableRecord
  2
M0
 70
     0
 62
     3
  6
CONTINUOUS
  0
LAYER
  5
1E
100
AcDbSymbolTableRecord
100
AcDbLayerTableRecord
  2
M1
 70
     0
 62
     3
  6
CONTINUOUS
  0
LAYER
  5
1F
100
AcDbSymbolTableRecord
100
AcDbLayerTableRecord
  2
DD0
 70
     0
 62
     4
  6
CONTINUOUS
  0
LAYER
  5
20
100
AcDbSymbolTableRecord
100
AcDbLayerTableRecord
  2
DN0
 70
     0
 62
     2
  6
CONTINUOUS
  0
ENDTAB
  0
TABLE
  2
STYLE
  5
3
100
AcDbSymbolTable
 70
     2
  0
STYLE
  5
10
100
AcDbSymbolTableRecord
100
AcDbTextStyleTableRecord
  2
STANDARD
 70
     0
 40
0.0
 41
1.0
 50
0.0
 71
     0
 42
0.2
  3
txt
  4
BIGFONT
  0
ENDTAB
  0
TABLE
  2
VIEW
  5
6
100
AcDbSymbolTable
 70
     0
  0
ENDTAB
  0
TABLE
  2
UCS
  5
7
100
AcDbSymbolTable
 70
     0
  0
ENDTAB
  0
TABLE
  2
APPID
  5
9
100
AcDbSymbolTable
 70
     1
  0
APPID
  5
11
100
AcDbSymbolTableRecord
100
AcDbRegAppTableRecord
  2
ACAD
 70
     0
  0
ENDTAB
  0
TABLE
  2
DIMSTYLE
  5
A
100
AcDbSymbolTable
 70
     2
  0
DIMSTYLE
105
27
100
AcDbSymbolTableRecord
100
AcDbDimStyleTableRecord
  2
STANDARD
 70
     0
  3

  4

  5

  6
_OPEN
  7
_OPEN
 40
1.0
 41
5.454545
 42
1.0
 43
8.0
 44
1.0
 45
0.0
 46
0.0
 47
0.0
 48
0.0
140
5.727273
141
0.09
142
0.0
143
0.03937
144
1.0
145
0.0
146
1.0
147
0.6
 71
     0
 72
     0
 73
     1
 74
     1
 75
     0
 76
     0
 77
     3
 78
     8
170
     0
171
     2
172
     0
173
     1
174
     0
175
     0
176
     0
177
     0
178
     0
270
     2
271
     2
272
     4
273
     2
274
     2
340
10
275
     0
280
     0
281
     0
282
     0
283
     1
284
     0
285
     0
286
     0
287
     3
288
     0
  0
DIMSTYLE
105
28
100
AcDbSymbolTableRecord
100
AcDbDimStyleTableRecord
  2
LEADSTYL
 70
     0
  3

  4

  5

  6
_OPEN
  7
_OPEN
 40
1.0
 41
5.454545
 42
0.0625
 43
0.38
 44
0.18
 45
0.0
 46
0.0
 47
0.0
 48
0.0
140
5.727273
141
0.09
142
0.0
143
25.4
144
1.0
145
0.0
146
1.0
147
0.6
 71
     0
 72
     0
 73
     1
 74
     1
 75
     0
 76
     0
 77
     0
 78
     0
170
     0
171
     2
172
     0
173
     1
174
     0
175
     0
176
     0
177
     0
178
     0
270
     2
271
     4
272
     4
273
     2
274
     2
340
10
275
     0
280
     0
281
     0
282
     0
283
     1
284
     0
285
     0
286
     0
287
     3
288
     0
  0
ENDTAB
  0
TABLE
  2
BLOCK_RECORD
  5
1
100
AcDbSymbolTable
 70
    23
  0
BLOCK_RECORD
  5
21
100
AcDbSymbolTableRecord
100
AcDbBlockTableRecord
  2
*MODEL_SPACE
  0
BLOCK_RECORD
  5
24
100
AcDbSymbolTableRecord
100
AcDbBlockTableRecord
  2
*PAPER_SPACE
  0
BLOCK_RECORD
  5
29
100
AcDbSymbolTableRecord
100
AcDbBlockTableRecord
  2
_NONE
  0
BLOCK_RECORD
  5
2D
100
AcDbSymbolTableRecord
100
AcDbBlockTableRecord
  2
_OPEN
  0
BLOCK_RECORD
  5
33
100
AcDbSymbolTableRecord
100
AcDbBlockTableRecord
  2
_CLOSED
  0
BLOCK_RECORD
  5
3A
100
AcDbSymbolTableRecord
100
AcDbBlockTableRecord
  2
_ORIGIN
  0
BLOCK_RECORD
  5
3F
100
AcDbSymbolTableRecord
100
AcDbBlockTableRecord
  2
_DOT
  0
BLOCK_RECORD
  5
47
100
AcDbSymbolTableRecord
100
AcDbBlockTableRecord
  2
_OBLIQUE
  0
BLOCK_RECORD
  5
4B
100
AcDbSymbolTableRecord
100
AcDbBlockTableRecord
  2
DIMS0
  0
BLOCK_RECORD
  5
57
100
AcDbSymbolTableRecord
100
AcDbBlockTableRecord
  2
DIMS1
  0
BLOCK_RECORD
  5
63
100
AcDbSymbolTableRecord
100
AcDbBlockTableRecord
  2
DIMS2
  0
BLOCK_RECORD
  5
6F
100
AcDbSymbolTableRecord
100
AcDbBlockTableRecord
  2
DIMS3
  0
BLOCK_RECORD
  5
7B
100
AcDbSymbolTableRecord
100
AcDbBlockTableRecord
  2
DIMS4
  0
BLOCK_RECORD
  5
87
100
AcDbSymbolTableRecord
100
AcDbBlockTableRecord
  2
DIMS5
  0
BLOCK_RECORD
  5
94
100
AcDbSymbolTableRecord
100
AcDbBlockTableRecord
  2
DIMS6
  0
BLOCK_RECORD
  5
9F
100
AcDbSymbolTableRecord
100
AcDbBlockTableRecord
  2
DIMS7
  0
BLOCK_RECORD
  5
AB
100
AcDbSymbolTableRecord
100
AcDbBlockTableRecord
  2
DIMS8
  0
BLOCK_RECORD
  5
B7
100
AcDbSymbolTableRecord
100
AcDbBlockTableRecord
  2
DIMS9
  0
BLOCK_RECORD
  5
C2
100
AcDbSymbolTableRecord
100
AcDbBlockTableRecord
  2
DIMS10
  0
BLOCK_RECORD
  5
CE
100
AcDbSymbolTableRecord
100
AcDbBlockTableRecord
  2
DIMS11
  0
BLOCK_RECORD
  5
D7
100
AcDbSymbolTableRecord
100
AcDbBlockTableRecord
  2
DIMS12
  0
BLOCK_RECORD
  5
E3
100
AcDbSymbolTableRecord
100
AcDbBlockTableRecord
  2
DIMS13
  0
BLOCK_RECORD
  5
EF
100
AcDbSymbolTableRecord
100
AcDbBlockTableRecord
  2
DIMS14
  0
BLOCK_RECORD
  5
FB
100
AcDbSymbolTableRecord
100
AcDbBlockTableRecord
  2
DIMS15
  0
BLOCK_RECORD
  5
107
100
AcDbSymbolTableRecord
100
AcDbBlockTableRecord
  2
DIMS16
  0
ENDTAB
  0
ENDSEC
  0
SECTION
  2
BLOCKS
  0
BLOCK
  5
22
100
AcDbEntity
  8
0
100
AcDbBlockBegin
  2
*MODEL_SPACE
 70
     0
 10
0.0
 20
0.0
 30
0.0
  3
*MODEL_SPACE
  1

  0
ENDBLK
  5
23
100
AcDbEntity
  8
0
100
AcDbBlockEnd
  0
BLOCK
  5
25
100
AcDbEntity
 67
     1
  8
0
100
AcDbBlockBegin
  2
*PAPER_SPACE
 70
     0
 10
0.0
 20
0.0
 30
0.0
  3
*PAPER_SPACE
  1

  0
ENDBLK
  5
26
100
AcDbEntity
 67
     1
  8
0
100
AcDbBlockEnd
  0
BLOCK
  5
2A
100
AcDbEntity
  8
0
100
AcDbBlockBegin
  2
_NONE
 70
     0
 10
0.0
 20
0.0
  0
CIRCLE
  5
2B
100
AcDbEntity
  8
0
 62
     0
100
AcDbCircle
 10
0.0
 20
0.0
 40
0.25
  0
ENDBLK
  5
2C
100
AcDbEntity
  8
0
100
AcDbBlockEnd
  0
BLOCK
  5
2E
100
AcDbEntity
  8
0
100
AcDbBlockBegin
  2
_OPEN
 70
     0
 10
0.0
 20
0.0
  0
LINE
  5
2F
100
AcDbEntity
  8
0
 62
     0
100
AcDbLine
 10
-0.965926
 20
0.258819
 11
0.0
 21
0.0
  0
LINE
  5
30
100
AcDbEntity
  8
0
 62
     0
100
AcDbLine
 10
0.0
 20
0.0
 11
-0.965926
 21
-0.258819
  0
LINE
  5
31
100
AcDbEntity
  8
0
 62
     0
100
AcDbLine
 10
0.0
 20
0.0
 11
-1.0
 21
0.0
  0
ENDBLK
  5
32
100
AcDbEntity
  8
0
100
AcDbBlockEnd
  0
BLOCK
  5
34
100
AcDbEntity
  8
0
100
AcDbBlockBegin
  2
_CLOSED
 70
     0
 10
0.0
 20
0.0
  0
LINE
  5
35
100
AcDbEntity
  8
0
 62
     0
100
AcDbLine
 10
-0.965926
 20
0.258819
 11
0.0
 21
0.0
  0
LINE
  5
36
100
AcDbEntity
  8
0
 62
     0
100
AcDbLine
 10
0.0
 20
0.0
 11
-0.965926
 21
-0.258819
  0
LINE
  5
37
100
AcDbEntity
  8
0
 62
     0
100
AcDbLine
 10
-0.965926
 20
0.258819
 11
-0.965926
 21
-0.258819
  0
LINE
  5
38
100
AcDbEntity
  8
0
 62
     0
100
AcDbLine
 10
0.0
 20
0.0
 11
-1.0
 21
0.0
  0
ENDBLK
  5
39
100
AcDbEntity
  8
0
100
AcDbBlockEnd
  0
BLOCK
  5
3B
100
AcDbEntity
  8
0
100
AcDbBlockBegin
  2
_ORIGIN
 70
     0
 10
0.0
 20
0.0
  0
CIRCLE
  5
3C
100
AcDbEntity
  8
0
 62
     0
100
AcDbCircle
 10
0.0
 20
0.0
 40
0.5
  0
LINE
  5
3D
100
AcDbEntity
  8
0
 62
     0
100
AcDbLine
 10
0.0
 20
0.0
 11
-1.0
 21
0.0
  0
ENDBLK
  5
3E
100
AcDbEntity
  8
0
100
AcDbBlockEnd
  0
BLOCK
  5
40
100
AcDbEntity
  8
0
100
AcDbBlockBegin
  2
_DOT
 70
     0
 10
0.0
 20
0.0
  0
POLYLINE
  5
41
100
AcDbEntity
  8
0
 62
     0
100
AcDb2dPolyline
 66
     1
 70
     1
 40
0.5
 41
0.5
  0
VERTEX
  5
42
100
AcDbEntity
  8
0
 62
     0
100
AcDbVertex
100
AcDb2dVertex
 10
-0.25
 20
0.0
 42
1.0
  0
VERTEX
  5
43
100
AcDbEntity
  8
0
 62
     0
100
AcDbVertex
100
AcDb2dVertex
 10
0.25
 20
0.0
 42
1.0
  0
SEQEND
  5
44
100
AcDbEntity
  8
0
 62
     0
  0
LINE
  5
45
100
AcDbEntity
  8
0
 62
     0
100
AcDbLine
 10
-0.5
 20
0.0
 11
-1.0
 21
0.0
  0
ENDBLK
  5
46
100
AcDbEntity
  8
0
100
AcDbBlockEnd
  0
BLOCK
  5
48
100
AcDbEntity
  8
0
100
AcDbBlockBegin
  2
_OBLIQUE
 70
     0
 10
0.0
 20
0.0
  0
LINE
  5
49
100
AcDbEntity
  8
0
 62
     0
100
AcDbLine
 10
-0.353553
 20
-0.353553
 11
0.353553
 21
0.353553
  0
ENDBLK
  5
4A
100
AcDbEntity
  8
0
100
AcDbBlockEnd
  0
BLOCK
  5
4C
100
AcDbEntity
  8
DD0
100
AcDbBlockBegin
  2
DIMS0
 70
     0
 10
0.0
 20
0.0
  0
LINE
  5
4D
100
AcDbEntity
  8
DD0
100
AcDbLine
 10
58.217876
 20
346.689584
 11
58.217876
 21
471.797087
  0
LINE
  5
4E
100
AcDbEntity
  8
DD0
100
AcDbLine
 10
143.221349
 20
346.686949
 11
143.221349
 21
471.797087
  0
LINE
  5
4F
100
AcDbEntity
  8
DD0
100
AcDbLine
 10
63.486562
 20
471.390645
 11
58.217876
 21
469.978905
  0
LINE
  5
50
100
AcDbEntity
  8
DD0
100
AcDbLine
 10
58.217876
 20
469.978905
 11
63.486562
 21
468.567165
  0
LINE
  5
51
100
AcDbEntity
  8
DD0
100
AcDbLine
 10
137.952663
 20
468.567165
 11
143.221349
 21
469.978905
  0
LINE
  5
52
100
AcDbEntity
  8
DD0
100
AcDbLine
 10
143.221349
 20
469.978905
 11
137.952663
 21
471.390645
  0
LINE
  5
53
100
AcDbEntity
  8
DD0
100
AcDbLine
 10
58.217876
 20
469.978905
 11
143.221349
 21
469.978905
  0
TEXT
  5
54
100
AcDbEntity
  8
DD0
100
AcDbText
 10
97.395377
 20
471.069825
 40
4.545454
  1
８５
 41
0.666667
  7
STANDARD
100
AcDbText
  0
ENDBLK
  5
55
100
AcDbEntity
  8
DD0
100
AcDbBlockEnd
  0
BLOCK
  5
58
100
AcDbEntity
  8
DD0
100
AcDbBlockBegin
  2
DIMS1
 70
     0
 10
0.0
 20
0.0
  0
LINE
  5
59
100
AcDbEntity
  8
DD0
100
AcDbLine
 10
69.717746
 20
311.052517
 11
69.717746
 21
279.766895
  0
LINE
  5
5A
100
AcDbEntity
  8
DD0
100
AcDbLine
 10
89.717745
 20
311.052517
 11
89.717745
 21
279.766895
  0
LINE
  5
5B
100
AcDbEntity
  8
DD0
100
AcDbLine
 10
74.986432
 20
282.996817
 11
69.717746
 21
281.585077
  0
LINE
  5
5C
100
AcDbEntity
  8
DD0
100
AcDbLine
 10
69.717746
 20
281.585077
 11
74.986432
 21
280.173337
  0
LINE
  5
5D
100
AcDbEntity
  8
DD0
100
AcDbLine
 10
84.449059
 20
280.173337
 11
89.717745
 21
281.585077
  0
LINE
  5
5E
100
AcDbEntity
  8
DD0
100
AcDbLine
 10
89.717745
 20
281.585077
 11
84.449059
 21
282.996817
  0
LINE
  5
5F
100
AcDbEntity
  8
DD0
100
AcDbLine
 10
69.717746
 20
281.585077
 11
89.717745
 21
281.585077
  0
TEXT
  5
60
100
AcDbEntity
  8
DD0
100
AcDbText
 10
76.393506
 20
282.675997
 40
4.545454
  1
２０
 41
0.666667
  7
STANDARD
100
AcDbText
  0
ENDBLK
  5
61
100
AcDbEntity
  8
DD0
100
AcDbBlockEnd
  0
BLOCK
  5
64
100
AcDbEntity
  8
DD0
100
AcDbBlockBegin
  2
DIMS2
 70
     0
 10
0.0
 20
0.0
  0
LINE
  5
65
100
AcDbEntity
  8
DD0
100
AcDbLine
 10
120.986062
 20
444.071313
 11
168.757903
 21
444.071313
  0
LINE
  5
66
100
AcDbEntity
  8
DD0
100
AcDbLine
 10
133.039492
 20
300.368785
 11
168.757903
 21
300.368785
  0
LINE
  5
67
100
AcDbEntity
  8
DD0
100
AcDbLine
 10
168.351462
 20
438.802627
 11
166.939721
 21
444.071313
  0
LINE
  5
68
100
AcDbEntity
  8
DD0
100
AcDbLine
 10
166.939721
 20
444.071313
 11
165.527981
 21
438.802627
  0
LINE
  5
69
100
AcDbEntity
  8
DD0
100
AcDbLine
 10
165.527981
 20
305.637471
 11
166.939721
 21
300.368785
  0
LINE
  5
6A
100
AcDbEntity
  8
DD0
100
AcDbLine
 10
166.939721
 20
300.368785
 11
168.351462
 21
305.637471
  0
LINE
  5
6B
100
AcDbEntity
  8
DD0
100
AcDbLine
 10
166.939721
 20
444.071313
 11
166.939721
 21
300.368785
  0
TEXT
  5
6C
100
AcDbEntity
  8
DD0
100
AcDbText
 10
165.848815
 20
367.077627
 40
4.545454
  1
１４４
 50
90.000003
 41
0.666667
  7
STANDARD
100
AcDbText
  0
ENDBLK
  5
6D
100
AcDbEntity
  8
DD0
100
AcDbBlockEnd
  0
BLOCK
  5
70
100
AcDbEntity
  8
DD0
100
AcDbBlockBegin
  2
DIMS3
 70
     0
 10
0.0
 20
0.0
  0
LINE
  5
71
100
AcDbEntity
  8
DD0
100
AcDbLine
 10
344.650233
 20
354.503138
 11
344.650233
 21
279.766895
  0
LINE
  5
72
100
AcDbEntity
  8
DD0
100
AcDbLine
 10
237.696029
 20
323.003117
 11
237.696029
 21
279.766895
  0
LINE
  5
73
100
AcDbEntity
  8
DD0
100
AcDbLine
 10
339.381547
 20
280.173337
 11
344.650233
 21
281.585077
  0
LINE
  5
74
100
AcDbEntity
  8
DD0
100
AcDbLine
 10
344.650233
 20
281.585077
 11
339.381547
 21
282.996817
  0
LINE
  5
75
100
AcDbEntity
  8
DD0
100
AcDbLine
 10
242.964715
 20
282.996817
 11
237.696029
 21
281.585077
  0
LINE
  5
76
100
AcDbEntity
  8
DD0
100
AcDbLine
 10
237.696029
 20
281.585077
 11
242.964715
 21
280.173337
  0
LINE
  5
77
100
AcDbEntity
  8
DD0
100
AcDbLine
 10
344.650233
 20
281.585077
 11
237.696029
 21
281.585077
  0
TEXT
  5
78
100
AcDbEntity
  8
DD0
100
AcDbText
 10
286.03071
 20
282.675997
 40
4.545454
  1
１０７
 41
0.666667
  7
STANDARD
100
AcDbText
  0
ENDBLK
  5
79
100
AcDbEntity
  8
DD0
100
AcDbBlockEnd
  0
BLOCK
  5
7C
100
AcDbEntity
  8
DD0
100
AcDbBlockBegin
  2
DIMS4
 70
     0
 10
0.0
 20
0.0
  0
LINE
  5
7D
100
AcDbEntity
  8
DD0
100
AcDbLine
 10
80.117872
 20
429.3895
 11
80.117872
 21
460.399604
  0
LINE
  5
7E
100
AcDbEntity
  8
DD0
100
AcDbLine
 10
97.717873
 20
450.889494
 11
97.717873
 21
460.399604
  0
LINE
  5
7F
100
AcDbEntity
  8
DD0
100
AcDbLine
 10
85.386559
 20
459.993162
 11
80.117872
 21
458.581422
  0
LINE
  5
80
100
AcDbEntity
  8
DD0
100
AcDbLine
 10
80.117872
 20
458.581422
 11
85.386559
 21
457.169682
  0
LINE
  5
81
100
AcDbEntity
  8
DD0
100
AcDbLine
 10
92.449186
 20
457.169682
 11
97.717873
 21
458.581422
  0
LINE
  5
82
100
AcDbEntity
  8
DD0
100
AcDbLine
 10
97.717873
 20
458.581422
 11
92.449186
 21
459.993162
  0
LINE
  5
83
100
AcDbEntity
  8
DD0
100
AcDbLine
 10
80.117872
 20
458.581422
 11
97.717873
 21
458.581422
  0
TEXT
  5
84
100
AcDbEntity
  8
DD0
100
AcDbText
 10
81.957269
 20
459.672342
 40
4.545454
  1
１７．５
 41
0.666667
  7
STANDARD
100
AcDbText
  0
ENDBLK
  5
85
100
AcDbEntity
  8
DD0
100
AcDbBlockEnd
  0
BLOCK
  5
88
100
AcDbEntity
  8
DD0
100
AcDbBlockBegin
  2
DIMS5
 70
     0
 10
0.0
 20
0.0
  0
LINE
  5
89
100
AcDbEntity
  8
DD0
100
AcDbLine
 10
46.767879
 20
429.089485
 11
46.767879
 21
489.899004
  0
LINE
  5
8A
100
AcDbEntity
  8
DD0
100
AcDbLine
 10
148.667877
 20
429.089485
 11
148.667877
 21
489.899004
  0
LINE
  5
8B
100
AcDbEntity
  8
DD0
100
AcDbLine
 10
52.036565
 20
489.492562
 11
46.767879
 21
488.080822
  0
LINE
  5
8C
100
AcDbEntity
  8
DD0
100
AcDbLine
 10
46.767879
 20
488.080822
 11
52.036565
 21
486.669082
  0
LINE
  5
8D
100
AcDbEntity
  8
DD0
100
AcDbLine
 10
143.399191
 20
486.669082
 11
148.667877
 21
488.080822
  0
LINE
  5
8E
100
AcDbEntity
  8
DD0
100
AcDbLine
 10
148.667877
 20
488.080822
 11
143.399191
 21
489.492562
  0
LINE
  5
8F
100
AcDbEntity
  8
DD0
100
AcDbLine
 10
46.767879
 20
488.080822
 11
148.667877
 21
488.080822
  0
TEXT
  5
90
100
AcDbEntity
  8
DD0
100
AcDbText
 10
92.575458
 20
489.171742
 40
4.545454
  1
１０２
 41
0.666667
  7
STANDARD
100
AcDbText
  0
TEXT
  5
91
100
AcDbEntity
  8
DD0
100
AcDbText
 10
59.848186
 20
482.080844
 40
4.545454
  1
（補助接点サイドオンユニットを付けた場合）
 41
0.666667
  7
STANDARD
100
AcDbText
  0
ENDBLK
  5
92
100
AcDbEntity
  8
DD0
100
AcDbBlockEnd
  0
BLOCK
  5
95
100
AcDbEntity
  8
DD0
100
AcDbBlockBegin
  2
DIMS6
 70
     0
 10
0.0
 20
0.0
  0
LINE
  5
96
100
AcDbEntity
  8
DD0
100
AcDbLine
 10
224.150233
 20
409.88949
 11
224.150233
 21
471.797087
  0
LINE
  5
97
100
AcDbEntity
  8
DD0
100
AcDbLine
 10
339.381547
 20
468.567165
 11
344.650233
 21
469.978905
  0
LINE
  5
98
100
AcDbEntity
  8
DD0
100
AcDbLine
 10
344.650233
 20
469.978905
 11
339.381547
 21
471.390645
  0
LINE
  5
99
100
AcDbEntity
  8
DD0
100
AcDbLine
 10
229.418919
 20
471.390645
 11
224.150233
 21
469.978905
  0
LINE
  5
9A
100
AcDbEntity
  8
DD0
100
AcDbLine
 10
224.150233
 20
469.978905
 11
229.418919
 21
468.567165
  0
LINE
  5
9B
100
AcDbEntity
  8
DD0
100
AcDbLine
 10
344.650233
 20
469.978905
 11
224.150233
 21
469.978905
  0
TEXT
  5
9C
100
AcDbEntity
  8
DD0
100
AcDbText
 10
279.257805
 20
471.069825
 40
4.545454
  1
１２１
 41
0.666667
  7
STANDARD
100
AcDbText
  0
ENDBLK
  5
9D
100
AcDbEntity
  8
DD0
100
AcDbBlockEnd
  0
BLOCK
  5
A0
100
AcDbEntity
  8
DD0
100
AcDbBlockBegin
  2
DIMS7
 70
     0
 10
0.0
 20
0.0
  0
LINE
  5
A1
100
AcDbEntity
  8
DD0
100
AcDbLine
 10
344.650233
 20
440.389478
 11
344.650233
 21
489.899004
  0
LINE
  5
A2
100
AcDbEntity
  8
DD0
100
AcDbLine
 10
192.850227
 20
401.6895
 11
192.850227
 21
489.899004
  0
LINE
  5
A3
100
AcDbEntity
  8
DD0
100
AcDbLine
 10
339.381547
 20
486.669082
 11
344.650233
 21
488.080822
  0
LINE
  5
A4
100
AcDbEntity
  8
DD0
100
AcDbLine
 10
344.650233
 20
488.080822
 11
339.381547
 21
489.492562
  0
LINE
  5
A5
100
AcDbEntity
  8
DD0
100
AcDbLine
 10
198.118913
 20
489.492562
 11
192.850227
 21
488.080822
  0
LINE
  5
A6
100
AcDbEntity
  8
DD0
100
AcDbLine
 10
192.850227
 20
488.080822
 11
198.118913
 21
486.669082
  0
LINE
  5
A7
100
AcDbEntity
  8
DD0
100
AcDbLine
 10
344.650233
 20
488.080822
 11
192.850227
 21
488.080822
  0
TEXT
  5
A8
100
AcDbEntity
  8
DD0
100
AcDbText
 10
225.425964
 20
489.171742
 40
4.545454
  1
１５２（補助接点ヘッドオンユニットを付けた場合）
 41
0.666667
  7
STANDARD
100
AcDbText
  0
ENDBLK
  5
A9
100
AcDbEntity
  8
DD0
100
AcDbBlockEnd
  0
BLOCK
  5
AC
100
AcDbEntity
  8
DD0
100
AcDbBlockBegin
  2
DIMS8
 70
     0
 10
0.0
 20
0.0
  0
LINE
  5
AD
100
AcDbEntity
  8
DD0
100
AcDbLine
 10
219.150219
 20
447.809633
 11
219.150219
 21
471.797087
  0
LINE
  5
AE
100
AcDbEntity
  8
DD0
100
AcDbLine
 10
224.150233
 20
409.88949
 11
224.150233
 21
471.797087
  0
LINE
  5
AF
100
AcDbEntity
  8
DD0
100
AcDbLine
 10
213.881533
 20
468.567165
 11
219.150219
 21
469.978905
  0
LINE
  5
B0
100
AcDbEntity
  8
DD0
100
AcDbLine
 10
219.150219
 20
469.978905
 11
213.881533
 21
471.390645
  0
LINE
  5
B1
100
AcDbEntity
  8
DD0
100
AcDbLine
 10
229.418919
 20
471.390645
 11
224.150233
 21
469.978905
  0
LINE
  5
B2
100
AcDbEntity
  8
DD0
100
AcDbLine
 10
224.150233
 20
469.978905
 11
229.418919
 21
468.567165
  0
LINE
  5
B3
100
AcDbEntity
  8
DD0
100
AcDbLine
 10
207.695674
 20
469.978905
 11
230.150233
 21
469.978905
  0
TEXT
  5
B4
100
AcDbEntity
  8
DD0
100
AcDbText
 10
209.2987
 20
471.069825
 40
4.545454
  1
５
 41
0.666667
  7
STANDARD
100
AcDbText
  0
ENDBLK
  5
B5
100
AcDbEntity
  8
DD0
100
AcDbBlockEnd
  0
BLOCK
  5
B8
100
AcDbEntity
  8
DD0
100
AcDbBlockBegin
  2
DIMS9
 70
     0
 10
0.0
 20
0.0
  0
LINE
  5
B9
100
AcDbEntity
  8
DD0
100
AcDbLine
 10
333.650228
 20
439.889489
 11
333.650228
 21
460.399576
  0
LINE
  5
BA
100
AcDbEntity
  8
DD0
100
AcDbLine
 10
328.381542
 20
457.169654
 11
333.650228
 21
458.581394
  0
LINE
  5
BB
100
AcDbEntity
  8
DD0
100
AcDbLine
 10
333.650228
 20
458.581394
 11
328.381542
 21
459.993135
  0
LINE
  5
BC
100
AcDbEntity
  8
DD0
100
AcDbLine
 10
349.91892
 20
459.993135
 11
344.650233
 21
458.581394
  0
LINE
  5
BD
100
AcDbEntity
  8
DD0
100
AcDbLine
 10
344.650233
 20
458.581394
 11
349.91892
 21
457.169654
  0
LINE
  5
BE
100
AcDbEntity
  8
DD0
100
AcDbLine
 10
327.650228
 20
458.581394
 11
350.650233
 21
458.581394
  0
TEXT
  5
BF
100
AcDbEntity
  8
DD0
100
AcDbText
 10
335.825963
 20
459.672314
 40
4.545454
  1
１１
 41
0.666667
  7
STANDARD
100
AcDbText
  0
ENDBLK
  5
C0
100
AcDbEntity
  8
DD0
100
AcDbBlockEnd
  0
BLOCK
  5
C3
100
AcDbEntity
  8
DD0
100
AcDbBlockBegin
  2
DIMS10
 70
     0
 10
0.0
 20
0.0
  0
LINE
  5
C4
100
AcDbEntity
  8
DD0
100
AcDbLine
 10
138.486062
 20
222.586304
 11
168.810768
 21
222.586304
  0
LINE
  5
C5
100
AcDbEntity
  8
DD0
100
AcDbLine
 10
68.789207
 20
209.541816
 11
168.810768
 21
209.541816
  0
LINE
  5
C6
100
AcDbEntity
  8
DD0
100
AcDbLine
 10
165.580846
 20
227.854991
 11
166.992586
 21
222.586304
  0
LINE
  5
C7
100
AcDbEntity
  8
DD0
100
AcDbLine
 10
166.992586
 20
222.586304
 11
168.404326
 21
227.854991
  0
LINE
  5
C8
100
AcDbEntity
  8
DD0
100
AcDbLine
 10
168.404326
 20
204.273129
 11
166.992586
 21
209.541816
  0
LINE
  5
C9
100
AcDbEntity
  8
DD0
100
AcDbLine
 10
166.992586
 20
209.541816
 11
165.580846
 21
204.273129
  0
LINE
  5
CA
100
AcDbEntity
  8
DD0
100
AcDbLine
 10
166.992586
 20
237.677214
 11
166.992586
 21
203.541816
  0
TEXT
  5
CB
100
AcDbEntity
  8
DD0
100
AcDbText
 10
165.90168
 20
228.898434
 40
4.545454
  1
１３
 50
90.000003
 41
0.666667
  7
STANDARD
100
AcDbText
  0
ENDBLK
  5
CC
100
AcDbEntity
  8
DD0
100
AcDbBlockEnd
  0
BLOCK
  5
CF
100
AcDbEntity
  8
DD0
100
AcDbBlockBegin
  2
DIMS11
 70
     0
 10
0.0
 20
0.0
  0
TEXT
  5
D0
100
AcDbEntity
  8
DD0
100
AcDbText
 10
160.566332
 20
115.065811
 40
4.545454
  1
２－Ｍ４ねじ穴
 41
0.666667
  7
STANDARD
100
AcDbText
  0
LINE
  5
D1
100
AcDbEntity
  8
DD0
100
AcDbLine
 10
138.813481
 20
138.059295
 11
134.605058
 21
141.529344
  0
LINE
  5
D2
100
AcDbEntity
  8
DD0
100
AcDbLine
 10
134.605058
 20
141.529344
 11
136.514635
 21
136.419982
  0
LINE
  5
D3
100
AcDbEntity
  8
DD0
100
AcDbLine
 10
134.605058
 20
141.529344
 11
154.254203
 21
113.974905
  0
LINE
  5
D4
100
AcDbEntity
  8
DD0
100
AcDbLine
 10
154.254203
 20
113.974905
 11
191.708744
 21
113.974905
  0
ENDBLK
  5
D5
100
AcDbEntity
  8
DD0
100
AcDbBlockEnd
  0
BLOCK
  5
D8
100
AcDbEntity
  8
DD0
100
AcDbBlockBegin
  2
DIMS12
 70
     0
 10
0.0
 20
0.0
  0
LINE
  5
D9
100
AcDbEntity
  8
DD0
100
AcDbLine
 10
133.873607
 20
150.4574
 11
133.873607
 21
241.165489
  0
LINE
  5
DA
100
AcDbEntity
  8
DD0
100
AcDbLine
 10
62.87361
 20
215.457398
 11
62.87361
 21
241.165489
  0
LINE
  5
DB
100
AcDbEntity
  8
DD0
100
AcDbLine
 10
128.604921
 20
237.935567
 11
133.873607
 21
239.347307
  0
LINE
  5
DC
100
AcDbEntity
  8
DD0
100
AcDbLine
 10
133.873607
 20
239.347307
 11
128.604921
 21
240.759047
  0
LINE
  5
DD
100
AcDbEntity
  8
DD0
100
AcDbLine
 10
68.142296
 20
240.759047
 11
62.87361
 21
239.347307
  0
LINE
  5
DE
100
AcDbEntity
  8
DD0
100
AcDbLine
 10
62.87361
 20
239.347307
 11
68.142296
 21
237.935567
  0
LINE
  5
DF
100
AcDbEntity
  8
DD0
100
AcDbLine
 10
133.873607
 20
239.347307
 11
62.87361
 21
239.347307
  0
TEXT
  5
E0
100
AcDbEntity
  8
DD0
100
AcDbText
 10
95.049366
 20
240.438227
 40
4.545454
  1
７１
 41
0.666667
  7
STANDARD
100
AcDbText
  0
ENDBLK
  5
E1
100
AcDbEntity
  8
DD0
100
AcDbBlockEnd
  0
BLOCK
  5
E4
100
AcDbEntity
  8
DD0
100
AcDbBlockBegin
  2
DIMS13
 70
     0
 10
0.0
 20
0.0
  0
LINE
  5
E5
100
AcDbEntity
  8
DD0
100
AcDbLine
 10
62.87361
 20
215.457398
 11
62.87361
 21
241.165489
  0
LINE
  5
E6
100
AcDbEntity
  8
DD0
100
AcDbLine
 10
58.873595
 20
224.404486
 11
58.873595
 21
241.165489
  0
LINE
  5
E7
100
AcDbEntity
  8
DD0
100
AcDbLine
 10
68.142296
 20
240.759047
 11
62.87361
 21
239.347307
  0
LINE
  5
E8
100
AcDbEntity
  8
DD0
100
AcDbLine
 10
62.87361
 20
239.347307
 11
68.142296
 21
237.935567
  0
LINE
  5
E9
100
AcDbEntity
  8
DD0
100
AcDbLine
 10
53.604909
 20
237.935567
 11
58.873595
 21
239.347307
  0
LINE
  5
EA
100
AcDbEntity
  8
DD0
100
AcDbLine
 10
58.873595
 20
239.347307
 11
53.604909
 21
240.759047
  0
LINE
  5
EB
100
AcDbEntity
  8
DD0
100
AcDbLine
 10
68.87361
 20
239.347307
 11
47.419049
 21
239.347307
  0
TEXT
  5
EC
100
AcDbEntity
  8
DD0
100
AcDbText
 10
49.022083
 20
240.438227
 40
4.545454
  1
４
 41
0.666667
  7
STANDARD
100
AcDbText
  0
ENDBLK
  5
ED
100
AcDbEntity
  8
DD0
100
AcDbBlockEnd
  0
BLOCK
  5
F0
100
AcDbEntity
  8
DD0
100
AcDbBlockBegin
  2
DIMS14
 70
     0
 10
0.0
 20
0.0
  0
LINE
  5
F1
100
AcDbEntity
  8
DD0
100
AcDbLine
 10
68.789207
 20
209.541816
 11
168.810768
 21
209.541816
  0
LINE
  5
F2
100
AcDbEntity
  8
DD0
100
AcDbLine
 10
139.789204
 20
144.541817
 11
168.810768
 21
144.541817
  0
LINE
  5
F3
100
AcDbEntity
  8
DD0
100
AcDbLine
 10
168.404326
 20
204.273129
 11
166.992586
 21
209.541816
  0
LINE
  5
F4
100
AcDbEntity
  8
DD0
100
AcDbLine
 10
166.992586
 20
209.541816
 11
165.580846
 21
204.273129
  0
LINE
  5
F5
100
AcDbEntity
  8
DD0
100
AcDbLine
 10
165.580846
 20
149.810503
 11
166.992586
 21
144.541817
  0
LINE
  5
F6
100
AcDbEntity
  8
DD0
100
AcDbLine
 10
166.992586
 20
144.541817
 11
168.404326
 21
149.810503
  0
LINE
  5
F7
100
AcDbEntity
  8
DD0
100
AcDbLine
 10
166.992586
 20
209.541816
 11
166.992586
 21
144.541817
  0
TEXT
  5
F8
100
AcDbEntity
  8
DD0
100
AcDbText
 10
165.90168
 20
173.717577
 40
4.545454
  1
６５
 50
90.000003
 41
0.666667
  7
STANDARD
100
AcDbText
  0
ENDBLK
  5
F9
100
AcDbEntity
  8
DD0
100
AcDbBlockEnd
  0
BLOCK
  5
FC
100
AcDbEntity
  8
DD0
100
AcDbBlockBegin
  2
DIMS15
 70
     0
 10
0.0
 20
0.0
  0
LINE
  5
FD
100
AcDbEntity
  8
DD0
100
AcDbLine
 10
74.44969
 20
444.071313
 11
32.729214
 21
444.071313
  0
LINE
  5
FE
100
AcDbEntity
  8
DD0
100
AcDbLine
 10
78.299691
 20
427.07133
 11
32.729214
 21
427.07133
  0
LINE
  5
FF
100
AcDbEntity
  8
DD0
100
AcDbLine
 10
35.959136
 20
438.802627
 11
34.547396
 21
444.071313
  0
LINE
  5
100
100
AcDbEntity
  8
DD0
100
AcDbLine
 10
34.547396
 20
444.071313
 11
33.135656
 21
438.802627
  0
LINE
  5
101
100
AcDbEntity
  8
DD0
100
AcDbLine
 10
33.135656
 20
432.340016
 11
34.547396
 21
427.07133
  0
LINE
  5
102
100
AcDbEntity
  8
DD0
100
AcDbLine
 10
34.547396
 20
427.07133
 11
35.959136
 21
432.340016
  0
LINE
  5
103
100
AcDbEntity
  8
DD0
100
AcDbLine
 10
34.547396
 20
444.071313
 11
34.547396
 21
427.07133
  0
TEXT
  5
104
100
AcDbEntity
  8
DD0
100
AcDbText
 10
33.456486
 20
432.247082
 40
4.545454
  1
１７
 50
90.000003
 41
0.666667
  7
STANDARD
100
AcDbText
  0
ENDBLK
  5
105
100
AcDbEntity
  8
DD0
100
AcDbBlockEnd
  0
BLOCK
  5
108
100
AcDbEntity
  8
DD0
100
AcDbBlockBegin
  2
DIMS16
 70
     0
 10
0.0
 20
0.0
  0
LINE
  5
109
100
AcDbEntity
  8
DD0
100
AcDbLine
 10
78.299691
 20
427.071302
 11
32.729214
 21
427.071302
  0
LINE
  5
10A
100
AcDbEntity
  8
DD0
100
AcDbLine
 10
67.899564
 20
313.370576
 11
32.729214
 21
313.370576
  0
LINE
  5
10B
100
AcDbEntity
  8
DD0
100
AcDbLine
 10
35.959136
 20
421.802616
 11
34.547396
 21
427.071302
  0
LINE
  5
10C
100
AcDbEntity
  8
DD0
100
AcDbLine
 10
34.547396
 20
427.071302
 11
33.135656
 21
421.802616
  0
LINE
  5
10D
100
AcDbEntity
  8
DD0
100
AcDbLine
 10
33.135656
 20
318.639263
 11
34.547396
 21
313.370576
  0
LINE
  5
10E
100
AcDbEntity
  8
DD0
100
AcDbLine
 10
34.547396
 20
313.370576
 11
35.959136
 21
318.639263
  0
LINE
  5
10F
100
AcDbEntity
  8
DD0
100
AcDbLine
 10
34.547396
 20
427.071302
 11
34.547396
 21
313.370576
  0
TEXT
  5
110
100
AcDbEntity
  8
DD0
100
AcDbText
 10
33.456486
 20
361.44214
 40
4.545454
  1
１１３．５
 50
90.000003
 41
0.666667
  7
STANDARD
100
AcDbText
  0
ENDBLK
  5
111
100
AcDbEntity
  8
DD0
100
AcDbBlockEnd
  0
ENDSEC
  0
SECTION
  2
ENTITIES
  0
INSERT
  5
56
100
AcDbEntity
  8
DD0
100
AcDbBlockReference
  2
DIMS0
 10
0.0
 20
0.0
  0
INSERT
  5
62
100
AcDbEntity
  8
DD0
100
AcDbBlockReference
  2
DIMS1
 10
0.0
 20
0.0
  0
INSERT
  5
6E
100
AcDbEntity
  8
DD0
100
AcDbBlockReference
  2
DIMS2
 10
0.0
 20
0.0
  0
INSERT
  5
7A
100
AcDbEntity
  8
DD0
100
AcDbBlockReference
  2
DIMS3
 10
0.0
 20
0.0
  0
INSERT
  5
86
100
AcDbEntity
  8
DD0
100
AcDbBlockReference
  2
DIMS4
 10
0.0
 20
0.0
  0
INSERT
  5
93
100
AcDbEntity
  8
DD0
100
AcDbBlockReference
  2
DIMS5
 10
0.0
 20
0.0
  0
INSERT
  5
9E
100
AcDbEntity
  8
DD0
100
AcDbBlockReference
  2
DIMS6
 10
0.0
 20
0.0
  0
INSERT
  5
AA
100
AcDbEntity
  8
DD0
100
AcDbBlockReference
  2
DIMS7
 10
0.0
 20
0.0
  0
INSERT
  5
B6
100
AcDbEntity
  8
DD0
100
AcDbBlockReference
  2
DIMS8
 10
0.0
 20
0.0
  0
INSERT
  5
C1
100
AcDbEntity
  8
DD0
100
AcDbBlockReference
  2
DIMS9
 10
0.0
 20
0.0
  0
INSERT
  5
CD
100
AcDbEntity
  8
DD0
100
AcDbBlockReference
  2
DIMS10
 10
0.0
 20
0.0
  0
INSERT
  5
D6
100
AcDbEntity
  8
DD0
100
AcDbBlockReference
  2
DIMS11
 10
0.0
 20
0.0
  0
INSERT
  5
E2
100
AcDbEntity
  8
DD0
100
AcDbBlockReference
  2
DIMS12
 10
0.0
 20
0.0
  0
INSERT
  5
EE
100
AcDbEntity
  8
DD0
100
AcDbBlockReference
  2
DIMS13
 10
0.0
 20
0.0
  0
INSERT
  5
FA
100
AcDbEntity
  8
DD0
100
AcDbBlockReference
  2
DIMS14
 10
0.0
 20
0.0
  0
INSERT
  5
106
100
AcDbEntity
  8
DD0
100
AcDbBlockReference
  2
DIMS15
 10
0.0
 20
0.0
  0
INSERT
  5
112
100
AcDbEntity
  8
DD0
100
AcDbBlockReference
  2
DIMS16
 10
0.0
 20
0.0
  0
LINE
  5
113
100
AcDbEntity
  8
M0
 62
     6
100
AcDbLine
 10
100.217725
 20
302.371267
 11
99.217725
 21
302.371271
  0
LINE
  5
114
100
AcDbEntity
  8
M0
 62
     6
100
AcDbLine
 10
61.217765
 20
309.371403
 11
63.217757
 21
311.371641
  0
LINE
  5
115
100
AcDbEntity
  8
M0
 62
     6
100
AcDbLine
 10
78.217749
 20
304.871344
 11
76.217741
 21
306.871595
  0
LINE
  5
116
100
AcDbEntity
  8
M0
 62
     6
100
AcDbLine
 10
101.217749
 20
304.871264
 11
103.217741
 21
306.871501
  0
LINE
  5
117
100
AcDbEntity
  8
M0
 62
     6
100
AcDbLine
 10
81.217749
 20
304.871334
 11
83.217741
 21
306.871571
  0
LINE
  5
118
100
AcDbEntity
  8
M0
 62
     6
100
AcDbLine
 10
98.217749
 20
304.871274
 11
96.217741
 21
306.87177
  0
LINE
  5
119
100
AcDbEntity
  8
M0
 62
     6
100
AcDbLine
 10
101.217729
 20
303.371264
 11
101.217868
 21
343.371264
  0
LINE
  5
11A
100
AcDbEntity
  8
M0
 62
     6
100
AcDbLine
 10
98.217729
 20
303.371274
 11
98.217868
 21
343.371274
  0
LINE
  5
11B
100
AcDbEntity
  8
M0
 62
     6
100
AcDbLine
 10
78.217863
 20
341.871344
 11
73.565664
 21
341.87136
  0
LINE
  5
11C
100
AcDbEntity
  8
M0
 62
     6
100
AcDbLine
 10
96.217741
 20
306.87177
 11
96.217785
 21
319.371281
  0
LINE
  5
11D
100
AcDbEntity
  8
M0
 62
     6
100
AcDbLine
 10
81.217729
 20
303.371334
 11
81.217868
 21
343.371334
  0
LINE
  5
11E
100
AcDbEntity
  8
M0
 62
     6
100
AcDbLine
 10
58.21774
 20
306.671463
 11
58.217873
 21
344.871414
  0
LINE
  5
11F
100
AcDbEntity
  8
M0
 62
     6
100
AcDbLine
 10
121.067863
 20
341.871195
 11
112.614762
 21
341.871224
  0
ARC
  5
120
100
AcDbEntity
  8
M0
 62
     6
100
AcDbCircle
 10
64.217785
 20
319.371393
 40
1.0
100
AcDbArc
 50
89.998926
 51
179.9998
  0
ARC
  5
121
100
AcDbEntity
  8
M0
 62
     6
100
AcDbCircle
 10
104.217812
 20
327.371253
 40
1.0
100
AcDbArc
 50
179.9998
 51
270.0
  0
LINE
  5
122
100
AcDbEntity
  8
M0
 62
     6
100
AcDbLine
 10
117.217807
 20
327.371208
 11
117.217857
 21
341.871208
  0
ARC
  5
123
100
AcDbEntity
  8
M0
 62
     6
100
AcDbCircle
 10
84.217785
 20
319.371323
 40
1.0
100
AcDbArc
 50
89.998926
 51
179.9998
  0
ARC
  5
124
100
AcDbEntity
  8
M0
 62
     6
100
AcDbCircle
 10
77.217812
 20
327.371348
 40
1.0
100
AcDbArc
 50
270.0
 51
359.9998
  0
LINE
  5
125
100
AcDbEntity
  8
M0
 62
     6
100
AcDbLine
 10
78.217878
 20
341.871344
 11
76.217902
 21
339.871595
  0
ARC
  5
126
100
AcDbEntity
  8
M0
 62
     6
100
AcDbCircle
 10
60.217748
 20
308.871407
 40
1.0
100
AcDbArc
 50
270.0
 51
359.9998
  0
LINE
  5
127
100
AcDbEntity
  8
M0
 62
     6
100
AcDbLine
 10
78.21774
 20
306.671393
 11
58.21774
 21
306.671463
  0
LINE
  5
128
100
AcDbEntity
  8
M0
 62
     6
100
AcDbLine
 10
80.217725
 20
302.371337
 11
79.217725
 21
302.371341
  0
LINE
  5
129
100
AcDbEntity
  8
M0
 62
     6
100
AcDbLine
 10
98.21774
 20
306.671323
 11
81.21774
 21
306.671382
  0
LINE
  5
12A
100
AcDbEntity
  8
M0
 62
     6
100
AcDbLine
 10
81.217878
 20
341.871334
 11
83.217856
 21
339.871327
  0
LINE
  5
12B
100
AcDbEntity
  8
M0
 62
     6
100
AcDbLine
 10
60.217868
 20
343.371407
 11
58.217868
 21
343.371414
  0
LINE
  5
12C
100
AcDbEntity
  8
M0
 62
     6
100
AcDbLine
 10
121.067734
 20
304.871195
 11
121.067789
 21
320.868753
  0
ARC
  5
12D
100
AcDbEntity
  8
M0
 62
     6
100
AcDbCircle
 10
102.217795
 20
322.37126
 40
1.0
100
AcDbArc
 50
89.998926
 51
179.9998
  0
ARC
  5
12E
100
AcDbEntity
  8
M0
 62
     6
100
AcDbCircle
 10
100.217729
 20
303.371267
 40
1.0
100
AcDbArc
 50
270.0
 51
359.9998
  0
ARC
  5
12F
100
AcDbEntity
  8
M0
 62
     6
100
AcDbCircle
 10
79.217729
 20
303.371341
 40
1.0
100
AcDbArc
 50
179.9998
 51
270.0
  0
ARC
  5
130
100
AcDbEntity
  8
M0
 62
     6
100
AcDbCircle
 10
60.217865
 20
342.371407
 40
1.0
100
AcDbArc
 50
359.9998
 51
449.998926
  0
ARC
  5
131
100
AcDbEntity
  8
M0
 62
     6
100
AcDbCircle
 10
131.067815
 20
328.37116
 40
13.299996
100
AcDbArc
 50
165.18762
 51
194.810764
  0
ARC
  5
132
100
AcDbEntity
  8
M0
 62
     6
100
AcDbCircle
 10
80.217729
 20
303.371337
 40
1.0
100
AcDbArc
 50
270.0
 51
359.9998
  0
ARC
  5
133
100
AcDbEntity
  8
M0
 62
     6
100
AcDbCircle
 10
77.217795
 20
322.371348
 40
1.0
100
AcDbArc
 50
359.9998
 51
449.998926
  0
ARC
  5
134
100
AcDbEntity
  8
M0
 62
     6
100
AcDbCircle
 10
99.217729
 20
303.371271
 40
1.0
100
AcDbArc
 50
179.9998
 51
270.0
  0
ARC
  5
135
100
AcDbEntity
  8
M0
 62
     6
100
AcDbCircle
 10
82.217795
 20
322.37133
 40
1.0
100
AcDbArc
 50
89.998926
 51
179.9998
  0
ARC
  5
136
100
AcDbEntity
  8
M0
 62
     6
100
AcDbCircle
 10
62.217795
 20
322.3714
 40
1.0
100
AcDbArc
 50
89.998926
 51
179.9998
  0
ARC
  5
137
100
AcDbEntity
  8
M0
 62
     6
100
AcDbCircle
 10
120.567734
 20
304.871196
 40
0.5
100
AcDbArc
 50
270.0
 51
359.9998
  0
ARC
  5
138
100
AcDbEntity
  8
M0
 62
     6
100
AcDbCircle
 10
97.217795
 20
322.371278
 40
1.0
100
AcDbArc
 50
359.9998
 51
449.998926
  0
ARC
  5
139
100
AcDbEntity
  8
M0
 62
     6
100
AcDbCircle
 10
116.217807
 20
327.371212
 40
1.0
100
AcDbArc
 50
270.0
 51
359.9998
  0
ARC
  5
13A
100
AcDbEntity
  8
M0
 62
     6
100
AcDbCircle
 10
118.717728
 20
304.871203
 40
0.5
100
AcDbArc
 50
179.9998
 51
270.0
  0
CIRCLE
  5
13B
100
AcDbEntity
  8
M0
 62
     6
100
AcDbCircle
 10
69.717758
 20
333.371065
 40
5.0
  0
LINE
  5
13C
100
AcDbEntity
  8
M0
 62
     6
100
AcDbLine
 10
61.217748
 20
308.871403
 11
61.217865
 21
342.371403
  0
CIRCLE
  5
13D
100
AcDbEntity
  8
M0
 62
     6
100
AcDbCircle
 10
109.717728
 20
333.370821
 40
5.0
  0
LINE
  5
13E
100
AcDbEntity
  8
M0
 62
     6
100
AcDbLine
 10
83.217741
 20
306.871571
 11
83.217785
 21
319.371327
  0
LINE
  5
13F
100
AcDbEntity
  8
M0
 62
     6
100
AcDbLine
 10
78.217729
 20
303.371344
 11
78.217868
 21
343.371344
  0
CIRCLE
  5
140
100
AcDbEntity
  8
M0
 62
     6
100
AcDbCircle
 10
89.717865
 20
333.371309
 40
5.0
  0
LINE
  5
141
100
AcDbEntity
  8
M0
 62
     6
100
AcDbLine
 10
118.217728
 20
304.871205
 11
118.217789
 21
322.371205
  0
ARC
  5
142
100
AcDbEntity
  8
M0
 62
     6
100
AcDbCircle
 10
80.217868
 20
343.371337
 40
1.0
100
AcDbArc
 50
359.9998
 51
449.998926
  0
ARC
  5
143
100
AcDbEntity
  8
M0
 62
     6
100
AcDbCircle
 10
100.217868
 20
343.371267
 40
1.0
100
AcDbArc
 50
359.9998
 51
449.998926
  0
ARC
  5
144
100
AcDbEntity
  8
M0
 62
     6
100
AcDbCircle
 10
99.217868
 20
343.371271
 40
1.0
100
AcDbArc
 50
89.998926
 51
179.9998
  0
CIRCLE
  5
145
100
AcDbEntity
  8
M0
 62
     6
100
AcDbCircle
 10
89.717743
 20
313.370577
 40
5.0
  0
CIRCLE
  5
146
100
AcDbEntity
  8
M0
 62
     6
100
AcDbCircle
 10
109.717598
 20
313.370706
 40
5.0
  0
ARC
  5
147
100
AcDbEntity
  8
M0
 62
     6
100
AcDbCircle
 10
79.217868
 20
343.371341
 40
1.0
100
AcDbArc
 50
89.998926
 51
179.9998
  0
LINE
  5
148
100
AcDbEntity
  8
M0
 62
     6
100
AcDbLine
 10
115.353002
 20
344.371215
 11
113.95079
 21
344.371219
  0
LINE
  5
149
100
AcDbEntity
  8
M0
 62
     6
100
AcDbLine
 10
83.217812
 20
327.371327
 11
83.217856
 21
339.871327
  0
LINE
  5
14A
100
AcDbEntity
  8
M0
 62
     6
100
AcDbLine
 10
97.217809
 20
326.371278
 11
82.217809
 21
326.37133
  0
LINE
  5
14B
100
AcDbEntity
  8
M0
 62
     6
100
AcDbLine
 10
133.85672
 20
344.371196
 11
121.0821
 21
344.370947
  0
LINE
  5
14C
100
AcDbEntity
  8
M0
 62
     6
100
AcDbLine
 10
67.490859
 20
344.871196
 11
58.217873
 21
344.871196
  0
LINE
  5
14D
100
AcDbEntity
  8
M0
 62
     6
100
AcDbLine
 10
116.217803
 20
326.371212
 11
101.217809
 21
326.371264
  0
LINE
  5
14E
100
AcDbEntity
  8
M0
 62
     6
100
AcDbLine
 10
76.217858
 20
327.371351
 11
76.217902
 21
339.871595
  0
LINE
  5
14F
100
AcDbEntity
  8
M0
 62
     6
100
AcDbLine
 10
117.217782
 20
320.371208
 11
102.217788
 21
320.37126
  0
LINE
  5
150
100
AcDbEntity
  8
M0
 62
     6
100
AcDbLine
 10
77.217798
 20
323.371348
 11
62.217798
 21
323.3714
  0
LINE
  5
151
100
AcDbEntity
  8
M0
 62
     6
100
AcDbLine
 10
63.217858
 20
327.371396
 11
63.217902
 21
339.872129
  0
LINE
  5
152
100
AcDbEntity
  8
M0
 62
     6
100
AcDbLine
 10
60.217744
 20
307.871407
 11
58.217744
 21
307.871414
  0
LINE
  5
153
100
AcDbEntity
  8
M0
 62
     6
100
AcDbLine
 10
97.217798
 20
323.371278
 11
82.217798
 21
323.37133
  0
LINE
  5
154
100
AcDbEntity
  8
M0
 62
     6
100
AcDbLine
 10
97.217788
 20
320.371278
 11
82.217788
 21
320.37133
  0
LINE
  5
155
100
AcDbEntity
  8
M0
 62
     6
100
AcDbLine
 10
98.217863
 20
341.871274
 11
93.102821
 21
341.871292
  0
LINE
  5
156
100
AcDbEntity
  8
M0
 62
     6
100
AcDbLine
 10
143.221333
 20
342.868753
 11
113.110933
 21
342.868462
  0
LINE
  5
157
100
AcDbEntity
  8
M0
 62
     6
100
AcDbLine
 10
98.217867
 20
342.871274
 11
93.619183
 21
342.87129
  0
LINE
  5
158
100
AcDbEntity
  8
M0
 62
     6
100
AcDbLine
 10
78.217867
 20
342.871344
 11
74.007744
 21
342.871359
  0
LINE
  5
159
100
AcDbEntity
  8
M0
 62
     6
100
AcDbLine
 10
118.221331
 20
323.368753
 11
118.221329
 21
320.868753
  0
LINE
  5
15A
100
AcDbEntity
  8
M0
 62
     6
100
AcDbLine
 10
114.721329
 20
320.371217
 11
114.721333
 21
326.371217
  0
LINE
  5
15B
100
AcDbEntity
  8
M0
 62
     6
100
AcDbLine
 10
121.071342
 20
331.768753
 11
118.209112
 21
331.768753
  0
LINE
  5
15C
100
AcDbEntity
  8
M0
 62
     6
100
AcDbLine
 10
121.071338
 20
324.968753
 11
118.210384
 21
324.968753
  0
LINE
  5
15D
100
AcDbEntity
  8
M0
 62
     6
100
AcDbLine
 10
76.217741
 20
306.871595
 11
76.217785
 21
319.371351
  0
LINE
  5
15E
100
AcDbEntity
  8
M0
 62
     6
100
AcDbLine
 10
96.217812
 20
327.371281
 11
96.217856
 21
339.871281
  0
LINE
  5
15F
100
AcDbEntity
  8
M0
 62
     6
100
AcDbLine
 10
103.217741
 20
306.871501
 11
103.217785
 21
319.371257
  0
LINE
  5
160
100
AcDbEntity
  8
M0
 62
     6
100
AcDbLine
 10
116.217734
 20
306.67126
 11
116.217779
 21
319.371212
  0
LINE
  5
161
100
AcDbEntity
  8
M0
 62
     6
100
AcDbLine
 10
103.217812
 20
327.371257
 11
103.217856
 21
339.871745
  0
LINE
  5
162
100
AcDbEntity
  8
M0
 62
     6
100
AcDbLine
 10
116.217807
 20
327.371212
 11
116.217857
 21
341.871212
  0
ARC
  5
163
100
AcDbEntity
  8
M0
 62
     6
100
AcDbCircle
 10
102.217785
 20
319.37126
 40
1.0
100
AcDbArc
 50
89.998926
 51
179.9998
  0
ARC
  5
164
100
AcDbEntity
  8
M0
 62
     6
100
AcDbCircle
 10
117.217779
 20
319.371208
 40
1.0
100
AcDbArc
 50
359.9998
 51
450.0
  0
ARC
  5
165
100
AcDbEntity
  8
M0
 62
     6
100
AcDbCircle
 10
97.217785
 20
319.371278
 40
1.0
100
AcDbArc
 50
359.9998
 51
449.998926
  0
ARC
  5
166
100
AcDbEntity
  8
M0
 62
     6
100
AcDbCircle
 10
77.217785
 20
319.371348
 40
1.0
100
AcDbArc
 50
359.9998
 51
449.998926
  0
ARC
  5
167
100
AcDbEntity
  8
M0
 62
     6
100
AcDbCircle
 10
62.217785
 20
319.3714
 40
1.0
100
AcDbArc
 50
89.998926
 51
179.9998
  0
ARC
  5
168
100
AcDbEntity
  8
M0
 62
     6
100
AcDbCircle
 10
115.217807
 20
327.371215
 40
1.0
100
AcDbArc
 50
270.0
 51
359.9998
  0
ARC
  5
169
100
AcDbEntity
  8
M0
 62
     6
100
AcDbCircle
 10
97.217812
 20
327.371278
 40
1.0
100
AcDbArc
 50
270.0
 51
359.9998
  0
ARC
  5
16A
100
AcDbEntity
  8
M0
 62
     6
100
AcDbCircle
 10
82.217812
 20
327.37133
 40
1.0
100
AcDbArc
 50
179.9998
 51
270.0
  0
ARC
  5
16B
100
AcDbEntity
  8
M0
 62
     6
100
AcDbCircle
 10
115.217779
 20
319.371215
 40
1.0
100
AcDbArc
 50
359.9998
 51
450.0
  0
CIRCLE
  5
16C
100
AcDbEntity
  8
M0
 62
     6
100
AcDbCircle
 10
69.717743
 20
313.370577
 40
5.0
  0
ARC
  5
16D
100
AcDbEntity
  8
M0
 62
     6
100
AcDbCircle
 10
75.217785
 20
319.371355
 40
1.0
100
AcDbArc
 50
359.9998
 51
449.998926
  0
ARC
  5
16E
100
AcDbEntity
  8
M0
 62
     6
100
AcDbCircle
 10
95.217785
 20
319.371285
 40
1.0
100
AcDbArc
 50
359.9998
 51
449.998926
  0
ARC
  5
16F
100
AcDbEntity
  8
M0
 62
     6
100
AcDbCircle
 10
62.217812
 20
327.3714
 40
1.0
100
AcDbArc
 50
179.9998
 51
270.0
  0
ARC
  5
170
100
AcDbEntity
  8
M0
 62
     6
100
AcDbCircle
 10
104.217785
 20
319.371253
 40
1.0
100
AcDbArc
 50
89.998926
 51
179.9998
  0
LINE
  5
171
100
AcDbEntity
  8
M0
 62
     6
100
AcDbLine
 10
118.217734
 20
306.671253
 11
101.21774
 21
306.671313
  0
LINE
  5
172
100
AcDbEntity
  8
M0
 62
     6
100
AcDbLine
 10
77.217788
 20
320.371348
 11
62.217788
 21
320.3714
  0
LINE
  5
173
100
AcDbEntity
  8
M0
 62
     6
100
AcDbLine
 10
98.217939
 20
341.871274
 11
96.217856
 21
339.871281
  0
LINE
  5
174
100
AcDbEntity
  8
M0
 62
     6
100
AcDbLine
 10
77.217809
 20
326.371348
 11
62.217809
 21
326.3714
  0
LINE
  5
175
100
AcDbEntity
  8
M0
 62
     6
100
AcDbLine
 10
114.721331
 20
323.371217
 11
102.217798
 21
323.37126
  0
LINE
  5
176
100
AcDbEntity
  8
M0
 62
     6
100
AcDbLine
 10
61.217939
 20
341.871648
 11
63.217902
 21
339.872129
  0
LINE
  5
177
100
AcDbEntity
  8
M0
 62
     6
100
AcDbLine
 10
63.217757
 20
311.371641
 11
63.217785
 21
319.371396
  0
ARC
  5
178
100
AcDbEntity
  8
M0
 62
     6
100
AcDbCircle
 10
82.217785
 20
319.37133
 40
1.0
100
AcDbArc
 50
89.998926
 51
179.9998
  0
ARC
  5
179
100
AcDbEntity
  8
M0
 62
     6
100
AcDbCircle
 10
64.217858
 20
327.371393
 40
1.0
100
AcDbArc
 50
179.9998
 51
270.0
  0
ARC
  5
17A
100
AcDbEntity
  8
M0
 62
     6
100
AcDbCircle
 10
75.217858
 20
327.371355
 40
1.0
100
AcDbArc
 50
270.0
 51
359.9998
  0
LINE
  5
17B
100
AcDbEntity
  8
M0
 62
     6
100
AcDbLine
 10
101.217939
 20
341.871264
 11
103.217856
 21
339.871745
  0
LINE
  5
17C
100
AcDbEntity
  8
M0
 62
     6
100
AcDbLine
 10
120.567732
 20
304.371196
 11
118.717726
 21
304.371203
  0
ARC
  5
17D
100
AcDbEntity
  8
M0
 62
     6
100
AcDbCircle
 10
95.217812
 20
327.371285
 40
1.0
100
AcDbArc
 50
270.0
 51
359.9998
  0
ARC
  5
17E
100
AcDbEntity
  8
M0
 62
     6
100
AcDbCircle
 10
84.217812
 20
327.371323
 40
1.0
100
AcDbArc
 50
179.9998
 51
270.0
  0
CIRCLE
  5
17F
100
AcDbEntity
  8
M0
 62
     6
100
AcDbCircle
 10
109.717728
 20
333.37095
 40
4.5
  0
LINE
  5
180
100
AcDbEntity
  8
M0
 62
     6
100
AcDbLine
 10
107.757721
 20
335.330911
 11
111.677719
 21
331.410745
  0
LINE
  5
181
100
AcDbEntity
  8
M0
 62
     6
100
AcDbLine
 10
110.585663
 20
335.652933
 11
107.435562
 21
332.502786
  0
LINE
  5
182
100
AcDbEntity
  8
M0
 62
     6
100
AcDbLine
 10
111.999863
 20
334.23887
 11
108.849762
 21
331.088724
  0
LINE
  5
183
100
AcDbEntity
  8
M0
  6
DASHDOT
 62
     6
100
AcDbLine
 10
109.217728
 20
333.37095
 11
110.217728
 21
333.37095
  0
LINE
  5
184
100
AcDbEntity
  8
M0
  6
DASHDOT
 62
     6
100
AcDbLine
 10
109.717728
 20
332.87095
 11
109.717728
 21
333.87095
  0
CIRCLE
  5
185
100
AcDbEntity
  8
M0
 62
     6
100
AcDbCircle
 10
69.717743
 20
313.370706
 40
4.5
  0
LINE
  5
186
100
AcDbEntity
  8
M0
 62
     6
100
AcDbLine
 10
67.757736
 20
315.330667
 11
71.677735
 21
311.410501
  0
LINE
  5
187
100
AcDbEntity
  8
M0
 62
     6
100
AcDbLine
 10
70.585678
 20
315.652689
 11
67.435578
 21
312.502542
  0
LINE
  5
188
100
AcDbEntity
  8
M0
 62
     6
100
AcDbLine
 10
71.999878
 20
314.238626
 11
68.849777
 21
311.08848
  0
LINE
  5
189
100
AcDbEntity
  8
M0
  6
DASHDOT
 62
     6
100
AcDbLine
 10
69.217743
 20
313.370706
 11
70.217743
 21
313.370706
  0
LINE
  5
18A
100
AcDbEntity
  8
M0
  6
DASHDOT
 62
     6
100
AcDbLine
 10
69.717743
 20
312.870706
 11
69.717743
 21
313.870706
  0
CIRCLE
  5
18B
100
AcDbEntity
  8
M0
 62
     6
100
AcDbCircle
 10
109.717728
 20
313.370706
 40
4.5
  0
LINE
  5
18C
100
AcDbEntity
  8
M0
 62
     6
100
AcDbLine
 10
107.757721
 20
315.330667
 11
111.677719
 21
311.410501
  0
LINE
  5
18D
100
AcDbEntity
  8
M0
 62
     6
100
AcDbLine
 10
110.585663
 20
315.652689
 11
107.435562
 21
312.502542
  0
LINE
  5
18E
100
AcDbEntity
  8
M0
 62
     6
100
AcDbLine
 10
111.999863
 20
314.238626
 11
108.849762
 21
311.08848
  0
LINE
  5
18F
100
AcDbEntity
  8
M0
  6
DASHDOT
 62
     6
100
AcDbLine
 10
109.217728
 20
313.370706
 11
110.217728
 21
313.370706
  0
LINE
  5
190
100
AcDbEntity
  8
M0
  6
DASHDOT
 62
     6
100
AcDbLine
 10
109.717728
 20
312.870706
 11
109.717728
 21
313.870706
  0
CIRCLE
  5
191
100
AcDbEntity
  8
M0
 62
     6
100
AcDbCircle
 10
89.717743
 20
313.370706
 40
4.5
  0
LINE
  5
192
100
AcDbEntity
  8
M0
 62
     6
100
AcDbLine
 10
87.757736
 20
315.330667
 11
91.677735
 21
311.410501
  0
LINE
  5
193
100
AcDbEntity
  8
M0
 62
     6
100
AcDbLine
 10
90.585678
 20
315.652689
 11
87.435578
 21
312.502542
  0
LINE
  5
194
100
AcDbEntity
  8
M0
 62
     6
100
AcDbLine
 10
91.999878
 20
314.238626
 11
88.849777
 21
311.08848
  0
LINE
  5
195
100
AcDbEntity
  8
M0
  6
DASHDOT
 62
     6
100
AcDbLine
 10
89.217743
 20
313.370706
 11
90.217743
 21
313.370706
  0
LINE
  5
196
100
AcDbEntity
  8
M0
  6
DASHDOT
 62
     6
100
AcDbLine
 10
89.717743
 20
312.870706
 11
89.717743
 21
313.870706
  0
CIRCLE
  5
197
100
AcDbEntity
  8
M0
 62
     6
100
AcDbCircle
 10
125.220124
 20
316.368753
 40
2.999997
  0
LINE
  5
198
100
AcDbEntity
  8
M0
 62
     6
100
AcDbLine
 10
122.431525
 20
320.868753
 11
121.444977
 21
317.668802
  0
LINE
  5
199
100
AcDbEntity
  8
M0
 62
     6
100
AcDbLine
 10
122.261139
 20
312.421503
 11
121.444977
 21
315.068826
  0
LINE
  5
19A
100
AcDbEntity
  8
M0
 62
     6
100
AcDbLine
 10
128.159974
 20
320.376566
 11
128.995026
 21
317.668802
  0
LINE
  5
19B
100
AcDbEntity
  8
M0
 62
     6
100
AcDbLine
 10
128.17862
 20
312.421488
 11
128.995026
 21
315.068826
  0
LINE
  5
19C
100
AcDbEntity
  8
M0
 62
     6
100
AcDbLine
 10
122.739166
 20
312.068826
 11
127.700836
 21
312.068826
  0
LINE
  5
19D
100
AcDbEntity
  8
M0
 62
     6
100
AcDbLine
 10
128.995026
 20
315.068826
 11
128.995026
 21
317.668802
  0
LINE
  5
19E
100
AcDbEntity
  8
M0
 62
     6
100
AcDbLine
 10
121.444977
 20
317.668802
 11
121.444977
 21
315.068826
  0
LINE
  5
19F
100
AcDbEntity
  8
M0
 62
     6
100
AcDbLine
 10
126.8107
 20
314.777933
 11
123.629059
 21
317.959696
  0
LINE
  5
1A0
100
AcDbEntity
  8
M0
 62
     6
100
AcDbLine
 10
125.573395
 20
317.782938
 11
123.805817
 21
316.015238
  0
LINE
  5
1A1
100
AcDbEntity
  8
M0
 62
     6
100
AcDbLine
 10
126.633942
 20
316.722269
 11
124.866364
 21
314.954691
  0
ARC
  5
1A2
100
AcDbEntity
  8
M0
 62
     6
100
AcDbCircle
 10
122.739166
 20
312.568826
 40
0.5
100
AcDbArc
 50
197.128737
 51
270.0
  0
ARC
  5
1A3
100
AcDbEntity
  8
M0
 62
     6
100
AcDbCircle
 10
127.700836
 20
312.568826
 40
0.5
100
AcDbArc
 50
270.0
 51
342.861308
  0
ARC
  5
1A4
100
AcDbEntity
  8
M0
 62
     6
100
AcDbCircle
 10
127.700836
 20
320.16868
 40
0.5
100
AcDbArc
 50
17.138692
 51
90.0
  0
LINE
  5
1A5
100
AcDbEntity
  8
M0
 62
     6
100
AcDbLine
 10
122.739166
 20
320.66868
 11
127.700836
 21
320.66868
  0
ARC
  5
1A6
100
AcDbEntity
  8
M0
 62
     6
100
AcDbCircle
 10
122.739166
 20
320.16868
 40
0.5
100
AcDbArc
 50
90.0
 51
162.871263
  0
LINE
  5
1A7
100
AcDbEntity
  8
M0
  6
DASHDOT
 62
     6
100
AcDbLine
 10
124.720124
 20
316.368753
 11
125.720124
 21
316.368753
  0
LINE
  5
1A8
100
AcDbEntity
  8
M0
  6
DASHDOT
 62
     6
100
AcDbLine
 10
125.220124
 20
315.868753
 11
125.220124
 21
316.868753
  0
CIRCLE
  5
1A9
100
AcDbEntity
  8
M0
 62
     6
100
AcDbCircle
 10
136.220124
 20
316.368753
 40
2.999997
  0
LINE
  5
1AA
100
AcDbEntity
  8
M0
 62
     6
100
AcDbLine
 10
133.276882
 20
320.367153
 11
132.444977
 21
317.668802
  0
LINE
  5
1AB
100
AcDbEntity
  8
M0
 62
     6
100
AcDbLine
 10
133.261139
 20
312.421503
 11
132.444977
 21
315.068826
  0
LINE
  5
1AC
100
AcDbEntity
  8
M0
 62
     6
100
AcDbLine
 10
139.198036
 20
320.253145
 11
139.995026
 21
317.668802
  0
LINE
  5
1AD
100
AcDbEntity
  8
M0
 62
     6
100
AcDbLine
 10
139.17862
 20
312.421488
 11
139.995026
 21
315.068826
  0
LINE
  5
1AE
100
AcDbEntity
  8
M0
 62
     6
100
AcDbLine
 10
133.739166
 20
312.068826
 11
138.700836
 21
312.068826
  0
LINE
  5
1AF
100
AcDbEntity
  8
M0
 62
     6
100
AcDbLine
 10
139.995026
 20
315.068826
 11
139.995026
 21
317.668802
  0
LINE
  5
1B0
100
AcDbEntity
  8
M0
 62
     6
100
AcDbLine
 10
132.444977
 20
317.668802
 11
132.444977
 21
315.068826
  0
LINE
  5
1B1
100
AcDbEntity
  8
M0
 62
     6
100
AcDbLine
 10
137.8107
 20
314.777933
 11
134.629059
 21
317.959696
  0
LINE
  5
1B2
100
AcDbEntity
  8
M0
 62
     6
100
AcDbLine
 10
136.573395
 20
317.782938
 11
134.805817
 21
316.015238
  0
LINE
  5
1B3
100
AcDbEntity
  8
M0
 62
     6
100
AcDbLine
 10
137.633942
 20
316.722269
 11
135.866364
 21
314.954691
  0
ARC
  5
1B4
100
AcDbEntity
  8
M0
 62
     6
100
AcDbCircle
 10
133.739166
 20
312.568826
 40
0.5
100
AcDbArc
 50
197.128737
 51
270.0
  0
ARC
  5
1B5
100
AcDbEntity
  8
M0
 62
     6
100
AcDbCircle
 10
138.700836
 20
312.568826
 40
0.5
100
AcDbArc
 50
270.0
 51
342.861308
  0
ARC
  5
1B6
100
AcDbEntity
  8
M0
 62
     6
100
AcDbCircle
 10
138.700836
 20
320.16868
 40
0.5
100
AcDbArc
 50
17.138692
 51
90.0
  0
LINE
  5
1B7
100
AcDbEntity
  8
M0
 62
     6
100
AcDbLine
 10
134.169549
 20
320.66868
 11
138.700836
 21
320.66868
  0
ARC
  5
1B8
100
AcDbEntity
  8
M0
 62
     6
100
AcDbCircle
 10
133.739166
 20
320.16868
 40
0.5
100
AcDbArc
 50
156.480883
 51
162.871263
  0
LINE
  5
1B9
100
AcDbEntity
  8
M0
  6
DASHDOT
 62
     6
100
AcDbLine
 10
135.720124
 20
316.368753
 11
136.720124
 21
316.368753
  0
LINE
  5
1BA
100
AcDbEntity
  8
M0
  6
DASHDOT
 62
     6
100
AcDbLine
 10
136.220124
 20
315.868753
 11
136.220124
 21
316.868753
  0
CIRCLE
  5
1BB
100
AcDbEntity
  8
M0
 62
     6
100
AcDbCircle
 10
69.717758
 20
333.371195
 40
4.5
  0
LINE
  5
1BC
100
AcDbEntity
  8
M0
 62
     6
100
AcDbLine
 10
67.757752
 20
335.331156
 11
71.67775
 21
331.41099
  0
LINE
  5
1BD
100
AcDbEntity
  8
M0
 62
     6
100
AcDbLine
 10
70.585694
 20
335.653177
 11
67.435593
 21
332.503031
  0
LINE
  5
1BE
100
AcDbEntity
  8
M0
 62
     6
100
AcDbLine
 10
71.999893
 20
334.239115
 11
68.849793
 21
331.088968
  0
LINE
  5
1BF
100
AcDbEntity
  8
M0
  6
DASHDOT
 62
     6
100
AcDbLine
 10
69.217758
 20
333.371195
 11
70.217758
 21
333.371195
  0
LINE
  5
1C0
100
AcDbEntity
  8
M0
  6
DASHDOT
 62
     6
100
AcDbLine
 10
69.717758
 20
332.871195
 11
69.717758
 21
333.871195
  0
CIRCLE
  5
1C1
100
AcDbEntity
  8
M0
 62
     6
100
AcDbCircle
 10
89.717865
 20
333.371439
 40
4.5
  0
LINE
  5
1C2
100
AcDbEntity
  8
M0
 62
     6
100
AcDbLine
 10
87.757859
 20
335.3314
 11
91.677857
 21
331.411234
  0
LINE
  5
1C3
100
AcDbEntity
  8
M0
 62
     6
100
AcDbLine
 10
90.5858
 20
335.653421
 11
87.4357
 21
332.503275
  0
LINE
  5
1C4
100
AcDbEntity
  8
M0
 62
     6
100
AcDbLine
 10
92.0
 20
334.239359
 11
88.8499
 21
331.089212
  0
LINE
  5
1C5
100
AcDbEntity
  8
M0
  6
DASHDOT
 62
     6
100
AcDbLine
 10
89.217865
 20
333.371439
 11
90.217865
 21
333.371439
  0
LINE
  5
1C6
100
AcDbEntity
  8
M0
  6
DASHDOT
 62
     6
100
AcDbLine
 10
89.717865
 20
332.871439
 11
89.717865
 21
333.871439
  0
ARC
  5
1C7
100
AcDbEntity
  8
M0
 62
     6
100
AcDbCircle
 10
136.221344
 20
309.368753
 40
2.999997
100
AcDbArc
 50
115.844051
 51
424.156194
  0
LINE
  5
1C8
100
AcDbEntity
  8
M0
 62
     6
100
AcDbLine
 10
133.123856
 20
312.866556
 11
132.446198
 21
310.668802
  0
LINE
  5
1C9
100
AcDbEntity
  8
M0
 62
     6
100
AcDbLine
 10
133.26236
 20
305.421503
 11
132.446198
 21
308.068826
  0
LINE
  5
1CA
100
AcDbEntity
  8
M0
 62
     6
100
AcDbLine
 10
139.317169
 20
312.870706
 11
139.996247
 21
310.668802
  0
LINE
  5
1CB
100
AcDbEntity
  8
M0
 62
     6
100
AcDbLine
 10
139.17984
 20
305.421488
 11
139.996247
 21
308.068826
  0
LINE
  5
1CC
100
AcDbEntity
  8
M0
 62
     6
100
AcDbLine
 10
133.740387
 20
305.068826
 11
138.702057
 21
305.068826
  0
LINE
  5
1CD
100
AcDbEntity
  8
M0
 62
     6
100
AcDbLine
 10
139.996247
 20
308.068826
 11
139.996247
 21
310.668802
  0
LINE
  5
1CE
100
AcDbEntity
  8
M0
 62
     6
100
AcDbLine
 10
132.446198
 20
310.668802
 11
132.446198
 21
308.068826
  0
LINE
  5
1CF
100
AcDbEntity
  8
M0
 62
     6
100
AcDbLine
 10
137.81192
 20
307.777933
 11
134.63028
 21
310.959696
  0
LINE
  5
1D0
100
AcDbEntity
  8
M0
 62
     6
100
AcDbLine
 10
136.574616
 20
310.782938
 11
134.807038
 21
309.015238
  0
LINE
  5
1D1
100
AcDbEntity
  8
M0
 62
     6
100
AcDbLine
 10
137.635163
 20
309.722269
 11
135.867584
 21
307.954691
  0
ARC
  5
1D2
100
AcDbEntity
  8
M0
 62
     6
100
AcDbCircle
 10
133.740387
 20
305.568826
 40
0.5
100
AcDbArc
 50
197.128737
 51
270.0
  0
ARC
  5
1D3
100
AcDbEntity
  8
M0
 62
     6
100
AcDbCircle
 10
138.702057
 20
305.568826
 40
0.5
100
AcDbArc
 50
270.0
 51
342.861308
  0
LINE
  5
1D4
100
AcDbEntity
  8
M0
  6
DASHDOT
 62
     6
100
AcDbLine
 10
135.721344
 20
309.368753
 11
136.721344
 21
309.368753
  0
LINE
  5
1D5
100
AcDbEntity
  8
M0
  6
DASHDOT
 62
     6
100
AcDbLine
 10
136.221344
 20
308.868753
 11
136.221344
 21
309.868753
  0
LINE
  5
1D6
100
AcDbEntity
  8
M0
 62
     6
100
AcDbLine
 10
120.217468
 20
344.86854
 11
116.217468
 21
344.868525
  0
LINE
  5
1D7
100
AcDbEntity
  8
M0
 62
     6
100
AcDbLine
 10
115.217468
 20
343.868525
 11
115.217468
 21
342.86854
  0
LINE
  5
1D8
100
AcDbEntity
  8
M0
 62
     6
100
AcDbLine
 10
121.217468
 20
343.86854
 11
121.217468
 21
342.86854
  0
ARC
  5
1D9
100
AcDbEntity
  8
M0
 62
     6
100
AcDbCircle
 10
120.217468
 20
343.86854
 40
1.0
100
AcDbArc
 50
0.0
 51
89.999126
  0
ARC
  5
1DA
100
AcDbEntity
  8
M0
 62
     6
100
AcDbCircle
 10
116.217468
 20
343.868525
 40
1.0
100
AcDbArc
 50
89.999126
 51
179.999966
  0
ARC
  5
1DB
100
AcDbEntity
  8
M0
 62
     6
100
AcDbCircle
 10
131.221317
 20
301.368761
 40
1.0
100
AcDbArc
 50
179.999964
 51
270.0
  0
ARC
  5
1DC
100
AcDbEntity
  8
M0
 62
     6
100
AcDbCircle
 10
131.221317
 20
301.368761
 40
1.0
100
AcDbArc
 50
270.0
 51
359.999964
  0
LINE
  5
1DD
100
AcDbEntity
  8
M0
 62
     6
100
AcDbLine
 10
122.221347
 20
301.368766
 11
119.221347
 21
301.368768
  0
LINE
  5
1DE
100
AcDbEntity
  8
M0
 62
     6
100
AcDbLine
 10
143.221342
 20
341.868753
 11
118.055342
 21
341.86851
  0
LINE
  5
1DF
100
AcDbEntity
  8
M0
 62
     6
100
AcDbLine
 10
122.221335
 20
305.368766
 11
123.278631
 21
305.368766
  0
LINE
  5
1E0
100
AcDbEntity
  8
M0
 62
     6
100
AcDbLine
 10
143.221318
 20
302.868753
 11
143.221344
 21
344.868753
  0
LINE
  5
1E1
100
AcDbEntity
  8
M0
 62
     6
100
AcDbLine
 10
140.221318
 20
303.368755
 11
140.221329
 21
320.868753
  0
LINE
  5
1E2
100
AcDbEntity
  8
M0
 62
     6
100
AcDbLine
 10
142.721308
 20
311.368754
 11
141.221308
 21
311.368754
  0
ARC
  5
1E3
100
AcDbEntity
  8
M0
 62
     6
100
AcDbCircle
 10
142.721308
 20
311.868754
 40
0.5
100
AcDbArc
 50
270.0
 51
359.999964
  0
ARC
  5
1E4
100
AcDbEntity
  8
M0
 62
     6
100
AcDbCircle
 10
141.221309
 20
312.368754
 40
1.0
100
AcDbArc
 50
179.999964
 51
270.0
  0
LINE
  5
1E5
100
AcDbEntity
  8
M0
 62
     6
100
AcDbLine
 10
142.721319
 20
304.368754
 11
141.221319
 21
304.368754
  0
LINE
  5
1E6
100
AcDbEntity
  8
M0
 62
     6
100
AcDbLine
 10
142.721318
 20
302.368754
 11
141.221318
 21
302.368754
  0
ARC
  5
1E7
100
AcDbEntity
  8
M0
 62
     6
100
AcDbCircle
 10
142.721318
 20
302.868754
 40
0.5
100
AcDbArc
 50
270.0
 51
359.999964
  0
ARC
  5
1E8
100
AcDbEntity
  8
M0
 62
     6
100
AcDbCircle
 10
141.221318
 20
303.368754
 40
1.0
100
AcDbArc
 50
179.999964
 51
270.0
  0
ARC
  5
1E9
100
AcDbEntity
  8
M0
 62
     6
100
AcDbCircle
 10
142.721319
 20
304.868754
 40
0.5
100
AcDbArc
 50
270.0
 51
359.999964
  0
ARC
  5
1EA
100
AcDbEntity
  8
M0
 62
     6
100
AcDbCircle
 10
141.221319
 20
305.368754
 40
1.0
100
AcDbArc
 50
179.999964
 51
270.0
  0
LINE
  5
1EB
100
AcDbEntity
  8
M0
 62
     6
100
AcDbLine
 10
142.721322
 20
309.368754
 11
141.221322
 21
309.368754
  0
ARC
  5
1EC
100
AcDbEntity
  8
M0
 62
     6
100
AcDbCircle
 10
141.221323
 20
310.368754
 40
1.0
100
AcDbArc
 50
179.999964
 51
270.0
  0
ARC
  5
1ED
100
AcDbEntity
  8
M0
 62
     6
100
AcDbCircle
 10
142.721322
 20
309.868754
 40
0.5
100
AcDbArc
 50
270.0
 51
359.999964
  0
LINE
  5
1EE
100
AcDbEntity
  8
M0
 62
     6
100
AcDbLine
 10
132.221317
 20
301.36876
 11
132.221329
 21
320.148806
  0
LINE
  5
1EF
100
AcDbEntity
  8
M0
 62
     6
100
AcDbLine
 10
139.16358
 20
305.368756
 11
140.221289
 21
305.368755
  0
LINE
  5
1F0
100
AcDbEntity
  8
M0
 62
     6
100
AcDbLine
 10
140.221293
 20
312.368755
 11
139.47198
 21
312.368511
  0
LINE
  5
1F1
100
AcDbEntity
  8
M0
 62
     6
100
AcDbLine
 10
132.970363
 20
312.368515
 11
132.221293
 21
312.36876
  0
LINE
  5
1F2
100
AcDbEntity
  8
M0
 62
     6
100
AcDbLine
 10
129.221291
 20
308.368762
 11
129.221315
 21
320.277561
  0
LINE
  5
1F3
100
AcDbEntity
  8
M0
 62
     6
100
AcDbLine
 10
131.221321
 20
307.368761
 11
130.221321
 21
307.368761
  0
ARC
  5
1F4
100
AcDbEntity
  8
M0
 62
     6
100
AcDbCircle
 10
131.221321
 20
308.368761
 40
1.0
100
AcDbArc
 50
270.0
 51
359.999964
  0
ARC
  5
1F5
100
AcDbEntity
  8
M0
 62
     6
100
AcDbCircle
 10
130.221321
 20
308.368761
 40
1.0
100
AcDbArc
 50
179.999964
 51
270.0
  0
LINE
  5
1F6
100
AcDbEntity
  8
M0
 62
     6
100
AcDbLine
 10
128.162379
 20
312.368763
 11
129.221324
 21
312.368762
  0
LINE
  5
1F7
100
AcDbEntity
  8
M0
 62
     6
100
AcDbLine
 10
123.221335
 20
305.368766
 11
123.221335
 21
305.554557
  0
LINE
  5
1F8
100
AcDbEntity
  8
M0
 62
     6
100
AcDbLine
 10
122.221347
 20
301.368766
 11
122.221339
 21
312.550651
  0
LINE
  5
1F9
100
AcDbEntity
  8
M0
 62
     6
100
AcDbLine
 10
130.221317
 20
301.368761
 11
130.221321
 21
307.368761
  0
LINE
  5
1FA
100
AcDbEntity
  8
M0
 62
     6
100
AcDbLine
 10
132.221289
 20
305.36876
 11
133.278616
 21
305.368759
  0
LINE
  5
1FB
100
AcDbEntity
  8
M0
 62
     6
100
AcDbLine
 10
122.221336
 20
306.868766
 11
121.067695
 21
306.868523
  0
LINE
  5
1FC
100
AcDbEntity
  8
M0
 62
     6
100
AcDbLine
 10
122.221337
 20
308.868766
 11
121.067696
 21
308.868523
  0
LINE
  5
1FD
100
AcDbEntity
  8
M0
 62
     6
100
AcDbLine
 10
119.221332
 20
301.368768
 11
119.221334
 21
304.370966
  0
ARC
  5
1FE
100
AcDbEntity
  8
M0
 62
     6
100
AcDbCircle
 10
138.721328
 20
319.368756
 40
1.499996
100
AcDbArc
 50
359.999964
 51
371.546587
  0
LINE
  5
1FF
100
AcDbEntity
  8
M0
 62
     6
100
AcDbLine
 10
121.07134
 20
328.368767
 11
119.571339
 21
326.868783
  0
LINE
  5
200
100
AcDbEntity
  8
M0
 62
     6
100
AcDbLine
 10
121.07134
 20
328.368767
 11
119.571341
 21
329.868768
  0
LINE
  5
201
100
AcDbEntity
  8
M0
 62
     6
100
AcDbLine
 10
118.721379
 20
326.868753
 11
118.721381
 21
329.868753
  0
LINE
  5
202
100
AcDbEntity
  8
M0
 62
     6
100
AcDbLine
 10
121.071347
 20
339.368753
 11
121.071337
 21
323.368753
  0
LINE
  5
203
100
AcDbEntity
  8
M0
 62
     6
100
AcDbLine
 10
119.571324
 20
326.868524
 11
118.721363
 21
326.868769
  0
LINE
  5
204
100
AcDbEntity
  8
M0
 62
     6
100
AcDbLine
 10
119.571341
 20
329.868524
 11
118.721381
 21
329.868769
  0
LINE
  5
205
100
AcDbEntity
  8
M0
 62
     6
100
AcDbLine
 10
129.163595
 20
305.368762
 11
130.221289
 21
305.368761
  0
LINE
  5
206
100
AcDbEntity
  8
M0
 62
     6
100
AcDbLine
 10
143.221344
 20
344.868753
 11
134.721344
 21
344.868759
  0
LINE
  5
207
100
AcDbEntity
  8
M0
 62
     6
100
AcDbLine
 10
133.721343
 20
342.868661
 11
133.721344
 21
343.868759
  0
ARC
  5
208
100
AcDbEntity
  8
M0
 62
     6
100
AcDbCircle
 10
134.721344
 20
343.868759
 40
1.0
100
AcDbArc
 50
90.0
 51
179.999964
  0
LINE
  5
209
100
AcDbEntity
  8
M0
 62
     6
100
AcDbLine
 10
121.521325
 20
333.882505
 11
121.071344
 21
334.142296
  0
LINE
  5
20A
100
AcDbEntity
  8
M0
 62
     6
100
AcDbLine
 10
122.221364
 20
303.368766
 11
119.221349
 21
303.368768
  0
ARC
  5
20B
100
AcDbEntity
  8
M0
 62
     6
100
AcDbCircle
 10
121.221349
 20
304.368767
 40
1.0
100
AcDbArc
 50
179.999964
 51
270.0
  0
ARC
  5
20C
100
AcDbEntity
  8
M0
 62
     6
100
AcDbCircle
 10
121.221349
 20
304.368767
 40
1.0
100
AcDbArc
 50
270.0
 51
359.999964
  0
LINE
  5
20D
100
AcDbEntity
  8
M0
 62
     6
100
AcDbLine
 10
134.84915
 20
333.823172
 11
137.098907
 21
331.142016
  0
LINE
  5
20E
100
AcDbEntity
  8
M0
 62
     6
100
AcDbLine
 10
137.098907
 20
331.142016
 11
137.711743
 21
331.656246
  0
LINE
  5
20F
100
AcDbEntity
  8
M0
 62
     6
100
AcDbLine
 10
137.711743
 20
331.656246
 11
135.461986
 21
334.337402
  0
LINE
  5
210
100
AcDbEntity
  8
M0
 62
     6
100
AcDbLine
 10
135.461986
 20
334.337402
 11
134.84915
 21
333.823172
  0
CIRCLE
  5
211
100
AcDbEntity
  8
M0
 62
     6
100
AcDbCircle
 10
131.071344
 20
328.368753
 40
3.75
  0
LINE
  5
212
100
AcDbEntity
  8
M0
 62
     6
100
AcDbLine
 10
131.671345
 20
330.868753
 11
131.671345
 21
325.868753
  0
LINE
  5
213
100
AcDbEntity
  8
M0
 62
     6
100
AcDbLine
 10
130.471345
 20
330.868753
 11
130.471345
 21
325.868753
  0
LINE
  5
214
100
AcDbEntity
  8
M0
 62
     6
100
AcDbLine
 10
131.671345
 20
325.868753
 11
130.471345
 21
325.868753
  0
LINE
  5
215
100
AcDbEntity
  8
M0
 62
     6
100
AcDbLine
 10
131.671345
 20
330.868753
 11
130.471345
 21
330.868753
  0
TEXT
  5
216
100
AcDbEntity
  8
M0
 62
     6
100
AcDbText
 10
142.571349
 20
321.685575
 40
2.0
  1
ＡＵＴＯ
 50
90.000556
 41
0.583333
  7
STANDARD
100
AcDbText
  0
CIRCLE
  5
217
100
AcDbEntity
  8
M0
 62
     6
100
AcDbCircle
 10
141.521344
 20
328.368753
 40
0.75
  0
CIRCLE
  5
218
100
AcDbEntity
  8
M0
 62
     6
100
AcDbCircle
 10
131.071344
 20
328.368753
 40
8.3
  0
TEXT
  5
219
100
AcDbEntity
  8
M0
 62
     6
100
AcDbText
 10
142.570303
 20
335.694105
 40
2.0
  1
ＴＲＩＰ
 50
90.000563
 41
0.625
  7
STANDARD
100
AcDbText
  0
LINE
  5
21A
100
AcDbEntity
  8
M0
 62
     6
100
AcDbLine
 10
137.872432
 20
336.068591
 11
136.044989
 21
335.013515
  0
LINE
  5
21B
100
AcDbEntity
  8
M0
 62
     6
100
AcDbLine
 10
137.872432
 20
336.068591
 11
135.872403
 21
337.223303
  0
LINE
  5
21C
100
AcDbEntity
  8
M0
 62
     6
100
AcDbLine
 10
135.872402
 20
336.318579
 11
135.872403
 21
337.223303
  0
LINE
  5
21D
100
AcDbEntity
  8
M0
 62
     6
100
AcDbLine
 10
135.8724
 20
335.139267
 11
135.872401
 21
335.818579
  0
LINE
  5
21E
100
AcDbEntity
  8
M0
 62
     6
100
AcDbLine
 10
135.872401
 20
335.818579
 11
134.730589
 21
335.81858
  0
LINE
  5
21F
100
AcDbEntity
  8
M0
 62
     6
100
AcDbLine
 10
135.872402
 20
336.318579
 11
134.372402
 21
336.318581
  0
LINE
  5
220
100
AcDbEntity
  8
M0
 62
     6
100
AcDbLine
 10
139.371344
 20
341.868753
 11
139.371344
 21
337.368753
  0
LINE
  5
221
100
AcDbEntity
  8
M0
 62
     6
100
AcDbLine
 10
128.071344
 20
337.368753
 11
139.371344
 21
337.368753
  0
LINE
  5
222
100
AcDbEntity
  8
M0
 62
     6
100
AcDbLine
 10
132.121359
 20
338.418753
 11
135.521358
 21
338.418753
  0
LINE
  5
223
100
AcDbEntity
  8
M0
 62
     6
100
AcDbLine
 10
132.121359
 20
340.718753
 11
135.521358
 21
340.718753
  0
LINE
  5
224
100
AcDbEntity
  8
M0
 62
     6
100
AcDbLine
 10
135.521358
 20
340.718753
 11
135.521358
 21
338.418753
  0
LINE
  5
225
100
AcDbEntity
  8
M0
 62
     6
100
AcDbLine
 10
132.121359
 20
340.718753
 11
132.121359
 21
338.418753
  0
LINE
  5
226
100
AcDbEntity
  8
M0
  6
DOT
 62
     6
100
AcDbLine
 10
130.512966
 20
339.568753
 11
130.512966
 21
337.368753
  0
LINE
  5
227
100
AcDbEntity
  8
M0
  6
DOT
 62
     6
100
AcDbLine
 10
128.071344
 20
339.568753
 11
130.512966
 21
339.568753
  0
LINE
  5
228
100
AcDbEntity
  8
M0
 62
     6
100
AcDbLine
 10
128.071344
 20
339.568753
 11
128.071344
 21
337.368753
  0
LINE
  5
229
100
AcDbEntity
  8
M0
 62
     6
100
AcDbLine
 10
128.071344
 20
339.568753
 11
124.871344
 21
339.568753
  0
LINE
  5
22A
100
AcDbEntity
  8
M0
 62
     6
100
AcDbLine
 10
124.871344
 20
341.868753
 11
124.871344
 21
339.568753
  0
LINE
  5
22B
100
AcDbEntity
  8
M0
 62
     6
100
AcDbLine
 10
123.761248
 20
332.589239
 11
121.071344
 21
334.142256
  0
LINE
  5
22C
100
AcDbEntity
  8
M0
 62
     6
100
AcDbLine
 10
122.371344
 20
339.368753
 11
117.217849
 21
339.368753
  0
ARC
  5
22D
100
AcDbEntity
  8
M0
 62
     6
100
AcDbCircle
 10
122.371344
 20
339.868753
 40
0.5
100
AcDbArc
 50
270.0
 51
360.0
  0
LINE
  5
22E
100
AcDbEntity
  8
M0
 62
     6
100
AcDbLine
 10
122.871344
 20
341.868753
 11
122.871344
 21
339.868753
  0
LINE
  5
22F
100
AcDbEntity
  8
M0
 62
     6
100
AcDbLine
 10
143.221344
 20
320.868753
 11
134.626622
 21
320.868753
  0
LINE
  5
230
100
AcDbEntity
  8
M0
 62
     6
100
AcDbLine
 10
135.401471
 20
320.868753
 11
135.401471
 21
321.287793
  0
LINE
  5
231
100
AcDbEntity
  8
M0
 62
     6
100
AcDbLine
 10
126.741217
 20
320.868753
 11
126.741217
 21
321.287793
  0
LINE
  5
232
100
AcDbEntity
  8
M0
 62
     6
100
AcDbLine
 10
127.516066
 20
320.868753
 11
118.221344
 21
320.868753
  0
LINE
  5
233
100
AcDbEntity
  8
M0
 62
     6
100
AcDbLine
 10
122.871344
 20
320.868753
 11
122.871344
 21
322.868753
  0
ARC
  5
234
100
AcDbEntity
  8
M0
 62
     6
100
AcDbCircle
 10
122.371344
 20
322.868753
 40
0.5
100
AcDbArc
 50
0.0
 51
90.0
  0
LINE
  5
235
100
AcDbEntity
  8
M0
 62
     6
100
AcDbLine
 10
118.221344
 20
323.368753
 11
122.371344
 21
323.368753
  0
LINE
  5
236
100
AcDbEntity
  8
M0
  6
DASHDOT
 62
     6
100
AcDbLine
 10
119.768341
 20
328.368753
 11
142.374347
 21
328.368753
  0
LINE
  5
237
100
AcDbEntity
  8
M0
  6
DASHDOT
 62
     6
100
AcDbLine
 10
131.071344
 20
317.06575
 11
131.071344
 21
339.671756
  0
ARC
  5
238
100
AcDbEntity
  8
M0
 62
     6
100
AcDbCircle
 10
126.221344
 20
309.368753
 40
2.999997
100
AcDbArc
 50
115.844051
 51
424.156194
  0
LINE
  5
239
100
AcDbEntity
  8
M0
 62
     6
100
AcDbLine
 10
122.877823
 20
312.068704
 11
122.446198
 21
310.668802
  0
LINE
  5
23A
100
AcDbEntity
  8
M0
 62
     6
100
AcDbLine
 10
123.26236
 20
305.421503
 11
122.446198
 21
308.068826
  0
LINE
  5
23B
100
AcDbEntity
  8
M0
 62
     6
100
AcDbLine
 10
129.17984
 20
305.421488
 11
129.808014
 21
307.458353
  0
LINE
  5
23C
100
AcDbEntity
  8
M0
 62
     6
100
AcDbLine
 10
123.740387
 20
305.068826
 11
128.702057
 21
305.068826
  0
LINE
  5
23D
100
AcDbEntity
  8
M0
 62
     6
100
AcDbLine
 10
122.446198
 20
310.668802
 11
122.446198
 21
308.068826
  0
LINE
  5
23E
100
AcDbEntity
  8
M0
 62
     6
100
AcDbLine
 10
127.81192
 20
307.777933
 11
124.63028
 21
310.959696
  0
LINE
  5
23F
100
AcDbEntity
  8
M0
 62
     6
100
AcDbLine
 10
126.574616
 20
310.782938
 11
124.807038
 21
309.015238
  0
LINE
  5
240
100
AcDbEntity
  8
M0
 62
     6
100
AcDbLine
 10
127.635163
 20
309.722269
 11
125.867584
 21
307.954691
  0
ARC
  5
241
100
AcDbEntity
  8
M0
 62
     6
100
AcDbCircle
 10
123.740387
 20
305.568826
 40
0.5
100
AcDbArc
 50
197.128737
 51
270.0
  0
ARC
  5
242
100
AcDbEntity
  8
M0
 62
     6
100
AcDbCircle
 10
128.702057
 20
305.568826
 40
0.5
100
AcDbArc
 50
270.0
 51
342.861308
  0
LINE
  5
243
100
AcDbEntity
  8
M0
  6
DASHDOT
 62
     6
100
AcDbLine
 10
125.721344
 20
309.368753
 11
126.721344
 21
309.368753
  0
LINE
  5
244
100
AcDbEntity
  8
M0
  6
DASHDOT
 62
     6
100
AcDbLine
 10
126.221344
 20
308.868753
 11
126.221344
 21
309.868753
  0
LINE
  5
245
100
AcDbEntity
  8
M0
 62
     6
100
AcDbLine
 10
105.983946
 20
342.868393
 11
101.217866
 21
342.868347
  0
LINE
  5
246
100
AcDbEntity
  8
M0
 62
     6
100
AcDbLine
 10
106.619119
 20
344.371245
 11
94.600748
 21
344.371287
  0
LINE
  5
247
100
AcDbEntity
  8
M0
 62
     6
100
AcDbLine
 10
105.972733
 20
341.871247
 11
101.217863
 21
341.871264
  0
LINE
  5
248
100
AcDbEntity
  8
M0
 62
     6
100
AcDbLine
 10
86.567874
 20
341.871315
 11
81.217863
 21
341.871334
  0
LINE
  5
249
100
AcDbEntity
  8
M0
 62
     6
100
AcDbLine
 10
86.567929
 20
342.871315
 11
81.217867
 21
342.871334
  0
LINE
  5
24A
100
AcDbEntity
  8
M0
 62
     6
100
AcDbLine
 10
86.952269
 20
344.371314
 11
75.146297
 21
344.371355
  0
LINE
  5
24B
100
AcDbEntity
  8
M0
 62
     6
100
AcDbLine
 10
67.178496
 20
342.871383
 11
61.083892
 21
342.871404
  0
LINE
  5
24C
100
AcDbEntity
  8
M0
 62
     6
100
AcDbLine
 10
67.108569
 20
341.871383
 11
61.217863
 21
341.871403
  0
ARC
  5
24D
100
AcDbEntity
  8
M0
 62
   154
100
AcDbCircle
 10
295.746009
 20
364.371308
 40
1.5
100
AcDbArc
 50
90.0
 51
180.0
  0
LINE
  5
24E
100
AcDbEntity
  8
M0
 62
   154
100
AcDbLine
 10
312.446009
 20
355.071308
 11
312.446009
 21
311.671308
  0
LINE
  5
24F
100
AcDbEntity
  8
M0
 62
   154
100
AcDbLine
 10
312.446009
 20
344.571308
 11
295.746009
 21
344.571308
  0
ARC
  5
250
100
AcDbEntity
  8
M0
 62
   154
100
AcDbCircle
 10
295.746009
 20
346.071308
 40
1.5
100
AcDbArc
 50
180.0
 51
270.0
  0
ARC
  5
251
100
AcDbEntity
  8
M0
 62
   154
100
AcDbCircle
 10
310.746009
 20
311.671308
 40
1.7
100
AcDbArc
 50
287.104635
 51
360.0
  0
LINE
  5
252
100
AcDbEntity
  8
M0
 62
   154
100
AcDbLine
 10
312.446009
 20
313.371308
 11
311.246009
 21
313.371308
  0
LINE
  5
253
100
AcDbEntity
  8
M0
 62
   154
100
AcDbLine
 10
301.550225
 20
360.271308
 11
301.346009
 21
360.271308
  0
LINE
  5
254
100
AcDbEntity
  8
M0
 62
   154
100
AcDbLine
 10
300.846009
 20
359.771308
 11
300.846009
 21
355.571308
  0
LINE
  5
255
100
AcDbEntity
  8
M0
 62
   154
100
AcDbLine
 10
301.346009
 20
355.071308
 11
312.446009
 21
355.071308
  0
LINE
  5
256
100
AcDbEntity
  8
M0
 62
   154
100
AcDbLine
 10
311.246009
 20
344.571308
 11
311.246009
 21
311.671308
  0
LINE
  5
257
100
AcDbEntity
  8
M0
 62
   154
100
AcDbLine
 10
294.246009
 20
346.071308
 11
294.246009
 21
364.371308
  0
LINE
  5
258
100
AcDbEntity
  8
M0
 62
   154
100
AcDbLine
 10
295.746009
 20
365.871308
 11
301.550225
 21
365.871308
  0
ARC
  5
259
100
AcDbEntity
  8
M0
 62
   154
100
AcDbCircle
 10
301.346009
 20
359.771308
 40
0.5
100
AcDbArc
 50
90.0
 51
180.0
  0
ARC
  5
25A
100
AcDbEntity
  8
M0
 62
   154
100
AcDbCircle
 10
301.346009
 20
355.571308
 40
0.5
100
AcDbArc
 50
180.0
 51
270.0
  0
LINE
  5
25B
100
AcDbEntity
  8
M0
  6
DASHED
 62
     6
100
AcDbLine
 10
241.746009
 20
320.571308
 11
241.746009
 21
321.771308
  0
LINE
  5
25C
100
AcDbEntity
  8
M0
  6
DASHED
 62
     6
100
AcDbLine
 10
235.246009
 20
321.771308
 11
241.746009
 21
321.771308
  0
LINE
  5
25D
100
AcDbEntity
  8
M0
 62
     6
100
AcDbLine
 10
241.746011
 20
320.571303
 11
245.571374
 21
306.294851
  0
LINE
  5
25E
100
AcDbEntity
  8
M0
 62
     6
100
AcDbLine
 10
248.746009
 20
320.571308
 11
251.767526
 21
309.294851
  0
LINE
  5
25F
100
AcDbEntity
  8
M0
 62
     6
100
AcDbLine
 10
247.746009
 20
320.571308
 11
247.746009
 21
341.571308
  0
LINE
  5
260
100
AcDbEntity
  8
M0
 62
     6
100
AcDbLine
 10
236.246009
 20
323.071308
 11
236.246009
 21
339.071308
  0
LINE
  5
261
100
AcDbEntity
  8
M0
 62
     6
100
AcDbLine
 10
235.246009
 20
341.571308
 11
235.246009
 21
340.071308
  0
LINE
  5
262
100
AcDbEntity
  8
M0
 62
     6
100
AcDbLine
 10
235.246009
 20
322.071308
 11
235.246009
 21
320.571308
  0
LINE
  5
263
100
AcDbEntity
  8
M0
 62
     6
100
AcDbLine
 10
233.246009
 20
327.071308
 11
233.246009
 21
338.571308
  0
LINE
  5
264
100
AcDbEntity
  8
M0
 62
     6
100
AcDbLine
 10
241.746009
 20
320.071308
 11
241.746009
 21
320.571308
  0
LINE
  5
265
100
AcDbEntity
  8
M0
 62
     6
100
AcDbLine
 10
242.804223
 20
306.791871
 11
239.246009
 21
320.071308
  0
LINE
  5
266
100
AcDbEntity
  8
M0
 62
     6
100
AcDbLine
 10
254.946009
 20
320.571308
 11
254.946009
 21
314.071308
  0
LINE
  5
267
100
AcDbEntity
  8
M0
 62
     6
100
AcDbLine
 10
234.246009
 20
339.571308
 11
235.392562
 21
339.571308
  0
LINE
  5
268
100
AcDbEntity
  8
M0
 62
     6
100
AcDbLine
 10
240.746009
 20
339.071308
 11
236.246009
 21
339.071308
  0
LINE
  5
269
100
AcDbEntity
  8
M0
 62
     6
100
AcDbLine
 10
258.446009
 20
339.571308
 11
255.246009
 21
339.571308
  0
LINE
  5
26A
100
AcDbEntity
  8
M0
 62
     6
100
AcDbLine
 10
255.246009
 20
340.871308
 11
255.246009
 21
339.571308
  0
LINE
  5
26B
100
AcDbEntity
  8
M0
 62
     6
100
AcDbLine
 10
268.046009
 20
342.471308
 11
257.046009
 21
342.471308
  0
LINE
  5
26C
100
AcDbEntity
  8
M0
 62
     6
100
AcDbLine
 10
297.046009
 20
342.471308
 11
272.046009
 21
342.471308
  0
LINE
  5
26D
100
AcDbEntity
  8
M0
 62
     6
100
AcDbLine
 10
232.246009
 20
344.071308
 11
255.546009
 21
344.071308
  0
LINE
  5
26E
100
AcDbEntity
  8
M0
 62
     6
100
AcDbLine
 10
308.246009
 20
344.571308
 11
311.246009
 21
344.571308
  0
LINE
  5
26F
100
AcDbEntity
  8
M0
 62
     6
100
AcDbLine
 10
259.146009
 20
341.571308
 11
308.246009
 21
341.571308
  0
LINE
  5
270
100
AcDbEntity
  8
M0
 62
     6
100
AcDbLine
 10
259.046009
 20
341.571308
 11
234.246009
 21
341.571308
  0
LINE
  5
271
100
AcDbEntity
  8
M0
 62
     6
100
AcDbLine
 10
301.246009
 20
342.471308
 11
308.230173
 21
342.471308
  0
ARC
  5
272
100
AcDbEntity
  8
M0
 62
     6
100
AcDbCircle
 10
254.546009
 20
340.871308
 40
0.7
100
AcDbArc
 50
0.0
 51
90.0
  0
ARC
  5
273
100
AcDbEntity
  8
M0
 62
     6
100
AcDbCircle
 10
255.546009
 20
342.571308
 40
1.5
100
AcDbArc
 50
0.0
 51
90.0
  0
ARC
  5
274
100
AcDbEntity
  8
M0
 62
     6
100
AcDbCircle
 10
236.94225
 20
306.071308
 40
4.0
100
AcDbArc
 50
195.0
 51
270.0
  0
ARC
  5
275
100
AcDbEntity
  8
M0
 62
     6
100
AcDbCircle
 10
232.246009
 20
340.071308
 40
4.0
100
AcDbArc
 50
90.0
 51
180.0
  0
ARC
  5
276
100
AcDbEntity
  8
M0
 62
     6
100
AcDbCircle
 10
263.291437
 20
306.071308
 40
4.0
100
AcDbArc
 50
270.0
 51
301.169221
  0
ARC
  5
277
100
AcDbEntity
  8
M0
 62
     6
100
AcDbCircle
 10
234.246009
 20
338.571308
 40
3.0
100
AcDbArc
 50
90.0
 51
179.938788
  0
ARC
  5
278
100
AcDbEntity
  8
M0
 62
     6
100
AcDbCircle
 10
245.701202
 20
307.571308
 40
3.0
100
AcDbArc
 50
195.058919
 51
269.938297
  0
ARC
  5
279
100
AcDbEntity
  8
M0
 62
     6
100
AcDbCircle
 10
259.146009
 20
340.871308
 40
0.7
100
AcDbArc
 50
90.0
 51
180.0
  0
ARC
  5
27A
100
AcDbEntity
  8
M0
 62
     6
100
AcDbCircle
 10
234.246009
 20
338.571308
 40
1.0
100
AcDbArc
 50
90.0
 51
180.0
  0
LINE
  5
27B
100
AcDbEntity
  8
M0
 62
     6
100
AcDbLine
 10
228.246009
 20
323.071308
 11
228.246009
 21
340.071308
  0
LINE
  5
27C
100
AcDbEntity
  8
M0
 62
     6
100
AcDbLine
 10
228.538902
 20
324.086473
 11
228.538902
 21
326.071308
  0
ARC
  5
27D
100
AcDbEntity
  8
M0
 62
     6
100
AcDbCircle
 10
281.692205
 20
302.071308
 40
2.0
100
AcDbArc
 50
194.99833
 51
270.0
  0
ARC
  5
27E
100
AcDbEntity
  8
M0
 62
     6
100
AcDbCircle
 10
305.246009
 20
303.071308
 40
2.0
100
AcDbArc
 50
269.998343
 51
360.0
  0
ARC
  5
27F
100
AcDbEntity
  8
M0
 62
     6
100
AcDbCircle
 10
297.838531
 20
302.071308
 40
2.0
100
AcDbArc
 50
269.999042
 51
330.0
  0
LINE
  5
280
100
AcDbEntity
  8
M0
 62
     6
100
AcDbLine
 10
228.246009
 20
323.071308
 11
233.078546
 21
305.036032
  0
LINE
  5
281
100
AcDbEntity
  8
M0
 62
     6
100
AcDbLine
 10
230.446009
 20
326.071308
 11
230.446009
 21
323.371308
  0
LINE
  5
282
100
AcDbEntity
  8
M0
 62
     6
100
AcDbLine
 10
231.246009
 20
323.071308
 11
231.246009
 21
338.574514
  0
ARC
  5
283
100
AcDbEntity
  8
M0
 62
     6
100
AcDbCircle
 10
280.620409
 20
306.071308
 40
2.0
100
AcDbArc
 50
195.0
 51
270.0
  0
ARC
  5
284
100
AcDbEntity
  8
M0
 62
     6
100
AcDbCircle
 10
298.993232
 20
304.071308
 40
2.0
100
AcDbArc
 50
270.0
 51
330.0
  0
ARC
  5
285
100
AcDbEntity
  8
M0
 62
     6
100
AcDbCircle
 10
257.946009
 20
314.071308
 40
3.0
100
AcDbArc
 50
180.0
 51
270.0
  0
ARC
  5
286
100
AcDbEntity
  8
M0
 62
     6
100
AcDbCircle
 10
236.246009
 20
322.071308
 40
1.0
100
AcDbArc
 50
90.0
 51
180.0
  0
ARC
  5
287
100
AcDbEntity
  8
M0
 62
     6
100
AcDbCircle
 10
236.246009
 20
340.071308
 40
1.0
100
AcDbArc
 50
180.0
 51
270.0
  0
ARC
  5
288
100
AcDbEntity
  8
M0
 62
     6
100
AcDbCircle
 10
310.496009
 20
305.821308
 40
0.75
100
AcDbArc
 50
270.0
 51
360.0
  0
ARC
  5
289
100
AcDbEntity
  8
M0
 62
     6
100
AcDbCircle
 10
248.469151
 20
307.071308
 40
3.0
100
AcDbArc
 50
195.0
 51
270.0
  0
ARC
  5
28A
100
AcDbEntity
  8
M0
 62
     6
100
AcDbCircle
 10
272.246009
 20
303.071308
 40
1.0
100
AcDbArc
 50
270.246868
 51
360.0
  0
LINE
  5
28B
100
AcDbEntity
  8
M0
 62
     6
100
AcDbLine
 10
248.469151
 20
304.071308
 11
263.246009
 21
304.071308
  0
LINE
  5
28C
100
AcDbEntity
  8
M0
 62
     6
100
AcDbLine
 10
280.620409
 20
304.071308
 11
285.246009
 21
304.071308
  0
LINE
  5
28D
100
AcDbEntity
  8
M0
 62
     6
100
AcDbLine
 10
246.814953
 20
304.571308
 11
245.697971
 21
304.571308
  0
LINE
  5
28E
100
AcDbEntity
  8
M0
 62
     6
100
AcDbLine
 10
273.246009
 20
303.071308
 11
279.353704
 21
303.071308
  0
LINE
  5
28F
100
AcDbEntity
  8
M0
 62
     6
100
AcDbLine
 10
266.246009
 20
302.071308
 11
263.246009
 21
304.071308
  0
LINE
  5
290
100
AcDbEntity
  8
M0
 62
     6
100
AcDbLine
 10
266.246009
 20
309.071308
 11
277.746009
 21
309.071308
  0
LINE
  5
291
100
AcDbEntity
  8
M0
  6
DASHED
 62
     6
100
AcDbLine
 10
237.912675
 20
320.571308
 11
235.246009
 21
321.571308
  0
LINE
  5
292
100
AcDbEntity
  8
M0
 62
     6
100
AcDbLine
 10
239.246009
 20
320.071308
 11
237.912675
 21
320.571308
  0
LINE
  5
293
100
AcDbEntity
  8
M0
 62
     6
100
AcDbLine
 10
266.246009
 20
309.071308
 11
263.246009
 21
311.071308
  0
LINE
  5
294
100
AcDbEntity
  8
M0
 62
     6
100
AcDbLine
 10
310.496009
 20
305.071308
 11
307.246009
 21
305.071308
  0
LINE
  5
295
100
AcDbEntity
  8
M0
 62
     6
100
AcDbLine
 10
302.746009
 20
306.571308
 11
311.246009
 21
306.571308
  0
LINE
  5
296
100
AcDbEntity
  8
M0
 62
     6
100
AcDbLine
 10
278.281907
 20
307.071308
 11
254.665304
 21
307.071308
  0
LINE
  5
297
100
AcDbEntity
  8
M0
 62
     6
100
AcDbLine
 10
299.570582
 20
301.071308
 11
302.746009
 21
306.571308
  0
LINE
  5
298
100
AcDbEntity
  8
M0
 62
     6
100
AcDbLine
 10
297.046009
 20
342.471308
 11
297.287163
 21
341.571308
  0
LINE
  5
299
100
AcDbEntity
  8
M0
 62
     6
100
AcDbLine
 10
311.246009
 20
305.821308
 11
311.246009
 21
344.571308
  0
LINE
  5
29A
100
AcDbEntity
  8
M0
 62
     6
100
AcDbLine
 10
308.246009
 20
341.571308
 11
308.246009
 21
344.571308
  0
LINE
  5
29B
100
AcDbEntity
  8
M0
 62
     6
100
AcDbLine
 10
307.246009
 20
303.071308
 11
307.246009
 21
306.571308
  0
LINE
  5
29C
100
AcDbEntity
  8
M0
 62
     6
100
AcDbLine
 10
236.94225
 20
302.071308
 11
263.291437
 21
302.071308
  0
LINE
  5
29D
100
AcDbEntity
  8
M0
 62
     6
100
AcDbLine
 10
299.570582
 20
301.071308
 11
305.245951
 21
301.071308
  0
LINE
  5
29E
100
AcDbEntity
  8
M0
 62
     6
100
AcDbLine
 10
269.241919
 20
302.071308
 11
272.251907
 21
302.071308
  0
LINE
  5
29F
100
AcDbEntity
  8
M0
 62
     6
100
AcDbLine
 10
288.246009
 20
302.071308
 11
298.993232
 21
302.071308
  0
LINE
  5
2A0
100
AcDbEntity
  8
M0
 62
     6
100
AcDbLine
 10
269.236009
 20
302.071308
 11
266.246009
 21
302.071308
  0
LINE
  5
2A1
100
AcDbEntity
  8
M0
 62
     6
100
AcDbLine
 10
301.004854
 20
341.571308
 11
301.246009
 21
342.471308
  0
LINE
  5
2A2
100
AcDbEntity
  8
M0
 62
     6
100
AcDbLine
 10
281.692205
 20
300.071308
 11
297.838498
 21
300.071308
  0
LINE
  5
2A3
100
AcDbEntity
  8
M0
 62
     6
100
AcDbLine
 10
263.246009
 20
307.071308
 11
263.246009
 21
304.071308
  0
LINE
  5
2A4
100
AcDbEntity
  8
M0
 62
     6
100
AcDbLine
 10
241.296009
 20
323.071308
 11
236.246009
 21
323.071308
  0
LINE
  5
2A5
100
AcDbEntity
  8
M0
 62
     6
100
AcDbLine
 10
271.804854
 20
341.571308
 11
272.046009
 21
342.471308
  0
LINE
  5
2A6
100
AcDbEntity
  8
M0
 62
     6
100
AcDbLine
 10
236.246009
 20
326.071308
 11
228.246009
 21
326.071308
  0
LINE
  5
2A7
100
AcDbEntity
  8
M0
 62
     6
100
AcDbLine
 10
258.446009
 20
340.871308
 11
258.446009
 21
339.571308
  0
LINE
  5
2A8
100
AcDbEntity
  8
M0
 62
     6
100
AcDbLine
 10
257.046009
 20
342.571308
 11
257.046009
 21
341.571308
  0
ARC
  5
2A9
100
AcDbEntity
  8
M0
 62
     6
100
AcDbCircle
 10
254.665304
 20
310.071308
 40
3.0
100
AcDbArc
 50
195.0
 51
270.0
  0
LINE
  5
2AA
100
AcDbEntity
  8
M0
 62
     6
100
AcDbLine
 10
288.246009
 20
302.071308
 11
285.246009
 21
304.071308
  0
LINE
  5
2AB
100
AcDbEntity
  8
M0
 62
     6
100
AcDbLine
 10
257.946009
 20
311.071308
 11
263.246009
 21
311.071308
  0
LINE
  5
2AC
100
AcDbEntity
  8
M0
 62
     6
100
AcDbLine
 10
239.246009
 20
320.071308
 11
241.879983
 21
320.071308
  0
LINE
  5
2AD
100
AcDbEntity
  8
M0
 62
     6
100
AcDbLine
 10
277.746009
 20
309.071308
 11
279.760339
 21
301.553726
  0
LINE
  5
2AE
100
AcDbEntity
  8
M0
 62
     6
100
AcDbLine
 10
268.046009
 20
342.471308
 11
268.287163
 21
341.571308
  0
LINE
  5
2AF
100
AcDbEntity
  8
M0
 62
     6
100
AcDbLine
 10
232.831795
 20
326.071308
 11
232.954567
 21
326.116244
  0
LINE
  5
2B0
100
AcDbEntity
  8
M0
 62
     6
100
AcDbLine
 10
232.954567
 20
326.116244
 11
233.068288
 21
326.250319
  0
LINE
  5
2B1
100
AcDbEntity
  8
M0
 62
     6
100
AcDbLine
 10
233.068288
 20
326.250319
 11
233.161646
 21
326.466448
  0
LINE
  5
2B2
100
AcDbEntity
  8
M0
 62
     6
100
AcDbLine
 10
233.161646
 20
326.466448
 11
233.223841
 21
326.748552
  0
LINE
  5
2B3
100
AcDbEntity
  8
M0
 62
     6
100
AcDbLine
 10
233.223841
 20
326.748552
 11
233.246009
 21
327.071308
  0
LINE
  5
2B4
100
AcDbEntity
  8
M0
 62
     6
100
AcDbLine
 10
235.246009
 20
321.571308
 11
228.246009
 21
324.196308
  0
LINE
  5
2B5
100
AcDbEntity
  8
M0
 62
     2
100
AcDbLine
 10
97.021961
 20
348.071309
 11
89.373464
 21
348.071309
  0
LINE
  5
2B6
100
AcDbEntity
  8
M0
 62
     2
100
AcDbLine
 10
92.645354
 20
353.071309
 11
100.281153
 21
353.071309
  0
ARC
  5
2B7
100
AcDbEntity
  8
M0
 62
     2
100
AcDbCircle
 10
93.717874
 20
372.071309
 40
1.0
100
AcDbArc
 50
90.0
 51
180.0
  0
ARC
  5
2B8
100
AcDbEntity
  8
M0
 62
     2
100
AcDbCircle
 10
101.717874
 20
372.071309
 40
1.0
100
AcDbArc
 50
0.0
 51
90.0
  0
LINE
  5
2B9
100
AcDbEntity
  8
M0
 62
     2
100
AcDbLine
 10
101.717874
 20
373.071309
 11
93.717874
 21
373.071309
  0
LINE
  5
2BA
100
AcDbEntity
  8
M0
 62
     2
100
AcDbLine
 10
92.717874
 20
362.730721
 11
92.717874
 21
372.071309
  0
LINE
  5
2BB
100
AcDbEntity
  8
M0
 62
     2
100
AcDbLine
 10
102.717874
 20
362.730721
 11
102.717874
 21
372.071309
  0
ARC
  5
2BC
100
AcDbEntity
  8
M0
 62
     2
100
AcDbCircle
 10
93.717874
 20
362.730721
 40
1.0
100
AcDbArc
 50
180.0
 51
240.940719
  0
LINE
  5
2BD
100
AcDbEntity
  8
M0
 62
     2
100
AcDbLine
 10
84.267874
 20
337.77544
 11
84.267874
 21
329.071309
  0
LINE
  5
2BE
100
AcDbEntity
  8
M0
 62
     2
100
AcDbLine
 10
85.267874
 20
328.071309
 11
94.267874
 21
328.071309
  0
LINE
  5
2BF
100
AcDbEntity
  8
M0
 62
     2
100
AcDbLine
 10
87.057576
 20
344.532241
 11
94.028171
 21
355.184488
  0
LINE
  5
2C0
100
AcDbEntity
  8
M0
 62
     2
100
AcDbLine
 10
86.567874
 20
342.889558
 11
86.567874
 21
341.063296
  0
LINE
  5
2C1
100
AcDbEntity
  8
M0
 62
     2
100
AcDbLine
 10
93.457576
 20
342.624327
 11
100.428171
 21
353.276574
  0
LINE
  5
2C2
100
AcDbEntity
  8
M0
 62
     2
100
AcDbLine
 10
100.917874
 20
354.919257
 11
100.917874
 21
359.671309
  0
LINE
  5
2C3
100
AcDbEntity
  8
M0
 62
     2
100
AcDbLine
 10
94.517874
 20
356.827171
 11
94.517874
 21
359.671309
  0
LINE
  5
2C4
100
AcDbEntity
  8
M0
 62
     2
100
AcDbLine
 10
92.967874
 20
340.981644
 11
92.967874
 21
341.063296
  0
LINE
  5
2C5
100
AcDbEntity
  8
M0
 62
     2
100
AcDbLine
 10
95.267874
 20
329.071309
 11
95.267874
 21
337.77544
  0
ARC
  5
2C6
100
AcDbEntity
  8
M0
 62
     2
100
AcDbCircle
 10
94.267874
 20
337.77544
 40
1.0
100
AcDbArc
 50
0.0
 51
69.948957
  0
ARC
  5
2C7
100
AcDbEntity
  8
M0
 62
     2
100
AcDbCircle
 10
92.017874
 20
359.671309
 40
2.5
100
AcDbArc
 50
0.0
 51
60.940719
  0
ARC
  5
2C8
100
AcDbEntity
  8
M0
 62
     2
100
AcDbCircle
 10
103.417874
 20
359.671309
 40
2.5
100
AcDbArc
 50
119.059281
 51
180.0
  0
ARC
  5
2C9
100
AcDbEntity
  8
M0
 62
     2
100
AcDbCircle
 10
101.717874
 20
362.730721
 40
1.0
100
AcDbArc
 50
299.059281
 51
360.0
  0
ARC
  5
2CA
100
AcDbEntity
  8
M0
 62
     2
100
AcDbCircle
 10
84.067874
 20
341.063296
 40
2.5
100
AcDbArc
 50
290.051043
 51
360.0
  0
ARC
  5
2CB
100
AcDbEntity
  8
M0
 62
     2
100
AcDbCircle
 10
95.467874
 20
341.063296
 40
2.5
100
AcDbArc
 50
180.0
 51
249.948957
  0
ARC
  5
2CC
100
AcDbEntity
  8
M0
 62
     2
100
AcDbCircle
 10
85.267874
 20
337.77544
 40
1.0
100
AcDbArc
 50
110.051043
 51
180.0
  0
ARC
  5
2CD
100
AcDbEntity
  8
M0
 62
     2
100
AcDbCircle
 10
89.567874
 20
342.889558
 40
3.0
100
AcDbArc
 50
146.800152
 51
180.0
  0
ARC
  5
2CE
100
AcDbEntity
  8
M0
 62
     2
100
AcDbCircle
 10
95.967874
 20
340.981644
 40
3.0
100
AcDbArc
 50
146.800152
 51
180.0
  0
ARC
  5
2CF
100
AcDbEntity
  8
M0
 62
     2
100
AcDbCircle
 10
97.917874
 20
354.919257
 40
3.0
100
AcDbArc
 50
326.800152
 51
360.0
  0
ARC
  5
2D0
100
AcDbEntity
  8
M0
 62
     2
100
AcDbCircle
 10
91.517874
 20
356.827171
 40
3.0
100
AcDbArc
 50
326.800152
 51
360.0
  0
ARC
  5
2D1
100
AcDbEntity
  8
M0
 62
     2
100
AcDbCircle
 10
85.267874
 20
329.071309
 40
1.0
100
AcDbArc
 50
180.0
 51
270.0
  0
ARC
  5
2D2
100
AcDbEntity
  8
M0
 62
     2
100
AcDbCircle
 10
94.267874
 20
329.071309
 40
1.0
100
AcDbArc
 50
270.0
 51
360.0
  0
HATCH
  5
2D3
100
AcDbEntity
  8
M0
 62
     7
100
AcDbHatch
 10
0.0
 20
0.0
210
0.0
220
0.0
230
1.0
  2
SOLID
 70
     1
 71
     0
 91
        1
 92
        1
 93
        4
 72
     1
 10
219.150224
 20
445.99144
 11
217.150224
 21
445.99144
 72
     1
 10
217.150224
 20
445.99144
 11
217.150224
 21
427.79144
 72
     1
 10
217.150224
 20
427.79144
 11
219.150224
 21
427.79144
 72
     1
 10
219.150224
 20
427.79144
 11
219.150224
 21
445.99144
 97
        0
 75
     0
 76
     1
 98
        1
 10
0.0
 20
0.0
  0
LINE
  5
2D6
100
AcDbEntity
  8
M0
100
AcDbLine
 10
134.467874
 20
424.921308
 11
134.367872
 21
424.921308
  0
LINE
  5
2D7
100
AcDbEntity
  8
M0
100
AcDbLine
 10
87.267874
 20
439.67131
 11
87.267874
 21
441.87131
  0
LINE
  5
2D8
100
AcDbEntity
  8
M0
100
AcDbLine
 10
62.967874
 20
422.37131
 11
62.067874
 21
422.37131
  0
LINE
  5
2D9
100
AcDbEntity
  8
M0
100
AcDbLine
 10
132.467873
 20
422.37131
 11
133.367874
 21
422.37131
  0
LINE
  5
2DA
100
AcDbEntity
  8
M0
100
AcDbLine
 10
113.317872
 20
434.071308
 11
119.767874
 21
434.071308
  0
LINE
  5
2DB
100
AcDbEntity
  8
M0
100
AcDbLine
 10
125.567874
 20
422.37131
 11
126.467874
 21
422.37131
  0
LINE
  5
2DC
100
AcDbEntity
  8
M0
100
AcDbLine
 10
111.567873
 20
358.071307
 11
111.567873
 21
356.071311
  0
LINE
  5
2DD
100
AcDbEntity
  8
M0
100
AcDbLine
 10
77.267874
 20
434.071308
 11
77.267874
 21
443.071309
  0
LINE
  5
2DE
100
AcDbEntity
  8
M0
100
AcDbLine
 10
60.967874
 20
424.921308
 11
61.067875
 21
424.921308
  0
LINE
  5
2DF
100
AcDbEntity
  8
M0
100
AcDbLine
 10
133.667874
 20
355.071309
 11
119.432952
 21
355.071309
  0
LINE
  5
2E0
100
AcDbEntity
  8
M0
100
AcDbLine
 10
108.167874
 20
441.87131
 11
108.167874
 21
439.67131
  0
LINE
  5
2E1
100
AcDbEntity
  8
M0
100
AcDbLine
 10
74.117873
 20
356.071311
 11
74.117873
 21
361.071309
  0
LINE
  5
2E2
100
AcDbEntity
  8
M0
100
AcDbLine
 10
86.617874
 20
356.071311
 11
86.617874
 21
361.071309
  0
LINE
  5
2E3
100
AcDbEntity
  8
M0
100
AcDbLine
 10
108.817873
 20
356.071311
 11
108.817873
 21
361.071309
  0
LINE
  5
2E4
100
AcDbEntity
  8
M0
100
AcDbLine
 10
60.967874
 20
370.22131
 11
61.067875
 21
370.22131
  0
LINE
  5
2E5
100
AcDbEntity
  8
M0
100
AcDbLine
 10
87.767874
 20
442.371307
 11
107.667874
 21
442.371307
  0
LINE
  5
2E6
100
AcDbEntity
  8
M0
100
AcDbLine
 10
121.317875
 20
361.071309
 11
121.317875
 21
356.071311
  0
LINE
  5
2E7
100
AcDbEntity
  8
M0
100
AcDbLine
 10
59.267875
 20
423.921309
 11
59.267875
 21
358.071309
  0
LINE
  5
2E8
100
AcDbEntity
  8
M0
100
AcDbLine
 10
60.267873
 20
370.22131
 11
61.067875
 21
370.22131
  0
LINE
  5
2E9
100
AcDbEntity
  8
M0
100
AcDbLine
 10
75.267874
 20
434.071308
 11
75.267874
 21
443.071308
  0
CIRCLE
  5
2EA
100
AcDbEntity
  8
M0
100
AcDbCircle
 10
97.717874
 20
437.871309
 40
3.1
  0
ARC
  5
2EB
100
AcDbEntity
  8
M0
100
AcDbCircle
 10
87.767874
 20
441.871309
 40
0.5
100
AcDbArc
 50
90.0
 51
180.0
  0
LINE
  5
2EC
100
AcDbEntity
  8
M0
100
AcDbLine
 10
104.667874
 20
360.071307
 11
104.667874
 21
372.671308
  0
LINE
  5
2ED
100
AcDbEntity
  8
M0
100
AcDbLine
 10
104.667874
 20
356.071311
 11
104.667874
 21
360.071307
  0
ARC
  5
2EE
100
AcDbEntity
  8
M0
100
AcDbCircle
 10
60.267874
 20
371.221309
 40
1.0
100
AcDbArc
 50
180.0
 51
270.0
  0
LINE
  5
2EF
100
AcDbEntity
  8
M0
100
AcDbLine
 10
105.667874
 20
373.171309
 11
107.367874
 21
373.171309
  0
ARC
  5
2F0
100
AcDbEntity
  8
M0
100
AcDbCircle
 10
80.367874
 20
358.071309
 40
3.5
100
AcDbArc
 50
0.0
 51
41.78523
  0
ARC
  5
2F1
100
AcDbEntity
  8
M0
100
AcDbCircle
 10
120.317874
 20
356.071309
 40
1.0
100
AcDbArc
 50
270.0
 51
360.0
  0
ARC
  5
2F2
100
AcDbEntity
  8
M0
100
AcDbCircle
 10
109.817874
 20
356.071309
 40
1.0
100
AcDbArc
 50
180.0
 51
270.0
  0
ARC
  5
2F3
100
AcDbEntity
  8
M0
100
AcDbCircle
 10
107.667874
 20
441.871309
 40
0.5
100
AcDbArc
 50
0.0
 51
90.0
  0
LINE
  5
2F4
100
AcDbEntity
  8
M0
100
AcDbLine
 10
85.617874
 20
355.071309
 11
82.416639
 21
355.071309
  0
LINE
  5
2F5
100
AcDbEntity
  8
M0
100
AcDbLine
 10
83.867874
 20
358.071307
 11
83.867874
 21
356.071311
  0
LINE
  5
2F6
100
AcDbEntity
  8
M0
100
AcDbLine
 10
88.56787
 20
355.071309
 11
89.767873
 21
355.071309
  0
LINE
  5
2F7
100
AcDbEntity
  8
M0
100
AcDbLine
 10
88.067873
 20
355.071309
 11
88.56787
 21
355.071309
  0
LINE
  5
2F8
100
AcDbEntity
  8
M0
100
AcDbLine
 10
58.767874
 20
426.371308
 11
58.767874
 21
436.071309
  0
LINE
  5
2F9
100
AcDbEntity
  8
M0
100
AcDbLine
 10
129.169363
 20
364.82131
 11
127.717873
 21
364.82131
  0
LINE
  5
2FA
100
AcDbEntity
  8
M0
100
AcDbLine
 10
69.317873
 20
360.071307
 11
70.217873
 21
360.071307
  0
LINE
  5
2FB
100
AcDbEntity
  8
M0
100
AcDbLine
 10
69.317873
 20
366.071308
 11
69.317873
 21
360.071307
  0
LINE
  5
2FC
100
AcDbEntity
  8
M0
100
AcDbLine
 10
61.767872
 20
439.071307
 11
69.267874
 21
439.071307
  0
LINE
  5
2FD
100
AcDbEntity
  8
M0
100
AcDbLine
 10
136.167873
 20
436.071309
 11
136.167873
 21
371.221309
  0
LINE
  5
2FE
100
AcDbEntity
  8
M0
100
AcDbLine
 10
70.467874
 20
366.071308
 11
69.317873
 21
366.071308
  0
LINE
  5
2FF
100
AcDbEntity
  8
M0
100
AcDbLine
 10
73.167873
 20
435.571308
 11
75.267874
 21
435.571308
  0
LINE
  5
300
100
AcDbEntity
  8
M0
100
AcDbLine
 10
120.167874
 20
435.571308
 11
122.267874
 21
435.571308
  0
LINE
  5
301
100
AcDbEntity
  8
M0
100
AcDbLine
 10
118.167873
 20
438.57131
 11
117.667874
 21
438.57131
  0
LINE
  5
302
100
AcDbEntity
  8
M0
100
AcDbLine
 10
77.267874
 20
438.57131
 11
77.767873
 21
438.57131
  0
LINE
  5
303
100
AcDbEntity
  8
M0
100
AcDbLine
 10
69.317873
 20
358.571308
 11
69.317873
 21
359.071309
  0
LINE
  5
304
100
AcDbEntity
  8
M0
100
AcDbLine
 10
70.217873
 20
359.071309
 11
69.317873
 21
359.071309
  0
LINE
  5
305
100
AcDbEntity
  8
M0
100
AcDbLine
 10
77.267874
 20
440.871308
 11
77.767873
 21
440.871308
  0
LINE
  5
306
100
AcDbEntity
  8
M0
100
AcDbLine
 10
118.167873
 20
439.67131
 11
117.667874
 21
439.67131
  0
LINE
  5
307
100
AcDbEntity
  8
M0
100
AcDbLine
 10
77.767873
 20
439.67131
 11
77.267874
 21
439.67131
  0
LINE
  5
308
100
AcDbEntity
  8
M0
100
AcDbLine
 10
136.167873
 20
373.771308
 11
136.667874
 21
368.771309
  0
LINE
  5
309
100
AcDbEntity
  8
M0
100
AcDbLine
 10
126.167873
 20
439.071307
 11
133.167874
 21
439.071307
  0
LINE
  5
30A
100
AcDbEntity
  8
M0
100
AcDbLine
 10
70.217873
 20
358.071307
 11
69.817874
 21
358.071307
  0
LINE
  5
30B
100
AcDbEntity
  8
M0
100
AcDbLine
 10
67.717874
 20
434.82131
 11
65.217875
 21
434.82131
  0
LINE
  5
30C
100
AcDbEntity
  8
M0
100
AcDbLine
 10
62.668364
 20
432.321309
 11
62.217873
 21
432.321309
  0
LINE
  5
30D
100
AcDbEntity
  8
M0
100
AcDbLine
 10
62.217873
 20
427.821309
 11
63.812137
 21
427.823285
  0
LINE
  5
30E
100
AcDbEntity
  8
M0
100
AcDbLine
 10
66.267382
 20
430.321308
 11
67.717874
 21
430.321308
  0
ARC
  5
30F
100
AcDbEntity
  8
M0
100
AcDbCircle
 10
76.267874
 20
443.071309
 40
1.0
100
AcDbArc
 50
0.0
 51
90.0
  0
ARC
  5
310
100
AcDbEntity
  8
M0
100
AcDbCircle
 10
84.867874
 20
356.071309
 40
1.0
100
AcDbArc
 50
180.0
 51
270.0
  0
ARC
  5
311
100
AcDbEntity
  8
M0
100
AcDbCircle
 10
85.617874
 20
356.071309
 40
1.0
100
AcDbArc
 50
270.0
 51
360.0
  0
ARC
  5
312
100
AcDbEntity
  8
M0
100
AcDbCircle
 10
119.567874
 20
356.071309
 40
1.0
100
AcDbArc
 50
262.312742
 51
270.0
  0
ARC
  5
313
100
AcDbEntity
  8
M0
100
AcDbCircle
 10
75.117874
 20
356.071309
 40
1.0
100
AcDbArc
 50
180.0
 51
270.0
  0
ARC
  5
314
100
AcDbEntity
  8
M0
100
AcDbCircle
 10
76.267874
 20
443.071309
 40
1.0
100
AcDbArc
 50
90.0
 51
180.0
  0
LINE
  5
315
100
AcDbEntity
  8
M0
100
AcDbLine
 10
68.967873
 20
372.771308
 11
69.867873
 21
372.771308
  0
ARC
  5
316
100
AcDbEntity
  8
M0
100
AcDbCircle
 10
110.567874
 20
356.071309
 40
1.0
100
AcDbArc
 50
270.0
 51
360.0
  0
LINE
  5
317
100
AcDbEntity
  8
M0
100
AcDbLine
 10
69.867873
 20
422.37131
 11
68.967873
 21
422.37131
  0
LINE
  5
318
100
AcDbEntity
  8
M0
100
AcDbLine
 10
69.317873
 20
357.071309
 11
69.317873
 21
358.571308
  0
LINE
  5
319
100
AcDbEntity
  8
M0
100
AcDbLine
 10
70.217873
 20
356.571308
 11
69.817874
 21
356.571308
  0
LINE
  5
31A
100
AcDbEntity
  8
M0
100
AcDbLine
 10
59.267875
 20
421.37131
 11
58.767874
 21
426.371308
  0
LINE
  5
31B
100
AcDbEntity
  8
M0
100
AcDbLine
 10
134.467874
 20
370.22131
 11
134.367872
 21
370.22131
  0
LINE
  5
31C
100
AcDbEntity
  8
M0
100
AcDbLine
 10
126.467874
 20
372.771308
 11
125.567874
 21
372.771308
  0
LINE
  5
31D
100
AcDbEntity
  8
M0
100
AcDbLine
 10
133.367874
 20
372.771308
 11
132.467873
 21
372.771308
  0
ARC
  5
31E
100
AcDbEntity
  8
M0
100
AcDbCircle
 10
133.167874
 20
436.071309
 40
3.0
100
AcDbArc
 50
0.0
 51
90.0
  0
ARC
  5
31F
100
AcDbEntity
  8
M0
100
AcDbCircle
 10
61.767874
 20
436.071309
 40
3.0
100
AcDbArc
 50
90.0
 51
180.0
  0
LINE
  5
320
100
AcDbEntity
  8
M0
100
AcDbLine
 10
71.167873
 20
398.971309
 11
69.467874
 21
398.971309
  0
ARC
  5
321
100
AcDbEntity
  8
M0
100
AcDbCircle
 10
79.467874
 20
443.071309
 40
0.5
100
AcDbArc
 50
270.0
 51
360.0
  0
ARC
  5
322
100
AcDbEntity
  8
M0
100
AcDbCircle
 10
115.967874
 20
443.571309
 40
0.5
100
AcDbArc
 50
90.0
 51
180.0
  0
ARC
  5
323
100
AcDbEntity
  8
M0
100
AcDbCircle
 10
69.817874
 20
357.071309
 40
0.5
100
AcDbArc
 50
180.0
 51
270.0
  0
ARC
  5
324
100
AcDbEntity
  8
M0
100
AcDbCircle
 10
115.967874
 20
443.071309
 40
0.5
100
AcDbArc
 50
180.0
 51
270.0
  0
LINE
  5
325
100
AcDbEntity
  8
M0
100
AcDbLine
 10
70.467874
 20
396.171309
 11
70.467874
 21
396.071309
  0
LINE
  5
326
100
AcDbEntity
  8
M0
100
AcDbLine
 10
73.167873
 20
374.671309
 11
72.167873
 21
374.671309
  0
LINE
  5
327
100
AcDbEntity
  8
M0
100
AcDbLine
 10
69.467874
 20
396.171309
 11
71.167873
 21
396.171309
  0
ARC
  5
328
100
AcDbEntity
  8
M0
100
AcDbCircle
 10
63.717874
 20
430.071309
 40
2.25
100
AcDbArc
 50
272.401074
 51
358.876481
  0
ARC
  5
329
100
AcDbEntity
  8
M0
100
AcDbCircle
 10
107.867874
 20
372.671309
 40
0.5
100
AcDbArc
 50
0.0
 51
90.0
  0
ARC
  5
32A
100
AcDbEntity
  8
M0
100
AcDbCircle
 10
127.717874
 20
362.571309
 40
2.25
100
AcDbArc
 50
90.0
 51
270.0
  0
ARC
  5
32B
100
AcDbEntity
  8
M0
100
AcDbCircle
 10
90.267874
 20
372.671309
 40
0.5
100
AcDbArc
 50
0.0
 51
90.0
  0
ARC
  5
32C
100
AcDbEntity
  8
M0
100
AcDbCircle
 10
87.567874
 20
372.671309
 40
0.5
100
AcDbArc
 50
90.0
 51
180.0
  0
ARC
  5
32D
100
AcDbEntity
  8
M0
100
AcDbCircle
 10
62.217874
 20
430.071309
 40
2.25
100
AcDbArc
 50
90.0
 51
270.0
  0
ARC
  5
32E
100
AcDbEntity
  8
M0
100
AcDbCircle
 10
105.667874
 20
356.071309
 40
1.0
100
AcDbArc
 50
180.0
 51
270.0
  0
ARC
  5
32F
100
AcDbEntity
  8
M0
100
AcDbCircle
 10
130.217874
 20
362.571309
 40
2.25
100
AcDbArc
 50
270.0
 51
355.815286
  0
ARC
  5
330
100
AcDbEntity
  8
M0
100
AcDbCircle
 10
62.668364
 20
432.621309
 40
0.3
100
AcDbArc
 50
270.0
 51
358.876481
  0
ARC
  5
331
100
AcDbEntity
  8
M0
100
AcDbCircle
 10
67.717874
 20
432.571309
 40
2.25
100
AcDbArc
 50
270.0
 51
450.0
  0
ARC
  5
332
100
AcDbEntity
  8
M0
100
AcDbCircle
 10
65.217874
 20
432.571309
 40
2.25
100
AcDbArc
 50
90.0
 51
178.876481
  0
ARC
  5
333
100
AcDbEntity
  8
M0
100
AcDbCircle
 10
79.467874
 20
443.571309
 40
0.5
100
AcDbArc
 50
0.0
 51
90.0
  0
ARC
  5
334
100
AcDbEntity
  8
M0
100
AcDbCircle
 10
66.267383
 20
430.021309
 40
0.3
100
AcDbArc
 50
90.0
 51
178.876481
  0
LINE
  5
335
100
AcDbEntity
  8
M0
100
AcDbLine
 10
68.467874
 20
402.771309
 11
68.467874
 21
392.371309
  0
LINE
  5
336
100
AcDbEntity
  8
M0
100
AcDbLine
 10
126.967873
 20
402.771309
 11
126.967873
 21
392.371309
  0
LINE
  5
337
100
AcDbEntity
  8
M0
100
AcDbLine
 10
73.167873
 20
360.071307
 11
73.167873
 21
374.671309
  0
LINE
  5
338
100
AcDbEntity
  8
M0
100
AcDbLine
 10
69.467874
 20
391.371309
 11
70.467874
 21
391.371309
  0
LINE
  5
339
100
AcDbEntity
  8
M0
100
AcDbLine
 10
70.467874
 20
398.971309
 11
70.467874
 21
399.071309
  0
LINE
  5
33A
100
AcDbEntity
  8
M0
100
AcDbLine
 10
105.167874
 20
373.171309
 11
105.667874
 21
373.171309
  0
LINE
  5
33B
100
AcDbEntity
  8
M0
100
AcDbLine
 10
125.967873
 20
391.371309
 11
124.967873
 21
391.371309
  0
LINE
  5
33C
100
AcDbEntity
  8
M0
100
AcDbLine
 10
125.967873
 20
402.271309
 11
125.967873
 21
392.871309
  0
LINE
  5
33D
100
AcDbEntity
  8
M0
100
AcDbLine
 10
69.467874
 20
402.271309
 11
69.467874
 21
392.871309
  0
LINE
  5
33E
100
AcDbEntity
  8
M0
100
AcDbLine
 10
122.267874
 20
374.671309
 11
123.267874
 21
374.671309
  0
LINE
  5
33F
100
AcDbEntity
  8
M0
100
AcDbLine
 10
107.367874
 20
373.171309
 11
107.867874
 21
373.171309
  0
LINE
  5
340
100
AcDbEntity
  8
M0
100
AcDbLine
 10
108.367873
 20
372.671308
 11
108.367873
 21
360.071307
  0
LINE
  5
341
100
AcDbEntity
  8
M0
100
AcDbLine
 10
122.267874
 20
360.071307
 11
122.267874
 21
374.671309
  0
ARC
  5
342
100
AcDbEntity
  8
M0
100
AcDbCircle
 10
69.467874
 20
392.371309
 40
1.0
100
AcDbArc
 50
180.0
 51
270.0
  0
ARC
  5
343
100
AcDbEntity
  8
M0
100
AcDbCircle
 10
87.567874
 20
422.471309
 40
0.5
100
AcDbArc
 50
180.0
 51
270.0
  0
ARC
  5
344
100
AcDbEntity
  8
M0
100
AcDbCircle
 10
105.167874
 20
372.671309
 40
0.5
100
AcDbArc
 50
90.0
 51
180.0
  0
ARC
  5
345
100
AcDbEntity
  8
M0
100
AcDbCircle
 10
115.067874
 20
358.071309
 40
3.5
100
AcDbArc
 50
138.21477
 51
180.0
  0
LINE
  5
346
100
AcDbEntity
  8
M0
100
AcDbLine
 10
62.067874
 20
372.771308
 11
62.967874
 21
372.771308
  0
ARC
  5
347
100
AcDbEntity
  8
M0
100
AcDbCircle
 10
69.467874
 20
402.771309
 40
1.0
100
AcDbArc
 50
90.0
 51
180.0
  0
ARC
  5
348
100
AcDbEntity
  8
M0
100
AcDbCircle
 10
105.167874
 20
422.471309
 40
0.5
100
AcDbArc
 50
180.0
 51
270.0
  0
LINE
  5
349
100
AcDbEntity
  8
M0
100
AcDbLine
 10
89.767873
 20
373.171309
 11
88.067873
 21
373.171309
  0
LINE
  5
34A
100
AcDbEntity
  8
M0
100
AcDbLine
 10
88.067873
 20
373.171309
 11
87.567873
 21
373.171309
  0
ARC
  5
34B
100
AcDbEntity
  8
M0
100
AcDbCircle
 10
107.867874
 20
422.471309
 40
0.5
100
AcDbArc
 50
270.0
 51
360.0
  0
ARC
  5
34C
100
AcDbEntity
  8
M0
100
AcDbCircle
 10
90.267874
 20
422.471309
 40
0.5
100
AcDbArc
 50
270.0
 51
360.0
  0
LINE
  5
34D
100
AcDbEntity
  8
M0
100
AcDbLine
 10
90.267874
 20
373.171309
 11
89.767873
 21
373.171309
  0
ARC
  5
34E
100
AcDbEntity
  8
M0
100
AcDbCircle
 10
125.967874
 20
392.371309
 40
1.0
100
AcDbArc
 50
270.0
 51
360.0
  0
LINE
  5
34F
100
AcDbEntity
  8
M0
100
AcDbLine
 10
124.967873
 20
403.771309
 11
125.967873
 21
403.771309
  0
LINE
  5
350
100
AcDbEntity
  8
M0
100
AcDbLine
 10
70.467874
 20
403.771309
 11
69.467874
 21
403.771309
  0
LINE
  5
351
100
AcDbEntity
  8
M0
100
AcDbLine
 10
107.867874
 20
421.971308
 11
105.167874
 21
421.971308
  0
ARC
  5
352
100
AcDbEntity
  8
M0
100
AcDbCircle
 10
125.967874
 20
402.771309
 40
1.0
100
AcDbArc
 50
0.0
 51
90.0
  0
CIRCLE
  5
353
100
AcDbEntity
  8
M0
100
AcDbCircle
 10
62.717874
 20
359.571309
 40
2.25
  0
ARC
  5
354
100
AcDbEntity
  8
M0
100
AcDbCircle
 10
89.767874
 20
356.071309
 40
1.0
100
AcDbArc
 50
270.0
 51
360.0
  0
LINE
  5
355
100
AcDbEntity
  8
M0
100
AcDbLine
 10
127.717873
 20
360.321308
 11
130.217872
 21
360.321308
  0
ARC
  5
356
100
AcDbEntity
  8
M0
100
AcDbCircle
 10
123.967874
 20
356.071309
 40
1.0
100
AcDbArc
 50
270.0
 51
360.0
  0
LINE
  5
357
100
AcDbEntity
  8
M0
100
AcDbLine
 10
87.067874
 20
434.071308
 11
73.167873
 21
434.071308
  0
CIRCLE
  5
358
100
AcDbEntity
  8
M0
100
AcDbCircle
 10
132.717874
 20
434.571309
 40
2.25
  0
ARC
  5
359
100
AcDbEntity
  8
M0
100
AcDbCircle
 10
95.467874
 20
401.840263
 40
0.5
100
AcDbArc
 50
0.0
 51
90.0
  0
LINE
  5
35A
100
AcDbEntity
  8
M0
100
AcDbLine
 10
95.467874
 20
402.340263
 11
92.917874
 21
402.340263
  0
LINE
  5
35B
100
AcDbEntity
  8
M0
100
AcDbLine
 10
102.517874
 20
402.340263
 11
99.967874
 21
402.340263
  0
LINE
  5
35C
100
AcDbEntity
  8
M0
100
AcDbLine
 10
123.967873
 20
404.771309
 11
123.967873
 21
402.071309
  0
LINE
  5
35D
100
AcDbEntity
  8
M0
100
AcDbLine
 10
71.467874
 20
402.071309
 11
70.467874
 21
402.071309
  0
LINE
  5
35E
100
AcDbEntity
  8
M0
100
AcDbLine
 10
123.967873
 20
393.071309
 11
123.967873
 21
390.371309
  0
LINE
  5
35F
100
AcDbEntity
  8
M0
100
AcDbLine
 10
124.967873
 20
393.071309
 11
123.967873
 21
393.071309
  0
LINE
  5
360
100
AcDbEntity
  8
M0
100
AcDbLine
 10
70.467874
 20
396.071309
 11
70.467874
 21
392.871309
  0
LINE
  5
361
100
AcDbEntity
  8
M0
100
AcDbLine
 10
71.467874
 20
404.771309
 11
71.467874
 21
402.071309
  0
LINE
  5
362
100
AcDbEntity
  8
M0
100
AcDbLine
 10
123.967873
 20
396.071309
 11
124.967873
 21
396.071309
  0
LINE
  5
363
100
AcDbEntity
  8
M0
100
AcDbLine
 10
92.817874
 20
407.771309
 11
92.817874
 21
407.271309
  0
LINE
  5
364
100
AcDbEntity
  8
M0
100
AcDbLine
 10
71.467874
 20
399.071309
 11
71.467874
 21
396.071309
  0
LINE
  5
365
100
AcDbEntity
  8
M0
100
AcDbLine
 10
124.967873
 20
396.171309
 11
124.967873
 21
392.871309
  0
LINE
  5
366
100
AcDbEntity
  8
M0
100
AcDbLine
 10
92.817874
 20
407.771309
 11
102.617874
 21
407.771309
  0
LINE
  5
367
100
AcDbEntity
  8
M0
100
AcDbLine
 10
71.467874
 20
393.071309
 11
71.467874
 21
390.371309
  0
LINE
  5
368
100
AcDbEntity
  8
M0
100
AcDbLine
 10
102.617874
 20
407.271309
 11
92.817874
 21
407.271309
  0
LINE
  5
369
100
AcDbEntity
  8
M0
100
AcDbLine
 10
123.967873
 20
402.071309
 11
124.967873
 21
402.071309
  0
LINE
  5
36A
100
AcDbEntity
  8
M0
100
AcDbLine
 10
70.467874
 20
399.071309
 11
71.467874
 21
399.071309
  0
LINE
  5
36B
100
AcDbEntity
  8
M0
100
AcDbLine
 10
71.467874
 20
404.771309
 11
70.967873
 21
404.771309
  0
LINE
  5
36C
100
AcDbEntity
  8
M0
100
AcDbLine
 10
123.967873
 20
399.071309
 11
123.967873
 21
396.071309
  0
LINE
  5
36D
100
AcDbEntity
  8
M0
100
AcDbLine
 10
70.467874
 20
402.271309
 11
70.467874
 21
399.071309
  0
LINE
  5
36E
100
AcDbEntity
  8
M0
100
AcDbLine
 10
124.967873
 20
399.071309
 11
123.967873
 21
399.071309
  0
LINE
  5
36F
100
AcDbEntity
  8
M0
100
AcDbLine
 10
124.967873
 20
402.271309
 11
124.967873
 21
398.971309
  0
LINE
  5
370
100
AcDbEntity
  8
M0
100
AcDbLine
 10
124.467874
 20
404.771309
 11
123.967873
 21
404.771309
  0
ARC
  5
371
100
AcDbEntity
  8
M0
100
AcDbCircle
 10
99.967874
 20
401.840263
 40
0.5
100
AcDbArc
 50
90.0
 51
180.0
  0
ARC
  5
372
100
AcDbEntity
  8
M0
100
AcDbCircle
 10
89.317874
 20
407.771309
 40
1.0
100
AcDbArc
 50
90.0
 51
180.0
  0
ARC
  5
373
100
AcDbEntity
  8
M0
100
AcDbCircle
 10
106.117874
 20
407.771309
 40
1.0
100
AcDbArc
 50
0.0
 51
90.0
  0
ARC
  5
374
100
AcDbEntity
  8
M0
100
AcDbCircle
 10
123.967874
 20
419.271309
 40
1.0
100
AcDbArc
 50
0.0
 51
90.0
  0
ARC
  5
375
100
AcDbEntity
  8
M0
100
AcDbCircle
 10
89.317874
 20
387.371309
 40
1.0
100
AcDbArc
 50
180.0
 51
270.0
  0
ARC
  5
376
100
AcDbEntity
  8
M0
100
AcDbCircle
 10
91.217874
 20
383.071309
 40
0.5
100
AcDbArc
 50
270.0
 51
360.0
  0
ARC
  5
377
100
AcDbEntity
  8
M0
100
AcDbCircle
 10
106.217874
 20
384.071309
 40
0.5
100
AcDbArc
 50
0.0
 51
90.0
  0
ARC
  5
378
100
AcDbEntity
  8
M0
100
AcDbCircle
 10
106.217874
 20
383.071309
 40
0.5
100
AcDbArc
 50
270.0
 51
360.0
  0
ARC
  5
379
100
AcDbEntity
  8
M0
100
AcDbCircle
 10
91.217874
 20
384.071309
 40
0.5
100
AcDbArc
 50
0.0
 51
90.0
  0
ARC
  5
37A
100
AcDbEntity
  8
M0
100
AcDbCircle
 10
89.217874
 20
383.071309
 40
0.5
100
AcDbArc
 50
180.0
 51
270.0
  0
ARC
  5
37B
100
AcDbEntity
  8
M0
100
AcDbCircle
 10
104.217874
 20
384.071309
 40
0.5
100
AcDbArc
 50
90.0
 51
180.0
  0
ARC
  5
37C
100
AcDbEntity
  8
M0
100
AcDbCircle
 10
104.217874
 20
383.071309
 40
0.5
100
AcDbArc
 50
180.0
 51
270.0
  0
ARC
  5
37D
100
AcDbEntity
  8
M0
100
AcDbCircle
 10
106.117874
 20
387.371309
 40
1.0
100
AcDbArc
 50
270.0
 51
360.0
  0
ARC
  5
37E
100
AcDbEntity
  8
M0
100
AcDbCircle
 10
89.217874
 20
384.071309
 40
0.5
100
AcDbArc
 50
90.0
 51
180.0
  0
LINE
  5
37F
100
AcDbEntity
  8
M0
100
AcDbLine
 10
91.217874
 20
384.571309
 11
89.217873
 21
384.571309
  0
LINE
  5
380
100
AcDbEntity
  8
M0
100
AcDbLine
 10
117.667874
 20
440.871308
 11
118.167873
 21
440.871308
  0
LINE
  5
381
100
AcDbEntity
  8
M0
100
AcDbLine
 10
89.317874
 20
408.771309
 11
91.817873
 21
408.771309
  0
LINE
  5
382
100
AcDbEntity
  8
M0
100
AcDbLine
 10
103.717874
 20
383.071309
 11
103.717874
 21
384.071309
  0
LINE
  5
383
100
AcDbEntity
  8
M0
100
AcDbLine
 10
118.167873
 20
442.571311
 11
117.167873
 21
442.571311
  0
LINE
  5
384
100
AcDbEntity
  8
M0
100
AcDbLine
 10
118.167873
 20
435.571308
 11
117.667874
 21
435.571308
  0
LINE
  5
385
100
AcDbEntity
  8
M0
100
AcDbLine
 10
79.967873
 20
443.071308
 11
79.967873
 21
443.571309
  0
LINE
  5
386
100
AcDbEntity
  8
M0
100
AcDbLine
 10
77.267874
 20
435.571308
 11
77.767873
 21
435.571308
  0
LINE
  5
387
100
AcDbEntity
  8
M0
100
AcDbLine
 10
115.467874
 20
443.071308
 11
115.467874
 21
443.571309
  0
LINE
  5
388
100
AcDbEntity
  8
M0
100
AcDbLine
 10
106.717873
 20
384.071309
 11
106.717873
 21
383.071309
  0
LINE
  5
389
100
AcDbEntity
  8
M0
100
AcDbLine
 10
102.617874
 20
407.771309
 11
102.617874
 21
407.271309
  0
LINE
  5
38A
100
AcDbEntity
  8
M0
100
AcDbLine
 10
71.467874
 20
420.27131
 11
123.967873
 21
420.27131
  0
LINE
  5
38B
100
AcDbEntity
  8
M0
100
AcDbLine
 10
62.217873
 20
380.921308
 11
62.217873
 21
387.421309
  0
LINE
  5
38C
100
AcDbEntity
  8
M0
100
AcDbLine
 10
91.717874
 20
383.071309
 11
91.717874
 21
384.071309
  0
LINE
  5
38D
100
AcDbEntity
  8
M0
100
AcDbLine
 10
104.217874
 20
384.571309
 11
106.217874
 21
384.571309
  0
LINE
  5
38E
100
AcDbEntity
  8
M0
100
AcDbLine
 10
88.717874
 20
384.071309
 11
88.717874
 21
383.071309
  0
LINE
  5
38F
100
AcDbEntity
  8
M0
100
AcDbLine
 10
106.217874
 20
382.571309
 11
104.217874
 21
382.571309
  0
LINE
  5
390
100
AcDbEntity
  8
M0
100
AcDbLine
 10
89.217873
 20
382.571309
 11
91.217874
 21
382.571309
  0
LINE
  5
391
100
AcDbEntity
  8
M0
100
AcDbLine
 10
100.717874
 20
409.771309
 11
100.717874
 21
411.371309
  0
LINE
  5
392
100
AcDbEntity
  8
M0
100
AcDbLine
 10
100.717874
 20
411.371309
 11
94.717874
 21
411.371309
  0
LINE
  5
393
100
AcDbEntity
  8
M0
100
AcDbLine
 10
94.717874
 20
409.771309
 11
94.717874
 21
411.371309
  0
LINE
  5
394
100
AcDbEntity
  8
M0
100
AcDbLine
 10
94.717874
 20
409.771309
 11
100.717874
 21
409.771309
  0
LINE
  5
395
100
AcDbEntity
  8
M0
100
AcDbLine
 10
88.317874
 20
387.371309
 11
88.317874
 21
407.771309
  0
LINE
  5
396
100
AcDbEntity
  8
M0
100
AcDbLine
 10
89.317874
 20
386.371309
 11
106.117873
 21
386.371309
  0
LINE
  5
397
100
AcDbEntity
  8
M0
100
AcDbLine
 10
107.117874
 20
387.371309
 11
107.117874
 21
407.771309
  0
ARC
  5
398
100
AcDbEntity
  8
M0
100
AcDbCircle
 10
70.967874
 20
405.271309
 40
0.5
100
AcDbArc
 50
180.0
 51
270.0
  0
ARC
  5
399
100
AcDbEntity
  8
M0
100
AcDbCircle
 10
124.467874
 20
405.271309
 40
0.5
100
AcDbArc
 50
270.0
 51
360.0
  0
ARC
  5
39A
100
AcDbEntity
  8
M0
100
AcDbCircle
 10
103.617874
 20
407.771309
 40
1.0
100
AcDbArc
 50
90.0
 51
180.0
  0
ARC
  5
39B
100
AcDbEntity
  8
M0
100
AcDbCircle
 10
80.117873
 20
437.821309
 40
4.25
100
AcDbArc
 50
241.927521
 51
270.0
  0
ARC
  5
39C
100
AcDbEntity
  8
M0
100
AcDbCircle
 10
91.817874
 20
407.771309
 40
1.0
100
AcDbArc
 50
0.0
 51
90.0
  0
ARC
  5
39D
100
AcDbEntity
  8
M0
100
AcDbCircle
 10
80.117873
 20
437.821309
 40
4.25
100
AcDbArc
 50
241.927521
 51
298.072495
  0
LINE
  5
39E
100
AcDbEntity
  8
M0
100
AcDbLine
 10
106.117873
 20
408.771309
 11
103.617874
 21
408.771309
  0
ARC
  5
39F
100
AcDbEntity
  8
M0
100
AcDbCircle
 10
71.467874
 20
419.271309
 40
1.0
100
AcDbArc
 50
90.0
 51
180.0
  0
LINE
  5
3A0
100
AcDbEntity
  8
M0
100
AcDbLine
 10
69.217874
 20
380.421309
 11
62.717874
 21
380.421309
  0
LINE
  5
3A1
100
AcDbEntity
  8
M0
100
AcDbLine
 10
126.217874
 20
414.721309
 11
132.717874
 21
414.721309
  0
LINE
  5
3A2
100
AcDbEntity
  8
M0
100
AcDbLine
 10
132.717874
 20
407.221309
 11
126.217874
 21
407.221309
  0
LINE
  5
3A3
100
AcDbEntity
  8
M0
100
AcDbLine
 10
133.217875
 20
414.221309
 11
133.217875
 21
407.721309
  0
ARC
  5
3A4
100
AcDbEntity
  8
M0
100
AcDbCircle
 10
132.717873
 20
379.821309
 40
0.5
100
AcDbArc
 50
0.0
 51
90.0
  0
ARC
  5
3A5
100
AcDbEntity
  8
M0
100
AcDbCircle
 10
132.717874
 20
373.321309
 40
0.5
100
AcDbArc
 50
270.0
 51
360.0
  0
ARC
  5
3A6
100
AcDbEntity
  8
M0
100
AcDbCircle
 10
126.217874
 20
407.721309
 40
0.5
100
AcDbArc
 50
180.0
 51
270.0
  0
ARC
  5
3A7
100
AcDbEntity
  8
M0
100
AcDbCircle
 10
132.717874
 20
407.721309
 40
0.5
100
AcDbArc
 50
270.0
 51
360.0
  0
ARC
  5
3A8
100
AcDbEntity
  8
M0
100
AcDbCircle
 10
126.217873
 20
379.821308
 40
0.5
100
AcDbArc
 50
90.0
 51
180.0
  0
ARC
  5
3A9
100
AcDbEntity
  8
M0
100
AcDbCircle
 10
132.717874
 20
414.221309
 40
0.5
100
AcDbArc
 50
0.0
 51
90.0
  0
ARC
  5
3AA
100
AcDbEntity
  8
M0
100
AcDbCircle
 10
126.217874
 20
414.221309
 40
0.5
100
AcDbArc
 50
90.0
 51
180.0
  0
ARC
  5
3AB
100
AcDbEntity
  8
M0
100
AcDbCircle
 10
62.717874
 20
380.921309
 40
0.5
100
AcDbArc
 50
180.0
 51
270.0
  0
LINE
  5
3AC
100
AcDbEntity
  8
M0
100
AcDbLine
 10
125.717875
 20
407.721309
 11
125.717875
 21
414.22131
  0
LINE
  5
3AD
100
AcDbEntity
  8
M0
  6
DASHDOT
100
AcDbLine
 10
141.167873
 20
397.571309
 11
54.267875
 21
397.571309
  0
LINE
  5
3AE
100
AcDbEntity
  8
M0
  6
DASHDOT
100
AcDbLine
 10
97.717874
 20
350.071309
 11
97.717874
 21
449.07131
  0
ARC
  5
3AF
100
AcDbEntity
  8
M0
100
AcDbCircle
 10
92.917874
 20
401.840263
 40
0.5
100
AcDbArc
 50
90.0
 51
180.0
  0
ARC
  5
3B0
100
AcDbEntity
  8
M0
100
AcDbCircle
 10
102.517874
 20
401.840263
 40
0.5
100
AcDbArc
 50
0.0
 51
90.0
  0
LINE
  5
3B1
100
AcDbEntity
  8
M0
100
AcDbLine
 10
69.217874
 20
407.221309
 11
62.717874
 21
407.221309
  0
LINE
  5
3B2
100
AcDbEntity
  8
M0
100
AcDbLine
 10
62.717873
 20
414.721309
 11
69.217874
 21
414.721309
  0
LINE
  5
3B3
100
AcDbEntity
  8
M0
100
AcDbLine
 10
69.717873
 20
387.421309
 11
69.717873
 21
380.921309
  0
LINE
  5
3B4
100
AcDbEntity
  8
M0
100
AcDbLine
 10
132.717874
 20
380.421309
 11
126.217874
 21
380.421309
  0
LINE
  5
3B5
100
AcDbEntity
  8
M0
100
AcDbLine
 10
62.717874
 20
387.921309
 11
69.217874
 21
387.921309
  0
ARC
  5
3B6
100
AcDbEntity
  8
M0
100
AcDbCircle
 10
69.217873
 20
414.221309
 40
0.5
100
AcDbArc
 50
0.0
 51
90.0
  0
ARC
  5
3B7
100
AcDbEntity
  8
M0
100
AcDbCircle
 10
69.217874
 20
387.421309
 40
0.5
100
AcDbArc
 50
0.0
 51
90.0
  0
ARC
  5
3B8
100
AcDbEntity
  8
M0
100
AcDbCircle
 10
69.217874
 20
380.921309
 40
0.5
100
AcDbArc
 50
270.0
 51
360.0
  0
ARC
  5
3B9
100
AcDbEntity
  8
M0
100
AcDbCircle
 10
62.717874
 20
387.421309
 40
0.5
100
AcDbArc
 50
90.0
 51
180.0
  0
ARC
  5
3BA
100
AcDbEntity
  8
M0
100
AcDbCircle
 10
62.717873
 20
414.221308
 40
0.5
100
AcDbArc
 50
90.0
 51
180.0
  0
ARC
  5
3BB
100
AcDbEntity
  8
M0
100
AcDbCircle
 10
62.717874
 20
407.721308
 40
0.5
100
AcDbArc
 50
180.0
 51
270.0
  0
ARC
  5
3BC
100
AcDbEntity
  8
M0
100
AcDbCircle
 10
62.717874
 20
407.721308
 40
0.5
100
AcDbArc
 50
180.0
 51
270.0
  0
ARC
  5
3BD
100
AcDbEntity
  8
M0
100
AcDbCircle
 10
69.217874
 20
407.721309
 40
0.5
100
AcDbArc
 50
270.0
 51
360.0
  0
LINE
  5
3BE
100
AcDbEntity
  8
M0
100
AcDbLine
 10
133.217875
 20
380.92131
 11
133.217875
 21
387.421309
  0
LINE
  5
3BF
100
AcDbEntity
  8
M0
100
AcDbLine
 10
126.217874
 20
387.921309
 11
132.717873
 21
387.921309
  0
LINE
  5
3C0
100
AcDbEntity
  8
M0
100
AcDbLine
 10
69.217874
 20
372.821309
 11
62.717874
 21
372.821309
  0
ARC
  5
3C1
100
AcDbEntity
  8
M0
100
AcDbCircle
 10
132.717873
 20
387.421309
 40
0.5
100
AcDbArc
 50
0.0
 51
90.0
  0
ARC
  5
3C2
100
AcDbEntity
  8
M0
100
AcDbCircle
 10
62.717873
 20
414.221308
 40
0.5
100
AcDbArc
 50
90.0
 51
180.0
  0
ARC
  5
3C3
100
AcDbEntity
  8
M0
100
AcDbCircle
 10
126.217874
 20
380.921308
 40
0.5
100
AcDbArc
 50
180.0
 51
270.0
  0
ARC
  5
3C4
100
AcDbEntity
  8
M0
100
AcDbCircle
 10
126.217873
 20
387.421308
 40
0.5
100
AcDbArc
 50
90.0
 51
180.0
  0
ARC
  5
3C5
100
AcDbEntity
  8
M0
100
AcDbCircle
 10
132.717873
 20
387.421309
 40
0.5
100
AcDbArc
 50
0.0
 51
90.0
  0
ARC
  5
3C6
100
AcDbEntity
  8
M0
100
AcDbCircle
 10
132.717874
 20
380.921309
 40
0.5
100
AcDbArc
 50
270.0
 51
360.0
  0
ARC
  5
3C7
100
AcDbEntity
  8
M0
100
AcDbCircle
 10
132.717874
 20
380.921309
 40
0.5
100
AcDbArc
 50
270.0
 51
360.0
  0
LINE
  5
3C8
100
AcDbEntity
  8
M0
100
AcDbLine
 10
62.217873
 20
414.221308
 11
62.217873
 21
407.721308
  0
LINE
  5
3C9
100
AcDbEntity
  8
M0
100
AcDbLine
 10
133.217875
 20
379.821309
 11
133.217875
 21
373.321309
  0
LINE
  5
3CA
100
AcDbEntity
  8
M0
100
AcDbLine
 10
125.717875
 20
373.321308
 11
125.717875
 21
379.821308
  0
LINE
  5
3CB
100
AcDbEntity
  8
M0
100
AcDbLine
 10
126.217873
 20
380.321309
 11
132.717874
 21
380.321309
  0
LINE
  5
3CC
100
AcDbEntity
  8
M0
100
AcDbLine
 10
132.717874
 20
372.821309
 11
126.217874
 21
372.821309
  0
ARC
  5
3CD
100
AcDbEntity
  8
M0
100
AcDbCircle
 10
69.817874
 20
358.571309
 40
0.5
100
AcDbArc
 50
180.0
 51
270.0
  0
LINE
  5
3CE
100
AcDbEntity
  8
M0
100
AcDbLine
 10
125.717875
 20
380.921308
 11
125.717875
 21
387.421308
  0
ARC
  5
3CF
100
AcDbEntity
  8
M0
100
AcDbCircle
 10
126.167874
 20
437.071309
 40
2.0
100
AcDbArc
 50
90.0
 51
126.869898
  0
ARC
  5
3D0
100
AcDbEntity
  8
M0
100
AcDbCircle
 10
69.267874
 20
437.071309
 40
2.0
100
AcDbArc
 50
53.130102
 51
90.0
  0
LINE
  5
3D1
100
AcDbEntity
  8
M0
100
AcDbLine
 10
62.717874
 20
380.321309
 11
69.217874
 21
380.321309
  0
ARC
  5
3D2
100
AcDbEntity
  8
M0
100
AcDbCircle
 10
62.717874
 20
373.321309
 40
0.5
100
AcDbArc
 50
180.0
 51
270.0
  0
ARC
  5
3D3
100
AcDbEntity
  8
M0
100
AcDbCircle
 10
69.217874
 20
373.321309
 40
0.5
100
AcDbArc
 50
270.0
 51
360.0
  0
ARC
  5
3D4
100
AcDbEntity
  8
M0
100
AcDbCircle
 10
78.517874
 20
434.921309
 40
0.5
100
AcDbArc
 50
180.0
 51
270.0
  0
ARC
  5
3D5
100
AcDbEntity
  8
M0
100
AcDbCircle
 10
85.017874
 20
434.921309
 40
0.5
100
AcDbArc
 50
270.0
 51
360.0
  0
ARC
  5
3D6
100
AcDbEntity
  8
M0
100
AcDbCircle
 10
62.717874
 20
379.821309
 40
0.5
100
AcDbArc
 50
90.0
 51
180.0
  0
ARC
  5
3D7
100
AcDbEntity
  8
M0
100
AcDbCircle
 10
85.017874
 20
441.421309
 40
0.5
100
AcDbArc
 50
0.0
 51
90.0
  0
ARC
  5
3D8
100
AcDbEntity
  8
M0
100
AcDbCircle
 10
126.217874
 20
373.321308
 40
0.5
100
AcDbArc
 50
180.0
 51
270.0
  0
ARC
  5
3D9
100
AcDbEntity
  8
M0
100
AcDbCircle
 10
132.717873
 20
379.821309
 40
0.5
100
AcDbArc
 50
0.0
 51
90.0
  0
ARC
  5
3DA
100
AcDbEntity
  8
M0
100
AcDbCircle
 10
123.967874
 20
439.071309
 40
1.0
100
AcDbArc
 50
0.0
 51
90.0
  0
ARC
  5
3DB
100
AcDbEntity
  8
M0
100
AcDbCircle
 10
69.217874
 20
379.821309
 40
0.5
100
AcDbArc
 50
0.0
 51
90.0
  0
ARC
  5
3DC
100
AcDbEntity
  8
M0
100
AcDbCircle
 10
132.717874
 20
373.321309
 40
0.5
100
AcDbArc
 50
270.0
 51
360.0
  0
LINE
  5
3DD
100
AcDbEntity
  8
M0
100
AcDbLine
 10
78.017874
 20
434.921308
 11
78.017874
 21
441.421309
  0
LINE
  5
3DE
100
AcDbEntity
  8
M0
100
AcDbLine
 10
85.017874
 20
434.421311
 11
78.517874
 21
434.421311
  0
LINE
  5
3DF
100
AcDbEntity
  8
M0
100
AcDbLine
 10
133.217875
 20
421.82131
 11
133.217875
 21
415.321309
  0
LINE
  5
3E0
100
AcDbEntity
  8
M0
100
AcDbLine
 10
62.217873
 20
373.321308
 11
62.217873
 21
379.821309
  0
LINE
  5
3E1
100
AcDbEntity
  8
M0
100
AcDbLine
 10
69.717873
 20
379.821309
 11
69.717873
 21
373.321308
  0
LINE
  5
3E2
100
AcDbEntity
  8
M0
100
AcDbLine
 10
85.517874
 20
441.421309
 11
85.517874
 21
434.921308
  0
LINE
  5
3E3
100
AcDbEntity
  8
M0
100
AcDbLine
 10
126.217874
 20
422.321309
 11
132.717874
 21
422.321309
  0
LINE
  5
3E4
100
AcDbEntity
  8
M0
100
AcDbLine
 10
125.717875
 20
415.32131
 11
125.717875
 21
421.821309
  0
LINE
  5
3E5
100
AcDbEntity
  8
M0
100
AcDbLine
 10
132.717874
 20
414.821309
 11
126.217874
 21
414.821309
  0
LINE
  5
3E6
100
AcDbEntity
  8
M0
100
AcDbLine
 10
78.517874
 20
441.921307
 11
85.017874
 21
441.921307
  0
LINE
  5
3E7
100
AcDbEntity
  8
M0
100
AcDbLine
 10
109.917874
 20
434.921308
 11
109.917871
 21
441.421308
  0
LINE
  5
3E8
100
AcDbEntity
  8
M0
100
AcDbLine
 10
122.267874
 20
356.071311
 11
122.267874
 21
358.071307
  0
LINE
  5
3E9
100
AcDbEntity
  8
M0
100
AcDbLine
 10
87.067874
 20
358.071307
 11
87.067874
 21
356.071311
  0
LINE
  5
3EA
100
AcDbEntity
  8
M0
100
AcDbLine
 10
134.367872
 20
377.47131
 11
134.467874
 21
377.47131
  0
LINE
  5
3EB
100
AcDbEntity
  8
M0
100
AcDbLine
 10
134.467874
 20
417.671308
 11
134.367872
 21
417.671308
  0
LINE
  5
3EC
100
AcDbEntity
  8
M0
100
AcDbLine
 10
60.967874
 20
417.671308
 11
61.067875
 21
417.671308
  0
LINE
  5
3ED
100
AcDbEntity
  8
M0
100
AcDbLine
 10
61.067875
 20
377.47131
 11
60.967874
 21
377.47131
  0
LINE
  5
3EE
100
AcDbEntity
  8
M0
100
AcDbLine
 10
116.917874
 20
434.421307
 11
110.417874
 21
434.421307
  0
LINE
  5
3EF
100
AcDbEntity
  8
M0
100
AcDbLine
 10
62.217873
 20
421.821308
 11
62.217873
 21
415.321308
  0
LINE
  5
3F0
100
AcDbEntity
  8
M0
100
AcDbLine
 10
69.717875
 20
421.821309
 11
69.717875
 21
415.32131
  0
ARC
  5
3F1
100
AcDbEntity
  8
M0
100
AcDbCircle
 10
80.367874
 20
358.071309
 40
2.65
100
AcDbArc
 50
324.234014
 51
350.223151
  0
ARC
  5
3F2
100
AcDbEntity
  8
M0
100
AcDbCircle
 10
110.417873
 20
441.421308
 40
0.5
100
AcDbArc
 50
90.0
 51
180.0
  0
ARC
  5
3F3
100
AcDbEntity
  8
M0
100
AcDbCircle
 10
62.717874
 20
415.321308
 40
0.5
100
AcDbArc
 50
180.0
 51
270.0
  0
ARC
  5
3F4
100
AcDbEntity
  8
M0
100
AcDbCircle
 10
110.417874
 20
434.921308
 40
0.5
100
AcDbArc
 50
180.0
 51
270.0
  0
ARC
  5
3F5
100
AcDbEntity
  8
M0
100
AcDbCircle
 10
116.917874
 20
434.921309
 40
0.5
100
AcDbArc
 50
270.0
 51
360.0
  0
ARC
  5
3F6
100
AcDbEntity
  8
M0
100
AcDbCircle
 10
62.717873
 20
421.821308
 40
0.5
100
AcDbArc
 50
90.0
 51
180.0
  0
ARC
  5
3F7
100
AcDbEntity
  8
M0
100
AcDbCircle
 10
116.917873
 20
441.421309
 40
0.5
100
AcDbArc
 50
0.0
 51
90.0
  0
LINE
  5
3F8
100
AcDbEntity
  8
M0
100
AcDbLine
 10
117.417874
 20
434.921308
 11
117.417874
 21
441.421309
  0
LINE
  5
3F9
100
AcDbEntity
  8
M0
100
AcDbLine
 10
110.417873
 20
441.921311
 11
116.917873
 21
441.921311
  0
ARC
  5
3FA
100
AcDbEntity
  8
M0
100
AcDbCircle
 10
69.217874
 20
415.321309
 40
0.5
100
AcDbArc
 50
270.0
 51
360.0
  0
ARC
  5
3FB
100
AcDbEntity
  8
M0
100
AcDbCircle
 10
69.217873
 20
421.821309
 40
0.5
100
AcDbArc
 50
0.0
 51
90.0
  0
ARC
  5
3FC
100
AcDbEntity
  8
M0
100
AcDbCircle
 10
116.917874
 20
434.921309
 40
0.5
100
AcDbArc
 50
270.0
 51
360.0
  0
ARC
  5
3FD
100
AcDbEntity
  8
M0
100
AcDbCircle
 10
78.517874
 20
441.421309
 40
0.5
100
AcDbArc
 50
90.0
 51
180.0
  0
ARC
  5
3FE
100
AcDbEntity
  8
M0
100
AcDbCircle
 10
126.217874
 20
421.821309
 40
0.5
100
AcDbArc
 50
90.0
 51
180.0
  0
LINE
  5
3FF
100
AcDbEntity
  8
M0
100
AcDbLine
 10
69.217874
 20
414.82131
 11
62.717875
 21
414.821303
  0
ARC
  5
400
100
AcDbEntity
  8
M0
100
AcDbCircle
 10
132.717874
 20
415.321309
 40
0.5
100
AcDbArc
 50
270.0
 51
360.0
  0
ARC
  5
401
100
AcDbEntity
  8
M0
100
AcDbCircle
 10
116.917873
 20
441.421309
 40
0.5
100
AcDbArc
 50
0.0
 51
90.0
  0
ARC
  5
402
100
AcDbEntity
  8
M0
100
AcDbCircle
 10
132.717874
 20
421.821309
 40
0.5
100
AcDbArc
 50
0.0
 51
90.0
  0
ARC
  5
403
100
AcDbEntity
  8
M0
100
AcDbCircle
 10
62.717873
 20
421.821308
 40
0.5
100
AcDbArc
 50
90.0
 51
180.0
  0
ARC
  5
404
100
AcDbEntity
  8
M0
100
AcDbCircle
 10
62.717874
 20
415.321308
 40
0.5
100
AcDbArc
 50
180.0
 51
270.0
  0
ARC
  5
405
100
AcDbEntity
  8
M0
100
AcDbCircle
 10
126.217874
 20
415.321309
 40
0.5
100
AcDbArc
 50
180.0
 51
270.0
  0
LINE
  5
406
100
AcDbEntity
  8
M0
100
AcDbLine
 10
122.267874
 20
374.671309
 11
122.267874
 21
374.871308
  0
LINE
  5
407
100
AcDbEntity
  8
M0
100
AcDbLine
 10
122.267874
 20
420.27131
 11
122.267874
 21
420.471309
  0
LINE
  5
408
100
AcDbEntity
  8
M0
100
AcDbLine
 10
61.067875
 20
424.921308
 11
60.267873
 21
424.921308
  0
LINE
  5
409
100
AcDbEntity
  8
M0
100
AcDbLine
 10
134.367872
 20
424.921308
 11
135.167874
 21
424.921308
  0
LINE
  5
40A
100
AcDbEntity
  8
M0
100
AcDbLine
 10
73.167873
 20
374.671309
 11
73.167873
 21
374.871308
  0
LINE
  5
40B
100
AcDbEntity
  8
M0
100
AcDbLine
 10
90.767874
 20
374.871308
 11
90.767874
 21
356.071309
  0
LINE
  5
40C
100
AcDbEntity
  8
M0
100
AcDbLine
 10
62.067874
 20
402.271309
 11
62.067874
 21
423.92131
  0
LINE
  5
40D
100
AcDbEntity
  8
M0
100
AcDbLine
 10
69.867873
 20
388.38163
 11
69.867873
 21
370.821309
  0
LINE
  5
40E
100
AcDbEntity
  8
M0
100
AcDbLine
 10
69.867873
 20
424.321309
 11
69.867873
 21
406.759556
  0
LINE
  5
40F
100
AcDbEntity
  8
M0
100
AcDbLine
 10
125.567874
 20
406.871309
 11
133.367874
 21
406.871309
  0
LINE
  5
410
100
AcDbEntity
  8
M0
100
AcDbLine
 10
135.167874
 20
370.22131
 11
134.367872
 21
370.22131
  0
LINE
  5
411
100
AcDbEntity
  8
M0
100
AcDbLine
 10
129.867874
 20
401.271309
 11
129.867874
 21
393.871309
  0
ARC
  5
412
100
AcDbEntity
  8
M0
100
AcDbCircle
 10
122.525882
 20
386.977267
 40
3.350514
100
AcDbArc
 50
24.780822
 51
43.210715
  0
ARC
  5
413
100
AcDbEntity
  8
M0
100
AcDbCircle
 10
60.267874
 20
378.471309
 40
1.0
100
AcDbArc
 50
180.0
 51
270.0
  0
ARC
  5
414
100
AcDbEntity
  8
M0
100
AcDbCircle
 10
134.367874
 20
423.921309
 40
1.0
100
AcDbArc
 50
90.0
 51
180.0
  0
ARC
  5
415
100
AcDbEntity
  8
M0
100
AcDbCircle
 10
120.671006
 20
409.420565
 40
5.573176
100
AcDbArc
 50
320.442941
 51
331.479874
  0
ARC
  5
416
100
AcDbEntity
  8
M0
100
AcDbCircle
 10
74.764741
 20
409.420565
 40
5.573176
100
AcDbArc
 50
208.520126
 51
219.557059
  0
ARC
  5
417
100
AcDbEntity
  8
M0
100
AcDbCircle
 10
70.467874
 20
417.071309
 40
0.6
100
AcDbArc
 50
90.0
 51
180.0
  0
ARC
  5
418
100
AcDbEntity
  8
M0
100
AcDbCircle
 10
124.967874
 20
417.071309
 40
0.6
100
AcDbArc
 50
0.0
 51
90.0
  0
ARC
  5
419
100
AcDbEntity
  8
M0
100
AcDbCircle
 10
60.267874
 20
423.921309
 40
1.0
100
AcDbArc
 50
90.0
 51
180.0
  0
ARC
  5
41A
100
AcDbEntity
  8
M0
100
AcDbCircle
 10
61.067874
 20
423.921309
 40
1.0
100
AcDbArc
 50
0.0
 51
90.0
  0
ARC
  5
41B
100
AcDbEntity
  8
M0
100
AcDbCircle
 10
134.367874
 20
371.221309
 40
1.0
100
AcDbArc
 50
180.0
 51
270.0
  0
LINE
  5
41C
100
AcDbEntity
  8
M0
100
AcDbLine
 10
135.167874
 20
377.47131
 11
134.367872
 21
377.47131
  0
LINE
  5
41D
100
AcDbEntity
  8
M0
100
AcDbLine
 10
60.267873
 20
377.47131
 11
61.067875
 21
377.47131
  0
LINE
  5
41E
100
AcDbEntity
  8
M0
100
AcDbLine
 10
65.567873
 20
401.271309
 11
65.567873
 21
393.871309
  0
LINE
  5
41F
100
AcDbEntity
  8
M0
100
AcDbLine
 10
95.967874
 20
394.871309
 11
95.967874
 21
401.818815
  0
LINE
  5
420
100
AcDbEntity
  8
M0
100
AcDbLine
 10
103.017874
 20
402.271309
 11
103.017874
 21
393.776297
  0
LINE
  5
421
100
AcDbEntity
  8
M0
100
AcDbLine
 10
92.417874
 20
402.271309
 11
92.417874
 21
393.776297
  0
LINE
  5
422
100
AcDbEntity
  8
M0
100
AcDbLine
 10
103.017874
 20
393.278778
 11
103.017874
 21
393.776297
  0
LINE
  5
423
100
AcDbEntity
  8
M0
100
AcDbLine
 10
96.467874
 20
394.371309
 11
98.967874
 21
394.371309
  0
LINE
  5
424
100
AcDbEntity
  8
M0
100
AcDbLine
 10
92.417874
 20
393.278778
 11
92.417874
 21
393.776297
  0
LINE
  5
425
100
AcDbEntity
  8
M0
100
AcDbLine
 10
69.867873
 20
406.871309
 11
62.067874
 21
406.871309
  0
LINE
  5
426
100
AcDbEntity
  8
M0
100
AcDbLine
 10
134.367872
 20
401.271309
 11
129.867874
 21
401.271309
  0
LINE
  5
427
100
AcDbEntity
  8
M0
100
AcDbLine
 10
125.567874
 20
424.321309
 11
125.567874
 21
406.787824
  0
LINE
  5
428
100
AcDbEntity
  8
M0
100
AcDbLine
 10
60.267873
 20
393.871309
 11
65.567873
 21
393.871309
  0
LINE
  5
429
100
AcDbEntity
  8
M0
100
AcDbLine
 10
133.367874
 20
388.271309
 11
125.567874
 21
388.271309
  0
LINE
  5
42A
100
AcDbEntity
  8
M0
100
AcDbLine
 10
129.867874
 20
393.871309
 11
134.367872
 21
393.871309
  0
LINE
  5
42B
100
AcDbEntity
  8
M0
100
AcDbLine
 10
62.067874
 20
388.271309
 11
69.867873
 21
388.271309
  0
LINE
  5
42C
100
AcDbEntity
  8
M0
100
AcDbLine
 10
122.267874
 20
436.071309
 11
122.267874
 21
437.071311
  0
LINE
  5
42D
100
AcDbEntity
  8
M0
100
AcDbLine
 10
87.067874
 20
442.571311
 11
87.067874
 21
420.27131
  0
LINE
  5
42E
100
AcDbEntity
  8
M0
100
AcDbLine
 10
122.267874
 20
358.071307
 11
122.267874
 21
359.071309
  0
LINE
  5
42F
100
AcDbEntity
  8
M0
100
AcDbLine
 10
108.367873
 20
359.071309
 11
108.367873
 21
358.071307
  0
LINE
  5
430
100
AcDbEntity
  8
M0
100
AcDbLine
 10
73.167873
 20
358.071307
 11
73.167873
 21
359.071309
  0
LINE
  5
431
100
AcDbEntity
  8
M0
100
AcDbLine
 10
91.267873
 20
408.571309
 11
91.667874
 21
408.571309
  0
LINE
  5
432
100
AcDbEntity
  8
M0
100
AcDbLine
 10
103.767874
 20
408.571309
 11
104.167874
 21
408.571309
  0
LINE
  5
433
100
AcDbEntity
  8
M0
100
AcDbLine
 10
135.167874
 20
393.871309
 11
135.167874
 21
401.271309
  0
LINE
  5
434
100
AcDbEntity
  8
M0
100
AcDbLine
 10
133.867875
 20
401.271309
 11
133.867875
 21
393.871309
  0
LINE
  5
435
100
AcDbEntity
  8
M0
100
AcDbLine
 10
60.267873
 20
393.871309
 11
60.267873
 21
401.271309
  0
LINE
  5
436
100
AcDbEntity
  8
M0
100
AcDbLine
 10
61.567873
 20
401.271309
 11
61.567873
 21
393.871309
  0
LINE
  5
437
100
AcDbEntity
  8
M0
100
AcDbLine
 10
122.267874
 20
437.071311
 11
122.267874
 21
439.071307
  0
LINE
  5
438
100
AcDbEntity
  8
M0
100
AcDbLine
 10
73.167873
 20
420.27131
 11
73.167873
 21
439.071307
  0
LINE
  5
439
100
AcDbEntity
  8
M0
100
AcDbLine
 10
133.367874
 20
371.221308
 11
133.367874
 21
392.871309
  0
LINE
  5
43A
100
AcDbEntity
  8
M0
100
AcDbLine
 10
125.567874
 20
388.38163
 11
125.567874
 21
370.821309
  0
LINE
  5
43B
100
AcDbEntity
  8
M0
100
AcDbLine
 10
62.067874
 20
371.221308
 11
62.067874
 21
392.871309
  0
ARC
  5
43C
100
AcDbEntity
  8
M0
100
AcDbCircle
 10
61.067874
 20
392.871309
 40
1.0
100
AcDbArc
 50
0.0
 51
90.0
  0
ARC
  5
43D
100
AcDbEntity
  8
M0
100
AcDbCircle
 10
135.167874
 20
378.471309
 40
1.0
100
AcDbArc
 50
270.0
 51
360.0
  0
ARC
  5
43E
100
AcDbEntity
  8
M0
100
AcDbCircle
 10
134.367874
 20
378.471309
 40
1.0
100
AcDbArc
 50
180.0
 51
270.0
  0
ARC
  5
43F
100
AcDbEntity
  8
M0
100
AcDbCircle
 10
72.909865
 20
386.977267
 40
3.350514
100
AcDbArc
 50
136.789285
 51
155.219178
  0
ARC
  5
440
100
AcDbEntity
  8
M0
100
AcDbCircle
 10
70.467874
 20
378.071309
 40
0.6
100
AcDbArc
 50
180.0
 51
270.0
  0
ARC
  5
441
100
AcDbEntity
  8
M0
100
AcDbCircle
 10
61.067874
 20
378.471309
 40
1.0
100
AcDbArc
 50
270.0
 51
360.0
  0
LINE
  5
442
100
AcDbEntity
  8
M0
100
AcDbLine
 10
73.167873
 20
356.071311
 11
73.167873
 21
358.071307
  0
ARC
  5
443
100
AcDbEntity
  8
M0
100
AcDbCircle
 10
124.967874
 20
378.071309
 40
0.6
100
AcDbArc
 50
270.0
 51
360.0
  0
LINE
  5
444
100
AcDbEntity
  8
M0
100
AcDbLine
 10
108.367873
 20
358.071307
 11
108.367873
 21
356.071311
  0
LINE
  5
445
100
AcDbEntity
  8
M0
100
AcDbLine
 10
82.979387
 20
358.521307
 11
82.657887
 21
358.521307
  0
LINE
  5
446
100
AcDbEntity
  8
M0
100
AcDbLine
 10
82.594953
 20
357.621311
 11
82.979387
 21
357.621311
  0
LINE
  5
447
100
AcDbEntity
  8
M0
100
AcDbLine
 10
62.717874
 20
422.321309
 11
69.217873
 21
422.321309
  0
LINE
  5
448
100
AcDbEntity
  8
M0
100
AcDbLine
 10
112.456361
 20
357.621311
 11
112.840795
 21
357.621311
  0
LINE
  5
449
100
AcDbEntity
  8
M0
100
AcDbLine
 10
112.777861
 20
358.521307
 11
112.456361
 21
358.521307
  0
ARC
  5
44A
100
AcDbEntity
  8
M0
100
AcDbCircle
 10
80.367874
 20
358.071309
 40
2.65
100
AcDbArc
 50
9.776849
 51
27.519543
  0
ARC
  5
44B
100
AcDbEntity
  8
M0
100
AcDbCircle
 10
80.367874
 20
358.071309
 40
2.65
100
AcDbArc
 50
350.223151
 51
369.776849
  0
ARC
  5
44C
100
AcDbEntity
  8
M0
100
AcDbCircle
 10
115.067874
 20
358.071309
 40
2.65
100
AcDbArc
 50
152.234014
 51
170.223151
  0
ARC
  5
44D
100
AcDbEntity
  8
M0
100
AcDbCircle
 10
115.067874
 20
358.071309
 40
2.65
100
AcDbArc
 50
189.776849
 51
215.765986
  0
LINE
  5
44E
100
AcDbEntity
  8
M0
100
AcDbLine
 10
99.467874
 20
394.871309
 11
99.467874
 21
401.818815
  0
LINE
  5
44F
100
AcDbEntity
  8
M0
100
AcDbLine
 10
104.667874
 20
434.071308
 11
90.767874
 21
434.071308
  0
LINE
  5
450
100
AcDbEntity
  8
M0
100
AcDbLine
 10
103.017874
 20
401.840263
 11
103.017874
 21
401.818815
  0
LINE
  5
451
100
AcDbEntity
  8
M0
100
AcDbLine
 10
132.467873
 20
371.771308
 11
126.467874
 21
371.771308
  0
LINE
  5
452
100
AcDbEntity
  8
M0
100
AcDbLine
 10
132.467873
 20
372.821309
 11
132.467873
 21
371.771308
  0
LINE
  5
453
100
AcDbEntity
  8
M0
100
AcDbLine
 10
125.567874
 20
373.271309
 11
125.72038
 21
373.271309
  0
ARC
  5
454
100
AcDbEntity
  8
M0
100
AcDbCircle
 10
135.167874
 20
371.221309
 40
1.0
100
AcDbArc
 50
270.0
 51
360.0
  0
ARC
  5
455
100
AcDbEntity
  8
M0
100
AcDbCircle
 10
70.467874
 20
424.321309
 40
0.6
100
AcDbArc
 50
90.0
 51
180.0
  0
ARC
  5
456
100
AcDbEntity
  8
M0
100
AcDbCircle
 10
61.067874
 20
371.221309
 40
1.0
100
AcDbArc
 50
270.0
 51
360.0
  0
ARC
  5
457
100
AcDbEntity
  8
M0
100
AcDbCircle
 10
135.167874
 20
423.921309
 40
1.0
100
AcDbArc
 50
0.0
 51
90.0
  0
ARC
  5
458
100
AcDbEntity
  8
M0
100
AcDbCircle
 10
124.967874
 20
424.321309
 40
0.6
100
AcDbArc
 50
0.0
 51
90.0
  0
ARC
  5
459
100
AcDbEntity
  8
M0
100
AcDbCircle
 10
124.967874
 20
370.821309
 40
0.6
100
AcDbArc
 50
270.0
 51
360.0
  0
LINE
  5
45A
100
AcDbEntity
  8
M0
100
AcDbLine
 10
95.967874
 20
401.818815
 11
95.967874
 21
401.840263
  0
LINE
  5
45B
100
AcDbEntity
  8
M0
100
AcDbLine
 10
99.467874
 20
401.818815
 11
99.467874
 21
401.840263
  0
LINE
  5
45C
100
AcDbEntity
  8
M0
100
AcDbLine
 10
92.417874
 20
401.840263
 11
92.417874
 21
401.818815
  0
LINE
  5
45D
100
AcDbEntity
  8
M0
100
AcDbLine
 10
92.417874
 20
393.278778
 11
92.417874
 21
392.871309
  0
ARC
  5
45E
100
AcDbEntity
  8
M0
100
AcDbCircle
 10
70.467874
 20
370.821309
 40
0.6
100
AcDbArc
 50
180.0
 51
270.0
  0
LINE
  5
45F
100
AcDbEntity
  8
M0
100
AcDbLine
 10
126.467874
 20
371.771308
 11
126.467874
 21
372.821309
  0
LINE
  5
460
100
AcDbEntity
  8
M0
100
AcDbLine
 10
92.917873
 20
392.371309
 11
92.167874
 21
392.371309
  0
LINE
  5
461
100
AcDbEntity
  8
M0
100
AcDbLine
 10
103.017874
 20
393.278778
 11
103.017874
 21
392.871309
  0
LINE
  5
462
100
AcDbEntity
  8
M0
100
AcDbLine
 10
101.867874
 20
402.771309
 11
101.867874
 21
403.071309
  0
LINE
  5
463
100
AcDbEntity
  8
M0
100
AcDbLine
 10
92.167874
 20
402.771309
 11
103.267874
 21
402.771309
  0
LINE
  5
464
100
AcDbEntity
  8
M0
100
AcDbLine
 10
92.917873
 20
392.371309
 11
102.517874
 21
392.371309
  0
LINE
  5
465
100
AcDbEntity
  8
M0
100
AcDbLine
 10
108.367873
 20
430.771308
 11
108.367873
 21
433.571307
  0
LINE
  5
466
100
AcDbEntity
  8
M0
100
AcDbLine
 10
93.567874
 20
402.771309
 11
93.567874
 21
403.071309
  0
LINE
  5
467
100
AcDbEntity
  8
M0
100
AcDbLine
 10
83.459701
 20
361.071309
 11
87.067874
 21
361.071309
  0
LINE
  5
468
100
AcDbEntity
  8
M0
100
AcDbLine
 10
101.867874
 20
391.871309
 11
101.867874
 21
392.371309
  0
LINE
  5
469
100
AcDbEntity
  8
M0
100
AcDbLine
 10
113.317873
 20
434.071308
 11
108.367873
 21
434.071308
  0
LINE
  5
46A
100
AcDbEntity
  8
M0
100
AcDbLine
 10
119.290852
 20
361.071309
 11
122.267874
 21
361.071309
  0
LINE
  5
46B
100
AcDbEntity
  8
M0
100
AcDbLine
 10
101.346643
 20
361.071309
 11
104.667874
 21
361.071309
  0
LINE
  5
46C
100
AcDbEntity
  8
M0
100
AcDbLine
 10
122.267874
 20
434.071308
 11
117.317874
 21
434.071308
  0
LINE
  5
46D
100
AcDbEntity
  8
M0
100
AcDbLine
 10
108.367873
 20
361.071309
 11
111.976046
 21
361.071309
  0
LINE
  5
46E
100
AcDbEntity
  8
M0
100
AcDbLine
 10
90.767874
 20
361.071309
 11
94.089105
 21
361.071309
  0
LINE
  5
46F
100
AcDbEntity
  8
M0
100
AcDbLine
 10
93.567874
 20
391.871309
 11
93.567874
 21
392.371309
  0
LINE
  5
470
100
AcDbEntity
  8
M0
100
AcDbLine
 10
73.167873
 20
361.071309
 11
76.144895
 21
361.071309
  0
LINE
  5
471
100
AcDbEntity
  8
M0
100
AcDbLine
 10
102.517874
 20
392.371309
 11
103.267874
 21
392.371309
  0
LINE
  5
472
100
AcDbEntity
  8
M0
100
AcDbLine
 10
117.667874
 20
442.07131
 11
117.167873
 21
442.571311
  0
LINE
  5
473
100
AcDbEntity
  8
M0
100
AcDbLine
 10
117.667874
 20
434.071308
 11
117.667874
 21
442.07131
  0
ARC
  5
474
100
AcDbEntity
  8
M0
100
AcDbCircle
 10
92.917874
 20
402.271309
 40
0.5
100
AcDbArc
 50
90.0
 51
180.0
  0
ARC
  5
475
100
AcDbEntity
  8
M0
100
AcDbCircle
 10
92.917874
 20
392.871309
 40
0.5
100
AcDbArc
 50
180.0
 51
270.0
  0
ARC
  5
476
100
AcDbEntity
  8
M0
100
AcDbCircle
 10
98.967874
 20
394.871309
 40
0.5
100
AcDbArc
 50
270.0
 51
360.0
  0
LINE
  5
477
100
AcDbEntity
  8
M0
100
AcDbLine
 10
125.567874
 20
380.371308
 11
133.367874
 21
380.371308
  0
ARC
  5
478
100
AcDbEntity
  8
M0
100
AcDbCircle
 10
115.317873
 20
437.821309
 40
4.25
100
AcDbArc
 50
241.927521
 51
298.072495
  0
LINE
  5
479
100
AcDbEntity
  8
M0
100
AcDbLine
 10
96.130423
 20
438.32131
 11
95.106361
 21
438.32131
  0
LINE
  5
47A
100
AcDbEntity
  8
M0
100
AcDbLine
 10
95.106361
 20
437.421309
 11
96.130423
 21
437.421309
  0
LINE
  5
47B
100
AcDbEntity
  8
M0
100
AcDbLine
 10
100.329387
 20
438.32131
 11
99.305324
 21
438.32131
  0
LINE
  5
47C
100
AcDbEntity
  8
M0
100
AcDbLine
 10
99.305324
 20
437.421309
 11
100.329387
 21
437.421309
  0
LINE
  5
47D
100
AcDbEntity
  8
M0
100
AcDbLine
 10
98.167874
 20
438.32131
 11
98.167874
 21
439.071307
  0
LINE
  5
47E
100
AcDbEntity
  8
M0
100
AcDbLine
 10
98.167874
 20
436.671308
 11
98.167874
 21
437.421309
  0
LINE
  5
47F
100
AcDbEntity
  8
M0
100
AcDbLine
 10
98.167874
 20
439.071307
 11
97.267874
 21
439.071307
  0
LINE
  5
480
100
AcDbEntity
  8
M0
100
AcDbLine
 10
85.567874
 20
442.571311
 11
77.267874
 21
442.571311
  0
LINE
  5
481
100
AcDbEntity
  8
M0
100
AcDbLine
 10
97.267874
 20
436.671308
 11
98.167874
 21
436.671308
  0
LINE
  5
482
100
AcDbEntity
  8
M0
100
AcDbLine
 10
96.130423
 20
438.32131
 11
97.267874
 21
438.32131
  0
LINE
  5
483
100
AcDbEntity
  8
M0
100
AcDbLine
 10
98.167874
 20
438.32131
 11
99.305324
 21
438.32131
  0
LINE
  5
484
100
AcDbEntity
  8
M0
100
AcDbLine
 10
97.267874
 20
439.071307
 11
97.267874
 21
438.32131
  0
LINE
  5
485
100
AcDbEntity
  8
M0
100
AcDbLine
 10
117.167873
 20
442.571311
 11
109.867874
 21
442.571311
  0
LINE
  5
486
100
AcDbEntity
  8
M0
100
AcDbLine
 10
97.267874
 20
437.421309
 11
96.130423
 21
437.421309
  0
LINE
  5
487
100
AcDbEntity
  8
M0
100
AcDbLine
 10
91.667874
 20
408.571309
 11
89.517874
 21
408.571309
  0
LINE
  5
488
100
AcDbEntity
  8
M0
100
AcDbLine
 10
78.267874
 20
442.571311
 11
77.767873
 21
442.07131
  0
LINE
  5
489
100
AcDbEntity
  8
M0
100
AcDbLine
 10
77.767873
 20
442.07131
 11
77.767873
 21
434.071308
  0
ARC
  5
48A
100
AcDbEntity
  8
M0
100
AcDbCircle
 10
115.317873
 20
437.821309
 40
4.25
100
AcDbArc
 50
241.927521
 51
270.0
  0
ARC
  5
48B
100
AcDbEntity
  8
M0
100
AcDbCircle
 10
102.517874
 20
392.871309
 40
0.5
100
AcDbArc
 50
270.0
 51
360.0
  0
ARC
  5
48C
100
AcDbEntity
  8
M0
100
AcDbCircle
 10
96.467874
 20
394.871309
 40
0.5
100
AcDbArc
 50
180.0
 51
270.0
  0
ARC
  5
48D
100
AcDbEntity
  8
M0
100
AcDbCircle
 10
97.717873
 20
437.821309
 40
4.25
100
AcDbArc
 50
241.927521
 51
298.072495
  0
ARC
  5
48E
100
AcDbEntity
  8
M0
100
AcDbCircle
 10
102.517874
 20
402.271309
 40
0.5
100
AcDbArc
 50
0.0
 51
90.0
  0
LINE
  5
48F
100
AcDbEntity
  8
M0
100
AcDbLine
 10
99.305324
 20
437.421309
 11
98.167874
 21
437.421309
  0
ARC
  5
490
100
AcDbEntity
  8
M0
100
AcDbCircle
 10
97.717873
 20
437.821309
 40
4.25
100
AcDbArc
 50
241.927521
 51
270.0
  0
LINE
  5
491
100
AcDbEntity
  8
M0
100
AcDbLine
 10
97.267874
 20
437.421309
 11
97.267874
 21
436.671308
  0
ARC
  5
492
100
AcDbEntity
  8
M0
100
AcDbCircle
 10
84.867874
 20
434.771309
 40
0.6
100
AcDbArc
 50
215.685335
 51
270.0
  0
ARC
  5
493
100
AcDbEntity
  8
M0
100
AcDbCircle
 10
113.267874
 20
433.571309
 40
1.0
100
AcDbArc
 50
30.0
 51
58.211672
  0
ARC
  5
494
100
AcDbEntity
  8
M0
100
AcDbCircle
 10
97.717874
 20
437.871309
 40
2.65
100
AcDbArc
 50
170.223151
 51
189.776849
  0
ARC
  5
495
100
AcDbEntity
  8
M0
100
AcDbCircle
 10
97.717874
 20
437.871309
 40
2.65
100
AcDbArc
 50
189.776849
 51
350.223151
  0
ARC
  5
496
100
AcDbEntity
  8
M0
100
AcDbCircle
 10
110.567874
 20
434.771309
 40
0.6
100
AcDbArc
 50
187.490122
 51
324.314617
  0
ARC
  5
497
100
AcDbEntity
  8
M0
100
AcDbCircle
 10
97.717874
 20
437.871309
 40
2.65
100
AcDbArc
 50
9.776849
 51
170.223151
  0
ARC
  5
498
100
AcDbEntity
  8
M0
100
AcDbCircle
 10
113.267874
 20
433.571309
 40
1.0
100
AcDbArc
 50
121.788346
 51
150.0
  0
ARC
  5
499
100
AcDbEntity
  8
M0
100
AcDbCircle
 10
97.717874
 20
437.871309
 40
2.65
100
AcDbArc
 50
350.223151
 51
369.776849
  0
ARC
  5
49A
100
AcDbEntity
  8
M0
100
AcDbCircle
 10
71.467874
 20
356.071309
 40
1.0
100
AcDbArc
 50
180.0
 51
270.0
  0
ARC
  5
49B
100
AcDbEntity
  8
M0
100
AcDbCircle
 10
134.367874
 20
416.671309
 40
1.0
100
AcDbArc
 50
90.0
 51
180.0
  0
ARC
  5
49C
100
AcDbEntity
  8
M0
100
AcDbCircle
 10
123.267874
 20
356.071309
 40
1.0
100
AcDbArc
 50
180.0
 51
270.0
  0
ARC
  5
49D
100
AcDbEntity
  8
M0
100
AcDbCircle
 10
72.167874
 20
356.071309
 40
1.0
100
AcDbArc
 50
270.0
 51
360.0
  0
ARC
  5
49E
100
AcDbEntity
  8
M0
100
AcDbCircle
 10
134.367874
 20
392.871309
 40
1.0
100
AcDbArc
 50
90.0
 51
180.0
  0
ARC
  5
49F
100
AcDbEntity
  8
M0
100
AcDbCircle
 10
107.367874
 20
356.071309
 40
1.0
100
AcDbArc
 50
270.0
 51
360.0
  0
ARC
  5
4A0
100
AcDbEntity
  8
M0
100
AcDbCircle
 10
88.067874
 20
356.071309
 40
1.0
100
AcDbArc
 50
180.0
 51
270.0
  0
ARC
  5
4A1
100
AcDbEntity
  8
M0
100
AcDbCircle
 10
61.067874
 20
402.271309
 40
1.0
100
AcDbArc
 50
270.0
 51
360.0
  0
ARC
  5
4A2
100
AcDbEntity
  8
M0
100
AcDbCircle
 10
135.167874
 20
416.671309
 40
1.0
100
AcDbArc
 50
0.0
 51
90.0
  0
ARC
  5
4A3
100
AcDbEntity
  8
M0
100
AcDbCircle
 10
84.867874
 20
434.771309
 40
0.6
100
AcDbArc
 50
270.0
 51
352.509835
  0
ARC
  5
4A4
100
AcDbEntity
  8
M0
100
AcDbCircle
 10
134.367874
 20
402.271309
 40
1.0
100
AcDbArc
 50
180.0
 51
270.0
  0
ARC
  5
4A5
100
AcDbEntity
  8
M0
100
AcDbCircle
 10
135.167874
 20
402.271309
 40
1.0
100
AcDbArc
 50
270.0
 51
360.0
  0
ARC
  5
4A6
100
AcDbEntity
  8
M0
100
AcDbCircle
 10
115.067874
 20
358.071309
 40
2.65
100
AcDbArc
 50
170.223151
 51
189.776849
  0
ARC
  5
4A7
100
AcDbEntity
  8
M0
100
AcDbCircle
 10
60.267874
 20
416.671309
 40
1.0
100
AcDbArc
 50
90.0
 51
180.0
  0
LINE
  5
4A8
100
AcDbEntity
  8
M0
100
AcDbLine
 10
102.767873
 20
407.071309
 11
92.667874
 21
407.071309
  0
LINE
  5
4A9
100
AcDbEntity
  8
M0
100
AcDbLine
 10
103.267874
 20
403.071309
 11
92.167874
 21
403.071309
  0
LINE
  5
4AA
100
AcDbEntity
  8
M0
100
AcDbLine
 10
123.267874
 20
440.071309
 11
123.767869
 21
440.071309
  0
LINE
  5
4AB
100
AcDbEntity
  8
M0
100
AcDbLine
 10
92.667874
 20
403.571309
 11
102.767873
 21
403.571309
  0
LINE
  5
4AC
100
AcDbEntity
  8
M0
100
AcDbLine
 10
72.167873
 20
440.071309
 11
71.467874
 21
440.071309
  0
LINE
  5
4AD
100
AcDbEntity
  8
M0
100
AcDbLine
 10
123.967873
 20
392.871309
 11
125.967873
 21
392.871309
  0
LINE
  5
4AE
100
AcDbEntity
  8
M0
100
AcDbLine
 10
122.267874
 20
420.27131
 11
122.267874
 21
439.071307
  0
LINE
  5
4AF
100
AcDbEntity
  8
M0
100
AcDbLine
 10
90.767874
 20
420.27131
 11
90.767874
 21
439.071307
  0
LINE
  5
4B0
100
AcDbEntity
  8
M0
100
AcDbLine
 10
124.967873
 20
356.071309
 11
124.967873
 21
391.371309
  0
LINE
  5
4B1
100
AcDbEntity
  8
M0
100
AcDbLine
 10
104.667874
 20
420.27131
 11
104.667874
 21
439.071307
  0
LINE
  5
4B2
100
AcDbEntity
  8
M0
100
AcDbLine
 10
105.667874
 20
440.071309
 11
107.367874
 21
440.071309
  0
LINE
  5
4B3
100
AcDbEntity
  8
M0
100
AcDbLine
 10
123.267874
 20
374.671309
 11
123.267874
 21
374.871308
  0
LINE
  5
4B4
100
AcDbEntity
  8
M0
100
AcDbLine
 10
89.767873
 20
440.071309
 11
88.067874
 21
440.071309
  0
LINE
  5
4B5
100
AcDbEntity
  8
M0
100
AcDbLine
 10
123.767869
 20
440.071309
 11
123.967873
 21
440.071309
  0
LINE
  5
4B6
100
AcDbEntity
  8
M0
100
AcDbLine
 10
125.967873
 20
402.271309
 11
123.967873
 21
402.271309
  0
LINE
  5
4B7
100
AcDbEntity
  8
M0
100
AcDbLine
 10
123.267874
 20
420.27131
 11
123.267874
 21
420.471309
  0
LINE
  5
4B8
100
AcDbEntity
  8
M0
100
AcDbLine
 10
133.149072
 20
367.320257
 11
131.71953
 21
367.321309
  0
LINE
  5
4B9
100
AcDbEntity
  8
M0
100
AcDbLine
 10
121.317875
 20
360.071307
 11
122.267874
 21
360.071307
  0
LINE
  5
4BA
100
AcDbEntity
  8
M0
100
AcDbLine
 10
124.967873
 20
403.771309
 11
124.967873
 21
439.071309
  0
LINE
  5
4BB
100
AcDbEntity
  8
M0
100
AcDbLine
 10
72.167873
 20
420.471309
 11
73.167873
 21
420.471309
  0
LINE
  5
4BC
100
AcDbEntity
  8
M0
100
AcDbLine
 10
132.761877
 20
362.821604
 11
133.254349
 21
362.821604
  0
LINE
  5
4BD
100
AcDbEntity
  8
M0
100
AcDbLine
 10
71.467874
 20
392.871309
 11
69.467874
 21
392.871309
  0
LINE
  5
4BE
100
AcDbEntity
  8
M0
100
AcDbLine
 10
70.467874
 20
391.371309
 11
70.467874
 21
356.071309
  0
LINE
  5
4BF
100
AcDbEntity
  8
M0
100
AcDbLine
 10
123.267874
 20
420.471309
 11
122.267874
 21
420.471309
  0
LINE
  5
4C0
100
AcDbEntity
  8
M0
100
AcDbLine
 10
72.167873
 20
374.671309
 11
72.167873
 21
374.871308
  0
ARC
  5
4C1
100
AcDbEntity
  8
M0
100
AcDbCircle
 10
88.067874
 20
439.071309
 40
1.0
100
AcDbArc
 50
90.0
 51
180.0
  0
ARC
  5
4C2
100
AcDbEntity
  8
M0
100
AcDbCircle
 10
89.767874
 20
439.071309
 40
1.0
100
AcDbArc
 50
0.0
 51
90.0
  0
ARC
  5
4C3
100
AcDbEntity
  8
M0
100
AcDbCircle
 10
132.761875
 20
362.521605
 40
0.3
100
AcDbArc
 50
90.0
 51
180.0
  0
ARC
  5
4C4
100
AcDbEntity
  8
M0
100
AcDbCircle
 10
133.217874
 20
365.071309
 40
2.25
100
AcDbArc
 50
270.928845
 51
451.752277
  0
ARC
  5
4C5
100
AcDbEntity
  8
M0
100
AcDbCircle
 10
71.467874
 20
439.071309
 40
1.0
100
AcDbArc
 50
90.0
 51
180.0
  0
ARC
  5
4C6
100
AcDbEntity
  8
M0
100
AcDbCircle
 10
72.167874
 20
439.071309
 40
1.0
100
AcDbArc
 50
0.0
 51
90.0
  0
ARC
  5
4C7
100
AcDbEntity
  8
M0
100
AcDbCircle
 10
105.667874
 20
439.071309
 40
1.0
100
AcDbArc
 50
90.0
 51
180.0
  0
ARC
  5
4C8
100
AcDbEntity
  8
M0
100
AcDbCircle
 10
123.267874
 20
439.071309
 40
1.0
100
AcDbArc
 50
90.0
 51
180.0
  0
LINE
  5
4C9
100
AcDbEntity
  8
M0
100
AcDbLine
 10
132.461876
 20
362.40712
 11
132.461876
 21
362.521606
  0
LINE
  5
4CA
100
AcDbEntity
  8
M0
100
AcDbLine
 10
129.469361
 20
365.153129
 11
129.469361
 21
365.121307
  0
LINE
  5
4CB
100
AcDbEntity
  8
M0
100
AcDbLine
 10
136.667874
 20
368.771309
 11
136.667874
 21
358.071307
  0
LINE
  5
4CC
100
AcDbEntity
  8
M0
100
AcDbLine
 10
87.567874
 20
421.971308
 11
90.267874
 21
421.971308
  0
LINE
  5
4CD
100
AcDbEntity
  8
M0
100
AcDbLine
 10
70.467874
 20
439.071309
 11
70.467874
 21
403.771309
  0
ARC
  5
4CE
100
AcDbEntity
  8
M0
100
AcDbCircle
 10
107.367874
 20
439.071309
 40
1.0
100
AcDbArc
 50
0.0
 51
90.0
  0
LINE
  5
4CF
100
AcDbEntity
  8
M0
100
AcDbLine
 10
88.517873
 20
403.671309
 11
90.017874
 21
402.171309
  0
LINE
  5
4D0
100
AcDbEntity
  8
M0
100
AcDbLine
 10
71.467874
 20
396.071309
 11
70.467874
 21
396.071309
  0
LINE
  5
4D1
100
AcDbEntity
  8
M0
100
AcDbLine
 10
123.967873
 20
374.871308
 11
71.467874
 21
374.871308
  0
LINE
  5
4D2
100
AcDbEntity
  8
M0
100
AcDbLine
 10
92.167874
 20
388.071309
 11
103.267874
 21
388.071309
  0
LINE
  5
4D3
100
AcDbEntity
  8
M0
100
AcDbLine
 10
103.267874
 20
390.371309
 11
92.167874
 21
390.371309
  0
LINE
  5
4D4
100
AcDbEntity
  8
M0
100
AcDbLine
 10
92.167874
 20
391.871309
 11
103.267874
 21
391.871309
  0
LINE
  5
4D5
100
AcDbEntity
  8
M0
100
AcDbLine
 10
70.967873
 20
390.371309
 11
71.467874
 21
390.371309
  0
LINE
  5
4D6
100
AcDbEntity
  8
M0
100
AcDbLine
 10
70.467874
 20
399.071309
 11
70.467874
 21
398.971309
  0
LINE
  5
4D7
100
AcDbEntity
  8
M0
100
AcDbLine
 10
70.467874
 20
396.171309
 11
70.467874
 21
396.071309
  0
LINE
  5
4D8
100
AcDbEntity
  8
M0
100
AcDbLine
 10
103.767874
 20
408.571309
 11
105.917874
 21
408.571309
  0
LINE
  5
4D9
100
AcDbEntity
  8
M0
100
AcDbLine
 10
88.517873
 20
407.571309
 11
88.517873
 21
387.238205
  0
LINE
  5
4DA
100
AcDbEntity
  8
M0
100
AcDbLine
 10
102.767873
 20
403.571309
 11
102.767873
 21
407.571309
  0
LINE
  5
4DB
100
AcDbEntity
  8
M0
100
AcDbLine
 10
92.667874
 20
403.571309
 11
92.667874
 21
407.571309
  0
LINE
  5
4DC
100
AcDbEntity
  8
M0
100
AcDbLine
 10
70.467874
 20
393.071309
 11
71.467874
 21
393.071309
  0
LINE
  5
4DD
100
AcDbEntity
  8
M0
100
AcDbLine
 10
103.267874
 20
400.821309
 11
103.267874
 21
403.071309
  0
LINE
  5
4DE
100
AcDbEntity
  8
M0
100
AcDbLine
 10
105.917874
 20
386.571309
 11
104.267874
 21
386.571309
  0
LINE
  5
4DF
100
AcDbEntity
  8
M0
100
AcDbLine
 10
106.917874
 20
403.671309
 11
105.417874
 21
402.171309
  0
LINE
  5
4E0
100
AcDbEntity
  8
M0
100
AcDbLine
 10
92.167874
 20
403.071309
 11
92.167874
 21
400.821309
  0
LINE
  5
4E1
100
AcDbEntity
  8
M0
100
AcDbLine
 10
123.967873
 20
390.371309
 11
124.467874
 21
390.371309
  0
LINE
  5
4E2
100
AcDbEntity
  8
M0
100
AcDbLine
 10
106.917874
 20
407.571309
 11
106.917874
 21
387.571309
  0
LINE
  5
4E3
100
AcDbEntity
  8
M0
100
AcDbLine
 10
89.517874
 20
391.071309
 11
90.017874
 21
391.071309
  0
LINE
  5
4E4
100
AcDbEntity
  8
M0
100
AcDbLine
 10
103.267874
 20
387.571309
 11
103.267874
 21
394.321309
  0
LINE
  5
4E5
100
AcDbEntity
  8
M0
100
AcDbLine
 10
72.167873
 20
420.27131
 11
72.167873
 21
420.471309
  0
LINE
  5
4E6
100
AcDbEntity
  8
M0
100
AcDbLine
 10
90.017874
 20
386.571309
 11
89.517874
 21
386.571309
  0
LINE
  5
4E7
100
AcDbEntity
  8
M0
100
AcDbLine
 10
103.267874
 20
394.321309
 11
103.517874
 21
394.821309
  0
LINE
  5
4E8
100
AcDbEntity
  8
M0
100
AcDbLine
 10
92.167874
 20
394.321309
 11
92.167874
 21
387.571309
  0
LINE
  5
4E9
100
AcDbEntity
  8
M0
100
AcDbLine
 10
91.917874
 20
394.821309
 11
92.167874
 21
394.321309
  0
ARC
  5
4EA
100
AcDbEntity
  8
M0
100
AcDbCircle
 10
133.667874
 20
358.071309
 40
3.0
100
AcDbArc
 50
270.0
 51
360.0
  0
ARC
  5
4EB
100
AcDbEntity
  8
M0
100
AcDbCircle
 10
131.717874
 20
365.071309
 40
2.25
100
AcDbArc
 50
89.957854
 51
177.916058
  0
ARC
  5
4EC
100
AcDbEntity
  8
M0
100
AcDbCircle
 10
62.267874
 20
358.071309
 40
3.0
100
AcDbArc
 50
180.0
 51
270.0
  0
LINE
  5
4ED
100
AcDbEntity
  8
M0
100
AcDbLine
 10
69.467874
 20
402.271309
 11
71.467874
 21
402.271309
  0
ARC
  5
4EE
100
AcDbEntity
  8
M0
100
AcDbCircle
 10
61.067874
 20
416.671309
 40
1.0
100
AcDbArc
 50
0.0
 51
90.0
  0
LINE
  5
4EF
100
AcDbEntity
  8
M0
100
AcDbLine
 10
104.267874
 20
386.571309
 11
91.167874
 21
386.571309
  0
LINE
  5
4F0
100
AcDbEntity
  8
M0
100
AcDbLine
 10
105.417874
 20
402.171309
 11
105.417874
 21
391.071309
  0
LINE
  5
4F1
100
AcDbEntity
  8
M0
100
AcDbLine
 10
91.167874
 20
386.571309
 11
89.517874
 21
386.571309
  0
LINE
  5
4F2
100
AcDbEntity
  8
M0
100
AcDbLine
 10
105.417874
 20
386.571309
 11
105.917874
 21
386.571309
  0
LINE
  5
4F3
100
AcDbEntity
  8
M0
100
AcDbLine
 10
91.017874
 20
408.571309
 11
89.517874
 21
408.571309
  0
LINE
  5
4F4
100
AcDbEntity
  8
M0
100
AcDbLine
 10
91.917874
 20
400.321309
 11
91.917874
 21
394.821309
  0
LINE
  5
4F5
100
AcDbEntity
  8
M0
100
AcDbLine
 10
103.517874
 20
400.321309
 11
103.267874
 21
400.821309
  0
ARC
  5
4F6
100
AcDbEntity
  8
M0
100
AcDbCircle
 10
129.169362
 20
365.121309
 40
0.3
100
AcDbArc
 50
270.0
 51
360.0
  0
LINE
  5
4F7
100
AcDbEntity
  8
M0
100
AcDbLine
 10
90.017874
 20
402.171309
 11
90.017874
 21
391.071309
  0
LINE
  5
4F8
100
AcDbEntity
  8
M0
100
AcDbLine
 10
103.517874
 20
394.821309
 11
103.517874
 21
400.321309
  0
LINE
  5
4F9
100
AcDbEntity
  8
M0
100
AcDbLine
 10
105.417874
 20
391.071309
 11
105.917874
 21
391.071309
  0
LINE
  5
4FA
100
AcDbEntity
  8
M0
100
AcDbLine
 10
92.167874
 20
400.821309
 11
91.917874
 21
400.321309
  0
LINE
  5
4FB
100
AcDbEntity
  8
M0
100
AcDbLine
 10
68.967873
 20
372.821309
 11
68.967873
 21
371.771308
  0
LINE
  5
4FC
100
AcDbEntity
  8
M0
100
AcDbLine
 10
62.967874
 20
371.771308
 11
62.967874
 21
372.821309
  0
LINE
  5
4FD
100
AcDbEntity
  8
M0
100
AcDbLine
 10
117.967874
 20
435.07131
 11
117.967874
 21
434.071308
  0
LINE
  5
4FE
100
AcDbEntity
  8
M0
100
AcDbLine
 10
109.867874
 20
443.071308
 11
109.867874
 21
434.071308
  0
LINE
  5
4FF
100
AcDbEntity
  8
M0
100
AcDbLine
 10
76.267874
 20
444.07131
 11
119.167874
 21
444.07131
  0
LINE
  5
500
100
AcDbEntity
  8
M0
100
AcDbLine
 10
133.367874
 20
414.77131
 11
125.567874
 21
414.77131
  0
LINE
  5
501
100
AcDbEntity
  8
M0
100
AcDbLine
 10
108.367873
 20
442.571311
 11
87.067874
 21
442.571311
  0
LINE
  5
502
100
AcDbEntity
  8
M0
100
AcDbLine
 10
69.867873
 20
414.77131
 11
62.067874
 21
414.77131
  0
LINE
  5
503
100
AcDbEntity
  8
M0
100
AcDbLine
 10
68.967873
 20
371.771308
 11
62.967874
 21
371.771308
  0
LINE
  5
504
100
AcDbEntity
  8
M0
100
AcDbLine
 10
104.417873
 20
408.571309
 11
105.917874
 21
408.571309
  0
ARC
  5
505
100
AcDbEntity
  8
M0
100
AcDbCircle
 10
91.167874
 20
387.571309
 40
1.0
100
AcDbArc
 50
270.0
 51
360.0
  0
ARC
  5
506
100
AcDbEntity
  8
M0
100
AcDbCircle
 10
104.267874
 20
387.571309
 40
1.0
100
AcDbArc
 50
180.0
 51
270.0
  0
ARC
  5
507
100
AcDbEntity
  8
M0
100
AcDbCircle
 10
123.967874
 20
375.871309
 40
1.0
100
AcDbArc
 50
270.0
 51
360.0
  0
ARC
  5
508
100
AcDbEntity
  8
M0
100
AcDbCircle
 10
105.917874
 20
387.571309
 40
1.0
100
AcDbArc
 50
270.0
 51
360.0
  0
ARC
  5
509
100
AcDbEntity
  8
M0
100
AcDbCircle
 10
89.517874
 20
387.571309
 40
1.0
100
AcDbArc
 50
180.0
 51
270.0
  0
ARC
  5
50A
100
AcDbEntity
  8
M0
100
AcDbCircle
 10
70.967874
 20
389.871309
 40
0.5
100
AcDbArc
 50
90.0
 51
180.0
  0
ARC
  5
50B
100
AcDbEntity
  8
M0
100
AcDbCircle
 10
105.917874
 20
407.571309
 40
1.0
100
AcDbArc
 50
0.0
 51
90.0
  0
ARC
  5
50C
100
AcDbEntity
  8
M0
100
AcDbCircle
 10
92.167874
 20
403.571309
 40
0.5
100
AcDbArc
 50
270.0
 51
360.0
  0
ARC
  5
50D
100
AcDbEntity
  8
M0
100
AcDbCircle
 10
89.517874
 20
407.571309
 40
1.0
100
AcDbArc
 50
90.0
 51
180.0
  0
ARC
  5
50E
100
AcDbEntity
  8
M0
100
AcDbCircle
 10
71.467874
 20
375.871309
 40
1.0
100
AcDbArc
 50
180.0
 51
270.0
  0
ARC
  5
50F
100
AcDbEntity
  8
M0
100
AcDbCircle
 10
89.517874
 20
390.071309
 40
1.0
100
AcDbArc
 50
90.0
 51
180.0
  0
LINE
  5
510
100
AcDbEntity
  8
M0
100
AcDbLine
 10
115.267875
 20
443.571309
 11
115.267875
 21
442.571311
  0
LINE
  5
511
100
AcDbEntity
  8
M0
100
AcDbLine
 10
108.367873
 20
420.27131
 11
108.367873
 21
442.571311
  0
ARC
  5
512
100
AcDbEntity
  8
M0
100
AcDbCircle
 10
124.467874
 20
389.871309
 40
0.5
100
AcDbArc
 50
0.0
 51
90.0
  0
LINE
  5
513
100
AcDbEntity
  8
M0
100
AcDbLine
 10
77.467874
 20
434.071308
 11
77.467874
 21
435.07131
  0
LINE
  5
514
100
AcDbEntity
  8
M0
100
AcDbLine
 10
85.567874
 20
434.071308
 11
85.567874
 21
443.071308
  0
LINE
  5
515
100
AcDbEntity
  8
M0
100
AcDbLine
 10
80.167873
 20
442.571311
 11
80.167873
 21
443.571309
  0
LINE
  5
516
100
AcDbEntity
  8
M0
100
AcDbLine
 10
62.967874
 20
423.37131
 11
68.967873
 21
423.37131
  0
LINE
  5
517
100
AcDbEntity
  8
M0
100
AcDbLine
 10
68.967873
 20
423.37131
 11
68.967873
 21
422.321309
  0
LINE
  5
518
100
AcDbEntity
  8
M0
100
AcDbLine
 10
62.967874
 20
422.321309
 11
62.967874
 21
423.37131
  0
LINE
  5
519
100
AcDbEntity
  8
M0
100
AcDbLine
 10
126.467874
 20
423.37131
 11
132.467873
 21
423.37131
  0
LINE
  5
51A
100
AcDbEntity
  8
M0
100
AcDbLine
 10
132.467873
 20
423.37131
 11
132.467873
 21
422.321309
  0
LINE
  5
51B
100
AcDbEntity
  8
M0
100
AcDbLine
 10
62.22038
 20
421.871309
 11
62.067874
 21
421.871309
  0
LINE
  5
51C
100
AcDbEntity
  8
M0
100
AcDbLine
 10
126.467874
 20
422.321309
 11
126.467874
 21
423.37131
  0
ARC
  5
51D
100
AcDbEntity
  8
M0
100
AcDbCircle
 10
117.467874
 20
435.071309
 40
0.5
100
AcDbArc
 50
0.0
 51
66.421822
  0
ARC
  5
51E
100
AcDbEntity
  8
M0
100
AcDbCircle
 10
108.867874
 20
443.071309
 40
1.0
100
AcDbArc
 50
0.0
 51
90.0
  0
LINE
  5
51F
100
AcDbEntity
  8
M0
100
AcDbLine
 10
107.367874
 20
355.071309
 11
106.867878
 21
355.071309
  0
ARC
  5
520
100
AcDbEntity
  8
M0
100
AcDbCircle
 10
80.667874
 20
443.571309
 40
0.5
100
AcDbArc
 50
90.0
 51
180.0
  0
ARC
  5
521
100
AcDbEntity
  8
M0
100
AcDbCircle
 10
77.967874
 20
435.071309
 40
0.5
100
AcDbArc
 50
113.578178
 51
180.0
  0
ARC
  5
522
100
AcDbEntity
  8
M0
100
AcDbCircle
 10
114.767874
 20
443.571309
 40
0.5
100
AcDbArc
 50
0.0
 51
90.0
  0
ARC
  5
523
100
AcDbEntity
  8
M0
100
AcDbCircle
 10
86.567874
 20
443.071309
 40
1.0
100
AcDbArc
 50
90.0
 51
180.0
  0
LINE
  5
524
100
AcDbEntity
  8
M0
100
AcDbLine
 10
106.867878
 20
355.071309
 11
105.667874
 21
355.071309
  0
LINE
  5
525
100
AcDbEntity
  8
M0
100
AcDbLine
 10
122.267874
 20
356.071311
 11
122.267874
 21
360.071307
  0
LINE
  5
526
100
AcDbEntity
  8
M0
100
AcDbLine
 10
73.167873
 20
356.071311
 11
73.167873
 21
360.071307
  0
LINE
  5
527
100
AcDbEntity
  8
M0
100
AcDbLine
 10
125.967873
 20
396.171309
 11
124.267874
 21
396.171309
  0
LINE
  5
528
100
AcDbEntity
  8
M0
100
AcDbLine
 10
90.767874
 20
420.471309
 11
87.067874
 21
420.471309
  0
LINE
  5
529
100
AcDbEntity
  8
M0
100
AcDbLine
 10
108.367873
 20
360.071307
 11
108.367873
 21
356.071311
  0
LINE
  5
52A
100
AcDbEntity
  8
M0
100
AcDbLine
 10
124.267874
 20
398.971309
 11
125.967873
 21
398.971309
  0
LINE
  5
52B
100
AcDbEntity
  8
M0
100
AcDbLine
 10
104.667874
 20
420.471309
 11
108.367873
 21
420.471309
  0
LINE
  5
52C
100
AcDbEntity
  8
M0
100
AcDbLine
 10
87.067874
 20
374.871308
 11
87.067874
 21
356.071311
  0
LINE
  5
52D
100
AcDbEntity
  8
M0
100
AcDbLine
 10
71.167873
 20
396.171309
 11
71.167873
 21
398.971309
  0
LINE
  5
52E
100
AcDbEntity
  8
M0
100
AcDbLine
 10
124.267874
 20
396.171309
 11
124.267874
 21
398.971309
  0
LINE
  5
52F
100
AcDbEntity
  8
M0
100
AcDbLine
 10
87.067874
 20
374.671309
 11
90.767874
 21
374.671309
  0
LINE
  5
530
100
AcDbEntity
  8
M0
100
AcDbLine
 10
108.367873
 20
374.671309
 11
104.667874
 21
374.671309
  0
LINE
  5
531
100
AcDbEntity
  8
M0
100
AcDbLine
 10
104.667874
 20
374.871308
 11
104.667874
 21
372.671308
  0
LINE
  5
532
100
AcDbEntity
  8
M0
100
AcDbLine
 10
108.367873
 20
372.671308
 11
108.367873
 21
374.871308
  0
LINE
  5
533
100
AcDbEntity
  8
M0
100
AcDbLine
 10
134.367872
 20
417.671308
 11
135.167874
 21
417.671308
  0
LINE
  5
534
100
AcDbEntity
  8
M0
100
AcDbLine
 10
134.367872
 20
401.271309
 11
135.167874
 21
401.271309
  0
LINE
  5
535
100
AcDbEntity
  8
M0
100
AcDbLine
 10
62.067874
 20
380.371308
 11
69.867873
 21
380.371308
  0
ARC
  5
536
100
AcDbEntity
  8
M0
100
AcDbCircle
 10
60.267874
 20
392.871309
 40
1.0
100
AcDbArc
 50
90.0
 51
180.0
  0
CIRCLE
  5
537
100
AcDbEntity
  8
M0
100
AcDbCircle
 10
97.717874
 20
437.871309
 40
2.85
  0
ARC
  5
538
100
AcDbEntity
  8
M0
100
AcDbCircle
 10
60.267874
 20
402.271309
 40
1.0
100
AcDbArc
 50
180.0
 51
270.0
  0
CIRCLE
  5
539
100
AcDbEntity
  8
M0
100
AcDbCircle
 10
97.717874
 20
437.871309
 40
2.825
  0
ARC
  5
53A
100
AcDbEntity
  8
M0
100
AcDbCircle
 10
135.167874
 20
392.871309
 40
1.0
100
AcDbArc
 50
0.0
 51
90.0
  0
ARC
  5
53B
100
AcDbEntity
  8
M0
100
AcDbCircle
 10
103.267874
 20
403.571309
 40
0.5
100
AcDbArc
 50
180.0
 51
270.0
  0
ARC
  5
53C
100
AcDbEntity
  8
M0
100
AcDbCircle
 10
105.917874
 20
390.071309
 40
1.0
100
AcDbArc
 50
0.0
 51
90.0
  0
ARC
  5
53D
100
AcDbEntity
  8
M0
100
AcDbCircle
 10
91.667874
 20
407.571309
 40
1.0
100
AcDbArc
 50
0.0
 51
90.0
  0
ARC
  5
53E
100
AcDbEntity
  8
M0
100
AcDbCircle
 10
103.767874
 20
407.571309
 40
1.0
100
AcDbArc
 50
90.0
 51
180.0
  0
LINE
  5
53F
100
AcDbEntity
  8
M0
100
AcDbLine
 10
61.067875
 20
417.671308
 11
60.267873
 21
417.671308
  0
LINE
  5
540
100
AcDbEntity
  8
M0
100
AcDbLine
 10
65.567873
 20
401.271309
 11
60.267873
 21
401.271309
  0
LINE
  5
541
100
AcDbEntity
  8
M0
100
AcDbLine
 10
133.367874
 20
423.921309
 11
133.367874
 21
402.271309
  0
LINE
  5
542
100
AcDbEntity
  8
M0
100
AcDbLine
 10
135.167874
 20
393.871309
 11
134.367872
 21
393.871309
  0
LINE
  5
543
100
AcDbEntity
  8
M0
  6
DASHDOT
100
AcDbLine
 10
79.617874
 20
368.071309
 11
80.617874
 21
368.071309
  0
LINE
  5
544
100
AcDbEntity
  8
M0
  6
DASHDOT
100
AcDbLine
 10
80.117874
 20
367.571309
 11
80.117874
 21
368.571309
  0
LINE
  5
545
100
AcDbEntity
  8
M0
  6
DASHDOT
100
AcDbLine
 10
114.817874
 20
368.071309
 11
115.817874
 21
368.071309
  0
LINE
  5
546
100
AcDbEntity
  8
M0
  6
DASHDOT
100
AcDbLine
 10
115.317874
 20
367.571309
 11
115.317874
 21
368.571309
  0
LINE
  5
547
100
AcDbEntity
  8
M0
  6
DASHDOT
100
AcDbLine
 10
97.217874
 20
368.071309
 11
98.217874
 21
368.071309
  0
LINE
  5
548
100
AcDbEntity
  8
M0
  6
DASHDOT
100
AcDbLine
 10
97.717874
 20
367.571309
 11
97.717874
 21
368.571309
  0
LINE
  5
549
100
AcDbEntity
  8
M0
100
AcDbLine
 10
69.717873
 20
414.221309
 11
69.717873
 21
407.72131
  0
LINE
  5
54A
100
AcDbEntity
  8
M0
  6
DASHDOT
100
AcDbLine
 10
97.217874
 20
427.071309
 11
98.217874
 21
427.071309
  0
LINE
  5
54B
100
AcDbEntity
  8
M0
  6
DASHDOT
100
AcDbLine
 10
97.717874
 20
427.571309
 11
97.717874
 21
426.571309
  0
LINE
  5
54C
100
AcDbEntity
  8
M0
  6
DASHDOT
100
AcDbLine
 10
115.317874
 20
427.571309
 11
115.317874
 21
426.571309
  0
LINE
  5
54D
100
AcDbEntity
  8
M0
  6
DASHDOT
100
AcDbLine
 10
80.117874
 20
427.571309
 11
80.117874
 21
426.571309
  0
LINE
  5
54E
100
AcDbEntity
  8
M0
  6
DASHDOT
100
AcDbLine
 10
114.817874
 20
427.071309
 11
115.817874
 21
427.071309
  0
LINE
  5
54F
100
AcDbEntity
  8
M0
  6
DASHDOT
100
AcDbLine
 10
79.617874
 20
427.071309
 11
80.617874
 21
427.071309
  0
ARC
  5
550
100
AcDbEntity
  8
M0
100
AcDbCircle
 10
119.167874
 20
443.071309
 40
1.0
100
AcDbArc
 50
90.0
 51
180.0
  0
ARC
  5
551
100
AcDbEntity
  8
M0
100
AcDbCircle
 10
119.167874
 20
443.071309
 40
1.0
100
AcDbArc
 50
0.0
 51
90.0
  0
LINE
  5
552
100
AcDbEntity
  8
M0
100
AcDbLine
 10
118.167873
 20
434.071308
 11
118.167873
 21
443.071309
  0
LINE
  5
553
100
AcDbEntity
  8
M0
100
AcDbLine
 10
120.167874
 20
434.071308
 11
120.167874
 21
443.071308
  0
CIRCLE
  5
554
100
AcDbEntity
  8
M0
100
AcDbCircle
 10
80.117874
 20
427.07134
 40
4.499996
  0
LINE
  5
555
100
AcDbEntity
  8
M0
100
AcDbLine
 10
80.584777
 20
428.952474
 11
78.236801
 21
426.604482
  0
LINE
  5
556
100
AcDbEntity
  8
M0
100
AcDbLine
 10
81.998977
 20
427.538259
 11
79.651
 21
425.190267
  0
LINE
  5
557
100
AcDbEntity
  8
M0
100
AcDbLine
 10
78.048919
 20
429.140249
 11
82.311889
 21
424.877309
  0
CIRCLE
  5
558
100
AcDbEntity
  8
M0
100
AcDbCircle
 10
97.717874
 20
427.07134
 40
4.499996
  0
LINE
  5
559
100
AcDbEntity
  8
M0
100
AcDbLine
 10
98.184777
 20
428.952474
 11
95.836801
 21
426.604482
  0
LINE
  5
55A
100
AcDbEntity
  8
M0
100
AcDbLine
 10
99.598977
 20
427.538259
 11
97.251
 21
425.190267
  0
LINE
  5
55B
100
AcDbEntity
  8
M0
100
AcDbLine
 10
95.648919
 20
429.140249
 11
99.911889
 21
424.877309
  0
CIRCLE
  5
55C
100
AcDbEntity
  8
M0
100
AcDbCircle
 10
115.317874
 20
427.07134
 40
4.499996
  0
LINE
  5
55D
100
AcDbEntity
  8
M0
100
AcDbLine
 10
115.784777
 20
428.952474
 11
113.436801
 21
426.604482
  0
LINE
  5
55E
100
AcDbEntity
  8
M0
100
AcDbLine
 10
117.198977
 20
427.538259
 11
114.851
 21
425.190267
  0
LINE
  5
55F
100
AcDbEntity
  8
M0
100
AcDbLine
 10
113.248919
 20
429.140249
 11
117.511889
 21
424.877309
  0
CIRCLE
  5
560
100
AcDbEntity
  8
M0
100
AcDbCircle
 10
81.767874
 20
438.171309
 40
3.0
  0
LINE
  5
561
100
AcDbEntity
  8
M0
100
AcDbLine
 10
82.121153
 20
439.585669
 11
80.353575
 21
437.817969
  0
LINE
  5
562
100
AcDbEntity
  8
M0
100
AcDbLine
 10
83.1817
 20
438.525
 11
81.414122
 21
436.757422
  0
LINE
  5
563
100
AcDbEntity
  8
M0
100
AcDbLine
 10
83.358457
 20
436.580664
 11
80.176817
 21
439.762427
  0
LINE
  5
564
100
AcDbEntity
  8
M0
  6
DASHDOT
100
AcDbLine
 10
65.467874
 20
418.571309
 11
66.467874
 21
418.571309
  0
LINE
  5
565
100
AcDbEntity
  8
M0
  6
DASHDOT
100
AcDbLine
 10
65.967874
 20
418.071309
 11
65.967874
 21
419.071309
  0
CIRCLE
  5
566
100
AcDbEntity
  8
M0
100
AcDbCircle
 10
113.667871
 20
438.171313
 40
3.0
  0
LINE
  5
567
100
AcDbEntity
  8
M0
100
AcDbLine
 10
114.02115
 20
439.585673
 11
112.253572
 21
437.817973
  0
LINE
  5
568
100
AcDbEntity
  8
M0
100
AcDbLine
 10
115.081697
 20
438.525004
 11
113.314119
 21
436.757426
  0
LINE
  5
569
100
AcDbEntity
  8
M0
100
AcDbLine
 10
115.258455
 20
436.580668
 11
112.076814
 21
439.762431
  0
CIRCLE
  5
56A
100
AcDbEntity
  8
M0
100
AcDbCircle
 10
65.967873
 20
418.571311
 40
3.0
  0
LINE
  5
56B
100
AcDbEntity
  8
M0
100
AcDbLine
 10
66.321152
 20
419.985671
 11
64.553574
 21
418.21797
  0
LINE
  5
56C
100
AcDbEntity
  8
M0
100
AcDbLine
 10
67.381699
 20
418.925002
 11
65.61412
 21
417.157424
  0
LINE
  5
56D
100
AcDbEntity
  8
M0
100
AcDbLine
 10
67.558456
 20
416.980666
 11
64.376816
 21
420.162428
  0
CIRCLE
  5
56E
100
AcDbEntity
  8
M0
100
AcDbCircle
 10
65.967873
 20
410.97131
 40
3.0
  0
LINE
  5
56F
100
AcDbEntity
  8
M0
100
AcDbLine
 10
66.321152
 20
412.385671
 11
64.553574
 21
410.61797
  0
LINE
  5
570
100
AcDbEntity
  8
M0
100
AcDbLine
 10
67.381699
 20
411.325002
 11
65.61412
 21
409.557423
  0
LINE
  5
571
100
AcDbEntity
  8
M0
100
AcDbLine
 10
67.558456
 20
409.380666
 11
64.376816
 21
412.562428
  0
CIRCLE
  5
572
100
AcDbEntity
  8
M0
100
AcDbCircle
 10
65.967873
 20
384.171307
 40
3.0
  0
CIRCLE
  5
573
100
AcDbEntity
  8
M0
100
AcDbCircle
 10
65.967873
 20
376.571307
 40
3.0
  0
LINE
  5
574
100
AcDbEntity
  8
M0
100
AcDbLine
 10
66.321152
 20
377.98567
 11
64.553574
 21
376.21797
  0
LINE
  5
575
100
AcDbEntity
  8
M0
100
AcDbLine
 10
67.381699
 20
376.925001
 11
65.61412
 21
375.157423
  0
LINE
  5
576
100
AcDbEntity
  8
M0
100
AcDbLine
 10
67.558456
 20
374.980665
 11
64.376816
 21
378.162428
  0
LINE
  5
577
100
AcDbEntity
  8
M0
100
AcDbLine
 10
67.381699
 20
384.525001
 11
65.61412
 21
382.757423
  0
LINE
  5
578
100
AcDbEntity
  8
M0
100
AcDbLine
 10
66.321152
 20
385.58567
 11
64.553574
 21
383.81797
  0
LINE
  5
579
100
AcDbEntity
  8
M0
100
AcDbLine
 10
67.558456
 20
382.580666
 11
64.376816
 21
385.762428
  0
CIRCLE
  5
57A
100
AcDbEntity
  8
M0
100
AcDbCircle
 10
129.467875
 20
418.571311
 40
3.0
  0
LINE
  5
57B
100
AcDbEntity
  8
M0
100
AcDbLine
 10
130.881701
 20
418.925002
 11
129.114122
 21
417.157424
  0
LINE
  5
57C
100
AcDbEntity
  8
M0
100
AcDbLine
 10
131.058458
 20
416.980666
 11
127.876818
 21
420.162428
  0
LINE
  5
57D
100
AcDbEntity
  8
M0
100
AcDbLine
 10
129.821154
 20
419.985671
 11
128.053576
 21
418.21797
  0
CIRCLE
  5
57E
100
AcDbEntity
  8
M0
100
AcDbCircle
 10
129.467875
 20
410.97131
 40
3.0
  0
LINE
  5
57F
100
AcDbEntity
  8
M0
100
AcDbLine
 10
131.058458
 20
409.380666
 11
127.876818
 21
412.562428
  0
LINE
  5
580
100
AcDbEntity
  8
M0
100
AcDbLine
 10
129.821154
 20
412.385671
 11
128.053576
 21
410.61797
  0
LINE
  5
581
100
AcDbEntity
  8
M0
100
AcDbLine
 10
130.881701
 20
411.325002
 11
129.114122
 21
409.557423
  0
CIRCLE
  5
582
100
AcDbEntity
  8
M0
100
AcDbCircle
 10
129.467875
 20
384.171307
 40
3.0
  0
LINE
  5
583
100
AcDbEntity
  8
M0
100
AcDbLine
 10
129.821154
 20
385.58567
 11
128.053576
 21
383.81797
  0
LINE
  5
584
100
AcDbEntity
  8
M0
100
AcDbLine
 10
130.881701
 20
384.525001
 11
129.114122
 21
382.757423
  0
LINE
  5
585
100
AcDbEntity
  8
M0
100
AcDbLine
 10
131.058458
 20
382.580666
 11
127.876818
 21
385.762428
  0
CIRCLE
  5
586
100
AcDbEntity
  8
M0
100
AcDbCircle
 10
129.467875
 20
376.571307
 40
3.0
  0
LINE
  5
587
100
AcDbEntity
  8
M0
100
AcDbLine
 10
131.058458
 20
374.980665
 11
127.876818
 21
378.162428
  0
LINE
  5
588
100
AcDbEntity
  8
M0
100
AcDbLine
 10
129.821154
 20
377.98567
 11
128.053576
 21
376.21797
  0
LINE
  5
589
100
AcDbEntity
  8
M0
100
AcDbLine
 10
130.881701
 20
376.925001
 11
129.114122
 21
375.157423
  0
CIRCLE
  5
58A
100
AcDbEntity
  8
M0
100
AcDbCircle
 10
80.117874
 20
368.071278
 40
4.499996
  0
CIRCLE
  5
58B
100
AcDbEntity
  8
M0
100
AcDbCircle
 10
97.717874
 20
368.071278
 40
4.499996
  0
CIRCLE
  5
58C
100
AcDbEntity
  8
M0
100
AcDbCircle
 10
115.317874
 20
368.071278
 40
4.499996
  0
LINE
  5
58D
100
AcDbEntity
  8
M0
100
AcDbLine
 10
80.584777
 20
369.952474
 11
78.236801
 21
367.604482
  0
LINE
  5
58E
100
AcDbEntity
  8
M0
100
AcDbLine
 10
81.998977
 20
368.538259
 11
79.651
 21
366.190267
  0
LINE
  5
58F
100
AcDbEntity
  8
M0
100
AcDbLine
 10
78.048919
 20
370.140249
 11
82.311889
 21
365.877309
  0
LINE
  5
590
100
AcDbEntity
  8
M0
100
AcDbLine
 10
98.184777
 20
369.952474
 11
95.836801
 21
367.604482
  0
LINE
  5
591
100
AcDbEntity
  8
M0
100
AcDbLine
 10
99.598977
 20
368.538259
 11
97.251
 21
366.190267
  0
LINE
  5
592
100
AcDbEntity
  8
M0
100
AcDbLine
 10
95.648919
 20
370.140249
 11
99.911889
 21
365.877309
  0
LINE
  5
593
100
AcDbEntity
  8
M0
100
AcDbLine
 10
115.784777
 20
369.952474
 11
113.436801
 21
367.604482
  0
LINE
  5
594
100
AcDbEntity
  8
M0
100
AcDbLine
 10
117.198977
 20
368.538259
 11
114.851
 21
366.190267
  0
LINE
  5
595
100
AcDbEntity
  8
M0
100
AcDbLine
 10
113.248919
 20
370.140249
 11
117.511889
 21
365.877309
  0
LINE
  5
596
100
AcDbEntity
  8
M0
  6
DASHED
100
AcDbLine
 10
46.767878
 20
427.271309
 11
46.767878
 21
367.871309
  0
LINE
  5
597
100
AcDbEntity
  8
M0
  6
DASHED
100
AcDbLine
 10
46.767878
 20
427.271309
 11
59.267878
 21
427.271309
  0
LINE
  5
598
100
AcDbEntity
  8
M0
  6
DASHED
100
AcDbLine
 10
46.767878
 20
367.871309
 11
59.267878
 21
367.871309
  0
LINE
  5
599
100
AcDbEntity
  8
M0
  6
DASHED
100
AcDbLine
 10
148.66787
 20
427.271309
 11
148.66787
 21
367.871309
  0
LINE
  5
59A
100
AcDbEntity
  8
M0
  6
DASHED
100
AcDbLine
 10
148.66787
 20
427.271309
 11
136.16787
 21
427.271309
  0
LINE
  5
59B
100
AcDbEntity
  8
M0
  6
DASHED
100
AcDbLine
 10
148.66787
 20
367.871309
 11
136.16787
 21
367.871309
  0
CIRCLE
  5
59C
100
AcDbEntity
  8
M0
100
AcDbCircle
 10
97.717874
 20
368.071309
 40
5.0
  0
CIRCLE
  5
59D
100
AcDbEntity
  8
M0
100
AcDbCircle
 10
115.317874
 20
368.071309
 40
5.0
  0
CIRCLE
  5
59E
100
AcDbEntity
  8
M0
100
AcDbCircle
 10
80.117874
 20
368.071309
 40
5.0
  0
CIRCLE
  5
59F
100
AcDbEntity
  8
M0
100
AcDbCircle
 10
80.117874
 20
427.071309
 40
5.0
  0
CIRCLE
  5
5A0
100
AcDbEntity
  8
M0
100
AcDbCircle
 10
97.717874
 20
427.071309
 40
5.0
  0
CIRCLE
  5
5A1
100
AcDbEntity
  8
M0
100
AcDbCircle
 10
115.317874
 20
427.071309
 40
5.0
  0
ARC
  5
5A2
100
AcDbEntity
  8
M0
100
AcDbCircle
 10
115.067874
 20
358.071309
 40
2.825
100
AcDbArc
 50
147.029184
 51
220.262187
  0
ARC
  5
5A3
100
AcDbEntity
  8
M0
100
AcDbCircle
 10
115.067874
 20
358.071309
 40
2.85
100
AcDbArc
 50
146.446983
 51
220.780622
  0
LINE
  5
5A4
100
AcDbEntity
  8
M0
100
AcDbLine
 10
112.596029
 20
355.071309
 11
109.817874
 21
355.071309
  0
LINE
  5
5A5
100
AcDbEntity
  8
M0
100
AcDbLine
 10
75.233124
 20
355.071309
 11
62.267874
 21
355.071309
  0
ARC
  5
5A6
100
AcDbEntity
  8
M0
100
AcDbCircle
 10
80.367874
 20
358.071309
 40
2.85
100
AcDbArc
 50
318.236176
 51
393.553017
  0
ARC
  5
5A7
100
AcDbEntity
  8
M0
100
AcDbCircle
 10
80.367874
 20
358.071309
 40
2.825
100
AcDbArc
 50
318.895617
 51
392.970816
  0
ARC
  5
5A8
100
AcDbEntity
  8
M0
 62
   154
100
AcDbCircle
 10
106.317873
 20
353.871307
 40
1.0
100
AcDbArc
 50
90.0
 51
180.0
  0
ARC
  5
5A9
100
AcDbEntity
  8
M0
 62
   154
100
AcDbCircle
 10
104.317873
 20
351.871307
 40
1.0
100
AcDbArc
 50
270.0
 51
360.0
  0
ARC
  5
5AA
100
AcDbEntity
  8
M0
 62
   154
100
AcDbCircle
 10
88.317873
 20
351.871307
 40
1.0
100
AcDbArc
 50
180.0
 51
270.0
  0
ARC
  5
5AB
100
AcDbEntity
  8
M0
 62
   154
100
AcDbCircle
 10
86.317873
 20
353.871307
 40
1.0
100
AcDbArc
 50
0.0
 51
90.0
  0
LINE
  5
5AC
100
AcDbEntity
  8
M0
 62
   154
100
AcDbLine
 10
106.317873
 20
354.871307
 11
112.485427
 21
354.871307
  0
LINE
  5
5AD
100
AcDbEntity
  8
M0
 62
   154
100
AcDbLine
 10
70.217873
 20
365.671307
 11
70.467874
 21
365.671307
  0
LINE
  5
5AE
100
AcDbEntity
  8
M0
 62
   154
100
AcDbLine
 10
105.317873
 20
351.871307
 11
105.317873
 21
353.871307
  0
LINE
  5
5AF
100
AcDbEntity
  8
M0
 62
   154
100
AcDbLine
 10
88.317873
 20
350.871307
 11
91.205721
 21
350.871307
  0
LINE
  5
5B0
100
AcDbEntity
  8
M0
 62
   154
100
AcDbLine
 10
87.317873
 20
353.871307
 11
87.317873
 21
351.871307
  0
LINE
  5
5B1
100
AcDbEntity
  8
M0
 62
   154
100
AcDbLine
 10
86.317873
 20
354.871307
 11
82.399219
 21
354.871307
  0
LINE
  5
5B2
100
AcDbEntity
  8
M0
 62
   154
100
AcDbLine
 10
70.217873
 20
348.463924
 11
70.217873
 21
365.671307
  0
LINE
  5
5B3
100
AcDbEntity
  8
M0
 62
   154
100
AcDbLine
 10
122.417873
 20
355.544527
 11
122.417873
 21
344.371307
  0
LINE
  5
5B4
100
AcDbEntity
  8
M0
 62
   154
100
AcDbLine
 10
121.217873
 20
344.371307
 11
121.217873
 21
355.635419
  0
LINE
  5
5B5
100
AcDbEntity
  8
M0
 62
   154
100
AcDbLine
 10
71.417873
 20
355.071309
 11
71.417873
 21
350.044874
  0
LINE
  5
5B6
100
AcDbEntity
  8
M0
 62
   154
100
AcDbLine
 10
119.433356
 20
354.871307
 11
121.217873
 21
354.871307
  0
LINE
  5
5B7
100
AcDbEntity
  8
M0
 62
   154
100
AcDbLine
 10
98.854218
 20
350.871307
 11
104.317873
 21
350.871307
  0
LINE
  5
5B8
100
AcDbEntity
  8
M0
 62
   154
100
AcDbLine
 10
75.081315
 20
354.871307
 11
71.417873
 21
354.871307
  0
ARC
  5
5B9
100
AcDbEntity
  8
M0
 62
     2
100
AcDbCircle
 10
243.950268
 20
346.13471
 40
3.599999
100
AcDbArc
 50
134.999796
 51
180.0
  0
ARC
  5
5BA
100
AcDbEntity
  8
M0
 62
     2
100
AcDbCircle
 10
243.950268
 20
346.134695
 40
2.0
100
AcDbArc
 50
135.000425
 51
180.0
  0
LINE
  5
5BB
100
AcDbEntity
  8
M0
 62
     2
100
AcDbLine
 10
247.795768
 20
355.071308
 11
241.40469
 21
348.680303
  0
LINE
  5
5BC
100
AcDbEntity
  8
M0
 62
     2
100
AcDbLine
 10
241.950131
 20
346.134496
 11
241.950131
 21
344.071308
  0
LINE
  5
5BD
100
AcDbEntity
  8
M0
 62
     2
100
AcDbLine
 10
250.058466
 20
355.071308
 11
242.536053
 21
347.548895
  0
LINE
  5
5BE
100
AcDbEntity
  8
M0
 62
     2
100
AcDbLine
 10
240.350277
 20
346.134496
 11
240.350277
 21
344.071308
  0
LINE
  5
5BF
100
AcDbEntity
  8
M0
 62
     6
100
AcDbLine
 10
242.496009
 20
328.571308
 11
245.196009
 21
328.571308
  0
LINE
  5
5C0
100
AcDbEntity
  8
M0
 62
     6
100
AcDbLine
 10
245.196009
 20
328.571308
 11
245.196009
 21
327.571308
  0
LINE
  5
5C1
100
AcDbEntity
  8
M0
 62
     6
100
AcDbLine
 10
242.496009
 20
327.571308
 11
245.196009
 21
327.571308
  0
LINE
  5
5C2
100
AcDbEntity
  8
M0
 62
     6
100
AcDbLine
 10
242.496009
 20
330.779873
 11
242.496009
 21
328.571308
  0
LINE
  5
5C3
100
AcDbEntity
  8
M0
 62
     6
100
AcDbLine
 10
242.496009
 20
330.779873
 11
245.196009
 21
330.779873
  0
LINE
  5
5C4
100
AcDbEntity
  8
M0
 62
     6
100
AcDbLine
 10
242.496009
 20
331.703752
 11
245.196009
 21
331.703752
  0
LINE
  5
5C5
100
AcDbEntity
  8
M0
 62
     6
100
AcDbLine
 10
242.496009
 20
333.576082
 11
245.196009
 21
333.576082
  0
LINE
  5
5C6
100
AcDbEntity
  8
M0
 62
     6
100
AcDbLine
 10
247.746009
 20
335.571308
 11
247.196009
 21
335.571308
  0
LINE
  5
5C7
100
AcDbEntity
  8
M0
 62
     6
100
AcDbLine
 10
242.496009
 20
334.283189
 11
245.196009
 21
334.283189
  0
LINE
  5
5C8
100
AcDbEntity
  8
M0
 62
     6
100
AcDbLine
 10
242.496009
 20
335.53424
 11
242.496009
 21
334.283189
  0
LINE
  5
5C9
100
AcDbEntity
  8
M0
 62
     6
100
AcDbLine
 10
241.296009
 20
336.371308
 11
245.196009
 21
336.371308
  0
LINE
  5
5CA
100
AcDbEntity
  8
M0
 62
     6
100
AcDbLine
 10
245.196009
 20
334.283189
 11
245.196009
 21
333.576082
  0
LINE
  5
5CB
100
AcDbEntity
  8
M0
 62
     6
100
AcDbLine
 10
245.196009
 20
331.703752
 11
245.196009
 21
330.779873
  0
LINE
  5
5CC
100
AcDbEntity
  8
M0
 62
     6
100
AcDbLine
 10
245.196009
 20
335.916924
 11
245.196009
 21
335.53424
  0
LINE
  5
5CD
100
AcDbEntity
  8
M0
 62
     6
100
AcDbLine
 10
242.496009
 20
335.916924
 11
245.196009
 21
335.916924
  0
LINE
  5
5CE
100
AcDbEntity
  8
M0
 62
     6
100
AcDbLine
 10
242.496009
 20
336.371308
 11
242.496009
 21
335.916924
  0
LINE
  5
5CF
100
AcDbEntity
  8
M0
 62
     6
100
AcDbLine
 10
245.196009
 20
336.371308
 11
245.196009
 21
336.071308
  0
LINE
  5
5D0
100
AcDbEntity
  8
M0
 62
     6
100
AcDbLine
 10
242.496009
 20
333.576082
 11
242.496009
 21
331.703752
  0
LINE
  5
5D1
100
AcDbEntity
  8
M0
 62
     6
100
AcDbLine
 10
245.196009
 20
336.071308
 11
247.196009
 21
336.071308
  0
LINE
  5
5D2
100
AcDbEntity
  8
M0
 62
     6
100
AcDbLine
 10
242.496009
 20
335.53424
 11
245.196009
 21
335.53424
  0
LINE
  5
5D3
100
AcDbEntity
  8
M0
 62
     6
100
AcDbLine
 10
236.246009
 20
323.071308
 11
236.246009
 21
339.071308
  0
ARC
  5
5D4
100
AcDbEntity
  8
M0
 62
     6
100
AcDbCircle
 10
237.246009
 20
332.321308
 40
1.0
100
AcDbArc
 50
180.0
 51
270.0
  0
ARC
  5
5D5
100
AcDbEntity
  8
M0
 62
     6
100
AcDbCircle
 10
238.196019
 20
331.321308
 40
0.5
100
AcDbArc
 50
90.0
 51
179.998251
  0
LINE
  5
5D6
100
AcDbEntity
  8
M0
 62
     6
100
AcDbLine
 10
237.696019
 20
324.821308
 11
237.696019
 21
331.321308
  0
LINE
  5
5D7
100
AcDbEntity
  8
M0
 62
     6
100
AcDbLine
 10
238.196019
 20
331.821308
 11
241.296009
 21
331.821308
  0
ARC
  5
5D8
100
AcDbEntity
  8
M0
 62
     6
100
AcDbCircle
 10
238.196019
 20
324.821308
 40
0.5
100
AcDbArc
 50
179.998251
 51
270.0
  0
LINE
  5
5D9
100
AcDbEntity
  8
M0
 62
     6
100
AcDbLine
 10
241.296009
 20
324.321308
 11
238.196019
 21
324.321308
  0
LINE
  5
5DA
100
AcDbEntity
  8
M0
 62
     6
100
AcDbLine
 10
241.296009
 20
336.371308
 11
241.296009
 21
319.771308
  0
LINE
  5
5DB
100
AcDbEntity
  8
M0
 62
     6
100
AcDbLine
 10
242.496009
 20
320.225693
 11
245.196009
 21
320.225693
  0
LINE
  5
5DC
100
AcDbEntity
  8
M0
 62
     6
100
AcDbLine
 10
242.496009
 20
320.608377
 11
245.196009
 21
320.608377
  0
LINE
  5
5DD
100
AcDbEntity
  8
M0
 62
     6
100
AcDbLine
 10
241.296009
 20
319.771308
 11
245.196009
 21
319.771308
  0
LINE
  5
5DE
100
AcDbEntity
  8
M0
 62
     6
100
AcDbLine
 10
242.496009
 20
324.438865
 11
242.496009
 21
322.566534
  0
LINE
  5
5DF
100
AcDbEntity
  8
M0
 62
     6
100
AcDbLine
 10
242.496009
 20
321.859428
 11
242.496009
 21
320.608377
  0
LINE
  5
5E0
100
AcDbEntity
  8
M0
 62
     6
100
AcDbLine
 10
242.496009
 20
327.571308
 11
242.496009
 21
325.362744
  0
LINE
  5
5E1
100
AcDbEntity
  8
M0
 62
     6
100
AcDbLine
 10
245.196009
 20
325.677167
 11
245.196009
 21
319.771308
  0
LINE
  5
5E2
100
AcDbEntity
  8
M0
 62
     6
100
AcDbLine
 10
242.496009
 20
324.438865
 11
245.196009
 21
324.438865
  0
LINE
  5
5E3
100
AcDbEntity
  8
M0
 62
     6
100
AcDbLine
 10
245.196009
 20
320.608377
 11
245.196009
 21
320.225693
  0
LINE
  5
5E4
100
AcDbEntity
  8
M0
 62
     6
100
AcDbLine
 10
242.496009
 20
321.859428
 11
245.196009
 21
321.859428
  0
LINE
  5
5E5
100
AcDbEntity
  8
M0
 62
     6
100
AcDbLine
 10
242.496009
 20
322.566534
 11
245.196009
 21
322.566534
  0
LINE
  5
5E6
100
AcDbEntity
  8
M0
 62
     6
100
AcDbLine
 10
242.496009
 20
325.362744
 11
245.196009
 21
325.362744
  0
LINE
  5
5E7
100
AcDbEntity
  8
M0
 62
     6
100
AcDbLine
 10
242.496009
 20
320.225693
 11
242.496009
 21
319.771308
  0
LINE
  5
5E8
100
AcDbEntity
  8
M0
 62
     6
100
AcDbLine
 10
247.196009
 20
325.677167
 11
245.196009
 21
325.677167
  0
LINE
  5
5E9
100
AcDbEntity
  8
M0
 62
     6
100
AcDbLine
 10
247.196009
 20
321.071308
 11
245.196009
 21
321.071308
  0
LINE
  5
5EA
100
AcDbEntity
  8
M0
 62
     6
100
AcDbLine
 10
247.196009
 20
320.571308
 11
247.196009
 21
336.071308
  0
LINE
  5
5EB
100
AcDbEntity
  8
M0
 62
     6
100
AcDbLine
 10
254.946009
 20
320.571308
 11
247.196009
 21
320.571308
  0
LINE
  5
5EC
100
AcDbEntity
  8
M0
 62
     6
100
AcDbLine
 10
247.746009
 20
321.947584
 11
247.196009
 21
321.947584
  0
LINE
  5
5ED
100
AcDbEntity
  8
M0
 62
     6
100
AcDbLine
 10
247.746009
 20
337.071308
 11
240.746009
 21
337.071308
  0
LINE
  5
5EE
100
AcDbEntity
  8
M0
 62
     6
100
AcDbLine
 10
240.746009
 20
339.071308
 11
240.746009
 21
337.071308
  0
LINE
  5
5EF
100
AcDbEntity
  8
M0
 62
     6
100
AcDbLine
 10
236.246009
 20
339.071308
 11
240.746009
 21
339.071308
  0
ARC
  5
5F0
100
AcDbEntity
  8
M0
 62
     6
100
AcDbCircle
 10
236.246009
 20
340.071308
 40
1.0
100
AcDbArc
 50
180.0
 51
270.0
  0
ARC
  5
5F1
100
AcDbEntity
  8
M0
 62
     6
100
AcDbCircle
 10
236.246009
 20
322.071308
 40
1.0
100
AcDbArc
 50
90.0
 51
180.0
  0
LINE
  5
5F2
100
AcDbEntity
  8
M0
 62
     6
100
AcDbLine
 10
235.246009
 20
320.571308
 11
235.246009
 21
322.071308
  0
LINE
  5
5F3
100
AcDbEntity
  8
M0
 62
     6
100
AcDbLine
 10
241.296009
 20
320.571308
 11
235.246009
 21
320.571308
  0
LINE
  5
5F4
100
AcDbEntity
  8
M0
 62
     6
100
AcDbLine
 10
241.296009
 20
323.071308
 11
236.246009
 21
323.071308
  0
LINE
  5
5F5
100
AcDbEntity
  8
M0
 62
     6
100
AcDbLine
 10
237.246009
 20
331.321308
 11
237.696019
 21
331.321308
  0
ARC
  5
5F6
100
AcDbEntity
  8
M0
 62
     6
100
AcDbCircle
 10
237.246009
 20
323.821308
 40
1.0
100
AcDbArc
 50
90.0
 51
180.0
  0
LINE
  5
5F7
100
AcDbEntity
  8
M0
 62
     6
100
AcDbLine
 10
237.246009
 20
324.821308
 11
237.696019
 21
324.821308
  0
LINE
  5
5F8
100
AcDbEntity
  8
M0
 62
     6
100
AcDbLine
 10
247.746009
 20
320.571308
 11
247.746009
 21
341.571308
  0
LINE
  5
5F9
100
AcDbEntity
  8
M0
 62
     6
100
AcDbLine
 10
254.546009
 20
341.571308
 11
235.246009
 21
341.571308
  0
LINE
  5
5FA
100
AcDbEntity
  8
M0
 62
     6
100
AcDbLine
 10
245.746009
 20
338.121308
 11
247.746009
 21
338.121308
  0
LINE
  5
5FB
100
AcDbEntity
  8
M0
 62
     6
100
AcDbLine
 10
245.746009
 20
340.421308
 11
245.746009
 21
338.121308
  0
LINE
  5
5FC
100
AcDbEntity
  8
M0
 62
     6
100
AcDbLine
 10
245.746009
 20
340.421308
 11
247.746009
 21
340.421308
  0
LINE
  5
5FD
100
AcDbEntity
  8
M0
 62
     6
100
AcDbLine
 10
235.246009
 20
340.071308
 11
235.246009
 21
341.571308
  0
LINE
  5
5FE
100
AcDbEntity
  8
M0
 62
     2
100
AcDbLine
 10
116.018785
 20
348.071484
 11
108.38892
 21
347.537951
  0
LINE
  5
5FF
100
AcDbEntity
  8
M0
 62
     2
100
AcDbLine
 10
111.304057
 20
352.754007
 11
118.921256
 21
353.286654
  0
ARC
  5
600
100
AcDbEntity
  8
M0
 62
     2
100
AcDbCircle
 10
111.048592
 20
371.782539
 40
1.0
100
AcDbArc
 50
94.0
 51
184.0
  0
ARC
  5
601
100
AcDbEntity
  8
M0
 62
     2
100
AcDbCircle
 10
119.029104
 20
372.340591
 40
1.0
100
AcDbArc
 50
4.0
 51
94.0
  0
LINE
  5
602
100
AcDbEntity
  8
M0
 62
     2
100
AcDbLine
 10
118.959347
 20
373.338155
 11
110.978835
 21
372.780103
  0
LINE
  5
603
100
AcDbEntity
  8
M0
 62
     2
100
AcDbLine
 10
110.702594
 20
362.394948
 11
110.051028
 21
371.712783
  0
LINE
  5
604
100
AcDbEntity
  8
M0
 62
     2
100
AcDbLine
 10
120.678235
 20
363.092512
 11
120.026668
 21
372.410348
  0
ARC
  5
605
100
AcDbEntity
  8
M0
 62
     2
100
AcDbCircle
 10
111.700158
 20
362.464704
 40
1.0
100
AcDbArc
 50
184.0
 51
244.940719
  0
LINE
  5
606
100
AcDbEntity
  8
M0
 62
     2
100
AcDbLine
 10
104.01397
 20
336.911014
 11
104.62114
 21
328.228086
  0
LINE
  5
607
100
AcDbEntity
  8
M0
 62
     2
100
AcDbLine
 10
105.68846
 20
327.300279
 11
114.666537
 21
327.928087
  0
LINE
  5
608
100
AcDbEntity
  8
M0
 62
     2
100
AcDbLine
 10
106.325547
 20
343.845956
 11
112.536098
 21
354.958499
  0
LINE
  5
609
100
AcDbEntity
  8
M0
 62
     2
100
AcDbLine
 10
105.951625
 20
342.173115
 11
106.079018
 21
340.351302
  0
LINE
  5
60A
100
AcDbEntity
  8
M0
 62
     2
100
AcDbLine
 10
112.843046
 20
342.389132
 11
119.053597
 21
353.501674
  0
LINE
  5
60B
100
AcDbEntity
  8
M0
 62
     2
100
AcDbLine
 10
119.427519
 20
355.174516
 11
119.096033
 21
359.914992
  0
LINE
  5
60C
100
AcDbEntity
  8
M0
 62
     2
100
AcDbLine
 10
112.91002
 20
356.63134
 11
112.711623
 21
359.46855
  0
LINE
  5
60D
100
AcDbEntity
  8
M0
 62
     2
100
AcDbLine
 10
112.469124
 20
340.71629
 11
112.463428
 21
340.797743
  0
LINE
  5
60E
100
AcDbEntity
  8
M0
 62
     2
100
AcDbLine
 10
115.594344
 20
328.995408
 11
114.987175
 21
337.678336
  0
ARC
  5
60F
100
AcDbEntity
  8
M0
 62
     2
100
AcDbCircle
 10
113.989611
 20
337.608579
 40
1.0
100
AcDbArc
 50
4.0
 51
73.948957
  0
ARC
  5
610
100
AcDbEntity
  8
M0
 62
     2
100
AcDbCircle
 10
110.217713
 20
359.294159
 40
2.5
100
AcDbArc
 50
4.0
 51
64.940719
  0
ARC
  5
611
100
AcDbEntity
  8
M0
 62
     2
100
AcDbCircle
 10
121.589943
 20
360.089383
 40
2.5
100
AcDbArc
 50
123.059281
 51
184.0
  0
ARC
  5
612
100
AcDbEntity
  8
M0
 62
     2
100
AcDbCircle
 10
119.68067
 20
363.022756
 40
1.0
100
AcDbArc
 50
303.059281
 51
364.0
  0
ARC
  5
613
100
AcDbEntity
  8
M0
 62
     2
100
AcDbCircle
 10
103.585108
 20
340.17691
 40
2.5
100
AcDbArc
 50
294.051043
 51
364.0
  0
ARC
  5
614
100
AcDbEntity
  8
M0
 62
     2
100
AcDbCircle
 10
114.957338
 20
340.972134
 40
2.5
100
AcDbArc
 50
184.0
 51
253.948957
  0
ARC
  5
615
100
AcDbEntity
  8
M0
 62
     2
100
AcDbCircle
 10
105.011534
 20
336.980771
 40
1.0
100
AcDbArc
 50
114.051043
 51
184.0
  0
ARC
  5
616
100
AcDbEntity
  8
M0
 62
     2
100
AcDbCircle
 10
108.944317
 20
342.382384
 40
3.0
100
AcDbArc
 50
150.800152
 51
184.0
  0
ARC
  5
617
100
AcDbEntity
  8
M0
 62
     2
100
AcDbCircle
 10
115.461816
 20
340.92556
 40
3.0
100
AcDbArc
 50
150.800152
 51
184.0
  0
ARC
  5
618
100
AcDbEntity
  8
M0
 62
     2
100
AcDbCircle
 10
116.434827
 20
354.965246
 40
3.0
100
AcDbArc
 50
330.800152
 51
364.0
  0
ARC
  5
619
100
AcDbEntity
  8
M0
 62
     2
100
AcDbCircle
 10
109.917328
 20
356.422071
 40
3.0
100
AcDbArc
 50
330.800152
 51
364.0
  0
ARC
  5
61A
100
AcDbEntity
  8
M0
 62
     2
100
AcDbCircle
 10
105.618704
 20
328.297843
 40
1.0
100
AcDbArc
 50
184.0
 51
274.0
  0
ARC
  5
61B
100
AcDbEntity
  8
M0
 62
     2
100
AcDbCircle
 10
114.59678
 20
328.925651
 40
1.0
100
AcDbArc
 50
274.0
 51
364.0
  0
LINE
  5
61C
100
AcDbEntity
  8
M0
 62
     2
100
AcDbLine
 10
78.028526
 20
348.168572
 11
70.398661
 21
348.702105
  0
LINE
  5
61D
100
AcDbEntity
  8
M0
 62
     2
100
AcDbLine
 10
74.011363
 20
353.461689
 11
81.628562
 21
352.929043
  0
ARC
  5
61E
100
AcDbEntity
  8
M0
 62
     2
100
AcDbCircle
 10
76.406643
 20
372.340591
 40
1.0
100
AcDbArc
 50
86.0
 51
176.0
  0
ARC
  5
61F
100
AcDbEntity
  8
M0
 62
     2
100
AcDbCircle
 10
84.387156
 20
371.782539
 40
1.0
100
AcDbArc
 50
356.0
 51
446.0
  0
LINE
  5
620
100
AcDbEntity
  8
M0
 62
     2
100
AcDbLine
 10
84.456912
 20
372.780103
 11
76.4764
 21
373.338155
  0
LINE
  5
621
100
AcDbEntity
  8
M0
 62
     2
100
AcDbLine
 10
74.757513
 20
363.092512
 11
75.409079
 21
372.410348
  0
LINE
  5
622
100
AcDbEntity
  8
M0
 62
     2
100
AcDbLine
 10
84.733153
 20
362.394948
 11
85.38472
 21
371.712783
  0
ARC
  5
623
100
AcDbEntity
  8
M0
 62
     2
100
AcDbCircle
 10
75.755077
 20
363.022756
 40
1.0
100
AcDbArc
 50
176.0
 51
236.940719
  0
LINE
  5
624
100
AcDbEntity
  8
M0
 62
     2
100
AcDbLine
 10
64.587304
 20
338.787463
 11
63.980135
 21
330.104536
  0
LINE
  5
625
100
AcDbEntity
  8
M0
 62
     2
100
AcDbLine
 10
64.907942
 20
329.037215
 11
73.886019
 21
328.409407
  0
LINE
  5
626
100
AcDbEntity
  8
M0
 62
     2
100
AcDbLine
 10
67.841542
 20
345.333206
 11
75.53822
 21
355.47326
  0
LINE
  5
627
100
AcDbEntity
  8
M0
 62
     2
100
AcDbLine
 10
67.238444
 20
343.728684
 11
67.111051
 21
341.906871
  0
LINE
  5
628
100
AcDbEntity
  8
M0
 62
     2
100
AcDbLine
 10
74.092863
 20
342.983498
 11
81.78954
 21
353.123553
  0
LINE
  5
629
100
AcDbEntity
  8
M0
 62
     2
100
AcDbLine
 10
82.392638
 20
354.728074
 11
82.724124
 21
359.46855
  0
LINE
  5
62A
100
AcDbEntity
  8
M0
 62
     2
100
AcDbLine
 10
76.141317
 20
357.077782
 11
76.339714
 21
359.914992
  0
LINE
  5
62B
100
AcDbEntity
  8
M0
 62
     2
100
AcDbLine
 10
73.489765
 20
341.378977
 11
73.495461
 21
341.46043
  0
LINE
  5
62C
100
AcDbEntity
  8
M0
 62
     2
100
AcDbLine
 10
74.953339
 20
329.337214
 11
75.560509
 21
338.020142
  0
ARC
  5
62D
100
AcDbEntity
  8
M0
 62
     2
100
AcDbCircle
 10
74.562945
 20
338.089899
 40
1.0
100
AcDbArc
 50
356.0
 51
425.948957
  0
ARC
  5
62E
100
AcDbEntity
  8
M0
 62
     2
100
AcDbCircle
 10
73.845804
 20
360.089383
 40
2.5
100
AcDbArc
 50
356.0
 51
416.940719
  0
ARC
  5
62F
100
AcDbEntity
  8
M0
 62
     2
100
AcDbCircle
 10
85.218034
 20
359.294159
 40
2.5
100
AcDbArc
 50
115.059281
 51
176.0
  0
ARC
  5
630
100
AcDbEntity
  8
M0
 62
     2
100
AcDbCircle
 10
83.735589
 20
362.464704
 40
1.0
100
AcDbArc
 50
295.059281
 51
356.0
  0
ARC
  5
631
100
AcDbEntity
  8
M0
 62
     2
100
AcDbCircle
 10
64.617141
 20
342.081262
 40
2.5
100
AcDbArc
 50
286.051043
 51
356.0
  0
ARC
  5
632
100
AcDbEntity
  8
M0
 62
     2
100
AcDbCircle
 10
75.989371
 20
341.286038
 40
2.5
100
AcDbArc
 50
176.0
 51
245.948957
  0
ARC
  5
633
100
AcDbEntity
  8
M0
 62
     2
100
AcDbCircle
 10
65.584868
 20
338.717707
 40
1.0
100
AcDbArc
 50
106.051043
 51
176.0
  0
ARC
  5
634
100
AcDbEntity
  8
M0
 62
     2
100
AcDbCircle
 10
70.231137
 20
343.519415
 40
3.0
100
AcDbArc
 50
142.800152
 51
176.0
  0
ARC
  5
635
100
AcDbEntity
  8
M0
 62
     2
100
AcDbCircle
 10
76.482457
 20
341.169707
 40
3.0
100
AcDbArc
 50
142.800152
 51
176.0
  0
ARC
  5
636
100
AcDbEntity
  8
M0
 62
     2
100
AcDbCircle
 10
79.399946
 20
354.937344
 40
3.0
100
AcDbArc
 50
322.800152
 51
356.0
  0
ARC
  5
637
100
AcDbEntity
  8
M0
 62
     2
100
AcDbCircle
 10
73.148625
 20
357.287051
 40
3.0
100
AcDbArc
 50
322.800152
 51
356.0
  0
ARC
  5
638
100
AcDbEntity
  8
M0
 62
     2
100
AcDbCircle
 10
64.977699
 20
330.034779
 40
1.0
100
AcDbArc
 50
176.0
 51
266.0
  0
ARC
  5
639
100
AcDbEntity
  8
M0
 62
     2
100
AcDbCircle
 10
73.955775
 20
329.406971
 40
1.0
100
AcDbArc
 50
266.0
 51
356.0
  0
LINE
  5
63A
100
AcDbEntity
  8
M0
 62
     7
100
AcDbLine
 10
226.150224
 20
391.071309
 11
226.150224
 21
386.571309
  0
LINE
  5
63B
100
AcDbEntity
  8
M0
 62
     7
100
AcDbLine
 10
275.550226
 20
391.371309
 11
277.350225
 21
391.371309
  0
LINE
  5
63C
100
AcDbEntity
  8
M0
 62
     7
100
AcDbLine
 10
224.650221
 20
391.071309
 11
226.150224
 21
391.071309
  0
LINE
  5
63D
100
AcDbEntity
  8
M0
 62
     7
100
AcDbLine
 10
277.350225
 20
355.071308
 11
277.350225
 21
391.571309
  0
LINE
  5
63E
100
AcDbEntity
  8
M0
 62
     7
100
AcDbLine
 10
225.150222
 20
408.571309
 11
228.450226
 21
408.571309
  0
LINE
  5
63F
100
AcDbEntity
  8
M0
 62
     7
100
AcDbLine
 10
275.050225
 20
403.271309
 11
275.050225
 21
400.771309
  0
LINE
  5
640
100
AcDbEntity
  8
M0
 62
     7
100
AcDbLine
 10
262.850223
 20
394.871309
 11
274.550224
 21
394.871309
  0
LINE
  5
641
100
AcDbEntity
  8
M0
 62
     7
100
AcDbLine
 10
224.150228
 20
387.071309
 11
224.150228
 21
408.071309
  0
LINE
  5
642
100
AcDbEntity
  8
M0
 62
     7
100
AcDbLine
 10
225.150222
 20
408.571309
 11
224.650221
 21
408.571309
  0
LINE
  5
643
100
AcDbEntity
  8
M0
 62
     7
100
AcDbLine
 10
224.650221
 20
386.571309
 11
228.450226
 21
386.571309
  0
ARC
  5
644
100
AcDbEntity
  8
M0
 62
     7
100
AcDbCircle
 10
275.850225
 20
403.071309
 40
0.5
100
AcDbArc
 50
90.0
 51
180.0
  0
LINE
  5
645
100
AcDbEntity
  8
M0
 62
     7
100
AcDbLine
 10
284.750225
 20
417.671308
 11
277.350225
 21
417.671308
  0
ARC
  5
646
100
AcDbEntity
  8
M0
 62
     7
100
AcDbCircle
 10
274.550225
 20
394.371309
 40
0.5
100
AcDbArc
 50
0.0
 51
90.0
  0
ARC
  5
647
100
AcDbEntity
  8
M0
 62
     7
100
AcDbCircle
 10
268.747494
 20
421.921309
 40
3.0
100
AcDbArc
 50
49.635463
 51
90.0
  0
ARC
  5
648
100
AcDbEntity
  8
M0
 62
     7
100
AcDbCircle
 10
275.550225
 20
391.871309
 40
0.5
100
AcDbArc
 50
180.0
 51
270.0
  0
LINE
  5
649
100
AcDbEntity
  8
M0
 62
     7
100
AcDbLine
 10
226.150224
 20
402.171309
 11
224.650221
 21
402.171309
  0
LINE
  5
64A
100
AcDbEntity
  8
M0
 62
     7
100
AcDbLine
 10
277.350225
 20
355.071308
 11
271.650225
 21
355.071308
  0
LINE
  5
64B
100
AcDbEntity
  8
M0
 62
     7
100
AcDbLine
 10
275.850224
 20
403.571309
 11
277.350225
 21
403.571309
  0
LINE
  5
64C
100
AcDbEntity
  8
M0
 62
     7
100
AcDbLine
 10
301.550225
 20
372.771308
 11
277.350225
 21
372.771308
  0
LINE
  5
64D
100
AcDbEntity
  8
M0
 62
     7
100
AcDbLine
 10
226.150224
 20
403.671309
 11
226.150224
 21
402.171309
  0
ARC
  5
64E
100
AcDbEntity
  8
M0
 62
     7
100
AcDbCircle
 10
262.850225
 20
395.371309
 40
0.5
100
AcDbArc
 50
180.0
 51
270.0
  0
ARC
  5
64F
100
AcDbEntity
  8
M0
 62
     7
100
AcDbCircle
 10
228.950225
 20
389.871309
 40
0.5
100
AcDbArc
 50
90.0
 51
180.0
  0
ARC
  5
650
100
AcDbEntity
  8
M0
 62
     7
100
AcDbCircle
 10
228.950225
 20
405.271309
 40
0.5
100
AcDbArc
 50
180.0
 51
270.0
  0
ARC
  5
651
100
AcDbEntity
  8
M0
 62
     7
100
AcDbCircle
 10
262.850225
 20
399.771309
 40
0.5
100
AcDbArc
 50
90.0
 51
180.0
  0
ARC
  5
652
100
AcDbEntity
  8
M0
 62
     7
100
AcDbCircle
 10
232.150225
 20
392.371309
 40
1.0
100
AcDbArc
 50
180.0
 51
270.0
  0
ARC
  5
653
100
AcDbEntity
  8
M0
 62
     7
100
AcDbCircle
 10
229.450225
 20
375.871309
 40
1.0
100
AcDbArc
 50
180.0
 51
270.0
  0
LINE
  5
654
100
AcDbEntity
  8
M0
 62
     7
100
AcDbLine
 10
237.250226
 20
417.671308
 11
248.650225
 21
417.671308
  0
LINE
  5
655
100
AcDbEntity
  8
M0
 62
     7
100
AcDbLine
 10
272.850225
 20
422.37131
 11
277.350225
 21
422.37131
  0
LINE
  5
656
100
AcDbEntity
  8
M0
 62
     7
100
AcDbLine
 10
275.050225
 20
394.371309
 11
275.050225
 21
391.871309
  0
LINE
  5
657
100
AcDbEntity
  8
M0
 62
     7
100
AcDbLine
 10
237.250226
 20
393.871309
 11
237.250226
 21
401.271309
  0
LINE
  5
658
100
AcDbEntity
  8
M0
 62
     7
100
AcDbLine
 10
277.350225
 20
403.571309
 11
277.350225
 21
430.571309
  0
LINE
  5
659
100
AcDbEntity
  8
M0
 62
     7
100
AcDbLine
 10
229.450228
 20
420.271309
 11
231.150227
 21
420.271309
  0
ELLIPSE
  5
65A
100
AcDbEntity
  8
M0
 62
     7
100
AcDbEllipse
 10
224.650225
 20
403.878416
 11
-0.5
 21
0.0
210
0.0
220
0.0
230
1.0
 40
0.414214
 41
0.0
 42
1.570796326794897
  0
LINE
  5
65B
100
AcDbEntity
  8
M0
 62
     7
100
AcDbLine
 10
231.150227
 20
399.071309
 11
228.450226
 21
399.071309
  0
LINE
  5
65C
100
AcDbEntity
  8
M0
 62
     7
100
AcDbLine
 10
262.350226
 20
399.771309
 11
262.350226
 21
395.371309
  0
LINE
  5
65D
100
AcDbEntity
  8
M0
 62
     7
100
AcDbLine
 10
231.150227
 20
404.771309
 11
228.950227
 21
404.771309
  0
ARC
  5
65E
100
AcDbEntity
  8
M0
 62
     7
100
AcDbCircle
 10
227.950225
 20
383.071309
 40
0.5
100
AcDbArc
 50
180.0
 51
270.0
  0
ARC
  5
65F
100
AcDbEntity
  8
M0
 62
     7
100
AcDbCircle
 10
268.747494
 20
373.221309
 40
3.0
100
AcDbArc
 50
270.0
 51
310.364537
  0
ARC
  5
660
100
AcDbEntity
  8
M0
 62
     7
100
AcDbCircle
 10
274.550225
 20
400.771309
 40
0.5
100
AcDbArc
 50
270.0
 51
360.0
  0
ARC
  5
661
100
AcDbEntity
  8
M0
 62
     7
100
AcDbCircle
 10
227.950225
 20
384.071309
 40
0.5
100
AcDbArc
 50
90.0
 51
180.0
  0
ARC
  5
662
100
AcDbEntity
  8
M0
 62
     7
100
AcDbCircle
 10
261.907584
 20
358.071309
 40
3.0
100
AcDbArc
 50
270.0
 51
315.0
  0
LINE
  5
663
100
AcDbEntity
  8
M0
 62
     7
100
AcDbLine
 10
228.450226
 20
402.071309
 11
231.150227
 21
402.071309
  0
LINE
  5
664
100
AcDbEntity
  8
M0
  6
DASHED
 62
     7
100
AcDbLine
 10
213.550224
 20
375.171311
 11
198.450224
 21
375.171311
  0
LINE
  5
665
100
AcDbEntity
  8
M0
  6
DASHED
 62
     7
100
AcDbLine
 10
213.550224
 20
421.971312
 11
198.450224
 21
421.971312
  0
LINE
  5
666
100
AcDbEntity
  8
M0
  6
DASHED
 62
     7
100
AcDbLine
 10
194.450224
 20
379.171311
 11
194.450224
 21
417.971311
  0
LINE
  5
667
100
AcDbEntity
  8
M0
  6
DASHED
 62
     7
100
AcDbLine
 10
192.850225
 20
399.871311
 11
192.850225
 21
397.071312
  0
LINE
  5
668
100
AcDbEntity
  8
M0
  6
DASHED
 62
     7
100
AcDbLine
 10
192.850225
 20
399.871311
 11
194.450224
 21
399.871311
  0
LINE
  5
669
100
AcDbEntity
  8
M0
  6
DASHED
 62
     7
100
AcDbLine
 10
218.550224
 20
380.871318
 11
218.550224
 21
380.171311
  0
ARC
  5
66A
100
AcDbEntity
  8
M0
  6
DASHED
 62
     7
100
AcDbCircle
 10
227.950224
 20
381.371317
 40
0.5
100
AcDbArc
 50
270.0
 51
360.0
  0
ARC
  5
66B
100
AcDbEntity
  8
M0
  6
DASHED
 62
     7
100
AcDbCircle
 10
213.550224
 20
380.171311
 40
5.0
100
AcDbArc
 50
270.0
 51
360.0
  0
ARC
  5
66C
100
AcDbEntity
  8
M0
  6
DASHED
 62
     7
100
AcDbCircle
 10
227.950224
 20
415.771305
 40
0.5
100
AcDbArc
 50
0.0
 51
90.0
  0
ARC
  5
66D
100
AcDbEntity
  8
M0
  6
DASHED
 62
     7
100
AcDbCircle
 10
198.450224
 20
379.171311
 40
4.0
100
AcDbArc
 50
180.0
 51
270.0
  0
ARC
  5
66E
100
AcDbEntity
  8
M0
  6
DASHED
 62
     7
100
AcDbCircle
 10
198.450224
 20
417.971311
 40
4.0
100
AcDbArc
 50
90.0
 51
180.0
  0
ARC
  5
66F
100
AcDbEntity
  8
M0
  6
DASHED
 62
     7
100
AcDbCircle
 10
213.550224
 20
416.971311
 40
5.0
100
AcDbArc
 50
0.0
 51
90.0
  0
LINE
  5
670
100
AcDbEntity
  8
M0
  6
DASHED
 62
     7
100
AcDbLine
 10
194.450224
 20
397.071312
 11
192.850225
 21
397.071312
  0
LINE
  5
671
100
AcDbEntity
  8
M0
  6
DASHED
 62
     7
100
AcDbLine
 10
227.950224
 20
416.271305
 11
218.550224
 21
416.271305
  0
LINE
  5
672
100
AcDbEntity
  8
M0
  6
DASHED
 62
     7
100
AcDbLine
 10
218.550224
 20
416.271305
 11
218.550224
 21
416.971311
  0
LINE
  5
673
100
AcDbEntity
  8
M0
  6
DASHED
 62
     7
100
AcDbLine
 10
226.750224
 20
418.271311
 11
227.350226
 21
416.271305
  0
LINE
  5
674
100
AcDbEntity
  8
M0
  6
DASHED
 62
     7
100
AcDbLine
 10
226.350224
 20
416.271305
 11
226.350224
 21
418.271311
  0
ELLIPSE
  5
675
100
AcDbEntity
  8
M0
 62
     7
100
AcDbEllipse
 10
224.650225
 20
402.378416
 11
-0.5
 21
0.0
210
0.0
220
0.0
230
1.0
 40
0.414214
 41
0.0
 42
1.570796326794897
  0
ARC
  5
676
100
AcDbEntity
  8
M0
 62
     7
100
AcDbCircle
 10
275.850225
 20
392.071309
 40
0.5
100
AcDbArc
 50
180.0
 51
270.0
  0
LINE
  5
677
100
AcDbEntity
  8
M0
 62
     7
100
AcDbLine
 10
219.150224
 20
427.79144
 11
219.150224
 21
445.99144
  0
ARC
  5
678
100
AcDbEntity
  8
M0
 62
     7
100
AcDbCircle
 10
237.250225
 20
414.671309
 40
3.0
100
AcDbArc
 50
90.0
 51
180.0
  0
LINE
  5
679
100
AcDbEntity
  8
M0
 62
     7
100
AcDbLine
 10
275.850224
 20
391.571309
 11
277.350225
 21
391.571309
  0
LINE
  5
67A
100
AcDbEntity
  8
M0
 62
     7
100
AcDbLine
 10
226.150224
 20
407.571309
 11
226.150224
 21
403.671309
  0
LINE
  5
67B
100
AcDbEntity
  8
M0
  6
DASHED
 62
     7
100
AcDbLine
 10
226.350224
 20
418.271311
 11
226.750224
 21
418.271311
  0
LINE
  5
67C
100
AcDbEntity
  8
M0
  6
DASHED
 62
     7
100
AcDbLine
 10
227.950225
 20
380.871318
 11
218.550224
 21
380.871318
  0
LINE
  5
67D
100
AcDbEntity
  8
M0
 62
     7
100
AcDbLine
 10
284.750225
 20
382.471308
 11
277.350225
 21
382.471308
  0
LINE
  5
67E
100
AcDbEntity
  8
M0
 62
     7
100
AcDbLine
 10
275.350226
 20
392.071309
 11
275.350226
 21
403.071309
  0
LINE
  5
67F
100
AcDbEntity
  8
M0
 62
     7
100
AcDbLine
 10
284.750225
 20
412.671309
 11
277.350225
 21
412.671309
  0
LINE
  5
680
100
AcDbEntity
  8
M0
 62
     7
100
AcDbLine
 10
263.650226
 20
400.271309
 11
263.650226
 21
395.071309
  0
LINE
  5
681
100
AcDbEntity
  8
M0
 62
     7
100
AcDbLine
 10
277.350225
 20
372.771308
 11
272.850225
 21
372.771308
  0
LINE
  5
682
100
AcDbEntity
  8
M0
 62
     7
100
AcDbLine
 10
272.850225
 20
372.771308
 11
270.69044
 21
370.935491
  0
LINE
  5
683
100
AcDbEntity
  8
M0
 62
     7
100
AcDbLine
 10
251.650224
 20
373.221308
 11
251.650224
 21
374.471309
  0
LINE
  5
684
100
AcDbEntity
  8
M0
 62
     7
100
AcDbLine
 10
248.650225
 20
377.47131
 11
237.250226
 21
377.47131
  0
LINE
  5
685
100
AcDbEntity
  8
M0
 62
     7
100
AcDbLine
 10
231.150227
 20
360.071309
 11
231.150227
 21
435.071309
  0
LINE
  5
686
100
AcDbEntity
  8
M0
 62
     7
100
AcDbLine
 10
232.150222
 20
403.771309
 11
234.250227
 21
403.771309
  0
ARC
  5
687
100
AcDbEntity
  8
M0
 62
     7
100
AcDbCircle
 10
235.250225
 20
402.271309
 40
1.0
100
AcDbArc
 50
180.0
 51
270.0
  0
ARC
  5
688
100
AcDbEntity
  8
M0
 62
     7
100
AcDbCircle
 10
271.650225
 20
356.071309
 40
1.0
100
AcDbArc
 50
180.0
 51
270.0
  0
ARC
  5
689
100
AcDbEntity
  8
M0
 62
     7
100
AcDbCircle
 10
237.250225
 20
380.471309
 40
3.0
100
AcDbArc
 50
180.0
 51
270.0
  0
ARC
  5
68A
100
AcDbEntity
  8
M0
 62
     7
100
AcDbCircle
 10
236.150225
 20
360.071309
 40
5.0
100
AcDbArc
 50
180.0
 51
270.0
  0
ARC
  5
68B
100
AcDbEntity
  8
M0
 62
     7
100
AcDbCircle
 10
232.150225
 20
402.771309
 40
1.0
100
AcDbArc
 50
90.0
 51
180.0
  0
ARC
  5
68C
100
AcDbEntity
  8
M0
 62
     7
100
AcDbCircle
 10
224.650225
 20
408.071309
 40
0.5
100
AcDbArc
 50
90.0
 51
180.0
  0
ARC
  5
68D
100
AcDbEntity
  8
M0
 62
     7
100
AcDbCircle
 10
264.150225
 20
395.071309
 40
0.5
100
AcDbArc
 50
180.0
 51
203.578178
  0
ARC
  5
68E
100
AcDbEntity
  8
M0
 62
     7
100
AcDbCircle
 10
236.150225
 20
435.071309
 40
5.0
100
AcDbArc
 50
90.0
 51
180.0
  0
ARC
  5
68F
100
AcDbEntity
  8
M0
 62
     7
100
AcDbCircle
 10
235.250225
 20
392.871309
 40
1.0
100
AcDbArc
 50
90.0
 51
180.0
  0
ARC
  5
690
100
AcDbEntity
  8
M0
 62
     7
100
AcDbCircle
 10
248.650225
 20
374.471309
 40
3.0
100
AcDbArc
 50
0.0
 51
90.0
  0
ARC
  5
691
100
AcDbEntity
  8
M0
 62
     7
100
AcDbCircle
 10
254.650225
 20
373.221309
 40
3.0
100
AcDbArc
 50
180.0
 51
270.0
  0
ARC
  5
692
100
AcDbEntity
  8
M0
 62
     7
100
AcDbCircle
 10
266.650225
 20
395.071309
 40
0.5
100
AcDbArc
 50
336.421822
 51
360.0
  0
ARC
  5
693
100
AcDbEntity
  8
M0
 62
     7
100
AcDbCircle
 10
275.050225
 20
400.571309
 40
0.5
100
AcDbArc
 50
53.130102
 51
90.0
  0
ARC
  5
694
100
AcDbEntity
  8
M0
 62
     7
100
AcDbCircle
 10
261.496719
 20
437.071309
 40
3.0
100
AcDbArc
 50
32.275644
 51
90.0
  0
LINE
  5
695
100
AcDbEntity
  8
M0
 62
     7
100
AcDbLine
 10
236.150222
 20
440.071309
 11
261.496717
 21
440.071309
  0
ARC
  5
696
100
AcDbEntity
  8
M0
 62
     7
100
AcDbCircle
 10
275.050225
 20
393.571309
 40
0.5
100
AcDbArc
 50
270.0
 51
306.869898
  0
LINE
  5
697
100
AcDbEntity
  8
M0
 62
     7
100
AcDbLine
 10
269.150226
 20
361.071309
 11
264.028905
 21
355.949989
  0
LINE
  5
698
100
AcDbEntity
  8
M0
 62
     7
100
AcDbLine
 10
269.138912
 20
370.246953
 11
269.138912
 21
361.071309
  0
LINE
  5
699
100
AcDbEntity
  8
M0
 62
     7
100
AcDbLine
 10
269.150226
 20
430.571309
 11
277.350225
 21
430.571309
  0
LINE
  5
69A
100
AcDbEntity
  8
M0
 62
     7
100
AcDbLine
 10
224.650221
 20
408.571309
 11
225.150222
 21
408.571309
  0
LINE
  5
69B
100
AcDbEntity
  8
M0
 62
     7
100
AcDbLine
 10
277.350225
 20
361.071309
 11
269.150226
 21
361.071309
  0
LINE
  5
69C
100
AcDbEntity
  8
M0
 62
     7
100
AcDbLine
 10
234.250227
 20
391.371309
 11
232.150222
 21
391.371309
  0
LINE
  5
69D
100
AcDbEntity
  8
M0
 62
     7
100
AcDbLine
 10
264.033186
 20
438.673286
 11
269.150226
 21
430.571309
  0
LINE
  5
69E
100
AcDbEntity
  8
M0
 62
     7
100
AcDbLine
 10
261.907583
 20
355.071308
 11
236.150222
 21
355.071308
  0
LINE
  5
69F
100
AcDbEntity
  8
M0
 62
     7
100
AcDbLine
 10
269.138912
 20
430.571309
 11
269.138912
 21
424.895665
  0
LINE
  5
6A0
100
AcDbEntity
  8
M0
 62
     7
100
AcDbLine
 10
275.350226
 20
401.871309
 11
275.050225
 21
401.871309
  0
LINE
  5
6A1
100
AcDbEntity
  8
M0
 62
     7
100
AcDbLine
 10
228.450226
 20
407.571309
 11
226.150224
 21
407.571309
  0
LINE
  5
6A2
100
AcDbEntity
  8
M0
 62
     7
100
AcDbLine
 10
234.250227
 20
380.471308
 11
234.250227
 21
392.871309
  0
LINE
  5
6A3
100
AcDbEntity
  8
M0
 62
     7
100
AcDbLine
 10
237.250226
 20
393.871309
 11
235.250222
 21
393.871309
  0
LINE
  5
6A4
100
AcDbEntity
  8
M0
 62
     7
100
AcDbLine
 10
235.250222
 20
401.271309
 11
235.250222
 21
393.871309
  0
LINE
  5
6A5
100
AcDbEntity
  8
M0
 62
     7
100
AcDbLine
 10
231.150227
 20
393.071309
 11
228.450226
 21
393.071309
  0
LINE
  5
6A6
100
AcDbEntity
  8
M0
 62
     7
100
AcDbLine
 10
268.747492
 20
370.22131
 11
254.650226
 21
370.22131
  0
LINE
  5
6A7
100
AcDbEntity
  8
M0
 62
     7
100
AcDbLine
 10
262.850223
 20
400.271309
 11
274.550224
 21
400.271309
  0
LINE
  5
6A8
100
AcDbEntity
  8
M0
 62
     7
100
AcDbLine
 10
254.650226
 20
424.921308
 11
268.747492
 21
424.921308
  0
LINE
  5
6A9
100
AcDbEntity
  8
M0
 62
     7
100
AcDbLine
 10
275.550226
 20
403.771309
 11
277.350225
 21
403.771309
  0
LINE
  5
6AA
100
AcDbEntity
  8
M0
 62
     7
100
AcDbLine
 10
228.950227
 20
390.371309
 11
231.150227
 21
390.371309
  0
LINE
  5
6AB
100
AcDbEntity
  8
M0
 62
     7
100
AcDbLine
 10
228.450226
 20
396.071309
 11
231.150227
 21
396.071309
  0
LINE
  5
6AC
100
AcDbEntity
  8
M0
 62
     7
100
AcDbLine
 10
238.250228
 20
402.271309
 11
238.250228
 21
392.871309
  0
LINE
  5
6AD
100
AcDbEntity
  8
M0
 62
     7
100
AcDbLine
 10
227.450224
 20
383.071309
 11
227.450224
 21
384.071309
  0
LINE
  5
6AE
100
AcDbEntity
  8
M0
 62
     7
100
AcDbLine
 10
270.650225
 20
356.07131
 11
270.650225
 21
361.071309
  0
LINE
  5
6AF
100
AcDbEntity
  8
M0
 62
     7
100
AcDbLine
 10
228.450226
 20
375.871308
 11
228.450226
 21
419.271309
  0
LINE
  5
6B0
100
AcDbEntity
  8
M0
 62
     7
100
AcDbLine
 10
227.950225
 20
384.571309
 11
228.450226
 21
384.571309
  0
LINE
  5
6B1
100
AcDbEntity
  8
M0
 62
     7
100
AcDbLine
 10
251.650224
 20
420.671309
 11
251.650224
 21
421.921309
  0
LINE
  5
6B2
100
AcDbEntity
  8
M0
 62
     7
100
AcDbLine
 10
228.450226
 20
382.571309
 11
227.950225
 21
382.571309
  0
LINE
  5
6B3
100
AcDbEntity
  8
M0
 62
     7
100
AcDbLine
 10
270.69044
 20
424.207127
 11
272.850225
 21
422.37131
  0
LINE
  5
6B4
100
AcDbEntity
  8
M0
 62
     7
100
AcDbLine
 10
284.750225
 20
377.47131
 11
277.350225
 21
377.47131
  0
LINE
  5
6B5
100
AcDbEntity
  8
M0
 62
     7
100
AcDbLine
 10
237.250226
 20
401.271309
 11
235.250222
 21
401.271309
  0
LINE
  5
6B6
100
AcDbEntity
  8
M0
 62
     7
100
AcDbLine
 10
231.150227
 20
374.871308
 11
229.450228
 21
374.871308
  0
LINE
  5
6B7
100
AcDbEntity
  8
M0
 62
     7
100
AcDbLine
 10
226.150224
 20
403.671309
 11
224.650221
 21
403.671309
  0
LINE
  5
6B8
100
AcDbEntity
  8
M0
 62
     7
100
AcDbLine
 10
229.950222
 20
399.071309
 11
229.950222
 21
396.071309
  0
LINE
  5
6B9
100
AcDbEntity
  8
M0
 62
     7
100
AcDbLine
 10
229.950222
 20
404.771309
 11
229.950222
 21
402.071309
  0
LINE
  5
6BA
100
AcDbEntity
  8
M0
 62
     7
100
AcDbLine
 10
229.950222
 20
390.371309
 11
229.950222
 21
393.071309
  0
LINE
  5
6BB
100
AcDbEntity
  8
M0
 62
     7
100
AcDbLine
 10
234.250227
 20
402.271309
 11
234.250227
 21
414.67131
  0
LINE
  5
6BC
100
AcDbEntity
  8
M0
 62
     7
100
AcDbLine
 10
267.150225
 20
395.071309
 11
267.150225
 21
400.271309
  0
ARC
  5
6BD
100
AcDbEntity
  8
M0
 62
     7
100
AcDbCircle
 10
254.650225
 20
421.921309
 40
3.0
100
AcDbArc
 50
90.0
 51
180.0
  0
ARC
  5
6BE
100
AcDbEntity
  8
M0
 62
     7
100
AcDbCircle
 10
275.550225
 20
403.271309
 40
0.5
100
AcDbArc
 50
90.0
 51
180.0
  0
ARC
  5
6BF
100
AcDbEntity
  8
M0
 62
     7
100
AcDbCircle
 10
229.450225
 20
419.271309
 40
1.0
100
AcDbArc
 50
90.0
 51
180.0
  0
ARC
  5
6C0
100
AcDbEntity
  8
M0
 62
     7
100
AcDbCircle
 10
224.650225
 20
387.071309
 40
0.5
100
AcDbArc
 50
180.0
 51
270.0
  0
ARC
  5
6C1
100
AcDbEntity
  8
M0
 62
     7
100
AcDbCircle
 10
248.650225
 20
420.671309
 40
3.0
100
AcDbArc
 50
270.0
 51
360.0
  0
ARC
  5
6C2
100
AcDbEntity
  8
M0
 62
     7
100
AcDbCircle
 10
237.250225
 20
402.271309
 40
1.0
100
AcDbArc
 50
270.0
 51
360.0
  0
ARC
  5
6C3
100
AcDbEntity
  8
M0
 62
     7
100
AcDbCircle
 10
224.650225
 20
390.571309
 40
0.5
100
AcDbArc
 50
90.0
 51
180.0
  0
ARC
  5
6C4
100
AcDbEntity
  8
M0
 62
     7
100
AcDbCircle
 10
237.250225
 20
392.871309
 40
1.0
100
AcDbArc
 50
0.0
 51
90.0
  0
LINE
  5
6C5
100
AcDbEntity
  8
M0
  6
DIVIDE
 62
     7
100
AcDbLine
 10
346.650223
 20
410.071318
 11
340.150223
 21
410.071318
  0
LINE
  5
6C6
100
AcDbEntity
  8
M0
  6
DIVIDE
 62
     7
100
AcDbLine
 10
346.650223
 20
410.071318
 11
346.650223
 21
385.071318
  0
LINE
  5
6C7
100
AcDbEntity
  8
M0
  6
DIVIDE
 62
     7
100
AcDbLine
 10
341.150223
 20
415.071318
 11
341.150223
 21
411.071318
  0
LINE
  5
6C8
100
AcDbEntity
  8
M0
  6
DIVIDE
 62
     7
100
AcDbLine
 10
347.650223
 20
411.071318
 11
341.150223
 21
411.071318
  0
LINE
  5
6C9
100
AcDbEntity
  8
M0
  6
DIVIDE
 62
     7
100
AcDbLine
 10
341.150223
 20
415.071318
 11
340.150223
 21
415.071318
  0
LINE
  5
6CA
100
AcDbEntity
  8
M0
  6
DIVIDE
 62
     7
100
AcDbLine
 10
347.650223
 20
384.071318
 11
341.150223
 21
384.071318
  0
LINE
  5
6CB
100
AcDbEntity
  8
M0
  6
DIVIDE
 62
     7
100
AcDbLine
 10
346.650223
 20
385.071318
 11
340.150223
 21
385.071318
  0
LINE
  5
6CC
100
AcDbEntity
  8
M0
  6
DIVIDE
 62
     7
100
AcDbLine
 10
340.150223
 20
380.071318
 11
341.150223
 21
380.071318
  0
LINE
  5
6CD
100
AcDbEntity
  8
M0
  6
DIVIDE
 62
     7
100
AcDbLine
 10
341.150223
 20
384.071318
 11
341.150223
 21
380.071318
  0
LINE
  5
6CE
100
AcDbEntity
  8
M0
  6
DIVIDE
 62
     7
100
AcDbLine
 10
347.650223
 20
384.071318
 11
347.650223
 21
411.071318
  0
LINE
  5
6CF
100
AcDbEntity
  8
M0
 62
     7
100
AcDbLine
 10
344.350224
 20
356.321309
 11
344.650224
 21
356.321309
  0
LINE
  5
6D0
100
AcDbEntity
  8
M0
 62
     7
100
AcDbLine
 10
289.250224
 20
414.631864
 11
304.750224
 21
414.631864
  0
LINE
  5
6D1
100
AcDbEntity
  8
M0
 62
     7
100
AcDbLine
 10
289.250224
 20
414.631864
 11
289.250224
 21
412.110754
  0
LINE
  5
6D2
100
AcDbEntity
  8
M0
 62
     7
100
AcDbLine
 10
333.650224
 20
356.071309
 11
333.650224
 21
372.771309
  0
LINE
  5
6D3
100
AcDbEntity
  8
M0
 62
     7
100
AcDbLine
 10
343.850224
 20
355.071309
 11
301.346009
 21
355.071309
  0
LINE
  5
6D4
100
AcDbEntity
  8
M0
 62
     7
100
AcDbLine
 10
344.350224
 20
425.071309
 11
344.350224
 21
424.071309
  0
LINE
  5
6D5
100
AcDbEntity
  8
M0
 62
     7
100
AcDbLine
 10
344.350224
 20
431.571309
 11
344.350224
 21
431.071309
  0
LINE
  5
6D6
100
AcDbEntity
  8
M0
 62
     7
100
AcDbLine
 10
344.350224
 20
412.871309
 11
344.350224
 21
415.871309
  0
LINE
  5
6D7
100
AcDbEntity
  8
M0
 62
     7
100
AcDbLine
 10
344.350224
 20
379.271309
 11
344.350224
 21
355.571309
  0
ARC
  5
6D8
100
AcDbEntity
  8
M0
 62
     7
100
AcDbCircle
 10
343.850224
 20
415.871309
 40
0.5
100
AcDbArc
 50
270.0
 51
360.0
  0
ARC
  5
6D9
100
AcDbEntity
  8
M0
 62
     7
100
AcDbCircle
 10
339.650224
 20
410.871309
 40
0.5
100
AcDbArc
 50
0.0
 51
90.0
  0
LINE
  5
6DA
100
AcDbEntity
  8
M0
 62
     7
100
AcDbLine
 10
289.250224
 20
380.510754
 11
289.250224
 21
383.031864
  0
LINE
  5
6DB
100
AcDbEntity
  8
M0
 62
     7
100
AcDbLine
 10
340.350224
 20
379.771309
 11
340.350224
 21
380.271309
  0
LINE
  5
6DC
100
AcDbEntity
  8
M0
 62
     7
100
AcDbLine
 10
344.650224
 20
361.361801
 11
344.350224
 21
361.361801
  0
LINE
  5
6DD
100
AcDbEntity
  8
M0
 62
     7
100
AcDbLine
 10
334.650224
 20
439.071309
 11
343.850224
 21
439.071309
  0
LINE
  5
6DE
100
AcDbEntity
  8
M0
 62
     7
100
AcDbLine
 10
344.650224
 20
434.481817
 11
344.350224
 21
434.481817
  0
LINE
  5
6DF
100
AcDbEntity
  8
M0
 62
     7
100
AcDbLine
 10
344.650224
 20
438.571309
 11
344.650224
 21
426.321309
  0
LINE
  5
6E0
100
AcDbEntity
  8
M0
 62
     7
100
AcDbLine
 10
344.650224
 20
428.821309
 11
344.350224
 21
428.821309
  0
LINE
  5
6E1
100
AcDbEntity
  8
M0
 62
     7
100
AcDbLine
 10
344.650224
 20
368.821309
 11
344.350224
 21
368.821309
  0
LINE
  5
6E2
100
AcDbEntity
  8
M0
 62
     7
100
AcDbLine
 10
344.350224
 20
426.321309
 11
344.350224
 21
425.071309
  0
LINE
  5
6E3
100
AcDbEntity
  8
M0
 62
     7
100
AcDbLine
 10
344.350224
 20
431.571309
 11
344.350224
 21
430.071309
  0
LINE
  5
6E4
100
AcDbEntity
  8
M0
 62
     7
100
AcDbLine
 10
340.350224
 20
380.271309
 11
340.150224
 21
380.271309
  0
LINE
  5
6E5
100
AcDbEntity
  8
M0
 62
     7
100
AcDbLine
 10
289.250224
 20
383.031864
 11
304.750224
 21
383.031864
  0
LINE
  5
6E6
100
AcDbEntity
  8
M0
 62
     7
100
AcDbLine
 10
344.650224
 20
438.571309
 11
344.350224
 21
438.571309
  0
LINE
  5
6E7
100
AcDbEntity
  8
M0
 62
     7
100
AcDbLine
 10
304.750224
 20
412.110754
 11
289.250224
 21
412.110754
  0
LINE
  5
6E8
100
AcDbEntity
  8
M0
 62
     7
100
AcDbLine
 10
304.750224
 20
380.510754
 11
289.250224
 21
380.510754
  0
LINE
  5
6E9
100
AcDbEntity
  8
M0
 62
     7
100
AcDbLine
 10
344.650224
 20
426.321309
 11
344.350224
 21
426.321309
  0
LINE
  5
6EA
100
AcDbEntity
  8
M0
 62
     7
100
AcDbLine
 10
344.350224
 20
431.571309
 11
344.350224
 21
430.071309
  0
LINE
  5
6EB
100
AcDbEntity
  8
M0
 62
     7
100
AcDbLine
 10
305.050224
 20
415.413051
 11
305.050224
 21
414.931864
  0
LINE
  5
6EC
100
AcDbEntity
  8
M0
 62
     7
100
AcDbLine
 10
344.350224
 20
430.071309
 11
344.350224
 21
431.071309
  0
LINE
  5
6ED
100
AcDbEntity
  8
M0
 62
     7
100
AcDbLine
 10
266.850224
 20
444.071309
 11
286.236011
 21
444.071309
  0
LINE
  5
6EE
100
AcDbEntity
  8
M0
 62
     7
100
AcDbLine
 10
344.350224
 20
431.18281
 11
344.350224
 21
430.18281
  0
LINE
  5
6EF
100
AcDbEntity
  8
M0
 62
     7
100
AcDbLine
 10
266.350224
 20
435.004643
 11
266.350224
 21
443.071309
  0
LINE
  5
6F0
100
AcDbEntity
  8
M0
 62
     7
100
AcDbLine
 10
266.350224
 20
443.071309
 11
266.350224
 21
443.571309
  0
LINE
  5
6F1
100
AcDbEntity
  8
M0
 62
     7
100
AcDbLine
 10
333.407829
 20
430.591639
 11
333.172011
 21
430.57448
  0
LINE
  5
6F2
100
AcDbEntity
  8
M0
 62
     7
100
AcDbLine
 10
333.646006
 20
430.679126
 11
333.407829
 21
430.591639
  0
LINE
  5
6F3
100
AcDbEntity
  8
M0
 62
     7
100
AcDbLine
 10
334.650224
 20
373.771309
 11
343.850224
 21
373.771309
  0
ARC
  5
6F4
100
AcDbEntity
  8
M0
 62
     7
100
AcDbCircle
 10
286.236011
 20
443.071309
 40
1.0
100
AcDbArc
 50
45.0
 51
90.0
  0
LINE
  5
6F5
100
AcDbEntity
  8
M0
 62
     7
100
AcDbLine
 10
286.350224
 20
361.071309
 11
277.350224
 21
361.071309
  0
ARC
  5
6F6
100
AcDbEntity
  8
M0
 62
     7
100
AcDbCircle
 10
266.850224
 20
443.571309
 40
0.5
100
AcDbArc
 50
90.0
 51
180.0
  0
ARC
  5
6F7
100
AcDbEntity
  8
M0
 62
     7
100
AcDbCircle
 10
269.350224
 20
441.071309
 40
3.0
100
AcDbArc
 50
90.0
 51
180.0
  0
LINE
  5
6F8
100
AcDbEntity
  8
M0
 62
     7
100
AcDbLine
 10
277.350224
 20
422.371309
 11
333.650224
 21
422.371309
  0
LINE
  5
6F9
100
AcDbEntity
  8
M0
 62
     7
100
AcDbLine
 10
344.650224
 20
368.821309
 11
344.650224
 21
356.321309
  0
LINE
  5
6FA
100
AcDbEntity
  8
M0
 62
     7
100
AcDbLine
 10
333.650224
 20
372.771309
 11
277.350224
 21
372.771309
  0
LINE
  5
6FB
100
AcDbEntity
  8
M0
 62
     7
100
AcDbLine
 10
277.350224
 20
430.571309
 11
333.236011
 21
430.571309
  0
LINE
  5
6FC
100
AcDbEntity
  8
M0
 62
     7
100
AcDbLine
 10
305.050224
 20
380.210754
 11
305.050224
 21
379.729566
  0
LINE
  5
6FD
100
AcDbEntity
  8
M0
 62
     7
100
AcDbLine
 10
284.750224
 20
377.471309
 11
284.750224
 21
382.471309
  0
LINE
  5
6FE
100
AcDbEntity
  8
M0
 62
     7
100
AcDbLine
 10
344.350224
 20
430.071309
 11
344.350224
 21
427.071309
  0
LINE
  5
6FF
100
AcDbEntity
  8
M0
 62
     7
100
AcDbLine
 10
305.050224
 20
379.771309
 11
343.850224
 21
379.771309
  0
ARC
  5
700
100
AcDbEntity
  8
M0
 62
     7
100
AcDbCircle
 10
290.650224
 20
438.657095
 40
1.0
100
AcDbArc
 50
0.0
 51
45.0
  0
ARC
  5
701
100
AcDbEntity
  8
M0
 62
     7
100
AcDbCircle
 10
339.650224
 20
384.271309
 40
0.5
100
AcDbArc
 50
270.0
 51
360.0
  0
LINE
  5
702
100
AcDbEntity
  8
M0
 62
     7
100
AcDbLine
 10
333.650224
 20
422.371309
 11
333.650224
 21
438.071309
  0
LINE
  5
703
100
AcDbEntity
  8
M0
 62
     7
100
AcDbLine
 10
340.850224
 20
380.771309
 11
342.350224
 21
380.771309
  0
LINE
  5
704
100
AcDbEntity
  8
M0
 62
     7
100
AcDbLine
 10
344.350224
 20
431.571309
 11
344.350224
 21
431.18281
  0
LINE
  5
705
100
AcDbEntity
  8
M0
 62
     7
100
AcDbLine
 10
342.350224
 20
380.271309
 11
342.350224
 21
379.771309
  0
LINE
  5
706
100
AcDbEntity
  8
M0
 62
     7
100
AcDbLine
 10
344.650224
 20
435.6608
 11
344.350224
 21
435.6608
  0
LINE
  5
707
100
AcDbEntity
  8
M0
 62
     7
100
AcDbLine
 10
342.350224
 20
380.771309
 11
342.350224
 21
380.271309
  0
ELLIPSE
  5
708
100
AcDbEntity
  8
M0
 62
     7
100
AcDbEllipse
 10
343.850224
 20
373.746371
 11
-0.5
 21
0.0
210
0.0
220
0.0
230
1.0
 40
0.049876
 41
3.141592653589793
 42
4.71238898038469
  0
LINE
  5
709
100
AcDbEntity
  8
M0
 62
     7
100
AcDbLine
 10
344.350224
 20
430.18281
 11
344.350224
 21
430.071309
  0
LINE
  5
70A
100
AcDbEntity
  8
M0
 62
     7
100
AcDbLine
 10
322.850224
 20
434.071309
 11
324.350224
 21
434.071309
  0
LINE
  5
70B
100
AcDbEntity
  8
M0
 62
     7
100
AcDbLine
 10
344.350224
 20
377.771309
 11
344.350224
 21
378.771309
  0
LINE
  5
70C
100
AcDbEntity
  8
M0
 62
     7
100
AcDbLine
 10
344.650224
 20
363.601615
 11
344.350224
 21
363.601615
  0
LINE
  5
70D
100
AcDbEntity
  8
M0
 62
     7
100
AcDbLine
 10
301.550224
 20
356.071309
 11
301.550224
 21
366.071309
  0
LINE
  5
70E
100
AcDbEntity
  8
M0
 62
     7
100
AcDbLine
 10
321.850224
 20
434.071309
 11
333.650224
 21
434.071309
  0
LINE
  5
70F
100
AcDbEntity
  8
M0
 62
     7
100
AcDbLine
 10
340.150224
 20
412.871309
 11
340.150224
 21
415.371309
  0
LINE
  5
710
100
AcDbEntity
  8
M0
 62
     7
100
AcDbLine
 10
341.150224
 20
415.371309
 11
341.150224
 21
413.871309
  0
LINE
  5
711
100
AcDbEntity
  8
M0
 62
     7
100
AcDbLine
 10
341.850224
 20
382.271309
 11
342.290224
 21
381.771309
  0
LINE
  5
712
100
AcDbEntity
  8
M0
 62
     7
100
AcDbLine
 10
340.150224
 20
409.371309
 11
340.450224
 21
409.871309
  0
LINE
  5
713
100
AcDbEntity
  8
M0
 62
     7
100
AcDbLine
 10
344.350224
 20
358.321309
 11
344.350224
 21
357.071309
  0
LINE
  5
714
100
AcDbEntity
  8
M0
 62
     7
100
AcDbLine
 10
340.450224
 20
409.871309
 11
340.450224
 21
411.871309
  0
LINE
  5
715
100
AcDbEntity
  8
M0
 62
     7
100
AcDbLine
 10
344.350224
 20
431.571309
 11
344.350224
 21
425.071309
  0
LINE
  5
716
100
AcDbEntity
  8
M0
 62
     7
100
AcDbLine
 10
286.943118
 20
443.778416
 11
291.357331
 21
439.364202
  0
LINE
  5
717
100
AcDbEntity
  8
M0
 62
     7
100
AcDbLine
 10
344.350224
 20
431.571309
 11
344.350224
 21
430.071309
  0
LINE
  5
718
100
AcDbEntity
  8
M0
 62
     7
100
AcDbLine
 10
340.450224
 20
411.871309
 11
340.150224
 21
412.871309
  0
LINE
  5
719
100
AcDbEntity
  8
M0
 62
     7
100
AcDbLine
 10
344.350224
 20
358.821309
 11
344.350224
 21
358.321309
  0
LINE
  5
71A
100
AcDbEntity
  8
M0
 62
     7
100
AcDbLine
 10
340.150224
 20
410.871309
 11
340.150224
 21
384.271309
  0
LINE
  5
71B
100
AcDbEntity
  8
M0
 62
     7
100
AcDbLine
 10
344.650224
 20
366.541003
 11
344.265764
 21
366.541003
  0
LINE
  5
71C
100
AcDbEntity
  8
M0
 62
     7
100
AcDbLine
 10
305.050224
 20
383.813051
 11
305.050224
 21
383.331864
  0
LINE
  5
71D
100
AcDbEntity
  8
M0
 62
     7
100
AcDbLine
 10
305.050224
 20
411.810754
 11
305.050224
 21
411.329566
  0
LINE
  5
71E
100
AcDbEntity
  8
M0
 62
     7
100
AcDbLine
 10
341.150224
 20
382.271309
 11
341.850224
 21
382.271309
  0
LINE
  5
71F
100
AcDbEntity
  8
M0
 62
     7
100
AcDbLine
 10
341.150224
 20
381.771309
 11
341.150224
 21
382.271309
  0
LINE
  5
720
100
AcDbEntity
  8
M0
 62
     7
100
AcDbLine
 10
341.150224
 20
381.771309
 11
341.150224
 21
380.771309
  0
LINE
  5
721
100
AcDbEntity
  8
M0
 62
     7
100
AcDbLine
 10
344.350224
 20
431.571309
 11
344.350224
 21
430.071309
  0
LINE
  5
722
100
AcDbEntity
  8
M0
 62
     7
100
AcDbLine
 10
344.350224
 20
425.071309
 11
344.350224
 21
424.071309
  0
LINE
  5
723
100
AcDbEntity
  8
M0
 62
     7
100
AcDbLine
 10
321.850224
 20
433.571309
 11
321.850224
 21
434.071309
  0
LINE
  5
724
100
AcDbEntity
  8
M0
 62
     7
100
AcDbLine
 10
344.050224
 20
379.771309
 11
342.290224
 21
381.771309
  0
LINE
  5
725
100
AcDbEntity
  8
M0
 62
     7
100
AcDbLine
 10
344.050224
 20
379.729566
 11
344.050224
 21
379.771309
  0
LINE
  5
726
100
AcDbEntity
  8
M0
 62
     7
100
AcDbLine
 10
340.150224
 20
384.271309
 11
340.150224
 21
379.771309
  0
LINE
  5
727
100
AcDbEntity
  8
M0
 62
     7
100
AcDbLine
 10
344.650224
 20
358.821309
 11
344.350224
 21
358.821309
  0
LINE
  5
728
100
AcDbEntity
  8
M0
 62
     7
100
AcDbLine
 10
301.550224
 20
366.071309
 11
287.350224
 21
366.071309
  0
LINE
  5
729
100
AcDbEntity
  8
M0
 62
     7
100
AcDbLine
 10
291.650224
 20
438.657095
 11
291.650224
 21
430.571309
  0
LINE
  5
72A
100
AcDbEntity
  8
M0
 62
     7
100
AcDbLine
 10
344.350224
 20
356.071309
 11
344.350224
 21
357.071309
  0
LINE
  5
72B
100
AcDbEntity
  8
M0
 62
     7
100
AcDbLine
 10
344.350224
 20
431.571309
 11
344.650224
 21
431.571309
  0
ARC
  5
72C
100
AcDbEntity
  8
M0
 62
     7
100
AcDbCircle
 10
343.850224
 20
438.571309
 40
0.5
100
AcDbArc
 50
0.0
 51
90.0
  0
ARC
  5
72D
100
AcDbEntity
  8
M0
 62
     7
100
AcDbCircle
 10
334.650224
 20
438.071309
 40
1.0
100
AcDbArc
 50
90.0
 51
180.0
  0
LINE
  5
72E
100
AcDbEntity
  8
M0
 62
     7
100
AcDbLine
 10
340.150224
 20
415.371309
 11
340.150224
 21
410.871309
  0
LINE
  5
72F
100
AcDbEntity
  8
M0
 62
     7
100
AcDbLine
 10
339.650224
 20
383.771309
 11
305.050224
 21
383.771309
  0
LINE
  5
730
100
AcDbEntity
  8
M0
 62
     7
100
AcDbLine
 10
324.350224
 20
434.071309
 11
333.650224
 21
434.071309
  0
LINE
  5
731
100
AcDbEntity
  8
M0
 62
     7
100
AcDbLine
 10
344.350224
 20
438.571309
 11
344.350224
 21
415.871309
  0
LINE
  5
732
100
AcDbEntity
  8
M0
 62
     7
100
AcDbLine
 10
284.750224
 20
412.671309
 11
284.750224
 21
417.671309
  0
LINE
  5
733
100
AcDbEntity
  8
M0
 62
     7
100
AcDbLine
 10
341.150224
 20
413.871309
 11
342.150224
 21
412.871309
  0
LINE
  5
734
100
AcDbEntity
  8
M0
 62
     7
100
AcDbLine
 10
305.050224
 20
411.371309
 11
339.650224
 21
411.371309
  0
LINE
  5
735
100
AcDbEntity
  8
M0
 62
     7
100
AcDbLine
 10
343.850224
 20
415.371309
 11
305.050224
 21
415.371309
  0
LINE
  5
736
100
AcDbEntity
  8
M0
 62
     7
100
AcDbLine
 10
342.150224
 20
412.871309
 11
344.350224
 21
412.871309
  0
ARC
  5
737
100
AcDbEntity
  8
M0
 62
     7
100
AcDbCircle
 10
343.850224
 20
379.271309
 40
0.5
100
AcDbArc
 50
0.0
 51
90.0
  0
ARC
  5
738
100
AcDbEntity
  8
M0
 62
     7
100
AcDbCircle
 10
304.750224
 20
383.331864
 40
0.3
100
AcDbArc
 50
270.0
 51
360.0
  0
ARC
  5
739
100
AcDbEntity
  8
M0
 62
     7
100
AcDbCircle
 10
340.850224
 20
380.271309
 40
0.5
100
AcDbArc
 50
90.0
 51
180.0
  0
ARC
  5
73A
100
AcDbEntity
  8
M0
 62
     7
100
AcDbCircle
 10
304.750224
 20
380.210754
 40
0.3
100
AcDbArc
 50
0.0
 51
90.0
  0
LINE
  5
73B
100
AcDbEntity
  8
M0
 62
     7
100
AcDbLine
 10
287.350224
 20
366.071309
 11
287.350224
 21
362.071309
  0
LINE
  5
73C
100
AcDbEntity
  8
M0
 62
     7
100
AcDbLine
 10
344.350224
 20
377.771309
 11
344.350224
 21
368.821309
  0
LINE
  5
73D
100
AcDbEntity
  8
M0
 62
     7
100
AcDbLine
 10
321.850224
 20
433.571309
 11
321.850224
 21
430.571309
  0
ARC
  5
73E
100
AcDbEntity
  8
M0
 62
     7
100
AcDbCircle
 10
304.750224
 20
411.810754
 40
0.3
100
AcDbArc
 50
0.0
 51
90.0
  0
ARC
  5
73F
100
AcDbEntity
  8
M0
 62
     7
100
AcDbCircle
 10
334.650224
 20
356.071309
 40
1.0
100
AcDbArc
 50
180.0
 51
270.0
  0
ARC
  5
740
100
AcDbEntity
  8
M0
 62
     7
100
AcDbCircle
 10
304.750224
 20
414.931864
 40
0.3
100
AcDbArc
 50
270.0
 51
360.0
  0
ARC
  5
741
100
AcDbEntity
  8
M0
 62
     7
100
AcDbCircle
 10
343.850224
 20
355.571309
 40
0.5
100
AcDbArc
 50
270.0
 51
360.0
  0
ARC
  5
742
100
AcDbEntity
  8
M0
 62
     7
100
AcDbCircle
 10
286.350224
 20
362.071309
 40
1.0
100
AcDbArc
 50
270.0
 51
360.0
  0
LINE
  5
743
100
AcDbEntity
  8
M0
 62
     7
100
AcDbLine
 10
344.350224
 20
431.571309
 11
344.350224
 21
427.071309
  0
ARC
  5
744
100
AcDbEntity
  8
M0
 62
     7
100
AcDbCircle
 10
302.550224
 20
356.071309
 40
1.0
100
AcDbArc
 50
180.0
 51
270.0
  0
ARC
  5
745
100
AcDbEntity
  8
M0
 62
     7
100
AcDbCircle
 10
337.004651
 20
370.445045
 40
4.084673
100
AcDbArc
 50
125.479015
 51
145.207394
  0
LINE
  5
746
100
AcDbEntity
  8
M0
 62
     7
100
AcDbLine
 10
294.246009
 20
355.071309
 11
277.350225
 21
355.071309
  0
LINE
  5
747
100
AcDbEntity
  8
M0
  6
DIVIDE
 62
     7
100
AcDbLine
 10
58.873595
 20
222.586298
 11
136.667874
 21
222.586298
  0
LINE
  5
748
100
AcDbEntity
  8
M0
  6
DIVIDE
 62
     7
100
AcDbLine
 10
136.667874
 20
222.586298
 11
136.667874
 21
123.586298
  0
CIRCLE
  5
749
100
AcDbEntity
  8
M0
 62
     7
100
AcDbCircle
 10
133.873627
 20
144.541815
 40
3.099999
  0
CIRCLE
  5
74A
100
AcDbEntity
  8
M0
 62
     7
100
AcDbCircle
 10
133.873627
 20
144.541815
 40
1.549994
  0
LINE
  5
74B
100
AcDbEntity
  8
M0
  6
DASHDOT
 62
     7
100
AcDbLine
 10
133.873612
 20
148.639212
 11
133.873627
 21
139.444403
  0
LINE
  5
74C
100
AcDbEntity
  8
M0
  6
DASHDOT
 62
     7
100
AcDbLine
 10
137.971024
 20
144.541815
 11
129.776215
 21
144.541815
  0
CIRCLE
  5
74D
100
AcDbEntity
  8
M0
 62
     7
100
AcDbCircle
 10
62.873627
 20
209.541815
 40
1.549994
  0
CIRCLE
  5
74E
100
AcDbEntity
  8
M0
 62
     7
100
AcDbCircle
 10
62.873627
 20
209.541815
 40
3.099999
  0
LINE
  5
74F
100
AcDbEntity
  8
M0
  6
DASHDOT
 62
     7
100
AcDbLine
 10
62.873612
 20
213.639212
 11
62.873627
 21
205.444403
  0
LINE
  5
750
100
AcDbEntity
  8
M0
  6
DASHDOT
 62
     7
100
AcDbLine
 10
66.971024
 20
209.541815
 11
58.776215
 21
209.541815
  0
LINE
  5
751
100
AcDbEntity
  8
M0
  6
DIVIDE
 62
     7
100
AcDbLine
 10
58.873595
 20
78.586298
 11
143.873595
 21
78.586298
  0
LINE
  5
752
100
AcDbEntity
  8
M0
  6
DIVIDE
 62
     7
100
AcDbLine
 10
143.873595
 20
123.586298
 11
136.667874
 21
123.586298
  0
LINE
  5
753
100
AcDbEntity
  8
M0
  6
DIVIDE
 62
     7
100
AcDbLine
 10
58.873595
 20
222.586298
 11
58.873595
 21
78.586298
  0
LINE
  5
754
100
AcDbEntity
  8
M0
  6
DIVIDE
 62
     7
100
AcDbLine
 10
143.873595
 20
123.586298
 11
143.873595
 21
78.586298
  0
LINE
  5
755
100
AcDbEntity
  8
M1
 62
     2
100
AcDbLine
 10
18.181818
 20
18.181818
 11
18.181818
 21
518.181807
  0
LINE
  5
756
100
AcDbEntity
  8
M1
 62
     2
100
AcDbLine
 10
18.181818
 20
518.181807
 11
363.636356
 21
518.181807
  0
LINE
  5
757
100
AcDbEntity
  8
M1
 62
     2
100
AcDbLine
 10
363.636356
 20
518.181807
 11
363.636356
 21
18.181818
  0
LINE
  5
758
100
AcDbEntity
  8
M1
 62
     2
100
AcDbLine
 10
363.636356
 20
18.181818
 11
18.181818
 21
18.181818
  0
LINE
  5
759
100
AcDbEntity
  8
M1
 62
     2
100
AcDbLine
 10
363.636356
 20
36.363636
 11
181.818178
 21
36.363636
  0
LINE
  5
75A
100
AcDbEntity
  8
M1
 62
     2
100
AcDbLine
 10
363.636356
 20
54.545453
 11
181.818178
 21
54.545453
  0
LINE
  5
75B
100
AcDbEntity
  8
M1
 62
     2
100
AcDbLine
 10
363.636356
 20
72.727271
 11
181.818178
 21
72.727271
  0
LINE
  5
75C
100
AcDbEntity
  8
M1
 62
     2
100
AcDbLine
 10
181.818178
 20
18.181818
 11
181.818178
 21
72.727271
  0
TEXT
  5
75D
100
AcDbEntity
  8
M1
 62
     2
100
AcDbText
 10
186.363632
 20
22.727272
 40
9.090909
  1
適　用；
 41
1.0
  7
STANDARD
100
AcDbText
  0
TEXT
  5
75E
100
AcDbEntity
  8
M1
 62
     2
100
AcDbText
 10
186.363632
 20
59.090908
 40
9.090909
  1
登録名：
 41
1.0
  7
STANDARD
100
AcDbText
  0
TEXT
  5
75F
100
AcDbEntity
  8
M1
 62
     2
100
AcDbText
 10
229.999995
 20
59.090908
 40
9.090909
  1
ＤＭＨＳ３５ＴＧＲ００
 41
0.5
  7
STANDARD
100
AcDbText
  0
TEXT
  5
760
100
AcDbEntity
  8
M1
 62
     2
100
AcDbText
 10
186.363632
 20
40.90909
 40
9.090909
  1
形　式；
 41
1.0
  7
STANDARD
100
AcDbText
  0
TEXT
  5
761
100
AcDbEntity
  8
M1
 62
     2
100
AcDbText
 10
229.999995
 20
40.90909
 40
9.090909
  1
ＨＳ３５－ＴＧ
 41
0.5
  7
STANDARD
100
AcDbText
  0
LINE
  5
762
100
AcDbEntity
  8
DN0
100
AcDbLine
 10
85.121731
 20
49.919269
 11
114.630822
 21
49.919269
  0
TEXT
  5
763
100
AcDbEntity
  8
DN0
100
AcDbText
 10
85.936883
 20
50.646542
 40
7.272727
  1
せん孔図
 41
0.833333
  7
STANDARD
100
AcDbText
  0
ENDSEC
  0
SECTION
  2
OBJECTS
  0
DICTIONARY
  5
C
100
AcDbDictionary
  3
ACAD_GROUP
350
D
  3
ACAD_MLINESTYLE
350
E
  3
ACDBVARIABLEDICTIONARY
350
2D4
  0
DICTIONARY
  5
D
102
{ACAD_REACTORS
330
C
102
}
100
AcDbDictionary
  0
DICTIONARY
  5
E
102
{ACAD_REACTORS
330
C
102
}
100
AcDbDictionary
  3
STANDARD
350
13
  0
DICTIONARY
  5
2D4
102
{ACAD_REACTORS
330
C
102
}
100
AcDbDictionary
  3
SORTENTS
350
2D5
  0
MLINESTYLE
  5
13
102
{ACAD_REACTORS
330
E
102
}
100
AcDbMlineStyle
  2
STANDARD
 70
     0
  3

 62
     0
 51
90.0
 52
90.0
 71
     2
 49
0.5
 62
   256
  6
BYLAYER
 49
-0.5
 62
   256
  6
BYLAYER
  0
DICTIONARYVAR
  5
2D5
102
{ACAD_REACTORS
330
2D4
102
}
100
DictionaryVariables
280
     0
  1
96
  0
ENDSEC
  0
EOF
