  0
SECTION
  2
HEADER
  9
$ACADVER
  1
AC1014
  9
$INSBASE
 10
0.000000
 20
0.000000
 30
0.0
  9
$VIEWCTR
 10
7.531722
 20
4.5
  9
$VIEWSIZE
 40
9.0
  9
$SNAPMODE
 70
     0
  9
$SNAPUNIT
 10
1.0
 20
1.0
  9
$SNAPBASE
 10
0.0
 20
0.0
  9
$SNAPANG
 50
0.0
  9
$SNAPSTYLE
 70
     0
  9
$SNAPISOPAIR
 70
     0
  9
$GRIDMODE
 70
     0
  9
$GRIDUNIT
 10
0.0
 20
0.0
  9
$ORTHOMODE
 70
     0
  9
$REGENMODE
 70
     1
  9
$FILLMODE
 70
     1
  9
$QTEXTMODE
 70
     0
  9
$DRAGMODE
 70
     2
  9
$LTSCALE
  40
     1.000000
  9
$OSMODE
 70
     0
  9
$ATTMODE
 70
     1
  9
$TEXTSIZE
 40
0.2
  9
$TRACEWID
 40
0.05
  9
$TEXTSTYLE
  7
STANDARD
  9
$CELTYPE
  6
BYLAYER
  9
$CECOLOR
 62
   256
  9
$DIMSCALE
 40
1.0
  9
$DIMASZ
 40
0.18
  9
$DIMEXO
 40
0.0625
  9
$DIMDLI
 40
0.38
  9
$DIMRND
 40
0.0
  9
$DIMDLE
 40
0.0
  9
$DIMEXE
 40
0.18
  9
$DIMTP
 40
0.0
  9
$DIMTM
 40
0.0
  9
$DIMTXT
 40
0.18
  9
$DIMCEN
 40
0.09
  9
$DIMTSZ
 40
0.0
  9
$DIMTOL
 70
     0
  9
$DIMLIM
 70
     0
  9
$DIMTIH
 70
     1
  9
$DIMTOH
 70
     1
  9
$DIMSE1
 70
     0
  9
$DIMSE2
 70
     0
  9
$DIMTAD
 70
     0
  9
$DIMZIN
 70
     0
  9
$DIMBLK
  1

  9
$LUNITS
 70
     2
  9
$LUPREC
 70
     4
  9
$AXISMODE
 70
     0
  9
$AXISUNIT
 10
0.0
 20
0.0
  9
$SKETCHINC
 40
0.1
  9
$FILLETRAD
 40
0.0
  9
$AUNITS
 70
     0
  9
$AUPREC
 70
     0
  9
$MENU
  1
ACAD
  9
$ELEVATION
 40
0.0
  9
$THICKNESS
 40
0.0
  9
$VIEWDIR
 10
0.0
 20
0.0
 30
1.0
  9
$LIMCHECK
 70
     0
  9
$BLIPMODE
 70
     1
  9
$CHAMFERA
 40
0.0
  9
$CHAMFERB
 40
0.0
  9
$FASTZOOM
 70
     1
  9
$SKPOLY
 70
     0
  9
$TDCREATE
 40
0000000.0000000000
  9
$TDUPDATE
 40
0000000.0000000000
  9
$TDINDWG
 40
0.0000000000
  9
$TDUSRTIMER
 40
0.0000000000
  9
$USRTIMER
 70
     1
  9
$ANGBASE
 50
0.0
  9
$ANGDIR
 70
     0
  9
$PDMODE
 70
     0
  9
$PDSIZE
 40
0.0
  9
$PLINEWID
 40
0.0
  9
$COORDS
 70
     0
  9
$USERI1
 70
     0
  9
$USERI2
 70
     0
  9
$USERI3
 70
     0
  9
$USERI4
 70
     0
  9
$USERI5
 70
     0
  9
$USERR1
 40
0.0
  9
$USERR2
 40
0.0
  9
$USERR3
 40
0.0
  9
$USERR4
 40
0.0
  9
$USERR5
 40
0.0
  9
$CLAYER
  8
M0
  9
$EXTMIN
 10
18.181818
 20
18.181818
  9
$EXTMAX
 10
363.636356
 20
518.181807
  9
$LIMMIN
 10
0.0
 20
0.0
  9
$LIMMAX
 10
210.0
 20
297.0
  9
$HANDSEED
  5
765
  0
ENDSEC
  0
SECTION
  2
CLASSES
  0
CLASS
  1
DICTIONARYVAR
  2
AcDbDictionaryVar
  3
"AutoCAD"
 90
        0
280
     0
281
     0
  0
CLASS
  1
HATCH
  2
AcDbHatch
  3
"ACAD_SEDONA"
 90
        0
280
     0
281
     1
  0
ENDSEC
  0
SECTION
  2
TABLES
  0
TABLE
  2
VPORT
  5
8
100
AcDbSymbolTable
 70
     2
  0
VPORT
  5
14
100
AcDbSymbolTableRecord
100
AcDbViewportTableRecord
  2
*ACTIVE
 70
     0
 10
0.0
 20
0.0
 11
1.0
 21
1.0
 12
484.0
 22
297.0
 13
0.0
 23
0.0
 14
1.0
 24
1.0
 15
0.0
 25
0.0
 16
0.0
 26
0.0
 36
1.0
 17
0.0
 27
0.0
 37
0.0
 40
594.0
 41
2.0
 42
50.0
 43
0.0
 44
0.0
 50
0.0
 51
0.0
 71
     0
 72
   100
 73
     1
 74
     1
 75
     0
 76
     0
 77
     0
 78
     0
  0
ENDTAB
  0
TABLE
  2
LTYPE
  5
5
100
AcDbSymbolTable
 70
     5
  0
LTYPE
  5
15
100
AcDbSymbolTableRecord
100
AcDbLinetypeTableRecord
  2
BYBLOCK
 70
     0
  3

 72
    65
 73
     0
 40
0.0
  0
LTYPE
  5
16
100
AcDbSymbolTableRecord
100
AcDbLinetypeTableRecord
  2
BYLAYER
 70
     0
  3

 72
    65
 73
     0
 40
0.0
  0
LTYPE
  5
17
100
AcDbSymbolTableRecord
100
AcDbLinetypeTableRecord
  2
CONTINUOUS
 70
    64
  3
Solid line
 72
    65
 73
     0
 40
0.0
  0
LTYPE
  5
18
100
AcDbSymbolTableRecord
100
AcDbLinetypeTableRecord
  2
DASHED
 70
    64
  3
__ __ __ __ __ __ __ __ __ __ __ __ __ __ __ __
 72
    65
 73
     2
 40
0.75
 49
0.5
 74
     0
 49
-0.25
 74
     0
  0
LTYPE
  5
19
100
AcDbSymbolTableRecord
100
AcDbLinetypeTableRecord
  2
DASHDOT
 70
    64
  3
__ . __ . __ . __ . __ . __ . __ . __ . __ . __
 72
    65
 73
     4
 40
1.0
 49
0.5
 74
     0
 49
-0.25
 74
     0
 49
0.0
 74
     0
 49
-0.25
 74
     0
  0
LTYPE
  5
1A
100
AcDbSymbolTableRecord
100
AcDbLinetypeTableRecord
  2
DIVIDE
 70
    64
  3
____ . . ____ . . ____ . . ____ . . ____ . . __
 72
    65
 73
     6
 40
1.25
 49
0.5
 74
     0
 49
-0.25
 74
     0
 49
0.0
 74
     0
 49
-0.25
 74
     0
 49
0.0
 74
     0
 49
-0.25
 74
     0
  0
LTYPE
  5
1B
100
AcDbSymbolTableRecord
100
AcDbLinetypeTableRecord
  2
DOT
 70
    64
  3
. . . . . . . . . . . . . . . . . . . . . . . .
 72
    65
 73
     2
 40
0.25
 49
0.0
 74
     0
 49
-0.25
 74
     0
  0
ENDTAB
  0
TABLE
  2
LAYER
  5
2
100
AcDbSymbolTable
 70
   102
  0
LAYER
  5
F
100
AcDbSymbolTableRecord
100
AcDbLayerTableRecord
  2
0
 70
     0
 62
     7
  6
CONTINUOUS
  0
LAYER
  5
1C
100
AcDbSymbolTableRecord
100
AcDbLayerTableRecord
  2
DEFPOINTS
 70
     0
 62
     7
  6
CONTINUOUS
  0
LAYER
  5
1D
100
AcDbSymbolTableRecord
100
AcDbLayerTableRecord
  2
M0
 70
     0
 62
     3
  6
CONTINUOUS
  0
LAYER
  5
1E
100
AcDbSymbolTableRecord
100
AcDbLayerTableRecord
  2
M1
 70
     0
 62
     3
  6
CONTINUOUS
  0
LAYER
  5
1F
100
AcDbSymbolTableRecord
100
AcDbLayerTableRecord
  2
DD0
 70
     0
 62
     4
  6
CONTINUOUS
  0
LAYER
  5
20
100
AcDbSymbolTableRecord
100
AcDbLayerTableRecord
  2
DN0
 70
     0
 62
     2
  6
CONTINUOUS
  0
ENDTAB
  0
TABLE
  2
STYLE
  5
3
100
AcDbSymbolTable
 70
     2
  0
STYLE
  5
10
100
AcDbSymbolTableRecord
100
AcDbTextStyleTableRecord
  2
STANDARD
 70
     0
 40
0.0
 41
1.0
 50
0.0
 71
     0
 42
0.2
  3
txt
  4
BIGFONT
  0
ENDTAB
  0
TABLE
  2
VIEW
  5
6
100
AcDbSymbolTable
 70
     0
  0
ENDTAB
  0
TABLE
  2
UCS
  5
7
100
AcDbSymbolTable
 70
     0
  0
ENDTAB
  0
TABLE
  2
APPID
  5
9
100
AcDbSymbolTable
 70
     1
  0
APPID
  5
11
100
AcDbSymbolTableRecord
100
AcDbRegAppTableRecord
  2
ACAD
 70
     0
  0
ENDTAB
  0
TABLE
  2
DIMSTYLE
  5
A
100
AcDbSymbolTable
 70
     2
  0
DIMSTYLE
105
27
100
AcDbSymbolTableRecord
100
AcDbDimStyleTableRecord
  2
STANDARD
 70
     0
  3

  4

  5

  6
_OPEN
  7
_OPEN
 40
1.0
 41
5.454545
 42
1.0
 43
8.0
 44
1.0
 45
0.0
 46
0.0
 47
0.0
 48
0.0
140
5.727273
141
0.09
142
0.0
143
0.03937
144
1.0
145
0.0
146
1.0
147
0.6
 71
     0
 72
     0
 73
     1
 74
     1
 75
     0
 76
     0
 77
     3
 78
     8
170
     0
171
     2
172
     0
173
     1
174
     0
175
     0
176
     0
177
     0
178
     0
270
     2
271
     2
272
     4
273
     2
274
     2
340
10
275
     0
280
     0
281
     0
282
     0
283
     1
284
     0
285
     0
286
     0
287
     3
288
     0
  0
DIMSTYLE
105
28
100
AcDbSymbolTableRecord
100
AcDbDimStyleTableRecord
  2
LEADSTYL
 70
     0
  3

  4

  5

  6
_OPEN
  7
_OPEN
 40
1.0
 41
5.454545
 42
0.0625
 43
0.38
 44
0.18
 45
0.0
 46
0.0
 47
0.0
 48
0.0
140
5.727273
141
0.09
142
0.0
143
25.4
144
1.0
145
0.0
146
1.0
147
0.6
 71
     0
 72
     0
 73
     1
 74
     1
 75
     0
 76
     0
 77
     0
 78
     0
170
     0
171
     2
172
     0
173
     1
174
     0
175
     0
176
     0
177
     0
178
     0
270
     2
271
     4
272
     4
273
     2
274
     2
340
10
275
     0
280
     0
281
     0
282
     0
283
     1
284
     0
285
     0
286
     0
287
     3
288
     0
  0
ENDTAB
  0
TABLE
  2
BLOCK_RECORD
  5
1
100
AcDbSymbolTable
 70
    23
  0
BLOCK_RECORD
  5
21
100
AcDbSymbolTableRecord
100
AcDbBlockTableRecord
  2
*MODEL_SPACE
  0
BLOCK_RECORD
  5
24
100
AcDbSymbolTableRecord
100
AcDbBlockTableRecord
  2
*PAPER_SPACE
  0
BLOCK_RECORD
  5
29
100
AcDbSymbolTableRecord
100
AcDbBlockTableRecord
  2
_NONE
  0
BLOCK_RECORD
  5
2D
100
AcDbSymbolTableRecord
100
AcDbBlockTableRecord
  2
_OPEN
  0
BLOCK_RECORD
  5
33
100
AcDbSymbolTableRecord
100
AcDbBlockTableRecord
  2
_CLOSED
  0
BLOCK_RECORD
  5
3A
100
AcDbSymbolTableRecord
100
AcDbBlockTableRecord
  2
_ORIGIN
  0
BLOCK_RECORD
  5
3F
100
AcDbSymbolTableRecord
100
AcDbBlockTableRecord
  2
_DOT
  0
BLOCK_RECORD
  5
47
100
AcDbSymbolTableRecord
100
AcDbBlockTableRecord
  2
_OBLIQUE
  0
BLOCK_RECORD
  5
4B
100
AcDbSymbolTableRecord
100
AcDbBlockTableRecord
  2
DIMS0
  0
BLOCK_RECORD
  5
57
100
AcDbSymbolTableRecord
100
AcDbBlockTableRecord
  2
DIMS1
  0
BLOCK_RECORD
  5
62
100
AcDbSymbolTableRecord
100
AcDbBlockTableRecord
  2
DIMS2
  0
BLOCK_RECORD
  5
6E
100
AcDbSymbolTableRecord
100
AcDbBlockTableRecord
  2
DIMS3
  0
BLOCK_RECORD
  5
79
100
AcDbSymbolTableRecord
100
AcDbBlockTableRecord
  2
DIMS4
  0
BLOCK_RECORD
  5
85
100
AcDbSymbolTableRecord
100
AcDbBlockTableRecord
  2
DIMS5
  0
BLOCK_RECORD
  5
91
100
AcDbSymbolTableRecord
100
AcDbBlockTableRecord
  2
DIMS6
  0
BLOCK_RECORD
  5
9D
100
AcDbSymbolTableRecord
100
AcDbBlockTableRecord
  2
DIMS7
  0
BLOCK_RECORD
  5
AA
100
AcDbSymbolTableRecord
100
AcDbBlockTableRecord
  2
DIMS8
  0
BLOCK_RECORD
  5
B6
100
AcDbSymbolTableRecord
100
AcDbBlockTableRecord
  2
DIMS9
  0
BLOCK_RECORD
  5
C2
100
AcDbSymbolTableRecord
100
AcDbBlockTableRecord
  2
DIMS10
  0
BLOCK_RECORD
  5
CE
100
AcDbSymbolTableRecord
100
AcDbBlockTableRecord
  2
DIMS11
  0
BLOCK_RECORD
  5
D7
100
AcDbSymbolTableRecord
100
AcDbBlockTableRecord
  2
DIMS12
  0
BLOCK_RECORD
  5
E3
100
AcDbSymbolTableRecord
100
AcDbBlockTableRecord
  2
DIMS13
  0
BLOCK_RECORD
  5
EF
100
AcDbSymbolTableRecord
100
AcDbBlockTableRecord
  2
DIMS14
  0
BLOCK_RECORD
  5
FB
100
AcDbSymbolTableRecord
100
AcDbBlockTableRecord
  2
DIMS15
  0
BLOCK_RECORD
  5
107
100
AcDbSymbolTableRecord
100
AcDbBlockTableRecord
  2
DIMS16
  0
ENDTAB
  0
ENDSEC
  0
SECTION
  2
BLOCKS
  0
BLOCK
  5
22
100
AcDbEntity
  8
0
100
AcDbBlockBegin
  2
*MODEL_SPACE
 70
     0
 10
0.0
 20
0.0
 30
0.0
  3
*MODEL_SPACE
  1

  0
ENDBLK
  5
23
100
AcDbEntity
  8
0
100
AcDbBlockEnd
  0
BLOCK
  5
25
100
AcDbEntity
 67
     1
  8
0
100
AcDbBlockBegin
  2
*PAPER_SPACE
 70
     0
 10
0.0
 20
0.0
 30
0.0
  3
*PAPER_SPACE
  1

  0
ENDBLK
  5
26
100
AcDbEntity
 67
     1
  8
0
100
AcDbBlockEnd
  0
BLOCK
  5
2A
100
AcDbEntity
  8
0
100
AcDbBlockBegin
  2
_NONE
 70
     0
 10
0.0
 20
0.0
  0
CIRCLE
  5
2B
100
AcDbEntity
  8
0
 62
     0
100
AcDbCircle
 10
0.0
 20
0.0
 40
0.25
  0
ENDBLK
  5
2C
100
AcDbEntity
  8
0
100
AcDbBlockEnd
  0
BLOCK
  5
2E
100
AcDbEntity
  8
0
100
AcDbBlockBegin
  2
_OPEN
 70
     0
 10
0.0
 20
0.0
  0
LINE
  5
2F
100
AcDbEntity
  8
0
 62
     0
100
AcDbLine
 10
-0.965926
 20
0.258819
 11
0.0
 21
0.0
  0
LINE
  5
30
100
AcDbEntity
  8
0
 62
     0
100
AcDbLine
 10
0.0
 20
0.0
 11
-0.965926
 21
-0.258819
  0
LINE
  5
31
100
AcDbEntity
  8
0
 62
     0
100
AcDbLine
 10
0.0
 20
0.0
 11
-1.0
 21
0.0
  0
ENDBLK
  5
32
100
AcDbEntity
  8
0
100
AcDbBlockEnd
  0
BLOCK
  5
34
100
AcDbEntity
  8
0
100
AcDbBlockBegin
  2
_CLOSED
 70
     0
 10
0.0
 20
0.0
  0
LINE
  5
35
100
AcDbEntity
  8
0
 62
     0
100
AcDbLine
 10
-0.965926
 20
0.258819
 11
0.0
 21
0.0
  0
LINE
  5
36
100
AcDbEntity
  8
0
 62
     0
100
AcDbLine
 10
0.0
 20
0.0
 11
-0.965926
 21
-0.258819
  0
LINE
  5
37
100
AcDbEntity
  8
0
 62
     0
100
AcDbLine
 10
-0.965926
 20
0.258819
 11
-0.965926
 21
-0.258819
  0
LINE
  5
38
100
AcDbEntity
  8
0
 62
     0
100
AcDbLine
 10
0.0
 20
0.0
 11
-1.0
 21
0.0
  0
ENDBLK
  5
39
100
AcDbEntity
  8
0
100
AcDbBlockEnd
  0
BLOCK
  5
3B
100
AcDbEntity
  8
0
100
AcDbBlockBegin
  2
_ORIGIN
 70
     0
 10
0.0
 20
0.0
  0
CIRCLE
  5
3C
100
AcDbEntity
  8
0
 62
     0
100
AcDbCircle
 10
0.0
 20
0.0
 40
0.5
  0
LINE
  5
3D
100
AcDbEntity
  8
0
 62
     0
100
AcDbLine
 10
0.0
 20
0.0
 11
-1.0
 21
0.0
  0
ENDBLK
  5
3E
100
AcDbEntity
  8
0
100
AcDbBlockEnd
  0
BLOCK
  5
40
100
AcDbEntity
  8
0
100
AcDbBlockBegin
  2
_DOT
 70
     0
 10
0.0
 20
0.0
  0
POLYLINE
  5
41
100
AcDbEntity
  8
0
 62
     0
100
AcDb2dPolyline
 66
     1
 70
     1
 40
0.5
 41
0.5
  0
VERTEX
  5
42
100
AcDbEntity
  8
0
 62
     0
100
AcDbVertex
100
AcDb2dVertex
 10
-0.25
 20
0.0
 42
1.0
  0
VERTEX
  5
43
100
AcDbEntity
  8
0
 62
     0
100
AcDbVertex
100
AcDb2dVertex
 10
0.25
 20
0.0
 42
1.0
  0
SEQEND
  5
44
100
AcDbEntity
  8
0
 62
     0
  0
LINE
  5
45
100
AcDbEntity
  8
0
 62
     0
100
AcDbLine
 10
-0.5
 20
0.0
 11
-1.0
 21
0.0
  0
ENDBLK
  5
46
100
AcDbEntity
  8
0
100
AcDbBlockEnd
  0
BLOCK
  5
48
100
AcDbEntity
  8
0
100
AcDbBlockBegin
  2
_OBLIQUE
 70
     0
 10
0.0
 20
0.0
  0
LINE
  5
49
100
AcDbEntity
  8
0
 62
     0
100
AcDbLine
 10
-0.353553
 20
-0.353553
 11
0.353553
 21
0.353553
  0
ENDBLK
  5
4A
100
AcDbEntity
  8
0
100
AcDbBlockEnd
  0
BLOCK
  5
4C
100
AcDbEntity
  8
DD0
100
AcDbBlockBegin
  2
DIMS0
 70
     0
 10
0.0
 20
0.0
  0
LINE
  5
4D
100
AcDbEntity
  8
DD0
100
AcDbLine
 10
213.116256
 20
442.446085
 11
213.116256
 21
465.09268
  0
LINE
  5
4E
100
AcDbEntity
  8
DD0
100
AcDbLine
 10
218.116256
 20
404.52597
 11
218.116256
 21
465.09268
  0
LINE
  5
4F
100
AcDbEntity
  8
DD0
100
AcDbLine
 10
207.84757
 20
461.862758
 11
213.116256
 21
463.274498
  0
LINE
  5
50
100
AcDbEntity
  8
DD0
100
AcDbLine
 10
213.116256
 20
463.274498
 11
207.84757
 21
464.686239
  0
LINE
  5
51
100
AcDbEntity
  8
DD0
100
AcDbLine
 10
223.384942
 20
464.686239
 11
218.116256
 21
463.274498
  0
LINE
  5
52
100
AcDbEntity
  8
DD0
100
AcDbLine
 10
218.116256
 20
463.274498
 11
223.384942
 21
461.862758
  0
LINE
  5
53
100
AcDbEntity
  8
DD0
100
AcDbLine
 10
201.661711
 20
463.274498
 11
224.116256
 21
463.274498
  0
TEXT
  5
54
100
AcDbEntity
  8
DD0
100
AcDbText
 10
203.264737
 20
464.365419
 40
4.545454
  1
５
 41
0.666667
  7
STANDARD
100
AcDbText
  0
ENDBLK
  5
55
100
AcDbEntity
  8
DD0
100
AcDbBlockEnd
  0
BLOCK
  5
58
100
AcDbEntity
  8
DD0
100
AcDbBlockBegin
  2
DIMS1
 70
     0
 10
0.0
 20
0.0
  0
LINE
  5
59
100
AcDbEntity
  8
DD0
100
AcDbLine
 10
218.116256
 20
404.52597
 11
218.116256
 21
465.09268
  0
LINE
  5
5A
100
AcDbEntity
  8
DD0
100
AcDbLine
 10
333.347584
 20
461.862758
 11
338.61627
 21
463.274498
  0
LINE
  5
5B
100
AcDbEntity
  8
DD0
100
AcDbLine
 10
338.61627
 20
463.274498
 11
333.347584
 21
464.686239
  0
LINE
  5
5C
100
AcDbEntity
  8
DD0
100
AcDbLine
 10
223.384942
 20
464.686239
 11
218.116256
 21
463.274498
  0
LINE
  5
5D
100
AcDbEntity
  8
DD0
100
AcDbLine
 10
218.116256
 20
463.274498
 11
223.384942
 21
461.862758
  0
LINE
  5
5E
100
AcDbEntity
  8
DD0
100
AcDbLine
 10
338.61627
 20
463.274498
 11
218.116256
 21
463.274498
  0
TEXT
  5
5F
100
AcDbEntity
  8
DD0
100
AcDbText
 10
273.223814
 20
464.365419
 40
4.545454
  1
１２１
 41
0.666667
  7
STANDARD
100
AcDbText
  0
ENDBLK
  5
60
100
AcDbEntity
  8
DD0
100
AcDbBlockEnd
  0
BLOCK
  5
63
100
AcDbEntity
  8
DD0
100
AcDbBlockBegin
  2
DIMS2
 70
     0
 10
0.0
 20
0.0
  0
LINE
  5
64
100
AcDbEntity
  8
DD0
100
AcDbLine
 10
338.61627
 20
435.025958
 11
338.61627
 21
483.865013
  0
LINE
  5
65
100
AcDbEntity
  8
DD0
100
AcDbLine
 10
186.816263
 20
396.32598
 11
186.816263
 21
483.865013
  0
LINE
  5
66
100
AcDbEntity
  8
DD0
100
AcDbLine
 10
333.347584
 20
480.635091
 11
338.61627
 21
482.046831
  0
LINE
  5
67
100
AcDbEntity
  8
DD0
100
AcDbLine
 10
338.61627
 20
482.046831
 11
333.347584
 21
483.458572
  0
LINE
  5
68
100
AcDbEntity
  8
DD0
100
AcDbLine
 10
192.08495
 20
483.458572
 11
186.816263
 21
482.046831
  0
LINE
  5
69
100
AcDbEntity
  8
DD0
100
AcDbLine
 10
186.816263
 20
482.046831
 11
192.08495
 21
480.635091
  0
LINE
  5
6A
100
AcDbEntity
  8
DD0
100
AcDbLine
 10
338.61627
 20
482.046831
 11
186.816263
 21
482.046831
  0
TEXT
  5
6B
100
AcDbEntity
  8
DD0
100
AcDbText
 10
219.392028
 20
483.137751
 40
4.545454
  1
１５２（補助接点ヘッドオンユニットを付けた場合）
 41
0.666667
  7
STANDARD
100
AcDbText
  0
ENDBLK
  5
6C
100
AcDbEntity
  8
DD0
100
AcDbBlockEnd
  0
BLOCK
  5
6F
100
AcDbEntity
  8
DD0
100
AcDbBlockBegin
  2
DIMS3
 70
     0
 10
0.0
 20
0.0
  0
LINE
  5
70
100
AcDbEntity
  8
DD0
100
AcDbLine
 10
327.616265
 20
434.525969
 11
327.616265
 21
451.683867
  0
LINE
  5
71
100
AcDbEntity
  8
DD0
100
AcDbLine
 10
322.347579
 20
448.453945
 11
327.616265
 21
449.865685
  0
LINE
  5
72
100
AcDbEntity
  8
DD0
100
AcDbLine
 10
327.616265
 20
449.865685
 11
322.347579
 21
451.277425
  0
LINE
  5
73
100
AcDbEntity
  8
DD0
100
AcDbLine
 10
343.884956
 20
451.277425
 11
338.61627
 21
449.865685
  0
LINE
  5
74
100
AcDbEntity
  8
DD0
100
AcDbLine
 10
338.61627
 20
449.865685
 11
343.884956
 21
448.453945
  0
LINE
  5
75
100
AcDbEntity
  8
DD0
100
AcDbLine
 10
321.616265
 20
449.865685
 11
344.61627
 21
449.865685
  0
TEXT
  5
76
100
AcDbEntity
  8
DD0
100
AcDbText
 10
329.792028
 20
450.956605
 40
4.545454
  1
１１
 41
0.666667
  7
STANDARD
100
AcDbText
  0
ENDBLK
  5
77
100
AcDbEntity
  8
DD0
100
AcDbBlockEnd
  0
BLOCK
  5
7A
100
AcDbEntity
  8
DD0
100
AcDbBlockBegin
  2
DIMS4
 70
     0
 10
0.0
 20
0.0
  0
LINE
  5
7B
100
AcDbEntity
  8
DD0
100
AcDbLine
 10
338.61627
 20
349.139591
 11
338.61627
 21
273.062489
  0
LINE
  5
7C
100
AcDbEntity
  8
DD0
100
AcDbLine
 10
231.662052
 20
317.639597
 11
231.662052
 21
273.062489
  0
LINE
  5
7D
100
AcDbEntity
  8
DD0
100
AcDbLine
 10
333.347584
 20
273.46893
 11
338.61627
 21
274.88067
  0
LINE
  5
7E
100
AcDbEntity
  8
DD0
100
AcDbLine
 10
338.61627
 20
274.88067
 11
333.347584
 21
276.292411
  0
LINE
  5
7F
100
AcDbEntity
  8
DD0
100
AcDbLine
 10
236.930738
 20
276.292411
 11
231.662052
 21
274.88067
  0
LINE
  5
80
100
AcDbEntity
  8
DD0
100
AcDbLine
 10
231.662052
 20
274.88067
 11
236.930738
 21
273.46893
  0
LINE
  5
81
100
AcDbEntity
  8
DD0
100
AcDbLine
 10
338.61627
 20
274.88067
 11
231.662052
 21
274.88067
  0
TEXT
  5
82
100
AcDbEntity
  8
DD0
100
AcDbText
 10
279.996719
 20
275.97159
 40
4.545454
  1
１０７
 41
0.666667
  7
STANDARD
100
AcDbText
  0
ENDBLK
  5
83
100
AcDbEntity
  8
DD0
100
AcDbBlockEnd
  0
BLOCK
  5
86
100
AcDbEntity
  8
DD0
100
AcDbBlockBegin
  2
DIMS5
 70
     0
 10
0.0
 20
0.0
  0
LINE
  5
87
100
AcDbEntity
  8
DD0
100
AcDbLine
 10
77.602572
 20
424.025953
 11
77.602572
 21
451.683867
  0
LINE
  5
88
100
AcDbEntity
  8
DD0
100
AcDbLine
 10
95.202572
 20
445.525975
 11
95.202572
 21
451.683867
  0
LINE
  5
89
100
AcDbEntity
  8
DD0
100
AcDbLine
 10
82.871258
 20
451.277425
 11
77.602572
 21
449.865685
  0
LINE
  5
8A
100
AcDbEntity
  8
DD0
100
AcDbLine
 10
77.602572
 20
449.865685
 11
82.871258
 21
448.453945
  0
LINE
  5
8B
100
AcDbEntity
  8
DD0
100
AcDbLine
 10
89.933886
 20
448.453945
 11
95.202572
 21
449.865685
  0
LINE
  5
8C
100
AcDbEntity
  8
DD0
100
AcDbLine
 10
95.202572
 20
449.865685
 11
89.933886
 21
451.277425
  0
LINE
  5
8D
100
AcDbEntity
  8
DD0
100
AcDbLine
 10
77.602572
 20
449.865685
 11
95.202572
 21
449.865685
  0
TEXT
  5
8E
100
AcDbEntity
  8
DD0
100
AcDbText
 10
79.441969
 20
450.956605
 40
4.545454
  1
１７．５
 41
0.666667
  7
STANDARD
100
AcDbText
  0
ENDBLK
  5
8F
100
AcDbEntity
  8
DD0
100
AcDbBlockEnd
  0
BLOCK
  5
92
100
AcDbEntity
  8
DD0
100
AcDbBlockBegin
  2
DIMS6
 70
     0
 10
0.0
 20
0.0
  0
LINE
  5
93
100
AcDbEntity
  8
DD0
100
AcDbLine
 10
118.470762
 20
438.707793
 11
163.394383
 21
438.707793
  0
LINE
  5
94
100
AcDbEntity
  8
DD0
100
AcDbLine
 10
130.524192
 20
295.005237
 11
163.394383
 21
295.005237
  0
LINE
  5
95
100
AcDbEntity
  8
DD0
100
AcDbLine
 10
162.987942
 20
433.439107
 11
161.576202
 21
438.707793
  0
LINE
  5
96
100
AcDbEntity
  8
DD0
100
AcDbLine
 10
161.576202
 20
438.707793
 11
160.164461
 21
433.439107
  0
LINE
  5
97
100
AcDbEntity
  8
DD0
100
AcDbLine
 10
160.164461
 20
300.273923
 11
161.576202
 21
295.005237
  0
LINE
  5
98
100
AcDbEntity
  8
DD0
100
AcDbLine
 10
161.576202
 20
295.005237
 11
162.987942
 21
300.273923
  0
LINE
  5
99
100
AcDbEntity
  8
DD0
100
AcDbLine
 10
161.576202
 20
438.707793
 11
161.576202
 21
295.005237
  0
TEXT
  5
9A
100
AcDbEntity
  8
DD0
100
AcDbText
 10
160.485295
 20
361.71408
 40
4.545454
  1
１４４
 50
90.000003
 41
0.666667
  7
STANDARD
100
AcDbText
  0
ENDBLK
  5
9B
100
AcDbEntity
  8
DD0
100
AcDbBlockEnd
  0
BLOCK
  5
9E
100
AcDbEntity
  8
DD0
100
AcDbBlockBegin
  2
DIMS7
 70
     0
 10
0.0
 20
0.0
  0
LINE
  5
9F
100
AcDbEntity
  8
DD0
100
AcDbLine
 10
44.252578
 20
423.725965
 11
44.252578
 21
483.865013
  0
LINE
  5
A0
100
AcDbEntity
  8
DD0
100
AcDbLine
 10
146.152563
 20
423.725965
 11
146.152563
 21
483.865013
  0
LINE
  5
A1
100
AcDbEntity
  8
DD0
100
AcDbLine
 10
49.521265
 20
483.458572
 11
44.252578
 21
482.046831
  0
LINE
  5
A2
100
AcDbEntity
  8
DD0
100
AcDbLine
 10
44.252578
 20
482.046831
 11
49.521265
 21
480.635091
  0
LINE
  5
A3
100
AcDbEntity
  8
DD0
100
AcDbLine
 10
140.883876
 20
480.635091
 11
146.152563
 21
482.046831
  0
LINE
  5
A4
100
AcDbEntity
  8
DD0
100
AcDbLine
 10
146.152563
 20
482.046831
 11
140.883876
 21
483.458572
  0
LINE
  5
A5
100
AcDbEntity
  8
DD0
100
AcDbLine
 10
44.252578
 20
482.046831
 11
146.152563
 21
482.046831
  0
TEXT
  5
A6
100
AcDbEntity
  8
DD0
100
AcDbText
 10
90.060151
 20
483.137751
 40
4.545454
  1
１０２
 41
0.666667
  7
STANDARD
100
AcDbText
  0
TEXT
  5
A7
100
AcDbEntity
  8
DD0
100
AcDbText
 10
57.332879
 20
476.046854
 40
4.545454
  1
（補助接点サイドオンユニットを付けた場合）
 41
0.666667
  7
STANDARD
100
AcDbText
  0
ENDBLK
  5
A8
100
AcDbEntity
  8
DD0
100
AcDbBlockEnd
  0
BLOCK
  5
AB
100
AcDbEntity
  8
DD0
100
AcDbBlockBegin
  2
DIMS8
 70
     0
 10
0.0
 20
0.0
  0
LINE
  5
AC
100
AcDbEntity
  8
DD0
100
AcDbLine
 10
55.702572
 20
341.326065
 11
55.702572
 21
465.09268
  0
LINE
  5
AD
100
AcDbEntity
  8
DD0
100
AcDbLine
 10
140.706049
 20
341.323401
 11
140.706049
 21
465.09268
  0
LINE
  5
AE
100
AcDbEntity
  8
DD0
100
AcDbLine
 10
60.971259
 20
464.686239
 11
55.702572
 21
463.274498
  0
LINE
  5
AF
100
AcDbEntity
  8
DD0
100
AcDbLine
 10
55.702572
 20
463.274498
 11
60.971259
 21
461.862758
  0
LINE
  5
B0
100
AcDbEntity
  8
DD0
100
AcDbLine
 10
135.437363
 20
461.862758
 11
140.706049
 21
463.274498
  0
LINE
  5
B1
100
AcDbEntity
  8
DD0
100
AcDbLine
 10
140.706049
 20
463.274498
 11
135.437363
 21
464.686239
  0
LINE
  5
B2
100
AcDbEntity
  8
DD0
100
AcDbLine
 10
55.702572
 20
463.274498
 11
140.706049
 21
463.274498
  0
TEXT
  5
B3
100
AcDbEntity
  8
DD0
100
AcDbText
 10
94.880069
 20
464.365419
 40
4.545454
  1
８５
 41
0.666667
  7
STANDARD
100
AcDbText
  0
ENDBLK
  5
B4
100
AcDbEntity
  8
DD0
100
AcDbBlockEnd
  0
BLOCK
  5
B7
100
AcDbEntity
  8
DD0
100
AcDbBlockBegin
  2
DIMS9
 70
     0
 10
0.0
 20
0.0
  0
LINE
  5
B8
100
AcDbEntity
  8
DD0
100
AcDbLine
 10
67.202445
 20
305.688997
 11
67.202445
 21
273.062489
  0
LINE
  5
B9
100
AcDbEntity
  8
DD0
100
AcDbLine
 10
87.202445
 20
305.688997
 11
87.202445
 21
273.062489
  0
LINE
  5
BA
100
AcDbEntity
  8
DD0
100
AcDbLine
 10
72.471131
 20
276.292411
 11
67.202445
 21
274.88067
  0
LINE
  5
BB
100
AcDbEntity
  8
DD0
100
AcDbLine
 10
67.202445
 20
274.88067
 11
72.471131
 21
273.46893
  0
LINE
  5
BC
100
AcDbEntity
  8
DD0
100
AcDbLine
 10
81.933759
 20
273.46893
 11
87.202445
 21
274.88067
  0
LINE
  5
BD
100
AcDbEntity
  8
DD0
100
AcDbLine
 10
87.202445
 20
274.88067
 11
81.933759
 21
276.292411
  0
LINE
  5
BE
100
AcDbEntity
  8
DD0
100
AcDbLine
 10
67.202445
 20
274.88067
 11
87.202445
 21
274.88067
  0
TEXT
  5
BF
100
AcDbEntity
  8
DD0
100
AcDbText
 10
73.878205
 20
275.97159
 40
4.545454
  1
２０
 41
0.666667
  7
STANDARD
100
AcDbText
  0
ENDBLK
  5
C0
100
AcDbEntity
  8
DD0
100
AcDbBlockEnd
  0
BLOCK
  5
C3
100
AcDbEntity
  8
DD0
100
AcDbBlockBegin
  2
DIMS10
 70
     0
 10
0.0
 20
0.0
  0
LINE
  5
C4
100
AcDbEntity
  8
DD0
100
AcDbLine
 10
135.917896
 20
217.743207
 11
163.394383
 21
217.743207
  0
LINE
  5
C5
100
AcDbEntity
  8
DD0
100
AcDbLine
 10
66.221042
 20
204.698718
 11
163.394383
 21
204.698718
  0
LINE
  5
C6
100
AcDbEntity
  8
DD0
100
AcDbLine
 10
160.164461
 20
223.011893
 11
161.576202
 21
217.743207
  0
LINE
  5
C7
100
AcDbEntity
  8
DD0
100
AcDbLine
 10
161.576202
 20
217.743207
 11
162.987942
 21
223.011893
  0
LINE
  5
C8
100
AcDbEntity
  8
DD0
100
AcDbLine
 10
162.987942
 20
199.430032
 11
161.576202
 21
204.698718
  0
LINE
  5
C9
100
AcDbEntity
  8
DD0
100
AcDbLine
 10
161.576202
 20
204.698718
 11
160.164461
 21
199.430032
  0
LINE
  5
CA
100
AcDbEntity
  8
DD0
100
AcDbLine
 10
161.576202
 20
232.834116
 11
161.576202
 21
198.698718
  0
TEXT
  5
CB
100
AcDbEntity
  8
DD0
100
AcDbText
 10
160.485295
 20
224.055336
 40
4.545454
  1
１３
 50
90.000003
 41
0.666667
  7
STANDARD
100
AcDbText
  0
ENDBLK
  5
CC
100
AcDbEntity
  8
DD0
100
AcDbBlockEnd
  0
BLOCK
  5
CF
100
AcDbEntity
  8
DD0
100
AcDbBlockBegin
  2
DIMS11
 70
     0
 10
0.0
 20
0.0
  0
TEXT
  5
D0
100
AcDbEntity
  8
DD0
100
AcDbText
 10
158.502165
 20
110.22272
 40
4.545454
  1
２－Ｍ４ねじ穴
 41
0.666667
  7
STANDARD
100
AcDbText
  0
LINE
  5
D1
100
AcDbEntity
  8
DD0
100
AcDbLine
 10
136.286724
 20
133.267035
 11
132.036893
 21
136.686246
  0
LINE
  5
D2
100
AcDbEntity
  8
DD0
100
AcDbLine
 10
132.036893
 20
136.686246
 11
134.007749
 21
131.600207
  0
LINE
  5
D3
100
AcDbEntity
  8
DD0
100
AcDbLine
 10
132.036893
 20
136.686246
 11
152.190035
 21
109.131814
  0
LINE
  5
D4
100
AcDbEntity
  8
DD0
100
AcDbLine
 10
152.190035
 20
109.131814
 11
189.644591
 21
109.131814
  0
ENDBLK
  5
D5
100
AcDbEntity
  8
DD0
100
AcDbBlockEnd
  0
BLOCK
  5
D8
100
AcDbEntity
  8
DD0
100
AcDbBlockBegin
  2
DIMS12
 70
     0
 10
0.0
 20
0.0
  0
LINE
  5
D9
100
AcDbEntity
  8
DD0
100
AcDbLine
 10
131.305456
 20
145.614302
 11
131.305456
 21
231.629315
  0
LINE
  5
DA
100
AcDbEntity
  8
DD0
100
AcDbLine
 10
60.305452
 20
210.6143
 11
60.305452
 21
231.629315
  0
LINE
  5
DB
100
AcDbEntity
  8
DD0
100
AcDbLine
 10
126.03677
 20
228.399393
 11
131.305456
 21
229.811133
  0
LINE
  5
DC
100
AcDbEntity
  8
DD0
100
AcDbLine
 10
131.305456
 20
229.811133
 11
126.03677
 21
231.222873
  0
LINE
  5
DD
100
AcDbEntity
  8
DD0
100
AcDbLine
 10
65.574138
 20
231.222873
 11
60.305452
 21
229.811133
  0
LINE
  5
DE
100
AcDbEntity
  8
DD0
100
AcDbLine
 10
60.305452
 20
229.811133
 11
65.574138
 21
228.399393
  0
LINE
  5
DF
100
AcDbEntity
  8
DD0
100
AcDbLine
 10
131.305456
 20
229.811133
 11
60.305452
 21
229.811133
  0
TEXT
  5
E0
100
AcDbEntity
  8
DD0
100
AcDbText
 10
92.481214
 20
230.902039
 40
4.545454
  1
７１
 41
0.666667
  7
STANDARD
100
AcDbText
  0
ENDBLK
  5
E1
100
AcDbEntity
  8
DD0
100
AcDbBlockEnd
  0
BLOCK
  5
E4
100
AcDbEntity
  8
DD0
100
AcDbBlockBegin
  2
DIMS13
 70
     0
 10
0.0
 20
0.0
  0
LINE
  5
E5
100
AcDbEntity
  8
DD0
100
AcDbLine
 10
60.305452
 20
210.6143
 11
60.305452
 21
231.629315
  0
LINE
  5
E6
100
AcDbEntity
  8
DD0
100
AcDbLine
 10
56.305433
 20
219.561388
 11
56.305433
 21
231.629315
  0
LINE
  5
E7
100
AcDbEntity
  8
DD0
100
AcDbLine
 10
65.574138
 20
231.222873
 11
60.305452
 21
229.811133
  0
LINE
  5
E8
100
AcDbEntity
  8
DD0
100
AcDbLine
 10
60.305452
 20
229.811133
 11
65.574138
 21
228.399393
  0
LINE
  5
E9
100
AcDbEntity
  8
DD0
100
AcDbLine
 10
51.036747
 20
228.399393
 11
56.305433
 21
229.811133
  0
LINE
  5
EA
100
AcDbEntity
  8
DD0
100
AcDbLine
 10
56.305433
 20
229.811133
 11
51.036747
 21
231.222873
  0
LINE
  5
EB
100
AcDbEntity
  8
DD0
100
AcDbLine
 10
66.305452
 20
229.811133
 11
44.850888
 21
229.811133
  0
TEXT
  5
EC
100
AcDbEntity
  8
DD0
100
AcDbText
 10
46.453921
 20
230.902039
 40
4.545454
  1
４
 41
0.666667
  7
STANDARD
100
AcDbText
  0
ENDBLK
  5
ED
100
AcDbEntity
  8
DD0
100
AcDbBlockEnd
  0
BLOCK
  5
F0
100
AcDbEntity
  8
DD0
100
AcDbBlockBegin
  2
DIMS14
 70
     0
 10
0.0
 20
0.0
  0
LINE
  5
F1
100
AcDbEntity
  8
DD0
100
AcDbLine
 10
66.221042
 20
204.698718
 11
163.394383
 21
204.698718
  0
LINE
  5
F2
100
AcDbEntity
  8
DD0
100
AcDbLine
 10
137.221039
 20
139.698719
 11
163.394383
 21
139.698719
  0
LINE
  5
F3
100
AcDbEntity
  8
DD0
100
AcDbLine
 10
162.987942
 20
199.430032
 11
161.576202
 21
204.698718
  0
LINE
  5
F4
100
AcDbEntity
  8
DD0
100
AcDbLine
 10
161.576202
 20
204.698718
 11
160.164461
 21
199.430032
  0
LINE
  5
F5
100
AcDbEntity
  8
DD0
100
AcDbLine
 10
160.164461
 20
144.967405
 11
161.576202
 21
139.698719
  0
LINE
  5
F6
100
AcDbEntity
  8
DD0
100
AcDbLine
 10
161.576202
 20
139.698719
 11
162.987942
 21
144.967405
  0
LINE
  5
F7
100
AcDbEntity
  8
DD0
100
AcDbLine
 10
161.576202
 20
204.698718
 11
161.576202
 21
139.698719
  0
TEXT
  5
F8
100
AcDbEntity
  8
DD0
100
AcDbText
 10
160.485295
 20
168.874479
 40
4.545454
  1
６５
 50
90.000003
 41
0.666667
  7
STANDARD
100
AcDbText
  0
ENDBLK
  5
F9
100
AcDbEntity
  8
DD0
100
AcDbBlockEnd
  0
BLOCK
  5
FC
100
AcDbEntity
  8
DD0
100
AcDbBlockBegin
  2
DIMS15
 70
     0
 10
0.0
 20
0.0
  0
LINE
  5
FD
100
AcDbEntity
  8
DD0
100
AcDbLine
 10
71.93439
 20
438.707793
 11
32.12232
 21
438.707793
  0
LINE
  5
FE
100
AcDbEntity
  8
DD0
100
AcDbLine
 10
75.78439
 20
421.707782
 11
32.12232
 21
421.707782
  0
LINE
  5
FF
100
AcDbEntity
  8
DD0
100
AcDbLine
 10
35.352242
 20
433.439107
 11
33.940502
 21
438.707793
  0
LINE
  5
100
100
AcDbEntity
  8
DD0
100
AcDbLine
 10
33.940502
 20
438.707793
 11
32.528762
 21
433.439107
  0
LINE
  5
101
100
AcDbEntity
  8
DD0
100
AcDbLine
 10
32.528762
 20
426.976468
 11
33.940502
 21
421.707782
  0
LINE
  5
102
100
AcDbEntity
  8
DD0
100
AcDbLine
 10
33.940502
 20
421.707782
 11
35.352242
 21
426.976468
  0
LINE
  5
103
100
AcDbEntity
  8
DD0
100
AcDbLine
 10
33.940502
 20
438.707793
 11
33.940502
 21
421.707782
  0
TEXT
  5
104
100
AcDbEntity
  8
DD0
100
AcDbText
 10
32.849592
 20
426.883534
 40
4.545454
  1
１７
 50
90.000003
 41
0.666667
  7
STANDARD
100
AcDbText
  0
ENDBLK
  5
105
100
AcDbEntity
  8
DD0
100
AcDbBlockEnd
  0
BLOCK
  5
108
100
AcDbEntity
  8
DD0
100
AcDbBlockBegin
  2
DIMS16
 70
     0
 10
0.0
 20
0.0
  0
LINE
  5
109
100
AcDbEntity
  8
DD0
100
AcDbLine
 10
75.78439
 20
421.707782
 11
32.12232
 21
421.707782
  0
LINE
  5
10A
100
AcDbEntity
  8
DD0
100
AcDbLine
 10
65.384263
 20
308.007168
 11
32.12232
 21
308.007168
  0
LINE
  5
10B
100
AcDbEntity
  8
DD0
100
AcDbLine
 10
35.352242
 20
416.439096
 11
33.940502
 21
421.707782
  0
LINE
  5
10C
100
AcDbEntity
  8
DD0
100
AcDbLine
 10
33.940502
 20
421.707782
 11
32.528762
 21
416.439096
  0
LINE
  5
10D
100
AcDbEntity
  8
DD0
100
AcDbLine
 10
32.528762
 20
313.275854
 11
33.940502
 21
308.007168
  0
LINE
  5
10E
100
AcDbEntity
  8
DD0
100
AcDbLine
 10
33.940502
 20
308.007168
 11
35.352242
 21
313.275854
  0
LINE
  5
10F
100
AcDbEntity
  8
DD0
100
AcDbLine
 10
33.940502
 20
421.707782
 11
33.940502
 21
308.007168
  0
TEXT
  5
110
100
AcDbEntity
  8
DD0
100
AcDbText
 10
32.849592
 20
356.078676
 40
4.545454
  1
１１３．５
 50
90.000003
 41
0.666667
  7
STANDARD
100
AcDbText
  0
ENDBLK
  5
111
100
AcDbEntity
  8
DD0
100
AcDbBlockEnd
  0
ENDSEC
  0
SECTION
  2
ENTITIES
  0
INSERT
  5
56
100
AcDbEntity
  8
DD0
100
AcDbBlockReference
  2
DIMS0
 10
0.0
 20
0.0
  0
INSERT
  5
61
100
AcDbEntity
  8
DD0
100
AcDbBlockReference
  2
DIMS1
 10
0.0
 20
0.0
  0
INSERT
  5
6D
100
AcDbEntity
  8
DD0
100
AcDbBlockReference
  2
DIMS2
 10
0.0
 20
0.0
  0
INSERT
  5
78
100
AcDbEntity
  8
DD0
100
AcDbBlockReference
  2
DIMS3
 10
0.0
 20
0.0
  0
INSERT
  5
84
100
AcDbEntity
  8
DD0
100
AcDbBlockReference
  2
DIMS4
 10
0.0
 20
0.0
  0
INSERT
  5
90
100
AcDbEntity
  8
DD0
100
AcDbBlockReference
  2
DIMS5
 10
0.0
 20
0.0
  0
INSERT
  5
9C
100
AcDbEntity
  8
DD0
100
AcDbBlockReference
  2
DIMS6
 10
0.0
 20
0.0
  0
INSERT
  5
A9
100
AcDbEntity
  8
DD0
100
AcDbBlockReference
  2
DIMS7
 10
0.0
 20
0.0
  0
INSERT
  5
B5
100
AcDbEntity
  8
DD0
100
AcDbBlockReference
  2
DIMS8
 10
0.0
 20
0.0
  0
INSERT
  5
C1
100
AcDbEntity
  8
DD0
100
AcDbBlockReference
  2
DIMS9
 10
0.0
 20
0.0
  0
INSERT
  5
CD
100
AcDbEntity
  8
DD0
100
AcDbBlockReference
  2
DIMS10
 10
0.0
 20
0.0
  0
INSERT
  5
D6
100
AcDbEntity
  8
DD0
100
AcDbBlockReference
  2
DIMS11
 10
0.0
 20
0.0
  0
INSERT
  5
E2
100
AcDbEntity
  8
DD0
100
AcDbBlockReference
  2
DIMS12
 10
0.0
 20
0.0
  0
INSERT
  5
EE
100
AcDbEntity
  8
DD0
100
AcDbBlockReference
  2
DIMS13
 10
0.0
 20
0.0
  0
INSERT
  5
FA
100
AcDbEntity
  8
DD0
100
AcDbBlockReference
  2
DIMS14
 10
0.0
 20
0.0
  0
INSERT
  5
106
100
AcDbEntity
  8
DD0
100
AcDbBlockReference
  2
DIMS15
 10
0.0
 20
0.0
  0
INSERT
  5
112
100
AcDbEntity
  8
DD0
100
AcDbBlockReference
  2
DIMS16
 10
0.0
 20
0.0
  0
LINE
  5
113
100
AcDbEntity
  8
M0
 62
     7
100
AcDbLine
 10
220.116258
 20
385.707784
 11
220.116258
 21
381.207784
  0
LINE
  5
114
100
AcDbEntity
  8
M0
 62
     7
100
AcDbLine
 10
269.51626
 20
386.007783
 11
271.316259
 21
386.007783
  0
LINE
  5
115
100
AcDbEntity
  8
M0
 62
     7
100
AcDbLine
 10
218.616255
 20
385.707784
 11
220.116258
 21
385.707784
  0
LINE
  5
116
100
AcDbEntity
  8
M0
 62
     7
100
AcDbLine
 10
271.316259
 20
349.707783
 11
271.316259
 21
386.207784
  0
LINE
  5
117
100
AcDbEntity
  8
M0
 62
     7
100
AcDbLine
 10
219.116256
 20
403.207784
 11
222.41626
 21
403.207784
  0
LINE
  5
118
100
AcDbEntity
  8
M0
 62
     7
100
AcDbLine
 10
269.016259
 20
397.907784
 11
269.016259
 21
395.407784
  0
LINE
  5
119
100
AcDbEntity
  8
M0
 62
     7
100
AcDbLine
 10
256.816258
 20
389.507784
 11
268.516258
 21
389.507784
  0
LINE
  5
11A
100
AcDbEntity
  8
M0
 62
     7
100
AcDbLine
 10
218.116262
 20
381.707784
 11
218.116262
 21
402.707784
  0
LINE
  5
11B
100
AcDbEntity
  8
M0
 62
     7
100
AcDbLine
 10
219.116256
 20
403.207784
 11
218.616255
 21
403.207784
  0
LINE
  5
11C
100
AcDbEntity
  8
M0
 62
     7
100
AcDbLine
 10
218.616255
 20
381.207784
 11
222.41626
 21
381.207784
  0
ARC
  5
11D
100
AcDbEntity
  8
M0
 62
     7
100
AcDbCircle
 10
269.816259
 20
397.707784
 40
0.5
100
AcDbArc
 50
90.0
 51
180.0
  0
LINE
  5
11E
100
AcDbEntity
  8
M0
 62
     7
100
AcDbLine
 10
278.716259
 20
412.307783
 11
271.316259
 21
412.307783
  0
ARC
  5
11F
100
AcDbEntity
  8
M0
 62
     7
100
AcDbCircle
 10
268.516259
 20
389.007784
 40
0.5
100
AcDbArc
 50
0.0
 51
90.0
  0
ARC
  5
120
100
AcDbEntity
  8
M0
 62
     7
100
AcDbCircle
 10
262.713528
 20
416.557784
 40
3.0
100
AcDbArc
 50
49.635463
 51
90.0
  0
ARC
  5
121
100
AcDbEntity
  8
M0
 62
     7
100
AcDbCircle
 10
269.516259
 20
386.507784
 40
0.5
100
AcDbArc
 50
180.0
 51
270.0
  0
LINE
  5
122
100
AcDbEntity
  8
M0
 62
     7
100
AcDbLine
 10
220.116258
 20
396.807784
 11
218.616255
 21
396.807784
  0
LINE
  5
123
100
AcDbEntity
  8
M0
 62
     7
100
AcDbLine
 10
271.316259
 20
349.707783
 11
265.616259
 21
349.707783
  0
LINE
  5
124
100
AcDbEntity
  8
M0
 62
     7
100
AcDbLine
 10
269.816258
 20
398.207784
 11
271.316259
 21
398.207784
  0
LINE
  5
125
100
AcDbEntity
  8
M0
 62
     7
100
AcDbLine
 10
295.516259
 20
367.407783
 11
271.316259
 21
367.407783
  0
LINE
  5
126
100
AcDbEntity
  8
M0
 62
     7
100
AcDbLine
 10
220.116258
 20
398.307784
 11
220.116258
 21
396.807784
  0
ARC
  5
127
100
AcDbEntity
  8
M0
 62
     7
100
AcDbCircle
 10
256.816259
 20
390.007784
 40
0.5
100
AcDbArc
 50
180.0
 51
270.0
  0
ARC
  5
128
100
AcDbEntity
  8
M0
 62
     7
100
AcDbCircle
 10
222.916259
 20
384.507784
 40
0.5
100
AcDbArc
 50
90.0
 51
180.0
  0
ARC
  5
129
100
AcDbEntity
  8
M0
 62
     7
100
AcDbCircle
 10
222.916259
 20
399.907784
 40
0.5
100
AcDbArc
 50
180.0
 51
270.0
  0
ARC
  5
12A
100
AcDbEntity
  8
M0
 62
     7
100
AcDbCircle
 10
256.816259
 20
394.407784
 40
0.5
100
AcDbArc
 50
90.0
 51
180.0
  0
ARC
  5
12B
100
AcDbEntity
  8
M0
 62
     7
100
AcDbCircle
 10
226.116259
 20
387.007784
 40
1.0
100
AcDbArc
 50
180.0
 51
270.0
  0
ARC
  5
12C
100
AcDbEntity
  8
M0
 62
     7
100
AcDbCircle
 10
223.416259
 20
370.507784
 40
1.0
100
AcDbArc
 50
180.0
 51
270.0
  0
LINE
  5
12D
100
AcDbEntity
  8
M0
 62
     7
100
AcDbLine
 10
231.21626
 20
412.307783
 11
242.616259
 21
412.307783
  0
LINE
  5
12E
100
AcDbEntity
  8
M0
 62
     7
100
AcDbLine
 10
266.816259
 20
417.007784
 11
271.316259
 21
417.007784
  0
LINE
  5
12F
100
AcDbEntity
  8
M0
 62
     7
100
AcDbLine
 10
269.016259
 20
389.007784
 11
269.016259
 21
386.507784
  0
LINE
  5
130
100
AcDbEntity
  8
M0
 62
     7
100
AcDbLine
 10
231.21626
 20
388.507784
 11
231.21626
 21
395.907784
  0
LINE
  5
131
100
AcDbEntity
  8
M0
 62
     7
100
AcDbLine
 10
271.316259
 20
398.207784
 11
271.316259
 21
425.207783
  0
LINE
  5
132
100
AcDbEntity
  8
M0
 62
     7
100
AcDbLine
 10
223.416262
 20
414.907784
 11
225.116261
 21
414.907784
  0
ELLIPSE
  5
133
100
AcDbEntity
  8
M0
 62
     7
100
AcDbEllipse
 10
218.616259
 20
398.51489
 11
-0.5
 21
0.0
210
0.0
220
0.0
230
1.0
 40
0.414214
 41
0.0
 42
1.570796326794897
  0
LINE
  5
134
100
AcDbEntity
  8
M0
 62
     7
100
AcDbLine
 10
225.116261
 20
393.707784
 11
222.41626
 21
393.707784
  0
LINE
  5
135
100
AcDbEntity
  8
M0
 62
     7
100
AcDbLine
 10
256.31626
 20
394.407784
 11
256.31626
 21
390.007784
  0
LINE
  5
136
100
AcDbEntity
  8
M0
 62
     7
100
AcDbLine
 10
225.116261
 20
399.407784
 11
222.916261
 21
399.407784
  0
ARC
  5
137
100
AcDbEntity
  8
M0
 62
     7
100
AcDbCircle
 10
221.916259
 20
377.707784
 40
0.5
100
AcDbArc
 50
180.0
 51
270.0
  0
ARC
  5
138
100
AcDbEntity
  8
M0
 62
     7
100
AcDbCircle
 10
262.713528
 20
367.857784
 40
3.0
100
AcDbArc
 50
270.0
 51
310.364537
  0
ARC
  5
139
100
AcDbEntity
  8
M0
 62
     7
100
AcDbCircle
 10
268.516259
 20
395.407784
 40
0.5
100
AcDbArc
 50
270.0
 51
360.0
  0
ARC
  5
13A
100
AcDbEntity
  8
M0
 62
     7
100
AcDbCircle
 10
221.916259
 20
378.707784
 40
0.5
100
AcDbArc
 50
90.0
 51
180.0
  0
ARC
  5
13B
100
AcDbEntity
  8
M0
 62
     7
100
AcDbCircle
 10
255.873618
 20
352.707784
 40
3.0
100
AcDbArc
 50
270.0
 51
315.0
  0
LINE
  5
13C
100
AcDbEntity
  8
M0
 62
     7
100
AcDbLine
 10
222.41626
 20
396.707783
 11
225.116261
 21
396.707783
  0
LINE
  5
13D
100
AcDbEntity
  8
M0
  6
DASHED
 62
     7
100
AcDbLine
 10
207.516259
 20
369.807786
 11
192.416258
 21
369.807786
  0
LINE
  5
13E
100
AcDbEntity
  8
M0
  6
DASHED
 62
     7
100
AcDbLine
 10
207.516259
 20
416.607787
 11
192.416258
 21
416.607787
  0
LINE
  5
13F
100
AcDbEntity
  8
M0
  6
DASHED
 62
     7
100
AcDbLine
 10
188.416258
 20
373.807786
 11
188.416258
 21
412.607786
  0
LINE
  5
140
100
AcDbEntity
  8
M0
  6
DASHED
 62
     7
100
AcDbLine
 10
186.816259
 20
394.507786
 11
186.816259
 21
391.707786
  0
LINE
  5
141
100
AcDbEntity
  8
M0
  6
DASHED
 62
     7
100
AcDbLine
 10
186.816259
 20
394.507786
 11
188.416258
 21
394.507786
  0
LINE
  5
142
100
AcDbEntity
  8
M0
  6
DASHED
 62
     7
100
AcDbLine
 10
212.516258
 20
375.507792
 11
212.516258
 21
374.807786
  0
ARC
  5
143
100
AcDbEntity
  8
M0
  6
DASHED
 62
     7
100
AcDbCircle
 10
221.916259
 20
376.007792
 40
0.5
100
AcDbArc
 50
270.0
 51
360.0
  0
ARC
  5
144
100
AcDbEntity
  8
M0
  6
DASHED
 62
     7
100
AcDbCircle
 10
207.516259
 20
374.807786
 40
5.0
100
AcDbArc
 50
270.0
 51
360.0
  0
ARC
  5
145
100
AcDbEntity
  8
M0
  6
DASHED
 62
     7
100
AcDbCircle
 10
221.916259
 20
410.40778
 40
0.5
100
AcDbArc
 50
0.0
 51
90.0
  0
ARC
  5
146
100
AcDbEntity
  8
M0
  6
DASHED
 62
     7
100
AcDbCircle
 10
192.416259
 20
373.807786
 40
4.0
100
AcDbArc
 50
180.0
 51
270.0
  0
ARC
  5
147
100
AcDbEntity
  8
M0
  6
DASHED
 62
     7
100
AcDbCircle
 10
192.416259
 20
412.607786
 40
4.0
100
AcDbArc
 50
90.0
 51
180.0
  0
ARC
  5
148
100
AcDbEntity
  8
M0
  6
DASHED
 62
     7
100
AcDbCircle
 10
207.516259
 20
411.607786
 40
5.0
100
AcDbArc
 50
0.0
 51
90.0
  0
LINE
  5
149
100
AcDbEntity
  8
M0
  6
DASHED
 62
     7
100
AcDbLine
 10
188.416258
 20
391.707786
 11
186.816259
 21
391.707786
  0
LINE
  5
14A
100
AcDbEntity
  8
M0
  6
DASHED
 62
     7
100
AcDbLine
 10
221.916259
 20
410.90778
 11
212.516258
 21
410.90778
  0
LINE
  5
14B
100
AcDbEntity
  8
M0
  6
DASHED
 62
     7
100
AcDbLine
 10
212.516258
 20
410.90778
 11
212.516258
 21
411.607786
  0
LINE
  5
14C
100
AcDbEntity
  8
M0
  6
DASHED
 62
     7
100
AcDbLine
 10
220.716258
 20
412.907786
 11
221.31626
 21
410.90778
  0
LINE
  5
14D
100
AcDbEntity
  8
M0
  6
DASHED
 62
     7
100
AcDbLine
 10
220.316258
 20
410.90778
 11
220.316258
 21
412.907786
  0
ELLIPSE
  5
14E
100
AcDbEntity
  8
M0
 62
     7
100
AcDbEllipse
 10
218.616259
 20
397.01489
 11
-0.5
 21
0.0
210
0.0
220
0.0
230
1.0
 40
0.414214
 41
0.0
 42
1.570796326794897
  0
ARC
  5
14F
100
AcDbEntity
  8
M0
 62
     7
100
AcDbCircle
 10
269.816259
 20
386.707784
 40
0.5
100
AcDbArc
 50
180.0
 51
270.0
  0
LINE
  5
150
100
AcDbEntity
  8
M0
 62
     7
100
AcDbLine
 10
213.116258
 20
422.427915
 11
213.116258
 21
440.627915
  0
ARC
  5
151
100
AcDbEntity
  8
M0
 62
     7
100
AcDbCircle
 10
231.216259
 20
409.307784
 40
3.0
100
AcDbArc
 50
90.0
 51
180.0
  0
LINE
  5
152
100
AcDbEntity
  8
M0
 62
     7
100
AcDbLine
 10
269.816258
 20
386.207784
 11
271.316259
 21
386.207784
  0
LINE
  5
153
100
AcDbEntity
  8
M0
 62
     7
100
AcDbLine
 10
220.116258
 20
402.207783
 11
220.116258
 21
398.307784
  0
LINE
  5
154
100
AcDbEntity
  8
M0
  6
DASHED
 62
     7
100
AcDbLine
 10
220.316258
 20
412.907786
 11
220.716258
 21
412.907786
  0
LINE
  5
155
100
AcDbEntity
  8
M0
  6
DASHED
 62
     7
100
AcDbLine
 10
221.916259
 20
375.507792
 11
212.516258
 21
375.507792
  0
LINE
  5
156
100
AcDbEntity
  8
M0
 62
     7
100
AcDbLine
 10
278.716259
 20
377.107783
 11
271.316259
 21
377.107783
  0
LINE
  5
157
100
AcDbEntity
  8
M0
 62
     7
100
AcDbLine
 10
269.31626
 20
386.707784
 11
269.31626
 21
397.707784
  0
LINE
  5
158
100
AcDbEntity
  8
M0
 62
     7
100
AcDbLine
 10
278.716259
 20
407.307784
 11
271.316259
 21
407.307784
  0
LINE
  5
159
100
AcDbEntity
  8
M0
 62
     7
100
AcDbLine
 10
257.61626
 20
394.907784
 11
257.61626
 21
389.707784
  0
LINE
  5
15A
100
AcDbEntity
  8
M0
 62
     7
100
AcDbLine
 10
271.316259
 20
367.407783
 11
266.816259
 21
367.407783
  0
LINE
  5
15B
100
AcDbEntity
  8
M0
 62
     7
100
AcDbLine
 10
266.816259
 20
367.407783
 11
264.656474
 21
365.571965
  0
LINE
  5
15C
100
AcDbEntity
  8
M0
 62
     7
100
AcDbLine
 10
245.616258
 20
367.857783
 11
245.616258
 21
369.107784
  0
LINE
  5
15D
100
AcDbEntity
  8
M0
 62
     7
100
AcDbLine
 10
242.616259
 20
372.107784
 11
231.21626
 21
372.107784
  0
LINE
  5
15E
100
AcDbEntity
  8
M0
 62
     7
100
AcDbLine
 10
225.116261
 20
354.707784
 11
225.116261
 21
429.707784
  0
LINE
  5
15F
100
AcDbEntity
  8
M0
 62
     7
100
AcDbLine
 10
226.116256
 20
398.407784
 11
228.216261
 21
398.407784
  0
ARC
  5
160
100
AcDbEntity
  8
M0
 62
     7
100
AcDbCircle
 10
229.216259
 20
396.907784
 40
1.0
100
AcDbArc
 50
180.0
 51
270.0
  0
ARC
  5
161
100
AcDbEntity
  8
M0
 62
     7
100
AcDbCircle
 10
265.616259
 20
350.707784
 40
1.0
100
AcDbArc
 50
180.0
 51
270.0
  0
ARC
  5
162
100
AcDbEntity
  8
M0
 62
     7
100
AcDbCircle
 10
231.216259
 20
375.107784
 40
3.0
100
AcDbArc
 50
180.0
 51
270.0
  0
ARC
  5
163
100
AcDbEntity
  8
M0
 62
     7
100
AcDbCircle
 10
230.116259
 20
354.707784
 40
5.0
100
AcDbArc
 50
180.0
 51
270.0
  0
ARC
  5
164
100
AcDbEntity
  8
M0
 62
     7
100
AcDbCircle
 10
226.116259
 20
397.407784
 40
1.0
100
AcDbArc
 50
90.0
 51
180.0
  0
ARC
  5
165
100
AcDbEntity
  8
M0
 62
     7
100
AcDbCircle
 10
218.616259
 20
402.707784
 40
0.5
100
AcDbArc
 50
90.0
 51
180.0
  0
ARC
  5
166
100
AcDbEntity
  8
M0
 62
     7
100
AcDbCircle
 10
258.116259
 20
389.707784
 40
0.5
100
AcDbArc
 50
180.0
 51
203.578178
  0
ARC
  5
167
100
AcDbEntity
  8
M0
 62
     7
100
AcDbCircle
 10
230.116259
 20
429.707784
 40
5.0
100
AcDbArc
 50
90.0
 51
180.0
  0
ARC
  5
168
100
AcDbEntity
  8
M0
 62
     7
100
AcDbCircle
 10
229.216259
 20
387.507784
 40
1.0
100
AcDbArc
 50
90.0
 51
180.0
  0
ARC
  5
169
100
AcDbEntity
  8
M0
 62
     7
100
AcDbCircle
 10
242.616259
 20
369.107784
 40
3.0
100
AcDbArc
 50
0.0
 51
90.0
  0
ARC
  5
16A
100
AcDbEntity
  8
M0
 62
     7
100
AcDbCircle
 10
248.616259
 20
367.857784
 40
3.0
100
AcDbArc
 50
180.0
 51
270.0
  0
ARC
  5
16B
100
AcDbEntity
  8
M0
 62
     7
100
AcDbCircle
 10
260.616259
 20
389.707784
 40
0.5
100
AcDbArc
 50
336.421822
 51
360.0
  0
ARC
  5
16C
100
AcDbEntity
  8
M0
 62
     7
100
AcDbCircle
 10
269.016259
 20
395.207784
 40
0.5
100
AcDbArc
 50
53.130102
 51
90.0
  0
ARC
  5
16D
100
AcDbEntity
  8
M0
 62
     7
100
AcDbCircle
 10
255.462753
 20
431.707784
 40
3.0
100
AcDbArc
 50
32.275644
 51
90.0
  0
LINE
  5
16E
100
AcDbEntity
  8
M0
 62
     7
100
AcDbLine
 10
230.116256
 20
434.707784
 11
255.462752
 21
434.707784
  0
ARC
  5
16F
100
AcDbEntity
  8
M0
 62
     7
100
AcDbCircle
 10
269.016259
 20
388.207784
 40
0.5
100
AcDbArc
 50
270.0
 51
306.869898
  0
LINE
  5
170
100
AcDbEntity
  8
M0
 62
     7
100
AcDbLine
 10
263.11626
 20
355.707784
 11
257.994939
 21
350.586464
  0
LINE
  5
171
100
AcDbEntity
  8
M0
 62
     7
100
AcDbLine
 10
263.104946
 20
364.883427
 11
263.104946
 21
355.707784
  0
LINE
  5
172
100
AcDbEntity
  8
M0
 62
     7
100
AcDbLine
 10
263.11626
 20
425.207783
 11
271.316259
 21
425.207783
  0
LINE
  5
173
100
AcDbEntity
  8
M0
 62
     7
100
AcDbLine
 10
218.616255
 20
403.207784
 11
219.116256
 21
403.207784
  0
LINE
  5
174
100
AcDbEntity
  8
M0
 62
     7
100
AcDbLine
 10
271.316259
 20
355.707784
 11
263.11626
 21
355.707784
  0
LINE
  5
175
100
AcDbEntity
  8
M0
 62
     7
100
AcDbLine
 10
228.216261
 20
386.007783
 11
226.116256
 21
386.007783
  0
LINE
  5
176
100
AcDbEntity
  8
M0
 62
     7
100
AcDbLine
 10
257.99922
 20
433.309761
 11
263.11626
 21
425.207783
  0
LINE
  5
177
100
AcDbEntity
  8
M0
 62
     7
100
AcDbLine
 10
255.873617
 20
349.707783
 11
230.116256
 21
349.707783
  0
LINE
  5
178
100
AcDbEntity
  8
M0
 62
     7
100
AcDbLine
 10
263.104946
 20
425.207783
 11
263.104946
 21
419.53214
  0
LINE
  5
179
100
AcDbEntity
  8
M0
 62
     7
100
AcDbLine
 10
269.31626
 20
396.507784
 11
269.016259
 21
396.507784
  0
LINE
  5
17A
100
AcDbEntity
  8
M0
 62
     7
100
AcDbLine
 10
222.41626
 20
402.207783
 11
220.116258
 21
402.207783
  0
LINE
  5
17B
100
AcDbEntity
  8
M0
 62
     7
100
AcDbLine
 10
228.216261
 20
375.107783
 11
228.216261
 21
387.507784
  0
LINE
  5
17C
100
AcDbEntity
  8
M0
 62
     7
100
AcDbLine
 10
231.21626
 20
388.507784
 11
229.216256
 21
388.507784
  0
LINE
  5
17D
100
AcDbEntity
  8
M0
 62
     7
100
AcDbLine
 10
229.216256
 20
395.907784
 11
229.216256
 21
388.507784
  0
LINE
  5
17E
100
AcDbEntity
  8
M0
 62
     7
100
AcDbLine
 10
225.116261
 20
387.707784
 11
222.41626
 21
387.707784
  0
LINE
  5
17F
100
AcDbEntity
  8
M0
 62
     7
100
AcDbLine
 10
262.713526
 20
364.857784
 11
248.61626
 21
364.857784
  0
LINE
  5
180
100
AcDbEntity
  8
M0
 62
     7
100
AcDbLine
 10
256.816258
 20
394.907784
 11
268.516258
 21
394.907784
  0
LINE
  5
181
100
AcDbEntity
  8
M0
 62
     7
100
AcDbLine
 10
248.61626
 20
419.557783
 11
262.713526
 21
419.557783
  0
LINE
  5
182
100
AcDbEntity
  8
M0
 62
     7
100
AcDbLine
 10
269.51626
 20
398.407784
 11
271.316259
 21
398.407784
  0
LINE
  5
183
100
AcDbEntity
  8
M0
 62
     7
100
AcDbLine
 10
222.916261
 20
385.007784
 11
225.116261
 21
385.007784
  0
LINE
  5
184
100
AcDbEntity
  8
M0
 62
     7
100
AcDbLine
 10
222.41626
 20
390.707784
 11
225.116261
 21
390.707784
  0
LINE
  5
185
100
AcDbEntity
  8
M0
 62
     7
100
AcDbLine
 10
232.216262
 20
396.907784
 11
232.216262
 21
387.507784
  0
LINE
  5
186
100
AcDbEntity
  8
M0
 62
     7
100
AcDbLine
 10
221.416258
 20
377.707784
 11
221.416258
 21
378.707783
  0
LINE
  5
187
100
AcDbEntity
  8
M0
 62
     7
100
AcDbLine
 10
264.616259
 20
350.707785
 11
264.616259
 21
355.707784
  0
LINE
  5
188
100
AcDbEntity
  8
M0
 62
     7
100
AcDbLine
 10
222.41626
 20
370.507783
 11
222.41626
 21
413.907784
  0
LINE
  5
189
100
AcDbEntity
  8
M0
 62
     7
100
AcDbLine
 10
221.916259
 20
379.207783
 11
222.41626
 21
379.207783
  0
LINE
  5
18A
100
AcDbEntity
  8
M0
 62
     7
100
AcDbLine
 10
245.616258
 20
415.307784
 11
245.616258
 21
416.557784
  0
LINE
  5
18B
100
AcDbEntity
  8
M0
 62
     7
100
AcDbLine
 10
222.41626
 20
377.207784
 11
221.916259
 21
377.207784
  0
LINE
  5
18C
100
AcDbEntity
  8
M0
 62
     7
100
AcDbLine
 10
264.656474
 20
418.843602
 11
266.816259
 21
417.007784
  0
LINE
  5
18D
100
AcDbEntity
  8
M0
 62
     7
100
AcDbLine
 10
278.716259
 20
372.107784
 11
271.316259
 21
372.107784
  0
LINE
  5
18E
100
AcDbEntity
  8
M0
 62
     7
100
AcDbLine
 10
231.21626
 20
395.907784
 11
229.216256
 21
395.907784
  0
LINE
  5
18F
100
AcDbEntity
  8
M0
 62
     7
100
AcDbLine
 10
225.116261
 20
369.507783
 11
223.416262
 21
369.507783
  0
LINE
  5
190
100
AcDbEntity
  8
M0
 62
     7
100
AcDbLine
 10
220.116258
 20
398.307784
 11
218.616255
 21
398.307784
  0
LINE
  5
191
100
AcDbEntity
  8
M0
 62
     7
100
AcDbLine
 10
223.916256
 20
393.707784
 11
223.916256
 21
390.707784
  0
LINE
  5
192
100
AcDbEntity
  8
M0
 62
     7
100
AcDbLine
 10
223.916256
 20
399.407784
 11
223.916256
 21
396.707783
  0
LINE
  5
193
100
AcDbEntity
  8
M0
 62
     7
100
AcDbLine
 10
223.916256
 20
385.007784
 11
223.916256
 21
387.707784
  0
LINE
  5
194
100
AcDbEntity
  8
M0
 62
     7
100
AcDbLine
 10
228.216261
 20
396.907784
 11
228.216261
 21
409.307784
  0
LINE
  5
195
100
AcDbEntity
  8
M0
 62
     7
100
AcDbLine
 10
261.11626
 20
389.707784
 11
261.11626
 21
394.907784
  0
ARC
  5
196
100
AcDbEntity
  8
M0
 62
     7
100
AcDbCircle
 10
248.616259
 20
416.557784
 40
3.0
100
AcDbArc
 50
90.0
 51
180.0
  0
ARC
  5
197
100
AcDbEntity
  8
M0
 62
     7
100
AcDbCircle
 10
269.516259
 20
397.907784
 40
0.5
100
AcDbArc
 50
90.0
 51
180.0
  0
ARC
  5
198
100
AcDbEntity
  8
M0
 62
     7
100
AcDbCircle
 10
223.416259
 20
413.907784
 40
1.0
100
AcDbArc
 50
90.0
 51
180.0
  0
ARC
  5
199
100
AcDbEntity
  8
M0
 62
     7
100
AcDbCircle
 10
218.616259
 20
381.707784
 40
0.5
100
AcDbArc
 50
180.0
 51
270.0
  0
ARC
  5
19A
100
AcDbEntity
  8
M0
 62
     7
100
AcDbCircle
 10
242.616259
 20
415.307784
 40
3.0
100
AcDbArc
 50
270.0
 51
360.0
  0
ARC
  5
19B
100
AcDbEntity
  8
M0
 62
     7
100
AcDbCircle
 10
231.216259
 20
396.907784
 40
1.0
100
AcDbArc
 50
270.0
 51
360.0
  0
ARC
  5
19C
100
AcDbEntity
  8
M0
 62
     7
100
AcDbCircle
 10
218.616259
 20
385.207784
 40
0.5
100
AcDbArc
 50
90.0
 51
180.0
  0
ARC
  5
19D
100
AcDbEntity
  8
M0
 62
     7
100
AcDbCircle
 10
231.216259
 20
387.507784
 40
1.0
100
AcDbArc
 50
0.0
 51
90.0
  0
LINE
  5
19E
100
AcDbEntity
  8
M0
  6
DIVIDE
 62
     7
100
AcDbLine
 10
340.616257
 20
404.707793
 11
334.116257
 21
404.707793
  0
LINE
  5
19F
100
AcDbEntity
  8
M0
  6
DIVIDE
 62
     7
100
AcDbLine
 10
340.616257
 20
404.707793
 11
340.616257
 21
379.707793
  0
LINE
  5
1A0
100
AcDbEntity
  8
M0
  6
DIVIDE
 62
     7
100
AcDbLine
 10
335.116257
 20
409.707793
 11
335.116257
 21
405.707793
  0
LINE
  5
1A1
100
AcDbEntity
  8
M0
  6
DIVIDE
 62
     7
100
AcDbLine
 10
341.616257
 20
405.707793
 11
335.116257
 21
405.707793
  0
LINE
  5
1A2
100
AcDbEntity
  8
M0
  6
DIVIDE
 62
     7
100
AcDbLine
 10
335.116257
 20
409.707793
 11
334.116257
 21
409.707793
  0
LINE
  5
1A3
100
AcDbEntity
  8
M0
  6
DIVIDE
 62
     7
100
AcDbLine
 10
341.616257
 20
378.707793
 11
335.116257
 21
378.707793
  0
LINE
  5
1A4
100
AcDbEntity
  8
M0
  6
DIVIDE
 62
     7
100
AcDbLine
 10
340.616257
 20
379.707793
 11
334.116257
 21
379.707793
  0
LINE
  5
1A5
100
AcDbEntity
  8
M0
  6
DIVIDE
 62
     7
100
AcDbLine
 10
334.116257
 20
374.707793
 11
335.116257
 21
374.707793
  0
LINE
  5
1A6
100
AcDbEntity
  8
M0
  6
DIVIDE
 62
     7
100
AcDbLine
 10
335.116257
 20
378.707793
 11
335.116257
 21
374.707793
  0
LINE
  5
1A7
100
AcDbEntity
  8
M0
  6
DIVIDE
 62
     7
100
AcDbLine
 10
341.616257
 20
378.707793
 11
341.616257
 21
405.707793
  0
LINE
  5
1A8
100
AcDbEntity
  8
M0
 62
     7
100
AcDbLine
 10
338.316258
 20
350.957784
 11
338.616258
 21
350.957784
  0
LINE
  5
1A9
100
AcDbEntity
  8
M0
 62
     7
100
AcDbLine
 10
283.216258
 20
409.268339
 11
298.716258
 21
409.268339
  0
LINE
  5
1AA
100
AcDbEntity
  8
M0
 62
     7
100
AcDbLine
 10
283.216258
 20
409.268339
 11
283.216258
 21
406.747228
  0
LINE
  5
1AB
100
AcDbEntity
  8
M0
 62
     7
100
AcDbLine
 10
327.616258
 20
350.707784
 11
327.616258
 21
367.407784
  0
LINE
  5
1AC
100
AcDbEntity
  8
M0
 62
     7
100
AcDbLine
 10
337.816258
 20
349.707784
 11
295.312043
 21
349.707784
  0
LINE
  5
1AD
100
AcDbEntity
  8
M0
 62
     7
100
AcDbLine
 10
338.316258
 20
419.707784
 11
338.316258
 21
418.707784
  0
LINE
  5
1AE
100
AcDbEntity
  8
M0
 62
     7
100
AcDbLine
 10
338.316258
 20
426.207784
 11
338.316258
 21
425.707784
  0
LINE
  5
1AF
100
AcDbEntity
  8
M0
 62
     7
100
AcDbLine
 10
338.316258
 20
407.507784
 11
338.316258
 21
410.507784
  0
LINE
  5
1B0
100
AcDbEntity
  8
M0
 62
     7
100
AcDbLine
 10
338.316258
 20
373.907784
 11
338.316258
 21
350.207784
  0
ARC
  5
1B1
100
AcDbEntity
  8
M0
 62
     7
100
AcDbCircle
 10
337.816258
 20
410.507784
 40
0.5
100
AcDbArc
 50
270.0
 51
360.0
  0
ARC
  5
1B2
100
AcDbEntity
  8
M0
 62
     7
100
AcDbCircle
 10
333.616258
 20
405.507784
 40
0.5
100
AcDbArc
 50
0.0
 51
90.0
  0
LINE
  5
1B3
100
AcDbEntity
  8
M0
 62
     7
100
AcDbLine
 10
283.216258
 20
375.147228
 11
283.216258
 21
377.668339
  0
LINE
  5
1B4
100
AcDbEntity
  8
M0
 62
     7
100
AcDbLine
 10
334.316258
 20
374.407784
 11
334.316258
 21
374.907784
  0
LINE
  5
1B5
100
AcDbEntity
  8
M0
 62
     7
100
AcDbLine
 10
338.616258
 20
355.998275
 11
338.316258
 21
355.998275
  0
LINE
  5
1B6
100
AcDbEntity
  8
M0
 62
     7
100
AcDbLine
 10
328.616258
 20
433.707784
 11
337.816258
 21
433.707784
  0
LINE
  5
1B7
100
AcDbEntity
  8
M0
 62
     7
100
AcDbLine
 10
338.616258
 20
429.118292
 11
338.316258
 21
429.118292
  0
LINE
  5
1B8
100
AcDbEntity
  8
M0
 62
     7
100
AcDbLine
 10
338.616258
 20
433.207784
 11
338.616258
 21
420.957784
  0
LINE
  5
1B9
100
AcDbEntity
  8
M0
 62
     7
100
AcDbLine
 10
338.616258
 20
423.457784
 11
338.316258
 21
423.457784
  0
LINE
  5
1BA
100
AcDbEntity
  8
M0
 62
     7
100
AcDbLine
 10
338.616258
 20
363.457784
 11
338.316258
 21
363.457784
  0
LINE
  5
1BB
100
AcDbEntity
  8
M0
 62
     7
100
AcDbLine
 10
338.316258
 20
420.957784
 11
338.316258
 21
419.707784
  0
LINE
  5
1BC
100
AcDbEntity
  8
M0
 62
     7
100
AcDbLine
 10
338.316258
 20
426.207784
 11
338.316258
 21
424.707784
  0
LINE
  5
1BD
100
AcDbEntity
  8
M0
 62
     7
100
AcDbLine
 10
334.316258
 20
374.907784
 11
334.116258
 21
374.907784
  0
LINE
  5
1BE
100
AcDbEntity
  8
M0
 62
     7
100
AcDbLine
 10
283.216258
 20
377.668339
 11
298.716258
 21
377.668339
  0
LINE
  5
1BF
100
AcDbEntity
  8
M0
 62
     7
100
AcDbLine
 10
338.616258
 20
433.207784
 11
338.316258
 21
433.207784
  0
LINE
  5
1C0
100
AcDbEntity
  8
M0
 62
     7
100
AcDbLine
 10
298.716258
 20
406.747228
 11
283.216258
 21
406.747228
  0
LINE
  5
1C1
100
AcDbEntity
  8
M0
 62
     7
100
AcDbLine
 10
298.716258
 20
375.147228
 11
283.216258
 21
375.147228
  0
LINE
  5
1C2
100
AcDbEntity
  8
M0
 62
     7
100
AcDbLine
 10
338.616258
 20
420.957784
 11
338.316258
 21
420.957784
  0
LINE
  5
1C3
100
AcDbEntity
  8
M0
 62
     7
100
AcDbLine
 10
338.316258
 20
426.207784
 11
338.316258
 21
424.707784
  0
LINE
  5
1C4
100
AcDbEntity
  8
M0
 62
     7
100
AcDbLine
 10
299.016258
 20
410.049526
 11
299.016258
 21
409.568339
  0
LINE
  5
1C5
100
AcDbEntity
  8
M0
 62
     7
100
AcDbLine
 10
338.316258
 20
424.707784
 11
338.316258
 21
425.707784
  0
LINE
  5
1C6
100
AcDbEntity
  8
M0
 62
     7
100
AcDbLine
 10
260.816258
 20
438.707784
 11
280.202045
 21
438.707784
  0
LINE
  5
1C7
100
AcDbEntity
  8
M0
 62
     7
100
AcDbLine
 10
338.316258
 20
425.819285
 11
338.316258
 21
424.819285
  0
LINE
  5
1C8
100
AcDbEntity
  8
M0
 62
     7
100
AcDbLine
 10
260.316258
 20
429.641118
 11
260.316258
 21
437.707784
  0
LINE
  5
1C9
100
AcDbEntity
  8
M0
 62
     7
100
AcDbLine
 10
260.316258
 20
437.707784
 11
260.316258
 21
438.207784
  0
LINE
  5
1CA
100
AcDbEntity
  8
M0
 62
     7
100
AcDbLine
 10
327.373864
 20
425.228114
 11
327.138045
 21
425.210955
  0
LINE
  5
1CB
100
AcDbEntity
  8
M0
 62
     7
100
AcDbLine
 10
327.612041
 20
425.315601
 11
327.373864
 21
425.228114
  0
LINE
  5
1CC
100
AcDbEntity
  8
M0
 62
     7
100
AcDbLine
 10
328.616258
 20
368.407784
 11
337.816258
 21
368.407784
  0
ARC
  5
1CD
100
AcDbEntity
  8
M0
 62
     7
100
AcDbCircle
 10
280.202045
 20
437.707784
 40
1.0
100
AcDbArc
 50
45.0
 51
90.0
  0
LINE
  5
1CE
100
AcDbEntity
  8
M0
 62
     7
100
AcDbLine
 10
280.316258
 20
355.707784
 11
271.316258
 21
355.707784
  0
ARC
  5
1CF
100
AcDbEntity
  8
M0
 62
     7
100
AcDbCircle
 10
260.816258
 20
438.207784
 40
0.5
100
AcDbArc
 50
90.0
 51
180.0
  0
ARC
  5
1D0
100
AcDbEntity
  8
M0
 62
     7
100
AcDbCircle
 10
263.316258
 20
435.707784
 40
3.0
100
AcDbArc
 50
90.0
 51
180.0
  0
LINE
  5
1D1
100
AcDbEntity
  8
M0
 62
     7
100
AcDbLine
 10
271.316258
 20
417.007784
 11
327.616258
 21
417.007784
  0
LINE
  5
1D2
100
AcDbEntity
  8
M0
 62
     7
100
AcDbLine
 10
338.616258
 20
363.457784
 11
338.616258
 21
350.957784
  0
LINE
  5
1D3
100
AcDbEntity
  8
M0
 62
     7
100
AcDbLine
 10
327.616258
 20
367.407784
 11
271.316258
 21
367.407784
  0
LINE
  5
1D4
100
AcDbEntity
  8
M0
 62
     7
100
AcDbLine
 10
271.316258
 20
425.207784
 11
327.202045
 21
425.207784
  0
LINE
  5
1D5
100
AcDbEntity
  8
M0
 62
     7
100
AcDbLine
 10
299.016258
 20
374.847228
 11
299.016258
 21
374.366041
  0
LINE
  5
1D6
100
AcDbEntity
  8
M0
 62
     7
100
AcDbLine
 10
278.716258
 20
372.107784
 11
278.716258
 21
377.107784
  0
LINE
  5
1D7
100
AcDbEntity
  8
M0
 62
     7
100
AcDbLine
 10
338.316258
 20
424.707784
 11
338.316258
 21
421.707784
  0
LINE
  5
1D8
100
AcDbEntity
  8
M0
 62
     7
100
AcDbLine
 10
299.016258
 20
374.407784
 11
337.816258
 21
374.407784
  0
ARC
  5
1D9
100
AcDbEntity
  8
M0
 62
     7
100
AcDbCircle
 10
284.616258
 20
433.29357
 40
1.0
100
AcDbArc
 50
0.0
 51
45.0
  0
ARC
  5
1DA
100
AcDbEntity
  8
M0
 62
     7
100
AcDbCircle
 10
333.616258
 20
378.907784
 40
0.5
100
AcDbArc
 50
270.0
 51
360.0
  0
LINE
  5
1DB
100
AcDbEntity
  8
M0
 62
     7
100
AcDbLine
 10
327.616258
 20
417.007784
 11
327.616258
 21
432.707784
  0
LINE
  5
1DC
100
AcDbEntity
  8
M0
 62
     7
100
AcDbLine
 10
334.816258
 20
375.407784
 11
336.316258
 21
375.407784
  0
LINE
  5
1DD
100
AcDbEntity
  8
M0
 62
     7
100
AcDbLine
 10
338.316258
 20
426.207784
 11
338.316258
 21
425.819285
  0
LINE
  5
1DE
100
AcDbEntity
  8
M0
 62
     7
100
AcDbLine
 10
336.316258
 20
374.907784
 11
336.316258
 21
374.407784
  0
LINE
  5
1DF
100
AcDbEntity
  8
M0
 62
     7
100
AcDbLine
 10
338.616258
 20
430.297275
 11
338.316258
 21
430.297275
  0
LINE
  5
1E0
100
AcDbEntity
  8
M0
 62
     7
100
AcDbLine
 10
336.316258
 20
375.407784
 11
336.316258
 21
374.907784
  0
ELLIPSE
  5
1E1
100
AcDbEntity
  8
M0
 62
     7
100
AcDbEllipse
 10
337.816258
 20
368.382846
 11
-0.5
 21
0.0
210
0.0
220
0.0
230
1.0
 40
0.049876
 41
3.141592653589793
 42
4.71238898038469
  0
LINE
  5
1E2
100
AcDbEntity
  8
M0
 62
     7
100
AcDbLine
 10
338.316258
 20
424.819285
 11
338.316258
 21
424.707784
  0
LINE
  5
1E3
100
AcDbEntity
  8
M0
 62
     7
100
AcDbLine
 10
316.816258
 20
428.707784
 11
318.316258
 21
428.707784
  0
LINE
  5
1E4
100
AcDbEntity
  8
M0
 62
     7
100
AcDbLine
 10
338.316258
 20
372.407784
 11
338.316258
 21
373.407784
  0
LINE
  5
1E5
100
AcDbEntity
  8
M0
 62
     7
100
AcDbLine
 10
338.616258
 20
358.23809
 11
338.316258
 21
358.23809
  0
LINE
  5
1E6
100
AcDbEntity
  8
M0
 62
     7
100
AcDbLine
 10
295.516258
 20
350.707784
 11
295.516258
 21
360.707784
  0
LINE
  5
1E7
100
AcDbEntity
  8
M0
 62
     7
100
AcDbLine
 10
315.816258
 20
428.707784
 11
327.616258
 21
428.707784
  0
LINE
  5
1E8
100
AcDbEntity
  8
M0
 62
     7
100
AcDbLine
 10
334.116258
 20
407.507784
 11
334.116258
 21
410.007784
  0
LINE
  5
1E9
100
AcDbEntity
  8
M0
 62
     7
100
AcDbLine
 10
335.116258
 20
410.007784
 11
335.116258
 21
408.507784
  0
LINE
  5
1EA
100
AcDbEntity
  8
M0
 62
     7
100
AcDbLine
 10
335.816258
 20
376.907784
 11
336.256258
 21
376.407784
  0
LINE
  5
1EB
100
AcDbEntity
  8
M0
 62
     7
100
AcDbLine
 10
334.116258
 20
404.007784
 11
334.416258
 21
404.507784
  0
LINE
  5
1EC
100
AcDbEntity
  8
M0
 62
     7
100
AcDbLine
 10
338.316258
 20
352.957784
 11
338.316258
 21
351.707784
  0
LINE
  5
1ED
100
AcDbEntity
  8
M0
 62
     7
100
AcDbLine
 10
334.416258
 20
404.507784
 11
334.416258
 21
406.507784
  0
LINE
  5
1EE
100
AcDbEntity
  8
M0
 62
     7
100
AcDbLine
 10
338.316258
 20
426.207784
 11
338.316258
 21
419.707784
  0
LINE
  5
1EF
100
AcDbEntity
  8
M0
 62
     7
100
AcDbLine
 10
280.909152
 20
438.41489
 11
285.323365
 21
434.000677
  0
LINE
  5
1F0
100
AcDbEntity
  8
M0
 62
     7
100
AcDbLine
 10
338.316258
 20
426.207784
 11
338.316258
 21
424.707784
  0
LINE
  5
1F1
100
AcDbEntity
  8
M0
 62
     7
100
AcDbLine
 10
334.416258
 20
406.507784
 11
334.116258
 21
407.507784
  0
LINE
  5
1F2
100
AcDbEntity
  8
M0
 62
     7
100
AcDbLine
 10
338.316258
 20
353.457784
 11
338.316258
 21
352.957784
  0
LINE
  5
1F3
100
AcDbEntity
  8
M0
 62
     7
100
AcDbLine
 10
334.116258
 20
405.507784
 11
334.116258
 21
378.907784
  0
LINE
  5
1F4
100
AcDbEntity
  8
M0
 62
     7
100
AcDbLine
 10
338.616258
 20
361.177477
 11
338.231799
 21
361.177477
  0
LINE
  5
1F5
100
AcDbEntity
  8
M0
 62
     7
100
AcDbLine
 10
299.016258
 20
378.449526
 11
299.016258
 21
377.968339
  0
LINE
  5
1F6
100
AcDbEntity
  8
M0
 62
     7
100
AcDbLine
 10
299.016258
 20
406.447228
 11
299.016258
 21
405.966041
  0
LINE
  5
1F7
100
AcDbEntity
  8
M0
 62
     7
100
AcDbLine
 10
335.116258
 20
376.907784
 11
335.816258
 21
376.907784
  0
LINE
  5
1F8
100
AcDbEntity
  8
M0
 62
     7
100
AcDbLine
 10
335.116258
 20
376.407784
 11
335.116258
 21
376.907784
  0
LINE
  5
1F9
100
AcDbEntity
  8
M0
 62
     7
100
AcDbLine
 10
335.116258
 20
376.407784
 11
335.116258
 21
375.407784
  0
LINE
  5
1FA
100
AcDbEntity
  8
M0
 62
     7
100
AcDbLine
 10
338.316258
 20
426.207784
 11
338.316258
 21
424.707784
  0
LINE
  5
1FB
100
AcDbEntity
  8
M0
 62
     7
100
AcDbLine
 10
338.316258
 20
419.707784
 11
338.316258
 21
418.707784
  0
LINE
  5
1FC
100
AcDbEntity
  8
M0
 62
     7
100
AcDbLine
 10
315.816258
 20
428.207784
 11
315.816258
 21
428.707784
  0
LINE
  5
1FD
100
AcDbEntity
  8
M0
 62
     7
100
AcDbLine
 10
338.016258
 20
374.407784
 11
336.256258
 21
376.407784
  0
LINE
  5
1FE
100
AcDbEntity
  8
M0
 62
     7
100
AcDbLine
 10
338.016258
 20
374.366041
 11
338.016258
 21
374.407784
  0
LINE
  5
1FF
100
AcDbEntity
  8
M0
 62
     7
100
AcDbLine
 10
334.116258
 20
378.907784
 11
334.116258
 21
374.407784
  0
LINE
  5
200
100
AcDbEntity
  8
M0
 62
     7
100
AcDbLine
 10
338.616258
 20
353.457784
 11
338.316258
 21
353.457784
  0
LINE
  5
201
100
AcDbEntity
  8
M0
 62
     7
100
AcDbLine
 10
295.516258
 20
360.707784
 11
281.316258
 21
360.707784
  0
LINE
  5
202
100
AcDbEntity
  8
M0
 62
     7
100
AcDbLine
 10
285.616258
 20
433.29357
 11
285.616258
 21
425.207784
  0
LINE
  5
203
100
AcDbEntity
  8
M0
 62
     7
100
AcDbLine
 10
338.316258
 20
350.707784
 11
338.316258
 21
351.707784
  0
LINE
  5
204
100
AcDbEntity
  8
M0
 62
     7
100
AcDbLine
 10
338.316258
 20
426.207784
 11
338.616258
 21
426.207784
  0
ARC
  5
205
100
AcDbEntity
  8
M0
 62
     7
100
AcDbCircle
 10
337.816258
 20
433.207784
 40
0.5
100
AcDbArc
 50
0.0
 51
90.0
  0
ARC
  5
206
100
AcDbEntity
  8
M0
 62
     7
100
AcDbCircle
 10
328.616258
 20
432.707784
 40
1.0
100
AcDbArc
 50
90.0
 51
180.0
  0
LINE
  5
207
100
AcDbEntity
  8
M0
 62
     7
100
AcDbLine
 10
334.116258
 20
410.007784
 11
334.116258
 21
405.507784
  0
LINE
  5
208
100
AcDbEntity
  8
M0
 62
     7
100
AcDbLine
 10
333.616258
 20
378.407784
 11
299.016258
 21
378.407784
  0
LINE
  5
209
100
AcDbEntity
  8
M0
 62
     7
100
AcDbLine
 10
318.316258
 20
428.707784
 11
327.616258
 21
428.707784
  0
LINE
  5
20A
100
AcDbEntity
  8
M0
 62
     7
100
AcDbLine
 10
338.316258
 20
433.207784
 11
338.316258
 21
410.507784
  0
LINE
  5
20B
100
AcDbEntity
  8
M0
 62
     7
100
AcDbLine
 10
278.716258
 20
407.307784
 11
278.716258
 21
412.307784
  0
LINE
  5
20C
100
AcDbEntity
  8
M0
 62
     7
100
AcDbLine
 10
335.116258
 20
408.507784
 11
336.116258
 21
407.507784
  0
LINE
  5
20D
100
AcDbEntity
  8
M0
 62
     7
100
AcDbLine
 10
299.016258
 20
406.007784
 11
333.616258
 21
406.007784
  0
LINE
  5
20E
100
AcDbEntity
  8
M0
 62
     7
100
AcDbLine
 10
337.816258
 20
410.007784
 11
299.016258
 21
410.007784
  0
LINE
  5
20F
100
AcDbEntity
  8
M0
 62
     7
100
AcDbLine
 10
336.116258
 20
407.507784
 11
338.316258
 21
407.507784
  0
ARC
  5
210
100
AcDbEntity
  8
M0
 62
     7
100
AcDbCircle
 10
337.816258
 20
373.907784
 40
0.5
100
AcDbArc
 50
0.0
 51
90.0
  0
ARC
  5
211
100
AcDbEntity
  8
M0
 62
     7
100
AcDbCircle
 10
298.716258
 20
377.968339
 40
0.3
100
AcDbArc
 50
270.0
 51
360.0
  0
ARC
  5
212
100
AcDbEntity
  8
M0
 62
     7
100
AcDbCircle
 10
334.816258
 20
374.907784
 40
0.5
100
AcDbArc
 50
90.0
 51
180.0
  0
ARC
  5
213
100
AcDbEntity
  8
M0
 62
     7
100
AcDbCircle
 10
298.716258
 20
374.847228
 40
0.3
100
AcDbArc
 50
0.0
 51
90.0
  0
LINE
  5
214
100
AcDbEntity
  8
M0
 62
     7
100
AcDbLine
 10
281.316258
 20
360.707784
 11
281.316258
 21
356.707784
  0
LINE
  5
215
100
AcDbEntity
  8
M0
 62
     7
100
AcDbLine
 10
338.316258
 20
372.407784
 11
338.316258
 21
363.457784
  0
LINE
  5
216
100
AcDbEntity
  8
M0
 62
     7
100
AcDbLine
 10
315.816258
 20
428.207784
 11
315.816258
 21
425.207784
  0
ARC
  5
217
100
AcDbEntity
  8
M0
 62
     7
100
AcDbCircle
 10
298.716258
 20
406.447228
 40
0.3
100
AcDbArc
 50
0.0
 51
90.0
  0
ARC
  5
218
100
AcDbEntity
  8
M0
 62
     7
100
AcDbCircle
 10
328.616258
 20
350.707784
 40
1.0
100
AcDbArc
 50
180.0
 51
270.0
  0
ARC
  5
219
100
AcDbEntity
  8
M0
 62
     7
100
AcDbCircle
 10
298.716258
 20
409.568339
 40
0.3
100
AcDbArc
 50
270.0
 51
360.0
  0
ARC
  5
21A
100
AcDbEntity
  8
M0
 62
     7
100
AcDbCircle
 10
337.816258
 20
350.207784
 40
0.5
100
AcDbArc
 50
270.0
 51
360.0
  0
ARC
  5
21B
100
AcDbEntity
  8
M0
 62
     7
100
AcDbCircle
 10
280.316258
 20
356.707784
 40
1.0
100
AcDbArc
 50
270.0
 51
360.0
  0
LINE
  5
21C
100
AcDbEntity
  8
M0
 62
     7
100
AcDbLine
 10
338.316258
 20
426.207784
 11
338.316258
 21
421.707784
  0
ARC
  5
21D
100
AcDbEntity
  8
M0
 62
     7
100
AcDbCircle
 10
296.516258
 20
350.707784
 40
1.0
100
AcDbArc
 50
180.0
 51
270.0
  0
ARC
  5
21E
100
AcDbEntity
  8
M0
 62
     7
100
AcDbCircle
 10
330.970685
 20
365.081519
 40
4.084673
100
AcDbArc
 50
125.479015
 51
145.207394
  0
LINE
  5
21F
100
AcDbEntity
  8
M0
 62
     7
100
AcDbLine
 10
288.212043
 20
349.707784
 11
271.316259
 21
349.707784
  0
ARC
  5
220
100
AcDbEntity
  8
M0
 62
   154
100
AcDbCircle
 10
289.712043
 20
359.007783
 40
1.5
100
AcDbArc
 50
90.0
 51
180.0
  0
LINE
  5
221
100
AcDbEntity
  8
M0
 62
   154
100
AcDbLine
 10
306.412043
 20
349.707783
 11
306.412043
 21
306.307783
  0
LINE
  5
222
100
AcDbEntity
  8
M0
 62
   154
100
AcDbLine
 10
306.412043
 20
339.207783
 11
289.712043
 21
339.207783
  0
ARC
  5
223
100
AcDbEntity
  8
M0
 62
   154
100
AcDbCircle
 10
289.712043
 20
340.707783
 40
1.5
100
AcDbArc
 50
180.0
 51
270.0
  0
ARC
  5
224
100
AcDbEntity
  8
M0
 62
   154
100
AcDbCircle
 10
304.712043
 20
306.307783
 40
1.7
100
AcDbArc
 50
287.104635
 51
360.0
  0
LINE
  5
225
100
AcDbEntity
  8
M0
 62
   154
100
AcDbLine
 10
306.412043
 20
308.007783
 11
305.212043
 21
308.007783
  0
LINE
  5
226
100
AcDbEntity
  8
M0
 62
   154
100
AcDbLine
 10
295.516259
 20
354.907783
 11
295.312043
 21
354.907783
  0
LINE
  5
227
100
AcDbEntity
  8
M0
 62
   154
100
AcDbLine
 10
294.812043
 20
354.407783
 11
294.812043
 21
350.207783
  0
LINE
  5
228
100
AcDbEntity
  8
M0
 62
   154
100
AcDbLine
 10
295.312043
 20
349.707783
 11
306.412043
 21
349.707783
  0
LINE
  5
229
100
AcDbEntity
  8
M0
 62
   154
100
AcDbLine
 10
305.212043
 20
339.207783
 11
305.212043
 21
306.307783
  0
LINE
  5
22A
100
AcDbEntity
  8
M0
 62
   154
100
AcDbLine
 10
288.212043
 20
340.707783
 11
288.212043
 21
359.007783
  0
LINE
  5
22B
100
AcDbEntity
  8
M0
 62
   154
100
AcDbLine
 10
289.712043
 20
360.507783
 11
295.516259
 21
360.507783
  0
ARC
  5
22C
100
AcDbEntity
  8
M0
 62
   154
100
AcDbCircle
 10
295.312043
 20
354.407783
 40
0.5
100
AcDbArc
 50
90.0
 51
180.0
  0
ARC
  5
22D
100
AcDbEntity
  8
M0
 62
   154
100
AcDbCircle
 10
295.312043
 20
350.207783
 40
0.5
100
AcDbArc
 50
180.0
 51
270.0
  0
HATCH
  5
22E
100
AcDbEntity
  8
M0
 62
     7
100
AcDbHatch
 10
0.0
 20
0.0
210
0.0
220
0.0
230
1.0
  2
SOLID
 70
     1
 71
     0
 91
        1
 92
        1
 93
        4
 72
     1
 10
213.116258
 20
440.627915
 11
211.116258
 21
440.627915
 72
     1
 10
211.116258
 20
440.627915
 11
211.116258
 21
422.427915
 72
     1
 10
211.116258
 20
422.427915
 11
213.116258
 21
422.427915
 72
     1
 10
213.116258
 20
422.427915
 11
213.116258
 21
440.627915
 97
        0
 75
     0
 76
     1
 98
        1
 10
0.0
 20
0.0
  0
ARC
  5
231
100
AcDbEntity
  8
M0
 62
   154
100
AcDbCircle
 10
103.802573
 20
348.507782
 40
1.0
100
AcDbArc
 50
90.0
 51
180.0
  0
ARC
  5
232
100
AcDbEntity
  8
M0
 62
   154
100
AcDbCircle
 10
101.802573
 20
346.507782
 40
1.0
100
AcDbArc
 50
270.0
 51
360.0
  0
ARC
  5
233
100
AcDbEntity
  8
M0
 62
   154
100
AcDbCircle
 10
85.802573
 20
346.507782
 40
1.0
100
AcDbArc
 50
180.0
 51
270.0
  0
ARC
  5
234
100
AcDbEntity
  8
M0
 62
   154
100
AcDbCircle
 10
83.802573
 20
348.507782
 40
1.0
100
AcDbArc
 50
0.0
 51
90.0
  0
LINE
  5
235
100
AcDbEntity
  8
M0
 62
   154
100
AcDbLine
 10
103.802573
 20
349.507782
 11
109.970127
 21
349.507782
  0
LINE
  5
236
100
AcDbEntity
  8
M0
 62
   154
100
AcDbLine
 10
67.702573
 20
360.307782
 11
67.952574
 21
360.307782
  0
LINE
  5
237
100
AcDbEntity
  8
M0
 62
   154
100
AcDbLine
 10
102.802573
 20
346.507782
 11
102.802573
 21
348.507782
  0
LINE
  5
238
100
AcDbEntity
  8
M0
 62
   154
100
AcDbLine
 10
85.802573
 20
345.507782
 11
88.690421
 21
345.507782
  0
LINE
  5
239
100
AcDbEntity
  8
M0
 62
   154
100
AcDbLine
 10
84.802573
 20
348.507782
 11
84.802573
 21
346.507782
  0
LINE
  5
23A
100
AcDbEntity
  8
M0
 62
   154
100
AcDbLine
 10
83.802573
 20
349.507782
 11
79.883918
 21
349.507782
  0
LINE
  5
23B
100
AcDbEntity
  8
M0
 62
   154
100
AcDbLine
 10
67.702573
 20
343.100399
 11
67.702573
 21
360.307782
  0
LINE
  5
23C
100
AcDbEntity
  8
M0
 62
   154
100
AcDbLine
 10
119.902573
 20
350.181001
 11
119.902573
 21
339.007782
  0
LINE
  5
23D
100
AcDbEntity
  8
M0
 62
   154
100
AcDbLine
 10
118.702573
 20
339.007782
 11
118.702573
 21
350.271893
  0
LINE
  5
23E
100
AcDbEntity
  8
M0
 62
   154
100
AcDbLine
 10
68.902573
 20
349.707783
 11
68.902573
 21
344.681349
  0
LINE
  5
23F
100
AcDbEntity
  8
M0
 62
   154
100
AcDbLine
 10
116.918056
 20
349.507782
 11
118.702573
 21
349.507782
  0
LINE
  5
240
100
AcDbEntity
  8
M0
 62
   154
100
AcDbLine
 10
96.338917
 20
345.507782
 11
101.802573
 21
345.507782
  0
LINE
  5
241
100
AcDbEntity
  8
M0
 62
   154
100
AcDbLine
 10
72.566015
 20
349.507782
 11
68.902573
 21
349.507782
  0
LINE
  5
242
100
AcDbEntity
  8
M0
100
AcDbLine
 10
131.952573
 20
419.557783
 11
131.852571
 21
419.557783
  0
LINE
  5
243
100
AcDbEntity
  8
M0
100
AcDbLine
 10
84.752573
 20
434.307785
 11
84.752573
 21
436.507785
  0
LINE
  5
244
100
AcDbEntity
  8
M0
100
AcDbLine
 10
60.452573
 20
417.007784
 11
59.552573
 21
417.007784
  0
LINE
  5
245
100
AcDbEntity
  8
M0
100
AcDbLine
 10
129.952573
 20
417.007784
 11
130.852573
 21
417.007784
  0
LINE
  5
246
100
AcDbEntity
  8
M0
100
AcDbLine
 10
110.802572
 20
428.707783
 11
117.252574
 21
428.707783
  0
LINE
  5
247
100
AcDbEntity
  8
M0
100
AcDbLine
 10
123.052573
 20
417.007784
 11
123.952574
 21
417.007784
  0
LINE
  5
248
100
AcDbEntity
  8
M0
100
AcDbLine
 10
109.052573
 20
352.707782
 11
109.052573
 21
350.707785
  0
LINE
  5
249
100
AcDbEntity
  8
M0
100
AcDbLine
 10
74.752573
 20
428.707783
 11
74.752573
 21
437.707784
  0
LINE
  5
24A
100
AcDbEntity
  8
M0
100
AcDbLine
 10
58.452573
 20
419.557783
 11
58.552575
 21
419.557783
  0
LINE
  5
24B
100
AcDbEntity
  8
M0
100
AcDbLine
 10
131.152573
 20
349.707783
 11
116.917651
 21
349.707783
  0
LINE
  5
24C
100
AcDbEntity
  8
M0
100
AcDbLine
 10
105.652573
 20
436.507785
 11
105.652573
 21
434.307785
  0
LINE
  5
24D
100
AcDbEntity
  8
M0
100
AcDbLine
 10
71.602572
 20
350.707785
 11
71.602572
 21
355.707784
  0
LINE
  5
24E
100
AcDbEntity
  8
M0
100
AcDbLine
 10
84.102573
 20
350.707785
 11
84.102573
 21
355.707784
  0
LINE
  5
24F
100
AcDbEntity
  8
M0
100
AcDbLine
 10
106.302573
 20
350.707785
 11
106.302573
 21
355.707784
  0
LINE
  5
250
100
AcDbEntity
  8
M0
100
AcDbLine
 10
58.452573
 20
364.857785
 11
58.552575
 21
364.857785
  0
LINE
  5
251
100
AcDbEntity
  8
M0
100
AcDbLine
 10
85.252573
 20
437.007782
 11
105.152573
 21
437.007782
  0
LINE
  5
252
100
AcDbEntity
  8
M0
100
AcDbLine
 10
118.802574
 20
355.707784
 11
118.802574
 21
350.707785
  0
LINE
  5
253
100
AcDbEntity
  8
M0
100
AcDbLine
 10
56.752574
 20
418.557784
 11
56.752574
 21
352.707784
  0
LINE
  5
254
100
AcDbEntity
  8
M0
100
AcDbLine
 10
57.752572
 20
364.857785
 11
58.552575
 21
364.857785
  0
LINE
  5
255
100
AcDbEntity
  8
M0
100
AcDbLine
 10
72.752573
 20
428.707783
 11
72.752573
 21
437.707783
  0
CIRCLE
  5
256
100
AcDbEntity
  8
M0
100
AcDbCircle
 10
95.202573
 20
432.507784
 40
3.1
  0
ARC
  5
257
100
AcDbEntity
  8
M0
100
AcDbCircle
 10
85.252573
 20
436.507784
 40
0.5
100
AcDbArc
 50
90.0
 51
180.0
  0
LINE
  5
258
100
AcDbEntity
  8
M0
100
AcDbLine
 10
102.152573
 20
354.707782
 11
102.152573
 21
367.307783
  0
LINE
  5
259
100
AcDbEntity
  8
M0
100
AcDbLine
 10
102.152573
 20
350.707785
 11
102.152573
 21
354.707782
  0
ARC
  5
25A
100
AcDbEntity
  8
M0
100
AcDbCircle
 10
57.752573
 20
365.857784
 40
1.0
100
AcDbArc
 50
180.0
 51
270.0
  0
LINE
  5
25B
100
AcDbEntity
  8
M0
100
AcDbLine
 10
103.152574
 20
367.807784
 11
104.852574
 21
367.807784
  0
ARC
  5
25C
100
AcDbEntity
  8
M0
100
AcDbCircle
 10
77.852573
 20
352.707784
 40
3.5
100
AcDbArc
 50
0.0
 51
41.78523
  0
ARC
  5
25D
100
AcDbEntity
  8
M0
100
AcDbCircle
 10
117.802573
 20
350.707784
 40
1.0
100
AcDbArc
 50
270.0
 51
360.0
  0
ARC
  5
25E
100
AcDbEntity
  8
M0
100
AcDbCircle
 10
107.302573
 20
350.707784
 40
1.0
100
AcDbArc
 50
180.0
 51
270.0
  0
ARC
  5
25F
100
AcDbEntity
  8
M0
100
AcDbCircle
 10
105.152573
 20
436.507784
 40
0.5
100
AcDbArc
 50
0.0
 51
90.0
  0
LINE
  5
260
100
AcDbEntity
  8
M0
100
AcDbLine
 10
83.102573
 20
349.707783
 11
79.901339
 21
349.707783
  0
LINE
  5
261
100
AcDbEntity
  8
M0
100
AcDbLine
 10
81.352573
 20
352.707782
 11
81.352573
 21
350.707785
  0
LINE
  5
262
100
AcDbEntity
  8
M0
100
AcDbLine
 10
86.052569
 20
349.707783
 11
87.252573
 21
349.707783
  0
LINE
  5
263
100
AcDbEntity
  8
M0
100
AcDbLine
 10
85.552573
 20
349.707783
 11
86.052569
 21
349.707783
  0
LINE
  5
264
100
AcDbEntity
  8
M0
100
AcDbLine
 10
56.252573
 20
421.007783
 11
56.252573
 21
430.707783
  0
LINE
  5
265
100
AcDbEntity
  8
M0
100
AcDbLine
 10
126.654063
 20
359.457784
 11
125.202572
 21
359.457784
  0
LINE
  5
266
100
AcDbEntity
  8
M0
100
AcDbLine
 10
66.802573
 20
354.707782
 11
67.702573
 21
354.707782
  0
LINE
  5
267
100
AcDbEntity
  8
M0
100
AcDbLine
 10
66.802573
 20
360.707783
 11
66.802573
 21
354.707782
  0
LINE
  5
268
100
AcDbEntity
  8
M0
100
AcDbLine
 10
59.252572
 20
433.707782
 11
66.752574
 21
433.707782
  0
LINE
  5
269
100
AcDbEntity
  8
M0
100
AcDbLine
 10
133.652572
 20
430.707784
 11
133.652572
 21
365.857784
  0
LINE
  5
26A
100
AcDbEntity
  8
M0
100
AcDbLine
 10
67.952574
 20
360.707783
 11
66.802573
 21
360.707783
  0
LINE
  5
26B
100
AcDbEntity
  8
M0
100
AcDbLine
 10
70.652573
 20
430.207782
 11
72.752573
 21
430.207782
  0
LINE
  5
26C
100
AcDbEntity
  8
M0
100
AcDbLine
 10
117.652573
 20
430.207782
 11
119.752573
 21
430.207782
  0
LINE
  5
26D
100
AcDbEntity
  8
M0
100
AcDbLine
 10
115.652573
 20
433.207785
 11
115.152574
 21
433.207785
  0
LINE
  5
26E
100
AcDbEntity
  8
M0
100
AcDbLine
 10
74.752573
 20
433.207785
 11
75.252573
 21
433.207785
  0
LINE
  5
26F
100
AcDbEntity
  8
M0
100
AcDbLine
 10
66.802573
 20
353.207783
 11
66.802573
 21
353.707784
  0
LINE
  5
270
100
AcDbEntity
  8
M0
100
AcDbLine
 10
67.702573
 20
353.707784
 11
66.802573
 21
353.707784
  0
LINE
  5
271
100
AcDbEntity
  8
M0
100
AcDbLine
 10
74.752573
 20
435.507783
 11
75.252573
 21
435.507783
  0
LINE
  5
272
100
AcDbEntity
  8
M0
100
AcDbLine
 10
115.652573
 20
434.307785
 11
115.152574
 21
434.307785
  0
LINE
  5
273
100
AcDbEntity
  8
M0
100
AcDbLine
 10
75.252573
 20
434.307785
 11
74.752573
 21
434.307785
  0
LINE
  5
274
100
AcDbEntity
  8
M0
100
AcDbLine
 10
133.652572
 20
368.407783
 11
134.152573
 21
363.407784
  0
LINE
  5
275
100
AcDbEntity
  8
M0
100
AcDbLine
 10
123.652572
 20
433.707782
 11
130.652573
 21
433.707782
  0
LINE
  5
276
100
AcDbEntity
  8
M0
100
AcDbLine
 10
67.702573
 20
352.707782
 11
67.302574
 21
352.707782
  0
LINE
  5
277
100
AcDbEntity
  8
M0
100
AcDbLine
 10
65.202574
 20
429.457785
 11
62.702574
 21
429.457785
  0
LINE
  5
278
100
AcDbEntity
  8
M0
100
AcDbLine
 10
60.153064
 20
426.957783
 11
59.702572
 21
426.957783
  0
LINE
  5
279
100
AcDbEntity
  8
M0
100
AcDbLine
 10
59.702572
 20
422.457784
 11
61.296836
 21
422.45976
  0
LINE
  5
27A
100
AcDbEntity
  8
M0
100
AcDbLine
 10
63.752082
 20
424.957783
 11
65.202574
 21
424.957783
  0
ARC
  5
27B
100
AcDbEntity
  8
M0
100
AcDbCircle
 10
73.752573
 20
437.707784
 40
1.0
100
AcDbArc
 50
0.0
 51
90.0
  0
ARC
  5
27C
100
AcDbEntity
  8
M0
100
AcDbCircle
 10
82.352573
 20
350.707784
 40
1.0
100
AcDbArc
 50
180.0
 51
270.0
  0
ARC
  5
27D
100
AcDbEntity
  8
M0
100
AcDbCircle
 10
83.102573
 20
350.707784
 40
1.0
100
AcDbArc
 50
270.0
 51
360.0
  0
ARC
  5
27E
100
AcDbEntity
  8
M0
100
AcDbCircle
 10
117.052573
 20
350.707784
 40
1.0
100
AcDbArc
 50
262.312742
 51
270.0
  0
ARC
  5
27F
100
AcDbEntity
  8
M0
100
AcDbCircle
 10
72.602573
 20
350.707784
 40
1.0
100
AcDbArc
 50
180.0
 51
270.0
  0
ARC
  5
280
100
AcDbEntity
  8
M0
100
AcDbCircle
 10
73.752573
 20
437.707784
 40
1.0
100
AcDbArc
 50
90.0
 51
180.0
  0
LINE
  5
281
100
AcDbEntity
  8
M0
100
AcDbLine
 10
66.452573
 20
367.407783
 11
67.352573
 21
367.407783
  0
ARC
  5
282
100
AcDbEntity
  8
M0
100
AcDbCircle
 10
108.052573
 20
350.707784
 40
1.0
100
AcDbArc
 50
270.0
 51
360.0
  0
LINE
  5
283
100
AcDbEntity
  8
M0
100
AcDbLine
 10
67.352573
 20
417.007784
 11
66.452573
 21
417.007784
  0
LINE
  5
284
100
AcDbEntity
  8
M0
100
AcDbLine
 10
66.802573
 20
351.707784
 11
66.802573
 21
353.207783
  0
LINE
  5
285
100
AcDbEntity
  8
M0
100
AcDbLine
 10
67.702573
 20
351.207783
 11
67.302574
 21
351.207783
  0
LINE
  5
286
100
AcDbEntity
  8
M0
100
AcDbLine
 10
56.752574
 20
416.007784
 11
56.252573
 21
421.007783
  0
LINE
  5
287
100
AcDbEntity
  8
M0
100
AcDbLine
 10
131.952573
 20
364.857785
 11
131.852571
 21
364.857785
  0
LINE
  5
288
100
AcDbEntity
  8
M0
100
AcDbLine
 10
123.952574
 20
367.407783
 11
123.052573
 21
367.407783
  0
LINE
  5
289
100
AcDbEntity
  8
M0
100
AcDbLine
 10
130.852573
 20
367.407783
 11
129.952573
 21
367.407783
  0
ARC
  5
28A
100
AcDbEntity
  8
M0
100
AcDbCircle
 10
130.652573
 20
430.707784
 40
3.0
100
AcDbArc
 50
0.0
 51
90.0
  0
ARC
  5
28B
100
AcDbEntity
  8
M0
100
AcDbCircle
 10
59.252573
 20
430.707784
 40
3.0
100
AcDbArc
 50
90.0
 51
180.0
  0
LINE
  5
28C
100
AcDbEntity
  8
M0
100
AcDbLine
 10
68.652573
 20
393.607784
 11
66.952574
 21
393.607784
  0
ARC
  5
28D
100
AcDbEntity
  8
M0
100
AcDbCircle
 10
76.952573
 20
437.707784
 40
0.5
100
AcDbArc
 50
270.0
 51
360.0
  0
ARC
  5
28E
100
AcDbEntity
  8
M0
100
AcDbCircle
 10
113.452573
 20
438.207784
 40
0.5
100
AcDbArc
 50
90.0
 51
180.0
  0
ARC
  5
28F
100
AcDbEntity
  8
M0
100
AcDbCircle
 10
67.302573
 20
351.707784
 40
0.5
100
AcDbArc
 50
180.0
 51
270.0
  0
ARC
  5
290
100
AcDbEntity
  8
M0
100
AcDbCircle
 10
113.452573
 20
437.707784
 40
0.5
100
AcDbArc
 50
180.0
 51
270.0
  0
LINE
  5
291
100
AcDbEntity
  8
M0
100
AcDbLine
 10
67.952574
 20
390.807784
 11
67.952574
 21
390.707784
  0
LINE
  5
292
100
AcDbEntity
  8
M0
100
AcDbLine
 10
70.652573
 20
369.307783
 11
69.652573
 21
369.307783
  0
LINE
  5
293
100
AcDbEntity
  8
M0
100
AcDbLine
 10
66.952574
 20
390.807784
 11
68.652573
 21
390.807784
  0
ARC
  5
294
100
AcDbEntity
  8
M0
100
AcDbCircle
 10
61.202573
 20
424.707784
 40
2.25
100
AcDbArc
 50
272.401074
 51
358.876481
  0
ARC
  5
295
100
AcDbEntity
  8
M0
100
AcDbCircle
 10
105.352573
 20
367.307784
 40
0.5
100
AcDbArc
 50
0.0
 51
90.0
  0
ARC
  5
296
100
AcDbEntity
  8
M0
100
AcDbCircle
 10
125.202573
 20
357.207784
 40
2.25
100
AcDbArc
 50
90.0
 51
270.0
  0
ARC
  5
297
100
AcDbEntity
  8
M0
100
AcDbCircle
 10
87.752573
 20
367.307784
 40
0.5
100
AcDbArc
 50
0.0
 51
90.0
  0
ARC
  5
298
100
AcDbEntity
  8
M0
100
AcDbCircle
 10
85.052573
 20
367.307784
 40
0.5
100
AcDbArc
 50
90.0
 51
180.0
  0
ARC
  5
299
100
AcDbEntity
  8
M0
100
AcDbCircle
 10
59.702573
 20
424.707784
 40
2.25
100
AcDbArc
 50
90.0
 51
270.0
  0
ARC
  5
29A
100
AcDbEntity
  8
M0
100
AcDbCircle
 10
103.152573
 20
350.707784
 40
1.0
100
AcDbArc
 50
180.0
 51
270.0
  0
ARC
  5
29B
100
AcDbEntity
  8
M0
100
AcDbCircle
 10
127.702573
 20
357.207784
 40
2.25
100
AcDbArc
 50
270.0
 51
355.815286
  0
ARC
  5
29C
100
AcDbEntity
  8
M0
100
AcDbCircle
 10
60.153063
 20
427.257784
 40
0.3
100
AcDbArc
 50
270.0
 51
358.876481
  0
ARC
  5
29D
100
AcDbEntity
  8
M0
100
AcDbCircle
 10
65.202573
 20
427.207784
 40
2.25
100
AcDbArc
 50
270.0
 51
450.0
  0
ARC
  5
29E
100
AcDbEntity
  8
M0
100
AcDbCircle
 10
62.702573
 20
427.207784
 40
2.25
100
AcDbArc
 50
90.0
 51
178.876481
  0
ARC
  5
29F
100
AcDbEntity
  8
M0
100
AcDbCircle
 10
76.952573
 20
438.207784
 40
0.5
100
AcDbArc
 50
0.0
 51
90.0
  0
ARC
  5
2A0
100
AcDbEntity
  8
M0
100
AcDbCircle
 10
63.752083
 20
424.657784
 40
0.3
100
AcDbArc
 50
90.0
 51
178.876481
  0
LINE
  5
2A1
100
AcDbEntity
  8
M0
100
AcDbLine
 10
65.952573
 20
397.407784
 11
65.952573
 21
387.007784
  0
LINE
  5
2A2
100
AcDbEntity
  8
M0
100
AcDbLine
 10
124.452573
 20
397.407784
 11
124.452573
 21
387.007784
  0
LINE
  5
2A3
100
AcDbEntity
  8
M0
100
AcDbLine
 10
70.652573
 20
354.707782
 11
70.652573
 21
369.307783
  0
LINE
  5
2A4
100
AcDbEntity
  8
M0
100
AcDbLine
 10
66.952574
 20
386.007784
 11
67.952574
 21
386.007784
  0
LINE
  5
2A5
100
AcDbEntity
  8
M0
100
AcDbLine
 10
67.952574
 20
393.607784
 11
67.952574
 21
393.707784
  0
LINE
  5
2A6
100
AcDbEntity
  8
M0
100
AcDbLine
 10
102.652573
 20
367.807784
 11
103.152574
 21
367.807784
  0
LINE
  5
2A7
100
AcDbEntity
  8
M0
100
AcDbLine
 10
123.452573
 20
386.007784
 11
122.452572
 21
386.007784
  0
LINE
  5
2A8
100
AcDbEntity
  8
M0
100
AcDbLine
 10
123.452573
 20
396.907784
 11
123.452573
 21
387.507784
  0
LINE
  5
2A9
100
AcDbEntity
  8
M0
100
AcDbLine
 10
66.952574
 20
396.907784
 11
66.952574
 21
387.507784
  0
LINE
  5
2AA
100
AcDbEntity
  8
M0
100
AcDbLine
 10
119.752573
 20
369.307783
 11
120.752574
 21
369.307783
  0
LINE
  5
2AB
100
AcDbEntity
  8
M0
100
AcDbLine
 10
104.852574
 20
367.807784
 11
105.352574
 21
367.807784
  0
LINE
  5
2AC
100
AcDbEntity
  8
M0
100
AcDbLine
 10
105.852573
 20
367.307783
 11
105.852573
 21
354.707782
  0
LINE
  5
2AD
100
AcDbEntity
  8
M0
100
AcDbLine
 10
119.752573
 20
354.707782
 11
119.752573
 21
369.307783
  0
ARC
  5
2AE
100
AcDbEntity
  8
M0
100
AcDbCircle
 10
66.952573
 20
387.007784
 40
1.0
100
AcDbArc
 50
180.0
 51
270.0
  0
ARC
  5
2AF
100
AcDbEntity
  8
M0
100
AcDbCircle
 10
85.052573
 20
417.107784
 40
0.5
100
AcDbArc
 50
180.0
 51
270.0
  0
ARC
  5
2B0
100
AcDbEntity
  8
M0
100
AcDbCircle
 10
102.652573
 20
367.307784
 40
0.5
100
AcDbArc
 50
90.0
 51
180.0
  0
ARC
  5
2B1
100
AcDbEntity
  8
M0
100
AcDbCircle
 10
112.552573
 20
352.707784
 40
3.5
100
AcDbArc
 50
138.21477
 51
180.0
  0
LINE
  5
2B2
100
AcDbEntity
  8
M0
100
AcDbLine
 10
59.552573
 20
367.407783
 11
60.452573
 21
367.407783
  0
ARC
  5
2B3
100
AcDbEntity
  8
M0
100
AcDbCircle
 10
66.952573
 20
397.407784
 40
1.0
100
AcDbArc
 50
90.0
 51
180.0
  0
ARC
  5
2B4
100
AcDbEntity
  8
M0
100
AcDbCircle
 10
102.652573
 20
417.107784
 40
0.5
100
AcDbArc
 50
180.0
 51
270.0
  0
LINE
  5
2B5
100
AcDbEntity
  8
M0
100
AcDbLine
 10
87.252573
 20
367.807784
 11
85.552573
 21
367.807784
  0
LINE
  5
2B6
100
AcDbEntity
  8
M0
100
AcDbLine
 10
85.552573
 20
367.807784
 11
85.052573
 21
367.807784
  0
ARC
  5
2B7
100
AcDbEntity
  8
M0
100
AcDbCircle
 10
105.352573
 20
417.107784
 40
0.5
100
AcDbArc
 50
270.0
 51
360.0
  0
ARC
  5
2B8
100
AcDbEntity
  8
M0
100
AcDbCircle
 10
87.752573
 20
417.107784
 40
0.5
100
AcDbArc
 50
270.0
 51
360.0
  0
LINE
  5
2B9
100
AcDbEntity
  8
M0
100
AcDbLine
 10
87.752573
 20
367.807784
 11
87.252573
 21
367.807784
  0
ARC
  5
2BA
100
AcDbEntity
  8
M0
100
AcDbCircle
 10
123.452573
 20
387.007784
 40
1.0
100
AcDbArc
 50
270.0
 51
360.0
  0
LINE
  5
2BB
100
AcDbEntity
  8
M0
100
AcDbLine
 10
122.452572
 20
398.407784
 11
123.452573
 21
398.407784
  0
LINE
  5
2BC
100
AcDbEntity
  8
M0
100
AcDbLine
 10
67.952574
 20
398.407784
 11
66.952574
 21
398.407784
  0
LINE
  5
2BD
100
AcDbEntity
  8
M0
100
AcDbLine
 10
105.352573
 20
416.607783
 11
102.652573
 21
416.607783
  0
ARC
  5
2BE
100
AcDbEntity
  8
M0
100
AcDbCircle
 10
123.452573
 20
397.407784
 40
1.0
100
AcDbArc
 50
0.0
 51
90.0
  0
CIRCLE
  5
2BF
100
AcDbEntity
  8
M0
100
AcDbCircle
 10
60.202573
 20
354.207784
 40
2.25
  0
ARC
  5
2C0
100
AcDbEntity
  8
M0
100
AcDbCircle
 10
87.252573
 20
350.707784
 40
1.0
100
AcDbArc
 50
270.0
 51
360.0
  0
LINE
  5
2C1
100
AcDbEntity
  8
M0
100
AcDbLine
 10
125.202572
 20
354.957783
 11
127.702572
 21
354.957783
  0
ARC
  5
2C2
100
AcDbEntity
  8
M0
100
AcDbCircle
 10
121.452573
 20
350.707784
 40
1.0
100
AcDbArc
 50
270.0
 51
360.0
  0
LINE
  5
2C3
100
AcDbEntity
  8
M0
100
AcDbLine
 10
84.552574
 20
428.707783
 11
70.652573
 21
428.707783
  0
CIRCLE
  5
2C4
100
AcDbEntity
  8
M0
100
AcDbCircle
 10
130.202573
 20
429.207784
 40
2.25
  0
ARC
  5
2C5
100
AcDbEntity
  8
M0
100
AcDbCircle
 10
92.952573
 20
396.476737
 40
0.5
100
AcDbArc
 50
0.0
 51
90.0
  0
LINE
  5
2C6
100
AcDbEntity
  8
M0
100
AcDbLine
 10
92.952573
 20
396.976737
 11
90.402573
 21
396.976737
  0
LINE
  5
2C7
100
AcDbEntity
  8
M0
100
AcDbLine
 10
100.002573
 20
396.976737
 11
97.452573
 21
396.976737
  0
LINE
  5
2C8
100
AcDbEntity
  8
M0
100
AcDbLine
 10
121.452572
 20
399.407784
 11
121.452572
 21
396.707784
  0
LINE
  5
2C9
100
AcDbEntity
  8
M0
100
AcDbLine
 10
68.952574
 20
396.707784
 11
67.952574
 21
396.707784
  0
LINE
  5
2CA
100
AcDbEntity
  8
M0
100
AcDbLine
 10
121.452572
 20
387.707784
 11
121.452572
 21
385.007784
  0
LINE
  5
2CB
100
AcDbEntity
  8
M0
100
AcDbLine
 10
122.452572
 20
387.707784
 11
121.452572
 21
387.707784
  0
LINE
  5
2CC
100
AcDbEntity
  8
M0
100
AcDbLine
 10
67.952574
 20
390.707784
 11
67.952574
 21
387.507784
  0
LINE
  5
2CD
100
AcDbEntity
  8
M0
100
AcDbLine
 10
68.952574
 20
399.407784
 11
68.952574
 21
396.707784
  0
LINE
  5
2CE
100
AcDbEntity
  8
M0
100
AcDbLine
 10
121.452572
 20
390.707784
 11
122.452572
 21
390.707784
  0
LINE
  5
2CF
100
AcDbEntity
  8
M0
100
AcDbLine
 10
90.302573
 20
402.407784
 11
90.302573
 21
401.907784
  0
LINE
  5
2D0
100
AcDbEntity
  8
M0
100
AcDbLine
 10
68.952574
 20
393.707784
 11
68.952574
 21
390.707784
  0
LINE
  5
2D1
100
AcDbEntity
  8
M0
100
AcDbLine
 10
122.452572
 20
390.807784
 11
122.452572
 21
387.507784
  0
LINE
  5
2D2
100
AcDbEntity
  8
M0
100
AcDbLine
 10
90.302573
 20
402.407784
 11
100.102573
 21
402.407784
  0
LINE
  5
2D3
100
AcDbEntity
  8
M0
100
AcDbLine
 10
68.952574
 20
387.707784
 11
68.952574
 21
385.007784
  0
LINE
  5
2D4
100
AcDbEntity
  8
M0
100
AcDbLine
 10
100.102573
 20
401.907784
 11
90.302573
 21
401.907784
  0
LINE
  5
2D5
100
AcDbEntity
  8
M0
100
AcDbLine
 10
121.452572
 20
396.707784
 11
122.452572
 21
396.707784
  0
LINE
  5
2D6
100
AcDbEntity
  8
M0
100
AcDbLine
 10
67.952574
 20
393.707784
 11
68.952574
 21
393.707784
  0
LINE
  5
2D7
100
AcDbEntity
  8
M0
100
AcDbLine
 10
68.952574
 20
399.407784
 11
68.452573
 21
399.407784
  0
LINE
  5
2D8
100
AcDbEntity
  8
M0
100
AcDbLine
 10
121.452572
 20
393.707784
 11
121.452572
 21
390.707784
  0
LINE
  5
2D9
100
AcDbEntity
  8
M0
100
AcDbLine
 10
67.952574
 20
396.907784
 11
67.952574
 21
393.707784
  0
LINE
  5
2DA
100
AcDbEntity
  8
M0
100
AcDbLine
 10
122.452572
 20
393.707784
 11
121.452572
 21
393.707784
  0
LINE
  5
2DB
100
AcDbEntity
  8
M0
100
AcDbLine
 10
122.452572
 20
396.907784
 11
122.452572
 21
393.607784
  0
LINE
  5
2DC
100
AcDbEntity
  8
M0
100
AcDbLine
 10
121.952573
 20
399.407784
 11
121.452572
 21
399.407784
  0
ARC
  5
2DD
100
AcDbEntity
  8
M0
100
AcDbCircle
 10
97.452573
 20
396.476737
 40
0.5
100
AcDbArc
 50
90.0
 51
180.0
  0
ARC
  5
2DE
100
AcDbEntity
  8
M0
100
AcDbCircle
 10
86.802573
 20
402.407784
 40
1.0
100
AcDbArc
 50
90.0
 51
180.0
  0
ARC
  5
2DF
100
AcDbEntity
  8
M0
100
AcDbCircle
 10
103.602573
 20
402.407784
 40
1.0
100
AcDbArc
 50
0.0
 51
90.0
  0
ARC
  5
2E0
100
AcDbEntity
  8
M0
100
AcDbCircle
 10
121.452573
 20
413.907784
 40
1.0
100
AcDbArc
 50
0.0
 51
90.0
  0
ARC
  5
2E1
100
AcDbEntity
  8
M0
100
AcDbCircle
 10
86.802573
 20
382.007784
 40
1.0
100
AcDbArc
 50
180.0
 51
270.0
  0
ARC
  5
2E2
100
AcDbEntity
  8
M0
100
AcDbCircle
 10
88.702573
 20
377.707784
 40
0.5
100
AcDbArc
 50
270.0
 51
360.0
  0
ARC
  5
2E3
100
AcDbEntity
  8
M0
100
AcDbCircle
 10
103.702573
 20
378.707784
 40
0.5
100
AcDbArc
 50
0.0
 51
90.0
  0
ARC
  5
2E4
100
AcDbEntity
  8
M0
100
AcDbCircle
 10
103.702573
 20
377.707784
 40
0.5
100
AcDbArc
 50
270.0
 51
360.0
  0
ARC
  5
2E5
100
AcDbEntity
  8
M0
100
AcDbCircle
 10
88.702573
 20
378.707784
 40
0.5
100
AcDbArc
 50
0.0
 51
90.0
  0
ARC
  5
2E6
100
AcDbEntity
  8
M0
100
AcDbCircle
 10
86.702573
 20
377.707784
 40
0.5
100
AcDbArc
 50
180.0
 51
270.0
  0
ARC
  5
2E7
100
AcDbEntity
  8
M0
100
AcDbCircle
 10
101.702573
 20
378.707784
 40
0.5
100
AcDbArc
 50
90.0
 51
180.0
  0
ARC
  5
2E8
100
AcDbEntity
  8
M0
100
AcDbCircle
 10
101.702573
 20
377.707784
 40
0.5
100
AcDbArc
 50
180.0
 51
270.0
  0
ARC
  5
2E9
100
AcDbEntity
  8
M0
100
AcDbCircle
 10
103.602573
 20
382.007784
 40
1.0
100
AcDbArc
 50
270.0
 51
360.0
  0
ARC
  5
2EA
100
AcDbEntity
  8
M0
100
AcDbCircle
 10
86.702573
 20
378.707784
 40
0.5
100
AcDbArc
 50
90.0
 51
180.0
  0
LINE
  5
2EB
100
AcDbEntity
  8
M0
100
AcDbLine
 10
88.702573
 20
379.207783
 11
86.702573
 21
379.207783
  0
LINE
  5
2EC
100
AcDbEntity
  8
M0
100
AcDbLine
 10
115.152574
 20
435.507783
 11
115.652573
 21
435.507783
  0
LINE
  5
2ED
100
AcDbEntity
  8
M0
100
AcDbLine
 10
86.802573
 20
403.407783
 11
89.302573
 21
403.407783
  0
LINE
  5
2EE
100
AcDbEntity
  8
M0
100
AcDbLine
 10
101.202573
 20
377.707784
 11
101.202573
 21
378.707783
  0
LINE
  5
2EF
100
AcDbEntity
  8
M0
100
AcDbLine
 10
115.652573
 20
437.207785
 11
114.652573
 21
437.207785
  0
LINE
  5
2F0
100
AcDbEntity
  8
M0
100
AcDbLine
 10
115.652573
 20
430.207782
 11
115.152574
 21
430.207782
  0
LINE
  5
2F1
100
AcDbEntity
  8
M0
100
AcDbLine
 10
77.452573
 20
437.707783
 11
77.452573
 21
438.207784
  0
LINE
  5
2F2
100
AcDbEntity
  8
M0
100
AcDbLine
 10
74.752573
 20
430.207782
 11
75.252573
 21
430.207782
  0
LINE
  5
2F3
100
AcDbEntity
  8
M0
100
AcDbLine
 10
112.952574
 20
437.707783
 11
112.952574
 21
438.207784
  0
LINE
  5
2F4
100
AcDbEntity
  8
M0
100
AcDbLine
 10
104.202573
 20
378.707783
 11
104.202573
 21
377.707784
  0
LINE
  5
2F5
100
AcDbEntity
  8
M0
100
AcDbLine
 10
100.102573
 20
402.407784
 11
100.102573
 21
401.907784
  0
LINE
  5
2F6
100
AcDbEntity
  8
M0
100
AcDbLine
 10
68.952574
 20
414.907784
 11
121.452572
 21
414.907784
  0
LINE
  5
2F7
100
AcDbEntity
  8
M0
100
AcDbLine
 10
59.702572
 20
375.557783
 11
59.702572
 21
382.057784
  0
LINE
  5
2F8
100
AcDbEntity
  8
M0
100
AcDbLine
 10
89.202573
 20
377.707784
 11
89.202573
 21
378.707783
  0
LINE
  5
2F9
100
AcDbEntity
  8
M0
100
AcDbLine
 10
101.702573
 20
379.207783
 11
103.702574
 21
379.207783
  0
LINE
  5
2FA
100
AcDbEntity
  8
M0
100
AcDbLine
 10
86.202574
 20
378.707783
 11
86.202574
 21
377.707784
  0
LINE
  5
2FB
100
AcDbEntity
  8
M0
100
AcDbLine
 10
103.702574
 20
377.207784
 11
101.702573
 21
377.207784
  0
LINE
  5
2FC
100
AcDbEntity
  8
M0
100
AcDbLine
 10
86.702573
 20
377.207784
 11
88.702573
 21
377.207784
  0
LINE
  5
2FD
100
AcDbEntity
  8
M0
100
AcDbLine
 10
98.202573
 20
404.407783
 11
98.202573
 21
406.007784
  0
LINE
  5
2FE
100
AcDbEntity
  8
M0
100
AcDbLine
 10
98.202573
 20
406.007784
 11
92.202573
 21
406.007784
  0
LINE
  5
2FF
100
AcDbEntity
  8
M0
100
AcDbLine
 10
92.202573
 20
404.407783
 11
92.202573
 21
406.007784
  0
LINE
  5
300
100
AcDbEntity
  8
M0
100
AcDbLine
 10
92.202573
 20
404.407783
 11
98.202573
 21
404.407783
  0
LINE
  5
301
100
AcDbEntity
  8
M0
100
AcDbLine
 10
85.802573
 20
382.007783
 11
85.802573
 21
402.407784
  0
LINE
  5
302
100
AcDbEntity
  8
M0
100
AcDbLine
 10
86.802573
 20
381.007784
 11
103.602573
 21
381.007784
  0
LINE
  5
303
100
AcDbEntity
  8
M0
100
AcDbLine
 10
104.602573
 20
382.007783
 11
104.602573
 21
402.407784
  0
ARC
  5
304
100
AcDbEntity
  8
M0
100
AcDbCircle
 10
68.452573
 20
399.907784
 40
0.5
100
AcDbArc
 50
180.0
 51
270.0
  0
ARC
  5
305
100
AcDbEntity
  8
M0
100
AcDbCircle
 10
121.952573
 20
399.907784
 40
0.5
100
AcDbArc
 50
270.0
 51
360.0
  0
ARC
  5
306
100
AcDbEntity
  8
M0
100
AcDbCircle
 10
101.102573
 20
402.407784
 40
1.0
100
AcDbArc
 50
90.0
 51
180.0
  0
ARC
  5
307
100
AcDbEntity
  8
M0
100
AcDbCircle
 10
77.602572
 20
432.457784
 40
4.25
100
AcDbArc
 50
241.927521
 51
270.0
  0
ARC
  5
308
100
AcDbEntity
  8
M0
100
AcDbCircle
 10
89.302573
 20
402.407784
 40
1.0
100
AcDbArc
 50
0.0
 51
90.0
  0
ARC
  5
309
100
AcDbEntity
  8
M0
100
AcDbCircle
 10
77.602572
 20
432.457784
 40
4.25
100
AcDbArc
 50
241.927521
 51
298.072495
  0
LINE
  5
30A
100
AcDbEntity
  8
M0
100
AcDbLine
 10
103.602573
 20
403.407783
 11
101.102573
 21
403.407783
  0
ARC
  5
30B
100
AcDbEntity
  8
M0
100
AcDbCircle
 10
68.952573
 20
413.907784
 40
1.0
100
AcDbArc
 50
90.0
 51
180.0
  0
LINE
  5
30C
100
AcDbEntity
  8
M0
100
AcDbLine
 10
66.702573
 20
375.057784
 11
60.202573
 21
375.057784
  0
LINE
  5
30D
100
AcDbEntity
  8
M0
100
AcDbLine
 10
123.702573
 20
409.357783
 11
130.202573
 21
409.357783
  0
LINE
  5
30E
100
AcDbEntity
  8
M0
100
AcDbLine
 10
130.202573
 20
401.857784
 11
123.702573
 21
401.857784
  0
LINE
  5
30F
100
AcDbEntity
  8
M0
100
AcDbLine
 10
130.702574
 20
408.857784
 11
130.702574
 21
402.357784
  0
ARC
  5
310
100
AcDbEntity
  8
M0
100
AcDbCircle
 10
130.202573
 20
374.457784
 40
0.5
100
AcDbArc
 50
0.0
 51
90.0
  0
ARC
  5
311
100
AcDbEntity
  8
M0
100
AcDbCircle
 10
130.202574
 20
367.957784
 40
0.5
100
AcDbArc
 50
270.0
 51
360.0
  0
ARC
  5
312
100
AcDbEntity
  8
M0
100
AcDbCircle
 10
123.702573
 20
402.357784
 40
0.5
100
AcDbArc
 50
180.0
 51
270.0
  0
ARC
  5
313
100
AcDbEntity
  8
M0
100
AcDbCircle
 10
130.202573
 20
402.357784
 40
0.5
100
AcDbArc
 50
270.0
 51
360.0
  0
ARC
  5
314
100
AcDbEntity
  8
M0
100
AcDbCircle
 10
123.702573
 20
374.457783
 40
0.5
100
AcDbArc
 50
90.0
 51
180.0
  0
ARC
  5
315
100
AcDbEntity
  8
M0
100
AcDbCircle
 10
130.202573
 20
408.857784
 40
0.5
100
AcDbArc
 50
0.0
 51
90.0
  0
ARC
  5
316
100
AcDbEntity
  8
M0
100
AcDbCircle
 10
123.702573
 20
408.857784
 40
0.5
100
AcDbArc
 50
90.0
 51
180.0
  0
ARC
  5
317
100
AcDbEntity
  8
M0
100
AcDbCircle
 10
60.202573
 20
375.557784
 40
0.5
100
AcDbArc
 50
180.0
 51
270.0
  0
LINE
  5
318
100
AcDbEntity
  8
M0
100
AcDbLine
 10
123.202574
 20
402.357784
 11
123.202574
 21
408.857784
  0
LINE
  5
319
100
AcDbEntity
  8
M0
  6
DASHDOT
100
AcDbLine
 10
138.652572
 20
392.207784
 11
51.752574
 21
392.207784
  0
LINE
  5
31A
100
AcDbEntity
  8
M0
  6
DASHDOT
100
AcDbLine
 10
95.202573
 20
344.707783
 11
95.202573
 21
443.707785
  0
ARC
  5
31B
100
AcDbEntity
  8
M0
100
AcDbCircle
 10
90.402573
 20
396.476737
 40
0.5
100
AcDbArc
 50
90.0
 51
180.0
  0
ARC
  5
31C
100
AcDbEntity
  8
M0
100
AcDbCircle
 10
100.002573
 20
396.476737
 40
0.5
100
AcDbArc
 50
0.0
 51
90.0
  0
LINE
  5
31D
100
AcDbEntity
  8
M0
100
AcDbLine
 10
66.702573
 20
401.857784
 11
60.202574
 21
401.857784
  0
LINE
  5
31E
100
AcDbEntity
  8
M0
100
AcDbLine
 10
60.202573
 20
409.357783
 11
66.702573
 21
409.357783
  0
LINE
  5
31F
100
AcDbEntity
  8
M0
100
AcDbLine
 10
67.202572
 20
382.057783
 11
67.202572
 21
375.557784
  0
LINE
  5
320
100
AcDbEntity
  8
M0
100
AcDbLine
 10
130.202573
 20
375.057784
 11
123.702574
 21
375.057784
  0
LINE
  5
321
100
AcDbEntity
  8
M0
100
AcDbLine
 10
60.202573
 20
382.557783
 11
66.702573
 21
382.557783
  0
ARC
  5
322
100
AcDbEntity
  8
M0
100
AcDbCircle
 10
66.702573
 20
408.857784
 40
0.5
100
AcDbArc
 50
0.0
 51
90.0
  0
ARC
  5
323
100
AcDbEntity
  8
M0
100
AcDbCircle
 10
66.702573
 20
382.057784
 40
0.5
100
AcDbArc
 50
0.0
 51
90.0
  0
ARC
  5
324
100
AcDbEntity
  8
M0
100
AcDbCircle
 10
66.702573
 20
375.557784
 40
0.5
100
AcDbArc
 50
270.0
 51
360.0
  0
ARC
  5
325
100
AcDbEntity
  8
M0
100
AcDbCircle
 10
60.202573
 20
382.057784
 40
0.5
100
AcDbArc
 50
90.0
 51
180.0
  0
ARC
  5
326
100
AcDbEntity
  8
M0
100
AcDbCircle
 10
60.202573
 20
408.857783
 40
0.5
100
AcDbArc
 50
90.0
 51
180.0
  0
ARC
  5
327
100
AcDbEntity
  8
M0
100
AcDbCircle
 10
60.202574
 20
402.357783
 40
0.5
100
AcDbArc
 50
180.0
 51
270.0
  0
ARC
  5
328
100
AcDbEntity
  8
M0
100
AcDbCircle
 10
60.202574
 20
402.357783
 40
0.5
100
AcDbArc
 50
180.0
 51
270.0
  0
ARC
  5
329
100
AcDbEntity
  8
M0
100
AcDbCircle
 10
66.702574
 20
402.357784
 40
0.5
100
AcDbArc
 50
270.0
 51
360.0
  0
LINE
  5
32A
100
AcDbEntity
  8
M0
100
AcDbLine
 10
130.702574
 20
375.557785
 11
130.702574
 21
382.057784
  0
LINE
  5
32B
100
AcDbEntity
  8
M0
100
AcDbLine
 10
123.702573
 20
382.557783
 11
130.202573
 21
382.557783
  0
LINE
  5
32C
100
AcDbEntity
  8
M0
100
AcDbLine
 10
66.702573
 20
367.457784
 11
60.202573
 21
367.457784
  0
ARC
  5
32D
100
AcDbEntity
  8
M0
100
AcDbCircle
 10
130.202573
 20
382.057784
 40
0.5
100
AcDbArc
 50
0.0
 51
90.0
  0
ARC
  5
32E
100
AcDbEntity
  8
M0
100
AcDbCircle
 10
60.202573
 20
408.857783
 40
0.5
100
AcDbArc
 50
90.0
 51
180.0
  0
ARC
  5
32F
100
AcDbEntity
  8
M0
100
AcDbCircle
 10
123.702574
 20
375.557783
 40
0.5
100
AcDbArc
 50
180.0
 51
270.0
  0
ARC
  5
330
100
AcDbEntity
  8
M0
100
AcDbCircle
 10
123.702573
 20
382.057783
 40
0.5
100
AcDbArc
 50
90.0
 51
180.0
  0
ARC
  5
331
100
AcDbEntity
  8
M0
100
AcDbCircle
 10
130.202573
 20
382.057784
 40
0.5
100
AcDbArc
 50
0.0
 51
90.0
  0
ARC
  5
332
100
AcDbEntity
  8
M0
100
AcDbCircle
 10
130.202574
 20
375.557784
 40
0.5
100
AcDbArc
 50
270.0
 51
360.0
  0
ARC
  5
333
100
AcDbEntity
  8
M0
100
AcDbCircle
 10
130.202574
 20
375.557784
 40
0.5
100
AcDbArc
 50
270.0
 51
360.0
  0
LINE
  5
334
100
AcDbEntity
  8
M0
100
AcDbLine
 10
59.702572
 20
408.857782
 11
59.702572
 21
402.357783
  0
LINE
  5
335
100
AcDbEntity
  8
M0
100
AcDbLine
 10
130.702574
 20
374.457784
 11
130.702574
 21
367.957784
  0
LINE
  5
336
100
AcDbEntity
  8
M0
100
AcDbLine
 10
123.202574
 20
367.957783
 11
123.202574
 21
374.457783
  0
LINE
  5
337
100
AcDbEntity
  8
M0
100
AcDbLine
 10
123.702573
 20
374.957784
 11
130.202573
 21
374.957784
  0
LINE
  5
338
100
AcDbEntity
  8
M0
100
AcDbLine
 10
130.202574
 20
367.457784
 11
123.702573
 21
367.457784
  0
ARC
  5
339
100
AcDbEntity
  8
M0
100
AcDbCircle
 10
67.302573
 20
353.207784
 40
0.5
100
AcDbArc
 50
180.0
 51
270.0
  0
LINE
  5
33A
100
AcDbEntity
  8
M0
100
AcDbLine
 10
123.202574
 20
375.557783
 11
123.202574
 21
382.057783
  0
ARC
  5
33B
100
AcDbEntity
  8
M0
100
AcDbCircle
 10
123.652573
 20
431.707784
 40
2.0
100
AcDbArc
 50
90.0
 51
126.869898
  0
ARC
  5
33C
100
AcDbEntity
  8
M0
100
AcDbCircle
 10
66.752573
 20
431.707784
 40
2.0
100
AcDbArc
 50
53.130102
 51
90.0
  0
LINE
  5
33D
100
AcDbEntity
  8
M0
100
AcDbLine
 10
60.202573
 20
374.957784
 11
66.702573
 21
374.957784
  0
ARC
  5
33E
100
AcDbEntity
  8
M0
100
AcDbCircle
 10
60.202573
 20
367.957784
 40
0.5
100
AcDbArc
 50
180.0
 51
270.0
  0
ARC
  5
33F
100
AcDbEntity
  8
M0
100
AcDbCircle
 10
66.702573
 20
367.957784
 40
0.5
100
AcDbArc
 50
270.0
 51
360.0
  0
ARC
  5
340
100
AcDbEntity
  8
M0
100
AcDbCircle
 10
76.002573
 20
429.557784
 40
0.5
100
AcDbArc
 50
180.0
 51
270.0
  0
ARC
  5
341
100
AcDbEntity
  8
M0
100
AcDbCircle
 10
82.502573
 20
429.557784
 40
0.5
100
AcDbArc
 50
270.0
 51
360.0
  0
ARC
  5
342
100
AcDbEntity
  8
M0
100
AcDbCircle
 10
60.202573
 20
374.457784
 40
0.5
100
AcDbArc
 50
90.0
 51
180.0
  0
ARC
  5
343
100
AcDbEntity
  8
M0
100
AcDbCircle
 10
82.502573
 20
436.057784
 40
0.5
100
AcDbArc
 50
0.0
 51
90.0
  0
ARC
  5
344
100
AcDbEntity
  8
M0
100
AcDbCircle
 10
123.702574
 20
367.957783
 40
0.5
100
AcDbArc
 50
180.0
 51
270.0
  0
ARC
  5
345
100
AcDbEntity
  8
M0
100
AcDbCircle
 10
130.202573
 20
374.457784
 40
0.5
100
AcDbArc
 50
0.0
 51
90.0
  0
ARC
  5
346
100
AcDbEntity
  8
M0
100
AcDbCircle
 10
121.452573
 20
433.707784
 40
1.0
100
AcDbArc
 50
0.0
 51
90.0
  0
ARC
  5
347
100
AcDbEntity
  8
M0
100
AcDbCircle
 10
66.702573
 20
374.457784
 40
0.5
100
AcDbArc
 50
0.0
 51
90.0
  0
ARC
  5
348
100
AcDbEntity
  8
M0
100
AcDbCircle
 10
130.202574
 20
367.957784
 40
0.5
100
AcDbArc
 50
270.0
 51
360.0
  0
LINE
  5
349
100
AcDbEntity
  8
M0
100
AcDbLine
 10
75.502573
 20
429.557783
 11
75.502573
 21
436.057784
  0
LINE
  5
34A
100
AcDbEntity
  8
M0
100
AcDbLine
 10
82.502573
 20
429.057785
 11
76.002573
 21
429.057785
  0
LINE
  5
34B
100
AcDbEntity
  8
M0
100
AcDbLine
 10
130.702574
 20
416.457784
 11
130.702574
 21
409.957784
  0
LINE
  5
34C
100
AcDbEntity
  8
M0
100
AcDbLine
 10
59.702572
 20
367.957783
 11
59.702572
 21
374.457784
  0
LINE
  5
34D
100
AcDbEntity
  8
M0
100
AcDbLine
 10
67.202572
 20
374.457784
 11
67.202572
 21
367.957783
  0
LINE
  5
34E
100
AcDbEntity
  8
M0
100
AcDbLine
 10
83.002573
 20
436.057784
 11
83.002573
 21
429.557783
  0
LINE
  5
34F
100
AcDbEntity
  8
M0
100
AcDbLine
 10
123.702573
 20
416.957784
 11
130.202573
 21
416.957784
  0
LINE
  5
350
100
AcDbEntity
  8
M0
100
AcDbLine
 10
123.202574
 20
409.957784
 11
123.202574
 21
416.457784
  0
LINE
  5
351
100
AcDbEntity
  8
M0
100
AcDbLine
 10
130.202573
 20
409.457783
 11
123.702573
 21
409.457783
  0
LINE
  5
352
100
AcDbEntity
  8
M0
100
AcDbLine
 10
76.002573
 20
436.557782
 11
82.502573
 21
436.557782
  0
LINE
  5
353
100
AcDbEntity
  8
M0
100
AcDbLine
 10
107.402574
 20
429.557783
 11
107.40257
 21
436.057783
  0
LINE
  5
354
100
AcDbEntity
  8
M0
100
AcDbLine
 10
119.752573
 20
350.707785
 11
119.752573
 21
352.707782
  0
LINE
  5
355
100
AcDbEntity
  8
M0
100
AcDbLine
 10
84.552574
 20
352.707782
 11
84.552574
 21
350.707785
  0
LINE
  5
356
100
AcDbEntity
  8
M0
100
AcDbLine
 10
131.852571
 20
372.107784
 11
131.952573
 21
372.107784
  0
LINE
  5
357
100
AcDbEntity
  8
M0
100
AcDbLine
 10
131.952573
 20
412.307783
 11
131.852571
 21
412.307783
  0
LINE
  5
358
100
AcDbEntity
  8
M0
100
AcDbLine
 10
58.452573
 20
412.307783
 11
58.552575
 21
412.307783
  0
LINE
  5
359
100
AcDbEntity
  8
M0
100
AcDbLine
 10
58.552575
 20
372.107784
 11
58.452573
 21
372.107784
  0
LINE
  5
35A
100
AcDbEntity
  8
M0
100
AcDbLine
 10
114.402574
 20
429.057782
 11
107.902574
 21
429.057782
  0
LINE
  5
35B
100
AcDbEntity
  8
M0
100
AcDbLine
 10
59.702572
 20
416.457783
 11
59.702572
 21
409.957783
  0
LINE
  5
35C
100
AcDbEntity
  8
M0
100
AcDbLine
 10
67.202574
 20
416.457784
 11
67.202574
 21
409.957784
  0
ARC
  5
35D
100
AcDbEntity
  8
M0
100
AcDbCircle
 10
77.852573
 20
352.707784
 40
2.65
100
AcDbArc
 50
324.234014
 51
350.223151
  0
ARC
  5
35E
100
AcDbEntity
  8
M0
100
AcDbCircle
 10
107.902573
 20
436.057783
 40
0.5
100
AcDbArc
 50
90.0
 51
180.0
  0
ARC
  5
35F
100
AcDbEntity
  8
M0
100
AcDbCircle
 10
60.202574
 20
409.957783
 40
0.5
100
AcDbArc
 50
180.0
 51
270.0
  0
ARC
  5
360
100
AcDbEntity
  8
M0
100
AcDbCircle
 10
107.902574
 20
429.557783
 40
0.5
100
AcDbArc
 50
180.0
 51
270.0
  0
ARC
  5
361
100
AcDbEntity
  8
M0
100
AcDbCircle
 10
114.402574
 20
429.557784
 40
0.5
100
AcDbArc
 50
270.0
 51
360.0
  0
ARC
  5
362
100
AcDbEntity
  8
M0
100
AcDbCircle
 10
60.202573
 20
416.457783
 40
0.5
100
AcDbArc
 50
90.0
 51
180.0
  0
ARC
  5
363
100
AcDbEntity
  8
M0
100
AcDbCircle
 10
114.402573
 20
436.057784
 40
0.5
100
AcDbArc
 50
0.0
 51
90.0
  0
LINE
  5
364
100
AcDbEntity
  8
M0
100
AcDbLine
 10
114.902573
 20
429.557783
 11
114.902573
 21
436.057784
  0
LINE
  5
365
100
AcDbEntity
  8
M0
100
AcDbLine
 10
107.902573
 20
436.557786
 11
114.402572
 21
436.557786
  0
ARC
  5
366
100
AcDbEntity
  8
M0
100
AcDbCircle
 10
66.702574
 20
409.957784
 40
0.5
100
AcDbArc
 50
270.0
 51
360.0
  0
ARC
  5
367
100
AcDbEntity
  8
M0
100
AcDbCircle
 10
66.702573
 20
416.457784
 40
0.5
100
AcDbArc
 50
0.0
 51
90.0
  0
ARC
  5
368
100
AcDbEntity
  8
M0
100
AcDbCircle
 10
114.402574
 20
429.557784
 40
0.5
100
AcDbArc
 50
270.0
 51
360.0
  0
ARC
  5
369
100
AcDbEntity
  8
M0
100
AcDbCircle
 10
76.002573
 20
436.057784
 40
0.5
100
AcDbArc
 50
90.0
 51
180.0
  0
ARC
  5
36A
100
AcDbEntity
  8
M0
100
AcDbCircle
 10
123.702573
 20
416.457784
 40
0.5
100
AcDbArc
 50
90.0
 51
180.0
  0
LINE
  5
36B
100
AcDbEntity
  8
M0
100
AcDbLine
 10
66.702573
 20
409.457785
 11
60.202574
 21
409.457778
  0
ARC
  5
36C
100
AcDbEntity
  8
M0
100
AcDbCircle
 10
130.202573
 20
409.957784
 40
0.5
100
AcDbArc
 50
270.0
 51
360.0
  0
ARC
  5
36D
100
AcDbEntity
  8
M0
100
AcDbCircle
 10
114.402573
 20
436.057784
 40
0.5
100
AcDbArc
 50
0.0
 51
90.0
  0
ARC
  5
36E
100
AcDbEntity
  8
M0
100
AcDbCircle
 10
130.202573
 20
416.457784
 40
0.5
100
AcDbArc
 50
0.0
 51
90.0
  0
ARC
  5
36F
100
AcDbEntity
  8
M0
100
AcDbCircle
 10
60.202573
 20
416.457783
 40
0.5
100
AcDbArc
 50
90.0
 51
180.0
  0
ARC
  5
370
100
AcDbEntity
  8
M0
100
AcDbCircle
 10
60.202574
 20
409.957783
 40
0.5
100
AcDbArc
 50
180.0
 51
270.0
  0
ARC
  5
371
100
AcDbEntity
  8
M0
100
AcDbCircle
 10
123.702573
 20
409.957784
 40
0.5
100
AcDbArc
 50
180.0
 51
270.0
  0
LINE
  5
372
100
AcDbEntity
  8
M0
100
AcDbLine
 10
119.752573
 20
369.307783
 11
119.752573
 21
369.507783
  0
LINE
  5
373
100
AcDbEntity
  8
M0
100
AcDbLine
 10
119.752573
 20
414.907784
 11
119.752573
 21
415.107784
  0
LINE
  5
374
100
AcDbEntity
  8
M0
100
AcDbLine
 10
58.552575
 20
419.557783
 11
57.752572
 21
419.557783
  0
LINE
  5
375
100
AcDbEntity
  8
M0
100
AcDbLine
 10
131.852571
 20
419.557783
 11
132.652574
 21
419.557783
  0
LINE
  5
376
100
AcDbEntity
  8
M0
100
AcDbLine
 10
70.652573
 20
369.307783
 11
70.652573
 21
369.507783
  0
LINE
  5
377
100
AcDbEntity
  8
M0
100
AcDbLine
 10
88.252573
 20
369.507783
 11
88.252573
 21
350.707784
  0
LINE
  5
378
100
AcDbEntity
  8
M0
100
AcDbLine
 10
59.552573
 20
396.907784
 11
59.552573
 21
418.557785
  0
LINE
  5
379
100
AcDbEntity
  8
M0
100
AcDbLine
 10
67.352573
 20
383.018104
 11
67.352573
 21
365.457784
  0
LINE
  5
37A
100
AcDbEntity
  8
M0
100
AcDbLine
 10
67.352573
 20
418.957784
 11
67.352573
 21
401.39603
  0
LINE
  5
37B
100
AcDbEntity
  8
M0
100
AcDbLine
 10
123.052573
 20
401.507784
 11
130.852573
 21
401.507784
  0
LINE
  5
37C
100
AcDbEntity
  8
M0
100
AcDbLine
 10
132.652574
 20
364.857785
 11
131.852571
 21
364.857785
  0
LINE
  5
37D
100
AcDbEntity
  8
M0
100
AcDbLine
 10
127.352573
 20
395.907784
 11
127.352573
 21
388.507784
  0
ARC
  5
37E
100
AcDbEntity
  8
M0
100
AcDbCircle
 10
120.010582
 20
381.613742
 40
3.350514
100
AcDbArc
 50
24.780822
 51
43.210715
  0
ARC
  5
37F
100
AcDbEntity
  8
M0
100
AcDbCircle
 10
57.752573
 20
373.107784
 40
1.0
100
AcDbArc
 50
180.0
 51
270.0
  0
ARC
  5
380
100
AcDbEntity
  8
M0
100
AcDbCircle
 10
131.852573
 20
418.557784
 40
1.0
100
AcDbArc
 50
90.0
 51
180.0
  0
ARC
  5
381
100
AcDbEntity
  8
M0
100
AcDbCircle
 10
118.155705
 20
404.05704
 40
5.573176
100
AcDbArc
 50
320.442941
 51
331.479874
  0
ARC
  5
382
100
AcDbEntity
  8
M0
100
AcDbCircle
 10
72.249441
 20
404.05704
 40
5.573176
100
AcDbArc
 50
208.520126
 51
219.557059
  0
ARC
  5
383
100
AcDbEntity
  8
M0
100
AcDbCircle
 10
67.952573
 20
411.707784
 40
0.6
100
AcDbArc
 50
90.0
 51
180.0
  0
ARC
  5
384
100
AcDbEntity
  8
M0
100
AcDbCircle
 10
122.452573
 20
411.707784
 40
0.6
100
AcDbArc
 50
0.0
 51
90.0
  0
ARC
  5
385
100
AcDbEntity
  8
M0
100
AcDbCircle
 10
57.752573
 20
418.557784
 40
1.0
100
AcDbArc
 50
90.0
 51
180.0
  0
ARC
  5
386
100
AcDbEntity
  8
M0
100
AcDbCircle
 10
58.552573
 20
418.557784
 40
1.0
100
AcDbArc
 50
0.0
 51
90.0
  0
ARC
  5
387
100
AcDbEntity
  8
M0
100
AcDbCircle
 10
131.852573
 20
365.857784
 40
1.0
100
AcDbArc
 50
180.0
 51
270.0
  0
LINE
  5
388
100
AcDbEntity
  8
M0
100
AcDbLine
 10
132.652574
 20
372.107784
 11
131.852571
 21
372.107784
  0
LINE
  5
389
100
AcDbEntity
  8
M0
100
AcDbLine
 10
57.752572
 20
372.107784
 11
58.552575
 21
372.107784
  0
LINE
  5
38A
100
AcDbEntity
  8
M0
100
AcDbLine
 10
63.052573
 20
395.907784
 11
63.052573
 21
388.507784
  0
LINE
  5
38B
100
AcDbEntity
  8
M0
100
AcDbLine
 10
93.452573
 20
389.507784
 11
93.452573
 21
396.45529
  0
LINE
  5
38C
100
AcDbEntity
  8
M0
100
AcDbLine
 10
100.502573
 20
396.907784
 11
100.502573
 21
388.412771
  0
LINE
  5
38D
100
AcDbEntity
  8
M0
100
AcDbLine
 10
89.902573
 20
396.907784
 11
89.902573
 21
388.412771
  0
LINE
  5
38E
100
AcDbEntity
  8
M0
100
AcDbLine
 10
100.502573
 20
387.915253
 11
100.502573
 21
388.412771
  0
LINE
  5
38F
100
AcDbEntity
  8
M0
100
AcDbLine
 10
93.952573
 20
389.007784
 11
96.452573
 21
389.007784
  0
LINE
  5
390
100
AcDbEntity
  8
M0
100
AcDbLine
 10
89.902573
 20
387.915253
 11
89.902573
 21
388.412771
  0
LINE
  5
391
100
AcDbEntity
  8
M0
100
AcDbLine
 10
67.352573
 20
401.507784
 11
59.552573
 21
401.507784
  0
LINE
  5
392
100
AcDbEntity
  8
M0
100
AcDbLine
 10
131.852571
 20
395.907784
 11
127.352573
 21
395.907784
  0
LINE
  5
393
100
AcDbEntity
  8
M0
100
AcDbLine
 10
123.052573
 20
418.957784
 11
123.052573
 21
401.424299
  0
LINE
  5
394
100
AcDbEntity
  8
M0
100
AcDbLine
 10
57.752572
 20
388.507784
 11
63.052573
 21
388.507784
  0
LINE
  5
395
100
AcDbEntity
  8
M0
100
AcDbLine
 10
130.852573
 20
382.907784
 11
123.052573
 21
382.907784
  0
LINE
  5
396
100
AcDbEntity
  8
M0
100
AcDbLine
 10
127.352573
 20
388.507784
 11
131.852571
 21
388.507784
  0
LINE
  5
397
100
AcDbEntity
  8
M0
100
AcDbLine
 10
59.552573
 20
382.907784
 11
67.352573
 21
382.907784
  0
LINE
  5
398
100
AcDbEntity
  8
M0
100
AcDbLine
 10
119.752573
 20
430.707783
 11
119.752573
 21
431.707786
  0
LINE
  5
399
100
AcDbEntity
  8
M0
100
AcDbLine
 10
84.552574
 20
437.207785
 11
84.552574
 21
414.907784
  0
LINE
  5
39A
100
AcDbEntity
  8
M0
100
AcDbLine
 10
119.752573
 20
352.707782
 11
119.752573
 21
353.707784
  0
LINE
  5
39B
100
AcDbEntity
  8
M0
100
AcDbLine
 10
105.852573
 20
353.707784
 11
105.852573
 21
352.707782
  0
LINE
  5
39C
100
AcDbEntity
  8
M0
100
AcDbLine
 10
70.652573
 20
352.707782
 11
70.652573
 21
353.707784
  0
LINE
  5
39D
100
AcDbEntity
  8
M0
100
AcDbLine
 10
88.752573
 20
403.207784
 11
89.152573
 21
403.207784
  0
LINE
  5
39E
100
AcDbEntity
  8
M0
100
AcDbLine
 10
101.252573
 20
403.207784
 11
101.652573
 21
403.207784
  0
LINE
  5
39F
100
AcDbEntity
  8
M0
100
AcDbLine
 10
132.652574
 20
388.507784
 11
132.652574
 21
395.907784
  0
LINE
  5
3A0
100
AcDbEntity
  8
M0
100
AcDbLine
 10
131.352574
 20
395.907784
 11
131.352574
 21
388.507784
  0
LINE
  5
3A1
100
AcDbEntity
  8
M0
100
AcDbLine
 10
57.752572
 20
388.507784
 11
57.752572
 21
395.907784
  0
LINE
  5
3A2
100
AcDbEntity
  8
M0
100
AcDbLine
 10
59.052572
 20
395.907784
 11
59.052572
 21
388.507784
  0
LINE
  5
3A3
100
AcDbEntity
  8
M0
100
AcDbLine
 10
119.752573
 20
431.707786
 11
119.752573
 21
433.707782
  0
LINE
  5
3A4
100
AcDbEntity
  8
M0
100
AcDbLine
 10
70.652573
 20
414.907784
 11
70.652573
 21
433.707782
  0
LINE
  5
3A5
100
AcDbEntity
  8
M0
100
AcDbLine
 10
130.852573
 20
365.857783
 11
130.852573
 21
387.507784
  0
LINE
  5
3A6
100
AcDbEntity
  8
M0
100
AcDbLine
 10
123.052573
 20
383.018104
 11
123.052573
 21
365.457784
  0
LINE
  5
3A7
100
AcDbEntity
  8
M0
100
AcDbLine
 10
59.552573
 20
365.857783
 11
59.552573
 21
387.507784
  0
ARC
  5
3A8
100
AcDbEntity
  8
M0
100
AcDbCircle
 10
58.552573
 20
387.507784
 40
1.0
100
AcDbArc
 50
0.0
 51
90.0
  0
ARC
  5
3A9
100
AcDbEntity
  8
M0
100
AcDbCircle
 10
132.652573
 20
373.107784
 40
1.0
100
AcDbArc
 50
270.0
 51
360.0
  0
ARC
  5
3AA
100
AcDbEntity
  8
M0
100
AcDbCircle
 10
131.852573
 20
373.107784
 40
1.0
100
AcDbArc
 50
180.0
 51
270.0
  0
ARC
  5
3AB
100
AcDbEntity
  8
M0
100
AcDbCircle
 10
70.394565
 20
381.613742
 40
3.350514
100
AcDbArc
 50
136.789285
 51
155.219178
  0
ARC
  5
3AC
100
AcDbEntity
  8
M0
100
AcDbCircle
 10
67.952573
 20
372.707784
 40
0.6
100
AcDbArc
 50
180.0
 51
270.0
  0
ARC
  5
3AD
100
AcDbEntity
  8
M0
100
AcDbCircle
 10
58.552573
 20
373.107784
 40
1.0
100
AcDbArc
 50
270.0
 51
360.0
  0
LINE
  5
3AE
100
AcDbEntity
  8
M0
100
AcDbLine
 10
70.652573
 20
350.707785
 11
70.652573
 21
352.707782
  0
ARC
  5
3AF
100
AcDbEntity
  8
M0
100
AcDbCircle
 10
122.452573
 20
372.707784
 40
0.6
100
AcDbArc
 50
270.0
 51
360.0
  0
LINE
  5
3B0
100
AcDbEntity
  8
M0
100
AcDbLine
 10
105.852573
 20
352.707782
 11
105.852573
 21
350.707785
  0
LINE
  5
3B1
100
AcDbEntity
  8
M0
100
AcDbLine
 10
80.464086
 20
353.157782
 11
80.142586
 21
353.157782
  0
LINE
  5
3B2
100
AcDbEntity
  8
M0
100
AcDbLine
 10
80.079652
 20
352.257785
 11
80.464086
 21
352.257785
  0
LINE
  5
3B3
100
AcDbEntity
  8
M0
100
AcDbLine
 10
60.202573
 20
416.957784
 11
66.702573
 21
416.957784
  0
LINE
  5
3B4
100
AcDbEntity
  8
M0
100
AcDbLine
 10
109.94106
 20
352.257785
 11
110.325494
 21
352.257785
  0
LINE
  5
3B5
100
AcDbEntity
  8
M0
100
AcDbLine
 10
110.26256
 20
353.157782
 11
109.94106
 21
353.157782
  0
ARC
  5
3B6
100
AcDbEntity
  8
M0
100
AcDbCircle
 10
77.852573
 20
352.707784
 40
2.65
100
AcDbArc
 50
9.776849
 51
27.519543
  0
ARC
  5
3B7
100
AcDbEntity
  8
M0
100
AcDbCircle
 10
77.852573
 20
352.707784
 40
2.65
100
AcDbArc
 50
350.223151
 51
369.776849
  0
ARC
  5
3B8
100
AcDbEntity
  8
M0
100
AcDbCircle
 10
112.552573
 20
352.707784
 40
2.65
100
AcDbArc
 50
152.234014
 51
170.223151
  0
ARC
  5
3B9
100
AcDbEntity
  8
M0
100
AcDbCircle
 10
112.552573
 20
352.707784
 40
2.65
100
AcDbArc
 50
189.776849
 51
215.765986
  0
LINE
  5
3BA
100
AcDbEntity
  8
M0
100
AcDbLine
 10
96.952573
 20
389.507784
 11
96.952573
 21
396.45529
  0
LINE
  5
3BB
100
AcDbEntity
  8
M0
100
AcDbLine
 10
102.152573
 20
428.707783
 11
88.252573
 21
428.707783
  0
LINE
  5
3BC
100
AcDbEntity
  8
M0
100
AcDbLine
 10
100.502573
 20
396.476737
 11
100.502573
 21
396.45529
  0
LINE
  5
3BD
100
AcDbEntity
  8
M0
100
AcDbLine
 10
129.952573
 20
366.407783
 11
123.952574
 21
366.407783
  0
LINE
  5
3BE
100
AcDbEntity
  8
M0
100
AcDbLine
 10
129.952573
 20
367.457784
 11
129.952573
 21
366.407783
  0
LINE
  5
3BF
100
AcDbEntity
  8
M0
100
AcDbLine
 10
123.052573
 20
367.907784
 11
123.205079
 21
367.907784
  0
ARC
  5
3C0
100
AcDbEntity
  8
M0
100
AcDbCircle
 10
132.652573
 20
365.857784
 40
1.0
100
AcDbArc
 50
270.0
 51
360.0
  0
ARC
  5
3C1
100
AcDbEntity
  8
M0
100
AcDbCircle
 10
67.952573
 20
418.957784
 40
0.6
100
AcDbArc
 50
90.0
 51
180.0
  0
ARC
  5
3C2
100
AcDbEntity
  8
M0
100
AcDbCircle
 10
58.552573
 20
365.857784
 40
1.0
100
AcDbArc
 50
270.0
 51
360.0
  0
ARC
  5
3C3
100
AcDbEntity
  8
M0
100
AcDbCircle
 10
132.652573
 20
418.557784
 40
1.0
100
AcDbArc
 50
0.0
 51
90.0
  0
ARC
  5
3C4
100
AcDbEntity
  8
M0
100
AcDbCircle
 10
122.452573
 20
418.957784
 40
0.6
100
AcDbArc
 50
0.0
 51
90.0
  0
ARC
  5
3C5
100
AcDbEntity
  8
M0
100
AcDbCircle
 10
122.452573
 20
365.457784
 40
0.6
100
AcDbArc
 50
270.0
 51
360.0
  0
LINE
  5
3C6
100
AcDbEntity
  8
M0
100
AcDbLine
 10
93.452573
 20
396.45529
 11
93.452573
 21
396.476737
  0
LINE
  5
3C7
100
AcDbEntity
  8
M0
100
AcDbLine
 10
96.952573
 20
396.45529
 11
96.952573
 21
396.476737
  0
LINE
  5
3C8
100
AcDbEntity
  8
M0
100
AcDbLine
 10
89.902573
 20
396.476737
 11
89.902573
 21
396.45529
  0
LINE
  5
3C9
100
AcDbEntity
  8
M0
100
AcDbLine
 10
89.902573
 20
387.915253
 11
89.902573
 21
387.507784
  0
ARC
  5
3CA
100
AcDbEntity
  8
M0
100
AcDbCircle
 10
67.952573
 20
365.457784
 40
0.6
100
AcDbArc
 50
180.0
 51
270.0
  0
LINE
  5
3CB
100
AcDbEntity
  8
M0
100
AcDbLine
 10
123.952574
 20
366.407783
 11
123.952574
 21
367.457784
  0
LINE
  5
3CC
100
AcDbEntity
  8
M0
100
AcDbLine
 10
90.402573
 20
387.007784
 11
89.652573
 21
387.007784
  0
LINE
  5
3CD
100
AcDbEntity
  8
M0
100
AcDbLine
 10
100.502573
 20
387.915253
 11
100.502573
 21
387.507784
  0
LINE
  5
3CE
100
AcDbEntity
  8
M0
100
AcDbLine
 10
99.352573
 20
397.407784
 11
99.352573
 21
397.707784
  0
LINE
  5
3CF
100
AcDbEntity
  8
M0
100
AcDbLine
 10
89.652573
 20
397.407784
 11
100.752573
 21
397.407784
  0
LINE
  5
3D0
100
AcDbEntity
  8
M0
100
AcDbLine
 10
90.402573
 20
387.007784
 11
100.002573
 21
387.007784
  0
LINE
  5
3D1
100
AcDbEntity
  8
M0
100
AcDbLine
 10
105.852573
 20
425.407783
 11
105.852573
 21
428.207782
  0
LINE
  5
3D2
100
AcDbEntity
  8
M0
100
AcDbLine
 10
91.052573
 20
397.407784
 11
91.052573
 21
397.707784
  0
LINE
  5
3D3
100
AcDbEntity
  8
M0
100
AcDbLine
 10
80.9444
 20
355.707784
 11
84.552574
 21
355.707784
  0
LINE
  5
3D4
100
AcDbEntity
  8
M0
100
AcDbLine
 10
99.352573
 20
386.507784
 11
99.352573
 21
387.007784
  0
LINE
  5
3D5
100
AcDbEntity
  8
M0
100
AcDbLine
 10
110.802573
 20
428.707783
 11
105.852573
 21
428.707783
  0
LINE
  5
3D6
100
AcDbEntity
  8
M0
100
AcDbLine
 10
116.775551
 20
355.707784
 11
119.752573
 21
355.707784
  0
LINE
  5
3D7
100
AcDbEntity
  8
M0
100
AcDbLine
 10
98.831342
 20
355.707784
 11
102.152573
 21
355.707784
  0
LINE
  5
3D8
100
AcDbEntity
  8
M0
100
AcDbLine
 10
119.752573
 20
428.707783
 11
114.802573
 21
428.707783
  0
LINE
  5
3D9
100
AcDbEntity
  8
M0
100
AcDbLine
 10
105.852573
 20
355.707784
 11
109.460746
 21
355.707784
  0
LINE
  5
3DA
100
AcDbEntity
  8
M0
100
AcDbLine
 10
88.252573
 20
355.707784
 11
91.573804
 21
355.707784
  0
LINE
  5
3DB
100
AcDbEntity
  8
M0
100
AcDbLine
 10
91.052573
 20
386.507784
 11
91.052573
 21
387.007784
  0
LINE
  5
3DC
100
AcDbEntity
  8
M0
100
AcDbLine
 10
70.652573
 20
355.707784
 11
73.629595
 21
355.707784
  0
LINE
  5
3DD
100
AcDbEntity
  8
M0
100
AcDbLine
 10
100.002573
 20
387.007784
 11
100.752573
 21
387.007784
  0
LINE
  5
3DE
100
AcDbEntity
  8
M0
100
AcDbLine
 10
115.152574
 20
436.707784
 11
114.652573
 21
437.207785
  0
LINE
  5
3DF
100
AcDbEntity
  8
M0
100
AcDbLine
 10
115.152574
 20
428.707783
 11
115.152574
 21
436.707784
  0
ARC
  5
3E0
100
AcDbEntity
  8
M0
100
AcDbCircle
 10
90.402573
 20
396.907784
 40
0.5
100
AcDbArc
 50
90.0
 51
180.0
  0
ARC
  5
3E1
100
AcDbEntity
  8
M0
100
AcDbCircle
 10
90.402573
 20
387.507784
 40
0.5
100
AcDbArc
 50
180.0
 51
270.0
  0
ARC
  5
3E2
100
AcDbEntity
  8
M0
100
AcDbCircle
 10
96.452573
 20
389.507784
 40
0.5
100
AcDbArc
 50
270.0
 51
360.0
  0
LINE
  5
3E3
100
AcDbEntity
  8
M0
100
AcDbLine
 10
123.052573
 20
375.007783
 11
130.852573
 21
375.007783
  0
ARC
  5
3E4
100
AcDbEntity
  8
M0
100
AcDbCircle
 10
112.802572
 20
432.457784
 40
4.25
100
AcDbArc
 50
241.927521
 51
298.072495
  0
LINE
  5
3E5
100
AcDbEntity
  8
M0
100
AcDbLine
 10
93.615122
 20
432.957784
 11
92.59106
 21
432.957784
  0
LINE
  5
3E6
100
AcDbEntity
  8
M0
100
AcDbLine
 10
92.59106
 20
432.057784
 11
93.615122
 21
432.057784
  0
LINE
  5
3E7
100
AcDbEntity
  8
M0
100
AcDbLine
 10
97.814086
 20
432.957784
 11
96.790024
 21
432.957784
  0
LINE
  5
3E8
100
AcDbEntity
  8
M0
100
AcDbLine
 10
96.790024
 20
432.057784
 11
97.814086
 21
432.057784
  0
LINE
  5
3E9
100
AcDbEntity
  8
M0
100
AcDbLine
 10
95.652573
 20
432.957784
 11
95.652573
 21
433.707782
  0
LINE
  5
3EA
100
AcDbEntity
  8
M0
100
AcDbLine
 10
95.652573
 20
431.307782
 11
95.652573
 21
432.057784
  0
LINE
  5
3EB
100
AcDbEntity
  8
M0
100
AcDbLine
 10
95.652573
 20
433.707782
 11
94.752573
 21
433.707782
  0
LINE
  5
3EC
100
AcDbEntity
  8
M0
100
AcDbLine
 10
83.052573
 20
437.207785
 11
74.752573
 21
437.207785
  0
LINE
  5
3ED
100
AcDbEntity
  8
M0
100
AcDbLine
 10
94.752573
 20
431.307782
 11
95.652573
 21
431.307782
  0
LINE
  5
3EE
100
AcDbEntity
  8
M0
100
AcDbLine
 10
93.615122
 20
432.957784
 11
94.752573
 21
432.957784
  0
LINE
  5
3EF
100
AcDbEntity
  8
M0
100
AcDbLine
 10
95.652573
 20
432.957784
 11
96.790024
 21
432.957784
  0
LINE
  5
3F0
100
AcDbEntity
  8
M0
100
AcDbLine
 10
94.752573
 20
433.707782
 11
94.752573
 21
432.957784
  0
LINE
  5
3F1
100
AcDbEntity
  8
M0
100
AcDbLine
 10
114.652573
 20
437.207785
 11
107.352573
 21
437.207785
  0
LINE
  5
3F2
100
AcDbEntity
  8
M0
100
AcDbLine
 10
94.752573
 20
432.057784
 11
93.615122
 21
432.057784
  0
LINE
  5
3F3
100
AcDbEntity
  8
M0
100
AcDbLine
 10
89.152573
 20
403.207784
 11
87.002573
 21
403.207784
  0
LINE
  5
3F4
100
AcDbEntity
  8
M0
100
AcDbLine
 10
75.752574
 20
437.207785
 11
75.252573
 21
436.707784
  0
LINE
  5
3F5
100
AcDbEntity
  8
M0
100
AcDbLine
 10
75.252573
 20
436.707784
 11
75.252573
 21
428.707783
  0
ARC
  5
3F6
100
AcDbEntity
  8
M0
100
AcDbCircle
 10
112.802572
 20
432.457784
 40
4.25
100
AcDbArc
 50
241.927521
 51
270.0
  0
ARC
  5
3F7
100
AcDbEntity
  8
M0
100
AcDbCircle
 10
100.002573
 20
387.507784
 40
0.5
100
AcDbArc
 50
270.0
 51
360.0
  0
ARC
  5
3F8
100
AcDbEntity
  8
M0
100
AcDbCircle
 10
93.952573
 20
389.507784
 40
0.5
100
AcDbArc
 50
180.0
 51
270.0
  0
ARC
  5
3F9
100
AcDbEntity
  8
M0
100
AcDbCircle
 10
95.202572
 20
432.457784
 40
4.25
100
AcDbArc
 50
241.927521
 51
298.072495
  0
ARC
  5
3FA
100
AcDbEntity
  8
M0
100
AcDbCircle
 10
100.002573
 20
396.907784
 40
0.5
100
AcDbArc
 50
0.0
 51
90.0
  0
LINE
  5
3FB
100
AcDbEntity
  8
M0
100
AcDbLine
 10
96.790024
 20
432.057784
 11
95.652573
 21
432.057784
  0
ARC
  5
3FC
100
AcDbEntity
  8
M0
100
AcDbCircle
 10
95.202572
 20
432.457784
 40
4.25
100
AcDbArc
 50
241.927521
 51
270.0
  0
LINE
  5
3FD
100
AcDbEntity
  8
M0
100
AcDbLine
 10
94.752573
 20
432.057784
 11
94.752573
 21
431.307782
  0
ARC
  5
3FE
100
AcDbEntity
  8
M0
100
AcDbCircle
 10
82.352573
 20
429.407784
 40
0.6
100
AcDbArc
 50
215.685335
 51
270.0
  0
ARC
  5
3FF
100
AcDbEntity
  8
M0
100
AcDbCircle
 10
110.752573
 20
428.207784
 40
1.0
100
AcDbArc
 50
30.0
 51
58.211672
  0
ARC
  5
400
100
AcDbEntity
  8
M0
100
AcDbCircle
 10
95.202573
 20
432.507784
 40
2.65
100
AcDbArc
 50
170.223151
 51
189.776849
  0
ARC
  5
401
100
AcDbEntity
  8
M0
100
AcDbCircle
 10
95.202573
 20
432.507784
 40
2.65
100
AcDbArc
 50
189.776849
 51
350.223151
  0
ARC
  5
402
100
AcDbEntity
  8
M0
100
AcDbCircle
 10
108.052573
 20
429.407784
 40
0.6
100
AcDbArc
 50
187.490122
 51
324.314617
  0
ARC
  5
403
100
AcDbEntity
  8
M0
100
AcDbCircle
 10
95.202573
 20
432.507784
 40
2.65
100
AcDbArc
 50
9.776849
 51
170.223151
  0
ARC
  5
404
100
AcDbEntity
  8
M0
100
AcDbCircle
 10
110.752573
 20
428.207784
 40
1.0
100
AcDbArc
 50
121.788346
 51
150.0
  0
ARC
  5
405
100
AcDbEntity
  8
M0
100
AcDbCircle
 10
95.202573
 20
432.507784
 40
2.65
100
AcDbArc
 50
350.223151
 51
369.776849
  0
ARC
  5
406
100
AcDbEntity
  8
M0
100
AcDbCircle
 10
68.952573
 20
350.707784
 40
1.0
100
AcDbArc
 50
180.0
 51
270.0
  0
ARC
  5
407
100
AcDbEntity
  8
M0
100
AcDbCircle
 10
131.852573
 20
411.307784
 40
1.0
100
AcDbArc
 50
90.0
 51
180.0
  0
ARC
  5
408
100
AcDbEntity
  8
M0
100
AcDbCircle
 10
120.752573
 20
350.707784
 40
1.0
100
AcDbArc
 50
180.0
 51
270.0
  0
ARC
  5
409
100
AcDbEntity
  8
M0
100
AcDbCircle
 10
69.652573
 20
350.707784
 40
1.0
100
AcDbArc
 50
270.0
 51
360.0
  0
ARC
  5
40A
100
AcDbEntity
  8
M0
100
AcDbCircle
 10
131.852573
 20
387.507784
 40
1.0
100
AcDbArc
 50
90.0
 51
180.0
  0
ARC
  5
40B
100
AcDbEntity
  8
M0
100
AcDbCircle
 10
104.852573
 20
350.707784
 40
1.0
100
AcDbArc
 50
270.0
 51
360.0
  0
ARC
  5
40C
100
AcDbEntity
  8
M0
100
AcDbCircle
 10
85.552573
 20
350.707784
 40
1.0
100
AcDbArc
 50
180.0
 51
270.0
  0
ARC
  5
40D
100
AcDbEntity
  8
M0
100
AcDbCircle
 10
58.552573
 20
396.907784
 40
1.0
100
AcDbArc
 50
270.0
 51
360.0
  0
ARC
  5
40E
100
AcDbEntity
  8
M0
100
AcDbCircle
 10
132.652573
 20
411.307784
 40
1.0
100
AcDbArc
 50
0.0
 51
90.0
  0
ARC
  5
40F
100
AcDbEntity
  8
M0
100
AcDbCircle
 10
82.352573
 20
429.407784
 40
0.6
100
AcDbArc
 50
270.0
 51
352.509835
  0
ARC
  5
410
100
AcDbEntity
  8
M0
100
AcDbCircle
 10
131.852573
 20
396.907784
 40
1.0
100
AcDbArc
 50
180.0
 51
270.0
  0
ARC
  5
411
100
AcDbEntity
  8
M0
100
AcDbCircle
 10
132.652573
 20
396.907784
 40
1.0
100
AcDbArc
 50
270.0
 51
360.0
  0
ARC
  5
412
100
AcDbEntity
  8
M0
100
AcDbCircle
 10
112.552573
 20
352.707784
 40
2.65
100
AcDbArc
 50
170.223151
 51
189.776849
  0
ARC
  5
413
100
AcDbEntity
  8
M0
100
AcDbCircle
 10
57.752573
 20
411.307784
 40
1.0
100
AcDbArc
 50
90.0
 51
180.0
  0
LINE
  5
414
100
AcDbEntity
  8
M0
100
AcDbLine
 10
100.252573
 20
401.707783
 11
90.152573
 21
401.707783
  0
LINE
  5
415
100
AcDbEntity
  8
M0
100
AcDbLine
 10
100.752573
 20
397.707784
 11
89.652573
 21
397.707784
  0
LINE
  5
416
100
AcDbEntity
  8
M0
100
AcDbLine
 10
120.752574
 20
434.707784
 11
121.252569
 21
434.707784
  0
LINE
  5
417
100
AcDbEntity
  8
M0
100
AcDbLine
 10
90.152573
 20
398.207784
 11
100.252573
 21
398.207784
  0
LINE
  5
418
100
AcDbEntity
  8
M0
100
AcDbLine
 10
69.652573
 20
434.707784
 11
68.952573
 21
434.707784
  0
LINE
  5
419
100
AcDbEntity
  8
M0
100
AcDbLine
 10
121.452572
 20
387.507784
 11
123.452573
 21
387.507784
  0
LINE
  5
41A
100
AcDbEntity
  8
M0
100
AcDbLine
 10
119.752573
 20
414.907784
 11
119.752573
 21
433.707782
  0
LINE
  5
41B
100
AcDbEntity
  8
M0
100
AcDbLine
 10
88.252573
 20
414.907784
 11
88.252573
 21
433.707782
  0
LINE
  5
41C
100
AcDbEntity
  8
M0
100
AcDbLine
 10
122.452572
 20
350.707784
 11
122.452572
 21
386.007784
  0
LINE
  5
41D
100
AcDbEntity
  8
M0
100
AcDbLine
 10
102.152573
 20
414.907784
 11
102.152573
 21
433.707782
  0
LINE
  5
41E
100
AcDbEntity
  8
M0
100
AcDbLine
 10
103.152574
 20
434.707784
 11
104.852573
 21
434.707784
  0
LINE
  5
41F
100
AcDbEntity
  8
M0
100
AcDbLine
 10
120.752574
 20
369.307783
 11
120.752574
 21
369.507783
  0
LINE
  5
420
100
AcDbEntity
  8
M0
100
AcDbLine
 10
87.252573
 20
434.707784
 11
85.552573
 21
434.707784
  0
LINE
  5
421
100
AcDbEntity
  8
M0
100
AcDbLine
 10
121.252569
 20
434.707784
 11
121.452572
 21
434.707784
  0
LINE
  5
422
100
AcDbEntity
  8
M0
100
AcDbLine
 10
123.452573
 20
396.907784
 11
121.452572
 21
396.907784
  0
LINE
  5
423
100
AcDbEntity
  8
M0
100
AcDbLine
 10
120.752574
 20
414.907784
 11
120.752574
 21
415.107784
  0
LINE
  5
424
100
AcDbEntity
  8
M0
100
AcDbLine
 10
130.633772
 20
361.956731
 11
129.204229
 21
361.957784
  0
LINE
  5
425
100
AcDbEntity
  8
M0
100
AcDbLine
 10
118.802574
 20
354.707782
 11
119.752573
 21
354.707782
  0
LINE
  5
426
100
AcDbEntity
  8
M0
100
AcDbLine
 10
122.452572
 20
398.407784
 11
122.452572
 21
433.707784
  0
LINE
  5
427
100
AcDbEntity
  8
M0
100
AcDbLine
 10
69.652573
 20
415.107784
 11
70.652573
 21
415.107784
  0
LINE
  5
428
100
AcDbEntity
  8
M0
100
AcDbLine
 10
130.246576
 20
357.458078
 11
130.739049
 21
357.458078
  0
LINE
  5
429
100
AcDbEntity
  8
M0
100
AcDbLine
 10
68.952574
 20
387.507784
 11
66.952574
 21
387.507784
  0
LINE
  5
42A
100
AcDbEntity
  8
M0
100
AcDbLine
 10
67.952574
 20
386.007784
 11
67.952574
 21
350.707784
  0
LINE
  5
42B
100
AcDbEntity
  8
M0
100
AcDbLine
 10
120.752574
 20
415.107784
 11
119.752573
 21
415.107784
  0
LINE
  5
42C
100
AcDbEntity
  8
M0
100
AcDbLine
 10
69.652573
 20
369.307783
 11
69.652573
 21
369.507783
  0
ARC
  5
42D
100
AcDbEntity
  8
M0
100
AcDbCircle
 10
85.552573
 20
433.707784
 40
1.0
100
AcDbArc
 50
90.0
 51
180.0
  0
ARC
  5
42E
100
AcDbEntity
  8
M0
100
AcDbCircle
 10
87.252573
 20
433.707784
 40
1.0
100
AcDbArc
 50
0.0
 51
90.0
  0
ARC
  5
42F
100
AcDbEntity
  8
M0
100
AcDbCircle
 10
130.246575
 20
357.158079
 40
0.3
100
AcDbArc
 50
90.0
 51
180.0
  0
ARC
  5
430
100
AcDbEntity
  8
M0
100
AcDbCircle
 10
130.702573
 20
359.707784
 40
2.25
100
AcDbArc
 50
270.928845
 51
451.752277
  0
ARC
  5
431
100
AcDbEntity
  8
M0
100
AcDbCircle
 10
68.952573
 20
433.707784
 40
1.0
100
AcDbArc
 50
90.0
 51
180.0
  0
ARC
  5
432
100
AcDbEntity
  8
M0
100
AcDbCircle
 10
69.652573
 20
433.707784
 40
1.0
100
AcDbArc
 50
0.0
 51
90.0
  0
ARC
  5
433
100
AcDbEntity
  8
M0
100
AcDbCircle
 10
103.152573
 20
433.707784
 40
1.0
100
AcDbArc
 50
90.0
 51
180.0
  0
ARC
  5
434
100
AcDbEntity
  8
M0
100
AcDbCircle
 10
120.752573
 20
433.707784
 40
1.0
100
AcDbArc
 50
90.0
 51
180.0
  0
LINE
  5
435
100
AcDbEntity
  8
M0
100
AcDbLine
 10
129.946575
 20
357.043595
 11
129.946575
 21
357.158081
  0
LINE
  5
436
100
AcDbEntity
  8
M0
100
AcDbLine
 10
126.954061
 20
359.789603
 11
126.954061
 21
359.757782
  0
LINE
  5
437
100
AcDbEntity
  8
M0
100
AcDbLine
 10
134.152573
 20
363.407784
 11
134.152573
 21
352.707782
  0
LINE
  5
438
100
AcDbEntity
  8
M0
100
AcDbLine
 10
85.052573
 20
416.607783
 11
87.752573
 21
416.607783
  0
LINE
  5
439
100
AcDbEntity
  8
M0
100
AcDbLine
 10
67.952574
 20
433.707784
 11
67.952574
 21
398.407784
  0
ARC
  5
43A
100
AcDbEntity
  8
M0
100
AcDbCircle
 10
104.852573
 20
433.707784
 40
1.0
100
AcDbArc
 50
0.0
 51
90.0
  0
LINE
  5
43B
100
AcDbEntity
  8
M0
100
AcDbLine
 10
86.002573
 20
398.307784
 11
87.502573
 21
396.807784
  0
LINE
  5
43C
100
AcDbEntity
  8
M0
100
AcDbLine
 10
68.952574
 20
390.707784
 11
67.952574
 21
390.707784
  0
LINE
  5
43D
100
AcDbEntity
  8
M0
100
AcDbLine
 10
121.452572
 20
369.507783
 11
68.952574
 21
369.507783
  0
LINE
  5
43E
100
AcDbEntity
  8
M0
100
AcDbLine
 10
89.652573
 20
382.707784
 11
100.752573
 21
382.707784
  0
LINE
  5
43F
100
AcDbEntity
  8
M0
100
AcDbLine
 10
100.752573
 20
385.007784
 11
89.652573
 21
385.007784
  0
LINE
  5
440
100
AcDbEntity
  8
M0
100
AcDbLine
 10
89.652573
 20
386.507784
 11
100.752573
 21
386.507784
  0
LINE
  5
441
100
AcDbEntity
  8
M0
100
AcDbLine
 10
68.452573
 20
385.007784
 11
68.952574
 21
385.007784
  0
LINE
  5
442
100
AcDbEntity
  8
M0
100
AcDbLine
 10
67.952574
 20
393.707784
 11
67.952574
 21
393.607784
  0
LINE
  5
443
100
AcDbEntity
  8
M0
100
AcDbLine
 10
67.952574
 20
390.807784
 11
67.952574
 21
390.707784
  0
LINE
  5
444
100
AcDbEntity
  8
M0
100
AcDbLine
 10
101.252573
 20
403.207784
 11
103.402573
 21
403.207784
  0
LINE
  5
445
100
AcDbEntity
  8
M0
100
AcDbLine
 10
86.002573
 20
402.207783
 11
86.002573
 21
381.87468
  0
LINE
  5
446
100
AcDbEntity
  8
M0
100
AcDbLine
 10
100.252573
 20
398.207784
 11
100.252573
 21
402.207783
  0
LINE
  5
447
100
AcDbEntity
  8
M0
100
AcDbLine
 10
90.152573
 20
398.207784
 11
90.152573
 21
402.207783
  0
LINE
  5
448
100
AcDbEntity
  8
M0
100
AcDbLine
 10
67.952574
 20
387.707784
 11
68.952574
 21
387.707784
  0
LINE
  5
449
100
AcDbEntity
  8
M0
100
AcDbLine
 10
100.752573
 20
395.457784
 11
100.752573
 21
397.707784
  0
LINE
  5
44A
100
AcDbEntity
  8
M0
100
AcDbLine
 10
103.402573
 20
381.207784
 11
101.752573
 21
381.207784
  0
LINE
  5
44B
100
AcDbEntity
  8
M0
100
AcDbLine
 10
104.402573
 20
398.307784
 11
102.902573
 21
396.807784
  0
LINE
  5
44C
100
AcDbEntity
  8
M0
100
AcDbLine
 10
89.652573
 20
397.707784
 11
89.652573
 21
395.457784
  0
LINE
  5
44D
100
AcDbEntity
  8
M0
100
AcDbLine
 10
121.452572
 20
385.007784
 11
121.952573
 21
385.007784
  0
LINE
  5
44E
100
AcDbEntity
  8
M0
100
AcDbLine
 10
104.402573
 20
402.207783
 11
104.402573
 21
382.207784
  0
LINE
  5
44F
100
AcDbEntity
  8
M0
100
AcDbLine
 10
87.002573
 20
385.707784
 11
87.502573
 21
385.707784
  0
LINE
  5
450
100
AcDbEntity
  8
M0
100
AcDbLine
 10
100.752573
 20
382.207784
 11
100.752573
 21
388.957784
  0
LINE
  5
451
100
AcDbEntity
  8
M0
100
AcDbLine
 10
69.652573
 20
414.907784
 11
69.652573
 21
415.107784
  0
LINE
  5
452
100
AcDbEntity
  8
M0
100
AcDbLine
 10
87.502573
 20
381.207784
 11
87.002573
 21
381.207784
  0
LINE
  5
453
100
AcDbEntity
  8
M0
100
AcDbLine
 10
100.752573
 20
388.957784
 11
101.002573
 21
389.457784
  0
LINE
  5
454
100
AcDbEntity
  8
M0
100
AcDbLine
 10
89.652573
 20
388.957784
 11
89.652573
 21
382.207784
  0
LINE
  5
455
100
AcDbEntity
  8
M0
100
AcDbLine
 10
89.402573
 20
389.457784
 11
89.652573
 21
388.957784
  0
ARC
  5
456
100
AcDbEntity
  8
M0
100
AcDbCircle
 10
131.152573
 20
352.707784
 40
3.0
100
AcDbArc
 50
270.0
 51
360.0
  0
ARC
  5
457
100
AcDbEntity
  8
M0
100
AcDbCircle
 10
129.202573
 20
359.707784
 40
2.25
100
AcDbArc
 50
89.957854
 51
177.916058
  0
ARC
  5
458
100
AcDbEntity
  8
M0
100
AcDbCircle
 10
59.752573
 20
352.707784
 40
3.0
100
AcDbArc
 50
180.0
 51
270.0
  0
LINE
  5
459
100
AcDbEntity
  8
M0
100
AcDbLine
 10
66.952574
 20
396.907784
 11
68.952574
 21
396.907784
  0
ARC
  5
45A
100
AcDbEntity
  8
M0
100
AcDbCircle
 10
58.552573
 20
411.307784
 40
1.0
100
AcDbArc
 50
0.0
 51
90.0
  0
LINE
  5
45B
100
AcDbEntity
  8
M0
100
AcDbLine
 10
101.752573
 20
381.207784
 11
88.652573
 21
381.207784
  0
LINE
  5
45C
100
AcDbEntity
  8
M0
100
AcDbLine
 10
102.902573
 20
396.807784
 11
102.902573
 21
385.707784
  0
LINE
  5
45D
100
AcDbEntity
  8
M0
100
AcDbLine
 10
88.652573
 20
381.207784
 11
87.002573
 21
381.207784
  0
LINE
  5
45E
100
AcDbEntity
  8
M0
100
AcDbLine
 10
102.902573
 20
381.207784
 11
103.402573
 21
381.207784
  0
LINE
  5
45F
100
AcDbEntity
  8
M0
100
AcDbLine
 10
88.502573
 20
403.207784
 11
87.002573
 21
403.207784
  0
LINE
  5
460
100
AcDbEntity
  8
M0
100
AcDbLine
 10
89.402573
 20
394.957784
 11
89.402573
 21
389.457784
  0
LINE
  5
461
100
AcDbEntity
  8
M0
100
AcDbLine
 10
101.002573
 20
394.957784
 11
100.752573
 21
395.457784
  0
ARC
  5
462
100
AcDbEntity
  8
M0
100
AcDbCircle
 10
126.654061
 20
359.757784
 40
0.3
100
AcDbArc
 50
270.0
 51
360.0
  0
LINE
  5
463
100
AcDbEntity
  8
M0
100
AcDbLine
 10
87.502573
 20
396.807784
 11
87.502573
 21
385.707784
  0
LINE
  5
464
100
AcDbEntity
  8
M0
100
AcDbLine
 10
101.002573
 20
389.457784
 11
101.002573
 21
394.957784
  0
LINE
  5
465
100
AcDbEntity
  8
M0
100
AcDbLine
 10
102.902573
 20
385.707784
 11
103.402573
 21
385.707784
  0
LINE
  5
466
100
AcDbEntity
  8
M0
100
AcDbLine
 10
89.652573
 20
395.457784
 11
89.402573
 21
394.957784
  0
LINE
  5
467
100
AcDbEntity
  8
M0
100
AcDbLine
 10
66.452573
 20
367.457784
 11
66.452573
 21
366.407783
  0
LINE
  5
468
100
AcDbEntity
  8
M0
100
AcDbLine
 10
60.452573
 20
366.407783
 11
60.452573
 21
367.457784
  0
LINE
  5
469
100
AcDbEntity
  8
M0
100
AcDbLine
 10
115.452573
 20
429.707785
 11
115.452573
 21
428.707783
  0
LINE
  5
46A
100
AcDbEntity
  8
M0
100
AcDbLine
 10
107.352573
 20
437.707783
 11
107.352573
 21
428.707783
  0
LINE
  5
46B
100
AcDbEntity
  8
M0
100
AcDbLine
 10
73.752573
 20
438.707785
 11
116.652573
 21
438.707785
  0
LINE
  5
46C
100
AcDbEntity
  8
M0
100
AcDbLine
 10
130.852573
 20
409.407784
 11
123.052573
 21
409.407784
  0
LINE
  5
46D
100
AcDbEntity
  8
M0
100
AcDbLine
 10
105.852573
 20
437.207785
 11
84.552574
 21
437.207785
  0
LINE
  5
46E
100
AcDbEntity
  8
M0
100
AcDbLine
 10
67.352573
 20
409.407784
 11
59.552573
 21
409.407784
  0
LINE
  5
46F
100
AcDbEntity
  8
M0
100
AcDbLine
 10
66.452573
 20
366.407783
 11
60.452573
 21
366.407783
  0
LINE
  5
470
100
AcDbEntity
  8
M0
100
AcDbLine
 10
101.902573
 20
403.207784
 11
103.402573
 21
403.207784
  0
ARC
  5
471
100
AcDbEntity
  8
M0
100
AcDbCircle
 10
88.652573
 20
382.207784
 40
1.0
100
AcDbArc
 50
270.0
 51
360.0
  0
ARC
  5
472
100
AcDbEntity
  8
M0
100
AcDbCircle
 10
101.752573
 20
382.207784
 40
1.0
100
AcDbArc
 50
180.0
 51
270.0
  0
ARC
  5
473
100
AcDbEntity
  8
M0
100
AcDbCircle
 10
121.452573
 20
370.507784
 40
1.0
100
AcDbArc
 50
270.0
 51
360.0
  0
ARC
  5
474
100
AcDbEntity
  8
M0
100
AcDbCircle
 10
103.402573
 20
382.207784
 40
1.0
100
AcDbArc
 50
270.0
 51
360.0
  0
ARC
  5
475
100
AcDbEntity
  8
M0
100
AcDbCircle
 10
87.002573
 20
382.207784
 40
1.0
100
AcDbArc
 50
180.0
 51
270.0
  0
ARC
  5
476
100
AcDbEntity
  8
M0
100
AcDbCircle
 10
68.452573
 20
384.507784
 40
0.5
100
AcDbArc
 50
90.0
 51
180.0
  0
ARC
  5
477
100
AcDbEntity
  8
M0
100
AcDbCircle
 10
103.402573
 20
402.207784
 40
1.0
100
AcDbArc
 50
0.0
 51
90.0
  0
ARC
  5
478
100
AcDbEntity
  8
M0
100
AcDbCircle
 10
89.652573
 20
398.207784
 40
0.5
100
AcDbArc
 50
270.0
 51
360.0
  0
ARC
  5
479
100
AcDbEntity
  8
M0
100
AcDbCircle
 10
87.002573
 20
402.207784
 40
1.0
100
AcDbArc
 50
90.0
 51
180.0
  0
ARC
  5
47A
100
AcDbEntity
  8
M0
100
AcDbCircle
 10
68.952573
 20
370.507784
 40
1.0
100
AcDbArc
 50
180.0
 51
270.0
  0
ARC
  5
47B
100
AcDbEntity
  8
M0
100
AcDbCircle
 10
87.002573
 20
384.707784
 40
1.0
100
AcDbArc
 50
90.0
 51
180.0
  0
LINE
  5
47C
100
AcDbEntity
  8
M0
100
AcDbLine
 10
112.752574
 20
438.207784
 11
112.752574
 21
437.207785
  0
LINE
  5
47D
100
AcDbEntity
  8
M0
100
AcDbLine
 10
105.852573
 20
414.907784
 11
105.852573
 21
437.207785
  0
ARC
  5
47E
100
AcDbEntity
  8
M0
100
AcDbCircle
 10
121.952573
 20
384.507784
 40
0.5
100
AcDbArc
 50
0.0
 51
90.0
  0
LINE
  5
47F
100
AcDbEntity
  8
M0
100
AcDbLine
 10
74.952573
 20
428.707783
 11
74.952573
 21
429.707785
  0
LINE
  5
480
100
AcDbEntity
  8
M0
100
AcDbLine
 10
83.052573
 20
428.707783
 11
83.052573
 21
437.707783
  0
LINE
  5
481
100
AcDbEntity
  8
M0
100
AcDbLine
 10
77.652572
 20
437.207785
 11
77.652572
 21
438.207784
  0
LINE
  5
482
100
AcDbEntity
  8
M0
100
AcDbLine
 10
60.452573
 20
418.007785
 11
66.452573
 21
418.007785
  0
LINE
  5
483
100
AcDbEntity
  8
M0
100
AcDbLine
 10
66.452573
 20
418.007785
 11
66.452573
 21
416.957784
  0
LINE
  5
484
100
AcDbEntity
  8
M0
100
AcDbLine
 10
60.452573
 20
416.957784
 11
60.452573
 21
418.007785
  0
LINE
  5
485
100
AcDbEntity
  8
M0
100
AcDbLine
 10
123.952574
 20
418.007785
 11
129.952573
 21
418.007785
  0
LINE
  5
486
100
AcDbEntity
  8
M0
100
AcDbLine
 10
129.952573
 20
418.007785
 11
129.952573
 21
416.957784
  0
LINE
  5
487
100
AcDbEntity
  8
M0
100
AcDbLine
 10
59.705079
 20
416.507783
 11
59.552573
 21
416.507783
  0
LINE
  5
488
100
AcDbEntity
  8
M0
100
AcDbLine
 10
123.952574
 20
416.957784
 11
123.952574
 21
418.007785
  0
ARC
  5
489
100
AcDbEntity
  8
M0
100
AcDbCircle
 10
114.952573
 20
429.707784
 40
0.5
100
AcDbArc
 50
0.0
 51
66.421822
  0
ARC
  5
48A
100
AcDbEntity
  8
M0
100
AcDbCircle
 10
106.352573
 20
437.707784
 40
1.0
100
AcDbArc
 50
0.0
 51
90.0
  0
LINE
  5
48B
100
AcDbEntity
  8
M0
100
AcDbLine
 10
104.852574
 20
349.707783
 11
104.352577
 21
349.707783
  0
ARC
  5
48C
100
AcDbEntity
  8
M0
100
AcDbCircle
 10
78.152573
 20
438.207784
 40
0.5
100
AcDbArc
 50
90.0
 51
180.0
  0
ARC
  5
48D
100
AcDbEntity
  8
M0
100
AcDbCircle
 10
75.452573
 20
429.707784
 40
0.5
100
AcDbArc
 50
113.578178
 51
180.0
  0
ARC
  5
48E
100
AcDbEntity
  8
M0
100
AcDbCircle
 10
112.252573
 20
438.207784
 40
0.5
100
AcDbArc
 50
0.0
 51
90.0
  0
ARC
  5
48F
100
AcDbEntity
  8
M0
100
AcDbCircle
 10
84.052573
 20
437.707784
 40
1.0
100
AcDbArc
 50
90.0
 51
180.0
  0
LINE
  5
490
100
AcDbEntity
  8
M0
100
AcDbLine
 10
104.352577
 20
349.707783
 11
103.152574
 21
349.707783
  0
LINE
  5
491
100
AcDbEntity
  8
M0
100
AcDbLine
 10
119.752573
 20
350.707785
 11
119.752573
 21
354.707782
  0
LINE
  5
492
100
AcDbEntity
  8
M0
100
AcDbLine
 10
70.652573
 20
350.707785
 11
70.652573
 21
354.707782
  0
LINE
  5
493
100
AcDbEntity
  8
M0
100
AcDbLine
 10
123.452573
 20
390.807784
 11
121.752574
 21
390.807784
  0
LINE
  5
494
100
AcDbEntity
  8
M0
100
AcDbLine
 10
88.252573
 20
415.107784
 11
84.552574
 21
415.107784
  0
LINE
  5
495
100
AcDbEntity
  8
M0
100
AcDbLine
 10
105.852573
 20
354.707782
 11
105.852573
 21
350.707785
  0
LINE
  5
496
100
AcDbEntity
  8
M0
100
AcDbLine
 10
121.752574
 20
393.607784
 11
123.452573
 21
393.607784
  0
LINE
  5
497
100
AcDbEntity
  8
M0
100
AcDbLine
 10
102.152573
 20
415.107784
 11
105.852573
 21
415.107784
  0
LINE
  5
498
100
AcDbEntity
  8
M0
100
AcDbLine
 10
84.552574
 20
369.507783
 11
84.552574
 21
350.707785
  0
LINE
  5
499
100
AcDbEntity
  8
M0
100
AcDbLine
 10
68.652573
 20
390.807784
 11
68.652573
 21
393.607784
  0
LINE
  5
49A
100
AcDbEntity
  8
M0
100
AcDbLine
 10
121.752574
 20
390.807784
 11
121.752574
 21
393.607784
  0
LINE
  5
49B
100
AcDbEntity
  8
M0
100
AcDbLine
 10
84.552574
 20
369.307783
 11
88.252573
 21
369.307783
  0
LINE
  5
49C
100
AcDbEntity
  8
M0
100
AcDbLine
 10
105.852573
 20
369.307783
 11
102.152573
 21
369.307783
  0
LINE
  5
49D
100
AcDbEntity
  8
M0
100
AcDbLine
 10
102.152573
 20
369.507783
 11
102.152573
 21
367.307783
  0
LINE
  5
49E
100
AcDbEntity
  8
M0
100
AcDbLine
 10
105.852573
 20
367.307783
 11
105.852573
 21
369.507783
  0
LINE
  5
49F
100
AcDbEntity
  8
M0
100
AcDbLine
 10
131.852571
 20
412.307783
 11
132.652574
 21
412.307783
  0
LINE
  5
4A0
100
AcDbEntity
  8
M0
100
AcDbLine
 10
131.852571
 20
395.907784
 11
132.652574
 21
395.907784
  0
LINE
  5
4A1
100
AcDbEntity
  8
M0
100
AcDbLine
 10
59.552573
 20
375.007783
 11
67.352573
 21
375.007783
  0
ARC
  5
4A2
100
AcDbEntity
  8
M0
100
AcDbCircle
 10
57.752573
 20
387.507784
 40
1.0
100
AcDbArc
 50
90.0
 51
180.0
  0
CIRCLE
  5
4A3
100
AcDbEntity
  8
M0
100
AcDbCircle
 10
95.202573
 20
432.507784
 40
2.85
  0
ARC
  5
4A4
100
AcDbEntity
  8
M0
100
AcDbCircle
 10
57.752573
 20
396.907784
 40
1.0
100
AcDbArc
 50
180.0
 51
270.0
  0
CIRCLE
  5
4A5
100
AcDbEntity
  8
M0
100
AcDbCircle
 10
95.202573
 20
432.507784
 40
2.825
  0
ARC
  5
4A6
100
AcDbEntity
  8
M0
100
AcDbCircle
 10
132.652573
 20
387.507784
 40
1.0
100
AcDbArc
 50
0.0
 51
90.0
  0
ARC
  5
4A7
100
AcDbEntity
  8
M0
100
AcDbCircle
 10
100.752573
 20
398.207784
 40
0.5
100
AcDbArc
 50
180.0
 51
270.0
  0
ARC
  5
4A8
100
AcDbEntity
  8
M0
100
AcDbCircle
 10
103.402573
 20
384.707784
 40
1.0
100
AcDbArc
 50
0.0
 51
90.0
  0
ARC
  5
4A9
100
AcDbEntity
  8
M0
100
AcDbCircle
 10
89.152573
 20
402.207784
 40
1.0
100
AcDbArc
 50
0.0
 51
90.0
  0
ARC
  5
4AA
100
AcDbEntity
  8
M0
100
AcDbCircle
 10
101.252573
 20
402.207784
 40
1.0
100
AcDbArc
 50
90.0
 51
180.0
  0
LINE
  5
4AB
100
AcDbEntity
  8
M0
100
AcDbLine
 10
58.552575
 20
412.307783
 11
57.752572
 21
412.307783
  0
LINE
  5
4AC
100
AcDbEntity
  8
M0
100
AcDbLine
 10
63.052573
 20
395.907784
 11
57.752572
 21
395.907784
  0
LINE
  5
4AD
100
AcDbEntity
  8
M0
100
AcDbLine
 10
130.852573
 20
418.557784
 11
130.852573
 21
396.907784
  0
LINE
  5
4AE
100
AcDbEntity
  8
M0
100
AcDbLine
 10
132.652574
 20
388.507784
 11
131.852571
 21
388.507784
  0
LINE
  5
4AF
100
AcDbEntity
  8
M0
  6
DASHDOT
100
AcDbLine
 10
77.102573
 20
362.707784
 11
78.102573
 21
362.707784
  0
LINE
  5
4B0
100
AcDbEntity
  8
M0
  6
DASHDOT
100
AcDbLine
 10
77.602573
 20
362.207784
 11
77.602573
 21
363.207784
  0
LINE
  5
4B1
100
AcDbEntity
  8
M0
  6
DASHDOT
100
AcDbLine
 10
112.302573
 20
362.707784
 11
113.302573
 21
362.707784
  0
LINE
  5
4B2
100
AcDbEntity
  8
M0
  6
DASHDOT
100
AcDbLine
 10
112.802573
 20
362.207784
 11
112.802573
 21
363.207784
  0
LINE
  5
4B3
100
AcDbEntity
  8
M0
  6
DASHDOT
100
AcDbLine
 10
94.702573
 20
362.707784
 11
95.702573
 21
362.707784
  0
LINE
  5
4B4
100
AcDbEntity
  8
M0
  6
DASHDOT
100
AcDbLine
 10
95.202573
 20
362.207784
 11
95.202573
 21
363.207784
  0
LINE
  5
4B5
100
AcDbEntity
  8
M0
100
AcDbLine
 10
67.202573
 20
408.857784
 11
67.202573
 21
402.357784
  0
LINE
  5
4B6
100
AcDbEntity
  8
M0
  6
DASHDOT
100
AcDbLine
 10
94.702573
 20
421.707784
 11
95.702573
 21
421.707784
  0
LINE
  5
4B7
100
AcDbEntity
  8
M0
  6
DASHDOT
100
AcDbLine
 10
95.202573
 20
422.207784
 11
95.202573
 21
421.207784
  0
LINE
  5
4B8
100
AcDbEntity
  8
M0
  6
DASHDOT
100
AcDbLine
 10
112.802573
 20
422.207784
 11
112.802573
 21
421.207784
  0
LINE
  5
4B9
100
AcDbEntity
  8
M0
  6
DASHDOT
100
AcDbLine
 10
77.602573
 20
422.207784
 11
77.602573
 21
421.207784
  0
LINE
  5
4BA
100
AcDbEntity
  8
M0
  6
DASHDOT
100
AcDbLine
 10
112.302573
 20
421.707784
 11
113.302573
 21
421.707784
  0
LINE
  5
4BB
100
AcDbEntity
  8
M0
  6
DASHDOT
100
AcDbLine
 10
77.102573
 20
421.707784
 11
78.102573
 21
421.707784
  0
ARC
  5
4BC
100
AcDbEntity
  8
M0
100
AcDbCircle
 10
116.652573
 20
437.707784
 40
1.0
100
AcDbArc
 50
90.0
 51
180.0
  0
ARC
  5
4BD
100
AcDbEntity
  8
M0
100
AcDbCircle
 10
116.652573
 20
437.707784
 40
1.0
100
AcDbArc
 50
0.0
 51
90.0
  0
LINE
  5
4BE
100
AcDbEntity
  8
M0
100
AcDbLine
 10
115.652573
 20
428.707783
 11
115.652573
 21
437.707784
  0
LINE
  5
4BF
100
AcDbEntity
  8
M0
100
AcDbLine
 10
117.652573
 20
428.707783
 11
117.652573
 21
437.707783
  0
CIRCLE
  5
4C0
100
AcDbEntity
  8
M0
100
AcDbCircle
 10
77.602573
 20
421.707815
 40
4.499996
  0
LINE
  5
4C1
100
AcDbEntity
  8
M0
100
AcDbLine
 10
78.069477
 20
423.588949
 11
75.7215
 21
421.240957
  0
LINE
  5
4C2
100
AcDbEntity
  8
M0
100
AcDbLine
 10
79.483677
 20
422.174734
 11
77.1357
 21
419.826742
  0
LINE
  5
4C3
100
AcDbEntity
  8
M0
100
AcDbLine
 10
75.533619
 20
423.776723
 11
79.796589
 21
419.513784
  0
CIRCLE
  5
4C4
100
AcDbEntity
  8
M0
100
AcDbCircle
 10
95.202573
 20
421.707815
 40
4.499996
  0
LINE
  5
4C5
100
AcDbEntity
  8
M0
100
AcDbLine
 10
95.669477
 20
423.588949
 11
93.3215
 21
421.240957
  0
LINE
  5
4C6
100
AcDbEntity
  8
M0
100
AcDbLine
 10
97.083677
 20
422.174734
 11
94.7357
 21
419.826742
  0
LINE
  5
4C7
100
AcDbEntity
  8
M0
100
AcDbLine
 10
93.133619
 20
423.776723
 11
97.396589
 21
419.513784
  0
CIRCLE
  5
4C8
100
AcDbEntity
  8
M0
100
AcDbCircle
 10
112.802573
 20
421.707815
 40
4.499996
  0
LINE
  5
4C9
100
AcDbEntity
  8
M0
100
AcDbLine
 10
113.269477
 20
423.588949
 11
110.9215
 21
421.240957
  0
LINE
  5
4CA
100
AcDbEntity
  8
M0
100
AcDbLine
 10
114.683677
 20
422.174734
 11
112.3357
 21
419.826742
  0
LINE
  5
4CB
100
AcDbEntity
  8
M0
100
AcDbLine
 10
110.733619
 20
423.776723
 11
114.996589
 21
419.513784
  0
CIRCLE
  5
4CC
100
AcDbEntity
  8
M0
100
AcDbCircle
 10
79.252573
 20
432.807784
 40
3.0
  0
LINE
  5
4CD
100
AcDbEntity
  8
M0
100
AcDbLine
 10
79.605852
 20
434.222144
 11
77.838274
 21
432.454444
  0
LINE
  5
4CE
100
AcDbEntity
  8
M0
100
AcDbLine
 10
80.666399
 20
433.161475
 11
78.898821
 21
431.393897
  0
LINE
  5
4CF
100
AcDbEntity
  8
M0
100
AcDbLine
 10
80.843157
 20
431.217139
 11
77.661516
 21
434.398902
  0
LINE
  5
4D0
100
AcDbEntity
  8
M0
  6
DASHDOT
100
AcDbLine
 10
62.952573
 20
413.207784
 11
63.952573
 21
413.207784
  0
LINE
  5
4D1
100
AcDbEntity
  8
M0
  6
DASHDOT
100
AcDbLine
 10
63.452573
 20
412.707784
 11
63.452573
 21
413.707784
  0
CIRCLE
  5
4D2
100
AcDbEntity
  8
M0
100
AcDbCircle
 10
111.15257
 20
432.807787
 40
3.0
  0
LINE
  5
4D3
100
AcDbEntity
  8
M0
100
AcDbLine
 10
111.505849
 20
434.222147
 11
109.738271
 21
432.454447
  0
LINE
  5
4D4
100
AcDbEntity
  8
M0
100
AcDbLine
 10
112.566396
 20
433.161479
 11
110.798818
 21
431.3939
  0
LINE
  5
4D5
100
AcDbEntity
  8
M0
100
AcDbLine
 10
112.743154
 20
431.217143
 11
109.561513
 21
434.398905
  0
CIRCLE
  5
4D6
100
AcDbEntity
  8
M0
100
AcDbCircle
 10
63.452572
 20
413.207785
 40
3.0
  0
LINE
  5
4D7
100
AcDbEntity
  8
M0
100
AcDbLine
 10
63.805851
 20
414.622145
 11
62.038273
 21
412.854445
  0
LINE
  5
4D8
100
AcDbEntity
  8
M0
100
AcDbLine
 10
64.866398
 20
413.561476
 11
63.09882
 21
411.793898
  0
LINE
  5
4D9
100
AcDbEntity
  8
M0
100
AcDbLine
 10
65.043156
 20
411.617141
 11
61.861515
 21
414.798903
  0
CIRCLE
  5
4DA
100
AcDbEntity
  8
M0
100
AcDbCircle
 10
63.452572
 20
405.607785
 40
3.0
  0
LINE
  5
4DB
100
AcDbEntity
  8
M0
100
AcDbLine
 10
63.805851
 20
407.022145
 11
62.038273
 21
405.254445
  0
LINE
  5
4DC
100
AcDbEntity
  8
M0
100
AcDbLine
 10
64.866398
 20
405.961476
 11
63.09882
 21
404.193898
  0
LINE
  5
4DD
100
AcDbEntity
  8
M0
100
AcDbLine
 10
65.043156
 20
404.01714
 11
61.861515
 21
407.198903
  0
CIRCLE
  5
4DE
100
AcDbEntity
  8
M0
100
AcDbCircle
 10
63.452572
 20
378.807782
 40
3.0
  0
CIRCLE
  5
4DF
100
AcDbEntity
  8
M0
100
AcDbCircle
 10
63.452572
 20
371.207782
 40
3.0
  0
LINE
  5
4E0
100
AcDbEntity
  8
M0
100
AcDbLine
 10
63.805851
 20
372.622145
 11
62.038273
 21
370.854445
  0
LINE
  5
4E1
100
AcDbEntity
  8
M0
100
AcDbLine
 10
64.866398
 20
371.561476
 11
63.09882
 21
369.793898
  0
LINE
  5
4E2
100
AcDbEntity
  8
M0
100
AcDbLine
 10
65.043156
 20
369.61714
 11
61.861515
 21
372.798903
  0
LINE
  5
4E3
100
AcDbEntity
  8
M0
100
AcDbLine
 10
64.866398
 20
379.161476
 11
63.09882
 21
377.393898
  0
LINE
  5
4E4
100
AcDbEntity
  8
M0
100
AcDbLine
 10
63.805851
 20
380.222145
 11
62.038273
 21
378.454445
  0
LINE
  5
4E5
100
AcDbEntity
  8
M0
100
AcDbLine
 10
65.043156
 20
377.21714
 11
61.861515
 21
380.398903
  0
CIRCLE
  5
4E6
100
AcDbEntity
  8
M0
100
AcDbCircle
 10
126.952574
 20
413.207785
 40
3.0
  0
LINE
  5
4E7
100
AcDbEntity
  8
M0
100
AcDbLine
 10
128.3664
 20
413.561476
 11
126.598822
 21
411.793898
  0
LINE
  5
4E8
100
AcDbEntity
  8
M0
100
AcDbLine
 10
128.543158
 20
411.617141
 11
125.361517
 21
414.798903
  0
LINE
  5
4E9
100
AcDbEntity
  8
M0
100
AcDbLine
 10
127.305853
 20
414.622145
 11
125.538275
 21
412.854445
  0
CIRCLE
  5
4EA
100
AcDbEntity
  8
M0
100
AcDbCircle
 10
126.952574
 20
405.607785
 40
3.0
  0
LINE
  5
4EB
100
AcDbEntity
  8
M0
100
AcDbLine
 10
128.543158
 20
404.01714
 11
125.361517
 21
407.198903
  0
LINE
  5
4EC
100
AcDbEntity
  8
M0
100
AcDbLine
 10
127.305853
 20
407.022145
 11
125.538275
 21
405.254445
  0
LINE
  5
4ED
100
AcDbEntity
  8
M0
100
AcDbLine
 10
128.3664
 20
405.961476
 11
126.598822
 21
404.193898
  0
CIRCLE
  5
4EE
100
AcDbEntity
  8
M0
100
AcDbCircle
 10
126.952574
 20
378.807782
 40
3.0
  0
LINE
  5
4EF
100
AcDbEntity
  8
M0
100
AcDbLine
 10
127.305853
 20
380.222145
 11
125.538275
 21
378.454445
  0
LINE
  5
4F0
100
AcDbEntity
  8
M0
100
AcDbLine
 10
128.3664
 20
379.161476
 11
126.598822
 21
377.393898
  0
LINE
  5
4F1
100
AcDbEntity
  8
M0
100
AcDbLine
 10
128.543158
 20
377.21714
 11
125.361517
 21
380.398903
  0
CIRCLE
  5
4F2
100
AcDbEntity
  8
M0
100
AcDbCircle
 10
126.952574
 20
371.207782
 40
3.0
  0
LINE
  5
4F3
100
AcDbEntity
  8
M0
100
AcDbLine
 10
128.543158
 20
369.61714
 11
125.361517
 21
372.798903
  0
LINE
  5
4F4
100
AcDbEntity
  8
M0
100
AcDbLine
 10
127.305853
 20
372.622145
 11
125.538275
 21
370.854445
  0
LINE
  5
4F5
100
AcDbEntity
  8
M0
100
AcDbLine
 10
128.3664
 20
371.561476
 11
126.598822
 21
369.793898
  0
CIRCLE
  5
4F6
100
AcDbEntity
  8
M0
100
AcDbCircle
 10
77.602573
 20
362.707753
 40
4.499996
  0
CIRCLE
  5
4F7
100
AcDbEntity
  8
M0
100
AcDbCircle
 10
95.202573
 20
362.707753
 40
4.499996
  0
CIRCLE
  5
4F8
100
AcDbEntity
  8
M0
100
AcDbCircle
 10
112.802573
 20
362.707753
 40
4.499996
  0
LINE
  5
4F9
100
AcDbEntity
  8
M0
100
AcDbLine
 10
78.069477
 20
364.588949
 11
75.7215
 21
362.240957
  0
LINE
  5
4FA
100
AcDbEntity
  8
M0
100
AcDbLine
 10
79.483677
 20
363.174734
 11
77.1357
 21
360.826742
  0
LINE
  5
4FB
100
AcDbEntity
  8
M0
100
AcDbLine
 10
75.533619
 20
364.776723
 11
79.796589
 21
360.513784
  0
LINE
  5
4FC
100
AcDbEntity
  8
M0
100
AcDbLine
 10
95.669477
 20
364.588949
 11
93.3215
 21
362.240957
  0
LINE
  5
4FD
100
AcDbEntity
  8
M0
100
AcDbLine
 10
97.083677
 20
363.174734
 11
94.7357
 21
360.826742
  0
LINE
  5
4FE
100
AcDbEntity
  8
M0
100
AcDbLine
 10
93.133619
 20
364.776723
 11
97.396589
 21
360.513784
  0
LINE
  5
4FF
100
AcDbEntity
  8
M0
100
AcDbLine
 10
113.269477
 20
364.588949
 11
110.9215
 21
362.240957
  0
LINE
  5
500
100
AcDbEntity
  8
M0
100
AcDbLine
 10
114.683677
 20
363.174734
 11
112.3357
 21
360.826742
  0
LINE
  5
501
100
AcDbEntity
  8
M0
100
AcDbLine
 10
110.733619
 20
364.776723
 11
114.996589
 21
360.513784
  0
LINE
  5
502
100
AcDbEntity
  8
M0
  6
DASHED
100
AcDbLine
 10
44.252577
 20
421.907784
 11
44.252577
 21
362.507784
  0
LINE
  5
503
100
AcDbEntity
  8
M0
  6
DASHED
100
AcDbLine
 10
44.252577
 20
421.907784
 11
56.752577
 21
421.907784
  0
LINE
  5
504
100
AcDbEntity
  8
M0
  6
DASHED
100
AcDbLine
 10
44.252577
 20
362.507784
 11
56.752577
 21
362.507784
  0
LINE
  5
505
100
AcDbEntity
  8
M0
  6
DASHED
100
AcDbLine
 10
146.152569
 20
421.907784
 11
146.152569
 21
362.507784
  0
LINE
  5
506
100
AcDbEntity
  8
M0
  6
DASHED
100
AcDbLine
 10
146.152569
 20
421.907784
 11
133.652569
 21
421.907784
  0
LINE
  5
507
100
AcDbEntity
  8
M0
  6
DASHED
100
AcDbLine
 10
146.152569
 20
362.507784
 11
133.652569
 21
362.507784
  0
CIRCLE
  5
508
100
AcDbEntity
  8
M0
100
AcDbCircle
 10
95.202573
 20
362.707784
 40
5.0
  0
CIRCLE
  5
509
100
AcDbEntity
  8
M0
100
AcDbCircle
 10
112.802573
 20
362.707784
 40
5.0
  0
CIRCLE
  5
50A
100
AcDbEntity
  8
M0
100
AcDbCircle
 10
77.602573
 20
362.707784
 40
5.0
  0
CIRCLE
  5
50B
100
AcDbEntity
  8
M0
100
AcDbCircle
 10
77.602573
 20
421.707784
 40
5.0
  0
CIRCLE
  5
50C
100
AcDbEntity
  8
M0
100
AcDbCircle
 10
95.202573
 20
421.707784
 40
5.0
  0
CIRCLE
  5
50D
100
AcDbEntity
  8
M0
100
AcDbCircle
 10
112.802573
 20
421.707784
 40
5.0
  0
ARC
  5
50E
100
AcDbEntity
  8
M0
100
AcDbCircle
 10
112.552573
 20
352.707784
 40
2.825
100
AcDbArc
 50
147.029184
 51
220.262187
  0
ARC
  5
50F
100
AcDbEntity
  8
M0
100
AcDbCircle
 10
112.552573
 20
352.707784
 40
2.85
100
AcDbArc
 50
146.446983
 51
220.780622
  0
LINE
  5
510
100
AcDbEntity
  8
M0
100
AcDbLine
 10
110.080729
 20
349.707783
 11
107.302573
 21
349.707783
  0
LINE
  5
511
100
AcDbEntity
  8
M0
100
AcDbLine
 10
72.717823
 20
349.707783
 11
59.752573
 21
349.707783
  0
ARC
  5
512
100
AcDbEntity
  8
M0
100
AcDbCircle
 10
77.852573
 20
352.707784
 40
2.85
100
AcDbArc
 50
318.236176
 51
393.553017
  0
ARC
  5
513
100
AcDbEntity
  8
M0
100
AcDbCircle
 10
77.852573
 20
352.707784
 40
2.825
100
AcDbArc
 50
318.895617
 51
392.970816
  0
LINE
  5
514
100
AcDbEntity
  8
M0
 62
     2
100
AcDbLine
 10
94.50666
 20
342.707784
 11
86.858164
 21
342.707784
  0
LINE
  5
515
100
AcDbEntity
  8
M0
 62
     2
100
AcDbLine
 10
90.130053
 20
347.707784
 11
97.765852
 21
347.707784
  0
ARC
  5
516
100
AcDbEntity
  8
M0
 62
     2
100
AcDbCircle
 10
91.202573
 20
366.707784
 40
1.0
100
AcDbArc
 50
90.0
 51
180.0
  0
ARC
  5
517
100
AcDbEntity
  8
M0
 62
     2
100
AcDbCircle
 10
99.202573
 20
366.707784
 40
1.0
100
AcDbArc
 50
0.0
 51
90.0
  0
LINE
  5
518
100
AcDbEntity
  8
M0
 62
     2
100
AcDbLine
 10
99.202573
 20
367.707784
 11
91.202573
 21
367.707784
  0
LINE
  5
519
100
AcDbEntity
  8
M0
 62
     2
100
AcDbLine
 10
90.202573
 20
357.367195
 11
90.202573
 21
366.707784
  0
LINE
  5
51A
100
AcDbEntity
  8
M0
 62
     2
100
AcDbLine
 10
100.202573
 20
357.367195
 11
100.202573
 21
366.707784
  0
ARC
  5
51B
100
AcDbEntity
  8
M0
 62
     2
100
AcDbCircle
 10
91.202573
 20
357.367195
 40
1.0
100
AcDbArc
 50
180.0
 51
240.940719
  0
LINE
  5
51C
100
AcDbEntity
  8
M0
 62
     2
100
AcDbLine
 10
81.752573
 20
332.411914
 11
81.752573
 21
323.707784
  0
LINE
  5
51D
100
AcDbEntity
  8
M0
 62
     2
100
AcDbLine
 10
82.752573
 20
322.707784
 11
91.752573
 21
322.707784
  0
LINE
  5
51E
100
AcDbEntity
  8
M0
 62
     2
100
AcDbLine
 10
84.542276
 20
339.168716
 11
91.51287
 21
349.820962
  0
LINE
  5
51F
100
AcDbEntity
  8
M0
 62
     2
100
AcDbLine
 10
84.052573
 20
337.526033
 11
84.052573
 21
335.699771
  0
LINE
  5
520
100
AcDbEntity
  8
M0
 62
     2
100
AcDbLine
 10
90.942276
 20
337.260802
 11
97.91287
 21
347.913049
  0
LINE
  5
521
100
AcDbEntity
  8
M0
 62
     2
100
AcDbLine
 10
98.402573
 20
349.555732
 11
98.402573
 21
354.307784
  0
LINE
  5
522
100
AcDbEntity
  8
M0
 62
     2
100
AcDbLine
 10
92.002573
 20
351.463645
 11
92.002573
 21
354.307784
  0
LINE
  5
523
100
AcDbEntity
  8
M0
 62
     2
100
AcDbLine
 10
90.452573
 20
335.618119
 11
90.452573
 21
335.699771
  0
LINE
  5
524
100
AcDbEntity
  8
M0
 62
     2
100
AcDbLine
 10
92.752573
 20
323.707784
 11
92.752573
 21
332.411914
  0
ARC
  5
525
100
AcDbEntity
  8
M0
 62
     2
100
AcDbCircle
 10
91.752573
 20
332.411914
 40
1.0
100
AcDbArc
 50
0.0
 51
69.948957
  0
ARC
  5
526
100
AcDbEntity
  8
M0
 62
     2
100
AcDbCircle
 10
89.502573
 20
354.307784
 40
2.5
100
AcDbArc
 50
0.0
 51
60.940719
  0
ARC
  5
527
100
AcDbEntity
  8
M0
 62
     2
100
AcDbCircle
 10
100.902573
 20
354.307784
 40
2.5
100
AcDbArc
 50
119.059281
 51
180.0
  0
ARC
  5
528
100
AcDbEntity
  8
M0
 62
     2
100
AcDbCircle
 10
99.202573
 20
357.367195
 40
1.0
100
AcDbArc
 50
299.059281
 51
360.0
  0
ARC
  5
529
100
AcDbEntity
  8
M0
 62
     2
100
AcDbCircle
 10
81.552573
 20
335.699771
 40
2.5
100
AcDbArc
 50
290.051043
 51
360.0
  0
ARC
  5
52A
100
AcDbEntity
  8
M0
 62
     2
100
AcDbCircle
 10
92.952573
 20
335.699771
 40
2.5
100
AcDbArc
 50
180.0
 51
249.948957
  0
ARC
  5
52B
100
AcDbEntity
  8
M0
 62
     2
100
AcDbCircle
 10
82.752573
 20
332.411914
 40
1.0
100
AcDbArc
 50
110.051043
 51
180.0
  0
ARC
  5
52C
100
AcDbEntity
  8
M0
 62
     2
100
AcDbCircle
 10
87.052573
 20
337.526033
 40
3.0
100
AcDbArc
 50
146.800152
 51
180.0
  0
ARC
  5
52D
100
AcDbEntity
  8
M0
 62
     2
100
AcDbCircle
 10
93.452573
 20
335.618119
 40
3.0
100
AcDbArc
 50
146.800152
 51
180.0
  0
ARC
  5
52E
100
AcDbEntity
  8
M0
 62
     2
100
AcDbCircle
 10
95.402573
 20
349.555732
 40
3.0
100
AcDbArc
 50
326.800152
 51
360.0
  0
ARC
  5
52F
100
AcDbEntity
  8
M0
 62
     2
100
AcDbCircle
 10
89.002573
 20
351.463645
 40
3.0
100
AcDbArc
 50
326.800152
 51
360.0
  0
ARC
  5
530
100
AcDbEntity
  8
M0
 62
     2
100
AcDbCircle
 10
82.752573
 20
323.707784
 40
1.0
100
AcDbArc
 50
180.0
 51
270.0
  0
ARC
  5
531
100
AcDbEntity
  8
M0
 62
     2
100
AcDbCircle
 10
91.752573
 20
323.707784
 40
1.0
100
AcDbArc
 50
270.0
 51
360.0
  0
LINE
  5
532
100
AcDbEntity
  8
M0
  6
DASHED
 62
     6
100
AcDbLine
 10
235.712043
 20
315.207783
 11
235.712043
 21
316.407783
  0
LINE
  5
533
100
AcDbEntity
  8
M0
  6
DASHED
 62
     6
100
AcDbLine
 10
229.212043
 20
316.407783
 11
235.712043
 21
316.407783
  0
LINE
  5
534
100
AcDbEntity
  8
M0
 62
     6
100
AcDbLine
 10
235.712045
 20
315.207778
 11
239.537408
 21
300.931326
  0
LINE
  5
535
100
AcDbEntity
  8
M0
 62
     6
100
AcDbLine
 10
242.712043
 20
315.207783
 11
245.73356
 21
303.931326
  0
LINE
  5
536
100
AcDbEntity
  8
M0
 62
     6
100
AcDbLine
 10
241.712043
 20
315.207783
 11
241.712043
 21
336.207783
  0
LINE
  5
537
100
AcDbEntity
  8
M0
 62
     6
100
AcDbLine
 10
230.212043
 20
317.707783
 11
230.212043
 21
333.707783
  0
LINE
  5
538
100
AcDbEntity
  8
M0
 62
     6
100
AcDbLine
 10
229.212043
 20
336.207783
 11
229.212043
 21
334.707783
  0
LINE
  5
539
100
AcDbEntity
  8
M0
 62
     6
100
AcDbLine
 10
229.212043
 20
316.707783
 11
229.212043
 21
315.207783
  0
LINE
  5
53A
100
AcDbEntity
  8
M0
 62
     6
100
AcDbLine
 10
227.212043
 20
321.707783
 11
227.212043
 21
333.207783
  0
LINE
  5
53B
100
AcDbEntity
  8
M0
 62
     6
100
AcDbLine
 10
235.712043
 20
314.707783
 11
235.712043
 21
315.207783
  0
LINE
  5
53C
100
AcDbEntity
  8
M0
 62
     6
100
AcDbLine
 10
236.770257
 20
301.428346
 11
233.212043
 21
314.707783
  0
LINE
  5
53D
100
AcDbEntity
  8
M0
 62
     6
100
AcDbLine
 10
248.912043
 20
315.207783
 11
248.912043
 21
308.707783
  0
LINE
  5
53E
100
AcDbEntity
  8
M0
 62
     6
100
AcDbLine
 10
228.212043
 20
334.207783
 11
229.358596
 21
334.207783
  0
LINE
  5
53F
100
AcDbEntity
  8
M0
 62
     6
100
AcDbLine
 10
234.712043
 20
333.707783
 11
230.212043
 21
333.707783
  0
LINE
  5
540
100
AcDbEntity
  8
M0
 62
     6
100
AcDbLine
 10
252.412043
 20
334.207783
 11
249.212043
 21
334.207783
  0
LINE
  5
541
100
AcDbEntity
  8
M0
 62
     6
100
AcDbLine
 10
249.212043
 20
335.507783
 11
249.212043
 21
334.207783
  0
LINE
  5
542
100
AcDbEntity
  8
M0
 62
     6
100
AcDbLine
 10
262.012043
 20
337.107783
 11
251.012043
 21
337.107783
  0
LINE
  5
543
100
AcDbEntity
  8
M0
 62
     6
100
AcDbLine
 10
291.012043
 20
337.107783
 11
266.012043
 21
337.107783
  0
LINE
  5
544
100
AcDbEntity
  8
M0
 62
     6
100
AcDbLine
 10
226.212043
 20
338.707783
 11
249.512043
 21
338.707783
  0
LINE
  5
545
100
AcDbEntity
  8
M0
 62
     6
100
AcDbLine
 10
302.212043
 20
339.207783
 11
305.212043
 21
339.207783
  0
LINE
  5
546
100
AcDbEntity
  8
M0
 62
     6
100
AcDbLine
 10
253.112043
 20
336.207783
 11
302.212043
 21
336.207783
  0
LINE
  5
547
100
AcDbEntity
  8
M0
 62
     6
100
AcDbLine
 10
253.012043
 20
336.207783
 11
228.212043
 21
336.207783
  0
LINE
  5
548
100
AcDbEntity
  8
M0
 62
     6
100
AcDbLine
 10
295.212043
 20
337.107783
 11
302.196207
 21
337.107783
  0
ARC
  5
549
100
AcDbEntity
  8
M0
 62
     6
100
AcDbCircle
 10
248.512043
 20
335.507783
 40
0.7
100
AcDbArc
 50
0.0
 51
90.0
  0
ARC
  5
54A
100
AcDbEntity
  8
M0
 62
     6
100
AcDbCircle
 10
249.512043
 20
337.207783
 40
1.5
100
AcDbArc
 50
0.0
 51
90.0
  0
ARC
  5
54B
100
AcDbEntity
  8
M0
 62
     6
100
AcDbCircle
 10
230.908284
 20
300.707783
 40
4.0
100
AcDbArc
 50
195.0
 51
270.0
  0
ARC
  5
54C
100
AcDbEntity
  8
M0
 62
     6
100
AcDbCircle
 10
226.212043
 20
334.707783
 40
4.0
100
AcDbArc
 50
90.0
 51
180.0
  0
ARC
  5
54D
100
AcDbEntity
  8
M0
 62
     6
100
AcDbCircle
 10
257.257471
 20
300.707783
 40
4.0
100
AcDbArc
 50
270.0
 51
301.169221
  0
ARC
  5
54E
100
AcDbEntity
  8
M0
 62
     6
100
AcDbCircle
 10
228.212043
 20
333.207783
 40
3.0
100
AcDbArc
 50
90.0
 51
179.938788
  0
ARC
  5
54F
100
AcDbEntity
  8
M0
 62
     6
100
AcDbCircle
 10
239.667236
 20
302.207783
 40
3.0
100
AcDbArc
 50
195.058919
 51
269.938297
  0
ARC
  5
550
100
AcDbEntity
  8
M0
 62
     6
100
AcDbCircle
 10
253.112043
 20
335.507783
 40
0.7
100
AcDbArc
 50
90.0
 51
180.0
  0
ARC
  5
551
100
AcDbEntity
  8
M0
 62
     6
100
AcDbCircle
 10
228.212043
 20
333.207783
 40
1.0
100
AcDbArc
 50
90.0
 51
180.0
  0
LINE
  5
552
100
AcDbEntity
  8
M0
 62
     6
100
AcDbLine
 10
222.212043
 20
317.707783
 11
222.212043
 21
334.707783
  0
LINE
  5
553
100
AcDbEntity
  8
M0
 62
     6
100
AcDbLine
 10
222.504936
 20
318.722948
 11
222.504936
 21
320.707783
  0
ARC
  5
554
100
AcDbEntity
  8
M0
 62
     6
100
AcDbCircle
 10
275.658239
 20
296.707783
 40
2.0
100
AcDbArc
 50
194.99833
 51
270.0
  0
ARC
  5
555
100
AcDbEntity
  8
M0
 62
     6
100
AcDbCircle
 10
299.212043
 20
297.707783
 40
2.0
100
AcDbArc
 50
269.998343
 51
360.0
  0
ARC
  5
556
100
AcDbEntity
  8
M0
 62
     6
100
AcDbCircle
 10
291.804565
 20
296.707783
 40
2.0
100
AcDbArc
 50
269.999042
 51
330.0
  0
LINE
  5
557
100
AcDbEntity
  8
M0
 62
     6
100
AcDbLine
 10
222.212043
 20
317.707783
 11
227.04458
 21
299.672507
  0
LINE
  5
558
100
AcDbEntity
  8
M0
 62
     6
100
AcDbLine
 10
224.412043
 20
320.707783
 11
224.412043
 21
318.007783
  0
LINE
  5
559
100
AcDbEntity
  8
M0
 62
     6
100
AcDbLine
 10
225.212043
 20
317.707783
 11
225.212043
 21
333.210988
  0
ARC
  5
55A
100
AcDbEntity
  8
M0
 62
     6
100
AcDbCircle
 10
274.586443
 20
300.707783
 40
2.0
100
AcDbArc
 50
195.0
 51
270.0
  0
ARC
  5
55B
100
AcDbEntity
  8
M0
 62
     6
100
AcDbCircle
 10
292.959266
 20
298.707783
 40
2.0
100
AcDbArc
 50
270.0
 51
330.0
  0
ARC
  5
55C
100
AcDbEntity
  8
M0
 62
     6
100
AcDbCircle
 10
251.912043
 20
308.707783
 40
3.0
100
AcDbArc
 50
180.0
 51
270.0
  0
ARC
  5
55D
100
AcDbEntity
  8
M0
 62
     6
100
AcDbCircle
 10
230.212043
 20
316.707783
 40
1.0
100
AcDbArc
 50
90.0
 51
180.0
  0
ARC
  5
55E
100
AcDbEntity
  8
M0
 62
     6
100
AcDbCircle
 10
230.212043
 20
334.707783
 40
1.0
100
AcDbArc
 50
180.0
 51
270.0
  0
ARC
  5
55F
100
AcDbEntity
  8
M0
 62
     6
100
AcDbCircle
 10
304.462043
 20
300.457783
 40
0.75
100
AcDbArc
 50
270.0
 51
360.0
  0
ARC
  5
560
100
AcDbEntity
  8
M0
 62
     6
100
AcDbCircle
 10
242.435185
 20
301.707783
 40
3.0
100
AcDbArc
 50
195.0
 51
270.0
  0
ARC
  5
561
100
AcDbEntity
  8
M0
 62
     6
100
AcDbCircle
 10
266.212043
 20
297.707783
 40
1.0
100
AcDbArc
 50
270.246868
 51
360.0
  0
LINE
  5
562
100
AcDbEntity
  8
M0
 62
     6
100
AcDbLine
 10
242.435185
 20
298.707783
 11
257.212043
 21
298.707783
  0
LINE
  5
563
100
AcDbEntity
  8
M0
 62
     6
100
AcDbLine
 10
274.586443
 20
298.707783
 11
279.212043
 21
298.707783
  0
LINE
  5
564
100
AcDbEntity
  8
M0
 62
     6
100
AcDbLine
 10
240.780987
 20
299.207783
 11
239.664005
 21
299.207783
  0
LINE
  5
565
100
AcDbEntity
  8
M0
 62
     6
100
AcDbLine
 10
267.212043
 20
297.707783
 11
273.319738
 21
297.707783
  0
LINE
  5
566
100
AcDbEntity
  8
M0
 62
     6
100
AcDbLine
 10
260.212043
 20
296.707783
 11
257.212043
 21
298.707783
  0
LINE
  5
567
100
AcDbEntity
  8
M0
 62
     6
100
AcDbLine
 10
260.212043
 20
303.707783
 11
271.712043
 21
303.707783
  0
LINE
  5
568
100
AcDbEntity
  8
M0
  6
DASHED
 62
     6
100
AcDbLine
 10
231.878709
 20
315.207783
 11
229.212043
 21
316.207783
  0
LINE
  5
569
100
AcDbEntity
  8
M0
 62
     6
100
AcDbLine
 10
233.212043
 20
314.707783
 11
231.878709
 21
315.207783
  0
LINE
  5
56A
100
AcDbEntity
  8
M0
 62
     6
100
AcDbLine
 10
260.212043
 20
303.707783
 11
257.212043
 21
305.707783
  0
LINE
  5
56B
100
AcDbEntity
  8
M0
 62
     6
100
AcDbLine
 10
304.462043
 20
299.707783
 11
301.212043
 21
299.707783
  0
LINE
  5
56C
100
AcDbEntity
  8
M0
 62
     6
100
AcDbLine
 10
296.712043
 20
301.207783
 11
305.212043
 21
301.207783
  0
LINE
  5
56D
100
AcDbEntity
  8
M0
 62
     6
100
AcDbLine
 10
272.247941
 20
301.707783
 11
248.631338
 21
301.707783
  0
LINE
  5
56E
100
AcDbEntity
  8
M0
 62
     6
100
AcDbLine
 10
293.536616
 20
295.707783
 11
296.712043
 21
301.207783
  0
LINE
  5
56F
100
AcDbEntity
  8
M0
 62
     6
100
AcDbLine
 10
291.012043
 20
337.107783
 11
291.253197
 21
336.207783
  0
LINE
  5
570
100
AcDbEntity
  8
M0
 62
     6
100
AcDbLine
 10
305.212043
 20
300.457783
 11
305.212043
 21
339.207783
  0
LINE
  5
571
100
AcDbEntity
  8
M0
 62
     6
100
AcDbLine
 10
302.212043
 20
336.207783
 11
302.212043
 21
339.207783
  0
LINE
  5
572
100
AcDbEntity
  8
M0
 62
     6
100
AcDbLine
 10
301.212043
 20
297.707783
 11
301.212043
 21
301.207783
  0
LINE
  5
573
100
AcDbEntity
  8
M0
 62
     6
100
AcDbLine
 10
230.908284
 20
296.707783
 11
257.257471
 21
296.707783
  0
LINE
  5
574
100
AcDbEntity
  8
M0
 62
     6
100
AcDbLine
 10
293.536616
 20
295.707783
 11
299.211985
 21
295.707783
  0
LINE
  5
575
100
AcDbEntity
  8
M0
 62
     6
100
AcDbLine
 10
263.207953
 20
296.707783
 11
266.217941
 21
296.707783
  0
LINE
  5
576
100
AcDbEntity
  8
M0
 62
     6
100
AcDbLine
 10
282.212043
 20
296.707783
 11
292.959266
 21
296.707783
  0
LINE
  5
577
100
AcDbEntity
  8
M0
 62
     6
100
AcDbLine
 10
263.202043
 20
296.707783
 11
260.212043
 21
296.707783
  0
LINE
  5
578
100
AcDbEntity
  8
M0
 62
     6
100
AcDbLine
 10
294.970888
 20
336.207783
 11
295.212043
 21
337.107783
  0
LINE
  5
579
100
AcDbEntity
  8
M0
 62
     6
100
AcDbLine
 10
275.658239
 20
294.707783
 11
291.804532
 21
294.707783
  0
LINE
  5
57A
100
AcDbEntity
  8
M0
 62
     6
100
AcDbLine
 10
257.212043
 20
301.707783
 11
257.212043
 21
298.707783
  0
LINE
  5
57B
100
AcDbEntity
  8
M0
 62
     6
100
AcDbLine
 10
235.262043
 20
317.707783
 11
230.212043
 21
317.707783
  0
LINE
  5
57C
100
AcDbEntity
  8
M0
 62
     6
100
AcDbLine
 10
265.770888
 20
336.207783
 11
266.012043
 21
337.107783
  0
LINE
  5
57D
100
AcDbEntity
  8
M0
 62
     6
100
AcDbLine
 10
230.212043
 20
320.707783
 11
222.212043
 21
320.707783
  0
LINE
  5
57E
100
AcDbEntity
  8
M0
 62
     6
100
AcDbLine
 10
252.412043
 20
335.507783
 11
252.412043
 21
334.207783
  0
LINE
  5
57F
100
AcDbEntity
  8
M0
 62
     6
100
AcDbLine
 10
251.012043
 20
337.207783
 11
251.012043
 21
336.207783
  0
ARC
  5
580
100
AcDbEntity
  8
M0
 62
     6
100
AcDbCircle
 10
248.631338
 20
304.707783
 40
3.0
100
AcDbArc
 50
195.0
 51
270.0
  0
LINE
  5
581
100
AcDbEntity
  8
M0
 62
     6
100
AcDbLine
 10
282.212043
 20
296.707783
 11
279.212043
 21
298.707783
  0
LINE
  5
582
100
AcDbEntity
  8
M0
 62
     6
100
AcDbLine
 10
251.912043
 20
305.707783
 11
257.212043
 21
305.707783
  0
LINE
  5
583
100
AcDbEntity
  8
M0
 62
     6
100
AcDbLine
 10
233.212043
 20
314.707783
 11
235.846017
 21
314.707783
  0
LINE
  5
584
100
AcDbEntity
  8
M0
 62
     6
100
AcDbLine
 10
271.712043
 20
303.707783
 11
273.726373
 21
296.190201
  0
LINE
  5
585
100
AcDbEntity
  8
M0
 62
     6
100
AcDbLine
 10
262.012043
 20
337.107783
 11
262.253197
 21
336.207783
  0
LINE
  5
586
100
AcDbEntity
  8
M0
 62
     6
100
AcDbLine
 10
226.797829
 20
320.707783
 11
226.920601
 21
320.752719
  0
LINE
  5
587
100
AcDbEntity
  8
M0
 62
     6
100
AcDbLine
 10
226.920601
 20
320.752719
 11
227.034322
 21
320.886794
  0
LINE
  5
588
100
AcDbEntity
  8
M0
 62
     6
100
AcDbLine
 10
227.034322
 20
320.886794
 11
227.12768
 21
321.102922
  0
LINE
  5
589
100
AcDbEntity
  8
M0
 62
     6
100
AcDbLine
 10
227.12768
 20
321.102922
 11
227.189875
 21
321.385026
  0
LINE
  5
58A
100
AcDbEntity
  8
M0
 62
     6
100
AcDbLine
 10
227.189875
 20
321.385026
 11
227.212043
 21
321.707783
  0
LINE
  5
58B
100
AcDbEntity
  8
M0
 62
     6
100
AcDbLine
 10
229.212043
 20
316.207783
 11
222.212043
 21
318.832783
  0
LINE
  5
58C
100
AcDbEntity
  8
M0
 62
     2
100
AcDbLine
 10
113.503485
 20
342.707958
 11
105.87362
 21
342.174426
  0
LINE
  5
58D
100
AcDbEntity
  8
M0
 62
     2
100
AcDbLine
 10
108.788757
 20
347.390482
 11
116.405955
 21
347.923128
  0
ARC
  5
58E
100
AcDbEntity
  8
M0
 62
     2
100
AcDbCircle
 10
108.533291
 20
366.419014
 40
1.0
100
AcDbArc
 50
94.0
 51
184.0
  0
ARC
  5
58F
100
AcDbEntity
  8
M0
 62
     2
100
AcDbCircle
 10
116.513803
 20
366.977066
 40
1.0
100
AcDbArc
 50
4.0
 51
94.0
  0
LINE
  5
590
100
AcDbEntity
  8
M0
 62
     2
100
AcDbLine
 10
116.444047
 20
367.97463
 11
108.463535
 21
367.416578
  0
LINE
  5
591
100
AcDbEntity
  8
M0
 62
     2
100
AcDbLine
 10
108.187293
 20
357.031422
 11
107.535727
 21
366.349258
  0
LINE
  5
592
100
AcDbEntity
  8
M0
 62
     2
100
AcDbLine
 10
118.162934
 20
357.728987
 11
117.511367
 21
367.046822
  0
ARC
  5
593
100
AcDbEntity
  8
M0
 62
     2
100
AcDbCircle
 10
109.184858
 20
357.101179
 40
1.0
100
AcDbArc
 50
184.0
 51
244.940719
  0
LINE
  5
594
100
AcDbEntity
  8
M0
 62
     2
100
AcDbLine
 10
101.49867
 20
331.547489
 11
102.105839
 21
322.864561
  0
LINE
  5
595
100
AcDbEntity
  8
M0
 62
     2
100
AcDbLine
 10
103.17316
 20
321.936754
 11
112.151236
 21
322.564562
  0
LINE
  5
596
100
AcDbEntity
  8
M0
 62
     2
100
AcDbLine
 10
103.810246
 20
338.482431
 11
110.020798
 21
349.594973
  0
LINE
  5
597
100
AcDbEntity
  8
M0
 62
     2
100
AcDbLine
 10
103.436324
 20
336.80959
 11
103.563718
 21
334.987776
  0
LINE
  5
598
100
AcDbEntity
  8
M0
 62
     2
100
AcDbLine
 10
110.327745
 20
337.025606
 11
116.538297
 21
348.138149
  0
LINE
  5
599
100
AcDbEntity
  8
M0
 62
     2
100
AcDbLine
 10
116.912219
 20
349.81099
 11
116.580732
 21
354.551466
  0
LINE
  5
59A
100
AcDbEntity
  8
M0
 62
     2
100
AcDbLine
 10
110.39472
 20
351.267815
 11
110.196323
 21
354.105025
  0
LINE
  5
59B
100
AcDbEntity
  8
M0
 62
     2
100
AcDbLine
 10
109.953823
 20
335.352765
 11
109.948128
 21
335.434218
  0
LINE
  5
59C
100
AcDbEntity
  8
M0
 62
     2
100
AcDbLine
 10
113.079044
 20
323.631882
 11
112.471874
 21
332.31481
  0
ARC
  5
59D
100
AcDbEntity
  8
M0
 62
     2
100
AcDbCircle
 10
111.47431
 20
332.245054
 40
1.0
100
AcDbArc
 50
4.0
 51
73.948957
  0
ARC
  5
59E
100
AcDbEntity
  8
M0
 62
     2
100
AcDbCircle
 10
107.702412
 20
353.930634
 40
2.5
100
AcDbArc
 50
4.0
 51
64.940719
  0
ARC
  5
59F
100
AcDbEntity
  8
M0
 62
     2
100
AcDbCircle
 10
119.074643
 20
354.725858
 40
2.5
100
AcDbArc
 50
123.059281
 51
184.0
  0
ARC
  5
5A0
100
AcDbEntity
  8
M0
 62
     2
100
AcDbCircle
 10
117.16537
 20
357.659231
 40
1.0
100
AcDbArc
 50
303.059281
 51
364.0
  0
ARC
  5
5A1
100
AcDbEntity
  8
M0
 62
     2
100
AcDbCircle
 10
101.069808
 20
334.813385
 40
2.5
100
AcDbArc
 50
294.051043
 51
364.0
  0
ARC
  5
5A2
100
AcDbEntity
  8
M0
 62
     2
100
AcDbCircle
 10
112.442038
 20
335.608609
 40
2.5
100
AcDbArc
 50
184.0
 51
253.948957
  0
ARC
  5
5A3
100
AcDbEntity
  8
M0
 62
     2
100
AcDbCircle
 10
102.496234
 20
331.617246
 40
1.0
100
AcDbArc
 50
114.051043
 51
184.0
  0
ARC
  5
5A4
100
AcDbEntity
  8
M0
 62
     2
100
AcDbCircle
 10
106.429016
 20
337.018859
 40
3.0
100
AcDbArc
 50
150.800152
 51
184.0
  0
ARC
  5
5A5
100
AcDbEntity
  8
M0
 62
     2
100
AcDbCircle
 10
112.946516
 20
335.562034
 40
3.0
100
AcDbArc
 50
150.800152
 51
184.0
  0
ARC
  5
5A6
100
AcDbEntity
  8
M0
 62
     2
100
AcDbCircle
 10
113.919527
 20
349.601721
 40
3.0
100
AcDbArc
 50
330.800152
 51
364.0
  0
ARC
  5
5A7
100
AcDbEntity
  8
M0
 62
     2
100
AcDbCircle
 10
107.402027
 20
351.058545
 40
3.0
100
AcDbArc
 50
330.800152
 51
364.0
  0
ARC
  5
5A8
100
AcDbEntity
  8
M0
 62
     2
100
AcDbCircle
 10
103.103403
 20
322.934318
 40
1.0
100
AcDbArc
 50
184.0
 51
274.0
  0
ARC
  5
5A9
100
AcDbEntity
  8
M0
 62
     2
100
AcDbCircle
 10
112.08148
 20
323.562126
 40
1.0
100
AcDbArc
 50
274.0
 51
364.0
  0
ARC
  5
5AA
100
AcDbEntity
  8
M0
 62
     2
100
AcDbCircle
 10
237.916302
 20
340.771185
 40
3.599999
100
AcDbArc
 50
134.999796
 51
180.0
  0
ARC
  5
5AB
100
AcDbEntity
  8
M0
 62
     2
100
AcDbCircle
 10
237.916302
 20
340.77117
 40
2.0
100
AcDbArc
 50
135.000425
 51
180.0
  0
LINE
  5
5AC
100
AcDbEntity
  8
M0
 62
     2
100
AcDbLine
 10
241.761802
 20
349.707783
 11
235.370724
 21
343.316778
  0
LINE
  5
5AD
100
AcDbEntity
  8
M0
 62
     2
100
AcDbLine
 10
235.916165
 20
340.770971
 11
235.916165
 21
338.707783
  0
LINE
  5
5AE
100
AcDbEntity
  8
M0
 62
     2
100
AcDbLine
 10
244.024501
 20
349.707783
 11
236.502087
 21
342.185369
  0
LINE
  5
5AF
100
AcDbEntity
  8
M0
 62
     2
100
AcDbLine
 10
234.316311
 20
340.770971
 11
234.316311
 21
338.707783
  0
LINE
  5
5B0
100
AcDbEntity
  8
M0
 62
     2
100
AcDbLine
 10
75.513226
 20
342.805047
 11
67.883361
 21
343.338579
  0
LINE
  5
5B1
100
AcDbEntity
  8
M0
 62
     2
100
AcDbLine
 10
71.496062
 20
348.098164
 11
79.113261
 21
347.565518
  0
ARC
  5
5B2
100
AcDbEntity
  8
M0
 62
     2
100
AcDbCircle
 10
73.891343
 20
366.977066
 40
1.0
100
AcDbArc
 50
86.0
 51
176.0
  0
ARC
  5
5B3
100
AcDbEntity
  8
M0
 62
     2
100
AcDbCircle
 10
81.871855
 20
366.419014
 40
1.0
100
AcDbArc
 50
356.0
 51
446.0
  0
LINE
  5
5B4
100
AcDbEntity
  8
M0
 62
     2
100
AcDbLine
 10
81.941612
 20
367.416578
 11
73.961099
 21
367.97463
  0
LINE
  5
5B5
100
AcDbEntity
  8
M0
 62
     2
100
AcDbLine
 10
72.242212
 20
357.728987
 11
72.893779
 21
367.046822
  0
LINE
  5
5B6
100
AcDbEntity
  8
M0
 62
     2
100
AcDbLine
 10
82.217853
 20
357.031422
 11
82.869419
 21
366.349258
  0
ARC
  5
5B7
100
AcDbEntity
  8
M0
 62
     2
100
AcDbCircle
 10
73.239776
 20
357.659231
 40
1.0
100
AcDbArc
 50
176.0
 51
236.940719
  0
LINE
  5
5B8
100
AcDbEntity
  8
M0
 62
     2
100
AcDbLine
 10
62.072004
 20
333.423938
 11
61.464834
 21
324.74101
  0
LINE
  5
5B9
100
AcDbEntity
  8
M0
 62
     2
100
AcDbLine
 10
62.392642
 20
323.67369
 11
71.370718
 21
323.045882
  0
LINE
  5
5BA
100
AcDbEntity
  8
M0
 62
     2
100
AcDbLine
 10
65.326241
 20
339.969681
 11
73.022919
 21
350.109735
  0
LINE
  5
5BB
100
AcDbEntity
  8
M0
 62
     2
100
AcDbLine
 10
64.723144
 20
338.365159
 11
64.59575
 21
336.543346
  0
LINE
  5
5BC
100
AcDbEntity
  8
M0
 62
     2
100
AcDbLine
 10
71.577562
 20
337.619973
 11
79.27424
 21
347.760027
  0
LINE
  5
5BD
100
AcDbEntity
  8
M0
 62
     2
100
AcDbLine
 10
79.877337
 20
349.364549
 11
80.208824
 21
354.105025
  0
LINE
  5
5BE
100
AcDbEntity
  8
M0
 62
     2
100
AcDbLine
 10
73.626017
 20
351.714256
 11
73.824414
 21
354.551466
  0
LINE
  5
5BF
100
AcDbEntity
  8
M0
 62
     2
100
AcDbLine
 10
70.974464
 20
336.015451
 11
70.98016
 21
336.096904
  0
LINE
  5
5C0
100
AcDbEntity
  8
M0
 62
     2
100
AcDbLine
 10
72.438039
 20
323.973689
 11
73.045208
 21
332.656617
  0
ARC
  5
5C1
100
AcDbEntity
  8
M0
 62
     2
100
AcDbCircle
 10
72.047644
 20
332.726373
 40
1.0
100
AcDbArc
 50
356.0
 51
425.948957
  0
ARC
  5
5C2
100
AcDbEntity
  8
M0
 62
     2
100
AcDbCircle
 10
71.330504
 20
354.725858
 40
2.5
100
AcDbArc
 50
356.0
 51
416.940719
  0
ARC
  5
5C3
100
AcDbEntity
  8
M0
 62
     2
100
AcDbCircle
 10
82.702734
 20
353.930634
 40
2.5
100
AcDbArc
 50
115.059281
 51
176.0
  0
ARC
  5
5C4
100
AcDbEntity
  8
M0
 62
     2
100
AcDbCircle
 10
81.220289
 20
357.101179
 40
1.0
100
AcDbArc
 50
295.059281
 51
356.0
  0
ARC
  5
5C5
100
AcDbEntity
  8
M0
 62
     2
100
AcDbCircle
 10
62.10184
 20
336.717737
 40
2.5
100
AcDbArc
 50
286.051043
 51
356.0
  0
ARC
  5
5C6
100
AcDbEntity
  8
M0
 62
     2
100
AcDbCircle
 10
73.47407
 20
335.922513
 40
2.5
100
AcDbArc
 50
176.0
 51
245.948957
  0
ARC
  5
5C7
100
AcDbEntity
  8
M0
 62
     2
100
AcDbCircle
 10
63.069568
 20
333.354182
 40
1.0
100
AcDbArc
 50
106.051043
 51
176.0
  0
ARC
  5
5C8
100
AcDbEntity
  8
M0
 62
     2
100
AcDbCircle
 10
67.715836
 20
338.15589
 40
3.0
100
AcDbArc
 50
142.800152
 51
176.0
  0
ARC
  5
5C9
100
AcDbEntity
  8
M0
 62
     2
100
AcDbCircle
 10
73.967157
 20
335.806182
 40
3.0
100
AcDbArc
 50
142.800152
 51
176.0
  0
ARC
  5
5CA
100
AcDbEntity
  8
M0
 62
     2
100
AcDbCircle
 10
76.884645
 20
349.573818
 40
3.0
100
AcDbArc
 50
322.800152
 51
356.0
  0
ARC
  5
5CB
100
AcDbEntity
  8
M0
 62
     2
100
AcDbCircle
 10
70.633325
 20
351.923526
 40
3.0
100
AcDbArc
 50
322.800152
 51
356.0
  0
ARC
  5
5CC
100
AcDbEntity
  8
M0
 62
     2
100
AcDbCircle
 10
62.462398
 20
324.671254
 40
1.0
100
AcDbArc
 50
176.0
 51
266.0
  0
ARC
  5
5CD
100
AcDbEntity
  8
M0
 62
     2
100
AcDbCircle
 10
71.440475
 20
324.043446
 40
1.0
100
AcDbArc
 50
266.0
 51
356.0
  0
LINE
  5
5CE
100
AcDbEntity
  8
M0
 62
     6
100
AcDbLine
 10
236.462043
 20
323.207783
 11
239.162043
 21
323.207783
  0
LINE
  5
5CF
100
AcDbEntity
  8
M0
 62
     6
100
AcDbLine
 10
239.162043
 20
323.207783
 11
239.162043
 21
322.207783
  0
LINE
  5
5D0
100
AcDbEntity
  8
M0
 62
     6
100
AcDbLine
 10
236.462043
 20
322.207783
 11
239.162043
 21
322.207783
  0
LINE
  5
5D1
100
AcDbEntity
  8
M0
 62
     6
100
AcDbLine
 10
236.462043
 20
325.416347
 11
236.462043
 21
323.207783
  0
LINE
  5
5D2
100
AcDbEntity
  8
M0
 62
     6
100
AcDbLine
 10
236.462043
 20
325.416347
 11
239.162043
 21
325.416347
  0
LINE
  5
5D3
100
AcDbEntity
  8
M0
 62
     6
100
AcDbLine
 10
236.462043
 20
326.340227
 11
239.162043
 21
326.340227
  0
LINE
  5
5D4
100
AcDbEntity
  8
M0
 62
     6
100
AcDbLine
 10
236.462043
 20
328.212557
 11
239.162043
 21
328.212557
  0
LINE
  5
5D5
100
AcDbEntity
  8
M0
 62
     6
100
AcDbLine
 10
241.712043
 20
330.207783
 11
241.162043
 21
330.207783
  0
LINE
  5
5D6
100
AcDbEntity
  8
M0
 62
     6
100
AcDbLine
 10
236.462043
 20
328.919664
 11
239.162043
 21
328.919664
  0
LINE
  5
5D7
100
AcDbEntity
  8
M0
 62
     6
100
AcDbLine
 10
236.462043
 20
330.170715
 11
236.462043
 21
328.919664
  0
LINE
  5
5D8
100
AcDbEntity
  8
M0
 62
     6
100
AcDbLine
 10
235.262043
 20
331.007783
 11
239.162043
 21
331.007783
  0
LINE
  5
5D9
100
AcDbEntity
  8
M0
 62
     6
100
AcDbLine
 10
239.162043
 20
328.919664
 11
239.162043
 21
328.212557
  0
LINE
  5
5DA
100
AcDbEntity
  8
M0
 62
     6
100
AcDbLine
 10
239.162043
 20
326.340227
 11
239.162043
 21
325.416347
  0
LINE
  5
5DB
100
AcDbEntity
  8
M0
 62
     6
100
AcDbLine
 10
239.162043
 20
330.553399
 11
239.162043
 21
330.170715
  0
LINE
  5
5DC
100
AcDbEntity
  8
M0
 62
     6
100
AcDbLine
 10
236.462043
 20
330.553399
 11
239.162043
 21
330.553399
  0
LINE
  5
5DD
100
AcDbEntity
  8
M0
 62
     6
100
AcDbLine
 10
236.462043
 20
331.007783
 11
236.462043
 21
330.553399
  0
LINE
  5
5DE
100
AcDbEntity
  8
M0
 62
     6
100
AcDbLine
 10
239.162043
 20
331.007783
 11
239.162043
 21
330.707783
  0
LINE
  5
5DF
100
AcDbEntity
  8
M0
 62
     6
100
AcDbLine
 10
236.462043
 20
328.212557
 11
236.462043
 21
326.340227
  0
LINE
  5
5E0
100
AcDbEntity
  8
M0
 62
     6
100
AcDbLine
 10
239.162043
 20
330.707783
 11
241.162043
 21
330.707783
  0
LINE
  5
5E1
100
AcDbEntity
  8
M0
 62
     6
100
AcDbLine
 10
236.462043
 20
330.170715
 11
239.162043
 21
330.170715
  0
LINE
  5
5E2
100
AcDbEntity
  8
M0
 62
     6
100
AcDbLine
 10
230.212043
 20
317.707783
 11
230.212043
 21
333.707783
  0
ARC
  5
5E3
100
AcDbEntity
  8
M0
 62
     6
100
AcDbCircle
 10
231.212043
 20
326.957783
 40
1.0
100
AcDbArc
 50
180.0
 51
270.0
  0
ARC
  5
5E4
100
AcDbEntity
  8
M0
 62
     6
100
AcDbCircle
 10
232.162053
 20
325.957783
 40
0.5
100
AcDbArc
 50
90.0
 51
179.998251
  0
LINE
  5
5E5
100
AcDbEntity
  8
M0
 62
     6
100
AcDbLine
 10
231.662053
 20
319.457783
 11
231.662053
 21
325.957783
  0
LINE
  5
5E6
100
AcDbEntity
  8
M0
 62
     6
100
AcDbLine
 10
232.162053
 20
326.457783
 11
235.262043
 21
326.457783
  0
ARC
  5
5E7
100
AcDbEntity
  8
M0
 62
     6
100
AcDbCircle
 10
232.162053
 20
319.457783
 40
0.5
100
AcDbArc
 50
179.998251
 51
270.0
  0
LINE
  5
5E8
100
AcDbEntity
  8
M0
 62
     6
100
AcDbLine
 10
235.262043
 20
318.957783
 11
232.162053
 21
318.957783
  0
LINE
  5
5E9
100
AcDbEntity
  8
M0
 62
     6
100
AcDbLine
 10
235.262043
 20
331.007783
 11
235.262043
 21
314.407783
  0
LINE
  5
5EA
100
AcDbEntity
  8
M0
 62
     6
100
AcDbLine
 10
236.462043
 20
314.862168
 11
239.162043
 21
314.862168
  0
LINE
  5
5EB
100
AcDbEntity
  8
M0
 62
     6
100
AcDbLine
 10
236.462043
 20
315.244851
 11
239.162043
 21
315.244851
  0
LINE
  5
5EC
100
AcDbEntity
  8
M0
 62
     6
100
AcDbLine
 10
235.262043
 20
314.407783
 11
239.162043
 21
314.407783
  0
LINE
  5
5ED
100
AcDbEntity
  8
M0
 62
     6
100
AcDbLine
 10
236.462043
 20
319.075339
 11
236.462043
 21
317.203009
  0
LINE
  5
5EE
100
AcDbEntity
  8
M0
 62
     6
100
AcDbLine
 10
236.462043
 20
316.495902
 11
236.462043
 21
315.244851
  0
LINE
  5
5EF
100
AcDbEntity
  8
M0
 62
     6
100
AcDbLine
 10
236.462043
 20
322.207783
 11
236.462043
 21
319.999219
  0
LINE
  5
5F0
100
AcDbEntity
  8
M0
 62
     6
100
AcDbLine
 10
239.162043
 20
320.313642
 11
239.162043
 21
314.407783
  0
LINE
  5
5F1
100
AcDbEntity
  8
M0
 62
     6
100
AcDbLine
 10
236.462043
 20
319.075339
 11
239.162043
 21
319.075339
  0
LINE
  5
5F2
100
AcDbEntity
  8
M0
 62
     6
100
AcDbLine
 10
239.162043
 20
315.244851
 11
239.162043
 21
314.862168
  0
LINE
  5
5F3
100
AcDbEntity
  8
M0
 62
     6
100
AcDbLine
 10
236.462043
 20
316.495902
 11
239.162043
 21
316.495902
  0
LINE
  5
5F4
100
AcDbEntity
  8
M0
 62
     6
100
AcDbLine
 10
236.462043
 20
317.203009
 11
239.162043
 21
317.203009
  0
LINE
  5
5F5
100
AcDbEntity
  8
M0
 62
     6
100
AcDbLine
 10
236.462043
 20
319.999219
 11
239.162043
 21
319.999219
  0
LINE
  5
5F6
100
AcDbEntity
  8
M0
 62
     6
100
AcDbLine
 10
236.462043
 20
314.862168
 11
236.462043
 21
314.407783
  0
LINE
  5
5F7
100
AcDbEntity
  8
M0
 62
     6
100
AcDbLine
 10
241.162043
 20
320.313642
 11
239.162043
 21
320.313642
  0
LINE
  5
5F8
100
AcDbEntity
  8
M0
 62
     6
100
AcDbLine
 10
241.162043
 20
315.707783
 11
239.162043
 21
315.707783
  0
LINE
  5
5F9
100
AcDbEntity
  8
M0
 62
     6
100
AcDbLine
 10
241.162043
 20
315.207783
 11
241.162043
 21
330.707783
  0
LINE
  5
5FA
100
AcDbEntity
  8
M0
 62
     6
100
AcDbLine
 10
248.912043
 20
315.207783
 11
241.162043
 21
315.207783
  0
LINE
  5
5FB
100
AcDbEntity
  8
M0
 62
     6
100
AcDbLine
 10
241.712043
 20
316.584059
 11
241.162043
 21
316.584059
  0
LINE
  5
5FC
100
AcDbEntity
  8
M0
 62
     6
100
AcDbLine
 10
241.712043
 20
331.707783
 11
234.712043
 21
331.707783
  0
LINE
  5
5FD
100
AcDbEntity
  8
M0
 62
     6
100
AcDbLine
 10
234.712043
 20
333.707783
 11
234.712043
 21
331.707783
  0
LINE
  5
5FE
100
AcDbEntity
  8
M0
 62
     6
100
AcDbLine
 10
230.212043
 20
333.707783
 11
234.712043
 21
333.707783
  0
ARC
  5
5FF
100
AcDbEntity
  8
M0
 62
     6
100
AcDbCircle
 10
230.212043
 20
334.707783
 40
1.0
100
AcDbArc
 50
180.0
 51
270.0
  0
ARC
  5
600
100
AcDbEntity
  8
M0
 62
     6
100
AcDbCircle
 10
230.212043
 20
316.707783
 40
1.0
100
AcDbArc
 50
90.0
 51
180.0
  0
LINE
  5
601
100
AcDbEntity
  8
M0
 62
     6
100
AcDbLine
 10
229.212043
 20
315.207783
 11
229.212043
 21
316.707783
  0
LINE
  5
602
100
AcDbEntity
  8
M0
 62
     6
100
AcDbLine
 10
235.262043
 20
315.207783
 11
229.212043
 21
315.207783
  0
LINE
  5
603
100
AcDbEntity
  8
M0
 62
     6
100
AcDbLine
 10
235.262043
 20
317.707783
 11
230.212043
 21
317.707783
  0
LINE
  5
604
100
AcDbEntity
  8
M0
 62
     6
100
AcDbLine
 10
231.212043
 20
325.957783
 11
231.662053
 21
325.957783
  0
ARC
  5
605
100
AcDbEntity
  8
M0
 62
     6
100
AcDbCircle
 10
231.212043
 20
318.457783
 40
1.0
100
AcDbArc
 50
90.0
 51
180.0
  0
LINE
  5
606
100
AcDbEntity
  8
M0
 62
     6
100
AcDbLine
 10
231.212043
 20
319.457783
 11
231.662053
 21
319.457783
  0
LINE
  5
607
100
AcDbEntity
  8
M0
 62
     6
100
AcDbLine
 10
241.712043
 20
315.207783
 11
241.712043
 21
336.207783
  0
LINE
  5
608
100
AcDbEntity
  8
M0
 62
     6
100
AcDbLine
 10
248.512043
 20
336.207783
 11
229.212043
 21
336.207783
  0
LINE
  5
609
100
AcDbEntity
  8
M0
 62
     6
100
AcDbLine
 10
239.712043
 20
332.757783
 11
241.712043
 21
332.757783
  0
LINE
  5
60A
100
AcDbEntity
  8
M0
 62
     6
100
AcDbLine
 10
239.712043
 20
335.057783
 11
239.712043
 21
332.757783
  0
LINE
  5
60B
100
AcDbEntity
  8
M0
 62
     6
100
AcDbLine
 10
239.712043
 20
335.057783
 11
241.712043
 21
335.057783
  0
LINE
  5
60C
100
AcDbEntity
  8
M0
 62
     6
100
AcDbLine
 10
229.212043
 20
334.707783
 11
229.212043
 21
336.207783
  0
LINE
  5
60D
100
AcDbEntity
  8
M0
 62
     6
100
AcDbLine
 10
97.702425
 20
297.007742
 11
96.702425
 21
297.007746
  0
LINE
  5
60E
100
AcDbEntity
  8
M0
 62
     6
100
AcDbLine
 10
58.702464
 20
304.007878
 11
60.702456
 21
306.008115
  0
LINE
  5
60F
100
AcDbEntity
  8
M0
 62
     6
100
AcDbLine
 10
75.702449
 20
299.507819
 11
73.70244
 21
301.50807
  0
LINE
  5
610
100
AcDbEntity
  8
M0
 62
     6
100
AcDbLine
 10
98.702449
 20
299.507739
 11
100.70244
 21
301.507976
  0
LINE
  5
611
100
AcDbEntity
  8
M0
 62
     6
100
AcDbLine
 10
78.702449
 20
299.507808
 11
80.70244
 21
301.508046
  0
LINE
  5
612
100
AcDbEntity
  8
M0
 62
     6
100
AcDbLine
 10
95.702449
 20
299.507749
 11
93.70244
 21
301.508244
  0
LINE
  5
613
100
AcDbEntity
  8
M0
 62
     6
100
AcDbLine
 10
98.702428
 20
298.007739
 11
98.702568
 21
338.007739
  0
LINE
  5
614
100
AcDbEntity
  8
M0
 62
     6
100
AcDbLine
 10
95.702428
 20
298.007749
 11
95.702568
 21
338.007749
  0
LINE
  5
615
100
AcDbEntity
  8
M0
 62
     6
100
AcDbLine
 10
75.702562
 20
336.507819
 11
71.050363
 21
336.507835
  0
LINE
  5
616
100
AcDbEntity
  8
M0
 62
     6
100
AcDbLine
 10
93.70244
 20
301.508244
 11
93.702484
 21
314.007756
  0
LINE
  5
617
100
AcDbEntity
  8
M0
 62
     6
100
AcDbLine
 10
78.702428
 20
298.007808
 11
78.702568
 21
338.007808
  0
LINE
  5
618
100
AcDbEntity
  8
M0
 62
     6
100
AcDbLine
 10
55.70244
 20
301.307937
 11
55.702573
 21
339.507889
  0
LINE
  5
619
100
AcDbEntity
  8
M0
 62
     6
100
AcDbLine
 10
118.552562
 20
336.507669
 11
110.099461
 21
336.507699
  0
ARC
  5
61A
100
AcDbEntity
  8
M0
 62
     6
100
AcDbCircle
 10
61.702484
 20
314.007868
 40
1.0
100
AcDbArc
 50
89.998926
 51
179.9998
  0
ARC
  5
61B
100
AcDbEntity
  8
M0
 62
     6
100
AcDbCircle
 10
101.702512
 20
322.007728
 40
1.0
100
AcDbArc
 50
179.9998
 51
270.0
  0
LINE
  5
61C
100
AcDbEntity
  8
M0
 62
     6
100
AcDbLine
 10
114.702506
 20
322.007683
 11
114.702557
 21
336.507683
  0
ARC
  5
61D
100
AcDbEntity
  8
M0
 62
     6
100
AcDbCircle
 10
81.702484
 20
314.007798
 40
1.0
100
AcDbArc
 50
89.998926
 51
179.9998
  0
ARC
  5
61E
100
AcDbEntity
  8
M0
 62
     6
100
AcDbCircle
 10
74.702512
 20
322.007822
 40
1.0
100
AcDbArc
 50
270.0
 51
359.9998
  0
LINE
  5
61F
100
AcDbEntity
  8
M0
 62
     6
100
AcDbLine
 10
75.702578
 20
336.507819
 11
73.702601
 21
334.50807
  0
ARC
  5
620
100
AcDbEntity
  8
M0
 62
     6
100
AcDbCircle
 10
57.702447
 20
303.507882
 40
1.0
100
AcDbArc
 50
270.0
 51
359.9998
  0
LINE
  5
621
100
AcDbEntity
  8
M0
 62
     6
100
AcDbLine
 10
75.70244
 20
301.307868
 11
55.70244
 21
301.307937
  0
LINE
  5
622
100
AcDbEntity
  8
M0
 62
     6
100
AcDbLine
 10
77.702425
 20
297.007812
 11
76.702425
 21
297.007815
  0
LINE
  5
623
100
AcDbEntity
  8
M0
 62
     6
100
AcDbLine
 10
95.70244
 20
301.307798
 11
78.70244
 21
301.307857
  0
LINE
  5
624
100
AcDbEntity
  8
M0
 62
     6
100
AcDbLine
 10
78.702578
 20
336.507808
 11
80.702556
 21
334.507801
  0
LINE
  5
625
100
AcDbEntity
  8
M0
 62
     6
100
AcDbLine
 10
57.702568
 20
338.007882
 11
55.702568
 21
338.007889
  0
LINE
  5
626
100
AcDbEntity
  8
M0
 62
     6
100
AcDbLine
 10
118.552433
 20
299.507669
 11
118.552489
 21
315.505228
  0
ARC
  5
627
100
AcDbEntity
  8
M0
 62
     6
100
AcDbCircle
 10
99.702494
 20
317.007735
 40
1.0
100
AcDbArc
 50
89.998926
 51
179.9998
  0
ARC
  5
628
100
AcDbEntity
  8
M0
 62
     6
100
AcDbCircle
 10
97.702428
 20
298.007742
 40
1.0
100
AcDbArc
 50
270.0
 51
359.9998
  0
ARC
  5
629
100
AcDbEntity
  8
M0
 62
     6
100
AcDbCircle
 10
76.702428
 20
298.007815
 40
1.0
100
AcDbArc
 50
179.9998
 51
270.0
  0
ARC
  5
62A
100
AcDbEntity
  8
M0
 62
     6
100
AcDbCircle
 10
57.702564
 20
337.007882
 40
1.0
100
AcDbArc
 50
359.9998
 51
449.998926
  0
ARC
  5
62B
100
AcDbEntity
  8
M0
 62
     6
100
AcDbCircle
 10
128.552515
 20
323.007634
 40
13.299996
100
AcDbArc
 50
165.18762
 51
194.810764
  0
ARC
  5
62C
100
AcDbEntity
  8
M0
 62
     6
100
AcDbCircle
 10
77.702428
 20
298.007812
 40
1.0
100
AcDbArc
 50
270.0
 51
359.9998
  0
ARC
  5
62D
100
AcDbEntity
  8
M0
 62
     6
100
AcDbCircle
 10
74.702494
 20
317.007822
 40
1.0
100
AcDbArc
 50
359.9998
 51
449.998926
  0
ARC
  5
62E
100
AcDbEntity
  8
M0
 62
     6
100
AcDbCircle
 10
96.702428
 20
298.007746
 40
1.0
100
AcDbArc
 50
179.9998
 51
270.0
  0
ARC
  5
62F
100
AcDbEntity
  8
M0
 62
     6
100
AcDbCircle
 10
79.702494
 20
317.007805
 40
1.0
100
AcDbArc
 50
89.998926
 51
179.9998
  0
ARC
  5
630
100
AcDbEntity
  8
M0
 62
     6
100
AcDbCircle
 10
59.702494
 20
317.007875
 40
1.0
100
AcDbArc
 50
89.998926
 51
179.9998
  0
ARC
  5
631
100
AcDbEntity
  8
M0
 62
     6
100
AcDbCircle
 10
118.052433
 20
299.507671
 40
0.5
100
AcDbArc
 50
270.0
 51
359.9998
  0
ARC
  5
632
100
AcDbEntity
  8
M0
 62
     6
100
AcDbCircle
 10
94.702494
 20
317.007753
 40
1.0
100
AcDbArc
 50
359.9998
 51
449.998926
  0
ARC
  5
633
100
AcDbEntity
  8
M0
 62
     6
100
AcDbCircle
 10
113.702506
 20
322.007686
 40
1.0
100
AcDbArc
 50
270.0
 51
359.9998
  0
ARC
  5
634
100
AcDbEntity
  8
M0
 62
     6
100
AcDbCircle
 10
116.202428
 20
299.507678
 40
0.5
100
AcDbArc
 50
179.9998
 51
270.0
  0
CIRCLE
  5
635
100
AcDbEntity
  8
M0
 62
     6
100
AcDbCircle
 10
67.202458
 20
328.00754
 40
5.0
  0
LINE
  5
636
100
AcDbEntity
  8
M0
 62
     6
100
AcDbLine
 10
58.702447
 20
303.507878
 11
58.702564
 21
337.007878
  0
CIRCLE
  5
637
100
AcDbEntity
  8
M0
 62
     6
100
AcDbCircle
 10
107.202427
 20
328.007296
 40
5.0
  0
LINE
  5
638
100
AcDbEntity
  8
M0
 62
     6
100
AcDbLine
 10
80.70244
 20
301.508046
 11
80.702484
 21
314.007801
  0
LINE
  5
639
100
AcDbEntity
  8
M0
 62
     6
100
AcDbLine
 10
75.702428
 20
298.007819
 11
75.702568
 21
338.007819
  0
CIRCLE
  5
63A
100
AcDbEntity
  8
M0
 62
     6
100
AcDbCircle
 10
87.202565
 20
328.007784
 40
5.0
  0
LINE
  5
63B
100
AcDbEntity
  8
M0
 62
     6
100
AcDbLine
 10
115.702428
 20
299.507679
 11
115.702489
 21
317.007679
  0
ARC
  5
63C
100
AcDbEntity
  8
M0
 62
     6
100
AcDbCircle
 10
77.702568
 20
338.007812
 40
1.0
100
AcDbArc
 50
359.9998
 51
449.998926
  0
ARC
  5
63D
100
AcDbEntity
  8
M0
 62
     6
100
AcDbCircle
 10
97.702568
 20
338.007742
 40
1.0
100
AcDbArc
 50
359.9998
 51
449.998926
  0
ARC
  5
63E
100
AcDbEntity
  8
M0
 62
     6
100
AcDbCircle
 10
96.702568
 20
338.007746
 40
1.0
100
AcDbArc
 50
89.998926
 51
179.9998
  0
CIRCLE
  5
63F
100
AcDbEntity
  8
M0
 62
     6
100
AcDbCircle
 10
87.202443
 20
308.007051
 40
5.0
  0
CIRCLE
  5
640
100
AcDbEntity
  8
M0
 62
     6
100
AcDbCircle
 10
107.202298
 20
308.007181
 40
5.0
  0
ARC
  5
641
100
AcDbEntity
  8
M0
 62
     6
100
AcDbCircle
 10
76.702568
 20
338.007815
 40
1.0
100
AcDbArc
 50
89.998926
 51
179.9998
  0
LINE
  5
642
100
AcDbEntity
  8
M0
 62
     6
100
AcDbLine
 10
112.837701
 20
339.007689
 11
111.43549
 21
339.007694
  0
LINE
  5
643
100
AcDbEntity
  8
M0
 62
     6
100
AcDbLine
 10
80.702512
 20
322.007801
 11
80.702556
 21
334.507801
  0
LINE
  5
644
100
AcDbEntity
  8
M0
 62
     6
100
AcDbLine
 10
94.702508
 20
321.007753
 11
79.702508
 21
321.007805
  0
LINE
  5
645
100
AcDbEntity
  8
M0
 62
     6
100
AcDbLine
 10
131.34142
 20
339.007671
 11
118.566799
 21
339.007422
  0
LINE
  5
646
100
AcDbEntity
  8
M0
 62
     6
100
AcDbLine
 10
64.975559
 20
339.507671
 11
55.702573
 21
339.507671
  0
LINE
  5
647
100
AcDbEntity
  8
M0
 62
     6
100
AcDbLine
 10
113.702503
 20
321.007686
 11
98.702508
 21
321.007739
  0
LINE
  5
648
100
AcDbEntity
  8
M0
 62
     6
100
AcDbLine
 10
73.702558
 20
322.007826
 11
73.702601
 21
334.50807
  0
LINE
  5
649
100
AcDbEntity
  8
M0
 62
     6
100
AcDbLine
 10
114.702482
 20
315.007683
 11
99.702487
 21
315.007735
  0
LINE
  5
64A
100
AcDbEntity
  8
M0
 62
     6
100
AcDbLine
 10
74.702498
 20
318.007822
 11
59.702498
 21
318.007875
  0
LINE
  5
64B
100
AcDbEntity
  8
M0
 62
     6
100
AcDbLine
 10
60.702558
 20
322.007871
 11
60.702601
 21
334.508604
  0
LINE
  5
64C
100
AcDbEntity
  8
M0
 62
     6
100
AcDbLine
 10
57.702444
 20
302.507882
 11
55.702444
 21
302.507889
  0
LINE
  5
64D
100
AcDbEntity
  8
M0
 62
     6
100
AcDbLine
 10
94.702498
 20
318.007753
 11
79.702498
 21
318.007805
  0
LINE
  5
64E
100
AcDbEntity
  8
M0
 62
     6
100
AcDbLine
 10
94.702487
 20
315.007753
 11
79.702487
 21
315.007805
  0
LINE
  5
64F
100
AcDbEntity
  8
M0
 62
     6
100
AcDbLine
 10
95.702562
 20
336.507749
 11
90.58752
 21
336.507767
  0
LINE
  5
650
100
AcDbEntity
  8
M0
 62
     6
100
AcDbLine
 10
140.706032
 20
337.505228
 11
110.595632
 21
337.504936
  0
LINE
  5
651
100
AcDbEntity
  8
M0
 62
     6
100
AcDbLine
 10
95.702566
 20
337.507749
 11
91.103883
 21
337.507765
  0
LINE
  5
652
100
AcDbEntity
  8
M0
 62
     6
100
AcDbLine
 10
75.702566
 20
337.507819
 11
71.492444
 21
337.507834
  0
LINE
  5
653
100
AcDbEntity
  8
M0
 62
     6
100
AcDbLine
 10
115.70603
 20
318.005228
 11
115.706029
 21
315.505228
  0
LINE
  5
654
100
AcDbEntity
  8
M0
 62
     6
100
AcDbLine
 10
112.206028
 20
315.007691
 11
112.206032
 21
321.007691
  0
LINE
  5
655
100
AcDbEntity
  8
M0
 62
     6
100
AcDbLine
 10
118.556042
 20
326.405228
 11
115.693811
 21
326.405228
  0
LINE
  5
656
100
AcDbEntity
  8
M0
 62
     6
100
AcDbLine
 10
118.556037
 20
319.605228
 11
115.695084
 21
319.605228
  0
LINE
  5
657
100
AcDbEntity
  8
M0
 62
     6
100
AcDbLine
 10
73.70244
 20
301.50807
 11
73.702484
 21
314.007826
  0
LINE
  5
658
100
AcDbEntity
  8
M0
 62
     6
100
AcDbLine
 10
93.702512
 20
322.007756
 11
93.702556
 21
334.507756
  0
LINE
  5
659
100
AcDbEntity
  8
M0
 62
     6
100
AcDbLine
 10
100.70244
 20
301.507976
 11
100.702484
 21
314.007732
  0
LINE
  5
65A
100
AcDbEntity
  8
M0
 62
     6
100
AcDbLine
 10
113.702434
 20
301.307735
 11
113.702478
 21
314.007686
  0
LINE
  5
65B
100
AcDbEntity
  8
M0
 62
     6
100
AcDbLine
 10
100.702512
 20
322.007732
 11
100.702556
 21
334.50822
  0
LINE
  5
65C
100
AcDbEntity
  8
M0
 62
     6
100
AcDbLine
 10
113.702506
 20
322.007686
 11
113.702557
 21
336.507686
  0
ARC
  5
65D
100
AcDbEntity
  8
M0
 62
     6
100
AcDbCircle
 10
99.702484
 20
314.007735
 40
1.0
100
AcDbArc
 50
89.998926
 51
179.9998
  0
ARC
  5
65E
100
AcDbEntity
  8
M0
 62
     6
100
AcDbCircle
 10
114.702478
 20
314.007683
 40
1.0
100
AcDbArc
 50
359.9998
 51
450.0
  0
ARC
  5
65F
100
AcDbEntity
  8
M0
 62
     6
100
AcDbCircle
 10
94.702484
 20
314.007753
 40
1.0
100
AcDbArc
 50
359.9998
 51
449.998926
  0
ARC
  5
660
100
AcDbEntity
  8
M0
 62
     6
100
AcDbCircle
 10
74.702484
 20
314.007822
 40
1.0
100
AcDbArc
 50
359.9998
 51
449.998926
  0
ARC
  5
661
100
AcDbEntity
  8
M0
 62
     6
100
AcDbCircle
 10
59.702484
 20
314.007875
 40
1.0
100
AcDbArc
 50
89.998926
 51
179.9998
  0
ARC
  5
662
100
AcDbEntity
  8
M0
 62
     6
100
AcDbCircle
 10
112.702506
 20
322.00769
 40
1.0
100
AcDbArc
 50
270.0
 51
359.9998
  0
ARC
  5
663
100
AcDbEntity
  8
M0
 62
     6
100
AcDbCircle
 10
94.702512
 20
322.007753
 40
1.0
100
AcDbArc
 50
270.0
 51
359.9998
  0
ARC
  5
664
100
AcDbEntity
  8
M0
 62
     6
100
AcDbCircle
 10
79.702512
 20
322.007805
 40
1.0
100
AcDbArc
 50
179.9998
 51
270.0
  0
ARC
  5
665
100
AcDbEntity
  8
M0
 62
     6
100
AcDbCircle
 10
112.702478
 20
314.00769
 40
1.0
100
AcDbArc
 50
359.9998
 51
450.0
  0
CIRCLE
  5
666
100
AcDbEntity
  8
M0
 62
     6
100
AcDbCircle
 10
67.202443
 20
308.007051
 40
5.0
  0
ARC
  5
667
100
AcDbEntity
  8
M0
 62
     6
100
AcDbCircle
 10
72.702484
 20
314.007829
 40
1.0
100
AcDbArc
 50
359.9998
 51
449.998926
  0
ARC
  5
668
100
AcDbEntity
  8
M0
 62
     6
100
AcDbCircle
 10
92.702484
 20
314.00776
 40
1.0
100
AcDbArc
 50
359.9998
 51
449.998926
  0
ARC
  5
669
100
AcDbEntity
  8
M0
 62
     6
100
AcDbCircle
 10
59.702512
 20
322.007875
 40
1.0
100
AcDbArc
 50
179.9998
 51
270.0
  0
ARC
  5
66A
100
AcDbEntity
  8
M0
 62
     6
100
AcDbCircle
 10
101.702484
 20
314.007728
 40
1.0
100
AcDbArc
 50
89.998926
 51
179.9998
  0
LINE
  5
66B
100
AcDbEntity
  8
M0
 62
     6
100
AcDbLine
 10
115.702434
 20
301.307728
 11
98.70244
 21
301.307787
  0
LINE
  5
66C
100
AcDbEntity
  8
M0
 62
     6
100
AcDbLine
 10
74.702487
 20
315.007822
 11
59.702487
 21
315.007875
  0
LINE
  5
66D
100
AcDbEntity
  8
M0
 62
     6
100
AcDbLine
 10
95.702639
 20
336.507749
 11
93.702556
 21
334.507756
  0
LINE
  5
66E
100
AcDbEntity
  8
M0
 62
     6
100
AcDbLine
 10
74.702508
 20
321.007822
 11
59.702508
 21
321.007875
  0
LINE
  5
66F
100
AcDbEntity
  8
M0
 62
     6
100
AcDbLine
 10
112.20603
 20
318.007691
 11
99.702498
 21
318.007735
  0
LINE
  5
670
100
AcDbEntity
  8
M0
 62
     6
100
AcDbLine
 10
58.702639
 20
336.508122
 11
60.702601
 21
334.508604
  0
LINE
  5
671
100
AcDbEntity
  8
M0
 62
     6
100
AcDbLine
 10
60.702456
 20
306.008115
 11
60.702484
 21
314.007871
  0
ARC
  5
672
100
AcDbEntity
  8
M0
 62
     6
100
AcDbCircle
 10
79.702484
 20
314.007805
 40
1.0
100
AcDbArc
 50
89.998926
 51
179.9998
  0
ARC
  5
673
100
AcDbEntity
  8
M0
 62
     6
100
AcDbCircle
 10
61.702558
 20
322.007868
 40
1.0
100
AcDbArc
 50
179.9998
 51
270.0
  0
ARC
  5
674
100
AcDbEntity
  8
M0
 62
     6
100
AcDbCircle
 10
72.702558
 20
322.007829
 40
1.0
100
AcDbArc
 50
270.0
 51
359.9998
  0
LINE
  5
675
100
AcDbEntity
  8
M0
 62
     6
100
AcDbLine
 10
98.702639
 20
336.507739
 11
100.702556
 21
334.50822
  0
LINE
  5
676
100
AcDbEntity
  8
M0
 62
     6
100
AcDbLine
 10
118.052431
 20
299.007671
 11
116.202426
 21
299.007678
  0
ARC
  5
677
100
AcDbEntity
  8
M0
 62
     6
100
AcDbCircle
 10
92.702512
 20
322.00776
 40
1.0
100
AcDbArc
 50
270.0
 51
359.9998
  0
ARC
  5
678
100
AcDbEntity
  8
M0
 62
     6
100
AcDbCircle
 10
81.702512
 20
322.007798
 40
1.0
100
AcDbArc
 50
179.9998
 51
270.0
  0
CIRCLE
  5
679
100
AcDbEntity
  8
M0
 62
     6
100
AcDbCircle
 10
107.202427
 20
328.007425
 40
4.5
  0
LINE
  5
67A
100
AcDbEntity
  8
M0
 62
     6
100
AcDbLine
 10
105.242421
 20
329.967386
 11
109.162419
 21
326.04722
  0
LINE
  5
67B
100
AcDbEntity
  8
M0
 62
     6
100
AcDbLine
 10
108.070363
 20
330.289408
 11
104.920262
 21
327.139261
  0
LINE
  5
67C
100
AcDbEntity
  8
M0
 62
     6
100
AcDbLine
 10
109.484562
 20
328.875345
 11
106.334462
 21
325.725199
  0
LINE
  5
67D
100
AcDbEntity
  8
M0
  6
DASHDOT
 62
     6
100
AcDbLine
 10
106.702427
 20
328.007425
 11
107.702427
 21
328.007425
  0
LINE
  5
67E
100
AcDbEntity
  8
M0
  6
DASHDOT
 62
     6
100
AcDbLine
 10
107.202427
 20
327.507425
 11
107.202427
 21
328.507425
  0
CIRCLE
  5
67F
100
AcDbEntity
  8
M0
 62
     6
100
AcDbCircle
 10
67.202443
 20
308.007181
 40
4.5
  0
LINE
  5
680
100
AcDbEntity
  8
M0
 62
     6
100
AcDbLine
 10
65.242436
 20
309.967142
 11
69.162434
 21
306.046976
  0
LINE
  5
681
100
AcDbEntity
  8
M0
 62
     6
100
AcDbLine
 10
68.070378
 20
310.289163
 11
64.920277
 21
307.139017
  0
LINE
  5
682
100
AcDbEntity
  8
M0
 62
     6
100
AcDbLine
 10
69.484578
 20
308.875101
 11
66.334477
 21
305.724955
  0
LINE
  5
683
100
AcDbEntity
  8
M0
  6
DASHDOT
 62
     6
100
AcDbLine
 10
66.702443
 20
308.007181
 11
67.702443
 21
308.007181
  0
LINE
  5
684
100
AcDbEntity
  8
M0
  6
DASHDOT
 62
     6
100
AcDbLine
 10
67.202443
 20
307.507181
 11
67.202443
 21
308.507181
  0
CIRCLE
  5
685
100
AcDbEntity
  8
M0
 62
     6
100
AcDbCircle
 10
107.202427
 20
308.007181
 40
4.5
  0
LINE
  5
686
100
AcDbEntity
  8
M0
 62
     6
100
AcDbLine
 10
105.242421
 20
309.967142
 11
109.162419
 21
306.046976
  0
LINE
  5
687
100
AcDbEntity
  8
M0
 62
     6
100
AcDbLine
 10
108.070363
 20
310.289163
 11
104.920262
 21
307.139017
  0
LINE
  5
688
100
AcDbEntity
  8
M0
 62
     6
100
AcDbLine
 10
109.484562
 20
308.875101
 11
106.334462
 21
305.724955
  0
LINE
  5
689
100
AcDbEntity
  8
M0
  6
DASHDOT
 62
     6
100
AcDbLine
 10
106.702427
 20
308.007181
 11
107.702427
 21
308.007181
  0
LINE
  5
68A
100
AcDbEntity
  8
M0
  6
DASHDOT
 62
     6
100
AcDbLine
 10
107.202427
 20
307.507181
 11
107.202427
 21
308.507181
  0
CIRCLE
  5
68B
100
AcDbEntity
  8
M0
 62
     6
100
AcDbCircle
 10
87.202443
 20
308.007181
 40
4.5
  0
LINE
  5
68C
100
AcDbEntity
  8
M0
 62
     6
100
AcDbLine
 10
85.242436
 20
309.967142
 11
89.162434
 21
306.046976
  0
LINE
  5
68D
100
AcDbEntity
  8
M0
 62
     6
100
AcDbLine
 10
88.070378
 20
310.289163
 11
84.920277
 21
307.139017
  0
LINE
  5
68E
100
AcDbEntity
  8
M0
 62
     6
100
AcDbLine
 10
89.484578
 20
308.875101
 11
86.334477
 21
305.724955
  0
LINE
  5
68F
100
AcDbEntity
  8
M0
  6
DASHDOT
 62
     6
100
AcDbLine
 10
86.702443
 20
308.007181
 11
87.702443
 21
308.007181
  0
LINE
  5
690
100
AcDbEntity
  8
M0
  6
DASHDOT
 62
     6
100
AcDbLine
 10
87.202443
 20
307.507181
 11
87.202443
 21
308.507181
  0
CIRCLE
  5
691
100
AcDbEntity
  8
M0
 62
     6
100
AcDbCircle
 10
122.704823
 20
311.005228
 40
2.999997
  0
LINE
  5
692
100
AcDbEntity
  8
M0
 62
     6
100
AcDbLine
 10
119.916225
 20
315.505228
 11
118.929677
 21
312.305277
  0
LINE
  5
693
100
AcDbEntity
  8
M0
 62
     6
100
AcDbLine
 10
119.745839
 20
307.057978
 11
118.929677
 21
309.705301
  0
LINE
  5
694
100
AcDbEntity
  8
M0
 62
     6
100
AcDbLine
 10
125.644673
 20
315.013041
 11
126.479725
 21
312.305277
  0
LINE
  5
695
100
AcDbEntity
  8
M0
 62
     6
100
AcDbLine
 10
125.663319
 20
307.057962
 11
126.479725
 21
309.705301
  0
LINE
  5
696
100
AcDbEntity
  8
M0
 62
     6
100
AcDbLine
 10
120.223866
 20
306.705301
 11
125.185536
 21
306.705301
  0
LINE
  5
697
100
AcDbEntity
  8
M0
 62
     6
100
AcDbLine
 10
126.479725
 20
309.705301
 11
126.479725
 21
312.305277
  0
LINE
  5
698
100
AcDbEntity
  8
M0
 62
     6
100
AcDbLine
 10
118.929677
 20
312.305277
 11
118.929677
 21
309.705301
  0
LINE
  5
699
100
AcDbEntity
  8
M0
 62
     6
100
AcDbLine
 10
124.295399
 20
309.414408
 11
121.113759
 21
312.59617
  0
LINE
  5
69A
100
AcDbEntity
  8
M0
 62
     6
100
AcDbLine
 10
123.058094
 20
312.419413
 11
121.290516
 21
310.651712
  0
LINE
  5
69B
100
AcDbEntity
  8
M0
 62
     6
100
AcDbLine
 10
124.118641
 20
311.358744
 11
122.351063
 21
309.591165
  0
ARC
  5
69C
100
AcDbEntity
  8
M0
 62
     6
100
AcDbCircle
 10
120.223866
 20
307.205301
 40
0.5
100
AcDbArc
 50
197.128737
 51
270.0
  0
ARC
  5
69D
100
AcDbEntity
  8
M0
 62
     6
100
AcDbCircle
 10
125.185536
 20
307.205301
 40
0.5
100
AcDbArc
 50
270.0
 51
342.861308
  0
ARC
  5
69E
100
AcDbEntity
  8
M0
 62
     6
100
AcDbCircle
 10
125.185536
 20
314.805155
 40
0.5
100
AcDbArc
 50
17.138692
 51
90.0
  0
LINE
  5
69F
100
AcDbEntity
  8
M0
 62
     6
100
AcDbLine
 10
120.223866
 20
315.305155
 11
125.185536
 21
315.305155
  0
ARC
  5
6A0
100
AcDbEntity
  8
M0
 62
     6
100
AcDbCircle
 10
120.223866
 20
314.805155
 40
0.5
100
AcDbArc
 50
90.0
 51
162.871263
  0
LINE
  5
6A1
100
AcDbEntity
  8
M0
  6
DASHDOT
 62
     6
100
AcDbLine
 10
122.204823
 20
311.005228
 11
123.204823
 21
311.005228
  0
LINE
  5
6A2
100
AcDbEntity
  8
M0
  6
DASHDOT
 62
     6
100
AcDbLine
 10
122.704823
 20
310.505228
 11
122.704823
 21
311.505228
  0
CIRCLE
  5
6A3
100
AcDbEntity
  8
M0
 62
     6
100
AcDbCircle
 10
133.704823
 20
311.005228
 40
2.999997
  0
LINE
  5
6A4
100
AcDbEntity
  8
M0
 62
     6
100
AcDbLine
 10
130.761582
 20
315.003628
 11
129.929677
 21
312.305277
  0
LINE
  5
6A5
100
AcDbEntity
  8
M0
 62
     6
100
AcDbLine
 10
130.745839
 20
307.057978
 11
129.929677
 21
309.705301
  0
LINE
  5
6A6
100
AcDbEntity
  8
M0
 62
     6
100
AcDbLine
 10
136.682736
 20
314.889619
 11
137.479725
 21
312.305277
  0
LINE
  5
6A7
100
AcDbEntity
  8
M0
 62
     6
100
AcDbLine
 10
136.663319
 20
307.057962
 11
137.479725
 21
309.705301
  0
LINE
  5
6A8
100
AcDbEntity
  8
M0
 62
     6
100
AcDbLine
 10
131.223866
 20
306.705301
 11
136.185536
 21
306.705301
  0
LINE
  5
6A9
100
AcDbEntity
  8
M0
 62
     6
100
AcDbLine
 10
137.479725
 20
309.705301
 11
137.479725
 21
312.305277
  0
LINE
  5
6AA
100
AcDbEntity
  8
M0
 62
     6
100
AcDbLine
 10
129.929677
 20
312.305277
 11
129.929677
 21
309.705301
  0
LINE
  5
6AB
100
AcDbEntity
  8
M0
 62
     6
100
AcDbLine
 10
135.295399
 20
309.414408
 11
132.113759
 21
312.59617
  0
LINE
  5
6AC
100
AcDbEntity
  8
M0
 62
     6
100
AcDbLine
 10
134.058094
 20
312.419413
 11
132.290516
 21
310.651712
  0
LINE
  5
6AD
100
AcDbEntity
  8
M0
 62
     6
100
AcDbLine
 10
135.118641
 20
311.358744
 11
133.351063
 21
309.591165
  0
ARC
  5
6AE
100
AcDbEntity
  8
M0
 62
     6
100
AcDbCircle
 10
131.223866
 20
307.205301
 40
0.5
100
AcDbArc
 50
197.128737
 51
270.0
  0
ARC
  5
6AF
100
AcDbEntity
  8
M0
 62
     6
100
AcDbCircle
 10
136.185536
 20
307.205301
 40
0.5
100
AcDbArc
 50
270.0
 51
342.861308
  0
ARC
  5
6B0
100
AcDbEntity
  8
M0
 62
     6
100
AcDbCircle
 10
136.185536
 20
314.805155
 40
0.5
100
AcDbArc
 50
17.138692
 51
90.0
  0
LINE
  5
6B1
100
AcDbEntity
  8
M0
 62
     6
100
AcDbLine
 10
131.654248
 20
315.305155
 11
136.185536
 21
315.305155
  0
ARC
  5
6B2
100
AcDbEntity
  8
M0
 62
     6
100
AcDbCircle
 10
131.223866
 20
314.805155
 40
0.5
100
AcDbArc
 50
156.480883
 51
162.871263
  0
LINE
  5
6B3
100
AcDbEntity
  8
M0
  6
DASHDOT
 62
     6
100
AcDbLine
 10
133.204823
 20
311.005228
 11
134.204823
 21
311.005228
  0
LINE
  5
6B4
100
AcDbEntity
  8
M0
  6
DASHDOT
 62
     6
100
AcDbLine
 10
133.704823
 20
310.505228
 11
133.704823
 21
311.505228
  0
CIRCLE
  5
6B5
100
AcDbEntity
  8
M0
 62
     6
100
AcDbCircle
 10
67.202458
 20
328.007669
 40
4.5
  0
LINE
  5
6B6
100
AcDbEntity
  8
M0
 62
     6
100
AcDbLine
 10
65.242451
 20
329.96763
 11
69.162449
 21
326.047464
  0
LINE
  5
6B7
100
AcDbEntity
  8
M0
 62
     6
100
AcDbLine
 10
68.070393
 20
330.289652
 11
64.920292
 21
327.139505
  0
LINE
  5
6B8
100
AcDbEntity
  8
M0
 62
     6
100
AcDbLine
 10
69.484593
 20
328.875589
 11
66.334492
 21
325.725443
  0
LINE
  5
6B9
100
AcDbEntity
  8
M0
  6
DASHDOT
 62
     6
100
AcDbLine
 10
66.702458
 20
328.007669
 11
67.702458
 21
328.007669
  0
LINE
  5
6BA
100
AcDbEntity
  8
M0
  6
DASHDOT
 62
     6
100
AcDbLine
 10
67.202458
 20
327.507669
 11
67.202458
 21
328.507669
  0
CIRCLE
  5
6BB
100
AcDbEntity
  8
M0
 62
     6
100
AcDbCircle
 10
87.202565
 20
328.007913
 40
4.5
  0
LINE
  5
6BC
100
AcDbEntity
  8
M0
 62
     6
100
AcDbLine
 10
85.242558
 20
329.967874
 11
89.162556
 21
326.047708
  0
LINE
  5
6BD
100
AcDbEntity
  8
M0
 62
     6
100
AcDbLine
 10
88.0705
 20
330.289896
 11
84.920399
 21
327.139749
  0
LINE
  5
6BE
100
AcDbEntity
  8
M0
 62
     6
100
AcDbLine
 10
89.4847
 20
328.875833
 11
86.334599
 21
325.725687
  0
LINE
  5
6BF
100
AcDbEntity
  8
M0
  6
DASHDOT
 62
     6
100
AcDbLine
 10
86.702565
 20
328.007913
 11
87.702565
 21
328.007913
  0
LINE
  5
6C0
100
AcDbEntity
  8
M0
  6
DASHDOT
 62
     6
100
AcDbLine
 10
87.202565
 20
327.507913
 11
87.202565
 21
328.507913
  0
ARC
  5
6C1
100
AcDbEntity
  8
M0
 62
     6
100
AcDbCircle
 10
133.706044
 20
304.005228
 40
2.999997
100
AcDbArc
 50
115.844051
 51
424.156194
  0
LINE
  5
6C2
100
AcDbEntity
  8
M0
 62
     6
100
AcDbLine
 10
130.608555
 20
307.503031
 11
129.930897
 21
305.305277
  0
LINE
  5
6C3
100
AcDbEntity
  8
M0
 62
     6
100
AcDbLine
 10
130.747059
 20
300.057978
 11
129.930897
 21
302.705301
  0
LINE
  5
6C4
100
AcDbEntity
  8
M0
 62
     6
100
AcDbLine
 10
136.801869
 20
307.507181
 11
137.480946
 21
305.305277
  0
LINE
  5
6C5
100
AcDbEntity
  8
M0
 62
     6
100
AcDbLine
 10
136.66454
 20
300.057962
 11
137.480946
 21
302.705301
  0
LINE
  5
6C6
100
AcDbEntity
  8
M0
 62
     6
100
AcDbLine
 10
131.225087
 20
299.705301
 11
136.186757
 21
299.705301
  0
LINE
  5
6C7
100
AcDbEntity
  8
M0
 62
     6
100
AcDbLine
 10
137.480946
 20
302.705301
 11
137.480946
 21
305.305277
  0
LINE
  5
6C8
100
AcDbEntity
  8
M0
 62
     6
100
AcDbLine
 10
129.930897
 20
305.305277
 11
129.930897
 21
302.705301
  0
LINE
  5
6C9
100
AcDbEntity
  8
M0
 62
     6
100
AcDbLine
 10
135.29662
 20
302.414408
 11
132.114979
 21
305.59617
  0
LINE
  5
6CA
100
AcDbEntity
  8
M0
 62
     6
100
AcDbLine
 10
134.059315
 20
305.419413
 11
132.291737
 21
303.651712
  0
LINE
  5
6CB
100
AcDbEntity
  8
M0
 62
     6
100
AcDbLine
 10
135.119862
 20
304.358744
 11
133.352284
 21
302.591165
  0
ARC
  5
6CC
100
AcDbEntity
  8
M0
 62
     6
100
AcDbCircle
 10
131.225087
 20
300.205301
 40
0.5
100
AcDbArc
 50
197.128737
 51
270.0
  0
ARC
  5
6CD
100
AcDbEntity
  8
M0
 62
     6
100
AcDbCircle
 10
136.186757
 20
300.205301
 40
0.5
100
AcDbArc
 50
270.0
 51
342.861308
  0
LINE
  5
6CE
100
AcDbEntity
  8
M0
  6
DASHDOT
 62
     6
100
AcDbLine
 10
133.206044
 20
304.005228
 11
134.206044
 21
304.005228
  0
LINE
  5
6CF
100
AcDbEntity
  8
M0
  6
DASHDOT
 62
     6
100
AcDbLine
 10
133.706044
 20
303.505228
 11
133.706044
 21
304.505228
  0
LINE
  5
6D0
100
AcDbEntity
  8
M0
 62
     6
100
AcDbLine
 10
117.702168
 20
339.505015
 11
113.702168
 21
339.505
  0
LINE
  5
6D1
100
AcDbEntity
  8
M0
 62
     6
100
AcDbLine
 10
112.702168
 20
338.505
 11
112.702168
 21
337.505015
  0
LINE
  5
6D2
100
AcDbEntity
  8
M0
 62
     6
100
AcDbLine
 10
118.702168
 20
338.505015
 11
118.702168
 21
337.505015
  0
ARC
  5
6D3
100
AcDbEntity
  8
M0
 62
     6
100
AcDbCircle
 10
117.702168
 20
338.505015
 40
1.0
100
AcDbArc
 50
0.0
 51
89.999126
  0
ARC
  5
6D4
100
AcDbEntity
  8
M0
 62
     6
100
AcDbCircle
 10
113.702168
 20
338.505
 40
1.0
100
AcDbArc
 50
89.999126
 51
179.999966
  0
ARC
  5
6D5
100
AcDbEntity
  8
M0
 62
     6
100
AcDbCircle
 10
128.706016
 20
296.005235
 40
1.0
100
AcDbArc
 50
179.999964
 51
270.0
  0
ARC
  5
6D6
100
AcDbEntity
  8
M0
 62
     6
100
AcDbCircle
 10
128.706016
 20
296.005235
 40
1.0
100
AcDbArc
 50
270.0
 51
359.999964
  0
LINE
  5
6D7
100
AcDbEntity
  8
M0
 62
     6
100
AcDbLine
 10
119.706047
 20
296.005241
 11
116.706047
 21
296.005243
  0
LINE
  5
6D8
100
AcDbEntity
  8
M0
 62
     6
100
AcDbLine
 10
140.706042
 20
336.505228
 11
115.540041
 21
336.504984
  0
LINE
  5
6D9
100
AcDbEntity
  8
M0
 62
     6
100
AcDbLine
 10
119.706034
 20
300.005241
 11
120.763331
 21
300.00524
  0
LINE
  5
6DA
100
AcDbEntity
  8
M0
 62
     6
100
AcDbLine
 10
140.706017
 20
297.505228
 11
140.706044
 21
339.505228
  0
LINE
  5
6DB
100
AcDbEntity
  8
M0
 62
     6
100
AcDbLine
 10
137.706018
 20
298.00523
 11
137.706029
 21
315.505228
  0
LINE
  5
6DC
100
AcDbEntity
  8
M0
 62
     6
100
AcDbLine
 10
140.206007
 20
306.005228
 11
138.706007
 21
306.005229
  0
ARC
  5
6DD
100
AcDbEntity
  8
M0
 62
     6
100
AcDbCircle
 10
140.206008
 20
306.505228
 40
0.5
100
AcDbArc
 50
270.0
 51
359.999964
  0
ARC
  5
6DE
100
AcDbEntity
  8
M0
 62
     6
100
AcDbCircle
 10
138.706008
 20
307.005229
 40
1.0
100
AcDbArc
 50
179.999964
 51
270.0
  0
LINE
  5
6DF
100
AcDbEntity
  8
M0
 62
     6
100
AcDbLine
 10
140.206018
 20
299.005228
 11
138.706018
 21
299.005229
  0
LINE
  5
6E0
100
AcDbEntity
  8
M0
 62
     6
100
AcDbLine
 10
140.206017
 20
297.005228
 11
138.706017
 21
297.005229
  0
ARC
  5
6E1
100
AcDbEntity
  8
M0
 62
     6
100
AcDbCircle
 10
140.206017
 20
297.505228
 40
0.5
100
AcDbArc
 50
270.0
 51
359.999964
  0
ARC
  5
6E2
100
AcDbEntity
  8
M0
 62
     6
100
AcDbCircle
 10
138.706018
 20
298.005229
 40
1.0
100
AcDbArc
 50
179.999964
 51
270.0
  0
ARC
  5
6E3
100
AcDbEntity
  8
M0
 62
     6
100
AcDbCircle
 10
140.206019
 20
299.505228
 40
0.5
100
AcDbArc
 50
270.0
 51
359.999964
  0
ARC
  5
6E4
100
AcDbEntity
  8
M0
 62
     6
100
AcDbCircle
 10
138.706019
 20
300.005229
 40
1.0
100
AcDbArc
 50
179.999964
 51
270.0
  0
LINE
  5
6E5
100
AcDbEntity
  8
M0
 62
     6
100
AcDbLine
 10
140.206021
 20
304.005228
 11
138.706021
 21
304.005229
  0
ARC
  5
6E6
100
AcDbEntity
  8
M0
 62
     6
100
AcDbCircle
 10
138.706022
 20
305.005229
 40
1.0
100
AcDbArc
 50
179.999964
 51
270.0
  0
ARC
  5
6E7
100
AcDbEntity
  8
M0
 62
     6
100
AcDbCircle
 10
140.206022
 20
304.505228
 40
0.5
100
AcDbArc
 50
270.0
 51
359.999964
  0
LINE
  5
6E8
100
AcDbEntity
  8
M0
 62
     6
100
AcDbLine
 10
129.706016
 20
296.005235
 11
129.706028
 21
314.785281
  0
LINE
  5
6E9
100
AcDbEntity
  8
M0
 62
     6
100
AcDbLine
 10
136.64828
 20
300.00523
 11
137.705988
 21
300.00523
  0
LINE
  5
6EA
100
AcDbEntity
  8
M0
 62
     6
100
AcDbLine
 10
137.705993
 20
307.00523
 11
136.956679
 21
307.004986
  0
LINE
  5
6EB
100
AcDbEntity
  8
M0
 62
     6
100
AcDbLine
 10
130.455062
 20
307.00499
 11
129.705993
 21
307.005235
  0
LINE
  5
6EC
100
AcDbEntity
  8
M0
 62
     6
100
AcDbLine
 10
126.70599
 20
303.005237
 11
126.706015
 21
314.914036
  0
LINE
  5
6ED
100
AcDbEntity
  8
M0
 62
     6
100
AcDbLine
 10
128.70602
 20
302.005235
 11
127.70602
 21
302.005236
  0
ARC
  5
6EE
100
AcDbEntity
  8
M0
 62
     6
100
AcDbCircle
 10
128.706021
 20
303.005235
 40
1.0
100
AcDbArc
 50
270.0
 51
359.999964
  0
ARC
  5
6EF
100
AcDbEntity
  8
M0
 62
     6
100
AcDbCircle
 10
127.706021
 20
303.005236
 40
1.0
100
AcDbArc
 50
179.999964
 51
270.0
  0
LINE
  5
6F0
100
AcDbEntity
  8
M0
 62
     6
100
AcDbLine
 10
125.647079
 20
307.005237
 11
126.706023
 21
307.005237
  0
LINE
  5
6F1
100
AcDbEntity
  8
M0
 62
     6
100
AcDbLine
 10
120.706034
 20
300.005241
 11
120.706034
 21
300.191032
  0
LINE
  5
6F2
100
AcDbEntity
  8
M0
 62
     6
100
AcDbLine
 10
119.706047
 20
296.005241
 11
119.706039
 21
307.187126
  0
LINE
  5
6F3
100
AcDbEntity
  8
M0
 62
     6
100
AcDbLine
 10
127.706016
 20
296.005236
 11
127.70602
 21
302.005236
  0
LINE
  5
6F4
100
AcDbEntity
  8
M0
 62
     6
100
AcDbLine
 10
129.705988
 20
300.005235
 11
130.763316
 21
300.005234
  0
LINE
  5
6F5
100
AcDbEntity
  8
M0
 62
     6
100
AcDbLine
 10
119.706035
 20
301.505241
 11
118.552394
 21
301.504998
  0
LINE
  5
6F6
100
AcDbEntity
  8
M0
 62
     6
100
AcDbLine
 10
119.706036
 20
303.505241
 11
118.552396
 21
303.504998
  0
LINE
  5
6F7
100
AcDbEntity
  8
M0
 62
     6
100
AcDbLine
 10
116.706032
 20
296.005243
 11
116.706034
 21
299.00744
  0
ARC
  5
6F8
100
AcDbEntity
  8
M0
 62
     6
100
AcDbCircle
 10
136.206028
 20
314.005231
 40
1.499996
100
AcDbArc
 50
359.999964
 51
371.546587
  0
LINE
  5
6F9
100
AcDbEntity
  8
M0
 62
     6
100
AcDbLine
 10
118.556039
 20
323.005242
 11
117.056038
 21
321.505258
  0
LINE
  5
6FA
100
AcDbEntity
  8
M0
 62
     6
100
AcDbLine
 10
118.556039
 20
323.005242
 11
117.05604
 21
324.505243
  0
LINE
  5
6FB
100
AcDbEntity
  8
M0
 62
     6
100
AcDbLine
 10
116.206078
 20
321.505228
 11
116.20608
 21
324.505228
  0
LINE
  5
6FC
100
AcDbEntity
  8
M0
 62
     6
100
AcDbLine
 10
118.556046
 20
334.005228
 11
118.556036
 21
318.005228
  0
LINE
  5
6FD
100
AcDbEntity
  8
M0
 62
     6
100
AcDbLine
 10
117.056023
 20
321.504999
 11
116.206063
 21
321.505243
  0
LINE
  5
6FE
100
AcDbEntity
  8
M0
 62
     6
100
AcDbLine
 10
117.05604
 20
324.504999
 11
116.20608
 21
324.505243
  0
LINE
  5
6FF
100
AcDbEntity
  8
M0
 62
     6
100
AcDbLine
 10
126.648295
 20
300.005237
 11
127.705988
 21
300.005236
  0
LINE
  5
700
100
AcDbEntity
  8
M0
 62
     6
100
AcDbLine
 10
140.706044
 20
339.505228
 11
132.206044
 21
339.505233
  0
LINE
  5
701
100
AcDbEntity
  8
M0
 62
     6
100
AcDbLine
 10
131.206042
 20
337.505136
 11
131.206043
 21
338.505234
  0
ARC
  5
702
100
AcDbEntity
  8
M0
 62
     6
100
AcDbCircle
 10
132.206043
 20
338.505233
 40
1.0
100
AcDbArc
 50
90.0
 51
179.999964
  0
LINE
  5
703
100
AcDbEntity
  8
M0
 62
     6
100
AcDbLine
 10
119.006025
 20
328.51898
 11
118.556043
 21
328.778771
  0
LINE
  5
704
100
AcDbEntity
  8
M0
 62
     6
100
AcDbLine
 10
119.706063
 20
298.005241
 11
116.706048
 21
298.005243
  0
ARC
  5
705
100
AcDbEntity
  8
M0
 62
     6
100
AcDbCircle
 10
118.706049
 20
299.005242
 40
1.0
100
AcDbArc
 50
179.999964
 51
270.0
  0
ARC
  5
706
100
AcDbEntity
  8
M0
 62
     6
100
AcDbCircle
 10
118.706049
 20
299.005242
 40
1.0
100
AcDbArc
 50
270.0
 51
359.999964
  0
LINE
  5
707
100
AcDbEntity
  8
M0
 62
     6
100
AcDbLine
 10
132.33385
 20
328.459646
 11
134.583606
 21
325.778491
  0
LINE
  5
708
100
AcDbEntity
  8
M0
 62
     6
100
AcDbLine
 10
134.583606
 20
325.778491
 11
135.196442
 21
326.292721
  0
LINE
  5
709
100
AcDbEntity
  8
M0
 62
     6
100
AcDbLine
 10
135.196442
 20
326.292721
 11
132.946685
 21
328.973877
  0
LINE
  5
70A
100
AcDbEntity
  8
M0
 62
     6
100
AcDbLine
 10
132.946685
 20
328.973877
 11
132.33385
 21
328.459646
  0
CIRCLE
  5
70B
100
AcDbEntity
  8
M0
 62
     6
100
AcDbCircle
 10
128.556044
 20
323.005228
 40
3.75
  0
LINE
  5
70C
100
AcDbEntity
  8
M0
 62
     6
100
AcDbLine
 10
129.156044
 20
325.505228
 11
129.156044
 21
320.505228
  0
LINE
  5
70D
100
AcDbEntity
  8
M0
 62
     6
100
AcDbLine
 10
127.956044
 20
325.505228
 11
127.956044
 21
320.505228
  0
LINE
  5
70E
100
AcDbEntity
  8
M0
 62
     6
100
AcDbLine
 10
129.156044
 20
320.505228
 11
127.956044
 21
320.505228
  0
LINE
  5
70F
100
AcDbEntity
  8
M0
 62
     6
100
AcDbLine
 10
129.156044
 20
325.505228
 11
127.956044
 21
325.505228
  0
TEXT
  5
710
100
AcDbEntity
  8
M0
 62
     6
100
AcDbText
 10
140.056049
 20
316.32205
 40
2.0
  1
ＡＵＴＯ
 50
90.000556
 41
0.583333
  7
STANDARD
100
AcDbText
  0
CIRCLE
  5
711
100
AcDbEntity
  8
M0
 62
     6
100
AcDbCircle
 10
139.006044
 20
323.005228
 40
0.75
  0
CIRCLE
  5
712
100
AcDbEntity
  8
M0
 62
     6
100
AcDbCircle
 10
128.556044
 20
323.005228
 40
8.3
  0
TEXT
  5
713
100
AcDbEntity
  8
M0
 62
     6
100
AcDbText
 10
140.055002
 20
330.330582
 40
2.0
  1
ＴＲＩＰ
 50
90.000563
 41
0.625
  7
STANDARD
100
AcDbText
  0
LINE
  5
714
100
AcDbEntity
  8
M0
 62
     6
100
AcDbLine
 10
135.357131
 20
330.705066
 11
133.529689
 21
329.649989
  0
LINE
  5
715
100
AcDbEntity
  8
M0
 62
     6
100
AcDbLine
 10
135.357131
 20
330.705066
 11
133.357103
 21
331.859778
  0
LINE
  5
716
100
AcDbEntity
  8
M0
 62
     6
100
AcDbLine
 10
133.357101
 20
330.955053
 11
133.357103
 21
331.859778
  0
LINE
  5
717
100
AcDbEntity
  8
M0
 62
     6
100
AcDbLine
 10
133.357099
 20
329.775742
 11
133.357101
 21
330.455053
  0
LINE
  5
718
100
AcDbEntity
  8
M0
 62
     6
100
AcDbLine
 10
133.357101
 20
330.455053
 11
132.215289
 21
330.455055
  0
LINE
  5
719
100
AcDbEntity
  8
M0
 62
     6
100
AcDbLine
 10
133.357101
 20
330.955053
 11
131.857101
 21
330.955056
  0
LINE
  5
71A
100
AcDbEntity
  8
M0
 62
     6
100
AcDbLine
 10
136.856044
 20
336.505228
 11
136.856044
 21
332.005228
  0
LINE
  5
71B
100
AcDbEntity
  8
M0
 62
     6
100
AcDbLine
 10
125.556044
 20
332.005228
 11
136.856044
 21
332.005228
  0
LINE
  5
71C
100
AcDbEntity
  8
M0
 62
     6
100
AcDbLine
 10
129.606058
 20
333.055228
 11
133.006058
 21
333.055228
  0
LINE
  5
71D
100
AcDbEntity
  8
M0
 62
     6
100
AcDbLine
 10
129.606058
 20
335.355228
 11
133.006058
 21
335.355228
  0
LINE
  5
71E
100
AcDbEntity
  8
M0
 62
     6
100
AcDbLine
 10
133.006058
 20
335.355228
 11
133.006058
 21
333.055228
  0
LINE
  5
71F
100
AcDbEntity
  8
M0
 62
     6
100
AcDbLine
 10
129.606058
 20
335.355228
 11
129.606058
 21
333.055228
  0
LINE
  5
720
100
AcDbEntity
  8
M0
  6
DOT
 62
     6
100
AcDbLine
 10
127.997665
 20
334.205228
 11
127.997665
 21
332.005228
  0
LINE
  5
721
100
AcDbEntity
  8
M0
  6
DOT
 62
     6
100
AcDbLine
 10
125.556044
 20
334.205228
 11
127.997665
 21
334.205228
  0
LINE
  5
722
100
AcDbEntity
  8
M0
 62
     6
100
AcDbLine
 10
125.556044
 20
334.205228
 11
125.556044
 21
332.005228
  0
LINE
  5
723
100
AcDbEntity
  8
M0
 62
     6
100
AcDbLine
 10
125.556044
 20
334.205228
 11
122.356044
 21
334.205228
  0
LINE
  5
724
100
AcDbEntity
  8
M0
 62
     6
100
AcDbLine
 10
122.356044
 20
336.505228
 11
122.356044
 21
334.205228
  0
LINE
  5
725
100
AcDbEntity
  8
M0
 62
     6
100
AcDbLine
 10
121.245948
 20
327.225714
 11
118.556044
 21
328.778731
  0
LINE
  5
726
100
AcDbEntity
  8
M0
 62
     6
100
AcDbLine
 10
119.856044
 20
334.005228
 11
114.702548
 21
334.005228
  0
ARC
  5
727
100
AcDbEntity
  8
M0
 62
     6
100
AcDbCircle
 10
119.856044
 20
334.505228
 40
0.5
100
AcDbArc
 50
270.0
 51
360.0
  0
LINE
  5
728
100
AcDbEntity
  8
M0
 62
     6
100
AcDbLine
 10
120.356044
 20
336.505228
 11
120.356044
 21
334.505228
  0
LINE
  5
729
100
AcDbEntity
  8
M0
 62
     6
100
AcDbLine
 10
140.706044
 20
315.505228
 11
132.111321
 21
315.505228
  0
LINE
  5
72A
100
AcDbEntity
  8
M0
 62
     6
100
AcDbLine
 10
132.886171
 20
315.505228
 11
132.886171
 21
315.924268
  0
LINE
  5
72B
100
AcDbEntity
  8
M0
 62
     6
100
AcDbLine
 10
124.225917
 20
315.505228
 11
124.225917
 21
315.924268
  0
LINE
  5
72C
100
AcDbEntity
  8
M0
 62
     6
100
AcDbLine
 10
125.000766
 20
315.505228
 11
115.706044
 21
315.505228
  0
LINE
  5
72D
100
AcDbEntity
  8
M0
 62
     6
100
AcDbLine
 10
120.356044
 20
315.505228
 11
120.356044
 21
317.505228
  0
ARC
  5
72E
100
AcDbEntity
  8
M0
 62
     6
100
AcDbCircle
 10
119.856044
 20
317.505228
 40
0.5
100
AcDbArc
 50
0.0
 51
90.0
  0
LINE
  5
72F
100
AcDbEntity
  8
M0
 62
     6
100
AcDbLine
 10
115.706044
 20
318.005228
 11
119.856044
 21
318.005228
  0
LINE
  5
730
100
AcDbEntity
  8
M0
  6
DASHDOT
 62
     6
100
AcDbLine
 10
117.25304
 20
323.005228
 11
139.859047
 21
323.005228
  0
LINE
  5
731
100
AcDbEntity
  8
M0
  6
DASHDOT
 62
     6
100
AcDbLine
 10
128.556044
 20
311.702225
 11
128.556044
 21
334.308231
  0
ARC
  5
732
100
AcDbEntity
  8
M0
 62
     6
100
AcDbCircle
 10
123.706044
 20
304.005228
 40
2.999997
100
AcDbArc
 50
115.844051
 51
424.156194
  0
LINE
  5
733
100
AcDbEntity
  8
M0
 62
     6
100
AcDbLine
 10
120.362523
 20
306.705179
 11
119.930897
 21
305.305277
  0
LINE
  5
734
100
AcDbEntity
  8
M0
 62
     6
100
AcDbLine
 10
120.747059
 20
300.057978
 11
119.930897
 21
302.705301
  0
LINE
  5
735
100
AcDbEntity
  8
M0
 62
     6
100
AcDbLine
 10
126.66454
 20
300.057962
 11
127.292714
 21
302.094828
  0
LINE
  5
736
100
AcDbEntity
  8
M0
 62
     6
100
AcDbLine
 10
121.225087
 20
299.705301
 11
126.186757
 21
299.705301
  0
LINE
  5
737
100
AcDbEntity
  8
M0
 62
     6
100
AcDbLine
 10
119.930897
 20
305.305277
 11
119.930897
 21
302.705301
  0
LINE
  5
738
100
AcDbEntity
  8
M0
 62
     6
100
AcDbLine
 10
125.29662
 20
302.414408
 11
122.114979
 21
305.59617
  0
LINE
  5
739
100
AcDbEntity
  8
M0
 62
     6
100
AcDbLine
 10
124.059315
 20
305.419413
 11
122.291737
 21
303.651712
  0
LINE
  5
73A
100
AcDbEntity
  8
M0
 62
     6
100
AcDbLine
 10
125.119862
 20
304.358744
 11
123.352284
 21
302.591165
  0
ARC
  5
73B
100
AcDbEntity
  8
M0
 62
     6
100
AcDbCircle
 10
121.225087
 20
300.205301
 40
0.5
100
AcDbArc
 50
197.128737
 51
270.0
  0
ARC
  5
73C
100
AcDbEntity
  8
M0
 62
     6
100
AcDbCircle
 10
126.186757
 20
300.205301
 40
0.5
100
AcDbArc
 50
270.0
 51
342.861308
  0
LINE
  5
73D
100
AcDbEntity
  8
M0
  6
DASHDOT
 62
     6
100
AcDbLine
 10
123.206044
 20
304.005228
 11
124.206044
 21
304.005228
  0
LINE
  5
73E
100
AcDbEntity
  8
M0
  6
DASHDOT
 62
     6
100
AcDbLine
 10
123.706044
 20
303.505228
 11
123.706044
 21
304.505228
  0
LINE
  5
73F
100
AcDbEntity
  8
M0
 62
     6
100
AcDbLine
 10
103.468645
 20
337.504867
 11
98.702566
 21
337.504821
  0
LINE
  5
740
100
AcDbEntity
  8
M0
 62
     6
100
AcDbLine
 10
104.103818
 20
339.00772
 11
92.085448
 21
339.007762
  0
LINE
  5
741
100
AcDbEntity
  8
M0
 62
     6
100
AcDbLine
 10
103.457433
 20
336.507722
 11
98.702562
 21
336.507739
  0
LINE
  5
742
100
AcDbEntity
  8
M0
 62
     6
100
AcDbLine
 10
84.052573
 20
336.50779
 11
78.702562
 21
336.507808
  0
LINE
  5
743
100
AcDbEntity
  8
M0
 62
     6
100
AcDbLine
 10
84.052629
 20
337.50779
 11
78.702566
 21
337.507808
  0
LINE
  5
744
100
AcDbEntity
  8
M0
 62
     6
100
AcDbLine
 10
84.436969
 20
339.007788
 11
72.630997
 21
339.00783
  0
LINE
  5
745
100
AcDbEntity
  8
M0
 62
     6
100
AcDbLine
 10
64.663195
 20
337.507857
 11
58.568591
 21
337.507879
  0
LINE
  5
746
100
AcDbEntity
  8
M0
 62
     6
100
AcDbLine
 10
64.593269
 20
336.507858
 11
58.702562
 21
336.507878
  0
LINE
  5
747
100
AcDbEntity
  8
M0
  6
DIVIDE
 62
     7
100
AcDbLine
 10
56.305434
 20
217.743203
 11
134.099712
 21
217.743203
  0
LINE
  5
748
100
AcDbEntity
  8
M0
  6
DIVIDE
 62
     7
100
AcDbLine
 10
134.099712
 20
217.743203
 11
134.099712
 21
118.743203
  0
CIRCLE
  5
749
100
AcDbEntity
  8
M0
 62
     7
100
AcDbCircle
 10
131.305466
 20
139.698721
 40
3.099999
  0
CIRCLE
  5
74A
100
AcDbEntity
  8
M0
 62
     7
100
AcDbCircle
 10
131.305466
 20
139.698721
 40
1.549994
  0
LINE
  5
74B
100
AcDbEntity
  8
M0
  6
DASHDOT
 62
     7
100
AcDbLine
 10
131.305451
 20
143.796117
 11
131.305466
 21
134.601308
  0
LINE
  5
74C
100
AcDbEntity
  8
M0
  6
DASHDOT
 62
     7
100
AcDbLine
 10
135.402863
 20
139.698721
 11
127.208054
 21
139.698721
  0
CIRCLE
  5
74D
100
AcDbEntity
  8
M0
 62
     7
100
AcDbCircle
 10
60.305466
 20
204.698721
 40
1.549994
  0
CIRCLE
  5
74E
100
AcDbEntity
  8
M0
 62
     7
100
AcDbCircle
 10
60.305466
 20
204.698721
 40
3.099999
  0
LINE
  5
74F
100
AcDbEntity
  8
M0
  6
DASHDOT
 62
     7
100
AcDbLine
 10
60.305451
 20
208.796117
 11
60.305466
 21
200.601308
  0
LINE
  5
750
100
AcDbEntity
  8
M0
  6
DASHDOT
 62
     7
100
AcDbLine
 10
64.402863
 20
204.698721
 11
56.208054
 21
204.698721
  0
LINE
  5
751
100
AcDbEntity
  8
M0
  6
DIVIDE
 62
     7
100
AcDbLine
 10
56.305434
 20
73.743203
 11
141.305434
 21
73.743203
  0
LINE
  5
752
100
AcDbEntity
  8
M0
  6
DIVIDE
 62
     7
100
AcDbLine
 10
141.305434
 20
118.743203
 11
134.099712
 21
118.743203
  0
LINE
  5
753
100
AcDbEntity
  8
M0
  6
DIVIDE
 62
     7
100
AcDbLine
 10
56.305434
 20
217.743203
 11
56.305434
 21
73.743203
  0
LINE
  5
754
100
AcDbEntity
  8
M0
  6
DIVIDE
 62
     7
100
AcDbLine
 10
141.305434
 20
118.743203
 11
141.305434
 21
73.743203
  0
LINE
  5
755
100
AcDbEntity
  8
M1
 62
     2
100
AcDbLine
 10
18.181818
 20
18.181818
 11
18.181818
 21
518.181807
  0
LINE
  5
756
100
AcDbEntity
  8
M1
 62
     2
100
AcDbLine
 10
18.181818
 20
518.181807
 11
363.636356
 21
518.181807
  0
LINE
  5
757
100
AcDbEntity
  8
M1
 62
     2
100
AcDbLine
 10
363.636356
 20
518.181807
 11
363.636356
 21
18.181818
  0
LINE
  5
758
100
AcDbEntity
  8
M1
 62
     2
100
AcDbLine
 10
363.636356
 20
18.181818
 11
18.181818
 21
18.181818
  0
LINE
  5
759
100
AcDbEntity
  8
M1
 62
     2
100
AcDbLine
 10
363.636356
 20
36.363636
 11
181.818178
 21
36.363636
  0
LINE
  5
75A
100
AcDbEntity
  8
M1
 62
     2
100
AcDbLine
 10
363.636356
 20
54.545453
 11
181.818178
 21
54.545453
  0
LINE
  5
75B
100
AcDbEntity
  8
M1
 62
     2
100
AcDbLine
 10
363.636356
 20
72.727271
 11
181.818178
 21
72.727271
  0
LINE
  5
75C
100
AcDbEntity
  8
M1
 62
     2
100
AcDbLine
 10
181.818178
 20
18.181818
 11
181.818178
 21
72.727271
  0
TEXT
  5
75D
100
AcDbEntity
  8
M1
 62
     2
100
AcDbText
 10
186.363632
 20
22.727272
 40
9.090909
  1
適　用；
 41
1.0
  7
STANDARD
100
AcDbText
  0
TEXT
  5
75E
100
AcDbEntity
  8
M1
 62
     2
100
AcDbText
 10
186.363632
 20
59.090908
 40
9.090909
  1
登録名：
 41
1.0
  7
STANDARD
100
AcDbText
  0
TEXT
  5
75F
100
AcDbEntity
  8
M1
 62
     2
100
AcDbText
 10
229.999995
 20
59.090908
 40
9.090909
  1
ＤＭＨＳ５０ＴＧＲ００
 41
0.5
  7
STANDARD
100
AcDbText
  0
TEXT
  5
760
100
AcDbEntity
  8
M1
 62
     2
100
AcDbText
 10
186.363632
 20
40.90909
 40
9.090909
  1
形　式；
 41
1.0
  7
STANDARD
100
AcDbText
  0
TEXT
  5
761
100
AcDbEntity
  8
M1
 62
     2
100
AcDbText
 10
229.999995
 20
40.90909
 40
9.090909
  1
ＨＳ５０－ＴＧ
 41
0.5
  7
STANDARD
100
AcDbText
  0
LINE
  5
762
100
AcDbEntity
  8
DN0
100
AcDbLine
 10
85.121731
 20
49.919269
 11
114.630822
 21
49.919269
  0
TEXT
  5
763
100
AcDbEntity
  8
DN0
100
AcDbText
 10
85.936883
 20
50.646542
 40
7.272727
  1
せん孔図
 41
0.833333
  7
STANDARD
100
AcDbText
  0
ENDSEC
  0
SECTION
  2
OBJECTS
  0
DICTIONARY
  5
C
100
AcDbDictionary
  3
ACAD_GROUP
350
D
  3
ACAD_MLINESTYLE
350
E
  3
ACDBVARIABLEDICTIONARY
350
22F
  0
DICTIONARY
  5
D
102
{ACAD_REACTORS
330
C
102
}
100
AcDbDictionary
  0
DICTIONARY
  5
E
102
{ACAD_REACTORS
330
C
102
}
100
AcDbDictionary
  3
STANDARD
350
13
  0
DICTIONARY
  5
22F
102
{ACAD_REACTORS
330
C
102
}
100
AcDbDictionary
  3
SORTENTS
350
230
  0
MLINESTYLE
  5
13
102
{ACAD_REACTORS
330
E
102
}
100
AcDbMlineStyle
  2
STANDARD
 70
     0
  3

 62
     0
 51
90.0
 52
90.0
 71
     2
 49
0.5
 62
   256
  6
BYLAYER
 49
-0.5
 62
   256
  6
BYLAYER
  0
DICTIONARYVAR
  5
230
102
{ACAD_REACTORS
330
22F
102
}
100
DictionaryVariables
280
     0
  1
96
  0
ENDSEC
  0
EOF
