  0
SECTION
  2
HEADER
  9
$ACADVER
  1
AC1014
  9
$INSBASE
 10
0.000000
 20
0.000000
 30
0.0
  9
$VIEWCTR
 10
7.531722
 20
4.5
  9
$VIEWSIZE
 40
9.0
  9
$SNAPMODE
 70
     0
  9
$SNAPUNIT
 10
1.0
 20
1.0
  9
$SNAPBASE
 10
0.0
 20
0.0
  9
$SNAPANG
 50
0.0
  9
$SNAPSTYLE
 70
     0
  9
$SNAPISOPAIR
 70
     0
  9
$GRIDMODE
 70
     0
  9
$GRIDUNIT
 10
0.0
 20
0.0
  9
$ORTHOMODE
 70
     0
  9
$REGENMODE
 70
     1
  9
$FILLMODE
 70
     1
  9
$QTEXTMODE
 70
     0
  9
$DRAGMODE
 70
     2
  9
$LTSCALE
  40
     1.000000
  9
$OSMODE
 70
     0
  9
$ATTMODE
 70
     1
  9
$TEXTSIZE
 40
0.2
  9
$TRACEWID
 40
0.05
  9
$TEXTSTYLE
  7
STANDARD
  9
$CELTYPE
  6
BYLAYER
  9
$CECOLOR
 62
   256
  9
$DIMSCALE
 40
1.0
  9
$DIMASZ
 40
0.18
  9
$DIMEXO
 40
0.0625
  9
$DIMDLI
 40
0.38
  9
$DIMRND
 40
0.0
  9
$DIMDLE
 40
0.0
  9
$DIMEXE
 40
0.18
  9
$DIMTP
 40
0.0
  9
$DIMTM
 40
0.0
  9
$DIMTXT
 40
0.18
  9
$DIMCEN
 40
0.09
  9
$DIMTSZ
 40
0.0
  9
$DIMTOL
 70
     0
  9
$DIMLIM
 70
     0
  9
$DIMTIH
 70
     1
  9
$DIMTOH
 70
     1
  9
$DIMSE1
 70
     0
  9
$DIMSE2
 70
     0
  9
$DIMTAD
 70
     0
  9
$DIMZIN
 70
     0
  9
$DIMBLK
  1

  9
$LUNITS
 70
     2
  9
$LUPREC
 70
     4
  9
$AXISMODE
 70
     0
  9
$AXISUNIT
 10
0.0
 20
0.0
  9
$SKETCHINC
 40
0.1
  9
$FILLETRAD
 40
0.0
  9
$AUNITS
 70
     0
  9
$AUPREC
 70
     0
  9
$MENU
  1
ACAD
  9
$ELEVATION
 40
0.0
  9
$THICKNESS
 40
0.0
  9
$VIEWDIR
 10
0.0
 20
0.0
 30
1.0
  9
$LIMCHECK
 70
     0
  9
$BLIPMODE
 70
     1
  9
$CHAMFERA
 40
0.0
  9
$CHAMFERB
 40
0.0
  9
$FASTZOOM
 70
     1
  9
$SKPOLY
 70
     0
  9
$TDCREATE
 40
0000000.0000000000
  9
$TDUPDATE
 40
0000000.0000000000
  9
$TDINDWG
 40
0.0000000000
  9
$TDUSRTIMER
 40
0.0000000000
  9
$USRTIMER
 70
     1
  9
$ANGBASE
 50
0.0
  9
$ANGDIR
 70
     0
  9
$PDMODE
 70
     0
  9
$PDSIZE
 40
0.0
  9
$PLINEWID
 40
0.0
  9
$COORDS
 70
     0
  9
$USERI1
 70
     0
  9
$USERI2
 70
     0
  9
$USERI3
 70
     0
  9
$USERI4
 70
     0
  9
$USERI5
 70
     0
  9
$USERR1
 40
0.0
  9
$USERR2
 40
0.0
  9
$USERR3
 40
0.0
  9
$USERR4
 40
0.0
  9
$USERR5
 40
0.0
  9
$CLAYER
  8
M0
  9
$EXTMIN
 10
16.666666
 20
16.666666
  9
$EXTMAX
 10
333.33332
 20
474.999981
  9
$LIMMIN
 10
0.0
 20
0.0
  9
$LIMMAX
 10
210.0
 20
297.0
  9
$HANDSEED
  5
59A
  0
ENDSEC
  0
SECTION
  2
CLASSES
  0
CLASS
  1
LWPOLYLINE
  2
AcDbPolyline
  3
"AutoCAD"
 90
        0
280
     0
281
     1
  0
CLASS
  1
DICTIONARYVAR
  2
AcDbDictionaryVar
  3
"AutoCAD"
 90
        0
280
     0
281
     0
  0
CLASS
  1
HATCH
  2
AcDbHatch
  3
"ACAD_SEDONA"
 90
        0
280
     0
281
     1
  0
ENDSEC
  0
SECTION
  2
TABLES
  0
TABLE
  2
VPORT
  5
8
100
AcDbSymbolTable
 70
     2
  0
VPORT
  5
14
100
AcDbSymbolTableRecord
100
AcDbViewportTableRecord
  2
*ACTIVE
 70
     0
 10
0.0
 20
0.0
 11
1.0
 21
1.0
 12
484.0
 22
297.0
 13
0.0
 23
0.0
 14
1.0
 24
1.0
 15
0.0
 25
0.0
 16
0.0
 26
0.0
 36
1.0
 17
0.0
 27
0.0
 37
0.0
 40
594.0
 41
2.0
 42
50.0
 43
0.0
 44
0.0
 50
0.0
 51
0.0
 71
     0
 72
   100
 73
     1
 74
     1
 75
     0
 76
     0
 77
     0
 78
     0
  0
ENDTAB
  0
TABLE
  2
LTYPE
  5
5
100
AcDbSymbolTable
 70
     5
  0
LTYPE
  5
15
100
AcDbSymbolTableRecord
100
AcDbLinetypeTableRecord
  2
BYBLOCK
 70
     0
  3

 72
    65
 73
     0
 40
0.0
  0
LTYPE
  5
16
100
AcDbSymbolTableRecord
100
AcDbLinetypeTableRecord
  2
BYLAYER
 70
     0
  3

 72
    65
 73
     0
 40
0.0
  0
LTYPE
  5
17
100
AcDbSymbolTableRecord
100
AcDbLinetypeTableRecord
  2
CONTINUOUS
 70
    64
  3
Solid line
 72
    65
 73
     0
 40
0.0
  0
LTYPE
  5
18
100
AcDbSymbolTableRecord
100
AcDbLinetypeTableRecord
  2
DASHED
 70
    64
  3
__ __ __ __ __ __ __ __ __ __ __ __ __ __ __ __
 72
    65
 73
     2
 40
0.75
 49
0.5
 74
     0
 49
-0.25
 74
     0
  0
LTYPE
  5
19
100
AcDbSymbolTableRecord
100
AcDbLinetypeTableRecord
  2
DASHDOT
 70
    64
  3
__ . __ . __ . __ . __ . __ . __ . __ . __ . __
 72
    65
 73
     4
 40
1.0
 49
0.5
 74
     0
 49
-0.25
 74
     0
 49
0.0
 74
     0
 49
-0.25
 74
     0
  0
LTYPE
  5
1A
100
AcDbSymbolTableRecord
100
AcDbLinetypeTableRecord
  2
DIVIDE
 70
    64
  3
____ . . ____ . . ____ . . ____ . . ____ . . __
 72
    65
 73
     6
 40
1.25
 49
0.5
 74
     0
 49
-0.25
 74
     0
 49
0.0
 74
     0
 49
-0.25
 74
     0
 49
0.0
 74
     0
 49
-0.25
 74
     0
  0
LTYPE
  5
1B
100
AcDbSymbolTableRecord
100
AcDbLinetypeTableRecord
  2
DOT
 70
    64
  3
. . . . . . . . . . . . . . . . . . . . . . . .
 72
    65
 73
     2
 40
0.25
 49
0.0
 74
     0
 49
-0.25
 74
     0
  0
ENDTAB
  0
TABLE
  2
LAYER
  5
2
100
AcDbSymbolTable
 70
   102
  0
LAYER
  5
F
100
AcDbSymbolTableRecord
100
AcDbLayerTableRecord
  2
0
 70
     0
 62
     7
  6
CONTINUOUS
  0
LAYER
  5
1C
100
AcDbSymbolTableRecord
100
AcDbLayerTableRecord
  2
DEFPOINTS
 70
     0
 62
     7
  6
CONTINUOUS
  0
LAYER
  5
1D
100
AcDbSymbolTableRecord
100
AcDbLayerTableRecord
  2
M0
 70
     0
 62
     3
  6
CONTINUOUS
  0
LAYER
  5
1E
100
AcDbSymbolTableRecord
100
AcDbLayerTableRecord
  2
M1
 70
     0
 62
     3
  6
CONTINUOUS
  0
LAYER
  5
1F
100
AcDbSymbolTableRecord
100
AcDbLayerTableRecord
  2
DD0
 70
     0
 62
     4
  6
CONTINUOUS
  0
LAYER
  5
20
100
AcDbSymbolTableRecord
100
AcDbLayerTableRecord
  2
DN0
 70
     0
 62
     2
  6
CONTINUOUS
  0
ENDTAB
  0
TABLE
  2
STYLE
  5
3
100
AcDbSymbolTable
 70
     2
  0
STYLE
  5
10
100
AcDbSymbolTableRecord
100
AcDbTextStyleTableRecord
  2
STANDARD
 70
     0
 40
0.0
 41
1.0
 50
0.0
 71
     0
 42
0.2
  3
txt
  4
BIGFONT
  0
ENDTAB
  0
TABLE
  2
VIEW
  5
6
100
AcDbSymbolTable
 70
     0
  0
ENDTAB
  0
TABLE
  2
UCS
  5
7
100
AcDbSymbolTable
 70
     0
  0
ENDTAB
  0
TABLE
  2
APPID
  5
9
100
AcDbSymbolTable
 70
     1
  0
APPID
  5
11
100
AcDbSymbolTableRecord
100
AcDbRegAppTableRecord
  2
ACAD
 70
     0
  0
ENDTAB
  0
TABLE
  2
DIMSTYLE
  5
A
100
AcDbSymbolTable
 70
     2
  0
DIMSTYLE
105
27
100
AcDbSymbolTableRecord
100
AcDbDimStyleTableRecord
  2
STANDARD
 70
     0
  3

  4

  5

  6
_OPEN
  7
_OPEN
 40
1.0
 41
5.0
 42
1.0
 43
8.0
 44
1.0
 45
0.0
 46
0.0
 47
0.0
 48
0.0
140
5.25
141
0.09
142
0.0
143
0.03937
144
1.0
145
0.0
146
1.0
147
0.6
 71
     0
 72
     0
 73
     1
 74
     1
 75
     0
 76
     0
 77
     3
 78
     8
170
     0
171
     2
172
     0
173
     1
174
     0
175
     0
176
     0
177
     0
178
     0
270
     2
271
     2
272
     4
273
     2
274
     2
340
10
275
     0
280
     0
281
     0
282
     0
283
     1
284
     0
285
     0
286
     0
287
     3
288
     0
  0
DIMSTYLE
105
28
100
AcDbSymbolTableRecord
100
AcDbDimStyleTableRecord
  2
LEADSTYL
 70
     0
  3

  4

  5

  6
_OPEN
  7
_OPEN
 40
1.0
 41
5.0
 42
0.0625
 43
0.38
 44
0.18
 45
0.0
 46
0.0
 47
0.0
 48
0.0
140
5.25
141
0.09
142
0.0
143
25.4
144
1.0
145
0.0
146
1.0
147
0.6
 71
     0
 72
     0
 73
     1
 74
     1
 75
     0
 76
     0
 77
     0
 78
     0
170
     0
171
     2
172
     0
173
     1
174
     0
175
     0
176
     0
177
     0
178
     0
270
     2
271
     4
272
     4
273
     2
274
     2
340
10
275
     0
280
     0
281
     0
282
     0
283
     1
284
     0
285
     0
286
     0
287
     3
288
     0
  0
ENDTAB
  0
TABLE
  2
BLOCK_RECORD
  5
1
100
AcDbSymbolTable
 70
    23
  0
BLOCK_RECORD
  5
21
100
AcDbSymbolTableRecord
100
AcDbBlockTableRecord
  2
*MODEL_SPACE
  0
BLOCK_RECORD
  5
24
100
AcDbSymbolTableRecord
100
AcDbBlockTableRecord
  2
*PAPER_SPACE
  0
BLOCK_RECORD
  5
29
100
AcDbSymbolTableRecord
100
AcDbBlockTableRecord
  2
_NONE
  0
BLOCK_RECORD
  5
2D
100
AcDbSymbolTableRecord
100
AcDbBlockTableRecord
  2
_OPEN
  0
BLOCK_RECORD
  5
33
100
AcDbSymbolTableRecord
100
AcDbBlockTableRecord
  2
_CLOSED
  0
BLOCK_RECORD
  5
3A
100
AcDbSymbolTableRecord
100
AcDbBlockTableRecord
  2
_ORIGIN
  0
BLOCK_RECORD
  5
3F
100
AcDbSymbolTableRecord
100
AcDbBlockTableRecord
  2
_DOT
  0
BLOCK_RECORD
  5
47
100
AcDbSymbolTableRecord
100
AcDbBlockTableRecord
  2
_OBLIQUE
  0
BLOCK_RECORD
  5
4B
100
AcDbSymbolTableRecord
100
AcDbBlockTableRecord
  2
DIMS0
  0
BLOCK_RECORD
  5
57
100
AcDbSymbolTableRecord
100
AcDbBlockTableRecord
  2
DIMS1
  0
BLOCK_RECORD
  5
63
100
AcDbSymbolTableRecord
100
AcDbBlockTableRecord
  2
DIMS2
  0
BLOCK_RECORD
  5
70
100
AcDbSymbolTableRecord
100
AcDbBlockTableRecord
  2
DIMS3
  0
BLOCK_RECORD
  5
7B
100
AcDbSymbolTableRecord
100
AcDbBlockTableRecord
  2
DIMS4
  0
BLOCK_RECORD
  5
87
100
AcDbSymbolTableRecord
100
AcDbBlockTableRecord
  2
DIMS5
  0
BLOCK_RECORD
  5
93
100
AcDbSymbolTableRecord
100
AcDbBlockTableRecord
  2
DIMS6
  0
BLOCK_RECORD
  5
9F
100
AcDbSymbolTableRecord
100
AcDbBlockTableRecord
  2
DIMS7
  0
BLOCK_RECORD
  5
A4
100
AcDbSymbolTableRecord
100
AcDbBlockTableRecord
  2
DIMS8
  0
BLOCK_RECORD
  5
A9
100
AcDbSymbolTableRecord
100
AcDbBlockTableRecord
  2
DIMS9
  0
BLOCK_RECORD
  5
AE
100
AcDbSymbolTableRecord
100
AcDbBlockTableRecord
  2
DIMS10
  0
BLOCK_RECORD
  5
B6
100
AcDbSymbolTableRecord
100
AcDbBlockTableRecord
  2
DIMS11
  0
BLOCK_RECORD
  5
C1
100
AcDbSymbolTableRecord
100
AcDbBlockTableRecord
  2
DIMS12
  0
BLOCK_RECORD
  5
CC
100
AcDbSymbolTableRecord
100
AcDbBlockTableRecord
  2
DIMS13
  0
BLOCK_RECORD
  5
D7
100
AcDbSymbolTableRecord
100
AcDbBlockTableRecord
  2
DIMS14
  0
BLOCK_RECORD
  5
E2
100
AcDbSymbolTableRecord
100
AcDbBlockTableRecord
  2
DIMS15
  0
BLOCK_RECORD
  5
EE
100
AcDbSymbolTableRecord
100
AcDbBlockTableRecord
  2
DIMS16
  0
ENDTAB
  0
ENDSEC
  0
SECTION
  2
BLOCKS
  0
BLOCK
  5
22
100
AcDbEntity
  8
0
100
AcDbBlockBegin
  2
*MODEL_SPACE
 70
     0
 10
0.0
 20
0.0
 30
0.0
  3
*MODEL_SPACE
  1

  0
ENDBLK
  5
23
100
AcDbEntity
  8
0
100
AcDbBlockEnd
  0
BLOCK
  5
25
100
AcDbEntity
 67
     1
  8
0
100
AcDbBlockBegin
  2
*PAPER_SPACE
 70
     0
 10
0.0
 20
0.0
 30
0.0
  3
*PAPER_SPACE
  1

  0
ENDBLK
  5
26
100
AcDbEntity
 67
     1
  8
0
100
AcDbBlockEnd
  0
BLOCK
  5
2A
100
AcDbEntity
  8
0
100
AcDbBlockBegin
  2
_NONE
 70
     0
 10
0.0
 20
0.0
  0
CIRCLE
  5
2B
100
AcDbEntity
  8
0
 62
     0
100
AcDbCircle
 10
0.0
 20
0.0
 40
0.25
  0
ENDBLK
  5
2C
100
AcDbEntity
  8
0
100
AcDbBlockEnd
  0
BLOCK
  5
2E
100
AcDbEntity
  8
0
100
AcDbBlockBegin
  2
_OPEN
 70
     0
 10
0.0
 20
0.0
  0
LINE
  5
2F
100
AcDbEntity
  8
0
 62
     0
100
AcDbLine
 10
-0.965926
 20
0.258819
 11
0.0
 21
0.0
  0
LINE
  5
30
100
AcDbEntity
  8
0
 62
     0
100
AcDbLine
 10
0.0
 20
0.0
 11
-0.965926
 21
-0.258819
  0
LINE
  5
31
100
AcDbEntity
  8
0
 62
     0
100
AcDbLine
 10
0.0
 20
0.0
 11
-1.0
 21
0.0
  0
ENDBLK
  5
32
100
AcDbEntity
  8
0
100
AcDbBlockEnd
  0
BLOCK
  5
34
100
AcDbEntity
  8
0
100
AcDbBlockBegin
  2
_CLOSED
 70
     0
 10
0.0
 20
0.0
  0
LINE
  5
35
100
AcDbEntity
  8
0
 62
     0
100
AcDbLine
 10
-0.965926
 20
0.258819
 11
0.0
 21
0.0
  0
LINE
  5
36
100
AcDbEntity
  8
0
 62
     0
100
AcDbLine
 10
0.0
 20
0.0
 11
-0.965926
 21
-0.258819
  0
LINE
  5
37
100
AcDbEntity
  8
0
 62
     0
100
AcDbLine
 10
-0.965926
 20
0.258819
 11
-0.965926
 21
-0.258819
  0
LINE
  5
38
100
AcDbEntity
  8
0
 62
     0
100
AcDbLine
 10
0.0
 20
0.0
 11
-1.0
 21
0.0
  0
ENDBLK
  5
39
100
AcDbEntity
  8
0
100
AcDbBlockEnd
  0
BLOCK
  5
3B
100
AcDbEntity
  8
0
100
AcDbBlockBegin
  2
_ORIGIN
 70
     0
 10
0.0
 20
0.0
  0
CIRCLE
  5
3C
100
AcDbEntity
  8
0
 62
     0
100
AcDbCircle
 10
0.0
 20
0.0
 40
0.5
  0
LINE
  5
3D
100
AcDbEntity
  8
0
 62
     0
100
AcDbLine
 10
0.0
 20
0.0
 11
-1.0
 21
0.0
  0
ENDBLK
  5
3E
100
AcDbEntity
  8
0
100
AcDbBlockEnd
  0
BLOCK
  5
40
100
AcDbEntity
  8
0
100
AcDbBlockBegin
  2
_DOT
 70
     0
 10
0.0
 20
0.0
  0
POLYLINE
  5
41
100
AcDbEntity
  8
0
 62
     0
100
AcDb2dPolyline
 66
     1
 70
     1
 40
0.5
 41
0.5
  0
VERTEX
  5
42
100
AcDbEntity
  8
0
 62
     0
100
AcDbVertex
100
AcDb2dVertex
 10
-0.25
 20
0.0
 42
1.0
  0
VERTEX
  5
43
100
AcDbEntity
  8
0
 62
     0
100
AcDbVertex
100
AcDb2dVertex
 10
0.25
 20
0.0
 42
1.0
  0
SEQEND
  5
44
100
AcDbEntity
  8
0
 62
     0
  0
LINE
  5
45
100
AcDbEntity
  8
0
 62
     0
100
AcDbLine
 10
-0.5
 20
0.0
 11
-1.0
 21
0.0
  0
ENDBLK
  5
46
100
AcDbEntity
  8
0
100
AcDbBlockEnd
  0
BLOCK
  5
48
100
AcDbEntity
  8
0
100
AcDbBlockBegin
  2
_OBLIQUE
 70
     0
 10
0.0
 20
0.0
  0
LINE
  5
49
100
AcDbEntity
  8
0
 62
     0
100
AcDbLine
 10
-0.353553
 20
-0.353553
 11
0.353553
 21
0.353553
  0
ENDBLK
  5
4A
100
AcDbEntity
  8
0
100
AcDbBlockEnd
  0
BLOCK
  5
4C
100
AcDbEntity
  8
DD0
100
AcDbBlockBegin
  2
DIMS0
 70
     0
 10
0.0
 20
0.0
  0
LINE
  5
4D
100
AcDbEntity
  8
DD0
100
AcDbLine
 10
51.391882
 20
383.948018
 11
51.391882
 21
408.24385
  0
LINE
  5
4E
100
AcDbEntity
  8
DD0
100
AcDbLine
 10
129.291885
 20
316.648038
 11
129.291885
 21
408.24385
  0
LINE
  5
4F
100
AcDbEntity
  8
DD0
100
AcDbLine
 10
56.221511
 20
407.871278
 11
51.391882
 21
406.577183
  0
LINE
  5
50
100
AcDbEntity
  8
DD0
100
AcDbLine
 10
51.391882
 20
406.577183
 11
56.221511
 21
405.283088
  0
LINE
  5
51
100
AcDbEntity
  8
DD0
100
AcDbLine
 10
124.462256
 20
405.283088
 11
129.291885
 21
406.577183
  0
LINE
  5
52
100
AcDbEntity
  8
DD0
100
AcDbLine
 10
129.291885
 20
406.577183
 11
124.462256
 21
407.871278
  0
LINE
  5
53
100
AcDbEntity
  8
DD0
100
AcDbLine
 10
51.391882
 20
406.577183
 11
129.291885
 21
406.577183
  0
TEXT
  5
54
100
AcDbEntity
  8
DD0
100
AcDbText
 10
87.294663
 20
407.577193
 40
4.166667
  1
７８
 41
0.666667
  7
STANDARD
100
AcDbText
  0
ENDBLK
  5
55
100
AcDbEntity
  8
DD0
100
AcDbBlockEnd
  0
BLOCK
  5
58
100
AcDbEntity
  8
DD0
100
AcDbBlockBegin
  2
DIMS1
 70
     0
 10
0.0
 20
0.0
  0
LINE
  5
59
100
AcDbEntity
  8
DD0
100
AcDbLine
 10
127.958547
 20
301.28137
 11
151.640466
 21
301.28137
  0
LINE
  5
5A
100
AcDbEntity
  8
DD0
100
AcDbLine
 10
113.458553
 20
390.281357
 11
151.640466
 21
390.281357
  0
LINE
  5
5B
100
AcDbEntity
  8
DD0
100
AcDbLine
 10
148.679705
 20
306.110999
 11
149.9738
 21
301.28137
  0
LINE
  5
5C
100
AcDbEntity
  8
DD0
100
AcDbLine
 10
149.9738
 20
301.28137
 11
151.267895
 21
306.110999
  0
LINE
  5
5D
100
AcDbEntity
  8
DD0
100
AcDbLine
 10
151.267895
 20
385.451728
 11
149.9738
 21
390.281357
  0
LINE
  5
5E
100
AcDbEntity
  8
DD0
100
AcDbLine
 10
149.9738
 20
390.281357
 11
148.679705
 21
385.451728
  0
LINE
  5
5F
100
AcDbEntity
  8
DD0
100
AcDbLine
 10
149.9738
 20
301.28137
 11
149.9738
 21
390.281357
  0
TEXT
  5
60
100
AcDbEntity
  8
DD0
100
AcDbText
 10
148.973802
 20
342.734131
 40
4.166667
  1
８９
 50
90.000003
 41
0.666667
  7
STANDARD
100
AcDbText
  0
ENDBLK
  5
61
100
AcDbEntity
  8
DD0
100
AcDbBlockEnd
  0
BLOCK
  5
64
100
AcDbEntity
  8
DD0
100
AcDbBlockBegin
  2
DIMS2
 70
     0
 10
0.0
 20
0.0
  0
LINE
  5
65
100
AcDbEntity
  8
DD0
100
AcDbLine
 10
39.391888
 20
375.148021
 11
39.391888
 21
421.32498
  0
LINE
  5
66
100
AcDbEntity
  8
DD0
100
AcDbLine
 10
141.29188
 20
375.148021
 11
141.29188
 21
421.32498
  0
LINE
  5
67
100
AcDbEntity
  8
DD0
100
AcDbLine
 10
44.221517
 20
420.952409
 11
39.391888
 21
419.658314
  0
LINE
  5
68
100
AcDbEntity
  8
DD0
100
AcDbLine
 10
39.391888
 20
419.658314
 11
44.221517
 21
418.364218
  0
LINE
  5
69
100
AcDbEntity
  8
DD0
100
AcDbLine
 10
136.462251
 20
418.364218
 11
141.29188
 21
419.658314
  0
LINE
  5
6A
100
AcDbEntity
  8
DD0
100
AcDbLine
 10
141.29188
 20
419.658314
 11
136.462251
 21
420.952409
  0
LINE
  5
6B
100
AcDbEntity
  8
DD0
100
AcDbLine
 10
39.391888
 20
419.658314
 11
141.29188
 21
419.658314
  0
TEXT
  5
6C
100
AcDbEntity
  8
DD0
100
AcDbText
 10
85.627996
 20
420.658324
 40
4.166667
  1
１０２
 41
0.666667
  7
STANDARD
100
AcDbText
  0
TEXT
  5
6D
100
AcDbEntity
  8
DD0
100
AcDbText
 10
55.627997
 20
414.158334
 40
4.166667
  1
（補助接点サイドオンユニットを付けた場合）
 41
0.666667
  7
STANDARD
100
AcDbText
  0
ENDBLK
  5
6E
100
AcDbEntity
  8
DD0
100
AcDbBlockEnd
  0
BLOCK
  5
71
100
AcDbEntity
  8
DD0
100
AcDbBlockBegin
  2
DIMS3
 70
     0
 10
0.0
 20
0.0
  0
LINE
  5
72
100
AcDbEntity
  8
DD0
100
AcDbLine
 10
302.328327
 20
385.948013
 11
302.328327
 21
408.618834
  0
LINE
  5
73
100
AcDbEntity
  8
DD0
100
AcDbLine
 10
318.15794
 20
408.246263
 11
313.328311
 21
406.952168
  0
LINE
  5
74
100
AcDbEntity
  8
DD0
100
AcDbLine
 10
313.328311
 20
406.952168
 11
318.15794
 21
405.658073
  0
LINE
  5
75
100
AcDbEntity
  8
DD0
100
AcDbLine
 10
297.498698
 20
405.658073
 11
302.328327
 21
406.952168
  0
LINE
  5
76
100
AcDbEntity
  8
DD0
100
AcDbLine
 10
302.328327
 20
406.952168
 11
297.498698
 21
408.246263
  0
LINE
  5
77
100
AcDbEntity
  8
DD0
100
AcDbLine
 10
318.828311
 20
406.952168
 11
296.828327
 21
406.952168
  0
TEXT
  5
78
100
AcDbEntity
  8
DD0
100
AcDbText
 10
304.781074
 20
407.952178
 40
4.166667
  1
１１
 41
0.666667
  7
STANDARD
100
AcDbText
  0
ENDBLK
  5
79
100
AcDbEntity
  8
DD0
100
AcDbBlockEnd
  0
BLOCK
  5
7C
100
AcDbEntity
  8
DD0
100
AcDbBlockBegin
  2
DIMS4
 70
     0
 10
0.0
 20
0.0
  0
LINE
  5
7D
100
AcDbEntity
  8
DD0
100
AcDbLine
 10
176.228326
 20
362.448004
 11
176.228326
 21
419.208307
  0
LINE
  5
7E
100
AcDbEntity
  8
DD0
100
AcDbLine
 10
313.328311
 20
386.198028
 11
313.328311
 21
419.208307
  0
LINE
  5
7F
100
AcDbEntity
  8
DD0
100
AcDbLine
 10
181.057954
 20
418.835735
 11
176.228326
 21
417.54164
  0
LINE
  5
80
100
AcDbEntity
  8
DD0
100
AcDbLine
 10
176.228326
 20
417.54164
 11
181.057954
 21
416.247545
  0
LINE
  5
81
100
AcDbEntity
  8
DD0
100
AcDbLine
 10
308.498682
 20
416.247545
 11
313.328311
 21
417.54164
  0
LINE
  5
82
100
AcDbEntity
  8
DD0
100
AcDbLine
 10
313.328311
 20
417.54164
 11
308.498682
 21
418.835735
  0
LINE
  5
83
100
AcDbEntity
  8
DD0
100
AcDbLine
 10
176.228326
 20
417.54164
 11
313.328311
 21
417.54164
  0
TEXT
  5
84
100
AcDbEntity
  8
DD0
100
AcDbText
 10
236.731099
 20
418.54165
 40
4.166667
  1
１３７．５
 41
0.666667
  7
STANDARD
100
AcDbText
  0
ENDBLK
  5
85
100
AcDbEntity
  8
DD0
100
AcDbBlockEnd
  0
BLOCK
  5
88
100
AcDbEntity
  8
DD0
100
AcDbBlockBegin
  2
DIMS5
 70
     0
 10
0.0
 20
0.0
  0
LINE
  5
89
100
AcDbEntity
  8
DD0
100
AcDbLine
 10
171.228326
 20
362.448004
 11
171.228326
 21
419.208307
  0
LINE
  5
8A
100
AcDbEntity
  8
DD0
100
AcDbLine
 10
176.228326
 20
362.448004
 11
176.228326
 21
419.208307
  0
LINE
  5
8B
100
AcDbEntity
  8
DD0
100
AcDbLine
 10
166.398697
 20
416.247545
 11
171.228326
 21
417.54164
  0
LINE
  5
8C
100
AcDbEntity
  8
DD0
100
AcDbLine
 10
171.228326
 20
417.54164
 11
166.398697
 21
418.835735
  0
LINE
  5
8D
100
AcDbEntity
  8
DD0
100
AcDbLine
 10
181.057954
 20
418.835735
 11
176.228326
 21
417.54164
  0
LINE
  5
8E
100
AcDbEntity
  8
DD0
100
AcDbLine
 10
176.228326
 20
417.54164
 11
181.057954
 21
416.247545
  0
LINE
  5
8F
100
AcDbEntity
  8
DD0
100
AcDbLine
 10
160.728326
 20
417.54164
 11
181.728325
 21
417.54164
  0
TEXT
  5
90
100
AcDbEntity
  8
DD0
100
AcDbText
 10
162.197766
 20
418.54165
 40
4.166667
  1
５
 41
0.666667
  7
STANDARD
100
AcDbText
  0
ENDBLK
  5
91
100
AcDbEntity
  8
DD0
100
AcDbBlockEnd
  0
BLOCK
  5
94
100
AcDbEntity
  8
DD0
100
AcDbBlockBegin
  2
DIMS6
 70
     0
 10
0.0
 20
0.0
  0
LINE
  5
95
100
AcDbEntity
  8
DD0
100
AcDbLine
 10
72.741881
 20
312.114703
 11
72.741881
 21
288.200367
  0
LINE
  5
96
100
AcDbEntity
  8
DD0
100
AcDbLine
 10
90.341882
 20
294.614704
 11
90.341882
 21
288.200367
  0
LINE
  5
97
100
AcDbEntity
  8
DD0
100
AcDbLine
 10
77.57151
 20
291.161129
 11
72.741881
 21
289.867034
  0
LINE
  5
98
100
AcDbEntity
  8
DD0
100
AcDbLine
 10
72.741881
 20
289.867034
 11
77.57151
 21
288.572938
  0
LINE
  5
99
100
AcDbEntity
  8
DD0
100
AcDbLine
 10
85.512253
 20
288.572938
 11
90.341882
 21
289.867034
  0
LINE
  5
9A
100
AcDbEntity
  8
DD0
100
AcDbLine
 10
90.341882
 20
289.867034
 11
85.512253
 21
291.161129
  0
LINE
  5
9B
100
AcDbEntity
  8
DD0
100
AcDbLine
 10
72.741881
 20
289.867034
 11
90.341882
 21
289.867034
  0
TEXT
  5
9C
100
AcDbEntity
  8
DD0
100
AcDbText
 10
75.161332
 20
290.867044
 40
4.166667
  1
１７．５
 41
0.666667
  7
STANDARD
100
AcDbText
  0
ENDBLK
  5
9D
100
AcDbEntity
  8
DD0
100
AcDbBlockEnd
  0
BLOCK
  5
A0
100
AcDbEntity
  8
DD0
100
AcDbBlockBegin
  2
DIMS7
 70
     0
 10
0.0
 20
0.0
  0
TEXT
  5
A1
100
AcDbEntity
  8
DD0
100
AcDbText
 10
135.319114
 20
296.562193
 40
4.166667
  1
　
 50
310.134438
 41
0.666667
  7
STANDARD
100
AcDbText
  0
ENDBLK
  5
A2
100
AcDbEntity
  8
DD0
100
AcDbBlockEnd
  0
BLOCK
  5
A5
100
AcDbEntity
  8
DD0
100
AcDbBlockBegin
  2
DIMS8
 70
     0
 10
0.0
 20
0.0
  0
TEXT
  5
A6
100
AcDbEntity
  8
DD0
100
AcDbText
 10
138.438866
 20
299.195766
 40
4.166667
  1
　
 50
317.115984
 41
0.666667
  7
STANDARD
100
AcDbText
  0
ENDBLK
  5
A7
100
AcDbEntity
  8
DD0
100
AcDbBlockEnd
  0
BLOCK
  5
AA
100
AcDbEntity
  8
DD0
100
AcDbBlockBegin
  2
DIMS9
 70
     0
 10
0.0
 20
0.0
  0
TEXT
  5
AB
100
AcDbEntity
  8
DD0
100
AcDbText
 10
131.994301
 20
408.790284
 40
4.166667
  1
　
 50
43.069185
 41
0.666667
  7
STANDARD
100
AcDbText
  0
ENDBLK
  5
AC
100
AcDbEntity
  8
DD0
100
AcDbBlockEnd
  0
BLOCK
  5
AF
100
AcDbEntity
  8
DD0
100
AcDbBlockBegin
  2
DIMS10
 70
     0
 10
0.0
 20
0.0
  0
LINE
  5
B0
100
AcDbEntity
  8
DD0
100
AcDbLine
 10
131.16808
 20
147.932585
 11
127.108302
 21
150.85118
  0
LINE
  5
B1
100
AcDbEntity
  8
DD0
100
AcDbLine
 10
127.108302
 20
150.85118
 11
129.164876
 21
146.293714
  0
LINE
  5
B2
100
AcDbEntity
  8
DD0
100
AcDbLine
 10
127.108302
 20
150.85118
 11
136.830235
 21
138.967992
  0
TEXT
  5
B3
100
AcDbEntity
  8
DD0
100
AcDbText
 10
128.531526
 20
134.027107
 40
4.166667
  1
２－Ｍ４ねじ穴
 41
0.666667
  7
STANDARD
100
AcDbText
  0
ENDBLK
  5
B4
100
AcDbEntity
  8
DD0
100
AcDbBlockEnd
  0
BLOCK
  5
B7
100
AcDbEntity
  8
DD0
100
AcDbBlockBegin
  2
DIMS11
 70
     0
 10
0.0
 20
0.0
  0
LINE
  5
B8
100
AcDbEntity
  8
DD0
100
AcDbLine
 10
52.411144
 20
217.399131
 11
151.640466
 21
217.399131
  0
LINE
  5
B9
100
AcDbEntity
  8
DD0
100
AcDbLine
 10
123.411148
 20
152.399146
 11
151.640466
 21
152.399146
  0
LWPOLYLINE
  5
BA
100
AcDbEntity
  8
DD0
100
AcDbPolyline
 90
        2
 70
     1
 43
0.833333
 10
149.557133
 20
217.399131
 42
1.0
 10
150.390466
 20
217.399131
 42
1.0
  0
LINE
  5
BB
100
AcDbEntity
  8
DD0
100
AcDbLine
 10
148.679705
 20
157.228775
 11
149.9738
 21
152.399146
  0
LINE
  5
BC
100
AcDbEntity
  8
DD0
100
AcDbLine
 10
149.9738
 20
152.399146
 11
151.267895
 21
157.228775
  0
LINE
  5
BD
100
AcDbEntity
  8
DD0
100
AcDbLine
 10
149.9738
 20
217.399131
 11
149.9738
 21
152.399146
  0
TEXT
  5
BE
100
AcDbEntity
  8
DD0
100
AcDbText
 10
148.973802
 20
181.851913
 40
4.166667
  1
６５
 50
90.000003
 41
0.666667
  7
STANDARD
100
AcDbText
  0
ENDBLK
  5
BF
100
AcDbEntity
  8
DD0
100
AcDbBlockEnd
  0
BLOCK
  5
C2
100
AcDbEntity
  8
DD0
100
AcDbBlockBegin
  2
DIMS12
 70
     0
 10
0.0
 20
0.0
  0
LINE
  5
C3
100
AcDbEntity
  8
DD0
100
AcDbLine
 10
60.605956
 20
217.399131
 11
151.640466
 21
217.399131
  0
LINE
  5
C4
100
AcDbEntity
  8
DD0
100
AcDbLine
 10
114.45855
 20
231.399145
 11
151.640466
 21
231.399145
  0
LWPOLYLINE
  5
C5
100
AcDbEntity
  8
DD0
100
AcDbPolyline
 90
        2
 70
     1
 43
0.833333
 10
149.557133
 20
217.399131
 42
1.0
 10
150.390466
 20
217.399131
 42
1.0
  0
LINE
  5
C6
100
AcDbEntity
  8
DD0
100
AcDbLine
 10
151.267895
 20
226.569517
 11
149.9738
 21
231.399145
  0
LINE
  5
C7
100
AcDbEntity
  8
DD0
100
AcDbLine
 10
149.9738
 20
231.399145
 11
148.679705
 21
226.569517
  0
LINE
  5
C8
100
AcDbEntity
  8
DD0
100
AcDbLine
 10
149.9738
 20
217.399131
 11
149.9738
 21
231.399145
  0
TEXT
  5
C9
100
AcDbEntity
  8
DD0
100
AcDbText
 10
148.973802
 20
221.351919
 40
4.166667
  1
１４
 50
90.000003
 41
0.666667
  7
STANDARD
100
AcDbText
  0
ENDBLK
  5
CA
100
AcDbEntity
  8
DD0
100
AcDbBlockEnd
  0
BLOCK
  5
CD
100
AcDbEntity
  8
DD0
100
AcDbBlockBegin
  2
DIMS13
 70
     0
 10
0.0
 20
0.0
  0
LINE
  5
CE
100
AcDbEntity
  8
DD0
100
AcDbLine
 10
54.841872
 20
223.163214
 11
54.841872
 21
240.221853
  0
LINE
  5
CF
100
AcDbEntity
  8
DD0
100
AcDbLine
 10
125.841873
 20
158.163204
 11
125.841873
 21
240.221853
  0
LWPOLYLINE
  5
D0
100
AcDbEntity
  8
DD0
100
AcDbPolyline
 90
        2
 70
     1
 43
0.833333
 10
54.425206
 20
238.555187
 42
1.0
 10
55.258539
 20
238.555187
 42
1.0
  0
LINE
  5
D1
100
AcDbEntity
  8
DD0
100
AcDbLine
 10
121.012244
 20
237.261091
 11
125.841873
 21
238.555187
  0
LINE
  5
D2
100
AcDbEntity
  8
DD0
100
AcDbLine
 10
125.841873
 20
238.555187
 11
121.012244
 21
239.849282
  0
LINE
  5
D3
100
AcDbEntity
  8
DD0
100
AcDbLine
 10
54.841872
 20
238.555187
 11
125.841873
 21
238.555187
  0
TEXT
  5
D4
100
AcDbEntity
  8
DD0
100
AcDbText
 10
75.627984
 20
239.555197
 40
4.166667
  1
７１（６８も可能）
 41
0.666667
  7
STANDARD
100
AcDbText
  0
ENDBLK
  5
D5
100
AcDbEntity
  8
DD0
100
AcDbBlockEnd
  0
BLOCK
  5
D8
100
AcDbEntity
  8
DD0
100
AcDbBlockBegin
  2
DIMS14
 70
     0
 10
0.0
 20
0.0
  0
LINE
  5
D9
100
AcDbEntity
  8
DD0
100
AcDbLine
 10
54.841872
 20
223.163214
 11
54.841872
 21
240.221853
  0
LINE
  5
DA
100
AcDbEntity
  8
DD0
100
AcDbLine
 10
51.391882
 20
229.065797
 11
51.391882
 21
240.221853
  0
LWPOLYLINE
  5
DB
100
AcDbEntity
  8
DD0
100
AcDbPolyline
 90
        2
 70
     1
 43
0.833333
 10
54.425206
 20
238.555187
 42
1.0
 10
55.258539
 20
238.555187
 42
1.0
  0
LINE
  5
DC
100
AcDbEntity
  8
DD0
100
AcDbLine
 10
46.562254
 20
237.261091
 11
51.391882
 21
238.555187
  0
LINE
  5
DD
100
AcDbEntity
  8
DD0
100
AcDbLine
 10
51.391882
 20
238.555187
 11
46.562254
 21
239.849282
  0
LINE
  5
DE
100
AcDbEntity
  8
DD0
100
AcDbLine
 10
54.841872
 20
238.555187
 11
34.225216
 21
238.555187
  0
TEXT
  5
DF
100
AcDbEntity
  8
DD0
100
AcDbText
 10
35.694663
 20
239.555197
 40
4.166667
  1
３．５
 41
0.666667
  7
STANDARD
100
AcDbText
  0
ENDBLK
  5
E0
100
AcDbEntity
  8
DD0
100
AcDbBlockEnd
  0
BLOCK
  5
E3
100
AcDbEntity
  8
DD0
100
AcDbBlockBegin
  2
DIMS15
 70
     0
 10
0.0
 20
0.0
  0
LINE
  5
E4
100
AcDbEntity
  8
DD0
100
AcDbLine
 10
71.075214
 20
373.281388
 11
29.138176
 21
373.281388
  0
LINE
  5
E5
100
AcDbEntity
  8
DD0
100
AcDbLine
 10
67.225218
 20
390.281357
 11
29.138176
 21
390.281357
  0
LINE
  5
E6
100
AcDbEntity
  8
DD0
100
AcDbLine
 10
29.510747
 20
378.111017
 11
30.804843
 21
373.281388
  0
LINE
  5
E7
100
AcDbEntity
  8
DD0
100
AcDbLine
 10
30.804843
 20
373.281388
 11
32.098938
 21
378.111017
  0
LINE
  5
E8
100
AcDbEntity
  8
DD0
100
AcDbLine
 10
32.098938
 20
385.451728
 11
30.804843
 21
390.281357
  0
LINE
  5
E9
100
AcDbEntity
  8
DD0
100
AcDbLine
 10
30.804843
 20
390.281357
 11
29.510747
 21
385.451728
  0
LINE
  5
EA
100
AcDbEntity
  8
DD0
100
AcDbLine
 10
30.804843
 20
373.281388
 11
30.804843
 21
390.281357
  0
TEXT
  5
EB
100
AcDbEntity
  8
DD0
100
AcDbText
 10
29.804842
 20
378.73414
 40
4.166667
  1
１７
 50
90.000003
 41
0.666667
  7
STANDARD
100
AcDbText
  0
ENDBLK
  5
EC
100
AcDbEntity
  8
DD0
100
AcDbBlockEnd
  0
BLOCK
  5
EF
100
AcDbEntity
  8
DD0
100
AcDbBlockBegin
  2
DIMS16
 70
     0
 10
0.0
 20
0.0
  0
LINE
  5
F0
100
AcDbEntity
  8
DD0
100
AcDbLine
 10
71.075214
 20
373.281388
 11
29.138176
 21
373.281388
  0
LINE
  5
F1
100
AcDbEntity
  8
DD0
100
AcDbLine
 10
71.075214
 20
314.281324
 11
29.138176
 21
314.281324
  0
LINE
  5
F2
100
AcDbEntity
  8
DD0
100
AcDbLine
 10
32.098938
 20
368.451759
 11
30.804843
 21
373.281388
  0
LINE
  5
F3
100
AcDbEntity
  8
DD0
100
AcDbLine
 10
30.804843
 20
373.281388
 11
29.510747
 21
368.451759
  0
LINE
  5
F4
100
AcDbEntity
  8
DD0
100
AcDbLine
 10
29.510747
 20
319.110953
 11
30.804843
 21
314.281324
  0
LINE
  5
F5
100
AcDbEntity
  8
DD0
100
AcDbLine
 10
30.804843
 20
314.281324
 11
32.098938
 21
319.110953
  0
LINE
  5
F6
100
AcDbEntity
  8
DD0
100
AcDbLine
 10
30.804843
 20
373.281388
 11
30.804843
 21
314.281324
  0
TEXT
  5
F7
100
AcDbEntity
  8
DD0
100
AcDbText
 10
29.804842
 20
340.734136
 40
4.166667
  1
５９
 50
90.000003
 41
0.666667
  7
STANDARD
100
AcDbText
  0
ENDBLK
  5
F8
100
AcDbEntity
  8
DD0
100
AcDbBlockEnd
  0
ENDSEC
  0
SECTION
  2
ENTITIES
  0
INSERT
  5
56
100
AcDbEntity
  8
DD0
100
AcDbBlockReference
  2
DIMS0
 10
0.0
 20
0.0
  0
INSERT
  5
62
100
AcDbEntity
  8
DD0
100
AcDbBlockReference
  2
DIMS1
 10
0.0
 20
0.0
  0
INSERT
  5
6F
100
AcDbEntity
  8
DD0
100
AcDbBlockReference
  2
DIMS2
 10
0.0
 20
0.0
  0
INSERT
  5
7A
100
AcDbEntity
  8
DD0
100
AcDbBlockReference
  2
DIMS3
 10
0.0
 20
0.0
  0
INSERT
  5
86
100
AcDbEntity
  8
DD0
100
AcDbBlockReference
  2
DIMS4
 10
0.0
 20
0.0
  0
INSERT
  5
92
100
AcDbEntity
  8
DD0
100
AcDbBlockReference
  2
DIMS5
 10
0.0
 20
0.0
  0
INSERT
  5
9E
100
AcDbEntity
  8
DD0
100
AcDbBlockReference
  2
DIMS6
 10
0.0
 20
0.0
  0
INSERT
  5
A3
100
AcDbEntity
  8
DD0
100
AcDbBlockReference
  2
DIMS7
 10
0.0
 20
0.0
  0
INSERT
  5
A8
100
AcDbEntity
  8
DD0
100
AcDbBlockReference
  2
DIMS8
 10
0.0
 20
0.0
  0
INSERT
  5
AD
100
AcDbEntity
  8
DD0
100
AcDbBlockReference
  2
DIMS9
 10
0.0
 20
0.0
  0
INSERT
  5
B5
100
AcDbEntity
  8
DD0
100
AcDbBlockReference
  2
DIMS10
 10
0.0
 20
0.0
  0
INSERT
  5
C0
100
AcDbEntity
  8
DD0
100
AcDbBlockReference
  2
DIMS11
 10
0.0
 20
0.0
  0
INSERT
  5
CB
100
AcDbEntity
  8
DD0
100
AcDbBlockReference
  2
DIMS12
 10
0.0
 20
0.0
  0
INSERT
  5
D6
100
AcDbEntity
  8
DD0
100
AcDbBlockReference
  2
DIMS13
 10
0.0
 20
0.0
  0
INSERT
  5
E1
100
AcDbEntity
  8
DD0
100
AcDbBlockReference
  2
DIMS14
 10
0.0
 20
0.0
  0
INSERT
  5
ED
100
AcDbEntity
  8
DD0
100
AcDbBlockReference
  2
DIMS15
 10
0.0
 20
0.0
  0
INSERT
  5
F9
100
AcDbEntity
  8
DD0
100
AcDbBlockReference
  2
DIMS16
 10
0.0
 20
0.0
  0
ARC
  5
FA
100
AcDbEntity
  8
M0
 62
     7
100
AcDbCircle
 10
52.891883
 20
348.481359
 40
1.0
100
AcDbArc
 50
180.0
 51
270.0
  0
ARC
  5
FB
100
AcDbEntity
  8
M0
 62
     7
100
AcDbCircle
 10
127.791883
 20
339.081359
 40
1.0
100
AcDbArc
 50
0.0
 51
90.0
  0
ARC
  5
FC
100
AcDbEntity
  8
M0
 62
     7
100
AcDbCircle
 10
79.191883
 20
389.281359
 40
1.0
100
AcDbArc
 50
90.0
 51
180.0
  0
LINE
  5
FD
100
AcDbEntity
  8
M0
 62
     7
100
AcDbLine
 10
313.028324
 20
302.031351
 11
313.328324
 21
302.031351
  0
LINE
  5
FE
100
AcDbEntity
  8
M0
 62
     7
100
AcDbLine
 10
267.628323
 20
390.281351
 11
270.128324
 21
390.281351
  0
ARC
  5
FF
100
AcDbEntity
  8
M0
 62
     7
100
AcDbCircle
 10
52.891883
 20
339.081359
 40
1.0
100
AcDbArc
 50
90.0
 51
180.0
  0
ARC
  5
100
100
AcDbEntity
  8
M0
 62
     7
100
AcDbCircle
 10
101.491883
 20
389.281359
 40
1.0
100
AcDbArc
 50
0.0
 51
90.0
  0
ARC
  5
101
100
AcDbEntity
  8
M0
 62
     7
100
AcDbCircle
 10
73.291883
 20
389.781359
 40
0.5
100
AcDbArc
 50
90.0
 51
180.0
  0
ARC
  5
102
100
AcDbEntity
  8
M0
 62
     7
100
AcDbCircle
 10
117.091883
 20
336.081359
 40
0.5
100
AcDbArc
 50
0.0
 51
90.0
  0
ARC
  5
103
100
AcDbEntity
  8
M0
 62
     7
100
AcDbCircle
 10
107.391883
 20
389.781359
 40
0.5
100
AcDbArc
 50
0.0
 51
90.0
  0
LINE
  5
104
100
AcDbEntity
  8
M0
 62
     7
100
AcDbLine
 10
305.528324
 20
326.720795
 11
290.028324
 21
326.720795
  0
ARC
  5
105
100
AcDbEntity
  8
M0
 62
     7
100
AcDbCircle
 10
110.091883
 20
381.281359
 40
0.5
100
AcDbArc
 50
0.0
 51
66.421822
  0
ARC
  5
106
100
AcDbEntity
  8
M0
 62
     7
100
AcDbCircle
 10
70.591883
 20
381.281359
 40
0.5
100
AcDbArc
 50
113.578178
 51
180.0
  0
LINE
  5
107
100
AcDbEntity
  8
M0
 62
     7
100
AcDbLine
 10
305.528324
 20
357.965122
 11
290.028324
 21
357.965122
  0
LINE
  5
108
100
AcDbEntity
  8
M0
 62
     7
100
AcDbLine
 10
278.228324
 20
390.281351
 11
287.01411
 21
390.281351
  0
LINE
  5
109
100
AcDbEntity
  8
M0
 62
     7
100
AcDbLine
 10
313.328324
 20
384.531351
 11
313.028324
 21
384.531351
  0
LINE
  5
10A
100
AcDbEntity
  8
M0
 62
     7
100
AcDbLine
 10
267.128322
 20
381.214684
 11
267.128322
 21
387.281349
  0
LINE
  5
10B
100
AcDbEntity
  8
M0
 62
     7
100
AcDbLine
 10
278.228324
 20
390.281351
 11
270.128324
 21
390.281351
  0
LINE
  5
10C
100
AcDbEntity
  8
M0
 62
     7
100
AcDbLine
 10
290.028324
 20
329.597578
 11
305.528324
 21
329.597578
  0
LINE
  5
10D
100
AcDbEntity
  8
M0
 62
     7
100
AcDbLine
 10
308.828324
 20
359.08135
 11
308.828324
 21
361.58135
  0
LINE
  5
10E
100
AcDbEntity
  8
M0
 62
     7
100
AcDbLine
 10
264.428325
 20
346.48135
 11
264.428325
 21
341.28135
  0
LINE
  5
10F
100
AcDbEntity
  8
M0
 62
     7
100
AcDbLine
 10
267.128322
 20
389.281349
 11
267.128322
 21
389.78135
  0
LINE
  5
110
100
AcDbEntity
  8
M0
 62
     7
100
AcDbLine
 10
267.128322
 20
388.181349
 11
267.128322
 21
389.281349
  0
LINE
  5
111
100
AcDbEntity
  8
M0
 62
     7
100
AcDbLine
 10
231.928326
 20
339.28135
 11
229.228325
 21
339.28135
  0
LINE
  5
112
100
AcDbEntity
  8
M0
 62
     7
100
AcDbLine
 10
313.328324
 20
315.03135
 11
313.028324
 21
315.03135
  0
LINE
  5
113
100
AcDbEntity
  8
M0
 62
     7
100
AcDbLine
 10
267.128322
 20
387.281349
 11
267.128322
 21
389.281349
  0
LINE
  5
114
100
AcDbEntity
  8
M0
 62
     7
100
AcDbLine
 10
116.891883
 20
342.38136
 11
116.891883
 21
345.181359
  0
LINE
  5
115
100
AcDbEntity
  8
M0
 62
     7
100
AcDbLine
 10
79.691883
 20
320.881359
 11
83.391883
 21
320.881359
  0
LINE
  5
116
100
AcDbEntity
  8
M0
 62
     7
100
AcDbLine
 10
79.691883
 20
321.081359
 11
79.691883
 21
302.281361
  0
LINE
  5
117
100
AcDbEntity
  8
M0
 62
     7
100
AcDbLine
 10
97.291883
 20
321.081359
 11
97.291883
 21
318.881359
  0
LINE
  5
118
100
AcDbEntity
  8
M0
 62
     7
100
AcDbLine
 10
100.991883
 20
318.881359
 11
100.991883
 21
321.081359
  0
LINE
  5
119
100
AcDbEntity
  8
M0
 62
     7
100
AcDbLine
 10
63.791882
 20
342.38136
 11
63.791882
 21
345.181359
  0
LINE
  5
11A
100
AcDbEntity
  8
M0
 62
     7
100
AcDbLine
 10
83.391883
 20
366.68136
 11
79.691883
 21
366.68136
  0
LINE
  5
11B
100
AcDbEntity
  8
M0
 62
     7
100
AcDbLine
 10
100.991883
 20
306.281358
 11
100.991883
 21
302.281361
  0
LINE
  5
11C
100
AcDbEntity
  8
M0
 62
     7
100
AcDbLine
 10
65.791883
 20
302.281361
 11
65.791883
 21
306.281358
  0
LINE
  5
11D
100
AcDbEntity
  8
M0
 62
     7
100
AcDbLine
 10
97.291883
 20
366.68136
 11
100.991883
 21
366.68136
  0
LINE
  5
11E
100
AcDbEntity
  8
M0
 62
     7
100
AcDbLine
 10
100.991883
 20
320.881359
 11
97.291883
 21
320.881359
  0
LINE
  5
11F
100
AcDbEntity
  8
M0
 62
     7
100
AcDbLine
 10
118.591882
 20
342.38136
 11
116.891883
 21
342.38136
  0
LINE
  5
120
100
AcDbEntity
  8
M0
 62
     7
100
AcDbLine
 10
116.891883
 20
345.181359
 11
118.591882
 21
345.181359
  0
CIRCLE
  5
121
100
AcDbEntity
  8
M0
 62
     7
100
AcDbCircle
 10
90.341883
 20
384.081359
 40
2.825
  0
CIRCLE
  5
122
100
AcDbEntity
  8
M0
 62
     7
100
AcDbCircle
 10
107.691883
 20
304.281359
 40
2.85
  0
LINE
  5
123
100
AcDbEntity
  8
M0
 62
     7
100
AcDbLine
 10
127.791884
 20
340.081359
 11
126.991881
 21
340.081359
  0
ARC
  5
124
100
AcDbEntity
  8
M0
 62
     7
100
AcDbCircle
 10
63.591883
 20
336.081359
 40
0.5
100
AcDbArc
 50
90.0
 51
180.0
  0
ARC
  5
125
100
AcDbEntity
  8
M0
 62
     7
100
AcDbCircle
 10
64.091883
 20
322.081359
 40
1.0
100
AcDbArc
 50
180.0
 51
270.0
  0
CIRCLE
  5
126
100
AcDbEntity
  8
M0
 62
     7
100
AcDbCircle
 10
90.341883
 20
384.081359
 40
2.85
  0
LINE
  5
127
100
AcDbEntity
  8
M0
 62
     7
100
AcDbLine
 10
54.691883
 20
326.581359
 11
62.491883
 21
326.581359
  0
LINE
  5
128
100
AcDbEntity
  8
M0
 62
     7
100
AcDbLine
 10
53.691885
 20
363.881359
 11
52.891882
 21
363.881359
  0
LINE
  5
129
100
AcDbEntity
  8
M0
 62
     7
100
AcDbLine
 10
126.991881
 20
363.881359
 11
127.791884
 21
363.881359
  0
LINE
  5
12A
100
AcDbEntity
  8
M0
 62
     7
100
AcDbLine
 10
125.991883
 20
370.131359
 11
125.991883
 21
348.481359
  0
ARC
  5
12B
100
AcDbEntity
  8
M0
 62
     7
100
AcDbCircle
 10
116.591883
 20
322.081359
 40
1.0
100
AcDbArc
 50
270.0
 51
360.0
  0
LINE
  5
12C
100
AcDbEntity
  8
M0
 62
     7
100
AcDbLine
 10
126.991881
 20
347.481359
 11
127.791884
 21
347.481359
  0
ARC
  5
12D
100
AcDbEntity
  8
M0
 62
     7
100
AcDbCircle
 10
275.828324
 20
339.78135
 40
0.5
100
AcDbArc
 50
270.0
 51
306.869898
  0
ARC
  5
12E
100
AcDbEntity
  8
M0
 62
     7
100
AcDbCircle
 10
305.528324
 20
329.897578
 40
0.3
100
AcDbArc
 50
270.0
 51
360.0
  0
LINE
  5
12F
100
AcDbEntity
  8
M0
 62
     7
100
AcDbLine
 10
269.928325
 20
307.281351
 11
264.807004
 21
302.16003
  0
ARC
  5
130
100
AcDbEntity
  8
M0
 62
     7
100
AcDbCircle
 10
305.528324
 20
357.665122
 40
0.3
100
AcDbArc
 50
0.0
 51
90.0
  0
ARC
  5
131
100
AcDbEntity
  8
M0
 62
     7
100
AcDbCircle
 10
291.428324
 20
384.867137
 40
1.0
100
AcDbArc
 50
0.0
 51
45.0
  0
ARC
  5
132
100
AcDbEntity
  8
M0
 62
     7
100
AcDbCircle
 10
264.928324
 20
341.28135
 40
0.5
100
AcDbArc
 50
180.0
 51
203.578178
  0
LINE
  5
133
100
AcDbEntity
  8
M0
 62
     7
100
AcDbLine
 10
276.128325
 20
348.08135
 11
275.828324
 21
348.08135
  0
LINE
  5
134
100
AcDbEntity
  8
M0
 62
     7
100
AcDbLine
 10
269.928325
 20
376.78135
 11
278.128324
 21
376.78135
  0
LINE
  5
135
100
AcDbEntity
  8
M0
 62
     7
100
AcDbLine
 10
269.525591
 20
316.431351
 11
255.428325
 21
316.431351
  0
LINE
  5
136
100
AcDbEntity
  8
M0
 62
     7
100
AcDbLine
 10
269.917011
 20
316.456994
 11
269.917011
 21
307.281351
  0
ARC
  5
137
100
AcDbEntity
  8
M0
 62
     7
100
AcDbCircle
 10
305.528324
 20
361.141905
 40
0.3
100
AcDbArc
 50
270.0
 51
360.0
  0
LINE
  5
138
100
AcDbEntity
  8
M0
 62
     7
100
AcDbLine
 10
262.685682
 20
301.28135
 11
236.928321
 21
301.28135
  0
LINE
  5
139
100
AcDbEntity
  8
M0
 62
     7
100
AcDbLine
 10
278.128324
 20
307.281351
 11
269.928325
 21
307.281351
  0
ARC
  5
13A
100
AcDbEntity
  8
M0
 62
     7
100
AcDbCircle
 10
272.428324
 20
302.28135
 40
1.0
100
AcDbArc
 50
180.0
 51
270.0
  0
ARC
  5
13B
100
AcDbEntity
  8
M0
 62
     7
100
AcDbCircle
 10
236.928324
 20
306.28135
 40
5.0
100
AcDbArc
 50
180.0
 51
270.0
  0
ARC
  5
13C
100
AcDbEntity
  8
M0
 62
     7
100
AcDbCircle
 10
236.028324
 20
348.48135
 40
1.0
100
AcDbArc
 50
180.0
 51
270.0
  0
LINE
  5
13D
100
AcDbEntity
  8
M0
 62
     7
100
AcDbLine
 10
231.928326
 20
350.98135
 11
229.728326
 21
350.98135
  0
LINE
  5
13E
100
AcDbEntity
  8
M0
 62
     7
100
AcDbLine
 10
230.228327
 20
366.481351
 11
231.928326
 21
366.481351
  0
ARC
  5
13F
100
AcDbEntity
  8
M0
 62
     7
100
AcDbCircle
 10
236.028324
 20
339.08135
 40
1.0
100
AcDbArc
 50
90.0
 51
180.0
  0
ARC
  5
140
100
AcDbEntity
  8
M0
 62
     7
100
AcDbCircle
 10
262.274818
 20
383.28135
 40
3.0
100
AcDbArc
 50
32.275644
 51
90.0
  0
ARC
  5
141
100
AcDbEntity
  8
M0
 62
     7
100
AcDbCircle
 10
275.828324
 20
346.78135
 40
0.5
100
AcDbArc
 50
53.130102
 51
90.0
  0
ARC
  5
142
100
AcDbEntity
  8
M0
 62
     7
100
AcDbCircle
 10
287.01411
 20
389.28135
 40
1.0
100
AcDbArc
 50
45.0
 51
90.0
  0
ARC
  5
143
100
AcDbEntity
  8
M0
 62
     7
100
AcDbCircle
 10
267.628324
 20
389.78135
 40
0.5
100
AcDbArc
 50
90.0
 51
180.0
  0
LINE
  5
144
100
AcDbEntity
  8
M0
 62
     7
100
AcDbLine
 10
266.928322
 20
381.531349
 11
266.928322
 21
387.58135
  0
ARC
  5
145
100
AcDbEntity
  8
M0
 62
     7
100
AcDbCircle
 10
267.428324
 20
341.28135
 40
0.5
100
AcDbArc
 50
336.421822
 51
360.0
  0
ARC
  5
146
100
AcDbEntity
  8
M0
 62
     7
100
AcDbCircle
 10
305.528324
 20
326.420795
 40
0.3
100
AcDbArc
 50
0.0
 51
90.0
  0
LINE
  5
147
100
AcDbEntity
  8
M0
 62
     7
100
AcDbLine
 10
236.928321
 20
386.281351
 11
262.274816
 21
386.281351
  0
LINE
  5
148
100
AcDbEntity
  8
M0
 62
     7
100
AcDbLine
 10
313.328324
 20
372.531351
 11
313.028324
 21
372.531351
  0
LINE
  5
149
100
AcDbEntity
  8
M0
 62
     7
100
AcDbLine
 10
235.028326
 20
326.681349
 11
235.028326
 21
339.08135
  0
LINE
  5
14A
100
AcDbEntity
  8
M0
 62
     7
100
AcDbLine
 10
313.028324
 20
379.311657
 11
313.028324
 21
359.08135
  0
LINE
  5
14B
100
AcDbEntity
  8
M0
 62
     7
100
AcDbLine
 10
238.028325
 20
340.08135
 11
236.028321
 21
340.08135
  0
LINE
  5
14C
100
AcDbEntity
  8
M0
 62
     7
100
AcDbLine
 10
313.028324
 20
384.781351
 11
313.028324
 21
384.531351
  0
LINE
  5
14D
100
AcDbEntity
  8
M0
 62
     7
100
AcDbLine
 10
290.028324
 20
360.841906
 11
305.528324
 21
360.841906
  0
LINE
  5
14E
100
AcDbEntity
  8
M0
 62
     7
100
AcDbLine
 10
287.721216
 20
389.988458
 11
292.13543
 21
385.574242
  0
LINE
  5
14F
100
AcDbEntity
  8
M0
 62
     7
100
AcDbLine
 10
58.191883
 20
347.481359
 11
52.891882
 21
347.481359
  0
LINE
  5
150
100
AcDbEntity
  8
M0
 62
     7
100
AcDbLine
 10
279.328324
 20
390.281351
 11
278.828324
 21
390.281351
  0
LINE
  5
151
100
AcDbEntity
  8
M0
 62
     7
100
AcDbLine
 10
313.328324
 20
372.533361
 11
313.028324
 21
372.533361
  0
LINE
  5
152
100
AcDbEntity
  8
M0
 62
     7
100
AcDbLine
 10
292.428324
 20
384.867137
 11
292.428324
 21
381.781349
  0
LINE
  5
153
100
AcDbEntity
  8
M0
 62
     7
100
AcDbLine
 10
308.828324
 20
325.981351
 11
308.828324
 21
361.58135
  0
LINE
  5
154
100
AcDbEntity
  8
M0
 62
     7
100
AcDbLine
 10
264.811285
 20
384.883327
 11
269.928325
 21
376.78135
  0
LINE
  5
155
100
AcDbEntity
  8
M0
 62
     7
100
AcDbLine
 10
235.028326
 20
337.58135
 11
232.928321
 21
337.58135
  0
LINE
  5
156
100
AcDbEntity
  8
M0
 62
     7
100
AcDbLine
 10
232.928321
 20
349.98135
 11
235.028326
 21
349.98135
  0
LINE
  5
157
100
AcDbEntity
  8
M0
 62
     7
100
AcDbLine
 10
236.028321
 20
347.48135
 11
236.028321
 21
340.08135
  0
LINE
  5
158
100
AcDbEntity
  8
M0
 62
     7
100
AcDbLine
 10
269.917011
 20
376.78135
 11
269.917011
 21
371.105706
  0
LINE
  5
159
100
AcDbEntity
  8
M0
 62
     7
100
AcDbLine
 10
231.928326
 20
306.28135
 11
231.928326
 21
381.28135
  0
LINE
  5
15A
100
AcDbEntity
  8
M0
 62
     7
100
AcDbLine
 10
252.428323
 20
319.43135
 11
252.428323
 21
320.68135
  0
LINE
  5
15B
100
AcDbEntity
  8
M0
 62
     7
100
AcDbLine
 10
273.628324
 20
318.98135
 11
271.468539
 21
317.145532
  0
LINE
  5
15C
100
AcDbEntity
  8
M0
 62
     7
100
AcDbLine
 10
313.328324
 20
314.981351
 11
313.328324
 21
302.031351
  0
LINE
  5
15D
100
AcDbEntity
  8
M0
 62
     7
100
AcDbLine
 10
267.928324
 20
341.28135
 11
267.928324
 21
346.48135
  0
LINE
  5
15E
100
AcDbEntity
  8
M0
 62
     7
100
AcDbLine
 10
313.328324
 20
372.533361
 11
313.328324
 21
372.531351
  0
LINE
  5
15F
100
AcDbEntity
  8
M0
 62
     7
100
AcDbLine
 10
249.428324
 20
323.681351
 11
238.028325
 21
323.681351
  0
LINE
  5
160
100
AcDbEntity
  8
M0
 62
     7
100
AcDbLine
 10
278.128324
 20
318.98135
 11
273.628324
 21
318.98135
  0
LINE
  5
161
100
AcDbEntity
  8
M0
 62
     7
100
AcDbLine
 10
82.391882
 20
386.28136
 11
80.691883
 21
386.28136
  0
LINE
  5
162
100
AcDbEntity
  8
M0
 62
     7
100
AcDbLine
 10
116.391879
 20
386.28136
 11
116.591882
 21
386.28136
  0
LINE
  5
163
100
AcDbEntity
  8
M0
 62
     7
100
AcDbLine
 10
98.291883
 20
386.28136
 11
99.991883
 21
386.28136
  0
LINE
  5
164
100
AcDbEntity
  8
M0
 62
     7
100
AcDbLine
 10
115.891883
 20
366.48136
 11
115.891883
 21
366.68136
  0
LINE
  5
165
100
AcDbEntity
  8
M0
 62
     7
100
AcDbLine
 10
125.773082
 20
313.530307
 11
124.343539
 21
313.53136
  0
LINE
  5
166
100
AcDbEntity
  8
M0
 62
     7
100
AcDbLine
 10
115.891883
 20
320.881359
 11
115.891883
 21
321.081359
  0
LINE
  5
167
100
AcDbEntity
  8
M0
 62
     7
100
AcDbLine
 10
114.891883
 20
366.48136
 11
114.891883
 21
385.281358
  0
LINE
  5
168
100
AcDbEntity
  8
M0
 62
     7
100
AcDbLine
 10
83.391883
 20
366.48136
 11
83.391883
 21
385.281358
  0
LINE
  5
169
100
AcDbEntity
  8
M0
 62
     7
100
AcDbLine
 10
116.591882
 20
339.08136
 11
118.591882
 21
339.08136
  0
LINE
  5
16A
100
AcDbEntity
  8
M0
 62
     7
100
AcDbLine
 10
97.291883
 20
366.48136
 11
97.291883
 21
385.281358
  0
LINE
  5
16B
100
AcDbEntity
  8
M0
 62
     7
100
AcDbLine
 10
118.591882
 20
348.481359
 11
116.591882
 21
348.481359
  0
LINE
  5
16C
100
AcDbEntity
  8
M0
 62
     7
100
AcDbLine
 10
107.241882
 20
303.08136
 11
108.141883
 21
303.08136
  0
LINE
  5
16D
100
AcDbEntity
  8
M0
 62
     7
100
AcDbLine
 10
117.591882
 20
302.281359
 11
117.591882
 21
337.581359
  0
LINE
  5
16E
100
AcDbEntity
  8
M0
 62
     7
100
AcDbLine
 10
125.085885
 20
308.617171
 11
125.085885
 21
308.731656
  0
LINE
  5
16F
100
AcDbEntity
  8
M0
 62
     7
100
AcDbLine
 10
122.09337
 20
311.363179
 11
122.09337
 21
311.331358
  0
LINE
  5
170
100
AcDbEntity
  8
M0
 62
     7
100
AcDbLine
 10
115.891883
 20
366.68136
 11
114.891883
 21
366.68136
  0
LINE
  5
171
100
AcDbEntity
  8
M0
 62
     7
100
AcDbLine
 10
80.191883
 20
368.181359
 11
82.891883
 21
368.181359
  0
LINE
  5
172
100
AcDbEntity
  8
M0
 62
     7
100
AcDbLine
 10
63.091884
 20
385.281359
 11
63.091884
 21
349.98136
  0
LINE
  5
173
100
AcDbEntity
  8
M0
 62
     7
100
AcDbLine
 10
64.791883
 20
320.881359
 11
64.791883
 21
321.081359
  0
LINE
  5
174
100
AcDbEntity
  8
M0
 62
     7
100
AcDbLine
 10
64.791883
 20
366.68136
 11
65.791883
 21
366.68136
  0
LINE
  5
175
100
AcDbEntity
  8
M0
 62
     7
100
AcDbLine
 10
125.385886
 20
309.031654
 11
125.878358
 21
309.031654
  0
LINE
  5
176
100
AcDbEntity
  8
M0
 62
     7
100
AcDbLine
 10
113.941884
 20
306.281358
 11
114.891883
 21
306.281358
  0
LINE
  5
177
100
AcDbEntity
  8
M0
 62
     7
100
AcDbLine
 10
63.091884
 20
337.581359
 11
63.091884
 21
302.281359
  0
LINE
  5
178
100
AcDbEntity
  8
M0
 62
     7
100
AcDbLine
 10
129.291883
 20
314.98136
 11
129.291883
 21
304.281358
  0
LINE
  5
179
100
AcDbEntity
  8
M0
 62
     7
100
AcDbLine
 10
117.591882
 20
349.98136
 11
117.591882
 21
385.281359
  0
LINE
  5
17A
100
AcDbEntity
  8
M0
 62
     7
100
AcDbLine
 10
64.091884
 20
339.08136
 11
62.091883
 21
339.08136
  0
ARC
  5
17B
100
AcDbEntity
  8
M0
 62
     7
100
AcDbCircle
 10
107.691883
 20
304.281359
 40
2.65
100
AcDbArc
 50
350.223151
 51
369.776849
  0
ARC
  5
17C
100
AcDbEntity
  8
M0
 62
     7
100
AcDbCircle
 10
103.191883
 20
380.981359
 40
0.6
100
AcDbArc
 50
187.490122
 51
324.314617
  0
ARC
  5
17D
100
AcDbEntity
  8
M0
 62
     7
100
AcDbCircle
 10
90.341883
 20
384.081359
 40
2.65
100
AcDbArc
 50
170.223151
 51
189.776849
  0
ARC
  5
17E
100
AcDbEntity
  8
M0
 62
     7
100
AcDbCircle
 10
105.891883
 20
379.781359
 40
1.0
100
AcDbArc
 50
121.788346
 51
150.0
  0
ARC
  5
17F
100
AcDbEntity
  8
M0
 62
     7
100
AcDbCircle
 10
90.341883
 20
384.081359
 40
2.65
100
AcDbArc
 50
350.223151
 51
369.776849
  0
ARC
  5
180
100
AcDbEntity
  8
M0
 62
     7
100
AcDbCircle
 10
90.341883
 20
384.081359
 40
2.65
100
AcDbArc
 50
189.776849
 51
350.223151
  0
ARC
  5
181
100
AcDbEntity
  8
M0
 62
     7
100
AcDbCircle
 10
90.341882
 20
384.031359
 40
4.25
100
AcDbArc
 50
241.927521
 51
270.0
  0
ARC
  5
182
100
AcDbEntity
  8
M0
 62
     7
100
AcDbCircle
 10
107.941883
 20
303.531359
 40
4.25
100
AcDbArc
 50
61.927513
 51
118.072487
  0
ARC
  5
183
100
AcDbEntity
  8
M0
 62
     7
100
AcDbCircle
 10
107.941882
 20
384.031359
 40
4.25
100
AcDbArc
 50
241.927521
 51
270.0
  0
ARC
  5
184
100
AcDbEntity
  8
M0
 62
     7
100
AcDbCircle
 10
105.891883
 20
379.781359
 40
1.0
100
AcDbArc
 50
30.0
 51
58.211672
  0
ARC
  5
185
100
AcDbEntity
  8
M0
 62
     7
100
AcDbCircle
 10
90.341883
 20
384.081359
 40
2.65
100
AcDbArc
 50
9.776849
 51
170.223151
  0
ARC
  5
186
100
AcDbEntity
  8
M0
 62
     7
100
AcDbCircle
 10
90.341882
 20
384.031359
 40
4.25
100
AcDbArc
 50
241.927521
 51
298.072495
  0
ARC
  5
187
100
AcDbEntity
  8
M0
 62
     7
100
AcDbCircle
 10
77.491883
 20
380.981359
 40
0.6
100
AcDbArc
 50
215.685335
 51
270.0
  0
ARC
  5
188
100
AcDbEntity
  8
M0
 62
     7
100
AcDbCircle
 10
127.791883
 20
362.881359
 40
1.0
100
AcDbArc
 50
0.0
 51
90.0
  0
ARC
  5
189
100
AcDbEntity
  8
M0
 62
     7
100
AcDbCircle
 10
77.491883
 20
380.981359
 40
0.6
100
AcDbArc
 50
270.0
 51
352.509835
  0
ARC
  5
18A
100
AcDbEntity
  8
M0
 62
     7
100
AcDbCircle
 10
80.691883
 20
302.281359
 40
1.0
100
AcDbArc
 50
180.0
 51
270.0
  0
LINE
  5
18B
100
AcDbEntity
  8
M0
 62
     7
100
AcDbLine
 10
64.791883
 20
386.28136
 11
64.091883
 21
386.28136
  0
LINE
  5
18C
100
AcDbEntity
  8
M0
 62
     7
100
AcDbLine
 10
106.104432
 20
304.731358
 11
107.241882
 21
304.731358
  0
ARC
  5
18D
100
AcDbEntity
  8
M0
 62
     7
100
AcDbCircle
 10
53.691883
 20
348.481359
 40
1.0
100
AcDbArc
 50
270.0
 51
360.0
  0
ARC
  5
18E
100
AcDbEntity
  8
M0
 62
     7
100
AcDbCircle
 10
115.891883
 20
302.281359
 40
1.0
100
AcDbArc
 50
180.0
 51
270.0
  0
ARC
  5
18F
100
AcDbEntity
  8
M0
 62
     7
100
AcDbCircle
 10
64.791883
 20
302.281359
 40
1.0
100
AcDbArc
 50
270.0
 51
360.0
  0
ARC
  5
190
100
AcDbEntity
  8
M0
 62
     7
100
AcDbCircle
 10
64.091883
 20
302.281359
 40
1.0
100
AcDbArc
 50
180.0
 51
270.0
  0
ARC
  5
191
100
AcDbEntity
  8
M0
 62
     7
100
AcDbCircle
 10
99.991883
 20
302.281359
 40
1.0
100
AcDbArc
 50
270.0
 51
360.0
  0
LINE
  5
192
100
AcDbEntity
  8
M0
 62
     7
100
AcDbLine
 10
115.891883
 20
386.28136
 11
116.391879
 21
386.28136
  0
ARC
  5
193
100
AcDbEntity
  8
M0
 62
     7
100
AcDbCircle
 10
126.991883
 20
362.881359
 40
1.0
100
AcDbArc
 50
90.0
 51
180.0
  0
ARC
  5
194
100
AcDbEntity
  8
M0
 62
     7
100
AcDbCircle
 10
54.891883
 20
304.281359
 40
3.0
100
AcDbArc
 50
180.0
 51
270.0
  0
ARC
  5
195
100
AcDbEntity
  8
M0
 62
     7
100
AcDbCircle
 10
53.691883
 20
362.881359
 40
1.0
100
AcDbArc
 50
0.0
 51
90.0
  0
ARC
  5
196
100
AcDbEntity
  8
M0
 62
     7
100
AcDbCircle
 10
126.291883
 20
304.281359
 40
3.0
100
AcDbArc
 50
270.0
 51
360.0
  0
LINE
  5
197
100
AcDbEntity
  8
M0
 62
     7
100
AcDbLine
 10
107.891884
 20
389.78136
 11
107.891884
 21
388.781361
  0
LINE
  5
198
100
AcDbEntity
  8
M0
 62
     7
100
AcDbLine
 10
100.991883
 20
366.48136
 11
100.991883
 21
388.781361
  0
ARC
  5
199
100
AcDbEntity
  8
M0
 62
     7
100
AcDbCircle
 10
124.341883
 20
311.281359
 40
2.25
100
AcDbArc
 50
89.957854
 51
177.916058
  0
ARC
  5
19A
100
AcDbEntity
  8
M0
 62
     7
100
AcDbCircle
 10
64.791883
 20
385.281359
 40
1.0
100
AcDbArc
 50
0.0
 51
90.0
  0
ARC
  5
19B
100
AcDbEntity
  8
M0
 62
     7
100
AcDbCircle
 10
98.291883
 20
385.281359
 40
1.0
100
AcDbArc
 50
90.0
 51
180.0
  0
ARC
  5
19C
100
AcDbEntity
  8
M0
 62
     7
100
AcDbCircle
 10
125.841883
 20
311.281359
 40
2.25
100
AcDbArc
 50
270.928845
 51
451.752277
  0
ARC
  5
19D
100
AcDbEntity
  8
M0
 62
     7
100
AcDbCircle
 10
99.991883
 20
385.281359
 40
1.0
100
AcDbArc
 50
0.0
 51
90.0
  0
ARC
  5
19E
100
AcDbEntity
  8
M0
 62
     7
100
AcDbCircle
 10
121.793371
 20
311.331359
 40
0.3
100
AcDbArc
 50
270.0
 51
360.0
  0
ARC
  5
19F
100
AcDbEntity
  8
M0
 62
     7
100
AcDbCircle
 10
64.091883
 20
385.281359
 40
1.0
100
AcDbArc
 50
90.0
 51
180.0
  0
ARC
  5
1A0
100
AcDbEntity
  8
M0
 62
     7
100
AcDbCircle
 10
115.891883
 20
385.281359
 40
1.0
100
AcDbArc
 50
90.0
 51
180.0
  0
LINE
  5
1A1
100
AcDbEntity
  8
M0
 62
     7
100
AcDbLine
 10
54.844389
 20
368.081359
 11
54.691883
 21
368.081359
  0
LINE
  5
1A2
100
AcDbEntity
  8
M0
 62
     7
100
AcDbLine
 10
119.091883
 20
368.531359
 11
119.091883
 21
369.58136
  0
LINE
  5
1A3
100
AcDbEntity
  8
M0
 62
     7
100
AcDbLine
 10
119.091883
 20
369.58136
 11
125.091883
 21
369.58136
  0
LINE
  5
1A4
100
AcDbEntity
  8
M0
 62
     7
100
AcDbLine
 10
99.491887
 20
301.281359
 11
98.291883
 21
301.281359
  0
LINE
  5
1A5
100
AcDbEntity
  8
M0
 62
     7
100
AcDbLine
 10
114.891883
 20
302.281361
 11
114.891883
 21
306.281358
  0
LINE
  5
1A6
100
AcDbEntity
  8
M0
 62
     7
100
AcDbLine
 10
125.091883
 20
369.58136
 11
125.091883
 21
368.531359
  0
LINE
  5
1A7
100
AcDbEntity
  8
M0
 62
     7
100
AcDbLine
 10
72.791882
 20
388.781361
 11
72.791882
 21
389.78136
  0
LINE
  5
1A8
100
AcDbEntity
  8
M0
 62
     7
100
AcDbLine
 10
55.591883
 20
369.58136
 11
61.591882
 21
369.58136
  0
LINE
  5
1A9
100
AcDbEntity
  8
M0
 62
     7
100
AcDbLine
 10
70.091883
 20
380.281359
 11
70.091883
 21
381.281361
  0
LINE
  5
1AA
100
AcDbEntity
  8
M0
 62
     7
100
AcDbLine
 10
55.591883
 20
368.531359
 11
55.591883
 21
369.58136
  0
LINE
  5
1AB
100
AcDbEntity
  8
M0
 62
     7
100
AcDbLine
 10
99.991883
 20
301.281359
 11
99.491887
 21
301.281359
  0
LINE
  5
1AC
100
AcDbEntity
  8
M0
 62
     7
100
AcDbLine
 10
78.191883
 20
380.281359
 11
78.191883
 21
389.281359
  0
LINE
  5
1AD
100
AcDbEntity
  8
M0
 62
     7
100
AcDbLine
 10
61.591882
 20
369.58136
 11
61.591882
 21
368.531359
  0
LINE
  5
1AE
100
AcDbEntity
  8
M0
 62
     7
100
AcDbLine
 10
64.791883
 20
366.48136
 11
64.791883
 21
366.68136
  0
LINE
  5
1AF
100
AcDbEntity
  8
M0
 62
     7
100
AcDbLine
 10
62.091883
 20
348.481359
 11
64.091884
 21
348.481359
  0
LINE
  5
1B0
100
AcDbEntity
  8
M0
 62
     7
100
AcDbLine
 10
63.091884
 20
339.28136
 11
64.091884
 21
339.28136
  0
LINE
  5
1B1
100
AcDbEntity
  8
M0
 62
     7
100
AcDbLine
 10
55.591883
 20
317.981359
 11
55.591883
 21
319.03136
  0
LINE
  5
1B2
100
AcDbEntity
  8
M0
 62
     7
100
AcDbLine
 10
110.591883
 20
381.281361
 11
110.591883
 21
380.281359
  0
LINE
  5
1B3
100
AcDbEntity
  8
M0
 62
     7
100
AcDbLine
 10
116.591882
 20
336.58136
 11
117.091883
 21
336.58136
  0
LINE
  5
1B4
100
AcDbEntity
  8
M0
 62
     7
100
AcDbLine
 10
116.591882
 20
321.081359
 11
64.091884
 21
321.081359
  0
LINE
  5
1B5
100
AcDbEntity
  8
M0
 62
     7
100
AcDbLine
 10
63.591883
 20
336.58136
 11
64.091884
 21
336.58136
  0
ARC
  5
1B6
100
AcDbEntity
  8
M0
 62
     7
100
AcDbCircle
 10
126.991883
 20
339.081359
 40
1.0
100
AcDbArc
 50
90.0
 51
180.0
  0
LINE
  5
1B7
100
AcDbEntity
  8
M0
 62
     7
100
AcDbLine
 10
63.091884
 20
342.38136
 11
63.091884
 21
342.281359
  0
LINE
  5
1B8
100
AcDbEntity
  8
M0
 62
     7
100
AcDbLine
 10
61.591882
 20
319.03136
 11
61.591882
 21
317.981359
  0
LINE
  5
1B9
100
AcDbEntity
  8
M0
 62
     7
100
AcDbLine
 10
64.091884
 20
342.281359
 11
63.091884
 21
342.281359
  0
LINE
  5
1BA
100
AcDbEntity
  8
M0
 62
     7
100
AcDbLine
 10
63.091884
 20
345.281359
 11
63.091884
 21
345.181359
  0
ARC
  5
1BB
100
AcDbEntity
  8
M0
 62
     7
100
AcDbCircle
 10
107.691883
 20
304.281359
 40
2.65
100
AcDbArc
 50
170.223151
 51
189.776849
  0
ARC
  5
1BC
100
AcDbEntity
  8
M0
 62
     7
100
AcDbCircle
 10
52.891883
 20
362.881359
 40
1.0
100
AcDbArc
 50
90.0
 51
180.0
  0
ARC
  5
1BD
100
AcDbEntity
  8
M0
 62
     7
100
AcDbCircle
 10
126.991883
 20
348.481359
 40
1.0
100
AcDbArc
 50
180.0
 51
270.0
  0
ARC
  5
1BE
100
AcDbEntity
  8
M0
 62
     7
100
AcDbCircle
 10
82.391883
 20
385.281359
 40
1.0
100
AcDbArc
 50
0.0
 51
90.0
  0
ARC
  5
1BF
100
AcDbEntity
  8
M0
 62
     7
100
AcDbCircle
 10
125.385884
 20
308.731655
 40
0.3
100
AcDbArc
 50
90.0
 51
180.0
  0
ARC
  5
1C0
100
AcDbEntity
  8
M0
 62
     7
100
AcDbCircle
 10
127.791883
 20
348.481359
 40
1.0
100
AcDbArc
 50
270.0
 51
360.0
  0
LINE
  5
1C1
100
AcDbEntity
  8
M0
 62
     7
100
AcDbLine
 10
125.991883
 20
360.98136
 11
118.191883
 21
360.98136
  0
LINE
  5
1C2
100
AcDbEntity
  8
M0
 62
     7
100
AcDbLine
 10
100.991883
 20
388.781361
 11
79.691883
 21
388.781361
  0
LINE
  5
1C3
100
AcDbEntity
  8
M0
 62
     7
100
AcDbLine
 10
102.491883
 20
389.281359
 11
102.491883
 21
380.281359
  0
LINE
  5
1C4
100
AcDbEntity
  8
M0
 62
     7
100
AcDbLine
 10
61.591882
 20
317.981359
 11
55.591883
 21
317.981359
  0
ARC
  5
1C5
100
AcDbEntity
  8
M0
 62
     7
100
AcDbCircle
 10
80.691883
 20
385.281359
 40
1.0
100
AcDbArc
 50
90.0
 51
180.0
  0
LINE
  5
1C6
100
AcDbEntity
  8
M0
 62
     7
100
AcDbLine
 10
68.891883
 20
390.281361
 11
111.791883
 21
390.281361
  0
LINE
  5
1C7
100
AcDbEntity
  8
M0
 62
     7
100
AcDbLine
 10
88.272928
 20
375.350299
 11
92.535898
 21
371.08736
  0
LINE
  5
1C8
100
AcDbEntity
  8
M0
 62
     7
100
AcDbLine
 10
108.408787
 20
375.162524
 11
106.06081
 21
372.814533
  0
LINE
  5
1C9
100
AcDbEntity
  8
M0
 62
     7
100
AcDbLine
 10
90.808787
 20
375.162524
 11
88.46081
 21
372.814533
  0
LINE
  5
1CA
100
AcDbEntity
  8
M0
 62
     7
100
AcDbLine
 10
105.872928
 20
375.350299
 11
110.135898
 21
371.08736
  0
LINE
  5
1CB
100
AcDbEntity
  8
M0
 62
     7
100
AcDbLine
 10
74.745162
 20
385.79572
 11
72.977584
 21
384.028019
  0
LINE
  5
1CC
100
AcDbEntity
  8
M0
 62
     7
100
AcDbLine
 10
92.222986
 20
373.748309
 11
89.87501
 21
371.400317
  0
LINE
  5
1CD
100
AcDbEntity
  8
M0
 62
     7
100
AcDbLine
 10
112.791883
 20
380.281359
 11
112.791883
 21
389.281359
  0
LINE
  5
1CE
100
AcDbEntity
  8
M0
 62
     7
100
AcDbLine
 10
73.208787
 20
375.162524
 11
70.86081
 21
372.814533
  0
LINE
  5
1CF
100
AcDbEntity
  8
M0
  6
DASHDOT
 62
     7
100
AcDbLine
 10
72.241883
 20
373.281359
 11
73.241883
 21
373.281359
  0
LINE
  5
1D0
100
AcDbEntity
  8
M0
 62
     7
100
AcDbLine
 10
70.672928
 20
375.350299
 11
74.935898
 21
371.08736
  0
LINE
  5
1D1
100
AcDbEntity
  8
M0
 62
     7
100
AcDbLine
 10
109.822986
 20
373.748309
 11
107.47501
 21
371.400317
  0
LINE
  5
1D2
100
AcDbEntity
  8
M0
 62
     7
100
AcDbLine
 10
110.791883
 20
380.281359
 11
110.791883
 21
389.281359
  0
LINE
  5
1D3
100
AcDbEntity
  8
M0
 62
     7
100
AcDbLine
 10
74.622986
 20
373.748309
 11
72.27501
 21
371.400317
  0
LINE
  5
1D4
100
AcDbEntity
  8
M0
 62
     7
100
AcDbLine
 10
60.005708
 20
365.135052
 11
58.23813
 21
363.367474
  0
LINE
  5
1D5
100
AcDbEntity
  8
M0
 62
     7
100
AcDbLine
 10
60.182466
 20
363.190716
 11
57.000825
 21
366.372479
  0
LINE
  5
1D6
100
AcDbEntity
  8
M0
 62
     7
100
AcDbLine
 10
107.882464
 20
382.790718
 11
104.700823
 21
385.972481
  0
LINE
  5
1D7
100
AcDbEntity
  8
M0
 62
     7
100
AcDbLine
 10
60.005708
 20
357.535052
 11
58.23813
 21
355.767474
  0
LINE
  5
1D8
100
AcDbEntity
  8
M0
 62
     7
100
AcDbLine
 10
60.182466
 20
355.590716
 11
57.000825
 21
358.772479
  0
LINE
  5
1D9
100
AcDbEntity
  8
M0
 62
     7
100
AcDbLine
 10
58.945161
 20
366.195721
 11
57.177583
 21
364.428021
  0
LINE
  5
1DA
100
AcDbEntity
  8
M0
  6
DASHDOT
 62
     7
100
AcDbLine
 10
58.091883
 20
364.781359
 11
59.091883
 21
364.781359
  0
LINE
  5
1DB
100
AcDbEntity
  8
M0
  6
DASHDOT
 62
     7
100
AcDbLine
 10
58.591883
 20
364.281359
 11
58.591883
 21
365.281359
  0
LINE
  5
1DC
100
AcDbEntity
  8
M0
 62
     7
100
AcDbLine
 10
75.805709
 20
384.735051
 11
74.038131
 21
382.967472
  0
LINE
  5
1DD
100
AcDbEntity
  8
M0
 62
     7
100
AcDbLine
 10
107.705706
 20
384.735054
 11
105.938128
 21
382.967476
  0
LINE
  5
1DE
100
AcDbEntity
  8
M0
 62
     7
100
AcDbLine
 10
58.945161
 20
358.595721
 11
57.177583
 21
356.828021
  0
LINE
  5
1DF
100
AcDbEntity
  8
M0
 62
     7
100
AcDbLine
 10
75.982467
 20
382.790715
 11
72.800826
 21
385.972477
  0
LINE
  5
1E0
100
AcDbEntity
  8
M0
 62
     7
100
AcDbLine
 10
106.645159
 20
385.795723
 11
104.877581
 21
384.028023
  0
ARC
  5
1E1
100
AcDbEntity
  8
M0
 62
     7
100
AcDbCircle
 10
255.428324
 20
368.13135
 40
3.0
100
AcDbArc
 50
90.0
 51
180.0
  0
ARC
  5
1E2
100
AcDbEntity
  8
M0
 62
     7
100
AcDbCircle
 10
269.525593
 20
368.13135
 40
3.0
100
AcDbArc
 50
49.635463
 51
90.0
  0
ARC
  5
1E3
100
AcDbEntity
  8
M0
 62
     7
100
AcDbCircle
 10
249.428324
 20
366.88135
 40
3.0
100
AcDbArc
 50
270.0
 51
360.0
  0
ARC
  5
1E4
100
AcDbEntity
  8
M0
 62
     7
100
AcDbCircle
 10
275.328324
 20
340.58135
 40
0.5
100
AcDbArc
 50
0.0
 51
90.0
  0
ARC
  5
1E5
100
AcDbEntity
  8
M0
 62
     7
100
AcDbCircle
 10
276.328324
 20
338.08135
 40
0.5
100
AcDbArc
 50
180.0
 51
270.0
  0
ARC
  5
1E6
100
AcDbEntity
  8
M0
 62
     7
100
AcDbCircle
 10
276.328324
 20
349.48135
 40
0.5
100
AcDbArc
 50
90.0
 51
180.0
  0
ARC
  5
1E7
100
AcDbEntity
  8
M0
 62
     7
100
AcDbCircle
 10
301.828324
 20
303.28135
 40
0.5
100
AcDbArc
 50
180.0
 51
270.0
  0
ARC
  5
1E8
100
AcDbEntity
  8
M0
 62
     7
100
AcDbCircle
 10
238.028324
 20
348.48135
 40
1.0
100
AcDbArc
 50
270.0
 51
360.0
  0
ARC
  5
1E9
100
AcDbEntity
  8
M0
 62
     7
100
AcDbCircle
 10
283.412244
 20
313.28135
 40
6.0
100
AcDbArc
 50
270.0
 51
350.405932
  0
ARC
  5
1EA
100
AcDbEntity
  8
M0
 62
     7
100
AcDbCircle
 10
230.228324
 20
365.48135
 40
1.0
100
AcDbArc
 50
90.0
 51
180.0
  0
ARC
  5
1EB
100
AcDbEntity
  8
M0
 62
     7
100
AcDbCircle
 10
263.628324
 20
341.58135
 40
0.5
100
AcDbArc
 50
180.0
 51
270.0
  0
ARC
  5
1EC
100
AcDbEntity
  8
M0
 62
     7
100
AcDbCircle
 10
270.128324
 20
387.28135
 40
3.0
100
AcDbArc
 50
90.0
 51
180.0
  0
ARC
  5
1ED
100
AcDbEntity
  8
M0
 62
     7
100
AcDbCircle
 10
238.028324
 20
339.08135
 40
1.0
100
AcDbArc
 50
0.0
 51
90.0
  0
LINE
  5
1EE
100
AcDbEntity
  8
M0
  6
DASHDOT
 62
     7
100
AcDbLine
 10
89.841883
 20
373.281359
 11
90.841883
 21
373.281359
  0
LINE
  5
1EF
100
AcDbEntity
  8
M0
  6
DASHDOT
 62
     7
100
AcDbLine
 10
90.341883
 20
373.781359
 11
90.341883
 21
372.781359
  0
LINE
  5
1F0
100
AcDbEntity
  8
M0
  6
DASHDOT
 62
     7
100
AcDbLine
 10
90.341883
 20
313.781359
 11
90.341883
 21
314.781359
  0
LINE
  5
1F1
100
AcDbEntity
  8
M0
  6
DASHDOT
 62
     7
100
AcDbLine
 10
72.741883
 20
373.781359
 11
72.741883
 21
372.781359
  0
LINE
  5
1F2
100
AcDbEntity
  8
M0
  6
DASHDOT
 62
     7
100
AcDbLine
 10
107.441883
 20
373.281359
 11
108.441883
 21
373.281359
  0
LINE
  5
1F3
100
AcDbEntity
  8
M0
 62
     7
100
AcDbLine
 10
62.341882
 20
360.43136
 11
62.341882
 21
353.93136
  0
ELLIPSE
  5
1F4
100
AcDbEntity
  8
M0
 62
     7
100
AcDbEllipse
 10
303.328324
 20
314.931475
 11
-1.0
 21
0.0
210
0.0
220
0.0
230
1.0
 40
0.049876
 41
4.71238898038469
 42
6.283185307179586
  0
ELLIPSE
  5
1F5
100
AcDbEntity
  8
M0
 62
     7
100
AcDbEllipse
 10
312.528324
 20
314.956412
 11
-0.5
 21
0.0
210
0.0
220
0.0
230
1.0
 40
0.049876
 41
3.141592653589793
 42
4.71238898038469
  0
ARC
  5
1F6
100
AcDbEntity
  8
M0
 62
     7
100
AcDbCircle
 10
238.028324
 20
360.88135
 40
3.0
100
AcDbArc
 50
90.0
 51
180.0
  0
LINE
  5
1F7
100
AcDbEntity
  8
M0
  6
DASHDOT
 62
     7
100
AcDbLine
 10
89.841883
 20
314.281359
 11
90.841883
 21
314.281359
  0
LINE
  5
1F8
100
AcDbEntity
  8
M0
  6
DASHDOT
 62
     7
100
AcDbLine
 10
107.941883
 20
373.781359
 11
107.941883
 21
372.781359
  0
ELLIPSE
  5
1F9
100
AcDbEntity
  8
M0
 62
     7
100
AcDbEllipse
 10
312.528324
 20
319.956412
 11
-0.5
 21
0.0
210
0.0
220
0.0
230
1.0
 40
0.049876
 41
3.141592653589793
 42
4.71238898038469
  0
CIRCLE
  5
1FA
100
AcDbEntity
  8
M0
 62
     7
100
AcDbCircle
 10
122.091884
 20
322.781358
 40
3.0
  0
CIRCLE
  5
1FB
100
AcDbEntity
  8
M0
 62
     7
100
AcDbCircle
 10
72.741883
 20
314.281329
 40
4.499996
  0
CIRCLE
  5
1FC
100
AcDbEntity
  8
M0
 62
     7
100
AcDbCircle
 10
122.091884
 20
357.181361
 40
3.0
  0
CIRCLE
  5
1FD
100
AcDbEntity
  8
M0
 62
     7
100
AcDbCircle
 10
107.941883
 20
314.281329
 40
4.499996
  0
ARC
  5
1FE
100
AcDbEntity
  8
M0
 62
     7
100
AcDbCircle
 10
111.791883
 20
389.281359
 40
1.0
100
AcDbArc
 50
90.0
 51
180.0
  0
CIRCLE
  5
1FF
100
AcDbEntity
  8
M0
 62
     7
100
AcDbCircle
 10
122.091884
 20
330.381358
 40
3.0
  0
CIRCLE
  5
200
100
AcDbEntity
  8
M0
 62
     7
100
AcDbCircle
 10
58.591882
 20
357.181361
 40
3.0
  0
CIRCLE
  5
201
100
AcDbEntity
  8
M0
 62
     7
100
AcDbCircle
 10
58.591882
 20
330.381358
 40
3.0
  0
CIRCLE
  5
202
100
AcDbEntity
  8
M0
 62
     7
100
AcDbCircle
 10
106.29188
 20
384.381363
 40
3.0
  0
CIRCLE
  5
203
100
AcDbEntity
  8
M0
 62
     7
100
AcDbCircle
 10
122.091884
 20
364.781361
 40
3.0
  0
CIRCLE
  5
204
100
AcDbEntity
  8
M0
 62
     7
100
AcDbCircle
 10
90.341883
 20
314.281329
 40
4.499996
  0
CIRCLE
  5
205
100
AcDbEntity
  8
M0
 62
     7
100
AcDbCircle
 10
58.591882
 20
364.781361
 40
3.0
  0
CIRCLE
  5
206
100
AcDbEntity
  8
M0
 62
     7
100
AcDbCircle
 10
58.591882
 20
322.781358
 40
3.0
  0
LINE
  5
207
100
AcDbEntity
  8
M0
  6
DASHED
 62
     7
100
AcDbLine
 10
39.391887
 20
373.481359
 11
51.891887
 21
373.481359
  0
LINE
  5
208
100
AcDbEntity
  8
M0
  6
DASHED
 62
     7
100
AcDbLine
 10
39.391887
 20
314.081359
 11
51.891887
 21
314.081359
  0
LINE
  5
209
100
AcDbEntity
  8
M0
 62
     7
100
AcDbLine
 10
105.872928
 20
316.350299
 11
110.135898
 21
312.08736
  0
LINE
  5
20A
100
AcDbEntity
  8
M0
  6
DASHED
 62
     7
100
AcDbLine
 10
141.291879
 20
373.481359
 11
128.791879
 21
373.481359
  0
LINE
  5
20B
100
AcDbEntity
  8
M0
  6
DASHED
 62
     7
100
AcDbLine
 10
141.291879
 20
314.081359
 11
128.791879
 21
314.081359
  0
LINE
  5
20C
100
AcDbEntity
  8
M0
  6
DASHED
 62
     7
100
AcDbLine
 10
39.391887
 20
373.481359
 11
39.391887
 21
314.081359
  0
LINE
  5
20D
100
AcDbEntity
  8
M0
 62
     7
100
AcDbLine
 10
92.222986
 20
314.748309
 11
89.87501
 21
312.400317
  0
LINE
  5
20E
100
AcDbEntity
  8
M0
 62
     7
100
AcDbLine
 10
88.272928
 20
316.350299
 11
92.535898
 21
312.08736
  0
ARC
  5
20F
100
AcDbEntity
  8
M0
 62
     7
100
AcDbCircle
 10
111.791883
 20
389.281359
 40
1.0
100
AcDbArc
 50
0.0
 51
90.0
  0
LINE
  5
210
100
AcDbEntity
  8
M0
 62
     7
100
AcDbLine
 10
109.822986
 20
314.748309
 11
107.47501
 21
312.400317
  0
LINE
  5
211
100
AcDbEntity
  8
M0
  6
DASHED
 62
     7
100
AcDbLine
 10
141.291879
 20
373.481359
 11
141.291879
 21
314.081359
  0
LINE
  5
212
100
AcDbEntity
  8
M0
 62
     7
100
AcDbLine
 10
90.808787
 20
316.162524
 11
88.46081
 21
313.814533
  0
LINE
  5
213
100
AcDbEntity
  8
M0
 62
     7
100
AcDbLine
 10
108.408787
 20
316.162524
 11
106.06081
 21
313.814533
  0
LINE
  5
214
100
AcDbEntity
  8
M0
 62
     7
100
AcDbLine
 10
123.682468
 20
363.190716
 11
120.500827
 21
366.372479
  0
LINE
  5
215
100
AcDbEntity
  8
M0
 62
     7
100
AcDbLine
 10
122.445163
 20
366.195721
 11
120.677585
 21
364.428021
  0
LINE
  5
216
100
AcDbEntity
  8
M0
 62
     7
100
AcDbLine
 10
60.182466
 20
328.790716
 11
57.000825
 21
331.972479
  0
LINE
  5
217
100
AcDbEntity
  8
M0
 62
     7
100
AcDbLine
 10
122.445163
 20
358.595721
 11
120.677585
 21
356.828021
  0
LINE
  5
218
100
AcDbEntity
  8
M0
 62
     7
100
AcDbLine
 10
123.50571
 20
357.535052
 11
121.738132
 21
355.767474
  0
LINE
  5
219
100
AcDbEntity
  8
M0
 62
     7
100
AcDbLine
 10
123.50571
 20
365.135052
 11
121.738132
 21
363.367474
  0
LINE
  5
21A
100
AcDbEntity
  8
M0
 62
     7
100
AcDbLine
 10
60.005708
 20
323.135052
 11
58.23813
 21
321.367474
  0
LINE
  5
21B
100
AcDbEntity
  8
M0
 62
     7
100
AcDbLine
 10
60.182466
 20
321.190716
 11
57.000825
 21
324.372479
  0
LINE
  5
21C
100
AcDbEntity
  8
M0
  6
DASHDOT
 62
     7
100
AcDbLine
 10
107.941883
 20
313.781359
 11
107.941883
 21
314.781359
  0
LINE
  5
21D
100
AcDbEntity
  8
M0
 62
     7
100
AcDbLine
 10
58.945161
 20
331.795721
 11
57.177583
 21
330.028021
  0
LINE
  5
21E
100
AcDbEntity
  8
M0
 62
     7
100
AcDbLine
 10
123.682468
 20
355.590716
 11
120.500827
 21
358.772479
  0
LINE
  5
21F
100
AcDbEntity
  8
M0
 62
     7
100
AcDbLine
 10
58.945161
 20
324.195721
 11
57.177583
 21
322.428021
  0
LINE
  5
220
100
AcDbEntity
  8
M0
 62
     7
100
AcDbLine
 10
60.005708
 20
330.735052
 11
58.23813
 21
328.967474
  0
LINE
  5
221
100
AcDbEntity
  8
M0
 62
     7
100
AcDbLine
 10
70.672928
 20
316.350299
 11
74.935898
 21
312.08736
  0
CIRCLE
  5
222
100
AcDbEntity
  8
M0
 62
     7
100
AcDbCircle
 10
72.741883
 20
373.28139
 40
4.499996
  0
LINE
  5
223
100
AcDbEntity
  8
M0
 62
     7
100
AcDbLine
 10
73.208787
 20
316.162524
 11
70.86081
 21
313.814533
  0
CIRCLE
  5
224
100
AcDbEntity
  8
M0
 62
     7
100
AcDbCircle
 10
107.941883
 20
373.28139
 40
4.499996
  0
CIRCLE
  5
225
100
AcDbEntity
  8
M0
 62
     7
100
AcDbCircle
 10
74.391883
 20
384.381359
 40
3.0
  0
LINE
  5
226
100
AcDbEntity
  8
M0
 62
     7
100
AcDbLine
 10
74.622986
 20
314.748309
 11
72.27501
 21
312.400317
  0
LINE
  5
227
100
AcDbEntity
  8
M0
 62
     7
100
AcDbLine
 10
123.682468
 20
328.790716
 11
120.500827
 21
331.972479
  0
LINE
  5
228
100
AcDbEntity
  8
M0
 62
     7
100
AcDbLine
 10
123.682468
 20
321.190716
 11
120.500827
 21
324.372479
  0
LINE
  5
229
100
AcDbEntity
  8
M0
 62
     7
100
AcDbLine
 10
122.445163
 20
331.795721
 11
120.677585
 21
330.028021
  0
LINE
  5
22A
100
AcDbEntity
  8
M0
 62
     7
100
AcDbLine
 10
123.50571
 20
323.135052
 11
121.738132
 21
321.367474
  0
CIRCLE
  5
22B
100
AcDbEntity
  8
M0
 62
     7
100
AcDbCircle
 10
90.341883
 20
373.28139
 40
4.499996
  0
LINE
  5
22C
100
AcDbEntity
  8
M0
 62
     7
100
AcDbLine
 10
123.50571
 20
330.735052
 11
121.738132
 21
328.967474
  0
LINE
  5
22D
100
AcDbEntity
  8
M0
 62
     7
100
AcDbLine
 10
122.445163
 20
324.195721
 11
120.677585
 21
322.428021
  0
LINE
  5
22E
100
AcDbEntity
  8
M0
 62
     7
100
AcDbLine
 10
290.028324
 20
360.841906
 11
290.028324
 21
357.965122
  0
LINE
  5
22F
100
AcDbEntity
  8
M0
 62
     7
100
AcDbLine
 10
285.528324
 20
363.88135
 11
278.128324
 21
363.88135
  0
LINE
  5
230
100
AcDbEntity
  8
M0
 62
     7
100
AcDbLine
 10
238.028325
 20
347.48135
 11
236.028321
 21
347.48135
  0
LINE
  5
231
100
AcDbEntity
  8
M0
 62
     7
100
AcDbLine
 10
313.328324
 20
382.251045
 11
313.028324
 21
382.251045
  0
LINE
  5
232
100
AcDbEntity
  8
M0
 62
     7
100
AcDbLine
 10
303.328324
 20
385.281349
 11
312.528324
 21
385.281349
  0
LINE
  5
233
100
AcDbEntity
  8
M0
 62
     7
100
AcDbLine
 10
285.528324
 20
323.681351
 11
278.128324
 21
323.681351
  0
LINE
  5
234
100
AcDbEntity
  8
M0
 62
     7
100
AcDbLine
 10
302.328324
 20
305.28135
 11
301.328324
 21
304.281349
  0
LINE
  5
235
100
AcDbEntity
  8
M0
 62
     7
100
AcDbLine
 10
302.328324
 20
302.781349
 11
301.828324
 21
302.781349
  0
LINE
  5
236
100
AcDbEntity
  8
M0
 62
     7
100
AcDbLine
 10
252.428323
 20
366.88135
 11
252.428323
 21
368.131351
  0
LINE
  5
237
100
AcDbEntity
  8
M0
 62
     7
100
AcDbLine
 10
273.628324
 20
368.581351
 11
302.328324
 21
368.581351
  0
LINE
  5
238
100
AcDbEntity
  8
M0
 62
     7
100
AcDbLine
 10
305.828324
 20
361.58135
 11
305.828324
 21
361.141905
  0
LINE
  5
239
100
AcDbEntity
  8
M0
 62
     7
100
AcDbLine
 10
271.468539
 20
370.417168
 11
273.628324
 21
368.581351
  0
LINE
  5
23A
100
AcDbEntity
  8
M0
 62
     7
100
AcDbLine
 10
235.028326
 20
348.48135
 11
235.028326
 21
360.881351
  0
LINE
  5
23B
100
AcDbEntity
  8
M0
 62
     7
100
AcDbLine
 10
305.828324
 20
325.981351
 11
312.528324
 21
325.981351
  0
LINE
  5
23C
100
AcDbEntity
  8
M0
 62
     7
100
AcDbLine
 10
309.128324
 20
358.08135
 11
309.128324
 21
356.08135
  0
LINE
  5
23D
100
AcDbEntity
  8
M0
 62
     7
100
AcDbLine
 10
302.328324
 20
318.98135
 11
278.128324
 21
318.98135
  0
LINE
  5
23E
100
AcDbEntity
  8
M0
 62
     7
100
AcDbLine
 10
278.128324
 20
376.78135
 11
282.835431
 21
381.488456
  0
ARC
  5
23F
100
AcDbEntity
  8
M0
 62
     7
100
AcDbCircle
 10
255.428324
 20
319.43135
 40
3.0
100
AcDbArc
 50
180.0
 51
270.0
  0
LINE
  5
240
100
AcDbEntity
  8
M0
 62
     7
100
AcDbLine
 10
309.128324
 20
358.08135
 11
308.828324
 21
359.08135
  0
LINE
  5
241
100
AcDbEntity
  8
M0
 62
     7
100
AcDbLine
 10
307.828324
 20
329.98135
 11
305.828324
 21
329.98135
  0
LINE
  5
242
100
AcDbEntity
  8
M0
 62
     7
100
AcDbLine
 10
305.828324
 20
326.420795
 11
305.828324
 21
325.981351
  0
LINE
  5
243
100
AcDbEntity
  8
M0
 62
     7
100
AcDbLine
 10
313.328324
 20
384.531351
 11
313.328324
 21
372.531351
  0
LINE
  5
244
100
AcDbEntity
  8
M0
 62
     7
100
AcDbLine
 10
313.028324
 20
325.48135
 11
313.028324
 21
312.751044
  0
LINE
  5
245
100
AcDbEntity
  8
M0
 62
     7
100
AcDbLine
 10
308.828324
 20
355.581351
 11
309.128324
 21
356.08135
  0
LINE
  5
246
100
AcDbEntity
  8
M0
 62
     7
100
AcDbLine
 10
313.028324
 20
384.781351
 11
313.028324
 21
382.251045
  0
LINE
  5
247
100
AcDbEntity
  8
M0
 62
     7
100
AcDbLine
 10
285.528324
 20
323.681351
 11
285.528324
 21
328.68135
  0
LINE
  5
248
100
AcDbEntity
  8
M0
 62
     7
100
AcDbLine
 10
229.728326
 20
336.58135
 11
231.928326
 21
336.58135
  0
LINE
  5
249
100
AcDbEntity
  8
M0
 62
     7
100
AcDbLine
 10
230.728321
 20
350.98135
 11
230.728321
 21
348.28135
  0
LINE
  5
24A
100
AcDbEntity
  8
M0
 62
     7
100
AcDbLine
 10
231.928326
 20
321.08135
 11
230.228327
 21
321.08135
  0
LINE
  5
24B
100
AcDbEntity
  8
M0
 62
     7
100
AcDbLine
 10
230.728321
 20
336.58135
 11
230.728321
 21
339.28135
  0
LINE
  5
24C
100
AcDbEntity
  8
M0
 62
     7
100
AcDbLine
 10
271.428324
 20
302.281352
 11
271.428324
 21
307.281351
  0
LINE
  5
24D
100
AcDbEntity
  8
M0
 62
     7
100
AcDbLine
 10
229.228325
 20
342.28135
 11
231.928326
 21
342.28135
  0
LINE
  5
24E
100
AcDbEntity
  8
M0
 62
     7
100
AcDbLine
 10
263.628322
 20
341.08135
 11
275.328323
 21
341.08135
  0
LINE
  5
24F
100
AcDbEntity
  8
M0
 62
     7
100
AcDbLine
 10
275.828324
 20
349.48135
 11
275.828324
 21
346.98135
  0
LINE
  5
250
100
AcDbEntity
  8
M0
 62
     7
100
AcDbLine
 10
62.491883
 20
360.98136
 11
54.691883
 21
360.98136
  0
LINE
  5
251
100
AcDbEntity
  8
M0
 62
     7
100
AcDbLine
 10
229.228325
 20
348.28135
 11
231.928326
 21
348.28135
  0
LINE
  5
252
100
AcDbEntity
  8
M0
 62
     7
100
AcDbLine
 10
230.728321
 20
345.28135
 11
230.728321
 21
342.28135
  0
LINE
  5
253
100
AcDbEntity
  8
M0
 62
     7
100
AcDbLine
 10
231.928326
 20
345.28135
 11
229.228325
 21
345.28135
  0
LINE
  5
254
100
AcDbEntity
  8
M0
 62
     7
100
AcDbLine
 10
263.128325
 20
345.98135
 11
263.128325
 21
341.58135
  0
LINE
  5
255
100
AcDbEntity
  8
M0
 62
     7
100
AcDbLine
 10
238.028325
 20
363.88135
 11
249.428324
 21
363.88135
  0
LINE
  5
256
100
AcDbEntity
  8
M0
 62
     7
100
AcDbLine
 10
278.128324
 20
349.78135
 11
278.128324
 21
376.78135
  0
LINE
  5
257
100
AcDbEntity
  8
M0
 62
     7
100
AcDbLine
 10
285.528324
 20
358.881351
 11
285.528324
 21
363.88135
  0
LINE
  5
258
100
AcDbEntity
  8
M0
 62
     7
100
AcDbLine
 10
312.528324
 20
361.58135
 11
305.828324
 21
361.58135
  0
LINE
  5
259
100
AcDbEntity
  8
M0
 62
     7
100
AcDbLine
 10
305.828324
 20
357.58135
 11
307.828324
 21
357.58135
  0
LINE
  5
25A
100
AcDbEntity
  8
M0
 62
     7
100
AcDbLine
 10
302.328324
 20
368.581351
 11
302.328324
 21
384.28135
  0
LINE
  5
25B
100
AcDbEntity
  8
M0
 62
     7
100
AcDbLine
 10
276.328325
 20
349.98135
 11
278.128324
 21
349.98135
  0
LINE
  5
25C
100
AcDbEntity
  8
M0
 62
     7
100
AcDbLine
 10
229.228325
 20
322.08135
 11
229.228325
 21
365.48135
  0
LINE
  5
25D
100
AcDbEntity
  8
M0
 62
     7
100
AcDbLine
 10
239.028327
 20
348.48135
 11
239.028327
 21
339.08135
  0
LINE
  5
25E
100
AcDbEntity
  8
M0
 62
     7
100
AcDbLine
 10
275.828324
 20
340.58135
 11
275.828324
 21
338.08135
  0
LINE
  5
25F
100
AcDbEntity
  8
M0
 62
     7
100
AcDbLine
 10
238.028325
 20
340.08135
 11
238.028325
 21
347.48135
  0
LINE
  5
260
100
AcDbEntity
  8
M0
 62
     7
100
AcDbLine
 10
263.628322
 20
346.48135
 11
275.328323
 21
346.48135
  0
LINE
  5
261
100
AcDbEntity
  8
M0
 62
     7
100
AcDbLine
 10
285.528324
 20
328.68135
 11
278.128324
 21
328.68135
  0
LINE
  5
262
100
AcDbEntity
  8
M0
 62
     7
100
AcDbLine
 10
285.528324
 20
358.881351
 11
278.128324
 21
358.881351
  0
LINE
  5
263
100
AcDbEntity
  8
M0
 62
     7
100
AcDbLine
 10
278.128324
 20
301.28135
 11
278.128324
 21
337.78135
  0
LINE
  5
264
100
AcDbEntity
  8
M0
  6
DASHDOT
 62
     7
100
AcDbLine
 10
72.241883
 20
314.281359
 11
73.241883
 21
314.281359
  0
LINE
  5
265
100
AcDbEntity
  8
M0
  6
DASHDOT
 62
     7
100
AcDbLine
 10
72.741883
 20
313.781359
 11
72.741883
 21
314.781359
  0
LINE
  5
266
100
AcDbEntity
  8
M0
 62
     7
100
AcDbLine
 10
276.128325
 20
338.28135
 11
276.128325
 21
349.28135
  0
LINE
  5
267
100
AcDbEntity
  8
M0
 62
     7
100
AcDbLine
 10
313.328324
 20
309.811657
 11
313.028324
 21
309.811657
  0
LINE
  5
268
100
AcDbEntity
  8
M0
 62
     7
100
AcDbLine
 10
312.528324
 20
301.28135
 11
272.428324
 21
301.28135
  0
LINE
  5
269
100
AcDbEntity
  8
M0
 62
     7
100
AcDbLine
 10
290.028324
 20
329.597578
 11
290.028324
 21
326.720795
  0
LINE
  5
26A
100
AcDbEntity
  8
M0
 62
     7
100
AcDbLine
 10
276.628323
 20
349.78135
 11
278.128324
 21
349.78135
  0
LINE
  5
26B
100
AcDbEntity
  8
M0
 62
     7
100
AcDbLine
 10
276.628323
 20
337.78135
 11
278.128324
 21
337.78135
  0
LINE
  5
26C
100
AcDbEntity
  8
M0
 62
     7
100
AcDbLine
 10
313.328324
 20
379.311657
 11
313.028324
 21
379.311657
  0
LINE
  5
26D
100
AcDbEntity
  8
M0
 62
     7
100
AcDbLine
 10
309.828324
 20
361.58135
 11
309.828324
 21
360.08135
  0
ARC
  5
26E
100
AcDbEntity
  8
M0
 62
     7
100
AcDbCircle
 10
312.528324
 20
325.48135
 40
0.5
100
AcDbArc
 50
0.0
 51
90.0
  0
ARC
  5
26F
100
AcDbEntity
  8
M0
 62
     7
100
AcDbCircle
 10
283.542537
 20
380.78135
 40
1.0
100
AcDbArc
 50
90.0
 51
135.0
  0
ARC
  5
270
100
AcDbEntity
  8
M0
 62
     7
100
AcDbCircle
 10
307.828324
 20
356.58135
 40
1.0
100
AcDbArc
 50
0.0
 51
90.0
  0
ARC
  5
271
100
AcDbEntity
  8
M0
 62
     7
100
AcDbCircle
 10
312.528324
 20
301.78135
 40
0.5
100
AcDbArc
 50
270.0
 51
360.0
  0
ARC
  5
272
100
AcDbEntity
  8
M0
 62
     7
100
AcDbCircle
 10
276.628324
 20
349.28135
 40
0.5
100
AcDbArc
 50
90.0
 51
180.0
  0
ARC
  5
273
100
AcDbEntity
  8
M0
 62
     7
100
AcDbCircle
 10
312.528324
 20
362.08135
 40
0.5
100
AcDbArc
 50
270.0
 51
360.0
  0
ARC
  5
274
100
AcDbEntity
  8
M0
 62
     7
100
AcDbCircle
 10
312.528324
 20
384.78135
 40
0.5
100
AcDbArc
 50
0.0
 51
90.0
  0
ARC
  5
275
100
AcDbEntity
  8
M0
 62
     7
100
AcDbCircle
 10
303.328324
 20
384.28135
 40
1.0
100
AcDbArc
 50
90.0
 51
180.0
  0
LINE
  5
276
100
AcDbEntity
  8
M0
  6
DASHDOT
 62
     7
100
AcDbLine
 10
107.441883
 20
314.281359
 11
108.441883
 21
314.281359
  0
ARC
  5
277
100
AcDbEntity
  8
M0
 62
     7
100
AcDbCircle
 10
307.828324
 20
330.98135
 40
1.0
100
AcDbArc
 50
270.0
 51
360.0
  0
ARC
  5
278
100
AcDbEntity
  8
M0
 62
     7
100
AcDbCircle
 10
305.682757
 20
316.655079
 40
4.084682
100
AcDbArc
 50
125.479034
 51
145.207368
  0
ARC
  5
279
100
AcDbEntity
  8
M0
 62
     7
100
AcDbCircle
 10
303.328324
 20
302.28135
 40
1.0
100
AcDbArc
 50
180.0
 51
270.0
  0
ARC
  5
27A
100
AcDbEntity
  8
M0
 62
     7
100
AcDbCircle
 10
276.628324
 20
338.28135
 40
0.5
100
AcDbArc
 50
180.0
 51
270.0
  0
ARC
  5
27B
100
AcDbEntity
  8
M0
 62
     7
100
AcDbCircle
 10
262.685683
 20
304.28135
 40
3.0
100
AcDbArc
 50
270.0
 51
315.0
  0
ARC
  5
27C
100
AcDbEntity
  8
M0
 62
     7
100
AcDbCircle
 10
275.328324
 20
346.98135
 40
0.5
100
AcDbArc
 50
270.0
 51
360.0
  0
ARC
  5
27D
100
AcDbEntity
  8
M0
 62
     7
100
AcDbCircle
 10
232.928324
 20
338.58135
 40
1.0
100
AcDbArc
 50
180.0
 51
270.0
  0
ARC
  5
27E
100
AcDbEntity
  8
M0
 62
     7
100
AcDbCircle
 10
230.228324
 20
322.08135
 40
1.0
100
AcDbArc
 50
180.0
 51
270.0
  0
ARC
  5
27F
100
AcDbEntity
  8
M0
 62
     7
100
AcDbCircle
 10
229.728324
 20
351.48135
 40
0.5
100
AcDbArc
 50
180.0
 51
270.0
  0
ARC
  5
280
100
AcDbEntity
  8
M0
 62
     7
100
AcDbCircle
 10
269.525593
 20
319.43135
 40
3.0
100
AcDbArc
 50
270.0
 51
310.364537
  0
ARC
  5
281
100
AcDbEntity
  8
M0
 62
     7
100
AcDbCircle
 10
232.928324
 20
348.98135
 40
1.0
100
AcDbArc
 50
90.0
 51
180.0
  0
ARC
  5
282
100
AcDbEntity
  8
M0
 62
     7
100
AcDbCircle
 10
249.428324
 20
320.68135
 40
3.0
100
AcDbArc
 50
0.0
 51
90.0
  0
LINE
  5
283
100
AcDbEntity
  8
M0
 62
     7
100
AcDbLine
 10
255.428325
 20
371.131349
 11
269.525591
 21
371.131349
  0
ARC
  5
284
100
AcDbEntity
  8
M0
 62
     7
100
AcDbCircle
 10
236.928324
 20
381.28135
 40
5.0
100
AcDbArc
 50
90.0
 51
180.0
  0
ARC
  5
285
100
AcDbEntity
  8
M0
 62
     7
100
AcDbCircle
 10
263.628324
 20
345.98135
 40
0.5
100
AcDbArc
 50
90.0
 51
180.0
  0
ARC
  5
286
100
AcDbEntity
  8
M0
 62
     7
100
AcDbCircle
 10
238.028324
 20
326.68135
 40
3.0
100
AcDbArc
 50
180.0
 51
270.0
  0
ARC
  5
287
100
AcDbEntity
  8
M0
 62
     7
100
AcDbCircle
 10
267.928324
 20
387.58135
 40
1.0
100
AcDbArc
 50
143.130102
 51
180.0
  0
LINE
  5
288
100
AcDbEntity
  8
M0
 62
     7
100
AcDbLine
 10
313.328324
 20
312.751044
 11
313.028324
 21
312.751044
  0
LINE
  5
289
100
AcDbEntity
  8
M0
 62
     7
100
AcDbLine
 10
312.528324
 20
319.98135
 11
303.328324
 21
319.98135
  0
LINE
  5
28A
100
AcDbEntity
  8
M0
 62
     7
100
AcDbLine
 10
310.828324
 20
359.08135
 11
313.028324
 21
359.08135
  0
LINE
  5
28B
100
AcDbEntity
  8
M0
 62
     7
100
AcDbLine
 10
276.328325
 20
337.58135
 11
278.128324
 21
337.58135
  0
LINE
  5
28C
100
AcDbEntity
  8
M0
 62
     7
100
AcDbLine
 10
312.528324
 20
314.981351
 11
303.328324
 21
314.981351
  0
LINE
  5
28D
100
AcDbEntity
  8
M0
 62
     7
100
AcDbLine
 10
309.828324
 20
360.08135
 11
310.828324
 21
359.08135
  0
LINE
  5
28E
100
AcDbEntity
  8
M0
 62
     7
100
AcDbLine
 10
301.328324
 20
303.28135
 11
301.328324
 21
304.281348
  0
LINE
  5
28F
100
AcDbEntity
  8
M0
 62
     7
100
AcDbLine
 10
289.328323
 20
312.28135
 11
302.328324
 21
312.28135
  0
ARC
  5
290
100
AcDbEntity
  8
M0
 62
     7
100
AcDbCircle
 10
229.728324
 20
336.08135
 40
0.5
100
AcDbArc
 50
90.0
 51
180.0
  0
LINE
  5
291
100
AcDbEntity
  8
M0
 62
     7
100
AcDbLine
 10
283.542538
 20
381.781349
 11
302.328324
 21
381.781349
  0
LINE
  5
292
100
AcDbEntity
  8
M0
 62
     7
100
AcDbLine
 10
302.328324
 20
302.28135
 11
302.328324
 21
318.985831
  0
LINE
  5
293
100
AcDbEntity
  8
M0
 62
     7
100
AcDbLine
 10
278.128324
 20
307.281351
 11
283.412244
 21
307.281351
  0
LINE
  5
294
100
AcDbEntity
  8
M0
 62
     7
100
AcDbLine
 10
313.028324
 20
309.811657
 11
313.028324
 21
301.78135
  0
LINE
  5
295
100
AcDbEntity
  8
M0
 62
     7
100
AcDbLine
 10
117.591882
 20
339.28136
 11
116.591882
 21
339.28136
  0
LINE
  5
296
100
AcDbEntity
  8
M0
 62
     7
100
AcDbLine
 10
63.091884
 20
342.281359
 11
63.091884
 21
339.08136
  0
LINE
  5
297
100
AcDbEntity
  8
M0
 62
     7
100
AcDbLine
 10
64.091884
 20
348.281359
 11
63.091884
 21
348.281359
  0
LINE
  5
298
100
AcDbEntity
  8
M0
 62
     7
100
AcDbLine
 10
116.591882
 20
342.281359
 11
117.591882
 21
342.281359
  0
LINE
  5
299
100
AcDbEntity
  8
M0
 62
     7
100
AcDbLine
 10
64.091884
 20
345.281359
 11
64.091884
 21
342.281359
  0
LINE
  5
29A
100
AcDbEntity
  8
M0
 62
     7
100
AcDbLine
 10
116.591882
 20
339.28136
 11
116.591882
 21
336.58136
  0
LINE
  5
29B
100
AcDbEntity
  8
M0
 62
     7
100
AcDbLine
 10
100.491883
 20
368.181359
 11
97.791883
 21
368.181359
  0
LINE
  5
29C
100
AcDbEntity
  8
M0
 62
     7
100
AcDbLine
 10
120.341882
 20
306.531358
 11
122.841882
 21
306.531358
  0
LINE
  5
29D
100
AcDbEntity
  8
M0
 62
     7
100
AcDbLine
 10
117.591882
 20
349.98136
 11
118.591882
 21
349.98136
  0
LINE
  5
29E
100
AcDbEntity
  8
M0
 62
     7
100
AcDbLine
 10
116.591882
 20
350.981359
 11
116.591882
 21
348.281359
  0
LINE
  5
29F
100
AcDbEntity
  8
M0
 62
     7
100
AcDbLine
 10
64.091884
 20
350.981359
 11
64.091884
 21
348.281359
  0
LINE
  5
2A0
100
AcDbEntity
  8
M0
 62
     7
100
AcDbLine
 10
63.091884
 20
349.98136
 11
62.091883
 21
349.98136
  0
LINE
  5
2A1
100
AcDbEntity
  8
M0
 62
     7
100
AcDbLine
 10
79.691883
 20
380.281359
 11
65.791883
 21
380.281359
  0
LINE
  5
2A2
100
AcDbEntity
  8
M0
 62
     7
100
AcDbLine
 10
117.591882
 20
348.481359
 11
117.591882
 21
345.181359
  0
LINE
  5
2A3
100
AcDbEntity
  8
M0
 62
     7
100
AcDbLine
 10
117.091883
 20
350.981359
 11
116.591882
 21
350.981359
  0
LINE
  5
2A4
100
AcDbEntity
  8
M0
 62
     7
100
AcDbLine
 10
63.091884
 20
348.481359
 11
63.091884
 21
345.281359
  0
LINE
  5
2A5
100
AcDbEntity
  8
M0
 62
     7
100
AcDbLine
 10
110.791883
 20
388.781361
 11
109.791883
 21
388.781361
  0
LINE
  5
2A6
100
AcDbEntity
  8
M0
 62
     7
100
AcDbLine
 10
110.791883
 20
381.781358
 11
110.291884
 21
381.781358
  0
LINE
  5
2A7
100
AcDbEntity
  8
M0
 62
     7
100
AcDbLine
 10
117.591882
 20
345.281359
 11
116.591882
 21
345.281359
  0
LINE
  5
2A8
100
AcDbEntity
  8
M0
 62
     7
100
AcDbLine
 10
116.591882
 20
348.281359
 11
117.591882
 21
348.281359
  0
LINE
  5
2A9
100
AcDbEntity
  8
M0
 62
     7
100
AcDbLine
 10
63.091884
 20
345.281359
 11
64.091884
 21
345.281359
  0
LINE
  5
2AA
100
AcDbEntity
  8
M0
 62
     7
100
AcDbLine
 10
117.591882
 20
342.38136
 11
117.591882
 21
339.08136
  0
LINE
  5
2AB
100
AcDbEntity
  8
M0
 62
     7
100
AcDbLine
 10
116.591882
 20
345.281359
 11
116.591882
 21
342.281359
  0
LINE
  5
2AC
100
AcDbEntity
  8
M0
 62
     7
100
AcDbLine
 10
110.291884
 20
387.081359
 11
110.791883
 21
387.081359
  0
LINE
  5
2AD
100
AcDbEntity
  8
M0
 62
     7
100
AcDbLine
 10
64.091884
 20
339.28136
 11
64.091884
 21
336.58136
  0
LINE
  5
2AE
100
AcDbEntity
  8
M0
 62
     7
100
AcDbLine
 10
64.091884
 20
350.981359
 11
63.591883
 21
350.981359
  0
ARC
  5
2AF
100
AcDbEntity
  8
M0
 62
     7
100
AcDbCircle
 10
82.891883
 20
318.881359
 40
0.5
100
AcDbArc
 50
0.0
 51
90.0
  0
ARC
  5
2B0
100
AcDbEntity
  8
M0
 62
     7
100
AcDbCircle
 10
80.191883
 20
318.881359
 40
0.5
100
AcDbArc
 50
90.0
 51
180.0
  0
ARC
  5
2B1
100
AcDbEntity
  8
M0
 62
     7
100
AcDbCircle
 10
100.491883
 20
318.881359
 40
0.5
100
AcDbArc
 50
0.0
 51
90.0
  0
ARC
  5
2B2
100
AcDbEntity
  8
M0
 62
     7
100
AcDbCircle
 10
98.291883
 20
302.281359
 40
1.0
100
AcDbArc
 50
180.0
 51
270.0
  0
ARC
  5
2B3
100
AcDbEntity
  8
M0
 62
     7
100
AcDbCircle
 10
122.841883
 20
308.781359
 40
2.25
100
AcDbArc
 50
270.0
 51
355.815286
  0
ARC
  5
2B4
100
AcDbEntity
  8
M0
 62
     7
100
AcDbCircle
 10
120.341883
 20
308.781359
 40
2.25
100
AcDbArc
 50
90.0
 51
270.0
  0
ARC
  5
2B5
100
AcDbEntity
  8
M0
 62
     7
100
AcDbCircle
 10
108.591883
 20
389.781359
 40
0.5
100
AcDbArc
 50
90.0
 51
180.0
  0
ARC
  5
2B6
100
AcDbEntity
  8
M0
 62
     7
100
AcDbCircle
 10
62.441883
 20
303.281359
 40
0.5
100
AcDbArc
 50
180.0
 51
270.0
  0
ARC
  5
2B7
100
AcDbEntity
  8
M0
 62
     7
100
AcDbCircle
 10
54.391883
 20
382.281359
 40
3.0
100
AcDbArc
 50
90.0
 51
180.0
  0
ARC
  5
2B8
100
AcDbEntity
  8
M0
 62
     7
100
AcDbCircle
 10
56.341883
 20
376.281359
 40
2.25
100
AcDbArc
 50
272.401074
 51
358.876481
  0
ARC
  5
2B9
100
AcDbEntity
  8
M0
 62
     7
100
AcDbCircle
 10
54.841883
 20
376.281359
 40
2.25
100
AcDbArc
 50
90.0
 51
270.0
  0
ARC
  5
2BA
100
AcDbEntity
  8
M0
 62
     7
100
AcDbCircle
 10
72.091883
 20
389.281359
 40
0.5
100
AcDbArc
 50
270.0
 51
360.0
  0
ARC
  5
2BB
100
AcDbEntity
  8
M0
 62
     7
100
AcDbCircle
 10
108.591883
 20
389.281359
 40
0.5
100
AcDbArc
 50
180.0
 51
270.0
  0
ARC
  5
2BC
100
AcDbEntity
  8
M0
 62
     7
100
AcDbCircle
 10
107.691883
 20
304.281359
 40
3.5
100
AcDbArc
 50
121.002719
 51
180.0
  0
LINE
  5
2BD
100
AcDbEntity
  8
M0
 62
     7
100
AcDbLine
 10
54.691883
 20
318.981359
 11
55.591883
 21
318.981359
  0
ARC
  5
2BE
100
AcDbEntity
  8
M0
 62
     7
100
AcDbCircle
 10
80.191883
 20
368.681359
 40
0.5
100
AcDbArc
 50
180.0
 51
270.0
  0
LINE
  5
2BF
100
AcDbEntity
  8
M0
 62
     7
100
AcDbLine
 10
80.691883
 20
319.38136
 11
80.191882
 21
319.38136
  0
LINE
  5
2C0
100
AcDbEntity
  8
M0
 62
     7
100
AcDbLine
 10
82.891883
 20
319.38136
 11
82.391882
 21
319.38136
  0
ARC
  5
2C1
100
AcDbEntity
  8
M0
 62
     7
100
AcDbCircle
 10
97.791883
 20
318.881359
 40
0.5
100
AcDbArc
 50
90.0
 51
180.0
  0
ARC
  5
2C2
100
AcDbEntity
  8
M0
 62
     7
100
AcDbCircle
 10
57.841883
 20
378.781359
 40
2.25
100
AcDbArc
 50
90.0
 51
178.876481
  0
ARC
  5
2C3
100
AcDbEntity
  8
M0
 62
     7
100
AcDbCircle
 10
72.091883
 20
389.781359
 40
0.5
100
AcDbArc
 50
0.0
 51
90.0
  0
ARC
  5
2C4
100
AcDbEntity
  8
M0
 62
     7
100
AcDbCircle
 10
55.292373
 20
378.831359
 40
0.3
100
AcDbArc
 50
270.0
 51
358.876481
  0
ARC
  5
2C5
100
AcDbEntity
  8
M0
 62
     7
100
AcDbCircle
 10
62.091883
 20
338.581359
 40
1.0
100
AcDbArc
 50
180.0
 51
270.0
  0
LINE
  5
2C6
100
AcDbEntity
  8
M0
 62
     7
100
AcDbLine
 10
82.391882
 20
319.38136
 11
80.691883
 21
319.38136
  0
ARC
  5
2C7
100
AcDbEntity
  8
M0
 62
     7
100
AcDbCircle
 10
60.341883
 20
378.781359
 40
2.25
100
AcDbArc
 50
270.0
 51
450.0
  0
LINE
  5
2C8
100
AcDbEntity
  8
M0
 62
     7
100
AcDbLine
 10
118.341884
 20
353.931359
 11
118.341884
 21
360.43136
  0
LINE
  5
2C9
100
AcDbEntity
  8
M0
  6
DASHDOT
 62
     7
100
AcDbLine
 10
133.791882
 20
343.781359
 11
46.891884
 21
343.781359
  0
ARC
  5
2CA
100
AcDbEntity
  8
M0
 62
     7
100
AcDbCircle
 10
118.841883
 20
360.431359
 40
0.5
100
AcDbArc
 50
90.0
 51
180.0
  0
LINE
  5
2CB
100
AcDbEntity
  8
M0
 62
     7
100
AcDbLine
 10
61.841883
 20
353.43136
 11
55.341883
 21
353.43136
  0
LINE
  5
2CC
100
AcDbEntity
  8
M0
 62
     7
100
AcDbLine
 10
55.341882
 20
360.931359
 11
61.841883
 21
360.931359
  0
ARC
  5
2CD
100
AcDbEntity
  8
M0
 62
     7
100
AcDbCircle
 10
55.341883
 20
327.131359
 40
0.5
100
AcDbArc
 50
180.0
 51
270.0
  0
ARC
  5
2CE
100
AcDbEntity
  8
M0
 62
     7
100
AcDbCircle
 10
118.841883
 20
353.931359
 40
0.5
100
AcDbArc
 50
180.0
 51
270.0
  0
ARC
  5
2CF
100
AcDbEntity
  8
M0
 62
     7
100
AcDbCircle
 10
125.341883
 20
353.931359
 40
0.5
100
AcDbArc
 50
270.0
 51
360.0
  0
ARC
  5
2D0
100
AcDbEntity
  8
M0
 62
     7
100
AcDbCircle
 10
125.341882
 20
326.03136
 40
0.5
100
AcDbArc
 50
0.0
 51
90.0
  0
ARC
  5
2D1
100
AcDbEntity
  8
M0
 62
     7
100
AcDbCircle
 10
125.341883
 20
360.431359
 40
0.5
100
AcDbArc
 50
0.0
 51
90.0
  0
LINE
  5
2D2
100
AcDbEntity
  8
M0
  6
DASHDOT
 62
     7
100
AcDbLine
 10
90.341883
 20
296.281359
 11
90.341883
 21
395.281361
  0
ARC
  5
2D3
100
AcDbEntity
  8
M0
 62
     7
100
AcDbCircle
 10
125.341883
 20
319.53136
 40
0.5
100
AcDbArc
 50
270.0
 51
360.0
  0
ARC
  5
2D4
100
AcDbEntity
  8
M0
 62
     7
100
AcDbCircle
 10
118.841882
 20
326.031359
 40
0.5
100
AcDbArc
 50
90.0
 51
180.0
  0
LINE
  5
2D5
100
AcDbEntity
  8
M0
 62
     7
100
AcDbLine
 10
118.341884
 20
319.531359
 11
118.341884
 21
326.031359
  0
LINE
  5
2D6
100
AcDbEntity
  8
M0
 62
     7
100
AcDbLine
 10
118.841882
 20
326.53136
 11
125.341883
 21
326.53136
  0
LINE
  5
2D7
100
AcDbEntity
  8
M0
 62
     7
100
AcDbLine
 10
54.841882
 20
360.431358
 11
54.841882
 21
353.931359
  0
LINE
  5
2D8
100
AcDbEntity
  8
M0
 62
     7
100
AcDbLine
 10
118.341884
 20
327.131359
 11
118.341884
 21
333.631359
  0
LINE
  5
2D9
100
AcDbEntity
  8
M0
 62
     7
100
AcDbLine
 10
55.341883
 20
326.53136
 11
61.841883
 21
326.53136
  0
LINE
  5
2DA
100
AcDbEntity
  8
M0
 62
     7
100
AcDbLine
 10
125.841884
 20
326.03136
 11
125.841884
 21
319.53136
  0
LINE
  5
2DB
100
AcDbEntity
  8
M0
 62
     7
100
AcDbLine
 10
55.341883
 20
334.131359
 11
61.841883
 21
334.131359
  0
LINE
  5
2DC
100
AcDbEntity
  8
M0
 62
     7
100
AcDbLine
 10
125.841884
 20
327.131361
 11
125.841884
 21
333.63136
  0
LINE
  5
2DD
100
AcDbEntity
  8
M0
 62
     7
100
AcDbLine
 10
62.341882
 20
333.631359
 11
62.341882
 21
327.131359
  0
LINE
  5
2DE
100
AcDbEntity
  8
M0
 62
     7
100
AcDbLine
 10
61.841883
 20
319.03136
 11
55.341883
 21
319.03136
  0
LINE
  5
2DF
100
AcDbEntity
  8
M0
 62
     7
100
AcDbLine
 10
125.341883
 20
319.03136
 11
118.841883
 21
319.03136
  0
LINE
  5
2E0
100
AcDbEntity
  8
M0
 62
     7
100
AcDbLine
 10
125.341883
 20
326.63136
 11
118.841883
 21
326.63136
  0
LINE
  5
2E1
100
AcDbEntity
  8
M0
 62
     7
100
AcDbLine
 10
118.841883
 20
334.131359
 11
125.341882
 21
334.131359
  0
LINE
  5
2E2
100
AcDbEntity
  8
M0
 62
     7
100
AcDbLine
 10
125.341883
 20
353.43136
 11
118.841883
 21
353.43136
  0
LINE
  5
2E3
100
AcDbEntity
  8
M0
 62
     7
100
AcDbLine
 10
125.841884
 20
360.431359
 11
125.841884
 21
353.93136
  0
LINE
  5
2E4
100
AcDbEntity
  8
M0
 62
     7
100
AcDbLine
 10
61.841883
 20
326.63136
 11
55.341883
 21
326.63136
  0
CIRCLE
  5
2E5
100
AcDbEntity
  8
M0
 62
     7
100
AcDbCircle
 10
125.341883
 20
380.781359
 40
2.25
  0
ARC
  5
2E6
100
AcDbEntity
  8
M0
 62
     7
100
AcDbCircle
 10
62.091883
 20
348.981359
 40
1.0
100
AcDbArc
 50
90.0
 51
180.0
  0
LINE
  5
2E7
100
AcDbEntity
  8
M0
 62
     7
100
AcDbLine
 10
118.841883
 20
360.931359
 11
125.341883
 21
360.931359
  0
LINE
  5
2E8
100
AcDbEntity
  8
M0
 62
     7
100
AcDbLine
 10
69.891883
 20
381.781358
 11
70.391882
 21
381.781358
  0
LINE
  5
2E9
100
AcDbEntity
  8
M0
 62
     7
100
AcDbLine
 10
108.091884
 20
389.281359
 11
108.091884
 21
389.78136
  0
ARC
  5
2EA
100
AcDbEntity
  8
M0
 62
     7
100
AcDbCircle
 10
58.891393
 20
376.231359
 40
0.3
100
AcDbArc
 50
90.0
 51
178.876481
  0
LINE
  5
2EB
100
AcDbEntity
  8
M0
 62
     7
100
AcDbLine
 10
54.841882
 20
327.131359
 11
54.841882
 21
333.631359
  0
CIRCLE
  5
2EC
100
AcDbEntity
  8
M0
 62
     7
100
AcDbCircle
 10
55.341883
 20
305.781359
 40
2.25
  0
LINE
  5
2ED
100
AcDbEntity
  8
M0
 62
     7
100
AcDbLine
 10
72.591882
 20
389.281359
 11
72.591882
 21
389.78136
  0
LINE
  5
2EE
100
AcDbEntity
  8
M0
 62
     7
100
AcDbLine
 10
64.091884
 20
366.48136
 11
116.591882
 21
366.48136
  0
ARC
  5
2EF
100
AcDbEntity
  8
M0
 62
     7
100
AcDbCircle
 10
63.591883
 20
351.481359
 40
0.5
100
AcDbArc
 50
180.0
 51
270.0
  0
ARC
  5
2F0
100
AcDbEntity
  8
M0
 62
     7
100
AcDbCircle
 10
117.091883
 20
351.481359
 40
0.5
100
AcDbArc
 50
270.0
 51
360.0
  0
ARC
  5
2F1
100
AcDbEntity
  8
M0
 62
     7
100
AcDbCircle
 10
116.591883
 20
302.281359
 40
1.0
100
AcDbArc
 50
270.0
 51
360.0
  0
ARC
  5
2F2
100
AcDbEntity
  8
M0
 62
     7
100
AcDbCircle
 10
72.741882
 20
384.031359
 40
4.25
100
AcDbArc
 50
241.927521
 51
298.072495
  0
ARC
  5
2F3
100
AcDbEntity
  8
M0
 62
     7
100
AcDbCircle
 10
64.091883
 20
365.481359
 40
1.0
100
AcDbArc
 50
90.0
 51
180.0
  0
ARC
  5
2F4
100
AcDbEntity
  8
M0
 62
     7
100
AcDbCircle
 10
116.591883
 20
365.481359
 40
1.0
100
AcDbArc
 50
0.0
 51
90.0
  0
ARC
  5
2F5
100
AcDbEntity
  8
M0
 62
     7
100
AcDbCircle
 10
82.891883
 20
368.681359
 40
0.5
100
AcDbArc
 50
270.0
 51
360.0
  0
ARC
  5
2F6
100
AcDbEntity
  8
M0
 62
     7
100
AcDbCircle
 10
118.591883
 20
338.581359
 40
1.0
100
AcDbArc
 50
270.0
 51
360.0
  0
ARC
  5
2F7
100
AcDbEntity
  8
M0
 62
     7
100
AcDbCircle
 10
97.791883
 20
368.681359
 40
0.5
100
AcDbArc
 50
180.0
 51
270.0
  0
ARC
  5
2F8
100
AcDbEntity
  8
M0
 62
     7
100
AcDbCircle
 10
82.391883
 20
302.281359
 40
1.0
100
AcDbArc
 50
270.0
 51
360.0
  0
ARC
  5
2F9
100
AcDbEntity
  8
M0
 62
     7
100
AcDbCircle
 10
72.741882
 20
384.031359
 40
4.25
100
AcDbArc
 50
241.927521
 51
270.0
  0
ARC
  5
2FA
100
AcDbEntity
  8
M0
 62
     7
100
AcDbCircle
 10
100.491883
 20
368.681359
 40
0.5
100
AcDbArc
 50
270.0
 51
360.0
  0
ARC
  5
2FB
100
AcDbEntity
  8
M0
 62
     7
100
AcDbCircle
 10
118.591883
 20
348.981359
 40
1.0
100
AcDbArc
 50
0.0
 51
90.0
  0
LINE
  5
2FC
100
AcDbEntity
  8
M0
 62
     7
100
AcDbLine
 10
61.941883
 20
306.281358
 11
63.091884
 21
306.281358
  0
LINE
  5
2FD
100
AcDbEntity
  8
M0
 62
     7
100
AcDbLine
 10
61.941883
 20
312.281359
 11
61.941883
 21
306.281358
  0
LINE
  5
2FE
100
AcDbEntity
  8
M0
 62
     7
100
AcDbLine
 10
51.391883
 20
372.581359
 11
51.391883
 21
382.281359
  0
LINE
  5
2FF
100
AcDbEntity
  8
M0
 62
     7
100
AcDbLine
 10
128.791882
 20
382.281359
 11
128.791882
 21
317.431359
  0
LINE
  5
300
100
AcDbEntity
  8
M0
 62
     7
100
AcDbLine
 10
63.091884
 20
312.281359
 11
61.941883
 21
312.281359
  0
LINE
  5
301
100
AcDbEntity
  8
M0
 62
     7
100
AcDbLine
 10
121.793373
 20
311.03136
 11
120.341882
 21
311.03136
  0
LINE
  5
302
100
AcDbEntity
  8
M0
 62
     7
100
AcDbLine
 10
111.191884
 20
302.281361
 11
111.191884
 21
304.281358
  0
LINE
  5
303
100
AcDbEntity
  8
M0
 62
     7
100
AcDbLine
 10
76.491883
 20
304.281358
 11
76.491883
 21
302.281361
  0
LINE
  5
304
100
AcDbEntity
  8
M0
 62
     7
100
AcDbLine
 10
98.291883
 20
319.38136
 11
99.991883
 21
319.38136
  0
LINE
  5
305
100
AcDbEntity
  8
M0
 62
     7
100
AcDbLine
 10
80.691883
 20
301.281359
 11
81.191879
 21
301.281359
  0
LINE
  5
306
100
AcDbEntity
  8
M0
 62
     7
100
AcDbLine
 10
54.391882
 20
385.281358
 11
61.891884
 21
385.281358
  0
LINE
  5
307
100
AcDbEntity
  8
M0
 62
     7
100
AcDbLine
 10
78.241883
 20
301.281359
 11
54.891883
 21
301.281359
  0
LINE
  5
308
100
AcDbEntity
  8
M0
 62
     7
100
AcDbLine
 10
81.191879
 20
301.281359
 11
82.391882
 21
301.281359
  0
LINE
  5
309
100
AcDbEntity
  8
M0
 62
     7
100
AcDbLine
 10
70.391882
 20
385.881361
 11
69.891883
 21
385.881361
  0
LINE
  5
30A
100
AcDbEntity
  8
M0
 62
     7
100
AcDbLine
 10
128.791882
 20
319.981359
 11
129.291883
 21
314.98136
  0
LINE
  5
30B
100
AcDbEntity
  8
M0
 62
     7
100
AcDbLine
 10
69.891883
 20
387.081359
 11
70.391882
 21
387.081359
  0
LINE
  5
30C
100
AcDbEntity
  8
M0
 62
     7
100
AcDbLine
 10
63.091884
 20
304.281358
 11
62.441884
 21
304.281358
  0
LINE
  5
30D
100
AcDbEntity
  8
M0
 62
     7
100
AcDbLine
 10
60.341884
 20
381.03136
 11
57.841884
 21
381.03136
  0
LINE
  5
30E
100
AcDbEntity
  8
M0
 62
     7
100
AcDbLine
 10
110.791883
 20
385.881361
 11
110.291884
 21
385.881361
  0
LINE
  5
30F
100
AcDbEntity
  8
M0
 62
     7
100
AcDbLine
 10
110.791883
 20
384.781361
 11
110.291884
 21
384.781361
  0
LINE
  5
310
100
AcDbEntity
  8
M0
 62
     7
100
AcDbLine
 10
69.891883
 20
384.781361
 11
70.391882
 21
384.781361
  0
LINE
  5
311
100
AcDbEntity
  8
M0
 62
     7
100
AcDbLine
 10
65.791883
 20
381.781358
 11
67.891883
 21
381.781358
  0
LINE
  5
312
100
AcDbEntity
  8
M0
 62
     7
100
AcDbLine
 10
63.091884
 20
305.28136
 11
61.941883
 21
305.28136
  0
LINE
  5
313
100
AcDbEntity
  8
M0
 62
     7
100
AcDbLine
 10
118.791882
 20
385.281358
 11
125.791883
 21
385.281358
  0
LINE
  5
314
100
AcDbEntity
  8
M0
 62
     7
100
AcDbLine
 10
112.791883
 20
381.781358
 11
114.891883
 21
381.781358
  0
LINE
  5
315
100
AcDbEntity
  8
M0
 62
     7
100
AcDbLine
 10
61.941883
 20
304.781359
 11
61.941883
 21
305.28136
  0
LINE
  5
316
100
AcDbEntity
  8
M0
 62
     7
100
AcDbLine
 10
104.191883
 20
304.281358
 11
104.191883
 21
302.281361
  0
LINE
  5
317
100
AcDbEntity
  8
M0
 62
     7
100
AcDbLine
 10
69.891883
 20
380.281359
 11
69.891883
 21
389.281359
  0
LINE
  5
318
100
AcDbEntity
  8
M0
 62
     7
100
AcDbLine
 10
118.191883
 20
368.58136
 11
119.091883
 21
368.58136
  0
LINE
  5
319
100
AcDbEntity
  8
M0
 62
     7
100
AcDbLine
 10
126.291883
 20
301.281359
 11
102.441883
 21
301.281359
  0
LINE
  5
31A
100
AcDbEntity
  8
M0
 62
     7
100
AcDbLine
 10
100.791883
 20
388.081361
 11
100.791883
 21
385.881361
  0
LINE
  5
31B
100
AcDbEntity
  8
M0
 62
     7
100
AcDbLine
 10
69.491882
 20
304.281358
 11
69.491882
 21
302.281361
  0
LINE
  5
31C
100
AcDbEntity
  8
M0
 62
     7
100
AcDbLine
 10
55.591883
 20
368.58136
 11
54.691883
 21
368.58136
  0
LINE
  5
31D
100
AcDbEntity
  8
M0
 62
     7
100
AcDbLine
 10
125.091883
 20
368.58136
 11
125.991883
 21
368.58136
  0
LINE
  5
31E
100
AcDbEntity
  8
M0
 62
     7
100
AcDbLine
 10
127.091883
 20
371.131359
 11
126.991881
 21
371.131359
  0
LINE
  5
31F
100
AcDbEntity
  8
M0
 62
     7
100
AcDbLine
 10
88.341883
 20
307.28136
 11
92.341883
 21
307.28136
  0
LINE
  5
320
100
AcDbEntity
  8
M0
 62
     7
100
AcDbLine
 10
53.591883
 20
371.131359
 11
53.691885
 21
371.131359
  0
LINE
  5
321
100
AcDbEntity
  8
M0
 62
     7
100
AcDbLine
 10
79.891883
 20
385.881361
 11
79.891883
 21
388.081361
  0
LINE
  5
322
100
AcDbEntity
  8
M0
 62
     7
100
AcDbLine
 10
105.941882
 20
380.281359
 11
112.391884
 21
380.281359
  0
LINE
  5
323
100
AcDbEntity
  8
M0
 62
     7
100
AcDbLine
 10
67.891883
 20
380.281359
 11
67.891883
 21
389.281359
  0
LINE
  5
324
100
AcDbEntity
  8
M0
 62
     7
100
AcDbLine
 10
109.494658
 20
307.28136
 11
109.941883
 21
307.28136
  0
LINE
  5
325
100
AcDbEntity
  8
M0
 62
     7
100
AcDbLine
 10
51.891884
 20
370.131359
 11
51.891884
 21
304.281359
  0
LINE
  5
326
100
AcDbEntity
  8
M0
 62
     7
100
AcDbLine
 10
97.291883
 20
306.281358
 11
97.291883
 21
318.881359
  0
LINE
  5
327
100
AcDbEntity
  8
M0
 62
     7
100
AcDbLine
 10
97.291883
 20
302.281361
 11
97.291883
 21
306.281358
  0
LINE
  5
328
100
AcDbEntity
  8
M0
 62
     7
100
AcDbLine
 10
52.891882
 20
316.43136
 11
53.691885
 21
316.43136
  0
LINE
  5
329
100
AcDbEntity
  8
M0
 62
     7
100
AcDbLine
 10
101.441883
 20
302.281361
 11
101.441883
 21
307.28136
  0
LINE
  5
32A
100
AcDbEntity
  8
M0
 62
     7
100
AcDbLine
 10
53.591883
 20
316.43136
 11
53.691885
 21
316.43136
  0
LINE
  5
32B
100
AcDbEntity
  8
M0
 62
     7
100
AcDbLine
 10
66.741882
 20
302.281361
 11
66.741882
 21
307.28136
  0
LINE
  5
32C
100
AcDbEntity
  8
M0
 62
     7
100
AcDbLine
 10
113.941884
 20
307.28136
 11
113.941884
 21
302.281361
  0
LINE
  5
32D
100
AcDbEntity
  8
M0
 62
     7
100
AcDbLine
 10
71.189108
 20
307.28136
 11
70.741883
 21
307.28136
  0
LINE
  5
32E
100
AcDbEntity
  8
M0
 62
     7
100
AcDbLine
 10
79.241883
 20
302.281361
 11
79.241883
 21
307.28136
  0
LINE
  5
32F
100
AcDbEntity
  8
M0
 62
     7
100
AcDbLine
 10
63.091884
 20
345.181359
 11
63.091884
 21
345.281359
  0
LINE
  5
330
100
AcDbEntity
  8
M0
 62
     7
100
AcDbLine
 10
97.791883
 20
319.38136
 11
98.291883
 21
319.38136
  0
LINE
  5
331
100
AcDbEntity
  8
M0
 62
     7
100
AcDbLine
 10
65.791883
 20
306.281358
 11
65.791883
 21
320.881359
  0
LINE
  5
332
100
AcDbEntity
  8
M0
 62
     7
100
AcDbLine
 10
118.591882
 20
348.481359
 11
118.591882
 21
339.08136
  0
LINE
  5
333
100
AcDbEntity
  8
M0
 62
     7
100
AcDbLine
 10
62.091883
 20
348.481359
 11
62.091883
 21
339.08136
  0
LINE
  5
334
100
AcDbEntity
  8
M0
 62
     7
100
AcDbLine
 10
62.091883
 20
337.581359
 11
63.091884
 21
337.581359
  0
LINE
  5
335
100
AcDbEntity
  8
M0
 62
     7
100
AcDbLine
 10
65.791883
 20
320.881359
 11
64.791883
 21
320.881359
  0
LINE
  5
336
100
AcDbEntity
  8
M0
 62
     7
100
AcDbLine
 10
62.091883
 20
342.38136
 11
63.791882
 21
342.38136
  0
LINE
  5
337
100
AcDbEntity
  8
M0
 62
     7
100
AcDbLine
 10
63.791882
 20
345.181359
 11
62.091883
 21
345.181359
  0
LINE
  5
338
100
AcDbEntity
  8
M0
 62
     7
100
AcDbLine
 10
119.591883
 20
348.981359
 11
119.591883
 21
338.581359
  0
LINE
  5
339
100
AcDbEntity
  8
M0
 62
     7
100
AcDbLine
 10
118.591882
 20
337.581359
 11
117.591882
 21
337.581359
  0
LINE
  5
33A
100
AcDbEntity
  8
M0
 62
     7
100
AcDbLine
 10
63.091884
 20
342.38136
 11
63.091884
 21
342.281359
  0
LINE
  5
33B
100
AcDbEntity
  8
M0
 62
     7
100
AcDbLine
 10
61.091883
 20
348.981359
 11
61.091883
 21
338.581359
  0
ARC
  5
33C
100
AcDbEntity
  8
M0
 62
     7
100
AcDbCircle
 10
67.741883
 20
302.281359
 40
1.0
100
AcDbArc
 50
180.0
 51
270.0
  0
ARC
  5
33D
100
AcDbEntity
  8
M0
 62
     7
100
AcDbCircle
 10
68.891883
 20
389.281359
 40
1.0
100
AcDbArc
 50
90.0
 51
180.0
  0
ARC
  5
33E
100
AcDbEntity
  8
M0
 62
     7
100
AcDbCircle
 10
78.241883
 20
302.281359
 40
1.0
100
AcDbArc
 50
270.0
 51
360.0
  0
ARC
  5
33F
100
AcDbEntity
  8
M0
 62
     7
100
AcDbCircle
 10
68.491883
 20
302.281359
 40
1.0
100
AcDbArc
 50
270.0
 51
360.0
  0
ARC
  5
340
100
AcDbEntity
  8
M0
 62
     7
100
AcDbCircle
 10
125.791883
 20
382.281359
 40
3.0
100
AcDbArc
 50
0.0
 51
90.0
  0
ARC
  5
341
100
AcDbEntity
  8
M0
 62
     7
100
AcDbCircle
 10
112.191883
 20
302.281359
 40
1.0
100
AcDbArc
 50
180.0
 51
270.0
  0
LINE
  5
342
100
AcDbEntity
  8
M0
 62
     7
100
AcDbLine
 10
100.991883
 20
318.881359
 11
100.991883
 21
306.281358
  0
LINE
  5
343
100
AcDbEntity
  8
M0
 62
     7
100
AcDbLine
 10
114.891883
 20
306.281358
 11
114.891883
 21
320.881359
  0
LINE
  5
344
100
AcDbEntity
  8
M0
 62
     7
100
AcDbLine
 10
114.891883
 20
320.881359
 11
115.891883
 21
320.881359
  0
ARC
  5
345
100
AcDbEntity
  8
M0
 62
     7
100
AcDbCircle
 10
77.491883
 20
302.281359
 40
1.0
100
AcDbArc
 50
180.0
 51
270.0
  0
ARC
  5
346
100
AcDbEntity
  8
M0
 62
     7
100
AcDbCircle
 10
103.191883
 20
302.281359
 40
1.0
100
AcDbArc
 50
270.0
 51
360.0
  0
LINE
  5
347
100
AcDbEntity
  8
M0
 62
     7
100
AcDbLine
 10
99.991883
 20
319.38136
 11
100.491883
 21
319.38136
  0
ARC
  5
348
100
AcDbEntity
  8
M0
 62
     7
100
AcDbCircle
 10
68.891883
 20
389.281359
 40
1.0
100
AcDbArc
 50
0.0
 51
90.0
  0
ARC
  5
349
100
AcDbEntity
  8
M0
 62
     7
100
AcDbCircle
 10
72.991883
 20
304.281359
 40
3.5
100
AcDbArc
 50
0.0
 51
58.997281
  0
ARC
  5
34A
100
AcDbEntity
  8
M0
 62
     7
100
AcDbCircle
 10
112.941883
 20
302.281359
 40
1.0
100
AcDbArc
 50
270.0
 51
360.0
  0
ARC
  5
34B
100
AcDbEntity
  8
M0
 62
     7
100
AcDbCircle
 10
80.391883
 20
388.081359
 40
0.5
100
AcDbArc
 50
90.0
 51
180.0
  0
ARC
  5
34C
100
AcDbEntity
  8
M0
 62
     7
100
AcDbCircle
 10
107.691883
 20
304.281359
 40
3.5
100
AcDbArc
 50
0.0
 51
58.997281
  0
ARC
  5
34D
100
AcDbEntity
  8
M0
 62
     7
100
AcDbCircle
 10
72.991883
 20
304.281359
 40
3.5
100
AcDbArc
 50
91.94738
 51
121.002719
  0
ARC
  5
34E
100
AcDbEntity
  8
M0
 62
     7
100
AcDbCircle
 10
52.891883
 20
317.431359
 40
1.0
100
AcDbArc
 50
180.0
 51
270.0
  0
LINE
  5
34F
100
AcDbEntity
  8
M0
 62
     7
100
AcDbLine
 10
54.841882
 20
374.031359
 11
56.436146
 21
374.033336
  0
LINE
  5
350
100
AcDbEntity
  8
M0
 62
     7
100
AcDbLine
 10
58.891392
 20
376.531359
 11
60.341884
 21
376.531359
  0
LINE
  5
351
100
AcDbEntity
  8
M0
 62
     7
100
AcDbLine
 10
80.391883
 20
388.581358
 11
100.291883
 21
388.581358
  0
ARC
  5
352
100
AcDbEntity
  8
M0
 62
     7
100
AcDbCircle
 10
107.691883
 20
304.281359
 40
3.5
100
AcDbArc
 50
58.997281
 51
88.05262
  0
ARC
  5
353
100
AcDbEntity
  8
M0
 62
     7
100
AcDbCircle
 10
102.441883
 20
302.281359
 40
1.0
100
AcDbArc
 50
180.0
 51
270.0
  0
LINE
  5
354
100
AcDbEntity
  8
M0
 62
     7
100
AcDbLine
 10
55.292374
 20
378.531359
 11
54.841882
 21
378.531359
  0
CIRCLE
  5
355
100
AcDbEntity
  8
M0
 62
     7
100
AcDbCircle
 10
90.341883
 20
384.081359
 40
3.1
  0
LINE
  5
356
100
AcDbEntity
  8
M0
 62
     7
100
AcDbLine
 10
114.891883
 20
302.781358
 11
113.941884
 21
302.781358
  0
LINE
  5
357
100
AcDbEntity
  8
M0
 62
     7
100
AcDbLine
 10
51.891884
 20
367.58136
 11
51.391883
 21
372.581359
  0
LINE
  5
358
100
AcDbEntity
  8
M0
 62
     7
100
AcDbLine
 10
114.891883
 20
305.28136
 11
113.941884
 21
305.28136
  0
LINE
  5
359
100
AcDbEntity
  8
M0
 62
     7
100
AcDbLine
 10
119.091883
 20
318.981359
 11
118.191883
 21
318.981359
  0
LINE
  5
35A
100
AcDbEntity
  8
M0
 62
     7
100
AcDbLine
 10
125.991883
 20
318.981359
 11
125.091883
 21
318.981359
  0
LINE
  5
35B
100
AcDbEntity
  8
M0
 62
     7
100
AcDbLine
 10
114.891883
 20
304.281358
 11
113.941884
 21
304.281358
  0
LINE
  5
35C
100
AcDbEntity
  8
M0
 62
     7
100
AcDbLine
 10
61.591882
 20
318.981359
 11
62.491883
 21
318.981359
  0
LINE
  5
35D
100
AcDbEntity
  8
M0
 62
     7
100
AcDbLine
 10
62.491883
 20
368.58136
 11
61.591882
 21
368.58136
  0
ARC
  5
35E
100
AcDbEntity
  8
M0
 62
     7
100
AcDbCircle
 10
100.291883
 20
388.081359
 40
0.5
100
AcDbArc
 50
0.0
 51
90.0
  0
LINE
  5
35F
100
AcDbEntity
  8
M0
 62
     7
100
AcDbLine
 10
63.091884
 20
302.781358
 11
62.441884
 21
302.781358
  0
LINE
  5
360
100
AcDbEntity
  8
M0
 62
     7
100
AcDbLine
 10
127.091883
 20
316.43136
 11
126.991881
 21
316.43136
  0
ARC
  5
361
100
AcDbEntity
  8
M0
 62
     7
100
AcDbCircle
 10
72.991883
 20
304.281359
 40
3.5
100
AcDbArc
 50
121.002719
 51
180.0
  0
LINE
  5
362
100
AcDbEntity
  8
M0
 62
     7
100
AcDbLine
 10
105.08037
 20
303.831361
 11
106.104432
 21
303.831361
  0
LINE
  5
363
100
AcDbEntity
  8
M0
 62
     7
100
AcDbLine
 10
108.141883
 20
304.731358
 11
108.141883
 21
305.481359
  0
LINE
  5
364
100
AcDbEntity
  8
M0
 62
     7
100
AcDbLine
 10
109.279333
 20
303.831361
 11
110.303397
 21
303.831361
  0
LINE
  5
365
100
AcDbEntity
  8
M0
 62
     7
100
AcDbLine
 10
97.291883
 20
380.281359
 11
83.391883
 21
380.281359
  0
LINE
  5
366
100
AcDbEntity
  8
M0
 62
     7
100
AcDbLine
 10
125.091883
 20
317.981359
 11
119.091883
 21
317.981359
  0
LINE
  5
367
100
AcDbEntity
  8
M0
 62
     7
100
AcDbLine
 10
55.341883
 20
368.531359
 11
61.841882
 21
368.531359
  0
LINE
  5
368
100
AcDbEntity
  8
M0
 62
     7
100
AcDbLine
 10
71.404433
 20
304.731358
 11
72.541883
 21
304.731358
  0
LINE
  5
369
100
AcDbEntity
  8
M0
 62
     7
100
AcDbLine
 10
110.303397
 20
304.731358
 11
109.279333
 21
304.731358
  0
LINE
  5
36A
100
AcDbEntity
  8
M0
 62
     7
100
AcDbLine
 10
70.380369
 20
303.831361
 11
71.404433
 21
303.831361
  0
LINE
  5
36B
100
AcDbEntity
  8
M0
 62
     7
100
AcDbLine
 10
72.541883
 20
303.831361
 11
72.541883
 21
303.08136
  0
LINE
  5
36C
100
AcDbEntity
  8
M0
 62
     7
100
AcDbLine
 10
106.104432
 20
304.731358
 11
105.08037
 21
304.731358
  0
LINE
  5
36D
100
AcDbEntity
  8
M0
 62
     7
100
AcDbLine
 10
74.579334
 20
303.831361
 11
73.441884
 21
303.831361
  0
LINE
  5
36E
100
AcDbEntity
  8
M0
 62
     7
100
AcDbLine
 10
73.441884
 20
303.08136
 11
73.441884
 21
303.831361
  0
ARC
  5
36F
100
AcDbEntity
  8
M0
 62
     7
100
AcDbCircle
 10
127.791883
 20
324.681359
 40
1.0
100
AcDbArc
 50
270.0
 51
360.0
  0
ARC
  5
370
100
AcDbEntity
  8
M0
 62
     7
100
AcDbCircle
 10
126.991883
 20
324.681359
 40
1.0
100
AcDbArc
 50
180.0
 51
270.0
  0
LINE
  5
371
100
AcDbEntity
  8
M0
 62
     7
100
AcDbLine
 10
105.941883
 20
380.281359
 11
100.991883
 21
380.281359
  0
ARC
  5
372
100
AcDbEntity
  8
M0
 62
     7
100
AcDbCircle
 10
63.091883
 20
324.281359
 40
0.6
100
AcDbArc
 50
180.0
 51
270.0
  0
ARC
  5
373
100
AcDbEntity
  8
M0
 62
     7
100
AcDbCircle
 10
53.691883
 20
324.681359
 40
1.0
100
AcDbArc
 50
270.0
 51
360.0
  0
ARC
  5
374
100
AcDbEntity
  8
M0
 62
     7
100
AcDbCircle
 10
53.691883
 20
339.081359
 40
1.0
100
AcDbArc
 50
0.0
 51
90.0
  0
LINE
  5
375
100
AcDbEntity
  8
M0
 62
     7
100
AcDbLine
 10
119.091883
 20
317.981359
 11
119.091883
 21
319.03136
  0
LINE
  5
376
100
AcDbEntity
  8
M0
 62
     7
100
AcDbLine
 10
100.991883
 20
376.981359
 11
100.991883
 21
379.781358
  0
LINE
  5
377
100
AcDbEntity
  8
M0
 62
     7
100
AcDbLine
 10
125.091883
 20
319.03136
 11
125.091883
 21
317.981359
  0
LINE
  5
378
100
AcDbEntity
  8
M0
 62
     7
100
AcDbLine
 10
74.741883
 20
307.28136
 11
79.691883
 21
307.28136
  0
ARC
  5
379
100
AcDbEntity
  8
M0
 62
     7
100
AcDbCircle
 10
65.533874
 20
333.187318
 40
3.350514
100
AcDbArc
 50
136.789285
 51
155.219178
  0
LINE
  5
37A
100
AcDbEntity
  8
M0
 62
     7
100
AcDbLine
 10
118.191883
 20
319.48136
 11
118.344389
 21
319.48136
  0
LINE
  5
37B
100
AcDbEntity
  8
M0
 62
     7
100
AcDbLine
 10
73.441884
 20
305.481359
 11
72.541883
 21
305.481359
  0
LINE
  5
37C
100
AcDbEntity
  8
M0
 62
     7
100
AcDbLine
 10
126.491884
 20
347.481359
 11
126.491884
 21
340.081359
  0
LINE
  5
37D
100
AcDbEntity
  8
M0
 62
     7
100
AcDbLine
 10
52.891882
 20
340.081359
 11
52.891882
 21
347.481359
  0
LINE
  5
37E
100
AcDbEntity
  8
M0
 62
     7
100
AcDbLine
 10
65.791883
 20
304.281358
 11
65.791883
 21
305.28136
  0
LINE
  5
37F
100
AcDbEntity
  8
M0
 62
     7
100
AcDbLine
 10
114.891883
 20
383.281361
 11
114.891883
 21
385.281358
  0
LINE
  5
380
100
AcDbEntity
  8
M0
 62
     7
100
AcDbLine
 10
65.791883
 20
366.48136
 11
65.791883
 21
385.281358
  0
LINE
  5
381
100
AcDbEntity
  8
M0
 62
     7
100
AcDbLine
 10
127.791884
 20
340.081359
 11
127.791884
 21
347.481359
  0
LINE
  5
382
100
AcDbEntity
  8
M0
 62
     7
100
AcDbLine
 10
114.891883
 20
382.281359
 11
114.891883
 21
383.281361
  0
LINE
  5
383
100
AcDbEntity
  8
M0
 62
     7
100
AcDbLine
 10
79.691883
 20
388.781361
 11
79.691883
 21
366.48136
  0
ARC
  5
384
100
AcDbEntity
  8
M0
 62
     7
100
AcDbCircle
 10
126.991883
 20
317.431359
 40
1.0
100
AcDbArc
 50
180.0
 51
270.0
  0
LINE
  5
385
100
AcDbEntity
  8
M0
 62
     7
100
AcDbLine
 10
100.991883
 20
305.28136
 11
100.991883
 21
304.281358
  0
LINE
  5
386
100
AcDbEntity
  8
M0
 62
     7
100
AcDbLine
 10
54.191882
 20
347.481359
 11
54.191882
 21
340.081359
  0
LINE
  5
387
100
AcDbEntity
  8
M0
 62
     7
100
AcDbLine
 10
54.691883
 20
334.481359
 11
62.491883
 21
334.481359
  0
LINE
  5
388
100
AcDbEntity
  8
M0
 62
     7
100
AcDbLine
 10
114.891883
 20
304.281358
 11
114.891883
 21
305.28136
  0
LINE
  5
389
100
AcDbEntity
  8
M0
 62
     7
100
AcDbLine
 10
71.404433
 20
304.731358
 11
70.380369
 21
304.731358
  0
LINE
  5
38A
100
AcDbEntity
  8
M0
 62
     7
100
AcDbLine
 10
72.541883
 20
303.831361
 11
71.404433
 21
303.831361
  0
LINE
  5
38B
100
AcDbEntity
  8
M0
 62
     7
100
AcDbLine
 10
72.541883
 20
303.08136
 11
73.441884
 21
303.08136
  0
LINE
  5
38C
100
AcDbEntity
  8
M0
 62
     7
100
AcDbLine
 10
73.441884
 20
304.731358
 11
73.441884
 21
305.481359
  0
LINE
  5
38D
100
AcDbEntity
  8
M0
 62
     7
100
AcDbLine
 10
74.579334
 20
303.831361
 11
75.603396
 21
303.831361
  0
LINE
  5
38E
100
AcDbEntity
  8
M0
 62
     7
100
AcDbLine
 10
72.541883
 20
305.481359
 11
72.541883
 21
304.731358
  0
LINE
  5
38F
100
AcDbEntity
  8
M0
 62
     7
100
AcDbLine
 10
54.691883
 20
317.431359
 11
54.691883
 21
339.081359
  0
LINE
  5
390
100
AcDbEntity
  8
M0
 62
     7
100
AcDbLine
 10
65.791883
 20
302.281361
 11
65.791883
 21
304.281358
  0
LINE
  5
391
100
AcDbEntity
  8
M0
 62
     7
100
AcDbLine
 10
125.991883
 20
317.431359
 11
125.991883
 21
339.081359
  0
LINE
  5
392
100
AcDbEntity
  8
M0
 62
     7
100
AcDbLine
 10
75.603396
 20
304.731358
 11
74.579334
 21
304.731358
  0
LINE
  5
393
100
AcDbEntity
  8
M0
 62
     7
100
AcDbLine
 10
73.441884
 20
304.731358
 11
74.579334
 21
304.731358
  0
LINE
  5
394
100
AcDbEntity
  8
M0
 62
     7
100
AcDbLine
 10
118.191883
 20
334.59168
 11
118.191883
 21
317.031359
  0
LINE
  5
395
100
AcDbEntity
  8
M0
 62
     7
100
AcDbLine
 10
107.241882
 20
303.831361
 11
106.104432
 21
303.831361
  0
LINE
  5
396
100
AcDbEntity
  8
M0
 62
     7
100
AcDbLine
 10
90.791883
 20
382.881358
 11
90.791883
 21
383.63136
  0
LINE
  5
397
100
AcDbEntity
  8
M0
 62
     7
100
AcDbLine
 10
109.279333
 20
303.831361
 11
108.141883
 21
303.831361
  0
LINE
  5
398
100
AcDbEntity
  8
M0
 62
     7
100
AcDbLine
 10
78.191883
 20
388.781361
 11
69.891883
 21
388.781361
  0
LINE
  5
399
100
AcDbEntity
  8
M0
 62
     7
100
AcDbLine
 10
89.891883
 20
382.881358
 11
90.791883
 21
382.881358
  0
LINE
  5
39A
100
AcDbEntity
  8
M0
 62
     7
100
AcDbLine
 10
90.791883
 20
384.53136
 11
90.791883
 21
385.281358
  0
LINE
  5
39B
100
AcDbEntity
  8
M0
 62
     7
100
AcDbLine
 10
87.73037
 20
383.63136
 11
88.754432
 21
383.63136
  0
LINE
  5
39C
100
AcDbEntity
  8
M0
 62
     7
100
AcDbLine
 10
108.141883
 20
305.481359
 11
107.241882
 21
305.481359
  0
LINE
  5
39D
100
AcDbEntity
  8
M0
 62
     7
100
AcDbLine
 10
107.241882
 20
305.481359
 11
107.241882
 21
304.731358
  0
LINE
  5
39E
100
AcDbEntity
  8
M0
 62
     7
100
AcDbLine
 10
91.929334
 20
383.63136
 11
92.953396
 21
383.63136
  0
LINE
  5
39F
100
AcDbEntity
  8
M0
 62
     7
100
AcDbLine
 10
90.791883
 20
385.281358
 11
89.891883
 21
385.281358
  0
LINE
  5
3A0
100
AcDbEntity
  8
M0
 62
     7
100
AcDbLine
 10
108.141883
 20
303.08136
 11
108.141883
 21
303.831361
  0
LINE
  5
3A1
100
AcDbEntity
  8
M0
 62
     7
100
AcDbLine
 10
92.953396
 20
384.53136
 11
91.929334
 21
384.53136
  0
LINE
  5
3A2
100
AcDbEntity
  8
M0
 62
     7
100
AcDbLine
 10
89.891883
 20
383.63136
 11
89.891883
 21
382.881358
  0
CIRCLE
  5
3A3
100
AcDbEntity
  8
M0
 62
     7
100
AcDbCircle
 10
107.691883
 20
304.281359
 40
2.825
  0
LINE
  5
3A4
100
AcDbEntity
  8
M0
 62
     7
100
AcDbLine
 10
70.391882
 20
388.28136
 11
70.391882
 21
380.281359
  0
ARC
  5
3A5
100
AcDbEntity
  8
M0
 62
     7
100
AcDbCircle
 10
90.341883
 20
303.531359
 40
4.25
100
AcDbArc
 50
61.927513
 51
118.072487
  0
ARC
  5
3A6
100
AcDbEntity
  8
M0
 62
     7
100
AcDbCircle
 10
72.741883
 20
303.531359
 40
4.25
100
AcDbArc
 50
61.927513
 51
118.072487
  0
LINE
  5
3A7
100
AcDbEntity
  8
M0
 62
     7
100
AcDbLine
 10
91.929334
 20
383.63136
 11
90.791883
 21
383.63136
  0
LINE
  5
3A8
100
AcDbEntity
  8
M0
 62
     7
100
AcDbLine
 10
89.891883
 20
385.281358
 11
89.891883
 21
384.53136
  0
LINE
  5
3A9
100
AcDbEntity
  8
M0
 62
     7
100
AcDbLine
 10
109.791883
 20
388.781361
 11
102.491883
 21
388.781361
  0
LINE
  5
3AA
100
AcDbEntity
  8
M0
 62
     7
100
AcDbLine
 10
88.754432
 20
384.53136
 11
89.891883
 21
384.53136
  0
LINE
  5
3AB
100
AcDbEntity
  8
M0
 62
     7
100
AcDbLine
 10
70.891883
 20
388.781361
 11
70.391882
 21
388.28136
  0
ARC
  5
3AC
100
AcDbEntity
  8
M0
 62
     7
100
AcDbCircle
 10
107.941882
 20
384.031359
 40
4.25
100
AcDbArc
 50
241.927521
 51
298.072495
  0
LINE
  5
3AD
100
AcDbEntity
  8
M0
 62
     7
100
AcDbLine
 10
90.791883
 20
384.53136
 11
91.929334
 21
384.53136
  0
LINE
  5
3AE
100
AcDbEntity
  8
M0
 62
     7
100
AcDbLine
 10
89.891883
 20
383.63136
 11
88.754432
 21
383.63136
  0
ARC
  5
3AF
100
AcDbEntity
  8
M0
 62
     7
100
AcDbCircle
 10
63.091883
 20
370.531359
 40
0.6
100
AcDbArc
 50
90.0
 51
180.0
  0
ARC
  5
3B0
100
AcDbEntity
  8
M0
 62
     7
100
AcDbCircle
 10
53.691883
 20
317.431359
 40
1.0
100
AcDbArc
 50
270.0
 51
360.0
  0
ARC
  5
3B1
100
AcDbEntity
  8
M0
 62
     7
100
AcDbCircle
 10
107.691883
 20
304.281359
 40
2.65
100
AcDbArc
 50
189.776849
 51
350.223151
  0
ARC
  5
3B2
100
AcDbEntity
  8
M0
 62
     7
100
AcDbCircle
 10
117.591883
 20
370.531359
 40
0.6
100
AcDbArc
 50
0.0
 51
90.0
  0
ARC
  5
3B3
100
AcDbEntity
  8
M0
 62
     7
100
AcDbCircle
 10
117.591883
 20
317.031359
 40
0.6
100
AcDbArc
 50
270.0
 51
360.0
  0
ARC
  5
3B4
100
AcDbEntity
  8
M0
 62
     7
100
AcDbCircle
 10
127.791883
 20
317.431359
 40
1.0
100
AcDbArc
 50
270.0
 51
360.0
  0
ARC
  5
3B5
100
AcDbEntity
  8
M0
 62
     7
100
AcDbCircle
 10
72.991883
 20
304.281359
 40
2.65
100
AcDbArc
 50
9.776849
 51
170.223151
  0
ARC
  5
3B6
100
AcDbEntity
  8
M0
 62
     7
100
AcDbCircle
 10
72.991883
 20
304.281359
 40
2.65
100
AcDbArc
 50
350.223151
 51
369.776849
  0
LINE
  5
3B7
100
AcDbEntity
  8
M0
 62
     7
100
AcDbLine
 10
100.991883
 20
304.281358
 11
100.991883
 21
302.281361
  0
ARC
  5
3B8
100
AcDbEntity
  8
M0
 62
     7
100
AcDbCircle
 10
107.691883
 20
304.281359
 40
2.65
100
AcDbArc
 50
9.776849
 51
170.223151
  0
ARC
  5
3B9
100
AcDbEntity
  8
M0
 62
     7
100
AcDbCircle
 10
127.791883
 20
370.131359
 40
1.0
100
AcDbArc
 50
0.0
 51
90.0
  0
ARC
  5
3BA
100
AcDbEntity
  8
M0
 62
     7
100
AcDbCircle
 10
117.591883
 20
324.281359
 40
0.6
100
AcDbArc
 50
270.0
 51
360.0
  0
ARC
  5
3BB
100
AcDbEntity
  8
M0
 62
     7
100
AcDbCircle
 10
72.991883
 20
304.281359
 40
2.65
100
AcDbArc
 50
170.223151
 51
189.776849
  0
LINE
  5
3BC
100
AcDbEntity
  8
M0
 62
     7
100
AcDbLine
 10
110.291884
 20
380.281359
 11
110.291884
 21
388.28136
  0
LINE
  5
3BD
100
AcDbEntity
  8
M0
 62
     7
100
AcDbLine
 10
118.191883
 20
326.581359
 11
125.991883
 21
326.581359
  0
LINE
  5
3BE
100
AcDbEntity
  8
M0
 62
     7
100
AcDbLine
 10
65.791883
 20
307.28136
 11
70.741883
 21
307.28136
  0
LINE
  5
3BF
100
AcDbEntity
  8
M0
 62
     7
100
AcDbLine
 10
107.241882
 20
303.831361
 11
107.241882
 21
303.08136
  0
LINE
  5
3C0
100
AcDbEntity
  8
M0
 62
     7
100
AcDbLine
 10
88.754432
 20
384.53136
 11
87.73037
 21
384.53136
  0
LINE
  5
3C1
100
AcDbEntity
  8
M0
 62
     7
100
AcDbLine
 10
110.291884
 20
388.28136
 11
109.791883
 21
388.781361
  0
LINE
  5
3C2
100
AcDbEntity
  8
M0
 62
     7
100
AcDbLine
 10
92.341883
 20
307.28136
 11
97.291883
 21
307.28136
  0
LINE
  5
3C3
100
AcDbEntity
  8
M0
 62
     7
100
AcDbLine
 10
114.891883
 20
380.281359
 11
109.941883
 21
380.281359
  0
ARC
  5
3C4
100
AcDbEntity
  8
M0
 62
     7
100
AcDbCircle
 10
63.091883
 20
317.031359
 40
0.6
100
AcDbArc
 50
180.0
 51
270.0
  0
LINE
  5
3C5
100
AcDbEntity
  8
M0
 62
     7
100
AcDbLine
 10
83.391883
 20
307.28136
 11
88.341883
 21
307.28136
  0
LINE
  5
3C6
100
AcDbEntity
  8
M0
 62
     7
100
AcDbLine
 10
108.141883
 20
304.731358
 11
109.279333
 21
304.731358
  0
LINE
  5
3C7
100
AcDbEntity
  8
M0
 62
     7
100
AcDbLine
 10
109.941883
 20
307.28136
 11
114.891883
 21
307.28136
  0
LINE
  5
3C8
100
AcDbEntity
  8
M0
 62
     7
100
AcDbLine
 10
100.991883
 20
307.28136
 11
105.941883
 21
307.28136
  0
ARC
  5
3C9
100
AcDbEntity
  8
M0
 62
     7
100
AcDbCircle
 10
71.141883
 20
381.131359
 40
0.5
100
AcDbArc
 50
180.0
 51
270.0
  0
ARC
  5
3CA
100
AcDbEntity
  8
M0
 62
     7
100
AcDbCircle
 10
77.641883
 20
381.131359
 40
0.5
100
AcDbArc
 50
270.0
 51
360.0
  0
ARC
  5
3CB
100
AcDbEntity
  8
M0
 62
     7
100
AcDbCircle
 10
55.341883
 20
319.531359
 40
0.5
100
AcDbArc
 50
180.0
 51
270.0
  0
ARC
  5
3CC
100
AcDbEntity
  8
M0
 62
     7
100
AcDbCircle
 10
77.641883
 20
387.631359
 40
0.5
100
AcDbArc
 50
0.0
 51
90.0
  0
ARC
  5
3CD
100
AcDbEntity
  8
M0
 62
     7
100
AcDbCircle
 10
118.841883
 20
319.531359
 40
0.5
100
AcDbArc
 50
180.0
 51
270.0
  0
ARC
  5
3CE
100
AcDbEntity
  8
M0
 62
     7
100
AcDbCircle
 10
61.841883
 20
319.531359
 40
0.5
100
AcDbArc
 50
270.0
 51
360.0
  0
ARC
  5
3CF
100
AcDbEntity
  8
M0
 62
     7
100
AcDbCircle
 10
125.341883
 20
327.13136
 40
0.5
100
AcDbArc
 50
270.0
 51
360.0
  0
ARC
  5
3D0
100
AcDbEntity
  8
M0
 62
     7
100
AcDbCircle
 10
62.441883
 20
304.781359
 40
0.5
100
AcDbArc
 50
180.0
 51
270.0
  0
ARC
  5
3D1
100
AcDbEntity
  8
M0
 62
     7
100
AcDbCircle
 10
125.341882
 20
333.63136
 40
0.5
100
AcDbArc
 50
0.0
 51
90.0
  0
ARC
  5
3D2
100
AcDbEntity
  8
M0
 62
     7
100
AcDbCircle
 10
61.891883
 20
383.281359
 40
2.0
100
AcDbArc
 50
53.130102
 51
90.0
  0
ARC
  5
3D3
100
AcDbEntity
  8
M0
 62
     7
100
AcDbCircle
 10
55.341883
 20
326.031359
 40
0.5
100
AcDbArc
 50
90.0
 51
180.0
  0
ARC
  5
3D4
100
AcDbEntity
  8
M0
 62
     7
100
AcDbCircle
 10
125.341883
 20
327.13136
 40
0.5
100
AcDbArc
 50
270.0
 51
360.0
  0
ARC
  5
3D5
100
AcDbEntity
  8
M0
 62
     7
100
AcDbCircle
 10
118.791883
 20
383.281359
 40
2.0
100
AcDbArc
 50
90.0
 51
126.869898
  0
LINE
  5
3D6
100
AcDbEntity
  8
M0
 62
     7
100
AcDbLine
 10
109.541883
 20
380.631357
 11
103.041884
 21
380.631357
  0
LINE
  5
3D7
100
AcDbEntity
  8
M0
 62
     7
100
AcDbLine
 10
54.841882
 20
368.031358
 11
54.841882
 21
361.531359
  0
LINE
  5
3D8
100
AcDbEntity
  8
M0
 62
     7
100
AcDbLine
 10
53.591883
 20
363.881359
 11
53.691885
 21
363.881359
  0
LINE
  5
3D9
100
AcDbEntity
  8
M0
 62
     7
100
AcDbLine
 10
110.041883
 20
381.131358
 11
110.041883
 21
387.63136
  0
LINE
  5
3DA
100
AcDbEntity
  8
M0
 62
     7
100
AcDbLine
 10
103.041882
 20
388.131361
 11
109.541882
 21
388.131361
  0
LINE
  5
3DB
100
AcDbEntity
  8
M0
 62
     7
100
AcDbLine
 10
53.691885
 20
323.68136
 11
53.591883
 21
323.68136
  0
ARC
  5
3DC
100
AcDbEntity
  8
M0
 62
     7
100
AcDbCircle
 10
61.841883
 20
326.031359
 40
0.5
100
AcDbArc
 50
0.0
 51
90.0
  0
ARC
  5
3DD
100
AcDbEntity
  8
M0
 62
     7
100
AcDbCircle
 10
125.341883
 20
319.53136
 40
0.5
100
AcDbArc
 50
270.0
 51
360.0
  0
ARC
  5
3DE
100
AcDbEntity
  8
M0
 62
     7
100
AcDbCircle
 10
125.341882
 20
326.03136
 40
0.5
100
AcDbArc
 50
0.0
 51
90.0
  0
LINE
  5
3DF
100
AcDbEntity
  8
M0
 62
     7
100
AcDbLine
 10
127.091883
 20
363.881359
 11
126.991881
 21
363.881359
  0
LINE
  5
3E0
100
AcDbEntity
  8
M0
 62
     7
100
AcDbLine
 10
62.341884
 20
368.03136
 11
62.341884
 21
361.53136
  0
ARC
  5
3E1
100
AcDbEntity
  8
M0
 62
     7
100
AcDbCircle
 10
116.591883
 20
385.281359
 40
1.0
100
AcDbArc
 50
0.0
 51
90.0
  0
LINE
  5
3E2
100
AcDbEntity
  8
M0
 62
     7
100
AcDbLine
 10
126.991881
 20
323.68136
 11
127.091883
 21
323.68136
  0
LINE
  5
3E3
100
AcDbEntity
  8
M0
 62
     7
100
AcDbLine
 10
118.341884
 20
361.53136
 11
118.341884
 21
368.031359
  0
LINE
  5
3E4
100
AcDbEntity
  8
M0
 62
     7
100
AcDbLine
 10
125.341883
 20
361.031359
 11
118.841883
 21
361.031359
  0
LINE
  5
3E5
100
AcDbEntity
  8
M0
 62
     7
100
AcDbLine
 10
78.141883
 20
387.631359
 11
78.141883
 21
381.131358
  0
LINE
  5
3E6
100
AcDbEntity
  8
M0
 62
     7
100
AcDbLine
 10
102.541884
 20
381.131358
 11
102.54188
 21
387.631359
  0
LINE
  5
3E7
100
AcDbEntity
  8
M0
 62
     7
100
AcDbLine
 10
114.891883
 20
302.281361
 11
114.891883
 21
304.281358
  0
LINE
  5
3E8
100
AcDbEntity
  8
M0
 62
     7
100
AcDbLine
 10
118.841883
 20
368.531359
 11
125.341883
 21
368.531359
  0
LINE
  5
3E9
100
AcDbEntity
  8
M0
 62
     7
100
AcDbLine
 10
77.641883
 20
380.631361
 11
71.141883
 21
380.631361
  0
LINE
  5
3EA
100
AcDbEntity
  8
M0
 62
     7
100
AcDbLine
 10
125.841884
 20
368.03136
 11
125.841884
 21
361.531359
  0
LINE
  5
3EB
100
AcDbEntity
  8
M0
 62
     7
100
AcDbLine
 10
61.941883
 20
303.281359
 11
61.941883
 21
304.781359
  0
LINE
  5
3EC
100
AcDbEntity
  8
M0
 62
     7
100
AcDbLine
 10
62.341882
 20
326.031359
 11
62.341882
 21
319.531359
  0
LINE
  5
3ED
100
AcDbEntity
  8
M0
 62
     7
100
AcDbLine
 10
71.141883
 20
388.131358
 11
77.641883
 21
388.131358
  0
LINE
  5
3EE
100
AcDbEntity
  8
M0
 62
     7
100
AcDbLine
 10
70.641883
 20
381.131358
 11
70.641883
 21
387.631359
  0
LINE
  5
3EF
100
AcDbEntity
  8
M0
 62
     7
100
AcDbLine
 10
54.841882
 20
319.531359
 11
54.841882
 21
326.031359
  0
ARC
  5
3F0
100
AcDbEntity
  8
M0
 62
     7
100
AcDbCircle
 10
61.841883
 20
353.93136
 40
0.5
100
AcDbArc
 50
270.0
 51
360.0
  0
ARC
  5
3F1
100
AcDbEntity
  8
M0
 62
     7
100
AcDbCircle
 10
125.341882
 20
333.63136
 40
0.5
100
AcDbArc
 50
0.0
 51
90.0
  0
ARC
  5
3F2
100
AcDbEntity
  8
M0
 62
     7
100
AcDbCircle
 10
55.341883
 20
353.931359
 40
0.5
100
AcDbArc
 50
180.0
 51
270.0
  0
ARC
  5
3F3
100
AcDbEntity
  8
M0
 62
     7
100
AcDbCircle
 10
118.841883
 20
327.131359
 40
0.5
100
AcDbArc
 50
180.0
 51
270.0
  0
ARC
  5
3F4
100
AcDbEntity
  8
M0
 62
     7
100
AcDbCircle
 10
118.841882
 20
333.631359
 40
0.5
100
AcDbArc
 50
90.0
 51
180.0
  0
ARC
  5
3F5
100
AcDbEntity
  8
M0
 62
     7
100
AcDbCircle
 10
55.341883
 20
353.931359
 40
0.5
100
AcDbArc
 50
180.0
 51
270.0
  0
ARC
  5
3F6
100
AcDbEntity
  8
M0
 62
     7
100
AcDbCircle
 10
61.841883
 20
333.631359
 40
0.5
100
AcDbArc
 50
0.0
 51
90.0
  0
ARC
  5
3F7
100
AcDbEntity
  8
M0
 62
     7
100
AcDbCircle
 10
61.841883
 20
327.131359
 40
0.5
100
AcDbArc
 50
270.0
 51
360.0
  0
LINE
  5
3F8
100
AcDbEntity
  8
M0
 62
     7
100
AcDbLine
 10
79.691883
 20
304.281358
 11
79.691883
 21
302.281361
  0
ARC
  5
3F9
100
AcDbEntity
  8
M0
 62
     7
100
AcDbCircle
 10
55.341882
 20
360.431359
 40
0.5
100
AcDbArc
 50
90.0
 51
180.0
  0
ARC
  5
3FA
100
AcDbEntity
  8
M0
 62
     7
100
AcDbCircle
 10
55.341882
 20
360.431359
 40
0.5
100
AcDbArc
 50
90.0
 51
180.0
  0
ARC
  5
3FB
100
AcDbEntity
  8
M0
 62
     7
100
AcDbCircle
 10
61.841882
 20
360.43136
 40
0.5
100
AcDbArc
 50
0.0
 51
90.0
  0
ARC
  5
3FC
100
AcDbEntity
  8
M0
 62
     7
100
AcDbCircle
 10
109.541883
 20
381.13136
 40
0.5
100
AcDbArc
 50
270.0
 51
360.0
  0
ARC
  5
3FD
100
AcDbEntity
  8
M0
 62
     7
100
AcDbCircle
 10
71.141883
 20
387.631359
 40
0.5
100
AcDbArc
 50
90.0
 51
180.0
  0
ARC
  5
3FE
100
AcDbEntity
  8
M0
 62
     7
100
AcDbCircle
 10
61.841883
 20
361.53136
 40
0.5
100
AcDbArc
 50
270.0
 51
360.0
  0
ARC
  5
3FF
100
AcDbEntity
  8
M0
 62
     7
100
AcDbCircle
 10
125.341883
 20
361.531359
 40
0.5
100
AcDbArc
 50
270.0
 51
360.0
  0
ARC
  5
400
100
AcDbEntity
  8
M0
 62
     7
100
AcDbCircle
 10
109.541882
 20
387.63136
 40
0.5
100
AcDbArc
 50
0.0
 51
90.0
  0
ARC
  5
401
100
AcDbEntity
  8
M0
 62
     7
100
AcDbCircle
 10
61.841882
 20
368.03136
 40
0.5
100
AcDbArc
 50
0.0
 51
90.0
  0
ARC
  5
402
100
AcDbEntity
  8
M0
 62
     7
100
AcDbCircle
 10
103.041883
 20
381.131359
 40
0.5
100
AcDbArc
 50
180.0
 51
270.0
  0
ARC
  5
403
100
AcDbEntity
  8
M0
 62
     7
100
AcDbCircle
 10
109.541883
 20
381.13136
 40
0.5
100
AcDbArc
 50
270.0
 51
360.0
  0
ARC
  5
404
100
AcDbEntity
  8
M0
 62
     7
100
AcDbCircle
 10
103.041882
 20
387.631359
 40
0.5
100
AcDbArc
 50
90.0
 51
180.0
  0
ARC
  5
405
100
AcDbEntity
  8
M0
 62
     7
100
AcDbCircle
 10
109.541882
 20
387.63136
 40
0.5
100
AcDbArc
 50
0.0
 51
90.0
  0
ARC
  5
406
100
AcDbEntity
  8
M0
 62
     7
100
AcDbCircle
 10
118.841883
 20
368.031359
 40
0.5
100
AcDbArc
 50
90.0
 51
180.0
  0
ARC
  5
407
100
AcDbEntity
  8
M0
 62
     7
100
AcDbCircle
 10
55.341883
 20
361.531359
 40
0.5
100
AcDbArc
 50
180.0
 51
270.0
  0
ARC
  5
408
100
AcDbEntity
  8
M0
 62
     7
100
AcDbCircle
 10
55.341882
 20
368.031359
 40
0.5
100
AcDbArc
 50
90.0
 51
180.0
  0
ARC
  5
409
100
AcDbEntity
  8
M0
 62
     7
100
AcDbCircle
 10
67.388751
 20
355.630616
 40
5.573176
100
AcDbArc
 50
208.520126
 51
219.557059
  0
ARC
  5
40A
100
AcDbEntity
  8
M0
 62
     7
100
AcDbCircle
 10
63.091883
 20
363.281359
 40
0.6
100
AcDbArc
 50
90.0
 51
180.0
  0
ARC
  5
40B
100
AcDbEntity
  8
M0
 62
     7
100
AcDbCircle
 10
126.991883
 20
370.131359
 40
1.0
100
AcDbArc
 50
90.0
 51
180.0
  0
ARC
  5
40C
100
AcDbEntity
  8
M0
 62
     7
100
AcDbCircle
 10
52.891883
 20
370.131359
 40
1.0
100
AcDbArc
 50
90.0
 51
180.0
  0
ARC
  5
40D
100
AcDbEntity
  8
M0
 62
     7
100
AcDbCircle
 10
53.691883
 20
370.131359
 40
1.0
100
AcDbArc
 50
0.0
 51
90.0
  0
ARC
  5
40E
100
AcDbEntity
  8
M0
 62
     7
100
AcDbCircle
 10
113.295015
 20
355.630616
 40
5.573176
100
AcDbArc
 50
320.442941
 51
331.479874
  0
ARC
  5
40F
100
AcDbEntity
  8
M0
 62
     7
100
AcDbCircle
 10
55.341883
 20
361.531359
 40
0.5
100
AcDbArc
 50
180.0
 51
270.0
  0
ARC
  5
410
100
AcDbEntity
  8
M0
 62
     7
100
AcDbCircle
 10
118.841883
 20
361.531359
 40
0.5
100
AcDbArc
 50
180.0
 51
270.0
  0
ARC
  5
411
100
AcDbEntity
  8
M0
 62
     7
100
AcDbCircle
 10
125.341883
 20
368.031359
 40
0.5
100
AcDbArc
 50
0.0
 51
90.0
  0
ARC
  5
412
100
AcDbEntity
  8
M0
 62
     7
100
AcDbCircle
 10
52.891883
 20
324.681359
 40
1.0
100
AcDbArc
 50
180.0
 51
270.0
  0
ARC
  5
413
100
AcDbEntity
  8
M0
 62
     7
100
AcDbCircle
 10
117.591883
 20
363.281359
 40
0.6
100
AcDbArc
 50
0.0
 51
90.0
  0
ARC
  5
414
100
AcDbEntity
  8
M0
 62
     7
100
AcDbCircle
 10
55.341882
 20
368.031359
 40
0.5
100
AcDbArc
 50
90.0
 51
180.0
  0
ARC
  5
415
100
AcDbEntity
  8
M0
 62
     7
100
AcDbCircle
 10
115.149891
 20
333.187318
 40
3.350514
100
AcDbArc
 50
24.780822
 51
43.210715
  0
LINE
  5
416
100
AcDbEntity
  8
M0
 62
     7
100
AcDbLine
 10
54.691883
 20
348.481359
 11
54.691883
 21
370.13136
  0
LINE
  5
417
100
AcDbEntity
  8
M0
 62
     7
100
AcDbLine
 10
62.491883
 20
334.59168
 11
62.491883
 21
317.031359
  0
LINE
  5
418
100
AcDbEntity
  8
M0
 62
     7
100
AcDbLine
 10
65.791883
 20
320.881359
 11
65.791883
 21
321.081359
  0
LINE
  5
419
100
AcDbEntity
  8
M0
 62
     7
100
AcDbLine
 10
118.191883
 20
353.08136
 11
125.991883
 21
353.08136
  0
LINE
  5
41A
100
AcDbEntity
  8
M0
 62
     7
100
AcDbLine
 10
127.791884
 20
316.43136
 11
126.991881
 21
316.43136
  0
LINE
  5
41B
100
AcDbEntity
  8
M0
 62
     7
100
AcDbLine
 10
83.391883
 20
321.081359
 11
83.391883
 21
302.281359
  0
LINE
  5
41C
100
AcDbEntity
  8
M0
 62
     7
100
AcDbLine
 10
114.891883
 20
320.881359
 11
114.891883
 21
321.081359
  0
LINE
  5
41D
100
AcDbEntity
  8
M0
 62
     7
100
AcDbLine
 10
114.891883
 20
366.48136
 11
114.891883
 21
366.68136
  0
ARC
  5
41E
100
AcDbEntity
  8
M0
 62
     7
100
AcDbCircle
 10
55.341883
 20
333.631359
 40
0.5
100
AcDbArc
 50
90.0
 51
180.0
  0
LINE
  5
41F
100
AcDbEntity
  8
M0
 62
     7
100
AcDbLine
 10
126.991881
 20
371.131359
 11
127.791884
 21
371.131359
  0
LINE
  5
420
100
AcDbEntity
  8
M0
 62
     7
100
AcDbLine
 10
62.491883
 20
370.53136
 11
62.491883
 21
352.969606
  0
LINE
  5
421
100
AcDbEntity
  8
M0
 62
     7
100
AcDbLine
 10
61.841883
 20
361.031361
 11
55.341884
 21
361.031354
  0
LINE
  5
422
100
AcDbEntity
  8
M0
 62
     7
100
AcDbLine
 10
53.691885
 20
371.131359
 11
52.891882
 21
371.131359
  0
LINE
  5
423
100
AcDbEntity
  8
M0
 62
     7
100
AcDbLine
 10
125.991883
 20
334.481359
 11
118.191883
 21
334.481359
  0
LINE
  5
424
100
AcDbEntity
  8
M0
 62
     7
100
AcDbLine
 10
122.491883
 20
340.081359
 11
126.991881
 21
340.081359
  0
LINE
  5
425
100
AcDbEntity
  8
M0
 62
     7
100
AcDbLine
 10
118.191883
 20
370.531359
 11
118.191883
 21
352.997875
  0
CIRCLE
  5
426
100
AcDbEntity
  8
M0
 62
     7
100
AcDbCircle
 10
72.991883
 20
304.281359
 40
2.85
  0
ARC
  5
427
100
AcDbEntity
  8
M0
 62
     7
100
AcDbCircle
 10
72.991883
 20
304.281359
 40
2.65
100
AcDbArc
 50
189.776849
 51
350.223151
  0
LINE
  5
428
100
AcDbEntity
  8
M0
 62
     7
100
AcDbLine
 10
52.891882
 20
340.081359
 11
58.191883
 21
340.081359
  0
LINE
  5
429
100
AcDbEntity
  8
M0
 62
     7
100
AcDbLine
 10
52.891882
 20
323.68136
 11
53.691885
 21
323.68136
  0
LINE
  5
42A
100
AcDbEntity
  8
M0
 62
     7
100
AcDbLine
 10
58.191883
 20
347.481359
 11
58.191883
 21
340.081359
  0
LINE
  5
42B
100
AcDbEntity
  8
M0
 62
     7
100
AcDbLine
 10
122.491883
 20
347.481359
 11
122.491883
 21
340.081359
  0
LINE
  5
42C
100
AcDbEntity
  8
M0
 62
     7
100
AcDbLine
 10
126.991881
 20
347.481359
 11
122.491883
 21
347.481359
  0
CIRCLE
  5
42D
100
AcDbEntity
  8
M0
 62
     7
100
AcDbCircle
 10
72.991883
 20
304.281359
 40
2.825
  0
LINE
  5
42E
100
AcDbEntity
  8
M0
 62
     7
100
AcDbLine
 10
127.791884
 20
323.68136
 11
126.991881
 21
323.68136
  0
LINE
  5
42F
100
AcDbEntity
  8
M0
 62
     7
100
AcDbLine
 10
62.491883
 20
353.08136
 11
54.691883
 21
353.08136
  0
LINE
  5
430
100
AcDbEntity
  8
M0
 62
     7
100
AcDbLine
 10
223.728325
 20
325.781351
 11
177.228324
 21
325.781351
  0
LINE
  5
431
100
AcDbEntity
  8
M0
 62
     7
100
AcDbLine
 10
182.328325
 20
348.781349
 11
177.228324
 21
348.781349
  0
LINE
  5
432
100
AcDbEntity
  8
M0
 62
     7
100
AcDbLine
 10
177.228324
 20
350.981349
 11
182.328325
 21
350.981349
  0
LINE
  5
433
100
AcDbEntity
  8
M0
 62
     7
100
AcDbLine
 10
182.328325
 20
350.981349
 11
182.328325
 21
360.781349
  0
ARC
  5
434
100
AcDbEntity
  8
M0
 62
     7
100
AcDbCircle
 10
224.428325
 20
361.039535
 40
0.5
100
AcDbArc
 50
0.0
 51
44.92732
  0
ARC
  5
435
100
AcDbEntity
  8
M0
 62
     7
100
AcDbCircle
 10
183.328325
 20
360.781349
 40
1.0
100
AcDbArc
 50
90.0
 51
180.0
  0
ARC
  5
436
100
AcDbEntity
  8
M0
 62
     7
100
AcDbCircle
 10
178.728325
 20
339.481349
 40
0.5
100
AcDbArc
 50
180.0
 51
270.0
  0
ARC
  5
437
100
AcDbEntity
  8
M0
 62
     7
100
AcDbCircle
 10
178.728325
 20
348.081349
 40
0.5
100
AcDbArc
 50
90.0
 51
180.0
  0
LINE
  5
438
100
AcDbEntity
  8
M0
 62
     7
100
AcDbLine
 10
229.228325
 20
358.281349
 11
229.228325
 21
331.68135
  0
LINE
  5
439
100
AcDbEntity
  8
M0
 62
     7
100
AcDbLine
 10
224.928325
 20
343.78135
 11
224.928325
 21
339.78135
  0
LINE
  5
43A
100
AcDbEntity
  8
M0
 62
     7
100
AcDbLine
 10
182.328325
 20
336.581349
 11
177.228325
 21
336.581349
  0
LINE
  5
43B
100
AcDbEntity
  8
M0
 62
     7
100
AcDbLine
 10
228.228325
 20
330.68135
 11
227.672066
 21
330.68135
  0
LINE
  5
43C
100
AcDbEntity
  8
M0
 62
     7
100
AcDbLine
 10
224.728325
 20
360.781349
 11
224.728325
 21
361.281349
  0
LINE
  5
43D
100
AcDbEntity
  8
M0
 62
     7
100
AcDbLine
 10
177.228325
 20
361.781349
 11
224.228325
 21
361.781349
  0
LINE
  5
43E
100
AcDbEntity
  8
M0
 62
     7
100
AcDbLine
 10
229.228325
 20
339.78135
 11
224.928325
 21
339.78135
  0
LINE
  5
43F
100
AcDbEntity
  8
M0
 62
     7
100
AcDbLine
 10
179.228324
 20
348.58135
 11
181.828323
 21
348.58135
  0
ARC
  5
440
100
AcDbEntity
  8
M0
 62
     7
100
AcDbCircle
 10
183.328325
 20
326.781349
 40
1.0
100
AcDbArc
 50
180.0
 51
270.0
  0
ARC
  5
441
100
AcDbEntity
  8
M0
 62
     7
100
AcDbCircle
 10
223.728325
 20
326.781349
 40
1.0
100
AcDbArc
 50
270.0
 51
360.0
  0
ARC
  5
442
100
AcDbEntity
  8
M0
 62
     7
100
AcDbCircle
 10
181.828325
 20
348.081349
 40
0.5
100
AcDbArc
 50
0.0
 51
90.0
  0
ARC
  5
443
100
AcDbEntity
  8
M0
 62
     7
100
AcDbCircle
 10
181.828325
 20
339.481349
 40
0.5
100
AcDbArc
 50
270.0
 51
360.0
  0
LINE
  5
444
100
AcDbEntity
  8
M0
 62
     7
100
AcDbLine
 10
171.228326
 20
360.781349
 11
171.228326
 21
326.781349
  0
ARC
  5
445
100
AcDbEntity
  8
M0
 62
     7
100
AcDbCircle
 10
177.228325
 20
337.581349
 40
1.0
100
AcDbArc
 50
180.0
 51
270.0
  0
ARC
  5
446
100
AcDbEntity
  8
M0
 62
     7
100
AcDbCircle
 10
177.228325
 20
337.781349
 40
1.0
100
AcDbArc
 50
90.0
 51
180.0
  0
LINE
  5
447
100
AcDbEntity
  8
M0
 62
     7
100
AcDbLine
 10
184.028323
 20
325.781351
 11
177.228324
 21
325.781351
  0
ARC
  5
448
100
AcDbEntity
  8
M0
 62
     7
100
AcDbCircle
 10
228.228325
 20
355.881349
 40
1.0
100
AcDbArc
 50
0.0
 51
90.0
  0
ARC
  5
449
100
AcDbEntity
  8
M0
 62
     7
100
AcDbCircle
 10
177.228325
 20
360.781349
 40
1.0
100
AcDbArc
 50
90.0
 51
180.0
  0
ARC
  5
44A
100
AcDbEntity
  8
M0
 62
     7
100
AcDbCircle
 10
224.228325
 20
361.281349
 40
0.5
100
AcDbArc
 50
0.0
 51
90.0
  0
ARC
  5
44B
100
AcDbEntity
  8
M0
 62
     7
100
AcDbCircle
 10
177.228325
 20
349.981349
 40
1.0
100
AcDbArc
 50
90.0
 51
180.0
  0
ARC
  5
44C
100
AcDbEntity
  8
M0
 62
     7
100
AcDbCircle
 10
228.228325
 20
331.681349
 40
1.0
100
AcDbArc
 50
270.0
 51
360.0
  0
ARC
  5
44D
100
AcDbEntity
  8
M0
 62
     7
100
AcDbCircle
 10
223.928331
 20
326.781344
 40
0.999994
100
AcDbArc
 50
270.0
 51
360.0
  0
ARC
  5
44E
100
AcDbEntity
  8
M0
 62
     7
100
AcDbCircle
 10
177.228325
 20
326.781349
 40
1.0
100
AcDbArc
 50
180.0
 51
270.0
  0
ARC
  5
44F
100
AcDbEntity
  8
M0
 62
     7
100
AcDbCircle
 10
177.228325
 20
349.781349
 40
1.0
100
AcDbArc
 50
180.0
 51
270.0
  0
LINE
  5
450
100
AcDbEntity
  8
M0
 62
     7
100
AcDbLine
 10
177.228325
 20
338.781349
 11
182.328325
 21
338.781349
  0
LINE
  5
451
100
AcDbEntity
  8
M0
 62
     7
100
AcDbLine
 10
229.228325
 20
347.781349
 11
224.93105
 21
347.781349
  0
LINE
  5
452
100
AcDbEntity
  8
M0
 62
     7
100
AcDbLine
 10
224.928325
 20
361.039535
 11
224.928325
 21
356.881349
  0
LINE
  5
453
100
AcDbEntity
  8
M0
 62
     7
100
AcDbLine
 10
227.672066
 20
356.881349
 11
228.228325
 21
356.881349
  0
LINE
  5
454
100
AcDbEntity
  8
M0
 62
     7
100
AcDbLine
 10
223.228325
 20
361.781349
 11
223.923978
 21
361.781349
  0
LINE
  5
455
100
AcDbEntity
  8
M0
 62
     7
100
AcDbLine
 10
224.728325
 20
360.781349
 11
224.728325
 21
326.781349
  0
LINE
  5
456
100
AcDbEntity
  8
M0
 62
     7
100
AcDbLine
 10
179.228324
 20
348.58135
 11
178.728323
 21
348.58135
  0
LINE
  5
457
100
AcDbEntity
  8
M0
 62
     7
100
AcDbLine
 10
227.978325
 20
356.881349
 11
224.928325
 21
356.881349
  0
LINE
  5
458
100
AcDbEntity
  8
M0
 62
     7
100
AcDbLine
 10
224.928325
 20
356.881349
 11
227.672066
 21
356.881349
  0
LINE
  5
459
100
AcDbEntity
  8
M0
 62
     7
100
AcDbLine
 10
178.398505
 20
348.781349
 11
178.398505
 21
348.457138
  0
LINE
  5
45A
100
AcDbEntity
  8
M0
 62
     7
100
AcDbLine
 10
227.228325
 20
360.781349
 11
227.228325
 21
361.781349
  0
LINE
  5
45B
100
AcDbEntity
  8
M0
 62
     7
100
AcDbLine
 10
178.228326
 20
344.831349
 11
177.728325
 21
344.831349
  0
LINE
  5
45C
100
AcDbEntity
  8
M0
 62
     7
100
AcDbLine
 10
176.228326
 20
326.781349
 11
176.228326
 21
360.781349
  0
LINE
  5
45D
100
AcDbEntity
  8
M0
 62
     7
100
AcDbLine
 10
229.228325
 20
358.281349
 11
228.228325
 21
361.781349
  0
LINE
  5
45E
100
AcDbEntity
  8
M0
 62
     7
100
AcDbLine
 10
224.93105
 20
347.781349
 11
224.93105
 21
343.78135
  0
LINE
  5
45F
100
AcDbEntity
  8
M0
 62
     7
100
AcDbLine
 10
227.228325
 20
361.781349
 11
228.228325
 21
361.781349
  0
LINE
  5
460
100
AcDbEntity
  8
M0
 62
     7
100
AcDbLine
 10
227.228325
 20
356.881349
 11
227.228325
 21
360.781349
  0
LINE
  5
461
100
AcDbEntity
  8
M0
 62
     7
100
AcDbLine
 10
181.928325
 20
338.991452
 11
181.928325
 21
338.781349
  0
LINE
  5
462
100
AcDbEntity
  8
M0
 62
     7
100
AcDbLine
 10
177.728325
 20
344.781349
 11
178.228326
 21
344.781349
  0
LINE
  5
463
100
AcDbEntity
  8
M0
 62
     7
100
AcDbLine
 10
227.672066
 20
330.68135
 11
224.928325
 21
330.68135
  0
LINE
  5
464
100
AcDbEntity
  8
M0
 62
     7
100
AcDbLine
 10
183.328327
 20
325.781351
 11
177.228324
 21
325.781351
  0
LINE
  5
465
100
AcDbEntity
  8
M0
 62
     7
100
AcDbLine
 10
182.328325
 20
326.781349
 11
182.328325
 21
336.581349
  0
LINE
  5
466
100
AcDbEntity
  8
M0
 62
     7
100
AcDbLine
 10
182.328325
 20
338.781349
 11
182.328325
 21
348.781349
  0
LINE
  5
467
100
AcDbEntity
  8
M0
 62
     7
100
AcDbLine
 10
183.828324
 20
325.781351
 11
177.228324
 21
325.781351
  0
LINE
  5
468
100
AcDbEntity
  8
M0
 62
     7
100
AcDbLine
 10
178.398505
 20
338.781349
 11
178.398505
 21
339.10556
  0
LINE
  5
469
100
AcDbEntity
  8
M0
 62
     7
100
AcDbLine
 10
178.728323
 20
338.981349
 11
179.228324
 21
338.981349
  0
LINE
  5
46A
100
AcDbEntity
  8
M0
 62
     7
100
AcDbLine
 10
181.828323
 20
338.981349
 11
179.228324
 21
338.981349
  0
LINE
  5
46B
100
AcDbEntity
  8
M0
 62
     7
100
AcDbLine
 10
178.228326
 20
339.48135
 11
178.228326
 21
348.081349
  0
LINE
  5
46C
100
AcDbEntity
  8
M0
 62
     7
100
AcDbLine
 10
227.878325
 20
343.78135
 11
227.878325
 21
347.781349
  0
LINE
  5
46D
100
AcDbEntity
  8
M0
 62
     7
100
AcDbLine
 10
177.728325
 20
348.781349
 11
177.728325
 21
338.781349
  0
LINE
  5
46E
100
AcDbEntity
  8
M0
 62
     7
100
AcDbLine
 10
224.928325
 20
330.68135
 11
224.928325
 21
326.781349
  0
LINE
  5
46F
100
AcDbEntity
  8
M0
 62
     7
100
AcDbLine
 10
227.878325
 20
339.78135
 11
227.878325
 21
343.78135
  0
LINE
  5
470
100
AcDbEntity
  8
M0
 62
     7
100
AcDbLine
 10
224.780084
 20
361.389285
 11
224.688974
 21
361.475138
  0
LINE
  5
471
100
AcDbEntity
  8
M0
 62
     7
100
AcDbLine
 10
181.928325
 20
348.571247
 11
181.928325
 21
348.781349
  0
LINE
  5
472
100
AcDbEntity
  8
M0
  6
DIVIDE
 62
     7
100
AcDbLine
 10
316.328323
 20
357.281359
 11
309.828323
 21
357.281359
  0
LINE
  5
473
100
AcDbEntity
  8
M0
  6
DIVIDE
 62
     7
100
AcDbLine
 10
316.328323
 20
330.281359
 11
309.828323
 21
330.281359
  0
LINE
  5
474
100
AcDbEntity
  8
M0
  6
DIVIDE
 62
     7
100
AcDbLine
 10
315.328323
 20
356.281359
 11
308.828323
 21
356.281359
  0
LINE
  5
475
100
AcDbEntity
  8
M0
  6
DIVIDE
 62
     7
100
AcDbLine
 10
309.828323
 20
330.281359
 11
309.828323
 21
326.281359
  0
LINE
  5
476
100
AcDbEntity
  8
M0
  6
DIVIDE
 62
     7
100
AcDbLine
 10
315.328323
 20
331.281359
 11
308.828323
 21
331.281359
  0
LINE
  5
477
100
AcDbEntity
  8
M0
  6
DIVIDE
 62
     7
100
AcDbLine
 10
308.828323
 20
331.281359
 11
308.828323
 21
326.281359
  0
LINE
  5
478
100
AcDbEntity
  8
M0
  6
DIVIDE
 62
     7
100
AcDbLine
 10
309.828323
 20
361.281359
 11
308.828323
 21
361.281359
  0
LINE
  5
479
100
AcDbEntity
  8
M0
  6
DIVIDE
 62
     7
100
AcDbLine
 10
316.328323
 20
330.281359
 11
316.328323
 21
357.281359
  0
LINE
  5
47A
100
AcDbEntity
  8
M0
  6
DIVIDE
 62
     7
100
AcDbLine
 10
308.828323
 20
361.281359
 11
308.828323
 21
356.281359
  0
LINE
  5
47B
100
AcDbEntity
  8
M0
  6
DIVIDE
 62
     7
100
AcDbLine
 10
309.828323
 20
361.281359
 11
309.828323
 21
357.281359
  0
LINE
  5
47C
100
AcDbEntity
  8
M0
  6
DIVIDE
 62
     7
100
AcDbLine
 10
308.828323
 20
326.281359
 11
309.828323
 21
326.281359
  0
LINE
  5
47D
100
AcDbEntity
  8
M0
  6
DIVIDE
 62
     7
100
AcDbLine
 10
315.328323
 20
356.281359
 11
315.328323
 21
331.281359
  0
LINE
  5
47E
100
AcDbEntity
  8
M0
  6
DASHED
 62
     7
100
AcDbLine
 10
182.328326
 20
359.306349
 11
182.328326
 21
356.456349
  0
LINE
  5
47F
100
AcDbEntity
  8
M0
  6
DASHED
 62
     7
100
AcDbLine
 10
183.328326
 20
361.706349
 11
182.328326
 21
361.706349
  0
LINE
  5
480
100
AcDbEntity
  8
M0
  6
DASHED
 62
     7
100
AcDbLine
 10
182.328326
 20
361.706349
 11
182.328326
 21
354.056349
  0
LINE
  5
481
100
AcDbEntity
  8
M0
  6
DASHED
 62
     7
100
AcDbLine
 10
182.328326
 20
334.906351
 11
182.328326
 21
332.056351
  0
LINE
  5
482
100
AcDbEntity
  8
M0
 62
     7
100
AcDbLine
 10
80.404089
 20
348.28136
 11
81.69869
 21
345.51216
  0
LINE
  5
483
100
AcDbEntity
  8
M0
 62
     7
100
AcDbLine
 10
76.99105
 20
345.51216
 11
77.724888
 21
345.51216
  0
LINE
  5
484
100
AcDbEntity
  8
M0
 62
     7
100
AcDbLine
 10
89.341683
 20
348.28136
 11
88.607844
 21
348.28136
  0
LINE
  5
485
100
AcDbEntity
  8
M0
 62
     7
100
AcDbLine
 10
80.881777
 20
345.51216
 11
81.69869
 21
345.51216
  0
LINE
  5
486
100
AcDbEntity
  8
M0
 62
     7
100
AcDbLine
 10
79.026412
 20
345.51216
 11
79.266715
 21
346.107538
  0
LINE
  5
487
100
AcDbEntity
  8
M0
 62
     7
100
AcDbLine
 10
74.872613
 20
348.28136
 11
74.872613
 21
345.51216
  0
LINE
  5
488
100
AcDbEntity
  8
M0
 62
     7
100
AcDbLine
 10
106.341883
 20
341.081363
 11
100.341883
 21
341.081363
  0
LINE
  5
489
100
AcDbEntity
  8
M0
 62
     7
100
AcDbLine
 10
88.026312
 20
348.28136
 11
87.292475
 21
348.28136
  0
TEXT
  5
48A
100
AcDbEntity
  8
M0
 62
     7
100
AcDbText
 10
93.466885
 20
336.281363
 40
2.0
  1
５６
 41
0.625
  7
STANDARD
100
AcDbText
  0
LINE
  5
48B
100
AcDbEntity
  8
M0
 62
     7
100
AcDbLine
 10
87.292475
 20
347.17368
 11
85.810953
 21
347.17368
  0
TEXT
  5
48C
100
AcDbEntity
  8
M0
 62
     7
100
AcDbText
 10
71.466876
 20
342.281363
 40
2.0
  1
ＬＡＴＣＨＥＤ
 41
0.625
  7
STANDARD
100
AcDbText
  0
LINE
  5
48D
100
AcDbEntity
  8
M0
 62
     7
100
AcDbLine
 10
87.292475
 20
347.17368
 11
87.292475
 21
348.28136
  0
LINE
  5
48E
100
AcDbEntity
  8
M0
 62
     7
100
AcDbLine
 10
84.700963
 20
346.509072
 11
83.927896
 21
346.509072
  0
TEXT
  5
48F
100
AcDbEntity
  8
M0
 62
     7
100
AcDbText
 10
93.466885
 20
349.281361
 40
2.0
  1
５５
 41
0.625
  7
STANDARD
100
AcDbText
  0
LINE
  5
490
100
AcDbEntity
  8
M0
 62
     7
100
AcDbLine
 10
97.341883
 20
341.581363
 11
100.341883
 21
340.489452
  0
LINE
  5
491
100
AcDbEntity
  8
M0
 62
     7
100
AcDbLine
 10
78.846415
 20
348.28136
 11
75.869525
 21
348.28136
  0
LINE
  5
492
100
AcDbEntity
  8
M0
 62
     7
100
AcDbLine
 10
106.341883
 20
342.081363
 11
100.341883
 21
342.081363
  0
LINE
  5
493
100
AcDbEntity
  8
M0
 62
     7
100
AcDbLine
 10
79.5041
 20
348.28136
 11
78.209499
 21
345.51216
  0
LINE
  5
494
100
AcDbEntity
  8
M0
 62
     7
100
AcDbLine
 10
100.341883
 20
340.489452
 11
100.341883
 21
341.081363
  0
LINE
  5
495
100
AcDbEntity
  8
M0
 62
     7
100
AcDbLine
 10
76.99105
 20
347.810596
 11
76.99105
 21
345.51216
  0
LINE
  5
496
100
AcDbEntity
  8
M0
 62
     7
100
AcDbLine
 10
100.341883
 20
342.081363
 11
100.341883
 21
342.673274
  0
LINE
  5
497
100
AcDbEntity
  8
M0
 62
     7
100
AcDbLine
 10
97.341883
 20
341.581363
 11
100.341883
 21
342.673274
  0
LINE
  5
498
100
AcDbEntity
  8
M0
 62
     7
100
AcDbLine
 10
79.266715
 20
346.107538
 11
80.641474
 21
346.107538
  0
LINE
  5
499
100
AcDbEntity
  8
M0
 62
     7
100
AcDbLine
 10
80.462643
 20
346.55061
 11
79.954094
 21
347.810596
  0
LINE
  5
49A
100
AcDbEntity
  8
M0
 62
     7
100
AcDbLine
 10
72.075721
 20
348.28136
 11
71.341883
 21
348.28136
  0
LINE
  5
49B
100
AcDbEntity
  8
M0
 62
     7
100
AcDbLine
 10
74.291081
 20
348.28136
 11
73.557243
 21
348.28136
  0
LINE
  5
49C
100
AcDbEntity
  8
M0
 62
     7
100
AcDbLine
 10
73.557243
 20
345.51216
 11
74.291081
 21
345.51216
  0
LINE
  5
49D
100
AcDbEntity
  8
M0
 62
     7
100
AcDbLine
 10
106.341883
 20
341.081363
 11
106.341883
 21
342.081363
  0
ARC
  5
49E
100
AcDbEntity
  8
M0
 62
     7
100
AcDbCircle
 10
113.804842
 20
339.481359
 40
0.5
100
AcDbArc
 50
270.0
 51
360.0
  0
ARC
  5
49F
100
AcDbEntity
  8
M0
 62
     7
100
AcDbCircle
 10
113.804842
 20
348.081359
 40
0.5
100
AcDbArc
 50
0.0
 51
90.0
  0
LINE
  5
4A0
100
AcDbEntity
  8
M0
 62
     7
100
AcDbLine
 10
114.304841
 20
348.081359
 11
114.304841
 21
339.48136
  0
LINE
  5
4A1
100
AcDbEntity
  8
M0
 62
     7
100
AcDbLine
 10
85.810953
 20
345.51216
 11
85.810953
 21
346.730608
  0
LINE
  5
4A2
100
AcDbEntity
  8
M0
 62
     7
100
AcDbLine
 10
75.869525
 20
347.810596
 11
76.99105
 21
347.810596
  0
LINE
  5
4A3
100
AcDbEntity
  8
M0
 62
     7
100
AcDbLine
 10
109.441882
 20
348.58136
 11
113.804842
 21
348.58136
  0
LINE
  5
4A4
100
AcDbEntity
  8
M0
 62
     7
100
AcDbLine
 10
75.869525
 20
348.28136
 11
75.869525
 21
347.810596
  0
LINE
  5
4A5
100
AcDbEntity
  8
M0
 62
     7
100
AcDbLine
 10
98.741883
 20
328.58136
 11
106.541884
 21
328.58136
  0
LINE
  5
4A6
100
AcDbEntity
  8
M0
 62
     7
100
AcDbLine
 10
83.541883
 20
327.28136
 11
83.541883
 21
325.781361
  0
ARC
  5
4A7
100
AcDbEntity
  8
M0
 62
     7
100
AcDbCircle
 10
92.741883
 20
328.181359
 40
0.5
100
AcDbArc
 50
270.0
 51
360.0
  0
LINE
  5
4A8
100
AcDbEntity
  8
M0
 62
     7
100
AcDbLine
 10
75.941883
 20
326.781359
 11
75.841884
 21
326.781359
  0
LINE
  5
4A9
100
AcDbEntity
  8
M0
 62
     7
100
AcDbLine
 10
83.641883
 20
327.28136
 11
83.541883
 21
327.28136
  0
ARC
  5
4AA
100
AcDbEntity
  8
M0
 62
     7
100
AcDbCircle
 10
92.741883
 20
331.081359
 40
0.5
100
AcDbArc
 50
0.0
 51
90.0
  0
LINE
  5
4AB
100
AcDbEntity
  8
M0
 62
     7
100
AcDbLine
 10
75.941883
 20
325.781361
 11
75.941883
 21
326.781359
  0
LINE
  5
4AC
100
AcDbEntity
  8
M0
 62
     7
100
AcDbLine
 10
85.810953
 20
346.730608
 11
87.292475
 21
346.730608
  0
LINE
  5
4AD
100
AcDbEntity
  8
M0
 62
     7
100
AcDbLine
 10
85.810953
 20
348.28136
 11
85.077115
 21
348.28136
  0
LINE
  5
4AE
100
AcDbEntity
  8
M0
 62
     7
100
AcDbLine
 10
77.724888
 20
347.810596
 11
77.724888
 21
345.51216
  0
LINE
  5
4AF
100
AcDbEntity
  8
M0
 62
     7
100
AcDbLine
 10
88.607844
 20
345.51216
 11
89.341683
 21
345.51216
  0
LINE
  5
4B0
100
AcDbEntity
  8
M0
 62
     7
100
AcDbLine
 10
77.724888
 20
347.810596
 11
78.846415
 21
347.810596
  0
LINE
  5
4B1
100
AcDbEntity
  8
M0
 62
     7
100
AcDbLine
 10
71.341883
 20
345.51216
 11
72.075721
 21
345.51216
  0
LINE
  5
4B2
100
AcDbEntity
  8
M0
 62
     7
100
AcDbLine
 10
80.462643
 20
346.55061
 11
79.445546
 21
346.55061
  0
LINE
  5
4B3
100
AcDbEntity
  8
M0
 62
     7
100
AcDbLine
 10
88.026312
 20
345.51216
 11
88.026312
 21
348.28136
  0
LINE
  5
4B4
100
AcDbEntity
  8
M0
 62
     7
100
AcDbLine
 10
85.077115
 20
348.28136
 11
85.077115
 21
345.51216
  0
LINE
  5
4B5
100
AcDbEntity
  8
M0
 62
     7
100
AcDbLine
 10
75.60645
 20
348.28136
 11
75.60645
 21
345.51216
  0
LINE
  5
4B6
100
AcDbEntity
  8
M0
 62
     7
100
AcDbLine
 10
78.846415
 20
348.28136
 11
78.846415
 21
347.810596
  0
LINE
  5
4B7
100
AcDbEntity
  8
M0
 62
     7
100
AcDbLine
 10
87.292475
 20
345.51216
 11
87.292475
 21
346.730608
  0
LINE
  5
4B8
100
AcDbEntity
  8
M0
 62
     7
100
AcDbLine
 10
85.810953
 20
347.17368
 11
85.810953
 21
348.28136
  0
LINE
  5
4B9
100
AcDbEntity
  8
M0
 62
     7
100
AcDbLine
 10
80.095162
 20
331.095723
 11
78.327584
 21
329.328023
  0
LINE
  5
4BA
100
AcDbEntity
  8
M0
 62
     7
100
AcDbLine
 10
104.055709
 20
333.835053
 11
102.288131
 21
332.067475
  0
LINE
  5
4BB
100
AcDbEntity
  8
M0
 62
     7
100
AcDbLine
 10
81.332467
 20
328.090718
 11
78.150826
 21
331.272481
  0
LINE
  5
4BC
100
AcDbEntity
  8
M0
 62
     7
100
AcDbLine
 10
104.232467
 20
331.890718
 11
101.050826
 21
335.07248
  0
CIRCLE
  5
4BD
100
AcDbEntity
  8
M0
 62
     7
100
AcDbCircle
 10
102.641883
 20
354.081359
 40
3.0
  0
LINE
  5
4BE
100
AcDbEntity
  8
M0
 62
     7
100
AcDbLine
 10
81.155709
 20
330.035054
 11
79.388131
 21
328.267476
  0
LINE
  5
4BF
100
AcDbEntity
  8
M0
 62
     7
100
AcDbLine
 10
102.995162
 20
334.895722
 11
101.227584
 21
333.128022
  0
LINE
  5
4C0
100
AcDbEntity
  8
M0
 62
     7
100
AcDbLine
 10
102.995162
 20
355.495722
 11
101.227584
 21
353.728022
  0
LINE
  5
4C1
100
AcDbEntity
  8
M0
 62
     7
100
AcDbLine
 10
104.055709
 20
354.435053
 11
102.288131
 21
352.667475
  0
LINE
  5
4C2
100
AcDbEntity
  8
M0
 62
     7
100
AcDbLine
 10
69.341883
 20
346.981359
 11
69.341883
 21
343.78136
  0
LINE
  5
4C3
100
AcDbEntity
  8
M0
 62
     7
100
AcDbLine
 10
81.332467
 20
356.290718
 11
78.150826
 21
359.47248
  0
LINE
  5
4C4
100
AcDbEntity
  8
M0
 62
     7
100
AcDbLine
 10
81.155709
 20
358.235053
 11
79.388131
 21
356.467475
  0
LINE
  5
4C5
100
AcDbEntity
  8
M0
 62
     7
100
AcDbLine
 10
104.232467
 20
352.490718
 11
101.050826
 21
355.67248
  0
LINE
  5
4C6
100
AcDbEntity
  8
M0
 62
     7
100
AcDbLine
 10
80.095162
 20
359.295722
 11
78.327584
 21
357.528022
  0
ARC
  5
4C7
100
AcDbEntity
  8
M0
 62
     7
100
AcDbCircle
 10
83.207905
 20
347.31214
 40
0.706146
100
AcDbArc
 50
2.247463
 51
18.629353
  0
ARC
  5
4C8
100
AcDbEntity
  8
M0
 62
     7
100
AcDbCircle
 10
83.777618
 20
347.331862
 40
0.89999
100
AcDbArc
 50
11.57091
 51
66.454309
  0
ARC
  5
4C9
100
AcDbEntity
  8
M0
 62
     7
100
AcDbCircle
 10
83.207905
 20
346.979836
 40
1.10768
100
AcDbArc
 50
248.465704
 51
287.487613
  0
ARC
  5
4CA
100
AcDbEntity
  8
M0
 62
     7
100
AcDbCircle
 10
83.207905
 20
346.813684
 40
1.10768
100
AcDbArc
 50
72.944058
 51
108.768683
  0
ARC
  5
4CB
100
AcDbEntity
  8
M0
 62
     7
100
AcDbCircle
 10
84.102356
 20
346.869067
 40
1.758441
100
AcDbArc
 50
160.088603
 51
196.481482
  0
ARC
  5
4CC
100
AcDbEntity
  8
M0
 62
     7
100
AcDbCircle
 10
83.207905
 20
346.509072
 40
0.719992
100
AcDbArc
 50
334.356275
 51
360.0
  0
ARC
  5
4CD
100
AcDbEntity
  8
M0
 62
     7
100
AcDbCircle
 10
83.04019
 20
346.554812
 40
0.650762
100
AcDbArc
 50
196.481517
 51
248.465722
  0
CIRCLE
  5
4CE
100
AcDbEntity
  8
M0
 62
     7
100
AcDbCircle
 10
102.641883
 20
333.481359
 40
3.0
  0
ARC
  5
4CF
100
AcDbEntity
  8
M0
 62
     7
100
AcDbCircle
 10
83.378471
 20
347.369639
 40
0.526148
100
AcDbArc
 50
18.629246
 51
72.943922
  0
CIRCLE
  5
4D0
100
AcDbEntity
  8
M0
 62
     7
100
AcDbCircle
 10
79.741883
 20
357.881359
 40
3.0
  0
ARC
  5
4D1
100
AcDbEntity
  8
M0
 62
     7
100
AcDbCircle
 10
83.060893
 20
347.246305
 40
0.650762
100
AcDbArc
 50
108.768698
 51
160.088638
  0
ARC
  5
4D2
100
AcDbEntity
  8
M0
 62
     7
100
AcDbCircle
 10
83.799418
 20
346.446319
 40
0.886144
100
AcDbArc
 50
292.42259
 51
346.150643
  0
CIRCLE
  5
4D3
100
AcDbEntity
  8
M0
 62
     7
100
AcDbCircle
 10
79.741883
 20
329.68136
 40
3.0
  0
ARC
  5
4D4
100
AcDbEntity
  8
M0
 62
     7
100
AcDbCircle
 10
83.207905
 20
347.215218
 40
1.481521
100
AcDbArc
 50
4.824937
 51
11.570943
  0
LINE
  5
4D5
100
AcDbEntity
  8
M0
 62
     7
100
AcDbLine
 10
72.075721
 20
346.730608
 11
73.557243
 21
346.730608
  0
LINE
  5
4D6
100
AcDbEntity
  8
M0
 62
     7
100
AcDbLine
 10
80.881777
 20
345.51216
 11
80.641474
 21
346.107538
  0
LINE
  5
4D7
100
AcDbEntity
  8
M0
 62
     7
100
AcDbLine
 10
74.872613
 20
345.51216
 11
75.60645
 21
345.51216
  0
ARC
  5
4D8
100
AcDbEntity
  8
M0
 62
     7
100
AcDbCircle
 10
83.374056
 20
346.869067
 40
1.799979
100
AcDbArc
 50
161.72132
 51
190.751551
  0
ARC
  5
4D9
100
AcDbEntity
  8
M0
 62
     7
100
AcDbCircle
 10
82.848163
 20
347.042774
 40
1.246139
100
AcDbArc
 50
109.456972
 51
161.721309
  0
LINE
  5
4DA
100
AcDbEntity
  8
M0
 62
     7
100
AcDbLine
 10
84.684177
 20
347.339832
 11
83.913507
 21
347.339832
  0
LINE
  5
4DB
100
AcDbEntity
  8
M0
 62
     7
100
AcDbLine
 10
73.557243
 20
348.28136
 11
73.557243
 21
347.17368
  0
LINE
  5
4DC
100
AcDbEntity
  8
M0
 62
     7
100
AcDbLine
 10
80.404089
 20
348.28136
 11
79.5041
 21
348.28136
  0
LINE
  5
4DD
100
AcDbEntity
  8
M0
 62
     7
100
AcDbLine
 10
72.075721
 20
348.28136
 11
72.075721
 21
347.17368
  0
LINE
  5
4DE
100
AcDbEntity
  8
M0
 62
     7
100
AcDbLine
 10
79.445546
 20
346.55061
 11
79.954094
 21
347.810596
  0
LINE
  5
4DF
100
AcDbEntity
  8
M0
 62
     7
100
AcDbLine
 10
74.291081
 20
348.28136
 11
74.291081
 21
345.51216
  0
LINE
  5
4E0
100
AcDbEntity
  8
M0
 62
     7
100
AcDbLine
 10
78.209499
 20
345.51216
 11
79.026412
 21
345.51216
  0
LINE
  5
4E1
100
AcDbEntity
  8
M0
 62
     7
100
AcDbLine
 10
72.075721
 20
346.730608
 11
72.075721
 21
345.51216
  0
LINE
  5
4E2
100
AcDbEntity
  8
M0
 62
     7
100
AcDbLine
 10
85.077115
 20
345.51216
 11
85.810953
 21
345.51216
  0
LINE
  5
4E3
100
AcDbEntity
  8
M0
 62
     7
100
AcDbLine
 10
87.292475
 20
345.51216
 11
88.026312
 21
345.51216
  0
LINE
  5
4E4
100
AcDbEntity
  8
M0
 62
     7
100
AcDbLine
 10
73.557243
 20
346.730608
 11
73.557243
 21
345.51216
  0
TEXT
  5
4E5
100
AcDbEntity
  8
M0
 62
     7
100
AcDbText
 10
99.866879
 20
344.48136
 40
2.0
  1
ＯＦＦ
 41
0.625
  7
STANDARD
100
AcDbText
  0
LINE
  5
4E6
100
AcDbEntity
  8
M0
 62
     7
100
AcDbLine
 10
75.60645
 20
348.28136
 11
74.872613
 21
348.28136
  0
LINE
  5
4E7
100
AcDbEntity
  8
M0
 62
     7
100
AcDbLine
 10
73.557243
 20
347.17368
 11
72.075721
 21
347.17368
  0
TEXT
  5
4E8
100
AcDbEntity
  8
M0
 62
     7
100
AcDbText
 10
78.366876
 20
336.281363
 40
2.0
  1
Ｅ２
 41
0.625
  7
STANDARD
100
AcDbText
  0
LINE
  5
4E9
100
AcDbEntity
  8
M0
 62
     7
100
AcDbLine
 10
88.607844
 20
345.51216
 11
88.607844
 21
348.28136
  0
ARC
  5
4EA
100
AcDbEntity
  8
M0
 62
     7
100
AcDbCircle
 10
83.382656
 20
346.425182
 40
0.526148
100
AcDbArc
 50
287.487588
 51
334.356243
  0
ARC
  5
4EB
100
AcDbEntity
  8
M0
 62
     7
100
AcDbCircle
 10
82.857145
 20
346.770914
 40
1.273831
100
AcDbArc
 50
190.75155
 51
252.447271
  0
ARC
  5
4EC
100
AcDbEntity
  8
M0
 62
     7
100
AcDbCircle
 10
83.207905
 20
346.592148
 40
1.495367
100
AcDbArc
 50
346.150651
 51
356.815254
  0
TEXT
  5
4ED
100
AcDbEntity
  8
M0
 62
     7
100
AcDbText
 10
71.466876
 20
339.781363
 40
2.0
  1
ＣＯＮＴＡＣＴＯＲ
 41
0.625
  7
STANDARD
100
AcDbText
  0
TEXT
  5
4EE
100
AcDbEntity
  8
M0
 62
     7
100
AcDbText
 10
78.366876
 20
349.281361
 40
2.0
  1
Ｅ１
 41
0.625
  7
STANDARD
100
AcDbText
  0
ARC
  5
4EF
100
AcDbEntity
  8
M0
 62
     7
100
AcDbCircle
 10
83.207905
 20
347.879826
 40
2.436895
100
AcDbArc
 50
252.447278
 51
292.42262
  0
LINE
  5
4F0
100
AcDbEntity
  8
M0
 62
     7
100
AcDbLine
 10
109.841884
 20
360.781359
 11
109.841884
 21
350.981359
  0
LINE
  5
4F1
100
AcDbEntity
  8
M0
 62
     7
100
AcDbLine
 10
106.541884
 20
349.981359
 11
106.541884
 21
360.781359
  0
LINE
  5
4F2
100
AcDbEntity
  8
M0
 62
     7
100
AcDbLine
 10
109.841884
 20
350.981359
 11
112.341883
 21
350.981359
  0
LINE
  5
4F3
100
AcDbEntity
  8
M0
 62
     7
100
AcDbLine
 10
98.741883
 20
360.781359
 11
98.741883
 21
349.981359
  0
LINE
  5
4F4
100
AcDbEntity
  8
M0
 62
     7
100
AcDbLine
 10
75.841884
 20
353.781359
 11
83.641883
 21
353.781359
  0
LINE
  5
4F5
100
AcDbEntity
  8
M0
 62
     7
100
AcDbLine
 10
112.341883
 20
348.781359
 11
109.841884
 21
348.781359
  0
LINE
  5
4F6
100
AcDbEntity
  8
M0
 62
     7
100
AcDbLine
 10
98.741883
 20
349.981359
 11
106.541884
 21
349.981359
  0
LINE
  5
4F7
100
AcDbEntity
  8
M0
 62
     7
100
AcDbLine
 10
75.841884
 20
361.781359
 11
75.841884
 21
360.781359
  0
LINE
  5
4F8
100
AcDbEntity
  8
M0
 62
     7
100
AcDbLine
 10
83.641883
 20
360.781359
 11
83.641883
 21
361.781359
  0
LINE
  5
4F9
100
AcDbEntity
  8
M0
 62
     7
100
AcDbLine
 10
91.341883
 20
331.68136
 11
91.341883
 21
331.581359
  0
LINE
  5
4FA
100
AcDbEntity
  8
M0
 62
     7
100
AcDbLine
 10
114.341883
 20
349.981359
 11
114.341883
 21
349.781359
  0
LINE
  5
4FB
100
AcDbEntity
  8
M0
 62
     7
100
AcDbLine
 10
112.341883
 20
350.981359
 11
113.341883
 21
350.981359
  0
LINE
  5
4FC
100
AcDbEntity
  8
M0
 62
     7
100
AcDbLine
 10
93.241883
 20
331.68136
 11
93.241883
 21
331.581359
  0
LINE
  5
4FD
100
AcDbEntity
  8
M0
 62
     7
100
AcDbLine
 10
113.341883
 20
348.781359
 11
112.341883
 21
348.781359
  0
ARC
  5
4FE
100
AcDbEntity
  8
M0
 62
     7
100
AcDbCircle
 10
88.141883
 20
331.081359
 40
0.5
100
AcDbArc
 50
90.0
 51
180.0
  0
ARC
  5
4FF
100
AcDbEntity
  8
M0
 62
     7
100
AcDbCircle
 10
113.341883
 20
349.781359
 40
1.0
100
AcDbArc
 50
270.0
 51
360.0
  0
LINE
  5
500
100
AcDbEntity
  8
M0
 62
     7
100
AcDbLine
 10
106.391883
 20
357.33136
 11
106.391883
 21
350.831359
  0
ARC
  5
501
100
AcDbEntity
  8
M0
 62
     7
100
AcDbCircle
 10
108.841883
 20
360.781359
 40
1.0
100
AcDbArc
 50
0.0
 51
90.0
  0
ARC
  5
502
100
AcDbEntity
  8
M0
 62
     7
100
AcDbCircle
 10
109.841883
 20
348.281359
 40
0.5
100
AcDbArc
 50
90.0
 51
180.0
  0
ARC
  5
503
100
AcDbEntity
  8
M0
 62
     7
100
AcDbCircle
 10
88.141883
 20
328.181359
 40
0.5
100
AcDbArc
 50
180.0
 51
270.0
  0
ARC
  5
504
100
AcDbEntity
  8
M0
 62
     7
100
AcDbCircle
 10
113.341883
 20
349.981359
 40
1.0
100
AcDbArc
 50
0.0
 51
90.0
  0
LINE
  5
505
100
AcDbEntity
  8
M0
 62
     7
100
AcDbLine
 10
67.341883
 20
361.781359
 11
113.341883
 21
361.781359
  0
LINE
  5
506
100
AcDbEntity
  8
M0
 62
     7
100
AcDbLine
 10
67.341883
 20
346.981359
 11
66.841884
 21
346.981359
  0
LINE
  5
507
100
AcDbEntity
  8
M0
 62
     7
100
AcDbLine
 10
83.641883
 20
353.781359
 11
83.641883
 21
360.781359
  0
LINE
  5
508
100
AcDbEntity
  8
M0
 62
     7
100
AcDbLine
 10
99.391883
 20
357.83136
 11
105.891883
 21
357.83136
  0
LINE
  5
509
100
AcDbEntity
  8
M0
 62
     7
100
AcDbLine
 10
105.891883
 20
350.331359
 11
99.391883
 21
350.331359
  0
LINE
  5
50A
100
AcDbEntity
  8
M0
 62
     7
100
AcDbLine
 10
75.841884
 20
360.781359
 11
75.841884
 21
353.781359
  0
LINE
  5
50B
100
AcDbEntity
  8
M0
 62
     7
100
AcDbLine
 10
114.341883
 20
343.78136
 11
114.304841
 21
343.78136
  0
LINE
  5
50C
100
AcDbEntity
  8
M0
 62
     7
100
AcDbLine
 10
76.491883
 20
361.631359
 11
82.991883
 21
361.631359
  0
ARC
  5
50D
100
AcDbEntity
  8
M0
 62
     7
100
AcDbCircle
 10
99.391883
 20
330.231359
 40
0.5
100
AcDbArc
 50
180.0
 51
270.0
  0
LINE
  5
50E
100
AcDbEntity
  8
M0
 62
     7
100
AcDbLine
 10
82.991883
 20
325.93136
 11
76.491883
 21
325.93136
  0
ARC
  5
50F
100
AcDbEntity
  8
M0
 62
     7
100
AcDbCircle
 10
82.991883
 20
332.931359
 40
0.5
100
AcDbArc
 50
0.0
 51
90.0
  0
ARC
  5
510
100
AcDbEntity
  8
M0
 62
     7
100
AcDbCircle
 10
82.991883
 20
326.431359
 40
0.5
100
AcDbArc
 50
270.0
 51
360.0
  0
LINE
  5
511
100
AcDbEntity
  8
M0
 62
     7
100
AcDbLine
 10
75.991883
 20
326.431359
 11
75.991883
 21
332.931359
  0
ARC
  5
512
100
AcDbEntity
  8
M0
 62
     7
100
AcDbCircle
 10
99.391883
 20
336.731359
 40
0.5
100
AcDbArc
 50
90.0
 51
180.0
  0
LINE
  5
513
100
AcDbEntity
  8
M0
 62
     7
100
AcDbLine
 10
75.991883
 20
354.631359
 11
75.991883
 21
361.131359
  0
ARC
  5
514
100
AcDbEntity
  8
M0
 62
     7
100
AcDbCircle
 10
76.491883
 20
361.131359
 40
0.5
100
AcDbArc
 50
90.0
 51
180.0
  0
LINE
  5
515
100
AcDbEntity
  8
M0
 62
     7
100
AcDbLine
 10
83.491883
 20
361.131359
 11
83.491883
 21
354.63136
  0
LINE
  5
516
100
AcDbEntity
  8
M0
 62
     7
100
AcDbLine
 10
76.491883
 20
333.43136
 11
82.991883
 21
333.43136
  0
LINE
  5
517
100
AcDbEntity
  8
M0
 62
     7
100
AcDbLine
 10
83.491883
 20
332.931359
 11
83.491883
 21
326.431361
  0
LINE
  5
518
100
AcDbEntity
  8
M0
 62
     7
100
AcDbLine
 10
82.991883
 20
354.131359
 11
76.491883
 21
354.131359
  0
ARC
  5
519
100
AcDbEntity
  8
M0
 62
     7
100
AcDbCircle
 10
76.491883
 20
354.631359
 40
0.5
100
AcDbArc
 50
180.0
 51
270.0
  0
ARC
  5
51A
100
AcDbEntity
  8
M0
 62
     7
100
AcDbCircle
 10
99.391883
 20
357.331359
 40
0.5
100
AcDbArc
 50
90.0
 51
180.0
  0
ARC
  5
51B
100
AcDbEntity
  8
M0
 62
     7
100
AcDbCircle
 10
99.391883
 20
350.831359
 40
0.5
100
AcDbArc
 50
180.0
 51
270.0
  0
LINE
  5
51C
100
AcDbEntity
  8
M0
 62
     7
100
AcDbLine
 10
105.891883
 20
329.731361
 11
99.391884
 21
329.731361
  0
ARC
  5
51D
100
AcDbEntity
  8
M0
 62
     7
100
AcDbCircle
 10
105.891883
 20
330.231359
 40
0.5
100
AcDbArc
 50
270.0
 51
360.0
  0
LINE
  5
51E
100
AcDbEntity
  8
M0
 62
     7
100
AcDbLine
 10
93.241883
 20
331.581359
 11
93.241883
 21
329.781358
  0
LINE
  5
51F
100
AcDbEntity
  8
M0
 62
     7
100
AcDbLine
 10
98.891884
 20
330.231358
 11
98.891884
 21
336.731359
  0
ARC
  5
520
100
AcDbEntity
  8
M0
 62
     7
100
AcDbCircle
 10
105.891883
 20
336.731359
 40
0.5
100
AcDbArc
 50
0.0
 51
90.0
  0
ARC
  5
521
100
AcDbEntity
  8
M0
 62
     7
100
AcDbCircle
 10
82.991883
 20
354.631359
 40
0.5
100
AcDbArc
 50
270.0
 51
360.0
  0
ARC
  5
522
100
AcDbEntity
  8
M0
 62
     7
100
AcDbCircle
 10
82.991883
 20
361.131359
 40
0.5
100
AcDbArc
 50
0.0
 51
90.0
  0
ARC
  5
523
100
AcDbEntity
  8
M0
 62
     7
100
AcDbCircle
 10
76.491883
 20
332.931359
 40
0.5
100
AcDbArc
 50
90.0
 51
180.0
  0
LINE
  5
524
100
AcDbEntity
  8
M0
 62
     7
100
AcDbLine
 10
106.391883
 20
336.731359
 11
106.391883
 21
330.231358
  0
LINE
  5
525
100
AcDbEntity
  8
M0
 62
     7
100
AcDbLine
 10
99.391883
 20
337.231359
 11
105.891883
 21
337.231359
  0
ARC
  5
526
100
AcDbEntity
  8
M0
 62
     7
100
AcDbCircle
 10
76.491883
 20
326.431359
 40
0.5
100
AcDbArc
 50
180.0
 51
270.0
  0
LINE
  5
527
100
AcDbEntity
  8
M0
 62
     7
100
AcDbLine
 10
106.541884
 20
358.98136
 11
98.741883
 21
358.98136
  0
LINE
  5
528
100
AcDbEntity
  8
M0
 62
     7
100
AcDbLine
 10
93.241883
 20
328.181361
 11
93.241883
 21
328.681358
  0
LINE
  5
529
100
AcDbEntity
  8
M0
 62
     7
100
AcDbLine
 10
66.341883
 20
326.781359
 11
66.341883
 21
333.281359
  0
LINE
  5
52A
100
AcDbEntity
  8
M0
 62
     7
100
AcDbLine
 10
88.141883
 20
331.581359
 11
92.741883
 21
331.581359
  0
LINE
  5
52B
100
AcDbEntity
  8
M0
 62
     7
100
AcDbLine
 10
92.741883
 20
327.68136
 11
88.141883
 21
327.68136
  0
LINE
  5
52C
100
AcDbEntity
  8
M0
 62
     7
100
AcDbLine
 10
93.541883
 20
331.481359
 11
93.541883
 21
329.781358
  0
LINE
  5
52D
100
AcDbEntity
  8
M0
 62
     7
100
AcDbLine
 10
93.241883
 20
331.081359
 11
93.241883
 21
328.681358
  0
LINE
  5
52E
100
AcDbEntity
  8
M0
 62
     7
100
AcDbLine
 10
66.841884
 20
340.58136
 11
67.341883
 21
340.58136
  0
LINE
  5
52F
100
AcDbEntity
  8
M0
 62
     7
100
AcDbLine
 10
114.341883
 20
360.781359
 11
114.341883
 21
326.781359
  0
LINE
  5
530
100
AcDbEntity
  8
M0
 62
     7
100
AcDbLine
 10
67.341883
 20
340.58136
 11
67.341883
 21
346.981359
  0
LINE
  5
531
100
AcDbEntity
  8
M0
 62
     7
100
AcDbLine
 10
93.541883
 20
327.28136
 11
87.641883
 21
327.28136
  0
LINE
  5
532
100
AcDbEntity
  8
M0
 62
     7
100
AcDbLine
 10
69.841883
 20
325.781361
 11
67.341883
 21
325.781361
  0
LINE
  5
533
100
AcDbEntity
  8
M0
 62
     7
100
AcDbLine
 10
66.341883
 20
326.781359
 11
66.341883
 21
360.781359
  0
LINE
  5
534
100
AcDbEntity
  8
M0
 62
     7
100
AcDbLine
 10
114.304841
 20
343.78136
 11
114.341883
 21
343.78136
  0
ARC
  5
535
100
AcDbEntity
  8
M0
 62
     7
100
AcDbCircle
 10
74.841883
 20
326.781359
 40
1.0
100
AcDbArc
 50
270.0
 51
360.0
  0
ARC
  5
536
100
AcDbEntity
  8
M0
 62
     7
100
AcDbCircle
 10
67.341883
 20
326.781359
 40
1.0
100
AcDbArc
 50
180.0
 51
270.0
  0
ARC
  5
537
100
AcDbEntity
  8
M0
 62
     7
100
AcDbCircle
 10
86.641883
 20
326.781359
 40
1.0
100
AcDbArc
 50
270.0
 51
360.0
  0
ARC
  5
538
100
AcDbEntity
  8
M0
 62
     7
100
AcDbCircle
 10
113.341883
 20
326.781359
 40
1.0
100
AcDbArc
 50
270.0
 51
360.0
  0
ARC
  5
539
100
AcDbEntity
  8
M0
 62
     7
100
AcDbCircle
 10
83.207905
 20
346.024462
 40
2.326127
100
AcDbArc
 50
66.454301
 51
109.456969
  0
ARC
  5
53A
100
AcDbEntity
  8
M0
 62
     7
100
AcDbCircle
 10
84.641883
 20
326.781359
 40
1.0
100
AcDbArc
 50
180.0
 51
270.0
  0
ARC
  5
53B
100
AcDbEntity
  8
M0
 62
     7
100
AcDbCircle
 10
66.841883
 20
340.081359
 40
0.5
100
AcDbArc
 50
90.0
 51
180.0
  0
ARC
  5
53C
100
AcDbEntity
  8
M0
 62
     7
100
AcDbCircle
 10
109.841883
 20
339.281359
 40
0.5
100
AcDbArc
 50
180.0
 51
270.0
  0
ARC
  5
53D
100
AcDbEntity
  8
M0
 62
     7
100
AcDbCircle
 10
108.841883
 20
326.781359
 40
1.0
100
AcDbArc
 50
270.0
 51
360.0
  0
ARC
  5
53E
100
AcDbEntity
  8
M0
 62
     7
100
AcDbCircle
 10
113.341883
 20
337.781359
 40
1.0
100
AcDbArc
 50
0.0
 51
90.0
  0
ARC
  5
53F
100
AcDbEntity
  8
M0
 62
     7
100
AcDbCircle
 10
97.741883
 20
326.781359
 40
1.0
100
AcDbArc
 50
270.0
 51
360.0
  0
ARC
  5
540
100
AcDbEntity
  8
M0
 62
     7
100
AcDbCircle
 10
94.541883
 20
326.781359
 40
1.0
100
AcDbArc
 50
180.0
 51
270.0
  0
ARC
  5
541
100
AcDbEntity
  8
M0
 62
     7
100
AcDbCircle
 10
113.341883
 20
337.581359
 40
1.0
100
AcDbArc
 50
270.0
 51
360.0
  0
ARC
  5
542
100
AcDbEntity
  8
M0
 62
     7
100
AcDbCircle
 10
107.541883
 20
326.781359
 40
1.0
100
AcDbArc
 50
180.0
 51
270.0
  0
ARC
  5
543
100
AcDbEntity
  8
M0
 62
     7
100
AcDbCircle
 10
105.891883
 20
350.831359
 40
0.5
100
AcDbArc
 50
270.0
 51
360.0
  0
LINE
  5
544
100
AcDbEntity
  8
M0
 62
     7
100
AcDbLine
 10
113.804842
 20
338.981359
 11
109.441882
 21
338.981359
  0
ARC
  5
545
100
AcDbEntity
  8
M0
 62
     7
100
AcDbCircle
 10
113.341883
 20
360.781359
 40
1.0
100
AcDbArc
 50
0.0
 51
90.0
  0
LINE
  5
546
100
AcDbEntity
  8
M0
 62
     7
100
AcDbLine
 10
112.341883
 20
336.581359
 11
113.341883
 21
336.581359
  0
LINE
  5
547
100
AcDbEntity
  8
M0
 62
     7
100
AcDbLine
 10
114.341883
 20
337.781359
 11
114.341883
 21
337.58136
  0
ARC
  5
548
100
AcDbEntity
  8
M0
 62
     7
100
AcDbCircle
 10
105.891883
 20
357.331359
 40
0.5
100
AcDbArc
 50
0.0
 51
90.0
  0
LINE
  5
549
100
AcDbEntity
  8
M0
 62
     7
100
AcDbLine
 10
112.341883
 20
338.781359
 11
113.341883
 21
338.781359
  0
ARC
  5
54A
100
AcDbEntity
  8
M0
 62
     7
100
AcDbCircle
 10
97.741883
 20
360.781359
 40
1.0
100
AcDbArc
 50
0.0
 51
90.0
  0
ARC
  5
54B
100
AcDbEntity
  8
M0
 62
     7
100
AcDbCircle
 10
84.641883
 20
360.781359
 40
1.0
100
AcDbArc
 50
90.0
 51
180.0
  0
LINE
  5
54C
100
AcDbEntity
  8
M0
 62
     7
100
AcDbLine
 10
98.891884
 20
350.831359
 11
98.891884
 21
357.331359
  0
ARC
  5
54D
100
AcDbEntity
  8
M0
 62
     7
100
AcDbCircle
 10
67.341883
 20
360.781359
 40
1.0
100
AcDbArc
 50
90.0
 51
180.0
  0
ARC
  5
54E
100
AcDbEntity
  8
M0
 62
     7
100
AcDbCircle
 10
66.841883
 20
347.481359
 40
0.5
100
AcDbArc
 50
180.0
 51
270.0
  0
ARC
  5
54F
100
AcDbEntity
  8
M0
 62
     7
100
AcDbCircle
 10
107.541883
 20
360.781359
 40
1.0
100
AcDbArc
 50
90.0
 51
180.0
  0
ARC
  5
550
100
AcDbEntity
  8
M0
 62
     7
100
AcDbCircle
 10
74.841883
 20
360.781359
 40
1.0
100
AcDbArc
 50
0.0
 51
90.0
  0
LINE
  5
551
100
AcDbEntity
  8
M0
 62
     7
100
AcDbLine
 10
87.641883
 20
331.68136
 11
87.641883
 21
326.781359
  0
LINE
  5
552
100
AcDbEntity
  8
M0
 62
     7
100
AcDbLine
 10
83.641883
 20
326.781359
 11
83.641883
 21
333.781359
  0
LINE
  5
553
100
AcDbEntity
  8
M0
 62
     7
100
AcDbLine
 10
93.541883
 20
326.781359
 11
93.541883
 21
331.68136
  0
LINE
  5
554
100
AcDbEntity
  8
M0
 62
     7
100
AcDbLine
 10
75.841884
 20
333.781359
 11
75.841884
 21
326.781359
  0
LINE
  5
555
100
AcDbEntity
  8
M0
 62
     7
100
AcDbLine
 10
113.341883
 20
325.781361
 11
67.341883
 21
325.781361
  0
LINE
  5
556
100
AcDbEntity
  8
M0
 62
     7
100
AcDbLine
 10
93.541883
 20
331.68136
 11
87.641883
 21
331.68136
  0
LINE
  5
557
100
AcDbEntity
  8
M0
 62
     7
100
AcDbLine
 10
83.641883
 20
333.781359
 11
75.841884
 21
333.781359
  0
LINE
  5
558
100
AcDbEntity
  8
M0
 62
     7
100
AcDbLine
 10
109.841884
 20
336.581359
 11
109.841884
 21
326.781359
  0
LINE
  5
559
100
AcDbEntity
  8
M0
 62
     7
100
AcDbLine
 10
109.341883
 20
348.281359
 11
109.341883
 21
339.281359
  0
LINE
  5
55A
100
AcDbEntity
  8
M0
 62
     7
100
AcDbLine
 10
112.341883
 20
336.581359
 11
109.841884
 21
336.581359
  0
LINE
  5
55B
100
AcDbEntity
  8
M0
 62
     7
100
AcDbLine
 10
106.541884
 20
337.58136
 11
98.741883
 21
337.58136
  0
LINE
  5
55C
100
AcDbEntity
  8
M0
 62
     7
100
AcDbLine
 10
98.741883
 20
337.58136
 11
98.741883
 21
326.781359
  0
LINE
  5
55D
100
AcDbEntity
  8
M0
 62
     7
100
AcDbLine
 10
109.841884
 20
338.781359
 11
112.341883
 21
338.781359
  0
LINE
  5
55E
100
AcDbEntity
  8
M0
 62
     7
100
AcDbLine
 10
106.541884
 20
326.781359
 11
106.541884
 21
337.58136
  0
LINE
  5
55F
100
AcDbEntity
  8
M0
 62
     7
100
AcDbLine
 10
69.841883
 20
352.28136
 11
96.841883
 21
352.28136
  0
LINE
  5
560
100
AcDbEntity
  8
M0
 62
     7
100
AcDbLine
 10
69.341883
 20
351.78136
 11
69.341883
 21
335.78136
  0
LINE
  5
561
100
AcDbEntity
  8
M0
 62
     7
100
AcDbLine
 10
69.841883
 20
335.28136
 11
96.841883
 21
335.28136
  0
LINE
  5
562
100
AcDbEntity
  8
M0
 62
     7
100
AcDbLine
 10
107.341883
 20
339.78136
 11
107.341883
 21
347.78136
  0
LINE
  5
563
100
AcDbEntity
  8
M0
 62
     7
100
AcDbLine
 10
106.841883
 20
339.28136
 11
97.841883
 21
339.28136
  0
LINE
  5
564
100
AcDbEntity
  8
M0
 62
     7
100
AcDbLine
 10
106.841883
 20
348.28136
 11
97.841883
 21
348.28136
  0
LINE
  5
565
100
AcDbEntity
  8
M0
 62
     7
100
AcDbLine
 10
97.341883
 20
335.78136
 11
97.341883
 21
338.78136
  0
LINE
  5
566
100
AcDbEntity
  8
M0
 62
     7
100
AcDbLine
 10
97.341883
 20
348.78136
 11
97.341883
 21
351.78136
  0
ARC
  5
567
100
AcDbEntity
  8
M0
 62
     7
100
AcDbCircle
 10
69.841883
 20
351.78136
 40
0.5
100
AcDbArc
 50
90.0
 51
180.0
  0
ARC
  5
568
100
AcDbEntity
  8
M0
 62
     7
100
AcDbCircle
 10
96.841883
 20
351.78136
 40
0.5
100
AcDbArc
 50
0.0
 51
90.0
  0
ARC
  5
569
100
AcDbEntity
  8
M0
 62
     7
100
AcDbCircle
 10
97.841883
 20
348.78136
 40
0.5
100
AcDbArc
 50
180.0
 51
270.0
  0
ARC
  5
56A
100
AcDbEntity
  8
M0
 62
     7
100
AcDbCircle
 10
106.841883
 20
347.78136
 40
0.5
100
AcDbArc
 50
0.0
 51
90.0
  0
ARC
  5
56B
100
AcDbEntity
  8
M0
 62
     7
100
AcDbCircle
 10
106.841883
 20
339.78136
 40
0.5
100
AcDbArc
 50
270.0
 51
360.0
  0
ARC
  5
56C
100
AcDbEntity
  8
M0
 62
     7
100
AcDbCircle
 10
97.841883
 20
338.78136
 40
0.5
100
AcDbArc
 50
90.0
 51
180.0
  0
ARC
  5
56D
100
AcDbEntity
  8
M0
 62
     7
100
AcDbCircle
 10
96.841883
 20
335.78136
 40
0.5
100
AcDbArc
 50
270.0
 51
360.0
  0
ARC
  5
56E
100
AcDbEntity
  8
M0
 62
     7
100
AcDbCircle
 10
69.841883
 20
335.78136
 40
0.5
100
AcDbArc
 50
180.0
 51
270.0
  0
HATCH
  5
56F
100
AcDbEntity
  8
M0
 62
     7
100
AcDbHatch
 10
0.0
 20
0.0
210
0.0
220
0.0
230
1.0
  2
SOLID
 70
     1
 71
     0
 91
        1
 92
        1
 93
       12
 72
     1
 10
72.075721
 20
345.51216
 11
72.075721
 21
346.730608
 72
     1
 10
72.075721
 20
346.730608
 11
73.557243
 21
346.730608
 72
     1
 10
73.557243
 20
346.730608
 11
73.557243
 21
345.51216
 72
     1
 10
73.557243
 20
345.51216
 11
74.291081
 21
345.51216
 72
     1
 10
74.291081
 20
345.51216
 11
74.291081
 21
348.28136
 72
     1
 10
74.291081
 20
348.28136
 11
73.557243
 21
348.28136
 72
     1
 10
73.557243
 20
348.28136
 11
73.557243
 21
347.17368
 72
     1
 10
73.557243
 20
347.17368
 11
72.075721
 21
347.17368
 72
     1
 10
72.075721
 20
347.17368
 11
72.075721
 21
348.28136
 72
     1
 10
72.075721
 20
348.28136
 11
71.341883
 21
348.28136
 72
     1
 10
71.341883
 20
348.28136
 11
71.341883
 21
345.51216
 72
     1
 10
71.341883
 20
345.51216
 11
72.075721
 21
345.51216
 97
        0
 75
     0
 76
     1
 98
        1
 10
0.0
 20
0.0
  0
HATCH
  5
572
100
AcDbEntity
  8
M0
 62
     7
100
AcDbHatch
 10
0.0
 20
0.0
210
0.0
220
0.0
230
1.0
  2
SOLID
 70
     1
 71
     0
 91
        1
 92
        1
 93
        8
 72
     1
 10
77.724888
 20
345.51216
 11
77.724888
 21
347.810596
 72
     1
 10
77.724888
 20
347.810596
 11
78.846415
 21
347.810596
 72
     1
 10
78.846415
 20
347.810596
 11
78.846415
 21
348.28136
 72
     1
 10
78.846415
 20
348.28136
 11
75.869525
 21
348.28136
 72
     1
 10
75.869525
 20
348.28136
 11
75.869525
 21
347.810596
 72
     1
 10
75.869525
 20
347.810596
 11
76.99105
 21
347.810596
 72
     1
 10
76.99105
 20
347.810596
 11
76.99105
 21
345.51216
 72
     1
 10
76.99105
 20
345.51216
 11
77.724888
 21
345.51216
 97
        0
 75
     0
 76
     1
 98
        1
 10
0.0
 20
0.0
  0
HATCH
  5
573
100
AcDbEntity
  8
M0
 62
     7
100
AcDbHatch
 10
0.0
 20
0.0
210
0.0
220
0.0
230
1.0
  2
SOLID
 70
     1
 71
     0
 91
        1
 92
        1
 93
        7
 72
     1
 10
100.341883
 20
342.673274
 11
97.341883
 21
341.581363
 72
     1
 10
97.341883
 20
341.581363
 11
100.341883
 21
340.489452
 72
     1
 10
100.341883
 20
340.489452
 11
100.341883
 21
341.081363
 72
     1
 10
100.341883
 20
341.081363
 11
106.341883
 21
341.081363
 72
     1
 10
106.341883
 20
341.081363
 11
106.341883
 21
342.081363
 72
     1
 10
106.341883
 20
342.081363
 11
100.341883
 21
342.081363
 72
     1
 10
100.341883
 20
342.081363
 11
100.341883
 21
342.673274
 97
        0
 75
     0
 76
     1
 98
        1
 10
0.0
 20
0.0
  0
HATCH
  5
574
100
AcDbEntity
  8
M0
 62
     7
100
AcDbHatch
 10
0.0
 20
0.0
210
0.0
220
0.0
230
1.0
  2
SOLID
 70
     1
 71
     0
 91
        1
 92
        1
 93
        4
 72
     1
 10
89.341683
 20
345.51216
 11
89.341683
 21
348.28136
 72
     1
 10
89.341683
 20
348.28136
 11
88.607844
 21
348.28136
 72
     1
 10
88.607844
 20
348.28136
 11
88.607844
 21
345.51216
 72
     1
 10
88.607844
 20
345.51216
 11
89.341683
 21
345.51216
 97
        0
 75
     0
 76
     1
 98
        1
 10
0.0
 20
0.0
  0
HATCH
  5
575
100
AcDbEntity
  8
M0
 62
     7
100
AcDbHatch
 10
0.0
 20
0.0
210
0.0
220
0.0
230
1.0
  2
SOLID
 70
     1
 71
     0
 91
        1
 92
        1
 93
       20
 72
     2
 10
83.207905
 20
347.879826
 40
2.436895
 50
252.447306
 51
292.422669
 73
     1
 72
     2
 10
83.799418
 20
346.446319
 40
0.886144
 50
292.422669
 51
346.150662
 73
     1
 72
     2
 10
83.207905
 20
346.592148
 40
1.495367
 50
346.150662
 51
356.81526
 73
     1
 72
     1
 10
84.700963
 20
346.509072
 11
83.927897
 21
346.509072
 72
     2
 10
83.207905
 20
346.509072
 40
0.719992
 50
0.0
 51
25.643738
 73
     0
 72
     2
 10
83.382656
 20
346.425182
 40
0.526148
 50
25.643738
 51
72.512342
 73
     0
 72
     2
 10
83.207905
 20
346.979836
 40
1.10768
 50
72.512342
 51
111.534322
 73
     0
 72
     2
 10
83.04019
 20
346.554812
 40
0.650762
 50
111.534322
 51
163.518484
 73
     0
 72
     2
 10
84.102356
 20
346.869067
 40
1.758441
 50
163.518484
 51
199.911347
 73
     0
 72
     2
 10
83.060893
 20
347.246305
 40
0.650762
 50
199.911347
 51
251.231339
 73
     0
 72
     2
 10
83.207905
 20
346.813684
 40
1.10768
 50
251.231339
 51
287.055921
 73
     0
 72
     2
 10
83.378471
 20
347.369639
 40
0.526148
 50
287.055921
 51
341.370551
 73
     0
 72
     2
 10
83.207905
 20
347.31214
 40
0.706146
 50
341.370551
 51
357.752539
 73
     0
 72
     1
 10
83.913508
 20
347.339832
 11
84.684176
 21
347.339832
 72
     2
 10
83.207905
 20
347.215218
 40
1.481521
 50
4.824977
 51
11.570993
 73
     1
 72
     2
 10
83.777618
 20
347.331862
 40
0.89999
 50
11.570993
 51
66.454336
 73
     1
 72
     2
 10
83.207905
 20
346.024462
 40
2.326127
 50
66.454336
 51
109.456965
 73
     1
 72
     2
 10
82.848163
 20
347.042774
 40
1.246139
 50
109.456965
 51
161.721239
 73
     1
 72
     2
 10
83.374056
 20
346.869067
 40
1.799979
 50
161.721239
 51
190.751611
 73
     1
 72
     2
 10
82.857145
 20
346.770914
 40
1.273831
 50
190.751611
 51
252.447306
 73
     1
 97
        0
 75
     0
 76
     1
 98
        1
 10
0.0
 20
0.0
  0
HATCH
  5
576
100
AcDbEntity
  8
M0
 62
     7
100
AcDbHatch
 10
0.0
 20
0.0
210
0.0
220
0.0
230
1.0
  2
SOLID
 70
     1
 71
     0
 91
        1
 92
        1
 93
        4
 72
     1
 10
75.60645
 20
345.51216
 11
75.60645
 21
348.28136
 72
     1
 10
75.60645
 20
348.28136
 11
74.872613
 21
348.28136
 72
     1
 10
74.872613
 20
348.28136
 11
74.872613
 21
345.51216
 72
     1
 10
74.872613
 20
345.51216
 11
75.60645
 21
345.51216
 97
        0
 75
     0
 76
     1
 98
        1
 10
0.0
 20
0.0
  0
HATCH
  5
577
100
AcDbEntity
  8
M0
 62
     7
100
AcDbHatch
 10
0.0
 20
0.0
210
0.0
220
0.0
230
1.0
  2
SOLID
 70
     1
 71
     0
 91
        2
 92
        1
 93
        8
 72
     1
 10
79.266715
 20
346.107538
 11
80.641474
 21
346.107538
 72
     1
 10
80.641474
 20
346.107538
 11
80.881777
 21
345.51216
 72
     1
 10
80.881777
 20
345.51216
 11
81.69869
 21
345.51216
 72
     1
 10
81.69869
 20
345.51216
 11
80.404089
 21
348.28136
 72
     1
 10
80.404089
 20
348.28136
 11
79.5041
 21
348.28136
 72
     1
 10
79.5041
 20
348.28136
 11
78.209499
 21
345.51216
 72
     1
 10
78.209499
 20
345.51216
 11
79.026412
 21
345.51216
 72
     1
 10
79.026412
 20
345.51216
 11
79.266715
 21
346.107538
 97
        0
 92
       16
 93
        3
 72
     1
 10
79.954094
 20
347.810596
 11
79.445546
 21
346.55061
 72
     1
 10
79.445546
 20
346.55061
 11
80.462643
 21
346.55061
 72
     1
 10
80.462643
 20
346.55061
 11
79.954094
 21
347.810596
 97
        0
 75
     0
 76
     1
 98
        1
 10
0.0
 20
0.0
  0
HATCH
  5
578
100
AcDbEntity
  8
M0
 62
     7
100
AcDbHatch
 10
0.0
 20
0.0
210
0.0
220
0.0
230
1.0
  2
SOLID
 70
     1
 71
     0
 91
        1
 92
        1
 93
       12
 72
     1
 10
85.810953
 20
345.51216
 11
85.810953
 21
346.730608
 72
     1
 10
85.810953
 20
346.730608
 11
87.292475
 21
346.730608
 72
     1
 10
87.292475
 20
346.730608
 11
87.292475
 21
345.51216
 72
     1
 10
87.292475
 20
345.51216
 11
88.026312
 21
345.51216
 72
     1
 10
88.026312
 20
345.51216
 11
88.026312
 21
348.28136
 72
     1
 10
88.026312
 20
348.28136
 11
87.292475
 21
348.28136
 72
     1
 10
87.292475
 20
348.28136
 11
87.292475
 21
347.17368
 72
     1
 10
87.292475
 20
347.17368
 11
85.810953
 21
347.17368
 72
     1
 10
85.810953
 20
347.17368
 11
85.810953
 21
348.28136
 72
     1
 10
85.810953
 20
348.28136
 11
85.077115
 21
348.28136
 72
     1
 10
85.077115
 20
348.28136
 11
85.077115
 21
345.51216
 72
     1
 10
85.077115
 20
345.51216
 11
85.810953
 21
345.51216
 97
        0
 75
     0
 76
     1
 98
        1
 10
0.0
 20
0.0
  0
HATCH
  5
579
100
AcDbEntity
  8
M0
 62
     7
100
AcDbHatch
 10
0.0
 20
0.0
210
0.0
220
0.0
230
1.0
  2
SOLID
 70
     1
 71
     0
 91
        1
 92
        1
 93
        4
 72
     1
 10
171.228326
 20
360.781349
 11
169.228326
 21
360.781349
 72
     1
 10
169.228326
 20
360.781349
 11
169.228326
 21
326.781349
 72
     1
 10
169.228326
 20
326.781349
 11
171.228326
 21
326.781349
 72
     1
 10
171.228326
 20
326.781349
 11
171.228326
 21
360.781349
 97
        0
 75
     0
 76
     1
 98
        1
 10
0.0
 20
0.0
  0
CIRCLE
  5
57A
100
AcDbEntity
  8
M0
 62
     7
100
AcDbCircle
 10
125.841883
 20
152.39914
 40
1.7
  0
CIRCLE
  5
57B
100
AcDbEntity
  8
M0
 62
     7
100
AcDbCircle
 10
125.841883
 20
152.39914
 40
2.0
  0
CIRCLE
  5
57C
100
AcDbEntity
  8
M0
 62
     7
100
AcDbCircle
 10
54.841883
 20
217.39914
 40
2.0
  0
CIRCLE
  5
57D
100
AcDbEntity
  8
M0
 62
     7
100
AcDbCircle
 10
54.841883
 20
217.39914
 40
1.7
  0
LINE
  5
57E
100
AcDbEntity
  8
M0
  6
DASHDOT
 62
     7
100
AcDbLine
 10
129.939287
 20
152.39914
 11
121.744478
 21
152.39914
  0
LINE
  5
57F
100
AcDbEntity
  8
M0
  6
DASHDOT
 62
     7
100
AcDbLine
 10
125.841875
 20
156.496537
 11
125.841891
 21
148.301728
  0
LINE
  5
580
100
AcDbEntity
  8
M0
  6
DASHDOT
 62
     7
100
AcDbLine
 10
58.939287
 20
217.39914
 11
50.744478
 21
217.39914
  0
LINE
  5
581
100
AcDbEntity
  8
M0
  6
DASHDOT
 62
     7
100
AcDbLine
 10
54.841875
 20
221.496537
 11
54.841891
 21
213.301728
  0
LINE
  5
582
100
AcDbEntity
  8
M0
  6
DIVIDE
 62
     7
100
AcDbLine
 10
67.891883
 20
227.39914
 11
51.391883
 21
227.39914
  0
LINE
  5
583
100
AcDbEntity
  8
M0
  6
DIVIDE
 62
     7
100
AcDbLine
 10
51.391883
 20
227.39914
 11
51.391883
 21
142.399139
  0
LINE
  5
584
100
AcDbEntity
  8
M0
  6
DIVIDE
 62
     7
100
AcDbLine
 10
67.891883
 20
227.39914
 11
67.891883
 21
231.399141
  0
LINE
  5
585
100
AcDbEntity
  8
M0
  6
DIVIDE
 62
     7
100
AcDbLine
 10
112.791883
 20
227.39914
 11
112.791883
 21
231.399141
  0
LINE
  5
586
100
AcDbEntity
  8
M0
  6
DIVIDE
 62
     7
100
AcDbLine
 10
112.791883
 20
227.39914
 11
129.291883
 21
227.39914
  0
LINE
  5
587
100
AcDbEntity
  8
M0
  6
DIVIDE
 62
     7
100
AcDbLine
 10
67.891883
 20
231.399141
 11
112.791883
 21
231.399141
  0
LINE
  5
588
100
AcDbEntity
  8
M0
  6
DIVIDE
 62
     7
100
AcDbLine
 10
129.291883
 20
142.399139
 11
129.291883
 21
227.39914
  0
LINE
  5
589
100
AcDbEntity
  8
M0
  6
DIVIDE
 62
     7
100
AcDbLine
 10
129.291883
 20
142.399139
 11
51.391883
 21
142.399141
  0
LINE
  5
58A
100
AcDbEntity
  8
M1
 62
     2
100
AcDbLine
 10
16.666666
 20
16.666666
 11
16.666666
 21
474.999981
  0
LINE
  5
58B
100
AcDbEntity
  8
M1
 62
     2
100
AcDbLine
 10
16.666666
 20
474.999981
 11
333.33332
 21
474.999981
  0
LINE
  5
58C
100
AcDbEntity
  8
M1
 62
     2
100
AcDbLine
 10
333.33332
 20
474.999981
 11
333.33332
 21
16.666666
  0
LINE
  5
58D
100
AcDbEntity
  8
M1
 62
     2
100
AcDbLine
 10
333.33332
 20
16.666666
 11
16.666666
 21
16.666666
  0
LINE
  5
58E
100
AcDbEntity
  8
M1
 62
     2
100
AcDbLine
 10
333.33332
 20
33.333332
 11
166.66666
 21
33.333332
  0
LINE
  5
58F
100
AcDbEntity
  8
M1
 62
     2
100
AcDbLine
 10
333.33332
 20
49.999998
 11
166.66666
 21
49.999998
  0
LINE
  5
590
100
AcDbEntity
  8
M1
 62
     2
100
AcDbLine
 10
333.33332
 20
66.666664
 11
166.66666
 21
66.666664
  0
LINE
  5
591
100
AcDbEntity
  8
M1
 62
     2
100
AcDbLine
 10
166.66666
 20
16.666666
 11
166.66666
 21
66.666664
  0
TEXT
  5
592
100
AcDbEntity
  8
M1
 62
     2
100
AcDbText
 10
170.833327
 20
20.833333
 40
8.333333
  1
適　用；
 41
1.0
  7
STANDARD
100
AcDbText
  0
TEXT
  5
593
100
AcDbEntity
  8
M1
 62
     2
100
AcDbText
 10
170.833327
 20
54.166665
 40
8.333333
  1
登録名：
 41
1.0
  7
STANDARD
100
AcDbText
  0
TEXT
  5
594
100
AcDbEntity
  8
M1
 62
     2
100
AcDbText
 10
210.833325
 20
54.166665
 40
8.333333
  1
ＤＭＨＳ５０ＬＲ０１
 41
0.5
  7
STANDARD
100
AcDbText
  0
TEXT
  5
595
100
AcDbEntity
  8
M1
 62
     2
100
AcDbText
 10
170.833327
 20
37.499999
 40
8.333333
  1
形　式；
 41
1.0
  7
STANDARD
100
AcDbText
  0
TEXT
  5
596
100
AcDbEntity
  8
M1
 62
     2
100
AcDbText
 10
210.833325
 20
37.499999
 40
8.333333
  1
ＨＳ５０－Ｌ
 41
0.5
  7
STANDARD
100
AcDbText
  0
LINE
  5
597
100
AcDbEntity
  8
DN0
100
AcDbLine
 10
77.068932
 20
117.084628
 11
104.118932
 21
117.084628
  0
TEXT
  5
598
100
AcDbEntity
  8
DN0
100
AcDbText
 10
77.816155
 20
117.751295
 40
6.666666
  1
せん孔図
 41
0.833333
  7
STANDARD
100
AcDbText
  0
ENDSEC
  0
SECTION
  2
OBJECTS
  0
DICTIONARY
  5
C
100
AcDbDictionary
  3
ACAD_GROUP
350
D
  3
ACAD_MLINESTYLE
350
E
  3
ACDBVARIABLEDICTIONARY
350
570
  0
DICTIONARY
  5
D
102
{ACAD_REACTORS
330
C
102
}
100
AcDbDictionary
  0
DICTIONARY
  5
E
102
{ACAD_REACTORS
330
C
102
}
100
AcDbDictionary
  3
STANDARD
350
13
  0
DICTIONARY
  5
570
102
{ACAD_REACTORS
330
C
102
}
100
AcDbDictionary
  3
SORTENTS
350
571
  0
MLINESTYLE
  5
13
102
{ACAD_REACTORS
330
E
102
}
100
AcDbMlineStyle
  2
STANDARD
 70
     0
  3

 62
     0
 51
90.0
 52
90.0
 71
     2
 49
0.5
 62
   256
  6
BYLAYER
 49
-0.5
 62
   256
  6
BYLAYER
  0
DICTIONARYVAR
  5
571
102
{ACAD_REACTORS
330
570
102
}
100
DictionaryVariables
280
     0
  1
96
  0
ENDSEC
  0
EOF
