  0
SECTION
  2
HEADER
  9
$ACADVER
  1
AC1014
  9
$INSBASE
 10
0.000000
 20
0.000000
 30
0.0
  9
$VIEWCTR
 10
7.531722
 20
4.5
  9
$VIEWSIZE
 40
9.0
  9
$SNAPMODE
 70
     0
  9
$SNAPUNIT
 10
1.0
 20
1.0
  9
$SNAPBASE
 10
0.0
 20
0.0
  9
$SNAPANG
 50
0.0
  9
$SNAPSTYLE
 70
     0
  9
$SNAPISOPAIR
 70
     0
  9
$GRIDMODE
 70
     0
  9
$GRIDUNIT
 10
0.0
 20
0.0
  9
$ORTHOMODE
 70
     0
  9
$REGENMODE
 70
     1
  9
$FILLMODE
 70
     1
  9
$QTEXTMODE
 70
     0
  9
$DRAGMODE
 70
     2
  9
$LTSCALE
  40
     1.000000
  9
$OSMODE
 70
     0
  9
$ATTMODE
 70
     1
  9
$TEXTSIZE
 40
0.2
  9
$TRACEWID
 40
0.05
  9
$TEXTSTYLE
  7
STANDARD
  9
$CELTYPE
  6
BYLAYER
  9
$CECOLOR
 62
   256
  9
$DIMSCALE
 40
1.0
  9
$DIMASZ
 40
0.18
  9
$DIMEXO
 40
0.0625
  9
$DIMDLI
 40
0.38
  9
$DIMRND
 40
0.0
  9
$DIMDLE
 40
0.0
  9
$DIMEXE
 40
0.18
  9
$DIMTP
 40
0.0
  9
$DIMTM
 40
0.0
  9
$DIMTXT
 40
0.18
  9
$DIMCEN
 40
0.09
  9
$DIMTSZ
 40
0.0
  9
$DIMTOL
 70
     0
  9
$DIMLIM
 70
     0
  9
$DIMTIH
 70
     1
  9
$DIMTOH
 70
     1
  9
$DIMSE1
 70
     0
  9
$DIMSE2
 70
     0
  9
$DIMTAD
 70
     0
  9
$DIMZIN
 70
     0
  9
$DIMBLK
  1

  9
$LUNITS
 70
     2
  9
$LUPREC
 70
     4
  9
$AXISMODE
 70
     0
  9
$AXISUNIT
 10
0.0
 20
0.0
  9
$SKETCHINC
 40
0.1
  9
$FILLETRAD
 40
0.0
  9
$AUNITS
 70
     0
  9
$AUPREC
 70
     0
  9
$MENU
  1
ACAD
  9
$ELEVATION
 40
0.0
  9
$THICKNESS
 40
0.0
  9
$VIEWDIR
 10
0.0
 20
0.0
 30
1.0
  9
$LIMCHECK
 70
     0
  9
$BLIPMODE
 70
     1
  9
$CHAMFERA
 40
0.0
  9
$CHAMFERB
 40
0.0
  9
$FASTZOOM
 70
     1
  9
$SKPOLY
 70
     0
  9
$TDCREATE
 40
0000000.0000000000
  9
$TDUPDATE
 40
0000000.0000000000
  9
$TDINDWG
 40
0.0000000000
  9
$TDUSRTIMER
 40
0.0000000000
  9
$USRTIMER
 70
     1
  9
$ANGBASE
 50
0.0
  9
$ANGDIR
 70
     0
  9
$PDMODE
 70
     0
  9
$PDSIZE
 40
0.0
  9
$PLINEWID
 40
0.0
  9
$COORDS
 70
     0
  9
$USERI1
 70
     0
  9
$USERI2
 70
     0
  9
$USERI3
 70
     0
  9
$USERI4
 70
     0
  9
$USERI5
 70
     0
  9
$USERR1
 40
0.0
  9
$USERR2
 40
0.0
  9
$USERR3
 40
0.0
  9
$USERR4
 40
0.0
  9
$USERR5
 40
0.0
  9
$CLAYER
  8
M0
  9
$EXTMIN
 10
19.604359
 20
21.112386
  9
$EXTMAX
 10
399.604359
 20
571.112386
  9
$LIMMIN
 10
0.0
 20
0.0
  9
$LIMMAX
 10
210.0
 20
297.0
  9
$HANDSEED
  5
846
  0
ENDSEC
  0
SECTION
  2
CLASSES
  0
CLASS
  1
DICTIONARYVAR
  2
AcDbDictionaryVar
  3
"AutoCAD"
 90
        0
280
     0
281
     0
  0
CLASS
  1
HATCH
  2
AcDbHatch
  3
"ACAD_SEDONA"
 90
        0
280
     0
281
     1
  0
ENDSEC
  0
SECTION
  2
TABLES
  0
TABLE
  2
VPORT
  5
8
100
AcDbSymbolTable
 70
     2
  0
VPORT
  5
14
100
AcDbSymbolTableRecord
100
AcDbViewportTableRecord
  2
*ACTIVE
 70
     0
 10
0.0
 20
0.0
 11
1.0
 21
1.0
 12
484.0
 22
297.0
 13
0.0
 23
0.0
 14
1.0
 24
1.0
 15
0.0
 25
0.0
 16
0.0
 26
0.0
 36
1.0
 17
0.0
 27
0.0
 37
0.0
 40
594.0
 41
2.0
 42
50.0
 43
0.0
 44
0.0
 50
0.0
 51
0.0
 71
     0
 72
   100
 73
     1
 74
     1
 75
     0
 76
     0
 77
     0
 78
     0
  0
ENDTAB
  0
TABLE
  2
LTYPE
  5
5
100
AcDbSymbolTable
 70
     5
  0
LTYPE
  5
15
100
AcDbSymbolTableRecord
100
AcDbLinetypeTableRecord
  2
BYBLOCK
 70
     0
  3

 72
    65
 73
     0
 40
0.0
  0
LTYPE
  5
16
100
AcDbSymbolTableRecord
100
AcDbLinetypeTableRecord
  2
BYLAYER
 70
     0
  3

 72
    65
 73
     0
 40
0.0
  0
LTYPE
  5
17
100
AcDbSymbolTableRecord
100
AcDbLinetypeTableRecord
  2
CONTINUOUS
 70
    64
  3
Solid line
 72
    65
 73
     0
 40
0.0
  0
LTYPE
  5
18
100
AcDbSymbolTableRecord
100
AcDbLinetypeTableRecord
  2
DASHED
 70
    64
  3
__ __ __ __ __ __ __ __ __ __ __ __ __ __ __ __
 72
    65
 73
     2
 40
0.75
 49
0.5
 74
     0
 49
-0.25
 74
     0
  0
LTYPE
  5
19
100
AcDbSymbolTableRecord
100
AcDbLinetypeTableRecord
  2
DASHDOT
 70
    64
  3
__ . __ . __ . __ . __ . __ . __ . __ . __ . __
 72
    65
 73
     4
 40
1.0
 49
0.5
 74
     0
 49
-0.25
 74
     0
 49
0.0
 74
     0
 49
-0.25
 74
     0
  0
LTYPE
  5
1A
100
AcDbSymbolTableRecord
100
AcDbLinetypeTableRecord
  2
DIVIDE
 70
    64
  3
____ . . ____ . . ____ . . ____ . . ____ . . __
 72
    65
 73
     6
 40
1.25
 49
0.5
 74
     0
 49
-0.25
 74
     0
 49
0.0
 74
     0
 49
-0.25
 74
     0
 49
0.0
 74
     0
 49
-0.25
 74
     0
  0
LTYPE
  5
1B
100
AcDbSymbolTableRecord
100
AcDbLinetypeTableRecord
  2
DOT
 70
    64
  3
. . . . . . . . . . . . . . . . . . . . . . . .
 72
    65
 73
     2
 40
0.25
 49
0.0
 74
     0
 49
-0.25
 74
     0
  0
ENDTAB
  0
TABLE
  2
LAYER
  5
2
100
AcDbSymbolTable
 70
   102
  0
LAYER
  5
F
100
AcDbSymbolTableRecord
100
AcDbLayerTableRecord
  2
0
 70
     0
 62
     7
  6
CONTINUOUS
  0
LAYER
  5
1C
100
AcDbSymbolTableRecord
100
AcDbLayerTableRecord
  2
DEFPOINTS
 70
     0
 62
     7
  6
CONTINUOUS
  0
LAYER
  5
1D
100
AcDbSymbolTableRecord
100
AcDbLayerTableRecord
  2
M0
 70
     0
 62
     3
  6
CONTINUOUS
  0
LAYER
  5
1E
100
AcDbSymbolTableRecord
100
AcDbLayerTableRecord
  2
M3
 70
     0
 62
     3
  6
CONTINUOUS
  0
LAYER
  5
1F
100
AcDbSymbolTableRecord
100
AcDbLayerTableRecord
  2
DD0
 70
     0
 62
     4
  6
CONTINUOUS
  0
LAYER
  5
20
100
AcDbSymbolTableRecord
100
AcDbLayerTableRecord
  2
DN0
 70
     0
 62
     2
  6
CONTINUOUS
  0
ENDTAB
  0
TABLE
  2
STYLE
  5
3
100
AcDbSymbolTable
 70
     2
  0
STYLE
  5
10
100
AcDbSymbolTableRecord
100
AcDbTextStyleTableRecord
  2
STANDARD
 70
     0
 40
0.0
 41
1.0
 50
0.0
 71
     0
 42
0.2
  3
txt
  4
BIGFONT
  0
ENDTAB
  0
TABLE
  2
VIEW
  5
6
100
AcDbSymbolTable
 70
     0
  0
ENDTAB
  0
TABLE
  2
UCS
  5
7
100
AcDbSymbolTable
 70
     0
  0
ENDTAB
  0
TABLE
  2
APPID
  5
9
100
AcDbSymbolTable
 70
     1
  0
APPID
  5
11
100
AcDbSymbolTableRecord
100
AcDbRegAppTableRecord
  2
ACAD
 70
     0
  0
ENDTAB
  0
TABLE
  2
DIMSTYLE
  5
A
100
AcDbSymbolTable
 70
     2
  0
DIMSTYLE
105
27
100
AcDbSymbolTableRecord
100
AcDbDimStyleTableRecord
  2
STANDARD
 70
     0
  3

  4

  5

  6
_OPEN
  7
_OPEN
 40
1.0
 41
6.0
 42
1.0
 43
8.0
 44
1.0
 45
0.0
 46
0.0
 47
0.0
 48
0.0
140
6.3
141
0.09
142
0.0
143
0.03937
144
1.0
145
0.0
146
1.0
147
0.6
 71
     0
 72
     0
 73
     1
 74
     1
 75
     0
 76
     0
 77
     3
 78
     8
170
     0
171
     2
172
     0
173
     1
174
     0
175
     0
176
     0
177
     0
178
     0
270
     2
271
     2
272
     4
273
     2
274
     2
340
10
275
     0
280
     0
281
     0
282
     0
283
     1
284
     0
285
     0
286
     0
287
     3
288
     0
  0
DIMSTYLE
105
28
100
AcDbSymbolTableRecord
100
AcDbDimStyleTableRecord
  2
LEADSTYL
 70
     0
  3

  4

  5

  6
_OPEN
  7
_OPEN
 40
1.0
 41
6.0
 42
0.0625
 43
0.38
 44
0.18
 45
0.0
 46
0.0
 47
0.0
 48
0.0
140
6.3
141
0.09
142
0.0
143
25.4
144
1.0
145
0.0
146
1.0
147
0.6
 71
     0
 72
     0
 73
     1
 74
     1
 75
     0
 76
     0
 77
     0
 78
     0
170
     0
171
     2
172
     0
173
     1
174
     0
175
     0
176
     0
177
     0
178
     0
270
     2
271
     4
272
     4
273
     2
274
     2
340
10
275
     0
280
     0
281
     0
282
     0
283
     1
284
     0
285
     0
286
     0
287
     3
288
     0
  0
ENDTAB
  0
TABLE
  2
BLOCK_RECORD
  5
1
100
AcDbSymbolTable
 70
    22
  0
BLOCK_RECORD
  5
21
100
AcDbSymbolTableRecord
100
AcDbBlockTableRecord
  2
*MODEL_SPACE
  0
BLOCK_RECORD
  5
24
100
AcDbSymbolTableRecord
100
AcDbBlockTableRecord
  2
*PAPER_SPACE
  0
BLOCK_RECORD
  5
29
100
AcDbSymbolTableRecord
100
AcDbBlockTableRecord
  2
_NONE
  0
BLOCK_RECORD
  5
2D
100
AcDbSymbolTableRecord
100
AcDbBlockTableRecord
  2
_OPEN
  0
BLOCK_RECORD
  5
33
100
AcDbSymbolTableRecord
100
AcDbBlockTableRecord
  2
_CLOSED
  0
BLOCK_RECORD
  5
3A
100
AcDbSymbolTableRecord
100
AcDbBlockTableRecord
  2
_ORIGIN
  0
BLOCK_RECORD
  5
3F
100
AcDbSymbolTableRecord
100
AcDbBlockTableRecord
  2
_DOT
  0
BLOCK_RECORD
  5
47
100
AcDbSymbolTableRecord
100
AcDbBlockTableRecord
  2
_OBLIQUE
  0
BLOCK_RECORD
  5
4B
100
AcDbSymbolTableRecord
100
AcDbBlockTableRecord
  2
DIMS0
  0
BLOCK_RECORD
  5
57
100
AcDbSymbolTableRecord
100
AcDbBlockTableRecord
  2
DIMS1
  0
BLOCK_RECORD
  5
63
100
AcDbSymbolTableRecord
100
AcDbBlockTableRecord
  2
DIMS2
  0
BLOCK_RECORD
  5
6F
100
AcDbSymbolTableRecord
100
AcDbBlockTableRecord
  2
DIMS3
  0
BLOCK_RECORD
  5
7B
100
AcDbSymbolTableRecord
100
AcDbBlockTableRecord
  2
DIMS4
  0
BLOCK_RECORD
  5
88
100
AcDbSymbolTableRecord
100
AcDbBlockTableRecord
  2
DIMS5
  0
BLOCK_RECORD
  5
94
100
AcDbSymbolTableRecord
100
AcDbBlockTableRecord
  2
DIMS6
  0
BLOCK_RECORD
  5
9F
100
AcDbSymbolTableRecord
100
AcDbBlockTableRecord
  2
DIMS7
  0
BLOCK_RECORD
  5
AB
100
AcDbSymbolTableRecord
100
AcDbBlockTableRecord
  2
DIMS8
  0
BLOCK_RECORD
  5
B6
100
AcDbSymbolTableRecord
100
AcDbBlockTableRecord
  2
DIMS9
  0
BLOCK_RECORD
  5
BF
100
AcDbSymbolTableRecord
100
AcDbBlockTableRecord
  2
DIMS10
  0
BLOCK_RECORD
  5
CB
100
AcDbSymbolTableRecord
100
AcDbBlockTableRecord
  2
DIMS11
  0
BLOCK_RECORD
  5
D7
100
AcDbSymbolTableRecord
100
AcDbBlockTableRecord
  2
DIMS12
  0
BLOCK_RECORD
  5
E3
100
AcDbSymbolTableRecord
100
AcDbBlockTableRecord
  2
DIMS13
  0
BLOCK_RECORD
  5
EF
100
AcDbSymbolTableRecord
100
AcDbBlockTableRecord
  2
DIMS14
  0
BLOCK_RECORD
  5
FB
100
AcDbSymbolTableRecord
100
AcDbBlockTableRecord
  2
DIMS15
  0
ENDTAB
  0
ENDSEC
  0
SECTION
  2
BLOCKS
  0
BLOCK
  5
22
100
AcDbEntity
  8
0
100
AcDbBlockBegin
  2
*MODEL_SPACE
 70
     0
 10
0.0
 20
0.0
 30
0.0
  3
*MODEL_SPACE
  1

  0
ENDBLK
  5
23
100
AcDbEntity
  8
0
100
AcDbBlockEnd
  0
BLOCK
  5
25
100
AcDbEntity
 67
     1
  8
0
100
AcDbBlockBegin
  2
*PAPER_SPACE
 70
     0
 10
0.0
 20
0.0
 30
0.0
  3
*PAPER_SPACE
  1

  0
ENDBLK
  5
26
100
AcDbEntity
 67
     1
  8
0
100
AcDbBlockEnd
  0
BLOCK
  5
2A
100
AcDbEntity
  8
0
100
AcDbBlockBegin
  2
_NONE
 70
     0
 10
0.0
 20
0.0
  0
CIRCLE
  5
2B
100
AcDbEntity
  8
0
 62
     0
100
AcDbCircle
 10
0.0
 20
0.0
 40
0.25
  0
ENDBLK
  5
2C
100
AcDbEntity
  8
0
100
AcDbBlockEnd
  0
BLOCK
  5
2E
100
AcDbEntity
  8
0
100
AcDbBlockBegin
  2
_OPEN
 70
     0
 10
0.0
 20
0.0
  0
LINE
  5
2F
100
AcDbEntity
  8
0
 62
     0
100
AcDbLine
 10
-0.965926
 20
0.258819
 11
0.0
 21
0.0
  0
LINE
  5
30
100
AcDbEntity
  8
0
 62
     0
100
AcDbLine
 10
0.0
 20
0.0
 11
-0.965926
 21
-0.258819
  0
LINE
  5
31
100
AcDbEntity
  8
0
 62
     0
100
AcDbLine
 10
0.0
 20
0.0
 11
-1.0
 21
0.0
  0
ENDBLK
  5
32
100
AcDbEntity
  8
0
100
AcDbBlockEnd
  0
BLOCK
  5
34
100
AcDbEntity
  8
0
100
AcDbBlockBegin
  2
_CLOSED
 70
     0
 10
0.0
 20
0.0
  0
LINE
  5
35
100
AcDbEntity
  8
0
 62
     0
100
AcDbLine
 10
-0.965926
 20
0.258819
 11
0.0
 21
0.0
  0
LINE
  5
36
100
AcDbEntity
  8
0
 62
     0
100
AcDbLine
 10
0.0
 20
0.0
 11
-0.965926
 21
-0.258819
  0
LINE
  5
37
100
AcDbEntity
  8
0
 62
     0
100
AcDbLine
 10
-0.965926
 20
0.258819
 11
-0.965926
 21
-0.258819
  0
LINE
  5
38
100
AcDbEntity
  8
0
 62
     0
100
AcDbLine
 10
0.0
 20
0.0
 11
-1.0
 21
0.0
  0
ENDBLK
  5
39
100
AcDbEntity
  8
0
100
AcDbBlockEnd
  0
BLOCK
  5
3B
100
AcDbEntity
  8
0
100
AcDbBlockBegin
  2
_ORIGIN
 70
     0
 10
0.0
 20
0.0
  0
CIRCLE
  5
3C
100
AcDbEntity
  8
0
 62
     0
100
AcDbCircle
 10
0.0
 20
0.0
 40
0.5
  0
LINE
  5
3D
100
AcDbEntity
  8
0
 62
     0
100
AcDbLine
 10
0.0
 20
0.0
 11
-1.0
 21
0.0
  0
ENDBLK
  5
3E
100
AcDbEntity
  8
0
100
AcDbBlockEnd
  0
BLOCK
  5
40
100
AcDbEntity
  8
0
100
AcDbBlockBegin
  2
_DOT
 70
     0
 10
0.0
 20
0.0
  0
POLYLINE
  5
41
100
AcDbEntity
  8
0
 62
     0
100
AcDb2dPolyline
 66
     1
 70
     1
 40
0.5
 41
0.5
  0
VERTEX
  5
42
100
AcDbEntity
  8
0
 62
     0
100
AcDbVertex
100
AcDb2dVertex
 10
-0.25
 20
0.0
 42
1.0
  0
VERTEX
  5
43
100
AcDbEntity
  8
0
 62
     0
100
AcDbVertex
100
AcDb2dVertex
 10
0.25
 20
0.0
 42
1.0
  0
SEQEND
  5
44
100
AcDbEntity
  8
0
 62
     0
  0
LINE
  5
45
100
AcDbEntity
  8
0
 62
     0
100
AcDbLine
 10
-0.5
 20
0.0
 11
-1.0
 21
0.0
  0
ENDBLK
  5
46
100
AcDbEntity
  8
0
100
AcDbBlockEnd
  0
BLOCK
  5
48
100
AcDbEntity
  8
0
100
AcDbBlockBegin
  2
_OBLIQUE
 70
     0
 10
0.0
 20
0.0
  0
LINE
  5
49
100
AcDbEntity
  8
0
 62
     0
100
AcDbLine
 10
-0.353553
 20
-0.353553
 11
0.353553
 21
0.353553
  0
ENDBLK
  5
4A
100
AcDbEntity
  8
0
100
AcDbBlockEnd
  0
BLOCK
  5
4C
100
AcDbEntity
  8
DD0
100
AcDbBlockBegin
  2
DIMS0
 70
     0
 10
0.0
 20
0.0
  0
LINE
  5
4D
100
AcDbEntity
  8
DD0
100
AcDbLine
 10
96.473808
 20
459.703308
 11
96.473808
 21
472.131622
  0
LINE
  5
4E
100
AcDbEntity
  8
DD0
100
AcDbLine
 10
183.37381
 20
459.703308
 11
183.37381
 21
472.131622
  0
LINE
  5
4F
100
AcDbEntity
  8
DD0
100
AcDbLine
 10
102.269363
 20
471.684537
 11
96.473808
 21
470.131622
  0
LINE
  5
50
100
AcDbEntity
  8
DD0
100
AcDbLine
 10
96.473808
 20
470.131622
 11
102.269363
 21
468.578708
  0
LINE
  5
51
100
AcDbEntity
  8
DD0
100
AcDbLine
 10
177.578255
 20
468.578708
 11
183.37381
 21
470.131622
  0
LINE
  5
52
100
AcDbEntity
  8
DD0
100
AcDbLine
 10
183.37381
 20
470.131622
 11
177.578255
 21
471.684537
  0
LINE
  5
53
100
AcDbEntity
  8
DD0
100
AcDbLine
 10
96.473808
 20
470.131622
 11
183.37381
 21
470.131622
  0
TEXT
  5
54
100
AcDbEntity
  8
DD0
100
AcDbText
 10
132.267149
 20
471.331635
 40
5.0
  1
８６．９
 41
0.666667
  7
STANDARD
100
AcDbText
  0
ENDBLK
  5
55
100
AcDbEntity
  8
DD0
100
AcDbBlockEnd
  0
BLOCK
  5
58
100
AcDbEntity
  8
DD0
100
AcDbBlockBegin
  2
DIMS1
 70
     0
 10
0.0
 20
0.0
  0
LINE
  5
59
100
AcDbEntity
  8
DD0
100
AcDbLine
 10
96.473808
 20
356.703308
 11
96.473808
 21
346.713165
  0
LINE
  5
5A
100
AcDbEntity
  8
DD0
100
AcDbLine
 10
78.87381
 20
374.203308
 11
78.87381
 21
346.713165
  0
LINE
  5
5B
100
AcDbEntity
  8
DD0
100
AcDbLine
 10
90.678253
 20
347.160251
 11
96.473808
 21
348.713165
  0
LINE
  5
5C
100
AcDbEntity
  8
DD0
100
AcDbLine
 10
96.473808
 20
348.713165
 11
90.678253
 21
350.26608
  0
LINE
  5
5D
100
AcDbEntity
  8
DD0
100
AcDbLine
 10
84.669365
 20
350.26608
 11
78.87381
 21
348.713165
  0
LINE
  5
5E
100
AcDbEntity
  8
DD0
100
AcDbLine
 10
78.87381
 20
348.713165
 11
84.669365
 21
347.160251
  0
LINE
  5
5F
100
AcDbEntity
  8
DD0
100
AcDbLine
 10
96.473808
 20
348.713165
 11
78.87381
 21
348.713165
  0
TEXT
  5
60
100
AcDbEntity
  8
DD0
100
AcDbText
 10
80.017149
 20
349.913177
 40
5.0
  1
１７．５
 41
0.666667
  7
STANDARD
100
AcDbText
  0
ENDBLK
  5
61
100
AcDbEntity
  8
DD0
100
AcDbBlockEnd
  0
BLOCK
  5
64
100
AcDbEntity
  8
DD0
100
AcDbBlockBegin
  2
DIMS2
 70
     0
 10
0.0
 20
0.0
  0
LINE
  5
65
100
AcDbEntity
  8
DD0
100
AcDbLine
 10
206.823807
 20
452.703308
 11
250.854095
 21
452.703308
  0
LINE
  5
66
100
AcDbEntity
  8
DD0
100
AcDbLine
 10
221.323807
 20
363.703308
 11
250.854095
 21
363.703308
  0
LINE
  5
67
100
AcDbEntity
  8
DD0
100
AcDbLine
 10
250.40701
 20
446.907753
 11
248.854095
 21
452.703308
  0
LINE
  5
68
100
AcDbEntity
  8
DD0
100
AcDbLine
 10
248.854095
 20
452.703308
 11
247.301181
 21
446.907753
  0
LINE
  5
69
100
AcDbEntity
  8
DD0
100
AcDbLine
 10
247.301181
 20
369.498863
 11
248.854095
 21
363.703308
  0
LINE
  5
6A
100
AcDbEntity
  8
DD0
100
AcDbLine
 10
248.854095
 20
363.703308
 11
250.40701
 21
369.498863
  0
LINE
  5
6B
100
AcDbEntity
  8
DD0
100
AcDbLine
 10
248.854095
 20
452.703308
 11
248.854095
 21
363.703308
  0
TEXT
  5
6C
100
AcDbEntity
  8
DD0
100
AcDbText
 10
247.654099
 20
404.546629
 40
5.0
  1
８９
 50
90.000003
 41
0.666667
  7
STANDARD
100
AcDbText
  0
ENDBLK
  5
6D
100
AcDbEntity
  8
DD0
100
AcDbBlockEnd
  0
BLOCK
  5
70
100
AcDbEntity
  8
DD0
100
AcDbBlockBegin
  2
DIMS3
 70
     0
 10
0.0
 20
0.0
  0
LINE
  5
71
100
AcDbEntity
  8
DD0
100
AcDbLine
 10
57.523811
 20
446.703308
 11
57.523811
 21
486.472992
  0
LINE
  5
72
100
AcDbEntity
  8
DD0
100
AcDbLine
 10
222.323807
 20
379.40329
 11
222.323807
 21
486.472992
  0
LINE
  5
73
100
AcDbEntity
  8
DD0
100
AcDbLine
 10
63.319366
 20
486.025906
 11
57.523811
 21
484.472992
  0
LINE
  5
74
100
AcDbEntity
  8
DD0
100
AcDbLine
 10
57.523811
 20
484.472992
 11
63.319366
 21
482.920078
  0
LINE
  5
75
100
AcDbEntity
  8
DD0
100
AcDbLine
 10
216.528252
 20
482.920078
 11
222.323807
 21
484.472992
  0
LINE
  5
76
100
AcDbEntity
  8
DD0
100
AcDbLine
 10
222.323807
 20
484.472992
 11
216.528252
 21
486.025906
  0
LINE
  5
77
100
AcDbEntity
  8
DD0
100
AcDbLine
 10
57.523811
 20
484.472992
 11
222.323807
 21
484.472992
  0
TEXT
  5
78
100
AcDbEntity
  8
DD0
100
AcDbText
 10
130.267149
 20
485.673004
 40
5.0
  1
１６４．８
 41
0.666667
  7
STANDARD
100
AcDbText
  0
ENDBLK
  5
79
100
AcDbEntity
  8
DD0
100
AcDbBlockEnd
  0
BLOCK
  5
7C
100
AcDbEntity
  8
DD0
100
AcDbBlockBegin
  2
DIMS4
 70
     0
 10
0.0
 20
0.0
  0
LINE
  5
7D
100
AcDbEntity
  8
DD0
100
AcDbLine
 10
45.523815
 20
437.90329
 11
45.523815
 21
503.651093
  0
LINE
  5
7E
100
AcDbEntity
  8
DD0
100
AcDbLine
 10
234.323807
 20
437.90329
 11
234.323807
 21
503.651093
  0
LINE
  5
7F
100
AcDbEntity
  8
DD0
100
AcDbLine
 10
51.31937
 20
503.204007
 11
45.523815
 21
501.651093
  0
LINE
  5
80
100
AcDbEntity
  8
DD0
100
AcDbLine
 10
45.523815
 20
501.651093
 11
51.31937
 21
500.098178
  0
LINE
  5
81
100
AcDbEntity
  8
DD0
100
AcDbLine
 10
228.528252
 20
500.098178
 11
234.323807
 21
501.651093
  0
LINE
  5
82
100
AcDbEntity
  8
DD0
100
AcDbLine
 10
234.323807
 20
501.651093
 11
228.528252
 21
503.204007
  0
LINE
  5
83
100
AcDbEntity
  8
DD0
100
AcDbLine
 10
45.523815
 20
501.651093
 11
234.323807
 21
501.651093
  0
TEXT
  5
84
100
AcDbEntity
  8
DD0
100
AcDbText
 10
134.267149
 20
502.851105
 40
5.0
  1
１８９
 41
0.666667
  7
STANDARD
100
AcDbText
  0
TEXT
  5
85
100
AcDbEntity
  8
DD0
100
AcDbText
 10
98.267149
 20
495.051117
 40
5.0
  1
（補助接点サイドオンユニットを付けた場合）
 41
0.666667
  7
STANDARD
100
AcDbText
  0
ENDBLK
  5
86
100
AcDbEntity
  8
DD0
100
AcDbBlockEnd
  0
BLOCK
  5
89
100
AcDbEntity
  8
DD0
100
AcDbBlockBegin
  2
DIMS5
 70
     0
 10
0.0
 20
0.0
  0
LINE
  5
8A
100
AcDbEntity
  8
DD0
100
AcDbLine
 10
375.240875
 20
448.953308
 11
375.240875
 21
493.846069
  0
LINE
  5
8B
100
AcDbEntity
  8
DD0
100
AcDbLine
 10
255.540878
 20
410.503296
 11
255.540878
 21
493.846069
  0
LINE
  5
8C
100
AcDbEntity
  8
DD0
100
AcDbLine
 10
369.44532
 20
490.293155
 11
375.240875
 21
491.846069
  0
LINE
  5
8D
100
AcDbEntity
  8
DD0
100
AcDbLine
 10
375.240875
 20
491.846069
 11
369.44532
 21
493.398984
  0
LINE
  5
8E
100
AcDbEntity
  8
DD0
100
AcDbLine
 10
261.336433
 20
493.398984
 11
255.540878
 21
491.846069
  0
LINE
  5
8F
100
AcDbEntity
  8
DD0
100
AcDbLine
 10
255.540878
 20
491.846069
 11
261.336433
 21
490.293155
  0
LINE
  5
90
100
AcDbEntity
  8
DD0
100
AcDbLine
 10
375.240875
 20
491.846069
 11
255.540878
 21
491.846069
  0
TEXT
  5
91
100
AcDbEntity
  8
DD0
100
AcDbText
 10
267.73419
 20
493.046082
 40
5.0
  1
１２０（補助接点サイドオンユニットを付けた場合）
 41
0.666667
  7
STANDARD
100
AcDbText
  0
ENDBLK
  5
92
100
AcDbEntity
  8
DD0
100
AcDbBlockEnd
  0
BLOCK
  5
95
100
AcDbEntity
  8
DD0
100
AcDbBlockBegin
  2
DIMS6
 70
     0
 10
0.0
 20
0.0
  0
LINE
  5
96
100
AcDbEntity
  8
DD0
100
AcDbLine
 10
364.240875
 20
448.703308
 11
364.240875
 21
462.678131
  0
LINE
  5
97
100
AcDbEntity
  8
DD0
100
AcDbLine
 10
381.03643
 20
462.231045
 11
375.240875
 21
460.678131
  0
LINE
  5
98
100
AcDbEntity
  8
DD0
100
AcDbLine
 10
375.240875
 20
460.678131
 11
381.03643
 21
459.125217
  0
LINE
  5
99
100
AcDbEntity
  8
DD0
100
AcDbLine
 10
358.44532
 20
459.125217
 11
364.240875
 21
460.678131
  0
LINE
  5
9A
100
AcDbEntity
  8
DD0
100
AcDbLine
 10
364.240875
 20
460.678131
 11
358.44532
 21
462.231045
  0
LINE
  5
9B
100
AcDbEntity
  8
DD0
100
AcDbLine
 10
381.840875
 20
460.678131
 11
357.640875
 21
460.678131
  0
TEXT
  5
9C
100
AcDbEntity
  8
DD0
100
AcDbText
 10
365.809965
 20
461.878143
 40
5.0
  1
１１
 41
0.666667
  7
STANDARD
100
AcDbText
  0
ENDBLK
  5
9D
100
AcDbEntity
  8
DD0
100
AcDbBlockEnd
  0
BLOCK
  5
A0
100
AcDbEntity
  8
DD0
100
AcDbBlockBegin
  2
DIMS7
 70
     0
 10
0.0
 20
0.0
  0
LINE
  5
A1
100
AcDbEntity
  8
DD0
100
AcDbLine
 10
286.840881
 20
418.703308
 11
286.840881
 21
468.031586
  0
LINE
  5
A2
100
AcDbEntity
  8
DD0
100
AcDbLine
 10
281.840881
 20
456.623413
 11
281.840881
 21
468.031586
  0
LINE
  5
A3
100
AcDbEntity
  8
DD0
100
AcDbLine
 10
292.636436
 20
467.5845
 11
286.840881
 21
466.031586
  0
LINE
  5
A4
100
AcDbEntity
  8
DD0
100
AcDbLine
 10
286.840881
 20
466.031586
 11
292.636436
 21
464.478671
  0
LINE
  5
A5
100
AcDbEntity
  8
DD0
100
AcDbLine
 10
276.045326
 20
464.478671
 11
281.840881
 21
466.031586
  0
LINE
  5
A6
100
AcDbEntity
  8
DD0
100
AcDbLine
 10
281.840881
 20
466.031586
 11
276.045326
 21
467.5845
  0
LINE
  5
A7
100
AcDbEntity
  8
DD0
100
AcDbLine
 10
293.440881
 20
466.031586
 11
269.240881
 21
466.031586
  0
TEXT
  5
A8
100
AcDbEntity
  8
DD0
100
AcDbText
 10
271.00421
 20
467.231598
 40
5.0
  1
５
 41
0.666667
  7
STANDARD
100
AcDbText
  0
ENDBLK
  5
A9
100
AcDbEntity
  8
DD0
100
AcDbBlockEnd
  0
BLOCK
  5
AC
100
AcDbEntity
  8
DD0
100
AcDbBlockBegin
  2
DIMS8
 70
     0
 10
0.0
 20
0.0
  0
LINE
  5
AD
100
AcDbEntity
  8
DD0
100
AcDbLine
 10
286.840881
 20
418.703308
 11
286.840881
 21
486.472992
  0
LINE
  5
AE
100
AcDbEntity
  8
DD0
100
AcDbLine
 10
369.44532
 20
482.920078
 11
375.240875
 21
484.472992
  0
LINE
  5
AF
100
AcDbEntity
  8
DD0
100
AcDbLine
 10
375.240875
 20
484.472992
 11
369.44532
 21
486.025906
  0
LINE
  5
B0
100
AcDbEntity
  8
DD0
100
AcDbLine
 10
292.636436
 20
486.025906
 11
286.840881
 21
484.472992
  0
LINE
  5
B1
100
AcDbEntity
  8
DD0
100
AcDbLine
 10
286.840881
 20
484.472992
 11
292.636436
 21
482.920078
  0
LINE
  5
B2
100
AcDbEntity
  8
DD0
100
AcDbLine
 10
375.240875
 20
484.472992
 11
286.840881
 21
484.472992
  0
TEXT
  5
B3
100
AcDbEntity
  8
DD0
100
AcDbText
 10
323.384215
 20
485.673004
 40
5.0
  1
８８．５
 41
0.666667
  7
STANDARD
100
AcDbText
  0
ENDBLK
  5
B4
100
AcDbEntity
  8
DD0
100
AcDbBlockEnd
  0
BLOCK
  5
B7
100
AcDbEntity
  8
DD0
100
AcDbBlockBegin
  2
DIMS9
 70
     0
 10
0.0
 20
0.0
  0
TEXT
  5
B8
100
AcDbEntity
  8
DD0
100
AcDbText
 10
235.320448
 20
164.624725
 40
5.0
  1
４－Ｍ４ねじ穴
 41
0.666667
  7
STANDARD
100
AcDbText
  0
LINE
  5
B9
100
AcDbEntity
  8
DD0
100
AcDbLine
 10
224.149076
 20
174.900299
 11
220.093933
 21
179.322495
  0
LINE
  5
BA
100
AcDbEntity
  8
DD0
100
AcDbLine
 10
220.093933
 20
179.322495
 11
221.394692
 21
173.465189
  0
LINE
  5
BB
100
AcDbEntity
  8
DD0
100
AcDbLine
 10
220.093933
 20
179.322495
 11
228.377106
 21
163.424728
  0
LINE
  5
BC
100
AcDbEntity
  8
DD0
100
AcDbLine
 10
228.377106
 20
163.424728
 11
269.577118
 21
163.424728
  0
ENDBLK
  5
BD
100
AcDbEntity
  8
DD0
100
AcDbBlockEnd
  0
BLOCK
  5
C0
100
AcDbEntity
  8
DD0
100
AcDbBlockBegin
  2
DIMS10
 70
     0
 10
0.0
 20
0.0
  0
LINE
  5
C1
100
AcDbEntity
  8
DD0
100
AcDbLine
 10
67.071213
 20
245.907211
 11
243.276703
 21
245.907211
  0
LINE
  5
C2
100
AcDbEntity
  8
DD0
100
AcDbLine
 10
207.823807
 20
259.907196
 11
243.276703
 21
259.907196
  0
LINE
  5
C3
100
AcDbEntity
  8
DD0
100
AcDbLine
 10
242.829617
 20
240.111656
 11
241.276703
 21
245.907211
  0
LINE
  5
C4
100
AcDbEntity
  8
DD0
100
AcDbLine
 10
241.276703
 20
245.907211
 11
239.723789
 21
240.111656
  0
LINE
  5
C5
100
AcDbEntity
  8
DD0
100
AcDbLine
 10
239.723789
 20
265.702751
 11
241.276703
 21
259.907196
  0
LINE
  5
C6
100
AcDbEntity
  8
DD0
100
AcDbLine
 10
241.276703
 20
259.907196
 11
242.829617
 21
265.702751
  0
LINE
  5
C7
100
AcDbEntity
  8
DD0
100
AcDbLine
 10
241.276703
 20
239.307211
 11
241.276703
 21
276.507196
  0
TEXT
  5
C8
100
AcDbEntity
  8
DD0
100
AcDbText
 10
240.076706
 20
266.850523
 40
5.0
  1
１４
 50
90.000003
 41
0.666667
  7
STANDARD
100
AcDbText
  0
ENDBLK
  5
C9
100
AcDbEntity
  8
DD0
100
AcDbBlockEnd
  0
BLOCK
  5
CC
100
AcDbEntity
  8
DD0
100
AcDbBlockBegin
  2
DIMS11
 70
     0
 10
0.0
 20
0.0
  0
LINE
  5
CD
100
AcDbEntity
  8
DD0
100
AcDbLine
 10
67.071213
 20
245.907211
 11
243.276703
 21
245.907211
  0
LINE
  5
CE
100
AcDbEntity
  8
DD0
100
AcDbLine
 10
138.071213
 20
180.907211
 11
243.276703
 21
180.907211
  0
LINE
  5
CF
100
AcDbEntity
  8
DD0
100
AcDbLine
 10
242.829617
 20
240.111656
 11
241.276703
 21
245.907211
  0
LINE
  5
D0
100
AcDbEntity
  8
DD0
100
AcDbLine
 10
241.276703
 20
245.907211
 11
239.723789
 21
240.111656
  0
LINE
  5
D1
100
AcDbEntity
  8
DD0
100
AcDbLine
 10
239.723789
 20
186.702766
 11
241.276703
 21
180.907211
  0
LINE
  5
D2
100
AcDbEntity
  8
DD0
100
AcDbLine
 10
241.276703
 20
180.907211
 11
242.829617
 21
186.702766
  0
LINE
  5
D3
100
AcDbEntity
  8
DD0
100
AcDbLine
 10
241.276703
 20
245.907211
 11
241.276703
 21
180.907211
  0
TEXT
  5
D4
100
AcDbEntity
  8
DD0
100
AcDbText
 10
240.076706
 20
209.750548
 40
5.0
  1
６５
 50
90.000003
 41
0.666667
  7
STANDARD
100
AcDbText
  0
ENDBLK
  5
D5
100
AcDbEntity
  8
DD0
100
AcDbBlockEnd
  0
BLOCK
  5
D8
100
AcDbEntity
  8
DD0
100
AcDbBlockBegin
  2
DIMS12
 70
     0
 10
0.0
 20
0.0
  0
LINE
  5
D9
100
AcDbEntity
  8
DD0
100
AcDbLine
 10
131.973801
 20
187.004608
 11
131.973801
 21
284.083496
  0
LINE
  5
DA
100
AcDbEntity
  8
DD0
100
AcDbLine
 10
60.973801
 20
252.004608
 11
60.973801
 21
284.083496
  0
LINE
  5
DB
100
AcDbEntity
  8
DD0
100
AcDbLine
 10
126.178246
 20
280.530582
 11
131.973801
 21
282.083496
  0
LINE
  5
DC
100
AcDbEntity
  8
DD0
100
AcDbLine
 10
131.973801
 20
282.083496
 11
126.178246
 21
283.63641
  0
LINE
  5
DD
100
AcDbEntity
  8
DD0
100
AcDbLine
 10
66.769356
 20
283.63641
 11
60.973801
 21
282.083496
  0
LINE
  5
DE
100
AcDbEntity
  8
DD0
100
AcDbLine
 10
60.973801
 20
282.083496
 11
66.769356
 21
280.530582
  0
LINE
  5
DF
100
AcDbEntity
  8
DD0
100
AcDbLine
 10
131.973801
 20
282.083496
 11
60.973801
 21
282.083496
  0
TEXT
  5
E0
100
AcDbEntity
  8
DD0
100
AcDbText
 10
92.817137
 20
283.283508
 40
5.0
  1
７１
 41
0.666667
  7
STANDARD
100
AcDbText
  0
ENDBLK
  5
E1
100
AcDbEntity
  8
DD0
100
AcDbBlockEnd
  0
BLOCK
  5
E4
100
AcDbEntity
  8
DD0
100
AcDbBlockBegin
  2
DIMS13
 70
     0
 10
0.0
 20
0.0
  0
LINE
  5
E5
100
AcDbEntity
  8
DD0
100
AcDbLine
 10
60.973801
 20
252.004608
 11
60.973801
 21
284.083496
  0
LINE
  5
E6
100
AcDbEntity
  8
DD0
100
AcDbLine
 10
57.523811
 20
257.907196
 11
57.523811
 21
284.083496
  0
LINE
  5
E7
100
AcDbEntity
  8
DD0
100
AcDbLine
 10
66.769356
 20
283.63641
 11
60.973801
 21
282.083496
  0
LINE
  5
E8
100
AcDbEntity
  8
DD0
100
AcDbLine
 10
60.973801
 20
282.083496
 11
66.769356
 21
280.530582
  0
LINE
  5
E9
100
AcDbEntity
  8
DD0
100
AcDbLine
 10
51.728256
 20
280.530582
 11
57.523811
 21
282.083496
  0
LINE
  5
EA
100
AcDbEntity
  8
DD0
100
AcDbLine
 10
57.523811
 20
282.083496
 11
51.728256
 21
283.63641
  0
LINE
  5
EB
100
AcDbEntity
  8
DD0
100
AcDbLine
 10
67.573801
 20
282.083496
 11
36.923811
 21
282.083496
  0
TEXT
  5
EC
100
AcDbEntity
  8
DD0
100
AcDbText
 10
38.687147
 20
283.283508
 40
5.0
  1
３．５
 41
0.666667
  7
STANDARD
100
AcDbText
  0
ENDBLK
  5
ED
100
AcDbEntity
  8
DD0
100
AcDbBlockEnd
  0
BLOCK
  5
F0
100
AcDbEntity
  8
DD0
100
AcDbBlockBegin
  2
DIMS14
 70
     0
 10
0.0
 20
0.0
  0
LINE
  5
F1
100
AcDbEntity
  8
DD0
100
AcDbLine
 10
131.973801
 20
187.004608
 11
131.973801
 21
284.083496
  0
LINE
  5
F2
100
AcDbEntity
  8
DD0
100
AcDbLine
 10
147.873795
 20
252.004608
 11
147.873795
 21
284.083496
  0
LINE
  5
F3
100
AcDbEntity
  8
DD0
100
AcDbLine
 10
137.769356
 20
283.63641
 11
131.973801
 21
282.083496
  0
LINE
  5
F4
100
AcDbEntity
  8
DD0
100
AcDbLine
 10
131.973801
 20
282.083496
 11
137.769356
 21
280.530582
  0
LINE
  5
F5
100
AcDbEntity
  8
DD0
100
AcDbLine
 10
142.07824
 20
280.530582
 11
147.873795
 21
282.083496
  0
LINE
  5
F6
100
AcDbEntity
  8
DD0
100
AcDbLine
 10
147.873795
 20
282.083496
 11
142.07824
 21
283.63641
  0
LINE
  5
F7
100
AcDbEntity
  8
DD0
100
AcDbLine
 10
131.973801
 20
282.083496
 11
147.873795
 21
282.083496
  0
TEXT
  5
F8
100
AcDbEntity
  8
DD0
100
AcDbText
 10
136.267134
 20
283.283508
 40
5.0
  1
１６
 41
0.666667
  7
STANDARD
100
AcDbText
  0
ENDBLK
  5
F9
100
AcDbEntity
  8
DD0
100
AcDbBlockEnd
  0
BLOCK
  5
FC
100
AcDbEntity
  8
DD0
100
AcDbBlockBegin
  2
DIMS15
 70
     0
 10
0.0
 20
0.0
  0
LINE
  5
FD
100
AcDbEntity
  8
DD0
100
AcDbLine
 10
147.873795
 20
252.004608
 11
147.873795
 21
284.083496
  0
LINE
  5
FE
100
AcDbEntity
  8
DD0
100
AcDbLine
 10
218.873795
 20
187.004608
 11
218.873795
 21
284.083496
  0
LINE
  5
FF
100
AcDbEntity
  8
DD0
100
AcDbLine
 10
153.66935
 20
283.63641
 11
147.873795
 21
282.083496
  0
LINE
  5
100
100
AcDbEntity
  8
DD0
100
AcDbLine
 10
147.873795
 20
282.083496
 11
153.66935
 21
280.530582
  0
LINE
  5
101
100
AcDbEntity
  8
DD0
100
AcDbLine
 10
213.07824
 20
280.530582
 11
218.873795
 21
282.083496
  0
LINE
  5
102
100
AcDbEntity
  8
DD0
100
AcDbLine
 10
218.873795
 20
282.083496
 11
213.07824
 21
283.63641
  0
LINE
  5
103
100
AcDbEntity
  8
DD0
100
AcDbLine
 10
147.873795
 20
282.083496
 11
218.873795
 21
282.083496
  0
TEXT
  5
104
100
AcDbEntity
  8
DD0
100
AcDbText
 10
179.717131
 20
283.283508
 40
5.0
  1
７１
 41
0.666667
  7
STANDARD
100
AcDbText
  0
ENDBLK
  5
105
100
AcDbEntity
  8
DD0
100
AcDbBlockEnd
  0
ENDSEC
  0
SECTION
  2
ENTITIES
  0
INSERT
  5
56
100
AcDbEntity
  8
DD0
100
AcDbBlockReference
  2
DIMS0
 10
0.0
 20
0.0
  0
INSERT
  5
62
100
AcDbEntity
  8
DD0
100
AcDbBlockReference
  2
DIMS1
 10
0.0
 20
0.0
  0
INSERT
  5
6E
100
AcDbEntity
  8
DD0
100
AcDbBlockReference
  2
DIMS2
 10
0.0
 20
0.0
  0
INSERT
  5
7A
100
AcDbEntity
  8
DD0
100
AcDbBlockReference
  2
DIMS3
 10
0.0
 20
0.0
  0
INSERT
  5
87
100
AcDbEntity
  8
DD0
100
AcDbBlockReference
  2
DIMS4
 10
0.0
 20
0.0
  0
INSERT
  5
93
100
AcDbEntity
  8
DD0
100
AcDbBlockReference
  2
DIMS5
 10
0.0
 20
0.0
  0
INSERT
  5
9E
100
AcDbEntity
  8
DD0
100
AcDbBlockReference
  2
DIMS6
 10
0.0
 20
0.0
  0
INSERT
  5
AA
100
AcDbEntity
  8
DD0
100
AcDbBlockReference
  2
DIMS7
 10
0.0
 20
0.0
  0
INSERT
  5
B5
100
AcDbEntity
  8
DD0
100
AcDbBlockReference
  2
DIMS8
 10
0.0
 20
0.0
  0
INSERT
  5
BE
100
AcDbEntity
  8
DD0
100
AcDbBlockReference
  2
DIMS9
 10
0.0
 20
0.0
  0
INSERT
  5
CA
100
AcDbEntity
  8
DD0
100
AcDbBlockReference
  2
DIMS10
 10
0.0
 20
0.0
  0
INSERT
  5
D6
100
AcDbEntity
  8
DD0
100
AcDbBlockReference
  2
DIMS11
 10
0.0
 20
0.0
  0
INSERT
  5
E2
100
AcDbEntity
  8
DD0
100
AcDbBlockReference
  2
DIMS12
 10
0.0
 20
0.0
  0
INSERT
  5
EE
100
AcDbEntity
  8
DD0
100
AcDbBlockReference
  2
DIMS13
 10
0.0
 20
0.0
  0
INSERT
  5
FA
100
AcDbEntity
  8
DD0
100
AcDbBlockReference
  2
DIMS14
 10
0.0
 20
0.0
  0
INSERT
  5
106
100
AcDbEntity
  8
DD0
100
AcDbBlockReference
  2
DIMS15
 10
0.0
 20
0.0
  0
ARC
  5
107
100
AcDbEntity
  8
M0
100
AcDbCircle
 10
157.123807
 20
364.703297
 40
1.0
100
AcDbArc
 50
180.0
 51
270.0
  0
ARC
  5
108
100
AcDbEntity
  8
M0
100
AcDbCircle
 10
183.373807
 20
446.503297
 40
2.65
100
AcDbArc
 50
350.223151
 51
369.776849
  0
ARC
  5
109
100
AcDbEntity
  8
M0
100
AcDbCircle
 10
220.023807
 20
425.303297
 40
1.0
100
AcDbArc
 50
90.0
 51
180.0
  0
ARC
  5
10A
100
AcDbEntity
  8
M0
100
AcDbCircle
 10
157.823807
 20
364.703297
 40
1.0
100
AcDbArc
 50
270.0
 51
360.0
  0
ARC
  5
10B
100
AcDbEntity
  8
M0
100
AcDbCircle
 10
208.923807
 20
364.703297
 40
1.0
100
AcDbArc
 50
180.0
 51
270.0
  0
LINE
  5
10C
100
AcDbEntity
  8
M0
100
AcDbLine
 10
165.623807
 20
451.703296
 11
165.623807
 21
452.203297
  0
ARC
  5
10D
100
AcDbEntity
  8
M0
100
AcDbCircle
 10
183.373807
 20
446.503297
 40
2.65
100
AcDbArc
 50
189.776849
 51
350.223151
  0
ARC
  5
10E
100
AcDbEntity
  8
M0
100
AcDbCircle
 10
183.373807
 20
446.503297
 40
2.65
100
AcDbArc
 50
170.223151
 51
189.776849
  0
ARC
  5
10F
100
AcDbEntity
  8
M0
100
AcDbCircle
 10
200.723807
 20
366.703297
 40
2.65
100
AcDbArc
 50
350.223151
 51
369.776849
  0
ARC
  5
110
100
AcDbEntity
  8
M0
100
AcDbCircle
 10
183.373807
 20
446.503297
 40
2.65
100
AcDbArc
 50
9.776849
 51
170.223151
  0
ARC
  5
111
100
AcDbEntity
  8
M0
100
AcDbCircle
 10
196.223807
 20
443.403297
 40
0.6
100
AcDbArc
 50
187.490122
 51
324.314617
  0
ARC
  5
112
100
AcDbEntity
  8
M0
100
AcDbCircle
 10
198.923807
 20
442.203297
 40
1.0
100
AcDbArc
 50
121.788346
 51
150.0
  0
LINE
  5
113
100
AcDbEntity
  8
M0
100
AcDbLine
 10
189.873807
 20
393.203296
 11
191.873808
 21
393.203296
  0
LINE
  5
114
100
AcDbEntity
  8
M0
100
AcDbLine
 10
177.373807
 20
391.703297
 11
177.373807
 21
392.703296
  0
LINE
  5
115
100
AcDbEntity
  8
M0
100
AcDbLine
 10
174.373808
 20
392.703296
 11
174.373808
 21
391.703297
  0
LINE
  5
116
100
AcDbEntity
  8
M0
100
AcDbLine
 10
174.873807
 20
391.203297
 11
176.873807
 21
391.203297
  0
LINE
  5
117
100
AcDbEntity
  8
M0
100
AcDbLine
 10
191.873808
 20
391.203297
 11
189.873807
 21
391.203297
  0
LINE
  5
118
100
AcDbEntity
  8
M0
100
AcDbLine
 10
186.373807
 20
418.403296
 11
186.373807
 21
420.003297
  0
LINE
  5
119
100
AcDbEntity
  8
M0
100
AcDbLine
 10
201.123808
 20
451.703296
 11
201.123808
 21
452.203297
  0
LINE
  5
11A
100
AcDbEntity
  8
M0
100
AcDbLine
 10
162.923807
 20
444.203295
 11
163.423807
 21
444.203295
  0
LINE
  5
11B
100
AcDbEntity
  8
M0
100
AcDbLine
 10
192.373807
 20
392.703296
 11
192.373807
 21
391.703297
  0
LINE
  5
11C
100
AcDbEntity
  8
M0
100
AcDbLine
 10
157.123808
 20
428.903297
 11
209.623806
 21
428.903297
  0
LINE
  5
11D
100
AcDbEntity
  8
M0
100
AcDbLine
 10
188.273807
 20
416.403297
 11
188.273807
 21
415.903297
  0
LINE
  5
11E
100
AcDbEntity
  8
M0
100
AcDbLine
 10
147.873806
 20
389.553296
 11
147.873806
 21
396.053297
  0
LINE
  5
11F
100
AcDbEntity
  8
M0
100
AcDbLine
 10
182.923807
 20
446.053297
 11
182.923807
 21
445.303295
  0
LINE
  5
120
100
AcDbEntity
  8
M0
100
AcDbLine
 10
184.961258
 20
446.053297
 11
183.823807
 21
446.053297
  0
CIRCLE
  5
121
100
AcDbEntity
  8
M0
100
AcDbCircle
 10
200.723807
 20
366.703297
 40
2.825
  0
ARC
  5
122
100
AcDbEntity
  8
M0
100
AcDbCircle
 10
178.573807
 20
401.503297
 40
0.5
100
AcDbArc
 50
180.0
 51
270.0
  0
ARC
  5
123
100
AcDbEntity
  8
M0
100
AcDbCircle
 10
178.573807
 20
410.903297
 40
0.5
100
AcDbArc
 50
90.0
 51
180.0
  0
ARC
  5
124
100
AcDbEntity
  8
M0
100
AcDbCircle
 10
184.623807
 20
403.503297
 40
0.5
100
AcDbArc
 50
270.0
 51
360.0
  0
LINE
  5
125
100
AcDbEntity
  8
M0
100
AcDbLine
 10
202.823807
 20
451.203298
 11
195.523807
 21
451.203298
  0
LINE
  5
126
100
AcDbEntity
  8
M0
100
AcDbLine
 10
182.923807
 20
447.703295
 11
182.923807
 21
446.953297
  0
LINE
  5
127
100
AcDbEntity
  8
M0
100
AcDbLine
 10
182.923807
 20
446.053297
 11
181.786356
 21
446.053297
  0
LINE
  5
128
100
AcDbEntity
  8
M0
100
AcDbLine
 10
163.923808
 20
451.203298
 11
163.423807
 21
450.703297
  0
LINE
  5
129
100
AcDbEntity
  8
M0
100
AcDbLine
 10
177.323807
 20
417.203297
 11
175.173807
 21
417.203297
  0
LINE
  5
12A
100
AcDbEntity
  8
M0
100
AcDbLine
 10
163.423807
 20
450.703297
 11
163.423807
 21
442.703296
  0
ARC
  5
12B
100
AcDbEntity
  8
M0
100
AcDbCircle
 10
188.173807
 20
410.903297
 40
0.5
100
AcDbArc
 50
0.0
 51
90.0
  0
ARC
  5
12C
100
AcDbEntity
  8
M0
100
AcDbCircle
 10
183.373806
 20
446.453297
 40
4.25
100
AcDbArc
 50
241.927521
 51
298.072495
  0
ARC
  5
12D
100
AcDbEntity
  8
M0
100
AcDbCircle
 10
183.373806
 20
446.453297
 40
4.25
100
AcDbArc
 50
241.927521
 51
270.0
  0
ARC
  5
12E
100
AcDbEntity
  8
M0
100
AcDbCircle
 10
170.523807
 20
443.403297
 40
0.6
100
AcDbArc
 50
215.685335
 51
270.0
  0
ARC
  5
12F
100
AcDbEntity
  8
M0
100
AcDbCircle
 10
200.973807
 20
365.953297
 40
4.25
100
AcDbArc
 50
61.927513
 51
118.072487
  0
ARC
  5
130
100
AcDbEntity
  8
M0
100
AcDbCircle
 10
198.923807
 20
442.203297
 40
1.0
100
AcDbArc
 50
30.0
 51
58.211672
  0
ARC
  5
131
100
AcDbEntity
  8
M0
100
AcDbCircle
 10
183.373807
 20
365.953297
 40
4.25
100
AcDbArc
 50
61.927513
 51
118.072487
  0
ARC
  5
132
100
AcDbEntity
  8
M0
100
AcDbCircle
 10
200.973806
 20
446.453297
 40
4.25
100
AcDbArc
 50
241.927521
 51
298.072495
  0
ARC
  5
133
100
AcDbEntity
  8
M0
100
AcDbCircle
 10
165.773807
 20
365.953297
 40
4.25
100
AcDbArc
 50
61.927513
 51
118.072487
  0
ARC
  5
134
100
AcDbEntity
  8
M0
100
AcDbCircle
 10
188.173807
 20
401.503297
 40
0.5
100
AcDbArc
 50
270.0
 51
360.0
  0
ARC
  5
135
100
AcDbEntity
  8
M0
100
AcDbCircle
 10
200.973806
 20
446.453297
 40
4.25
100
AcDbArc
 50
241.927521
 51
270.0
  0
ARC
  5
136
100
AcDbEntity
  8
M0
100
AcDbCircle
 10
218.373808
 20
381.953297
 40
0.5
100
AcDbArc
 50
270.0
 51
360.0
  0
ARC
  5
137
100
AcDbEntity
  8
M0
100
AcDbCircle
 10
218.373807
 20
388.453297
 40
0.5
100
AcDbArc
 50
0.0
 51
90.0
  0
ARC
  5
138
100
AcDbEntity
  8
M0
100
AcDbCircle
 10
211.873807
 20
416.353297
 40
0.5
100
AcDbArc
 50
180.0
 51
270.0
  0
ARC
  5
139
100
AcDbEntity
  8
M0
100
AcDbCircle
 10
211.873807
 20
388.453296
 40
0.5
100
AcDbArc
 50
90.0
 51
180.0
  0
ARC
  5
13A
100
AcDbEntity
  8
M0
100
AcDbCircle
 10
218.373807
 20
416.353297
 40
0.5
100
AcDbArc
 50
270.0
 51
360.0
  0
ARC
  5
13B
100
AcDbEntity
  8
M0
100
AcDbCircle
 10
218.373807
 20
422.853297
 40
0.5
100
AcDbArc
 50
0.0
 51
90.0
  0
ARC
  5
13C
100
AcDbEntity
  8
M0
100
AcDbCircle
 10
189.273807
 20
416.403297
 40
1.0
100
AcDbArc
 50
90.0
 51
180.0
  0
ARC
  5
13D
100
AcDbEntity
  8
M0
100
AcDbCircle
 10
210.123807
 20
413.903297
 40
0.5
100
AcDbArc
 50
270.0
 51
360.0
  0
ARC
  5
13E
100
AcDbEntity
  8
M0
100
AcDbCircle
 10
165.773806
 20
446.453297
 40
4.25
100
AcDbArc
 50
241.927521
 51
270.0
  0
ARC
  5
13F
100
AcDbEntity
  8
M0
100
AcDbCircle
 10
165.773806
 20
446.453297
 40
4.25
100
AcDbArc
 50
241.927521
 51
298.072495
  0
ARC
  5
140
100
AcDbEntity
  8
M0
100
AcDbCircle
 10
177.473807
 20
416.403297
 40
1.0
100
AcDbArc
 50
0.0
 51
90.0
  0
ARC
  5
141
100
AcDbEntity
  8
M0
100
AcDbCircle
 10
157.123807
 20
427.903297
 40
1.0
100
AcDbArc
 50
90.0
 51
180.0
  0
ARC
  5
142
100
AcDbEntity
  8
M0
100
AcDbCircle
 10
148.373807
 20
396.053297
 40
0.5
100
AcDbArc
 50
90.0
 51
180.0
  0
ARC
  5
143
100
AcDbEntity
  8
M0
100
AcDbCircle
 10
154.873807
 20
389.553297
 40
0.5
100
AcDbArc
 50
270.0
 51
360.0
  0
ARC
  5
144
100
AcDbEntity
  8
M0
100
AcDbCircle
 10
148.373807
 20
422.853296
 40
0.5
100
AcDbArc
 50
90.0
 51
180.0
  0
ARC
  5
145
100
AcDbEntity
  8
M0
100
AcDbCircle
 10
148.373808
 20
416.353296
 40
0.5
100
AcDbArc
 50
180.0
 51
270.0
  0
ARC
  5
146
100
AcDbEntity
  8
M0
100
AcDbCircle
 10
148.373808
 20
416.353296
 40
0.5
100
AcDbArc
 50
180.0
 51
270.0
  0
ARC
  5
147
100
AcDbEntity
  8
M0
100
AcDbCircle
 10
154.873808
 20
416.353297
 40
0.5
100
AcDbArc
 50
270.0
 51
360.0
  0
ARC
  5
148
100
AcDbEntity
  8
M0
100
AcDbCircle
 10
148.373807
 20
389.553297
 40
0.5
100
AcDbArc
 50
180.0
 51
270.0
  0
ARC
  5
149
100
AcDbEntity
  8
M0
100
AcDbCircle
 10
211.873807
 20
422.853297
 40
0.5
100
AcDbArc
 50
90.0
 51
180.0
  0
ARC
  5
14A
100
AcDbEntity
  8
M0
100
AcDbCircle
 10
178.573807
 20
410.47225
 40
0.5
100
AcDbArc
 50
90.0
 51
180.0
  0
ARC
  5
14B
100
AcDbEntity
  8
M0
100
AcDbCircle
 10
154.873807
 20
422.853297
 40
0.5
100
AcDbArc
 50
0.0
 51
90.0
  0
ARC
  5
14C
100
AcDbEntity
  8
M0
100
AcDbCircle
 10
188.173807
 20
410.47225
 40
0.5
100
AcDbArc
 50
0.0
 51
90.0
  0
ARC
  5
14D
100
AcDbEntity
  8
M0
100
AcDbCircle
 10
154.873807
 20
396.053297
 40
0.5
100
AcDbArc
 50
0.0
 51
90.0
  0
LINE
  5
14E
100
AcDbEntity
  8
M0
100
AcDbLine
 10
191.773807
 20
417.403296
 11
189.273807
 21
417.403296
  0
LINE
  5
14F
100
AcDbEntity
  8
M0
100
AcDbLine
 10
192.773807
 20
396.003296
 11
192.773807
 21
416.403297
  0
LINE
  5
150
100
AcDbEntity
  8
M0
100
AcDbLine
 10
154.873807
 20
389.053297
 11
148.373807
 21
389.053297
  0
LINE
  5
151
100
AcDbEntity
  8
M0
100
AcDbLine
 10
218.373807
 20
415.853297
 11
211.873807
 21
415.853297
  0
LINE
  5
152
100
AcDbEntity
  8
M0
100
AcDbLine
 10
211.873807
 20
423.353296
 11
218.373807
 21
423.353296
  0
LINE
  5
153
100
AcDbEntity
  8
M0
100
AcDbLine
 10
218.873808
 20
422.853297
 11
218.873808
 21
416.353297
  0
LINE
  5
154
100
AcDbEntity
  8
M0
100
AcDbLine
 10
186.373807
 20
420.003297
 11
180.373807
 21
420.003297
  0
ARC
  5
155
100
AcDbEntity
  8
M0
100
AcDbCircle
 10
182.123807
 20
403.503297
 40
0.5
100
AcDbArc
 50
180.0
 51
270.0
  0
LINE
  5
156
100
AcDbEntity
  8
M0
100
AcDbLine
 10
180.373807
 20
418.403296
 11
180.373807
 21
420.003297
  0
LINE
  5
157
100
AcDbEntity
  8
M0
100
AcDbLine
 10
173.973807
 20
396.003296
 11
173.973807
 21
416.403297
  0
LINE
  5
158
100
AcDbEntity
  8
M0
100
AcDbLine
 10
180.373807
 20
418.403296
 11
186.373807
 21
418.403296
  0
LINE
  5
159
100
AcDbEntity
  8
M0
100
AcDbLine
 10
174.973807
 20
395.003297
 11
191.773807
 21
395.003297
  0
LINE
  5
15A
100
AcDbEntity
  8
M0
100
AcDbLine
 10
148.373807
 20
396.553296
 11
154.873807
 21
396.553296
  0
LINE
  5
15B
100
AcDbEntity
  8
M0
100
AcDbLine
 10
218.373807
 20
389.053297
 11
211.873808
 21
389.053297
  0
LINE
  5
15C
100
AcDbEntity
  8
M0
100
AcDbLine
 10
218.873808
 20
389.553298
 11
218.873808
 21
396.053297
  0
LINE
  5
15D
100
AcDbEntity
  8
M0
100
AcDbLine
 10
154.873807
 20
381.453297
 11
148.373807
 21
381.453297
  0
LINE
  5
15E
100
AcDbEntity
  8
M0
100
AcDbLine
 10
211.873807
 20
396.553296
 11
218.373807
 21
396.553296
  0
ARC
  5
15F
100
AcDbEntity
  8
M0
100
AcDbCircle
 10
156.623807
 20
413.903297
 40
0.5
100
AcDbArc
 50
180.0
 51
270.0
  0
LINE
  5
160
100
AcDbEntity
  8
M0
100
AcDbLine
 10
211.373808
 20
416.353297
 11
211.373808
 21
422.853297
  0
LINE
  5
161
100
AcDbEntity
  8
M0
  6
DASHDOT
100
AcDbLine
 10
183.373807
 20
358.703296
 11
183.373807
 21
457.703298
  0
LINE
  5
162
100
AcDbEntity
  8
M0
100
AcDbLine
 10
148.373807
 20
423.353296
 11
154.873807
 21
423.353296
  0
LINE
  5
163
100
AcDbEntity
  8
M0
100
AcDbLine
 10
154.873807
 20
415.853297
 11
148.373808
 21
415.853297
  0
LINE
  5
164
100
AcDbEntity
  8
M0
100
AcDbLine
 10
202.573808
 20
443.053295
 11
196.073808
 21
443.053295
  0
LINE
  5
165
100
AcDbEntity
  8
M0
100
AcDbLine
 10
146.723809
 20
386.103297
 11
146.623807
 21
386.103297
  0
LINE
  5
166
100
AcDbEntity
  8
M0
100
AcDbLine
 10
147.873806
 20
430.453296
 11
147.873806
 21
423.953296
  0
LINE
  5
167
100
AcDbEntity
  8
M0
100
AcDbLine
 10
203.073807
 20
443.553296
 11
203.073807
 21
450.053297
  0
LINE
  5
168
100
AcDbEntity
  8
M0
100
AcDbLine
 10
155.373808
 20
430.453297
 11
155.373808
 21
423.953297
  0
LINE
  5
169
100
AcDbEntity
  8
M0
100
AcDbLine
 10
196.073807
 20
450.553299
 11
202.573806
 21
450.553299
  0
LINE
  5
16A
100
AcDbEntity
  8
M0
100
AcDbLine
 10
207.923807
 20
364.703298
 11
207.923807
 21
366.703295
  0
LINE
  5
16B
100
AcDbEntity
  8
M0
100
AcDbLine
 10
195.573808
 20
443.553296
 11
195.573804
 21
450.053296
  0
LINE
  5
16C
100
AcDbEntity
  8
M0
100
AcDbLine
 10
172.723808
 20
366.703295
 11
172.723808
 21
364.703298
  0
LINE
  5
16D
100
AcDbEntity
  8
M0
100
AcDbLine
 10
220.123807
 20
426.303296
 11
220.023805
 21
426.303296
  0
LINE
  5
16E
100
AcDbEntity
  8
M0
100
AcDbLine
 10
220.023805
 20
386.103297
 11
220.123807
 21
386.103297
  0
LINE
  5
16F
100
AcDbEntity
  8
M0
100
AcDbLine
 10
146.623807
 20
426.303296
 11
146.723809
 21
426.303296
  0
ARC
  5
170
100
AcDbEntity
  8
M0
100
AcDbCircle
 10
218.373808
 20
389.553297
 40
0.5
100
AcDbArc
 50
270.0
 51
360.0
  0
ARC
  5
171
100
AcDbEntity
  8
M0
100
AcDbCircle
 10
218.373808
 20
389.553297
 40
0.5
100
AcDbArc
 50
270.0
 51
360.0
  0
ARC
  5
172
100
AcDbEntity
  8
M0
100
AcDbCircle
 10
155.473807
 20
367.203297
 40
0.5
100
AcDbArc
 50
180.0
 51
270.0
  0
ARC
  5
173
100
AcDbEntity
  8
M0
100
AcDbCircle
 10
154.923807
 20
445.703297
 40
2.0
100
AcDbArc
 50
53.130102
 51
90.0
  0
ARC
  5
174
100
AcDbEntity
  8
M0
100
AcDbCircle
 10
211.823807
 20
445.703297
 40
2.0
100
AcDbArc
 50
90.0
 51
126.869898
  0
ARC
  5
175
100
AcDbEntity
  8
M0
100
AcDbCircle
 10
148.373807
 20
381.953297
 40
0.5
100
AcDbArc
 50
180.0
 51
270.0
  0
CIRCLE
  5
176
100
AcDbEntity
  8
M0
100
AcDbCircle
 10
166.023807
 20
366.703297
 40
2.85
  0
CIRCLE
  5
177
100
AcDbEntity
  8
M0
100
AcDbCircle
 10
166.023807
 20
366.703297
 40
2.825
  0
ARC
  5
178
100
AcDbEntity
  8
M0
100
AcDbCircle
 10
148.373807
 20
422.853296
 40
0.5
100
AcDbArc
 50
90.0
 51
180.0
  0
ARC
  5
179
100
AcDbEntity
  8
M0
100
AcDbCircle
 10
211.873807
 20
396.053296
 40
0.5
100
AcDbArc
 50
90.0
 51
180.0
  0
ARC
  5
17A
100
AcDbEntity
  8
M0
100
AcDbCircle
 10
211.873808
 20
389.553296
 40
0.5
100
AcDbArc
 50
180.0
 51
270.0
  0
ARC
  5
17B
100
AcDbEntity
  8
M0
100
AcDbCircle
 10
218.373807
 20
396.053297
 40
0.5
100
AcDbArc
 50
0.0
 51
90.0
  0
LINE
  5
17C
100
AcDbEntity
  8
M0
100
AcDbLine
 10
147.873806
 20
422.853295
 11
147.873806
 21
416.353296
  0
ARC
  5
17D
100
AcDbEntity
  8
M0
100
AcDbCircle
 10
220.023807
 20
379.853297
 40
1.0
100
AcDbArc
 50
180.0
 51
270.0
  0
LINE
  5
17E
100
AcDbEntity
  8
M0
100
AcDbLine
 10
218.873808
 20
388.453297
 11
218.873808
 21
381.953297
  0
LINE
  5
17F
100
AcDbEntity
  8
M0
100
AcDbLine
 10
211.873807
 20
388.953297
 11
218.373807
 21
388.953297
  0
LINE
  5
180
100
AcDbEntity
  8
M0
100
AcDbLine
 10
211.373808
 20
381.953296
 11
211.373808
 21
388.453296
  0
LINE
  5
181
100
AcDbEntity
  8
M0
100
AcDbLine
 10
218.373808
 20
381.453297
 11
211.873807
 21
381.453297
  0
ARC
  5
182
100
AcDbEntity
  8
M0
100
AcDbCircle
 10
160.420675
 20
418.052553
 40
5.573176
100
AcDbArc
 50
208.520126
 51
219.557059
  0
ARC
  5
183
100
AcDbEntity
  8
M0
100
AcDbCircle
 10
206.326939
 20
418.052553
 40
5.573176
100
AcDbArc
 50
320.442941
 51
331.479874
  0
ARC
  5
184
100
AcDbEntity
  8
M0
100
AcDbCircle
 10
156.123807
 20
425.703297
 40
0.6
100
AcDbArc
 50
90.0
 51
180.0
  0
ARC
  5
185
100
AcDbEntity
  8
M0
100
AcDbCircle
 10
145.923807
 20
432.553297
 40
1.0
100
AcDbArc
 50
90.0
 51
180.0
  0
ARC
  5
186
100
AcDbEntity
  8
M0
100
AcDbCircle
 10
210.623807
 20
425.703297
 40
0.6
100
AcDbArc
 50
0.0
 51
90.0
  0
ARC
  5
187
100
AcDbEntity
  8
M0
100
AcDbCircle
 10
146.723807
 20
432.553297
 40
1.0
100
AcDbArc
 50
0.0
 51
90.0
  0
LINE
  5
188
100
AcDbEntity
  8
M0
100
AcDbLine
 10
171.173807
 20
450.053297
 11
171.173807
 21
443.553296
  0
LINE
  5
189
100
AcDbEntity
  8
M0
100
AcDbLine
 10
155.373806
 20
388.453297
 11
155.373806
 21
381.953296
  0
LINE
  5
18A
100
AcDbEntity
  8
M0
100
AcDbLine
 10
211.873807
 20
430.953297
 11
218.373807
 21
430.953297
  0
LINE
  5
18B
100
AcDbEntity
  8
M0
100
AcDbLine
 10
218.373807
 20
423.453296
 11
211.873807
 21
423.453296
  0
LINE
  5
18C
100
AcDbEntity
  8
M0
100
AcDbLine
 10
211.373808
 20
423.953297
 11
211.373808
 21
430.453297
  0
LINE
  5
18D
100
AcDbEntity
  8
M0
100
AcDbLine
 10
164.173807
 20
450.553295
 11
170.673807
 21
450.553295
  0
LINE
  5
18E
100
AcDbEntity
  8
M0
100
AcDbLine
 10
148.373807
 20
388.953297
 11
154.873807
 21
388.953297
  0
LINE
  5
18F
100
AcDbEntity
  8
M0
100
AcDbLine
 10
211.373808
 20
389.553296
 11
211.373808
 21
396.053296
  0
LINE
  5
190
100
AcDbEntity
  8
M0
100
AcDbLine
 10
163.673807
 20
443.553296
 11
163.673807
 21
450.053297
  0
LINE
  5
191
100
AcDbEntity
  8
M0
100
AcDbLine
 10
218.873808
 20
430.453297
 11
218.873808
 21
423.953297
  0
LINE
  5
192
100
AcDbEntity
  8
M0
100
AcDbLine
 10
170.673807
 20
443.053298
 11
164.173807
 21
443.053298
  0
LINE
  5
193
100
AcDbEntity
  8
M0
100
AcDbLine
 10
181.786356
 20
446.953297
 11
180.762294
 21
446.953297
  0
LINE
  5
194
100
AcDbEntity
  8
M0
100
AcDbLine
 10
200.273806
 20
366.253298
 11
200.273806
 21
365.503297
  0
LINE
  5
195
100
AcDbEntity
  8
M0
100
AcDbLine
 10
200.273806
 20
367.903297
 11
200.273806
 21
367.153295
  0
LINE
  5
196
100
AcDbEntity
  8
M0
100
AcDbLine
 10
180.762294
 20
446.053297
 11
181.786356
 21
446.053297
  0
LINE
  5
197
100
AcDbEntity
  8
M0
100
AcDbLine
 10
201.173807
 20
365.503297
 11
201.173807
 21
366.253298
  0
LINE
  5
198
100
AcDbEntity
  8
M0
100
AcDbLine
 10
201.173807
 20
367.903297
 11
200.273806
 21
367.903297
  0
LINE
  5
199
100
AcDbEntity
  8
M0
100
AcDbLine
 10
188.173807
 20
401.003297
 11
188.923807
 21
401.003297
  0
LINE
  5
19A
100
AcDbEntity
  8
M0
100
AcDbLine
 10
158.823807
 20
369.703297
 11
163.773807
 21
369.703297
  0
LINE
  5
19B
100
AcDbEntity
  8
M0
100
AcDbLine
 10
203.323808
 20
450.703297
 11
202.823807
 21
451.203298
  0
LINE
  5
19C
100
AcDbEntity
  8
M0
100
AcDbLine
 10
211.223807
 20
389.003296
 11
219.023807
 21
389.003296
  0
LINE
  5
19D
100
AcDbEntity
  8
M0
100
AcDbLine
 10
203.323808
 20
442.703296
 11
203.323808
 21
450.703297
  0
LINE
  5
19E
100
AcDbEntity
  8
M0
100
AcDbLine
 10
201.173807
 20
367.153295
 11
202.311257
 21
367.153295
  0
LINE
  5
19F
100
AcDbEntity
  8
M0
100
AcDbLine
 10
171.223807
 20
451.203298
 11
162.923807
 21
451.203298
  0
LINE
  5
1A0
100
AcDbEntity
  8
M0
100
AcDbLine
 10
183.823807
 20
447.703295
 11
182.923807
 21
447.703295
  0
LINE
  5
1A1
100
AcDbEntity
  8
M0
100
AcDbLine
 10
182.923807
 20
445.303295
 11
183.823807
 21
445.303295
  0
LINE
  5
1A2
100
AcDbEntity
  8
M0
100
AcDbLine
 10
183.823807
 20
446.953297
 11
184.961258
 21
446.953297
  0
LINE
  5
1A3
100
AcDbEntity
  8
M0
100
AcDbLine
 10
181.786356
 20
446.953297
 11
182.923807
 21
446.953297
  0
LINE
  5
1A4
100
AcDbEntity
  8
M0
100
AcDbLine
 10
155.373806
 20
396.053296
 11
155.373806
 21
389.553297
  0
LINE
  5
1A5
100
AcDbEntity
  8
M0
100
AcDbLine
 10
184.961258
 20
446.053297
 11
185.98532
 21
446.053297
  0
LINE
  5
1A6
100
AcDbEntity
  8
M0
100
AcDbLine
 10
185.98532
 20
446.953297
 11
184.961258
 21
446.953297
  0
LINE
  5
1A7
100
AcDbEntity
  8
M0
100
AcDbLine
 10
202.311257
 20
366.253298
 11
201.173807
 21
366.253298
  0
LINE
  5
1A8
100
AcDbEntity
  8
M0
100
AcDbLine
 10
200.273806
 20
366.253298
 11
199.136356
 21
366.253298
  0
LINE
  5
1A9
100
AcDbEntity
  8
M0
100
AcDbLine
 10
183.823807
 20
446.953297
 11
183.823807
 21
447.703295
  0
LINE
  5
1AA
100
AcDbEntity
  8
M0
100
AcDbLine
 10
183.823807
 20
445.303295
 11
183.823807
 21
446.053297
  0
ARC
  5
1AB
100
AcDbEntity
  8
M0
100
AcDbCircle
 10
218.373807
 20
388.453297
 40
0.5
100
AcDbArc
 50
0.0
 51
90.0
  0
ARC
  5
1AC
100
AcDbEntity
  8
M0
100
AcDbCircle
 10
211.873808
 20
381.953296
 40
0.5
100
AcDbArc
 50
180.0
 51
270.0
  0
ARC
  5
1AD
100
AcDbEntity
  8
M0
100
AcDbCircle
 10
209.623807
 20
447.703297
 40
1.0
100
AcDbArc
 50
0.0
 51
90.0
  0
ARC
  5
1AE
100
AcDbEntity
  8
M0
100
AcDbCircle
 10
218.373808
 20
381.953297
 40
0.5
100
AcDbArc
 50
270.0
 51
360.0
  0
ARC
  5
1AF
100
AcDbEntity
  8
M0
100
AcDbCircle
 10
154.873807
 20
388.453297
 40
0.5
100
AcDbArc
 50
0.0
 51
90.0
  0
ARC
  5
1B0
100
AcDbEntity
  8
M0
100
AcDbCircle
 10
166.023807
 20
366.703297
 40
2.65
100
AcDbArc
 50
189.776849
 51
350.223151
  0
ARC
  5
1B1
100
AcDbEntity
  8
M0
100
AcDbCircle
 10
154.873807
 20
381.953297
 40
0.5
100
AcDbArc
 50
270.0
 51
360.0
  0
LINE
  5
1B2
100
AcDbEntity
  8
M0
100
AcDbLine
 10
147.873806
 20
381.953296
 11
147.873806
 21
388.453297
  0
ARC
  5
1B3
100
AcDbEntity
  8
M0
100
AcDbCircle
 10
164.173807
 20
443.553297
 40
0.5
100
AcDbArc
 50
180.0
 51
270.0
  0
ARC
  5
1B4
100
AcDbEntity
  8
M0
100
AcDbCircle
 10
148.373807
 20
388.453297
 40
0.5
100
AcDbArc
 50
90.0
 51
180.0
  0
ARC
  5
1B5
100
AcDbEntity
  8
M0
100
AcDbCircle
 10
170.673807
 20
443.553297
 40
0.5
100
AcDbArc
 50
270.0
 51
360.0
  0
ARC
  5
1B6
100
AcDbEntity
  8
M0
100
AcDbCircle
 10
170.673807
 20
450.053297
 40
0.5
100
AcDbArc
 50
0.0
 51
90.0
  0
ARC
  5
1B7
100
AcDbEntity
  8
M0
100
AcDbCircle
 10
154.873807
 20
430.453297
 40
0.5
100
AcDbArc
 50
0.0
 51
90.0
  0
ARC
  5
1B8
100
AcDbEntity
  8
M0
100
AcDbCircle
 10
154.873808
 20
423.953297
 40
0.5
100
AcDbArc
 50
270.0
 51
360.0
  0
LINE
  5
1B9
100
AcDbEntity
  8
M0
100
AcDbLine
 10
207.923807
 20
442.703296
 11
202.973807
 21
442.703296
  0
LINE
  5
1BA
100
AcDbEntity
  8
M0
100
AcDbLine
 10
176.423807
 20
369.703297
 11
181.373807
 21
369.703297
  0
LINE
  5
1BB
100
AcDbEntity
  8
M0
100
AcDbLine
 10
194.023807
 20
369.703297
 11
198.973807
 21
369.703297
  0
LINE
  5
1BC
100
AcDbEntity
  8
M0
100
AcDbLine
 10
179.223807
 20
400.503297
 11
179.223807
 21
401.003297
  0
ARC
  5
1BD
100
AcDbEntity
  8
M0
100
AcDbCircle
 10
148.373808
 20
423.953296
 40
0.5
100
AcDbArc
 50
180.0
 51
270.0
  0
ARC
  5
1BE
100
AcDbEntity
  8
M0
100
AcDbCircle
 10
196.073807
 20
450.053296
 40
0.5
100
AcDbArc
 50
90.0
 51
180.0
  0
ARC
  5
1BF
100
AcDbEntity
  8
M0
100
AcDbCircle
 10
196.073808
 20
443.553296
 40
0.5
100
AcDbArc
 50
180.0
 51
270.0
  0
ARC
  5
1C0
100
AcDbEntity
  8
M0
100
AcDbCircle
 10
148.373807
 20
430.453296
 40
0.5
100
AcDbArc
 50
90.0
 51
180.0
  0
ARC
  5
1C1
100
AcDbEntity
  8
M0
100
AcDbCircle
 10
202.573808
 20
443.553297
 40
0.5
100
AcDbArc
 50
270.0
 51
360.0
  0
ARC
  5
1C2
100
AcDbEntity
  8
M0
100
AcDbCircle
 10
202.573807
 20
450.053297
 40
0.5
100
AcDbArc
 50
0.0
 51
90.0
  0
LINE
  5
1C3
100
AcDbEntity
  8
M0
100
AcDbLine
 10
148.623808
 20
431.003297
 11
147.723807
 21
431.003297
  0
LINE
  5
1C4
100
AcDbEntity
  8
M0
100
AcDbLine
 10
172.923807
 20
448.303298
 11
172.923807
 21
450.503298
  0
LINE
  5
1C5
100
AcDbEntity
  8
M0
100
AcDbLine
 10
218.123807
 20
431.003297
 11
219.023807
 21
431.003297
  0
LINE
  5
1C6
100
AcDbEntity
  8
M0
100
AcDbLine
 10
181.373807
 20
369.703297
 11
185.373807
 21
369.703297
  0
LINE
  5
1C7
100
AcDbEntity
  8
M0
100
AcDbLine
 10
198.973806
 20
442.703296
 11
205.423808
 21
442.703296
  0
LINE
  5
1C8
100
AcDbEntity
  8
M0
100
AcDbLine
 10
211.223807
 20
431.003297
 11
212.123808
 21
431.003297
  0
ARC
  5
1C9
100
AcDbEntity
  8
M0
100
AcDbCircle
 10
155.123807
 20
401.003297
 40
1.0
100
AcDbArc
 50
180.0
 51
270.0
  0
ARC
  5
1CA
100
AcDbEntity
  8
M0
100
AcDbCircle
 10
151.923317
 20
438.653297
 40
0.3
100
AcDbArc
 50
90.0
 51
178.876481
  0
ARC
  5
1CB
100
AcDbEntity
  8
M0
100
AcDbCircle
 10
173.223807
 20
431.103297
 40
0.5
100
AcDbArc
 50
180.0
 51
270.0
  0
ARC
  5
1CC
100
AcDbEntity
  8
M0
100
AcDbCircle
 10
200.723807
 20
366.703297
 40
3.5
100
AcDbArc
 50
121.002719
 51
180.0
  0
ARC
  5
1CD
100
AcDbEntity
  8
M0
100
AcDbCircle
 10
190.823807
 20
381.303297
 40
0.5
100
AcDbArc
 50
90.0
 51
180.0
  0
LINE
  5
1CE
100
AcDbEntity
  8
M0
100
AcDbLine
 10
220.123807
 20
433.553296
 11
220.023805
 21
433.553296
  0
LINE
  5
1CF
100
AcDbEntity
  8
M0
100
AcDbLine
 10
172.273807
 20
364.703298
 11
172.273807
 21
369.703297
  0
LINE
  5
1D0
100
AcDbEntity
  8
M0
100
AcDbLine
 10
159.773806
 20
364.703298
 11
159.773806
 21
369.703297
  0
LINE
  5
1D1
100
AcDbEntity
  8
M0
100
AcDbLine
 10
194.473807
 20
364.703298
 11
194.473807
 21
369.703297
  0
LINE
  5
1D2
100
AcDbEntity
  8
M0
100
AcDbLine
 10
173.423807
 20
451.003295
 11
193.323807
 21
451.003295
  0
LINE
  5
1D3
100
AcDbEntity
  8
M0
100
AcDbLine
 10
146.623807
 20
378.853298
 11
146.723809
 21
378.853298
  0
LINE
  5
1D4
100
AcDbEntity
  8
M0
100
AcDbLine
 10
206.973808
 20
369.703297
 11
206.973808
 21
364.703298
  0
LINE
  5
1D5
100
AcDbEntity
  8
M0
100
AcDbLine
 10
197.223807
 20
366.703295
 11
197.223807
 21
364.703298
  0
LINE
  5
1D6
100
AcDbEntity
  8
M0
100
AcDbLine
 10
162.523806
 20
366.703295
 11
162.523806
 21
364.703298
  0
LINE
  5
1D7
100
AcDbEntity
  8
M0
100
AcDbLine
 10
162.923807
 20
442.703296
 11
162.923807
 21
451.703297
  0
LINE
  5
1D8
100
AcDbEntity
  8
M0
100
AcDbLine
 10
219.323807
 20
363.703296
 11
195.473807
 21
363.703296
  0
LINE
  5
1D9
100
AcDbEntity
  8
M0
100
AcDbLine
 10
146.623807
 20
433.553296
 11
146.723809
 21
433.553296
  0
LINE
  5
1DA
100
AcDbEntity
  8
M0
100
AcDbLine
 10
193.823807
 20
450.503298
 11
193.823807
 21
448.303298
  0
ARC
  5
1DB
100
AcDbEntity
  8
M0
100
AcDbCircle
 10
147.423807
 20
444.703297
 40
3.0
100
AcDbArc
 50
90.0
 51
180.0
  0
ARC
  5
1DC
100
AcDbEntity
  8
M0
100
AcDbCircle
 10
218.823807
 20
444.703297
 40
3.0
100
AcDbArc
 50
0.0
 51
90.0
  0
ARC
  5
1DD
100
AcDbEntity
  8
M0
100
AcDbCircle
 10
165.123807
 20
451.703297
 40
0.5
100
AcDbArc
 50
270.0
 51
360.0
  0
ARC
  5
1DE
100
AcDbEntity
  8
M0
100
AcDbCircle
 10
155.473807
 20
365.703297
 40
0.5
100
AcDbArc
 50
180.0
 51
270.0
  0
ARC
  5
1DF
100
AcDbEntity
  8
M0
100
AcDbCircle
 10
201.623807
 20
452.203297
 40
0.5
100
AcDbArc
 50
90.0
 51
180.0
  0
ARC
  5
1E0
100
AcDbEntity
  8
M0
100
AcDbCircle
 10
201.623807
 20
451.703297
 40
0.5
100
AcDbArc
 50
180.0
 51
270.0
  0
ARC
  5
1E1
100
AcDbEntity
  8
M0
100
AcDbCircle
 10
205.223807
 20
364.703297
 40
1.0
100
AcDbArc
 50
180.0
 51
270.0
  0
ARC
  5
1E2
100
AcDbEntity
  8
M0
100
AcDbCircle
 10
171.273807
 20
364.703297
 40
1.0
100
AcDbArc
 50
270.0
 51
360.0
  0
ARC
  5
1E3
100
AcDbEntity
  8
M0
100
AcDbCircle
 10
160.773807
 20
364.703297
 40
1.0
100
AcDbArc
 50
180.0
 51
270.0
  0
ARC
  5
1E4
100
AcDbEntity
  8
M0
100
AcDbCircle
 10
196.223807
 20
364.703297
 40
1.0
100
AcDbArc
 50
270.0
 51
360.0
  0
ARC
  5
1E5
100
AcDbEntity
  8
M0
100
AcDbCircle
 10
161.923807
 20
451.703297
 40
1.0
100
AcDbArc
 50
90.0
 51
180.0
  0
ARC
  5
1E6
100
AcDbEntity
  8
M0
100
AcDbCircle
 10
161.523807
 20
364.703297
 40
1.0
100
AcDbArc
 50
270.0
 51
360.0
  0
ARC
  5
1E7
100
AcDbEntity
  8
M0
100
AcDbCircle
 10
215.873807
 20
371.203297
 40
2.25
100
AcDbArc
 50
270.0
 51
355.815286
  0
ARC
  5
1E8
100
AcDbEntity
  8
M0
100
AcDbCircle
 10
191.323807
 20
364.703297
 40
1.0
100
AcDbArc
 50
180.0
 51
270.0
  0
ARC
  5
1E9
100
AcDbEntity
  8
M0
100
AcDbCircle
 10
148.324297
 20
441.253297
 40
0.3
100
AcDbArc
 50
270.0
 51
358.876481
  0
ARC
  5
1EA
100
AcDbEntity
  8
M0
100
AcDbCircle
 10
150.873807
 20
441.203297
 40
2.25
100
AcDbArc
 50
90.0
 51
178.876481
  0
ARC
  5
1EB
100
AcDbEntity
  8
M0
100
AcDbCircle
 10
153.373807
 20
441.203297
 40
2.25
100
AcDbArc
 50
270.0
 51
450.0
  0
ARC
  5
1EC
100
AcDbEntity
  8
M0
100
AcDbCircle
 10
165.123807
 20
452.203297
 40
0.5
100
AcDbArc
 50
0.0
 51
90.0
  0
ARC
  5
1ED
100
AcDbEntity
  8
M0
100
AcDbCircle
 10
193.523807
 20
381.303297
 40
0.5
100
AcDbArc
 50
0.0
 51
90.0
  0
ARC
  5
1EE
100
AcDbEntity
  8
M0
100
AcDbCircle
 10
149.373807
 20
438.703297
 40
2.25
100
AcDbArc
 50
272.401074
 51
358.876481
  0
ARC
  5
1EF
100
AcDbEntity
  8
M0
100
AcDbCircle
 10
213.373807
 20
371.203297
 40
2.25
100
AcDbArc
 50
90.0
 51
270.0
  0
ARC
  5
1F0
100
AcDbEntity
  8
M0
100
AcDbCircle
 10
173.223807
 20
381.303297
 40
0.5
100
AcDbArc
 50
90.0
 51
180.0
  0
ARC
  5
1F1
100
AcDbEntity
  8
M0
100
AcDbCircle
 10
175.923807
 20
381.303297
 40
0.5
100
AcDbArc
 50
0.0
 51
90.0
  0
LINE
  5
1F2
100
AcDbEntity
  8
M0
100
AcDbLine
 10
211.823806
 20
447.703295
 11
218.823808
 21
447.703295
  0
LINE
  5
1F3
100
AcDbEntity
  8
M0
100
AcDbLine
 10
221.823806
 20
382.403296
 11
222.323807
 21
377.403297
  0
LINE
  5
1F4
100
AcDbEntity
  8
M0
100
AcDbLine
 10
156.123808
 20
366.703295
 11
155.473808
 21
366.703295
  0
LINE
  5
1F5
100
AcDbEntity
  8
M0
100
AcDbLine
 10
148.324298
 20
440.953296
 11
147.873806
 21
440.953296
  0
LINE
  5
1F6
100
AcDbEntity
  8
M0
100
AcDbLine
 10
153.373808
 20
443.453298
 11
150.873808
 21
443.453298
  0
LINE
  5
1F7
100
AcDbEntity
  8
M0
100
AcDbLine
 10
147.873806
 20
436.453297
 11
149.46807
 21
436.455273
  0
LINE
  5
1F8
100
AcDbEntity
  8
M0
100
AcDbLine
 10
154.973807
 20
367.203296
 11
154.973807
 21
367.703297
  0
LINE
  5
1F9
100
AcDbEntity
  8
M0
100
AcDbLine
 10
162.923807
 20
447.203298
 11
163.423807
 21
447.203298
  0
LINE
  5
1FA
100
AcDbEntity
  8
M0
100
AcDbLine
 10
156.123808
 20
367.703297
 11
154.973807
 21
367.703297
  0
LINE
  5
1FB
100
AcDbEntity
  8
M0
100
AcDbLine
 10
203.823807
 20
448.303298
 11
203.323808
 21
448.303298
  0
LINE
  5
1FC
100
AcDbEntity
  8
M0
100
AcDbLine
 10
162.923807
 20
449.503296
 11
163.423807
 21
449.503296
  0
LINE
  5
1FD
100
AcDbEntity
  8
M0
100
AcDbLine
 10
163.423807
 20
448.303298
 11
162.923807
 21
448.303298
  0
ARC
  5
1FE
100
AcDbEntity
  8
M0
100
AcDbCircle
 10
195.473807
 20
364.703297
 40
1.0
100
AcDbArc
 50
180.0
 51
270.0
  0
ARC
  5
1FF
100
AcDbEntity
  8
M0
100
AcDbCircle
 10
205.973807
 20
364.703297
 40
1.0
100
AcDbArc
 50
270.0
 51
360.0
  0
ARC
  5
200
100
AcDbEntity
  8
M0
100
AcDbCircle
 10
200.723807
 20
366.703297
 40
3.5
100
AcDbArc
 50
0.0
 51
58.997281
  0
ARC
  5
201
100
AcDbEntity
  8
M0
100
AcDbCircle
 10
193.323807
 20
450.503297
 40
0.5
100
AcDbArc
 50
0.0
 51
90.0
  0
ARC
  5
202
100
AcDbEntity
  8
M0
100
AcDbCircle
 10
166.023807
 20
366.703297
 40
3.5
100
AcDbArc
 50
91.94738
 51
121.002719
  0
ARC
  5
203
100
AcDbEntity
  8
M0
100
AcDbCircle
 10
166.023807
 20
366.703297
 40
3.5
100
AcDbArc
 50
121.002719
 51
180.0
  0
CIRCLE
  5
204
100
AcDbEntity
  8
M0
100
AcDbCircle
 10
183.373807
 20
446.503297
 40
3.1
  0
LINE
  5
205
100
AcDbEntity
  8
M0
100
AcDbLine
 10
151.923316
 20
438.953296
 11
153.373808
 21
438.953296
  0
ARC
  5
206
100
AcDbEntity
  8
M0
100
AcDbCircle
 10
200.723807
 20
366.703297
 40
3.5
100
AcDbArc
 50
58.997281
 51
88.05262
  0
ARC
  5
207
100
AcDbEntity
  8
M0
100
AcDbCircle
 10
145.923807
 20
379.853297
 40
1.0
100
AcDbArc
 50
180.0
 51
270.0
  0
ARC
  5
208
100
AcDbEntity
  8
M0
100
AcDbCircle
 10
173.423807
 20
450.503297
 40
0.5
100
AcDbArc
 50
90.0
 51
180.0
  0
ARC
  5
209
100
AcDbEntity
  8
M0
100
AcDbCircle
 10
166.023807
 20
366.703297
 40
3.5
100
AcDbArc
 50
0.0
 51
58.997281
  0
LINE
  5
20A
100
AcDbEntity
  8
M0
100
AcDbLine
 10
190.323807
 20
364.703298
 11
190.323807
 21
368.703295
  0
LINE
  5
20B
100
AcDbEntity
  8
M0
100
AcDbLine
 10
190.323807
 20
368.703295
 11
190.323807
 21
381.303296
  0
LINE
  5
20C
100
AcDbEntity
  8
M0
100
AcDbLine
 10
191.323808
 20
381.803297
 11
193.023808
 21
381.803297
  0
LINE
  5
20D
100
AcDbEntity
  8
M0
100
AcDbLine
 10
204.223808
 20
364.703298
 11
204.223808
 21
366.703295
  0
LINE
  5
20E
100
AcDbEntity
  8
M0
100
AcDbLine
 10
171.273807
 20
363.703296
 11
147.923807
 21
363.703296
  0
LINE
  5
20F
100
AcDbEntity
  8
M0
100
AcDbLine
 10
169.523807
 20
366.703295
 11
169.523807
 21
364.703298
  0
LINE
  5
210
100
AcDbEntity
  8
M0
100
AcDbLine
 10
144.923808
 20
432.553297
 11
144.923808
 21
366.703297
  0
ARC
  5
211
100
AcDbEntity
  8
M0
100
AcDbCircle
 10
147.873807
 20
438.703297
 40
2.25
100
AcDbArc
 50
90.0
 51
270.0
  0
LINE
  5
212
100
AcDbEntity
  8
M0
100
AcDbLine
 10
145.923807
 20
378.853298
 11
146.723809
 21
378.853298
  0
LINE
  5
213
100
AcDbEntity
  8
M0
100
AcDbLine
 10
202.526583
 20
369.703297
 11
202.973807
 21
369.703297
  0
LINE
  5
214
100
AcDbEntity
  8
M0
100
AcDbLine
 10
160.923807
 20
442.703296
 11
160.923807
 21
451.703296
  0
LINE
  5
215
100
AcDbEntity
  8
M0
100
AcDbLine
 10
164.221032
 20
369.703297
 11
163.773807
 21
369.703297
  0
LINE
  5
216
100
AcDbEntity
  8
M0
100
AcDbLine
 10
221.823806
 20
444.703297
 11
221.823806
 21
379.853297
  0
LINE
  5
217
100
AcDbEntity
  8
M0
100
AcDbLine
 10
147.423806
 20
447.703295
 11
154.923808
 21
447.703295
  0
LINE
  5
218
100
AcDbEntity
  8
M0
100
AcDbLine
 10
156.123808
 20
374.703296
 11
154.973807
 21
374.703296
  0
LINE
  5
219
100
AcDbEntity
  8
M0
100
AcDbLine
 10
205.823807
 20
444.203295
 11
207.923807
 21
444.203295
  0
LINE
  5
21A
100
AcDbEntity
  8
M0
100
AcDbLine
 10
158.823807
 20
444.203295
 11
160.923807
 21
444.203295
  0
LINE
  5
21B
100
AcDbEntity
  8
M0
100
AcDbLine
 10
203.823807
 20
447.203298
 11
203.323808
 21
447.203298
  0
LINE
  5
21C
100
AcDbEntity
  8
M0
100
AcDbLine
 10
173.723807
 20
363.703296
 11
174.223803
 21
363.703296
  0
LINE
  5
21D
100
AcDbEntity
  8
M0
100
AcDbLine
 10
174.223803
 20
363.703296
 11
175.423807
 21
363.703296
  0
LINE
  5
21E
100
AcDbEntity
  8
M0
100
AcDbLine
 10
144.423807
 20
435.003296
 11
144.423807
 21
444.703296
  0
LINE
  5
21F
100
AcDbEntity
  8
M0
100
AcDbLine
 10
154.973807
 20
368.703295
 11
156.123808
 21
368.703295
  0
LINE
  5
220
100
AcDbEntity
  8
M0
100
AcDbLine
 10
214.825297
 20
373.453297
 11
213.373807
 21
373.453297
  0
LINE
  5
221
100
AcDbEntity
  8
M0
100
AcDbLine
 10
210.623807
 20
410.903297
 11
210.623807
 21
407.603297
  0
LINE
  5
222
100
AcDbEntity
  8
M0
100
AcDbLine
 10
210.623807
 20
407.703297
 11
209.623806
 21
407.703297
  0
LINE
  5
223
100
AcDbEntity
  8
M0
100
AcDbLine
 10
210.123807
 20
413.403297
 11
209.623806
 21
413.403297
  0
LINE
  5
224
100
AcDbEntity
  8
M0
100
AcDbLine
 10
203.323808
 20
449.503296
 11
203.823807
 21
449.503296
  0
LINE
  5
225
100
AcDbEntity
  8
M0
100
AcDbLine
 10
176.873807
 20
393.203296
 11
174.873807
 21
393.203296
  0
LINE
  5
226
100
AcDbEntity
  8
M0
100
AcDbLine
 10
174.973807
 20
417.403296
 11
177.473807
 21
417.403296
  0
LINE
  5
227
100
AcDbEntity
  8
M0
100
AcDbLine
 10
209.623806
 20
410.703297
 11
210.623807
 21
410.703297
  0
LINE
  5
228
100
AcDbEntity
  8
M0
100
AcDbLine
 10
188.273807
 20
415.903297
 11
178.473807
 21
415.903297
  0
LINE
  5
229
100
AcDbEntity
  8
M0
100
AcDbLine
 10
156.123808
 20
407.703297
 11
157.123808
 21
407.703297
  0
LINE
  5
22A
100
AcDbEntity
  8
M0
100
AcDbLine
 10
209.623806
 20
407.703297
 11
209.623806
 21
404.703297
  0
LINE
  5
22B
100
AcDbEntity
  8
M0
100
AcDbLine
 10
157.123808
 20
413.403297
 11
156.623807
 21
413.403297
  0
LINE
  5
22C
100
AcDbEntity
  8
M0
100
AcDbLine
 10
156.123808
 20
410.903297
 11
156.123808
 21
407.703297
  0
ARC
  5
22D
100
AcDbEntity
  8
M0
100
AcDbCircle
 10
193.523807
 20
431.103297
 40
0.5
100
AcDbArc
 50
270.0
 51
360.0
  0
ARC
  5
22E
100
AcDbEntity
  8
M0
100
AcDbCircle
 10
190.823807
 20
431.103297
 40
0.5
100
AcDbArc
 50
180.0
 51
270.0
  0
ARC
  5
22F
100
AcDbEntity
  8
M0
100
AcDbCircle
 10
175.923807
 20
431.103297
 40
0.5
100
AcDbArc
 50
270.0
 51
360.0
  0
ARC
  5
230
100
AcDbEntity
  8
M0
100
AcDbCircle
 10
211.623807
 20
411.403297
 40
1.0
100
AcDbArc
 50
0.0
 51
90.0
  0
ARC
  5
231
100
AcDbEntity
  8
M0
100
AcDbCircle
 10
211.623807
 20
401.003297
 40
1.0
100
AcDbArc
 50
270.0
 51
360.0
  0
ARC
  5
232
100
AcDbEntity
  8
M0
100
AcDbCircle
 10
175.423807
 20
364.703297
 40
1.0
100
AcDbArc
 50
270.0
 51
360.0
  0
LINE
  5
233
100
AcDbEntity
  8
M0
100
AcDbLine
 10
203.823807
 20
451.203298
 11
202.823807
 21
451.203298
  0
LINE
  5
234
100
AcDbEntity
  8
M0
100
AcDbLine
 10
189.373807
 20
391.703297
 11
189.373807
 21
392.703296
  0
LINE
  5
235
100
AcDbEntity
  8
M0
100
AcDbLine
 10
203.823807
 20
444.203295
 11
203.323808
 21
444.203295
  0
CIRCLE
  5
236
100
AcDbEntity
  8
M0
100
AcDbCircle
 10
218.373807
 20
443.203297
 40
2.25
  0
CIRCLE
  5
237
100
AcDbEntity
  8
M0
100
AcDbCircle
 10
148.373807
 20
368.203297
 40
2.25
  0
ARC
  5
238
100
AcDbEntity
  8
M0
100
AcDbCircle
 10
155.123807
 20
411.403297
 40
1.0
100
AcDbArc
 50
90.0
 51
180.0
  0
LINE
  5
239
100
AcDbEntity
  8
M0
100
AcDbLine
 10
193.523807
 20
430.603296
 11
190.823807
 21
430.603296
  0
LINE
  5
23A
100
AcDbEntity
  8
M0
100
AcDbLine
 10
156.123808
 20
412.403297
 11
155.123808
 21
412.403297
  0
LINE
  5
23B
100
AcDbEntity
  8
M0
100
AcDbLine
 10
213.373807
 20
368.953296
 11
215.873806
 21
368.953296
  0
LINE
  5
23C
100
AcDbEntity
  8
M0
100
AcDbLine
 10
181.123807
 20
410.97225
 11
178.573807
 21
410.97225
  0
LINE
  5
23D
100
AcDbEntity
  8
M0
100
AcDbLine
 10
172.723808
 20
442.703296
 11
158.823807
 21
442.703296
  0
LINE
  5
23E
100
AcDbEntity
  8
M0
100
AcDbLine
 10
188.173807
 20
410.97225
 11
185.623807
 21
410.97225
  0
LINE
  5
23F
100
AcDbEntity
  8
M0
100
AcDbLine
 10
147.723807
 20
381.403296
 11
148.623808
 21
381.403296
  0
ARC
  5
240
100
AcDbEntity
  8
M0
100
AcDbCircle
 10
218.373807
 20
396.053297
 40
0.5
100
AcDbArc
 50
0.0
 51
90.0
  0
LINE
  5
241
100
AcDbEntity
  8
M0
100
AcDbLine
 10
175.423807
 20
381.803297
 11
173.723807
 21
381.803297
  0
LINE
  5
242
100
AcDbEntity
  8
M0
100
AcDbLine
 10
175.923807
 20
381.803297
 11
175.423807
 21
381.803297
  0
LINE
  5
243
100
AcDbEntity
  8
M0
100
AcDbLine
 10
173.723807
 20
381.803297
 11
173.223807
 21
381.803297
  0
LINE
  5
244
100
AcDbEntity
  8
M0
100
AcDbLine
 10
210.623807
 20
412.403297
 11
211.623807
 21
412.403297
  0
LINE
  5
245
100
AcDbEntity
  8
M0
100
AcDbLine
 10
178.473807
 20
416.403297
 11
178.473807
 21
415.903297
  0
LINE
  5
246
100
AcDbEntity
  8
M0
100
AcDbLine
 10
209.623806
 20
404.703297
 11
210.623807
 21
404.703297
  0
LINE
  5
247
100
AcDbEntity
  8
M0
100
AcDbLine
 10
157.123808
 20
407.703297
 11
157.123808
 21
404.703297
  0
LINE
  5
248
100
AcDbEntity
  8
M0
100
AcDbLine
 10
178.473807
 20
416.403297
 11
188.273807
 21
416.403297
  0
LINE
  5
249
100
AcDbEntity
  8
M0
100
AcDbLine
 10
210.623807
 20
404.803297
 11
210.623807
 21
401.503297
  0
LINE
  5
24A
100
AcDbEntity
  8
M0
100
AcDbLine
 10
157.123808
 20
401.703297
 11
157.123808
 21
399.003297
  0
LINE
  5
24B
100
AcDbEntity
  8
M0
100
AcDbLine
 10
157.123808
 20
410.703297
 11
156.123808
 21
410.703297
  0
LINE
  5
24C
100
AcDbEntity
  8
M0
100
AcDbLine
 10
209.623806
 20
413.403297
 11
209.623806
 21
410.703297
  0
LINE
  5
24D
100
AcDbEntity
  8
M0
100
AcDbLine
 10
209.623806
 20
401.703297
 11
209.623806
 21
399.003297
  0
LINE
  5
24E
100
AcDbEntity
  8
M0
100
AcDbLine
 10
156.123808
 20
404.703297
 11
156.123808
 21
401.503297
  0
LINE
  5
24F
100
AcDbEntity
  8
M0
100
AcDbLine
 10
210.623807
 20
401.703297
 11
209.623806
 21
401.703297
  0
LINE
  5
250
100
AcDbEntity
  8
M0
100
AcDbLine
 10
155.123808
 20
404.803297
 11
156.823807
 21
404.803297
  0
LINE
  5
251
100
AcDbEntity
  8
M0
100
AcDbLine
 10
158.823807
 20
383.303296
 11
157.823807
 21
383.303296
  0
LINE
  5
252
100
AcDbEntity
  8
M0
100
AcDbLine
 10
154.123808
 20
411.403297
 11
154.123808
 21
401.003297
  0
LINE
  5
253
100
AcDbEntity
  8
M0
100
AcDbLine
 10
158.823807
 20
368.703295
 11
158.823807
 21
383.303296
  0
LINE
  5
254
100
AcDbEntity
  8
M0
100
AcDbLine
 10
212.623807
 20
411.403297
 11
212.623807
 21
401.003297
  0
LINE
  5
255
100
AcDbEntity
  8
M0
100
AcDbLine
 10
155.123808
 20
400.003297
 11
156.123808
 21
400.003297
  0
LINE
  5
256
100
AcDbEntity
  8
M0
100
AcDbLine
 10
220.123807
 20
378.853298
 11
220.023805
 21
378.853298
  0
LINE
  5
257
100
AcDbEntity
  8
M0
100
AcDbLine
 10
144.923808
 20
430.003297
 11
144.423807
 21
435.003296
  0
LINE
  5
258
100
AcDbEntity
  8
M0
100
AcDbLine
 10
212.123808
 20
381.403296
 11
211.223807
 21
381.403296
  0
LINE
  5
259
100
AcDbEntity
  8
M0
100
AcDbLine
 10
156.823807
 20
407.603297
 11
155.123808
 21
407.603297
  0
LINE
  5
25A
100
AcDbEntity
  8
M0
100
AcDbLine
 10
219.023807
 20
381.403296
 11
218.123807
 21
381.403296
  0
LINE
  5
25B
100
AcDbEntity
  8
M0
100
AcDbLine
 10
156.123808
 20
404.803297
 11
156.123808
 21
404.703297
  0
LINE
  5
25C
100
AcDbEntity
  8
M0
100
AcDbLine
 10
194.023807
 20
381.303296
 11
194.023807
 21
368.703295
  0
LINE
  5
25D
100
AcDbEntity
  8
M0
100
AcDbLine
 10
193.023808
 20
381.803297
 11
193.523808
 21
381.803297
  0
LINE
  5
25E
100
AcDbEntity
  8
M0
100
AcDbLine
 10
207.923807
 20
368.703295
 11
207.923807
 21
383.303296
  0
ARC
  5
25F
100
AcDbEntity
  8
M0
100
AcDbCircle
 10
170.523807
 20
364.703297
 40
1.0
100
AcDbArc
 50
180.0
 51
270.0
  0
ARC
  5
260
100
AcDbEntity
  8
M0
100
AcDbCircle
 10
161.923807
 20
451.703297
 40
1.0
100
AcDbArc
 50
0.0
 51
90.0
  0
LINE
  5
261
100
AcDbEntity
  8
M0
100
AcDbLine
 10
154.973807
 20
374.703296
 11
154.973807
 21
368.703295
  0
LINE
  5
262
100
AcDbEntity
  8
M0
100
AcDbLine
 10
190.823807
 20
381.803297
 11
191.323808
 21
381.803297
  0
LINE
  5
263
100
AcDbEntity
  8
M0
100
AcDbLine
 10
156.123808
 20
407.603297
 11
156.123808
 21
407.703297
  0
LINE
  5
264
100
AcDbEntity
  8
M0
100
AcDbLine
 10
211.623807
 20
400.003297
 11
210.623807
 21
400.003297
  0
LINE
  5
265
100
AcDbEntity
  8
M0
100
AcDbLine
 10
155.123808
 20
410.903297
 11
155.123808
 21
401.503297
  0
LINE
  5
266
100
AcDbEntity
  8
M0
100
AcDbLine
 10
211.623807
 20
410.903297
 11
211.623807
 21
401.503297
  0
LINE
  5
267
100
AcDbEntity
  8
M0
100
AcDbLine
 10
207.923807
 20
383.303296
 11
208.923808
 21
383.303296
  0
ARC
  5
268
100
AcDbEntity
  8
M0
100
AcDbCircle
 10
174.973807
 20
396.003297
 40
1.0
100
AcDbArc
 50
180.0
 51
270.0
  0
ARC
  5
269
100
AcDbEntity
  8
M0
100
AcDbCircle
 10
209.623807
 20
427.903297
 40
1.0
100
AcDbArc
 50
0.0
 51
90.0
  0
ARC
  5
26A
100
AcDbEntity
  8
M0
100
AcDbCircle
 10
176.873807
 20
391.703297
 40
0.5
100
AcDbArc
 50
270.0
 51
360.0
  0
ARC
  5
26B
100
AcDbEntity
  8
M0
100
AcDbCircle
 10
191.873807
 20
391.703297
 40
0.5
100
AcDbArc
 50
270.0
 51
360.0
  0
ARC
  5
26C
100
AcDbEntity
  8
M0
100
AcDbCircle
 10
191.873807
 20
392.703297
 40
0.5
100
AcDbArc
 50
0.0
 51
90.0
  0
ARC
  5
26D
100
AcDbEntity
  8
M0
100
AcDbCircle
 10
176.873807
 20
392.703297
 40
0.5
100
AcDbArc
 50
0.0
 51
90.0
  0
ARC
  5
26E
100
AcDbEntity
  8
M0
100
AcDbCircle
 10
209.623807
 20
364.703297
 40
1.0
100
AcDbArc
 50
270.0
 51
360.0
  0
LINE
  5
26F
100
AcDbEntity
  8
M0
100
AcDbLine
 10
157.123808
 20
413.403297
 11
157.123808
 21
410.703297
  0
ARC
  5
270
100
AcDbEntity
  8
M0
100
AcDbCircle
 10
181.123807
 20
410.47225
 40
0.5
100
AcDbArc
 50
0.0
 51
90.0
  0
ARC
  5
271
100
AcDbEntity
  8
M0
100
AcDbCircle
 10
174.973807
 20
416.403297
 40
1.0
100
AcDbArc
 50
90.0
 51
180.0
  0
ARC
  5
272
100
AcDbEntity
  8
M0
100
AcDbCircle
 10
185.623807
 20
410.47225
 40
0.5
100
AcDbArc
 50
90.0
 51
180.0
  0
ARC
  5
273
100
AcDbEntity
  8
M0
100
AcDbCircle
 10
191.773807
 20
416.403297
 40
1.0
100
AcDbArc
 50
0.0
 51
90.0
  0
LINE
  5
274
100
AcDbEntity
  8
M0
100
AcDbLine
 10
154.973807
 20
365.703297
 11
154.973807
 21
367.203296
  0
LINE
  5
275
100
AcDbEntity
  8
M0
100
AcDbLine
 10
155.523807
 20
431.003297
 11
154.623807
 21
431.003297
  0
LINE
  5
276
100
AcDbEntity
  8
M0
100
AcDbLine
 10
156.123808
 20
365.203296
 11
155.473808
 21
365.203296
  0
LINE
  5
277
100
AcDbEntity
  8
M0
100
AcDbLine
 10
207.923807
 20
366.703295
 11
206.973808
 21
366.703295
  0
LINE
  5
278
100
AcDbEntity
  8
M0
100
AcDbLine
 10
207.923807
 20
367.703297
 11
206.973808
 21
367.703297
  0
LINE
  5
279
100
AcDbEntity
  8
M0
100
AcDbLine
 10
207.923807
 20
365.203296
 11
206.973808
 21
365.203296
  0
ARC
  5
27A
100
AcDbEntity
  8
M0
100
AcDbCircle
 10
189.873807
 20
392.703297
 40
0.5
100
AcDbArc
 50
90.0
 51
180.0
  0
ARC
  5
27B
100
AcDbEntity
  8
M0
100
AcDbCircle
 10
174.873807
 20
391.703297
 40
0.5
100
AcDbArc
 50
180.0
 51
270.0
  0
ARC
  5
27C
100
AcDbEntity
  8
M0
100
AcDbCircle
 10
189.873807
 20
391.703297
 40
0.5
100
AcDbArc
 50
180.0
 51
270.0
  0
ARC
  5
27D
100
AcDbEntity
  8
M0
100
AcDbCircle
 10
174.873807
 20
392.703297
 40
0.5
100
AcDbArc
 50
90.0
 51
180.0
  0
ARC
  5
27E
100
AcDbEntity
  8
M0
100
AcDbCircle
 10
191.773807
 20
396.003297
 40
1.0
100
AcDbArc
 50
270.0
 51
360.0
  0
LINE
  5
27F
100
AcDbEntity
  8
M0
100
AcDbLine
 10
154.623807
 20
381.403296
 11
155.523807
 21
381.403296
  0
ARC
  5
280
100
AcDbEntity
  8
M0
100
AcDbCircle
 10
175.173807
 20
416.203297
 40
1.0
100
AcDbArc
 50
90.0
 51
180.0
  0
ARC
  5
281
100
AcDbEntity
  8
M0
100
AcDbCircle
 10
177.823807
 20
412.203297
 40
0.5
100
AcDbArc
 50
270.0
 51
360.0
  0
ARC
  5
282
100
AcDbEntity
  8
M0
100
AcDbCircle
 10
157.123807
 20
384.503297
 40
1.0
100
AcDbArc
 50
180.0
 51
270.0
  0
ARC
  5
283
100
AcDbEntity
  8
M0
100
AcDbCircle
 10
210.123807
 20
398.503297
 40
0.5
100
AcDbArc
 50
0.0
 51
90.0
  0
ARC
  5
284
100
AcDbEntity
  8
M0
100
AcDbCircle
 10
175.173807
 20
398.703297
 40
1.0
100
AcDbArc
 50
90.0
 51
180.0
  0
LINE
  5
285
100
AcDbEntity
  8
M0
  6
DASHDOT
100
AcDbLine
 10
165.273807
 20
376.703297
 11
166.273807
 21
376.703297
  0
ARC
  5
286
100
AcDbEntity
  8
M0
100
AcDbCircle
 10
209.623807
 20
384.503297
 40
1.0
100
AcDbArc
 50
270.0
 51
360.0
  0
ARC
  5
287
100
AcDbEntity
  8
M0
100
AcDbCircle
 10
189.923807
 20
396.203297
 40
1.0
100
AcDbArc
 50
180.0
 51
270.0
  0
ARC
  5
288
100
AcDbEntity
  8
M0
100
AcDbCircle
 10
191.573807
 20
396.203297
 40
1.0
100
AcDbArc
 50
270.0
 51
360.0
  0
ARC
  5
289
100
AcDbEntity
  8
M0
100
AcDbCircle
 10
156.623807
 20
398.503297
 40
0.5
100
AcDbArc
 50
90.0
 51
180.0
  0
ARC
  5
28A
100
AcDbEntity
  8
M0
100
AcDbCircle
 10
175.173807
 20
396.203297
 40
1.0
100
AcDbArc
 50
180.0
 51
270.0
  0
ARC
  5
28B
100
AcDbEntity
  8
M0
100
AcDbCircle
 10
191.573807
 20
416.203297
 40
1.0
100
AcDbArc
 50
0.0
 51
90.0
  0
LINE
  5
28C
100
AcDbEntity
  8
M0
  6
DASHDOT
100
AcDbLine
 10
183.373807
 20
436.203297
 11
183.373807
 21
435.203297
  0
LINE
  5
28D
100
AcDbEntity
  8
M0
  6
DASHDOT
100
AcDbLine
 10
182.873807
 20
435.703297
 11
183.873807
 21
435.703297
  0
LINE
  5
28E
100
AcDbEntity
  8
M0
  6
DASHDOT
100
AcDbLine
 10
200.973807
 20
436.203297
 11
200.973807
 21
435.203297
  0
LINE
  5
28F
100
AcDbEntity
  8
M0
  6
DASHDOT
100
AcDbLine
 10
200.473807
 20
435.703297
 11
201.473807
 21
435.703297
  0
LINE
  5
290
100
AcDbEntity
  8
M0
  6
DASHDOT
100
AcDbLine
 10
165.773807
 20
436.203297
 11
165.773807
 21
435.203297
  0
LINE
  5
291
100
AcDbEntity
  8
M0
  6
DASHDOT
100
AcDbLine
 10
165.273807
 20
435.703297
 11
166.273807
 21
435.703297
  0
LINE
  5
292
100
AcDbEntity
  8
M0
  6
DASHDOT
100
AcDbLine
 10
200.473807
 20
376.703297
 11
201.473807
 21
376.703297
  0
LINE
  5
293
100
AcDbEntity
  8
M0
  6
DASHDOT
100
AcDbLine
 10
165.773807
 20
376.203297
 11
165.773807
 21
377.203297
  0
LINE
  5
294
100
AcDbEntity
  8
M0
  6
DASHDOT
100
AcDbLine
 10
200.973807
 20
376.203297
 11
200.973807
 21
377.203297
  0
LINE
  5
295
100
AcDbEntity
  8
M0
  6
DASHDOT
100
AcDbLine
 10
183.373807
 20
376.203297
 11
183.373807
 21
377.203297
  0
LINE
  5
296
100
AcDbEntity
  8
M0
  6
DASHDOT
100
AcDbLine
 10
182.873807
 20
376.703297
 11
183.873807
 21
376.703297
  0
LINE
  5
297
100
AcDbEntity
  8
M0
100
AcDbLine
 10
155.373807
 20
422.853297
 11
155.373807
 21
416.353297
  0
LINE
  5
298
100
AcDbEntity
  8
M0
100
AcDbLine
 10
194.023807
 20
428.903297
 11
194.023807
 21
451.203298
  0
LINE
  5
299
100
AcDbEntity
  8
M0
100
AcDbLine
 10
200.923808
 20
452.203297
 11
200.923808
 21
451.203298
  0
LINE
  5
29A
100
AcDbEntity
  8
M0
100
AcDbLine
 10
163.123807
 20
442.703296
 11
163.123807
 21
443.703298
  0
LINE
  5
29B
100
AcDbEntity
  8
M0
100
AcDbLine
 10
165.823806
 20
451.203298
 11
165.823806
 21
452.203297
  0
LINE
  5
29C
100
AcDbEntity
  8
M0
100
AcDbLine
 10
171.223807
 20
442.703296
 11
171.223807
 21
451.703296
  0
LINE
  5
29D
100
AcDbEntity
  8
M0
100
AcDbLine
 10
148.623808
 20
432.003298
 11
154.623807
 21
432.003298
  0
LINE
  5
29E
100
AcDbEntity
  8
M0
100
AcDbLine
 10
219.023807
 20
423.403297
 11
211.223807
 21
423.403297
  0
LINE
  5
29F
100
AcDbEntity
  8
M0
100
AcDbLine
 10
161.923807
 20
452.703298
 11
204.823807
 21
452.703298
  0
LINE
  5
2A0
100
AcDbEntity
  8
M0
100
AcDbLine
 10
194.023807
 20
451.203298
 11
172.723808
 21
451.203298
  0
LINE
  5
2A1
100
AcDbEntity
  8
M0
100
AcDbLine
 10
154.623807
 20
380.403296
 11
148.623808
 21
380.403296
  0
LINE
  5
2A2
100
AcDbEntity
  8
M0
100
AcDbLine
 10
155.523807
 20
423.403297
 11
147.723807
 21
423.403297
  0
LINE
  5
2A3
100
AcDbEntity
  8
M0
100
AcDbLine
 10
190.073807
 20
417.203297
 11
191.573807
 21
417.203297
  0
ARC
  5
2A4
100
AcDbEntity
  8
M0
100
AcDbCircle
 10
217.373807
 20
373.703297
 40
2.25
100
AcDbArc
 50
89.957854
 51
177.916058
  0
ARC
  5
2A5
100
AcDbEntity
  8
M0
100
AcDbCircle
 10
219.323807
 20
366.703297
 40
3.0
100
AcDbArc
 50
270.0
 51
360.0
  0
ARC
  5
2A6
100
AcDbEntity
  8
M0
100
AcDbCircle
 10
147.923807
 20
366.703297
 40
3.0
100
AcDbArc
 50
180.0
 51
270.0
  0
ARC
  5
2A7
100
AcDbEntity
  8
M0
100
AcDbCircle
 10
214.825295
 20
373.753297
 40
0.3
100
AcDbArc
 50
270.0
 51
360.0
  0
ARC
  5
2A8
100
AcDbEntity
  8
M0
100
AcDbCircle
 10
146.723807
 20
425.303297
 40
1.0
100
AcDbArc
 50
0.0
 51
90.0
  0
ARC
  5
2A9
100
AcDbEntity
  8
M0
100
AcDbCircle
 10
176.823807
 20
396.203297
 40
1.0
100
AcDbArc
 50
270.0
 51
360.0
  0
LINE
  5
2AA
100
AcDbEntity
  8
M0
100
AcDbLine
 10
148.623808
 20
430.953297
 11
148.623808
 21
432.003298
  0
LINE
  5
2AB
100
AcDbEntity
  8
M0
100
AcDbLine
 10
154.623807
 20
432.003298
 11
154.623807
 21
430.953297
  0
LINE
  5
2AC
100
AcDbEntity
  8
M0
100
AcDbLine
 10
212.123808
 20
432.003298
 11
218.123807
 21
432.003298
  0
LINE
  5
2AD
100
AcDbEntity
  8
M0
100
AcDbLine
 10
147.876313
 20
430.503296
 11
147.723807
 21
430.503296
  0
LINE
  5
2AE
100
AcDbEntity
  8
M0
100
AcDbLine
 10
218.123807
 20
432.003298
 11
218.123807
 21
430.953297
  0
LINE
  5
2AF
100
AcDbEntity
  8
M0
100
AcDbLine
 10
153.21439
 20
391.212653
 11
150.032749
 21
394.394416
  0
LINE
  5
2B0
100
AcDbEntity
  8
M0
100
AcDbLine
 10
151.977085
 20
394.217658
 11
150.209507
 21
392.449958
  0
LINE
  5
2B1
100
AcDbEntity
  8
M0
100
AcDbLine
 10
216.537634
 20
427.556989
 11
214.770056
 21
425.789411
  0
LINE
  5
2B2
100
AcDbEntity
  8
M0
100
AcDbLine
 10
215.477087
 20
428.617658
 11
213.709509
 21
426.849958
  0
LINE
  5
2B3
100
AcDbEntity
  8
M0
100
AcDbLine
 10
216.714392
 20
425.612654
 11
213.532751
 21
428.794416
  0
LINE
  5
2B4
100
AcDbEntity
  8
M0
100
AcDbLine
 10
216.714392
 20
418.012653
 11
213.532751
 21
421.194416
  0
LINE
  5
2B5
100
AcDbEntity
  8
M0
100
AcDbLine
 10
153.21439
 20
418.012653
 11
150.032749
 21
421.194416
  0
LINE
  5
2B6
100
AcDbEntity
  8
M0
100
AcDbLine
 10
153.037632
 20
419.956989
 11
151.270054
 21
418.189411
  0
LINE
  5
2B7
100
AcDbEntity
  8
M0
100
AcDbLine
 10
151.977085
 20
386.617658
 11
150.209507
 21
384.849958
  0
LINE
  5
2B8
100
AcDbEntity
  8
M0
100
AcDbLine
 10
153.21439
 20
383.612653
 11
150.032749
 21
386.794416
  0
LINE
  5
2B9
100
AcDbEntity
  8
M0
100
AcDbLine
 10
153.037632
 20
385.556989
 11
151.270054
 21
383.789411
  0
LINE
  5
2BA
100
AcDbEntity
  8
M0
100
AcDbLine
 10
153.037632
 20
393.156989
 11
151.270054
 21
391.389411
  0
CIRCLE
  5
2BB
100
AcDbEntity
  8
M0
100
AcDbCircle
 10
151.623806
 20
427.203298
 40
3.0
  0
CIRCLE
  5
2BC
100
AcDbEntity
  8
M0
100
AcDbCircle
 10
199.323804
 20
446.8033
 40
3.0
  0
CIRCLE
  5
2BD
100
AcDbEntity
  8
M0
100
AcDbCircle
 10
151.623806
 20
419.603298
 40
3.0
  0
CIRCLE
  5
2BE
100
AcDbEntity
  8
M0
100
AcDbCircle
 10
151.623806
 20
385.203295
 40
3.0
  0
CIRCLE
  5
2BF
100
AcDbEntity
  8
M0
100
AcDbCircle
 10
151.623806
 20
392.803295
 40
3.0
  0
CIRCLE
  5
2C0
100
AcDbEntity
  8
M0
100
AcDbCircle
 10
215.123808
 20
427.203298
 40
3.0
  0
LINE
  5
2C1
100
AcDbEntity
  8
M0
100
AcDbLine
 10
216.537634
 20
419.956989
 11
214.770056
 21
418.189411
  0
LINE
  5
2C2
100
AcDbEntity
  8
M0
100
AcDbLine
 10
215.477087
 20
421.017658
 11
213.709509
 21
419.249958
  0
CIRCLE
  5
2C3
100
AcDbEntity
  8
M0
100
AcDbCircle
 10
165.773807
 20
435.703328
 40
4.499996
  0
CIRCLE
  5
2C4
100
AcDbEntity
  8
M0
100
AcDbCircle
 10
200.973807
 20
435.703328
 40
4.499996
  0
CIRCLE
  5
2C5
100
AcDbEntity
  8
M0
100
AcDbCircle
 10
183.373807
 20
435.703328
 40
4.499996
  0
CIRCLE
  5
2C6
100
AcDbEntity
  8
M0
100
AcDbCircle
 10
167.423807
 20
446.803297
 40
3.0
  0
LINE
  5
2C7
100
AcDbEntity
  8
M0
100
AcDbLine
 10
185.254911
 20
436.170247
 11
182.906934
 21
433.822255
  0
LINE
  5
2C8
100
AcDbEntity
  8
M0
100
AcDbLine
 10
183.840711
 20
437.584462
 11
181.492734
 21
435.23647
  0
LINE
  5
2C9
100
AcDbEntity
  8
M0
100
AcDbLine
 10
181.304853
 20
437.772236
 11
185.567823
 21
433.509297
  0
LINE
  5
2CA
100
AcDbEntity
  8
M0
100
AcDbLine
 10
202.854911
 20
436.170247
 11
200.506934
 21
433.822255
  0
LINE
  5
2CB
100
AcDbEntity
  8
M0
100
AcDbLine
 10
201.440711
 20
437.584462
 11
199.092734
 21
435.23647
  0
LINE
  5
2CC
100
AcDbEntity
  8
M0
100
AcDbLine
 10
198.904853
 20
437.772236
 11
203.167823
 21
433.509297
  0
LINE
  5
2CD
100
AcDbEntity
  8
M0
100
AcDbLine
 10
203.823807
 20
442.703296
 11
203.823807
 21
451.703297
  0
LINE
  5
2CE
100
AcDbEntity
  8
M0
100
AcDbLine
 10
212.123808
 20
430.953297
 11
212.123808
 21
432.003298
  0
LINE
  5
2CF
100
AcDbEntity
  8
M0
100
AcDbLine
 10
205.823807
 20
442.703296
 11
205.823807
 21
451.703296
  0
LINE
  5
2D0
100
AcDbEntity
  8
M0
100
AcDbLine
 10
167.654911
 20
436.170247
 11
165.306934
 21
433.822255
  0
LINE
  5
2D1
100
AcDbEntity
  8
M0
100
AcDbLine
 10
166.240711
 20
437.584462
 11
163.892734
 21
435.23647
  0
LINE
  5
2D2
100
AcDbEntity
  8
M0
100
AcDbLine
 10
163.704853
 20
437.772236
 11
167.967823
 21
433.509297
  0
LINE
  5
2D3
100
AcDbEntity
  8
M0
100
AcDbLine
 10
200.914388
 20
445.212656
 11
197.732747
 21
448.394418
  0
LINE
  5
2D4
100
AcDbEntity
  8
M0
100
AcDbLine
 10
200.73763
 20
447.156992
 11
198.970052
 21
445.389413
  0
LINE
  5
2D5
100
AcDbEntity
  8
M0
100
AcDbLine
 10
151.977085
 20
428.617658
 11
150.209507
 21
426.849958
  0
LINE
  5
2D6
100
AcDbEntity
  8
M0
100
AcDbLine
 10
153.21439
 20
425.612654
 11
150.032749
 21
428.794416
  0
LINE
  5
2D7
100
AcDbEntity
  8
M0
100
AcDbLine
 10
153.037632
 20
427.556989
 11
151.270054
 21
425.789411
  0
LINE
  5
2D8
100
AcDbEntity
  8
M0
100
AcDbLine
 10
151.977085
 20
421.017658
 11
150.209507
 21
419.249958
  0
LINE
  5
2D9
100
AcDbEntity
  8
M0
100
AcDbLine
 10
168.837633
 20
447.156988
 11
167.070055
 21
445.38941
  0
LINE
  5
2DA
100
AcDbEntity
  8
M0
100
AcDbLine
 10
167.777086
 20
448.217657
 11
166.009508
 21
446.449957
  0
LINE
  5
2DB
100
AcDbEntity
  8
M0
100
AcDbLine
 10
169.014391
 20
445.212652
 11
165.83275
 21
448.394415
  0
LINE
  5
2DC
100
AcDbEntity
  8
M0
  6
DASHDOT
100
AcDbLine
 10
151.623807
 20
426.703297
 11
151.623807
 21
427.703297
  0
LINE
  5
2DD
100
AcDbEntity
  8
M0
  6
DASHDOT
100
AcDbLine
 10
151.123807
 20
427.203297
 11
152.123807
 21
427.203297
  0
LINE
  5
2DE
100
AcDbEntity
  8
M0
100
AcDbLine
 10
212.123808
 20
380.403296
 11
212.123808
 21
381.453297
  0
LINE
  5
2DF
100
AcDbEntity
  8
M0
100
AcDbLine
 10
178.073807
 20
401.910766
 11
178.073807
 21
401.503297
  0
LINE
  5
2E0
100
AcDbEntity
  8
M0
100
AcDbLine
 10
178.573807
 20
401.003297
 11
177.823807
 21
401.003297
  0
LINE
  5
2E1
100
AcDbEntity
  8
M0
100
AcDbLine
 10
187.523807
 20
411.403297
 11
187.523807
 21
411.703297
  0
LINE
  5
2E2
100
AcDbEntity
  8
M0
100
AcDbLine
 10
188.673807
 20
401.910766
 11
188.673807
 21
401.503297
  0
LINE
  5
2E3
100
AcDbEntity
  8
M0
100
AcDbLine
 10
177.823807
 20
411.403297
 11
188.923807
 21
411.403297
  0
LINE
  5
2E4
100
AcDbEntity
  8
M0
100
AcDbLine
 10
218.123807
 20
381.453297
 11
218.123807
 21
380.403296
  0
LINE
  5
2E5
100
AcDbEntity
  8
M0
100
AcDbLine
 10
218.123807
 20
380.403296
 11
212.123808
 21
380.403296
  0
LINE
  5
2E6
100
AcDbEntity
  8
M0
100
AcDbLine
 10
211.223807
 20
381.903297
 11
211.376313
 21
381.903297
  0
LINE
  5
2E7
100
AcDbEntity
  8
M0
100
AcDbLine
 10
185.123807
 20
410.450803
 11
185.123807
 21
410.47225
  0
LINE
  5
2E8
100
AcDbEntity
  8
M0
100
AcDbLine
 10
181.623807
 20
410.450803
 11
181.623807
 21
410.47225
  0
LINE
  5
2E9
100
AcDbEntity
  8
M0
100
AcDbLine
 10
178.073807
 20
410.47225
 11
178.073807
 21
410.450803
  0
LINE
  5
2EA
100
AcDbEntity
  8
M0
100
AcDbLine
 10
202.973807
 20
369.703297
 11
207.923807
 21
369.703297
  0
LINE
  5
2EB
100
AcDbEntity
  8
M0
100
AcDbLine
 10
198.973807
 20
442.703296
 11
194.023807
 21
442.703296
  0
LINE
  5
2EC
100
AcDbEntity
  8
M0
100
AcDbLine
 10
185.373807
 20
369.703297
 11
190.323807
 21
369.703297
  0
ARC
  5
2ED
100
AcDbEntity
  8
M0
100
AcDbCircle
 10
220.823807
 20
387.103297
 40
1.0
100
AcDbArc
 50
270.0
 51
360.0
  0
ARC
  5
2EE
100
AcDbEntity
  8
M0
100
AcDbCircle
 10
146.723807
 20
401.503297
 40
1.0
100
AcDbArc
 50
0.0
 51
90.0
  0
ARC
  5
2EF
100
AcDbEntity
  8
M0
100
AcDbCircle
 10
220.023807
 20
387.103297
 40
1.0
100
AcDbArc
 50
180.0
 51
270.0
  0
LINE
  5
2F0
100
AcDbEntity
  8
M0
100
AcDbLine
 10
194.023807
 20
439.403296
 11
194.023807
 21
442.203295
  0
LINE
  5
2F1
100
AcDbEntity
  8
M0
100
AcDbLine
 10
178.573807
 20
401.003297
 11
188.173807
 21
401.003297
  0
LINE
  5
2F2
100
AcDbEntity
  8
M0
100
AcDbLine
 10
179.223807
 20
411.403297
 11
179.223807
 21
411.703297
  0
LINE
  5
2F3
100
AcDbEntity
  8
M0
100
AcDbLine
 10
167.773808
 20
369.703297
 11
172.723808
 21
369.703297
  0
LINE
  5
2F4
100
AcDbEntity
  8
M0
100
AcDbLine
 10
166.473808
 20
367.903297
 11
165.573808
 21
367.903297
  0
LINE
  5
2F5
100
AcDbEntity
  8
M0
100
AcDbLine
 10
187.523807
 20
400.503297
 11
187.523807
 21
401.003297
  0
LINE
  5
2F6
100
AcDbEntity
  8
M0
100
AcDbLine
 10
166.473808
 20
367.153295
 11
167.611258
 21
367.153295
  0
LINE
  5
2F7
100
AcDbEntity
  8
M0
100
AcDbLine
 10
165.573808
 20
366.253298
 11
164.436357
 21
366.253298
  0
LINE
  5
2F8
100
AcDbEntity
  8
M0
100
AcDbLine
 10
166.473808
 20
367.153295
 11
166.473808
 21
367.903297
  0
LINE
  5
2F9
100
AcDbEntity
  8
M0
100
AcDbLine
 10
163.412294
 20
366.253298
 11
164.436357
 21
366.253298
  0
LINE
  5
2FA
100
AcDbEntity
  8
M0
100
AcDbLine
 10
167.611258
 20
366.253298
 11
168.63532
 21
366.253298
  0
LINE
  5
2FB
100
AcDbEntity
  8
M0
100
AcDbLine
 10
167.611258
 20
366.253298
 11
166.473808
 21
366.253298
  0
LINE
  5
2FC
100
AcDbEntity
  8
M0
100
AcDbLine
 10
194.023807
 20
366.703295
 11
194.023807
 21
364.703298
  0
LINE
  5
2FD
100
AcDbEntity
  8
M0
100
AcDbLine
 10
158.823807
 20
364.703298
 11
158.823807
 21
366.703295
  0
LINE
  5
2FE
100
AcDbEntity
  8
M0
100
AcDbLine
 10
168.63532
 20
367.153295
 11
167.611258
 21
367.153295
  0
LINE
  5
2FF
100
AcDbEntity
  8
M0
100
AcDbLine
 10
165.573808
 20
367.903297
 11
165.573808
 21
367.153295
  0
LINE
  5
300
100
AcDbEntity
  8
M0
100
AcDbLine
 10
165.573808
 20
365.503297
 11
166.473808
 21
365.503297
  0
LINE
  5
301
100
AcDbEntity
  8
M0
100
AcDbLine
 10
164.436357
 20
367.153295
 11
163.412294
 21
367.153295
  0
LINE
  5
302
100
AcDbEntity
  8
M0
100
AcDbLine
 10
201.173807
 20
367.153295
 11
201.173807
 21
367.903297
  0
LINE
  5
303
100
AcDbEntity
  8
M0
100
AcDbLine
 10
198.112294
 20
366.253298
 11
199.136356
 21
366.253298
  0
LINE
  5
304
100
AcDbEntity
  8
M0
100
AcDbLine
 10
199.136356
 20
367.153295
 11
198.112294
 21
367.153295
  0
LINE
  5
305
100
AcDbEntity
  8
M0
100
AcDbLine
 10
190.323807
 20
442.703296
 11
176.423807
 21
442.703296
  0
LINE
  5
306
100
AcDbEntity
  8
M0
100
AcDbLine
 10
185.123807
 20
403.503297
 11
185.123807
 21
410.450803
  0
LINE
  5
307
100
AcDbEntity
  8
M0
100
AcDbLine
 10
188.673807
 20
410.47225
 11
188.673807
 21
410.450803
  0
LINE
  5
308
100
AcDbEntity
  8
M0
100
AcDbLine
 10
203.335321
 20
367.153295
 11
202.311257
 21
367.153295
  0
LINE
  5
309
100
AcDbEntity
  8
M0
100
AcDbLine
 10
164.436357
 20
367.153295
 11
165.573808
 21
367.153295
  0
LINE
  5
30A
100
AcDbEntity
  8
M0
100
AcDbLine
 10
166.473808
 20
365.503297
 11
166.473808
 21
366.253298
  0
LINE
  5
30B
100
AcDbEntity
  8
M0
100
AcDbLine
 10
202.311257
 20
366.253298
 11
203.335321
 21
366.253298
  0
LINE
  5
30C
100
AcDbEntity
  8
M0
100
AcDbLine
 10
165.573808
 20
366.253298
 11
165.573808
 21
365.503297
  0
LINE
  5
30D
100
AcDbEntity
  8
M0
100
AcDbLine
 10
155.123808
 20
410.903297
 11
157.123808
 21
410.903297
  0
LINE
  5
30E
100
AcDbEntity
  8
M0
100
AcDbLine
 10
177.573807
 20
403.453297
 11
177.823807
 21
402.953297
  0
LINE
  5
30F
100
AcDbEntity
  8
M0
100
AcDbLine
 10
189.923807
 20
395.203297
 11
176.823807
 21
395.203297
  0
LINE
  5
310
100
AcDbEntity
  8
M0
100
AcDbLine
 10
176.823807
 20
395.203297
 11
175.173807
 21
395.203297
  0
LINE
  5
311
100
AcDbEntity
  8
M0
100
AcDbLine
 10
191.073807
 20
410.803297
 11
191.073807
 21
399.703297
  0
LINE
  5
312
100
AcDbEntity
  8
M0
100
AcDbLine
 10
191.073807
 20
395.203297
 11
191.573807
 21
395.203297
  0
LINE
  5
313
100
AcDbEntity
  8
M0
100
AcDbLine
 10
188.923807
 20
396.203297
 11
188.923807
 21
402.953297
  0
LINE
  5
314
100
AcDbEntity
  8
M0
100
AcDbLine
 10
175.173807
 20
399.703297
 11
175.673807
 21
399.703297
  0
LINE
  5
315
100
AcDbEntity
  8
M0
100
AcDbLine
 10
157.823807
 20
428.903297
 11
157.823807
 21
429.103297
  0
LINE
  5
316
100
AcDbEntity
  8
M0
100
AcDbLine
 10
188.923807
 20
402.953297
 11
189.173807
 21
403.453297
  0
LINE
  5
317
100
AcDbEntity
  8
M0
100
AcDbLine
 10
175.673807
 20
395.203297
 11
175.173807
 21
395.203297
  0
LINE
  5
318
100
AcDbEntity
  8
M0
100
AcDbLine
 10
177.823807
 20
402.953297
 11
177.823807
 21
396.203297
  0
LINE
  5
319
100
AcDbEntity
  8
M0
100
AcDbLine
 10
154.623807
 20
381.453297
 11
154.623807
 21
380.403296
  0
LINE
  5
31A
100
AcDbEntity
  8
M0
100
AcDbLine
 10
177.823807
 20
409.453297
 11
177.573807
 21
408.953297
  0
LINE
  5
31B
100
AcDbEntity
  8
M0
100
AcDbLine
 10
148.623808
 20
380.403296
 11
148.623808
 21
381.453297
  0
LINE
  5
31C
100
AcDbEntity
  8
M0
100
AcDbLine
 10
195.523807
 20
451.703296
 11
195.523807
 21
442.703296
  0
LINE
  5
31D
100
AcDbEntity
  8
M0
100
AcDbLine
 10
203.623807
 20
443.703298
 11
203.623807
 21
442.703296
  0
LINE
  5
31E
100
AcDbEntity
  8
M0
100
AcDbLine
 10
199.677083
 20
448.21766
 11
197.909505
 21
446.44996
  0
LINE
  5
31F
100
AcDbEntity
  8
M0
100
AcDbLine
 10
177.573807
 20
408.953297
 11
177.573807
 21
403.453297
  0
LINE
  5
320
100
AcDbEntity
  8
M0
100
AcDbLine
 10
176.673807
 20
417.203297
 11
175.173807
 21
417.203297
  0
LINE
  5
321
100
AcDbEntity
  8
M0
100
AcDbLine
 10
189.173807
 20
408.953297
 11
188.923807
 21
409.453297
  0
LINE
  5
322
100
AcDbEntity
  8
M0
100
AcDbLine
 10
189.173807
 20
403.453297
 11
189.173807
 21
408.953297
  0
LINE
  5
323
100
AcDbEntity
  8
M0
100
AcDbLine
 10
175.673807
 20
410.803297
 11
175.673807
 21
399.703297
  0
LINE
  5
324
100
AcDbEntity
  8
M0
100
AcDbLine
 10
191.073807
 20
399.703297
 11
191.573807
 21
399.703297
  0
ARC
  5
325
100
AcDbEntity
  8
M0
100
AcDbCircle
 10
166.023807
 20
366.703297
 40
2.65
100
AcDbArc
 50
170.223151
 51
189.776849
  0
ARC
  5
326
100
AcDbEntity
  8
M0
100
AcDbCircle
 10
166.023807
 20
366.703297
 40
2.65
100
AcDbArc
 50
350.223151
 51
369.776849
  0
ARC
  5
327
100
AcDbEntity
  8
M0
100
AcDbCircle
 10
200.723807
 20
366.703297
 40
2.65
100
AcDbArc
 50
9.776849
 51
170.223151
  0
ARC
  5
328
100
AcDbEntity
  8
M0
100
AcDbCircle
 10
220.823807
 20
379.853297
 40
1.0
100
AcDbArc
 50
270.0
 51
360.0
  0
ARC
  5
329
100
AcDbEntity
  8
M0
100
AcDbCircle
 10
200.723807
 20
366.703297
 40
2.65
100
AcDbArc
 50
189.776849
 51
350.223151
  0
ARC
  5
32A
100
AcDbEntity
  8
M0
100
AcDbCircle
 10
156.123807
 20
432.953297
 40
0.6
100
AcDbArc
 50
90.0
 51
180.0
  0
ARC
  5
32B
100
AcDbEntity
  8
M0
100
AcDbCircle
 10
158.565799
 20
395.609255
 40
3.350514
100
AcDbArc
 50
136.789285
 51
155.219178
  0
LINE
  5
32C
100
AcDbEntity
  8
M0
100
AcDbLine
 10
148.373807
 20
430.953297
 11
154.873807
 21
430.953297
  0
ARC
  5
32D
100
AcDbEntity
  8
M0
100
AcDbCircle
 10
156.123807
 20
386.703297
 40
0.6
100
AcDbArc
 50
180.0
 51
270.0
  0
ARC
  5
32E
100
AcDbEntity
  8
M0
100
AcDbCircle
 10
210.623807
 20
386.703297
 40
0.6
100
AcDbArc
 50
270.0
 51
360.0
  0
ARC
  5
32F
100
AcDbEntity
  8
M0
100
AcDbCircle
 10
146.723807
 20
387.103297
 40
1.0
100
AcDbArc
 50
270.0
 51
360.0
  0
ARC
  5
330
100
AcDbEntity
  8
M0
100
AcDbCircle
 10
166.023807
 20
366.703297
 40
2.65
100
AcDbArc
 50
9.776849
 51
170.223151
  0
LINE
  5
331
100
AcDbEntity
  8
M0
100
AcDbLine
 10
191.573807
 20
395.203297
 11
189.923807
 21
395.203297
  0
LINE
  5
332
100
AcDbEntity
  8
M0
100
AcDbLine
 10
188.923807
 20
409.453297
 11
188.923807
 21
411.703297
  0
LINE
  5
333
100
AcDbEntity
  8
M0
100
AcDbLine
 10
192.573807
 20
412.303297
 11
191.073807
 21
410.803297
  0
LINE
  5
334
100
AcDbEntity
  8
M0
100
AcDbLine
 10
209.623806
 20
399.003297
 11
210.123807
 21
399.003297
  0
LINE
  5
335
100
AcDbEntity
  8
M0
100
AcDbLine
 10
177.823807
 20
411.703297
 11
177.823807
 21
409.453297
  0
LINE
  5
336
100
AcDbEntity
  8
M0
100
AcDbLine
 10
192.573807
 20
416.203296
 11
192.573807
 21
396.203297
  0
ARC
  5
337
100
AcDbEntity
  8
M0
100
AcDbCircle
 10
220.823807
 20
432.553297
 40
1.0
100
AcDbArc
 50
0.0
 51
90.0
  0
ARC
  5
338
100
AcDbEntity
  8
M0
100
AcDbCircle
 10
146.723807
 20
379.853297
 40
1.0
100
AcDbArc
 50
270.0
 51
360.0
  0
ARC
  5
339
100
AcDbEntity
  8
M0
100
AcDbCircle
 10
210.623807
 20
432.953297
 40
0.6
100
AcDbArc
 50
0.0
 51
90.0
  0
ARC
  5
33A
100
AcDbEntity
  8
M0
100
AcDbCircle
 10
156.123807
 20
379.453297
 40
0.6
100
AcDbArc
 50
180.0
 51
270.0
  0
ARC
  5
33B
100
AcDbEntity
  8
M0
100
AcDbCircle
 10
210.623807
 20
379.453297
 40
0.6
100
AcDbArc
 50
270.0
 51
360.0
  0
LINE
  5
33C
100
AcDbEntity
  8
M0
100
AcDbLine
 10
156.123808
 20
401.703297
 11
157.123808
 21
401.703297
  0
ARC
  5
33D
100
AcDbEntity
  8
M0
100
AcDbCircle
 10
218.417809
 20
371.153592
 40
0.3
100
AcDbArc
 50
90.0
 51
180.0
  0
ARC
  5
33E
100
AcDbEntity
  8
M0
100
AcDbCircle
 10
175.423807
 20
447.703297
 40
1.0
100
AcDbArc
 50
0.0
 51
90.0
  0
ARC
  5
33F
100
AcDbEntity
  8
M0
100
AcDbCircle
 10
218.873807
 20
373.703297
 40
2.25
100
AcDbArc
 50
270.928845
 51
451.752277
  0
ARC
  5
340
100
AcDbEntity
  8
M0
100
AcDbCircle
 10
157.823807
 20
447.703297
 40
1.0
100
AcDbArc
 50
0.0
 51
90.0
  0
ARC
  5
341
100
AcDbEntity
  8
M0
100
AcDbCircle
 10
157.123807
 20
447.703297
 40
1.0
100
AcDbArc
 50
90.0
 51
180.0
  0
ARC
  5
342
100
AcDbEntity
  8
M0
100
AcDbCircle
 10
191.323807
 20
447.703297
 40
1.0
100
AcDbArc
 50
90.0
 51
180.0
  0
ARC
  5
343
100
AcDbEntity
  8
M0
100
AcDbCircle
 10
220.023807
 20
410.903297
 40
1.0
100
AcDbArc
 50
180.0
 51
270.0
  0
ARC
  5
344
100
AcDbEntity
  8
M0
100
AcDbCircle
 10
170.523807
 20
443.403297
 40
0.6
100
AcDbArc
 50
270.0
 51
352.509835
  0
ARC
  5
345
100
AcDbEntity
  8
M0
100
AcDbCircle
 10
220.823807
 20
410.903297
 40
1.0
100
AcDbArc
 50
270.0
 51
360.0
  0
ARC
  5
346
100
AcDbEntity
  8
M0
100
AcDbCircle
 10
145.923807
 20
425.303297
 40
1.0
100
AcDbArc
 50
90.0
 51
180.0
  0
ARC
  5
347
100
AcDbEntity
  8
M0
100
AcDbCircle
 10
200.723807
 20
366.703297
 40
2.65
100
AcDbArc
 50
170.223151
 51
189.776849
  0
ARC
  5
348
100
AcDbEntity
  8
M0
100
AcDbCircle
 10
173.723807
 20
447.703297
 40
1.0
100
AcDbArc
 50
90.0
 51
180.0
  0
LINE
  5
349
100
AcDbEntity
  8
M0
100
AcDbLine
 10
158.823807
 20
383.303296
 11
158.823807
 21
383.503296
  0
LINE
  5
34A
100
AcDbEntity
  8
M0
100
AcDbLine
 10
220.023805
 20
433.553296
 11
220.823808
 21
433.553296
  0
LINE
  5
34B
100
AcDbEntity
  8
M0
100
AcDbLine
 10
176.423807
 20
383.503296
 11
176.423807
 21
364.703297
  0
LINE
  5
34C
100
AcDbEntity
  8
M0
100
AcDbLine
 10
155.523807
 20
397.013617
 11
155.523807
 21
379.453297
  0
LINE
  5
34D
100
AcDbEntity
  8
M0
100
AcDbLine
 10
147.723807
 20
410.903297
 11
147.723807
 21
432.553298
  0
LINE
  5
34E
100
AcDbEntity
  8
M0
100
AcDbLine
 10
155.523807
 20
432.953297
 11
155.523807
 21
415.391543
  0
ARC
  5
34F
100
AcDbEntity
  8
M0
100
AcDbCircle
 10
193.023807
 20
447.703297
 40
1.0
100
AcDbArc
 50
0.0
 51
90.0
  0
ARC
  5
350
100
AcDbEntity
  8
M0
100
AcDbCircle
 10
208.923807
 20
447.703297
 40
1.0
100
AcDbArc
 50
90.0
 51
180.0
  0
LINE
  5
351
100
AcDbEntity
  8
M0
100
AcDbLine
 10
154.873807
 20
423.453298
 11
148.373808
 21
423.453291
  0
LINE
  5
352
100
AcDbEntity
  8
M0
100
AcDbLine
 10
207.923807
 20
428.903297
 11
207.923807
 21
429.103297
  0
LINE
  5
353
100
AcDbEntity
  8
M0
100
AcDbLine
 10
207.923807
 20
383.303296
 11
207.923807
 21
383.503296
  0
LINE
  5
354
100
AcDbEntity
  8
M0
100
AcDbLine
 10
146.723809
 20
433.553296
 11
145.923807
 21
433.553296
  0
LINE
  5
355
100
AcDbEntity
  8
M0
100
AcDbLine
 10
157.123808
 20
404.703297
 11
156.123808
 21
404.703297
  0
LINE
  5
356
100
AcDbEntity
  8
M0
100
AcDbLine
 10
174.173807
 20
412.303297
 11
175.673807
 21
410.803297
  0
LINE
  5
357
100
AcDbEntity
  8
M0
100
AcDbLine
 10
209.623806
 20
383.503296
 11
157.123808
 21
383.503296
  0
LINE
  5
358
100
AcDbEntity
  8
M0
100
AcDbLine
 10
188.923807
 20
399.003297
 11
177.823807
 21
399.003297
  0
LINE
  5
359
100
AcDbEntity
  8
M0
100
AcDbLine
 10
177.823807
 20
396.703297
 11
188.923807
 21
396.703297
  0
LINE
  5
35A
100
AcDbEntity
  8
M0
100
AcDbLine
 10
177.823807
 20
400.503297
 11
188.923807
 21
400.503297
  0
LINE
  5
35B
100
AcDbEntity
  8
M0
100
AcDbLine
 10
218.117809
 20
371.039108
 11
218.117809
 21
371.153594
  0
LINE
  5
35C
100
AcDbEntity
  8
M0
100
AcDbLine
 10
157.823807
 20
383.303296
 11
157.823807
 21
383.503296
  0
LINE
  5
35D
100
AcDbEntity
  8
M0
100
AcDbLine
 10
215.125295
 20
373.785116
 11
215.125295
 21
373.753295
  0
LINE
  5
35E
100
AcDbEntity
  8
M0
100
AcDbLine
 10
173.223807
 20
430.603296
 11
175.923807
 21
430.603296
  0
LINE
  5
35F
100
AcDbEntity
  8
M0
100
AcDbLine
 10
222.323807
 20
377.403297
 11
222.323807
 21
366.703295
  0
LINE
  5
360
100
AcDbEntity
  8
M0
100
AcDbLine
 10
156.123808
 20
447.703297
 11
156.123808
 21
412.403297
  0
ARC
  5
361
100
AcDbEntity
  8
M0
100
AcDbCircle
 10
220.023807
 20
401.503297
 40
1.0
100
AcDbArc
 50
90.0
 51
180.0
  0
LINE
  5
362
100
AcDbEntity
  8
M0
100
AcDbLine
 10
178.323807
 20
412.203297
 11
178.323807
 21
416.203296
  0
ARC
  5
363
100
AcDbEntity
  8
M0
100
AcDbCircle
 10
193.023807
 20
364.703297
 40
1.0
100
AcDbArc
 50
270.0
 51
360.0
  0
ARC
  5
364
100
AcDbEntity
  8
M0
100
AcDbCircle
 10
146.723807
 20
410.903297
 40
1.0
100
AcDbArc
 50
270.0
 51
360.0
  0
ARC
  5
365
100
AcDbEntity
  8
M0
100
AcDbCircle
 10
173.723807
 20
364.703297
 40
1.0
100
AcDbArc
 50
180.0
 51
270.0
  0
ARC
  5
366
100
AcDbEntity
  8
M0
100
AcDbCircle
 10
220.823807
 20
425.303297
 40
1.0
100
AcDbArc
 50
0.0
 51
90.0
  0
LINE
  5
367
100
AcDbEntity
  8
M0
100
AcDbLine
 10
156.123808
 20
407.703297
 11
156.123808
 21
407.603297
  0
LINE
  5
368
100
AcDbEntity
  8
M0
100
AcDbLine
 10
156.623807
 20
399.003297
 11
157.123808
 21
399.003297
  0
LINE
  5
369
100
AcDbEntity
  8
M0
100
AcDbLine
 10
156.123808
 20
404.803297
 11
156.123808
 21
404.703297
  0
LINE
  5
36A
100
AcDbEntity
  8
M0
100
AcDbLine
 10
174.173807
 20
416.203296
 11
174.173807
 21
395.870193
  0
LINE
  5
36B
100
AcDbEntity
  8
M0
100
AcDbLine
 10
189.423807
 20
417.203297
 11
191.573807
 21
417.203297
  0
LINE
  5
36C
100
AcDbEntity
  8
M0
100
AcDbLine
 10
207.923807
 20
445.703299
 11
207.923807
 21
447.703295
  0
LINE
  5
36D
100
AcDbEntity
  8
M0
100
AcDbLine
 10
147.223806
 20
409.903297
 11
147.223806
 21
402.503297
  0
LINE
  5
36E
100
AcDbEntity
  8
M0
100
AcDbLine
 10
158.823807
 20
428.903297
 11
158.823807
 21
447.703295
  0
LINE
  5
36F
100
AcDbEntity
  8
M0
100
AcDbLine
 10
211.223807
 20
397.013617
 11
211.223807
 21
379.453297
  0
LINE
  5
370
100
AcDbEntity
  8
M0
100
AcDbLine
 10
219.023807
 20
379.853296
 11
219.023807
 21
401.503297
  0
LINE
  5
371
100
AcDbEntity
  8
M0
100
AcDbLine
 10
147.723807
 20
379.853296
 11
147.723807
 21
401.503297
  0
LINE
  5
372
100
AcDbEntity
  8
M0
100
AcDbLine
 10
176.923807
 20
417.203297
 11
177.323807
 21
417.203297
  0
LINE
  5
373
100
AcDbEntity
  8
M0
100
AcDbLine
 10
158.823807
 20
366.703295
 11
158.823807
 21
367.703297
  0
LINE
  5
374
100
AcDbEntity
  8
M0
100
AcDbLine
 10
189.423807
 20
417.203297
 11
189.823807
 21
417.203297
  0
LINE
  5
375
100
AcDbEntity
  8
M0
100
AcDbLine
 10
219.523808
 20
409.903297
 11
219.523808
 21
402.503297
  0
LINE
  5
376
100
AcDbEntity
  8
M0
100
AcDbLine
 10
220.823808
 20
402.503297
 11
220.823808
 21
409.903297
  0
LINE
  5
377
100
AcDbEntity
  8
M0
100
AcDbLine
 10
145.923807
 20
402.503297
 11
145.923807
 21
409.903297
  0
ARC
  5
378
100
AcDbEntity
  8
M0
100
AcDbCircle
 10
148.373808
 20
423.953296
 40
0.5
100
AcDbArc
 50
180.0
 51
270.0
  0
ARC
  5
379
100
AcDbEntity
  8
M0
100
AcDbCircle
 10
148.373807
 20
430.453296
 40
0.5
100
AcDbArc
 50
90.0
 51
180.0
  0
ARC
  5
37A
100
AcDbEntity
  8
M0
100
AcDbCircle
 10
211.873807
 20
423.953297
 40
0.5
100
AcDbArc
 50
180.0
 51
270.0
  0
ARC
  5
37B
100
AcDbEntity
  8
M0
100
AcDbCircle
 10
145.923807
 20
387.103297
 40
1.0
100
AcDbArc
 50
180.0
 51
270.0
  0
ARC
  5
37C
100
AcDbEntity
  8
M0
100
AcDbCircle
 10
208.181816
 20
395.609255
 40
3.350514
100
AcDbArc
 50
24.780822
 51
43.210715
  0
ARC
  5
37D
100
AcDbEntity
  8
M0
100
AcDbCircle
 10
220.023807
 20
432.553297
 40
1.0
100
AcDbArc
 50
90.0
 51
180.0
  0
ARC
  5
37E
100
AcDbEntity
  8
M0
100
AcDbCircle
 10
164.173807
 20
450.053297
 40
0.5
100
AcDbArc
 50
90.0
 51
180.0
  0
ARC
  5
37F
100
AcDbEntity
  8
M0
100
AcDbCircle
 10
202.573808
 20
443.553297
 40
0.5
100
AcDbArc
 50
270.0
 51
360.0
  0
ARC
  5
380
100
AcDbEntity
  8
M0
100
AcDbCircle
 10
211.873807
 20
430.453297
 40
0.5
100
AcDbArc
 50
90.0
 51
180.0
  0
ARC
  5
381
100
AcDbEntity
  8
M0
100
AcDbCircle
 10
202.573807
 20
450.053297
 40
0.5
100
AcDbArc
 50
0.0
 51
90.0
  0
ARC
  5
382
100
AcDbEntity
  8
M0
100
AcDbCircle
 10
218.373807
 20
423.953297
 40
0.5
100
AcDbArc
 50
270.0
 51
360.0
  0
ARC
  5
383
100
AcDbEntity
  8
M0
100
AcDbCircle
 10
218.373807
 20
430.453297
 40
0.5
100
AcDbArc
 50
0.0
 51
90.0
  0
LINE
  5
384
100
AcDbEntity
  8
M0
100
AcDbLine
 10
181.623807
 20
403.503297
 11
181.623807
 21
410.450803
  0
LINE
  5
385
100
AcDbEntity
  8
M0
100
AcDbLine
 10
151.223807
 20
409.903297
 11
151.223807
 21
402.503297
  0
LINE
  5
386
100
AcDbEntity
  8
M0
100
AcDbLine
 10
188.673807
 20
410.903297
 11
188.673807
 21
402.408284
  0
LINE
  5
387
100
AcDbEntity
  8
M0
100
AcDbLine
 10
188.673807
 20
401.910766
 11
188.673807
 21
402.408284
  0
LINE
  5
388
100
AcDbEntity
  8
M0
100
AcDbLine
 10
178.073807
 20
410.903297
 11
178.073807
 21
402.408284
  0
LINE
  5
389
100
AcDbEntity
  8
M0
100
AcDbLine
 10
182.123807
 20
403.003297
 11
184.623807
 21
403.003297
  0
LINE
  5
38A
100
AcDbEntity
  8
M0
100
AcDbLine
 10
211.223807
 20
415.503297
 11
219.023807
 21
415.503297
  0
LINE
  5
38B
100
AcDbEntity
  8
M0
100
AcDbLine
 10
188.423807
 20
412.203297
 11
188.423807
 21
416.203296
  0
LINE
  5
38C
100
AcDbEntity
  8
M0
100
AcDbLine
 10
220.823808
 20
378.853298
 11
220.023805
 21
378.853298
  0
LINE
  5
38D
100
AcDbEntity
  8
M0
100
AcDbLine
 10
220.823808
 20
386.103297
 11
220.023805
 21
386.103297
  0
LINE
  5
38E
100
AcDbEntity
  8
M0
100
AcDbLine
 10
215.523808
 20
409.903297
 11
215.523808
 21
402.503297
  0
LINE
  5
38F
100
AcDbEntity
  8
M0
100
AcDbLine
 10
145.923807
 20
386.103297
 11
146.723809
 21
386.103297
  0
LINE
  5
390
100
AcDbEntity
  8
M0
100
AcDbLine
 10
147.723807
 20
396.903297
 11
155.523807
 21
396.903297
  0
LINE
  5
391
100
AcDbEntity
  8
M0
100
AcDbLine
 10
215.523808
 20
402.503297
 11
220.023805
 21
402.503297
  0
LINE
  5
392
100
AcDbEntity
  8
M0
100
AcDbLine
 10
207.923807
 20
444.703296
 11
207.923807
 21
445.703299
  0
LINE
  5
393
100
AcDbEntity
  8
M0
100
AcDbLine
 10
207.923807
 20
366.703295
 11
207.923807
 21
367.703297
  0
LINE
  5
394
100
AcDbEntity
  8
M0
100
AcDbLine
 10
172.723808
 20
451.203298
 11
172.723808
 21
428.903297
  0
LINE
  5
395
100
AcDbEntity
  8
M0
100
AcDbLine
 10
194.023807
 20
367.703297
 11
194.023807
 21
366.703295
  0
LINE
  5
396
100
AcDbEntity
  8
M0
100
AcDbLine
 10
155.523807
 20
415.503297
 11
147.723807
 21
415.503297
  0
LINE
  5
397
100
AcDbEntity
  8
M0
100
AcDbLine
 10
178.073807
 20
401.910766
 11
178.073807
 21
402.408284
  0
LINE
  5
398
100
AcDbEntity
  8
M0
100
AcDbLine
 10
220.023805
 20
409.903297
 11
215.523808
 21
409.903297
  0
LINE
  5
399
100
AcDbEntity
  8
M0
100
AcDbLine
 10
145.923807
 20
402.503297
 11
151.223807
 21
402.503297
  0
LINE
  5
39A
100
AcDbEntity
  8
M0
100
AcDbLine
 10
211.223807
 20
432.953297
 11
211.223807
 21
415.419812
  0
LINE
  5
39B
100
AcDbEntity
  8
M0
100
AcDbLine
 10
207.923807
 20
364.703298
 11
207.923807
 21
368.703295
  0
LINE
  5
39C
100
AcDbEntity
  8
M0
100
AcDbLine
 10
192.523811
 20
363.703296
 11
191.323808
 21
363.703296
  0
LINE
  5
39D
100
AcDbEntity
  8
M0
100
AcDbLine
 10
158.823807
 20
364.703298
 11
158.823807
 21
368.703295
  0
LINE
  5
39E
100
AcDbEntity
  8
M0
100
AcDbLine
 10
176.423807
 20
429.103297
 11
172.723808
 21
429.103297
  0
LINE
  5
39F
100
AcDbEntity
  8
M0
100
AcDbLine
 10
211.623807
 20
404.803297
 11
209.923808
 21
404.803297
  0
LINE
  5
3A0
100
AcDbEntity
  8
M0
100
AcDbLine
 10
194.023807
 20
368.703295
 11
194.023807
 21
364.703298
  0
CIRCLE
  5
3A1
100
AcDbEntity
  8
M0
100
AcDbCircle
 10
215.123808
 20
385.203295
 40
3.0
  0
CIRCLE
  5
3A2
100
AcDbEntity
  8
M0
100
AcDbCircle
 10
215.123808
 20
392.803295
 40
3.0
  0
CIRCLE
  5
3A3
100
AcDbEntity
  8
M0
100
AcDbCircle
 10
165.773807
 20
376.703266
 40
4.499996
  0
CIRCLE
  5
3A4
100
AcDbEntity
  8
M0
100
AcDbCircle
 10
200.973807
 20
376.703266
 40
4.499996
  0
CIRCLE
  5
3A5
100
AcDbEntity
  8
M0
100
AcDbCircle
 10
183.373807
 20
376.703266
 40
4.499996
  0
LINE
  5
3A6
100
AcDbEntity
  8
M0
100
AcDbLine
 10
193.023808
 20
363.703296
 11
192.523811
 21
363.703296
  0
LINE
  5
3A7
100
AcDbEntity
  8
M0
100
AcDbLine
 10
190.323807
 20
383.503296
 11
190.323807
 21
381.303296
  0
LINE
  5
3A8
100
AcDbEntity
  8
M0
100
AcDbLine
 10
194.023807
 20
383.303296
 11
190.323807
 21
383.303296
  0
LINE
  5
3A9
100
AcDbEntity
  8
M0
100
AcDbLine
 10
194.023807
 20
381.303296
 11
194.023807
 21
383.503296
  0
LINE
  5
3AA
100
AcDbEntity
  8
M0
100
AcDbLine
 10
220.023805
 20
409.903297
 11
220.823808
 21
409.903297
  0
LINE
  5
3AB
100
AcDbEntity
  8
M0
100
AcDbLine
 10
220.023805
 20
426.303296
 11
220.823808
 21
426.303296
  0
LINE
  5
3AC
100
AcDbEntity
  8
M0
100
AcDbLine
 10
147.723807
 20
389.003296
 11
155.523807
 21
389.003296
  0
LINE
  5
3AD
100
AcDbEntity
  8
M0
100
AcDbLine
 10
190.323807
 20
429.103297
 11
194.023807
 21
429.103297
  0
LINE
  5
3AE
100
AcDbEntity
  8
M0
100
AcDbLine
 10
209.923808
 20
407.603297
 11
211.623807
 21
407.603297
  0
LINE
  5
3AF
100
AcDbEntity
  8
M0
100
AcDbLine
 10
172.723808
 20
383.503296
 11
172.723808
 21
364.703298
  0
LINE
  5
3B0
100
AcDbEntity
  8
M0
100
AcDbLine
 10
209.923808
 20
404.803297
 11
209.923808
 21
407.603297
  0
LINE
  5
3B1
100
AcDbEntity
  8
M0
100
AcDbLine
 10
156.823807
 20
404.803297
 11
156.823807
 21
407.603297
  0
LINE
  5
3B2
100
AcDbEntity
  8
M0
100
AcDbLine
 10
172.723808
 20
383.303296
 11
176.423807
 21
383.303296
  0
LINE
  5
3B3
100
AcDbEntity
  8
M0
100
AcDbLine
 10
215.477087
 20
386.617658
 11
213.709509
 21
384.849958
  0
LINE
  5
3B4
100
AcDbEntity
  8
M0
100
AcDbLine
 10
216.714392
 20
383.612653
 11
213.532751
 21
386.794416
  0
LINE
  5
3B5
100
AcDbEntity
  8
M0
100
AcDbLine
 10
216.537634
 20
385.556989
 11
214.770056
 21
383.789411
  0
LINE
  5
3B6
100
AcDbEntity
  8
M0
100
AcDbLine
 10
167.654911
 20
377.170247
 11
165.306934
 21
374.822255
  0
LINE
  5
3B7
100
AcDbEntity
  8
M0
100
AcDbLine
 10
166.240711
 20
378.584462
 11
163.892734
 21
376.23647
  0
LINE
  5
3B8
100
AcDbEntity
  8
M0
100
AcDbLine
 10
163.704853
 20
378.772236
 11
167.967823
 21
374.509297
  0
ARC
  5
3B9
100
AcDbEntity
  8
M0
100
AcDbCircle
 10
204.823807
 20
451.703297
 40
1.0
100
AcDbArc
 50
90.0
 51
180.0
  0
CIRCLE
  5
3BA
100
AcDbEntity
  8
M0
100
AcDbCircle
 10
215.123808
 20
419.603298
 40
3.0
  0
ARC
  5
3BB
100
AcDbEntity
  8
M0
100
AcDbCircle
 10
204.823807
 20
451.703297
 40
1.0
100
AcDbArc
 50
0.0
 51
90.0
  0
LINE
  5
3BC
100
AcDbEntity
  8
M0
100
AcDbLine
 10
216.537634
 20
393.156989
 11
214.770056
 21
391.389411
  0
LINE
  5
3BD
100
AcDbEntity
  8
M0
100
AcDbLine
 10
215.477087
 20
394.217658
 11
213.709509
 21
392.449958
  0
LINE
  5
3BE
100
AcDbEntity
  8
M0
100
AcDbLine
 10
216.714392
 20
391.212653
 11
213.532751
 21
394.394416
  0
LINE
  5
3BF
100
AcDbEntity
  8
M0
100
AcDbLine
 10
185.254911
 20
377.170247
 11
182.906934
 21
374.822255
  0
LINE
  5
3C0
100
AcDbEntity
  8
M0
100
AcDbLine
 10
183.840711
 20
378.584462
 11
181.492734
 21
376.23647
  0
LINE
  5
3C1
100
AcDbEntity
  8
M0
100
AcDbLine
 10
181.304853
 20
378.772236
 11
185.567823
 21
374.509297
  0
LINE
  5
3C2
100
AcDbEntity
  8
M0
100
AcDbLine
 10
202.854911
 20
377.170247
 11
200.506934
 21
374.822255
  0
LINE
  5
3C3
100
AcDbEntity
  8
M0
100
AcDbLine
 10
201.440711
 20
378.584462
 11
199.092734
 21
376.23647
  0
LINE
  5
3C4
100
AcDbEntity
  8
M0
100
AcDbLine
 10
210.623807
 20
364.703297
 11
210.623807
 21
400.003297
  0
LINE
  5
3C5
100
AcDbEntity
  8
M0
100
AcDbLine
 10
176.423807
 20
428.903297
 11
176.423807
 21
447.703295
  0
LINE
  5
3C6
100
AcDbEntity
  8
M0
100
AcDbLine
 10
190.323807
 20
428.903297
 11
190.323807
 21
447.703295
  0
LINE
  5
3C7
100
AcDbEntity
  8
M0
100
AcDbLine
 10
208.923808
 20
383.303296
 11
208.923808
 21
383.503296
  0
LINE
  5
3C8
100
AcDbEntity
  8
M0
100
AcDbLine
 10
191.323808
 20
448.703297
 11
193.023807
 21
448.703297
  0
LINE
  5
3C9
100
AcDbEntity
  8
M0
100
AcDbLine
 10
175.423807
 20
448.703297
 11
173.723807
 21
448.703297
  0
LINE
  5
3CA
100
AcDbEntity
  8
M0
100
AcDbLine
 10
157.823807
 20
448.703297
 11
157.123807
 21
448.703297
  0
LINE
  5
3CB
100
AcDbEntity
  8
M0
100
AcDbLine
 10
178.323807
 20
412.203297
 11
188.423807
 21
412.203297
  0
LINE
  5
3CC
100
AcDbEntity
  8
M0
100
AcDbLine
 10
199.136356
 20
367.153295
 11
200.273806
 21
367.153295
  0
LINE
  5
3CD
100
AcDbEntity
  8
M0
100
AcDbLine
 10
200.273806
 20
365.503297
 11
201.173807
 21
365.503297
  0
LINE
  5
3CE
100
AcDbEntity
  8
M0
100
AcDbLine
 10
209.623806
 20
401.503297
 11
211.623807
 21
401.503297
  0
LINE
  5
3CF
100
AcDbEntity
  8
M0
100
AcDbLine
 10
207.923807
 20
428.903297
 11
207.923807
 21
447.703295
  0
LINE
  5
3D0
100
AcDbEntity
  8
M0
100
AcDbLine
 10
218.41781
 20
371.453591
 11
218.910283
 21
371.453591
  0
LINE
  5
3D1
100
AcDbEntity
  8
M0
100
AcDbLine
 10
157.823807
 20
429.103297
 11
158.823807
 21
429.103297
  0
LINE
  5
3D2
100
AcDbEntity
  8
M0
100
AcDbLine
 10
157.123808
 20
401.503297
 11
155.123808
 21
401.503297
  0
LINE
  5
3D3
100
AcDbEntity
  8
M0
100
AcDbLine
 10
208.923808
 20
429.103297
 11
207.923807
 21
429.103297
  0
LINE
  5
3D4
100
AcDbEntity
  8
M0
100
AcDbLine
 10
156.123808
 20
400.003297
 11
156.123808
 21
364.703297
  0
LINE
  5
3D5
100
AcDbEntity
  8
M0
100
AcDbLine
 10
219.023807
 20
396.903297
 11
211.223807
 21
396.903297
  0
LINE
  5
3D6
100
AcDbEntity
  8
M0
100
AcDbLine
 10
211.623807
 20
410.903297
 11
209.623806
 21
410.903297
  0
LINE
  5
3D7
100
AcDbEntity
  8
M0
100
AcDbLine
 10
209.423803
 20
448.703297
 11
209.623806
 21
448.703297
  0
LINE
  5
3D8
100
AcDbEntity
  8
M0
100
AcDbLine
 10
208.923808
 20
428.903297
 11
208.923808
 21
429.103297
  0
LINE
  5
3D9
100
AcDbEntity
  8
M0
100
AcDbLine
 10
206.973808
 20
368.703295
 11
207.923807
 21
368.703295
  0
LINE
  5
3DA
100
AcDbEntity
  8
M0
100
AcDbLine
 10
218.805006
 20
375.952244
 11
217.375463
 21
375.953297
  0
LINE
  5
3DB
100
AcDbEntity
  8
M0
100
AcDbLine
 10
210.623807
 20
412.403297
 11
210.623807
 21
447.703297
  0
CIRCLE
  5
3DC
100
AcDbEntity
  8
M0
100
AcDbCircle
 10
200.723807
 20
366.703297
 40
2.85
  0
CIRCLE
  5
3DD
100
AcDbEntity
  8
M0
100
AcDbCircle
 10
183.373807
 20
446.503297
 40
2.825
  0
ARC
  5
3DE
100
AcDbEntity
  8
M0
100
AcDbCircle
 10
203.123807
 20
443.703297
 40
0.5
100
AcDbArc
 50
0.0
 51
66.421822
  0
ARC
  5
3DF
100
AcDbEntity
  8
M0
100
AcDbCircle
 10
166.323807
 20
452.203297
 40
0.5
100
AcDbArc
 50
90.0
 51
180.0
  0
ARC
  5
3E0
100
AcDbEntity
  8
M0
100
AcDbCircle
 10
194.523807
 20
451.703297
 40
1.0
100
AcDbArc
 50
0.0
 51
90.0
  0
ARC
  5
3E1
100
AcDbEntity
  8
M0
100
AcDbCircle
 10
163.623807
 20
443.703297
 40
0.5
100
AcDbArc
 50
113.578178
 51
180.0
  0
LINE
  5
3E2
100
AcDbEntity
  8
M0
100
AcDbLine
 10
146.723809
 20
426.303296
 11
145.923807
 21
426.303296
  0
LINE
  5
3E3
100
AcDbEntity
  8
M0
100
AcDbLine
 10
198.904853
 20
378.772236
 11
203.167823
 21
374.509297
  0
LINE
  5
3E4
100
AcDbEntity
  8
M0
100
AcDbLine
 10
151.223807
 20
409.903297
 11
145.923807
 21
409.903297
  0
LINE
  5
3E5
100
AcDbEntity
  8
M0
100
AcDbLine
 10
220.823808
 20
402.503297
 11
220.023805
 21
402.503297
  0
LINE
  5
3E6
100
AcDbEntity
  8
M0
100
AcDbLine
 10
219.023807
 20
432.553297
 11
219.023807
 21
410.903297
  0
CIRCLE
  5
3E7
100
AcDbEntity
  8
M0
100
AcDbCircle
 10
183.373807
 20
446.503297
 40
2.85
  0
ARC
  5
3E8
100
AcDbEntity
  8
M0
100
AcDbCircle
 10
177.323807
 20
416.203297
 40
1.0
100
AcDbArc
 50
0.0
 51
90.0
  0
ARC
  5
3E9
100
AcDbEntity
  8
M0
100
AcDbCircle
 10
191.573807
 20
398.703297
 40
1.0
100
AcDbArc
 50
0.0
 51
90.0
  0
ARC
  5
3EA
100
AcDbEntity
  8
M0
100
AcDbCircle
 10
189.423807
 20
416.203297
 40
1.0
100
AcDbArc
 50
90.0
 51
180.0
  0
LINE
  5
3EB
100
AcDbEntity
  8
M0
100
AcDbLine
 10
188.923807
 20
411.703297
 11
177.823807
 21
411.703297
  0
LINE
  5
3EC
100
AcDbEntity
  8
M0
100
AcDbLine
 10
188.423807
 20
415.703296
 11
178.323807
 21
415.703296
  0
LINE
  5
3ED
100
AcDbEntity
  8
M0
100
AcDbLine
 10
208.923808
 20
448.703297
 11
209.423803
 21
448.703297
  0
ARC
  5
3EE
100
AcDbEntity
  8
M0
100
AcDbCircle
 10
172.223807
 20
451.703297
 40
1.0
100
AcDbArc
 50
90.0
 51
180.0
  0
ARC
  5
3EF
100
AcDbEntity
  8
M0
100
AcDbCircle
 10
200.423807
 20
452.203297
 40
0.5
100
AcDbArc
 50
0.0
 51
90.0
  0
ARC
  5
3F0
100
AcDbEntity
  8
M0
100
AcDbCircle
 10
145.923807
 20
401.503297
 40
1.0
100
AcDbArc
 50
90.0
 51
180.0
  0
ARC
  5
3F1
100
AcDbEntity
  8
M0
100
AcDbCircle
 10
220.823807
 20
401.503297
 40
1.0
100
AcDbArc
 50
0.0
 51
90.0
  0
ARC
  5
3F2
100
AcDbEntity
  8
M0
100
AcDbCircle
 10
145.923807
 20
410.903297
 40
1.0
100
AcDbArc
 50
180.0
 51
270.0
  0
ARC
  5
3F3
100
AcDbEntity
  8
M0
100
AcDbCircle
 10
188.923807
 20
412.203297
 40
0.5
100
AcDbArc
 50
180.0
 51
270.0
  0
HATCH
  5
3F4
100
AcDbEntity
  8
M0
 62
     7
100
AcDbHatch
 10
0.0
 20
0.0
210
0.0
220
0.0
230
1.0
  2
SOLID
 70
     1
 71
     0
 91
        1
 92
        1
 93
        4
 72
     1
 10
281.840874
 20
454.623428
 11
279.840874
 21
454.623428
 72
     1
 10
279.840874
 20
454.623428
 11
279.840874
 21
436.423428
 72
     1
 10
279.840874
 20
436.423428
 11
281.840874
 21
436.423428
 72
     1
 10
281.840874
 20
436.423428
 11
281.840874
 21
454.623428
 97
        0
 75
     0
 76
     1
 98
        1
 10
0.0
 20
0.0
  0
LINE
  5
3F7
100
AcDbEntity
  8
M0
  6
DIVIDE
100
AcDbLine
 10
378.240874
 20
419.703305
 11
371.740874
 21
419.703305
  0
LINE
  5
3F8
100
AcDbEntity
  8
M0
  6
DIVIDE
100
AcDbLine
 10
378.240874
 20
392.703305
 11
371.740874
 21
392.703305
  0
LINE
  5
3F9
100
AcDbEntity
  8
M0
  6
DIVIDE
100
AcDbLine
 10
377.240874
 20
418.703305
 11
370.740874
 21
418.703305
  0
LINE
  5
3FA
100
AcDbEntity
  8
M0
  6
DIVIDE
100
AcDbLine
 10
371.740874
 20
392.703305
 11
371.740874
 21
388.703305
  0
LINE
  5
3FB
100
AcDbEntity
  8
M0
  6
DIVIDE
100
AcDbLine
 10
377.240874
 20
393.703305
 11
370.740874
 21
393.703305
  0
LINE
  5
3FC
100
AcDbEntity
  8
M0
  6
DIVIDE
100
AcDbLine
 10
370.740874
 20
393.703305
 11
370.740874
 21
388.703305
  0
LINE
  5
3FD
100
AcDbEntity
  8
M0
  6
DIVIDE
100
AcDbLine
 10
371.740874
 20
423.703305
 11
370.740874
 21
423.703305
  0
LINE
  5
3FE
100
AcDbEntity
  8
M0
  6
DIVIDE
100
AcDbLine
 10
378.240874
 20
392.703305
 11
378.240874
 21
419.703305
  0
LINE
  5
3FF
100
AcDbEntity
  8
M0
  6
DIVIDE
100
AcDbLine
 10
370.740874
 20
423.703305
 11
370.740874
 21
418.703305
  0
LINE
  5
400
100
AcDbEntity
  8
M0
  6
DIVIDE
100
AcDbLine
 10
371.740874
 20
423.703305
 11
371.740874
 21
419.703305
  0
LINE
  5
401
100
AcDbEntity
  8
M0
  6
DIVIDE
100
AcDbLine
 10
370.740874
 20
388.703305
 11
371.740874
 21
388.703305
  0
LINE
  5
402
100
AcDbEntity
  8
M0
  6
DIVIDE
100
AcDbLine
 10
377.240874
 20
418.703305
 11
377.240874
 21
393.703305
  0
ARC
  5
403
100
AcDbEntity
  8
M0
100
AcDbCircle
 10
70.22381
 20
364.703297
 40
1.0
100
AcDbArc
 50
180.0
 51
270.0
  0
ARC
  5
404
100
AcDbEntity
  8
M0
100
AcDbCircle
 10
96.47381
 20
446.503297
 40
2.65
100
AcDbArc
 50
350.223151
 51
369.776849
  0
ARC
  5
405
100
AcDbEntity
  8
M0
100
AcDbCircle
 10
133.12381
 20
425.303297
 40
1.0
100
AcDbArc
 50
90.0
 51
180.0
  0
ARC
  5
406
100
AcDbEntity
  8
M0
100
AcDbCircle
 10
70.92381
 20
364.703297
 40
1.0
100
AcDbArc
 50
270.0
 51
360.0
  0
ARC
  5
407
100
AcDbEntity
  8
M0
100
AcDbCircle
 10
122.02381
 20
364.703297
 40
1.0
100
AcDbArc
 50
180.0
 51
270.0
  0
LINE
  5
408
100
AcDbEntity
  8
M0
100
AcDbLine
 10
78.723809
 20
451.703296
 11
78.723809
 21
452.203297
  0
ARC
  5
409
100
AcDbEntity
  8
M0
100
AcDbCircle
 10
96.47381
 20
446.503297
 40
2.65
100
AcDbArc
 50
189.776849
 51
350.223151
  0
ARC
  5
40A
100
AcDbEntity
  8
M0
100
AcDbCircle
 10
96.47381
 20
446.503297
 40
2.65
100
AcDbArc
 50
170.223151
 51
189.776849
  0
ARC
  5
40B
100
AcDbEntity
  8
M0
100
AcDbCircle
 10
113.82381
 20
366.703297
 40
2.65
100
AcDbArc
 50
350.223151
 51
369.776849
  0
ARC
  5
40C
100
AcDbEntity
  8
M0
100
AcDbCircle
 10
96.47381
 20
446.503297
 40
2.65
100
AcDbArc
 50
9.776849
 51
170.223151
  0
ARC
  5
40D
100
AcDbEntity
  8
M0
100
AcDbCircle
 10
109.32381
 20
443.403297
 40
0.6
100
AcDbArc
 50
187.490122
 51
324.314617
  0
ARC
  5
40E
100
AcDbEntity
  8
M0
100
AcDbCircle
 10
112.02381
 20
442.203297
 40
1.0
100
AcDbArc
 50
121.788346
 51
150.0
  0
LINE
  5
40F
100
AcDbEntity
  8
M0
100
AcDbLine
 10
102.97381
 20
393.203296
 11
104.97381
 21
393.203296
  0
LINE
  5
410
100
AcDbEntity
  8
M0
100
AcDbLine
 10
90.473809
 20
391.703297
 11
90.473809
 21
392.703296
  0
LINE
  5
411
100
AcDbEntity
  8
M0
100
AcDbLine
 10
87.47381
 20
392.703296
 11
87.47381
 21
391.703297
  0
LINE
  5
412
100
AcDbEntity
  8
M0
100
AcDbLine
 10
87.973809
 20
391.203297
 11
89.973809
 21
391.203297
  0
LINE
  5
413
100
AcDbEntity
  8
M0
100
AcDbLine
 10
104.97381
 20
391.203297
 11
102.97381
 21
391.203297
  0
LINE
  5
414
100
AcDbEntity
  8
M0
100
AcDbLine
 10
99.47381
 20
418.403296
 11
99.47381
 21
420.003297
  0
LINE
  5
415
100
AcDbEntity
  8
M0
100
AcDbLine
 10
114.22381
 20
451.703296
 11
114.22381
 21
452.203297
  0
LINE
  5
416
100
AcDbEntity
  8
M0
100
AcDbLine
 10
76.02381
 20
444.203295
 11
76.523809
 21
444.203295
  0
LINE
  5
417
100
AcDbEntity
  8
M0
100
AcDbLine
 10
105.473809
 20
392.703296
 11
105.473809
 21
391.703297
  0
LINE
  5
418
100
AcDbEntity
  8
M0
100
AcDbLine
 10
70.22381
 20
428.903297
 11
122.723809
 21
428.903297
  0
LINE
  5
419
100
AcDbEntity
  8
M0
100
AcDbLine
 10
101.37381
 20
416.403297
 11
101.37381
 21
415.903297
  0
LINE
  5
41A
100
AcDbEntity
  8
M0
100
AcDbLine
 10
60.973808
 20
389.553296
 11
60.973808
 21
396.053297
  0
LINE
  5
41B
100
AcDbEntity
  8
M0
100
AcDbLine
 10
96.02381
 20
446.053297
 11
96.02381
 21
445.303295
  0
LINE
  5
41C
100
AcDbEntity
  8
M0
100
AcDbLine
 10
98.06126
 20
446.053297
 11
96.92381
 21
446.053297
  0
CIRCLE
  5
41D
100
AcDbEntity
  8
M0
100
AcDbCircle
 10
113.82381
 20
366.703297
 40
2.825
  0
ARC
  5
41E
100
AcDbEntity
  8
M0
100
AcDbCircle
 10
91.67381
 20
401.503297
 40
0.5
100
AcDbArc
 50
180.0
 51
270.0
  0
ARC
  5
41F
100
AcDbEntity
  8
M0
100
AcDbCircle
 10
91.67381
 20
410.903297
 40
0.5
100
AcDbArc
 50
90.0
 51
180.0
  0
ARC
  5
420
100
AcDbEntity
  8
M0
100
AcDbCircle
 10
97.72381
 20
403.503297
 40
0.5
100
AcDbArc
 50
270.0
 51
360.0
  0
LINE
  5
421
100
AcDbEntity
  8
M0
100
AcDbLine
 10
115.923809
 20
451.203298
 11
108.623809
 21
451.203298
  0
LINE
  5
422
100
AcDbEntity
  8
M0
100
AcDbLine
 10
96.02381
 20
447.703295
 11
96.02381
 21
446.953297
  0
LINE
  5
423
100
AcDbEntity
  8
M0
100
AcDbLine
 10
96.02381
 20
446.053297
 11
94.886359
 21
446.053297
  0
LINE
  5
424
100
AcDbEntity
  8
M0
100
AcDbLine
 10
77.02381
 20
451.203298
 11
76.523809
 21
450.703297
  0
LINE
  5
425
100
AcDbEntity
  8
M0
100
AcDbLine
 10
90.42381
 20
417.203297
 11
88.273809
 21
417.203297
  0
LINE
  5
426
100
AcDbEntity
  8
M0
100
AcDbLine
 10
76.523809
 20
450.703297
 11
76.523809
 21
442.703296
  0
ARC
  5
427
100
AcDbEntity
  8
M0
100
AcDbCircle
 10
101.27381
 20
410.903297
 40
0.5
100
AcDbArc
 50
0.0
 51
90.0
  0
ARC
  5
428
100
AcDbEntity
  8
M0
100
AcDbCircle
 10
96.473808
 20
446.453297
 40
4.25
100
AcDbArc
 50
241.927521
 51
298.072495
  0
ARC
  5
429
100
AcDbEntity
  8
M0
100
AcDbCircle
 10
96.473808
 20
446.453297
 40
4.25
100
AcDbArc
 50
241.927521
 51
270.0
  0
ARC
  5
42A
100
AcDbEntity
  8
M0
100
AcDbCircle
 10
83.62381
 20
443.403297
 40
0.6
100
AcDbArc
 50
215.685335
 51
270.0
  0
ARC
  5
42B
100
AcDbEntity
  8
M0
100
AcDbCircle
 10
114.07381
 20
365.953297
 40
4.25
100
AcDbArc
 50
61.927513
 51
118.072487
  0
ARC
  5
42C
100
AcDbEntity
  8
M0
100
AcDbCircle
 10
112.02381
 20
442.203297
 40
1.0
100
AcDbArc
 50
30.0
 51
58.211672
  0
ARC
  5
42D
100
AcDbEntity
  8
M0
100
AcDbCircle
 10
96.47381
 20
365.953297
 40
4.25
100
AcDbArc
 50
61.927513
 51
118.072487
  0
ARC
  5
42E
100
AcDbEntity
  8
M0
100
AcDbCircle
 10
114.073808
 20
446.453297
 40
4.25
100
AcDbArc
 50
241.927521
 51
298.072495
  0
ARC
  5
42F
100
AcDbEntity
  8
M0
100
AcDbCircle
 10
78.87381
 20
365.953297
 40
4.25
100
AcDbArc
 50
61.927513
 51
118.072487
  0
ARC
  5
430
100
AcDbEntity
  8
M0
100
AcDbCircle
 10
101.27381
 20
401.503297
 40
0.5
100
AcDbArc
 50
270.0
 51
360.0
  0
ARC
  5
431
100
AcDbEntity
  8
M0
100
AcDbCircle
 10
114.073808
 20
446.453297
 40
4.25
100
AcDbArc
 50
241.927521
 51
270.0
  0
ARC
  5
432
100
AcDbEntity
  8
M0
100
AcDbCircle
 10
131.47381
 20
381.953297
 40
0.5
100
AcDbArc
 50
270.0
 51
360.0
  0
ARC
  5
433
100
AcDbEntity
  8
M0
100
AcDbCircle
 10
131.473809
 20
388.453297
 40
0.5
100
AcDbArc
 50
0.0
 51
90.0
  0
ARC
  5
434
100
AcDbEntity
  8
M0
100
AcDbCircle
 10
124.97381
 20
416.353297
 40
0.5
100
AcDbArc
 50
180.0
 51
270.0
  0
ARC
  5
435
100
AcDbEntity
  8
M0
100
AcDbCircle
 10
124.973809
 20
388.453296
 40
0.5
100
AcDbArc
 50
90.0
 51
180.0
  0
ARC
  5
436
100
AcDbEntity
  8
M0
100
AcDbCircle
 10
131.47381
 20
416.353297
 40
0.5
100
AcDbArc
 50
270.0
 51
360.0
  0
ARC
  5
437
100
AcDbEntity
  8
M0
100
AcDbCircle
 10
131.47381
 20
422.853297
 40
0.5
100
AcDbArc
 50
0.0
 51
90.0
  0
ARC
  5
438
100
AcDbEntity
  8
M0
100
AcDbCircle
 10
102.37381
 20
416.403297
 40
1.0
100
AcDbArc
 50
90.0
 51
180.0
  0
ARC
  5
439
100
AcDbEntity
  8
M0
100
AcDbCircle
 10
123.22381
 20
413.903297
 40
0.5
100
AcDbArc
 50
270.0
 51
360.0
  0
ARC
  5
43A
100
AcDbEntity
  8
M0
100
AcDbCircle
 10
78.873808
 20
446.453297
 40
4.25
100
AcDbArc
 50
241.927521
 51
270.0
  0
ARC
  5
43B
100
AcDbEntity
  8
M0
100
AcDbCircle
 10
78.873808
 20
446.453297
 40
4.25
100
AcDbArc
 50
241.927521
 51
298.072495
  0
ARC
  5
43C
100
AcDbEntity
  8
M0
100
AcDbCircle
 10
90.57381
 20
416.403297
 40
1.0
100
AcDbArc
 50
0.0
 51
90.0
  0
ARC
  5
43D
100
AcDbEntity
  8
M0
100
AcDbCircle
 10
70.22381
 20
427.903297
 40
1.0
100
AcDbArc
 50
90.0
 51
180.0
  0
ARC
  5
43E
100
AcDbEntity
  8
M0
100
AcDbCircle
 10
61.47381
 20
396.053297
 40
0.5
100
AcDbArc
 50
90.0
 51
180.0
  0
ARC
  5
43F
100
AcDbEntity
  8
M0
100
AcDbCircle
 10
67.97381
 20
389.553297
 40
0.5
100
AcDbArc
 50
270.0
 51
360.0
  0
ARC
  5
440
100
AcDbEntity
  8
M0
100
AcDbCircle
 10
61.473809
 20
422.853296
 40
0.5
100
AcDbArc
 50
90.0
 51
180.0
  0
ARC
  5
441
100
AcDbEntity
  8
M0
100
AcDbCircle
 10
61.47381
 20
416.353296
 40
0.5
100
AcDbArc
 50
180.0
 51
270.0
  0
ARC
  5
442
100
AcDbEntity
  8
M0
100
AcDbCircle
 10
61.47381
 20
416.353296
 40
0.5
100
AcDbArc
 50
180.0
 51
270.0
  0
ARC
  5
443
100
AcDbEntity
  8
M0
100
AcDbCircle
 10
67.97381
 20
416.353297
 40
0.5
100
AcDbArc
 50
270.0
 51
360.0
  0
ARC
  5
444
100
AcDbEntity
  8
M0
100
AcDbCircle
 10
61.47381
 20
389.553297
 40
0.5
100
AcDbArc
 50
180.0
 51
270.0
  0
ARC
  5
445
100
AcDbEntity
  8
M0
100
AcDbCircle
 10
124.97381
 20
422.853297
 40
0.5
100
AcDbArc
 50
90.0
 51
180.0
  0
ARC
  5
446
100
AcDbEntity
  8
M0
100
AcDbCircle
 10
91.67381
 20
410.47225
 40
0.5
100
AcDbArc
 50
90.0
 51
180.0
  0
ARC
  5
447
100
AcDbEntity
  8
M0
100
AcDbCircle
 10
67.973809
 20
422.853297
 40
0.5
100
AcDbArc
 50
0.0
 51
90.0
  0
ARC
  5
448
100
AcDbEntity
  8
M0
100
AcDbCircle
 10
101.273809
 20
410.47225
 40
0.5
100
AcDbArc
 50
0.0
 51
90.0
  0
ARC
  5
449
100
AcDbEntity
  8
M0
100
AcDbCircle
 10
67.97381
 20
396.053297
 40
0.5
100
AcDbArc
 50
0.0
 51
90.0
  0
LINE
  5
44A
100
AcDbEntity
  8
M0
100
AcDbLine
 10
104.873809
 20
417.403296
 11
102.37381
 21
417.403296
  0
LINE
  5
44B
100
AcDbEntity
  8
M0
100
AcDbLine
 10
105.873809
 20
396.003296
 11
105.873809
 21
416.403297
  0
LINE
  5
44C
100
AcDbEntity
  8
M0
100
AcDbLine
 10
67.97381
 20
389.053297
 11
61.473809
 21
389.053297
  0
LINE
  5
44D
100
AcDbEntity
  8
M0
100
AcDbLine
 10
131.47381
 20
415.853297
 11
124.97381
 21
415.853297
  0
LINE
  5
44E
100
AcDbEntity
  8
M0
100
AcDbLine
 10
124.97381
 20
423.353296
 11
131.47381
 21
423.353296
  0
LINE
  5
44F
100
AcDbEntity
  8
M0
100
AcDbLine
 10
131.973811
 20
422.853297
 11
131.973811
 21
416.353297
  0
LINE
  5
450
100
AcDbEntity
  8
M0
100
AcDbLine
 10
99.47381
 20
420.003297
 11
93.473809
 21
420.003297
  0
ARC
  5
451
100
AcDbEntity
  8
M0
100
AcDbCircle
 10
95.22381
 20
403.503297
 40
0.5
100
AcDbArc
 50
180.0
 51
270.0
  0
LINE
  5
452
100
AcDbEntity
  8
M0
100
AcDbLine
 10
93.473809
 20
418.403296
 11
93.473809
 21
420.003297
  0
LINE
  5
453
100
AcDbEntity
  8
M0
100
AcDbLine
 10
87.07381
 20
396.003296
 11
87.07381
 21
416.403297
  0
LINE
  5
454
100
AcDbEntity
  8
M0
100
AcDbLine
 10
93.473809
 20
418.403296
 11
99.47381
 21
418.403296
  0
LINE
  5
455
100
AcDbEntity
  8
M0
100
AcDbLine
 10
88.07381
 20
395.003297
 11
104.873809
 21
395.003297
  0
LINE
  5
456
100
AcDbEntity
  8
M0
100
AcDbLine
 10
61.47381
 20
396.553296
 11
67.97381
 21
396.553296
  0
LINE
  5
457
100
AcDbEntity
  8
M0
100
AcDbLine
 10
131.47381
 20
389.053297
 11
124.97381
 21
389.053297
  0
LINE
  5
458
100
AcDbEntity
  8
M0
100
AcDbLine
 10
131.973811
 20
389.553298
 11
131.973811
 21
396.053297
  0
LINE
  5
459
100
AcDbEntity
  8
M0
100
AcDbLine
 10
67.97381
 20
381.453297
 11
61.47381
 21
381.453297
  0
LINE
  5
45A
100
AcDbEntity
  8
M0
100
AcDbLine
 10
124.97381
 20
396.553296
 11
131.473809
 21
396.553296
  0
ARC
  5
45B
100
AcDbEntity
  8
M0
100
AcDbCircle
 10
69.72381
 20
413.903297
 40
0.5
100
AcDbArc
 50
180.0
 51
270.0
  0
LINE
  5
45C
100
AcDbEntity
  8
M0
  6
DASHDOT
100
AcDbLine
 10
236.323803
 20
406.203297
 11
43.523813
 21
406.203297
  0
LINE
  5
45D
100
AcDbEntity
  8
M0
100
AcDbLine
 10
124.47381
 20
416.353297
 11
124.47381
 21
422.853297
  0
LINE
  5
45E
100
AcDbEntity
  8
M0
  6
DASHDOT
100
AcDbLine
 10
96.47381
 20
358.703296
 11
96.47381
 21
457.703298
  0
LINE
  5
45F
100
AcDbEntity
  8
M0
100
AcDbLine
 10
61.473809
 20
423.353296
 11
67.97381
 21
423.353296
  0
LINE
  5
460
100
AcDbEntity
  8
M0
100
AcDbLine
 10
67.97381
 20
415.853297
 11
61.47381
 21
415.853297
  0
LINE
  5
461
100
AcDbEntity
  8
M0
100
AcDbLine
 10
115.67381
 20
443.053295
 11
109.17381
 21
443.053295
  0
LINE
  5
462
100
AcDbEntity
  8
M0
100
AcDbLine
 10
59.823811
 20
386.103297
 11
59.72381
 21
386.103297
  0
LINE
  5
463
100
AcDbEntity
  8
M0
100
AcDbLine
 10
60.973808
 20
430.453296
 11
60.973808
 21
423.953296
  0
LINE
  5
464
100
AcDbEntity
  8
M0
100
AcDbLine
 10
116.17381
 20
443.553296
 11
116.17381
 21
450.053297
  0
LINE
  5
465
100
AcDbEntity
  8
M0
100
AcDbLine
 10
68.473811
 20
430.453297
 11
68.473811
 21
423.953297
  0
LINE
  5
466
100
AcDbEntity
  8
M0
100
AcDbLine
 10
109.173809
 20
450.553299
 11
115.673809
 21
450.553299
  0
LINE
  5
467
100
AcDbEntity
  8
M0
100
AcDbLine
 10
121.02381
 20
364.703298
 11
121.02381
 21
366.703295
  0
LINE
  5
468
100
AcDbEntity
  8
M0
100
AcDbLine
 10
108.67381
 20
443.553296
 11
108.673807
 21
450.053296
  0
LINE
  5
469
100
AcDbEntity
  8
M0
100
AcDbLine
 10
85.82381
 20
366.703295
 11
85.82381
 21
364.703298
  0
LINE
  5
46A
100
AcDbEntity
  8
M0
100
AcDbLine
 10
133.223809
 20
426.303296
 11
133.123808
 21
426.303296
  0
LINE
  5
46B
100
AcDbEntity
  8
M0
100
AcDbLine
 10
133.123808
 20
386.103297
 11
133.223809
 21
386.103297
  0
LINE
  5
46C
100
AcDbEntity
  8
M0
100
AcDbLine
 10
59.72381
 20
426.303296
 11
59.823811
 21
426.303296
  0
ARC
  5
46D
100
AcDbEntity
  8
M0
100
AcDbCircle
 10
131.47381
 20
389.553297
 40
0.5
100
AcDbArc
 50
270.0
 51
360.0
  0
ARC
  5
46E
100
AcDbEntity
  8
M0
100
AcDbCircle
 10
131.47381
 20
389.553297
 40
0.5
100
AcDbArc
 50
270.0
 51
360.0
  0
ARC
  5
46F
100
AcDbEntity
  8
M0
100
AcDbCircle
 10
68.57381
 20
367.203297
 40
0.5
100
AcDbArc
 50
180.0
 51
270.0
  0
ARC
  5
470
100
AcDbEntity
  8
M0
100
AcDbCircle
 10
68.02381
 20
445.703297
 40
2.0
100
AcDbArc
 50
53.130102
 51
90.0
  0
ARC
  5
471
100
AcDbEntity
  8
M0
100
AcDbCircle
 10
124.92381
 20
445.703297
 40
2.0
100
AcDbArc
 50
90.0
 51
126.869898
  0
ARC
  5
472
100
AcDbEntity
  8
M0
100
AcDbCircle
 10
61.47381
 20
381.953297
 40
0.5
100
AcDbArc
 50
180.0
 51
270.0
  0
CIRCLE
  5
473
100
AcDbEntity
  8
M0
100
AcDbCircle
 10
79.12381
 20
366.703297
 40
2.85
  0
CIRCLE
  5
474
100
AcDbEntity
  8
M0
100
AcDbCircle
 10
79.12381
 20
366.703297
 40
2.825
  0
ARC
  5
475
100
AcDbEntity
  8
M0
100
AcDbCircle
 10
61.473809
 20
422.853296
 40
0.5
100
AcDbArc
 50
90.0
 51
180.0
  0
ARC
  5
476
100
AcDbEntity
  8
M0
100
AcDbCircle
 10
124.973809
 20
396.053296
 40
0.5
100
AcDbArc
 50
90.0
 51
180.0
  0
ARC
  5
477
100
AcDbEntity
  8
M0
100
AcDbCircle
 10
124.97381
 20
389.553296
 40
0.5
100
AcDbArc
 50
180.0
 51
270.0
  0
ARC
  5
478
100
AcDbEntity
  8
M0
100
AcDbCircle
 10
131.473809
 20
396.053297
 40
0.5
100
AcDbArc
 50
0.0
 51
90.0
  0
LINE
  5
479
100
AcDbEntity
  8
M0
100
AcDbLine
 10
60.973808
 20
422.853295
 11
60.973808
 21
416.353296
  0
ARC
  5
47A
100
AcDbEntity
  8
M0
100
AcDbCircle
 10
133.12381
 20
379.853297
 40
1.0
100
AcDbArc
 50
180.0
 51
270.0
  0
LINE
  5
47B
100
AcDbEntity
  8
M0
100
AcDbLine
 10
131.973811
 20
388.453297
 11
131.973811
 21
381.953297
  0
LINE
  5
47C
100
AcDbEntity
  8
M0
100
AcDbLine
 10
124.973809
 20
388.953297
 11
131.47381
 21
388.953297
  0
LINE
  5
47D
100
AcDbEntity
  8
M0
100
AcDbLine
 10
124.47381
 20
381.953296
 11
124.47381
 21
388.453296
  0
LINE
  5
47E
100
AcDbEntity
  8
M0
100
AcDbLine
 10
131.47381
 20
381.453297
 11
124.97381
 21
381.453297
  0
ARC
  5
47F
100
AcDbEntity
  8
M0
100
AcDbCircle
 10
73.520677
 20
418.052553
 40
5.573176
100
AcDbArc
 50
208.520126
 51
219.557059
  0
ARC
  5
480
100
AcDbEntity
  8
M0
100
AcDbCircle
 10
119.426942
 20
418.052553
 40
5.573176
100
AcDbArc
 50
320.442941
 51
331.479874
  0
ARC
  5
481
100
AcDbEntity
  8
M0
100
AcDbCircle
 10
69.22381
 20
425.703297
 40
0.6
100
AcDbArc
 50
90.0
 51
180.0
  0
ARC
  5
482
100
AcDbEntity
  8
M0
100
AcDbCircle
 10
59.02381
 20
432.553297
 40
1.0
100
AcDbArc
 50
90.0
 51
180.0
  0
ARC
  5
483
100
AcDbEntity
  8
M0
100
AcDbCircle
 10
123.72381
 20
425.703297
 40
0.6
100
AcDbArc
 50
0.0
 51
90.0
  0
ARC
  5
484
100
AcDbEntity
  8
M0
100
AcDbCircle
 10
59.82381
 20
432.553297
 40
1.0
100
AcDbArc
 50
0.0
 51
90.0
  0
LINE
  5
485
100
AcDbEntity
  8
M0
100
AcDbLine
 10
84.27381
 20
450.053297
 11
84.27381
 21
443.553296
  0
LINE
  5
486
100
AcDbEntity
  8
M0
100
AcDbLine
 10
68.473809
 20
388.453297
 11
68.473809
 21
381.953296
  0
LINE
  5
487
100
AcDbEntity
  8
M0
100
AcDbLine
 10
124.97381
 20
430.953297
 11
131.47381
 21
430.953297
  0
LINE
  5
488
100
AcDbEntity
  8
M0
100
AcDbLine
 10
131.47381
 20
423.453296
 11
124.97381
 21
423.453296
  0
LINE
  5
489
100
AcDbEntity
  8
M0
100
AcDbLine
 10
124.47381
 20
423.953297
 11
124.47381
 21
430.453297
  0
LINE
  5
48A
100
AcDbEntity
  8
M0
100
AcDbLine
 10
77.27381
 20
450.553295
 11
83.77381
 21
450.553295
  0
LINE
  5
48B
100
AcDbEntity
  8
M0
100
AcDbLine
 10
61.473809
 20
388.953297
 11
67.97381
 21
388.953297
  0
LINE
  5
48C
100
AcDbEntity
  8
M0
100
AcDbLine
 10
124.47381
 20
389.553296
 11
124.47381
 21
396.053296
  0
LINE
  5
48D
100
AcDbEntity
  8
M0
100
AcDbLine
 10
76.773809
 20
443.553296
 11
76.773809
 21
450.053297
  0
LINE
  5
48E
100
AcDbEntity
  8
M0
100
AcDbLine
 10
131.973811
 20
430.453297
 11
131.973811
 21
423.953297
  0
LINE
  5
48F
100
AcDbEntity
  8
M0
100
AcDbLine
 10
83.77381
 20
443.053298
 11
77.27381
 21
443.053298
  0
LINE
  5
490
100
AcDbEntity
  8
M0
100
AcDbLine
 10
94.886359
 20
446.953297
 11
93.862297
 21
446.953297
  0
LINE
  5
491
100
AcDbEntity
  8
M0
100
AcDbLine
 10
113.373809
 20
366.253298
 11
113.373809
 21
365.503297
  0
LINE
  5
492
100
AcDbEntity
  8
M0
100
AcDbLine
 10
113.373809
 20
367.903297
 11
113.373809
 21
367.153295
  0
LINE
  5
493
100
AcDbEntity
  8
M0
100
AcDbLine
 10
93.862297
 20
446.053297
 11
94.886359
 21
446.053297
  0
LINE
  5
494
100
AcDbEntity
  8
M0
100
AcDbLine
 10
114.273809
 20
365.503297
 11
114.273809
 21
366.253298
  0
LINE
  5
495
100
AcDbEntity
  8
M0
100
AcDbLine
 10
114.273809
 20
367.903297
 11
113.373809
 21
367.903297
  0
LINE
  5
496
100
AcDbEntity
  8
M0
100
AcDbLine
 10
101.27381
 20
401.003297
 11
102.023809
 21
401.003297
  0
LINE
  5
497
100
AcDbEntity
  8
M0
100
AcDbLine
 10
71.923809
 20
369.703297
 11
76.873809
 21
369.703297
  0
LINE
  5
498
100
AcDbEntity
  8
M0
100
AcDbLine
 10
116.42381
 20
450.703297
 11
115.923809
 21
451.203298
  0
LINE
  5
499
100
AcDbEntity
  8
M0
100
AcDbLine
 10
124.32381
 20
389.003296
 11
132.123809
 21
389.003296
  0
LINE
  5
49A
100
AcDbEntity
  8
M0
100
AcDbLine
 10
116.42381
 20
442.703296
 11
116.42381
 21
450.703297
  0
LINE
  5
49B
100
AcDbEntity
  8
M0
100
AcDbLine
 10
114.273809
 20
367.153295
 11
115.411259
 21
367.153295
  0
LINE
  5
49C
100
AcDbEntity
  8
M0
100
AcDbLine
 10
84.32381
 20
451.203298
 11
76.02381
 21
451.203298
  0
LINE
  5
49D
100
AcDbEntity
  8
M0
100
AcDbLine
 10
96.92381
 20
447.703295
 11
96.02381
 21
447.703295
  0
LINE
  5
49E
100
AcDbEntity
  8
M0
100
AcDbLine
 10
96.02381
 20
445.303295
 11
96.92381
 21
445.303295
  0
LINE
  5
49F
100
AcDbEntity
  8
M0
100
AcDbLine
 10
96.92381
 20
446.953297
 11
98.06126
 21
446.953297
  0
LINE
  5
4A0
100
AcDbEntity
  8
M0
100
AcDbLine
 10
94.886359
 20
446.953297
 11
96.02381
 21
446.953297
  0
LINE
  5
4A1
100
AcDbEntity
  8
M0
100
AcDbLine
 10
68.473809
 20
396.053296
 11
68.473809
 21
389.553297
  0
LINE
  5
4A2
100
AcDbEntity
  8
M0
100
AcDbLine
 10
98.06126
 20
446.053297
 11
99.085323
 21
446.053297
  0
LINE
  5
4A3
100
AcDbEntity
  8
M0
100
AcDbLine
 10
99.085323
 20
446.953297
 11
98.06126
 21
446.953297
  0
LINE
  5
4A4
100
AcDbEntity
  8
M0
100
AcDbLine
 10
115.411259
 20
366.253298
 11
114.273809
 21
366.253298
  0
LINE
  5
4A5
100
AcDbEntity
  8
M0
100
AcDbLine
 10
113.373809
 20
366.253298
 11
112.236358
 21
366.253298
  0
LINE
  5
4A6
100
AcDbEntity
  8
M0
100
AcDbLine
 10
96.92381
 20
446.953297
 11
96.92381
 21
447.703295
  0
LINE
  5
4A7
100
AcDbEntity
  8
M0
100
AcDbLine
 10
96.92381
 20
445.303295
 11
96.92381
 21
446.053297
  0
ARC
  5
4A8
100
AcDbEntity
  8
M0
100
AcDbCircle
 10
131.473809
 20
388.453297
 40
0.5
100
AcDbArc
 50
0.0
 51
90.0
  0
ARC
  5
4A9
100
AcDbEntity
  8
M0
100
AcDbCircle
 10
124.97381
 20
381.953296
 40
0.5
100
AcDbArc
 50
180.0
 51
270.0
  0
ARC
  5
4AA
100
AcDbEntity
  8
M0
100
AcDbCircle
 10
122.72381
 20
447.703297
 40
1.0
100
AcDbArc
 50
0.0
 51
90.0
  0
ARC
  5
4AB
100
AcDbEntity
  8
M0
100
AcDbCircle
 10
131.47381
 20
381.953297
 40
0.5
100
AcDbArc
 50
270.0
 51
360.0
  0
ARC
  5
4AC
100
AcDbEntity
  8
M0
100
AcDbCircle
 10
67.97381
 20
388.453297
 40
0.5
100
AcDbArc
 50
0.0
 51
90.0
  0
ARC
  5
4AD
100
AcDbEntity
  8
M0
100
AcDbCircle
 10
79.12381
 20
366.703297
 40
2.65
100
AcDbArc
 50
189.776849
 51
350.223151
  0
ARC
  5
4AE
100
AcDbEntity
  8
M0
100
AcDbCircle
 10
67.97381
 20
381.953297
 40
0.5
100
AcDbArc
 50
270.0
 51
360.0
  0
LINE
  5
4AF
100
AcDbEntity
  8
M0
100
AcDbLine
 10
60.973808
 20
381.953296
 11
60.973808
 21
388.453297
  0
ARC
  5
4B0
100
AcDbEntity
  8
M0
100
AcDbCircle
 10
77.27381
 20
443.553297
 40
0.5
100
AcDbArc
 50
180.0
 51
270.0
  0
ARC
  5
4B1
100
AcDbEntity
  8
M0
100
AcDbCircle
 10
61.47381
 20
388.453297
 40
0.5
100
AcDbArc
 50
90.0
 51
180.0
  0
ARC
  5
4B2
100
AcDbEntity
  8
M0
100
AcDbCircle
 10
83.77381
 20
443.553297
 40
0.5
100
AcDbArc
 50
270.0
 51
360.0
  0
ARC
  5
4B3
100
AcDbEntity
  8
M0
100
AcDbCircle
 10
83.77381
 20
450.053297
 40
0.5
100
AcDbArc
 50
0.0
 51
90.0
  0
ARC
  5
4B4
100
AcDbEntity
  8
M0
100
AcDbCircle
 10
67.973809
 20
430.453297
 40
0.5
100
AcDbArc
 50
0.0
 51
90.0
  0
ARC
  5
4B5
100
AcDbEntity
  8
M0
100
AcDbCircle
 10
67.97381
 20
423.953297
 40
0.5
100
AcDbArc
 50
270.0
 51
360.0
  0
LINE
  5
4B6
100
AcDbEntity
  8
M0
100
AcDbLine
 10
121.02381
 20
442.703296
 11
116.07381
 21
442.703296
  0
LINE
  5
4B7
100
AcDbEntity
  8
M0
100
AcDbLine
 10
89.52381
 20
369.703297
 11
94.473809
 21
369.703297
  0
LINE
  5
4B8
100
AcDbEntity
  8
M0
100
AcDbLine
 10
107.123809
 20
369.703297
 11
112.073809
 21
369.703297
  0
LINE
  5
4B9
100
AcDbEntity
  8
M0
100
AcDbLine
 10
92.32381
 20
400.503297
 11
92.32381
 21
401.003297
  0
ARC
  5
4BA
100
AcDbEntity
  8
M0
100
AcDbCircle
 10
61.47381
 20
423.953296
 40
0.5
100
AcDbArc
 50
180.0
 51
270.0
  0
ARC
  5
4BB
100
AcDbEntity
  8
M0
100
AcDbCircle
 10
109.173809
 20
450.053296
 40
0.5
100
AcDbArc
 50
90.0
 51
180.0
  0
ARC
  5
4BC
100
AcDbEntity
  8
M0
100
AcDbCircle
 10
109.17381
 20
443.553296
 40
0.5
100
AcDbArc
 50
180.0
 51
270.0
  0
ARC
  5
4BD
100
AcDbEntity
  8
M0
100
AcDbCircle
 10
61.473809
 20
430.453296
 40
0.5
100
AcDbArc
 50
90.0
 51
180.0
  0
ARC
  5
4BE
100
AcDbEntity
  8
M0
100
AcDbCircle
 10
115.67381
 20
443.553297
 40
0.5
100
AcDbArc
 50
270.0
 51
360.0
  0
ARC
  5
4BF
100
AcDbEntity
  8
M0
100
AcDbCircle
 10
115.673809
 20
450.053297
 40
0.5
100
AcDbArc
 50
0.0
 51
90.0
  0
LINE
  5
4C0
100
AcDbEntity
  8
M0
100
AcDbLine
 10
61.72381
 20
431.003297
 11
60.82381
 21
431.003297
  0
LINE
  5
4C1
100
AcDbEntity
  8
M0
100
AcDbLine
 10
86.02381
 20
448.303298
 11
86.02381
 21
450.503298
  0
LINE
  5
4C2
100
AcDbEntity
  8
M0
100
AcDbLine
 10
131.223809
 20
431.003297
 11
132.123809
 21
431.003297
  0
LINE
  5
4C3
100
AcDbEntity
  8
M0
100
AcDbLine
 10
94.473809
 20
369.703297
 11
98.47381
 21
369.703297
  0
LINE
  5
4C4
100
AcDbEntity
  8
M0
100
AcDbLine
 10
112.073808
 20
442.703296
 11
118.52381
 21
442.703296
  0
LINE
  5
4C5
100
AcDbEntity
  8
M0
100
AcDbLine
 10
124.32381
 20
431.003297
 11
125.22381
 21
431.003297
  0
ARC
  5
4C6
100
AcDbEntity
  8
M0
100
AcDbCircle
 10
68.22381
 20
401.003297
 40
1.0
100
AcDbArc
 50
180.0
 51
270.0
  0
ARC
  5
4C7
100
AcDbEntity
  8
M0
100
AcDbCircle
 10
65.023319
 20
438.653297
 40
0.3
100
AcDbArc
 50
90.0
 51
178.876481
  0
ARC
  5
4C8
100
AcDbEntity
  8
M0
100
AcDbCircle
 10
86.32381
 20
431.103297
 40
0.5
100
AcDbArc
 50
180.0
 51
270.0
  0
ARC
  5
4C9
100
AcDbEntity
  8
M0
100
AcDbCircle
 10
113.82381
 20
366.703297
 40
3.5
100
AcDbArc
 50
121.002719
 51
180.0
  0
ARC
  5
4CA
100
AcDbEntity
  8
M0
100
AcDbCircle
 10
103.92381
 20
381.303297
 40
0.5
100
AcDbArc
 50
90.0
 51
180.0
  0
LINE
  5
4CB
100
AcDbEntity
  8
M0
100
AcDbLine
 10
133.223809
 20
433.553296
 11
133.123808
 21
433.553296
  0
LINE
  5
4CC
100
AcDbEntity
  8
M0
100
AcDbLine
 10
85.37381
 20
364.703298
 11
85.37381
 21
369.703297
  0
LINE
  5
4CD
100
AcDbEntity
  8
M0
100
AcDbLine
 10
72.873809
 20
364.703298
 11
72.873809
 21
369.703297
  0
LINE
  5
4CE
100
AcDbEntity
  8
M0
100
AcDbLine
 10
107.573809
 20
364.703298
 11
107.573809
 21
369.703297
  0
LINE
  5
4CF
100
AcDbEntity
  8
M0
100
AcDbLine
 10
86.52381
 20
451.003295
 11
106.423809
 21
451.003295
  0
LINE
  5
4D0
100
AcDbEntity
  8
M0
100
AcDbLine
 10
59.72381
 20
378.853298
 11
59.823811
 21
378.853298
  0
LINE
  5
4D1
100
AcDbEntity
  8
M0
100
AcDbLine
 10
120.07381
 20
369.703297
 11
120.07381
 21
364.703298
  0
LINE
  5
4D2
100
AcDbEntity
  8
M0
100
AcDbLine
 10
110.323809
 20
366.703295
 11
110.323809
 21
364.703298
  0
LINE
  5
4D3
100
AcDbEntity
  8
M0
100
AcDbLine
 10
75.623809
 20
366.703295
 11
75.623809
 21
364.703298
  0
LINE
  5
4D4
100
AcDbEntity
  8
M0
100
AcDbLine
 10
76.02381
 20
442.703296
 11
76.02381
 21
451.703297
  0
LINE
  5
4D5
100
AcDbEntity
  8
M0
100
AcDbLine
 10
132.42381
 20
363.703296
 11
108.573809
 21
363.703296
  0
LINE
  5
4D6
100
AcDbEntity
  8
M0
100
AcDbLine
 10
59.72381
 20
433.553296
 11
59.823811
 21
433.553296
  0
LINE
  5
4D7
100
AcDbEntity
  8
M0
100
AcDbLine
 10
106.923809
 20
450.503298
 11
106.923809
 21
448.303298
  0
ARC
  5
4D8
100
AcDbEntity
  8
M0
100
AcDbCircle
 10
60.52381
 20
444.703297
 40
3.0
100
AcDbArc
 50
90.0
 51
180.0
  0
ARC
  5
4D9
100
AcDbEntity
  8
M0
100
AcDbCircle
 10
131.92381
 20
444.703297
 40
3.0
100
AcDbArc
 50
0.0
 51
90.0
  0
ARC
  5
4DA
100
AcDbEntity
  8
M0
100
AcDbCircle
 10
78.22381
 20
451.703297
 40
0.5
100
AcDbArc
 50
270.0
 51
360.0
  0
ARC
  5
4DB
100
AcDbEntity
  8
M0
100
AcDbCircle
 10
68.57381
 20
365.703297
 40
0.5
100
AcDbArc
 50
180.0
 51
270.0
  0
ARC
  5
4DC
100
AcDbEntity
  8
M0
100
AcDbCircle
 10
114.72381
 20
452.203297
 40
0.5
100
AcDbArc
 50
90.0
 51
180.0
  0
ARC
  5
4DD
100
AcDbEntity
  8
M0
100
AcDbCircle
 10
114.72381
 20
451.703297
 40
0.5
100
AcDbArc
 50
180.0
 51
270.0
  0
ARC
  5
4DE
100
AcDbEntity
  8
M0
100
AcDbCircle
 10
118.32381
 20
364.703297
 40
1.0
100
AcDbArc
 50
180.0
 51
270.0
  0
ARC
  5
4DF
100
AcDbEntity
  8
M0
100
AcDbCircle
 10
84.37381
 20
364.703297
 40
1.0
100
AcDbArc
 50
270.0
 51
360.0
  0
ARC
  5
4E0
100
AcDbEntity
  8
M0
100
AcDbCircle
 10
73.87381
 20
364.703297
 40
1.0
100
AcDbArc
 50
180.0
 51
270.0
  0
ARC
  5
4E1
100
AcDbEntity
  8
M0
100
AcDbCircle
 10
109.32381
 20
364.703297
 40
1.0
100
AcDbArc
 50
270.0
 51
360.0
  0
ARC
  5
4E2
100
AcDbEntity
  8
M0
100
AcDbCircle
 10
75.02381
 20
451.703297
 40
1.0
100
AcDbArc
 50
90.0
 51
180.0
  0
ARC
  5
4E3
100
AcDbEntity
  8
M0
100
AcDbCircle
 10
74.62381
 20
364.703297
 40
1.0
100
AcDbArc
 50
270.0
 51
360.0
  0
ARC
  5
4E4
100
AcDbEntity
  8
M0
100
AcDbCircle
 10
128.97381
 20
371.203297
 40
2.25
100
AcDbArc
 50
270.0
 51
355.815286
  0
ARC
  5
4E5
100
AcDbEntity
  8
M0
100
AcDbCircle
 10
104.42381
 20
364.703297
 40
1.0
100
AcDbArc
 50
180.0
 51
270.0
  0
ARC
  5
4E6
100
AcDbEntity
  8
M0
100
AcDbCircle
 10
61.4243
 20
441.253297
 40
0.3
100
AcDbArc
 50
270.0
 51
358.876481
  0
ARC
  5
4E7
100
AcDbEntity
  8
M0
100
AcDbCircle
 10
63.97381
 20
441.203297
 40
2.25
100
AcDbArc
 50
90.0
 51
178.876481
  0
ARC
  5
4E8
100
AcDbEntity
  8
M0
100
AcDbCircle
 10
66.47381
 20
441.203297
 40
2.25
100
AcDbArc
 50
270.0
 51
450.0
  0
ARC
  5
4E9
100
AcDbEntity
  8
M0
100
AcDbCircle
 10
78.22381
 20
452.203297
 40
0.5
100
AcDbArc
 50
0.0
 51
90.0
  0
ARC
  5
4EA
100
AcDbEntity
  8
M0
100
AcDbCircle
 10
106.62381
 20
381.303297
 40
0.5
100
AcDbArc
 50
0.0
 51
90.0
  0
ARC
  5
4EB
100
AcDbEntity
  8
M0
100
AcDbCircle
 10
62.47381
 20
438.703297
 40
2.25
100
AcDbArc
 50
272.401074
 51
358.876481
  0
ARC
  5
4EC
100
AcDbEntity
  8
M0
100
AcDbCircle
 10
126.47381
 20
371.203297
 40
2.25
100
AcDbArc
 50
90.0
 51
270.0
  0
ARC
  5
4ED
100
AcDbEntity
  8
M0
100
AcDbCircle
 10
86.32381
 20
381.303297
 40
0.5
100
AcDbArc
 50
90.0
 51
180.0
  0
ARC
  5
4EE
100
AcDbEntity
  8
M0
100
AcDbCircle
 10
89.02381
 20
381.303297
 40
0.5
100
AcDbArc
 50
0.0
 51
90.0
  0
LINE
  5
4EF
100
AcDbEntity
  8
M0
100
AcDbLine
 10
124.923809
 20
447.703295
 11
131.92381
 21
447.703295
  0
LINE
  5
4F0
100
AcDbEntity
  8
M0
100
AcDbLine
 10
134.923808
 20
382.403296
 11
135.423809
 21
377.403297
  0
LINE
  5
4F1
100
AcDbEntity
  8
M0
100
AcDbLine
 10
69.22381
 20
366.703295
 11
68.57381
 21
366.703295
  0
LINE
  5
4F2
100
AcDbEntity
  8
M0
100
AcDbLine
 10
61.4243
 20
440.953296
 11
60.973808
 21
440.953296
  0
LINE
  5
4F3
100
AcDbEntity
  8
M0
100
AcDbLine
 10
66.47381
 20
443.453298
 11
63.973811
 21
443.453298
  0
LINE
  5
4F4
100
AcDbEntity
  8
M0
100
AcDbLine
 10
60.973808
 20
436.453297
 11
62.568072
 21
436.455273
  0
LINE
  5
4F5
100
AcDbEntity
  8
M0
100
AcDbLine
 10
68.073809
 20
367.203296
 11
68.073809
 21
367.703297
  0
LINE
  5
4F6
100
AcDbEntity
  8
M0
100
AcDbLine
 10
76.02381
 20
447.203298
 11
76.523809
 21
447.203298
  0
LINE
  5
4F7
100
AcDbEntity
  8
M0
100
AcDbLine
 10
69.22381
 20
367.703297
 11
68.073809
 21
367.703297
  0
LINE
  5
4F8
100
AcDbEntity
  8
M0
100
AcDbLine
 10
116.923809
 20
448.303298
 11
116.42381
 21
448.303298
  0
LINE
  5
4F9
100
AcDbEntity
  8
M0
100
AcDbLine
 10
76.02381
 20
449.503296
 11
76.523809
 21
449.503296
  0
LINE
  5
4FA
100
AcDbEntity
  8
M0
100
AcDbLine
 10
76.523809
 20
448.303298
 11
76.02381
 21
448.303298
  0
ARC
  5
4FB
100
AcDbEntity
  8
M0
100
AcDbCircle
 10
108.57381
 20
364.703297
 40
1.0
100
AcDbArc
 50
180.0
 51
270.0
  0
ARC
  5
4FC
100
AcDbEntity
  8
M0
100
AcDbCircle
 10
119.07381
 20
364.703297
 40
1.0
100
AcDbArc
 50
270.0
 51
360.0
  0
ARC
  5
4FD
100
AcDbEntity
  8
M0
100
AcDbCircle
 10
113.82381
 20
366.703297
 40
3.5
100
AcDbArc
 50
0.0
 51
58.997281
  0
ARC
  5
4FE
100
AcDbEntity
  8
M0
100
AcDbCircle
 10
106.42381
 20
450.503297
 40
0.5
100
AcDbArc
 50
0.0
 51
90.0
  0
ARC
  5
4FF
100
AcDbEntity
  8
M0
100
AcDbCircle
 10
79.12381
 20
366.703297
 40
3.5
100
AcDbArc
 50
91.94738
 51
121.002719
  0
ARC
  5
500
100
AcDbEntity
  8
M0
100
AcDbCircle
 10
79.12381
 20
366.703297
 40
3.5
100
AcDbArc
 50
121.002719
 51
180.0
  0
CIRCLE
  5
501
100
AcDbEntity
  8
M0
100
AcDbCircle
 10
96.47381
 20
446.503297
 40
3.1
  0
LINE
  5
502
100
AcDbEntity
  8
M0
100
AcDbLine
 10
65.023318
 20
438.953296
 11
66.47381
 21
438.953296
  0
ARC
  5
503
100
AcDbEntity
  8
M0
100
AcDbCircle
 10
113.82381
 20
366.703297
 40
3.5
100
AcDbArc
 50
58.997281
 51
88.05262
  0
ARC
  5
504
100
AcDbEntity
  8
M0
100
AcDbCircle
 10
59.02381
 20
379.853297
 40
1.0
100
AcDbArc
 50
180.0
 51
270.0
  0
ARC
  5
505
100
AcDbEntity
  8
M0
100
AcDbCircle
 10
86.52381
 20
450.503297
 40
0.5
100
AcDbArc
 50
90.0
 51
180.0
  0
ARC
  5
506
100
AcDbEntity
  8
M0
100
AcDbCircle
 10
79.12381
 20
366.703297
 40
3.5
100
AcDbArc
 50
0.0
 51
58.997281
  0
LINE
  5
507
100
AcDbEntity
  8
M0
100
AcDbLine
 10
103.423809
 20
364.703298
 11
103.423809
 21
368.703295
  0
LINE
  5
508
100
AcDbEntity
  8
M0
100
AcDbLine
 10
103.423809
 20
368.703295
 11
103.423809
 21
381.303296
  0
LINE
  5
509
100
AcDbEntity
  8
M0
100
AcDbLine
 10
104.42381
 20
381.803297
 11
106.12381
 21
381.803297
  0
LINE
  5
50A
100
AcDbEntity
  8
M0
100
AcDbLine
 10
117.32381
 20
364.703298
 11
117.32381
 21
366.703295
  0
LINE
  5
50B
100
AcDbEntity
  8
M0
100
AcDbLine
 10
84.37381
 20
363.703296
 11
61.02381
 21
363.703296
  0
LINE
  5
50C
100
AcDbEntity
  8
M0
100
AcDbLine
 10
82.62381
 20
366.703295
 11
82.62381
 21
364.703298
  0
LINE
  5
50D
100
AcDbEntity
  8
M0
100
AcDbLine
 10
58.023811
 20
432.553297
 11
58.023811
 21
366.703297
  0
ARC
  5
50E
100
AcDbEntity
  8
M0
100
AcDbCircle
 10
60.97381
 20
438.703297
 40
2.25
100
AcDbArc
 50
90.0
 51
270.0
  0
LINE
  5
50F
100
AcDbEntity
  8
M0
100
AcDbLine
 10
59.023809
 20
378.853298
 11
59.823811
 21
378.853298
  0
LINE
  5
510
100
AcDbEntity
  8
M0
100
AcDbLine
 10
115.626585
 20
369.703297
 11
116.07381
 21
369.703297
  0
LINE
  5
511
100
AcDbEntity
  8
M0
100
AcDbLine
 10
74.023809
 20
442.703296
 11
74.023809
 21
451.703296
  0
LINE
  5
512
100
AcDbEntity
  8
M0
100
AcDbLine
 10
77.321034
 20
369.703297
 11
76.873809
 21
369.703297
  0
LINE
  5
513
100
AcDbEntity
  8
M0
100
AcDbLine
 10
134.923808
 20
444.703297
 11
134.923808
 21
379.853297
  0
LINE
  5
514
100
AcDbEntity
  8
M0
100
AcDbLine
 10
60.523808
 20
447.703295
 11
68.02381
 21
447.703295
  0
LINE
  5
515
100
AcDbEntity
  8
M0
100
AcDbLine
 10
69.22381
 20
374.703296
 11
68.073809
 21
374.703296
  0
LINE
  5
516
100
AcDbEntity
  8
M0
100
AcDbLine
 10
118.92381
 20
444.203295
 11
121.02381
 21
444.203295
  0
LINE
  5
517
100
AcDbEntity
  8
M0
100
AcDbLine
 10
71.923809
 20
444.203295
 11
74.023809
 21
444.203295
  0
LINE
  5
518
100
AcDbEntity
  8
M0
100
AcDbLine
 10
116.923809
 20
447.203298
 11
116.42381
 21
447.203298
  0
LINE
  5
519
100
AcDbEntity
  8
M0
100
AcDbLine
 10
86.823809
 20
363.703296
 11
87.323806
 21
363.703296
  0
LINE
  5
51A
100
AcDbEntity
  8
M0
100
AcDbLine
 10
87.323806
 20
363.703296
 11
88.523809
 21
363.703296
  0
LINE
  5
51B
100
AcDbEntity
  8
M0
100
AcDbLine
 10
57.52381
 20
435.003296
 11
57.52381
 21
444.703296
  0
LINE
  5
51C
100
AcDbEntity
  8
M0
100
AcDbLine
 10
68.073809
 20
368.703295
 11
69.22381
 21
368.703295
  0
LINE
  5
51D
100
AcDbEntity
  8
M0
100
AcDbLine
 10
127.925299
 20
373.453297
 11
126.473809
 21
373.453297
  0
LINE
  5
51E
100
AcDbEntity
  8
M0
100
AcDbLine
 10
123.723809
 20
410.903297
 11
123.723809
 21
407.603297
  0
LINE
  5
51F
100
AcDbEntity
  8
M0
100
AcDbLine
 10
123.723809
 20
407.703297
 11
122.723809
 21
407.703297
  0
LINE
  5
520
100
AcDbEntity
  8
M0
100
AcDbLine
 10
123.22381
 20
413.403297
 11
122.723809
 21
413.403297
  0
LINE
  5
521
100
AcDbEntity
  8
M0
100
AcDbLine
 10
116.42381
 20
449.503296
 11
116.923809
 21
449.503296
  0
LINE
  5
522
100
AcDbEntity
  8
M0
100
AcDbLine
 10
89.973809
 20
393.203296
 11
87.973809
 21
393.203296
  0
LINE
  5
523
100
AcDbEntity
  8
M0
100
AcDbLine
 10
88.07381
 20
417.403296
 11
90.573809
 21
417.403296
  0
LINE
  5
524
100
AcDbEntity
  8
M0
100
AcDbLine
 10
122.723809
 20
410.703297
 11
123.723809
 21
410.703297
  0
LINE
  5
525
100
AcDbEntity
  8
M0
100
AcDbLine
 10
101.37381
 20
415.903297
 11
91.573809
 21
415.903297
  0
LINE
  5
526
100
AcDbEntity
  8
M0
100
AcDbLine
 10
69.22381
 20
407.703297
 11
70.22381
 21
407.703297
  0
LINE
  5
527
100
AcDbEntity
  8
M0
100
AcDbLine
 10
122.723809
 20
407.703297
 11
122.723809
 21
404.703297
  0
LINE
  5
528
100
AcDbEntity
  8
M0
100
AcDbLine
 10
70.22381
 20
413.403297
 11
69.723809
 21
413.403297
  0
LINE
  5
529
100
AcDbEntity
  8
M0
100
AcDbLine
 10
69.22381
 20
410.903297
 11
69.22381
 21
407.703297
  0
ARC
  5
52A
100
AcDbEntity
  8
M0
100
AcDbCircle
 10
106.62381
 20
431.103297
 40
0.5
100
AcDbArc
 50
270.0
 51
360.0
  0
ARC
  5
52B
100
AcDbEntity
  8
M0
100
AcDbCircle
 10
103.92381
 20
431.103297
 40
0.5
100
AcDbArc
 50
180.0
 51
270.0
  0
ARC
  5
52C
100
AcDbEntity
  8
M0
100
AcDbCircle
 10
89.02381
 20
431.103297
 40
0.5
100
AcDbArc
 50
270.0
 51
360.0
  0
ARC
  5
52D
100
AcDbEntity
  8
M0
100
AcDbCircle
 10
124.72381
 20
411.403297
 40
1.0
100
AcDbArc
 50
0.0
 51
90.0
  0
ARC
  5
52E
100
AcDbEntity
  8
M0
100
AcDbCircle
 10
124.72381
 20
401.003297
 40
1.0
100
AcDbArc
 50
270.0
 51
360.0
  0
ARC
  5
52F
100
AcDbEntity
  8
M0
100
AcDbCircle
 10
88.52381
 20
364.703297
 40
1.0
100
AcDbArc
 50
270.0
 51
360.0
  0
LINE
  5
530
100
AcDbEntity
  8
M0
100
AcDbLine
 10
116.923809
 20
451.203298
 11
115.923809
 21
451.203298
  0
LINE
  5
531
100
AcDbEntity
  8
M0
100
AcDbLine
 10
102.47381
 20
391.703297
 11
102.47381
 21
392.703296
  0
LINE
  5
532
100
AcDbEntity
  8
M0
100
AcDbLine
 10
116.923809
 20
444.203295
 11
116.42381
 21
444.203295
  0
CIRCLE
  5
533
100
AcDbEntity
  8
M0
100
AcDbCircle
 10
131.47381
 20
443.203297
 40
2.25
  0
CIRCLE
  5
534
100
AcDbEntity
  8
M0
100
AcDbCircle
 10
61.47381
 20
368.203297
 40
2.25
  0
ARC
  5
535
100
AcDbEntity
  8
M0
100
AcDbCircle
 10
68.22381
 20
411.403297
 40
1.0
100
AcDbArc
 50
90.0
 51
180.0
  0
LINE
  5
536
100
AcDbEntity
  8
M0
100
AcDbLine
 10
106.62381
 20
430.603296
 11
103.92381
 21
430.603296
  0
LINE
  5
537
100
AcDbEntity
  8
M0
100
AcDbLine
 10
69.22381
 20
412.403297
 11
68.22381
 21
412.403297
  0
LINE
  5
538
100
AcDbEntity
  8
M0
100
AcDbLine
 10
126.473809
 20
368.953296
 11
128.973808
 21
368.953296
  0
LINE
  5
539
100
AcDbEntity
  8
M0
100
AcDbLine
 10
94.22381
 20
410.97225
 11
91.67381
 21
410.97225
  0
LINE
  5
53A
100
AcDbEntity
  8
M0
100
AcDbLine
 10
85.82381
 20
442.703296
 11
71.923809
 21
442.703296
  0
LINE
  5
53B
100
AcDbEntity
  8
M0
100
AcDbLine
 10
101.273809
 20
410.97225
 11
98.723809
 21
410.97225
  0
LINE
  5
53C
100
AcDbEntity
  8
M0
100
AcDbLine
 10
60.82381
 20
381.403296
 11
61.72381
 21
381.403296
  0
ARC
  5
53D
100
AcDbEntity
  8
M0
100
AcDbCircle
 10
131.473809
 20
396.053297
 40
0.5
100
AcDbArc
 50
0.0
 51
90.0
  0
LINE
  5
53E
100
AcDbEntity
  8
M0
100
AcDbLine
 10
88.523809
 20
381.803297
 11
86.823809
 21
381.803297
  0
LINE
  5
53F
100
AcDbEntity
  8
M0
100
AcDbLine
 10
89.02381
 20
381.803297
 11
88.523809
 21
381.803297
  0
LINE
  5
540
100
AcDbEntity
  8
M0
100
AcDbLine
 10
86.823809
 20
381.803297
 11
86.323809
 21
381.803297
  0
LINE
  5
541
100
AcDbEntity
  8
M0
100
AcDbLine
 10
123.723809
 20
412.403297
 11
124.723809
 21
412.403297
  0
LINE
  5
542
100
AcDbEntity
  8
M0
100
AcDbLine
 10
91.573809
 20
416.403297
 11
91.573809
 21
415.903297
  0
LINE
  5
543
100
AcDbEntity
  8
M0
100
AcDbLine
 10
122.723809
 20
404.703297
 11
123.723809
 21
404.703297
  0
LINE
  5
544
100
AcDbEntity
  8
M0
100
AcDbLine
 10
70.22381
 20
407.703297
 11
70.22381
 21
404.703297
  0
LINE
  5
545
100
AcDbEntity
  8
M0
100
AcDbLine
 10
91.573809
 20
416.403297
 11
101.37381
 21
416.403297
  0
LINE
  5
546
100
AcDbEntity
  8
M0
100
AcDbLine
 10
123.723809
 20
404.803297
 11
123.723809
 21
401.503297
  0
LINE
  5
547
100
AcDbEntity
  8
M0
100
AcDbLine
 10
70.22381
 20
401.703297
 11
70.22381
 21
399.003297
  0
LINE
  5
548
100
AcDbEntity
  8
M0
100
AcDbLine
 10
70.22381
 20
410.703297
 11
69.22381
 21
410.703297
  0
LINE
  5
549
100
AcDbEntity
  8
M0
100
AcDbLine
 10
122.723809
 20
413.403297
 11
122.723809
 21
410.703297
  0
LINE
  5
54A
100
AcDbEntity
  8
M0
100
AcDbLine
 10
122.723809
 20
401.703297
 11
122.723809
 21
399.003297
  0
LINE
  5
54B
100
AcDbEntity
  8
M0
100
AcDbLine
 10
69.22381
 20
404.703297
 11
69.22381
 21
401.503297
  0
LINE
  5
54C
100
AcDbEntity
  8
M0
100
AcDbLine
 10
123.723809
 20
401.703297
 11
122.723809
 21
401.703297
  0
LINE
  5
54D
100
AcDbEntity
  8
M0
100
AcDbLine
 10
68.22381
 20
404.803297
 11
69.923809
 21
404.803297
  0
LINE
  5
54E
100
AcDbEntity
  8
M0
100
AcDbLine
 10
71.923809
 20
383.303296
 11
70.923809
 21
383.303296
  0
LINE
  5
54F
100
AcDbEntity
  8
M0
100
AcDbLine
 10
67.22381
 20
411.403297
 11
67.22381
 21
401.003297
  0
LINE
  5
550
100
AcDbEntity
  8
M0
100
AcDbLine
 10
71.923809
 20
368.703295
 11
71.923809
 21
383.303296
  0
LINE
  5
551
100
AcDbEntity
  8
M0
100
AcDbLine
 10
125.723809
 20
411.403297
 11
125.723809
 21
401.003297
  0
LINE
  5
552
100
AcDbEntity
  8
M0
100
AcDbLine
 10
68.22381
 20
400.003297
 11
69.22381
 21
400.003297
  0
LINE
  5
553
100
AcDbEntity
  8
M0
100
AcDbLine
 10
133.223809
 20
378.853298
 11
133.123808
 21
378.853298
  0
LINE
  5
554
100
AcDbEntity
  8
M0
100
AcDbLine
 10
58.023811
 20
430.003297
 11
57.52381
 21
435.003296
  0
LINE
  5
555
100
AcDbEntity
  8
M0
100
AcDbLine
 10
125.22381
 20
381.403296
 11
124.32381
 21
381.403296
  0
LINE
  5
556
100
AcDbEntity
  8
M0
100
AcDbLine
 10
69.923809
 20
407.603297
 11
68.22381
 21
407.603297
  0
LINE
  5
557
100
AcDbEntity
  8
M0
100
AcDbLine
 10
132.123809
 20
381.403296
 11
131.223809
 21
381.403296
  0
LINE
  5
558
100
AcDbEntity
  8
M0
100
AcDbLine
 10
69.22381
 20
404.803297
 11
69.22381
 21
404.703297
  0
LINE
  5
559
100
AcDbEntity
  8
M0
100
AcDbLine
 10
107.123809
 20
381.303296
 11
107.123809
 21
368.703295
  0
LINE
  5
55A
100
AcDbEntity
  8
M0
100
AcDbLine
 10
106.12381
 20
381.803297
 11
106.62381
 21
381.803297
  0
LINE
  5
55B
100
AcDbEntity
  8
M0
100
AcDbLine
 10
121.02381
 20
368.703295
 11
121.02381
 21
383.303296
  0
ARC
  5
55C
100
AcDbEntity
  8
M0
100
AcDbCircle
 10
83.62381
 20
364.703297
 40
1.0
100
AcDbArc
 50
180.0
 51
270.0
  0
ARC
  5
55D
100
AcDbEntity
  8
M0
100
AcDbCircle
 10
75.02381
 20
451.703297
 40
1.0
100
AcDbArc
 50
0.0
 51
90.0
  0
LINE
  5
55E
100
AcDbEntity
  8
M0
100
AcDbLine
 10
68.073809
 20
374.703296
 11
68.073809
 21
368.703295
  0
LINE
  5
55F
100
AcDbEntity
  8
M0
100
AcDbLine
 10
103.923809
 20
381.803297
 11
104.42381
 21
381.803297
  0
LINE
  5
560
100
AcDbEntity
  8
M0
100
AcDbLine
 10
69.22381
 20
407.603297
 11
69.22381
 21
407.703297
  0
LINE
  5
561
100
AcDbEntity
  8
M0
100
AcDbLine
 10
124.723809
 20
400.003297
 11
123.723809
 21
400.003297
  0
LINE
  5
562
100
AcDbEntity
  8
M0
100
AcDbLine
 10
68.22381
 20
410.903297
 11
68.22381
 21
401.503297
  0
LINE
  5
563
100
AcDbEntity
  8
M0
100
AcDbLine
 10
124.723809
 20
410.903297
 11
124.723809
 21
401.503297
  0
LINE
  5
564
100
AcDbEntity
  8
M0
100
AcDbLine
 10
121.02381
 20
383.303296
 11
122.02381
 21
383.303296
  0
ARC
  5
565
100
AcDbEntity
  8
M0
100
AcDbCircle
 10
88.07381
 20
396.003297
 40
1.0
100
AcDbArc
 50
180.0
 51
270.0
  0
ARC
  5
566
100
AcDbEntity
  8
M0
100
AcDbCircle
 10
122.72381
 20
427.903297
 40
1.0
100
AcDbArc
 50
0.0
 51
90.0
  0
ARC
  5
567
100
AcDbEntity
  8
M0
100
AcDbCircle
 10
89.97381
 20
391.703297
 40
0.5
100
AcDbArc
 50
270.0
 51
360.0
  0
ARC
  5
568
100
AcDbEntity
  8
M0
100
AcDbCircle
 10
104.97381
 20
391.703297
 40
0.5
100
AcDbArc
 50
270.0
 51
360.0
  0
ARC
  5
569
100
AcDbEntity
  8
M0
100
AcDbCircle
 10
104.97381
 20
392.703297
 40
0.5
100
AcDbArc
 50
0.0
 51
90.0
  0
ARC
  5
56A
100
AcDbEntity
  8
M0
100
AcDbCircle
 10
89.97381
 20
392.703297
 40
0.5
100
AcDbArc
 50
0.0
 51
90.0
  0
ARC
  5
56B
100
AcDbEntity
  8
M0
100
AcDbCircle
 10
122.72381
 20
364.703297
 40
1.0
100
AcDbArc
 50
270.0
 51
360.0
  0
LINE
  5
56C
100
AcDbEntity
  8
M0
100
AcDbLine
 10
70.22381
 20
413.403297
 11
70.22381
 21
410.703297
  0
ARC
  5
56D
100
AcDbEntity
  8
M0
100
AcDbCircle
 10
94.22381
 20
410.47225
 40
0.5
100
AcDbArc
 50
0.0
 51
90.0
  0
ARC
  5
56E
100
AcDbEntity
  8
M0
100
AcDbCircle
 10
88.07381
 20
416.403297
 40
1.0
100
AcDbArc
 50
90.0
 51
180.0
  0
ARC
  5
56F
100
AcDbEntity
  8
M0
100
AcDbCircle
 10
98.72381
 20
410.47225
 40
0.5
100
AcDbArc
 50
90.0
 51
180.0
  0
ARC
  5
570
100
AcDbEntity
  8
M0
100
AcDbCircle
 10
104.87381
 20
416.403297
 40
1.0
100
AcDbArc
 50
0.0
 51
90.0
  0
LINE
  5
571
100
AcDbEntity
  8
M0
100
AcDbLine
 10
68.073809
 20
365.703297
 11
68.073809
 21
367.203296
  0
LINE
  5
572
100
AcDbEntity
  8
M0
100
AcDbLine
 10
68.623809
 20
431.003297
 11
67.723809
 21
431.003297
  0
LINE
  5
573
100
AcDbEntity
  8
M0
100
AcDbLine
 10
69.22381
 20
365.203296
 11
68.57381
 21
365.203296
  0
LINE
  5
574
100
AcDbEntity
  8
M0
100
AcDbLine
 10
121.02381
 20
366.703295
 11
120.07381
 21
366.703295
  0
LINE
  5
575
100
AcDbEntity
  8
M0
100
AcDbLine
 10
121.02381
 20
367.703297
 11
120.07381
 21
367.703297
  0
LINE
  5
576
100
AcDbEntity
  8
M0
100
AcDbLine
 10
121.02381
 20
365.203296
 11
120.07381
 21
365.203296
  0
ARC
  5
577
100
AcDbEntity
  8
M0
100
AcDbCircle
 10
102.97381
 20
392.703297
 40
0.5
100
AcDbArc
 50
90.0
 51
180.0
  0
ARC
  5
578
100
AcDbEntity
  8
M0
100
AcDbCircle
 10
87.97381
 20
391.703297
 40
0.5
100
AcDbArc
 50
180.0
 51
270.0
  0
ARC
  5
579
100
AcDbEntity
  8
M0
100
AcDbCircle
 10
102.97381
 20
391.703297
 40
0.5
100
AcDbArc
 50
180.0
 51
270.0
  0
ARC
  5
57A
100
AcDbEntity
  8
M0
100
AcDbCircle
 10
87.97381
 20
392.703297
 40
0.5
100
AcDbArc
 50
90.0
 51
180.0
  0
ARC
  5
57B
100
AcDbEntity
  8
M0
100
AcDbCircle
 10
104.87381
 20
396.003297
 40
1.0
100
AcDbArc
 50
270.0
 51
360.0
  0
LINE
  5
57C
100
AcDbEntity
  8
M0
100
AcDbLine
 10
67.723809
 20
381.403296
 11
68.623809
 21
381.403296
  0
ARC
  5
57D
100
AcDbEntity
  8
M0
100
AcDbCircle
 10
88.27381
 20
416.203297
 40
1.0
100
AcDbArc
 50
90.0
 51
180.0
  0
ARC
  5
57E
100
AcDbEntity
  8
M0
100
AcDbCircle
 10
90.92381
 20
412.203297
 40
0.5
100
AcDbArc
 50
270.0
 51
360.0
  0
ARC
  5
57F
100
AcDbEntity
  8
M0
100
AcDbCircle
 10
70.22381
 20
384.503297
 40
1.0
100
AcDbArc
 50
180.0
 51
270.0
  0
ARC
  5
580
100
AcDbEntity
  8
M0
100
AcDbCircle
 10
123.22381
 20
398.503297
 40
0.5
100
AcDbArc
 50
0.0
 51
90.0
  0
ARC
  5
581
100
AcDbEntity
  8
M0
100
AcDbCircle
 10
88.27381
 20
398.703297
 40
1.0
100
AcDbArc
 50
90.0
 51
180.0
  0
LINE
  5
582
100
AcDbEntity
  8
M0
  6
DASHDOT
100
AcDbLine
 10
78.37381
 20
376.703297
 11
79.37381
 21
376.703297
  0
ARC
  5
583
100
AcDbEntity
  8
M0
100
AcDbCircle
 10
122.72381
 20
384.503297
 40
1.0
100
AcDbArc
 50
270.0
 51
360.0
  0
ARC
  5
584
100
AcDbEntity
  8
M0
100
AcDbCircle
 10
103.02381
 20
396.203297
 40
1.0
100
AcDbArc
 50
180.0
 51
270.0
  0
ARC
  5
585
100
AcDbEntity
  8
M0
100
AcDbCircle
 10
104.67381
 20
396.203297
 40
1.0
100
AcDbArc
 50
270.0
 51
360.0
  0
ARC
  5
586
100
AcDbEntity
  8
M0
100
AcDbCircle
 10
69.72381
 20
398.503297
 40
0.5
100
AcDbArc
 50
90.0
 51
180.0
  0
ARC
  5
587
100
AcDbEntity
  8
M0
100
AcDbCircle
 10
88.27381
 20
396.203297
 40
1.0
100
AcDbArc
 50
180.0
 51
270.0
  0
ARC
  5
588
100
AcDbEntity
  8
M0
100
AcDbCircle
 10
104.67381
 20
416.203297
 40
1.0
100
AcDbArc
 50
0.0
 51
90.0
  0
LINE
  5
589
100
AcDbEntity
  8
M0
  6
DASHDOT
100
AcDbLine
 10
96.47381
 20
436.203297
 11
96.47381
 21
435.203297
  0
LINE
  5
58A
100
AcDbEntity
  8
M0
  6
DASHDOT
100
AcDbLine
 10
95.97381
 20
435.703297
 11
96.97381
 21
435.703297
  0
LINE
  5
58B
100
AcDbEntity
  8
M0
  6
DASHDOT
100
AcDbLine
 10
114.07381
 20
436.203297
 11
114.07381
 21
435.203297
  0
LINE
  5
58C
100
AcDbEntity
  8
M0
  6
DASHDOT
100
AcDbLine
 10
113.57381
 20
435.703297
 11
114.57381
 21
435.703297
  0
LINE
  5
58D
100
AcDbEntity
  8
M0
  6
DASHDOT
100
AcDbLine
 10
78.87381
 20
436.203297
 11
78.87381
 21
435.203297
  0
LINE
  5
58E
100
AcDbEntity
  8
M0
  6
DASHDOT
100
AcDbLine
 10
78.37381
 20
435.703297
 11
79.37381
 21
435.703297
  0
LINE
  5
58F
100
AcDbEntity
  8
M0
  6
DASHDOT
100
AcDbLine
 10
113.57381
 20
376.703297
 11
114.57381
 21
376.703297
  0
LINE
  5
590
100
AcDbEntity
  8
M0
  6
DASHDOT
100
AcDbLine
 10
78.87381
 20
376.203297
 11
78.87381
 21
377.203297
  0
LINE
  5
591
100
AcDbEntity
  8
M0
  6
DASHDOT
100
AcDbLine
 10
114.07381
 20
376.203297
 11
114.07381
 21
377.203297
  0
LINE
  5
592
100
AcDbEntity
  8
M0
  6
DASHDOT
100
AcDbLine
 10
96.47381
 20
376.203297
 11
96.47381
 21
377.203297
  0
LINE
  5
593
100
AcDbEntity
  8
M0
  6
DASHDOT
100
AcDbLine
 10
95.97381
 20
376.703297
 11
96.97381
 21
376.703297
  0
LINE
  5
594
100
AcDbEntity
  8
M0
100
AcDbLine
 10
68.473809
 20
422.853297
 11
68.473809
 21
416.353297
  0
LINE
  5
595
100
AcDbEntity
  8
M0
100
AcDbLine
 10
107.123809
 20
428.903297
 11
107.123809
 21
451.203298
  0
LINE
  5
596
100
AcDbEntity
  8
M0
100
AcDbLine
 10
114.02381
 20
452.203297
 11
114.02381
 21
451.203298
  0
LINE
  5
597
100
AcDbEntity
  8
M0
100
AcDbLine
 10
76.223809
 20
442.703296
 11
76.223809
 21
443.703298
  0
LINE
  5
598
100
AcDbEntity
  8
M0
100
AcDbLine
 10
78.923809
 20
451.203298
 11
78.923809
 21
452.203297
  0
LINE
  5
599
100
AcDbEntity
  8
M0
100
AcDbLine
 10
84.32381
 20
442.703296
 11
84.32381
 21
451.703296
  0
LINE
  5
59A
100
AcDbEntity
  8
M0
100
AcDbLine
 10
61.72381
 20
432.003298
 11
67.723809
 21
432.003298
  0
LINE
  5
59B
100
AcDbEntity
  8
M0
100
AcDbLine
 10
132.123809
 20
423.403297
 11
124.32381
 21
423.403297
  0
LINE
  5
59C
100
AcDbEntity
  8
M0
100
AcDbLine
 10
75.02381
 20
452.703298
 11
117.92381
 21
452.703298
  0
LINE
  5
59D
100
AcDbEntity
  8
M0
100
AcDbLine
 10
107.123809
 20
451.203298
 11
85.82381
 21
451.203298
  0
LINE
  5
59E
100
AcDbEntity
  8
M0
100
AcDbLine
 10
67.723809
 20
380.403296
 11
61.72381
 21
380.403296
  0
LINE
  5
59F
100
AcDbEntity
  8
M0
100
AcDbLine
 10
68.623809
 20
423.403297
 11
60.82381
 21
423.403297
  0
LINE
  5
5A0
100
AcDbEntity
  8
M0
100
AcDbLine
 10
103.173809
 20
417.203297
 11
104.67381
 21
417.203297
  0
ARC
  5
5A1
100
AcDbEntity
  8
M0
100
AcDbCircle
 10
130.47381
 20
373.703297
 40
2.25
100
AcDbArc
 50
89.957854
 51
177.916058
  0
ARC
  5
5A2
100
AcDbEntity
  8
M0
100
AcDbCircle
 10
132.42381
 20
366.703297
 40
3.0
100
AcDbArc
 50
270.0
 51
360.0
  0
ARC
  5
5A3
100
AcDbEntity
  8
M0
100
AcDbCircle
 10
61.02381
 20
366.703297
 40
3.0
100
AcDbArc
 50
180.0
 51
270.0
  0
ARC
  5
5A4
100
AcDbEntity
  8
M0
100
AcDbCircle
 10
127.925298
 20
373.753297
 40
0.3
100
AcDbArc
 50
270.0
 51
360.0
  0
ARC
  5
5A5
100
AcDbEntity
  8
M0
100
AcDbCircle
 10
59.82381
 20
425.303297
 40
1.0
100
AcDbArc
 50
0.0
 51
90.0
  0
ARC
  5
5A6
100
AcDbEntity
  8
M0
100
AcDbCircle
 10
89.92381
 20
396.203297
 40
1.0
100
AcDbArc
 50
270.0
 51
360.0
  0
LINE
  5
5A7
100
AcDbEntity
  8
M0
100
AcDbLine
 10
61.72381
 20
430.953297
 11
61.72381
 21
432.003298
  0
LINE
  5
5A8
100
AcDbEntity
  8
M0
100
AcDbLine
 10
67.723809
 20
432.003298
 11
67.723809
 21
430.953297
  0
LINE
  5
5A9
100
AcDbEntity
  8
M0
100
AcDbLine
 10
125.22381
 20
432.003298
 11
131.223809
 21
432.003298
  0
LINE
  5
5AA
100
AcDbEntity
  8
M0
100
AcDbLine
 10
60.976315
 20
430.503296
 11
60.82381
 21
430.503296
  0
LINE
  5
5AB
100
AcDbEntity
  8
M0
100
AcDbLine
 10
131.223809
 20
432.003298
 11
131.223809
 21
430.953297
  0
LINE
  5
5AC
100
AcDbEntity
  8
M0
100
AcDbLine
 10
66.314392
 20
391.212653
 11
63.132752
 21
394.394416
  0
LINE
  5
5AD
100
AcDbEntity
  8
M0
100
AcDbLine
 10
65.077088
 20
394.217658
 11
63.309509
 21
392.449958
  0
LINE
  5
5AE
100
AcDbEntity
  8
M0
100
AcDbLine
 10
129.637636
 20
427.556989
 11
127.870058
 21
425.789411
  0
LINE
  5
5AF
100
AcDbEntity
  8
M0
100
AcDbLine
 10
128.57709
 20
428.617658
 11
126.809511
 21
426.849958
  0
LINE
  5
5B0
100
AcDbEntity
  8
M0
100
AcDbLine
 10
129.814394
 20
425.612654
 11
126.632754
 21
428.794416
  0
LINE
  5
5B1
100
AcDbEntity
  8
M0
100
AcDbLine
 10
129.814394
 20
418.012653
 11
126.632754
 21
421.194416
  0
LINE
  5
5B2
100
AcDbEntity
  8
M0
100
AcDbLine
 10
66.314392
 20
418.012653
 11
63.132752
 21
421.194416
  0
LINE
  5
5B3
100
AcDbEntity
  8
M0
100
AcDbLine
 10
66.137634
 20
419.956989
 11
64.370056
 21
418.189411
  0
LINE
  5
5B4
100
AcDbEntity
  8
M0
100
AcDbLine
 10
65.077088
 20
386.617658
 11
63.309509
 21
384.849958
  0
LINE
  5
5B5
100
AcDbEntity
  8
M0
100
AcDbLine
 10
66.314392
 20
383.612653
 11
63.132752
 21
386.794416
  0
LINE
  5
5B6
100
AcDbEntity
  8
M0
100
AcDbLine
 10
66.137634
 20
385.556989
 11
64.370056
 21
383.789411
  0
LINE
  5
5B7
100
AcDbEntity
  8
M0
100
AcDbLine
 10
66.137634
 20
393.156989
 11
64.370056
 21
391.389411
  0
CIRCLE
  5
5B8
100
AcDbEntity
  8
M0
100
AcDbCircle
 10
64.723808
 20
427.203298
 40
3.0
  0
CIRCLE
  5
5B9
100
AcDbEntity
  8
M0
100
AcDbCircle
 10
112.423807
 20
446.8033
 40
3.0
  0
CIRCLE
  5
5BA
100
AcDbEntity
  8
M0
100
AcDbCircle
 10
64.723808
 20
419.603298
 40
3.0
  0
CIRCLE
  5
5BB
100
AcDbEntity
  8
M0
100
AcDbCircle
 10
64.723808
 20
385.203295
 40
3.0
  0
CIRCLE
  5
5BC
100
AcDbEntity
  8
M0
100
AcDbCircle
 10
64.723808
 20
392.803295
 40
3.0
  0
CIRCLE
  5
5BD
100
AcDbEntity
  8
M0
100
AcDbCircle
 10
128.22381
 20
427.203298
 40
3.0
  0
LINE
  5
5BE
100
AcDbEntity
  8
M0
100
AcDbLine
 10
129.637636
 20
419.956989
 11
127.870058
 21
418.189411
  0
LINE
  5
5BF
100
AcDbEntity
  8
M0
100
AcDbLine
 10
128.57709
 20
421.017658
 11
126.809511
 21
419.249958
  0
CIRCLE
  5
5C0
100
AcDbEntity
  8
M0
100
AcDbCircle
 10
78.87381
 20
435.703328
 40
4.499996
  0
CIRCLE
  5
5C1
100
AcDbEntity
  8
M0
100
AcDbCircle
 10
114.07381
 20
435.703328
 40
4.499996
  0
CIRCLE
  5
5C2
100
AcDbEntity
  8
M0
100
AcDbCircle
 10
96.47381
 20
435.703328
 40
4.499996
  0
CIRCLE
  5
5C3
100
AcDbEntity
  8
M0
100
AcDbCircle
 10
80.52381
 20
446.803297
 40
3.0
  0
LINE
  5
5C4
100
AcDbEntity
  8
M0
100
AcDbLine
 10
98.354913
 20
436.170247
 11
96.006936
 21
433.822255
  0
LINE
  5
5C5
100
AcDbEntity
  8
M0
100
AcDbLine
 10
96.940713
 20
437.584462
 11
94.592737
 21
435.23647
  0
LINE
  5
5C6
100
AcDbEntity
  8
M0
100
AcDbLine
 10
94.404855
 20
437.772236
 11
98.667825
 21
433.509297
  0
LINE
  5
5C7
100
AcDbEntity
  8
M0
100
AcDbLine
 10
115.954913
 20
436.170247
 11
113.606936
 21
433.822255
  0
LINE
  5
5C8
100
AcDbEntity
  8
M0
100
AcDbLine
 10
114.540713
 20
437.584462
 11
112.192737
 21
435.23647
  0
LINE
  5
5C9
100
AcDbEntity
  8
M0
100
AcDbLine
 10
112.004855
 20
437.772236
 11
116.267825
 21
433.509297
  0
LINE
  5
5CA
100
AcDbEntity
  8
M0
100
AcDbLine
 10
116.923809
 20
442.703296
 11
116.923809
 21
451.703297
  0
LINE
  5
5CB
100
AcDbEntity
  8
M0
100
AcDbLine
 10
125.22381
 20
430.953297
 11
125.22381
 21
432.003298
  0
LINE
  5
5CC
100
AcDbEntity
  8
M0
100
AcDbLine
 10
118.92381
 20
442.703296
 11
118.92381
 21
451.703296
  0
LINE
  5
5CD
100
AcDbEntity
  8
M0
100
AcDbLine
 10
80.754913
 20
436.170247
 11
78.406936
 21
433.822255
  0
LINE
  5
5CE
100
AcDbEntity
  8
M0
100
AcDbLine
 10
79.340713
 20
437.584462
 11
76.992737
 21
435.23647
  0
LINE
  5
5CF
100
AcDbEntity
  8
M0
100
AcDbLine
 10
76.804855
 20
437.772236
 11
81.067825
 21
433.509297
  0
LINE
  5
5D0
100
AcDbEntity
  8
M0
100
AcDbLine
 10
114.01439
 20
445.212656
 11
110.83275
 21
448.394418
  0
LINE
  5
5D1
100
AcDbEntity
  8
M0
100
AcDbLine
 10
113.837633
 20
447.156992
 11
112.070054
 21
445.389413
  0
LINE
  5
5D2
100
AcDbEntity
  8
M0
100
AcDbLine
 10
65.077088
 20
428.617658
 11
63.309509
 21
426.849958
  0
LINE
  5
5D3
100
AcDbEntity
  8
M0
100
AcDbLine
 10
66.314392
 20
425.612654
 11
63.132752
 21
428.794416
  0
LINE
  5
5D4
100
AcDbEntity
  8
M0
100
AcDbLine
 10
66.137634
 20
427.556989
 11
64.370056
 21
425.789411
  0
LINE
  5
5D5
100
AcDbEntity
  8
M0
100
AcDbLine
 10
65.077088
 20
421.017658
 11
63.309509
 21
419.249958
  0
LINE
  5
5D6
100
AcDbEntity
  8
M0
100
AcDbLine
 10
81.937636
 20
447.156988
 11
80.170057
 21
445.38941
  0
LINE
  5
5D7
100
AcDbEntity
  8
M0
100
AcDbLine
 10
80.877089
 20
448.217657
 11
79.109511
 21
446.449957
  0
LINE
  5
5D8
100
AcDbEntity
  8
M0
100
AcDbLine
 10
82.114393
 20
445.212652
 11
78.932753
 21
448.394415
  0
LINE
  5
5D9
100
AcDbEntity
  8
M0
  6
DASHDOT
100
AcDbLine
 10
64.72381
 20
426.703297
 11
64.72381
 21
427.703297
  0
LINE
  5
5DA
100
AcDbEntity
  8
M0
  6
DASHDOT
100
AcDbLine
 10
64.22381
 20
427.203297
 11
65.22381
 21
427.203297
  0
LINE
  5
5DB
100
AcDbEntity
  8
M0
100
AcDbLine
 10
125.22381
 20
380.403296
 11
125.22381
 21
381.453297
  0
LINE
  5
5DC
100
AcDbEntity
  8
M0
100
AcDbLine
 10
91.17381
 20
401.910766
 11
91.17381
 21
401.503297
  0
LINE
  5
5DD
100
AcDbEntity
  8
M0
100
AcDbLine
 10
91.673809
 20
401.003297
 11
90.92381
 21
401.003297
  0
LINE
  5
5DE
100
AcDbEntity
  8
M0
100
AcDbLine
 10
100.623809
 20
411.403297
 11
100.623809
 21
411.703297
  0
LINE
  5
5DF
100
AcDbEntity
  8
M0
100
AcDbLine
 10
101.773809
 20
401.910766
 11
101.773809
 21
401.503297
  0
LINE
  5
5E0
100
AcDbEntity
  8
M0
100
AcDbLine
 10
90.92381
 20
411.403297
 11
102.023809
 21
411.403297
  0
LINE
  5
5E1
100
AcDbEntity
  8
M0
100
AcDbLine
 10
131.223809
 20
381.453297
 11
131.223809
 21
380.403296
  0
LINE
  5
5E2
100
AcDbEntity
  8
M0
100
AcDbLine
 10
131.223809
 20
380.403296
 11
125.22381
 21
380.403296
  0
LINE
  5
5E3
100
AcDbEntity
  8
M0
100
AcDbLine
 10
124.32381
 20
381.903297
 11
124.476316
 21
381.903297
  0
LINE
  5
5E4
100
AcDbEntity
  8
M0
100
AcDbLine
 10
98.22381
 20
410.450803
 11
98.22381
 21
410.47225
  0
LINE
  5
5E5
100
AcDbEntity
  8
M0
100
AcDbLine
 10
94.723809
 20
410.450803
 11
94.723809
 21
410.47225
  0
LINE
  5
5E6
100
AcDbEntity
  8
M0
100
AcDbLine
 10
91.17381
 20
410.47225
 11
91.17381
 21
410.450803
  0
LINE
  5
5E7
100
AcDbEntity
  8
M0
100
AcDbLine
 10
116.07381
 20
369.703297
 11
121.02381
 21
369.703297
  0
LINE
  5
5E8
100
AcDbEntity
  8
M0
100
AcDbLine
 10
112.073809
 20
442.703296
 11
107.123809
 21
442.703296
  0
LINE
  5
5E9
100
AcDbEntity
  8
M0
100
AcDbLine
 10
98.47381
 20
369.703297
 11
103.423809
 21
369.703297
  0
ARC
  5
5EA
100
AcDbEntity
  8
M0
100
AcDbCircle
 10
133.92381
 20
387.103297
 40
1.0
100
AcDbArc
 50
270.0
 51
360.0
  0
ARC
  5
5EB
100
AcDbEntity
  8
M0
100
AcDbCircle
 10
59.82381
 20
401.503297
 40
1.0
100
AcDbArc
 50
0.0
 51
90.0
  0
ARC
  5
5EC
100
AcDbEntity
  8
M0
100
AcDbCircle
 10
133.12381
 20
387.103297
 40
1.0
100
AcDbArc
 50
180.0
 51
270.0
  0
LINE
  5
5ED
100
AcDbEntity
  8
M0
100
AcDbLine
 10
107.123809
 20
439.403296
 11
107.123809
 21
442.203295
  0
LINE
  5
5EE
100
AcDbEntity
  8
M0
100
AcDbLine
 10
91.673809
 20
401.003297
 11
101.27381
 21
401.003297
  0
LINE
  5
5EF
100
AcDbEntity
  8
M0
100
AcDbLine
 10
92.32381
 20
411.403297
 11
92.32381
 21
411.703297
  0
LINE
  5
5F0
100
AcDbEntity
  8
M0
100
AcDbLine
 10
80.87381
 20
369.703297
 11
85.82381
 21
369.703297
  0
LINE
  5
5F1
100
AcDbEntity
  8
M0
100
AcDbLine
 10
79.57381
 20
367.903297
 11
78.67381
 21
367.903297
  0
LINE
  5
5F2
100
AcDbEntity
  8
M0
100
AcDbLine
 10
100.623809
 20
400.503297
 11
100.623809
 21
401.003297
  0
LINE
  5
5F3
100
AcDbEntity
  8
M0
100
AcDbLine
 10
79.57381
 20
367.153295
 11
80.711261
 21
367.153295
  0
LINE
  5
5F4
100
AcDbEntity
  8
M0
100
AcDbLine
 10
78.67381
 20
366.253298
 11
77.53636
 21
366.253298
  0
LINE
  5
5F5
100
AcDbEntity
  8
M0
100
AcDbLine
 10
79.57381
 20
367.153295
 11
79.57381
 21
367.903297
  0
LINE
  5
5F6
100
AcDbEntity
  8
M0
100
AcDbLine
 10
76.512296
 20
366.253298
 11
77.53636
 21
366.253298
  0
LINE
  5
5F7
100
AcDbEntity
  8
M0
100
AcDbLine
 10
80.711261
 20
366.253298
 11
81.735322
 21
366.253298
  0
LINE
  5
5F8
100
AcDbEntity
  8
M0
100
AcDbLine
 10
80.711261
 20
366.253298
 11
79.57381
 21
366.253298
  0
LINE
  5
5F9
100
AcDbEntity
  8
M0
100
AcDbLine
 10
107.123809
 20
366.703295
 11
107.123809
 21
364.703298
  0
LINE
  5
5FA
100
AcDbEntity
  8
M0
100
AcDbLine
 10
71.923809
 20
364.703298
 11
71.923809
 21
366.703295
  0
LINE
  5
5FB
100
AcDbEntity
  8
M0
100
AcDbLine
 10
81.735322
 20
367.153295
 11
80.711261
 21
367.153295
  0
LINE
  5
5FC
100
AcDbEntity
  8
M0
100
AcDbLine
 10
78.67381
 20
367.903297
 11
78.67381
 21
367.153295
  0
LINE
  5
5FD
100
AcDbEntity
  8
M0
100
AcDbLine
 10
78.67381
 20
365.503297
 11
79.57381
 21
365.503297
  0
LINE
  5
5FE
100
AcDbEntity
  8
M0
100
AcDbLine
 10
77.53636
 20
367.153295
 11
76.512296
 21
367.153295
  0
LINE
  5
5FF
100
AcDbEntity
  8
M0
100
AcDbLine
 10
114.273809
 20
367.153295
 11
114.273809
 21
367.903297
  0
LINE
  5
600
100
AcDbEntity
  8
M0
100
AcDbLine
 10
111.212297
 20
366.253298
 11
112.236358
 21
366.253298
  0
LINE
  5
601
100
AcDbEntity
  8
M0
100
AcDbLine
 10
112.236358
 20
367.153295
 11
111.212297
 21
367.153295
  0
LINE
  5
602
100
AcDbEntity
  8
M0
100
AcDbLine
 10
103.423809
 20
442.703296
 11
89.52381
 21
442.703296
  0
LINE
  5
603
100
AcDbEntity
  8
M0
100
AcDbLine
 10
98.22381
 20
403.503297
 11
98.22381
 21
410.450803
  0
LINE
  5
604
100
AcDbEntity
  8
M0
100
AcDbLine
 10
101.773809
 20
410.47225
 11
101.773809
 21
410.450803
  0
LINE
  5
605
100
AcDbEntity
  8
M0
100
AcDbLine
 10
116.435323
 20
367.153295
 11
115.411259
 21
367.153295
  0
LINE
  5
606
100
AcDbEntity
  8
M0
100
AcDbLine
 10
77.53636
 20
367.153295
 11
78.67381
 21
367.153295
  0
LINE
  5
607
100
AcDbEntity
  8
M0
100
AcDbLine
 10
79.57381
 20
365.503297
 11
79.57381
 21
366.253298
  0
LINE
  5
608
100
AcDbEntity
  8
M0
100
AcDbLine
 10
115.411259
 20
366.253298
 11
116.435323
 21
366.253298
  0
LINE
  5
609
100
AcDbEntity
  8
M0
100
AcDbLine
 10
78.67381
 20
366.253298
 11
78.67381
 21
365.503297
  0
LINE
  5
60A
100
AcDbEntity
  8
M0
100
AcDbLine
 10
68.22381
 20
410.903297
 11
70.22381
 21
410.903297
  0
LINE
  5
60B
100
AcDbEntity
  8
M0
100
AcDbLine
 10
90.67381
 20
403.453297
 11
90.92381
 21
402.953297
  0
LINE
  5
60C
100
AcDbEntity
  8
M0
100
AcDbLine
 10
103.02381
 20
395.203297
 11
89.923809
 21
395.203297
  0
LINE
  5
60D
100
AcDbEntity
  8
M0
100
AcDbLine
 10
89.923809
 20
395.203297
 11
88.273809
 21
395.203297
  0
LINE
  5
60E
100
AcDbEntity
  8
M0
100
AcDbLine
 10
104.173809
 20
410.803297
 11
104.173809
 21
399.703297
  0
LINE
  5
60F
100
AcDbEntity
  8
M0
100
AcDbLine
 10
104.173809
 20
395.203297
 11
104.67381
 21
395.203297
  0
LINE
  5
610
100
AcDbEntity
  8
M0
100
AcDbLine
 10
102.023809
 20
396.203297
 11
102.023809
 21
402.953297
  0
LINE
  5
611
100
AcDbEntity
  8
M0
100
AcDbLine
 10
88.273809
 20
399.703297
 11
88.77381
 21
399.703297
  0
LINE
  5
612
100
AcDbEntity
  8
M0
100
AcDbLine
 10
70.923809
 20
428.903297
 11
70.923809
 21
429.103297
  0
LINE
  5
613
100
AcDbEntity
  8
M0
100
AcDbLine
 10
102.023809
 20
402.953297
 11
102.273809
 21
403.453297
  0
LINE
  5
614
100
AcDbEntity
  8
M0
100
AcDbLine
 10
88.77381
 20
395.203297
 11
88.273809
 21
395.203297
  0
LINE
  5
615
100
AcDbEntity
  8
M0
100
AcDbLine
 10
90.92381
 20
402.953297
 11
90.92381
 21
396.203297
  0
LINE
  5
616
100
AcDbEntity
  8
M0
100
AcDbLine
 10
67.723809
 20
381.453297
 11
67.723809
 21
380.403296
  0
LINE
  5
617
100
AcDbEntity
  8
M0
100
AcDbLine
 10
90.92381
 20
409.453297
 11
90.67381
 21
408.953297
  0
LINE
  5
618
100
AcDbEntity
  8
M0
100
AcDbLine
 10
61.72381
 20
380.403296
 11
61.72381
 21
381.453297
  0
LINE
  5
619
100
AcDbEntity
  8
M0
100
AcDbLine
 10
108.623809
 20
451.703296
 11
108.623809
 21
442.703296
  0
LINE
  5
61A
100
AcDbEntity
  8
M0
100
AcDbLine
 10
116.72381
 20
443.703298
 11
116.72381
 21
442.703296
  0
LINE
  5
61B
100
AcDbEntity
  8
M0
100
AcDbLine
 10
112.777086
 20
448.21766
 11
111.009508
 21
446.44996
  0
LINE
  5
61C
100
AcDbEntity
  8
M0
100
AcDbLine
 10
90.67381
 20
408.953297
 11
90.67381
 21
403.453297
  0
LINE
  5
61D
100
AcDbEntity
  8
M0
100
AcDbLine
 10
89.77381
 20
417.203297
 11
88.273809
 21
417.203297
  0
LINE
  5
61E
100
AcDbEntity
  8
M0
100
AcDbLine
 10
102.273809
 20
408.953297
 11
102.023809
 21
409.453297
  0
LINE
  5
61F
100
AcDbEntity
  8
M0
100
AcDbLine
 10
102.273809
 20
403.453297
 11
102.273809
 21
408.953297
  0
LINE
  5
620
100
AcDbEntity
  8
M0
100
AcDbLine
 10
88.77381
 20
410.803297
 11
88.77381
 21
399.703297
  0
LINE
  5
621
100
AcDbEntity
  8
M0
100
AcDbLine
 10
104.173809
 20
399.703297
 11
104.67381
 21
399.703297
  0
ARC
  5
622
100
AcDbEntity
  8
M0
100
AcDbCircle
 10
79.12381
 20
366.703297
 40
2.65
100
AcDbArc
 50
170.223151
 51
189.776849
  0
ARC
  5
623
100
AcDbEntity
  8
M0
100
AcDbCircle
 10
79.12381
 20
366.703297
 40
2.65
100
AcDbArc
 50
350.223151
 51
369.776849
  0
ARC
  5
624
100
AcDbEntity
  8
M0
100
AcDbCircle
 10
113.82381
 20
366.703297
 40
2.65
100
AcDbArc
 50
9.776849
 51
170.223151
  0
ARC
  5
625
100
AcDbEntity
  8
M0
100
AcDbCircle
 10
133.92381
 20
379.853297
 40
1.0
100
AcDbArc
 50
270.0
 51
360.0
  0
ARC
  5
626
100
AcDbEntity
  8
M0
100
AcDbCircle
 10
113.82381
 20
366.703297
 40
2.65
100
AcDbArc
 50
189.776849
 51
350.223151
  0
ARC
  5
627
100
AcDbEntity
  8
M0
100
AcDbCircle
 10
69.22381
 20
432.953297
 40
0.6
100
AcDbArc
 50
90.0
 51
180.0
  0
ARC
  5
628
100
AcDbEntity
  8
M0
100
AcDbCircle
 10
71.665801
 20
395.609255
 40
3.350514
100
AcDbArc
 50
136.789285
 51
155.219178
  0
LINE
  5
629
100
AcDbEntity
  8
M0
100
AcDbLine
 10
61.473809
 20
430.953297
 11
67.973809
 21
430.953297
  0
ARC
  5
62A
100
AcDbEntity
  8
M0
100
AcDbCircle
 10
69.22381
 20
386.703297
 40
0.6
100
AcDbArc
 50
180.0
 51
270.0
  0
ARC
  5
62B
100
AcDbEntity
  8
M0
100
AcDbCircle
 10
123.72381
 20
386.703297
 40
0.6
100
AcDbArc
 50
270.0
 51
360.0
  0
ARC
  5
62C
100
AcDbEntity
  8
M0
100
AcDbCircle
 10
59.82381
 20
387.103297
 40
1.0
100
AcDbArc
 50
270.0
 51
360.0
  0
ARC
  5
62D
100
AcDbEntity
  8
M0
100
AcDbCircle
 10
79.12381
 20
366.703297
 40
2.65
100
AcDbArc
 50
9.776849
 51
170.223151
  0
LINE
  5
62E
100
AcDbEntity
  8
M0
100
AcDbLine
 10
104.67381
 20
395.203297
 11
103.02381
 21
395.203297
  0
LINE
  5
62F
100
AcDbEntity
  8
M0
100
AcDbLine
 10
102.023809
 20
409.453297
 11
102.023809
 21
411.703297
  0
LINE
  5
630
100
AcDbEntity
  8
M0
100
AcDbLine
 10
105.67381
 20
412.303297
 11
104.173809
 21
410.803297
  0
LINE
  5
631
100
AcDbEntity
  8
M0
100
AcDbLine
 10
122.723809
 20
399.003297
 11
123.22381
 21
399.003297
  0
LINE
  5
632
100
AcDbEntity
  8
M0
100
AcDbLine
 10
90.92381
 20
411.703297
 11
90.92381
 21
409.453297
  0
LINE
  5
633
100
AcDbEntity
  8
M0
100
AcDbLine
 10
105.67381
 20
416.203296
 11
105.67381
 21
396.203297
  0
ARC
  5
634
100
AcDbEntity
  8
M0
100
AcDbCircle
 10
133.92381
 20
432.553297
 40
1.0
100
AcDbArc
 50
0.0
 51
90.0
  0
ARC
  5
635
100
AcDbEntity
  8
M0
100
AcDbCircle
 10
59.82381
 20
379.853297
 40
1.0
100
AcDbArc
 50
270.0
 51
360.0
  0
ARC
  5
636
100
AcDbEntity
  8
M0
100
AcDbCircle
 10
123.72381
 20
432.953297
 40
0.6
100
AcDbArc
 50
0.0
 51
90.0
  0
ARC
  5
637
100
AcDbEntity
  8
M0
100
AcDbCircle
 10
69.22381
 20
379.453297
 40
0.6
100
AcDbArc
 50
180.0
 51
270.0
  0
ARC
  5
638
100
AcDbEntity
  8
M0
100
AcDbCircle
 10
123.72381
 20
379.453297
 40
0.6
100
AcDbArc
 50
270.0
 51
360.0
  0
LINE
  5
639
100
AcDbEntity
  8
M0
100
AcDbLine
 10
69.22381
 20
401.703297
 11
70.22381
 21
401.703297
  0
ARC
  5
63A
100
AcDbEntity
  8
M0
100
AcDbCircle
 10
131.517811
 20
371.153592
 40
0.3
100
AcDbArc
 50
90.0
 51
180.0
  0
ARC
  5
63B
100
AcDbEntity
  8
M0
100
AcDbCircle
 10
88.52381
 20
447.703297
 40
1.0
100
AcDbArc
 50
0.0
 51
90.0
  0
ARC
  5
63C
100
AcDbEntity
  8
M0
100
AcDbCircle
 10
131.97381
 20
373.703297
 40
2.25
100
AcDbArc
 50
270.928845
 51
451.752277
  0
ARC
  5
63D
100
AcDbEntity
  8
M0
100
AcDbCircle
 10
70.92381
 20
447.703297
 40
1.0
100
AcDbArc
 50
0.0
 51
90.0
  0
ARC
  5
63E
100
AcDbEntity
  8
M0
100
AcDbCircle
 10
70.22381
 20
447.703297
 40
1.0
100
AcDbArc
 50
90.0
 51
180.0
  0
ARC
  5
63F
100
AcDbEntity
  8
M0
100
AcDbCircle
 10
104.42381
 20
447.703297
 40
1.0
100
AcDbArc
 50
90.0
 51
180.0
  0
ARC
  5
640
100
AcDbEntity
  8
M0
100
AcDbCircle
 10
133.12381
 20
410.903297
 40
1.0
100
AcDbArc
 50
180.0
 51
270.0
  0
ARC
  5
641
100
AcDbEntity
  8
M0
100
AcDbCircle
 10
83.62381
 20
443.403297
 40
0.6
100
AcDbArc
 50
270.0
 51
352.509835
  0
ARC
  5
642
100
AcDbEntity
  8
M0
100
AcDbCircle
 10
133.92381
 20
410.903297
 40
1.0
100
AcDbArc
 50
270.0
 51
360.0
  0
ARC
  5
643
100
AcDbEntity
  8
M0
100
AcDbCircle
 10
59.02381
 20
425.303297
 40
1.0
100
AcDbArc
 50
90.0
 51
180.0
  0
ARC
  5
644
100
AcDbEntity
  8
M0
100
AcDbCircle
 10
113.82381
 20
366.703297
 40
2.65
100
AcDbArc
 50
170.223151
 51
189.776849
  0
ARC
  5
645
100
AcDbEntity
  8
M0
100
AcDbCircle
 10
86.82381
 20
447.703297
 40
1.0
100
AcDbArc
 50
90.0
 51
180.0
  0
LINE
  5
646
100
AcDbEntity
  8
M0
100
AcDbLine
 10
71.923809
 20
383.303296
 11
71.923809
 21
383.503296
  0
LINE
  5
647
100
AcDbEntity
  8
M0
100
AcDbLine
 10
133.123808
 20
433.553296
 11
133.92381
 21
433.553296
  0
LINE
  5
648
100
AcDbEntity
  8
M0
100
AcDbLine
 10
89.52381
 20
383.503296
 11
89.52381
 21
364.703297
  0
LINE
  5
649
100
AcDbEntity
  8
M0
100
AcDbLine
 10
68.623809
 20
397.013617
 11
68.623809
 21
379.453297
  0
LINE
  5
64A
100
AcDbEntity
  8
M0
100
AcDbLine
 10
60.82381
 20
410.903297
 11
60.82381
 21
432.553298
  0
LINE
  5
64B
100
AcDbEntity
  8
M0
100
AcDbLine
 10
68.623809
 20
432.953297
 11
68.623809
 21
415.391543
  0
ARC
  5
64C
100
AcDbEntity
  8
M0
100
AcDbCircle
 10
106.12381
 20
447.703297
 40
1.0
100
AcDbArc
 50
0.0
 51
90.0
  0
ARC
  5
64D
100
AcDbEntity
  8
M0
100
AcDbCircle
 10
122.02381
 20
447.703297
 40
1.0
100
AcDbArc
 50
90.0
 51
180.0
  0
LINE
  5
64E
100
AcDbEntity
  8
M0
100
AcDbLine
 10
67.97381
 20
423.453298
 11
61.473811
 21
423.453291
  0
LINE
  5
64F
100
AcDbEntity
  8
M0
100
AcDbLine
 10
121.02381
 20
428.903297
 11
121.02381
 21
429.103297
  0
LINE
  5
650
100
AcDbEntity
  8
M0
100
AcDbLine
 10
121.02381
 20
383.303296
 11
121.02381
 21
383.503296
  0
LINE
  5
651
100
AcDbEntity
  8
M0
100
AcDbLine
 10
59.823811
 20
433.553296
 11
59.023809
 21
433.553296
  0
LINE
  5
652
100
AcDbEntity
  8
M0
100
AcDbLine
 10
70.22381
 20
404.703297
 11
69.22381
 21
404.703297
  0
LINE
  5
653
100
AcDbEntity
  8
M0
100
AcDbLine
 10
87.273809
 20
412.303297
 11
88.77381
 21
410.803297
  0
LINE
  5
654
100
AcDbEntity
  8
M0
100
AcDbLine
 10
122.723809
 20
383.503296
 11
70.22381
 21
383.503296
  0
LINE
  5
655
100
AcDbEntity
  8
M0
100
AcDbLine
 10
102.023809
 20
399.003297
 11
90.92381
 21
399.003297
  0
LINE
  5
656
100
AcDbEntity
  8
M0
100
AcDbLine
 10
90.92381
 20
396.703297
 11
102.023809
 21
396.703297
  0
LINE
  5
657
100
AcDbEntity
  8
M0
100
AcDbLine
 10
90.92381
 20
400.503297
 11
102.023809
 21
400.503297
  0
LINE
  5
658
100
AcDbEntity
  8
M0
100
AcDbLine
 10
131.217811
 20
371.039108
 11
131.217811
 21
371.153594
  0
LINE
  5
659
100
AcDbEntity
  8
M0
100
AcDbLine
 10
70.923809
 20
383.303296
 11
70.923809
 21
383.503296
  0
LINE
  5
65A
100
AcDbEntity
  8
M0
100
AcDbLine
 10
128.225297
 20
373.785116
 11
128.225297
 21
373.753295
  0
LINE
  5
65B
100
AcDbEntity
  8
M0
100
AcDbLine
 10
86.32381
 20
430.603296
 11
89.02381
 21
430.603296
  0
LINE
  5
65C
100
AcDbEntity
  8
M0
100
AcDbLine
 10
135.423809
 20
377.403297
 11
135.423809
 21
366.703295
  0
LINE
  5
65D
100
AcDbEntity
  8
M0
100
AcDbLine
 10
69.22381
 20
447.703297
 11
69.22381
 21
412.403297
  0
ARC
  5
65E
100
AcDbEntity
  8
M0
100
AcDbCircle
 10
133.12381
 20
401.503297
 40
1.0
100
AcDbArc
 50
90.0
 51
180.0
  0
LINE
  5
65F
100
AcDbEntity
  8
M0
100
AcDbLine
 10
91.42381
 20
412.203297
 11
91.42381
 21
416.203296
  0
ARC
  5
660
100
AcDbEntity
  8
M0
100
AcDbCircle
 10
106.12381
 20
364.703297
 40
1.0
100
AcDbArc
 50
270.0
 51
360.0
  0
ARC
  5
661
100
AcDbEntity
  8
M0
100
AcDbCircle
 10
59.82381
 20
410.903297
 40
1.0
100
AcDbArc
 50
270.0
 51
360.0
  0
ARC
  5
662
100
AcDbEntity
  8
M0
100
AcDbCircle
 10
86.82381
 20
364.703297
 40
1.0
100
AcDbArc
 50
180.0
 51
270.0
  0
ARC
  5
663
100
AcDbEntity
  8
M0
100
AcDbCircle
 10
133.92381
 20
425.303297
 40
1.0
100
AcDbArc
 50
0.0
 51
90.0
  0
LINE
  5
664
100
AcDbEntity
  8
M0
100
AcDbLine
 10
69.22381
 20
407.703297
 11
69.22381
 21
407.603297
  0
LINE
  5
665
100
AcDbEntity
  8
M0
100
AcDbLine
 10
69.723809
 20
399.003297
 11
70.22381
 21
399.003297
  0
LINE
  5
666
100
AcDbEntity
  8
M0
100
AcDbLine
 10
69.22381
 20
404.803297
 11
69.22381
 21
404.703297
  0
LINE
  5
667
100
AcDbEntity
  8
M0
100
AcDbLine
 10
87.273809
 20
416.203296
 11
87.273809
 21
395.870193
  0
LINE
  5
668
100
AcDbEntity
  8
M0
100
AcDbLine
 10
102.523809
 20
417.203297
 11
104.67381
 21
417.203297
  0
LINE
  5
669
100
AcDbEntity
  8
M0
100
AcDbLine
 10
121.02381
 20
445.703299
 11
121.02381
 21
447.703295
  0
LINE
  5
66A
100
AcDbEntity
  8
M0
100
AcDbLine
 10
60.323809
 20
409.903297
 11
60.323809
 21
402.503297
  0
LINE
  5
66B
100
AcDbEntity
  8
M0
100
AcDbLine
 10
71.923809
 20
428.903297
 11
71.923809
 21
447.703295
  0
LINE
  5
66C
100
AcDbEntity
  8
M0
100
AcDbLine
 10
124.32381
 20
397.013617
 11
124.32381
 21
379.453297
  0
LINE
  5
66D
100
AcDbEntity
  8
M0
100
AcDbLine
 10
132.123809
 20
379.853296
 11
132.123809
 21
401.503297
  0
LINE
  5
66E
100
AcDbEntity
  8
M0
100
AcDbLine
 10
60.82381
 20
379.853296
 11
60.82381
 21
401.503297
  0
LINE
  5
66F
100
AcDbEntity
  8
M0
100
AcDbLine
 10
90.023809
 20
417.203297
 11
90.42381
 21
417.203297
  0
LINE
  5
670
100
AcDbEntity
  8
M0
100
AcDbLine
 10
71.923809
 20
366.703295
 11
71.923809
 21
367.703297
  0
LINE
  5
671
100
AcDbEntity
  8
M0
100
AcDbLine
 10
102.523809
 20
417.203297
 11
102.92381
 21
417.203297
  0
LINE
  5
672
100
AcDbEntity
  8
M0
100
AcDbLine
 10
132.623811
 20
409.903297
 11
132.623811
 21
402.503297
  0
LINE
  5
673
100
AcDbEntity
  8
M0
100
AcDbLine
 10
133.92381
 20
402.503297
 11
133.92381
 21
409.903297
  0
LINE
  5
674
100
AcDbEntity
  8
M0
100
AcDbLine
 10
59.023809
 20
402.503297
 11
59.023809
 21
409.903297
  0
ARC
  5
675
100
AcDbEntity
  8
M0
100
AcDbCircle
 10
61.47381
 20
423.953296
 40
0.5
100
AcDbArc
 50
180.0
 51
270.0
  0
ARC
  5
676
100
AcDbEntity
  8
M0
100
AcDbCircle
 10
61.473809
 20
430.453296
 40
0.5
100
AcDbArc
 50
90.0
 51
180.0
  0
ARC
  5
677
100
AcDbEntity
  8
M0
100
AcDbCircle
 10
124.97381
 20
423.953297
 40
0.5
100
AcDbArc
 50
180.0
 51
270.0
  0
ARC
  5
678
100
AcDbEntity
  8
M0
100
AcDbCircle
 10
59.02381
 20
387.103297
 40
1.0
100
AcDbArc
 50
180.0
 51
270.0
  0
ARC
  5
679
100
AcDbEntity
  8
M0
100
AcDbCircle
 10
121.281818
 20
395.609255
 40
3.350514
100
AcDbArc
 50
24.780822
 51
43.210715
  0
ARC
  5
67A
100
AcDbEntity
  8
M0
100
AcDbCircle
 10
133.12381
 20
432.553297
 40
1.0
100
AcDbArc
 50
90.0
 51
180.0
  0
ARC
  5
67B
100
AcDbEntity
  8
M0
100
AcDbCircle
 10
77.27381
 20
450.053297
 40
0.5
100
AcDbArc
 50
90.0
 51
180.0
  0
ARC
  5
67C
100
AcDbEntity
  8
M0
100
AcDbCircle
 10
115.67381
 20
443.553297
 40
0.5
100
AcDbArc
 50
270.0
 51
360.0
  0
ARC
  5
67D
100
AcDbEntity
  8
M0
100
AcDbCircle
 10
124.97381
 20
430.453297
 40
0.5
100
AcDbArc
 50
90.0
 51
180.0
  0
ARC
  5
67E
100
AcDbEntity
  8
M0
100
AcDbCircle
 10
115.673809
 20
450.053297
 40
0.5
100
AcDbArc
 50
0.0
 51
90.0
  0
ARC
  5
67F
100
AcDbEntity
  8
M0
100
AcDbCircle
 10
131.47381
 20
423.953297
 40
0.5
100
AcDbArc
 50
270.0
 51
360.0
  0
ARC
  5
680
100
AcDbEntity
  8
M0
100
AcDbCircle
 10
131.47381
 20
430.453297
 40
0.5
100
AcDbArc
 50
0.0
 51
90.0
  0
LINE
  5
681
100
AcDbEntity
  8
M0
100
AcDbLine
 10
94.723809
 20
403.503297
 11
94.723809
 21
410.450803
  0
LINE
  5
682
100
AcDbEntity
  8
M0
100
AcDbLine
 10
64.323809
 20
409.903297
 11
64.323809
 21
402.503297
  0
LINE
  5
683
100
AcDbEntity
  8
M0
100
AcDbLine
 10
101.773809
 20
410.903297
 11
101.773809
 21
402.408284
  0
LINE
  5
684
100
AcDbEntity
  8
M0
100
AcDbLine
 10
101.773809
 20
401.910766
 11
101.773809
 21
402.408284
  0
LINE
  5
685
100
AcDbEntity
  8
M0
100
AcDbLine
 10
91.17381
 20
410.903297
 11
91.17381
 21
402.408284
  0
LINE
  5
686
100
AcDbEntity
  8
M0
100
AcDbLine
 10
95.22381
 20
403.003297
 11
97.723809
 21
403.003297
  0
LINE
  5
687
100
AcDbEntity
  8
M0
100
AcDbLine
 10
124.32381
 20
415.503297
 11
132.123809
 21
415.503297
  0
LINE
  5
688
100
AcDbEntity
  8
M0
100
AcDbLine
 10
101.523809
 20
412.203297
 11
101.523809
 21
416.203296
  0
LINE
  5
689
100
AcDbEntity
  8
M0
100
AcDbLine
 10
133.92381
 20
378.853298
 11
133.123808
 21
378.853298
  0
LINE
  5
68A
100
AcDbEntity
  8
M0
100
AcDbLine
 10
133.92381
 20
386.103297
 11
133.123808
 21
386.103297
  0
LINE
  5
68B
100
AcDbEntity
  8
M0
100
AcDbLine
 10
128.62381
 20
409.903297
 11
128.62381
 21
402.503297
  0
LINE
  5
68C
100
AcDbEntity
  8
M0
100
AcDbLine
 10
59.023809
 20
386.103297
 11
59.823811
 21
386.103297
  0
LINE
  5
68D
100
AcDbEntity
  8
M0
100
AcDbLine
 10
60.82381
 20
396.903297
 11
68.623809
 21
396.903297
  0
LINE
  5
68E
100
AcDbEntity
  8
M0
100
AcDbLine
 10
128.62381
 20
402.503297
 11
133.123808
 21
402.503297
  0
LINE
  5
68F
100
AcDbEntity
  8
M0
100
AcDbLine
 10
121.02381
 20
444.703296
 11
121.02381
 21
445.703299
  0
LINE
  5
690
100
AcDbEntity
  8
M0
100
AcDbLine
 10
121.02381
 20
366.703295
 11
121.02381
 21
367.703297
  0
LINE
  5
691
100
AcDbEntity
  8
M0
100
AcDbLine
 10
85.82381
 20
451.203298
 11
85.82381
 21
428.903297
  0
LINE
  5
692
100
AcDbEntity
  8
M0
100
AcDbLine
 10
107.123809
 20
367.703297
 11
107.123809
 21
366.703295
  0
LINE
  5
693
100
AcDbEntity
  8
M0
100
AcDbLine
 10
68.623809
 20
415.503297
 11
60.82381
 21
415.503297
  0
LINE
  5
694
100
AcDbEntity
  8
M0
100
AcDbLine
 10
91.17381
 20
401.910766
 11
91.17381
 21
402.408284
  0
LINE
  5
695
100
AcDbEntity
  8
M0
100
AcDbLine
 10
133.123808
 20
409.903297
 11
128.62381
 21
409.903297
  0
LINE
  5
696
100
AcDbEntity
  8
M0
100
AcDbLine
 10
59.023809
 20
402.503297
 11
64.323809
 21
402.503297
  0
LINE
  5
697
100
AcDbEntity
  8
M0
100
AcDbLine
 10
124.32381
 20
432.953297
 11
124.32381
 21
415.419812
  0
LINE
  5
698
100
AcDbEntity
  8
M0
100
AcDbLine
 10
121.02381
 20
364.703298
 11
121.02381
 21
368.703295
  0
LINE
  5
699
100
AcDbEntity
  8
M0
100
AcDbLine
 10
105.623814
 20
363.703296
 11
104.42381
 21
363.703296
  0
LINE
  5
69A
100
AcDbEntity
  8
M0
100
AcDbLine
 10
71.923809
 20
364.703298
 11
71.923809
 21
368.703295
  0
LINE
  5
69B
100
AcDbEntity
  8
M0
100
AcDbLine
 10
89.52381
 20
429.103297
 11
85.82381
 21
429.103297
  0
LINE
  5
69C
100
AcDbEntity
  8
M0
100
AcDbLine
 10
124.723809
 20
404.803297
 11
123.02381
 21
404.803297
  0
LINE
  5
69D
100
AcDbEntity
  8
M0
100
AcDbLine
 10
107.123809
 20
368.703295
 11
107.123809
 21
364.703298
  0
CIRCLE
  5
69E
100
AcDbEntity
  8
M0
100
AcDbCircle
 10
128.22381
 20
385.203295
 40
3.0
  0
CIRCLE
  5
69F
100
AcDbEntity
  8
M0
100
AcDbCircle
 10
128.22381
 20
392.803295
 40
3.0
  0
CIRCLE
  5
6A0
100
AcDbEntity
  8
M0
100
AcDbCircle
 10
78.87381
 20
376.703266
 40
4.499996
  0
CIRCLE
  5
6A1
100
AcDbEntity
  8
M0
100
AcDbCircle
 10
114.07381
 20
376.703266
 40
4.499996
  0
CIRCLE
  5
6A2
100
AcDbEntity
  8
M0
100
AcDbCircle
 10
96.47381
 20
376.703266
 40
4.499996
  0
LINE
  5
6A3
100
AcDbEntity
  8
M0
100
AcDbLine
 10
106.12381
 20
363.703296
 11
105.623814
 21
363.703296
  0
LINE
  5
6A4
100
AcDbEntity
  8
M0
100
AcDbLine
 10
103.423809
 20
383.503296
 11
103.423809
 21
381.303296
  0
LINE
  5
6A5
100
AcDbEntity
  8
M0
100
AcDbLine
 10
107.123809
 20
383.303296
 11
103.423809
 21
383.303296
  0
LINE
  5
6A6
100
AcDbEntity
  8
M0
100
AcDbLine
 10
107.123809
 20
381.303296
 11
107.123809
 21
383.503296
  0
LINE
  5
6A7
100
AcDbEntity
  8
M0
100
AcDbLine
 10
133.123808
 20
409.903297
 11
133.92381
 21
409.903297
  0
LINE
  5
6A8
100
AcDbEntity
  8
M0
100
AcDbLine
 10
133.123808
 20
426.303296
 11
133.92381
 21
426.303296
  0
LINE
  5
6A9
100
AcDbEntity
  8
M0
100
AcDbLine
 10
60.82381
 20
389.003296
 11
68.623809
 21
389.003296
  0
LINE
  5
6AA
100
AcDbEntity
  8
M0
100
AcDbLine
 10
103.423809
 20
429.103297
 11
107.123809
 21
429.103297
  0
LINE
  5
6AB
100
AcDbEntity
  8
M0
100
AcDbLine
 10
123.02381
 20
407.603297
 11
124.723809
 21
407.603297
  0
LINE
  5
6AC
100
AcDbEntity
  8
M0
100
AcDbLine
 10
85.82381
 20
383.503296
 11
85.82381
 21
364.703298
  0
LINE
  5
6AD
100
AcDbEntity
  8
M0
100
AcDbLine
 10
123.02381
 20
404.803297
 11
123.02381
 21
407.603297
  0
LINE
  5
6AE
100
AcDbEntity
  8
M0
100
AcDbLine
 10
69.923809
 20
404.803297
 11
69.923809
 21
407.603297
  0
LINE
  5
6AF
100
AcDbEntity
  8
M0
100
AcDbLine
 10
85.82381
 20
383.303296
 11
89.52381
 21
383.303296
  0
LINE
  5
6B0
100
AcDbEntity
  8
M0
100
AcDbLine
 10
128.57709
 20
386.617658
 11
126.809511
 21
384.849958
  0
LINE
  5
6B1
100
AcDbEntity
  8
M0
100
AcDbLine
 10
129.814394
 20
383.612653
 11
126.632754
 21
386.794416
  0
LINE
  5
6B2
100
AcDbEntity
  8
M0
100
AcDbLine
 10
129.637636
 20
385.556989
 11
127.870058
 21
383.789411
  0
LINE
  5
6B3
100
AcDbEntity
  8
M0
100
AcDbLine
 10
80.754913
 20
377.170247
 11
78.406936
 21
374.822255
  0
LINE
  5
6B4
100
AcDbEntity
  8
M0
100
AcDbLine
 10
79.340713
 20
378.584462
 11
76.992737
 21
376.23647
  0
LINE
  5
6B5
100
AcDbEntity
  8
M0
100
AcDbLine
 10
76.804855
 20
378.772236
 11
81.067825
 21
374.509297
  0
ARC
  5
6B6
100
AcDbEntity
  8
M0
100
AcDbCircle
 10
117.92381
 20
451.703297
 40
1.0
100
AcDbArc
 50
90.0
 51
180.0
  0
CIRCLE
  5
6B7
100
AcDbEntity
  8
M0
100
AcDbCircle
 10
128.22381
 20
419.603298
 40
3.0
  0
ARC
  5
6B8
100
AcDbEntity
  8
M0
100
AcDbCircle
 10
117.92381
 20
451.703297
 40
1.0
100
AcDbArc
 50
0.0
 51
90.0
  0
LINE
  5
6B9
100
AcDbEntity
  8
M0
100
AcDbLine
 10
129.637636
 20
393.156989
 11
127.870058
 21
391.389411
  0
LINE
  5
6BA
100
AcDbEntity
  8
M0
100
AcDbLine
 10
128.57709
 20
394.217658
 11
126.809511
 21
392.449958
  0
LINE
  5
6BB
100
AcDbEntity
  8
M0
100
AcDbLine
 10
129.814394
 20
391.212653
 11
126.632754
 21
394.394416
  0
LINE
  5
6BC
100
AcDbEntity
  8
M0
100
AcDbLine
 10
98.354913
 20
377.170247
 11
96.006936
 21
374.822255
  0
LINE
  5
6BD
100
AcDbEntity
  8
M0
100
AcDbLine
 10
96.940713
 20
378.584462
 11
94.592737
 21
376.23647
  0
LINE
  5
6BE
100
AcDbEntity
  8
M0
100
AcDbLine
 10
94.404855
 20
378.772236
 11
98.667825
 21
374.509297
  0
LINE
  5
6BF
100
AcDbEntity
  8
M0
100
AcDbLine
 10
115.954913
 20
377.170247
 11
113.606936
 21
374.822255
  0
LINE
  5
6C0
100
AcDbEntity
  8
M0
100
AcDbLine
 10
114.540713
 20
378.584462
 11
112.192737
 21
376.23647
  0
LINE
  5
6C1
100
AcDbEntity
  8
M0
100
AcDbLine
 10
123.723809
 20
364.703297
 11
123.723809
 21
400.003297
  0
LINE
  5
6C2
100
AcDbEntity
  8
M0
100
AcDbLine
 10
89.52381
 20
428.903297
 11
89.52381
 21
447.703295
  0
LINE
  5
6C3
100
AcDbEntity
  8
M0
100
AcDbLine
 10
103.423809
 20
428.903297
 11
103.423809
 21
447.703295
  0
LINE
  5
6C4
100
AcDbEntity
  8
M0
100
AcDbLine
 10
122.02381
 20
383.303296
 11
122.02381
 21
383.503296
  0
LINE
  5
6C5
100
AcDbEntity
  8
M0
100
AcDbLine
 10
104.42381
 20
448.703297
 11
106.12381
 21
448.703297
  0
LINE
  5
6C6
100
AcDbEntity
  8
M0
100
AcDbLine
 10
88.523809
 20
448.703297
 11
86.82381
 21
448.703297
  0
LINE
  5
6C7
100
AcDbEntity
  8
M0
100
AcDbLine
 10
70.923809
 20
448.703297
 11
70.22381
 21
448.703297
  0
LINE
  5
6C8
100
AcDbEntity
  8
M0
100
AcDbLine
 10
91.42381
 20
412.203297
 11
101.523809
 21
412.203297
  0
LINE
  5
6C9
100
AcDbEntity
  8
M0
100
AcDbLine
 10
112.236358
 20
367.153295
 11
113.373809
 21
367.153295
  0
LINE
  5
6CA
100
AcDbEntity
  8
M0
100
AcDbLine
 10
113.373809
 20
365.503297
 11
114.273809
 21
365.503297
  0
LINE
  5
6CB
100
AcDbEntity
  8
M0
100
AcDbLine
 10
122.723809
 20
401.503297
 11
124.723809
 21
401.503297
  0
LINE
  5
6CC
100
AcDbEntity
  8
M0
100
AcDbLine
 10
121.02381
 20
428.903297
 11
121.02381
 21
447.703295
  0
LINE
  5
6CD
100
AcDbEntity
  8
M0
100
AcDbLine
 10
131.517813
 20
371.453591
 11
132.010285
 21
371.453591
  0
LINE
  5
6CE
100
AcDbEntity
  8
M0
100
AcDbLine
 10
70.923809
 20
429.103297
 11
71.923809
 21
429.103297
  0
LINE
  5
6CF
100
AcDbEntity
  8
M0
100
AcDbLine
 10
70.22381
 20
401.503297
 11
68.22381
 21
401.503297
  0
LINE
  5
6D0
100
AcDbEntity
  8
M0
100
AcDbLine
 10
122.02381
 20
429.103297
 11
121.02381
 21
429.103297
  0
LINE
  5
6D1
100
AcDbEntity
  8
M0
100
AcDbLine
 10
69.22381
 20
400.003297
 11
69.22381
 21
364.703297
  0
LINE
  5
6D2
100
AcDbEntity
  8
M0
100
AcDbLine
 10
132.123809
 20
396.903297
 11
124.32381
 21
396.903297
  0
LINE
  5
6D3
100
AcDbEntity
  8
M0
100
AcDbLine
 10
124.723809
 20
410.903297
 11
122.723809
 21
410.903297
  0
LINE
  5
6D4
100
AcDbEntity
  8
M0
100
AcDbLine
 10
122.523805
 20
448.703297
 11
122.723809
 21
448.703297
  0
LINE
  5
6D5
100
AcDbEntity
  8
M0
100
AcDbLine
 10
122.02381
 20
428.903297
 11
122.02381
 21
429.103297
  0
LINE
  5
6D6
100
AcDbEntity
  8
M0
100
AcDbLine
 10
120.07381
 20
368.703295
 11
121.02381
 21
368.703295
  0
LINE
  5
6D7
100
AcDbEntity
  8
M0
100
AcDbLine
 10
131.905008
 20
375.952244
 11
130.475465
 21
375.953297
  0
LINE
  5
6D8
100
AcDbEntity
  8
M0
100
AcDbLine
 10
123.723809
 20
412.403297
 11
123.723809
 21
447.703297
  0
CIRCLE
  5
6D9
100
AcDbEntity
  8
M0
100
AcDbCircle
 10
113.82381
 20
366.703297
 40
2.85
  0
CIRCLE
  5
6DA
100
AcDbEntity
  8
M0
100
AcDbCircle
 10
96.47381
 20
446.503297
 40
2.825
  0
ARC
  5
6DB
100
AcDbEntity
  8
M0
100
AcDbCircle
 10
116.22381
 20
443.703297
 40
0.5
100
AcDbArc
 50
0.0
 51
66.421822
  0
ARC
  5
6DC
100
AcDbEntity
  8
M0
100
AcDbCircle
 10
79.42381
 20
452.203297
 40
0.5
100
AcDbArc
 50
90.0
 51
180.0
  0
ARC
  5
6DD
100
AcDbEntity
  8
M0
100
AcDbCircle
 10
107.62381
 20
451.703297
 40
1.0
100
AcDbArc
 50
0.0
 51
90.0
  0
ARC
  5
6DE
100
AcDbEntity
  8
M0
100
AcDbCircle
 10
76.72381
 20
443.703297
 40
0.5
100
AcDbArc
 50
113.578178
 51
180.0
  0
LINE
  5
6DF
100
AcDbEntity
  8
M0
100
AcDbLine
 10
59.823811
 20
426.303296
 11
59.023809
 21
426.303296
  0
LINE
  5
6E0
100
AcDbEntity
  8
M0
100
AcDbLine
 10
112.004855
 20
378.772236
 11
116.267825
 21
374.509297
  0
LINE
  5
6E1
100
AcDbEntity
  8
M0
100
AcDbLine
 10
64.323809
 20
409.903297
 11
59.023809
 21
409.903297
  0
LINE
  5
6E2
100
AcDbEntity
  8
M0
100
AcDbLine
 10
133.92381
 20
402.503297
 11
133.123808
 21
402.503297
  0
LINE
  5
6E3
100
AcDbEntity
  8
M0
100
AcDbLine
 10
132.123809
 20
432.553297
 11
132.123809
 21
410.903297
  0
CIRCLE
  5
6E4
100
AcDbEntity
  8
M0
100
AcDbCircle
 10
96.47381
 20
446.503297
 40
2.85
  0
ARC
  5
6E5
100
AcDbEntity
  8
M0
100
AcDbCircle
 10
90.42381
 20
416.203297
 40
1.0
100
AcDbArc
 50
0.0
 51
90.0
  0
ARC
  5
6E6
100
AcDbEntity
  8
M0
100
AcDbCircle
 10
104.67381
 20
398.703297
 40
1.0
100
AcDbArc
 50
0.0
 51
90.0
  0
ARC
  5
6E7
100
AcDbEntity
  8
M0
100
AcDbCircle
 10
102.52381
 20
416.203297
 40
1.0
100
AcDbArc
 50
90.0
 51
180.0
  0
LINE
  5
6E8
100
AcDbEntity
  8
M0
100
AcDbLine
 10
102.023809
 20
411.703297
 11
90.92381
 21
411.703297
  0
LINE
  5
6E9
100
AcDbEntity
  8
M0
100
AcDbLine
 10
101.523809
 20
415.703296
 11
91.42381
 21
415.703296
  0
LINE
  5
6EA
100
AcDbEntity
  8
M0
100
AcDbLine
 10
122.02381
 20
448.703297
 11
122.523805
 21
448.703297
  0
ARC
  5
6EB
100
AcDbEntity
  8
M0
100
AcDbCircle
 10
85.32381
 20
451.703297
 40
1.0
100
AcDbArc
 50
90.0
 51
180.0
  0
ARC
  5
6EC
100
AcDbEntity
  8
M0
100
AcDbCircle
 10
113.52381
 20
452.203297
 40
0.5
100
AcDbArc
 50
0.0
 51
90.0
  0
ARC
  5
6ED
100
AcDbEntity
  8
M0
100
AcDbCircle
 10
59.02381
 20
401.503297
 40
1.0
100
AcDbArc
 50
90.0
 51
180.0
  0
ARC
  5
6EE
100
AcDbEntity
  8
M0
100
AcDbCircle
 10
133.92381
 20
401.503297
 40
1.0
100
AcDbArc
 50
0.0
 51
90.0
  0
ARC
  5
6EF
100
AcDbEntity
  8
M0
100
AcDbCircle
 10
59.02381
 20
410.903297
 40
1.0
100
AcDbArc
 50
180.0
 51
270.0
  0
ARC
  5
6F0
100
AcDbEntity
  8
M0
100
AcDbCircle
 10
102.02381
 20
412.203297
 40
0.5
100
AcDbArc
 50
180.0
 51
270.0
  0
LINE
  5
6F1
100
AcDbEntity
  8
M0
  6
DASHED
100
AcDbLine
 10
45.523813
 20
435.903297
 11
45.523813
 21
376.503297
  0
LINE
  5
6F2
100
AcDbEntity
  8
M0
  6
DASHED
100
AcDbLine
 10
45.523813
 20
435.903297
 11
58.023813
 21
435.903297
  0
LINE
  5
6F3
100
AcDbEntity
  8
M0
  6
DASHED
100
AcDbLine
 10
45.523813
 20
376.503297
 11
58.023813
 21
376.503297
  0
LINE
  5
6F4
100
AcDbEntity
  8
M0
  6
DASHED
100
AcDbLine
 10
234.323803
 20
435.903297
 11
221.823803
 21
435.903297
  0
LINE
  5
6F5
100
AcDbEntity
  8
M0
  6
DASHED
100
AcDbLine
 10
234.323803
 20
435.903297
 11
234.323803
 21
376.503297
  0
LINE
  5
6F6
100
AcDbEntity
  8
M0
  6
DASHED
100
AcDbLine
 10
234.323803
 20
376.503297
 11
221.823803
 21
376.503297
  0
LINE
  5
6F7
100
AcDbEntity
  8
M0
100
AcDbLine
 10
144.923808
 20
430.503297
 11
144.923808
 21
406.203297
  0
LINE
  5
6F8
100
AcDbEntity
  8
M0
100
AcDbLine
 10
144.923808
 20
423.603297
 11
139.923808
 21
423.603297
  0
LINE
  5
6F9
100
AcDbEntity
  8
M0
100
AcDbLine
 10
142.323808
 20
431.603298
 11
137.523808
 21
431.603298
  0
LINE
  5
6FA
100
AcDbEntity
  8
M0
100
AcDbLine
 10
134.923808
 20
423.603297
 11
139.923808
 21
423.603297
  0
LINE
  5
6FB
100
AcDbEntity
  8
M0
100
AcDbLine
 10
144.923808
 20
427.703297
 11
139.923808
 21
427.703297
  0
LINE
  5
6FC
100
AcDbEntity
  8
M0
100
AcDbLine
 10
134.923808
 20
388.803297
 11
139.923808
 21
388.803297
  0
ARC
  5
6FD
100
AcDbEntity
  8
M0
100
AcDbCircle
 10
144.423808
 20
430.503297
 40
0.5
100
AcDbArc
 50
23.578178
 51
90.0
  0
LINE
  5
6FE
100
AcDbEntity
  8
M0
100
AcDbLine
 10
142.323808
 20
380.803295
 11
137.523808
 21
380.803295
  0
ARC
  5
6FF
100
AcDbEntity
  8
M0
100
AcDbCircle
 10
137.523808
 20
431.003297
 40
0.6
100
AcDbArc
 50
90.0
 51
180.0
  0
ARC
  5
700
100
AcDbEntity
  8
M0
100
AcDbCircle
 10
135.423808
 20
430.503297
 40
0.5
100
AcDbArc
 50
90.0
 51
156.421822
  0
LINE
  5
701
100
AcDbEntity
  8
M0
100
AcDbLine
 10
134.923808
 20
406.203297
 11
134.923808
 21
381.903296
  0
ARC
  5
702
100
AcDbEntity
  8
M0
100
AcDbCircle
 10
142.323808
 20
431.003297
 40
0.6
100
AcDbArc
 50
0.0
 51
90.0
  0
LINE
  5
703
100
AcDbEntity
  8
M0
100
AcDbLine
 10
144.923808
 20
381.903296
 11
144.923808
 21
406.203297
  0
LINE
  5
704
100
AcDbEntity
  8
M0
100
AcDbLine
 10
144.923808
 20
384.703296
 11
139.923808
 21
384.703296
  0
ARC
  5
705
100
AcDbEntity
  8
M0
100
AcDbCircle
 10
142.323808
 20
381.403296
 40
0.6
100
AcDbArc
 50
270.0
 51
360.0
  0
LINE
  5
706
100
AcDbEntity
  8
M0
  6
DASHDOT
100
AcDbLine
 10
139.923808
 20
436.203297
 11
139.923808
 21
377.203297
  0
ARC
  5
707
100
AcDbEntity
  8
M0
100
AcDbCircle
 10
144.423808
 20
381.903296
 40
0.5
100
AcDbArc
 50
270.0
 51
336.421822
  0
LINE
  5
708
100
AcDbEntity
  8
M0
100
AcDbLine
 10
144.923808
 20
388.803297
 11
139.923808
 21
388.803297
  0
LINE
  5
709
100
AcDbEntity
  8
M0
100
AcDbLine
 10
134.923808
 20
427.703297
 11
139.923808
 21
427.703297
  0
ARC
  5
70A
100
AcDbEntity
  8
M0
100
AcDbCircle
 10
135.423808
 20
381.903296
 40
0.5
100
AcDbArc
 50
203.578178
 51
270.0
  0
LINE
  5
70B
100
AcDbEntity
  8
M0
100
AcDbLine
 10
134.923808
 20
406.203297
 11
134.923808
 21
430.503297
  0
LINE
  5
70C
100
AcDbEntity
  8
M0
100
AcDbLine
 10
135.423808
 20
381.403298
 11
144.423808
 21
381.403298
  0
ARC
  5
70D
100
AcDbEntity
  8
M0
100
AcDbCircle
 10
137.523808
 20
381.403296
 40
0.6
100
AcDbArc
 50
180.0
 51
270.0
  0
LINE
  5
70E
100
AcDbEntity
  8
M0
100
AcDbLine
 10
135.423808
 20
431.003295
 11
144.423808
 21
431.003295
  0
LINE
  5
70F
100
AcDbEntity
  8
M0
100
AcDbLine
 10
134.923808
 20
384.703296
 11
139.923808
 21
384.703296
  0
LINE
  5
710
100
AcDbEntity
  8
M0
  6
DASHED
100
AcDbLine
 10
257.140874
 20
387.803299
 11
257.140874
 21
426.603299
  0
LINE
  5
711
100
AcDbEntity
  8
M0
  6
DASHED
100
AcDbLine
 10
255.540875
 20
408.503299
 11
255.540875
 21
405.703299
  0
LINE
  5
712
100
AcDbEntity
  8
M0
  6
DASHED
100
AcDbLine
 10
323.840875
 20
438.203496
 11
315.840875
 21
438.203196
  0
LINE
  5
713
100
AcDbEntity
  8
M0
  6
DASHED
100
AcDbLine
 10
323.840875
 20
433.20356
 11
323.840875
 21
438.203496
  0
LINE
  5
714
100
AcDbEntity
  8
M0
  6
DASHED
100
AcDbLine
 10
281.240874
 20
389.503305
 11
281.240874
 21
388.803299
  0
LINE
  5
715
100
AcDbEntity
  8
M0
  6
DASHED
100
AcDbLine
 10
255.540875
 20
408.503299
 11
257.140874
 21
408.503299
  0
LINE
  5
716
100
AcDbEntity
  8
M0
  6
DASHED
100
AcDbLine
 10
276.240874
 20
430.6033
 11
261.140874
 21
430.6033
  0
LINE
  5
717
100
AcDbEntity
  8
M0
  6
DASHED
100
AcDbLine
 10
276.240874
 20
383.803299
 11
261.140874
 21
383.803299
  0
LINE
  5
718
100
AcDbEntity
  8
M0
  6
DASHED
100
AcDbLine
 10
312.840875
 20
440.203789
 11
311.540826
 21
440.203789
  0
LINE
  5
719
100
AcDbEntity
  8
M0
  6
DASHED
100
AcDbLine
 10
311.540826
 20
431.203789
 11
312.840875
 21
431.203789
  0
LINE
  5
71A
100
AcDbEntity
  8
M0
  6
DASHED
100
AcDbLine
 10
309.701226
 20
431.364723
 11
311.540826
 21
431.203804
  0
LINE
  5
71B
100
AcDbEntity
  8
M0
  6
DASHED
100
AcDbLine
 10
311.540826
 20
431.203804
 11
311.540826
 21
440.203804
  0
LINE
  5
71C
100
AcDbEntity
  8
M0
  6
DASHED
100
AcDbLine
 10
312.840875
 20
430.703083
 11
313.840875
 21
430.70312
  0
LINE
  5
71D
100
AcDbEntity
  8
M0
  6
DASHED
100
AcDbLine
 10
315.840875
 20
433.20356
 11
323.840875
 21
433.20356
  0
LINE
  5
71E
100
AcDbEntity
  8
M0
  6
DASHED
100
AcDbLine
 10
312.840875
 20
440.703083
 11
312.840875
 21
430.703083
  0
LINE
  5
71F
100
AcDbEntity
  8
M0
  6
DASHED
100
AcDbLine
 10
312.840875
 20
440.703083
 11
313.840875
 21
440.70312
  0
ARC
  5
720
100
AcDbEntity
  8
M0
  6
DASHED
100
AcDbCircle
 10
261.140874
 20
426.603299
 40
4.0
100
AcDbArc
 50
90.0
 51
180.0
  0
ARC
  5
721
100
AcDbEntity
  8
M0
  6
DASHED
100
AcDbCircle
 10
261.140874
 20
387.803299
 40
4.0
100
AcDbArc
 50
180.0
 51
270.0
  0
ARC
  5
722
100
AcDbEntity
  8
M0
  6
DASHED
100
AcDbCircle
 10
309.840875
 20
438.448952
 40
1.599998
100
AcDbArc
 50
95.007035
 51
179.999966
  0
ARC
  5
723
100
AcDbEntity
  8
M0
  6
DASHED
100
AcDbCircle
 10
309.840875
 20
432.958626
 40
1.599998
100
AcDbArc
 50
179.999966
 51
264.99283
  0
ARC
  5
724
100
AcDbEntity
  8
M0
  6
DASHED
100
AcDbCircle
 10
290.640874
 20
390.003305
 40
0.5
100
AcDbArc
 50
270.0
 51
360.0
  0
ARC
  5
725
100
AcDbEntity
  8
M0
  6
DASHED
100
AcDbCircle
 10
290.640874
 20
424.403293
 40
0.5
100
AcDbArc
 50
0.0
 51
90.0
  0
ARC
  5
726
100
AcDbEntity
  8
M0
  6
DASHED
100
AcDbCircle
 10
276.240874
 20
388.803299
 40
5.0
100
AcDbArc
 50
270.0
 51
360.0
  0
ARC
  5
727
100
AcDbEntity
  8
M0
  6
DASHED
100
AcDbCircle
 10
276.240874
 20
425.603299
 40
5.0
100
AcDbArc
 50
0.0
 51
90.0
  0
LINE
  5
728
100
AcDbEntity
  8
M0
100
AcDbLine
 10
281.840874
 20
436.423428
 11
281.840874
 21
454.623428
  0
LINE
  5
729
100
AcDbEntity
  8
M0
  6
DASHED
100
AcDbLine
 10
290.640874
 20
424.903293
 11
281.240874
 21
424.903293
  0
LINE
  5
72A
100
AcDbEntity
  8
M0
  6
DASHED
100
AcDbLine
 10
257.140874
 20
405.703299
 11
255.540875
 21
405.703299
  0
LINE
  5
72B
100
AcDbEntity
  8
M0
  6
DASHED
100
AcDbLine
 10
281.240874
 20
424.903293
 11
281.240874
 21
425.603299
  0
LINE
  5
72C
100
AcDbEntity
  8
M0
  6
DASHED
100
AcDbLine
 10
289.040874
 20
424.903293
 11
289.040874
 21
426.903299
  0
LINE
  5
72D
100
AcDbEntity
  8
M0
  6
DASHED
100
AcDbLine
 10
289.440874
 20
426.903299
 11
290.040876
 21
424.903293
  0
LINE
  5
72E
100
AcDbEntity
  8
M0
  6
DASHED
100
AcDbLine
 10
290.640875
 20
389.503305
 11
281.240874
 21
389.503305
  0
LINE
  5
72F
100
AcDbEntity
  8
M0
  6
DASHED
100
AcDbLine
 10
289.040874
 20
426.903299
 11
289.440874
 21
426.903299
  0
LINE
  5
730
100
AcDbEntity
  8
M0
  6
DASHED
100
AcDbLine
 10
313.840875
 20
442.703295
 11
313.840875
 21
414.703295
  0
LINE
  5
731
100
AcDbEntity
  8
M0
  6
DASHED
100
AcDbLine
 10
313.840875
 20
414.703295
 11
315.840875
 21
414.703295
  0
LINE
  5
732
100
AcDbEntity
  8
M0
  6
DASHED
100
AcDbLine
 10
315.840875
 20
414.703295
 11
315.840875
 21
442.703295
  0
LINE
  5
733
100
AcDbEntity
  8
M0
  6
DASHED
100
AcDbLine
 10
315.840875
 20
442.703295
 11
313.840875
 21
442.703295
  0
ARC
  5
734
100
AcDbEntity
  8
M0
100
AcDbCircle
 10
291.640875
 20
398.503297
 40
0.5
100
AcDbArc
 50
90.0
 51
180.0
  0
ELLIPSE
  5
735
100
AcDbEntity
  8
M0
100
AcDbEllipse
 10
287.340875
 20
412.510403
 11
-0.5
 21
0.0
210
0.0
220
0.0
230
1.0
 40
0.414214
 41
0.0
 42
1.570796326794897
  0
LINE
  5
736
100
AcDbEntity
  8
M0
  6
DASHED
100
AcDbLine
 10
338.740875
 20
444.203295
 11
338.740875
 21
452.703298
  0
LINE
  5
737
100
AcDbEntity
  8
M0
  6
DASHED
100
AcDbLine
 10
339.740875
 20
452.703298
 11
339.740875
 21
444.203295
  0
LINE
  5
738
100
AcDbEntity
  8
M0
100
AcDbLine
 10
375.240875
 20
446.953297
 11
374.940875
 21
446.953297
  0
LINE
  5
739
100
AcDbEntity
  8
M0
100
AcDbLine
 10
351.940875
 20
392.019525
 11
367.440875
 21
392.019525
  0
LINE
  5
73A
100
AcDbEntity
  8
M0
100
AcDbLine
 10
329.040873
 20
449.703295
 11
329.040873
 21
451.703296
  0
LINE
  5
73B
100
AcDbEntity
  8
M0
100
AcDbLine
 10
329.040873
 20
450.603296
 11
329.040873
 21
451.703296
  0
LINE
  5
73C
100
AcDbEntity
  8
M0
  6
DASHED
100
AcDbLine
 10
308.240914
 20
438.448952
 11
308.240914
 21
432.958626
  0
LINE
  5
73D
100
AcDbEntity
  8
M0
  6
DASHED
100
AcDbLine
 10
309.701226
 20
440.04287
 11
311.540826
 21
440.203804
  0
LINE
  5
73E
100
AcDbEntity
  8
M0
100
AcDbLine
 10
374.940875
 20
364.453298
 11
375.240875
 21
364.453298
  0
LINE
  5
73F
100
AcDbEntity
  8
M0
100
AcDbLine
 10
329.540874
 20
452.703298
 11
332.040875
 21
452.703298
  0
LINE
  5
740
100
AcDbEntity
  8
M0
100
AcDbLine
 10
367.440875
 20
389.142741
 11
351.940875
 21
389.142741
  0
LINE
  5
741
100
AcDbEntity
  8
M0
100
AcDbLine
 10
370.740875
 20
421.503297
 11
370.740875
 21
424.003296
  0
LINE
  5
742
100
AcDbEntity
  8
M0
100
AcDbLine
 10
326.340876
 20
408.903297
 11
326.340876
 21
403.703297
  0
LINE
  5
743
100
AcDbEntity
  8
M0
100
AcDbLine
 10
329.040873
 20
451.703296
 11
329.040873
 21
452.203297
  0
LINE
  5
744
100
AcDbEntity
  8
M0
100
AcDbLine
 10
375.240875
 20
377.453296
 11
374.940875
 21
377.453296
  0
ARC
  5
745
100
AcDbEntity
  8
M0
100
AcDbCircle
 10
287.340875
 20
395.703297
 40
0.5
100
AcDbArc
 50
180.0
 51
270.0
  0
ARC
  5
746
100
AcDbEntity
  8
M0
100
AcDbCircle
 10
367.595308
 20
379.077025
 40
4.084682
100
AcDbArc
 50
125.479034
 51
145.207368
  0
ARC
  5
747
100
AcDbEntity
  8
M0
100
AcDbCircle
 10
374.440875
 20
387.903297
 40
0.5
100
AcDbArc
 50
0.0
 51
90.0
  0
ARC
  5
748
100
AcDbEntity
  8
M0
100
AcDbCircle
 10
345.455088
 20
443.203297
 40
1.0
100
AcDbArc
 50
90.0
 51
135.0
  0
ARC
  5
749
100
AcDbEntity
  8
M0
100
AcDbCircle
 10
345.324795
 20
375.703297
 40
6.0
100
AcDbArc
 50
270.0
 51
350.405932
  0
ARC
  5
74A
100
AcDbEntity
  8
M0
100
AcDbCircle
 10
332.040875
 20
449.703297
 40
3.0
100
AcDbArc
 50
90.0
 51
180.0
  0
ARC
  5
74B
100
AcDbEntity
  8
M0
100
AcDbCircle
 10
374.440875
 20
364.203297
 40
0.5
100
AcDbArc
 50
270.0
 51
360.0
  0
ARC
  5
74C
100
AcDbEntity
  8
M0
100
AcDbCircle
 10
338.540875
 20
411.703297
 40
0.5
100
AcDbArc
 50
90.0
 51
180.0
  0
ARC
  5
74D
100
AcDbEntity
  8
M0
100
AcDbCircle
 10
374.440875
 20
447.203297
 40
0.5
100
AcDbArc
 50
0.0
 51
90.0
  0
ARC
  5
74E
100
AcDbEntity
  8
M0
100
AcDbCircle
 10
365.240875
 20
446.703297
 40
1.0
100
AcDbArc
 50
90.0
 51
180.0
  0
LINE
  5
74F
100
AcDbEntity
  8
M0
100
AcDbLine
 10
340.040875
 20
363.703296
 11
340.040875
 21
400.203297
  0
ARC
  5
750
100
AcDbEntity
  8
M0
100
AcDbCircle
 10
365.240875
 20
364.703297
 40
1.0
100
AcDbArc
 50
180.0
 51
270.0
  0
ARC
  5
751
100
AcDbEntity
  8
M0
100
AcDbCircle
 10
369.740875
 20
419.003297
 40
1.0
100
AcDbArc
 50
0.0
 51
90.0
  0
ARC
  5
752
100
AcDbEntity
  8
M0
100
AcDbCircle
 10
374.440875
 20
424.503297
 40
0.5
100
AcDbArc
 50
270.0
 51
360.0
  0
ARC
  5
753
100
AcDbEntity
  8
M0
100
AcDbCircle
 10
338.540875
 20
400.703297
 40
0.5
100
AcDbArc
 50
180.0
 51
270.0
  0
ARC
  5
754
100
AcDbEntity
  8
M0
100
AcDbCircle
 10
369.740875
 20
393.403297
 40
1.0
100
AcDbArc
 50
270.0
 51
360.0
  0
ARC
  5
755
100
AcDbEntity
  8
M0
100
AcDbCircle
 10
337.240875
 20
403.003297
 40
0.5
100
AcDbArc
 50
0.0
 51
90.0
  0
ARC
  5
756
100
AcDbEntity
  8
M0
100
AcDbCircle
 10
338.240875
 20
400.503297
 40
0.5
100
AcDbArc
 50
180.0
 51
270.0
  0
ARC
  5
757
100
AcDbEntity
  8
M0
100
AcDbCircle
 10
331.438144
 20
430.553297
 40
3.0
100
AcDbArc
 50
49.635463
 51
90.0
  0
ARC
  5
758
100
AcDbEntity
  8
M0
100
AcDbCircle
 10
325.540875
 20
404.003297
 40
0.5
100
AcDbArc
 50
180.0
 51
270.0
  0
ELLIPSE
  5
759
100
AcDbEntity
  8
M0
100
AcDbEllipse
 10
287.340875
 20
411.010403
 11
-0.5
 21
0.0
210
0.0
220
0.0
230
1.0
 40
0.414214
 41
0.0
 42
1.570796326794897
  0
ELLIPSE
  5
75A
100
AcDbEntity
  8
M0
100
AcDbEllipse
 10
374.440875
 20
377.378359
 11
-0.5
 21
0.0
210
0.0
220
0.0
230
1.0
 40
0.049876
 41
3.141592653589793
 42
4.71238898038469
  0
ELLIPSE
  5
75B
100
AcDbEntity
  8
M0
100
AcDbEllipse
 10
374.440875
 20
382.378359
 11
-0.5
 21
0.0
210
0.0
220
0.0
230
1.0
 40
0.049876
 41
3.141592653589793
 42
4.71238898038469
  0
ELLIPSE
  5
75C
100
AcDbEntity
  8
M0
100
AcDbEllipse
 10
365.240875
 20
377.353421
 11
-1.0
 21
0.0
210
0.0
220
0.0
230
1.0
 40
0.049876
 41
4.71238898038469
 42
6.283185307179586
  0
ARC
  5
75D
100
AcDbEntity
  8
M0
100
AcDbCircle
 10
299.940875
 20
410.903297
 40
1.0
100
AcDbArc
 50
270.0
 51
360.0
  0
ARC
  5
75E
100
AcDbEntity
  8
M0
100
AcDbCircle
 10
299.940875
 20
401.503297
 40
1.0
100
AcDbArc
 50
0.0
 51
90.0
  0
ARC
  5
75F
100
AcDbEntity
  8
M0
100
AcDbCircle
 10
363.740875
 20
365.703297
 40
0.5
100
AcDbArc
 50
180.0
 51
270.0
  0
ARC
  5
760
100
AcDbEntity
  8
M0
100
AcDbCircle
 10
287.340875
 20
399.203297
 40
0.5
100
AcDbArc
 50
90.0
 51
180.0
  0
ARC
  5
761
100
AcDbEntity
  8
M0
100
AcDbCircle
 10
338.240875
 20
411.903297
 40
0.5
100
AcDbArc
 50
90.0
 51
180.0
  0
ARC
  5
762
100
AcDbEntity
  8
M0
100
AcDbCircle
 10
317.340875
 20
430.553297
 40
3.0
100
AcDbArc
 50
90.0
 51
180.0
  0
ARC
  5
763
100
AcDbEntity
  8
M0
100
AcDbCircle
 10
292.140875
 20
427.903297
 40
1.0
100
AcDbArc
 50
90.0
 51
180.0
  0
ARC
  5
764
100
AcDbEntity
  8
M0
100
AcDbCircle
 10
311.340875
 20
429.303297
 40
3.0
100
AcDbArc
 50
270.0
 51
360.0
  0
LINE
  5
765
100
AcDbEntity
  8
M0
100
AcDbLine
 10
372.740875
 20
421.503297
 11
374.940875
 21
421.503297
  0
LINE
  5
766
100
AcDbEntity
  8
M0
100
AcDbLine
 10
371.740875
 20
422.503297
 11
372.740875
 21
421.503297
  0
LINE
  5
767
100
AcDbEntity
  8
M0
100
AcDbLine
 10
374.940875
 20
372.233604
 11
374.940875
 21
364.203297
  0
LINE
  5
768
100
AcDbEntity
  8
M0
100
AcDbLine
 10
345.455089
 20
444.203295
 11
364.240875
 21
444.203295
  0
LINE
  5
769
100
AcDbEntity
  8
M0
100
AcDbLine
 10
288.840874
 20
399.703296
 11
288.840874
 21
395.203297
  0
LINE
  5
76A
100
AcDbEntity
  8
M0
100
AcDbLine
 10
375.240875
 20
375.17299
 11
374.940875
 21
375.17299
  0
LINE
  5
76B
100
AcDbEntity
  8
M0
100
AcDbLine
 10
287.340871
 20
399.703296
 11
288.840874
 21
399.703296
  0
LINE
  5
76C
100
AcDbEntity
  8
M0
100
AcDbLine
 10
287.840872
 20
417.203297
 11
291.140876
 21
417.203297
  0
LINE
  5
76D
100
AcDbEntity
  8
M0
100
AcDbLine
 10
347.440875
 20
391.103296
 11
340.040875
 21
391.103296
  0
LINE
  5
76E
100
AcDbEntity
  8
M0
100
AcDbLine
 10
347.440875
 20
421.303297
 11
340.040875
 21
421.303297
  0
LINE
  5
76F
100
AcDbEntity
  8
M0
100
AcDbLine
 10
338.040876
 20
400.703297
 11
338.040876
 21
411.703297
  0
LINE
  5
770
100
AcDbEntity
  8
M0
100
AcDbLine
 10
288.840874
 20
416.203296
 11
288.840874
 21
412.303297
  0
LINE
  5
771
100
AcDbEntity
  8
M0
100
AcDbLine
 10
363.240875
 20
365.703297
 11
363.240875
 21
366.703295
  0
LINE
  5
772
100
AcDbEntity
  8
M0
100
AcDbLine
 10
351.240874
 20
374.703296
 11
364.240875
 21
374.703296
  0
LINE
  5
773
100
AcDbEntity
  8
M0
100
AcDbLine
 10
338.540874
 20
400.203297
 11
340.040875
 21
400.203297
  0
ARC
  5
774
100
AcDbEntity
  8
M0
100
AcDbCircle
 10
299.940875
 20
423.303297
 40
3.0
100
AcDbArc
 50
90.0
 51
180.0
  0
LINE
  5
775
100
AcDbEntity
  8
M0
100
AcDbLine
 10
374.440875
 20
363.703296
 11
334.340875
 21
363.703296
  0
LINE
  5
776
100
AcDbEntity
  8
M0
100
AcDbLine
 10
288.840874
 20
410.803297
 11
287.340871
 21
410.803297
  0
LINE
  5
777
100
AcDbEntity
  8
M0
100
AcDbLine
 10
375.240875
 20
441.733603
 11
374.940875
 21
441.733603
  0
LINE
  5
778
100
AcDbEntity
  8
M0
100
AcDbLine
 10
375.240875
 20
372.233604
 11
374.940875
 21
372.233604
  0
LINE
  5
779
100
AcDbEntity
  8
M0
100
AcDbLine
 10
371.740875
 20
424.003296
 11
371.740875
 21
422.503297
  0
LINE
  5
77A
100
AcDbEntity
  8
M0
100
AcDbLine
 10
338.540874
 20
412.203297
 11
340.040875
 21
412.203297
  0
LINE
  5
77B
100
AcDbEntity
  8
M0
100
AcDbLine
 10
288.840874
 20
412.303297
 11
288.840874
 21
410.803297
  0
LINE
  5
77C
100
AcDbEntity
  8
M0
100
AcDbLine
 10
288.840874
 20
412.303297
 11
287.340871
 21
412.303297
  0
LINE
  5
77D
100
AcDbEntity
  8
M0
100
AcDbLine
 10
286.840878
 20
395.703297
 11
286.840878
 21
416.703297
  0
LINE
  5
77E
100
AcDbEntity
  8
M0
100
AcDbLine
 10
374.440875
 20
382.403296
 11
365.240875
 21
382.403296
  0
LINE
  5
77F
100
AcDbEntity
  8
M0
100
AcDbLine
 10
287.340871
 20
395.203297
 11
291.140876
 21
395.203297
  0
LINE
  5
780
100
AcDbEntity
  8
M0
100
AcDbLine
 10
287.840872
 20
417.203297
 11
287.340871
 21
417.203297
  0
LINE
  5
781
100
AcDbEntity
  8
M0
100
AcDbLine
 10
374.440875
 20
377.403297
 11
365.240875
 21
377.403297
  0
LINE
  5
782
100
AcDbEntity
  8
M0
100
AcDbLine
 10
351.940875
 20
392.019525
 11
351.940875
 21
389.142741
  0
LINE
  5
783
100
AcDbEntity
  8
M0
100
AcDbLine
 10
364.240875
 20
364.703297
 11
364.240875
 21
381.407777
  0
LINE
  5
784
100
AcDbEntity
  8
M0
100
AcDbLine
 10
338.240876
 20
400.003296
 11
340.040875
 21
400.003296
  0
ARC
  5
785
100
AcDbEntity
  8
M0
100
AcDbCircle
 10
367.440875
 20
423.563852
 40
0.3
100
AcDbArc
 50
270.0
 51
360.0
  0
ARC
  5
786
100
AcDbEntity
  8
M0
100
AcDbCircle
 10
367.440875
 20
420.087069
 40
0.3
100
AcDbArc
 50
0.0
 51
90.0
  0
ARC
  5
787
100
AcDbEntity
  8
M0
100
AcDbCircle
 10
337.740875
 20
402.203297
 40
0.5
100
AcDbArc
 50
270.0
 51
306.869898
  0
ARC
  5
788
100
AcDbEntity
  8
M0
100
AcDbCircle
 10
367.440875
 20
392.319524
 40
0.3
100
AcDbArc
 50
270.0
 51
360.0
  0
ARC
  5
789
100
AcDbEntity
  8
M0
100
AcDbCircle
 10
329.340875
 20
403.703297
 40
0.5
100
AcDbArc
 50
336.421822
 51
360.0
  0
ARC
  5
78A
100
AcDbEntity
  8
M0
100
AcDbCircle
 10
324.187369
 20
445.703297
 40
3.0
100
AcDbArc
 50
32.275644
 51
90.0
  0
ARC
  5
78B
100
AcDbEntity
  8
M0
100
AcDbCircle
 10
353.340875
 20
447.289083
 40
1.0
100
AcDbArc
 50
0.0
 51
45.0
  0
ARC
  5
78C
100
AcDbEntity
  8
M0
100
AcDbCircle
 10
348.926661
 20
451.703297
 40
1.0
100
AcDbArc
 50
45.0
 51
90.0
  0
LINE
  5
78D
100
AcDbEntity
  8
M0
100
AcDbLine
 10
331.840876
 20
439.203296
 11
340.040875
 21
439.203296
  0
LINE
  5
78E
100
AcDbEntity
  8
M0
100
AcDbLine
 10
340.040875
 20
369.703297
 11
331.840876
 21
369.703297
  0
LINE
  5
78F
100
AcDbEntity
  8
M0
100
AcDbLine
 10
324.598233
 20
363.703296
 11
298.840872
 21
363.703296
  0
LINE
  5
790
100
AcDbEntity
  8
M0
100
AcDbLine
 10
338.040876
 20
410.503297
 11
337.740875
 21
410.503297
  0
LINE
  5
791
100
AcDbEntity
  8
M0
100
AcDbLine
 10
287.340871
 20
417.203297
 11
287.840872
 21
417.203297
  0
ARC
  5
792
100
AcDbEntity
  8
M0
100
AcDbCircle
 10
326.840875
 20
403.703297
 40
0.5
100
AcDbArc
 50
180.0
 51
203.578178
  0
LINE
  5
793
100
AcDbEntity
  8
M0
100
AcDbLine
 10
331.829562
 20
378.87894
 11
331.829562
 21
369.703297
  0
LINE
  5
794
100
AcDbEntity
  8
M0
100
AcDbLine
 10
331.840876
 20
369.703297
 11
326.719555
 21
364.581977
  0
ARC
  5
795
100
AcDbEntity
  8
M0
100
AcDbCircle
 10
311.340875
 20
383.103297
 40
3.0
100
AcDbArc
 50
0.0
 51
90.0
  0
ARC
  5
796
100
AcDbEntity
  8
M0
100
AcDbCircle
 10
329.840875
 20
450.003297
 40
1.0
100
AcDbArc
 50
143.130102
 51
180.0
  0
ARC
  5
797
100
AcDbEntity
  8
M0
100
AcDbCircle
 10
299.940875
 20
389.103297
 40
3.0
100
AcDbArc
 50
180.0
 51
270.0
  0
ARC
  5
798
100
AcDbEntity
  8
M0
100
AcDbCircle
 10
294.840875
 20
411.403297
 40
1.0
100
AcDbArc
 50
90.0
 51
180.0
  0
LINE
  5
799
100
AcDbEntity
  8
M0
100
AcDbLine
 10
328.840873
 20
443.953295
 11
328.840873
 21
450.003297
  0
LINE
  5
79A
100
AcDbEntity
  8
M0
100
AcDbLine
 10
293.840877
 20
413.403297
 11
291.640877
 21
413.403297
  0
ARC
  5
79B
100
AcDbEntity
  8
M0
100
AcDbCircle
 10
287.340875
 20
416.703297
 40
0.5
100
AcDbArc
 50
90.0
 51
180.0
  0
ARC
  5
79C
100
AcDbEntity
  8
M0
100
AcDbCircle
 10
298.840875
 20
443.703297
 40
5.0
100
AcDbArc
 50
90.0
 51
180.0
  0
ARC
  5
79D
100
AcDbEntity
  8
M0
100
AcDbCircle
 10
329.540875
 20
452.203297
 40
0.5
100
AcDbArc
 50
90.0
 51
180.0
  0
ARC
  5
79E
100
AcDbEntity
  8
M0
100
AcDbCircle
 10
297.940875
 20
410.903297
 40
1.0
100
AcDbArc
 50
180.0
 51
270.0
  0
ARC
  5
79F
100
AcDbEntity
  8
M0
100
AcDbCircle
 10
337.740875
 20
409.203297
 40
0.5
100
AcDbArc
 50
53.130102
 51
90.0
  0
ARC
  5
7A0
100
AcDbEntity
  8
M0
100
AcDbCircle
 10
367.440875
 20
388.842742
 40
0.3
100
AcDbArc
 50
0.0
 51
90.0
  0
ARC
  5
7A1
100
AcDbEntity
  8
M0
100
AcDbCircle
 10
298.840875
 20
368.703297
 40
5.0
100
AcDbArc
 50
180.0
 51
270.0
  0
ARC
  5
7A2
100
AcDbEntity
  8
M0
100
AcDbCircle
 10
317.340875
 20
381.853297
 40
3.0
100
AcDbArc
 50
180.0
 51
270.0
  0
ARC
  5
7A3
100
AcDbEntity
  8
M0
100
AcDbCircle
 10
297.940875
 20
401.503297
 40
1.0
100
AcDbArc
 50
90.0
 51
180.0
  0
ARC
  5
7A4
100
AcDbEntity
  8
M0
100
AcDbCircle
 10
334.340875
 20
364.703297
 40
1.0
100
AcDbArc
 50
180.0
 51
270.0
  0
LINE
  5
7A5
100
AcDbEntity
  8
M0
100
AcDbLine
 10
296.940877
 20
389.103296
 11
296.940877
 21
401.503297
  0
LINE
  5
7A6
100
AcDbEntity
  8
M0
100
AcDbLine
 10
374.940875
 20
447.203298
 11
374.940875
 21
446.953297
  0
LINE
  5
7A7
100
AcDbEntity
  8
M0
100
AcDbLine
 10
370.740875
 20
388.403297
 11
370.740875
 21
424.003296
  0
LINE
  5
7A8
100
AcDbEntity
  8
M0
100
AcDbLine
 10
341.240875
 20
452.703298
 11
340.740876
 21
452.703298
  0
LINE
  5
7A9
100
AcDbEntity
  8
M0
100
AcDbLine
 10
375.240875
 20
434.955307
 11
374.940875
 21
434.955307
  0
LINE
  5
7AA
100
AcDbEntity
  8
M0
100
AcDbLine
 10
374.940875
 20
441.733603
 11
374.940875
 21
421.503297
  0
LINE
  5
7AB
100
AcDbEntity
  8
M0
100
AcDbLine
 10
298.840872
 20
448.703297
 11
324.187367
 21
448.703297
  0
LINE
  5
7AC
100
AcDbEntity
  8
M0
100
AcDbLine
 10
375.240875
 20
434.953297
 11
374.940875
 21
434.953297
  0
LINE
  5
7AD
100
AcDbEntity
  8
M0
100
AcDbLine
 10
293.840877
 20
401.703297
 11
291.140876
 21
401.703297
  0
LINE
  5
7AE
100
AcDbEntity
  8
M0
100
AcDbLine
 10
329.040873
 20
443.63663
 11
329.040873
 21
449.703295
  0
LINE
  5
7AF
100
AcDbEntity
  8
M0
100
AcDbLine
 10
367.440875
 20
420.387068
 11
351.940875
 21
420.387068
  0
LINE
  5
7B0
100
AcDbEntity
  8
M0
100
AcDbLine
 10
340.140875
 20
452.703298
 11
348.926661
 21
452.703298
  0
LINE
  5
7B1
100
AcDbEntity
  8
M0
100
AcDbLine
 10
351.940875
 20
423.263852
 11
367.440875
 21
423.263852
  0
LINE
  5
7B2
100
AcDbEntity
  8
M0
100
AcDbLine
 10
349.633768
 20
452.410404
 11
354.047981
 21
447.996189
  0
LINE
  5
7B3
100
AcDbEntity
  8
M0
100
AcDbLine
 10
340.140875
 20
452.703298
 11
332.040875
 21
452.703298
  0
LINE
  5
7B4
100
AcDbEntity
  8
M0
100
AcDbLine
 10
354.340875
 20
447.289084
 11
354.340875
 21
444.203295
  0
LINE
  5
7B5
100
AcDbEntity
  8
M0
100
AcDbLine
 10
326.723836
 20
447.305274
 11
331.840876
 21
439.203296
  0
LINE
  5
7B6
100
AcDbEntity
  8
M0
100
AcDbLine
 10
296.940877
 20
400.003296
 11
294.840872
 21
400.003296
  0
LINE
  5
7B7
100
AcDbEntity
  8
M0
100
AcDbLine
 10
294.840872
 20
412.403297
 11
296.940877
 21
412.403297
  0
LINE
  5
7B8
100
AcDbEntity
  8
M0
100
AcDbLine
 10
293.840877
 20
368.703297
 11
293.840877
 21
443.703297
  0
LINE
  5
7B9
100
AcDbEntity
  8
M0
100
AcDbLine
 10
331.829562
 20
439.203296
 11
331.829562
 21
433.527653
  0
LINE
  5
7BA
100
AcDbEntity
  8
M0
100
AcDbLine
 10
331.438142
 20
378.853297
 11
317.340876
 21
378.853297
  0
LINE
  5
7BB
100
AcDbEntity
  8
M0
100
AcDbLine
 10
375.240875
 20
434.955307
 11
375.240875
 21
434.953297
  0
LINE
  5
7BC
100
AcDbEntity
  8
M0
100
AcDbLine
 10
297.940872
 20
409.903297
 11
297.940872
 21
402.503297
  0
LINE
  5
7BD
100
AcDbEntity
  8
M0
100
AcDbLine
 10
375.240875
 20
377.403297
 11
375.240875
 21
364.453298
  0
LINE
  5
7BE
100
AcDbEntity
  8
M0
100
AcDbLine
 10
311.340875
 20
386.103297
 11
299.940876
 21
386.103297
  0
LINE
  5
7BF
100
AcDbEntity
  8
M0
100
AcDbLine
 10
291.140876
 20
416.203296
 11
288.840874
 21
416.203296
  0
LINE
  5
7C0
100
AcDbEntity
  8
M0
100
AcDbLine
 10
299.940876
 20
402.503297
 11
297.940872
 21
402.503297
  0
LINE
  5
7C1
100
AcDbEntity
  8
M0
100
AcDbLine
 10
340.040875
 20
381.403296
 11
335.540875
 21
381.403296
  0
LINE
  5
7C2
100
AcDbEntity
  8
M0
100
AcDbLine
 10
329.840875
 20
403.703297
 11
329.840875
 21
408.903297
  0
LINE
  5
7C3
100
AcDbEntity
  8
M0
100
AcDbLine
 10
314.340874
 20
381.853296
 11
314.340874
 21
383.103297
  0
LINE
  5
7C4
100
AcDbEntity
  8
M0
100
AcDbLine
 10
335.540875
 20
381.403296
 11
333.38109
 21
379.567478
  0
LINE
  5
7C5
100
AcDbEntity
  8
M0
100
AcDbLine
 10
375.240875
 20
446.953297
 11
375.240875
 21
434.953297
  0
LINE
  5
7C6
100
AcDbEntity
  8
M0
100
AcDbLine
 10
374.940875
 20
447.203298
 11
374.940875
 21
444.672991
  0
LINE
  5
7C7
100
AcDbEntity
  8
M0
100
AcDbLine
 10
375.240875
 20
444.672991
 11
374.940875
 21
444.672991
  0
LINE
  5
7C8
100
AcDbEntity
  8
M0
100
AcDbLine
 10
365.240875
 20
447.703295
 11
374.440875
 21
447.703295
  0
LINE
  5
7C9
100
AcDbEntity
  8
M0
100
AcDbLine
 10
347.440875
 20
386.103297
 11
347.440875
 21
391.103296
  0
LINE
  5
7CA
100
AcDbEntity
  8
M0
100
AcDbLine
 10
374.940875
 20
387.903296
 11
374.940875
 21
375.17299
  0
LINE
  5
7CB
100
AcDbEntity
  8
M0
100
AcDbLine
 10
369.740875
 20
392.403297
 11
367.740875
 21
392.403297
  0
LINE
  5
7CC
100
AcDbEntity
  8
M0
100
AcDbLine
 10
367.740875
 20
388.842742
 11
367.740875
 21
388.403297
  0
LINE
  5
7CD
100
AcDbEntity
  8
M0
100
AcDbLine
 10
335.540875
 20
431.003297
 11
364.240875
 21
431.003297
  0
LINE
  5
7CE
100
AcDbEntity
  8
M0
100
AcDbLine
 10
299.940876
 20
409.903297
 11
297.940872
 21
409.903297
  0
LINE
  5
7CF
100
AcDbEntity
  8
M0
100
AcDbLine
 10
364.240875
 20
365.203296
 11
363.740875
 21
365.203296
  0
LINE
  5
7D0
100
AcDbEntity
  8
M0
100
AcDbLine
 10
296.940877
 20
410.903297
 11
296.940877
 21
423.303297
  0
LINE
  5
7D1
100
AcDbEntity
  8
M0
100
AcDbLine
 10
347.440875
 20
426.303296
 11
340.040875
 21
426.303296
  0
LINE
  5
7D2
100
AcDbEntity
  8
M0
100
AcDbLine
 10
367.740875
 20
424.003296
 11
367.740875
 21
423.563852
  0
LINE
  5
7D3
100
AcDbEntity
  8
M0
100
AcDbLine
 10
347.440875
 20
386.103297
 11
340.040875
 21
386.103297
  0
LINE
  5
7D4
100
AcDbEntity
  8
M0
100
AcDbLine
 10
351.940875
 20
423.263852
 11
351.940875
 21
420.387068
  0
ARC
  5
7D5
100
AcDbEntity
  8
M0
100
AcDbCircle
 10
290.640875
 20
392.703297
 40
0.5
100
AcDbArc
 50
90.0
 51
180.0
  0
ARC
  5
7D6
100
AcDbEntity
  8
M0
100
AcDbCircle
 10
290.640875
 20
391.703297
 40
0.5
100
AcDbArc
 50
180.0
 51
270.0
  0
ARC
  5
7D7
100
AcDbEntity
  8
M0
100
AcDbCircle
 10
331.438144
 20
381.853297
 40
3.0
100
AcDbArc
 50
270.0
 51
310.364537
  0
ARC
  5
7D8
100
AcDbEntity
  8
M0
100
AcDbCircle
 10
324.598234
 20
366.703297
 40
3.0
100
AcDbArc
 50
270.0
 51
315.0
  0
ARC
  5
7D9
100
AcDbEntity
  8
M0
100
AcDbCircle
 10
292.140875
 20
384.503297
 40
1.0
100
AcDbArc
 50
180.0
 51
270.0
  0
ARC
  5
7DA
100
AcDbEntity
  8
M0
100
AcDbCircle
 10
291.640875
 20
413.903297
 40
0.5
100
AcDbArc
 50
180.0
 51
270.0
  0
ARC
  5
7DB
100
AcDbEntity
  8
M0
100
AcDbCircle
 10
337.240875
 20
409.403297
 40
0.5
100
AcDbArc
 50
270.0
 51
360.0
  0
ARC
  5
7DC
100
AcDbEntity
  8
M0
100
AcDbCircle
 10
325.540875
 20
408.403297
 40
0.5
100
AcDbArc
 50
90.0
 51
180.0
  0
LINE
  5
7DD
100
AcDbEntity
  8
M0
100
AcDbLine
 10
367.740875
 20
388.403297
 11
374.440875
 21
388.403297
  0
LINE
  5
7DE
100
AcDbEntity
  8
M0
100
AcDbLine
 10
371.040875
 20
420.503297
 11
371.040875
 21
418.503296
  0
LINE
  5
7DF
100
AcDbEntity
  8
M0
100
AcDbLine
 10
364.240875
 20
381.403296
 11
340.040875
 21
381.403296
  0
LINE
  5
7E0
100
AcDbEntity
  8
M0
100
AcDbLine
 10
371.040875
 20
420.503297
 11
370.740875
 21
421.503297
  0
LINE
  5
7E1
100
AcDbEntity
  8
M0
100
AcDbLine
 10
340.040875
 20
369.703297
 11
345.324795
 21
369.703297
  0
ARC
  5
7E2
100
AcDbEntity
  8
M0
100
AcDbCircle
 10
294.840875
 20
401.003297
 40
1.0
100
AcDbArc
 50
180.0
 51
270.0
  0
LINE
  5
7E3
100
AcDbEntity
  8
M0
100
AcDbLine
 10
370.740875
 20
418.003297
 11
371.040875
 21
418.503296
  0
LINE
  5
7E4
100
AcDbEntity
  8
M0
100
AcDbLine
 10
340.040875
 20
439.203296
 11
344.747982
 21
443.910402
  0
LINE
  5
7E5
100
AcDbEntity
  8
M0
100
AcDbLine
 10
291.140876
 20
391.203297
 11
290.640875
 21
391.203297
  0
LINE
  5
7E6
100
AcDbEntity
  8
M0
100
AcDbLine
 10
292.640872
 20
407.703297
 11
292.640872
 21
404.703297
  0
LINE
  5
7E7
100
AcDbEntity
  8
M0
100
AcDbLine
 10
291.640877
 20
399.003297
 11
293.840877
 21
399.003297
  0
LINE
  5
7E8
100
AcDbEntity
  8
M0
100
AcDbLine
 10
292.640872
 20
413.403297
 11
292.640872
 21
410.703296
  0
LINE
  5
7E9
100
AcDbEntity
  8
M0
100
AcDbLine
 10
290.640875
 20
393.203296
 11
291.140876
 21
393.203296
  0
LINE
  5
7EA
100
AcDbEntity
  8
M0
100
AcDbLine
 10
290.140874
 20
391.703297
 11
290.140874
 21
392.703296
  0
LINE
  5
7EB
100
AcDbEntity
  8
M0
100
AcDbLine
 10
292.640872
 20
399.003297
 11
292.640872
 21
401.703297
  0
LINE
  5
7EC
100
AcDbEntity
  8
M0
100
AcDbLine
 10
333.340875
 20
364.703298
 11
333.340875
 21
369.703297
  0
LINE
  5
7ED
100
AcDbEntity
  8
M0
100
AcDbLine
 10
325.540873
 20
403.503297
 11
337.240874
 21
403.503297
  0
LINE
  5
7EE
100
AcDbEntity
  8
M0
100
AcDbLine
 10
337.740875
 20
411.903297
 11
337.740875
 21
409.403297
  0
LINE
  5
7EF
100
AcDbEntity
  8
M0
100
AcDbLine
 10
292.140878
 20
428.903297
 11
293.840877
 21
428.903297
  0
LINE
  5
7F0
100
AcDbEntity
  8
M0
100
AcDbLine
 10
293.840877
 20
407.703297
 11
291.140876
 21
407.703297
  0
LINE
  5
7F1
100
AcDbEntity
  8
M0
100
AcDbLine
 10
293.840877
 20
383.503296
 11
292.140878
 21
383.503296
  0
LINE
  5
7F2
100
AcDbEntity
  8
M0
100
AcDbLine
 10
291.140876
 20
404.703297
 11
293.840877
 21
404.703297
  0
LINE
  5
7F3
100
AcDbEntity
  8
M0
100
AcDbLine
 10
325.040876
 20
408.403297
 11
325.040876
 21
404.003297
  0
LINE
  5
7F4
100
AcDbEntity
  8
M0
100
AcDbLine
 10
291.140876
 20
410.703296
 11
293.840877
 21
410.703296
  0
LINE
  5
7F5
100
AcDbEntity
  8
M0
100
AcDbLine
 10
299.940876
 20
402.503297
 11
299.940876
 21
409.903297
  0
LINE
  5
7F6
100
AcDbEntity
  8
M0
100
AcDbLine
 10
374.440875
 20
424.003296
 11
367.740875
 21
424.003296
  0
LINE
  5
7F7
100
AcDbEntity
  8
M0
100
AcDbLine
 10
299.940876
 20
426.303296
 11
311.340875
 21
426.303296
  0
LINE
  5
7F8
100
AcDbEntity
  8
M0
100
AcDbLine
 10
340.040875
 20
412.203297
 11
340.040875
 21
439.203296
  0
LINE
  5
7F9
100
AcDbEntity
  8
M0
100
AcDbLine
 10
333.38109
 20
432.839115
 11
335.540875
 21
431.003297
  0
LINE
  5
7FA
100
AcDbEntity
  8
M0
100
AcDbLine
 10
364.240875
 20
367.703297
 11
363.240875
 21
366.703295
  0
LINE
  5
7FB
100
AcDbEntity
  8
M0
100
AcDbLine
 10
367.740875
 20
420.003296
 11
369.740875
 21
420.003296
  0
LINE
  5
7FC
100
AcDbEntity
  8
M0
100
AcDbLine
 10
314.340874
 20
429.303297
 11
314.340874
 21
430.553297
  0
LINE
  5
7FD
100
AcDbEntity
  8
M0
100
AcDbLine
 10
338.240876
 20
412.403297
 11
340.040875
 21
412.403297
  0
LINE
  5
7FE
100
AcDbEntity
  8
M0
100
AcDbLine
 10
291.140876
 20
384.503296
 11
291.140876
 21
427.903297
  0
LINE
  5
7FF
100
AcDbEntity
  8
M0
100
AcDbLine
 10
300.940878
 20
410.903297
 11
300.940878
 21
401.503297
  0
LINE
  5
800
100
AcDbEntity
  8
M0
100
AcDbLine
 10
325.540873
 20
408.903297
 11
337.240874
 21
408.903297
  0
LINE
  5
801
100
AcDbEntity
  8
M0
100
AcDbLine
 10
347.440875
 20
421.303297
 11
347.440875
 21
426.303296
  0
LINE
  5
802
100
AcDbEntity
  8
M0
100
AcDbLine
 10
364.240875
 20
431.003297
 11
364.240875
 21
446.703297
  0
LINE
  5
803
100
AcDbEntity
  8
M0
100
AcDbLine
 10
317.340876
 20
433.553296
 11
331.438142
 21
433.553296
  0
LINE
  5
804
100
AcDbEntity
  8
M0
100
AcDbLine
 10
337.740875
 20
403.003297
 11
337.740875
 21
400.503297
  0
CIRCLE
  5
805
100
AcDbEntity
  8
M0
100
AcDbCircle
 10
200.973807
 20
435.703297
 40
5.0
  0
CIRCLE
  5
806
100
AcDbEntity
  8
M0
100
AcDbCircle
 10
183.373807
 20
435.703297
 40
5.0
  0
CIRCLE
  5
807
100
AcDbEntity
  8
M0
100
AcDbCircle
 10
165.773807
 20
435.703297
 40
5.0
  0
CIRCLE
  5
808
100
AcDbEntity
  8
M0
100
AcDbCircle
 10
200.973807
 20
376.703235
 40
5.0
  0
CIRCLE
  5
809
100
AcDbEntity
  8
M0
100
AcDbCircle
 10
183.373807
 20
376.703235
 40
5.0
  0
CIRCLE
  5
80A
100
AcDbEntity
  8
M0
100
AcDbCircle
 10
165.773807
 20
376.703235
 40
5.0
  0
CIRCLE
  5
80B
100
AcDbEntity
  8
M0
100
AcDbCircle
 10
114.07381
 20
376.703235
 40
5.0
  0
CIRCLE
  5
80C
100
AcDbEntity
  8
M0
100
AcDbCircle
 10
96.47381
 20
376.703235
 40
5.0
  0
CIRCLE
  5
80D
100
AcDbEntity
  8
M0
100
AcDbCircle
 10
78.87381
 20
376.703235
 40
5.0
  0
CIRCLE
  5
80E
100
AcDbEntity
  8
M0
100
AcDbCircle
 10
78.87381
 20
435.703297
 40
5.0
  0
CIRCLE
  5
80F
100
AcDbEntity
  8
M0
100
AcDbCircle
 10
96.47381
 20
435.703297
 40
5.0
  0
CIRCLE
  5
810
100
AcDbEntity
  8
M0
100
AcDbCircle
 10
114.07381
 20
435.703297
 40
5.0
  0
CIRCLE
  5
811
100
AcDbEntity
  8
M0
  6
DIVIDE
 62
     7
100
AcDbCircle
 10
60.97381
 20
245.907204
 40
1.7
  0
CIRCLE
  5
812
100
AcDbEntity
  8
M0
  6
DIVIDE
 62
     7
100
AcDbCircle
 10
131.97381
 20
180.907204
 40
1.7
  0
CIRCLE
  5
813
100
AcDbEntity
  8
M0
  6
DIVIDE
 62
     7
100
AcDbCircle
 10
60.97381
 20
245.907204
 40
2.0
  0
CIRCLE
  5
814
100
AcDbEntity
  8
M0
  6
DIVIDE
 62
     7
100
AcDbCircle
 10
131.97381
 20
180.907204
 40
2.0
  0
CIRCLE
  5
815
100
AcDbEntity
  8
M0
  6
DIVIDE
 62
     7
100
AcDbCircle
 10
218.873807
 20
180.907204
 40
2.0
  0
CIRCLE
  5
816
100
AcDbEntity
  8
M0
  6
DIVIDE
 62
     7
100
AcDbCircle
 10
218.873807
 20
180.907204
 40
1.7
  0
CIRCLE
  5
817
100
AcDbEntity
  8
M0
  6
DIVIDE
 62
     7
100
AcDbCircle
 10
147.873807
 20
245.907204
 40
2.0
  0
CIRCLE
  5
818
100
AcDbEntity
  8
M0
  6
DIVIDE
 62
     7
100
AcDbCircle
 10
147.873807
 20
245.907204
 40
1.7
  0
LINE
  5
819
100
AcDbEntity
  8
M0
  6
DIVIDE
 62
     7
100
AcDbLine
 10
135.42381
 20
188.007205
 11
144.423807
 21
188.007205
  0
LINE
  5
81A
100
AcDbEntity
  8
M0
  6
DASHDOT
 62
     7
100
AcDbLine
 10
65.071214
 20
245.907204
 11
56.876405
 21
245.907204
  0
LINE
  5
81B
100
AcDbEntity
  8
M0
  6
DASHDOT
 62
     7
100
AcDbLine
 10
151.971212
 20
245.907204
 11
143.776403
 21
245.907204
  0
LINE
  5
81C
100
AcDbEntity
  8
M0
  6
DASHDOT
 62
     7
100
AcDbLine
 10
60.973802
 20
250.004601
 11
60.973817
 21
241.809792
  0
LINE
  5
81D
100
AcDbEntity
  8
M0
  6
DASHDOT
 62
     7
100
AcDbLine
 10
136.071214
 20
180.907204
 11
127.876405
 21
180.907204
  0
LINE
  5
81E
100
AcDbEntity
  8
M0
  6
DASHDOT
 62
     7
100
AcDbLine
 10
222.971212
 20
180.907204
 11
214.776403
 21
180.907204
  0
LINE
  5
81F
100
AcDbEntity
  8
M0
  6
DIVIDE
 62
     7
100
AcDbLine
 10
135.42381
 20
238.807205
 11
144.423807
 21
238.807205
  0
LINE
  5
820
100
AcDbEntity
  8
M0
  6
DASHDOT
 62
     7
100
AcDbLine
 10
147.8738
 20
250.004601
 11
147.873815
 21
241.809792
  0
LINE
  5
821
100
AcDbEntity
  8
M0
  6
DASHDOT
 62
     7
100
AcDbLine
 10
218.8738
 20
185.004601
 11
218.873815
 21
176.809792
  0
LINE
  5
822
100
AcDbEntity
  8
M0
  6
DASHDOT
 62
     7
100
AcDbLine
 10
131.973802
 20
185.004601
 11
131.973817
 21
176.809792
  0
LINE
  5
823
100
AcDbEntity
  8
M0
  6
DASHDOT
 62
     7
100
AcDbLine
 10
139.923808
 20
268.239629
 11
139.923808
 21
156.606028
  0
LINE
  5
824
100
AcDbEntity
  8
M0
  6
DIVIDE
 62
     7
100
AcDbLine
 10
160.923807
 20
255.907204
 11
144.423807
 21
255.907204
  0
LINE
  5
825
100
AcDbEntity
  8
M0
  6
DIVIDE
 62
     7
100
AcDbLine
 10
144.423807
 20
255.907204
 11
144.423807
 21
238.807205
  0
LINE
  5
826
100
AcDbEntity
  8
M0
  6
DIVIDE
 62
     7
100
AcDbLine
 10
160.923807
 20
255.907204
 11
160.923807
 21
259.907205
  0
LINE
  5
827
100
AcDbEntity
  8
M0
  6
DIVIDE
 62
     7
100
AcDbLine
 10
205.823807
 20
255.907204
 11
205.823807
 21
259.907205
  0
LINE
  5
828
100
AcDbEntity
  8
M0
  6
DIVIDE
 62
     7
100
AcDbLine
 10
205.823807
 20
255.907204
 11
222.323807
 21
255.907204
  0
LINE
  5
829
100
AcDbEntity
  8
M0
  6
DIVIDE
 62
     7
100
AcDbLine
 10
160.923807
 20
259.907205
 11
205.823807
 21
259.907205
  0
LINE
  5
82A
100
AcDbEntity
  8
M0
  6
DIVIDE
 62
     7
100
AcDbLine
 10
222.323807
 20
170.907203
 11
222.323807
 21
255.907204
  0
LINE
  5
82B
100
AcDbEntity
  8
M0
  6
DIVIDE
 62
     7
100
AcDbLine
 10
222.323807
 20
170.907203
 11
144.423807
 21
170.907205
  0
LINE
  5
82C
100
AcDbEntity
  8
M0
  6
DIVIDE
 62
     7
100
AcDbLine
 10
144.423807
 20
188.007205
 11
144.423807
 21
170.907203
  0
LINE
  5
82D
100
AcDbEntity
  8
M0
  6
DIVIDE
 62
     7
100
AcDbLine
 10
74.02381
 20
255.907204
 11
57.52381
 21
255.907204
  0
LINE
  5
82E
100
AcDbEntity
  8
M0
  6
DIVIDE
 62
     7
100
AcDbLine
 10
57.52381
 20
255.907204
 11
57.52381
 21
170.907203
  0
LINE
  5
82F
100
AcDbEntity
  8
M0
  6
DIVIDE
 62
     7
100
AcDbLine
 10
74.02381
 20
255.907204
 11
74.02381
 21
259.907205
  0
LINE
  5
830
100
AcDbEntity
  8
M0
  6
DIVIDE
 62
     7
100
AcDbLine
 10
118.92381
 20
255.907204
 11
118.92381
 21
259.907205
  0
LINE
  5
831
100
AcDbEntity
  8
M0
  6
DIVIDE
 62
     7
100
AcDbLine
 10
118.92381
 20
255.907204
 11
135.42381
 21
255.907204
  0
LINE
  5
832
100
AcDbEntity
  8
M0
  6
DIVIDE
 62
     7
100
AcDbLine
 10
74.02381
 20
259.907205
 11
118.92381
 21
259.907205
  0
LINE
  5
833
100
AcDbEntity
  8
M0
  6
DIVIDE
 62
     7
100
AcDbLine
 10
135.42381
 20
170.907203
 11
135.42381
 21
188.007205
  0
LINE
  5
834
100
AcDbEntity
  8
M0
  6
DIVIDE
 62
     7
100
AcDbLine
 10
135.42381
 20
170.907203
 11
57.52381
 21
170.907205
  0
LINE
  5
835
100
AcDbEntity
  8
M0
  6
DIVIDE
 62
     7
100
AcDbLine
 10
135.42381
 20
238.807205
 11
135.42381
 21
255.907204
  0
LINE
  5
836
100
AcDbEntity
  8
M3
 62
     2
100
AcDbLine
 10
399.604359
 20
81.112386
 11
199.604359
 21
81.112386
  0
LINE
  5
837
100
AcDbEntity
  8
M3
 62
     2
100
AcDbLine
 10
19.604359
 20
21.112386
 11
19.604359
 21
571.112386
  0
LINE
  5
838
100
AcDbEntity
  8
M3
 62
     2
100
AcDbLine
 10
399.604359
 20
21.112386
 11
19.604359
 21
21.112386
  0
LINE
  5
839
100
AcDbEntity
  8
M3
 62
     2
100
AcDbLine
 10
399.604359
 20
41.112386
 11
199.604359
 21
41.112386
  0
TEXT
  5
83A
100
AcDbEntity
  8
M3
 62
     2
100
AcDbText
 10
203.937687
 20
46.112386
 40
10.0
  1
形　式；
  7
STANDARD
100
AcDbText
  0
LINE
  5
83B
100
AcDbEntity
  8
M3
 62
     2
100
AcDbLine
 10
399.604359
 20
61.112386
 11
199.604359
 21
61.112386
  0
TEXT
  5
83C
100
AcDbEntity
  8
M3
 62
     2
100
AcDbText
 10
203.937687
 20
66.112386
 40
10.0
  1
登録名：
  7
STANDARD
100
AcDbText
  0
LINE
  5
83D
100
AcDbEntity
  8
M3
 62
     2
100
AcDbLine
 10
199.604359
 20
21.112386
 11
199.604359
 21
81.112386
  0
TEXT
  5
83E
100
AcDbEntity
  8
M3
 62
     2
100
AcDbText
 10
203.937687
 20
26.112386
 40
10.0
  1
適　用；
  7
STANDARD
100
AcDbText
  0
LINE
  5
83F
100
AcDbEntity
  8
M3
 62
     2
100
AcDbLine
 10
19.604359
 20
571.112386
 11
399.604359
 21
571.112386
  0
LINE
  5
840
100
AcDbEntity
  8
M3
 62
     2
100
AcDbLine
 10
399.604359
 20
571.112386
 11
399.604359
 21
21.112386
  0
TEXT
  5
841
100
AcDbEntity
  8
M3
 62
     2
100
AcDbText
 10
252.27103
 20
66.112386
 40
10.0
  1
ＤＭＨＳ５０ＲＲ００
 41
0.5
  7
STANDARD
100
AcDbText
  0
TEXT
  5
842
100
AcDbEntity
  8
M3
 62
     2
100
AcDbText
 10
252.27103
 20
46.112386
 40
10.0
  1
ＨＳ５０－Ｒ
 41
0.5
  7
STANDARD
100
AcDbText
  0
LINE
  5
843
100
AcDbEntity
  8
DN0
100
AcDbLine
 10
122.797206
 20
137.070209
 11
155.257199
 21
137.070209
  0
TEXT
  5
844
100
AcDbEntity
  8
DN0
100
AcDbText
 10
123.693873
 20
137.870209
 40
8.0
  1
せん孔図
 41
0.833333
  7
STANDARD
100
AcDbText
  0
ENDSEC
  0
SECTION
  2
OBJECTS
  0
DICTIONARY
  5
C
100
AcDbDictionary
  3
ACAD_GROUP
350
D
  3
ACAD_MLINESTYLE
350
E
  3
ACDBVARIABLEDICTIONARY
350
3F5
  0
DICTIONARY
  5
D
102
{ACAD_REACTORS
330
C
102
}
100
AcDbDictionary
  0
DICTIONARY
  5
E
102
{ACAD_REACTORS
330
C
102
}
100
AcDbDictionary
  3
STANDARD
350
13
  0
DICTIONARY
  5
3F5
102
{ACAD_REACTORS
330
C
102
}
100
AcDbDictionary
  3
SORTENTS
350
3F6
  0
MLINESTYLE
  5
13
102
{ACAD_REACTORS
330
E
102
}
100
AcDbMlineStyle
  2
STANDARD
 70
     0
  3

 62
     0
 51
90.0
 52
90.0
 71
     2
 49
0.5
 62
   256
  6
BYLAYER
 49
-0.5
 62
   256
  6
BYLAYER
  0
DICTIONARYVAR
  5
3F6
102
{ACAD_REACTORS
330
3F5
102
}
100
DictionaryVariables
280
     0
  1
96
  0
ENDSEC
  0
EOF
