  0
SECTION
  2
HEADER
  9
$ACADVER
  1
AC1014
  9
$INSBASE
 10
0.000000
 20
0.000000
 30
0.0
  9
$VIEWCTR
 10
7.531722
 20
4.5
  9
$VIEWSIZE
 40
9.0
  9
$SNAPMODE
 70
     0
  9
$SNAPUNIT
 10
1.0
 20
1.0
  9
$SNAPBASE
 10
0.0
 20
0.0
  9
$SNAPANG
 50
0.0
  9
$SNAPSTYLE
 70
     0
  9
$SNAPISOPAIR
 70
     0
  9
$GRIDMODE
 70
     0
  9
$GRIDUNIT
 10
0.0
 20
0.0
  9
$ORTHOMODE
 70
     0
  9
$REGENMODE
 70
     1
  9
$FILLMODE
 70
     1
  9
$QTEXTMODE
 70
     0
  9
$DRAGMODE
 70
     2
  9
$LTSCALE
  40
     1.000000
  9
$OSMODE
 70
     0
  9
$ATTMODE
 70
     1
  9
$TEXTSIZE
 40
0.2
  9
$TRACEWID
 40
0.05
  9
$TEXTSTYLE
  7
STANDARD
  9
$CELTYPE
  6
BYLAYER
  9
$CECOLOR
 62
   256
  9
$DIMSCALE
 40
1.0
  9
$DIMASZ
 40
0.18
  9
$DIMEXO
 40
0.0625
  9
$DIMDLI
 40
0.38
  9
$DIMRND
 40
0.0
  9
$DIMDLE
 40
0.0
  9
$DIMEXE
 40
0.18
  9
$DIMTP
 40
0.0
  9
$DIMTM
 40
0.0
  9
$DIMTXT
 40
0.18
  9
$DIMCEN
 40
0.09
  9
$DIMTSZ
 40
0.0
  9
$DIMTOL
 70
     0
  9
$DIMLIM
 70
     0
  9
$DIMTIH
 70
     1
  9
$DIMTOH
 70
     1
  9
$DIMSE1
 70
     0
  9
$DIMSE2
 70
     0
  9
$DIMTAD
 70
     0
  9
$DIMZIN
 70
     0
  9
$DIMBLK
  1

  9
$LUNITS
 70
     2
  9
$LUPREC
 70
     4
  9
$AXISMODE
 70
     0
  9
$AXISUNIT
 10
0.0
 20
0.0
  9
$SKETCHINC
 40
0.1
  9
$FILLETRAD
 40
0.0
  9
$AUNITS
 70
     0
  9
$AUPREC
 70
     0
  9
$MENU
  1
ACAD
  9
$ELEVATION
 40
0.0
  9
$THICKNESS
 40
0.0
  9
$VIEWDIR
 10
0.0
 20
0.0
 30
1.0
  9
$LIMCHECK
 70
     0
  9
$BLIPMODE
 70
     1
  9
$CHAMFERA
 40
0.0
  9
$CHAMFERB
 40
0.0
  9
$FASTZOOM
 70
     1
  9
$SKPOLY
 70
     0
  9
$TDCREATE
 40
0000000.0000000000
  9
$TDUPDATE
 40
0000000.0000000000
  9
$TDINDWG
 40
0.0000000000
  9
$TDUSRTIMER
 40
0.0000000000
  9
$USRTIMER
 70
     1
  9
$ANGBASE
 50
0.0
  9
$ANGDIR
 70
     0
  9
$PDMODE
 70
     0
  9
$PDSIZE
 40
0.0
  9
$PLINEWID
 40
0.0
  9
$COORDS
 70
     0
  9
$USERI1
 70
     0
  9
$USERI2
 70
     0
  9
$USERI3
 70
     0
  9
$USERI4
 70
     0
  9
$USERI5
 70
     0
  9
$USERR1
 40
0.0
  9
$USERR2
 40
0.0
  9
$USERR3
 40
0.0
  9
$USERR4
 40
0.0
  9
$USERR5
 40
0.0
  9
$CLAYER
  8
M0
  9
$EXTMIN
 10
22.222223
 20
22.222223
  9
$EXTMAX
 10
444.444456
 20
633.33335
  9
$LIMMIN
 10
0.0
 20
0.0
  9
$LIMMAX
 10
210.0
 20
297.0
  9
$HANDSEED
  5
978
  0
ENDSEC
  0
SECTION
  2
CLASSES
  0
CLASS
  1
DICTIONARYVAR
  2
AcDbDictionaryVar
  3
"AutoCAD"
 90
        0
280
     0
281
     0
  0
CLASS
  1
HATCH
  2
AcDbHatch
  3
"ACAD_SEDONA"
 90
        0
280
     0
281
     1
  0
ENDSEC
  0
SECTION
  2
TABLES
  0
TABLE
  2
VPORT
  5
8
100
AcDbSymbolTable
 70
     2
  0
VPORT
  5
14
100
AcDbSymbolTableRecord
100
AcDbViewportTableRecord
  2
*ACTIVE
 70
     0
 10
0.0
 20
0.0
 11
1.0
 21
1.0
 12
484.0
 22
297.0
 13
0.0
 23
0.0
 14
1.0
 24
1.0
 15
0.0
 25
0.0
 16
0.0
 26
0.0
 36
1.0
 17
0.0
 27
0.0
 37
0.0
 40
594.0
 41
2.0
 42
50.0
 43
0.0
 44
0.0
 50
0.0
 51
0.0
 71
     0
 72
   100
 73
     1
 74
     1
 75
     0
 76
     0
 77
     0
 78
     0
  0
ENDTAB
  0
TABLE
  2
LTYPE
  5
5
100
AcDbSymbolTable
 70
     5
  0
LTYPE
  5
15
100
AcDbSymbolTableRecord
100
AcDbLinetypeTableRecord
  2
BYBLOCK
 70
     0
  3

 72
    65
 73
     0
 40
0.0
  0
LTYPE
  5
16
100
AcDbSymbolTableRecord
100
AcDbLinetypeTableRecord
  2
BYLAYER
 70
     0
  3

 72
    65
 73
     0
 40
0.0
  0
LTYPE
  5
17
100
AcDbSymbolTableRecord
100
AcDbLinetypeTableRecord
  2
CONTINUOUS
 70
    64
  3
Solid line
 72
    65
 73
     0
 40
0.0
  0
LTYPE
  5
18
100
AcDbSymbolTableRecord
100
AcDbLinetypeTableRecord
  2
DASHED
 70
    64
  3
__ __ __ __ __ __ __ __ __ __ __ __ __ __ __ __
 72
    65
 73
     2
 40
0.75
 49
0.5
 74
     0
 49
-0.25
 74
     0
  0
LTYPE
  5
19
100
AcDbSymbolTableRecord
100
AcDbLinetypeTableRecord
  2
DASHDOT
 70
    64
  3
__ . __ . __ . __ . __ . __ . __ . __ . __ . __
 72
    65
 73
     4
 40
1.0
 49
0.5
 74
     0
 49
-0.25
 74
     0
 49
0.0
 74
     0
 49
-0.25
 74
     0
  0
LTYPE
  5
1A
100
AcDbSymbolTableRecord
100
AcDbLinetypeTableRecord
  2
DIVIDE
 70
    64
  3
____ . . ____ . . ____ . . ____ . . ____ . . __
 72
    65
 73
     6
 40
1.25
 49
0.5
 74
     0
 49
-0.25
 74
     0
 49
0.0
 74
     0
 49
-0.25
 74
     0
 49
0.0
 74
     0
 49
-0.25
 74
     0
  0
LTYPE
  5
1B
100
AcDbSymbolTableRecord
100
AcDbLinetypeTableRecord
  2
DOT
 70
    64
  3
. . . . . . . . . . . . . . . . . . . . . . . .
 72
    65
 73
     2
 40
0.25
 49
0.0
 74
     0
 49
-0.25
 74
     0
  0
ENDTAB
  0
TABLE
  2
LAYER
  5
2
100
AcDbSymbolTable
 70
   102
  0
LAYER
  5
F
100
AcDbSymbolTableRecord
100
AcDbLayerTableRecord
  2
0
 70
     0
 62
     7
  6
CONTINUOUS
  0
LAYER
  5
1C
100
AcDbSymbolTableRecord
100
AcDbLayerTableRecord
  2
DEFPOINTS
 70
     0
 62
     7
  6
CONTINUOUS
  0
LAYER
  5
1D
100
AcDbSymbolTableRecord
100
AcDbLayerTableRecord
  2
M0
 70
     0
 62
     3
  6
CONTINUOUS
  0
LAYER
  5
1E
100
AcDbSymbolTableRecord
100
AcDbLayerTableRecord
  2
M1
 70
     0
 62
     3
  6
CONTINUOUS
  0
LAYER
  5
1F
100
AcDbSymbolTableRecord
100
AcDbLayerTableRecord
  2
DD0
 70
     0
 62
     4
  6
CONTINUOUS
  0
LAYER
  5
20
100
AcDbSymbolTableRecord
100
AcDbLayerTableRecord
  2
DN0
 70
     0
 62
     2
  6
CONTINUOUS
  0
ENDTAB
  0
TABLE
  2
STYLE
  5
3
100
AcDbSymbolTable
 70
     2
  0
STYLE
  5
10
100
AcDbSymbolTableRecord
100
AcDbTextStyleTableRecord
  2
STANDARD
 70
     0
 40
0.0
 41
1.0
 50
0.0
 71
     0
 42
0.2
  3
txt
  4
BIGFONT
  0
ENDTAB
  0
TABLE
  2
VIEW
  5
6
100
AcDbSymbolTable
 70
     0
  0
ENDTAB
  0
TABLE
  2
UCS
  5
7
100
AcDbSymbolTable
 70
     0
  0
ENDTAB
  0
TABLE
  2
APPID
  5
9
100
AcDbSymbolTable
 70
     1
  0
APPID
  5
11
100
AcDbSymbolTableRecord
100
AcDbRegAppTableRecord
  2
ACAD
 70
     0
  0
ENDTAB
  0
TABLE
  2
DIMSTYLE
  5
A
100
AcDbSymbolTable
 70
     2
  0
DIMSTYLE
105
27
100
AcDbSymbolTableRecord
100
AcDbDimStyleTableRecord
  2
STANDARD
 70
     0
  3

  4

  5

  6
_OPEN
  7
_OPEN
 40
1.0
 41
6.666667
 42
1.0
 43
8.0
 44
1.0
 45
0.0
 46
0.0
 47
0.0
 48
0.0
140
7.0
141
0.09
142
0.0
143
0.03937
144
1.0
145
0.0
146
1.0
147
0.6
 71
     0
 72
     0
 73
     1
 74
     1
 75
     0
 76
     0
 77
     3
 78
     8
170
     0
171
     2
172
     0
173
     1
174
     0
175
     0
176
     0
177
     0
178
     0
270
     2
271
     2
272
     4
273
     2
274
     2
340
10
275
     0
280
     0
281
     0
282
     0
283
     1
284
     0
285
     0
286
     0
287
     3
288
     0
  0
DIMSTYLE
105
28
100
AcDbSymbolTableRecord
100
AcDbDimStyleTableRecord
  2
LEADSTYL
 70
     0
  3

  4

  5

  6
_OPEN
  7
_OPEN
 40
1.0
 41
6.666667
 42
0.0625
 43
0.38
 44
0.18
 45
0.0
 46
0.0
 47
0.0
 48
0.0
140
7.0
141
0.09
142
0.0
143
25.4
144
1.0
145
0.0
146
1.0
147
0.6
 71
     0
 72
     0
 73
     1
 74
     1
 75
     0
 76
     0
 77
     0
 78
     0
170
     0
171
     2
172
     0
173
     1
174
     0
175
     0
176
     0
177
     0
178
     0
270
     2
271
     4
272
     4
273
     2
274
     2
340
10
275
     0
280
     0
281
     0
282
     0
283
     1
284
     0
285
     0
286
     0
287
     3
288
     0
  0
ENDTAB
  0
TABLE
  2
BLOCK_RECORD
  5
1
100
AcDbSymbolTable
 70
    29
  0
BLOCK_RECORD
  5
21
100
AcDbSymbolTableRecord
100
AcDbBlockTableRecord
  2
*MODEL_SPACE
  0
BLOCK_RECORD
  5
24
100
AcDbSymbolTableRecord
100
AcDbBlockTableRecord
  2
*PAPER_SPACE
  0
BLOCK_RECORD
  5
29
100
AcDbSymbolTableRecord
100
AcDbBlockTableRecord
  2
_NONE
  0
BLOCK_RECORD
  5
2D
100
AcDbSymbolTableRecord
100
AcDbBlockTableRecord
  2
_OPEN
  0
BLOCK_RECORD
  5
33
100
AcDbSymbolTableRecord
100
AcDbBlockTableRecord
  2
_CLOSED
  0
BLOCK_RECORD
  5
3A
100
AcDbSymbolTableRecord
100
AcDbBlockTableRecord
  2
_ORIGIN
  0
BLOCK_RECORD
  5
3F
100
AcDbSymbolTableRecord
100
AcDbBlockTableRecord
  2
_DOT
  0
BLOCK_RECORD
  5
47
100
AcDbSymbolTableRecord
100
AcDbBlockTableRecord
  2
_OBLIQUE
  0
BLOCK_RECORD
  5
4B
100
AcDbSymbolTableRecord
100
AcDbBlockTableRecord
  2
DIMS0
  0
BLOCK_RECORD
  5
57
100
AcDbSymbolTableRecord
100
AcDbBlockTableRecord
  2
DIMS1
  0
BLOCK_RECORD
  5
63
100
AcDbSymbolTableRecord
100
AcDbBlockTableRecord
  2
DIMS2
  0
BLOCK_RECORD
  5
6E
100
AcDbSymbolTableRecord
100
AcDbBlockTableRecord
  2
DIMS3
  0
BLOCK_RECORD
  5
7A
100
AcDbSymbolTableRecord
100
AcDbBlockTableRecord
  2
DIMS4
  0
BLOCK_RECORD
  5
86
100
AcDbSymbolTableRecord
100
AcDbBlockTableRecord
  2
DIMS5
  0
BLOCK_RECORD
  5
92
100
AcDbSymbolTableRecord
100
AcDbBlockTableRecord
  2
DIMS6
  0
BLOCK_RECORD
  5
9F
100
AcDbSymbolTableRecord
100
AcDbBlockTableRecord
  2
DIMS7
  0
BLOCK_RECORD
  5
AB
100
AcDbSymbolTableRecord
100
AcDbBlockTableRecord
  2
DIMS8
  0
BLOCK_RECORD
  5
B0
100
AcDbSymbolTableRecord
100
AcDbBlockTableRecord
  2
DIMS9
  0
BLOCK_RECORD
  5
B5
100
AcDbSymbolTableRecord
100
AcDbBlockTableRecord
  2
DIMS10
  0
BLOCK_RECORD
  5
BA
100
AcDbSymbolTableRecord
100
AcDbBlockTableRecord
  2
DIMS11
  0
BLOCK_RECORD
  5
BF
100
AcDbSymbolTableRecord
100
AcDbBlockTableRecord
  2
DIMS12
  0
BLOCK_RECORD
  5
C4
100
AcDbSymbolTableRecord
100
AcDbBlockTableRecord
  2
DIMS13
  0
BLOCK_RECORD
  5
C9
100
AcDbSymbolTableRecord
100
AcDbBlockTableRecord
  2
DIMS14
  0
BLOCK_RECORD
  5
D2
100
AcDbSymbolTableRecord
100
AcDbBlockTableRecord
  2
DIMS15
  0
BLOCK_RECORD
  5
DE
100
AcDbSymbolTableRecord
100
AcDbBlockTableRecord
  2
DIMS16
  0
BLOCK_RECORD
  5
EA
100
AcDbSymbolTableRecord
100
AcDbBlockTableRecord
  2
DIMS17
  0
BLOCK_RECORD
  5
F6
100
AcDbSymbolTableRecord
100
AcDbBlockTableRecord
  2
DIMS18
  0
BLOCK_RECORD
  5
102
100
AcDbSymbolTableRecord
100
AcDbBlockTableRecord
  2
DIMS19
  0
BLOCK_RECORD
  5
10E
100
AcDbSymbolTableRecord
100
AcDbBlockTableRecord
  2
DIMS20
  0
BLOCK_RECORD
  5
11A
100
AcDbSymbolTableRecord
100
AcDbBlockTableRecord
  2
DIMS21
  0
BLOCK_RECORD
  5
126
100
AcDbSymbolTableRecord
100
AcDbBlockTableRecord
  2
DIMS22
  0
ENDTAB
  0
ENDSEC
  0
SECTION
  2
BLOCKS
  0
BLOCK
  5
22
100
AcDbEntity
  8
0
100
AcDbBlockBegin
  2
*MODEL_SPACE
 70
     0
 10
0.0
 20
0.0
 30
0.0
  3
*MODEL_SPACE
  1

  0
ENDBLK
  5
23
100
AcDbEntity
  8
0
100
AcDbBlockEnd
  0
BLOCK
  5
25
100
AcDbEntity
 67
     1
  8
0
100
AcDbBlockBegin
  2
*PAPER_SPACE
 70
     0
 10
0.0
 20
0.0
 30
0.0
  3
*PAPER_SPACE
  1

  0
ENDBLK
  5
26
100
AcDbEntity
 67
     1
  8
0
100
AcDbBlockEnd
  0
BLOCK
  5
2A
100
AcDbEntity
  8
0
100
AcDbBlockBegin
  2
_NONE
 70
     0
 10
0.0
 20
0.0
  0
CIRCLE
  5
2B
100
AcDbEntity
  8
0
 62
     0
100
AcDbCircle
 10
0.0
 20
0.0
 40
0.25
  0
ENDBLK
  5
2C
100
AcDbEntity
  8
0
100
AcDbBlockEnd
  0
BLOCK
  5
2E
100
AcDbEntity
  8
0
100
AcDbBlockBegin
  2
_OPEN
 70
     0
 10
0.0
 20
0.0
  0
LINE
  5
2F
100
AcDbEntity
  8
0
 62
     0
100
AcDbLine
 10
-0.965926
 20
0.258819
 11
0.0
 21
0.0
  0
LINE
  5
30
100
AcDbEntity
  8
0
 62
     0
100
AcDbLine
 10
0.0
 20
0.0
 11
-0.965926
 21
-0.258819
  0
LINE
  5
31
100
AcDbEntity
  8
0
 62
     0
100
AcDbLine
 10
0.0
 20
0.0
 11
-1.0
 21
0.0
  0
ENDBLK
  5
32
100
AcDbEntity
  8
0
100
AcDbBlockEnd
  0
BLOCK
  5
34
100
AcDbEntity
  8
0
100
AcDbBlockBegin
  2
_CLOSED
 70
     0
 10
0.0
 20
0.0
  0
LINE
  5
35
100
AcDbEntity
  8
0
 62
     0
100
AcDbLine
 10
-0.965926
 20
0.258819
 11
0.0
 21
0.0
  0
LINE
  5
36
100
AcDbEntity
  8
0
 62
     0
100
AcDbLine
 10
0.0
 20
0.0
 11
-0.965926
 21
-0.258819
  0
LINE
  5
37
100
AcDbEntity
  8
0
 62
     0
100
AcDbLine
 10
-0.965926
 20
0.258819
 11
-0.965926
 21
-0.258819
  0
LINE
  5
38
100
AcDbEntity
  8
0
 62
     0
100
AcDbLine
 10
0.0
 20
0.0
 11
-1.0
 21
0.0
  0
ENDBLK
  5
39
100
AcDbEntity
  8
0
100
AcDbBlockEnd
  0
BLOCK
  5
3B
100
AcDbEntity
  8
0
100
AcDbBlockBegin
  2
_ORIGIN
 70
     0
 10
0.0
 20
0.0
  0
CIRCLE
  5
3C
100
AcDbEntity
  8
0
 62
     0
100
AcDbCircle
 10
0.0
 20
0.0
 40
0.5
  0
LINE
  5
3D
100
AcDbEntity
  8
0
 62
     0
100
AcDbLine
 10
0.0
 20
0.0
 11
-1.0
 21
0.0
  0
ENDBLK
  5
3E
100
AcDbEntity
  8
0
100
AcDbBlockEnd
  0
BLOCK
  5
40
100
AcDbEntity
  8
0
100
AcDbBlockBegin
  2
_DOT
 70
     0
 10
0.0
 20
0.0
  0
POLYLINE
  5
41
100
AcDbEntity
  8
0
 62
     0
100
AcDb2dPolyline
 66
     1
 70
     1
 40
0.5
 41
0.5
  0
VERTEX
  5
42
100
AcDbEntity
  8
0
 62
     0
100
AcDbVertex
100
AcDb2dVertex
 10
-0.25
 20
0.0
 42
1.0
  0
VERTEX
  5
43
100
AcDbEntity
  8
0
 62
     0
100
AcDbVertex
100
AcDb2dVertex
 10
0.25
 20
0.0
 42
1.0
  0
SEQEND
  5
44
100
AcDbEntity
  8
0
 62
     0
  0
LINE
  5
45
100
AcDbEntity
  8
0
 62
     0
100
AcDbLine
 10
-0.5
 20
0.0
 11
-1.0
 21
0.0
  0
ENDBLK
  5
46
100
AcDbEntity
  8
0
100
AcDbBlockEnd
  0
BLOCK
  5
48
100
AcDbEntity
  8
0
100
AcDbBlockBegin
  2
_OBLIQUE
 70
     0
 10
0.0
 20
0.0
  0
LINE
  5
49
100
AcDbEntity
  8
0
 62
     0
100
AcDbLine
 10
-0.353553
 20
-0.353553
 11
0.353553
 21
0.353553
  0
ENDBLK
  5
4A
100
AcDbEntity
  8
0
100
AcDbBlockEnd
  0
BLOCK
  5
4C
100
AcDbEntity
  8
DD0
100
AcDbBlockBegin
  2
DIMS0
 70
     0
 10
0.0
 20
0.0
  0
LINE
  5
4D
100
AcDbEntity
  8
DD0
100
AcDbLine
 10
284.860983
 20
492.851304
 11
284.860983
 21
576.06969
  0
LINE
  5
4E
100
AcDbEntity
  8
DD0
100
AcDbLine
 10
421.960969
 20
516.601305
 11
421.960969
 21
576.06969
  0
LINE
  5
4F
100
AcDbEntity
  8
DD0
100
AcDbLine
 10
291.300489
 20
575.572928
 11
284.860983
 21
573.847468
  0
LINE
  5
50
100
AcDbEntity
  8
DD0
100
AcDbLine
 10
284.860983
 20
573.847468
 11
291.300489
 21
572.122008
  0
LINE
  5
51
100
AcDbEntity
  8
DD0
100
AcDbLine
 10
415.521463
 20
572.122008
 11
421.960969
 21
573.847468
  0
LINE
  5
52
100
AcDbEntity
  8
DD0
100
AcDbLine
 10
421.960969
 20
573.847468
 11
415.521463
 21
575.572928
  0
LINE
  5
53
100
AcDbEntity
  8
DD0
100
AcDbLine
 10
284.860983
 20
573.847468
 11
421.960969
 21
573.847468
  0
TEXT
  5
54
100
AcDbEntity
  8
DD0
100
AcDbText
 10
342.68135
 20
575.180815
 40
5.555556
  1
１３７．５
 41
0.666667
  7
STANDARD
100
AcDbText
  0
ENDBLK
  5
55
100
AcDbEntity
  8
DD0
100
AcDbBlockEnd
  0
BLOCK
  5
58
100
AcDbEntity
  8
DD0
100
AcDbBlockBegin
  2
DIMS1
 70
     0
 10
0.0
 20
0.0
  0
LINE
  5
59
100
AcDbEntity
  8
DD0
100
AcDbLine
 10
279.860966
 20
492.851304
 11
279.860966
 21
576.06969
  0
LINE
  5
5A
100
AcDbEntity
  8
DD0
100
AcDbLine
 10
284.860983
 20
492.851304
 11
284.860983
 21
576.06969
  0
LINE
  5
5B
100
AcDbEntity
  8
DD0
100
AcDbLine
 10
273.42146
 20
572.122008
 11
279.860966
 21
573.847468
  0
LINE
  5
5C
100
AcDbEntity
  8
DD0
100
AcDbLine
 10
279.860966
 20
573.847468
 11
273.42146
 21
575.572928
  0
LINE
  5
5D
100
AcDbEntity
  8
DD0
100
AcDbLine
 10
291.300489
 20
575.572928
 11
284.860983
 21
573.847468
  0
LINE
  5
5E
100
AcDbEntity
  8
DD0
100
AcDbLine
 10
284.860983
 20
573.847468
 11
291.300489
 21
572.122008
  0
LINE
  5
5F
100
AcDbEntity
  8
DD0
100
AcDbLine
 10
267.638133
 20
573.847468
 11
292.194316
 21
573.847468
  0
TEXT
  5
60
100
AcDbEntity
  8
DD0
100
AcDbText
 10
270.24184
 20
575.180815
 40
5.555556
  1
５
 41
0.666667
  7
STANDARD
100
AcDbText
  0
ENDBLK
  5
61
100
AcDbEntity
  8
DD0
100
AcDbBlockEnd
  0
BLOCK
  5
64
100
AcDbEntity
  8
DD0
100
AcDbBlockBegin
  2
DIMS2
 70
     0
 10
0.0
 20
0.0
  0
LINE
  5
65
100
AcDbEntity
  8
DD0
100
AcDbLine
 10
410.960976
 20
516.351298
 11
410.960976
 21
554.600438
  0
LINE
  5
66
100
AcDbEntity
  8
DD0
100
AcDbLine
 10
428.400475
 20
554.103676
 11
421.960969
 21
552.378216
  0
LINE
  5
67
100
AcDbEntity
  8
DD0
100
AcDbLine
 10
421.960969
 20
552.378216
 11
428.400475
 21
550.652755
  0
LINE
  5
68
100
AcDbEntity
  8
DD0
100
AcDbLine
 10
404.52147
 20
550.652755
 11
410.960976
 21
552.378216
  0
LINE
  5
69
100
AcDbEntity
  8
DD0
100
AcDbLine
 10
410.960976
 20
552.378216
 11
404.52147
 21
554.103676
  0
LINE
  5
6A
100
AcDbEntity
  8
DD0
100
AcDbLine
 10
429.294302
 20
552.378216
 11
403.627642
 21
552.378216
  0
TEXT
  5
6B
100
AcDbEntity
  8
DD0
100
AcDbText
 10
412.398013
 20
553.711563
 40
5.555556
  1
１１
 41
0.666667
  7
STANDARD
100
AcDbText
  0
ENDBLK
  5
6C
100
AcDbEntity
  8
DD0
100
AcDbBlockEnd
  0
BLOCK
  5
6F
100
AcDbEntity
  8
DD0
100
AcDbBlockBegin
  2
DIMS3
 70
     0
 10
0.0
 20
0.0
  0
LINE
  5
70
100
AcDbEntity
  8
DD0
100
AcDbLine
 10
103.061696
 20
527.351326
 11
103.061696
 21
542.886265
  0
LINE
  5
71
100
AcDbEntity
  8
DD0
100
AcDbLine
 10
189.961689
 20
527.351326
 11
189.961689
 21
542.886265
  0
LINE
  5
72
100
AcDbEntity
  8
DD0
100
AcDbLine
 10
109.501201
 20
542.389503
 11
103.061696
 21
540.664043
  0
LINE
  5
73
100
AcDbEntity
  8
DD0
100
AcDbLine
 10
103.061696
 20
540.664043
 11
109.501201
 21
538.938583
  0
LINE
  5
74
100
AcDbEntity
  8
DD0
100
AcDbLine
 10
183.522183
 20
538.938583
 11
189.961689
 21
540.664043
  0
LINE
  5
75
100
AcDbEntity
  8
DD0
100
AcDbLine
 10
189.961689
 20
540.664043
 11
183.522183
 21
542.389503
  0
LINE
  5
76
100
AcDbEntity
  8
DD0
100
AcDbLine
 10
103.061696
 20
540.664043
 11
189.961689
 21
540.664043
  0
TEXT
  5
77
100
AcDbEntity
  8
DD0
100
AcDbText
 10
138.004288
 20
541.99739
 40
5.555556
  1
８６．９
 41
0.666667
  7
STANDARD
100
AcDbText
  0
ENDBLK
  5
78
100
AcDbEntity
  8
DD0
100
AcDbBlockEnd
  0
BLOCK
  5
7B
100
AcDbEntity
  8
DD0
100
AcDbBlockBegin
  2
DIMS4
 70
     0
 10
0.0
 20
0.0
  0
LINE
  5
7C
100
AcDbEntity
  8
DD0
100
AcDbLine
 10
103.061696
 20
423.906872
 11
103.061696
 21
412.806713
  0
LINE
  5
7D
100
AcDbEntity
  8
DD0
100
AcDbLine
 10
85.461691
 20
441.406872
 11
85.461691
 21
412.806713
  0
LINE
  5
7E
100
AcDbEntity
  8
DD0
100
AcDbLine
 10
96.62219
 20
413.303474
 11
103.061696
 21
415.028935
  0
LINE
  5
7F
100
AcDbEntity
  8
DD0
100
AcDbLine
 10
103.061696
 20
415.028935
 11
96.62219
 21
416.754395
  0
LINE
  5
80
100
AcDbEntity
  8
DD0
100
AcDbLine
 10
91.901197
 20
416.754395
 11
85.461691
 21
415.028935
  0
LINE
  5
81
100
AcDbEntity
  8
DD0
100
AcDbLine
 10
85.461691
 20
415.028935
 11
91.901197
 21
413.303474
  0
LINE
  5
82
100
AcDbEntity
  8
DD0
100
AcDbLine
 10
103.061696
 20
415.028935
 11
85.461691
 21
415.028935
  0
TEXT
  5
83
100
AcDbEntity
  8
DD0
100
AcDbText
 10
85.754293
 20
416.362282
 40
5.555556
  1
１７．５
 41
0.666667
  7
STANDARD
100
AcDbText
  0
ENDBLK
  5
84
100
AcDbEntity
  8
DD0
100
AcDbBlockEnd
  0
BLOCK
  5
87
100
AcDbEntity
  8
DD0
100
AcDbBlockBegin
  2
DIMS5
 70
     0
 10
0.0
 20
0.0
  0
LINE
  5
88
100
AcDbEntity
  8
DD0
100
AcDbLine
 10
64.111694
 20
514.351312
 11
64.111694
 21
554.600438
  0
LINE
  5
89
100
AcDbEntity
  8
DD0
100
AcDbLine
 10
228.911698
 20
447.051336
 11
228.911698
 21
554.600438
  0
LINE
  5
8A
100
AcDbEntity
  8
DD0
100
AcDbLine
 10
70.5512
 20
554.103676
 11
64.111694
 21
552.378216
  0
LINE
  5
8B
100
AcDbEntity
  8
DD0
100
AcDbLine
 10
64.111694
 20
552.378216
 11
70.5512
 21
550.652755
  0
LINE
  5
8C
100
AcDbEntity
  8
DD0
100
AcDbLine
 10
222.472193
 20
550.652755
 11
228.911698
 21
552.378216
  0
LINE
  5
8D
100
AcDbEntity
  8
DD0
100
AcDbLine
 10
228.911698
 20
552.378216
 11
222.472193
 21
554.103676
  0
LINE
  5
8E
100
AcDbEntity
  8
DD0
100
AcDbLine
 10
64.111694
 20
552.378216
 11
228.911698
 21
552.378216
  0
TEXT
  5
8F
100
AcDbEntity
  8
DD0
100
AcDbText
 10
135.782066
 20
553.711563
 40
5.555556
  1
１６４．８
 41
0.666667
  7
STANDARD
100
AcDbText
  0
ENDBLK
  5
90
100
AcDbEntity
  8
DD0
100
AcDbBlockEnd
  0
BLOCK
  5
93
100
AcDbEntity
  8
DD0
100
AcDbBlockBegin
  2
DIMS6
 70
     0
 10
0.0
 20
0.0
  0
LINE
  5
94
100
AcDbEntity
  8
DD0
100
AcDbLine
 10
52.111699
 20
505.55133
 11
52.111699
 21
576.06969
  0
LINE
  5
95
100
AcDbEntity
  8
DD0
100
AcDbLine
 10
240.911685
 20
505.55133
 11
240.911685
 21
576.06969
  0
LINE
  5
96
100
AcDbEntity
  8
DD0
100
AcDbLine
 10
58.551205
 20
575.572928
 11
52.111699
 21
573.847468
  0
LINE
  5
97
100
AcDbEntity
  8
DD0
100
AcDbLine
 10
52.111699
 20
573.847468
 11
58.551205
 21
572.122008
  0
LINE
  5
98
100
AcDbEntity
  8
DD0
100
AcDbLine
 10
234.472179
 20
572.122008
 11
240.911685
 21
573.847468
  0
LINE
  5
99
100
AcDbEntity
  8
DD0
100
AcDbLine
 10
240.911685
 20
573.847468
 11
234.472179
 21
575.572928
  0
LINE
  5
9A
100
AcDbEntity
  8
DD0
100
AcDbLine
 10
52.111699
 20
573.847468
 11
240.911685
 21
573.847468
  0
TEXT
  5
9B
100
AcDbEntity
  8
DD0
100
AcDbText
 10
140.22651
 20
575.180815
 40
5.555556
  1
１８９
 41
0.666667
  7
STANDARD
100
AcDbText
  0
TEXT
  5
9C
100
AcDbEntity
  8
DD0
100
AcDbText
 10
100.226509
 20
566.514162
 40
5.555556
  1
（補助接点サイドオンユニットを付けた場合）
 41
0.666667
  7
STANDARD
100
AcDbText
  0
ENDBLK
  5
9D
100
AcDbEntity
  8
DD0
100
AcDbBlockEnd
  0
BLOCK
  5
A0
100
AcDbEntity
  8
DD0
100
AcDbBlockBegin
  2
DIMS7
 70
     0
 10
0.0
 20
0.0
  0
LINE
  5
A1
100
AcDbEntity
  8
DD0
100
AcDbLine
 10
213.63392
 20
520.129103
 11
259.522458
 21
520.129103
  0
LINE
  5
A2
100
AcDbEntity
  8
DD0
100
AcDbLine
 10
228.133907
 20
431.129094
 11
259.522458
 21
431.129094
  0
LINE
  5
A3
100
AcDbEntity
  8
DD0
100
AcDbLine
 10
259.025696
 20
513.689597
 11
257.300235
 21
520.129103
  0
LINE
  5
A4
100
AcDbEntity
  8
DD0
100
AcDbLine
 10
257.300235
 20
520.129103
 11
255.574775
 21
513.689597
  0
LINE
  5
A5
100
AcDbEntity
  8
DD0
100
AcDbLine
 10
255.574775
 20
437.5686
 11
257.300235
 21
431.129094
  0
LINE
  5
A6
100
AcDbEntity
  8
DD0
100
AcDbLine
 10
257.300235
 20
431.129094
 11
259.025696
 21
437.5686
  0
LINE
  5
A7
100
AcDbEntity
  8
DD0
100
AcDbLine
 10
257.300235
 20
520.129103
 11
257.300235
 21
431.129094
  0
TEXT
  5
A8
100
AcDbEntity
  8
DD0
100
AcDbText
 10
255.966905
 20
471.566105
 40
5.555556
  1
８９
 50
90.000003
 41
0.666667
  7
STANDARD
100
AcDbText
  0
ENDBLK
  5
A9
100
AcDbEntity
  8
DD0
100
AcDbBlockEnd
  0
BLOCK
  5
AC
100
AcDbEntity
  8
DD0
100
AcDbBlockBegin
  2
DIMS8
 70
     0
 10
0.0
 20
0.0
  0
TEXT
  5
AD
100
AcDbEntity
  8
DD0
100
AcDbText
 10
134.875517
 20
423.003513
 40
7.0
  1
　
 50
114.970976
 41
0.833333
  7
STANDARD
100
AcDbText
  0
ENDBLK
  5
AE
100
AcDbEntity
  8
DD0
100
AcDbBlockEnd
  0
BLOCK
  5
B1
100
AcDbEntity
  8
DD0
100
AcDbBlockBegin
  2
DIMS9
 70
     0
 10
0.0
 20
0.0
  0
TEXT
  5
B2
100
AcDbEntity
  8
DD0
100
AcDbText
 10
124.51501
 20
422.715064
 40
7.0
  1
　
 50
101.275504
 41
0.833333
  7
STANDARD
100
AcDbText
  0
ENDBLK
  5
B3
100
AcDbEntity
  8
DD0
100
AcDbBlockEnd
  0
BLOCK
  5
B6
100
AcDbEntity
  8
DD0
100
AcDbBlockBegin
  2
DIMS10
 70
     0
 10
0.0
 20
0.0
  0
TEXT
  5
B7
100
AcDbEntity
  8
DD0
100
AcDbText
 10
143.804507
 20
551.018397
 40
7.0
  1
　
 50
50.389529
 41
0.833333
  7
STANDARD
100
AcDbText
  0
ENDBLK
  5
B8
100
AcDbEntity
  8
DD0
100
AcDbBlockEnd
  0
BLOCK
  5
BB
100
AcDbEntity
  8
DD0
100
AcDbBlockBegin
  2
DIMS11
 70
     0
 10
0.0
 20
0.0
  0
TEXT
  5
BC
100
AcDbEntity
  8
DD0
100
AcDbText
 10
221.775519
 20
423.003513
 40
7.0
  1
　
 50
114.970976
 41
0.833333
  7
STANDARD
100
AcDbText
  0
ENDBLK
  5
BD
100
AcDbEntity
  8
DD0
100
AcDbBlockEnd
  0
BLOCK
  5
C0
100
AcDbEntity
  8
DD0
100
AcDbBlockBegin
  2
DIMS12
 70
     0
 10
0.0
 20
0.0
  0
TEXT
  5
C1
100
AcDbEntity
  8
DD0
100
AcDbText
 10
211.41502
 20
422.715064
 40
7.0
  1
　
 50
101.275504
 41
0.833333
  7
STANDARD
100
AcDbText
  0
ENDBLK
  5
C2
100
AcDbEntity
  8
DD0
100
AcDbBlockEnd
  0
BLOCK
  5
C5
100
AcDbEntity
  8
DD0
100
AcDbBlockBegin
  2
DIMS13
 70
     0
 10
0.0
 20
0.0
  0
TEXT
  5
C6
100
AcDbEntity
  8
DD0
100
AcDbText
 10
230.7045
 20
551.018397
 40
7.0
  1
　
 50
50.389529
 41
0.833333
  7
STANDARD
100
AcDbText
  0
ENDBLK
  5
C7
100
AcDbEntity
  8
DD0
100
AcDbBlockEnd
  0
BLOCK
  5
CA
100
AcDbEntity
  8
DD0
100
AcDbBlockBegin
  2
DIMS14
 70
     0
 10
0.0
 20
0.0
  0
TEXT
  5
CB
100
AcDbEntity
  8
DD0
100
AcDbText
 10
243.023652
 20
217.66219
 40
5.555556
  1
４－Ｍ４ねじ穴
 41
0.666667
  7
STANDARD
100
AcDbText
  0
LINE
  5
CC
100
AcDbEntity
  8
DD0
100
AcDbLine
 10
229.411318
 20
239.278138
 11
225.723205
 21
244.831719
  0
LINE
  5
CD
100
AcDbEntity
  8
DD0
100
AcDbLine
 10
225.723205
 20
244.831719
 11
226.140414
 21
238.17812
  0
LINE
  5
CE
100
AcDbEntity
  8
DD0
100
AcDbLine
 10
225.723205
 20
244.831719
 11
235.308827
 21
216.32886
  0
LINE
  5
CF
100
AcDbEntity
  8
DD0
100
AcDbLine
 10
235.308827
 20
216.32886
 11
281.086603
 21
216.32886
  0
ENDBLK
  5
D0
100
AcDbEntity
  8
DD0
100
AcDbBlockEnd
  0
BLOCK
  5
D3
100
AcDbEntity
  8
DD0
100
AcDbBlockBegin
  2
DIMS15
 70
     0
 10
0.0
 20
0.0
  0
LINE
  5
D4
100
AcDbEntity
  8
DD0
100
AcDbLine
 10
214.633913
 20
325.814557
 11
247.385244
 21
325.814557
  0
LINE
  5
D5
100
AcDbEntity
  8
DD0
100
AcDbLine
 10
73.881321
 20
311.81455
 11
247.385244
 21
311.81455
  0
LINE
  5
D6
100
AcDbEntity
  8
DD0
100
AcDbLine
 10
243.437561
 20
332.254062
 11
245.163021
 21
325.814557
  0
LINE
  5
D7
100
AcDbEntity
  8
DD0
100
AcDbLine
 10
245.163021
 20
325.814557
 11
246.888482
 21
332.254062
  0
LINE
  5
D8
100
AcDbEntity
  8
DD0
100
AcDbLine
 10
246.888482
 20
305.375044
 11
245.163021
 21
311.81455
  0
LINE
  5
D9
100
AcDbEntity
  8
DD0
100
AcDbLine
 10
245.163021
 20
311.81455
 11
243.437561
 21
305.375044
  0
LINE
  5
DA
100
AcDbEntity
  8
DD0
100
AcDbLine
 10
245.163021
 20
344.259002
 11
245.163021
 21
304.481216
  0
TEXT
  5
DB
100
AcDbEntity
  8
DD0
100
AcDbText
 10
243.829691
 20
333.529365
 40
5.555556
  1
１４
 50
90.000003
 41
0.666667
  7
STANDARD
100
AcDbText
  0
ENDBLK
  5
DC
100
AcDbEntity
  8
DD0
100
AcDbBlockEnd
  0
BLOCK
  5
DF
100
AcDbEntity
  8
DD0
100
AcDbBlockBegin
  2
DIMS16
 70
     0
 10
0.0
 20
0.0
  0
LINE
  5
E0
100
AcDbEntity
  8
DD0
100
AcDbLine
 10
73.881321
 20
311.81455
 11
247.385244
 21
311.81455
  0
LINE
  5
E1
100
AcDbEntity
  8
DD0
100
AcDbLine
 10
144.881324
 20
246.814548
 11
247.385244
 21
246.814548
  0
LINE
  5
E2
100
AcDbEntity
  8
DD0
100
AcDbLine
 10
246.888482
 20
305.375044
 11
245.163021
 21
311.81455
  0
LINE
  5
E3
100
AcDbEntity
  8
DD0
100
AcDbLine
 10
245.163021
 20
311.81455
 11
243.437561
 21
305.375044
  0
LINE
  5
E4
100
AcDbEntity
  8
DD0
100
AcDbLine
 10
243.437561
 20
253.254053
 11
245.163021
 21
246.814548
  0
LINE
  5
E5
100
AcDbEntity
  8
DD0
100
AcDbLine
 10
245.163021
 20
246.814548
 11
246.888482
 21
253.254053
  0
LINE
  5
E6
100
AcDbEntity
  8
DD0
100
AcDbLine
 10
245.163021
 20
311.81455
 11
245.163021
 21
246.814548
  0
TEXT
  5
E7
100
AcDbEntity
  8
DD0
100
AcDbText
 10
243.829691
 20
275.251589
 40
5.555556
  1
６５
 50
90.000003
 41
0.666667
  7
STANDARD
100
AcDbText
  0
ENDBLK
  5
E8
100
AcDbEntity
  8
DD0
100
AcDbBlockEnd
  0
BLOCK
  5
EB
100
AcDbEntity
  8
DD0
100
AcDbBlockBegin
  2
DIMS17
 70
     0
 10
0.0
 20
0.0
  0
LINE
  5
EC
100
AcDbEntity
  8
DD0
100
AcDbLine
 10
138.561685
 20
253.134162
 11
138.561685
 21
340.035918
  0
LINE
  5
ED
100
AcDbEntity
  8
DD0
100
AcDbLine
 10
67.561685
 20
318.134164
 11
67.561685
 21
340.035918
  0
LINE
  5
EE
100
AcDbEntity
  8
DD0
100
AcDbLine
 10
132.122179
 20
336.088235
 11
138.561685
 21
337.813696
  0
LINE
  5
EF
100
AcDbEntity
  8
DD0
100
AcDbLine
 10
138.561685
 20
337.813696
 11
132.122179
 21
339.539156
  0
LINE
  5
F0
100
AcDbEntity
  8
DD0
100
AcDbLine
 10
74.001191
 20
339.539156
 11
67.561685
 21
337.813696
  0
LINE
  5
F1
100
AcDbEntity
  8
DD0
100
AcDbLine
 10
67.561685
 20
337.813696
 11
74.001191
 21
336.088235
  0
LINE
  5
F2
100
AcDbEntity
  8
DD0
100
AcDbLine
 10
138.561685
 20
337.813696
 11
67.561685
 21
337.813696
  0
TEXT
  5
F3
100
AcDbEntity
  8
DD0
100
AcDbText
 10
98.998728
 20
339.147043
 40
5.555556
  1
７１
 41
0.666667
  7
STANDARD
100
AcDbText
  0
ENDBLK
  5
F4
100
AcDbEntity
  8
DD0
100
AcDbBlockEnd
  0
BLOCK
  5
F7
100
AcDbEntity
  8
DD0
100
AcDbBlockBegin
  2
DIMS18
 70
     0
 10
0.0
 20
0.0
  0
LINE
  5
F8
100
AcDbEntity
  8
DD0
100
AcDbLine
 10
67.561685
 20
318.134164
 11
67.561685
 21
340.035918
  0
LINE
  5
F9
100
AcDbEntity
  8
DD0
100
AcDbLine
 10
64.111694
 20
324.036772
 11
64.111694
 21
340.035918
  0
LINE
  5
FA
100
AcDbEntity
  8
DD0
100
AcDbLine
 10
74.001191
 20
339.539156
 11
67.561685
 21
337.813696
  0
LINE
  5
FB
100
AcDbEntity
  8
DD0
100
AcDbLine
 10
67.561685
 20
337.813696
 11
74.001191
 21
336.088235
  0
LINE
  5
FC
100
AcDbEntity
  8
DD0
100
AcDbLine
 10
57.672189
 20
336.088235
 11
64.111694
 21
337.813696
  0
LINE
  5
FD
100
AcDbEntity
  8
DD0
100
AcDbLine
 10
64.111694
 20
337.813696
 11
57.672189
 21
339.539156
  0
LINE
  5
FE
100
AcDbEntity
  8
DD0
100
AcDbLine
 10
74.895019
 20
337.813696
 11
41.222804
 21
337.813696
  0
TEXT
  5
FF
100
AcDbEntity
  8
DD0
100
AcDbText
 10
43.182067
 20
339.147043
 40
5.555556
  1
３．５
 41
0.666667
  7
STANDARD
100
AcDbText
  0
ENDBLK
  5
100
100
AcDbEntity
  8
DD0
100
AcDbBlockEnd
  0
BLOCK
  5
103
100
AcDbEntity
  8
DD0
100
AcDbBlockBegin
  2
DIMS19
 70
     0
 10
0.0
 20
0.0
  0
LINE
  5
104
100
AcDbEntity
  8
DD0
100
AcDbLine
 10
138.561685
 20
253.134162
 11
138.561685
 21
340.035918
  0
LINE
  5
105
100
AcDbEntity
  8
DD0
100
AcDbLine
 10
154.461691
 20
318.134164
 11
154.461691
 21
340.035918
  0
LINE
  5
106
100
AcDbEntity
  8
DD0
100
AcDbLine
 10
132.122179
 20
336.088235
 11
138.561685
 21
337.813696
  0
LINE
  5
107
100
AcDbEntity
  8
DD0
100
AcDbLine
 10
138.561685
 20
337.813696
 11
132.122179
 21
339.539156
  0
LINE
  5
108
100
AcDbEntity
  8
DD0
100
AcDbLine
 10
160.901197
 20
339.539156
 11
154.461691
 21
337.813696
  0
LINE
  5
109
100
AcDbEntity
  8
DD0
100
AcDbLine
 10
154.461691
 20
337.813696
 11
160.901197
 21
336.088235
  0
LINE
  5
10A
100
AcDbEntity
  8
DD0
100
AcDbLine
 10
131.228351
 20
337.813696
 11
161.795024
 21
337.813696
  0
TEXT
  5
10B
100
AcDbEntity
  8
DD0
100
AcDbText
 10
142.448732
 20
339.147043
 40
5.555556
  1
１６
 41
0.666667
  7
STANDARD
100
AcDbText
  0
ENDBLK
  5
10C
100
AcDbEntity
  8
DD0
100
AcDbBlockEnd
  0
BLOCK
  5
10F
100
AcDbEntity
  8
DD0
100
AcDbBlockBegin
  2
DIMS20
 70
     0
 10
0.0
 20
0.0
  0
LINE
  5
110
100
AcDbEntity
  8
DD0
100
AcDbLine
 10
154.461691
 20
318.134164
 11
154.461691
 21
340.035918
  0
LINE
  5
111
100
AcDbEntity
  8
DD0
100
AcDbLine
 10
225.461686
 20
253.134162
 11
225.461686
 21
340.035918
  0
LINE
  5
112
100
AcDbEntity
  8
DD0
100
AcDbLine
 10
160.901197
 20
339.539156
 11
154.461691
 21
337.813696
  0
LINE
  5
113
100
AcDbEntity
  8
DD0
100
AcDbLine
 10
154.461691
 20
337.813696
 11
160.901197
 21
336.088235
  0
LINE
  5
114
100
AcDbEntity
  8
DD0
100
AcDbLine
 10
219.02218
 20
336.088235
 11
225.461686
 21
337.813696
  0
LINE
  5
115
100
AcDbEntity
  8
DD0
100
AcDbLine
 10
225.461686
 20
337.813696
 11
219.02218
 21
339.539156
  0
LINE
  5
116
100
AcDbEntity
  8
DD0
100
AcDbLine
 10
154.461691
 20
337.813696
 11
225.461686
 21
337.813696
  0
TEXT
  5
117
100
AcDbEntity
  8
DD0
100
AcDbText
 10
185.898729
 20
339.147043
 40
5.555556
  1
７１
 41
0.666667
  7
STANDARD
100
AcDbText
  0
ENDBLK
  5
118
100
AcDbEntity
  8
DD0
100
AcDbBlockEnd
  0
BLOCK
  5
11B
100
AcDbEntity
  8
DD0
100
AcDbBlockBegin
  2
DIMS21
 70
     0
 10
0.0
 20
0.0
  0
LINE
  5
11C
100
AcDbEntity
  8
DD0
100
AcDbLine
 10
79.389473
 20
520.129103
 11
38.850904
 21
520.129103
  0
LINE
  5
11D
100
AcDbEntity
  8
DD0
100
AcDbLine
 10
83.239469
 20
503.129116
 11
38.850904
 21
503.129116
  0
LINE
  5
11E
100
AcDbEntity
  8
DD0
100
AcDbLine
 10
39.347666
 20
526.568609
 11
41.073126
 21
520.129103
  0
LINE
  5
11F
100
AcDbEntity
  8
DD0
100
AcDbLine
 10
41.073126
 20
520.129103
 11
42.798587
 21
526.568609
  0
LINE
  5
120
100
AcDbEntity
  8
DD0
100
AcDbLine
 10
42.798587
 20
496.689611
 11
41.073126
 21
503.129116
  0
LINE
  5
121
100
AcDbEntity
  8
DD0
100
AcDbLine
 10
41.073126
 20
503.129116
 11
39.347666
 21
496.689611
  0
LINE
  5
122
100
AcDbEntity
  8
DD0
100
AcDbLine
 10
41.073126
 20
527.462437
 11
41.073126
 21
495.795783
  0
TEXT
  5
123
100
AcDbEntity
  8
DD0
100
AcDbText
 10
39.739792
 20
507.566133
 40
5.555556
  1
１７
 50
90.000003
 41
0.666667
  7
STANDARD
100
AcDbText
  0
ENDBLK
  5
124
100
AcDbEntity
  8
DD0
100
AcDbBlockEnd
  0
BLOCK
  5
127
100
AcDbEntity
  8
DD0
100
AcDbBlockBegin
  2
DIMS22
 70
     0
 10
0.0
 20
0.0
  0
LINE
  5
128
100
AcDbEntity
  8
DD0
100
AcDbLine
 10
83.239469
 20
503.129116
 11
38.850904
 21
503.129116
  0
LINE
  5
129
100
AcDbEntity
  8
DD0
100
AcDbLine
 10
83.239469
 20
444.12904
 11
38.850904
 21
444.12904
  0
LINE
  5
12A
100
AcDbEntity
  8
DD0
100
AcDbLine
 10
42.798587
 20
496.689611
 11
41.073126
 21
503.129116
  0
LINE
  5
12B
100
AcDbEntity
  8
DD0
100
AcDbLine
 10
41.073126
 20
503.129116
 11
39.347666
 21
496.689611
  0
LINE
  5
12C
100
AcDbEntity
  8
DD0
100
AcDbLine
 10
39.347666
 20
450.568546
 11
41.073126
 21
444.12904
  0
LINE
  5
12D
100
AcDbEntity
  8
DD0
100
AcDbLine
 10
41.073126
 20
444.12904
 11
42.798587
 21
450.568546
  0
LINE
  5
12E
100
AcDbEntity
  8
DD0
100
AcDbLine
 10
41.073126
 20
503.129116
 11
41.073126
 21
444.12904
  0
TEXT
  5
12F
100
AcDbEntity
  8
DD0
100
AcDbText
 10
39.739792
 20
469.566119
 40
5.555556
  1
５９
 50
90.000003
 41
0.666667
  7
STANDARD
100
AcDbText
  0
ENDBLK
  5
130
100
AcDbEntity
  8
DD0
100
AcDbBlockEnd
  0
ENDSEC
  0
SECTION
  2
ENTITIES
  0
INSERT
  5
56
100
AcDbEntity
  8
DD0
100
AcDbBlockReference
  2
DIMS0
 10
0.0
 20
0.0
  0
INSERT
  5
62
100
AcDbEntity
  8
DD0
100
AcDbBlockReference
  2
DIMS1
 10
0.0
 20
0.0
  0
INSERT
  5
6D
100
AcDbEntity
  8
DD0
100
AcDbBlockReference
  2
DIMS2
 10
0.0
 20
0.0
  0
INSERT
  5
79
100
AcDbEntity
  8
DD0
100
AcDbBlockReference
  2
DIMS3
 10
0.0
 20
0.0
  0
INSERT
  5
85
100
AcDbEntity
  8
DD0
100
AcDbBlockReference
  2
DIMS4
 10
0.0
 20
0.0
  0
INSERT
  5
91
100
AcDbEntity
  8
DD0
100
AcDbBlockReference
  2
DIMS5
 10
0.0
 20
0.0
  0
INSERT
  5
9E
100
AcDbEntity
  8
DD0
100
AcDbBlockReference
  2
DIMS6
 10
0.0
 20
0.0
  0
INSERT
  5
AA
100
AcDbEntity
  8
DD0
100
AcDbBlockReference
  2
DIMS7
 10
0.0
 20
0.0
  0
INSERT
  5
AF
100
AcDbEntity
  8
DD0
100
AcDbBlockReference
  2
DIMS8
 10
0.0
 20
0.0
  0
INSERT
  5
B4
100
AcDbEntity
  8
DD0
100
AcDbBlockReference
  2
DIMS9
 10
0.0
 20
0.0
  0
INSERT
  5
B9
100
AcDbEntity
  8
DD0
100
AcDbBlockReference
  2
DIMS10
 10
0.0
 20
0.0
  0
INSERT
  5
BE
100
AcDbEntity
  8
DD0
100
AcDbBlockReference
  2
DIMS11
 10
0.0
 20
0.0
  0
INSERT
  5
C3
100
AcDbEntity
  8
DD0
100
AcDbBlockReference
  2
DIMS12
 10
0.0
 20
0.0
  0
INSERT
  5
C8
100
AcDbEntity
  8
DD0
100
AcDbBlockReference
  2
DIMS13
 10
0.0
 20
0.0
  0
INSERT
  5
D1
100
AcDbEntity
  8
DD0
100
AcDbBlockReference
  2
DIMS14
 10
0.0
 20
0.0
  0
INSERT
  5
DD
100
AcDbEntity
  8
DD0
100
AcDbBlockReference
  2
DIMS15
 10
0.0
 20
0.0
  0
INSERT
  5
E9
100
AcDbEntity
  8
DD0
100
AcDbBlockReference
  2
DIMS16
 10
0.0
 20
0.0
  0
INSERT
  5
F5
100
AcDbEntity
  8
DD0
100
AcDbBlockReference
  2
DIMS17
 10
0.0
 20
0.0
  0
INSERT
  5
101
100
AcDbEntity
  8
DD0
100
AcDbBlockReference
  2
DIMS18
 10
0.0
 20
0.0
  0
INSERT
  5
10D
100
AcDbEntity
  8
DD0
100
AcDbBlockReference
  2
DIMS19
 10
0.0
 20
0.0
  0
INSERT
  5
119
100
AcDbEntity
  8
DD0
100
AcDbBlockReference
  2
DIMS20
 10
0.0
 20
0.0
  0
INSERT
  5
125
100
AcDbEntity
  8
DD0
100
AcDbBlockReference
  2
DIMS21
 10
0.0
 20
0.0
  0
INSERT
  5
131
100
AcDbEntity
  8
DD0
100
AcDbBlockReference
  2
DIMS22
 10
0.0
 20
0.0
  0
LINE
  5
132
100
AcDbEntity
  8
M0
 62
     7
100
AcDbLine
 10
384.960973
 20
479.82909
 11
386.760972
 21
479.82909
  0
LINE
  5
133
100
AcDbEntity
  8
M0
 62
     7
100
AcDbLine
 10
421.160972
 20
449.82909
 11
411.960972
 21
449.82909
  0
ARC
  5
134
100
AcDbEntity
  8
M0
 62
     7
100
AcDbCircle
 10
338.360972
 20
465.92909
 40
0.5
100
AcDbArc
 50
90.0
 51
180.0
  0
ARC
  5
135
100
AcDbEntity
  8
M0
 62
     7
100
AcDbCircle
 10
371.318332
 20
434.12909
 40
3.0
100
AcDbArc
 50
270.0
 51
315.0
  0
LINE
  5
136
100
AcDbEntity
  8
M0
 62
     7
100
AcDbLine
 10
421.160972
 20
444.829091
 11
411.960972
 21
444.829091
  0
LINE
  5
137
100
AcDbEntity
  8
M0
 62
     7
100
AcDbLine
 10
398.660973
 20
459.445318
 11
398.660973
 21
456.568535
  0
LINE
  5
138
100
AcDbEntity
  8
M0
 62
     7
100
AcDbLine
 10
410.960972
 20
432.12909
 11
410.960972
 21
448.833571
  0
LINE
  5
139
100
AcDbEntity
  8
M0
 62
     7
100
AcDbLine
 10
418.460972
 20
489.929091
 11
419.460972
 21
488.92909
  0
ARC
  5
13A
100
AcDbEntity
  8
M0
 62
     7
100
AcDbCircle
 10
416.460972
 20
460.82909
 40
1.0
100
AcDbArc
 50
270.0
 51
360.0
  0
ARC
  5
13B
100
AcDbEntity
  8
M0
 62
     7
100
AcDbCircle
 10
421.160972
 20
455.32909
 40
0.5
100
AcDbArc
 50
0.0
 51
90.0
  0
ARC
  5
13C
100
AcDbEntity
  8
M0
 62
     7
100
AcDbCircle
 10
392.175186
 20
510.62909
 40
1.0
100
AcDbArc
 50
90.0
 51
135.0
  0
ARC
  5
13D
100
AcDbEntity
  8
M0
 62
     7
100
AcDbCircle
 10
414.315405
 20
446.502819
 40
4.084682
100
AcDbArc
 50
125.479034
 51
145.207368
  0
ARC
  5
13E
100
AcDbEntity
  8
M0
 62
     7
100
AcDbCircle
 10
378.158241
 20
449.27909
 40
3.0
100
AcDbArc
 50
270.0
 51
310.364537
  0
ARC
  5
13F
100
AcDbEntity
  8
M0
 62
     7
100
AcDbCircle
 10
338.360972
 20
481.32909
 40
0.5
100
AcDbArc
 50
180.0
 51
270.0
  0
ARC
  5
140
100
AcDbEntity
  8
M0
 62
     7
100
AcDbCircle
 10
383.960972
 20
476.82909
 40
0.5
100
AcDbArc
 50
270.0
 51
360.0
  0
ARC
  5
141
100
AcDbEntity
  8
M0
 62
     7
100
AcDbCircle
 10
372.260972
 20
475.82909
 40
0.5
100
AcDbArc
 50
90.0
 51
180.0
  0
LINE
  5
142
100
AcDbEntity
  8
M0
 62
     7
100
AcDbLine
 10
337.860973
 20
469.62909
 11
333.560973
 21
469.62909
  0
LINE
  5
143
100
AcDbEntity
  8
M0
 62
     7
100
AcDbLine
 10
287.860973
 20
478.42909
 11
290.460972
 21
478.42909
  0
LINE
  5
144
100
AcDbEntity
  8
M0
 62
     7
100
AcDbLine
 10
290.960973
 20
478.629089
 11
285.860972
 21
478.629089
  0
LINE
  5
145
100
AcDbEntity
  8
M0
 62
     7
100
AcDbLine
 10
332.360973
 20
455.629091
 11
285.860972
 21
455.629091
  0
LINE
  5
146
100
AcDbEntity
  8
M0
 62
     7
100
AcDbLine
 10
285.860972
 20
480.829089
 11
290.960973
 21
480.829089
  0
LINE
  5
147
100
AcDbEntity
  8
M0
 62
     7
100
AcDbLine
 10
290.960973
 20
480.829089
 11
290.960973
 21
490.629089
  0
LINE
  5
148
100
AcDbEntity
  8
M0
 62
     7
100
AcDbLine
 10
337.860973
 20
488.129089
 11
337.860973
 21
461.52909
  0
LINE
  5
149
100
AcDbEntity
  8
M0
 62
     7
100
AcDbLine
 10
333.560973
 20
473.62909
 11
333.560973
 21
469.62909
  0
LINE
  5
14A
100
AcDbEntity
  8
M0
 62
     7
100
AcDbLine
 10
409.960972
 20
433.12909
 11
409.960972
 21
434.129088
  0
LINE
  5
14B
100
AcDbEntity
  8
M0
 62
     7
100
AcDbLine
 10
397.960972
 20
442.12909
 11
410.960972
 21
442.12909
  0
LINE
  5
14C
100
AcDbEntity
  8
M0
 62
     7
100
AcDbLine
 10
421.960972
 20
442.598784
 11
421.660972
 21
442.598784
  0
LINE
  5
14D
100
AcDbEntity
  8
M0
 62
     7
100
AcDbLine
 10
384.960973
 20
467.42909
 11
386.760972
 21
467.42909
  0
LINE
  5
14E
100
AcDbEntity
  8
M0
 62
     7
100
AcDbLine
 10
386.760972
 20
437.129091
 11
392.044892
 21
437.129091
  0
LINE
  5
14F
100
AcDbEntity
  8
M0
 62
     7
100
AcDbLine
 10
421.660972
 20
439.659397
 11
421.660972
 21
431.62909
  0
LINE
  5
150
100
AcDbEntity
  8
M0
 62
     7
100
AcDbLine
 10
392.175186
 20
511.629089
 11
410.960972
 21
511.629089
  0
LINE
  5
151
100
AcDbEntity
  8
M0
 62
     7
100
AcDbLine
 10
419.460972
 20
488.92909
 11
421.660972
 21
488.92909
  0
ARC
  5
152
100
AcDbEntity
  8
M0
 62
     7
100
AcDbCircle
 10
421.160972
 20
491.92909
 40
0.5
100
AcDbArc
 50
270.0
 51
360.0
  0
LINE
  5
153
100
AcDbEntity
  8
M0
 62
     7
100
AcDbLine
 10
385.260971
 20
467.62909
 11
386.760972
 21
467.62909
  0
LINE
  5
154
100
AcDbEntity
  8
M0
 62
     7
100
AcDbLine
 10
394.160973
 20
458.52909
 11
386.760972
 21
458.52909
  0
LINE
  5
155
100
AcDbEntity
  8
M0
 62
     7
100
AcDbLine
 10
364.060974
 20
500.979089
 11
378.158239
 21
500.979089
  0
LINE
  5
156
100
AcDbEntity
  8
M0
 62
     7
100
AcDbLine
 10
380.060972
 20
432.129092
 11
380.060972
 21
437.129091
  0
LINE
  5
157
100
AcDbEntity
  8
M0
 62
     7
100
AcDbLine
 10
418.460972
 20
491.42909
 11
418.460972
 21
489.929091
  0
LINE
  5
158
100
AcDbEntity
  8
M0
 62
     7
100
AcDbLine
 10
421.960972
 20
509.159397
 11
421.660972
 21
509.159397
  0
LINE
  5
159
100
AcDbEntity
  8
M0
 62
     7
100
AcDbLine
 10
394.160973
 20
488.729091
 11
386.760972
 21
488.729091
  0
LINE
  5
15A
100
AcDbEntity
  8
M0
 62
     7
100
AcDbLine
 10
421.160972
 20
431.12909
 11
381.060972
 21
431.12909
  0
LINE
  5
15B
100
AcDbEntity
  8
M0
 62
     7
100
AcDbLine
 10
394.160973
 20
488.729091
 11
394.160973
 21
493.72909
  0
LINE
  5
15C
100
AcDbEntity
  8
M0
 62
     7
100
AcDbLine
 10
386.760972
 20
479.62909
 11
386.760972
 21
506.62909
  0
LINE
  5
15D
100
AcDbEntity
  8
M0
 62
     7
100
AcDbLine
 10
346.660973
 20
469.92909
 11
346.660973
 21
477.32909
  0
LINE
  5
15E
100
AcDbEntity
  8
M0
 62
     7
100
AcDbLine
 10
421.160972
 20
491.42909
 11
414.460972
 21
491.42909
  0
LINE
  5
15F
100
AcDbEntity
  8
M0
 62
     7
100
AcDbLine
 10
372.260971
 20
470.92909
 11
383.960971
 21
470.92909
  0
LINE
  5
160
100
AcDbEntity
  8
M0
 62
     7
100
AcDbLine
 10
337.860973
 20
451.92909
 11
337.860973
 21
495.32909
  0
LINE
  5
161
100
AcDbEntity
  8
M0
 62
     7
100
AcDbLine
 10
347.660975
 20
478.32909
 11
347.660975
 21
468.92909
  0
LINE
  5
162
100
AcDbEntity
  8
M0
 62
     7
100
AcDbLine
 10
372.260971
 20
476.32909
 11
383.960971
 21
476.32909
  0
ARC
  5
163
100
AcDbEntity
  8
M0
 62
     7
100
AcDbCircle
 10
421.160972
 20
431.62909
 40
0.5
100
AcDbArc
 50
270.0
 51
360.0
  0
ARC
  5
164
100
AcDbEntity
  8
M0
 62
     7
100
AcDbCircle
 10
346.660972
 20
478.32909
 40
1.0
100
AcDbArc
 50
270.0
 51
360.0
  0
ARC
  5
165
100
AcDbEntity
  8
M0
 62
     7
100
AcDbCircle
 10
392.044893
 20
443.12909
 40
6.0
100
AcDbArc
 50
270.0
 51
350.405932
  0
ARC
  5
166
100
AcDbEntity
  8
M0
 62
     7
100
AcDbCircle
 10
378.760972
 20
517.12909
 40
3.0
100
AcDbArc
 50
90.0
 51
180.0
  0
ARC
  5
167
100
AcDbEntity
  8
M0
 62
     7
100
AcDbCircle
 10
410.460972
 20
433.12909
 40
0.5
100
AcDbArc
 50
180.0
 51
270.0
  0
ARC
  5
168
100
AcDbEntity
  8
M0
 62
     7
100
AcDbCircle
 10
416.460972
 20
486.42909
 40
1.0
100
AcDbArc
 50
0.0
 51
90.0
  0
ARC
  5
169
100
AcDbEntity
  8
M0
 62
     7
100
AcDbCircle
 10
346.660972
 20
468.92909
 40
1.0
100
AcDbArc
 50
0.0
 51
90.0
  0
ARC
  5
16A
100
AcDbEntity
  8
M0
 62
     7
100
AcDbCircle
 10
385.260972
 20
479.12909
 40
0.5
100
AcDbArc
 50
90.0
 51
180.0
  0
LINE
  5
16B
100
AcDbEntity
  8
M0
 62
     7
100
AcDbLine
 10
421.960972
 20
439.659397
 11
421.660972
 21
439.659397
  0
LINE
  5
16C
100
AcDbEntity
  8
M0
 62
     7
100
AcDbLine
 10
385.260971
 20
479.62909
 11
386.760972
 21
479.62909
  0
LINE
  5
16D
100
AcDbEntity
  8
M0
 62
     7
100
AcDbLine
 10
386.760972
 20
431.12909
 11
386.760972
 21
467.62909
  0
LINE
  5
16E
100
AcDbEntity
  8
M0
 62
     7
100
AcDbLine
 10
384.760974
 20
468.12909
 11
384.760974
 21
479.12909
  0
ARC
  5
16F
100
AcDbEntity
  8
M0
 62
     7
100
AcDbCircle
 10
385.260972
 20
468.12909
 40
0.5
100
AcDbArc
 50
180.0
 51
270.0
  0
ARC
  5
170
100
AcDbEntity
  8
M0
 62
     7
100
AcDbCircle
 10
421.160972
 20
514.62909
 40
0.5
100
AcDbArc
 50
0.0
 51
90.0
  0
ARC
  5
171
100
AcDbEntity
  8
M0
 62
     7
100
AcDbCircle
 10
411.960972
 20
432.12909
 40
1.0
100
AcDbArc
 50
180.0
 51
270.0
  0
ARC
  5
172
100
AcDbEntity
  8
M0
 62
     7
100
AcDbCircle
 10
411.960972
 20
514.12909
 40
1.0
100
AcDbArc
 50
90.0
 51
180.0
  0
LINE
  5
173
100
AcDbEntity
  8
M0
 62
     7
100
AcDbLine
 10
333.563699
 20
477.629089
 11
333.563699
 21
473.62909
  0
LINE
  5
174
100
AcDbEntity
  8
M0
 62
     7
100
AcDbLine
 10
335.860973
 20
491.62909
 11
336.860973
 21
491.62909
  0
LINE
  5
175
100
AcDbEntity
  8
M0
 62
     7
100
AcDbLine
 10
284.860974
 20
456.62909
 11
284.860974
 21
490.629089
  0
LINE
  5
176
100
AcDbEntity
  8
M0
 62
     7
100
AcDbLine
 10
337.860973
 20
488.129089
 11
336.860973
 21
491.62909
  0
LINE
  5
177
100
AcDbEntity
  8
M0
 62
     7
100
AcDbLine
 10
287.031153
 20
468.629089
 11
287.031153
 21
468.9533
  0
LINE
  5
178
100
AcDbEntity
  8
M0
 62
     7
100
AcDbLine
 10
290.960973
 20
456.629089
 11
290.960973
 21
466.429089
  0
LINE
  5
179
100
AcDbEntity
  8
M0
 62
     7
100
AcDbLine
 10
335.860973
 20
486.729089
 11
335.860973
 21
490.629089
  0
LINE
  5
17A
100
AcDbEntity
  8
M0
 62
     7
100
AcDbLine
 10
290.560974
 20
478.418988
 11
290.560974
 21
478.629089
  0
LINE
  5
17B
100
AcDbEntity
  8
M0
 62
     7
100
AcDbLine
 10
333.560973
 20
486.729089
 11
336.304715
 21
486.729089
  0
LINE
  5
17C
100
AcDbEntity
  8
M0
 62
     7
100
AcDbLine
 10
333.360974
 20
490.629089
 11
333.360974
 21
456.62909
  0
ARC
  5
17D
100
AcDbEntity
  8
M0
 62
     7
100
AcDbCircle
 10
290.460973
 20
477.92909
 40
0.5
100
AcDbArc
 50
0.0
 51
90.0
  0
ARC
  5
17E
100
AcDbEntity
  8
M0
 62
     7
100
AcDbCircle
 10
290.460973
 20
469.32909
 40
0.5
100
AcDbArc
 50
270.0
 51
360.0
  0
LINE
  5
17F
100
AcDbEntity
  8
M0
 62
     7
100
AcDbLine
 10
335.860973
 20
490.629089
 11
335.860973
 21
491.62909
  0
LINE
  5
180
100
AcDbEntity
  8
M0
 62
     7
100
AcDbLine
 10
286.860974
 20
474.679089
 11
286.360973
 21
474.679089
  0
LINE
  5
181
100
AcDbEntity
  8
M0
 62
     7
100
AcDbLine
 10
336.304715
 20
486.729089
 11
336.860973
 21
486.729089
  0
LINE
  5
182
100
AcDbEntity
  8
M0
 62
     7
100
AcDbLine
 10
287.031153
 20
478.629089
 11
287.031153
 21
478.304878
  0
LINE
  5
183
100
AcDbEntity
  8
M0
 62
     7
100
AcDbLine
 10
336.304715
 20
460.52909
 11
333.560973
 21
460.52909
  0
LINE
  5
184
100
AcDbEntity
  8
M0
 62
     7
100
AcDbLine
 10
291.960975
 20
455.629091
 11
285.860972
 21
455.629091
  0
LINE
  5
185
100
AcDbEntity
  8
M0
 62
     7
100
AcDbLine
 10
287.360972
 20
468.829089
 11
287.860973
 21
468.829089
  0
LINE
  5
186
100
AcDbEntity
  8
M0
 62
     7
100
AcDbLine
 10
290.460972
 20
468.829089
 11
287.860973
 21
468.829089
  0
LINE
  5
187
100
AcDbEntity
  8
M0
 62
     7
100
AcDbLine
 10
336.510973
 20
473.62909
 11
336.510973
 21
477.629089
  0
ARC
  5
188
100
AcDbEntity
  8
M0
 62
     7
100
AcDbCircle
 10
285.860973
 20
490.62909
 40
1.0
100
AcDbArc
 50
90.0
 51
180.0
  0
LINE
  5
189
100
AcDbEntity
  8
M0
 62
     7
100
AcDbLine
 10
286.360973
 20
478.629089
 11
286.360973
 21
468.629089
  0
LINE
  5
18A
100
AcDbEntity
  8
M0
 62
     7
100
AcDbLine
 10
333.560973
 20
460.52909
 11
333.560973
 21
456.629089
  0
LINE
  5
18B
100
AcDbEntity
  8
M0
 62
     7
100
AcDbLine
 10
290.960973
 20
466.429089
 11
285.860973
 21
466.429089
  0
LINE
  5
18C
100
AcDbEntity
  8
M0
 62
     7
100
AcDbLine
 10
290.960973
 20
468.629089
 11
290.960973
 21
478.629089
  0
LINE
  5
18D
100
AcDbEntity
  8
M0
 62
     7
100
AcDbLine
 10
286.360973
 20
474.629089
 11
286.860974
 21
474.629089
  0
LINE
  5
18E
100
AcDbEntity
  8
M0
 62
     7
100
AcDbLine
 10
292.460972
 20
455.629091
 11
285.860972
 21
455.629091
  0
LINE
  5
18F
100
AcDbEntity
  8
M0
 62
     7
100
AcDbLine
 10
336.510973
 20
469.62909
 11
336.510973
 21
473.62909
  0
LINE
  5
190
100
AcDbEntity
  8
M0
 62
     7
100
AcDbLine
 10
333.412732
 20
491.237025
 11
333.321623
 21
491.322878
  0
LINE
  5
191
100
AcDbEntity
  8
M0
 62
     7
100
AcDbLine
 10
285.860973
 20
468.629089
 11
290.960973
 21
468.629089
  0
LINE
  5
192
100
AcDbEntity
  8
M0
 62
     7
100
AcDbLine
 10
290.560974
 20
468.839192
 11
290.560974
 21
468.629089
  0
ARC
  5
193
100
AcDbEntity
  8
M0
 62
     7
100
AcDbCircle
 10
332.360973
 20
456.62909
 40
1.0
100
AcDbArc
 50
270.0
 51
360.0
  0
LINE
  5
194
100
AcDbEntity
  8
M0
 62
     7
100
AcDbLine
 10
286.860974
 20
469.32909
 11
286.860974
 21
477.92909
  0
ARC
  5
195
100
AcDbEntity
  8
M0
 62
     7
100
AcDbCircle
 10
338.860972
 20
451.92909
 40
1.0
100
AcDbArc
 50
180.0
 51
270.0
  0
LINE
  5
196
100
AcDbEntity
  8
M0
 62
     7
100
AcDbLine
 10
337.860973
 20
477.629089
 11
333.563699
 21
477.629089
  0
LINE
  5
197
100
AcDbEntity
  8
M0
 62
     7
100
AcDbLine
 10
287.860973
 20
478.42909
 11
287.360972
 21
478.42909
  0
ARC
  5
198
100
AcDbEntity
  8
M0
 62
     7
100
AcDbCircle
 10
345.560972
 20
511.12909
 40
5.0
100
AcDbArc
 50
90.0
 51
180.0
  0
ARC
  5
199
100
AcDbEntity
  8
M0
 62
     7
100
AcDbCircle
 10
341.560972
 20
468.42909
 40
1.0
100
AcDbArc
 50
180.0
 51
270.0
  0
ARC
  5
19A
100
AcDbEntity
  8
M0
 62
     7
100
AcDbCircle
 10
341.560972
 20
478.82909
 40
1.0
100
AcDbArc
 50
90.0
 51
180.0
  0
ARC
  5
19B
100
AcDbEntity
  8
M0
 62
     7
100
AcDbCircle
 10
358.060972
 20
450.52909
 40
3.0
100
AcDbArc
 50
0.0
 51
90.0
  0
LINE
  5
19C
100
AcDbEntity
  8
M0
 62
     7
100
AcDbLine
 10
336.860973
 20
460.52909
 11
336.304715
 21
460.52909
  0
LINE
  5
19D
100
AcDbEntity
  8
M0
 62
     7
100
AcDbLine
 10
292.660972
 20
455.629091
 11
285.860972
 21
455.629091
  0
LINE
  5
19E
100
AcDbEntity
  8
M0
 62
     7
100
AcDbLine
 10
333.360974
 20
490.629089
 11
333.360974
 21
491.129089
  0
LINE
  5
19F
100
AcDbEntity
  8
M0
 62
     7
100
AcDbLine
 10
285.860973
 20
491.62909
 11
332.860973
 21
491.62909
  0
LINE
  5
1A0
100
AcDbEntity
  8
M0
 62
     7
100
AcDbLine
 10
336.610973
 20
486.729089
 11
333.560973
 21
486.729089
  0
LINE
  5
1A1
100
AcDbEntity
  8
M0
 62
     7
100
AcDbLine
 10
331.860973
 20
491.62909
 11
332.556627
 21
491.62909
  0
LINE
  5
1A2
100
AcDbEntity
  8
M0
 62
     7
100
AcDbLine
 10
279.860974
 20
490.629089
 11
279.860974
 21
456.62909
  0
LINE
  5
1A3
100
AcDbEntity
  8
M0
 62
     7
100
AcDbLine
 10
333.560973
 20
490.887276
 11
333.560973
 21
486.729089
  0
ARC
  5
1A4
100
AcDbEntity
  8
M0
 62
     7
100
AcDbCircle
 10
285.860973
 20
467.62909
 40
1.0
100
AcDbArc
 50
90.0
 51
180.0
  0
ARC
  5
1A5
100
AcDbEntity
  8
M0
 62
     7
100
AcDbCircle
 10
336.860973
 20
461.52909
 40
1.0
100
AcDbArc
 50
270.0
 51
360.0
  0
ARC
  5
1A6
100
AcDbEntity
  8
M0
 62
     7
100
AcDbCircle
 10
332.860973
 20
491.12909
 40
0.5
100
AcDbArc
 50
0.0
 51
90.0
  0
ARC
  5
1A7
100
AcDbEntity
  8
M0
 62
     7
100
AcDbCircle
 10
285.860973
 20
467.42909
 40
1.0
100
AcDbArc
 50
180.0
 51
270.0
  0
ARC
  5
1A8
100
AcDbEntity
  8
M0
 62
     7
100
AcDbCircle
 10
285.860973
 20
479.62909
 40
1.0
100
AcDbArc
 50
180.0
 51
270.0
  0
ARC
  5
1A9
100
AcDbEntity
  8
M0
 62
     7
100
AcDbCircle
 10
291.960973
 20
456.62909
 40
1.0
100
AcDbArc
 50
180.0
 51
270.0
  0
ARC
  5
1AA
100
AcDbEntity
  8
M0
 62
     7
100
AcDbCircle
 10
332.560979
 20
456.629084
 40
0.999994
100
AcDbArc
 50
270.0
 51
360.0
  0
ARC
  5
1AB
100
AcDbEntity
  8
M0
 62
     7
100
AcDbCircle
 10
285.860973
 20
456.62909
 40
1.0
100
AcDbArc
 50
180.0
 51
270.0
  0
ARC
  5
1AC
100
AcDbEntity
  8
M0
 62
     7
100
AcDbCircle
 10
287.360973
 20
477.92909
 40
0.5
100
AcDbArc
 50
90.0
 51
180.0
  0
ARC
  5
1AD
100
AcDbEntity
  8
M0
 62
     7
100
AcDbCircle
 10
333.060973
 20
490.887276
 40
0.5
100
AcDbArc
 50
0.0
 51
44.92732
  0
ARC
  5
1AE
100
AcDbEntity
  8
M0
 62
     7
100
AcDbCircle
 10
346.660972
 20
456.52909
 40
3.0
100
AcDbArc
 50
180.0
 51
270.0
  0
ARC
  5
1AF
100
AcDbEntity
  8
M0
 62
     7
100
AcDbCircle
 10
376.560972
 20
517.42909
 40
1.0
100
AcDbArc
 50
143.130102
 51
180.0
  0
ARC
  5
1B0
100
AcDbEntity
  8
M0
 62
     7
100
AcDbCircle
 10
336.860973
 20
485.72909
 40
1.0
100
AcDbArc
 50
0.0
 51
90.0
  0
ARC
  5
1B1
100
AcDbEntity
  8
M0
 62
     7
100
AcDbCircle
 10
291.960973
 20
490.62909
 40
1.0
100
AcDbArc
 50
90.0
 51
180.0
  0
ARC
  5
1B2
100
AcDbEntity
  8
M0
 62
     7
100
AcDbCircle
 10
287.360973
 20
469.32909
 40
0.5
100
AcDbArc
 50
180.0
 51
270.0
  0
ARC
  5
1B3
100
AcDbEntity
  8
M0
 62
     7
100
AcDbCircle
 10
285.860973
 20
479.82909
 40
1.0
100
AcDbArc
 50
90.0
 51
180.0
  0
CIRCLE
  5
1B4
100
AcDbEntity
  8
M0
100
AcDbCircle
 10
189.961691
 20
444.129038
 40
5.0
  0
CIRCLE
  5
1B5
100
AcDbEntity
  8
M0
100
AcDbCircle
 10
172.361691
 20
444.129038
 40
5.0
  0
CIRCLE
  5
1B6
100
AcDbEntity
  8
M0
100
AcDbCircle
 10
172.361691
 20
503.1291
 40
5.0
  0
CIRCLE
  5
1B7
100
AcDbEntity
  8
M0
100
AcDbCircle
 10
207.561691
 20
444.129038
 40
5.0
  0
CIRCLE
  5
1B8
100
AcDbEntity
  8
M0
100
AcDbCircle
 10
85.461693
 20
444.129038
 40
5.0
  0
CIRCLE
  5
1B9
100
AcDbEntity
  8
M0
100
AcDbCircle
 10
85.461693
 20
503.1291
 40
5.0
  0
CIRCLE
  5
1BA
100
AcDbEntity
  8
M0
100
AcDbCircle
 10
120.661693
 20
444.129038
 40
5.0
  0
CIRCLE
  5
1BB
100
AcDbEntity
  8
M0
100
AcDbCircle
 10
103.061693
 20
444.129038
 40
5.0
  0
LINE
  5
1BC
100
AcDbEntity
  8
M0
 62
     7
100
AcDbLine
 10
375.76097
 20
519.129089
 11
375.76097
 21
519.62909
  0
LINE
  5
1BD
100
AcDbEntity
  8
M0
 62
     7
100
AcDbLine
 10
417.460972
 20
488.92909
 11
417.460972
 21
491.42909
  0
LINE
  5
1BE
100
AcDbEntity
  8
M0
 62
     7
100
AcDbLine
 10
414.160972
 20
487.812862
 11
398.660973
 21
487.812862
  0
LINE
  5
1BF
100
AcDbEntity
  8
M0
 62
     7
100
AcDbLine
 10
376.260971
 20
520.129091
 11
378.760973
 21
520.129091
  0
CIRCLE
  5
1C0
100
AcDbEntity
  8
M0
100
AcDbCircle
 10
207.561691
 20
503.1291
 40
5.0
  0
CIRCLE
  5
1C1
100
AcDbEntity
  8
M0
100
AcDbCircle
 10
189.961691
 20
503.1291
 40
5.0
  0
LINE
  5
1C2
100
AcDbEntity
  8
M0
 62
     7
100
AcDbLine
 10
373.060973
 20
476.32909
 11
373.060973
 21
471.12909
  0
LINE
  5
1C3
100
AcDbEntity
  8
M0
 62
     7
100
AcDbLine
 10
421.660972
 20
431.879091
 11
421.960972
 21
431.879091
  0
ARC
  5
1C4
100
AcDbEntity
  8
M0
 62
     7
100
AcDbCircle
 10
378.158241
 20
497.97909
 40
3.0
100
AcDbArc
 50
49.635463
 51
90.0
  0
ELLIPSE
  5
1C5
100
AcDbEntity
  8
M0
 62
     7
100
AcDbEllipse
 10
421.160972
 20
449.804152
 11
-0.5
 21
0.0
210
0.0
220
0.0
230
1.0
 40
0.049876
 41
3.141592653589793
 42
4.71238898038469
  0
ARC
  5
1C6
100
AcDbEntity
  8
M0
 62
     7
100
AcDbCircle
 10
383.960972
 20
470.42909
 40
0.5
100
AcDbArc
 50
0.0
 51
90.0
  0
ARC
  5
1C7
100
AcDbEntity
  8
M0
 62
     7
100
AcDbCircle
 10
358.060972
 20
496.72909
 40
3.0
100
AcDbArc
 50
270.0
 51
360.0
  0
LINE
  5
1C8
100
AcDbEntity
  8
M0
 62
     7
100
AcDbLine
 10
378.560973
 20
437.129091
 11
373.439653
 21
432.00777
  0
LINE
  5
1C9
100
AcDbEntity
  8
M0
 62
     7
100
AcDbLine
 10
371.318331
 20
431.12909
 11
345.56097
 21
431.12909
  0
ELLIPSE
  5
1CA
100
AcDbEntity
  8
M0
 62
     7
100
AcDbEllipse
 10
411.960972
 20
444.779215
 11
-1.0
 21
0.0
210
0.0
220
0.0
230
1.0
 40
0.049876
 41
4.71238898038469
 42
6.283185307179586
  0
ELLIPSE
  5
1CB
100
AcDbEntity
  8
M0
 62
     7
100
AcDbEllipse
 10
421.160972
 20
444.804152
 11
-0.5
 21
0.0
210
0.0
220
0.0
230
1.0
 40
0.049876
 41
3.141592653589793
 42
4.71238898038469
  0
ARC
  5
1CC
100
AcDbEntity
  8
M0
 62
     7
100
AcDbCircle
 10
384.960972
 20
467.92909
 40
0.5
100
AcDbArc
 50
180.0
 51
270.0
  0
ARC
  5
1CD
100
AcDbEntity
  8
M0
 62
     7
100
AcDbCircle
 10
346.660972
 20
490.72909
 40
3.0
100
AcDbArc
 50
90.0
 51
180.0
  0
CIRCLE
  5
1CE
100
AcDbEntity
  8
M0
100
AcDbCircle
 10
103.061693
 20
503.1291
 40
5.0
  0
CIRCLE
  5
1CF
100
AcDbEntity
  8
M0
100
AcDbCircle
 10
120.661693
 20
503.1291
 40
5.0
  0
ARC
  5
1D0
100
AcDbEntity
  8
M0
 62
     7
100
AcDbCircle
 10
338.860972
 20
495.32909
 40
1.0
100
AcDbArc
 50
90.0
 51
180.0
  0
ARC
  5
1D1
100
AcDbEntity
  8
M0
 62
     7
100
AcDbCircle
 10
372.260972
 20
471.42909
 40
0.5
100
AcDbArc
 50
180.0
 51
270.0
  0
ARC
  5
1D2
100
AcDbEntity
  8
M0
 62
     7
100
AcDbCircle
 10
384.960972
 20
479.32909
 40
0.5
100
AcDbArc
 50
90.0
 51
180.0
  0
ARC
  5
1D3
100
AcDbEntity
  8
M0
 62
     7
100
AcDbCircle
 10
364.060972
 20
497.97909
 40
3.0
100
AcDbArc
 50
90.0
 51
180.0
  0
LINE
  5
1D4
100
AcDbEntity
  8
M0
 62
     7
100
AcDbLine
 10
375.76097
 20
518.029089
 11
375.76097
 21
519.129089
  0
LINE
  5
1D5
100
AcDbEntity
  8
M0
 62
     7
100
AcDbLine
 10
387.960972
 20
520.129091
 11
387.460973
 21
520.129091
  0
LINE
  5
1D6
100
AcDbEntity
  8
M0
 62
     7
100
AcDbLine
 10
386.860972
 20
520.129091
 11
378.760973
 21
520.129091
  0
LINE
  5
1D7
100
AcDbEntity
  8
M0
 62
     7
100
AcDbLine
 10
375.76097
 20
511.062424
 11
375.76097
 21
517.129089
  0
LINE
  5
1D8
100
AcDbEntity
  8
M0
 62
     7
100
AcDbLine
 10
417.460972
 20
455.829091
 11
417.460972
 21
491.42909
  0
LINE
  5
1D9
100
AcDbEntity
  8
M0
 62
     7
100
AcDbLine
 10
341.560969
 20
479.82909
 11
343.660975
 21
479.82909
  0
LINE
  5
1DA
100
AcDbEntity
  8
M0
 62
     7
100
AcDbLine
 10
344.660969
 20
477.32909
 11
344.660969
 21
469.92909
  0
LINE
  5
1DB
100
AcDbEntity
  8
M0
 62
     7
100
AcDbLine
 10
373.443933
 20
514.731068
 11
378.560973
 21
506.62909
  0
LINE
  5
1DC
100
AcDbEntity
  8
M0
 62
     7
100
AcDbLine
 10
343.660975
 20
467.42909
 11
341.560969
 21
467.42909
  0
LINE
  5
1DD
100
AcDbEntity
  8
M0
 62
     7
100
AcDbLine
 10
421.660972
 20
509.159397
 11
421.660972
 21
488.92909
  0
LINE
  5
1DE
100
AcDbEntity
  8
M0
 62
     7
100
AcDbLine
 10
346.660973
 20
469.92909
 11
344.660969
 21
469.92909
  0
LINE
  5
1DF
100
AcDbEntity
  8
M0
 62
     7
100
AcDbLine
 10
421.960972
 20
502.379091
 11
421.660972
 21
502.379091
  0
LINE
  5
1E0
100
AcDbEntity
  8
M0
 62
     7
100
AcDbLine
 10
343.660975
 20
456.52909
 11
343.660975
 21
468.92909
  0
LINE
  5
1E1
100
AcDbEntity
  8
M0
 62
     7
100
AcDbLine
 10
401.060972
 20
514.714877
 11
401.060972
 21
511.629089
  0
LINE
  5
1E2
100
AcDbEntity
  8
M0
 62
     7
100
AcDbLine
 10
398.660973
 20
490.689646
 11
414.160972
 21
490.689646
  0
LINE
  5
1E3
100
AcDbEntity
  8
M0
 62
     7
100
AcDbLine
 10
421.660972
 20
514.629091
 11
421.660972
 21
514.379091
  0
LINE
  5
1E4
100
AcDbEntity
  8
M0
 62
     7
100
AcDbLine
 10
421.960972
 20
502.381101
 11
421.660972
 21
502.381101
  0
LINE
  5
1E5
100
AcDbEntity
  8
M0
 62
     7
100
AcDbLine
 10
414.160972
 20
456.568535
 11
398.660973
 21
456.568535
  0
LINE
  5
1E6
100
AcDbEntity
  8
M0
 62
     7
100
AcDbLine
 10
421.960972
 20
514.379091
 11
421.660972
 21
514.379091
  0
LINE
  5
1E7
100
AcDbEntity
  8
M0
 62
     7
100
AcDbLine
 10
421.960972
 20
444.829091
 11
421.960972
 21
431.879091
  0
LINE
  5
1E8
100
AcDbEntity
  8
M0
 62
     7
100
AcDbLine
 10
382.260972
 20
448.82909
 11
380.101187
 21
446.993272
  0
LINE
  5
1E9
100
AcDbEntity
  8
M0
 62
     7
100
AcDbLine
 10
386.860972
 20
520.129091
 11
395.646758
 21
520.129091
  0
LINE
  5
1EA
100
AcDbEntity
  8
M0
 62
     7
100
AcDbLine
 10
340.560974
 20
469.12909
 11
337.860973
 21
469.12909
  0
LINE
  5
1EB
100
AcDbEntity
  8
M0
 62
     7
100
AcDbLine
 10
398.660973
 20
459.445318
 11
414.160972
 21
459.445318
  0
LINE
  5
1EC
100
AcDbEntity
  8
M0
 62
     7
100
AcDbLine
 10
375.76097
 20
517.129089
 11
375.76097
 21
519.129089
  0
LINE
  5
1ED
100
AcDbEntity
  8
M0
 62
     7
100
AcDbLine
 10
421.960972
 20
502.381101
 11
421.960972
 21
502.379091
  0
LINE
  5
1EE
100
AcDbEntity
  8
M0
 62
     7
100
AcDbLine
 10
358.060973
 20
453.529091
 11
346.660973
 21
453.529091
  0
LINE
  5
1EF
100
AcDbEntity
  8
M0
 62
     7
100
AcDbLine
 10
378.549659
 20
506.62909
 11
378.549659
 21
500.953446
  0
LINE
  5
1F0
100
AcDbEntity
  8
M0
 62
     7
100
AcDbLine
 10
340.560974
 20
436.12909
 11
340.560974
 21
511.12909
  0
LINE
  5
1F1
100
AcDbEntity
  8
M0
 62
     7
100
AcDbLine
 10
386.760972
 20
448.82909
 11
382.260972
 21
448.82909
  0
LINE
  5
1F2
100
AcDbEntity
  8
M0
 62
     7
100
AcDbLine
 10
376.560973
 20
471.12909
 11
376.560973
 21
476.32909
  0
LINE
  5
1F3
100
AcDbEntity
  8
M0
 62
     7
100
AcDbLine
 10
361.060971
 20
449.27909
 11
361.060971
 21
450.52909
  0
LINE
  5
1F4
100
AcDbEntity
  8
M0
 62
     7
100
AcDbLine
 10
396.353865
 20
519.836198
 11
400.768079
 21
515.421982
  0
ARC
  5
1F5
100
AcDbEntity
  8
M0
 62
     7
100
AcDbCircle
 10
395.646759
 20
519.12909
 40
1.0
100
AcDbArc
 50
45.0
 51
90.0
  0
ARC
  5
1F6
100
AcDbEntity
  8
M0
 62
     7
100
AcDbCircle
 10
384.460972
 20
476.62909
 40
0.5
100
AcDbArc
 50
53.130102
 51
90.0
  0
ARC
  5
1F7
100
AcDbEntity
  8
M0
 62
     7
100
AcDbCircle
 10
414.160972
 20
456.268535
 40
0.3
100
AcDbArc
 50
0.0
 51
90.0
  0
ARC
  5
1F8
100
AcDbEntity
  8
M0
 62
     7
100
AcDbCircle
 10
376.260972
 20
519.62909
 40
0.5
100
AcDbArc
 50
90.0
 51
180.0
  0
LINE
  5
1F9
100
AcDbEntity
  8
M0
 62
     7
100
AcDbLine
 10
421.960972
 20
514.379091
 11
421.960972
 21
502.379091
  0
LINE
  5
1FA
100
AcDbEntity
  8
M0
 62
     7
100
AcDbLine
 10
414.460972
 20
456.268535
 11
414.460972
 21
455.829091
  0
ARC
  5
1FB
100
AcDbEntity
  8
M0
 62
     7
100
AcDbCircle
 10
364.060972
 20
449.27909
 40
3.0
100
AcDbArc
 50
180.0
 51
270.0
  0
LINE
  5
1FC
100
AcDbEntity
  8
M0
 62
     7
100
AcDbLine
 10
421.660972
 20
455.32909
 11
421.660972
 21
442.598784
  0
ARC
  5
1FD
100
AcDbEntity
  8
M0
 62
     7
100
AcDbCircle
 10
381.060972
 20
432.12909
 40
1.0
100
AcDbArc
 50
180.0
 51
270.0
  0
ARC
  5
1FE
100
AcDbEntity
  8
M0
 62
     7
100
AcDbCircle
 10
345.560972
 20
436.12909
 40
5.0
100
AcDbArc
 50
180.0
 51
270.0
  0
ARC
  5
1FF
100
AcDbEntity
  8
M0
 62
     7
100
AcDbCircle
 10
373.560972
 20
471.12909
 40
0.5
100
AcDbArc
 50
180.0
 51
203.578178
  0
ARC
  5
200
100
AcDbEntity
  8
M0
 62
     7
100
AcDbCircle
 10
414.160972
 20
490.989645
 40
0.3
100
AcDbArc
 50
270.0
 51
360.0
  0
ARC
  5
201
100
AcDbEntity
  8
M0
 62
     7
100
AcDbCircle
 10
376.060972
 20
471.12909
 40
0.5
100
AcDbArc
 50
336.421822
 51
360.0
  0
ARC
  5
202
100
AcDbEntity
  8
M0
 62
     7
100
AcDbCircle
 10
370.907466
 20
513.12909
 40
3.0
100
AcDbArc
 50
32.275644
 51
90.0
  0
ARC
  5
203
100
AcDbEntity
  8
M0
 62
     7
100
AcDbCircle
 10
344.660972
 20
478.32909
 40
1.0
100
AcDbArc
 50
180.0
 51
270.0
  0
ARC
  5
204
100
AcDbEntity
  8
M0
 62
     7
100
AcDbCircle
 10
344.660972
 20
468.92909
 40
1.0
100
AcDbArc
 50
90.0
 51
180.0
  0
LINE
  5
205
100
AcDbEntity
  8
M0
 62
     7
100
AcDbLine
 10
384.460972
 20
479.32909
 11
384.460972
 21
476.82909
  0
LINE
  5
206
100
AcDbEntity
  8
M0
 62
     7
100
AcDbLine
 10
371.760974
 20
475.82909
 11
371.760974
 21
471.42909
  0
LINE
  5
207
100
AcDbEntity
  8
M0
 62
     7
100
AcDbLine
 10
340.560974
 20
475.12909
 11
337.860973
 21
475.12909
  0
LINE
  5
208
100
AcDbEntity
  8
M0
 62
     7
100
AcDbLine
 10
375.560971
 20
511.379089
 11
375.560971
 21
517.42909
  0
LINE
  5
209
100
AcDbEntity
  8
M0
 62
     7
100
AcDbLine
 10
346.660973
 20
493.72909
 11
358.060973
 21
493.72909
  0
LINE
  5
20A
100
AcDbEntity
  8
M0
 62
     7
100
AcDbLine
 10
384.460972
 20
470.42909
 11
384.460972
 21
467.92909
  0
LINE
  5
20B
100
AcDbEntity
  8
M0
 62
     7
100
AcDbLine
 10
340.560974
 20
480.82909
 11
338.360974
 21
480.82909
  0
LINE
  5
20C
100
AcDbEntity
  8
M0
 62
     7
100
AcDbLine
 10
410.960972
 20
498.429091
 11
410.960972
 21
514.12909
  0
LINE
  5
20D
100
AcDbEntity
  8
M0
 62
     7
100
AcDbLine
 10
337.860973
 20
478.12909
 11
340.560974
 21
478.12909
  0
LINE
  5
20E
100
AcDbEntity
  8
M0
 62
     7
100
AcDbLine
 10
339.360969
 20
475.12909
 11
339.360969
 21
472.12909
  0
LINE
  5
20F
100
AcDbEntity
  8
M0
 62
     7
100
AcDbLine
 10
337.860973
 20
472.12909
 11
340.560974
 21
472.12909
  0
LINE
  5
210
100
AcDbEntity
  8
M0
 62
     7
100
AcDbLine
 10
338.360974
 20
466.42909
 11
340.560974
 21
466.42909
  0
LINE
  5
211
100
AcDbEntity
  8
M0
 62
     7
100
AcDbLine
 10
339.360969
 20
480.82909
 11
339.360969
 21
478.12909
  0
LINE
  5
212
100
AcDbEntity
  8
M0
 62
     7
100
AcDbLine
 10
338.860975
 20
496.329091
 11
340.560974
 21
496.329091
  0
LINE
  5
213
100
AcDbEntity
  8
M0
 62
     7
100
AcDbLine
 10
339.360969
 20
466.42909
 11
339.360969
 21
469.12909
  0
LINE
  5
214
100
AcDbEntity
  8
M0
 62
     7
100
AcDbLine
 10
340.560974
 20
450.92909
 11
338.860975
 21
450.92909
  0
ARC
  5
215
100
AcDbEntity
  8
M0
 62
     7
100
AcDbCircle
 10
400.060972
 20
514.714877
 40
1.0
100
AcDbArc
 50
0.0
 51
45.0
  0
LINE
  5
216
100
AcDbEntity
  8
M0
 62
     7
100
AcDbLine
 10
411.960972
 20
515.129089
 11
421.160972
 21
515.129089
  0
LINE
  5
217
100
AcDbEntity
  8
M0
 62
     7
100
AcDbLine
 10
394.160973
 20
453.529091
 11
386.760972
 21
453.529091
  0
LINE
  5
218
100
AcDbEntity
  8
M0
 62
     7
100
AcDbLine
 10
346.660973
 20
477.32909
 11
344.660969
 21
477.32909
  0
LINE
  5
219
100
AcDbEntity
  8
M0
 62
     7
100
AcDbLine
 10
421.960972
 20
512.098785
 11
421.660972
 21
512.098785
  0
LINE
  5
21A
100
AcDbEntity
  8
M0
 62
     7
100
AcDbLine
 10
410.960972
 20
435.12909
 11
409.960972
 21
434.129089
  0
LINE
  5
21B
100
AcDbEntity
  8
M0
 62
     7
100
AcDbLine
 10
414.460972
 20
487.42909
 11
416.460972
 21
487.42909
  0
LINE
  5
21C
100
AcDbEntity
  8
M0
 62
     7
100
AcDbLine
 10
414.460972
 20
491.42909
 11
414.460972
 21
490.989645
  0
LINE
  5
21D
100
AcDbEntity
  8
M0
 62
     7
100
AcDbLine
 10
380.101187
 20
500.264908
 11
382.260972
 21
498.429091
  0
LINE
  5
21E
100
AcDbEntity
  8
M0
 62
     7
100
AcDbLine
 10
386.760972
 20
437.129091
 11
378.560973
 21
437.129091
  0
LINE
  5
21F
100
AcDbEntity
  8
M0
 62
     7
100
AcDbLine
 10
378.549659
 20
446.304734
 11
378.549659
 21
437.129091
  0
LINE
  5
220
100
AcDbEntity
  8
M0
 62
     7
100
AcDbLine
 10
384.760974
 20
477.92909
 11
384.460972
 21
477.92909
  0
LINE
  5
221
100
AcDbEntity
  8
M0
 62
     7
100
AcDbLine
 10
421.960972
 20
444.87909
 11
421.660972
 21
444.87909
  0
LINE
  5
222
100
AcDbEntity
  8
M0
 62
     7
100
AcDbLine
 10
398.660973
 20
490.689646
 11
398.660973
 21
487.812862
  0
LINE
  5
223
100
AcDbEntity
  8
M0
 62
     7
100
AcDbLine
 10
394.160973
 20
493.72909
 11
386.760972
 21
493.72909
  0
LINE
  5
224
100
AcDbEntity
  8
M0
 62
     7
100
AcDbLine
 10
378.158239
 20
446.279091
 11
364.060974
 21
446.279091
  0
LINE
  5
225
100
AcDbEntity
  8
M0
 62
     7
100
AcDbLine
 10
378.560973
 20
506.62909
 11
386.760972
 21
506.62909
  0
LINE
  5
226
100
AcDbEntity
  8
M0
 62
     7
100
AcDbLine
 10
416.460972
 20
459.82909
 11
414.460972
 21
459.82909
  0
LINE
  5
227
100
AcDbEntity
  8
M0
 62
     7
100
AcDbLine
 10
410.960972
 20
432.629089
 11
410.460972
 21
432.629089
  0
LINE
  5
228
100
AcDbEntity
  8
M0
 62
     7
100
AcDbLine
 10
417.460972
 20
485.429091
 11
417.760972
 21
485.92909
  0
LINE
  5
229
100
AcDbEntity
  8
M0
 62
     7
100
AcDbLine
 10
421.660972
 20
514.629091
 11
421.660972
 21
512.098785
  0
ARC
  5
22A
100
AcDbEntity
  8
M0
 62
     7
100
AcDbCircle
 10
414.160972
 20
459.745318
 40
0.3
100
AcDbArc
 50
270.0
 51
360.0
  0
ARC
  5
22B
100
AcDbEntity
  8
M0
 62
     7
100
AcDbCircle
 10
414.160972
 20
487.512863
 40
0.3
100
AcDbArc
 50
0.0
 51
90.0
  0
LINE
  5
22C
100
AcDbEntity
  8
M0
 62
     7
100
AcDbLine
 10
394.160973
 20
453.529091
 11
394.160973
 21
458.52909
  0
ARC
  5
22D
100
AcDbEntity
  8
M0
 62
     7
100
AcDbCircle
 10
384.460972
 20
469.62909
 40
0.5
100
AcDbArc
 50
270.0
 51
306.869898
  0
LINE
  5
22E
100
AcDbEntity
  8
M0
 62
     7
100
AcDbLine
 10
361.060971
 20
496.72909
 11
361.060971
 21
497.979091
  0
LINE
  5
22F
100
AcDbEntity
  8
M0
 62
     7
100
AcDbLine
 10
414.460972
 20
455.829091
 11
421.160972
 21
455.829091
  0
LINE
  5
230
100
AcDbEntity
  8
M0
 62
     7
100
AcDbLine
 10
343.660975
 20
478.32909
 11
343.660975
 21
490.729091
  0
LINE
  5
231
100
AcDbEntity
  8
M0
 62
     7
100
AcDbLine
 10
382.260972
 20
498.429091
 11
410.960972
 21
498.429091
  0
LINE
  5
232
100
AcDbEntity
  8
M0
 62
     7
100
AcDbLine
 10
386.760972
 20
506.62909
 11
391.46808
 21
511.336196
  0
LINE
  5
233
100
AcDbEntity
  8
M0
 62
     7
100
AcDbLine
 10
417.760972
 20
487.92909
 11
417.460972
 21
488.92909
  0
LINE
  5
234
100
AcDbEntity
  8
M0
 62
     7
100
AcDbLine
 10
417.760972
 20
487.92909
 11
417.760972
 21
485.92909
  0
LINE
  5
235
100
AcDbEntity
  8
M0
 62
     7
100
AcDbLine
 10
410.960972
 20
448.82909
 11
386.760972
 21
448.82909
  0
LINE
  5
236
100
AcDbEntity
  8
M0
 62
     7
100
AcDbLine
 10
345.56097
 20
516.129091
 11
370.907465
 21
516.129091
  0
ARC
  5
237
100
AcDbEntity
  8
M0
100
AcDbCircle
 10
76.811693
 20
432.1291
 40
1.0
100
AcDbArc
 50
180.0
 51
270.0
  0
ARC
  5
238
100
AcDbEntity
  8
M0
100
AcDbCircle
 10
103.061693
 20
513.9291
 40
2.65
100
AcDbArc
 50
350.223151
 51
369.776849
  0
ARC
  5
239
100
AcDbEntity
  8
M0
100
AcDbCircle
 10
139.711693
 20
492.7291
 40
1.0
100
AcDbArc
 50
90.0
 51
180.0
  0
ARC
  5
23A
100
AcDbEntity
  8
M0
100
AcDbCircle
 10
77.511693
 20
432.1291
 40
1.0
100
AcDbArc
 50
270.0
 51
360.0
  0
ARC
  5
23B
100
AcDbEntity
  8
M0
100
AcDbCircle
 10
128.611693
 20
432.1291
 40
1.0
100
AcDbArc
 50
180.0
 51
270.0
  0
LINE
  5
23C
100
AcDbEntity
  8
M0
100
AcDbLine
 10
85.311693
 20
519.129099
 11
85.311693
 21
519.6291
  0
ARC
  5
23D
100
AcDbEntity
  8
M0
100
AcDbCircle
 10
103.061693
 20
513.9291
 40
2.65
100
AcDbArc
 50
189.776849
 51
350.223151
  0
ARC
  5
23E
100
AcDbEntity
  8
M0
100
AcDbCircle
 10
103.061693
 20
513.9291
 40
2.65
100
AcDbArc
 50
170.223151
 51
189.776849
  0
ARC
  5
23F
100
AcDbEntity
  8
M0
100
AcDbCircle
 10
120.411693
 20
434.1291
 40
2.65
100
AcDbArc
 50
350.223151
 51
369.776849
  0
ARC
  5
240
100
AcDbEntity
  8
M0
100
AcDbCircle
 10
103.061693
 20
513.9291
 40
2.65
100
AcDbArc
 50
9.776849
 51
170.223151
  0
ARC
  5
241
100
AcDbEntity
  8
M0
100
AcDbCircle
 10
115.911693
 20
510.8291
 40
0.6
100
AcDbArc
 50
187.490122
 51
324.314617
  0
ARC
  5
242
100
AcDbEntity
  8
M0
100
AcDbCircle
 10
118.611693
 20
509.6291
 40
1.0
100
AcDbArc
 50
121.788346
 51
150.0
  0
LINE
  5
243
100
AcDbEntity
  8
M0
100
AcDbLine
 10
120.811694
 20
519.129099
 11
120.811694
 21
519.6291
  0
LINE
  5
244
100
AcDbEntity
  8
M0
100
AcDbLine
 10
82.611694
 20
511.629098
 11
83.111693
 21
511.629098
  0
LINE
  5
245
100
AcDbEntity
  8
M0
100
AcDbLine
 10
76.811694
 20
496.3291
 11
129.311693
 21
496.3291
  0
LINE
  5
246
100
AcDbEntity
  8
M0
100
AcDbLine
 10
67.561692
 20
456.979099
 11
67.561692
 21
463.4791
  0
LINE
  5
247
100
AcDbEntity
  8
M0
100
AcDbLine
 10
102.611693
 20
513.4791
 11
102.611693
 21
512.729098
  0
LINE
  5
248
100
AcDbEntity
  8
M0
100
AcDbLine
 10
104.649144
 20
513.4791
 11
103.511693
 21
513.4791
  0
CIRCLE
  5
249
100
AcDbEntity
  8
M0
100
AcDbCircle
 10
120.411693
 20
434.1291
 40
2.825
  0
LINE
  5
24A
100
AcDbEntity
  8
M0
100
AcDbLine
 10
122.511693
 20
518.629101
 11
115.211693
 21
518.629101
  0
LINE
  5
24B
100
AcDbEntity
  8
M0
100
AcDbLine
 10
102.611693
 20
515.129098
 11
102.611693
 21
514.3791
  0
LINE
  5
24C
100
AcDbEntity
  8
M0
100
AcDbLine
 10
102.611693
 20
513.4791
 11
101.474243
 21
513.4791
  0
LINE
  5
24D
100
AcDbEntity
  8
M0
100
AcDbLine
 10
83.611694
 20
518.629101
 11
83.111693
 21
518.1291
  0
LINE
  5
24E
100
AcDbEntity
  8
M0
100
AcDbLine
 10
83.111693
 20
518.1291
 11
83.111693
 21
510.129099
  0
ARC
  5
24F
100
AcDbEntity
  8
M0
100
AcDbCircle
 10
103.061692
 20
513.8791
 40
4.25
100
AcDbArc
 50
241.927521
 51
298.072495
  0
ARC
  5
250
100
AcDbEntity
  8
M0
100
AcDbCircle
 10
103.061692
 20
513.8791
 40
4.25
100
AcDbArc
 50
241.927521
 51
270.0
  0
ARC
  5
251
100
AcDbEntity
  8
M0
100
AcDbCircle
 10
90.211693
 20
510.8291
 40
0.6
100
AcDbArc
 50
215.685335
 51
270.0
  0
ARC
  5
252
100
AcDbEntity
  8
M0
100
AcDbCircle
 10
120.661693
 20
433.3791
 40
4.25
100
AcDbArc
 50
61.927513
 51
118.072487
  0
ARC
  5
253
100
AcDbEntity
  8
M0
100
AcDbCircle
 10
118.611693
 20
509.6291
 40
1.0
100
AcDbArc
 50
30.0
 51
58.211672
  0
ARC
  5
254
100
AcDbEntity
  8
M0
100
AcDbCircle
 10
103.061693
 20
433.3791
 40
4.25
100
AcDbArc
 50
61.927513
 51
118.072487
  0
ARC
  5
255
100
AcDbEntity
  8
M0
100
AcDbCircle
 10
120.661692
 20
513.8791
 40
4.25
100
AcDbArc
 50
241.927521
 51
298.072495
  0
ARC
  5
256
100
AcDbEntity
  8
M0
100
AcDbCircle
 10
85.461693
 20
433.3791
 40
4.25
100
AcDbArc
 50
61.927513
 51
118.072487
  0
ARC
  5
257
100
AcDbEntity
  8
M0
100
AcDbCircle
 10
120.661692
 20
513.8791
 40
4.25
100
AcDbArc
 50
241.927521
 51
270.0
  0
ARC
  5
258
100
AcDbEntity
  8
M0
100
AcDbCircle
 10
138.061694
 20
449.3791
 40
0.5
100
AcDbArc
 50
270.0
 51
360.0
  0
ARC
  5
259
100
AcDbEntity
  8
M0
100
AcDbCircle
 10
138.061693
 20
455.8791
 40
0.5
100
AcDbArc
 50
0.0
 51
90.0
  0
ARC
  5
25A
100
AcDbEntity
  8
M0
100
AcDbCircle
 10
131.561693
 20
483.7791
 40
0.5
100
AcDbArc
 50
180.0
 51
270.0
  0
ARC
  5
25B
100
AcDbEntity
  8
M0
100
AcDbCircle
 10
131.561693
 20
455.879099
 40
0.5
100
AcDbArc
 50
90.0
 51
180.0
  0
ARC
  5
25C
100
AcDbEntity
  8
M0
100
AcDbCircle
 10
138.061693
 20
483.7791
 40
0.5
100
AcDbArc
 50
270.0
 51
360.0
  0
ARC
  5
25D
100
AcDbEntity
  8
M0
100
AcDbCircle
 10
138.061693
 20
490.2791
 40
0.5
100
AcDbArc
 50
0.0
 51
90.0
  0
ARC
  5
25E
100
AcDbEntity
  8
M0
100
AcDbCircle
 10
129.811693
 20
481.3291
 40
0.5
100
AcDbArc
 50
270.0
 51
360.0
  0
ARC
  5
25F
100
AcDbEntity
  8
M0
100
AcDbCircle
 10
85.461692
 20
513.8791
 40
4.25
100
AcDbArc
 50
241.927521
 51
270.0
  0
ARC
  5
260
100
AcDbEntity
  8
M0
100
AcDbCircle
 10
85.461692
 20
513.8791
 40
4.25
100
AcDbArc
 50
241.927521
 51
298.072495
  0
ARC
  5
261
100
AcDbEntity
  8
M0
100
AcDbCircle
 10
76.811693
 20
495.3291
 40
1.0
100
AcDbArc
 50
90.0
 51
180.0
  0
ARC
  5
262
100
AcDbEntity
  8
M0
100
AcDbCircle
 10
68.061693
 20
463.4791
 40
0.5
100
AcDbArc
 50
90.0
 51
180.0
  0
ARC
  5
263
100
AcDbEntity
  8
M0
100
AcDbCircle
 10
74.561693
 20
456.9791
 40
0.5
100
AcDbArc
 50
270.0
 51
360.0
  0
ARC
  5
264
100
AcDbEntity
  8
M0
100
AcDbCircle
 10
68.061693
 20
490.279099
 40
0.5
100
AcDbArc
 50
90.0
 51
180.0
  0
ARC
  5
265
100
AcDbEntity
  8
M0
100
AcDbCircle
 10
68.061694
 20
483.779099
 40
0.5
100
AcDbArc
 50
180.0
 51
270.0
  0
ARC
  5
266
100
AcDbEntity
  8
M0
100
AcDbCircle
 10
68.061694
 20
483.779099
 40
0.5
100
AcDbArc
 50
180.0
 51
270.0
  0
ARC
  5
267
100
AcDbEntity
  8
M0
100
AcDbCircle
 10
74.561694
 20
483.7791
 40
0.5
100
AcDbArc
 50
270.0
 51
360.0
  0
ARC
  5
268
100
AcDbEntity
  8
M0
100
AcDbCircle
 10
68.061693
 20
456.9791
 40
0.5
100
AcDbArc
 50
180.0
 51
270.0
  0
ARC
  5
269
100
AcDbEntity
  8
M0
100
AcDbCircle
 10
131.561693
 20
490.2791
 40
0.5
100
AcDbArc
 50
90.0
 51
180.0
  0
ARC
  5
26A
100
AcDbEntity
  8
M0
100
AcDbCircle
 10
74.561693
 20
490.2791
 40
0.5
100
AcDbArc
 50
0.0
 51
90.0
  0
ARC
  5
26B
100
AcDbEntity
  8
M0
100
AcDbCircle
 10
74.561693
 20
463.4791
 40
0.5
100
AcDbArc
 50
0.0
 51
90.0
  0
LINE
  5
26C
100
AcDbEntity
  8
M0
100
AcDbLine
 10
74.561693
 20
456.4791
 11
68.061693
 21
456.4791
  0
LINE
  5
26D
100
AcDbEntity
  8
M0
100
AcDbLine
 10
138.061694
 20
483.2791
 11
131.561693
 21
483.2791
  0
LINE
  5
26E
100
AcDbEntity
  8
M0
100
AcDbLine
 10
131.561693
 20
490.779099
 11
138.061694
 21
490.779099
  0
LINE
  5
26F
100
AcDbEntity
  8
M0
100
AcDbLine
 10
138.561695
 20
490.2791
 11
138.561695
 21
483.7791
  0
LINE
  5
270
100
AcDbEntity
  8
M0
100
AcDbLine
 10
68.061693
 20
463.979099
 11
74.561693
 21
463.979099
  0
LINE
  5
271
100
AcDbEntity
  8
M0
100
AcDbLine
 10
138.061694
 20
456.4791
 11
131.561694
 21
456.4791
  0
LINE
  5
272
100
AcDbEntity
  8
M0
100
AcDbLine
 10
138.561695
 20
456.979101
 11
138.561695
 21
463.4791
  0
LINE
  5
273
100
AcDbEntity
  8
M0
100
AcDbLine
 10
74.561693
 20
448.8791
 11
68.061693
 21
448.8791
  0
LINE
  5
274
100
AcDbEntity
  8
M0
100
AcDbLine
 10
131.561693
 20
463.979099
 11
138.061693
 21
463.979099
  0
ARC
  5
275
100
AcDbEntity
  8
M0
100
AcDbCircle
 10
76.311693
 20
481.3291
 40
0.5
100
AcDbArc
 50
180.0
 51
270.0
  0
LINE
  5
276
100
AcDbEntity
  8
M0
  6
DASHDOT
100
AcDbLine
 10
242.911687
 20
473.6291
 11
50.111697
 21
473.6291
  0
LINE
  5
277
100
AcDbEntity
  8
M0
100
AcDbLine
 10
131.061694
 20
483.7791
 11
131.061694
 21
490.2791
  0
LINE
  5
278
100
AcDbEntity
  8
M0
  6
DASHDOT
100
AcDbLine
 10
103.061693
 20
426.129099
 11
103.061693
 21
525.129101
  0
LINE
  5
279
100
AcDbEntity
  8
M0
100
AcDbLine
 10
68.061693
 20
490.779099
 11
74.561693
 21
490.779099
  0
LINE
  5
27A
100
AcDbEntity
  8
M0
100
AcDbLine
 10
74.561693
 20
483.2791
 11
68.061694
 21
483.2791
  0
LINE
  5
27B
100
AcDbEntity
  8
M0
100
AcDbLine
 10
122.261694
 20
510.479097
 11
115.761694
 21
510.479097
  0
LINE
  5
27C
100
AcDbEntity
  8
M0
100
AcDbLine
 10
66.411695
 20
453.5291
 11
66.311694
 21
453.5291
  0
LINE
  5
27D
100
AcDbEntity
  8
M0
100
AcDbLine
 10
67.561692
 20
497.879098
 11
67.561692
 21
491.379099
  0
LINE
  5
27E
100
AcDbEntity
  8
M0
100
AcDbLine
 10
122.761694
 20
510.979098
 11
122.761694
 21
517.4791
  0
LINE
  5
27F
100
AcDbEntity
  8
M0
100
AcDbLine
 10
75.061694
 20
497.8791
 11
75.061694
 21
491.3791
  0
LINE
  5
280
100
AcDbEntity
  8
M0
100
AcDbLine
 10
115.761693
 20
517.979101
 11
122.261693
 21
517.979101
  0
LINE
  5
281
100
AcDbEntity
  8
M0
100
AcDbLine
 10
127.611694
 20
432.129101
 11
127.611694
 21
434.129098
  0
LINE
  5
282
100
AcDbEntity
  8
M0
100
AcDbLine
 10
115.261694
 20
510.979098
 11
115.261691
 21
517.479099
  0
LINE
  5
283
100
AcDbEntity
  8
M0
100
AcDbLine
 10
92.411694
 20
434.129098
 11
92.411694
 21
432.129101
  0
LINE
  5
284
100
AcDbEntity
  8
M0
100
AcDbLine
 10
139.811693
 20
493.729099
 11
139.711692
 21
493.729099
  0
LINE
  5
285
100
AcDbEntity
  8
M0
100
AcDbLine
 10
139.711692
 20
453.5291
 11
139.811693
 21
453.5291
  0
LINE
  5
286
100
AcDbEntity
  8
M0
100
AcDbLine
 10
66.311694
 20
493.729099
 11
66.411695
 21
493.729099
  0
ARC
  5
287
100
AcDbEntity
  8
M0
100
AcDbCircle
 10
138.061694
 20
456.9791
 40
0.5
100
AcDbArc
 50
270.0
 51
360.0
  0
ARC
  5
288
100
AcDbEntity
  8
M0
100
AcDbCircle
 10
138.061694
 20
456.9791
 40
0.5
100
AcDbArc
 50
270.0
 51
360.0
  0
ARC
  5
289
100
AcDbEntity
  8
M0
100
AcDbCircle
 10
75.161693
 20
434.6291
 40
0.5
100
AcDbArc
 50
180.0
 51
270.0
  0
ARC
  5
28A
100
AcDbEntity
  8
M0
100
AcDbCircle
 10
74.611693
 20
513.1291
 40
2.0
100
AcDbArc
 50
53.130102
 51
90.0
  0
ARC
  5
28B
100
AcDbEntity
  8
M0
100
AcDbCircle
 10
131.511693
 20
513.1291
 40
2.0
100
AcDbArc
 50
90.0
 51
126.869898
  0
ARC
  5
28C
100
AcDbEntity
  8
M0
100
AcDbCircle
 10
68.061693
 20
449.3791
 40
0.5
100
AcDbArc
 50
180.0
 51
270.0
  0
CIRCLE
  5
28D
100
AcDbEntity
  8
M0
100
AcDbCircle
 10
85.711693
 20
434.1291
 40
2.85
  0
CIRCLE
  5
28E
100
AcDbEntity
  8
M0
100
AcDbCircle
 10
85.711693
 20
434.1291
 40
2.825
  0
ARC
  5
28F
100
AcDbEntity
  8
M0
100
AcDbCircle
 10
68.061693
 20
490.279099
 40
0.5
100
AcDbArc
 50
90.0
 51
180.0
  0
ARC
  5
290
100
AcDbEntity
  8
M0
100
AcDbCircle
 10
131.561693
 20
463.479099
 40
0.5
100
AcDbArc
 50
90.0
 51
180.0
  0
ARC
  5
291
100
AcDbEntity
  8
M0
100
AcDbCircle
 10
131.561694
 20
456.979099
 40
0.5
100
AcDbArc
 50
180.0
 51
270.0
  0
ARC
  5
292
100
AcDbEntity
  8
M0
100
AcDbCircle
 10
138.061693
 20
463.4791
 40
0.5
100
AcDbArc
 50
0.0
 51
90.0
  0
LINE
  5
293
100
AcDbEntity
  8
M0
100
AcDbLine
 10
67.561692
 20
490.279098
 11
67.561692
 21
483.779099
  0
ARC
  5
294
100
AcDbEntity
  8
M0
100
AcDbCircle
 10
139.711693
 20
447.2791
 40
1.0
100
AcDbArc
 50
180.0
 51
270.0
  0
LINE
  5
295
100
AcDbEntity
  8
M0
100
AcDbLine
 10
138.561695
 20
455.8791
 11
138.561695
 21
449.3791
  0
LINE
  5
296
100
AcDbEntity
  8
M0
100
AcDbLine
 10
131.561693
 20
456.3791
 11
138.061694
 21
456.3791
  0
LINE
  5
297
100
AcDbEntity
  8
M0
100
AcDbLine
 10
131.061694
 20
449.379099
 11
131.061694
 21
455.879099
  0
LINE
  5
298
100
AcDbEntity
  8
M0
100
AcDbLine
 10
138.061694
 20
448.8791
 11
131.561693
 21
448.8791
  0
ARC
  5
299
100
AcDbEntity
  8
M0
100
AcDbCircle
 10
80.108561
 20
485.478356
 40
5.573176
100
AcDbArc
 50
208.520126
 51
219.557059
  0
ARC
  5
29A
100
AcDbEntity
  8
M0
100
AcDbCircle
 10
126.014826
 20
485.478356
 40
5.573176
100
AcDbArc
 50
320.442941
 51
331.479874
  0
ARC
  5
29B
100
AcDbEntity
  8
M0
100
AcDbCircle
 10
75.811693
 20
493.1291
 40
0.6
100
AcDbArc
 50
90.0
 51
180.0
  0
ARC
  5
29C
100
AcDbEntity
  8
M0
100
AcDbCircle
 10
65.611693
 20
499.9791
 40
1.0
100
AcDbArc
 50
90.0
 51
180.0
  0
ARC
  5
29D
100
AcDbEntity
  8
M0
100
AcDbCircle
 10
130.311693
 20
493.1291
 40
0.6
100
AcDbArc
 50
0.0
 51
90.0
  0
ARC
  5
29E
100
AcDbEntity
  8
M0
100
AcDbCircle
 10
66.411693
 20
499.9791
 40
1.0
100
AcDbArc
 50
0.0
 51
90.0
  0
LINE
  5
29F
100
AcDbEntity
  8
M0
100
AcDbLine
 10
90.861694
 20
517.4791
 11
90.861694
 21
510.979098
  0
LINE
  5
2A0
100
AcDbEntity
  8
M0
100
AcDbLine
 10
75.061693
 20
455.8791
 11
75.061693
 21
449.379099
  0
LINE
  5
2A1
100
AcDbEntity
  8
M0
100
AcDbLine
 10
131.561693
 20
498.379099
 11
138.061694
 21
498.379099
  0
LINE
  5
2A2
100
AcDbEntity
  8
M0
100
AcDbLine
 10
138.061694
 20
490.879099
 11
131.561693
 21
490.879099
  0
LINE
  5
2A3
100
AcDbEntity
  8
M0
100
AcDbLine
 10
131.061694
 20
491.3791
 11
131.061694
 21
497.8791
  0
LINE
  5
2A4
100
AcDbEntity
  8
M0
100
AcDbLine
 10
83.861693
 20
517.979098
 11
90.361694
 21
517.979098
  0
LINE
  5
2A5
100
AcDbEntity
  8
M0
100
AcDbLine
 10
68.061693
 20
456.3791
 11
74.561693
 21
456.3791
  0
LINE
  5
2A6
100
AcDbEntity
  8
M0
100
AcDbLine
 10
131.061694
 20
456.979099
 11
131.061694
 21
463.479099
  0
LINE
  5
2A7
100
AcDbEntity
  8
M0
100
AcDbLine
 10
83.361693
 20
510.979098
 11
83.361693
 21
517.4791
  0
LINE
  5
2A8
100
AcDbEntity
  8
M0
100
AcDbLine
 10
138.561695
 20
497.8791
 11
138.561695
 21
491.3791
  0
LINE
  5
2A9
100
AcDbEntity
  8
M0
100
AcDbLine
 10
90.361694
 20
510.479101
 11
83.861693
 21
510.479101
  0
LINE
  5
2AA
100
AcDbEntity
  8
M0
100
AcDbLine
 10
101.474243
 20
514.3791
 11
100.45018
 21
514.3791
  0
LINE
  5
2AB
100
AcDbEntity
  8
M0
100
AcDbLine
 10
119.961693
 20
433.679101
 11
119.961693
 21
432.9291
  0
LINE
  5
2AC
100
AcDbEntity
  8
M0
100
AcDbLine
 10
119.961693
 20
435.329099
 11
119.961693
 21
434.579098
  0
LINE
  5
2AD
100
AcDbEntity
  8
M0
100
AcDbLine
 10
100.45018
 20
513.4791
 11
101.474243
 21
513.4791
  0
LINE
  5
2AE
100
AcDbEntity
  8
M0
100
AcDbLine
 10
120.861693
 20
432.9291
 11
120.861693
 21
433.679101
  0
LINE
  5
2AF
100
AcDbEntity
  8
M0
100
AcDbLine
 10
120.861693
 20
435.329099
 11
119.961693
 21
435.329099
  0
LINE
  5
2B0
100
AcDbEntity
  8
M0
100
AcDbLine
 10
78.511693
 20
437.1291
 11
83.461693
 21
437.1291
  0
LINE
  5
2B1
100
AcDbEntity
  8
M0
100
AcDbLine
 10
123.011694
 20
518.1291
 11
122.511693
 21
518.629101
  0
LINE
  5
2B2
100
AcDbEntity
  8
M0
100
AcDbLine
 10
130.911694
 20
456.429099
 11
138.711693
 21
456.429099
  0
LINE
  5
2B3
100
AcDbEntity
  8
M0
100
AcDbLine
 10
123.011694
 20
510.129099
 11
123.011694
 21
518.1291
  0
LINE
  5
2B4
100
AcDbEntity
  8
M0
100
AcDbLine
 10
120.861693
 20
434.579098
 11
121.999143
 21
434.579098
  0
LINE
  5
2B5
100
AcDbEntity
  8
M0
100
AcDbLine
 10
90.911694
 20
518.629101
 11
82.611694
 21
518.629101
  0
LINE
  5
2B6
100
AcDbEntity
  8
M0
100
AcDbLine
 10
103.511693
 20
515.129098
 11
102.611693
 21
515.129098
  0
LINE
  5
2B7
100
AcDbEntity
  8
M0
100
AcDbLine
 10
102.611693
 20
512.729098
 11
103.511693
 21
512.729098
  0
LINE
  5
2B8
100
AcDbEntity
  8
M0
100
AcDbLine
 10
103.511693
 20
514.3791
 11
104.649144
 21
514.3791
  0
LINE
  5
2B9
100
AcDbEntity
  8
M0
100
AcDbLine
 10
101.474243
 20
514.3791
 11
102.611693
 21
514.3791
  0
LINE
  5
2BA
100
AcDbEntity
  8
M0
100
AcDbLine
 10
75.061693
 20
463.479099
 11
75.061693
 21
456.9791
  0
LINE
  5
2BB
100
AcDbEntity
  8
M0
100
AcDbLine
 10
104.649144
 20
513.4791
 11
105.673206
 21
513.4791
  0
LINE
  5
2BC
100
AcDbEntity
  8
M0
100
AcDbLine
 10
105.673206
 20
514.3791
 11
104.649144
 21
514.3791
  0
LINE
  5
2BD
100
AcDbEntity
  8
M0
100
AcDbLine
 10
121.999143
 20
433.679101
 11
120.861693
 21
433.679101
  0
LINE
  5
2BE
100
AcDbEntity
  8
M0
100
AcDbLine
 10
119.961693
 20
433.679101
 11
118.824242
 21
433.679101
  0
LINE
  5
2BF
100
AcDbEntity
  8
M0
100
AcDbLine
 10
103.511693
 20
514.3791
 11
103.511693
 21
515.129098
  0
LINE
  5
2C0
100
AcDbEntity
  8
M0
100
AcDbLine
 10
103.511693
 20
512.729098
 11
103.511693
 21
513.4791
  0
ARC
  5
2C1
100
AcDbEntity
  8
M0
100
AcDbCircle
 10
138.061693
 20
455.8791
 40
0.5
100
AcDbArc
 50
0.0
 51
90.0
  0
ARC
  5
2C2
100
AcDbEntity
  8
M0
100
AcDbCircle
 10
131.561694
 20
449.379099
 40
0.5
100
AcDbArc
 50
180.0
 51
270.0
  0
ARC
  5
2C3
100
AcDbEntity
  8
M0
100
AcDbCircle
 10
129.311693
 20
515.1291
 40
1.0
100
AcDbArc
 50
0.0
 51
90.0
  0
ARC
  5
2C4
100
AcDbEntity
  8
M0
100
AcDbCircle
 10
138.061694
 20
449.3791
 40
0.5
100
AcDbArc
 50
270.0
 51
360.0
  0
ARC
  5
2C5
100
AcDbEntity
  8
M0
100
AcDbCircle
 10
74.561693
 20
455.8791
 40
0.5
100
AcDbArc
 50
0.0
 51
90.0
  0
ARC
  5
2C6
100
AcDbEntity
  8
M0
100
AcDbCircle
 10
85.711693
 20
434.1291
 40
2.65
100
AcDbArc
 50
189.776849
 51
350.223151
  0
ARC
  5
2C7
100
AcDbEntity
  8
M0
100
AcDbCircle
 10
74.561693
 20
449.3791
 40
0.5
100
AcDbArc
 50
270.0
 51
360.0
  0
LINE
  5
2C8
100
AcDbEntity
  8
M0
100
AcDbLine
 10
67.561692
 20
449.379099
 11
67.561692
 21
455.8791
  0
ARC
  5
2C9
100
AcDbEntity
  8
M0
100
AcDbCircle
 10
83.861693
 20
510.9791
 40
0.5
100
AcDbArc
 50
180.0
 51
270.0
  0
ARC
  5
2CA
100
AcDbEntity
  8
M0
100
AcDbCircle
 10
68.061693
 20
455.8791
 40
0.5
100
AcDbArc
 50
90.0
 51
180.0
  0
ARC
  5
2CB
100
AcDbEntity
  8
M0
100
AcDbCircle
 10
90.361693
 20
510.9791
 40
0.5
100
AcDbArc
 50
270.0
 51
360.0
  0
ARC
  5
2CC
100
AcDbEntity
  8
M0
100
AcDbCircle
 10
90.361693
 20
517.4791
 40
0.5
100
AcDbArc
 50
0.0
 51
90.0
  0
ARC
  5
2CD
100
AcDbEntity
  8
M0
100
AcDbCircle
 10
74.561693
 20
497.8791
 40
0.5
100
AcDbArc
 50
0.0
 51
90.0
  0
ARC
  5
2CE
100
AcDbEntity
  8
M0
100
AcDbCircle
 10
74.561694
 20
491.3791
 40
0.5
100
AcDbArc
 50
270.0
 51
360.0
  0
LINE
  5
2CF
100
AcDbEntity
  8
M0
100
AcDbLine
 10
127.611694
 20
510.129099
 11
122.661694
 21
510.129099
  0
LINE
  5
2D0
100
AcDbEntity
  8
M0
100
AcDbLine
 10
96.111694
 20
437.1291
 11
101.061693
 21
437.1291
  0
LINE
  5
2D1
100
AcDbEntity
  8
M0
100
AcDbLine
 10
113.711693
 20
437.1291
 11
118.661693
 21
437.1291
  0
ARC
  5
2D2
100
AcDbEntity
  8
M0
100
AcDbCircle
 10
68.061694
 20
491.379099
 40
0.5
100
AcDbArc
 50
180.0
 51
270.0
  0
ARC
  5
2D3
100
AcDbEntity
  8
M0
100
AcDbCircle
 10
115.761693
 20
517.479099
 40
0.5
100
AcDbArc
 50
90.0
 51
180.0
  0
ARC
  5
2D4
100
AcDbEntity
  8
M0
100
AcDbCircle
 10
115.761694
 20
510.979099
 40
0.5
100
AcDbArc
 50
180.0
 51
270.0
  0
ARC
  5
2D5
100
AcDbEntity
  8
M0
100
AcDbCircle
 10
68.061693
 20
497.879099
 40
0.5
100
AcDbArc
 50
90.0
 51
180.0
  0
ARC
  5
2D6
100
AcDbEntity
  8
M0
100
AcDbCircle
 10
122.261694
 20
510.9791
 40
0.5
100
AcDbArc
 50
270.0
 51
360.0
  0
ARC
  5
2D7
100
AcDbEntity
  8
M0
100
AcDbCircle
 10
122.261693
 20
517.4791
 40
0.5
100
AcDbArc
 50
0.0
 51
90.0
  0
LINE
  5
2D8
100
AcDbEntity
  8
M0
100
AcDbLine
 10
68.311694
 20
498.4291
 11
67.411693
 21
498.4291
  0
LINE
  5
2D9
100
AcDbEntity
  8
M0
100
AcDbLine
 10
92.611694
 20
515.729101
 11
92.611694
 21
517.929101
  0
LINE
  5
2DA
100
AcDbEntity
  8
M0
100
AcDbLine
 10
137.811693
 20
498.4291
 11
138.711693
 21
498.4291
  0
LINE
  5
2DB
100
AcDbEntity
  8
M0
100
AcDbLine
 10
101.061693
 20
437.1291
 11
105.061694
 21
437.1291
  0
LINE
  5
2DC
100
AcDbEntity
  8
M0
100
AcDbLine
 10
118.661692
 20
510.129099
 11
125.111694
 21
510.129099
  0
LINE
  5
2DD
100
AcDbEntity
  8
M0
100
AcDbLine
 10
130.911694
 20
498.4291
 11
131.811694
 21
498.4291
  0
ARC
  5
2DE
100
AcDbEntity
  8
M0
100
AcDbCircle
 10
74.811693
 20
468.4291
 40
1.0
100
AcDbArc
 50
180.0
 51
270.0
  0
ARC
  5
2DF
100
AcDbEntity
  8
M0
100
AcDbCircle
 10
71.611203
 20
506.0791
 40
0.3
100
AcDbArc
 50
90.0
 51
178.876481
  0
ARC
  5
2E0
100
AcDbEntity
  8
M0
100
AcDbCircle
 10
92.911693
 20
498.5291
 40
0.5
100
AcDbArc
 50
180.0
 51
270.0
  0
ARC
  5
2E1
100
AcDbEntity
  8
M0
100
AcDbCircle
 10
120.411693
 20
434.1291
 40
3.5
100
AcDbArc
 50
121.002719
 51
180.0
  0
ARC
  5
2E2
100
AcDbEntity
  8
M0
100
AcDbCircle
 10
110.511693
 20
448.7291
 40
0.5
100
AcDbArc
 50
90.0
 51
180.0
  0
LINE
  5
2E3
100
AcDbEntity
  8
M0
100
AcDbLine
 10
139.811693
 20
500.979099
 11
139.711692
 21
500.979099
  0
LINE
  5
2E4
100
AcDbEntity
  8
M0
100
AcDbLine
 10
91.961694
 20
432.129101
 11
91.961694
 21
437.1291
  0
LINE
  5
2E5
100
AcDbEntity
  8
M0
100
AcDbLine
 10
79.461693
 20
432.129101
 11
79.461693
 21
437.1291
  0
LINE
  5
2E6
100
AcDbEntity
  8
M0
100
AcDbLine
 10
114.161693
 20
432.129101
 11
114.161693
 21
437.1291
  0
LINE
  5
2E7
100
AcDbEntity
  8
M0
100
AcDbLine
 10
93.111694
 20
518.429098
 11
113.011693
 21
518.429098
  0
LINE
  5
2E8
100
AcDbEntity
  8
M0
100
AcDbLine
 10
66.311694
 20
446.2791
 11
66.411695
 21
446.2791
  0
LINE
  5
2E9
100
AcDbEntity
  8
M0
100
AcDbLine
 10
126.661694
 20
437.1291
 11
126.661694
 21
432.129101
  0
LINE
  5
2EA
100
AcDbEntity
  8
M0
100
AcDbLine
 10
116.911693
 20
434.129098
 11
116.911693
 21
432.129101
  0
LINE
  5
2EB
100
AcDbEntity
  8
M0
100
AcDbLine
 10
82.211693
 20
434.129098
 11
82.211693
 21
432.129101
  0
LINE
  5
2EC
100
AcDbEntity
  8
M0
100
AcDbLine
 10
82.611694
 20
510.129099
 11
82.611694
 21
519.1291
  0
LINE
  5
2ED
100
AcDbEntity
  8
M0
100
AcDbLine
 10
139.011693
 20
431.129099
 11
115.161693
 21
431.129099
  0
LINE
  5
2EE
100
AcDbEntity
  8
M0
100
AcDbLine
 10
66.311694
 20
500.979099
 11
66.411695
 21
500.979099
  0
LINE
  5
2EF
100
AcDbEntity
  8
M0
100
AcDbLine
 10
113.511693
 20
517.929101
 11
113.511693
 21
515.729101
  0
ARC
  5
2F0
100
AcDbEntity
  8
M0
100
AcDbCircle
 10
67.111693
 20
512.1291
 40
3.0
100
AcDbArc
 50
90.0
 51
180.0
  0
ARC
  5
2F1
100
AcDbEntity
  8
M0
100
AcDbCircle
 10
138.511693
 20
512.1291
 40
3.0
100
AcDbArc
 50
0.0
 51
90.0
  0
ARC
  5
2F2
100
AcDbEntity
  8
M0
100
AcDbCircle
 10
84.811693
 20
519.1291
 40
0.5
100
AcDbArc
 50
270.0
 51
360.0
  0
ARC
  5
2F3
100
AcDbEntity
  8
M0
100
AcDbCircle
 10
75.161693
 20
433.1291
 40
0.5
100
AcDbArc
 50
180.0
 51
270.0
  0
ARC
  5
2F4
100
AcDbEntity
  8
M0
100
AcDbCircle
 10
121.311693
 20
519.6291
 40
0.5
100
AcDbArc
 50
90.0
 51
180.0
  0
ARC
  5
2F5
100
AcDbEntity
  8
M0
100
AcDbCircle
 10
121.311693
 20
519.1291
 40
0.5
100
AcDbArc
 50
180.0
 51
270.0
  0
ARC
  5
2F6
100
AcDbEntity
  8
M0
100
AcDbCircle
 10
124.911693
 20
432.1291
 40
1.0
100
AcDbArc
 50
180.0
 51
270.0
  0
ARC
  5
2F7
100
AcDbEntity
  8
M0
100
AcDbCircle
 10
90.961693
 20
432.1291
 40
1.0
100
AcDbArc
 50
270.0
 51
360.0
  0
ARC
  5
2F8
100
AcDbEntity
  8
M0
100
AcDbCircle
 10
80.461693
 20
432.1291
 40
1.0
100
AcDbArc
 50
180.0
 51
270.0
  0
ARC
  5
2F9
100
AcDbEntity
  8
M0
100
AcDbCircle
 10
115.911693
 20
432.1291
 40
1.0
100
AcDbArc
 50
270.0
 51
360.0
  0
ARC
  5
2FA
100
AcDbEntity
  8
M0
100
AcDbCircle
 10
81.611693
 20
519.1291
 40
1.0
100
AcDbArc
 50
90.0
 51
180.0
  0
ARC
  5
2FB
100
AcDbEntity
  8
M0
100
AcDbCircle
 10
81.211693
 20
432.1291
 40
1.0
100
AcDbArc
 50
270.0
 51
360.0
  0
ARC
  5
2FC
100
AcDbEntity
  8
M0
100
AcDbCircle
 10
135.561693
 20
438.6291
 40
2.25
100
AcDbArc
 50
270.0
 51
355.815286
  0
ARC
  5
2FD
100
AcDbEntity
  8
M0
100
AcDbCircle
 10
111.011693
 20
432.1291
 40
1.0
100
AcDbArc
 50
180.0
 51
270.0
  0
ARC
  5
2FE
100
AcDbEntity
  8
M0
100
AcDbCircle
 10
68.012184
 20
508.6791
 40
0.3
100
AcDbArc
 50
270.0
 51
358.876481
  0
ARC
  5
2FF
100
AcDbEntity
  8
M0
100
AcDbCircle
 10
70.561693
 20
508.6291
 40
2.25
100
AcDbArc
 50
90.0
 51
178.876481
  0
ARC
  5
300
100
AcDbEntity
  8
M0
100
AcDbCircle
 10
73.061693
 20
508.6291
 40
2.25
100
AcDbArc
 50
270.0
 51
450.0
  0
ARC
  5
301
100
AcDbEntity
  8
M0
100
AcDbCircle
 10
84.811693
 20
519.6291
 40
0.5
100
AcDbArc
 50
0.0
 51
90.0
  0
ARC
  5
302
100
AcDbEntity
  8
M0
100
AcDbCircle
 10
113.211693
 20
448.7291
 40
0.5
100
AcDbArc
 50
0.0
 51
90.0
  0
ARC
  5
303
100
AcDbEntity
  8
M0
100
AcDbCircle
 10
69.061693
 20
506.1291
 40
2.25
100
AcDbArc
 50
272.401074
 51
358.876481
  0
ARC
  5
304
100
AcDbEntity
  8
M0
100
AcDbCircle
 10
133.061693
 20
438.6291
 40
2.25
100
AcDbArc
 50
90.0
 51
270.0
  0
ARC
  5
305
100
AcDbEntity
  8
M0
100
AcDbCircle
 10
92.911693
 20
448.7291
 40
0.5
100
AcDbArc
 50
90.0
 51
180.0
  0
ARC
  5
306
100
AcDbEntity
  8
M0
100
AcDbCircle
 10
95.611693
 20
448.7291
 40
0.5
100
AcDbArc
 50
0.0
 51
90.0
  0
LINE
  5
307
100
AcDbEntity
  8
M0
100
AcDbLine
 10
131.511693
 20
515.129098
 11
138.511694
 21
515.129098
  0
LINE
  5
308
100
AcDbEntity
  8
M0
100
AcDbLine
 10
141.511692
 20
449.829099
 11
142.011693
 21
444.8291
  0
LINE
  5
309
100
AcDbEntity
  8
M0
100
AcDbLine
 10
75.811694
 20
434.129098
 11
75.161694
 21
434.129098
  0
LINE
  5
30A
100
AcDbEntity
  8
M0
100
AcDbLine
 10
68.012184
 20
508.379099
 11
67.561692
 21
508.379099
  0
LINE
  5
30B
100
AcDbEntity
  8
M0
100
AcDbLine
 10
73.061694
 20
510.8791
 11
70.561695
 21
510.8791
  0
LINE
  5
30C
100
AcDbEntity
  8
M0
100
AcDbLine
 10
67.561692
 20
503.879099
 11
69.155956
 21
503.881076
  0
LINE
  5
30D
100
AcDbEntity
  8
M0
100
AcDbLine
 10
74.661693
 20
434.629099
 11
74.661693
 21
435.1291
  0
LINE
  5
30E
100
AcDbEntity
  8
M0
100
AcDbLine
 10
82.611694
 20
514.629101
 11
83.111693
 21
514.629101
  0
LINE
  5
30F
100
AcDbEntity
  8
M0
100
AcDbLine
 10
75.811694
 20
435.1291
 11
74.661693
 21
435.1291
  0
LINE
  5
310
100
AcDbEntity
  8
M0
100
AcDbLine
 10
123.511693
 20
515.729101
 11
123.011694
 21
515.729101
  0
LINE
  5
311
100
AcDbEntity
  8
M0
100
AcDbLine
 10
82.611694
 20
516.929099
 11
83.111693
 21
516.929099
  0
LINE
  5
312
100
AcDbEntity
  8
M0
100
AcDbLine
 10
83.111693
 20
515.729101
 11
82.611694
 21
515.729101
  0
ARC
  5
313
100
AcDbEntity
  8
M0
100
AcDbCircle
 10
115.161693
 20
432.1291
 40
1.0
100
AcDbArc
 50
180.0
 51
270.0
  0
ARC
  5
314
100
AcDbEntity
  8
M0
100
AcDbCircle
 10
125.661693
 20
432.1291
 40
1.0
100
AcDbArc
 50
270.0
 51
360.0
  0
ARC
  5
315
100
AcDbEntity
  8
M0
100
AcDbCircle
 10
120.411693
 20
434.1291
 40
3.5
100
AcDbArc
 50
0.0
 51
58.997281
  0
ARC
  5
316
100
AcDbEntity
  8
M0
100
AcDbCircle
 10
113.011693
 20
517.9291
 40
0.5
100
AcDbArc
 50
0.0
 51
90.0
  0
ARC
  5
317
100
AcDbEntity
  8
M0
100
AcDbCircle
 10
85.711693
 20
434.1291
 40
3.5
100
AcDbArc
 50
91.94738
 51
121.002719
  0
ARC
  5
318
100
AcDbEntity
  8
M0
100
AcDbCircle
 10
85.711693
 20
434.1291
 40
3.5
100
AcDbArc
 50
121.002719
 51
180.0
  0
CIRCLE
  5
319
100
AcDbEntity
  8
M0
100
AcDbCircle
 10
103.061693
 20
513.9291
 40
3.1
  0
LINE
  5
31A
100
AcDbEntity
  8
M0
100
AcDbLine
 10
71.611202
 20
506.379099
 11
73.061694
 21
506.379099
  0
ARC
  5
31B
100
AcDbEntity
  8
M0
100
AcDbCircle
 10
120.411693
 20
434.1291
 40
3.5
100
AcDbArc
 50
58.997281
 51
88.05262
  0
ARC
  5
31C
100
AcDbEntity
  8
M0
100
AcDbCircle
 10
65.611693
 20
447.2791
 40
1.0
100
AcDbArc
 50
180.0
 51
270.0
  0
ARC
  5
31D
100
AcDbEntity
  8
M0
100
AcDbCircle
 10
93.111693
 20
517.9291
 40
0.5
100
AcDbArc
 50
90.0
 51
180.0
  0
ARC
  5
31E
100
AcDbEntity
  8
M0
100
AcDbCircle
 10
85.711693
 20
434.1291
 40
3.5
100
AcDbArc
 50
0.0
 51
58.997281
  0
LINE
  5
31F
100
AcDbEntity
  8
M0
100
AcDbLine
 10
110.011693
 20
432.129101
 11
110.011693
 21
436.129098
  0
LINE
  5
320
100
AcDbEntity
  8
M0
100
AcDbLine
 10
110.011693
 20
436.129098
 11
110.011693
 21
448.729099
  0
LINE
  5
321
100
AcDbEntity
  8
M0
100
AcDbLine
 10
111.011694
 20
449.2291
 11
112.711694
 21
449.2291
  0
LINE
  5
322
100
AcDbEntity
  8
M0
100
AcDbLine
 10
123.911694
 20
432.129101
 11
123.911694
 21
434.129098
  0
LINE
  5
323
100
AcDbEntity
  8
M0
100
AcDbLine
 10
90.961693
 20
431.129099
 11
67.611693
 21
431.129099
  0
LINE
  5
324
100
AcDbEntity
  8
M0
100
AcDbLine
 10
89.211694
 20
434.129098
 11
89.211694
 21
432.129101
  0
LINE
  5
325
100
AcDbEntity
  8
M0
100
AcDbLine
 10
64.611695
 20
499.9791
 11
64.611695
 21
434.1291
  0
ARC
  5
326
100
AcDbEntity
  8
M0
100
AcDbCircle
 10
67.561693
 20
506.1291
 40
2.25
100
AcDbArc
 50
90.0
 51
270.0
  0
LINE
  5
327
100
AcDbEntity
  8
M0
100
AcDbLine
 10
65.611693
 20
446.2791
 11
66.411695
 21
446.2791
  0
LINE
  5
328
100
AcDbEntity
  8
M0
100
AcDbLine
 10
122.214469
 20
437.1291
 11
122.661694
 21
437.1291
  0
LINE
  5
329
100
AcDbEntity
  8
M0
100
AcDbLine
 10
80.611693
 20
510.129099
 11
80.611693
 21
519.129099
  0
LINE
  5
32A
100
AcDbEntity
  8
M0
100
AcDbLine
 10
83.908918
 20
437.1291
 11
83.461693
 21
437.1291
  0
LINE
  5
32B
100
AcDbEntity
  8
M0
100
AcDbLine
 10
141.511692
 20
512.1291
 11
141.511692
 21
447.2791
  0
LINE
  5
32C
100
AcDbEntity
  8
M0
100
AcDbLine
 10
67.111692
 20
515.129098
 11
74.611694
 21
515.129098
  0
LINE
  5
32D
100
AcDbEntity
  8
M0
100
AcDbLine
 10
75.811694
 20
442.129099
 11
74.661693
 21
442.129099
  0
LINE
  5
32E
100
AcDbEntity
  8
M0
100
AcDbLine
 10
125.511694
 20
511.629098
 11
127.611694
 21
511.629098
  0
LINE
  5
32F
100
AcDbEntity
  8
M0
100
AcDbLine
 10
78.511693
 20
511.629098
 11
80.611693
 21
511.629098
  0
LINE
  5
330
100
AcDbEntity
  8
M0
100
AcDbLine
 10
123.511693
 20
514.629101
 11
123.011694
 21
514.629101
  0
LINE
  5
331
100
AcDbEntity
  8
M0
100
AcDbLine
 10
93.411693
 20
431.129099
 11
93.911689
 21
431.129099
  0
LINE
  5
332
100
AcDbEntity
  8
M0
100
AcDbLine
 10
93.911689
 20
431.129099
 11
95.111693
 21
431.129099
  0
LINE
  5
333
100
AcDbEntity
  8
M0
100
AcDbLine
 10
64.111694
 20
502.429099
 11
64.111694
 21
512.129099
  0
LINE
  5
334
100
AcDbEntity
  8
M0
100
AcDbLine
 10
74.661693
 20
436.129098
 11
75.811694
 21
436.129098
  0
LINE
  5
335
100
AcDbEntity
  8
M0
100
AcDbLine
 10
134.513183
 20
440.8791
 11
133.061693
 21
440.8791
  0
LINE
  5
336
100
AcDbEntity
  8
M0
100
AcDbLine
 10
130.311693
 20
478.329099
 11
130.311693
 21
475.029099
  0
LINE
  5
337
100
AcDbEntity
  8
M0
100
AcDbLine
 10
130.311693
 20
475.1291
 11
129.311693
 21
475.1291
  0
LINE
  5
338
100
AcDbEntity
  8
M0
100
AcDbLine
 10
129.811694
 20
480.829099
 11
129.311693
 21
480.829099
  0
LINE
  5
339
100
AcDbEntity
  8
M0
100
AcDbLine
 10
123.011694
 20
516.929099
 11
123.511693
 21
516.929099
  0
LINE
  5
33A
100
AcDbEntity
  8
M0
100
AcDbLine
 10
129.311693
 20
478.129099
 11
130.311693
 21
478.129099
  0
LINE
  5
33B
100
AcDbEntity
  8
M0
100
AcDbLine
 10
75.811694
 20
475.1291
 11
76.811694
 21
475.1291
  0
LINE
  5
33C
100
AcDbEntity
  8
M0
100
AcDbLine
 10
129.311693
 20
475.1291
 11
129.311693
 21
472.129099
  0
LINE
  5
33D
100
AcDbEntity
  8
M0
100
AcDbLine
 10
76.811694
 20
480.829099
 11
76.311693
 21
480.829099
  0
LINE
  5
33E
100
AcDbEntity
  8
M0
100
AcDbLine
 10
75.811694
 20
478.329099
 11
75.811694
 21
475.1291
  0
ARC
  5
33F
100
AcDbEntity
  8
M0
100
AcDbCircle
 10
113.211693
 20
498.5291
 40
0.5
100
AcDbArc
 50
270.0
 51
360.0
  0
ARC
  5
340
100
AcDbEntity
  8
M0
100
AcDbCircle
 10
110.511693
 20
498.5291
 40
0.5
100
AcDbArc
 50
180.0
 51
270.0
  0
ARC
  5
341
100
AcDbEntity
  8
M0
100
AcDbCircle
 10
95.611693
 20
498.5291
 40
0.5
100
AcDbArc
 50
270.0
 51
360.0
  0
ARC
  5
342
100
AcDbEntity
  8
M0
100
AcDbCircle
 10
131.311693
 20
478.8291
 40
1.0
100
AcDbArc
 50
0.0
 51
90.0
  0
ARC
  5
343
100
AcDbEntity
  8
M0
100
AcDbCircle
 10
131.311693
 20
468.4291
 40
1.0
100
AcDbArc
 50
270.0
 51
360.0
  0
ARC
  5
344
100
AcDbEntity
  8
M0
100
AcDbCircle
 10
95.111693
 20
432.1291
 40
1.0
100
AcDbArc
 50
270.0
 51
360.0
  0
LINE
  5
345
100
AcDbEntity
  8
M0
100
AcDbLine
 10
123.511693
 20
518.629101
 11
122.511693
 21
518.629101
  0
LINE
  5
346
100
AcDbEntity
  8
M0
100
AcDbLine
 10
123.511693
 20
511.629098
 11
123.011694
 21
511.629098
  0
CIRCLE
  5
347
100
AcDbEntity
  8
M0
100
AcDbCircle
 10
138.061693
 20
510.6291
 40
2.25
  0
CIRCLE
  5
348
100
AcDbEntity
  8
M0
100
AcDbCircle
 10
68.061693
 20
435.6291
 40
2.25
  0
ARC
  5
349
100
AcDbEntity
  8
M0
100
AcDbCircle
 10
74.811693
 20
478.8291
 40
1.0
100
AcDbArc
 50
90.0
 51
180.0
  0
LINE
  5
34A
100
AcDbEntity
  8
M0
100
AcDbLine
 10
113.211693
 20
498.029099
 11
110.511693
 21
498.029099
  0
LINE
  5
34B
100
AcDbEntity
  8
M0
100
AcDbLine
 10
75.811694
 20
479.8291
 11
74.811694
 21
479.8291
  0
LINE
  5
34C
100
AcDbEntity
  8
M0
100
AcDbLine
 10
133.061693
 20
436.379099
 11
135.561692
 21
436.379099
  0
LINE
  5
34D
100
AcDbEntity
  8
M0
100
AcDbLine
 10
92.411694
 20
510.129099
 11
78.511693
 21
510.129099
  0
LINE
  5
34E
100
AcDbEntity
  8
M0
100
AcDbLine
 10
67.411693
 20
448.829099
 11
68.311694
 21
448.829099
  0
ARC
  5
34F
100
AcDbEntity
  8
M0
100
AcDbCircle
 10
138.061693
 20
463.4791
 40
0.5
100
AcDbArc
 50
0.0
 51
90.0
  0
LINE
  5
350
100
AcDbEntity
  8
M0
100
AcDbLine
 10
95.111693
 20
449.2291
 11
93.411693
 21
449.2291
  0
LINE
  5
351
100
AcDbEntity
  8
M0
100
AcDbLine
 10
95.611694
 20
449.2291
 11
95.111693
 21
449.2291
  0
LINE
  5
352
100
AcDbEntity
  8
M0
100
AcDbLine
 10
93.411693
 20
449.2291
 11
92.911693
 21
449.2291
  0
LINE
  5
353
100
AcDbEntity
  8
M0
100
AcDbLine
 10
130.311693
 20
479.8291
 11
131.311693
 21
479.8291
  0
LINE
  5
354
100
AcDbEntity
  8
M0
100
AcDbLine
 10
129.311693
 20
472.129099
 11
130.311693
 21
472.129099
  0
LINE
  5
355
100
AcDbEntity
  8
M0
100
AcDbLine
 10
76.811694
 20
475.1291
 11
76.811694
 21
472.129099
  0
LINE
  5
356
100
AcDbEntity
  8
M0
100
AcDbLine
 10
130.311693
 20
472.2291
 11
130.311693
 21
468.9291
  0
LINE
  5
357
100
AcDbEntity
  8
M0
100
AcDbLine
 10
76.811694
 20
469.1291
 11
76.811694
 21
466.4291
  0
LINE
  5
358
100
AcDbEntity
  8
M0
100
AcDbLine
 10
76.811694
 20
478.129099
 11
75.811694
 21
478.129099
  0
LINE
  5
359
100
AcDbEntity
  8
M0
100
AcDbLine
 10
129.311693
 20
480.829099
 11
129.311693
 21
478.129099
  0
LINE
  5
35A
100
AcDbEntity
  8
M0
100
AcDbLine
 10
129.311693
 20
469.1291
 11
129.311693
 21
466.4291
  0
LINE
  5
35B
100
AcDbEntity
  8
M0
100
AcDbLine
 10
75.811694
 20
472.129099
 11
75.811694
 21
468.9291
  0
LINE
  5
35C
100
AcDbEntity
  8
M0
100
AcDbLine
 10
130.311693
 20
469.1291
 11
129.311693
 21
469.1291
  0
LINE
  5
35D
100
AcDbEntity
  8
M0
100
AcDbLine
 10
74.811694
 20
472.2291
 11
76.511693
 21
472.2291
  0
LINE
  5
35E
100
AcDbEntity
  8
M0
100
AcDbLine
 10
78.511693
 20
450.729099
 11
77.511693
 21
450.729099
  0
LINE
  5
35F
100
AcDbEntity
  8
M0
100
AcDbLine
 10
73.811694
 20
478.8291
 11
73.811694
 21
468.429099
  0
LINE
  5
360
100
AcDbEntity
  8
M0
100
AcDbLine
 10
78.511693
 20
436.129098
 11
78.511693
 21
450.729099
  0
LINE
  5
361
100
AcDbEntity
  8
M0
100
AcDbLine
 10
132.311693
 20
478.8291
 11
132.311693
 21
468.429099
  0
LINE
  5
362
100
AcDbEntity
  8
M0
100
AcDbLine
 10
74.811694
 20
467.429099
 11
75.811694
 21
467.429099
  0
LINE
  5
363
100
AcDbEntity
  8
M0
100
AcDbLine
 10
139.811693
 20
446.2791
 11
139.711692
 21
446.2791
  0
LINE
  5
364
100
AcDbEntity
  8
M0
100
AcDbLine
 10
64.611695
 20
497.4291
 11
64.111694
 21
502.429099
  0
LINE
  5
365
100
AcDbEntity
  8
M0
100
AcDbLine
 10
131.811694
 20
448.829099
 11
130.911694
 21
448.829099
  0
LINE
  5
366
100
AcDbEntity
  8
M0
100
AcDbLine
 10
76.511693
 20
475.029099
 11
74.811694
 21
475.029099
  0
LINE
  5
367
100
AcDbEntity
  8
M0
100
AcDbLine
 10
138.711693
 20
448.829099
 11
137.811693
 21
448.829099
  0
LINE
  5
368
100
AcDbEntity
  8
M0
100
AcDbLine
 10
75.811694
 20
472.2291
 11
75.811694
 21
472.129099
  0
LINE
  5
369
100
AcDbEntity
  8
M0
100
AcDbLine
 10
113.711693
 20
448.729099
 11
113.711693
 21
436.129098
  0
LINE
  5
36A
100
AcDbEntity
  8
M0
100
AcDbLine
 10
112.711694
 20
449.2291
 11
113.211694
 21
449.2291
  0
LINE
  5
36B
100
AcDbEntity
  8
M0
100
AcDbLine
 10
127.611694
 20
436.129098
 11
127.611694
 21
450.729099
  0
ARC
  5
36C
100
AcDbEntity
  8
M0
100
AcDbCircle
 10
90.211693
 20
432.1291
 40
1.0
100
AcDbArc
 50
180.0
 51
270.0
  0
ARC
  5
36D
100
AcDbEntity
  8
M0
100
AcDbCircle
 10
81.611693
 20
519.1291
 40
1.0
100
AcDbArc
 50
0.0
 51
90.0
  0
LINE
  5
36E
100
AcDbEntity
  8
M0
100
AcDbLine
 10
74.661693
 20
442.129099
 11
74.661693
 21
436.129098
  0
LINE
  5
36F
100
AcDbEntity
  8
M0
100
AcDbLine
 10
110.511693
 20
449.2291
 11
111.011694
 21
449.2291
  0
LINE
  5
370
100
AcDbEntity
  8
M0
100
AcDbLine
 10
75.811694
 20
475.029099
 11
75.811694
 21
475.1291
  0
LINE
  5
371
100
AcDbEntity
  8
M0
100
AcDbLine
 10
131.311693
 20
467.429099
 11
130.311693
 21
467.429099
  0
LINE
  5
372
100
AcDbEntity
  8
M0
100
AcDbLine
 10
74.811694
 20
478.329099
 11
74.811694
 21
468.9291
  0
LINE
  5
373
100
AcDbEntity
  8
M0
100
AcDbLine
 10
131.311693
 20
478.329099
 11
131.311693
 21
468.9291
  0
LINE
  5
374
100
AcDbEntity
  8
M0
100
AcDbLine
 10
127.611694
 20
450.729099
 11
128.611694
 21
450.729099
  0
ARC
  5
375
100
AcDbEntity
  8
M0
100
AcDbCircle
 10
129.311693
 20
495.3291
 40
1.0
100
AcDbArc
 50
0.0
 51
90.0
  0
ARC
  5
376
100
AcDbEntity
  8
M0
100
AcDbCircle
 10
129.311693
 20
432.1291
 40
1.0
100
AcDbArc
 50
270.0
 51
360.0
  0
LINE
  5
377
100
AcDbEntity
  8
M0
100
AcDbLine
 10
76.811694
 20
480.829099
 11
76.811694
 21
478.129099
  0
LINE
  5
378
100
AcDbEntity
  8
M0
100
AcDbLine
 10
74.661693
 20
433.129099
 11
74.661693
 21
434.629099
  0
LINE
  5
379
100
AcDbEntity
  8
M0
100
AcDbLine
 10
75.211693
 20
498.4291
 11
74.311693
 21
498.4291
  0
LINE
  5
37A
100
AcDbEntity
  8
M0
100
AcDbLine
 10
75.811694
 20
432.629098
 11
75.161694
 21
432.629098
  0
LINE
  5
37B
100
AcDbEntity
  8
M0
100
AcDbLine
 10
127.611694
 20
434.129098
 11
126.661694
 21
434.129098
  0
LINE
  5
37C
100
AcDbEntity
  8
M0
100
AcDbLine
 10
127.611694
 20
435.1291
 11
126.661694
 21
435.1291
  0
LINE
  5
37D
100
AcDbEntity
  8
M0
100
AcDbLine
 10
127.611694
 20
432.629098
 11
126.661694
 21
432.629098
  0
LINE
  5
37E
100
AcDbEntity
  8
M0
100
AcDbLine
 10
74.311693
 20
448.829099
 11
75.211693
 21
448.829099
  0
ARC
  5
37F
100
AcDbEntity
  8
M0
100
AcDbCircle
 10
76.811693
 20
451.9291
 40
1.0
100
AcDbArc
 50
180.0
 51
270.0
  0
ARC
  5
380
100
AcDbEntity
  8
M0
100
AcDbCircle
 10
129.811693
 20
465.9291
 40
0.5
100
AcDbArc
 50
0.0
 51
90.0
  0
LINE
  5
381
100
AcDbEntity
  8
M0
  6
DASHDOT
100
AcDbLine
 10
84.961693
 20
444.1291
 11
85.961693
 21
444.1291
  0
ARC
  5
382
100
AcDbEntity
  8
M0
100
AcDbCircle
 10
129.311693
 20
451.9291
 40
1.0
100
AcDbArc
 50
270.0
 51
360.0
  0
ARC
  5
383
100
AcDbEntity
  8
M0
100
AcDbCircle
 10
76.311693
 20
465.9291
 40
0.5
100
AcDbArc
 50
90.0
 51
180.0
  0
LINE
  5
384
100
AcDbEntity
  8
M0
  6
DASHDOT
100
AcDbLine
 10
103.061693
 20
503.6291
 11
103.061693
 21
502.6291
  0
LINE
  5
385
100
AcDbEntity
  8
M0
  6
DASHDOT
100
AcDbLine
 10
102.561693
 20
503.1291
 11
103.561693
 21
503.1291
  0
LINE
  5
386
100
AcDbEntity
  8
M0
  6
DASHDOT
100
AcDbLine
 10
120.661693
 20
503.6291
 11
120.661693
 21
502.6291
  0
LINE
  5
387
100
AcDbEntity
  8
M0
  6
DASHDOT
100
AcDbLine
 10
120.161693
 20
503.1291
 11
121.161693
 21
503.1291
  0
LINE
  5
388
100
AcDbEntity
  8
M0
  6
DASHDOT
100
AcDbLine
 10
85.461693
 20
503.6291
 11
85.461693
 21
502.6291
  0
LINE
  5
389
100
AcDbEntity
  8
M0
  6
DASHDOT
100
AcDbLine
 10
84.961693
 20
503.1291
 11
85.961693
 21
503.1291
  0
LINE
  5
38A
100
AcDbEntity
  8
M0
  6
DASHDOT
100
AcDbLine
 10
120.161693
 20
444.1291
 11
121.161693
 21
444.1291
  0
LINE
  5
38B
100
AcDbEntity
  8
M0
  6
DASHDOT
100
AcDbLine
 10
85.461693
 20
443.6291
 11
85.461693
 21
444.6291
  0
LINE
  5
38C
100
AcDbEntity
  8
M0
  6
DASHDOT
100
AcDbLine
 10
120.661693
 20
443.6291
 11
120.661693
 21
444.6291
  0
LINE
  5
38D
100
AcDbEntity
  8
M0
  6
DASHDOT
100
AcDbLine
 10
103.061693
 20
443.6291
 11
103.061693
 21
444.6291
  0
LINE
  5
38E
100
AcDbEntity
  8
M0
  6
DASHDOT
100
AcDbLine
 10
102.561693
 20
444.1291
 11
103.561693
 21
444.1291
  0
LINE
  5
38F
100
AcDbEntity
  8
M0
100
AcDbLine
 10
75.061693
 20
490.2791
 11
75.061693
 21
483.7791
  0
LINE
  5
390
100
AcDbEntity
  8
M0
100
AcDbLine
 10
113.711693
 20
496.3291
 11
113.711693
 21
518.629101
  0
LINE
  5
391
100
AcDbEntity
  8
M0
100
AcDbLine
 10
120.611694
 20
519.6291
 11
120.611694
 21
518.629101
  0
LINE
  5
392
100
AcDbEntity
  8
M0
100
AcDbLine
 10
82.811693
 20
510.129099
 11
82.811693
 21
511.129101
  0
LINE
  5
393
100
AcDbEntity
  8
M0
100
AcDbLine
 10
85.511693
 20
518.629101
 11
85.511693
 21
519.6291
  0
LINE
  5
394
100
AcDbEntity
  8
M0
100
AcDbLine
 10
90.911694
 20
510.129099
 11
90.911694
 21
519.129099
  0
LINE
  5
395
100
AcDbEntity
  8
M0
100
AcDbLine
 10
68.311694
 20
499.4291
 11
74.311693
 21
499.4291
  0
LINE
  5
396
100
AcDbEntity
  8
M0
100
AcDbLine
 10
138.711693
 20
490.8291
 11
130.911694
 21
490.8291
  0
LINE
  5
397
100
AcDbEntity
  8
M0
100
AcDbLine
 10
81.611693
 20
520.129101
 11
124.511693
 21
520.129101
  0
LINE
  5
398
100
AcDbEntity
  8
M0
100
AcDbLine
 10
113.711693
 20
518.629101
 11
92.411694
 21
518.629101
  0
LINE
  5
399
100
AcDbEntity
  8
M0
100
AcDbLine
 10
74.311693
 20
447.829099
 11
68.311694
 21
447.829099
  0
LINE
  5
39A
100
AcDbEntity
  8
M0
100
AcDbLine
 10
75.211693
 20
490.8291
 11
67.411693
 21
490.8291
  0
ARC
  5
39B
100
AcDbEntity
  8
M0
100
AcDbCircle
 10
137.061693
 20
441.1291
 40
2.25
100
AcDbArc
 50
89.957854
 51
177.916058
  0
ARC
  5
39C
100
AcDbEntity
  8
M0
100
AcDbCircle
 10
139.011693
 20
434.1291
 40
3.0
100
AcDbArc
 50
270.0
 51
360.0
  0
ARC
  5
39D
100
AcDbEntity
  8
M0
100
AcDbCircle
 10
67.611693
 20
434.1291
 40
3.0
100
AcDbArc
 50
180.0
 51
270.0
  0
ARC
  5
39E
100
AcDbEntity
  8
M0
100
AcDbCircle
 10
134.513182
 20
441.1791
 40
0.3
100
AcDbArc
 50
270.0
 51
360.0
  0
ARC
  5
39F
100
AcDbEntity
  8
M0
100
AcDbCircle
 10
66.411693
 20
492.7291
 40
1.0
100
AcDbArc
 50
0.0
 51
90.0
  0
LINE
  5
3A0
100
AcDbEntity
  8
M0
100
AcDbLine
 10
68.311694
 20
498.379099
 11
68.311694
 21
499.4291
  0
LINE
  5
3A1
100
AcDbEntity
  8
M0
100
AcDbLine
 10
74.311693
 20
499.4291
 11
74.311693
 21
498.379099
  0
LINE
  5
3A2
100
AcDbEntity
  8
M0
100
AcDbLine
 10
131.811694
 20
499.4291
 11
137.811693
 21
499.4291
  0
LINE
  5
3A3
100
AcDbEntity
  8
M0
100
AcDbLine
 10
67.564199
 20
497.929099
 11
67.411693
 21
497.929099
  0
LINE
  5
3A4
100
AcDbEntity
  8
M0
100
AcDbLine
 10
137.811693
 20
499.4291
 11
137.811693
 21
498.379099
  0
LINE
  5
3A5
100
AcDbEntity
  8
M0
100
AcDbLine
 10
72.902276
 20
458.638456
 11
69.720636
 21
461.820219
  0
LINE
  5
3A6
100
AcDbEntity
  8
M0
100
AcDbLine
 10
71.664971
 20
461.643461
 11
69.897393
 21
459.875761
  0
LINE
  5
3A7
100
AcDbEntity
  8
M0
100
AcDbLine
 10
136.22552
 20
494.982792
 11
134.457942
 21
493.215214
  0
LINE
  5
3A8
100
AcDbEntity
  8
M0
100
AcDbLine
 10
135.164974
 20
496.043461
 11
133.397395
 21
494.275761
  0
LINE
  5
3A9
100
AcDbEntity
  8
M0
100
AcDbLine
 10
136.402278
 20
493.038456
 11
133.220638
 21
496.220219
  0
LINE
  5
3AA
100
AcDbEntity
  8
M0
100
AcDbLine
 10
136.402278
 20
485.438456
 11
133.220638
 21
488.620219
  0
LINE
  5
3AB
100
AcDbEntity
  8
M0
100
AcDbLine
 10
72.902276
 20
485.438456
 11
69.720636
 21
488.620219
  0
LINE
  5
3AC
100
AcDbEntity
  8
M0
100
AcDbLine
 10
72.725518
 20
487.382792
 11
70.95794
 21
485.615214
  0
LINE
  5
3AD
100
AcDbEntity
  8
M0
100
AcDbLine
 10
71.664971
 20
454.043461
 11
69.897393
 21
452.275761
  0
LINE
  5
3AE
100
AcDbEntity
  8
M0
100
AcDbLine
 10
72.902276
 20
451.038456
 11
69.720636
 21
454.220219
  0
LINE
  5
3AF
100
AcDbEntity
  8
M0
100
AcDbLine
 10
72.725518
 20
452.982792
 11
70.95794
 21
451.215214
  0
LINE
  5
3B0
100
AcDbEntity
  8
M0
100
AcDbLine
 10
72.725518
 20
460.582792
 11
70.95794
 21
458.815214
  0
CIRCLE
  5
3B1
100
AcDbEntity
  8
M0
100
AcDbCircle
 10
71.311692
 20
494.629101
 40
3.0
  0
CIRCLE
  5
3B2
100
AcDbEntity
  8
M0
100
AcDbCircle
 10
119.011691
 20
514.229103
 40
3.0
  0
CIRCLE
  5
3B3
100
AcDbEntity
  8
M0
100
AcDbCircle
 10
71.311692
 20
487.029101
 40
3.0
  0
CIRCLE
  5
3B4
100
AcDbEntity
  8
M0
100
AcDbCircle
 10
71.311692
 20
452.629098
 40
3.0
  0
CIRCLE
  5
3B5
100
AcDbEntity
  8
M0
100
AcDbCircle
 10
71.311692
 20
460.229098
 40
3.0
  0
CIRCLE
  5
3B6
100
AcDbEntity
  8
M0
100
AcDbCircle
 10
134.811694
 20
494.629101
 40
3.0
  0
LINE
  5
3B7
100
AcDbEntity
  8
M0
100
AcDbLine
 10
136.22552
 20
487.382792
 11
134.457942
 21
485.615214
  0
LINE
  5
3B8
100
AcDbEntity
  8
M0
100
AcDbLine
 10
135.164974
 20
488.443461
 11
133.397395
 21
486.675761
  0
CIRCLE
  5
3B9
100
AcDbEntity
  8
M0
100
AcDbCircle
 10
85.461693
 20
503.12913
 40
4.499996
  0
CIRCLE
  5
3BA
100
AcDbEntity
  8
M0
100
AcDbCircle
 10
120.661693
 20
503.12913
 40
4.499996
  0
CIRCLE
  5
3BB
100
AcDbEntity
  8
M0
100
AcDbCircle
 10
103.061693
 20
503.12913
 40
4.499996
  0
CIRCLE
  5
3BC
100
AcDbEntity
  8
M0
100
AcDbCircle
 10
87.111693
 20
514.2291
 40
3.0
  0
LINE
  5
3BD
100
AcDbEntity
  8
M0
100
AcDbLine
 10
104.942797
 20
503.596049
 11
102.59482
 21
501.248057
  0
LINE
  5
3BE
100
AcDbEntity
  8
M0
100
AcDbLine
 10
103.528597
 20
505.010265
 11
101.18062
 21
502.662273
  0
LINE
  5
3BF
100
AcDbEntity
  8
M0
100
AcDbLine
 10
100.992739
 20
505.198039
 11
105.255709
 21
500.9351
  0
LINE
  5
3C0
100
AcDbEntity
  8
M0
100
AcDbLine
 10
122.542797
 20
503.596049
 11
120.19482
 21
501.248057
  0
LINE
  5
3C1
100
AcDbEntity
  8
M0
100
AcDbLine
 10
121.128597
 20
505.010265
 11
118.78062
 21
502.662273
  0
LINE
  5
3C2
100
AcDbEntity
  8
M0
100
AcDbLine
 10
118.592739
 20
505.198039
 11
122.855709
 21
500.9351
  0
LINE
  5
3C3
100
AcDbEntity
  8
M0
100
AcDbLine
 10
123.511693
 20
510.129099
 11
123.511693
 21
519.1291
  0
LINE
  5
3C4
100
AcDbEntity
  8
M0
100
AcDbLine
 10
131.811694
 20
498.379099
 11
131.811694
 21
499.4291
  0
LINE
  5
3C5
100
AcDbEntity
  8
M0
100
AcDbLine
 10
125.511694
 20
510.129099
 11
125.511694
 21
519.129099
  0
LINE
  5
3C6
100
AcDbEntity
  8
M0
100
AcDbLine
 10
87.342797
 20
503.596049
 11
84.99482
 21
501.248057
  0
LINE
  5
3C7
100
AcDbEntity
  8
M0
100
AcDbLine
 10
85.928597
 20
505.010265
 11
83.58062
 21
502.662273
  0
LINE
  5
3C8
100
AcDbEntity
  8
M0
100
AcDbLine
 10
83.392739
 20
505.198039
 11
87.655709
 21
500.9351
  0
LINE
  5
3C9
100
AcDbEntity
  8
M0
100
AcDbLine
 10
120.602274
 20
512.638458
 11
117.420634
 21
515.820221
  0
LINE
  5
3CA
100
AcDbEntity
  8
M0
100
AcDbLine
 10
120.425516
 20
514.582794
 11
118.657938
 21
512.815216
  0
LINE
  5
3CB
100
AcDbEntity
  8
M0
100
AcDbLine
 10
71.664971
 20
496.043461
 11
69.897393
 21
494.275761
  0
LINE
  5
3CC
100
AcDbEntity
  8
M0
100
AcDbLine
 10
72.902276
 20
493.038456
 11
69.720636
 21
496.220219
  0
LINE
  5
3CD
100
AcDbEntity
  8
M0
100
AcDbLine
 10
72.725518
 20
494.982792
 11
70.95794
 21
493.215214
  0
LINE
  5
3CE
100
AcDbEntity
  8
M0
100
AcDbLine
 10
71.664971
 20
488.443461
 11
69.897393
 21
486.675761
  0
LINE
  5
3CF
100
AcDbEntity
  8
M0
100
AcDbLine
 10
88.525519
 20
514.582791
 11
86.757941
 21
512.815212
  0
LINE
  5
3D0
100
AcDbEntity
  8
M0
100
AcDbLine
 10
87.464973
 20
515.64346
 11
85.697394
 21
513.875759
  0
LINE
  5
3D1
100
AcDbEntity
  8
M0
100
AcDbLine
 10
88.702277
 20
512.638455
 11
85.520637
 21
515.820217
  0
LINE
  5
3D2
100
AcDbEntity
  8
M0
  6
DASHDOT
100
AcDbLine
 10
71.311694
 20
494.1291
 11
71.311694
 21
495.1291
  0
LINE
  5
3D3
100
AcDbEntity
  8
M0
  6
DASHDOT
100
AcDbLine
 10
70.811694
 20
494.6291
 11
71.811694
 21
494.6291
  0
LINE
  5
3D4
100
AcDbEntity
  8
M0
100
AcDbLine
 10
131.811694
 20
447.829099
 11
131.811694
 21
448.8791
  0
LINE
  5
3D5
100
AcDbEntity
  8
M0
100
AcDbLine
 10
137.811693
 20
448.8791
 11
137.811693
 21
447.829099
  0
LINE
  5
3D6
100
AcDbEntity
  8
M0
100
AcDbLine
 10
137.811693
 20
447.829099
 11
131.811694
 21
447.829099
  0
LINE
  5
3D7
100
AcDbEntity
  8
M0
100
AcDbLine
 10
130.911694
 20
449.3291
 11
131.0642
 21
449.3291
  0
LINE
  5
3D8
100
AcDbEntity
  8
M0
100
AcDbLine
 10
122.661694
 20
437.1291
 11
127.611694
 21
437.1291
  0
LINE
  5
3D9
100
AcDbEntity
  8
M0
100
AcDbLine
 10
118.661693
 20
510.129099
 11
113.711693
 21
510.129099
  0
LINE
  5
3DA
100
AcDbEntity
  8
M0
100
AcDbLine
 10
105.061694
 20
437.1291
 11
110.011693
 21
437.1291
  0
ARC
  5
3DB
100
AcDbEntity
  8
M0
100
AcDbCircle
 10
140.511693
 20
454.5291
 40
1.0
100
AcDbArc
 50
270.0
 51
360.0
  0
ARC
  5
3DC
100
AcDbEntity
  8
M0
100
AcDbCircle
 10
66.411693
 20
468.9291
 40
1.0
100
AcDbArc
 50
0.0
 51
90.0
  0
ARC
  5
3DD
100
AcDbEntity
  8
M0
100
AcDbCircle
 10
139.711693
 20
454.5291
 40
1.0
100
AcDbArc
 50
180.0
 51
270.0
  0
LINE
  5
3DE
100
AcDbEntity
  8
M0
100
AcDbLine
 10
113.711693
 20
506.829099
 11
113.711693
 21
509.629098
  0
LINE
  5
3DF
100
AcDbEntity
  8
M0
100
AcDbLine
 10
87.461694
 20
437.1291
 11
92.411694
 21
437.1291
  0
LINE
  5
3E0
100
AcDbEntity
  8
M0
100
AcDbLine
 10
86.161694
 20
435.329099
 11
85.261694
 21
435.329099
  0
LINE
  5
3E1
100
AcDbEntity
  8
M0
100
AcDbLine
 10
86.161694
 20
434.579098
 11
87.299145
 21
434.579098
  0
LINE
  5
3E2
100
AcDbEntity
  8
M0
100
AcDbLine
 10
85.261694
 20
433.679101
 11
84.124244
 21
433.679101
  0
LINE
  5
3E3
100
AcDbEntity
  8
M0
100
AcDbLine
 10
86.161694
 20
434.579098
 11
86.161694
 21
435.329099
  0
LINE
  5
3E4
100
AcDbEntity
  8
M0
100
AcDbLine
 10
83.10018
 20
433.679101
 11
84.124244
 21
433.679101
  0
LINE
  5
3E5
100
AcDbEntity
  8
M0
100
AcDbLine
 10
87.299145
 20
433.679101
 11
88.323206
 21
433.679101
  0
LINE
  5
3E6
100
AcDbEntity
  8
M0
100
AcDbLine
 10
87.299145
 20
433.679101
 11
86.161694
 21
433.679101
  0
LINE
  5
3E7
100
AcDbEntity
  8
M0
100
AcDbLine
 10
113.711693
 20
434.129098
 11
113.711693
 21
432.129101
  0
LINE
  5
3E8
100
AcDbEntity
  8
M0
100
AcDbLine
 10
78.511693
 20
432.129101
 11
78.511693
 21
434.129098
  0
LINE
  5
3E9
100
AcDbEntity
  8
M0
100
AcDbLine
 10
88.323206
 20
434.579098
 11
87.299145
 21
434.579098
  0
LINE
  5
3EA
100
AcDbEntity
  8
M0
100
AcDbLine
 10
85.261694
 20
435.329099
 11
85.261694
 21
434.579098
  0
LINE
  5
3EB
100
AcDbEntity
  8
M0
100
AcDbLine
 10
85.261694
 20
432.9291
 11
86.161694
 21
432.9291
  0
LINE
  5
3EC
100
AcDbEntity
  8
M0
100
AcDbLine
 10
84.124244
 20
434.579098
 11
83.10018
 21
434.579098
  0
LINE
  5
3ED
100
AcDbEntity
  8
M0
100
AcDbLine
 10
120.861693
 20
434.579098
 11
120.861693
 21
435.329099
  0
LINE
  5
3EE
100
AcDbEntity
  8
M0
100
AcDbLine
 10
117.800181
 20
433.679101
 11
118.824242
 21
433.679101
  0
LINE
  5
3EF
100
AcDbEntity
  8
M0
100
AcDbLine
 10
118.824242
 20
434.579098
 11
117.800181
 21
434.579098
  0
LINE
  5
3F0
100
AcDbEntity
  8
M0
100
AcDbLine
 10
110.011693
 20
510.129099
 11
96.111694
 21
510.129099
  0
LINE
  5
3F1
100
AcDbEntity
  8
M0
100
AcDbLine
 10
123.023207
 20
434.579098
 11
121.999143
 21
434.579098
  0
LINE
  5
3F2
100
AcDbEntity
  8
M0
100
AcDbLine
 10
84.124244
 20
434.579098
 11
85.261694
 21
434.579098
  0
LINE
  5
3F3
100
AcDbEntity
  8
M0
100
AcDbLine
 10
86.161694
 20
432.9291
 11
86.161694
 21
433.679101
  0
LINE
  5
3F4
100
AcDbEntity
  8
M0
100
AcDbLine
 10
121.999143
 20
433.679101
 11
123.023207
 21
433.679101
  0
LINE
  5
3F5
100
AcDbEntity
  8
M0
100
AcDbLine
 10
85.261694
 20
433.679101
 11
85.261694
 21
432.9291
  0
LINE
  5
3F6
100
AcDbEntity
  8
M0
100
AcDbLine
 10
74.811694
 20
478.329099
 11
76.811694
 21
478.329099
  0
LINE
  5
3F7
100
AcDbEntity
  8
M0
100
AcDbLine
 10
77.511693
 20
496.3291
 11
77.511693
 21
496.5291
  0
LINE
  5
3F8
100
AcDbEntity
  8
M0
100
AcDbLine
 10
74.311693
 20
448.8791
 11
74.311693
 21
447.829099
  0
LINE
  5
3F9
100
AcDbEntity
  8
M0
100
AcDbLine
 10
68.311694
 20
447.829099
 11
68.311694
 21
448.8791
  0
LINE
  5
3FA
100
AcDbEntity
  8
M0
100
AcDbLine
 10
115.211693
 20
519.129099
 11
115.211693
 21
510.129099
  0
LINE
  5
3FB
100
AcDbEntity
  8
M0
100
AcDbLine
 10
123.311694
 20
511.129101
 11
123.311694
 21
510.129099
  0
LINE
  5
3FC
100
AcDbEntity
  8
M0
100
AcDbLine
 10
119.36497
 20
515.643463
 11
117.597391
 21
513.875763
  0
ARC
  5
3FD
100
AcDbEntity
  8
M0
100
AcDbCircle
 10
85.711693
 20
434.1291
 40
2.65
100
AcDbArc
 50
170.223151
 51
189.776849
  0
ARC
  5
3FE
100
AcDbEntity
  8
M0
100
AcDbCircle
 10
85.711693
 20
434.1291
 40
2.65
100
AcDbArc
 50
350.223151
 51
369.776849
  0
ARC
  5
3FF
100
AcDbEntity
  8
M0
100
AcDbCircle
 10
120.411693
 20
434.1291
 40
2.65
100
AcDbArc
 50
9.776849
 51
170.223151
  0
ARC
  5
400
100
AcDbEntity
  8
M0
100
AcDbCircle
 10
140.511693
 20
447.2791
 40
1.0
100
AcDbArc
 50
270.0
 51
360.0
  0
ARC
  5
401
100
AcDbEntity
  8
M0
100
AcDbCircle
 10
120.411693
 20
434.1291
 40
2.65
100
AcDbArc
 50
189.776849
 51
350.223151
  0
ARC
  5
402
100
AcDbEntity
  8
M0
100
AcDbCircle
 10
75.811693
 20
500.3791
 40
0.6
100
AcDbArc
 50
90.0
 51
180.0
  0
ARC
  5
403
100
AcDbEntity
  8
M0
100
AcDbCircle
 10
78.253685
 20
463.035058
 40
3.350514
100
AcDbArc
 50
136.789285
 51
155.219178
  0
LINE
  5
404
100
AcDbEntity
  8
M0
100
AcDbLine
 10
68.061693
 20
498.379099
 11
74.561693
 21
498.379099
  0
ARC
  5
405
100
AcDbEntity
  8
M0
100
AcDbCircle
 10
75.811693
 20
454.1291
 40
0.6
100
AcDbArc
 50
180.0
 51
270.0
  0
ARC
  5
406
100
AcDbEntity
  8
M0
100
AcDbCircle
 10
130.311693
 20
454.1291
 40
0.6
100
AcDbArc
 50
270.0
 51
360.0
  0
ARC
  5
407
100
AcDbEntity
  8
M0
100
AcDbCircle
 10
66.411693
 20
454.5291
 40
1.0
100
AcDbArc
 50
270.0
 51
360.0
  0
ARC
  5
408
100
AcDbEntity
  8
M0
100
AcDbCircle
 10
85.711693
 20
434.1291
 40
2.65
100
AcDbArc
 50
9.776849
 51
170.223151
  0
LINE
  5
409
100
AcDbEntity
  8
M0
100
AcDbLine
 10
129.311693
 20
466.4291
 11
129.811694
 21
466.4291
  0
ARC
  5
40A
100
AcDbEntity
  8
M0
100
AcDbCircle
 10
140.511693
 20
499.9791
 40
1.0
100
AcDbArc
 50
0.0
 51
90.0
  0
ARC
  5
40B
100
AcDbEntity
  8
M0
100
AcDbCircle
 10
66.411693
 20
447.2791
 40
1.0
100
AcDbArc
 50
270.0
 51
360.0
  0
ARC
  5
40C
100
AcDbEntity
  8
M0
100
AcDbCircle
 10
130.311693
 20
500.3791
 40
0.6
100
AcDbArc
 50
0.0
 51
90.0
  0
ARC
  5
40D
100
AcDbEntity
  8
M0
100
AcDbCircle
 10
75.811693
 20
446.8791
 40
0.6
100
AcDbArc
 50
180.0
 51
270.0
  0
ARC
  5
40E
100
AcDbEntity
  8
M0
100
AcDbCircle
 10
130.311693
 20
446.8791
 40
0.6
100
AcDbArc
 50
270.0
 51
360.0
  0
LINE
  5
40F
100
AcDbEntity
  8
M0
100
AcDbLine
 10
75.811694
 20
469.1291
 11
76.811694
 21
469.1291
  0
ARC
  5
410
100
AcDbEntity
  8
M0
100
AcDbCircle
 10
138.105695
 20
438.579395
 40
0.3
100
AcDbArc
 50
90.0
 51
180.0
  0
ARC
  5
411
100
AcDbEntity
  8
M0
100
AcDbCircle
 10
95.111693
 20
515.1291
 40
1.0
100
AcDbArc
 50
0.0
 51
90.0
  0
ARC
  5
412
100
AcDbEntity
  8
M0
100
AcDbCircle
 10
138.561693
 20
441.1291
 40
2.25
100
AcDbArc
 50
270.928845
 51
451.752277
  0
ARC
  5
413
100
AcDbEntity
  8
M0
100
AcDbCircle
 10
77.511693
 20
515.1291
 40
1.0
100
AcDbArc
 50
0.0
 51
90.0
  0
ARC
  5
414
100
AcDbEntity
  8
M0
100
AcDbCircle
 10
76.811693
 20
515.1291
 40
1.0
100
AcDbArc
 50
90.0
 51
180.0
  0
ARC
  5
415
100
AcDbEntity
  8
M0
100
AcDbCircle
 10
111.011693
 20
515.1291
 40
1.0
100
AcDbArc
 50
90.0
 51
180.0
  0
ARC
  5
416
100
AcDbEntity
  8
M0
100
AcDbCircle
 10
139.711693
 20
478.3291
 40
1.0
100
AcDbArc
 50
180.0
 51
270.0
  0
ARC
  5
417
100
AcDbEntity
  8
M0
100
AcDbCircle
 10
90.211693
 20
510.8291
 40
0.6
100
AcDbArc
 50
270.0
 51
352.509835
  0
ARC
  5
418
100
AcDbEntity
  8
M0
100
AcDbCircle
 10
140.511693
 20
478.3291
 40
1.0
100
AcDbArc
 50
270.0
 51
360.0
  0
ARC
  5
419
100
AcDbEntity
  8
M0
100
AcDbCircle
 10
65.611693
 20
492.7291
 40
1.0
100
AcDbArc
 50
90.0
 51
180.0
  0
ARC
  5
41A
100
AcDbEntity
  8
M0
100
AcDbCircle
 10
120.411693
 20
434.1291
 40
2.65
100
AcDbArc
 50
170.223151
 51
189.776849
  0
ARC
  5
41B
100
AcDbEntity
  8
M0
100
AcDbCircle
 10
93.411693
 20
515.1291
 40
1.0
100
AcDbArc
 50
90.0
 51
180.0
  0
LINE
  5
41C
100
AcDbEntity
  8
M0
100
AcDbLine
 10
78.511693
 20
450.729099
 11
78.511693
 21
450.929099
  0
LINE
  5
41D
100
AcDbEntity
  8
M0
100
AcDbLine
 10
139.711692
 20
500.979099
 11
140.511694
 21
500.979099
  0
LINE
  5
41E
100
AcDbEntity
  8
M0
100
AcDbLine
 10
96.111694
 20
450.929099
 11
96.111694
 21
432.1291
  0
LINE
  5
41F
100
AcDbEntity
  8
M0
100
AcDbLine
 10
75.211693
 20
464.43942
 11
75.211693
 21
446.879099
  0
LINE
  5
420
100
AcDbEntity
  8
M0
100
AcDbLine
 10
67.411693
 20
478.3291
 11
67.411693
 21
499.9791
  0
LINE
  5
421
100
AcDbEntity
  8
M0
100
AcDbLine
 10
75.211693
 20
500.3791
 11
75.211693
 21
482.817346
  0
ARC
  5
422
100
AcDbEntity
  8
M0
100
AcDbCircle
 10
112.711693
 20
515.1291
 40
1.0
100
AcDbArc
 50
0.0
 51
90.0
  0
ARC
  5
423
100
AcDbEntity
  8
M0
100
AcDbCircle
 10
128.611693
 20
515.1291
 40
1.0
100
AcDbArc
 50
90.0
 51
180.0
  0
LINE
  5
424
100
AcDbEntity
  8
M0
100
AcDbLine
 10
74.561693
 20
490.879101
 11
68.061695
 21
490.879094
  0
LINE
  5
425
100
AcDbEntity
  8
M0
100
AcDbLine
 10
127.611694
 20
496.3291
 11
127.611694
 21
496.5291
  0
LINE
  5
426
100
AcDbEntity
  8
M0
100
AcDbLine
 10
127.611694
 20
450.729099
 11
127.611694
 21
450.929099
  0
LINE
  5
427
100
AcDbEntity
  8
M0
100
AcDbLine
 10
66.411695
 20
500.979099
 11
65.611693
 21
500.979099
  0
LINE
  5
428
100
AcDbEntity
  8
M0
100
AcDbLine
 10
76.811694
 20
472.129099
 11
75.811694
 21
472.129099
  0
LINE
  5
429
100
AcDbEntity
  8
M0
100
AcDbLine
 10
129.311693
 20
450.929099
 11
76.811694
 21
450.929099
  0
LINE
  5
42A
100
AcDbEntity
  8
M0
100
AcDbLine
 10
137.805695
 20
438.464911
 11
137.805695
 21
438.579397
  0
LINE
  5
42B
100
AcDbEntity
  8
M0
100
AcDbLine
 10
77.511693
 20
450.729099
 11
77.511693
 21
450.929099
  0
LINE
  5
42C
100
AcDbEntity
  8
M0
100
AcDbLine
 10
134.813181
 20
441.210919
 11
134.813181
 21
441.179098
  0
LINE
  5
42D
100
AcDbEntity
  8
M0
100
AcDbLine
 10
92.911693
 20
498.029099
 11
95.611693
 21
498.029099
  0
LINE
  5
42E
100
AcDbEntity
  8
M0
100
AcDbLine
 10
142.011693
 20
444.8291
 11
142.011693
 21
434.129098
  0
LINE
  5
42F
100
AcDbEntity
  8
M0
100
AcDbLine
 10
75.811694
 20
515.1291
 11
75.811694
 21
479.8291
  0
ARC
  5
430
100
AcDbEntity
  8
M0
100
AcDbCircle
 10
139.711693
 20
468.9291
 40
1.0
100
AcDbArc
 50
90.0
 51
180.0
  0
ARC
  5
431
100
AcDbEntity
  8
M0
100
AcDbCircle
 10
112.711693
 20
432.1291
 40
1.0
100
AcDbArc
 50
270.0
 51
360.0
  0
ARC
  5
432
100
AcDbEntity
  8
M0
100
AcDbCircle
 10
66.411693
 20
478.3291
 40
1.0
100
AcDbArc
 50
270.0
 51
360.0
  0
ARC
  5
433
100
AcDbEntity
  8
M0
100
AcDbCircle
 10
93.411693
 20
432.1291
 40
1.0
100
AcDbArc
 50
180.0
 51
270.0
  0
ARC
  5
434
100
AcDbEntity
  8
M0
100
AcDbCircle
 10
140.511693
 20
492.7291
 40
1.0
100
AcDbArc
 50
0.0
 51
90.0
  0
LINE
  5
435
100
AcDbEntity
  8
M0
100
AcDbLine
 10
75.811694
 20
475.1291
 11
75.811694
 21
475.029099
  0
LINE
  5
436
100
AcDbEntity
  8
M0
100
AcDbLine
 10
76.311693
 20
466.4291
 11
76.811694
 21
466.4291
  0
LINE
  5
437
100
AcDbEntity
  8
M0
100
AcDbLine
 10
75.811694
 20
472.2291
 11
75.811694
 21
472.129099
  0
LINE
  5
438
100
AcDbEntity
  8
M0
100
AcDbLine
 10
127.611694
 20
513.129101
 11
127.611694
 21
515.129098
  0
LINE
  5
439
100
AcDbEntity
  8
M0
100
AcDbLine
 10
66.911692
 20
477.3291
 11
66.911692
 21
469.9291
  0
LINE
  5
43A
100
AcDbEntity
  8
M0
100
AcDbLine
 10
78.511693
 20
496.3291
 11
78.511693
 21
515.129098
  0
LINE
  5
43B
100
AcDbEntity
  8
M0
100
AcDbLine
 10
130.911694
 20
464.43942
 11
130.911694
 21
446.879099
  0
LINE
  5
43C
100
AcDbEntity
  8
M0
100
AcDbLine
 10
138.711693
 20
447.279099
 11
138.711693
 21
468.9291
  0
LINE
  5
43D
100
AcDbEntity
  8
M0
100
AcDbLine
 10
67.411693
 20
447.279099
 11
67.411693
 21
468.9291
  0
LINE
  5
43E
100
AcDbEntity
  8
M0
100
AcDbLine
 10
78.511693
 20
434.129098
 11
78.511693
 21
435.1291
  0
LINE
  5
43F
100
AcDbEntity
  8
M0
100
AcDbLine
 10
139.211694
 20
477.3291
 11
139.211694
 21
469.9291
  0
LINE
  5
440
100
AcDbEntity
  8
M0
100
AcDbLine
 10
140.511694
 20
469.9291
 11
140.511694
 21
477.3291
  0
LINE
  5
441
100
AcDbEntity
  8
M0
100
AcDbLine
 10
65.611693
 20
469.9291
 11
65.611693
 21
477.3291
  0
ARC
  5
442
100
AcDbEntity
  8
M0
100
AcDbCircle
 10
68.061694
 20
491.379099
 40
0.5
100
AcDbArc
 50
180.0
 51
270.0
  0
ARC
  5
443
100
AcDbEntity
  8
M0
100
AcDbCircle
 10
68.061693
 20
497.879099
 40
0.5
100
AcDbArc
 50
90.0
 51
180.0
  0
ARC
  5
444
100
AcDbEntity
  8
M0
100
AcDbCircle
 10
131.561693
 20
491.3791
 40
0.5
100
AcDbArc
 50
180.0
 51
270.0
  0
ARC
  5
445
100
AcDbEntity
  8
M0
100
AcDbCircle
 10
65.611693
 20
454.5291
 40
1.0
100
AcDbArc
 50
180.0
 51
270.0
  0
ARC
  5
446
100
AcDbEntity
  8
M0
100
AcDbCircle
 10
127.869702
 20
463.035058
 40
3.350514
100
AcDbArc
 50
24.780822
 51
43.210715
  0
ARC
  5
447
100
AcDbEntity
  8
M0
100
AcDbCircle
 10
139.711693
 20
499.9791
 40
1.0
100
AcDbArc
 50
90.0
 51
180.0
  0
ARC
  5
448
100
AcDbEntity
  8
M0
100
AcDbCircle
 10
83.861693
 20
517.4791
 40
0.5
100
AcDbArc
 50
90.0
 51
180.0
  0
ARC
  5
449
100
AcDbEntity
  8
M0
100
AcDbCircle
 10
122.261694
 20
510.9791
 40
0.5
100
AcDbArc
 50
270.0
 51
360.0
  0
ARC
  5
44A
100
AcDbEntity
  8
M0
100
AcDbCircle
 10
131.561693
 20
497.8791
 40
0.5
100
AcDbArc
 50
90.0
 51
180.0
  0
ARC
  5
44B
100
AcDbEntity
  8
M0
100
AcDbCircle
 10
122.261693
 20
517.4791
 40
0.5
100
AcDbArc
 50
0.0
 51
90.0
  0
ARC
  5
44C
100
AcDbEntity
  8
M0
100
AcDbCircle
 10
138.061693
 20
491.3791
 40
0.5
100
AcDbArc
 50
270.0
 51
360.0
  0
ARC
  5
44D
100
AcDbEntity
  8
M0
100
AcDbCircle
 10
138.061693
 20
497.8791
 40
0.5
100
AcDbArc
 50
0.0
 51
90.0
  0
LINE
  5
44E
100
AcDbEntity
  8
M0
100
AcDbLine
 10
70.911693
 20
477.3291
 11
70.911693
 21
469.9291
  0
LINE
  5
44F
100
AcDbEntity
  8
M0
100
AcDbLine
 10
130.911694
 20
482.9291
 11
138.711693
 21
482.9291
  0
LINE
  5
450
100
AcDbEntity
  8
M0
100
AcDbLine
 10
140.511694
 20
446.2791
 11
139.711692
 21
446.2791
  0
LINE
  5
451
100
AcDbEntity
  8
M0
100
AcDbLine
 10
140.511694
 20
453.5291
 11
139.711692
 21
453.5291
  0
LINE
  5
452
100
AcDbEntity
  8
M0
100
AcDbLine
 10
135.211694
 20
477.3291
 11
135.211694
 21
469.9291
  0
LINE
  5
453
100
AcDbEntity
  8
M0
100
AcDbLine
 10
65.611693
 20
453.5291
 11
66.411695
 21
453.5291
  0
LINE
  5
454
100
AcDbEntity
  8
M0
100
AcDbLine
 10
67.411693
 20
464.329099
 11
75.211693
 21
464.329099
  0
LINE
  5
455
100
AcDbEntity
  8
M0
100
AcDbLine
 10
135.211694
 20
469.9291
 11
139.711692
 21
469.9291
  0
LINE
  5
456
100
AcDbEntity
  8
M0
100
AcDbLine
 10
127.611694
 20
512.129099
 11
127.611694
 21
513.129101
  0
LINE
  5
457
100
AcDbEntity
  8
M0
100
AcDbLine
 10
127.611694
 20
434.129098
 11
127.611694
 21
435.1291
  0
LINE
  5
458
100
AcDbEntity
  8
M0
100
AcDbLine
 10
92.411694
 20
518.629101
 11
92.411694
 21
496.3291
  0
LINE
  5
459
100
AcDbEntity
  8
M0
100
AcDbLine
 10
113.711693
 20
435.1291
 11
113.711693
 21
434.129098
  0
LINE
  5
45A
100
AcDbEntity
  8
M0
100
AcDbLine
 10
75.211693
 20
482.9291
 11
67.411693
 21
482.9291
  0
LINE
  5
45B
100
AcDbEntity
  8
M0
100
AcDbLine
 10
139.711692
 20
477.3291
 11
135.211694
 21
477.3291
  0
LINE
  5
45C
100
AcDbEntity
  8
M0
100
AcDbLine
 10
65.611693
 20
469.9291
 11
70.911693
 21
469.9291
  0
LINE
  5
45D
100
AcDbEntity
  8
M0
100
AcDbLine
 10
130.911694
 20
500.3791
 11
130.911694
 21
482.845615
  0
LINE
  5
45E
100
AcDbEntity
  8
M0
100
AcDbLine
 10
127.611694
 20
432.129101
 11
127.611694
 21
436.129098
  0
LINE
  5
45F
100
AcDbEntity
  8
M0
100
AcDbLine
 10
112.211697
 20
431.129099
 11
111.011694
 21
431.129099
  0
LINE
  5
460
100
AcDbEntity
  8
M0
100
AcDbLine
 10
78.511693
 20
432.129101
 11
78.511693
 21
436.129098
  0
LINE
  5
461
100
AcDbEntity
  8
M0
100
AcDbLine
 10
96.111694
 20
496.5291
 11
92.411694
 21
496.5291
  0
LINE
  5
462
100
AcDbEntity
  8
M0
100
AcDbLine
 10
131.311693
 20
472.2291
 11
129.611694
 21
472.2291
  0
LINE
  5
463
100
AcDbEntity
  8
M0
100
AcDbLine
 10
113.711693
 20
436.129098
 11
113.711693
 21
432.129101
  0
CIRCLE
  5
464
100
AcDbEntity
  8
M0
100
AcDbCircle
 10
134.811694
 20
452.629098
 40
3.0
  0
CIRCLE
  5
465
100
AcDbEntity
  8
M0
100
AcDbCircle
 10
134.811694
 20
460.229098
 40
3.0
  0
CIRCLE
  5
466
100
AcDbEntity
  8
M0
100
AcDbCircle
 10
85.461693
 20
444.129069
 40
4.499996
  0
CIRCLE
  5
467
100
AcDbEntity
  8
M0
100
AcDbCircle
 10
120.661693
 20
444.129069
 40
4.499996
  0
CIRCLE
  5
468
100
AcDbEntity
  8
M0
100
AcDbCircle
 10
103.061693
 20
444.129069
 40
4.499996
  0
LINE
  5
469
100
AcDbEntity
  8
M0
100
AcDbLine
 10
112.711694
 20
431.129099
 11
112.211697
 21
431.129099
  0
LINE
  5
46A
100
AcDbEntity
  8
M0
100
AcDbLine
 10
110.011693
 20
450.929099
 11
110.011693
 21
448.729099
  0
LINE
  5
46B
100
AcDbEntity
  8
M0
100
AcDbLine
 10
113.711693
 20
450.729099
 11
110.011693
 21
450.729099
  0
LINE
  5
46C
100
AcDbEntity
  8
M0
100
AcDbLine
 10
113.711693
 20
448.729099
 11
113.711693
 21
450.929099
  0
LINE
  5
46D
100
AcDbEntity
  8
M0
100
AcDbLine
 10
139.711692
 20
477.3291
 11
140.511694
 21
477.3291
  0
LINE
  5
46E
100
AcDbEntity
  8
M0
100
AcDbLine
 10
139.711692
 20
493.729099
 11
140.511694
 21
493.729099
  0
LINE
  5
46F
100
AcDbEntity
  8
M0
100
AcDbLine
 10
67.411693
 20
456.429099
 11
75.211693
 21
456.429099
  0
LINE
  5
470
100
AcDbEntity
  8
M0
100
AcDbLine
 10
110.011693
 20
496.5291
 11
113.711693
 21
496.5291
  0
LINE
  5
471
100
AcDbEntity
  8
M0
100
AcDbLine
 10
129.611694
 20
475.029099
 11
131.311693
 21
475.029099
  0
LINE
  5
472
100
AcDbEntity
  8
M0
100
AcDbLine
 10
92.411694
 20
450.929099
 11
92.411694
 21
432.129101
  0
LINE
  5
473
100
AcDbEntity
  8
M0
100
AcDbLine
 10
129.611694
 20
472.2291
 11
129.611694
 21
475.029099
  0
LINE
  5
474
100
AcDbEntity
  8
M0
100
AcDbLine
 10
76.511693
 20
472.2291
 11
76.511693
 21
475.029099
  0
LINE
  5
475
100
AcDbEntity
  8
M0
100
AcDbLine
 10
92.411694
 20
450.729099
 11
96.111694
 21
450.729099
  0
LINE
  5
476
100
AcDbEntity
  8
M0
100
AcDbLine
 10
135.164974
 20
454.043461
 11
133.397395
 21
452.275761
  0
LINE
  5
477
100
AcDbEntity
  8
M0
100
AcDbLine
 10
136.402278
 20
451.038456
 11
133.220638
 21
454.220219
  0
LINE
  5
478
100
AcDbEntity
  8
M0
100
AcDbLine
 10
136.22552
 20
452.982792
 11
134.457942
 21
451.215214
  0
LINE
  5
479
100
AcDbEntity
  8
M0
100
AcDbLine
 10
87.342797
 20
444.596049
 11
84.99482
 21
442.248057
  0
LINE
  5
47A
100
AcDbEntity
  8
M0
100
AcDbLine
 10
85.928597
 20
446.010265
 11
83.58062
 21
443.662273
  0
LINE
  5
47B
100
AcDbEntity
  8
M0
100
AcDbLine
 10
83.392739
 20
446.198039
 11
87.655709
 21
441.9351
  0
ARC
  5
47C
100
AcDbEntity
  8
M0
100
AcDbCircle
 10
124.511693
 20
519.1291
 40
1.0
100
AcDbArc
 50
90.0
 51
180.0
  0
CIRCLE
  5
47D
100
AcDbEntity
  8
M0
100
AcDbCircle
 10
134.811694
 20
487.029101
 40
3.0
  0
ARC
  5
47E
100
AcDbEntity
  8
M0
100
AcDbCircle
 10
124.511693
 20
519.1291
 40
1.0
100
AcDbArc
 50
0.0
 51
90.0
  0
LINE
  5
47F
100
AcDbEntity
  8
M0
100
AcDbLine
 10
136.22552
 20
460.582792
 11
134.457942
 21
458.815214
  0
LINE
  5
480
100
AcDbEntity
  8
M0
100
AcDbLine
 10
135.164974
 20
461.643461
 11
133.397395
 21
459.875761
  0
LINE
  5
481
100
AcDbEntity
  8
M0
100
AcDbLine
 10
136.402278
 20
458.638456
 11
133.220638
 21
461.820219
  0
LINE
  5
482
100
AcDbEntity
  8
M0
100
AcDbLine
 10
104.942797
 20
444.596049
 11
102.59482
 21
442.248057
  0
LINE
  5
483
100
AcDbEntity
  8
M0
100
AcDbLine
 10
103.528597
 20
446.010265
 11
101.18062
 21
443.662273
  0
LINE
  5
484
100
AcDbEntity
  8
M0
100
AcDbLine
 10
100.992739
 20
446.198039
 11
105.255709
 21
441.9351
  0
LINE
  5
485
100
AcDbEntity
  8
M0
100
AcDbLine
 10
122.542797
 20
444.596049
 11
120.19482
 21
442.248057
  0
LINE
  5
486
100
AcDbEntity
  8
M0
100
AcDbLine
 10
121.128597
 20
446.010265
 11
118.78062
 21
443.662273
  0
LINE
  5
487
100
AcDbEntity
  8
M0
100
AcDbLine
 10
130.311693
 20
432.1291
 11
130.311693
 21
467.429099
  0
LINE
  5
488
100
AcDbEntity
  8
M0
100
AcDbLine
 10
96.111694
 20
496.3291
 11
96.111694
 21
515.129098
  0
LINE
  5
489
100
AcDbEntity
  8
M0
100
AcDbLine
 10
110.011693
 20
496.3291
 11
110.011693
 21
515.129098
  0
LINE
  5
48A
100
AcDbEntity
  8
M0
100
AcDbLine
 10
128.611694
 20
450.729099
 11
128.611694
 21
450.929099
  0
LINE
  5
48B
100
AcDbEntity
  8
M0
100
AcDbLine
 10
111.011694
 20
516.1291
 11
112.711693
 21
516.1291
  0
LINE
  5
48C
100
AcDbEntity
  8
M0
100
AcDbLine
 10
95.111693
 20
516.1291
 11
93.411693
 21
516.1291
  0
LINE
  5
48D
100
AcDbEntity
  8
M0
100
AcDbLine
 10
77.511693
 20
516.1291
 11
76.811693
 21
516.1291
  0
LINE
  5
48E
100
AcDbEntity
  8
M0
100
AcDbLine
 10
118.824242
 20
434.579098
 11
119.961693
 21
434.579098
  0
LINE
  5
48F
100
AcDbEntity
  8
M0
100
AcDbLine
 10
119.961693
 20
432.9291
 11
120.861693
 21
432.9291
  0
LINE
  5
490
100
AcDbEntity
  8
M0
100
AcDbLine
 10
129.311693
 20
468.9291
 11
131.311693
 21
468.9291
  0
LINE
  5
491
100
AcDbEntity
  8
M0
100
AcDbLine
 10
127.611694
 20
496.3291
 11
127.611694
 21
515.129098
  0
LINE
  5
492
100
AcDbEntity
  8
M0
100
AcDbLine
 10
138.105697
 20
438.879394
 11
138.598169
 21
438.879394
  0
LINE
  5
493
100
AcDbEntity
  8
M0
100
AcDbLine
 10
77.511693
 20
496.5291
 11
78.511693
 21
496.5291
  0
LINE
  5
494
100
AcDbEntity
  8
M0
100
AcDbLine
 10
76.811694
 20
468.9291
 11
74.811694
 21
468.9291
  0
LINE
  5
495
100
AcDbEntity
  8
M0
100
AcDbLine
 10
128.611694
 20
496.5291
 11
127.611694
 21
496.5291
  0
LINE
  5
496
100
AcDbEntity
  8
M0
100
AcDbLine
 10
75.811694
 20
467.429099
 11
75.811694
 21
432.1291
  0
LINE
  5
497
100
AcDbEntity
  8
M0
100
AcDbLine
 10
138.711693
 20
464.329099
 11
130.911694
 21
464.329099
  0
LINE
  5
498
100
AcDbEntity
  8
M0
100
AcDbLine
 10
131.311693
 20
478.329099
 11
129.311693
 21
478.329099
  0
LINE
  5
499
100
AcDbEntity
  8
M0
100
AcDbLine
 10
129.111689
 20
516.1291
 11
129.311693
 21
516.1291
  0
LINE
  5
49A
100
AcDbEntity
  8
M0
100
AcDbLine
 10
128.611694
 20
496.3291
 11
128.611694
 21
496.5291
  0
LINE
  5
49B
100
AcDbEntity
  8
M0
100
AcDbLine
 10
126.661694
 20
436.129098
 11
127.611694
 21
436.129098
  0
LINE
  5
49C
100
AcDbEntity
  8
M0
100
AcDbLine
 10
138.492892
 20
443.378047
 11
137.063349
 21
443.3791
  0
LINE
  5
49D
100
AcDbEntity
  8
M0
100
AcDbLine
 10
130.311693
 20
479.8291
 11
130.311693
 21
515.1291
  0
CIRCLE
  5
49E
100
AcDbEntity
  8
M0
100
AcDbCircle
 10
120.411693
 20
434.1291
 40
2.85
  0
CIRCLE
  5
49F
100
AcDbEntity
  8
M0
100
AcDbCircle
 10
103.061693
 20
513.9291
 40
2.825
  0
ARC
  5
4A0
100
AcDbEntity
  8
M0
100
AcDbCircle
 10
122.811693
 20
511.1291
 40
0.5
100
AcDbArc
 50
0.0
 51
66.421822
  0
ARC
  5
4A1
100
AcDbEntity
  8
M0
100
AcDbCircle
 10
86.011693
 20
519.6291
 40
0.5
100
AcDbArc
 50
90.0
 51
180.0
  0
ARC
  5
4A2
100
AcDbEntity
  8
M0
100
AcDbCircle
 10
114.211693
 20
519.1291
 40
1.0
100
AcDbArc
 50
0.0
 51
90.0
  0
ARC
  5
4A3
100
AcDbEntity
  8
M0
100
AcDbCircle
 10
83.311693
 20
511.1291
 40
0.5
100
AcDbArc
 50
113.578178
 51
180.0
  0
LINE
  5
4A4
100
AcDbEntity
  8
M0
100
AcDbLine
 10
66.411695
 20
493.729099
 11
65.611693
 21
493.729099
  0
LINE
  5
4A5
100
AcDbEntity
  8
M0
100
AcDbLine
 10
118.592739
 20
446.198039
 11
122.855709
 21
441.9351
  0
LINE
  5
4A6
100
AcDbEntity
  8
M0
100
AcDbLine
 10
70.911693
 20
477.3291
 11
65.611693
 21
477.3291
  0
LINE
  5
4A7
100
AcDbEntity
  8
M0
100
AcDbLine
 10
140.511694
 20
469.9291
 11
139.711692
 21
469.9291
  0
LINE
  5
4A8
100
AcDbEntity
  8
M0
100
AcDbLine
 10
138.711693
 20
499.9791
 11
138.711693
 21
478.329099
  0
CIRCLE
  5
4A9
100
AcDbEntity
  8
M0
100
AcDbCircle
 10
103.061693
 20
513.9291
 40
2.85
  0
LINE
  5
4AA
100
AcDbEntity
  8
M0
100
AcDbLine
 10
128.611694
 20
516.1291
 11
129.111689
 21
516.1291
  0
ARC
  5
4AB
100
AcDbEntity
  8
M0
100
AcDbCircle
 10
91.911693
 20
519.1291
 40
1.0
100
AcDbArc
 50
90.0
 51
180.0
  0
ARC
  5
4AC
100
AcDbEntity
  8
M0
100
AcDbCircle
 10
120.111693
 20
519.6291
 40
0.5
100
AcDbArc
 50
0.0
 51
90.0
  0
ARC
  5
4AD
100
AcDbEntity
  8
M0
100
AcDbCircle
 10
65.611693
 20
468.9291
 40
1.0
100
AcDbArc
 50
90.0
 51
180.0
  0
ARC
  5
4AE
100
AcDbEntity
  8
M0
100
AcDbCircle
 10
140.511693
 20
468.9291
 40
1.0
100
AcDbArc
 50
0.0
 51
90.0
  0
ARC
  5
4AF
100
AcDbEntity
  8
M0
100
AcDbCircle
 10
65.611693
 20
478.3291
 40
1.0
100
AcDbArc
 50
180.0
 51
270.0
  0
LINE
  5
4B0
100
AcDbEntity
  8
M0
  6
DASHED
100
AcDbLine
 10
52.111697
 20
503.3291
 11
52.111697
 21
443.9291
  0
LINE
  5
4B1
100
AcDbEntity
  8
M0
  6
DASHED
100
AcDbLine
 10
52.111697
 20
503.3291
 11
64.611697
 21
503.3291
  0
LINE
  5
4B2
100
AcDbEntity
  8
M0
  6
DASHED
100
AcDbLine
 10
52.111697
 20
443.9291
 11
64.611697
 21
443.9291
  0
LINE
  5
4B3
100
AcDbEntity
  8
M0
  6
DASHED
100
AcDbLine
 10
240.911687
 20
503.3291
 11
228.411687
 21
503.3291
  0
LINE
  5
4B4
100
AcDbEntity
  8
M0
  6
DASHED
100
AcDbLine
 10
240.911687
 20
503.3291
 11
240.911687
 21
443.9291
  0
LINE
  5
4B5
100
AcDbEntity
  8
M0
  6
DASHED
100
AcDbLine
 10
240.911687
 20
443.9291
 11
228.411687
 21
443.9291
  0
LINE
  5
4B6
100
AcDbEntity
  8
M0
100
AcDbLine
 10
151.511692
 20
497.9291
 11
151.511692
 21
473.6291
  0
LINE
  5
4B7
100
AcDbEntity
  8
M0
100
AcDbLine
 10
151.511692
 20
491.029099
 11
146.511692
 21
491.029099
  0
LINE
  5
4B8
100
AcDbEntity
  8
M0
100
AcDbLine
 10
148.911692
 20
499.029101
 11
144.111692
 21
499.029101
  0
LINE
  5
4B9
100
AcDbEntity
  8
M0
100
AcDbLine
 10
141.511692
 20
491.029099
 11
146.511692
 21
491.029099
  0
LINE
  5
4BA
100
AcDbEntity
  8
M0
100
AcDbLine
 10
151.511692
 20
495.1291
 11
146.511692
 21
495.1291
  0
LINE
  5
4BB
100
AcDbEntity
  8
M0
100
AcDbLine
 10
141.511692
 20
456.2291
 11
146.511692
 21
456.2291
  0
ARC
  5
4BC
100
AcDbEntity
  8
M0
100
AcDbCircle
 10
151.011692
 20
497.9291
 40
0.5
100
AcDbArc
 50
23.578178
 51
90.0
  0
LINE
  5
4BD
100
AcDbEntity
  8
M0
100
AcDbLine
 10
148.911692
 20
448.229098
 11
144.111692
 21
448.229098
  0
ARC
  5
4BE
100
AcDbEntity
  8
M0
100
AcDbCircle
 10
144.111692
 20
498.4291
 40
0.6
100
AcDbArc
 50
90.0
 51
180.0
  0
ARC
  5
4BF
100
AcDbEntity
  8
M0
100
AcDbCircle
 10
142.011692
 20
497.9291
 40
0.5
100
AcDbArc
 50
90.0
 51
156.421822
  0
LINE
  5
4C0
100
AcDbEntity
  8
M0
100
AcDbLine
 10
141.511692
 20
473.6291
 11
141.511692
 21
449.329099
  0
ARC
  5
4C1
100
AcDbEntity
  8
M0
100
AcDbCircle
 10
148.911692
 20
498.4291
 40
0.6
100
AcDbArc
 50
0.0
 51
90.0
  0
LINE
  5
4C2
100
AcDbEntity
  8
M0
100
AcDbLine
 10
151.511692
 20
449.329099
 11
151.511692
 21
473.6291
  0
LINE
  5
4C3
100
AcDbEntity
  8
M0
100
AcDbLine
 10
151.511692
 20
452.129099
 11
146.511692
 21
452.129099
  0
ARC
  5
4C4
100
AcDbEntity
  8
M0
100
AcDbCircle
 10
148.911692
 20
448.829099
 40
0.6
100
AcDbArc
 50
270.0
 51
360.0
  0
LINE
  5
4C5
100
AcDbEntity
  8
M0
  6
DASHDOT
100
AcDbLine
 10
146.511692
 20
503.629099
 11
146.511692
 21
444.629099
  0
ARC
  5
4C6
100
AcDbEntity
  8
M0
100
AcDbCircle
 10
151.011692
 20
449.329099
 40
0.5
100
AcDbArc
 50
270.0
 51
336.421822
  0
LINE
  5
4C7
100
AcDbEntity
  8
M0
100
AcDbLine
 10
151.511692
 20
456.2291
 11
146.511692
 21
456.2291
  0
LINE
  5
4C8
100
AcDbEntity
  8
M0
100
AcDbLine
 10
141.511692
 20
495.1291
 11
146.511692
 21
495.1291
  0
ARC
  5
4C9
100
AcDbEntity
  8
M0
100
AcDbCircle
 10
142.011692
 20
449.329099
 40
0.5
100
AcDbArc
 50
203.578178
 51
270.0
  0
LINE
  5
4CA
100
AcDbEntity
  8
M0
100
AcDbLine
 10
141.511692
 20
473.6291
 11
141.511692
 21
497.9291
  0
LINE
  5
4CB
100
AcDbEntity
  8
M0
100
AcDbLine
 10
142.011692
 20
448.829101
 11
151.011692
 21
448.829101
  0
ARC
  5
4CC
100
AcDbEntity
  8
M0
100
AcDbCircle
 10
144.111692
 20
448.829099
 40
0.6
100
AcDbArc
 50
180.0
 51
270.0
  0
LINE
  5
4CD
100
AcDbEntity
  8
M0
100
AcDbLine
 10
142.011692
 20
498.429098
 11
151.011692
 21
498.429098
  0
LINE
  5
4CE
100
AcDbEntity
  8
M0
100
AcDbLine
 10
141.511692
 20
452.129099
 11
146.511692
 21
452.129099
  0
ARC
  5
4CF
100
AcDbEntity
  8
M0
100
AcDbCircle
 10
163.711691
 20
432.1291
 40
1.0
100
AcDbArc
 50
180.0
 51
270.0
  0
ARC
  5
4D0
100
AcDbEntity
  8
M0
100
AcDbCircle
 10
189.961691
 20
513.9291
 40
2.65
100
AcDbArc
 50
350.223151
 51
369.776849
  0
ARC
  5
4D1
100
AcDbEntity
  8
M0
100
AcDbCircle
 10
226.611691
 20
492.7291
 40
1.0
100
AcDbArc
 50
90.0
 51
180.0
  0
ARC
  5
4D2
100
AcDbEntity
  8
M0
100
AcDbCircle
 10
164.411691
 20
432.1291
 40
1.0
100
AcDbArc
 50
270.0
 51
360.0
  0
ARC
  5
4D3
100
AcDbEntity
  8
M0
100
AcDbCircle
 10
215.511691
 20
432.1291
 40
1.0
100
AcDbArc
 50
180.0
 51
270.0
  0
LINE
  5
4D4
100
AcDbEntity
  8
M0
100
AcDbLine
 10
172.211691
 20
519.129099
 11
172.211691
 21
519.6291
  0
ARC
  5
4D5
100
AcDbEntity
  8
M0
100
AcDbCircle
 10
189.961691
 20
513.9291
 40
2.65
100
AcDbArc
 50
189.776849
 51
350.223151
  0
ARC
  5
4D6
100
AcDbEntity
  8
M0
100
AcDbCircle
 10
189.961691
 20
513.9291
 40
2.65
100
AcDbArc
 50
170.223151
 51
189.776849
  0
ARC
  5
4D7
100
AcDbEntity
  8
M0
100
AcDbCircle
 10
207.311691
 20
434.1291
 40
2.65
100
AcDbArc
 50
350.223151
 51
369.776849
  0
ARC
  5
4D8
100
AcDbEntity
  8
M0
100
AcDbCircle
 10
189.961691
 20
513.9291
 40
2.65
100
AcDbArc
 50
9.776849
 51
170.223151
  0
ARC
  5
4D9
100
AcDbEntity
  8
M0
100
AcDbCircle
 10
202.811691
 20
510.8291
 40
0.6
100
AcDbArc
 50
187.490122
 51
324.314617
  0
ARC
  5
4DA
100
AcDbEntity
  8
M0
100
AcDbCircle
 10
205.511691
 20
509.6291
 40
1.0
100
AcDbArc
 50
121.788346
 51
150.0
  0
LINE
  5
4DB
100
AcDbEntity
  8
M0
100
AcDbLine
 10
207.711692
 20
519.129099
 11
207.711692
 21
519.6291
  0
LINE
  5
4DC
100
AcDbEntity
  8
M0
100
AcDbLine
 10
169.511691
 20
511.629098
 11
170.011691
 21
511.629098
  0
LINE
  5
4DD
100
AcDbEntity
  8
M0
100
AcDbLine
 10
163.711692
 20
496.3291
 11
216.21169
 21
496.3291
  0
LINE
  5
4DE
100
AcDbEntity
  8
M0
100
AcDbLine
 10
154.46169
 20
456.979099
 11
154.46169
 21
463.4791
  0
LINE
  5
4DF
100
AcDbEntity
  8
M0
100
AcDbLine
 10
189.511691
 20
513.4791
 11
189.511691
 21
512.729098
  0
LINE
  5
4E0
100
AcDbEntity
  8
M0
100
AcDbLine
 10
191.549142
 20
513.4791
 11
190.411691
 21
513.4791
  0
CIRCLE
  5
4E1
100
AcDbEntity
  8
M0
100
AcDbCircle
 10
207.311691
 20
434.1291
 40
2.825
  0
LINE
  5
4E2
100
AcDbEntity
  8
M0
100
AcDbLine
 10
209.411691
 20
518.629101
 11
202.111691
 21
518.629101
  0
LINE
  5
4E3
100
AcDbEntity
  8
M0
100
AcDbLine
 10
189.511691
 20
515.129098
 11
189.511691
 21
514.3791
  0
LINE
  5
4E4
100
AcDbEntity
  8
M0
100
AcDbLine
 10
189.511691
 20
513.4791
 11
188.37424
 21
513.4791
  0
LINE
  5
4E5
100
AcDbEntity
  8
M0
100
AcDbLine
 10
170.511692
 20
518.629101
 11
170.011691
 21
518.1291
  0
LINE
  5
4E6
100
AcDbEntity
  8
M0
100
AcDbLine
 10
170.011691
 20
518.1291
 11
170.011691
 21
510.129099
  0
ARC
  5
4E7
100
AcDbEntity
  8
M0
100
AcDbCircle
 10
189.96169
 20
513.8791
 40
4.25
100
AcDbArc
 50
241.927521
 51
298.072495
  0
ARC
  5
4E8
100
AcDbEntity
  8
M0
100
AcDbCircle
 10
189.96169
 20
513.8791
 40
4.25
100
AcDbArc
 50
241.927521
 51
270.0
  0
ARC
  5
4E9
100
AcDbEntity
  8
M0
100
AcDbCircle
 10
177.111691
 20
510.8291
 40
0.6
100
AcDbArc
 50
215.685335
 51
270.0
  0
ARC
  5
4EA
100
AcDbEntity
  8
M0
100
AcDbCircle
 10
207.561691
 20
433.3791
 40
4.25
100
AcDbArc
 50
61.927513
 51
118.072487
  0
ARC
  5
4EB
100
AcDbEntity
  8
M0
100
AcDbCircle
 10
205.511691
 20
509.6291
 40
1.0
100
AcDbArc
 50
30.0
 51
58.211672
  0
ARC
  5
4EC
100
AcDbEntity
  8
M0
100
AcDbCircle
 10
189.961691
 20
433.3791
 40
4.25
100
AcDbArc
 50
61.927513
 51
118.072487
  0
ARC
  5
4ED
100
AcDbEntity
  8
M0
100
AcDbCircle
 10
207.56169
 20
513.8791
 40
4.25
100
AcDbArc
 50
241.927521
 51
298.072495
  0
ARC
  5
4EE
100
AcDbEntity
  8
M0
100
AcDbCircle
 10
172.361691
 20
433.3791
 40
4.25
100
AcDbArc
 50
61.927513
 51
118.072487
  0
ARC
  5
4EF
100
AcDbEntity
  8
M0
100
AcDbCircle
 10
207.56169
 20
513.8791
 40
4.25
100
AcDbArc
 50
241.927521
 51
270.0
  0
ARC
  5
4F0
100
AcDbEntity
  8
M0
100
AcDbCircle
 10
224.961692
 20
449.3791
 40
0.5
100
AcDbArc
 50
270.0
 51
360.0
  0
ARC
  5
4F1
100
AcDbEntity
  8
M0
100
AcDbCircle
 10
224.961691
 20
455.8791
 40
0.5
100
AcDbArc
 50
0.0
 51
90.0
  0
ARC
  5
4F2
100
AcDbEntity
  8
M0
100
AcDbCircle
 10
218.461691
 20
483.7791
 40
0.5
100
AcDbArc
 50
180.0
 51
270.0
  0
ARC
  5
4F3
100
AcDbEntity
  8
M0
100
AcDbCircle
 10
218.461691
 20
455.879099
 40
0.5
100
AcDbArc
 50
90.0
 51
180.0
  0
ARC
  5
4F4
100
AcDbEntity
  8
M0
100
AcDbCircle
 10
224.961691
 20
483.7791
 40
0.5
100
AcDbArc
 50
270.0
 51
360.0
  0
ARC
  5
4F5
100
AcDbEntity
  8
M0
100
AcDbCircle
 10
224.961691
 20
490.2791
 40
0.5
100
AcDbArc
 50
0.0
 51
90.0
  0
ARC
  5
4F6
100
AcDbEntity
  8
M0
100
AcDbCircle
 10
216.711691
 20
481.3291
 40
0.5
100
AcDbArc
 50
270.0
 51
360.0
  0
ARC
  5
4F7
100
AcDbEntity
  8
M0
100
AcDbCircle
 10
172.36169
 20
513.8791
 40
4.25
100
AcDbArc
 50
241.927521
 51
270.0
  0
ARC
  5
4F8
100
AcDbEntity
  8
M0
100
AcDbCircle
 10
172.36169
 20
513.8791
 40
4.25
100
AcDbArc
 50
241.927521
 51
298.072495
  0
ARC
  5
4F9
100
AcDbEntity
  8
M0
100
AcDbCircle
 10
163.711691
 20
495.3291
 40
1.0
100
AcDbArc
 50
90.0
 51
180.0
  0
ARC
  5
4FA
100
AcDbEntity
  8
M0
100
AcDbCircle
 10
154.961691
 20
463.4791
 40
0.5
100
AcDbArc
 50
90.0
 51
180.0
  0
ARC
  5
4FB
100
AcDbEntity
  8
M0
100
AcDbCircle
 10
161.461691
 20
456.9791
 40
0.5
100
AcDbArc
 50
270.0
 51
360.0
  0
ARC
  5
4FC
100
AcDbEntity
  8
M0
100
AcDbCircle
 10
154.961691
 20
490.279099
 40
0.5
100
AcDbArc
 50
90.0
 51
180.0
  0
ARC
  5
4FD
100
AcDbEntity
  8
M0
100
AcDbCircle
 10
154.961692
 20
483.779099
 40
0.5
100
AcDbArc
 50
180.0
 51
270.0
  0
ARC
  5
4FE
100
AcDbEntity
  8
M0
100
AcDbCircle
 10
154.961692
 20
483.779099
 40
0.5
100
AcDbArc
 50
180.0
 51
270.0
  0
ARC
  5
4FF
100
AcDbEntity
  8
M0
100
AcDbCircle
 10
161.461692
 20
483.7791
 40
0.5
100
AcDbArc
 50
270.0
 51
360.0
  0
ARC
  5
500
100
AcDbEntity
  8
M0
100
AcDbCircle
 10
154.961691
 20
456.9791
 40
0.5
100
AcDbArc
 50
180.0
 51
270.0
  0
ARC
  5
501
100
AcDbEntity
  8
M0
100
AcDbCircle
 10
218.461691
 20
490.2791
 40
0.5
100
AcDbArc
 50
90.0
 51
180.0
  0
ARC
  5
502
100
AcDbEntity
  8
M0
100
AcDbCircle
 10
161.461691
 20
490.2791
 40
0.5
100
AcDbArc
 50
0.0
 51
90.0
  0
ARC
  5
503
100
AcDbEntity
  8
M0
100
AcDbCircle
 10
161.461691
 20
463.4791
 40
0.5
100
AcDbArc
 50
0.0
 51
90.0
  0
LINE
  5
504
100
AcDbEntity
  8
M0
100
AcDbLine
 10
161.461691
 20
456.4791
 11
154.961691
 21
456.4791
  0
LINE
  5
505
100
AcDbEntity
  8
M0
100
AcDbLine
 10
224.961691
 20
483.2791
 11
218.461691
 21
483.2791
  0
LINE
  5
506
100
AcDbEntity
  8
M0
100
AcDbLine
 10
218.461691
 20
490.779099
 11
224.961691
 21
490.779099
  0
LINE
  5
507
100
AcDbEntity
  8
M0
100
AcDbLine
 10
225.461692
 20
490.2791
 11
225.461692
 21
483.7791
  0
LINE
  5
508
100
AcDbEntity
  8
M0
100
AcDbLine
 10
154.961691
 20
463.979099
 11
161.461691
 21
463.979099
  0
LINE
  5
509
100
AcDbEntity
  8
M0
100
AcDbLine
 10
224.961691
 20
456.4791
 11
218.461692
 21
456.4791
  0
LINE
  5
50A
100
AcDbEntity
  8
M0
100
AcDbLine
 10
225.461692
 20
456.979101
 11
225.461692
 21
463.4791
  0
LINE
  5
50B
100
AcDbEntity
  8
M0
100
AcDbLine
 10
161.461691
 20
448.8791
 11
154.961691
 21
448.8791
  0
LINE
  5
50C
100
AcDbEntity
  8
M0
100
AcDbLine
 10
218.461691
 20
463.979099
 11
224.961691
 21
463.979099
  0
ARC
  5
50D
100
AcDbEntity
  8
M0
100
AcDbCircle
 10
163.211691
 20
481.3291
 40
0.5
100
AcDbArc
 50
180.0
 51
270.0
  0
LINE
  5
50E
100
AcDbEntity
  8
M0
100
AcDbLine
 10
217.961692
 20
483.7791
 11
217.961692
 21
490.2791
  0
LINE
  5
50F
100
AcDbEntity
  8
M0
  6
DASHDOT
100
AcDbLine
 10
189.961691
 20
426.129099
 11
189.961691
 21
525.129101
  0
LINE
  5
510
100
AcDbEntity
  8
M0
100
AcDbLine
 10
154.961691
 20
490.779099
 11
161.461691
 21
490.779099
  0
LINE
  5
511
100
AcDbEntity
  8
M0
100
AcDbLine
 10
161.461691
 20
483.2791
 11
154.961692
 21
483.2791
  0
LINE
  5
512
100
AcDbEntity
  8
M0
100
AcDbLine
 10
209.161692
 20
510.479097
 11
202.661692
 21
510.479097
  0
LINE
  5
513
100
AcDbEntity
  8
M0
100
AcDbLine
 10
153.311693
 20
453.5291
 11
153.211691
 21
453.5291
  0
LINE
  5
514
100
AcDbEntity
  8
M0
100
AcDbLine
 10
154.46169
 20
497.879098
 11
154.46169
 21
491.379099
  0
LINE
  5
515
100
AcDbEntity
  8
M0
100
AcDbLine
 10
209.661691
 20
510.979098
 11
209.661691
 21
517.4791
  0
LINE
  5
516
100
AcDbEntity
  8
M0
100
AcDbLine
 10
161.961692
 20
497.8791
 11
161.961692
 21
491.3791
  0
LINE
  5
517
100
AcDbEntity
  8
M0
100
AcDbLine
 10
202.661691
 20
517.979101
 11
209.16169
 21
517.979101
  0
LINE
  5
518
100
AcDbEntity
  8
M0
100
AcDbLine
 10
214.511691
 20
432.129101
 11
214.511691
 21
434.129098
  0
LINE
  5
519
100
AcDbEntity
  8
M0
100
AcDbLine
 10
202.161692
 20
510.979098
 11
202.161688
 21
517.479099
  0
LINE
  5
51A
100
AcDbEntity
  8
M0
100
AcDbLine
 10
179.311692
 20
434.129098
 11
179.311692
 21
432.129101
  0
LINE
  5
51B
100
AcDbEntity
  8
M0
100
AcDbLine
 10
226.711691
 20
493.729099
 11
226.611689
 21
493.729099
  0
LINE
  5
51C
100
AcDbEntity
  8
M0
100
AcDbLine
 10
226.611689
 20
453.5291
 11
226.711691
 21
453.5291
  0
LINE
  5
51D
100
AcDbEntity
  8
M0
100
AcDbLine
 10
153.211691
 20
493.729099
 11
153.311693
 21
493.729099
  0
ARC
  5
51E
100
AcDbEntity
  8
M0
100
AcDbCircle
 10
224.961692
 20
456.9791
 40
0.5
100
AcDbArc
 50
270.0
 51
360.0
  0
ARC
  5
51F
100
AcDbEntity
  8
M0
100
AcDbCircle
 10
224.961692
 20
456.9791
 40
0.5
100
AcDbArc
 50
270.0
 51
360.0
  0
ARC
  5
520
100
AcDbEntity
  8
M0
100
AcDbCircle
 10
162.061691
 20
434.6291
 40
0.5
100
AcDbArc
 50
180.0
 51
270.0
  0
ARC
  5
521
100
AcDbEntity
  8
M0
100
AcDbCircle
 10
161.511691
 20
513.1291
 40
2.0
100
AcDbArc
 50
53.130102
 51
90.0
  0
ARC
  5
522
100
AcDbEntity
  8
M0
100
AcDbCircle
 10
218.411691
 20
513.1291
 40
2.0
100
AcDbArc
 50
90.0
 51
126.869898
  0
ARC
  5
523
100
AcDbEntity
  8
M0
100
AcDbCircle
 10
154.961691
 20
449.3791
 40
0.5
100
AcDbArc
 50
180.0
 51
270.0
  0
CIRCLE
  5
524
100
AcDbEntity
  8
M0
100
AcDbCircle
 10
172.611691
 20
434.1291
 40
2.85
  0
CIRCLE
  5
525
100
AcDbEntity
  8
M0
100
AcDbCircle
 10
172.611691
 20
434.1291
 40
2.825
  0
ARC
  5
526
100
AcDbEntity
  8
M0
100
AcDbCircle
 10
154.961691
 20
490.279099
 40
0.5
100
AcDbArc
 50
90.0
 51
180.0
  0
ARC
  5
527
100
AcDbEntity
  8
M0
100
AcDbCircle
 10
218.461691
 20
463.479099
 40
0.5
100
AcDbArc
 50
90.0
 51
180.0
  0
ARC
  5
528
100
AcDbEntity
  8
M0
100
AcDbCircle
 10
218.461692
 20
456.979099
 40
0.5
100
AcDbArc
 50
180.0
 51
270.0
  0
ARC
  5
529
100
AcDbEntity
  8
M0
100
AcDbCircle
 10
224.961691
 20
463.4791
 40
0.5
100
AcDbArc
 50
0.0
 51
90.0
  0
LINE
  5
52A
100
AcDbEntity
  8
M0
100
AcDbLine
 10
154.46169
 20
490.279098
 11
154.46169
 21
483.779099
  0
ARC
  5
52B
100
AcDbEntity
  8
M0
100
AcDbCircle
 10
226.611691
 20
447.2791
 40
1.0
100
AcDbArc
 50
180.0
 51
270.0
  0
LINE
  5
52C
100
AcDbEntity
  8
M0
100
AcDbLine
 10
225.461692
 20
455.8791
 11
225.461692
 21
449.3791
  0
LINE
  5
52D
100
AcDbEntity
  8
M0
100
AcDbLine
 10
218.461691
 20
456.3791
 11
224.961691
 21
456.3791
  0
LINE
  5
52E
100
AcDbEntity
  8
M0
100
AcDbLine
 10
217.961692
 20
449.379099
 11
217.961692
 21
455.879099
  0
LINE
  5
52F
100
AcDbEntity
  8
M0
100
AcDbLine
 10
224.961692
 20
448.8791
 11
218.461691
 21
448.8791
  0
ARC
  5
530
100
AcDbEntity
  8
M0
100
AcDbCircle
 10
167.008559
 20
485.478356
 40
5.573176
100
AcDbArc
 50
208.520126
 51
219.557059
  0
ARC
  5
531
100
AcDbEntity
  8
M0
100
AcDbCircle
 10
212.914823
 20
485.478356
 40
5.573176
100
AcDbArc
 50
320.442941
 51
331.479874
  0
ARC
  5
532
100
AcDbEntity
  8
M0
100
AcDbCircle
 10
162.711691
 20
493.1291
 40
0.6
100
AcDbArc
 50
90.0
 51
180.0
  0
ARC
  5
533
100
AcDbEntity
  8
M0
100
AcDbCircle
 10
152.511691
 20
499.9791
 40
1.0
100
AcDbArc
 50
90.0
 51
180.0
  0
ARC
  5
534
100
AcDbEntity
  8
M0
100
AcDbCircle
 10
217.211691
 20
493.1291
 40
0.6
100
AcDbArc
 50
0.0
 51
90.0
  0
ARC
  5
535
100
AcDbEntity
  8
M0
100
AcDbCircle
 10
153.311691
 20
499.9791
 40
1.0
100
AcDbArc
 50
0.0
 51
90.0
  0
LINE
  5
536
100
AcDbEntity
  8
M0
100
AcDbLine
 10
177.761691
 20
517.4791
 11
177.761691
 21
510.979098
  0
LINE
  5
537
100
AcDbEntity
  8
M0
100
AcDbLine
 10
161.96169
 20
455.8791
 11
161.96169
 21
449.379099
  0
LINE
  5
538
100
AcDbEntity
  8
M0
100
AcDbLine
 10
218.461691
 20
498.379099
 11
224.961691
 21
498.379099
  0
LINE
  5
539
100
AcDbEntity
  8
M0
100
AcDbLine
 10
224.961691
 20
490.879099
 11
218.461691
 21
490.879099
  0
LINE
  5
53A
100
AcDbEntity
  8
M0
100
AcDbLine
 10
217.961692
 20
491.3791
 11
217.961692
 21
497.8791
  0
LINE
  5
53B
100
AcDbEntity
  8
M0
100
AcDbLine
 10
170.761691
 20
517.979098
 11
177.261691
 21
517.979098
  0
LINE
  5
53C
100
AcDbEntity
  8
M0
100
AcDbLine
 10
154.961691
 20
456.3791
 11
161.461691
 21
456.3791
  0
LINE
  5
53D
100
AcDbEntity
  8
M0
100
AcDbLine
 10
217.961692
 20
456.979099
 11
217.961692
 21
463.479099
  0
LINE
  5
53E
100
AcDbEntity
  8
M0
100
AcDbLine
 10
170.261691
 20
510.979098
 11
170.261691
 21
517.4791
  0
LINE
  5
53F
100
AcDbEntity
  8
M0
100
AcDbLine
 10
225.461692
 20
497.8791
 11
225.461692
 21
491.3791
  0
LINE
  5
540
100
AcDbEntity
  8
M0
100
AcDbLine
 10
177.261691
 20
510.479101
 11
170.761691
 21
510.479101
  0
LINE
  5
541
100
AcDbEntity
  8
M0
100
AcDbLine
 10
188.37424
 20
514.3791
 11
187.350178
 21
514.3791
  0
LINE
  5
542
100
AcDbEntity
  8
M0
100
AcDbLine
 10
206.86169
 20
433.679101
 11
206.86169
 21
432.9291
  0
LINE
  5
543
100
AcDbEntity
  8
M0
100
AcDbLine
 10
206.86169
 20
435.329099
 11
206.86169
 21
434.579098
  0
LINE
  5
544
100
AcDbEntity
  8
M0
100
AcDbLine
 10
187.350178
 20
513.4791
 11
188.37424
 21
513.4791
  0
LINE
  5
545
100
AcDbEntity
  8
M0
100
AcDbLine
 10
207.761691
 20
432.9291
 11
207.761691
 21
433.679101
  0
LINE
  5
546
100
AcDbEntity
  8
M0
100
AcDbLine
 10
207.761691
 20
435.329099
 11
206.86169
 21
435.329099
  0
LINE
  5
547
100
AcDbEntity
  8
M0
100
AcDbLine
 10
165.411691
 20
437.1291
 11
170.361691
 21
437.1291
  0
LINE
  5
548
100
AcDbEntity
  8
M0
100
AcDbLine
 10
209.911692
 20
518.1291
 11
209.411691
 21
518.629101
  0
LINE
  5
549
100
AcDbEntity
  8
M0
100
AcDbLine
 10
217.811691
 20
456.429099
 11
225.611691
 21
456.429099
  0
LINE
  5
54A
100
AcDbEntity
  8
M0
100
AcDbLine
 10
209.911692
 20
510.129099
 11
209.911692
 21
518.1291
  0
LINE
  5
54B
100
AcDbEntity
  8
M0
100
AcDbLine
 10
207.761691
 20
434.579098
 11
208.899141
 21
434.579098
  0
LINE
  5
54C
100
AcDbEntity
  8
M0
100
AcDbLine
 10
177.811691
 20
518.629101
 11
169.511691
 21
518.629101
  0
LINE
  5
54D
100
AcDbEntity
  8
M0
100
AcDbLine
 10
190.411691
 20
515.129098
 11
189.511691
 21
515.129098
  0
LINE
  5
54E
100
AcDbEntity
  8
M0
100
AcDbLine
 10
189.511691
 20
512.729098
 11
190.411691
 21
512.729098
  0
LINE
  5
54F
100
AcDbEntity
  8
M0
100
AcDbLine
 10
190.411691
 20
514.3791
 11
191.549142
 21
514.3791
  0
LINE
  5
550
100
AcDbEntity
  8
M0
100
AcDbLine
 10
188.37424
 20
514.3791
 11
189.511691
 21
514.3791
  0
LINE
  5
551
100
AcDbEntity
  8
M0
100
AcDbLine
 10
161.96169
 20
463.479099
 11
161.96169
 21
456.9791
  0
LINE
  5
552
100
AcDbEntity
  8
M0
100
AcDbLine
 10
191.549142
 20
513.4791
 11
192.573204
 21
513.4791
  0
LINE
  5
553
100
AcDbEntity
  8
M0
100
AcDbLine
 10
192.573204
 20
514.3791
 11
191.549142
 21
514.3791
  0
LINE
  5
554
100
AcDbEntity
  8
M0
100
AcDbLine
 10
208.899141
 20
433.679101
 11
207.761691
 21
433.679101
  0
LINE
  5
555
100
AcDbEntity
  8
M0
100
AcDbLine
 10
206.86169
 20
433.679101
 11
205.72424
 21
433.679101
  0
LINE
  5
556
100
AcDbEntity
  8
M0
100
AcDbLine
 10
190.411691
 20
514.3791
 11
190.411691
 21
515.129098
  0
LINE
  5
557
100
AcDbEntity
  8
M0
100
AcDbLine
 10
190.411691
 20
512.729098
 11
190.411691
 21
513.4791
  0
ARC
  5
558
100
AcDbEntity
  8
M0
100
AcDbCircle
 10
224.961691
 20
455.8791
 40
0.5
100
AcDbArc
 50
0.0
 51
90.0
  0
ARC
  5
559
100
AcDbEntity
  8
M0
100
AcDbCircle
 10
218.461692
 20
449.379099
 40
0.5
100
AcDbArc
 50
180.0
 51
270.0
  0
ARC
  5
55A
100
AcDbEntity
  8
M0
100
AcDbCircle
 10
216.211691
 20
515.1291
 40
1.0
100
AcDbArc
 50
0.0
 51
90.0
  0
ARC
  5
55B
100
AcDbEntity
  8
M0
100
AcDbCircle
 10
224.961692
 20
449.3791
 40
0.5
100
AcDbArc
 50
270.0
 51
360.0
  0
ARC
  5
55C
100
AcDbEntity
  8
M0
100
AcDbCircle
 10
161.461691
 20
455.8791
 40
0.5
100
AcDbArc
 50
0.0
 51
90.0
  0
ARC
  5
55D
100
AcDbEntity
  8
M0
100
AcDbCircle
 10
172.611691
 20
434.1291
 40
2.65
100
AcDbArc
 50
189.776849
 51
350.223151
  0
ARC
  5
55E
100
AcDbEntity
  8
M0
100
AcDbCircle
 10
161.461691
 20
449.3791
 40
0.5
100
AcDbArc
 50
270.0
 51
360.0
  0
LINE
  5
55F
100
AcDbEntity
  8
M0
100
AcDbLine
 10
154.46169
 20
449.379099
 11
154.46169
 21
455.8791
  0
ARC
  5
560
100
AcDbEntity
  8
M0
100
AcDbCircle
 10
170.761691
 20
510.9791
 40
0.5
100
AcDbArc
 50
180.0
 51
270.0
  0
ARC
  5
561
100
AcDbEntity
  8
M0
100
AcDbCircle
 10
154.961691
 20
455.8791
 40
0.5
100
AcDbArc
 50
90.0
 51
180.0
  0
ARC
  5
562
100
AcDbEntity
  8
M0
100
AcDbCircle
 10
177.261691
 20
510.9791
 40
0.5
100
AcDbArc
 50
270.0
 51
360.0
  0
ARC
  5
563
100
AcDbEntity
  8
M0
100
AcDbCircle
 10
177.261691
 20
517.4791
 40
0.5
100
AcDbArc
 50
0.0
 51
90.0
  0
ARC
  5
564
100
AcDbEntity
  8
M0
100
AcDbCircle
 10
161.461691
 20
497.8791
 40
0.5
100
AcDbArc
 50
0.0
 51
90.0
  0
ARC
  5
565
100
AcDbEntity
  8
M0
100
AcDbCircle
 10
161.461692
 20
491.3791
 40
0.5
100
AcDbArc
 50
270.0
 51
360.0
  0
LINE
  5
566
100
AcDbEntity
  8
M0
100
AcDbLine
 10
214.511691
 20
510.129099
 11
209.561691
 21
510.129099
  0
LINE
  5
567
100
AcDbEntity
  8
M0
100
AcDbLine
 10
183.011691
 20
437.1291
 11
187.961691
 21
437.1291
  0
LINE
  5
568
100
AcDbEntity
  8
M0
100
AcDbLine
 10
200.611691
 20
437.1291
 11
205.561691
 21
437.1291
  0
ARC
  5
569
100
AcDbEntity
  8
M0
100
AcDbCircle
 10
154.961692
 20
491.379099
 40
0.5
100
AcDbArc
 50
180.0
 51
270.0
  0
ARC
  5
56A
100
AcDbEntity
  8
M0
100
AcDbCircle
 10
202.661691
 20
517.479099
 40
0.5
100
AcDbArc
 50
90.0
 51
180.0
  0
ARC
  5
56B
100
AcDbEntity
  8
M0
100
AcDbCircle
 10
202.661692
 20
510.979099
 40
0.5
100
AcDbArc
 50
180.0
 51
270.0
  0
ARC
  5
56C
100
AcDbEntity
  8
M0
100
AcDbCircle
 10
154.961691
 20
497.879099
 40
0.5
100
AcDbArc
 50
90.0
 51
180.0
  0
ARC
  5
56D
100
AcDbEntity
  8
M0
100
AcDbCircle
 10
209.161692
 20
510.9791
 40
0.5
100
AcDbArc
 50
270.0
 51
360.0
  0
ARC
  5
56E
100
AcDbEntity
  8
M0
100
AcDbCircle
 10
209.161691
 20
517.4791
 40
0.5
100
AcDbArc
 50
0.0
 51
90.0
  0
LINE
  5
56F
100
AcDbEntity
  8
M0
100
AcDbLine
 10
155.211692
 20
498.4291
 11
154.311691
 21
498.4291
  0
LINE
  5
570
100
AcDbEntity
  8
M0
100
AcDbLine
 10
179.511691
 20
515.729101
 11
179.511691
 21
517.929101
  0
LINE
  5
571
100
AcDbEntity
  8
M0
100
AcDbLine
 10
224.711691
 20
498.4291
 11
225.611691
 21
498.4291
  0
LINE
  5
572
100
AcDbEntity
  8
M0
100
AcDbLine
 10
187.961691
 20
437.1291
 11
191.961691
 21
437.1291
  0
LINE
  5
573
100
AcDbEntity
  8
M0
100
AcDbLine
 10
205.56169
 20
510.129099
 11
212.011692
 21
510.129099
  0
LINE
  5
574
100
AcDbEntity
  8
M0
100
AcDbLine
 10
217.811691
 20
498.4291
 11
218.711692
 21
498.4291
  0
ARC
  5
575
100
AcDbEntity
  8
M0
100
AcDbCircle
 10
161.711691
 20
468.4291
 40
1.0
100
AcDbArc
 50
180.0
 51
270.0
  0
ARC
  5
576
100
AcDbEntity
  8
M0
100
AcDbCircle
 10
158.511201
 20
506.0791
 40
0.3
100
AcDbArc
 50
90.0
 51
178.876481
  0
ARC
  5
577
100
AcDbEntity
  8
M0
100
AcDbCircle
 10
179.811691
 20
498.5291
 40
0.5
100
AcDbArc
 50
180.0
 51
270.0
  0
ARC
  5
578
100
AcDbEntity
  8
M0
100
AcDbCircle
 10
207.311691
 20
434.1291
 40
3.5
100
AcDbArc
 50
121.002719
 51
180.0
  0
ARC
  5
579
100
AcDbEntity
  8
M0
100
AcDbCircle
 10
197.411691
 20
448.7291
 40
0.5
100
AcDbArc
 50
90.0
 51
180.0
  0
LINE
  5
57A
100
AcDbEntity
  8
M0
100
AcDbLine
 10
226.711691
 20
500.979099
 11
226.611689
 21
500.979099
  0
LINE
  5
57B
100
AcDbEntity
  8
M0
100
AcDbLine
 10
178.861691
 20
432.129101
 11
178.861691
 21
437.1291
  0
LINE
  5
57C
100
AcDbEntity
  8
M0
100
AcDbLine
 10
166.36169
 20
432.129101
 11
166.36169
 21
437.1291
  0
LINE
  5
57D
100
AcDbEntity
  8
M0
100
AcDbLine
 10
201.061691
 20
432.129101
 11
201.061691
 21
437.1291
  0
LINE
  5
57E
100
AcDbEntity
  8
M0
100
AcDbLine
 10
180.011691
 20
518.429098
 11
199.911691
 21
518.429098
  0
LINE
  5
57F
100
AcDbEntity
  8
M0
100
AcDbLine
 10
153.211691
 20
446.2791
 11
153.311693
 21
446.2791
  0
LINE
  5
580
100
AcDbEntity
  8
M0
100
AcDbLine
 10
213.561692
 20
437.1291
 11
213.561692
 21
432.129101
  0
LINE
  5
581
100
AcDbEntity
  8
M0
100
AcDbLine
 10
203.811691
 20
434.129098
 11
203.811691
 21
432.129101
  0
LINE
  5
582
100
AcDbEntity
  8
M0
100
AcDbLine
 10
169.11169
 20
434.129098
 11
169.11169
 21
432.129101
  0
LINE
  5
583
100
AcDbEntity
  8
M0
100
AcDbLine
 10
169.511691
 20
510.129099
 11
169.511691
 21
519.1291
  0
LINE
  5
584
100
AcDbEntity
  8
M0
100
AcDbLine
 10
225.911691
 20
431.129099
 11
202.061691
 21
431.129099
  0
LINE
  5
585
100
AcDbEntity
  8
M0
100
AcDbLine
 10
153.211691
 20
500.979099
 11
153.311693
 21
500.979099
  0
LINE
  5
586
100
AcDbEntity
  8
M0
100
AcDbLine
 10
200.411691
 20
517.929101
 11
200.411691
 21
515.729101
  0
ARC
  5
587
100
AcDbEntity
  8
M0
100
AcDbCircle
 10
154.011691
 20
512.1291
 40
3.0
100
AcDbArc
 50
90.0
 51
180.0
  0
ARC
  5
588
100
AcDbEntity
  8
M0
100
AcDbCircle
 10
225.411691
 20
512.1291
 40
3.0
100
AcDbArc
 50
0.0
 51
90.0
  0
ARC
  5
589
100
AcDbEntity
  8
M0
100
AcDbCircle
 10
171.711691
 20
519.1291
 40
0.5
100
AcDbArc
 50
270.0
 51
360.0
  0
ARC
  5
58A
100
AcDbEntity
  8
M0
100
AcDbCircle
 10
162.061691
 20
433.1291
 40
0.5
100
AcDbArc
 50
180.0
 51
270.0
  0
ARC
  5
58B
100
AcDbEntity
  8
M0
100
AcDbCircle
 10
208.211691
 20
519.6291
 40
0.5
100
AcDbArc
 50
90.0
 51
180.0
  0
ARC
  5
58C
100
AcDbEntity
  8
M0
100
AcDbCircle
 10
208.211691
 20
519.1291
 40
0.5
100
AcDbArc
 50
180.0
 51
270.0
  0
ARC
  5
58D
100
AcDbEntity
  8
M0
100
AcDbCircle
 10
211.811691
 20
432.1291
 40
1.0
100
AcDbArc
 50
180.0
 51
270.0
  0
ARC
  5
58E
100
AcDbEntity
  8
M0
100
AcDbCircle
 10
177.861691
 20
432.1291
 40
1.0
100
AcDbArc
 50
270.0
 51
360.0
  0
ARC
  5
58F
100
AcDbEntity
  8
M0
100
AcDbCircle
 10
167.361691
 20
432.1291
 40
1.0
100
AcDbArc
 50
180.0
 51
270.0
  0
ARC
  5
590
100
AcDbEntity
  8
M0
100
AcDbCircle
 10
202.811691
 20
432.1291
 40
1.0
100
AcDbArc
 50
270.0
 51
360.0
  0
ARC
  5
591
100
AcDbEntity
  8
M0
100
AcDbCircle
 10
168.511691
 20
519.1291
 40
1.0
100
AcDbArc
 50
90.0
 51
180.0
  0
ARC
  5
592
100
AcDbEntity
  8
M0
100
AcDbCircle
 10
168.111691
 20
432.1291
 40
1.0
100
AcDbArc
 50
270.0
 51
360.0
  0
ARC
  5
593
100
AcDbEntity
  8
M0
100
AcDbCircle
 10
222.461691
 20
438.6291
 40
2.25
100
AcDbArc
 50
270.0
 51
355.815286
  0
ARC
  5
594
100
AcDbEntity
  8
M0
100
AcDbCircle
 10
197.911691
 20
432.1291
 40
1.0
100
AcDbArc
 50
180.0
 51
270.0
  0
ARC
  5
595
100
AcDbEntity
  8
M0
100
AcDbCircle
 10
154.912181
 20
508.6791
 40
0.3
100
AcDbArc
 50
270.0
 51
358.876481
  0
ARC
  5
596
100
AcDbEntity
  8
M0
100
AcDbCircle
 10
157.461691
 20
508.6291
 40
2.25
100
AcDbArc
 50
90.0
 51
178.876481
  0
ARC
  5
597
100
AcDbEntity
  8
M0
100
AcDbCircle
 10
159.961691
 20
508.6291
 40
2.25
100
AcDbArc
 50
270.0
 51
450.0
  0
ARC
  5
598
100
AcDbEntity
  8
M0
100
AcDbCircle
 10
171.711691
 20
519.6291
 40
0.5
100
AcDbArc
 50
0.0
 51
90.0
  0
ARC
  5
599
100
AcDbEntity
  8
M0
100
AcDbCircle
 10
200.111691
 20
448.7291
 40
0.5
100
AcDbArc
 50
0.0
 51
90.0
  0
ARC
  5
59A
100
AcDbEntity
  8
M0
100
AcDbCircle
 10
155.961691
 20
506.1291
 40
2.25
100
AcDbArc
 50
272.401074
 51
358.876481
  0
ARC
  5
59B
100
AcDbEntity
  8
M0
100
AcDbCircle
 10
219.961691
 20
438.6291
 40
2.25
100
AcDbArc
 50
90.0
 51
270.0
  0
ARC
  5
59C
100
AcDbEntity
  8
M0
100
AcDbCircle
 10
179.811691
 20
448.7291
 40
0.5
100
AcDbArc
 50
90.0
 51
180.0
  0
ARC
  5
59D
100
AcDbEntity
  8
M0
100
AcDbCircle
 10
182.511691
 20
448.7291
 40
0.5
100
AcDbArc
 50
0.0
 51
90.0
  0
LINE
  5
59E
100
AcDbEntity
  8
M0
100
AcDbLine
 10
218.41169
 20
515.129098
 11
225.411691
 21
515.129098
  0
LINE
  5
59F
100
AcDbEntity
  8
M0
100
AcDbLine
 10
228.41169
 20
449.829099
 11
228.911691
 21
444.8291
  0
LINE
  5
5A0
100
AcDbEntity
  8
M0
100
AcDbLine
 10
162.711692
 20
434.129098
 11
162.061692
 21
434.129098
  0
LINE
  5
5A1
100
AcDbEntity
  8
M0
100
AcDbLine
 10
154.912182
 20
508.379099
 11
154.46169
 21
508.379099
  0
LINE
  5
5A2
100
AcDbEntity
  8
M0
100
AcDbLine
 10
159.961692
 20
510.8791
 11
157.461692
 21
510.8791
  0
LINE
  5
5A3
100
AcDbEntity
  8
M0
100
AcDbLine
 10
154.46169
 20
503.879099
 11
156.055954
 21
503.881076
  0
LINE
  5
5A4
100
AcDbEntity
  8
M0
100
AcDbLine
 10
161.561691
 20
434.629099
 11
161.561691
 21
435.1291
  0
LINE
  5
5A5
100
AcDbEntity
  8
M0
100
AcDbLine
 10
169.511691
 20
514.629101
 11
170.011691
 21
514.629101
  0
LINE
  5
5A6
100
AcDbEntity
  8
M0
100
AcDbLine
 10
162.711692
 20
435.1291
 11
161.561691
 21
435.1291
  0
LINE
  5
5A7
100
AcDbEntity
  8
M0
100
AcDbLine
 10
210.411691
 20
515.729101
 11
209.911692
 21
515.729101
  0
LINE
  5
5A8
100
AcDbEntity
  8
M0
100
AcDbLine
 10
169.511691
 20
516.929099
 11
170.011691
 21
516.929099
  0
LINE
  5
5A9
100
AcDbEntity
  8
M0
100
AcDbLine
 10
170.011691
 20
515.729101
 11
169.511691
 21
515.729101
  0
ARC
  5
5AA
100
AcDbEntity
  8
M0
100
AcDbCircle
 10
202.061691
 20
432.1291
 40
1.0
100
AcDbArc
 50
180.0
 51
270.0
  0
ARC
  5
5AB
100
AcDbEntity
  8
M0
100
AcDbCircle
 10
212.561691
 20
432.1291
 40
1.0
100
AcDbArc
 50
270.0
 51
360.0
  0
ARC
  5
5AC
100
AcDbEntity
  8
M0
100
AcDbCircle
 10
207.311691
 20
434.1291
 40
3.5
100
AcDbArc
 50
0.0
 51
58.997281
  0
ARC
  5
5AD
100
AcDbEntity
  8
M0
100
AcDbCircle
 10
199.911691
 20
517.9291
 40
0.5
100
AcDbArc
 50
0.0
 51
90.0
  0
ARC
  5
5AE
100
AcDbEntity
  8
M0
100
AcDbCircle
 10
172.611691
 20
434.1291
 40
3.5
100
AcDbArc
 50
91.94738
 51
121.002719
  0
ARC
  5
5AF
100
AcDbEntity
  8
M0
100
AcDbCircle
 10
172.611691
 20
434.1291
 40
3.5
100
AcDbArc
 50
121.002719
 51
180.0
  0
CIRCLE
  5
5B0
100
AcDbEntity
  8
M0
100
AcDbCircle
 10
189.961691
 20
513.9291
 40
3.1
  0
LINE
  5
5B1
100
AcDbEntity
  8
M0
100
AcDbLine
 10
158.5112
 20
506.379099
 11
159.961692
 21
506.379099
  0
ARC
  5
5B2
100
AcDbEntity
  8
M0
100
AcDbCircle
 10
207.311691
 20
434.1291
 40
3.5
100
AcDbArc
 50
58.997281
 51
88.05262
  0
ARC
  5
5B3
100
AcDbEntity
  8
M0
100
AcDbCircle
 10
152.511691
 20
447.2791
 40
1.0
100
AcDbArc
 50
180.0
 51
270.0
  0
ARC
  5
5B4
100
AcDbEntity
  8
M0
100
AcDbCircle
 10
180.011691
 20
517.9291
 40
0.5
100
AcDbArc
 50
90.0
 51
180.0
  0
ARC
  5
5B5
100
AcDbEntity
  8
M0
100
AcDbCircle
 10
172.611691
 20
434.1291
 40
3.5
100
AcDbArc
 50
0.0
 51
58.997281
  0
LINE
  5
5B6
100
AcDbEntity
  8
M0
100
AcDbLine
 10
196.911691
 20
432.129101
 11
196.911691
 21
436.129098
  0
LINE
  5
5B7
100
AcDbEntity
  8
M0
100
AcDbLine
 10
196.911691
 20
436.129098
 11
196.911691
 21
448.729099
  0
LINE
  5
5B8
100
AcDbEntity
  8
M0
100
AcDbLine
 10
197.911692
 20
449.2291
 11
199.611692
 21
449.2291
  0
LINE
  5
5B9
100
AcDbEntity
  8
M0
100
AcDbLine
 10
210.811692
 20
432.129101
 11
210.811692
 21
434.129098
  0
LINE
  5
5BA
100
AcDbEntity
  8
M0
100
AcDbLine
 10
177.861691
 20
431.129099
 11
154.511691
 21
431.129099
  0
LINE
  5
5BB
100
AcDbEntity
  8
M0
100
AcDbLine
 10
176.111691
 20
434.129098
 11
176.111691
 21
432.129101
  0
LINE
  5
5BC
100
AcDbEntity
  8
M0
100
AcDbLine
 10
151.511692
 20
499.9791
 11
151.511692
 21
434.1291
  0
ARC
  5
5BD
100
AcDbEntity
  8
M0
100
AcDbCircle
 10
154.461691
 20
506.1291
 40
2.25
100
AcDbArc
 50
90.0
 51
270.0
  0
LINE
  5
5BE
100
AcDbEntity
  8
M0
100
AcDbLine
 10
152.51169
 20
446.2791
 11
153.311693
 21
446.2791
  0
LINE
  5
5BF
100
AcDbEntity
  8
M0
100
AcDbLine
 10
209.114467
 20
437.1291
 11
209.561691
 21
437.1291
  0
LINE
  5
5C0
100
AcDbEntity
  8
M0
100
AcDbLine
 10
167.511691
 20
510.129099
 11
167.511691
 21
519.129099
  0
LINE
  5
5C1
100
AcDbEntity
  8
M0
100
AcDbLine
 10
170.808916
 20
437.1291
 11
170.361691
 21
437.1291
  0
LINE
  5
5C2
100
AcDbEntity
  8
M0
100
AcDbLine
 10
228.41169
 20
512.1291
 11
228.41169
 21
447.2791
  0
LINE
  5
5C3
100
AcDbEntity
  8
M0
100
AcDbLine
 10
154.01169
 20
515.129098
 11
161.511692
 21
515.129098
  0
LINE
  5
5C4
100
AcDbEntity
  8
M0
100
AcDbLine
 10
162.711692
 20
442.129099
 11
161.561691
 21
442.129099
  0
LINE
  5
5C5
100
AcDbEntity
  8
M0
100
AcDbLine
 10
212.411691
 20
511.629098
 11
214.511691
 21
511.629098
  0
LINE
  5
5C6
100
AcDbEntity
  8
M0
100
AcDbLine
 10
165.411691
 20
511.629098
 11
167.511691
 21
511.629098
  0
LINE
  5
5C7
100
AcDbEntity
  8
M0
100
AcDbLine
 10
210.411691
 20
514.629101
 11
209.911692
 21
514.629101
  0
LINE
  5
5C8
100
AcDbEntity
  8
M0
100
AcDbLine
 10
180.311691
 20
431.129099
 11
180.811687
 21
431.129099
  0
LINE
  5
5C9
100
AcDbEntity
  8
M0
100
AcDbLine
 10
180.811687
 20
431.129099
 11
182.011691
 21
431.129099
  0
LINE
  5
5CA
100
AcDbEntity
  8
M0
100
AcDbLine
 10
151.011691
 20
502.429099
 11
151.011691
 21
512.129099
  0
LINE
  5
5CB
100
AcDbEntity
  8
M0
100
AcDbLine
 10
161.561691
 20
436.129098
 11
162.711692
 21
436.129098
  0
LINE
  5
5CC
100
AcDbEntity
  8
M0
100
AcDbLine
 10
221.413181
 20
440.8791
 11
219.96169
 21
440.8791
  0
LINE
  5
5CD
100
AcDbEntity
  8
M0
100
AcDbLine
 10
217.21169
 20
478.329099
 11
217.21169
 21
475.029099
  0
LINE
  5
5CE
100
AcDbEntity
  8
M0
100
AcDbLine
 10
217.21169
 20
475.1291
 11
216.21169
 21
475.1291
  0
LINE
  5
5CF
100
AcDbEntity
  8
M0
100
AcDbLine
 10
216.711691
 20
480.829099
 11
216.21169
 21
480.829099
  0
LINE
  5
5D0
100
AcDbEntity
  8
M0
100
AcDbLine
 10
209.911692
 20
516.929099
 11
210.411691
 21
516.929099
  0
LINE
  5
5D1
100
AcDbEntity
  8
M0
100
AcDbLine
 10
216.21169
 20
478.129099
 11
217.21169
 21
478.129099
  0
LINE
  5
5D2
100
AcDbEntity
  8
M0
100
AcDbLine
 10
162.711692
 20
475.1291
 11
163.711692
 21
475.1291
  0
LINE
  5
5D3
100
AcDbEntity
  8
M0
100
AcDbLine
 10
216.21169
 20
475.1291
 11
216.21169
 21
472.129099
  0
LINE
  5
5D4
100
AcDbEntity
  8
M0
100
AcDbLine
 10
163.711692
 20
480.829099
 11
163.211691
 21
480.829099
  0
LINE
  5
5D5
100
AcDbEntity
  8
M0
100
AcDbLine
 10
162.711692
 20
478.329099
 11
162.711692
 21
475.1291
  0
ARC
  5
5D6
100
AcDbEntity
  8
M0
100
AcDbCircle
 10
200.111691
 20
498.5291
 40
0.5
100
AcDbArc
 50
270.0
 51
360.0
  0
ARC
  5
5D7
100
AcDbEntity
  8
M0
100
AcDbCircle
 10
197.411691
 20
498.5291
 40
0.5
100
AcDbArc
 50
180.0
 51
270.0
  0
ARC
  5
5D8
100
AcDbEntity
  8
M0
100
AcDbCircle
 10
182.511691
 20
498.5291
 40
0.5
100
AcDbArc
 50
270.0
 51
360.0
  0
ARC
  5
5D9
100
AcDbEntity
  8
M0
100
AcDbCircle
 10
218.211691
 20
478.8291
 40
1.0
100
AcDbArc
 50
0.0
 51
90.0
  0
ARC
  5
5DA
100
AcDbEntity
  8
M0
100
AcDbCircle
 10
218.211691
 20
468.4291
 40
1.0
100
AcDbArc
 50
270.0
 51
360.0
  0
ARC
  5
5DB
100
AcDbEntity
  8
M0
100
AcDbCircle
 10
182.011691
 20
432.1291
 40
1.0
100
AcDbArc
 50
270.0
 51
360.0
  0
LINE
  5
5DC
100
AcDbEntity
  8
M0
100
AcDbLine
 10
210.411691
 20
518.629101
 11
209.411691
 21
518.629101
  0
LINE
  5
5DD
100
AcDbEntity
  8
M0
100
AcDbLine
 10
210.411691
 20
511.629098
 11
209.911692
 21
511.629098
  0
CIRCLE
  5
5DE
100
AcDbEntity
  8
M0
100
AcDbCircle
 10
224.961691
 20
510.6291
 40
2.25
  0
CIRCLE
  5
5DF
100
AcDbEntity
  8
M0
100
AcDbCircle
 10
154.961691
 20
435.6291
 40
2.25
  0
ARC
  5
5E0
100
AcDbEntity
  8
M0
100
AcDbCircle
 10
161.711691
 20
478.8291
 40
1.0
100
AcDbArc
 50
90.0
 51
180.0
  0
LINE
  5
5E1
100
AcDbEntity
  8
M0
100
AcDbLine
 10
200.111691
 20
498.029099
 11
197.411691
 21
498.029099
  0
LINE
  5
5E2
100
AcDbEntity
  8
M0
100
AcDbLine
 10
162.711692
 20
479.8291
 11
161.711692
 21
479.8291
  0
LINE
  5
5E3
100
AcDbEntity
  8
M0
100
AcDbLine
 10
219.96169
 20
436.379099
 11
222.46169
 21
436.379099
  0
LINE
  5
5E4
100
AcDbEntity
  8
M0
100
AcDbLine
 10
179.311692
 20
510.129099
 11
165.411691
 21
510.129099
  0
LINE
  5
5E5
100
AcDbEntity
  8
M0
100
AcDbLine
 10
154.311691
 20
448.829099
 11
155.211692
 21
448.829099
  0
ARC
  5
5E6
100
AcDbEntity
  8
M0
100
AcDbCircle
 10
224.961691
 20
463.4791
 40
0.5
100
AcDbArc
 50
0.0
 51
90.0
  0
LINE
  5
5E7
100
AcDbEntity
  8
M0
100
AcDbLine
 10
182.011691
 20
449.2291
 11
180.311691
 21
449.2291
  0
LINE
  5
5E8
100
AcDbEntity
  8
M0
100
AcDbLine
 10
182.511691
 20
449.2291
 11
182.011691
 21
449.2291
  0
LINE
  5
5E9
100
AcDbEntity
  8
M0
100
AcDbLine
 10
180.311691
 20
449.2291
 11
179.811691
 21
449.2291
  0
LINE
  5
5EA
100
AcDbEntity
  8
M0
100
AcDbLine
 10
217.21169
 20
479.8291
 11
218.211691
 21
479.8291
  0
LINE
  5
5EB
100
AcDbEntity
  8
M0
100
AcDbLine
 10
216.21169
 20
472.129099
 11
217.21169
 21
472.129099
  0
LINE
  5
5EC
100
AcDbEntity
  8
M0
100
AcDbLine
 10
163.711692
 20
475.1291
 11
163.711692
 21
472.129099
  0
LINE
  5
5ED
100
AcDbEntity
  8
M0
100
AcDbLine
 10
217.21169
 20
472.2291
 11
217.21169
 21
468.9291
  0
LINE
  5
5EE
100
AcDbEntity
  8
M0
100
AcDbLine
 10
163.711692
 20
469.1291
 11
163.711692
 21
466.4291
  0
LINE
  5
5EF
100
AcDbEntity
  8
M0
100
AcDbLine
 10
163.711692
 20
478.129099
 11
162.711692
 21
478.129099
  0
LINE
  5
5F0
100
AcDbEntity
  8
M0
100
AcDbLine
 10
216.21169
 20
480.829099
 11
216.21169
 21
478.129099
  0
LINE
  5
5F1
100
AcDbEntity
  8
M0
100
AcDbLine
 10
216.21169
 20
469.1291
 11
216.21169
 21
466.4291
  0
LINE
  5
5F2
100
AcDbEntity
  8
M0
100
AcDbLine
 10
162.711692
 20
472.129099
 11
162.711692
 21
468.9291
  0
LINE
  5
5F3
100
AcDbEntity
  8
M0
100
AcDbLine
 10
217.21169
 20
469.1291
 11
216.21169
 21
469.1291
  0
LINE
  5
5F4
100
AcDbEntity
  8
M0
100
AcDbLine
 10
161.711692
 20
472.2291
 11
163.411691
 21
472.2291
  0
LINE
  5
5F5
100
AcDbEntity
  8
M0
100
AcDbLine
 10
165.411691
 20
450.729099
 11
164.411691
 21
450.729099
  0
LINE
  5
5F6
100
AcDbEntity
  8
M0
100
AcDbLine
 10
160.711691
 20
478.8291
 11
160.711691
 21
468.429099
  0
LINE
  5
5F7
100
AcDbEntity
  8
M0
100
AcDbLine
 10
165.411691
 20
436.129098
 11
165.411691
 21
450.729099
  0
LINE
  5
5F8
100
AcDbEntity
  8
M0
100
AcDbLine
 10
219.211691
 20
478.8291
 11
219.211691
 21
468.429099
  0
LINE
  5
5F9
100
AcDbEntity
  8
M0
100
AcDbLine
 10
161.711692
 20
467.429099
 11
162.711692
 21
467.429099
  0
LINE
  5
5FA
100
AcDbEntity
  8
M0
100
AcDbLine
 10
226.711691
 20
446.2791
 11
226.611689
 21
446.2791
  0
LINE
  5
5FB
100
AcDbEntity
  8
M0
100
AcDbLine
 10
151.511692
 20
497.4291
 11
151.011691
 21
502.429099
  0
LINE
  5
5FC
100
AcDbEntity
  8
M0
100
AcDbLine
 10
218.711692
 20
448.829099
 11
217.811691
 21
448.829099
  0
LINE
  5
5FD
100
AcDbEntity
  8
M0
100
AcDbLine
 10
163.411691
 20
475.029099
 11
161.711692
 21
475.029099
  0
LINE
  5
5FE
100
AcDbEntity
  8
M0
100
AcDbLine
 10
225.611691
 20
448.829099
 11
224.711691
 21
448.829099
  0
LINE
  5
5FF
100
AcDbEntity
  8
M0
100
AcDbLine
 10
162.711692
 20
472.2291
 11
162.711692
 21
472.129099
  0
LINE
  5
600
100
AcDbEntity
  8
M0
100
AcDbLine
 10
200.611691
 20
448.729099
 11
200.611691
 21
436.129098
  0
LINE
  5
601
100
AcDbEntity
  8
M0
100
AcDbLine
 10
199.611692
 20
449.2291
 11
200.111692
 21
449.2291
  0
LINE
  5
602
100
AcDbEntity
  8
M0
100
AcDbLine
 10
214.511691
 20
436.129098
 11
214.511691
 21
450.729099
  0
ARC
  5
603
100
AcDbEntity
  8
M0
100
AcDbCircle
 10
177.111691
 20
432.1291
 40
1.0
100
AcDbArc
 50
180.0
 51
270.0
  0
ARC
  5
604
100
AcDbEntity
  8
M0
100
AcDbCircle
 10
168.511691
 20
519.1291
 40
1.0
100
AcDbArc
 50
0.0
 51
90.0
  0
LINE
  5
605
100
AcDbEntity
  8
M0
100
AcDbLine
 10
161.561691
 20
442.129099
 11
161.561691
 21
436.129098
  0
LINE
  5
606
100
AcDbEntity
  8
M0
100
AcDbLine
 10
197.411691
 20
449.2291
 11
197.911692
 21
449.2291
  0
LINE
  5
607
100
AcDbEntity
  8
M0
100
AcDbLine
 10
162.711692
 20
475.029099
 11
162.711692
 21
475.1291
  0
LINE
  5
608
100
AcDbEntity
  8
M0
100
AcDbLine
 10
218.211691
 20
467.429099
 11
217.21169
 21
467.429099
  0
LINE
  5
609
100
AcDbEntity
  8
M0
100
AcDbLine
 10
161.711692
 20
478.329099
 11
161.711692
 21
468.9291
  0
LINE
  5
60A
100
AcDbEntity
  8
M0
100
AcDbLine
 10
218.211691
 20
478.329099
 11
218.211691
 21
468.9291
  0
LINE
  5
60B
100
AcDbEntity
  8
M0
100
AcDbLine
 10
214.511691
 20
450.729099
 11
215.511692
 21
450.729099
  0
ARC
  5
60C
100
AcDbEntity
  8
M0
100
AcDbCircle
 10
216.211691
 20
495.3291
 40
1.0
100
AcDbArc
 50
0.0
 51
90.0
  0
ARC
  5
60D
100
AcDbEntity
  8
M0
100
AcDbCircle
 10
216.211691
 20
432.1291
 40
1.0
100
AcDbArc
 50
270.0
 51
360.0
  0
LINE
  5
60E
100
AcDbEntity
  8
M0
100
AcDbLine
 10
163.711692
 20
480.829099
 11
163.711692
 21
478.129099
  0
LINE
  5
60F
100
AcDbEntity
  8
M0
100
AcDbLine
 10
161.561691
 20
433.129099
 11
161.561691
 21
434.629099
  0
LINE
  5
610
100
AcDbEntity
  8
M0
100
AcDbLine
 10
162.111691
 20
498.4291
 11
161.211691
 21
498.4291
  0
LINE
  5
611
100
AcDbEntity
  8
M0
100
AcDbLine
 10
162.711692
 20
432.629098
 11
162.061692
 21
432.629098
  0
LINE
  5
612
100
AcDbEntity
  8
M0
100
AcDbLine
 10
214.511691
 20
434.129098
 11
213.561692
 21
434.129098
  0
LINE
  5
613
100
AcDbEntity
  8
M0
100
AcDbLine
 10
214.511691
 20
435.1291
 11
213.561692
 21
435.1291
  0
LINE
  5
614
100
AcDbEntity
  8
M0
100
AcDbLine
 10
214.511691
 20
432.629098
 11
213.561692
 21
432.629098
  0
LINE
  5
615
100
AcDbEntity
  8
M0
100
AcDbLine
 10
161.211691
 20
448.829099
 11
162.111691
 21
448.829099
  0
ARC
  5
616
100
AcDbEntity
  8
M0
100
AcDbCircle
 10
163.711691
 20
451.9291
 40
1.0
100
AcDbArc
 50
180.0
 51
270.0
  0
ARC
  5
617
100
AcDbEntity
  8
M0
100
AcDbCircle
 10
216.711691
 20
465.9291
 40
0.5
100
AcDbArc
 50
0.0
 51
90.0
  0
LINE
  5
618
100
AcDbEntity
  8
M0
  6
DASHDOT
100
AcDbLine
 10
171.861691
 20
444.1291
 11
172.861691
 21
444.1291
  0
ARC
  5
619
100
AcDbEntity
  8
M0
100
AcDbCircle
 10
216.211691
 20
451.9291
 40
1.0
100
AcDbArc
 50
270.0
 51
360.0
  0
ARC
  5
61A
100
AcDbEntity
  8
M0
100
AcDbCircle
 10
163.211691
 20
465.9291
 40
0.5
100
AcDbArc
 50
90.0
 51
180.0
  0
LINE
  5
61B
100
AcDbEntity
  8
M0
  6
DASHDOT
100
AcDbLine
 10
189.961691
 20
503.6291
 11
189.961691
 21
502.6291
  0
LINE
  5
61C
100
AcDbEntity
  8
M0
  6
DASHDOT
100
AcDbLine
 10
189.461691
 20
503.1291
 11
190.461691
 21
503.1291
  0
LINE
  5
61D
100
AcDbEntity
  8
M0
  6
DASHDOT
100
AcDbLine
 10
207.561691
 20
503.6291
 11
207.561691
 21
502.6291
  0
LINE
  5
61E
100
AcDbEntity
  8
M0
  6
DASHDOT
100
AcDbLine
 10
207.061691
 20
503.1291
 11
208.061691
 21
503.1291
  0
LINE
  5
61F
100
AcDbEntity
  8
M0
  6
DASHDOT
100
AcDbLine
 10
172.361691
 20
503.6291
 11
172.361691
 21
502.6291
  0
LINE
  5
620
100
AcDbEntity
  8
M0
  6
DASHDOT
100
AcDbLine
 10
171.861691
 20
503.1291
 11
172.861691
 21
503.1291
  0
LINE
  5
621
100
AcDbEntity
  8
M0
  6
DASHDOT
100
AcDbLine
 10
207.061691
 20
444.1291
 11
208.061691
 21
444.1291
  0
LINE
  5
622
100
AcDbEntity
  8
M0
  6
DASHDOT
100
AcDbLine
 10
172.361691
 20
443.6291
 11
172.361691
 21
444.6291
  0
LINE
  5
623
100
AcDbEntity
  8
M0
  6
DASHDOT
100
AcDbLine
 10
207.561691
 20
443.6291
 11
207.561691
 21
444.6291
  0
LINE
  5
624
100
AcDbEntity
  8
M0
  6
DASHDOT
100
AcDbLine
 10
189.961691
 20
443.6291
 11
189.961691
 21
444.6291
  0
LINE
  5
625
100
AcDbEntity
  8
M0
  6
DASHDOT
100
AcDbLine
 10
189.461691
 20
444.1291
 11
190.461691
 21
444.1291
  0
LINE
  5
626
100
AcDbEntity
  8
M0
100
AcDbLine
 10
161.961691
 20
490.2791
 11
161.961691
 21
483.7791
  0
LINE
  5
627
100
AcDbEntity
  8
M0
100
AcDbLine
 10
200.611691
 20
496.3291
 11
200.611691
 21
518.629101
  0
LINE
  5
628
100
AcDbEntity
  8
M0
100
AcDbLine
 10
207.511692
 20
519.6291
 11
207.511692
 21
518.629101
  0
LINE
  5
629
100
AcDbEntity
  8
M0
100
AcDbLine
 10
169.711691
 20
510.129099
 11
169.711691
 21
511.129101
  0
LINE
  5
62A
100
AcDbEntity
  8
M0
100
AcDbLine
 10
172.41169
 20
518.629101
 11
172.41169
 21
519.6291
  0
LINE
  5
62B
100
AcDbEntity
  8
M0
100
AcDbLine
 10
177.811691
 20
510.129099
 11
177.811691
 21
519.129099
  0
LINE
  5
62C
100
AcDbEntity
  8
M0
100
AcDbLine
 10
155.211692
 20
499.4291
 11
161.211691
 21
499.4291
  0
LINE
  5
62D
100
AcDbEntity
  8
M0
100
AcDbLine
 10
225.611691
 20
490.8291
 11
217.811691
 21
490.8291
  0
LINE
  5
62E
100
AcDbEntity
  8
M0
100
AcDbLine
 10
168.511691
 20
520.129101
 11
211.411691
 21
520.129101
  0
LINE
  5
62F
100
AcDbEntity
  8
M0
100
AcDbLine
 10
200.611691
 20
518.629101
 11
179.311692
 21
518.629101
  0
LINE
  5
630
100
AcDbEntity
  8
M0
100
AcDbLine
 10
161.211691
 20
447.829099
 11
155.211692
 21
447.829099
  0
LINE
  5
631
100
AcDbEntity
  8
M0
100
AcDbLine
 10
162.111691
 20
490.8291
 11
154.311691
 21
490.8291
  0
ARC
  5
632
100
AcDbEntity
  8
M0
100
AcDbCircle
 10
223.961691
 20
441.1291
 40
2.25
100
AcDbArc
 50
89.957854
 51
177.916058
  0
ARC
  5
633
100
AcDbEntity
  8
M0
100
AcDbCircle
 10
225.911691
 20
434.1291
 40
3.0
100
AcDbArc
 50
270.0
 51
360.0
  0
ARC
  5
634
100
AcDbEntity
  8
M0
100
AcDbCircle
 10
154.511691
 20
434.1291
 40
3.0
100
AcDbArc
 50
180.0
 51
270.0
  0
ARC
  5
635
100
AcDbEntity
  8
M0
100
AcDbCircle
 10
221.413179
 20
441.1791
 40
0.3
100
AcDbArc
 50
270.0
 51
360.0
  0
ARC
  5
636
100
AcDbEntity
  8
M0
100
AcDbCircle
 10
153.311691
 20
492.7291
 40
1.0
100
AcDbArc
 50
0.0
 51
90.0
  0
LINE
  5
637
100
AcDbEntity
  8
M0
100
AcDbLine
 10
155.211692
 20
498.379099
 11
155.211692
 21
499.4291
  0
LINE
  5
638
100
AcDbEntity
  8
M0
100
AcDbLine
 10
161.211691
 20
499.4291
 11
161.211691
 21
498.379099
  0
LINE
  5
639
100
AcDbEntity
  8
M0
100
AcDbLine
 10
218.711692
 20
499.4291
 11
224.711691
 21
499.4291
  0
LINE
  5
63A
100
AcDbEntity
  8
M0
100
AcDbLine
 10
154.464197
 20
497.929099
 11
154.311691
 21
497.929099
  0
LINE
  5
63B
100
AcDbEntity
  8
M0
100
AcDbLine
 10
224.711691
 20
499.4291
 11
224.711691
 21
498.379099
  0
LINE
  5
63C
100
AcDbEntity
  8
M0
100
AcDbLine
 10
159.802274
 20
458.638456
 11
156.620633
 21
461.820219
  0
LINE
  5
63D
100
AcDbEntity
  8
M0
100
AcDbLine
 10
158.564969
 20
461.643461
 11
156.797391
 21
459.875761
  0
LINE
  5
63E
100
AcDbEntity
  8
M0
100
AcDbLine
 10
223.125518
 20
494.982792
 11
221.35794
 21
493.215214
  0
LINE
  5
63F
100
AcDbEntity
  8
M0
100
AcDbLine
 10
222.064971
 20
496.043461
 11
220.297393
 21
494.275761
  0
LINE
  5
640
100
AcDbEntity
  8
M0
100
AcDbLine
 10
223.302276
 20
493.038456
 11
220.120635
 21
496.220219
  0
LINE
  5
641
100
AcDbEntity
  8
M0
100
AcDbLine
 10
223.302276
 20
485.438456
 11
220.120635
 21
488.620219
  0
LINE
  5
642
100
AcDbEntity
  8
M0
100
AcDbLine
 10
159.802274
 20
485.438456
 11
156.620633
 21
488.620219
  0
LINE
  5
643
100
AcDbEntity
  8
M0
100
AcDbLine
 10
159.625516
 20
487.382792
 11
157.857938
 21
485.615214
  0
LINE
  5
644
100
AcDbEntity
  8
M0
100
AcDbLine
 10
158.564969
 20
454.043461
 11
156.797391
 21
452.275761
  0
LINE
  5
645
100
AcDbEntity
  8
M0
100
AcDbLine
 10
159.802274
 20
451.038456
 11
156.620633
 21
454.220219
  0
LINE
  5
646
100
AcDbEntity
  8
M0
100
AcDbLine
 10
159.625516
 20
452.982792
 11
157.857938
 21
451.215214
  0
LINE
  5
647
100
AcDbEntity
  8
M0
100
AcDbLine
 10
159.625516
 20
460.582792
 11
157.857938
 21
458.815214
  0
CIRCLE
  5
648
100
AcDbEntity
  8
M0
100
AcDbCircle
 10
158.21169
 20
494.629101
 40
3.0
  0
CIRCLE
  5
649
100
AcDbEntity
  8
M0
100
AcDbCircle
 10
205.911688
 20
514.229103
 40
3.0
  0
CIRCLE
  5
64A
100
AcDbEntity
  8
M0
100
AcDbCircle
 10
158.21169
 20
487.029101
 40
3.0
  0
CIRCLE
  5
64B
100
AcDbEntity
  8
M0
100
AcDbCircle
 10
158.21169
 20
452.629098
 40
3.0
  0
CIRCLE
  5
64C
100
AcDbEntity
  8
M0
100
AcDbCircle
 10
158.21169
 20
460.229098
 40
3.0
  0
CIRCLE
  5
64D
100
AcDbEntity
  8
M0
100
AcDbCircle
 10
221.711692
 20
494.629101
 40
3.0
  0
LINE
  5
64E
100
AcDbEntity
  8
M0
100
AcDbLine
 10
223.125518
 20
487.382792
 11
221.35794
 21
485.615214
  0
LINE
  5
64F
100
AcDbEntity
  8
M0
100
AcDbLine
 10
222.064971
 20
488.443461
 11
220.297393
 21
486.675761
  0
CIRCLE
  5
650
100
AcDbEntity
  8
M0
100
AcDbCircle
 10
172.361691
 20
503.12913
 40
4.499996
  0
CIRCLE
  5
651
100
AcDbEntity
  8
M0
100
AcDbCircle
 10
207.561691
 20
503.12913
 40
4.499996
  0
CIRCLE
  5
652
100
AcDbEntity
  8
M0
100
AcDbCircle
 10
189.961691
 20
503.12913
 40
4.499996
  0
CIRCLE
  5
653
100
AcDbEntity
  8
M0
100
AcDbCircle
 10
174.011691
 20
514.2291
 40
3.0
  0
LINE
  5
654
100
AcDbEntity
  8
M0
100
AcDbLine
 10
191.842795
 20
503.596049
 11
189.494818
 21
501.248057
  0
LINE
  5
655
100
AcDbEntity
  8
M0
100
AcDbLine
 10
190.428595
 20
505.010265
 11
188.080618
 21
502.662273
  0
LINE
  5
656
100
AcDbEntity
  8
M0
100
AcDbLine
 10
187.892737
 20
505.198039
 11
192.155707
 21
500.9351
  0
LINE
  5
657
100
AcDbEntity
  8
M0
100
AcDbLine
 10
209.442795
 20
503.596049
 11
207.094818
 21
501.248057
  0
LINE
  5
658
100
AcDbEntity
  8
M0
100
AcDbLine
 10
208.028595
 20
505.010265
 11
205.680618
 21
502.662273
  0
LINE
  5
659
100
AcDbEntity
  8
M0
100
AcDbLine
 10
205.492737
 20
505.198039
 11
209.755707
 21
500.9351
  0
LINE
  5
65A
100
AcDbEntity
  8
M0
100
AcDbLine
 10
210.411691
 20
510.129099
 11
210.411691
 21
519.1291
  0
LINE
  5
65B
100
AcDbEntity
  8
M0
100
AcDbLine
 10
218.711692
 20
498.379099
 11
218.711692
 21
499.4291
  0
LINE
  5
65C
100
AcDbEntity
  8
M0
100
AcDbLine
 10
212.411691
 20
510.129099
 11
212.411691
 21
519.129099
  0
LINE
  5
65D
100
AcDbEntity
  8
M0
100
AcDbLine
 10
174.242795
 20
503.596049
 11
171.894818
 21
501.248057
  0
LINE
  5
65E
100
AcDbEntity
  8
M0
100
AcDbLine
 10
172.828595
 20
505.010265
 11
170.480618
 21
502.662273
  0
LINE
  5
65F
100
AcDbEntity
  8
M0
100
AcDbLine
 10
170.292737
 20
505.198039
 11
174.555707
 21
500.9351
  0
LINE
  5
660
100
AcDbEntity
  8
M0
100
AcDbLine
 10
207.502272
 20
512.638458
 11
204.320631
 21
515.820221
  0
LINE
  5
661
100
AcDbEntity
  8
M0
100
AcDbLine
 10
207.325514
 20
514.582794
 11
205.557936
 21
512.815216
  0
LINE
  5
662
100
AcDbEntity
  8
M0
100
AcDbLine
 10
158.564969
 20
496.043461
 11
156.797391
 21
494.275761
  0
LINE
  5
663
100
AcDbEntity
  8
M0
100
AcDbLine
 10
159.802274
 20
493.038456
 11
156.620633
 21
496.220219
  0
LINE
  5
664
100
AcDbEntity
  8
M0
100
AcDbLine
 10
159.625516
 20
494.982792
 11
157.857938
 21
493.215214
  0
LINE
  5
665
100
AcDbEntity
  8
M0
100
AcDbLine
 10
158.564969
 20
488.443461
 11
156.797391
 21
486.675761
  0
LINE
  5
666
100
AcDbEntity
  8
M0
100
AcDbLine
 10
175.425517
 20
514.582791
 11
173.657939
 21
512.815212
  0
LINE
  5
667
100
AcDbEntity
  8
M0
100
AcDbLine
 10
174.36497
 20
515.64346
 11
172.597392
 21
513.875759
  0
LINE
  5
668
100
AcDbEntity
  8
M0
100
AcDbLine
 10
175.602275
 20
512.638455
 11
172.420634
 21
515.820217
  0
LINE
  5
669
100
AcDbEntity
  8
M0
  6
DASHDOT
100
AcDbLine
 10
158.211691
 20
494.1291
 11
158.211691
 21
495.1291
  0
LINE
  5
66A
100
AcDbEntity
  8
M0
  6
DASHDOT
100
AcDbLine
 10
157.711691
 20
494.6291
 11
158.711691
 21
494.6291
  0
LINE
  5
66B
100
AcDbEntity
  8
M0
100
AcDbLine
 10
218.711692
 20
447.829099
 11
218.711692
 21
448.8791
  0
LINE
  5
66C
100
AcDbEntity
  8
M0
100
AcDbLine
 10
224.711691
 20
448.8791
 11
224.711691
 21
447.829099
  0
LINE
  5
66D
100
AcDbEntity
  8
M0
100
AcDbLine
 10
224.711691
 20
447.829099
 11
218.711692
 21
447.829099
  0
LINE
  5
66E
100
AcDbEntity
  8
M0
100
AcDbLine
 10
217.811691
 20
449.3291
 11
217.964197
 21
449.3291
  0
LINE
  5
66F
100
AcDbEntity
  8
M0
100
AcDbLine
 10
209.561691
 20
437.1291
 11
214.511691
 21
437.1291
  0
LINE
  5
670
100
AcDbEntity
  8
M0
100
AcDbLine
 10
205.561691
 20
510.129099
 11
200.611691
 21
510.129099
  0
LINE
  5
671
100
AcDbEntity
  8
M0
100
AcDbLine
 10
191.961691
 20
437.1291
 11
196.911691
 21
437.1291
  0
ARC
  5
672
100
AcDbEntity
  8
M0
100
AcDbCircle
 10
227.411691
 20
454.5291
 40
1.0
100
AcDbArc
 50
270.0
 51
360.0
  0
ARC
  5
673
100
AcDbEntity
  8
M0
100
AcDbCircle
 10
153.311691
 20
468.9291
 40
1.0
100
AcDbArc
 50
0.0
 51
90.0
  0
ARC
  5
674
100
AcDbEntity
  8
M0
100
AcDbCircle
 10
226.611691
 20
454.5291
 40
1.0
100
AcDbArc
 50
180.0
 51
270.0
  0
LINE
  5
675
100
AcDbEntity
  8
M0
100
AcDbLine
 10
200.611691
 20
506.829099
 11
200.611691
 21
509.629098
  0
LINE
  5
676
100
AcDbEntity
  8
M0
100
AcDbLine
 10
174.361692
 20
437.1291
 11
179.311692
 21
437.1291
  0
LINE
  5
677
100
AcDbEntity
  8
M0
100
AcDbLine
 10
173.061692
 20
435.329099
 11
172.161692
 21
435.329099
  0
LINE
  5
678
100
AcDbEntity
  8
M0
100
AcDbLine
 10
173.061692
 20
434.579098
 11
174.199142
 21
434.579098
  0
LINE
  5
679
100
AcDbEntity
  8
M0
100
AcDbLine
 10
172.161692
 20
433.679101
 11
171.024241
 21
433.679101
  0
LINE
  5
67A
100
AcDbEntity
  8
M0
100
AcDbLine
 10
173.061692
 20
434.579098
 11
173.061692
 21
435.329099
  0
LINE
  5
67B
100
AcDbEntity
  8
M0
100
AcDbLine
 10
170.000178
 20
433.679101
 11
171.024241
 21
433.679101
  0
LINE
  5
67C
100
AcDbEntity
  8
M0
100
AcDbLine
 10
174.199142
 20
433.679101
 11
175.223204
 21
433.679101
  0
LINE
  5
67D
100
AcDbEntity
  8
M0
100
AcDbLine
 10
174.199142
 20
433.679101
 11
173.061692
 21
433.679101
  0
LINE
  5
67E
100
AcDbEntity
  8
M0
100
AcDbLine
 10
200.611691
 20
434.129098
 11
200.611691
 21
432.129101
  0
LINE
  5
67F
100
AcDbEntity
  8
M0
100
AcDbLine
 10
165.411691
 20
432.129101
 11
165.411691
 21
434.129098
  0
LINE
  5
680
100
AcDbEntity
  8
M0
100
AcDbLine
 10
175.223204
 20
434.579098
 11
174.199142
 21
434.579098
  0
LINE
  5
681
100
AcDbEntity
  8
M0
100
AcDbLine
 10
172.161692
 20
435.329099
 11
172.161692
 21
434.579098
  0
LINE
  5
682
100
AcDbEntity
  8
M0
100
AcDbLine
 10
172.161692
 20
432.9291
 11
173.061692
 21
432.9291
  0
LINE
  5
683
100
AcDbEntity
  8
M0
100
AcDbLine
 10
171.024241
 20
434.579098
 11
170.000178
 21
434.579098
  0
LINE
  5
684
100
AcDbEntity
  8
M0
100
AcDbLine
 10
207.761691
 20
434.579098
 11
207.761691
 21
435.329099
  0
LINE
  5
685
100
AcDbEntity
  8
M0
100
AcDbLine
 10
204.700178
 20
433.679101
 11
205.72424
 21
433.679101
  0
LINE
  5
686
100
AcDbEntity
  8
M0
100
AcDbLine
 10
205.72424
 20
434.579098
 11
204.700178
 21
434.579098
  0
LINE
  5
687
100
AcDbEntity
  8
M0
100
AcDbLine
 10
196.911691
 20
510.129099
 11
183.011691
 21
510.129099
  0
LINE
  5
688
100
AcDbEntity
  8
M0
100
AcDbLine
 10
209.923205
 20
434.579098
 11
208.899141
 21
434.579098
  0
LINE
  5
689
100
AcDbEntity
  8
M0
100
AcDbLine
 10
171.024241
 20
434.579098
 11
172.161692
 21
434.579098
  0
LINE
  5
68A
100
AcDbEntity
  8
M0
100
AcDbLine
 10
173.061692
 20
432.9291
 11
173.061692
 21
433.679101
  0
LINE
  5
68B
100
AcDbEntity
  8
M0
100
AcDbLine
 10
208.899141
 20
433.679101
 11
209.923205
 21
433.679101
  0
LINE
  5
68C
100
AcDbEntity
  8
M0
100
AcDbLine
 10
172.161692
 20
433.679101
 11
172.161692
 21
432.9291
  0
LINE
  5
68D
100
AcDbEntity
  8
M0
100
AcDbLine
 10
161.711692
 20
478.329099
 11
163.711692
 21
478.329099
  0
LINE
  5
68E
100
AcDbEntity
  8
M0
100
AcDbLine
 10
164.411691
 20
496.3291
 11
164.411691
 21
496.5291
  0
LINE
  5
68F
100
AcDbEntity
  8
M0
100
AcDbLine
 10
161.211691
 20
448.8791
 11
161.211691
 21
447.829099
  0
LINE
  5
690
100
AcDbEntity
  8
M0
100
AcDbLine
 10
155.211692
 20
447.829099
 11
155.211692
 21
448.8791
  0
LINE
  5
691
100
AcDbEntity
  8
M0
100
AcDbLine
 10
202.111691
 20
519.129099
 11
202.111691
 21
510.129099
  0
LINE
  5
692
100
AcDbEntity
  8
M0
100
AcDbLine
 10
210.211691
 20
511.129101
 11
210.211691
 21
510.129099
  0
LINE
  5
693
100
AcDbEntity
  8
M0
100
AcDbLine
 10
206.264967
 20
515.643463
 11
204.497389
 21
513.875763
  0
ARC
  5
694
100
AcDbEntity
  8
M0
100
AcDbCircle
 10
172.611691
 20
434.1291
 40
2.65
100
AcDbArc
 50
170.223151
 51
189.776849
  0
ARC
  5
695
100
AcDbEntity
  8
M0
100
AcDbCircle
 10
172.611691
 20
434.1291
 40
2.65
100
AcDbArc
 50
350.223151
 51
369.776849
  0
ARC
  5
696
100
AcDbEntity
  8
M0
100
AcDbCircle
 10
207.311691
 20
434.1291
 40
2.65
100
AcDbArc
 50
9.776849
 51
170.223151
  0
ARC
  5
697
100
AcDbEntity
  8
M0
100
AcDbCircle
 10
227.411691
 20
447.2791
 40
1.0
100
AcDbArc
 50
270.0
 51
360.0
  0
ARC
  5
698
100
AcDbEntity
  8
M0
100
AcDbCircle
 10
207.311691
 20
434.1291
 40
2.65
100
AcDbArc
 50
189.776849
 51
350.223151
  0
ARC
  5
699
100
AcDbEntity
  8
M0
100
AcDbCircle
 10
162.711691
 20
500.3791
 40
0.6
100
AcDbArc
 50
90.0
 51
180.0
  0
ARC
  5
69A
100
AcDbEntity
  8
M0
100
AcDbCircle
 10
165.153683
 20
463.035058
 40
3.350514
100
AcDbArc
 50
136.789285
 51
155.219178
  0
LINE
  5
69B
100
AcDbEntity
  8
M0
100
AcDbLine
 10
154.961691
 20
498.379099
 11
161.461691
 21
498.379099
  0
ARC
  5
69C
100
AcDbEntity
  8
M0
100
AcDbCircle
 10
162.711691
 20
454.1291
 40
0.6
100
AcDbArc
 50
180.0
 51
270.0
  0
ARC
  5
69D
100
AcDbEntity
  8
M0
100
AcDbCircle
 10
217.211691
 20
454.1291
 40
0.6
100
AcDbArc
 50
270.0
 51
360.0
  0
ARC
  5
69E
100
AcDbEntity
  8
M0
100
AcDbCircle
 10
153.311691
 20
454.5291
 40
1.0
100
AcDbArc
 50
270.0
 51
360.0
  0
ARC
  5
69F
100
AcDbEntity
  8
M0
100
AcDbCircle
 10
172.611691
 20
434.1291
 40
2.65
100
AcDbArc
 50
9.776849
 51
170.223151
  0
LINE
  5
6A0
100
AcDbEntity
  8
M0
100
AcDbLine
 10
216.21169
 20
466.4291
 11
216.711691
 21
466.4291
  0
ARC
  5
6A1
100
AcDbEntity
  8
M0
100
AcDbCircle
 10
227.411691
 20
499.9791
 40
1.0
100
AcDbArc
 50
0.0
 51
90.0
  0
ARC
  5
6A2
100
AcDbEntity
  8
M0
100
AcDbCircle
 10
153.311691
 20
447.2791
 40
1.0
100
AcDbArc
 50
270.0
 51
360.0
  0
ARC
  5
6A3
100
AcDbEntity
  8
M0
100
AcDbCircle
 10
217.211691
 20
500.3791
 40
0.6
100
AcDbArc
 50
0.0
 51
90.0
  0
ARC
  5
6A4
100
AcDbEntity
  8
M0
100
AcDbCircle
 10
162.711691
 20
446.8791
 40
0.6
100
AcDbArc
 50
180.0
 51
270.0
  0
ARC
  5
6A5
100
AcDbEntity
  8
M0
100
AcDbCircle
 10
217.211691
 20
446.8791
 40
0.6
100
AcDbArc
 50
270.0
 51
360.0
  0
LINE
  5
6A6
100
AcDbEntity
  8
M0
100
AcDbLine
 10
162.711692
 20
469.1291
 11
163.711692
 21
469.1291
  0
ARC
  5
6A7
100
AcDbEntity
  8
M0
100
AcDbCircle
 10
225.005693
 20
438.579395
 40
0.3
100
AcDbArc
 50
90.0
 51
180.0
  0
ARC
  5
6A8
100
AcDbEntity
  8
M0
100
AcDbCircle
 10
182.011691
 20
515.1291
 40
1.0
100
AcDbArc
 50
0.0
 51
90.0
  0
ARC
  5
6A9
100
AcDbEntity
  8
M0
100
AcDbCircle
 10
225.461691
 20
441.1291
 40
2.25
100
AcDbArc
 50
270.928845
 51
451.752277
  0
ARC
  5
6AA
100
AcDbEntity
  8
M0
100
AcDbCircle
 10
164.411691
 20
515.1291
 40
1.0
100
AcDbArc
 50
0.0
 51
90.0
  0
ARC
  5
6AB
100
AcDbEntity
  8
M0
100
AcDbCircle
 10
163.711691
 20
515.1291
 40
1.0
100
AcDbArc
 50
90.0
 51
180.0
  0
ARC
  5
6AC
100
AcDbEntity
  8
M0
100
AcDbCircle
 10
197.911691
 20
515.1291
 40
1.0
100
AcDbArc
 50
90.0
 51
180.0
  0
ARC
  5
6AD
100
AcDbEntity
  8
M0
100
AcDbCircle
 10
226.611691
 20
478.3291
 40
1.0
100
AcDbArc
 50
180.0
 51
270.0
  0
ARC
  5
6AE
100
AcDbEntity
  8
M0
100
AcDbCircle
 10
177.111691
 20
510.8291
 40
0.6
100
AcDbArc
 50
270.0
 51
352.509835
  0
ARC
  5
6AF
100
AcDbEntity
  8
M0
100
AcDbCircle
 10
227.411691
 20
478.3291
 40
1.0
100
AcDbArc
 50
270.0
 51
360.0
  0
ARC
  5
6B0
100
AcDbEntity
  8
M0
100
AcDbCircle
 10
152.511691
 20
492.7291
 40
1.0
100
AcDbArc
 50
90.0
 51
180.0
  0
ARC
  5
6B1
100
AcDbEntity
  8
M0
100
AcDbCircle
 10
207.311691
 20
434.1291
 40
2.65
100
AcDbArc
 50
170.223151
 51
189.776849
  0
ARC
  5
6B2
100
AcDbEntity
  8
M0
100
AcDbCircle
 10
180.311691
 20
515.1291
 40
1.0
100
AcDbArc
 50
90.0
 51
180.0
  0
LINE
  5
6B3
100
AcDbEntity
  8
M0
100
AcDbLine
 10
165.411691
 20
450.729099
 11
165.411691
 21
450.929099
  0
LINE
  5
6B4
100
AcDbEntity
  8
M0
100
AcDbLine
 10
226.611689
 20
500.979099
 11
227.411692
 21
500.979099
  0
LINE
  5
6B5
100
AcDbEntity
  8
M0
100
AcDbLine
 10
183.011691
 20
450.929099
 11
183.011691
 21
432.1291
  0
LINE
  5
6B6
100
AcDbEntity
  8
M0
100
AcDbLine
 10
162.111691
 20
464.43942
 11
162.111691
 21
446.879099
  0
LINE
  5
6B7
100
AcDbEntity
  8
M0
100
AcDbLine
 10
154.311691
 20
478.3291
 11
154.311691
 21
499.9791
  0
LINE
  5
6B8
100
AcDbEntity
  8
M0
100
AcDbLine
 10
162.111691
 20
500.3791
 11
162.111691
 21
482.817346
  0
ARC
  5
6B9
100
AcDbEntity
  8
M0
100
AcDbCircle
 10
199.611691
 20
515.1291
 40
1.0
100
AcDbArc
 50
0.0
 51
90.0
  0
ARC
  5
6BA
100
AcDbEntity
  8
M0
100
AcDbCircle
 10
215.511691
 20
515.1291
 40
1.0
100
AcDbArc
 50
90.0
 51
180.0
  0
LINE
  5
6BB
100
AcDbEntity
  8
M0
100
AcDbLine
 10
161.461691
 20
490.879101
 11
154.961692
 21
490.879094
  0
LINE
  5
6BC
100
AcDbEntity
  8
M0
100
AcDbLine
 10
214.511691
 20
496.3291
 11
214.511691
 21
496.5291
  0
LINE
  5
6BD
100
AcDbEntity
  8
M0
100
AcDbLine
 10
214.511691
 20
450.729099
 11
214.511691
 21
450.929099
  0
LINE
  5
6BE
100
AcDbEntity
  8
M0
100
AcDbLine
 10
153.311693
 20
500.979099
 11
152.51169
 21
500.979099
  0
LINE
  5
6BF
100
AcDbEntity
  8
M0
100
AcDbLine
 10
163.711692
 20
472.129099
 11
162.711692
 21
472.129099
  0
LINE
  5
6C0
100
AcDbEntity
  8
M0
100
AcDbLine
 10
216.21169
 20
450.929099
 11
163.711692
 21
450.929099
  0
LINE
  5
6C1
100
AcDbEntity
  8
M0
100
AcDbLine
 10
224.705693
 20
438.464911
 11
224.705693
 21
438.579397
  0
LINE
  5
6C2
100
AcDbEntity
  8
M0
100
AcDbLine
 10
164.411691
 20
450.729099
 11
164.411691
 21
450.929099
  0
LINE
  5
6C3
100
AcDbEntity
  8
M0
100
AcDbLine
 10
221.713179
 20
441.210919
 11
221.713179
 21
441.179098
  0
LINE
  5
6C4
100
AcDbEntity
  8
M0
100
AcDbLine
 10
179.811691
 20
498.029099
 11
182.511691
 21
498.029099
  0
LINE
  5
6C5
100
AcDbEntity
  8
M0
100
AcDbLine
 10
228.911691
 20
444.8291
 11
228.911691
 21
434.129098
  0
LINE
  5
6C6
100
AcDbEntity
  8
M0
100
AcDbLine
 10
162.711692
 20
515.1291
 11
162.711692
 21
479.8291
  0
ARC
  5
6C7
100
AcDbEntity
  8
M0
100
AcDbCircle
 10
226.611691
 20
468.9291
 40
1.0
100
AcDbArc
 50
90.0
 51
180.0
  0
ARC
  5
6C8
100
AcDbEntity
  8
M0
100
AcDbCircle
 10
199.611691
 20
432.1291
 40
1.0
100
AcDbArc
 50
270.0
 51
360.0
  0
ARC
  5
6C9
100
AcDbEntity
  8
M0
100
AcDbCircle
 10
153.311691
 20
478.3291
 40
1.0
100
AcDbArc
 50
270.0
 51
360.0
  0
ARC
  5
6CA
100
AcDbEntity
  8
M0
100
AcDbCircle
 10
180.311691
 20
432.1291
 40
1.0
100
AcDbArc
 50
180.0
 51
270.0
  0
ARC
  5
6CB
100
AcDbEntity
  8
M0
100
AcDbCircle
 10
227.411691
 20
492.7291
 40
1.0
100
AcDbArc
 50
0.0
 51
90.0
  0
LINE
  5
6CC
100
AcDbEntity
  8
M0
100
AcDbLine
 10
162.711692
 20
475.1291
 11
162.711692
 21
475.029099
  0
LINE
  5
6CD
100
AcDbEntity
  8
M0
100
AcDbLine
 10
163.211691
 20
466.4291
 11
163.711692
 21
466.4291
  0
LINE
  5
6CE
100
AcDbEntity
  8
M0
100
AcDbLine
 10
162.711692
 20
472.2291
 11
162.711692
 21
472.129099
  0
LINE
  5
6CF
100
AcDbEntity
  8
M0
100
AcDbLine
 10
214.511691
 20
513.129101
 11
214.511691
 21
515.129098
  0
LINE
  5
6D0
100
AcDbEntity
  8
M0
100
AcDbLine
 10
153.81169
 20
477.3291
 11
153.81169
 21
469.9291
  0
LINE
  5
6D1
100
AcDbEntity
  8
M0
100
AcDbLine
 10
165.411691
 20
496.3291
 11
165.411691
 21
515.129098
  0
LINE
  5
6D2
100
AcDbEntity
  8
M0
100
AcDbLine
 10
217.811691
 20
464.43942
 11
217.811691
 21
446.879099
  0
LINE
  5
6D3
100
AcDbEntity
  8
M0
100
AcDbLine
 10
225.611691
 20
447.279099
 11
225.611691
 21
468.9291
  0
LINE
  5
6D4
100
AcDbEntity
  8
M0
100
AcDbLine
 10
154.311691
 20
447.279099
 11
154.311691
 21
468.9291
  0
LINE
  5
6D5
100
AcDbEntity
  8
M0
100
AcDbLine
 10
165.411691
 20
434.129098
 11
165.411691
 21
435.1291
  0
LINE
  5
6D6
100
AcDbEntity
  8
M0
100
AcDbLine
 10
226.111692
 20
477.3291
 11
226.111692
 21
469.9291
  0
LINE
  5
6D7
100
AcDbEntity
  8
M0
100
AcDbLine
 10
227.411692
 20
469.9291
 11
227.411692
 21
477.3291
  0
LINE
  5
6D8
100
AcDbEntity
  8
M0
100
AcDbLine
 10
152.51169
 20
469.9291
 11
152.51169
 21
477.3291
  0
ARC
  5
6D9
100
AcDbEntity
  8
M0
100
AcDbCircle
 10
154.961692
 20
491.379099
 40
0.5
100
AcDbArc
 50
180.0
 51
270.0
  0
ARC
  5
6DA
100
AcDbEntity
  8
M0
100
AcDbCircle
 10
154.961691
 20
497.879099
 40
0.5
100
AcDbArc
 50
90.0
 51
180.0
  0
ARC
  5
6DB
100
AcDbEntity
  8
M0
100
AcDbCircle
 10
218.461691
 20
491.3791
 40
0.5
100
AcDbArc
 50
180.0
 51
270.0
  0
ARC
  5
6DC
100
AcDbEntity
  8
M0
100
AcDbCircle
 10
152.511691
 20
454.5291
 40
1.0
100
AcDbArc
 50
180.0
 51
270.0
  0
ARC
  5
6DD
100
AcDbEntity
  8
M0
100
AcDbCircle
 10
214.7697
 20
463.035058
 40
3.350514
100
AcDbArc
 50
24.780822
 51
43.210715
  0
ARC
  5
6DE
100
AcDbEntity
  8
M0
100
AcDbCircle
 10
226.611691
 20
499.9791
 40
1.0
100
AcDbArc
 50
90.0
 51
180.0
  0
ARC
  5
6DF
100
AcDbEntity
  8
M0
100
AcDbCircle
 10
170.761691
 20
517.4791
 40
0.5
100
AcDbArc
 50
90.0
 51
180.0
  0
ARC
  5
6E0
100
AcDbEntity
  8
M0
100
AcDbCircle
 10
209.161692
 20
510.9791
 40
0.5
100
AcDbArc
 50
270.0
 51
360.0
  0
ARC
  5
6E1
100
AcDbEntity
  8
M0
100
AcDbCircle
 10
218.461691
 20
497.8791
 40
0.5
100
AcDbArc
 50
90.0
 51
180.0
  0
ARC
  5
6E2
100
AcDbEntity
  8
M0
100
AcDbCircle
 10
209.161691
 20
517.4791
 40
0.5
100
AcDbArc
 50
0.0
 51
90.0
  0
ARC
  5
6E3
100
AcDbEntity
  8
M0
100
AcDbCircle
 10
224.961691
 20
491.3791
 40
0.5
100
AcDbArc
 50
270.0
 51
360.0
  0
ARC
  5
6E4
100
AcDbEntity
  8
M0
100
AcDbCircle
 10
224.961691
 20
497.8791
 40
0.5
100
AcDbArc
 50
0.0
 51
90.0
  0
LINE
  5
6E5
100
AcDbEntity
  8
M0
100
AcDbLine
 10
157.811691
 20
477.3291
 11
157.811691
 21
469.9291
  0
LINE
  5
6E6
100
AcDbEntity
  8
M0
100
AcDbLine
 10
217.811691
 20
482.9291
 11
225.611691
 21
482.9291
  0
LINE
  5
6E7
100
AcDbEntity
  8
M0
100
AcDbLine
 10
227.411692
 20
446.2791
 11
226.611689
 21
446.2791
  0
LINE
  5
6E8
100
AcDbEntity
  8
M0
100
AcDbLine
 10
227.411692
 20
453.5291
 11
226.611689
 21
453.5291
  0
LINE
  5
6E9
100
AcDbEntity
  8
M0
100
AcDbLine
 10
222.111691
 20
477.3291
 11
222.111691
 21
469.9291
  0
LINE
  5
6EA
100
AcDbEntity
  8
M0
100
AcDbLine
 10
152.51169
 20
453.5291
 11
153.311693
 21
453.5291
  0
LINE
  5
6EB
100
AcDbEntity
  8
M0
100
AcDbLine
 10
154.311691
 20
464.329099
 11
162.111691
 21
464.329099
  0
LINE
  5
6EC
100
AcDbEntity
  8
M0
100
AcDbLine
 10
222.111691
 20
469.9291
 11
226.611689
 21
469.9291
  0
LINE
  5
6ED
100
AcDbEntity
  8
M0
100
AcDbLine
 10
214.511691
 20
512.129099
 11
214.511691
 21
513.129101
  0
LINE
  5
6EE
100
AcDbEntity
  8
M0
100
AcDbLine
 10
214.511691
 20
434.129098
 11
214.511691
 21
435.1291
  0
LINE
  5
6EF
100
AcDbEntity
  8
M0
100
AcDbLine
 10
179.311692
 20
518.629101
 11
179.311692
 21
496.3291
  0
LINE
  5
6F0
100
AcDbEntity
  8
M0
100
AcDbLine
 10
200.611691
 20
435.1291
 11
200.611691
 21
434.129098
  0
LINE
  5
6F1
100
AcDbEntity
  8
M0
100
AcDbLine
 10
162.111691
 20
482.9291
 11
154.311691
 21
482.9291
  0
LINE
  5
6F2
100
AcDbEntity
  8
M0
100
AcDbLine
 10
226.611689
 20
477.3291
 11
222.111691
 21
477.3291
  0
LINE
  5
6F3
100
AcDbEntity
  8
M0
100
AcDbLine
 10
152.51169
 20
469.9291
 11
157.811691
 21
469.9291
  0
LINE
  5
6F4
100
AcDbEntity
  8
M0
100
AcDbLine
 10
217.811691
 20
500.3791
 11
217.811691
 21
482.845615
  0
LINE
  5
6F5
100
AcDbEntity
  8
M0
100
AcDbLine
 10
214.511691
 20
432.129101
 11
214.511691
 21
436.129098
  0
LINE
  5
6F6
100
AcDbEntity
  8
M0
100
AcDbLine
 10
199.111695
 20
431.129099
 11
197.911692
 21
431.129099
  0
LINE
  5
6F7
100
AcDbEntity
  8
M0
100
AcDbLine
 10
165.411691
 20
432.129101
 11
165.411691
 21
436.129098
  0
LINE
  5
6F8
100
AcDbEntity
  8
M0
100
AcDbLine
 10
183.011691
 20
496.5291
 11
179.311692
 21
496.5291
  0
LINE
  5
6F9
100
AcDbEntity
  8
M0
100
AcDbLine
 10
218.211691
 20
472.2291
 11
216.511692
 21
472.2291
  0
LINE
  5
6FA
100
AcDbEntity
  8
M0
100
AcDbLine
 10
200.611691
 20
436.129098
 11
200.611691
 21
432.129101
  0
CIRCLE
  5
6FB
100
AcDbEntity
  8
M0
100
AcDbCircle
 10
221.711692
 20
452.629098
 40
3.0
  0
CIRCLE
  5
6FC
100
AcDbEntity
  8
M0
100
AcDbCircle
 10
221.711692
 20
460.229098
 40
3.0
  0
CIRCLE
  5
6FD
100
AcDbEntity
  8
M0
100
AcDbCircle
 10
172.361691
 20
444.129069
 40
4.499996
  0
CIRCLE
  5
6FE
100
AcDbEntity
  8
M0
100
AcDbCircle
 10
207.561691
 20
444.129069
 40
4.499996
  0
CIRCLE
  5
6FF
100
AcDbEntity
  8
M0
100
AcDbCircle
 10
189.961691
 20
444.129069
 40
4.499996
  0
LINE
  5
700
100
AcDbEntity
  8
M0
100
AcDbLine
 10
199.611692
 20
431.129099
 11
199.111695
 21
431.129099
  0
LINE
  5
701
100
AcDbEntity
  8
M0
100
AcDbLine
 10
196.911691
 20
450.929099
 11
196.911691
 21
448.729099
  0
LINE
  5
702
100
AcDbEntity
  8
M0
100
AcDbLine
 10
200.611691
 20
450.729099
 11
196.911691
 21
450.729099
  0
LINE
  5
703
100
AcDbEntity
  8
M0
100
AcDbLine
 10
200.611691
 20
448.729099
 11
200.611691
 21
450.929099
  0
LINE
  5
704
100
AcDbEntity
  8
M0
100
AcDbLine
 10
226.611689
 20
477.3291
 11
227.411692
 21
477.3291
  0
LINE
  5
705
100
AcDbEntity
  8
M0
100
AcDbLine
 10
226.611689
 20
493.729099
 11
227.411692
 21
493.729099
  0
LINE
  5
706
100
AcDbEntity
  8
M0
100
AcDbLine
 10
154.311691
 20
456.429099
 11
162.111691
 21
456.429099
  0
LINE
  5
707
100
AcDbEntity
  8
M0
100
AcDbLine
 10
196.911691
 20
496.5291
 11
200.611691
 21
496.5291
  0
LINE
  5
708
100
AcDbEntity
  8
M0
100
AcDbLine
 10
216.511692
 20
475.029099
 11
218.211691
 21
475.029099
  0
LINE
  5
709
100
AcDbEntity
  8
M0
100
AcDbLine
 10
179.311692
 20
450.929099
 11
179.311692
 21
432.129101
  0
LINE
  5
70A
100
AcDbEntity
  8
M0
100
AcDbLine
 10
216.511692
 20
472.2291
 11
216.511692
 21
475.029099
  0
LINE
  5
70B
100
AcDbEntity
  8
M0
100
AcDbLine
 10
163.411691
 20
472.2291
 11
163.411691
 21
475.029099
  0
LINE
  5
70C
100
AcDbEntity
  8
M0
100
AcDbLine
 10
179.311692
 20
450.729099
 11
183.011691
 21
450.729099
  0
LINE
  5
70D
100
AcDbEntity
  8
M0
100
AcDbLine
 10
222.064971
 20
454.043461
 11
220.297393
 21
452.275761
  0
LINE
  5
70E
100
AcDbEntity
  8
M0
100
AcDbLine
 10
223.302276
 20
451.038456
 11
220.120635
 21
454.220219
  0
LINE
  5
70F
100
AcDbEntity
  8
M0
100
AcDbLine
 10
223.125518
 20
452.982792
 11
221.35794
 21
451.215214
  0
LINE
  5
710
100
AcDbEntity
  8
M0
100
AcDbLine
 10
174.242795
 20
444.596049
 11
171.894818
 21
442.248057
  0
LINE
  5
711
100
AcDbEntity
  8
M0
100
AcDbLine
 10
172.828595
 20
446.010265
 11
170.480618
 21
443.662273
  0
LINE
  5
712
100
AcDbEntity
  8
M0
100
AcDbLine
 10
170.292737
 20
446.198039
 11
174.555707
 21
441.9351
  0
ARC
  5
713
100
AcDbEntity
  8
M0
100
AcDbCircle
 10
211.411691
 20
519.1291
 40
1.0
100
AcDbArc
 50
90.0
 51
180.0
  0
CIRCLE
  5
714
100
AcDbEntity
  8
M0
100
AcDbCircle
 10
221.711692
 20
487.029101
 40
3.0
  0
ARC
  5
715
100
AcDbEntity
  8
M0
100
AcDbCircle
 10
211.411691
 20
519.1291
 40
1.0
100
AcDbArc
 50
0.0
 51
90.0
  0
LINE
  5
716
100
AcDbEntity
  8
M0
100
AcDbLine
 10
223.125518
 20
460.582792
 11
221.35794
 21
458.815214
  0
LINE
  5
717
100
AcDbEntity
  8
M0
100
AcDbLine
 10
222.064971
 20
461.643461
 11
220.297393
 21
459.875761
  0
LINE
  5
718
100
AcDbEntity
  8
M0
100
AcDbLine
 10
223.302276
 20
458.638456
 11
220.120635
 21
461.820219
  0
LINE
  5
719
100
AcDbEntity
  8
M0
100
AcDbLine
 10
191.842795
 20
444.596049
 11
189.494818
 21
442.248057
  0
LINE
  5
71A
100
AcDbEntity
  8
M0
100
AcDbLine
 10
190.428595
 20
446.010265
 11
188.080618
 21
443.662273
  0
LINE
  5
71B
100
AcDbEntity
  8
M0
100
AcDbLine
 10
187.892737
 20
446.198039
 11
192.155707
 21
441.9351
  0
LINE
  5
71C
100
AcDbEntity
  8
M0
100
AcDbLine
 10
209.442795
 20
444.596049
 11
207.094818
 21
442.248057
  0
LINE
  5
71D
100
AcDbEntity
  8
M0
100
AcDbLine
 10
208.028595
 20
446.010265
 11
205.680618
 21
443.662273
  0
LINE
  5
71E
100
AcDbEntity
  8
M0
100
AcDbLine
 10
217.21169
 20
432.1291
 11
217.21169
 21
467.429099
  0
LINE
  5
71F
100
AcDbEntity
  8
M0
100
AcDbLine
 10
183.011691
 20
496.3291
 11
183.011691
 21
515.129098
  0
LINE
  5
720
100
AcDbEntity
  8
M0
100
AcDbLine
 10
196.911691
 20
496.3291
 11
196.911691
 21
515.129098
  0
LINE
  5
721
100
AcDbEntity
  8
M0
100
AcDbLine
 10
215.511692
 20
450.729099
 11
215.511692
 21
450.929099
  0
LINE
  5
722
100
AcDbEntity
  8
M0
100
AcDbLine
 10
197.911692
 20
516.1291
 11
199.611691
 21
516.1291
  0
LINE
  5
723
100
AcDbEntity
  8
M0
100
AcDbLine
 10
182.011691
 20
516.1291
 11
180.311691
 21
516.1291
  0
LINE
  5
724
100
AcDbEntity
  8
M0
100
AcDbLine
 10
164.411691
 20
516.1291
 11
163.711691
 21
516.1291
  0
LINE
  5
725
100
AcDbEntity
  8
M0
100
AcDbLine
 10
205.72424
 20
434.579098
 11
206.86169
 21
434.579098
  0
LINE
  5
726
100
AcDbEntity
  8
M0
100
AcDbLine
 10
206.86169
 20
432.9291
 11
207.761691
 21
432.9291
  0
LINE
  5
727
100
AcDbEntity
  8
M0
100
AcDbLine
 10
216.21169
 20
468.9291
 11
218.211691
 21
468.9291
  0
LINE
  5
728
100
AcDbEntity
  8
M0
100
AcDbLine
 10
214.511691
 20
496.3291
 11
214.511691
 21
515.129098
  0
LINE
  5
729
100
AcDbEntity
  8
M0
100
AcDbLine
 10
225.005694
 20
438.879394
 11
225.498167
 21
438.879394
  0
LINE
  5
72A
100
AcDbEntity
  8
M0
100
AcDbLine
 10
164.411691
 20
496.5291
 11
165.411691
 21
496.5291
  0
LINE
  5
72B
100
AcDbEntity
  8
M0
100
AcDbLine
 10
163.711692
 20
468.9291
 11
161.711692
 21
468.9291
  0
LINE
  5
72C
100
AcDbEntity
  8
M0
100
AcDbLine
 10
215.511692
 20
496.5291
 11
214.511691
 21
496.5291
  0
LINE
  5
72D
100
AcDbEntity
  8
M0
100
AcDbLine
 10
162.711692
 20
467.429099
 11
162.711692
 21
432.1291
  0
LINE
  5
72E
100
AcDbEntity
  8
M0
100
AcDbLine
 10
225.611691
 20
464.329099
 11
217.811691
 21
464.329099
  0
LINE
  5
72F
100
AcDbEntity
  8
M0
100
AcDbLine
 10
218.211691
 20
478.329099
 11
216.21169
 21
478.329099
  0
LINE
  5
730
100
AcDbEntity
  8
M0
100
AcDbLine
 10
216.011687
 20
516.1291
 11
216.21169
 21
516.1291
  0
LINE
  5
731
100
AcDbEntity
  8
M0
100
AcDbLine
 10
215.511692
 20
496.3291
 11
215.511692
 21
496.5291
  0
LINE
  5
732
100
AcDbEntity
  8
M0
100
AcDbLine
 10
213.561692
 20
436.129098
 11
214.511691
 21
436.129098
  0
LINE
  5
733
100
AcDbEntity
  8
M0
100
AcDbLine
 10
225.39289
 20
443.378047
 11
223.963347
 21
443.3791
  0
LINE
  5
734
100
AcDbEntity
  8
M0
100
AcDbLine
 10
217.21169
 20
479.8291
 11
217.21169
 21
515.1291
  0
CIRCLE
  5
735
100
AcDbEntity
  8
M0
100
AcDbCircle
 10
207.311691
 20
434.1291
 40
2.85
  0
CIRCLE
  5
736
100
AcDbEntity
  8
M0
100
AcDbCircle
 10
189.961691
 20
513.9291
 40
2.825
  0
ARC
  5
737
100
AcDbEntity
  8
M0
100
AcDbCircle
 10
209.711691
 20
511.1291
 40
0.5
100
AcDbArc
 50
0.0
 51
66.421822
  0
ARC
  5
738
100
AcDbEntity
  8
M0
100
AcDbCircle
 10
172.911691
 20
519.6291
 40
0.5
100
AcDbArc
 50
90.0
 51
180.0
  0
ARC
  5
739
100
AcDbEntity
  8
M0
100
AcDbCircle
 10
201.111691
 20
519.1291
 40
1.0
100
AcDbArc
 50
0.0
 51
90.0
  0
ARC
  5
73A
100
AcDbEntity
  8
M0
100
AcDbCircle
 10
170.211691
 20
511.1291
 40
0.5
100
AcDbArc
 50
113.578178
 51
180.0
  0
LINE
  5
73B
100
AcDbEntity
  8
M0
100
AcDbLine
 10
153.311693
 20
493.729099
 11
152.51169
 21
493.729099
  0
LINE
  5
73C
100
AcDbEntity
  8
M0
100
AcDbLine
 10
205.492737
 20
446.198039
 11
209.755707
 21
441.9351
  0
LINE
  5
73D
100
AcDbEntity
  8
M0
100
AcDbLine
 10
157.811691
 20
477.3291
 11
152.51169
 21
477.3291
  0
LINE
  5
73E
100
AcDbEntity
  8
M0
100
AcDbLine
 10
227.411692
 20
469.9291
 11
226.611689
 21
469.9291
  0
LINE
  5
73F
100
AcDbEntity
  8
M0
100
AcDbLine
 10
225.611691
 20
499.9791
 11
225.611691
 21
478.329099
  0
CIRCLE
  5
740
100
AcDbEntity
  8
M0
100
AcDbCircle
 10
189.961691
 20
513.9291
 40
2.85
  0
LINE
  5
741
100
AcDbEntity
  8
M0
100
AcDbLine
 10
215.511692
 20
516.1291
 11
216.011687
 21
516.1291
  0
ARC
  5
742
100
AcDbEntity
  8
M0
100
AcDbCircle
 10
178.811691
 20
519.1291
 40
1.0
100
AcDbArc
 50
90.0
 51
180.0
  0
ARC
  5
743
100
AcDbEntity
  8
M0
100
AcDbCircle
 10
207.011691
 20
519.6291
 40
0.5
100
AcDbArc
 50
0.0
 51
90.0
  0
ARC
  5
744
100
AcDbEntity
  8
M0
100
AcDbCircle
 10
152.511691
 20
468.9291
 40
1.0
100
AcDbArc
 50
90.0
 51
180.0
  0
ARC
  5
745
100
AcDbEntity
  8
M0
100
AcDbCircle
 10
227.411691
 20
468.9291
 40
1.0
100
AcDbArc
 50
0.0
 51
90.0
  0
ARC
  5
746
100
AcDbEntity
  8
M0
100
AcDbCircle
 10
152.511691
 20
478.3291
 40
1.0
100
AcDbArc
 50
180.0
 51
270.0
  0
LINE
  5
747
100
AcDbEntity
  8
M0
  6
DIVIDE
 62
     7
100
AcDbLine
 10
424.960971
 20
487.129099
 11
418.460971
 21
487.129099
  0
LINE
  5
748
100
AcDbEntity
  8
M0
  6
DIVIDE
 62
     7
100
AcDbLine
 10
424.960971
 20
460.129099
 11
418.460971
 21
460.129099
  0
LINE
  5
749
100
AcDbEntity
  8
M0
  6
DIVIDE
 62
     7
100
AcDbLine
 10
423.960971
 20
486.129099
 11
417.460971
 21
486.129099
  0
LINE
  5
74A
100
AcDbEntity
  8
M0
  6
DIVIDE
 62
     7
100
AcDbLine
 10
418.460971
 20
460.129099
 11
418.460971
 21
456.129099
  0
LINE
  5
74B
100
AcDbEntity
  8
M0
  6
DIVIDE
 62
     7
100
AcDbLine
 10
423.960971
 20
461.129099
 11
417.460971
 21
461.129099
  0
LINE
  5
74C
100
AcDbEntity
  8
M0
  6
DIVIDE
 62
     7
100
AcDbLine
 10
417.460971
 20
461.129099
 11
417.460971
 21
456.129099
  0
LINE
  5
74D
100
AcDbEntity
  8
M0
  6
DIVIDE
 62
     7
100
AcDbLine
 10
418.460971
 20
491.129099
 11
417.460971
 21
491.129099
  0
LINE
  5
74E
100
AcDbEntity
  8
M0
  6
DIVIDE
 62
     7
100
AcDbLine
 10
424.960971
 20
460.129099
 11
424.960971
 21
487.129099
  0
LINE
  5
74F
100
AcDbEntity
  8
M0
  6
DIVIDE
 62
     7
100
AcDbLine
 10
417.460971
 20
491.129099
 11
417.460971
 21
486.129099
  0
LINE
  5
750
100
AcDbEntity
  8
M0
  6
DIVIDE
 62
     7
100
AcDbLine
 10
418.460971
 20
491.129099
 11
418.460971
 21
487.129099
  0
LINE
  5
751
100
AcDbEntity
  8
M0
  6
DIVIDE
 62
     7
100
AcDbLine
 10
417.460971
 20
456.129099
 11
418.460971
 21
456.129099
  0
LINE
  5
752
100
AcDbEntity
  8
M0
  6
DIVIDE
 62
     7
100
AcDbLine
 10
423.960971
 20
486.129099
 11
423.960971
 21
461.129099
  0
LINE
  5
753
100
AcDbEntity
  8
M0
  6
DASHED
 62
     7
100
AcDbLine
 10
290.960974
 20
489.15409
 11
290.960974
 21
486.30409
  0
LINE
  5
754
100
AcDbEntity
  8
M0
  6
DASHED
 62
     7
100
AcDbLine
 10
291.960974
 20
491.55409
 11
290.960974
 21
491.55409
  0
LINE
  5
755
100
AcDbEntity
  8
M0
  6
DASHED
 62
     7
100
AcDbLine
 10
290.960974
 20
491.55409
 11
290.960974
 21
483.90409
  0
LINE
  5
756
100
AcDbEntity
  8
M0
  6
DASHED
 62
     7
100
AcDbLine
 10
290.960974
 20
464.754091
 11
290.960974
 21
461.904091
  0
HATCH
  5
757
100
AcDbEntity
  8
M0
 62
     7
100
AcDbHatch
 10
0.0
 20
0.0
210
0.0
220
0.0
230
1.0
  2
SOLID
 70
     1
 71
     0
 91
        1
 92
        1
 93
        4
 72
     1
 10
279.860974
 20
490.629089
 11
277.860974
 21
490.629089
 72
     1
 10
277.860974
 20
490.629089
 11
277.860974
 21
456.62909
 72
     1
 10
277.860974
 20
456.62909
 11
279.860974
 21
456.62909
 72
     1
 10
279.860974
 20
456.62909
 11
279.860974
 21
490.629089
 97
        0
 75
     0
 76
     1
 98
        1
 10
0.0
 20
0.0
  0
HATCH
  5
75A
100
AcDbEntity
  8
M0
 62
     7
100
AcDbHatch
 10
0.0
 20
0.0
210
0.0
220
0.0
230
1.0
  2
SOLID
 70
     1
 71
     0
 91
        1
 92
        1
 93
       12
 72
     1
 10
98.530763
 20
475.3599
 11
98.530763
 21
476.578348
 72
     1
 10
98.530763
 20
476.578348
 11
100.012285
 21
476.578348
 72
     1
 10
100.012285
 20
476.578348
 11
100.012285
 21
475.3599
 72
     1
 10
100.012285
 20
475.3599
 11
100.746123
 21
475.3599
 72
     1
 10
100.746123
 20
475.3599
 11
100.746123
 21
478.1291
 72
     1
 10
100.746123
 20
478.1291
 11
100.012285
 21
478.1291
 72
     1
 10
100.012285
 20
478.1291
 11
100.012285
 21
477.02142
 72
     1
 10
100.012285
 20
477.02142
 11
98.530763
 21
477.02142
 72
     1
 10
98.530763
 20
477.02142
 11
98.530763
 21
478.1291
 72
     1
 10
98.530763
 20
478.1291
 11
97.796925
 21
478.1291
 72
     1
 10
97.796925
 20
478.1291
 11
97.796925
 21
475.3599
 72
     1
 10
97.796925
 20
475.3599
 11
98.530763
 21
475.3599
 97
        0
 75
     0
 76
     1
 98
        1
 10
0.0
 20
0.0
  0
HATCH
  5
75B
100
AcDbEntity
  8
M0
 62
     7
100
AcDbHatch
 10
0.0
 20
0.0
210
0.0
220
0.0
230
1.0
  2
SOLID
 70
     1
 71
     0
 91
        1
 92
        1
 93
       20
 72
     2
 10
95.927716
 20
477.727566
 40
2.436895
 50
252.447306
 51
292.422669
 73
     1
 72
     2
 10
96.519228
 20
476.294059
 40
0.886144
 50
292.422669
 51
346.150662
 73
     1
 72
     2
 10
95.927716
 20
476.439888
 40
1.495367
 50
346.150662
 51
356.81526
 73
     1
 72
     1
 10
97.420774
 20
476.356812
 11
96.647708
 21
476.356812
 72
     2
 10
95.927716
 20
476.356812
 40
0.719992
 50
0.0
 51
25.643738
 73
     0
 72
     2
 10
96.102466
 20
476.272922
 40
0.526148
 50
25.643738
 51
72.512342
 73
     0
 72
     2
 10
95.927716
 20
476.827576
 40
1.10768
 50
72.512342
 51
111.534322
 73
     0
 72
     2
 10
95.76
 20
476.402552
 40
0.650762
 50
111.534322
 51
163.518484
 73
     0
 72
     2
 10
96.822167
 20
476.716807
 40
1.758441
 50
163.518484
 51
199.911347
 73
     0
 72
     2
 10
95.780703
 20
477.094045
 40
0.650762
 50
199.911347
 51
251.231339
 73
     0
 72
     2
 10
95.927716
 20
476.661424
 40
1.10768
 50
251.231339
 51
287.055921
 73
     0
 72
     2
 10
96.098282
 20
477.217379
 40
0.526148
 50
287.055921
 51
341.370551
 73
     0
 72
     2
 10
95.927716
 20
477.15988
 40
0.706146
 50
341.370551
 51
357.752539
 73
     0
 72
     1
 10
96.633318
 20
477.187572
 11
97.403987
 21
477.187572
 72
     2
 10
95.927716
 20
477.062958
 40
1.481521
 50
4.824977
 51
11.570993
 73
     1
 72
     2
 10
96.497429
 20
477.179602
 40
0.89999
 50
11.570993
 51
66.454336
 73
     1
 72
     2
 10
95.927716
 20
475.872202
 40
2.326127
 50
66.454336
 51
109.456965
 73
     1
 72
     2
 10
95.567973
 20
476.890514
 40
1.246139
 50
109.456965
 51
161.721239
 73
     1
 72
     2
 10
96.093867
 20
476.716807
 40
1.799979
 50
161.721239
 51
190.751611
 73
     1
 72
     2
 10
95.576955
 20
476.618654
 40
1.273831
 50
190.751611
 51
252.447306
 73
     1
 97
        0
 75
     0
 76
     1
 98
        1
 10
0.0
 20
0.0
  0
HATCH
  5
75C
100
AcDbEntity
  8
M0
 62
     7
100
AcDbHatch
 10
0.0
 20
0.0
210
0.0
220
0.0
230
1.0
  2
SOLID
 70
     1
 71
     0
 91
        1
 92
        1
 93
        4
 72
     1
 10
88.326261
 20
475.3599
 11
88.326261
 21
478.1291
 72
     1
 10
88.326261
 20
478.1291
 11
87.592423
 21
478.1291
 72
     1
 10
87.592423
 20
478.1291
 11
87.592423
 21
475.3599
 72
     1
 10
87.592423
 20
475.3599
 11
88.326261
 21
475.3599
 97
        0
 75
     0
 76
     1
 98
        1
 10
0.0
 20
0.0
  0
HATCH
  5
75D
100
AcDbEntity
  8
M0
 62
     7
100
AcDbHatch
 10
0.0
 20
0.0
210
0.0
220
0.0
230
1.0
  2
SOLID
 70
     1
 71
     0
 91
        2
 92
        1
 93
        8
 72
     1
 10
91.986526
 20
475.955278
 11
93.361284
 21
475.955278
 72
     1
 10
93.361284
 20
475.955278
 11
93.601587
 21
475.3599
 72
     1
 10
93.601587
 20
475.3599
 11
94.418501
 21
475.3599
 72
     1
 10
94.418501
 20
475.3599
 11
93.1239
 21
478.1291
 72
     1
 10
93.1239
 20
478.1291
 11
92.22391
 21
478.1291
 72
     1
 10
92.22391
 20
478.1291
 11
90.929309
 21
475.3599
 72
     1
 10
90.929309
 20
475.3599
 11
91.746223
 21
475.3599
 72
     1
 10
91.746223
 20
475.3599
 11
91.986526
 21
475.955278
 97
        0
 92
       16
 93
        3
 72
     1
 10
92.673905
 20
477.658336
 11
92.165356
 21
476.39835
 72
     1
 10
92.165356
 20
476.39835
 11
93.182454
 21
476.39835
 72
     1
 10
93.182454
 20
476.39835
 11
92.673905
 21
477.658336
 97
        0
 75
     0
 76
     1
 98
        1
 10
0.0
 20
0.0
  0
HATCH
  5
75E
100
AcDbEntity
  8
M0
 62
     7
100
AcDbHatch
 10
0.0
 20
0.0
210
0.0
220
0.0
230
1.0
  2
SOLID
 70
     1
 71
     0
 91
        1
 92
        1
 93
       12
 72
     1
 10
84.795532
 20
475.3599
 11
84.795532
 21
476.578348
 72
     1
 10
84.795532
 20
476.578348
 11
86.277054
 21
476.578348
 72
     1
 10
86.277054
 20
476.578348
 11
86.277054
 21
475.3599
 72
     1
 10
86.277054
 20
475.3599
 11
87.010891
 21
475.3599
 72
     1
 10
87.010891
 20
475.3599
 11
87.010891
 21
478.1291
 72
     1
 10
87.010891
 20
478.1291
 11
86.277054
 21
478.1291
 72
     1
 10
86.277054
 20
478.1291
 11
86.277054
 21
477.02142
 72
     1
 10
86.277054
 20
477.02142
 11
84.795532
 21
477.02142
 72
     1
 10
84.795532
 20
477.02142
 11
84.795532
 21
478.1291
 72
     1
 10
84.795532
 20
478.1291
 11
84.061694
 21
478.1291
 72
     1
 10
84.061694
 20
478.1291
 11
84.061694
 21
475.3599
 72
     1
 10
84.061694
 20
475.3599
 11
84.795532
 21
475.3599
 97
        0
 75
     0
 76
     1
 98
        1
 10
0.0
 20
0.0
  0
HATCH
  5
75F
100
AcDbEntity
  8
M0
 62
     7
100
AcDbHatch
 10
0.0
 20
0.0
210
0.0
220
0.0
230
1.0
  2
SOLID
 70
     1
 71
     0
 91
        1
 92
        1
 93
        7
 72
     1
 10
113.061694
 20
472.521014
 11
110.061694
 21
471.429103
 72
     1
 10
110.061694
 20
471.429103
 11
113.061694
 21
470.337192
 72
     1
 10
113.061694
 20
470.337192
 11
113.061694
 21
470.929103
 72
     1
 10
113.061694
 20
470.929103
 11
119.061694
 21
470.929103
 72
     1
 10
119.061694
 20
470.929103
 11
119.061694
 21
471.929103
 72
     1
 10
119.061694
 20
471.929103
 11
113.061694
 21
471.929103
 72
     1
 10
113.061694
 20
471.929103
 11
113.061694
 21
472.521014
 97
        0
 75
     0
 76
     1
 98
        1
 10
0.0
 20
0.0
  0
HATCH
  5
760
100
AcDbEntity
  8
M0
 62
     7
100
AcDbHatch
 10
0.0
 20
0.0
210
0.0
220
0.0
230
1.0
  2
SOLID
 70
     1
 71
     0
 91
        1
 92
        1
 93
        4
 72
     1
 10
102.061494
 20
475.3599
 11
102.061494
 21
478.1291
 72
     1
 10
102.061494
 20
478.1291
 11
101.327655
 21
478.1291
 72
     1
 10
101.327655
 20
478.1291
 11
101.327655
 21
475.3599
 72
     1
 10
101.327655
 20
475.3599
 11
102.061494
 21
475.3599
 97
        0
 75
     0
 76
     1
 98
        1
 10
0.0
 20
0.0
  0
LINE
  5
761
100
AcDbEntity
  8
M0
100
AcDbLine
 10
93.1239
 20
478.1291
 11
94.418501
 21
475.3599
  0
LINE
  5
762
100
AcDbEntity
  8
M0
100
AcDbLine
 10
89.710861
 20
475.3599
 11
90.444699
 21
475.3599
  0
LINE
  5
763
100
AcDbEntity
  8
M0
100
AcDbLine
 10
102.061494
 20
478.1291
 11
101.327655
 21
478.1291
  0
LINE
  5
764
100
AcDbEntity
  8
M0
100
AcDbLine
 10
93.601587
 20
475.3599
 11
94.418501
 21
475.3599
  0
LINE
  5
765
100
AcDbEntity
  8
M0
100
AcDbLine
 10
91.746223
 20
475.3599
 11
91.986526
 21
475.955278
  0
LINE
  5
766
100
AcDbEntity
  8
M0
100
AcDbLine
 10
87.592423
 20
478.1291
 11
87.592423
 21
475.3599
  0
LINE
  5
767
100
AcDbEntity
  8
M0
100
AcDbLine
 10
119.061694
 20
470.929103
 11
113.061694
 21
470.929103
  0
LINE
  5
768
100
AcDbEntity
  8
M0
100
AcDbLine
 10
100.746123
 20
478.1291
 11
100.012285
 21
478.1291
  0
TEXT
  5
769
100
AcDbEntity
  8
M0
100
AcDbText
 10
106.186694
 20
466.129103
 40
2.0
  1
５６
 41
0.625
  7
STANDARD
100
AcDbText
  0
LINE
  5
76A
100
AcDbEntity
  8
M0
100
AcDbLine
 10
100.012285
 20
477.02142
 11
98.530763
 21
477.02142
  0
TEXT
  5
76B
100
AcDbEntity
  8
M0
100
AcDbText
 10
84.186686
 20
472.129103
 40
2.0
  1
ＬＡＴＣＨＥＤ
 41
0.625
  7
STANDARD
100
AcDbText
  0
LINE
  5
76C
100
AcDbEntity
  8
M0
100
AcDbLine
 10
100.012285
 20
477.02142
 11
100.012285
 21
478.1291
  0
LINE
  5
76D
100
AcDbEntity
  8
M0
100
AcDbLine
 10
97.420773
 20
476.356812
 11
96.647707
 21
476.356812
  0
TEXT
  5
76E
100
AcDbEntity
  8
M0
100
AcDbText
 10
106.186694
 20
479.129101
 40
2.0
  1
５５
 41
0.625
  7
STANDARD
100
AcDbText
  0
LINE
  5
76F
100
AcDbEntity
  8
M0
100
AcDbLine
 10
110.061694
 20
471.429103
 11
113.061694
 21
470.337192
  0
LINE
  5
770
100
AcDbEntity
  8
M0
100
AcDbLine
 10
91.566225
 20
478.1291
 11
88.589336
 21
478.1291
  0
LINE
  5
771
100
AcDbEntity
  8
M0
100
AcDbLine
 10
119.061694
 20
471.929103
 11
113.061694
 21
471.929103
  0
LINE
  5
772
100
AcDbEntity
  8
M0
100
AcDbLine
 10
92.22391
 20
478.1291
 11
90.929309
 21
475.3599
  0
LINE
  5
773
100
AcDbEntity
  8
M0
100
AcDbLine
 10
113.061694
 20
470.337192
 11
113.061694
 21
470.929103
  0
LINE
  5
774
100
AcDbEntity
  8
M0
100
AcDbLine
 10
89.710861
 20
477.658336
 11
89.710861
 21
475.3599
  0
LINE
  5
775
100
AcDbEntity
  8
M0
100
AcDbLine
 10
113.061694
 20
471.929103
 11
113.061694
 21
472.521014
  0
LINE
  5
776
100
AcDbEntity
  8
M0
100
AcDbLine
 10
110.061694
 20
471.429103
 11
113.061694
 21
472.521014
  0
LINE
  5
777
100
AcDbEntity
  8
M0
100
AcDbLine
 10
91.986526
 20
475.955278
 11
93.361284
 21
475.955278
  0
LINE
  5
778
100
AcDbEntity
  8
M0
100
AcDbLine
 10
93.182454
 20
476.39835
 11
92.673905
 21
477.658336
  0
LINE
  5
779
100
AcDbEntity
  8
M0
100
AcDbLine
 10
84.795532
 20
478.1291
 11
84.061694
 21
478.1291
  0
LINE
  5
77A
100
AcDbEntity
  8
M0
100
AcDbLine
 10
87.010891
 20
478.1291
 11
86.277054
 21
478.1291
  0
LINE
  5
77B
100
AcDbEntity
  8
M0
100
AcDbLine
 10
86.277054
 20
475.3599
 11
87.010891
 21
475.3599
  0
LINE
  5
77C
100
AcDbEntity
  8
M0
100
AcDbLine
 10
119.061694
 20
470.929103
 11
119.061694
 21
471.929103
  0
ARC
  5
77D
100
AcDbEntity
  8
M0
100
AcDbCircle
 10
126.524652
 20
469.3291
 40
0.5
100
AcDbArc
 50
270.0
 51
360.0
  0
ARC
  5
77E
100
AcDbEntity
  8
M0
100
AcDbCircle
 10
126.524652
 20
477.9291
 40
0.5
100
AcDbArc
 50
0.0
 51
90.0
  0
LINE
  5
77F
100
AcDbEntity
  8
M0
100
AcDbLine
 10
127.024651
 20
477.929099
 11
127.024651
 21
469.3291
  0
LINE
  5
780
100
AcDbEntity
  8
M0
100
AcDbLine
 10
98.530763
 20
475.3599
 11
98.530763
 21
476.578348
  0
LINE
  5
781
100
AcDbEntity
  8
M0
100
AcDbLine
 10
88.589336
 20
477.658336
 11
89.710861
 21
477.658336
  0
LINE
  5
782
100
AcDbEntity
  8
M0
100
AcDbLine
 10
122.161693
 20
478.4291
 11
126.524652
 21
478.4291
  0
LINE
  5
783
100
AcDbEntity
  8
M0
100
AcDbLine
 10
88.589336
 20
478.1291
 11
88.589336
 21
477.658336
  0
LINE
  5
784
100
AcDbEntity
  8
M0
100
AcDbLine
 10
111.461693
 20
458.4291
 11
119.261694
 21
458.4291
  0
LINE
  5
785
100
AcDbEntity
  8
M0
100
AcDbLine
 10
96.261694
 20
457.1291
 11
96.261694
 21
455.629101
  0
ARC
  5
786
100
AcDbEntity
  8
M0
100
AcDbCircle
 10
105.461694
 20
458.0291
 40
0.5
100
AcDbArc
 50
270.0
 51
360.0
  0
LINE
  5
787
100
AcDbEntity
  8
M0
100
AcDbLine
 10
88.661694
 20
456.629099
 11
88.561694
 21
456.629099
  0
LINE
  5
788
100
AcDbEntity
  8
M0
100
AcDbLine
 10
96.361694
 20
457.1291
 11
96.261694
 21
457.1291
  0
ARC
  5
789
100
AcDbEntity
  8
M0
100
AcDbCircle
 10
105.461694
 20
460.9291
 40
0.5
100
AcDbArc
 50
0.0
 51
90.0
  0
LINE
  5
78A
100
AcDbEntity
  8
M0
100
AcDbLine
 10
88.661694
 20
455.629101
 11
88.661694
 21
456.629099
  0
LINE
  5
78B
100
AcDbEntity
  8
M0
100
AcDbLine
 10
98.530763
 20
476.578348
 11
100.012285
 21
476.578348
  0
LINE
  5
78C
100
AcDbEntity
  8
M0
100
AcDbLine
 10
98.530763
 20
478.1291
 11
97.796925
 21
478.1291
  0
LINE
  5
78D
100
AcDbEntity
  8
M0
100
AcDbLine
 10
90.444699
 20
477.658336
 11
90.444699
 21
475.3599
  0
LINE
  5
78E
100
AcDbEntity
  8
M0
100
AcDbLine
 10
101.327655
 20
475.3599
 11
102.061494
 21
475.3599
  0
LINE
  5
78F
100
AcDbEntity
  8
M0
100
AcDbLine
 10
90.444699
 20
477.658336
 11
91.566225
 21
477.658336
  0
LINE
  5
790
100
AcDbEntity
  8
M0
100
AcDbLine
 10
84.061694
 20
475.3599
 11
84.795532
 21
475.3599
  0
LINE
  5
791
100
AcDbEntity
  8
M0
100
AcDbLine
 10
93.182454
 20
476.39835
 11
92.165356
 21
476.39835
  0
LINE
  5
792
100
AcDbEntity
  8
M0
100
AcDbLine
 10
100.746123
 20
475.3599
 11
100.746123
 21
478.1291
  0
LINE
  5
793
100
AcDbEntity
  8
M0
100
AcDbLine
 10
97.796925
 20
478.1291
 11
97.796925
 21
475.3599
  0
LINE
  5
794
100
AcDbEntity
  8
M0
100
AcDbLine
 10
88.326261
 20
478.1291
 11
88.326261
 21
475.3599
  0
LINE
  5
795
100
AcDbEntity
  8
M0
100
AcDbLine
 10
91.566225
 20
478.1291
 11
91.566225
 21
477.658336
  0
LINE
  5
796
100
AcDbEntity
  8
M0
100
AcDbLine
 10
100.012285
 20
475.3599
 11
100.012285
 21
476.578348
  0
LINE
  5
797
100
AcDbEntity
  8
M0
100
AcDbLine
 10
98.530763
 20
477.02142
 11
98.530763
 21
478.1291
  0
LINE
  5
798
100
AcDbEntity
  8
M0
100
AcDbLine
 10
92.814973
 20
460.943463
 11
91.047395
 21
459.175763
  0
LINE
  5
799
100
AcDbEntity
  8
M0
100
AcDbLine
 10
116.77552
 20
463.682794
 11
115.007941
 21
461.915215
  0
LINE
  5
79A
100
AcDbEntity
  8
M0
100
AcDbLine
 10
94.052278
 20
457.938458
 11
90.870637
 21
461.120221
  0
LINE
  5
79B
100
AcDbEntity
  8
M0
100
AcDbLine
 10
116.952277
 20
461.738458
 11
113.770637
 21
464.92022
  0
CIRCLE
  5
79C
100
AcDbEntity
  8
M0
100
AcDbCircle
 10
115.361694
 20
483.9291
 40
3.0
  0
LINE
  5
79D
100
AcDbEntity
  8
M0
100
AcDbLine
 10
93.87552
 20
459.882794
 11
92.107942
 21
458.115216
  0
LINE
  5
79E
100
AcDbEntity
  8
M0
100
AcDbLine
 10
115.714973
 20
464.743462
 11
113.947395
 21
462.975762
  0
LINE
  5
79F
100
AcDbEntity
  8
M0
100
AcDbLine
 10
115.714973
 20
485.343462
 11
113.947395
 21
483.575762
  0
LINE
  5
7A0
100
AcDbEntity
  8
M0
100
AcDbLine
 10
116.77552
 20
484.282794
 11
115.007941
 21
482.515215
  0
LINE
  5
7A1
100
AcDbEntity
  8
M0
100
AcDbLine
 10
82.061694
 20
476.8291
 11
82.061694
 21
473.6291
  0
LINE
  5
7A2
100
AcDbEntity
  8
M0
100
AcDbLine
 10
94.052278
 20
486.138458
 11
90.870637
 21
489.32022
  0
LINE
  5
7A3
100
AcDbEntity
  8
M0
100
AcDbLine
 10
93.87552
 20
488.082794
 11
92.107942
 21
486.315215
  0
LINE
  5
7A4
100
AcDbEntity
  8
M0
100
AcDbLine
 10
116.952277
 20
482.338458
 11
113.770637
 21
485.52022
  0
LINE
  5
7A5
100
AcDbEntity
  8
M0
100
AcDbLine
 10
92.814973
 20
489.143462
 11
91.047395
 21
487.375762
  0
ARC
  5
7A6
100
AcDbEntity
  8
M0
100
AcDbCircle
 10
95.927716
 20
477.15988
 40
0.706146
100
AcDbArc
 50
2.247463
 51
18.629353
  0
ARC
  5
7A7
100
AcDbEntity
  8
M0
100
AcDbCircle
 10
96.497429
 20
477.179602
 40
0.89999
100
AcDbArc
 50
11.57091
 51
66.454309
  0
ARC
  5
7A8
100
AcDbEntity
  8
M0
100
AcDbCircle
 10
95.927716
 20
476.827576
 40
1.10768
100
AcDbArc
 50
248.465704
 51
287.487613
  0
ARC
  5
7A9
100
AcDbEntity
  8
M0
100
AcDbCircle
 10
95.927716
 20
476.661424
 40
1.10768
100
AcDbArc
 50
72.944058
 51
108.768683
  0
ARC
  5
7AA
100
AcDbEntity
  8
M0
100
AcDbCircle
 10
96.822167
 20
476.716807
 40
1.758441
100
AcDbArc
 50
160.088603
 51
196.481482
  0
ARC
  5
7AB
100
AcDbEntity
  8
M0
100
AcDbCircle
 10
95.927716
 20
476.356812
 40
0.719992
100
AcDbArc
 50
334.356275
 51
360.0
  0
ARC
  5
7AC
100
AcDbEntity
  8
M0
100
AcDbCircle
 10
95.76
 20
476.402552
 40
0.650762
100
AcDbArc
 50
196.481517
 51
248.465722
  0
CIRCLE
  5
7AD
100
AcDbEntity
  8
M0
100
AcDbCircle
 10
115.361694
 20
463.3291
 40
3.0
  0
ARC
  5
7AE
100
AcDbEntity
  8
M0
100
AcDbCircle
 10
96.098282
 20
477.217379
 40
0.526148
100
AcDbArc
 50
18.629246
 51
72.943922
  0
CIRCLE
  5
7AF
100
AcDbEntity
  8
M0
100
AcDbCircle
 10
92.461694
 20
487.7291
 40
3.0
  0
ARC
  5
7B0
100
AcDbEntity
  8
M0
100
AcDbCircle
 10
95.780703
 20
477.094045
 40
0.650762
100
AcDbArc
 50
108.768698
 51
160.088638
  0
ARC
  5
7B1
100
AcDbEntity
  8
M0
100
AcDbCircle
 10
96.519228
 20
476.294059
 40
0.886144
100
AcDbArc
 50
292.42259
 51
346.150643
  0
CIRCLE
  5
7B2
100
AcDbEntity
  8
M0
100
AcDbCircle
 10
92.461694
 20
459.5291
 40
3.0
  0
ARC
  5
7B3
100
AcDbEntity
  8
M0
100
AcDbCircle
 10
95.927716
 20
477.062958
 40
1.481521
100
AcDbArc
 50
4.824937
 51
11.570943
  0
LINE
  5
7B4
100
AcDbEntity
  8
M0
100
AcDbLine
 10
84.795532
 20
476.578348
 11
86.277054
 21
476.578348
  0
LINE
  5
7B5
100
AcDbEntity
  8
M0
100
AcDbLine
 10
93.601587
 20
475.3599
 11
93.361284
 21
475.955278
  0
LINE
  5
7B6
100
AcDbEntity
  8
M0
100
AcDbLine
 10
87.592423
 20
475.3599
 11
88.326261
 21
475.3599
  0
ARC
  5
7B7
100
AcDbEntity
  8
M0
100
AcDbCircle
 10
96.093867
 20
476.716807
 40
1.799979
100
AcDbArc
 50
161.72132
 51
190.751551
  0
ARC
  5
7B8
100
AcDbEntity
  8
M0
100
AcDbCircle
 10
95.567973
 20
476.890514
 40
1.246139
100
AcDbArc
 50
109.456972
 51
161.721309
  0
LINE
  5
7B9
100
AcDbEntity
  8
M0
100
AcDbLine
 10
97.403987
 20
477.187572
 11
96.633318
 21
477.187572
  0
LINE
  5
7BA
100
AcDbEntity
  8
M0
100
AcDbLine
 10
86.277054
 20
478.1291
 11
86.277054
 21
477.02142
  0
LINE
  5
7BB
100
AcDbEntity
  8
M0
100
AcDbLine
 10
93.1239
 20
478.1291
 11
92.22391
 21
478.1291
  0
LINE
  5
7BC
100
AcDbEntity
  8
M0
100
AcDbLine
 10
84.795532
 20
478.1291
 11
84.795532
 21
477.02142
  0
LINE
  5
7BD
100
AcDbEntity
  8
M0
100
AcDbLine
 10
92.165356
 20
476.39835
 11
92.673905
 21
477.658336
  0
LINE
  5
7BE
100
AcDbEntity
  8
M0
100
AcDbLine
 10
87.010891
 20
478.1291
 11
87.010891
 21
475.3599
  0
LINE
  5
7BF
100
AcDbEntity
  8
M0
100
AcDbLine
 10
90.929309
 20
475.3599
 11
91.746223
 21
475.3599
  0
LINE
  5
7C0
100
AcDbEntity
  8
M0
100
AcDbLine
 10
84.795532
 20
476.578348
 11
84.795532
 21
475.3599
  0
LINE
  5
7C1
100
AcDbEntity
  8
M0
100
AcDbLine
 10
97.796925
 20
475.3599
 11
98.530763
 21
475.3599
  0
LINE
  5
7C2
100
AcDbEntity
  8
M0
100
AcDbLine
 10
100.012285
 20
475.3599
 11
100.746123
 21
475.3599
  0
LINE
  5
7C3
100
AcDbEntity
  8
M0
100
AcDbLine
 10
86.277054
 20
476.578348
 11
86.277054
 21
475.3599
  0
TEXT
  5
7C4
100
AcDbEntity
  8
M0
100
AcDbText
 10
112.586688
 20
474.3291
 40
2.0
  1
ＯＦＦ
 41
0.625
  7
STANDARD
100
AcDbText
  0
LINE
  5
7C5
100
AcDbEntity
  8
M0
100
AcDbLine
 10
88.326261
 20
478.1291
 11
87.592423
 21
478.1291
  0
LINE
  5
7C6
100
AcDbEntity
  8
M0
100
AcDbLine
 10
86.277054
 20
477.02142
 11
84.795532
 21
477.02142
  0
TEXT
  5
7C7
100
AcDbEntity
  8
M0
100
AcDbText
 10
91.086687
 20
466.129103
 40
2.0
  1
Ｅ２
 41
0.625
  7
STANDARD
100
AcDbText
  0
LINE
  5
7C8
100
AcDbEntity
  8
M0
100
AcDbLine
 10
101.327655
 20
475.3599
 11
101.327655
 21
478.1291
  0
ARC
  5
7C9
100
AcDbEntity
  8
M0
100
AcDbCircle
 10
96.102466
 20
476.272922
 40
0.526148
100
AcDbArc
 50
287.487588
 51
334.356243
  0
ARC
  5
7CA
100
AcDbEntity
  8
M0
100
AcDbCircle
 10
95.576955
 20
476.618654
 40
1.273831
100
AcDbArc
 50
190.75155
 51
252.447271
  0
ARC
  5
7CB
100
AcDbEntity
  8
M0
100
AcDbCircle
 10
95.927716
 20
476.439888
 40
1.495367
100
AcDbArc
 50
346.150651
 51
356.815254
  0
TEXT
  5
7CC
100
AcDbEntity
  8
M0
100
AcDbText
 10
84.186686
 20
469.629103
 40
2.0
  1
ＣＯＮＴＡＣＴＯＲ
 41
0.625
  7
STANDARD
100
AcDbText
  0
TEXT
  5
7CD
100
AcDbEntity
  8
M0
100
AcDbText
 10
91.086687
 20
479.129101
 40
2.0
  1
Ｅ１
 41
0.625
  7
STANDARD
100
AcDbText
  0
ARC
  5
7CE
100
AcDbEntity
  8
M0
100
AcDbCircle
 10
95.927716
 20
477.727566
 40
2.436895
100
AcDbArc
 50
252.447278
 51
292.42262
  0
LINE
  5
7CF
100
AcDbEntity
  8
M0
100
AcDbLine
 10
122.561694
 20
490.629099
 11
122.561694
 21
480.829099
  0
LINE
  5
7D0
100
AcDbEntity
  8
M0
100
AcDbLine
 10
119.261694
 20
479.829099
 11
119.261694
 21
490.629099
  0
LINE
  5
7D1
100
AcDbEntity
  8
M0
100
AcDbLine
 10
122.561694
 20
480.829099
 11
125.061694
 21
480.829099
  0
LINE
  5
7D2
100
AcDbEntity
  8
M0
100
AcDbLine
 10
111.461693
 20
490.629099
 11
111.461693
 21
479.829099
  0
LINE
  5
7D3
100
AcDbEntity
  8
M0
100
AcDbLine
 10
88.561694
 20
483.629099
 11
96.361694
 21
483.629099
  0
LINE
  5
7D4
100
AcDbEntity
  8
M0
100
AcDbLine
 10
125.061694
 20
478.629099
 11
122.561694
 21
478.629099
  0
LINE
  5
7D5
100
AcDbEntity
  8
M0
100
AcDbLine
 10
111.461693
 20
479.829099
 11
119.261694
 21
479.829099
  0
LINE
  5
7D6
100
AcDbEntity
  8
M0
100
AcDbLine
 10
88.561694
 20
491.6291
 11
88.561694
 21
490.629099
  0
LINE
  5
7D7
100
AcDbEntity
  8
M0
100
AcDbLine
 10
96.361694
 20
490.629099
 11
96.361694
 21
491.6291
  0
LINE
  5
7D8
100
AcDbEntity
  8
M0
100
AcDbLine
 10
104.061694
 20
461.5291
 11
104.061694
 21
461.429099
  0
LINE
  5
7D9
100
AcDbEntity
  8
M0
100
AcDbLine
 10
127.061694
 20
479.829099
 11
127.061694
 21
479.629099
  0
LINE
  5
7DA
100
AcDbEntity
  8
M0
100
AcDbLine
 10
125.061694
 20
480.829099
 11
126.061694
 21
480.829099
  0
LINE
  5
7DB
100
AcDbEntity
  8
M0
100
AcDbLine
 10
105.961694
 20
461.5291
 11
105.961694
 21
461.429099
  0
LINE
  5
7DC
100
AcDbEntity
  8
M0
100
AcDbLine
 10
126.061694
 20
478.629099
 11
125.061694
 21
478.629099
  0
ARC
  5
7DD
100
AcDbEntity
  8
M0
100
AcDbCircle
 10
100.861694
 20
460.9291
 40
0.5
100
AcDbArc
 50
90.0
 51
180.0
  0
ARC
  5
7DE
100
AcDbEntity
  8
M0
100
AcDbCircle
 10
126.061694
 20
479.6291
 40
1.0
100
AcDbArc
 50
270.0
 51
360.0
  0
LINE
  5
7DF
100
AcDbEntity
  8
M0
100
AcDbLine
 10
119.111693
 20
487.1791
 11
119.111693
 21
480.6791
  0
ARC
  5
7E0
100
AcDbEntity
  8
M0
100
AcDbCircle
 10
121.561694
 20
490.6291
 40
1.0
100
AcDbArc
 50
0.0
 51
90.0
  0
ARC
  5
7E1
100
AcDbEntity
  8
M0
100
AcDbCircle
 10
122.561694
 20
478.1291
 40
0.5
100
AcDbArc
 50
90.0
 51
180.0
  0
ARC
  5
7E2
100
AcDbEntity
  8
M0
100
AcDbCircle
 10
100.861694
 20
458.0291
 40
0.5
100
AcDbArc
 50
180.0
 51
270.0
  0
ARC
  5
7E3
100
AcDbEntity
  8
M0
100
AcDbCircle
 10
126.061694
 20
479.8291
 40
1.0
100
AcDbArc
 50
0.0
 51
90.0
  0
LINE
  5
7E4
100
AcDbEntity
  8
M0
100
AcDbLine
 10
80.061694
 20
491.6291
 11
126.061694
 21
491.6291
  0
LINE
  5
7E5
100
AcDbEntity
  8
M0
100
AcDbLine
 10
80.061694
 20
476.8291
 11
79.561694
 21
476.8291
  0
LINE
  5
7E6
100
AcDbEntity
  8
M0
100
AcDbLine
 10
96.361694
 20
483.629099
 11
96.361694
 21
490.629099
  0
LINE
  5
7E7
100
AcDbEntity
  8
M0
100
AcDbLine
 10
112.111694
 20
487.6791
 11
118.611693
 21
487.6791
  0
LINE
  5
7E8
100
AcDbEntity
  8
M0
100
AcDbLine
 10
118.611693
 20
480.179099
 11
112.111694
 21
480.179099
  0
LINE
  5
7E9
100
AcDbEntity
  8
M0
100
AcDbLine
 10
88.561694
 20
490.629099
 11
88.561694
 21
483.629099
  0
LINE
  5
7EA
100
AcDbEntity
  8
M0
100
AcDbLine
 10
127.061694
 20
473.6291
 11
127.024651
 21
473.6291
  0
LINE
  5
7EB
100
AcDbEntity
  8
M0
100
AcDbLine
 10
89.211694
 20
491.4791
 11
95.711694
 21
491.4791
  0
ARC
  5
7EC
100
AcDbEntity
  8
M0
100
AcDbCircle
 10
112.111694
 20
460.0791
 40
0.5
100
AcDbArc
 50
180.0
 51
270.0
  0
LINE
  5
7ED
100
AcDbEntity
  8
M0
100
AcDbLine
 10
95.711694
 20
455.7791
 11
89.211694
 21
455.7791
  0
ARC
  5
7EE
100
AcDbEntity
  8
M0
100
AcDbCircle
 10
95.711694
 20
462.7791
 40
0.5
100
AcDbArc
 50
0.0
 51
90.0
  0
ARC
  5
7EF
100
AcDbEntity
  8
M0
100
AcDbCircle
 10
95.711694
 20
456.2791
 40
0.5
100
AcDbArc
 50
270.0
 51
360.0
  0
LINE
  5
7F0
100
AcDbEntity
  8
M0
100
AcDbLine
 10
88.711694
 20
456.2791
 11
88.711694
 21
462.779099
  0
ARC
  5
7F1
100
AcDbEntity
  8
M0
100
AcDbCircle
 10
112.111694
 20
466.5791
 40
0.5
100
AcDbArc
 50
90.0
 51
180.0
  0
LINE
  5
7F2
100
AcDbEntity
  8
M0
100
AcDbLine
 10
88.711694
 20
484.4791
 11
88.711694
 21
490.9791
  0
ARC
  5
7F3
100
AcDbEntity
  8
M0
100
AcDbCircle
 10
89.211694
 20
490.9791
 40
0.5
100
AcDbArc
 50
90.0
 51
180.0
  0
LINE
  5
7F4
100
AcDbEntity
  8
M0
100
AcDbLine
 10
96.211694
 20
490.9791
 11
96.211694
 21
484.4791
  0
LINE
  5
7F5
100
AcDbEntity
  8
M0
100
AcDbLine
 10
89.211694
 20
463.2791
 11
95.711694
 21
463.2791
  0
LINE
  5
7F6
100
AcDbEntity
  8
M0
100
AcDbLine
 10
96.211694
 20
462.7791
 11
96.211694
 21
456.279101
  0
LINE
  5
7F7
100
AcDbEntity
  8
M0
100
AcDbLine
 10
95.711694
 20
483.979099
 11
89.211694
 21
483.979099
  0
ARC
  5
7F8
100
AcDbEntity
  8
M0
100
AcDbCircle
 10
89.211694
 20
484.4791
 40
0.5
100
AcDbArc
 50
180.0
 51
270.0
  0
ARC
  5
7F9
100
AcDbEntity
  8
M0
100
AcDbCircle
 10
112.111694
 20
487.1791
 40
0.5
100
AcDbArc
 50
90.0
 51
180.0
  0
ARC
  5
7FA
100
AcDbEntity
  8
M0
100
AcDbCircle
 10
112.111694
 20
480.6791
 40
0.5
100
AcDbArc
 50
180.0
 51
270.0
  0
LINE
  5
7FB
100
AcDbEntity
  8
M0
100
AcDbLine
 10
118.611694
 20
459.579101
 11
112.111694
 21
459.579101
  0
ARC
  5
7FC
100
AcDbEntity
  8
M0
100
AcDbCircle
 10
118.611694
 20
460.0791
 40
0.5
100
AcDbArc
 50
270.0
 51
360.0
  0
LINE
  5
7FD
100
AcDbEntity
  8
M0
100
AcDbLine
 10
105.961694
 20
461.429099
 11
105.961694
 21
459.629098
  0
LINE
  5
7FE
100
AcDbEntity
  8
M0
100
AcDbLine
 10
111.611694
 20
460.079098
 11
111.611694
 21
466.5791
  0
ARC
  5
7FF
100
AcDbEntity
  8
M0
100
AcDbCircle
 10
118.611694
 20
466.5791
 40
0.5
100
AcDbArc
 50
0.0
 51
90.0
  0
ARC
  5
800
100
AcDbEntity
  8
M0
100
AcDbCircle
 10
95.711694
 20
484.4791
 40
0.5
100
AcDbArc
 50
270.0
 51
360.0
  0
ARC
  5
801
100
AcDbEntity
  8
M0
100
AcDbCircle
 10
95.711694
 20
490.9791
 40
0.5
100
AcDbArc
 50
0.0
 51
90.0
  0
ARC
  5
802
100
AcDbEntity
  8
M0
100
AcDbCircle
 10
89.211694
 20
462.7791
 40
0.5
100
AcDbArc
 50
90.0
 51
180.0
  0
LINE
  5
803
100
AcDbEntity
  8
M0
100
AcDbLine
 10
119.111693
 20
466.5791
 11
119.111693
 21
460.079098
  0
LINE
  5
804
100
AcDbEntity
  8
M0
100
AcDbLine
 10
112.111694
 20
467.079099
 11
118.611693
 21
467.079099
  0
ARC
  5
805
100
AcDbEntity
  8
M0
100
AcDbCircle
 10
89.211694
 20
456.2791
 40
0.5
100
AcDbArc
 50
180.0
 51
270.0
  0
LINE
  5
806
100
AcDbEntity
  8
M0
100
AcDbLine
 10
119.261694
 20
488.8291
 11
111.461693
 21
488.8291
  0
LINE
  5
807
100
AcDbEntity
  8
M0
100
AcDbLine
 10
105.961694
 20
458.029101
 11
105.961694
 21
458.529098
  0
LINE
  5
808
100
AcDbEntity
  8
M0
100
AcDbLine
 10
79.061693
 20
456.629099
 11
79.061693
 21
463.129099
  0
LINE
  5
809
100
AcDbEntity
  8
M0
100
AcDbLine
 10
100.861694
 20
461.429099
 11
105.461694
 21
461.429099
  0
LINE
  5
80A
100
AcDbEntity
  8
M0
100
AcDbLine
 10
105.461694
 20
457.5291
 11
100.861694
 21
457.5291
  0
LINE
  5
80B
100
AcDbEntity
  8
M0
100
AcDbLine
 10
106.261694
 20
461.329099
 11
106.261694
 21
459.629098
  0
LINE
  5
80C
100
AcDbEntity
  8
M0
100
AcDbLine
 10
105.961694
 20
460.9291
 11
105.961694
 21
458.529098
  0
LINE
  5
80D
100
AcDbEntity
  8
M0
100
AcDbLine
 10
79.561694
 20
470.4291
 11
80.061694
 21
470.4291
  0
LINE
  5
80E
100
AcDbEntity
  8
M0
100
AcDbLine
 10
127.061694
 20
490.6291
 11
127.061694
 21
456.629099
  0
LINE
  5
80F
100
AcDbEntity
  8
M0
100
AcDbLine
 10
80.061694
 20
470.4291
 11
80.061694
 21
476.8291
  0
LINE
  5
810
100
AcDbEntity
  8
M0
100
AcDbLine
 10
106.261694
 20
457.1291
 11
100.361694
 21
457.1291
  0
LINE
  5
811
100
AcDbEntity
  8
M0
100
AcDbLine
 10
82.561693
 20
455.629101
 11
80.061694
 21
455.629101
  0
LINE
  5
812
100
AcDbEntity
  8
M0
100
AcDbLine
 10
79.061693
 20
456.629099
 11
79.061693
 21
490.6291
  0
LINE
  5
813
100
AcDbEntity
  8
M0
100
AcDbLine
 10
127.024651
 20
473.6291
 11
127.061694
 21
473.6291
  0
ARC
  5
814
100
AcDbEntity
  8
M0
100
AcDbCircle
 10
87.561694
 20
456.6291
 40
1.0
100
AcDbArc
 50
270.0
 51
360.0
  0
ARC
  5
815
100
AcDbEntity
  8
M0
100
AcDbCircle
 10
80.061694
 20
456.6291
 40
1.0
100
AcDbArc
 50
180.0
 51
270.0
  0
ARC
  5
816
100
AcDbEntity
  8
M0
100
AcDbCircle
 10
99.361694
 20
456.6291
 40
1.0
100
AcDbArc
 50
270.0
 51
360.0
  0
ARC
  5
817
100
AcDbEntity
  8
M0
100
AcDbCircle
 10
126.061694
 20
456.6291
 40
1.0
100
AcDbArc
 50
270.0
 51
360.0
  0
ARC
  5
818
100
AcDbEntity
  8
M0
100
AcDbCircle
 10
95.927716
 20
475.872202
 40
2.326127
100
AcDbArc
 50
66.454301
 51
109.456969
  0
ARC
  5
819
100
AcDbEntity
  8
M0
100
AcDbCircle
 10
97.361694
 20
456.6291
 40
1.0
100
AcDbArc
 50
180.0
 51
270.0
  0
ARC
  5
81A
100
AcDbEntity
  8
M0
100
AcDbCircle
 10
79.561694
 20
469.9291
 40
0.5
100
AcDbArc
 50
90.0
 51
180.0
  0
ARC
  5
81B
100
AcDbEntity
  8
M0
100
AcDbCircle
 10
122.561694
 20
469.1291
 40
0.5
100
AcDbArc
 50
180.0
 51
270.0
  0
ARC
  5
81C
100
AcDbEntity
  8
M0
100
AcDbCircle
 10
121.561694
 20
456.6291
 40
1.0
100
AcDbArc
 50
270.0
 51
360.0
  0
ARC
  5
81D
100
AcDbEntity
  8
M0
100
AcDbCircle
 10
126.061694
 20
467.6291
 40
1.0
100
AcDbArc
 50
0.0
 51
90.0
  0
ARC
  5
81E
100
AcDbEntity
  8
M0
100
AcDbCircle
 10
110.461694
 20
456.6291
 40
1.0
100
AcDbArc
 50
270.0
 51
360.0
  0
ARC
  5
81F
100
AcDbEntity
  8
M0
100
AcDbCircle
 10
107.261694
 20
456.6291
 40
1.0
100
AcDbArc
 50
180.0
 51
270.0
  0
ARC
  5
820
100
AcDbEntity
  8
M0
100
AcDbCircle
 10
126.061694
 20
467.4291
 40
1.0
100
AcDbArc
 50
270.0
 51
360.0
  0
ARC
  5
821
100
AcDbEntity
  8
M0
100
AcDbCircle
 10
120.261694
 20
456.6291
 40
1.0
100
AcDbArc
 50
180.0
 51
270.0
  0
ARC
  5
822
100
AcDbEntity
  8
M0
100
AcDbCircle
 10
118.611694
 20
480.6791
 40
0.5
100
AcDbArc
 50
270.0
 51
360.0
  0
LINE
  5
823
100
AcDbEntity
  8
M0
100
AcDbLine
 10
126.524652
 20
468.829099
 11
122.161693
 21
468.829099
  0
ARC
  5
824
100
AcDbEntity
  8
M0
100
AcDbCircle
 10
126.061694
 20
490.6291
 40
1.0
100
AcDbArc
 50
0.0
 51
90.0
  0
LINE
  5
825
100
AcDbEntity
  8
M0
100
AcDbLine
 10
125.061694
 20
466.429099
 11
126.061694
 21
466.429099
  0
LINE
  5
826
100
AcDbEntity
  8
M0
100
AcDbLine
 10
127.061694
 20
467.629099
 11
127.061694
 21
467.4291
  0
ARC
  5
827
100
AcDbEntity
  8
M0
100
AcDbCircle
 10
118.611694
 20
487.1791
 40
0.5
100
AcDbArc
 50
0.0
 51
90.0
  0
LINE
  5
828
100
AcDbEntity
  8
M0
100
AcDbLine
 10
125.061694
 20
468.629099
 11
126.061694
 21
468.629099
  0
ARC
  5
829
100
AcDbEntity
  8
M0
100
AcDbCircle
 10
110.461694
 20
490.6291
 40
1.0
100
AcDbArc
 50
0.0
 51
90.0
  0
ARC
  5
82A
100
AcDbEntity
  8
M0
100
AcDbCircle
 10
97.361694
 20
490.6291
 40
1.0
100
AcDbArc
 50
90.0
 51
180.0
  0
LINE
  5
82B
100
AcDbEntity
  8
M0
100
AcDbLine
 10
111.611694
 20
480.679099
 11
111.611694
 21
487.1791
  0
ARC
  5
82C
100
AcDbEntity
  8
M0
100
AcDbCircle
 10
80.061694
 20
490.6291
 40
1.0
100
AcDbArc
 50
90.0
 51
180.0
  0
ARC
  5
82D
100
AcDbEntity
  8
M0
100
AcDbCircle
 10
79.561694
 20
477.3291
 40
0.5
100
AcDbArc
 50
180.0
 51
270.0
  0
ARC
  5
82E
100
AcDbEntity
  8
M0
100
AcDbCircle
 10
120.261694
 20
490.6291
 40
1.0
100
AcDbArc
 50
90.0
 51
180.0
  0
ARC
  5
82F
100
AcDbEntity
  8
M0
100
AcDbCircle
 10
87.561694
 20
490.6291
 40
1.0
100
AcDbArc
 50
0.0
 51
90.0
  0
LINE
  5
830
100
AcDbEntity
  8
M0
100
AcDbLine
 10
100.361694
 20
461.5291
 11
100.361694
 21
456.629099
  0
LINE
  5
831
100
AcDbEntity
  8
M0
100
AcDbLine
 10
96.361694
 20
456.629099
 11
96.361694
 21
463.629099
  0
LINE
  5
832
100
AcDbEntity
  8
M0
100
AcDbLine
 10
106.261694
 20
456.629099
 11
106.261694
 21
461.5291
  0
LINE
  5
833
100
AcDbEntity
  8
M0
100
AcDbLine
 10
88.561694
 20
463.629099
 11
88.561694
 21
456.629099
  0
LINE
  5
834
100
AcDbEntity
  8
M0
100
AcDbLine
 10
126.061694
 20
455.629101
 11
80.061694
 21
455.629101
  0
LINE
  5
835
100
AcDbEntity
  8
M0
100
AcDbLine
 10
106.261694
 20
461.5291
 11
100.361694
 21
461.5291
  0
LINE
  5
836
100
AcDbEntity
  8
M0
100
AcDbLine
 10
96.361694
 20
463.629099
 11
88.561694
 21
463.629099
  0
LINE
  5
837
100
AcDbEntity
  8
M0
100
AcDbLine
 10
122.561694
 20
466.429099
 11
122.561694
 21
456.629099
  0
LINE
  5
838
100
AcDbEntity
  8
M0
100
AcDbLine
 10
122.061693
 20
478.1291
 11
122.061693
 21
469.129099
  0
LINE
  5
839
100
AcDbEntity
  8
M0
100
AcDbLine
 10
125.061694
 20
466.429099
 11
122.561694
 21
466.429099
  0
LINE
  5
83A
100
AcDbEntity
  8
M0
100
AcDbLine
 10
119.261694
 20
467.4291
 11
111.461693
 21
467.4291
  0
LINE
  5
83B
100
AcDbEntity
  8
M0
100
AcDbLine
 10
111.461693
 20
467.4291
 11
111.461693
 21
456.629099
  0
LINE
  5
83C
100
AcDbEntity
  8
M0
100
AcDbLine
 10
122.561694
 20
468.629099
 11
125.061694
 21
468.629099
  0
LINE
  5
83D
100
AcDbEntity
  8
M0
100
AcDbLine
 10
119.261694
 20
456.629099
 11
119.261694
 21
467.4291
  0
LINE
  5
83E
100
AcDbEntity
  8
M0
100
AcDbLine
 10
82.561694
 20
482.1291
 11
109.561694
 21
482.1291
  0
LINE
  5
83F
100
AcDbEntity
  8
M0
100
AcDbLine
 10
82.061694
 20
481.6291
 11
82.061694
 21
465.6291
  0
LINE
  5
840
100
AcDbEntity
  8
M0
100
AcDbLine
 10
82.561694
 20
465.1291
 11
109.561694
 21
465.1291
  0
LINE
  5
841
100
AcDbEntity
  8
M0
100
AcDbLine
 10
120.061694
 20
469.6291
 11
120.061694
 21
477.6291
  0
LINE
  5
842
100
AcDbEntity
  8
M0
100
AcDbLine
 10
119.561694
 20
469.1291
 11
110.561694
 21
469.1291
  0
LINE
  5
843
100
AcDbEntity
  8
M0
100
AcDbLine
 10
119.561694
 20
478.1291
 11
110.561694
 21
478.1291
  0
LINE
  5
844
100
AcDbEntity
  8
M0
100
AcDbLine
 10
110.061694
 20
465.6291
 11
110.061694
 21
468.6291
  0
LINE
  5
845
100
AcDbEntity
  8
M0
100
AcDbLine
 10
110.061694
 20
478.6291
 11
110.061694
 21
481.6291
  0
ARC
  5
846
100
AcDbEntity
  8
M0
100
AcDbCircle
 10
82.561694
 20
481.6291
 40
0.5
100
AcDbArc
 50
90.0
 51
180.0
  0
ARC
  5
847
100
AcDbEntity
  8
M0
100
AcDbCircle
 10
109.561694
 20
481.6291
 40
0.5
100
AcDbArc
 50
0.0
 51
90.0
  0
ARC
  5
848
100
AcDbEntity
  8
M0
100
AcDbCircle
 10
110.561694
 20
478.6291
 40
0.5
100
AcDbArc
 50
180.0
 51
270.0
  0
ARC
  5
849
100
AcDbEntity
  8
M0
100
AcDbCircle
 10
119.561694
 20
477.6291
 40
0.5
100
AcDbArc
 50
0.0
 51
90.0
  0
ARC
  5
84A
100
AcDbEntity
  8
M0
100
AcDbCircle
 10
119.561694
 20
469.6291
 40
0.5
100
AcDbArc
 50
270.0
 51
360.0
  0
ARC
  5
84B
100
AcDbEntity
  8
M0
100
AcDbCircle
 10
110.561694
 20
468.6291
 40
0.5
100
AcDbArc
 50
90.0
 51
180.0
  0
ARC
  5
84C
100
AcDbEntity
  8
M0
100
AcDbCircle
 10
109.561694
 20
465.6291
 40
0.5
100
AcDbArc
 50
270.0
 51
360.0
  0
ARC
  5
84D
100
AcDbEntity
  8
M0
100
AcDbCircle
 10
82.561694
 20
465.6291
 40
0.5
100
AcDbArc
 50
180.0
 51
270.0
  0
HATCH
  5
84E
100
AcDbEntity
  8
M0
 62
     7
100
AcDbHatch
 10
0.0
 20
0.0
210
0.0
220
0.0
230
1.0
  2
SOLID
 70
     1
 71
     0
 91
        1
 92
        1
 93
        8
 72
     1
 10
90.444699
 20
475.3599
 11
90.444699
 21
477.658336
 72
     1
 10
90.444699
 20
477.658336
 11
91.566225
 21
477.658336
 72
     1
 10
91.566225
 20
477.658336
 11
91.566225
 21
478.1291
 72
     1
 10
91.566225
 20
478.1291
 11
88.589336
 21
478.1291
 72
     1
 10
88.589336
 20
478.1291
 11
88.589336
 21
477.658336
 72
     1
 10
88.589336
 20
477.658336
 11
89.710861
 21
477.658336
 72
     1
 10
89.710861
 20
477.658336
 11
89.710861
 21
475.3599
 72
     1
 10
89.710861
 20
475.3599
 11
90.444699
 21
475.3599
 97
        0
 75
     0
 76
     1
 98
        1
 10
0.0
 20
0.0
  0
HATCH
  5
84F
100
AcDbEntity
  8
M0
 62
     7
100
AcDbHatch
 10
0.0
 20
0.0
210
0.0
220
0.0
230
1.0
  2
SOLID
 70
     1
 71
     0
 91
        1
 92
        1
 93
       12
 72
     1
 10
185.430761
 20
475.3599
 11
185.430761
 21
476.578348
 72
     1
 10
185.430761
 20
476.578348
 11
186.912283
 21
476.578348
 72
     1
 10
186.912283
 20
476.578348
 11
186.912283
 21
475.3599
 72
     1
 10
186.912283
 20
475.3599
 11
187.646121
 21
475.3599
 72
     1
 10
187.646121
 20
475.3599
 11
187.646121
 21
478.1291
 72
     1
 10
187.646121
 20
478.1291
 11
186.912283
 21
478.1291
 72
     1
 10
186.912283
 20
478.1291
 11
186.912283
 21
477.02142
 72
     1
 10
186.912283
 20
477.02142
 11
185.430761
 21
477.02142
 72
     1
 10
185.430761
 20
477.02142
 11
185.430761
 21
478.1291
 72
     1
 10
185.430761
 20
478.1291
 11
184.696923
 21
478.1291
 72
     1
 10
184.696923
 20
478.1291
 11
184.696923
 21
475.3599
 72
     1
 10
184.696923
 20
475.3599
 11
185.430761
 21
475.3599
 97
        0
 75
     0
 76
     1
 98
        1
 10
0.0
 20
0.0
  0
HATCH
  5
850
100
AcDbEntity
  8
M0
 62
     7
100
AcDbHatch
 10
0.0
 20
0.0
210
0.0
220
0.0
230
1.0
  2
SOLID
 70
     1
 71
     0
 91
        1
 92
        1
 93
       20
 72
     2
 10
182.827713
 20
477.727566
 40
2.436895
 50
252.447306
 51
292.422669
 73
     1
 72
     2
 10
183.419226
 20
476.294059
 40
0.886144
 50
292.422669
 51
346.150662
 73
     1
 72
     2
 10
182.827713
 20
476.439888
 40
1.495367
 50
346.150662
 51
356.81526
 73
     1
 72
     1
 10
184.320771
 20
476.356812
 11
183.547705
 21
476.356812
 72
     2
 10
182.827713
 20
476.356812
 40
0.719992
 50
0.0
 51
25.643738
 73
     0
 72
     2
 10
183.002464
 20
476.272922
 40
0.526148
 50
25.643738
 51
72.512342
 73
     0
 72
     2
 10
182.827713
 20
476.827576
 40
1.10768
 50
72.512342
 51
111.534322
 73
     0
 72
     2
 10
182.659998
 20
476.402552
 40
0.650762
 50
111.534322
 51
163.518484
 73
     0
 72
     2
 10
183.722164
 20
476.716807
 40
1.758441
 50
163.518484
 51
199.911347
 73
     0
 72
     2
 10
182.680701
 20
477.094045
 40
0.650762
 50
199.911347
 51
251.231339
 73
     0
 72
     2
 10
182.827713
 20
476.661424
 40
1.10768
 50
251.231339
 51
287.055921
 73
     0
 72
     2
 10
182.99828
 20
477.217379
 40
0.526148
 50
287.055921
 51
341.370551
 73
     0
 72
     2
 10
182.827713
 20
477.15988
 40
0.706146
 50
341.370551
 51
357.752539
 73
     0
 72
     1
 10
183.533316
 20
477.187572
 11
184.303984
 21
477.187572
 72
     2
 10
182.827713
 20
477.062958
 40
1.481521
 50
4.824977
 51
11.570993
 73
     1
 72
     2
 10
183.397426
 20
477.179602
 40
0.89999
 50
11.570993
 51
66.454336
 73
     1
 72
     2
 10
182.827713
 20
475.872202
 40
2.326127
 50
66.454336
 51
109.456965
 73
     1
 72
     2
 10
182.467971
 20
476.890514
 40
1.246139
 50
109.456965
 51
161.721239
 73
     1
 72
     2
 10
182.993865
 20
476.716807
 40
1.799979
 50
161.721239
 51
190.751611
 73
     1
 72
     2
 10
182.476953
 20
476.618654
 40
1.273831
 50
190.751611
 51
252.447306
 73
     1
 97
        0
 75
     0
 76
     1
 98
        1
 10
0.0
 20
0.0
  0
HATCH
  5
851
100
AcDbEntity
  8
M0
 62
     7
100
AcDbHatch
 10
0.0
 20
0.0
210
0.0
220
0.0
230
1.0
  2
SOLID
 70
     1
 71
     0
 91
        1
 92
        1
 93
        4
 72
     1
 10
175.226259
 20
475.3599
 11
175.226259
 21
478.1291
 72
     1
 10
175.226259
 20
478.1291
 11
174.492421
 21
478.1291
 72
     1
 10
174.492421
 20
478.1291
 11
174.492421
 21
475.3599
 72
     1
 10
174.492421
 20
475.3599
 11
175.226259
 21
475.3599
 97
        0
 75
     0
 76
     1
 98
        1
 10
0.0
 20
0.0
  0
HATCH
  5
852
100
AcDbEntity
  8
M0
 62
     7
100
AcDbHatch
 10
0.0
 20
0.0
210
0.0
220
0.0
230
1.0
  2
SOLID
 70
     1
 71
     0
 91
        2
 92
        1
 93
        8
 72
     1
 10
178.886523
 20
475.955278
 11
180.261282
 21
475.955278
 72
     1
 10
180.261282
 20
475.955278
 11
180.501585
 21
475.3599
 72
     1
 10
180.501585
 20
475.3599
 11
181.318498
 21
475.3599
 72
     1
 10
181.318498
 20
475.3599
 11
180.023897
 21
478.1291
 72
     1
 10
180.023897
 20
478.1291
 11
179.123908
 21
478.1291
 72
     1
 10
179.123908
 20
478.1291
 11
177.829307
 21
475.3599
 72
     1
 10
177.829307
 20
475.3599
 11
178.646221
 21
475.3599
 72
     1
 10
178.646221
 20
475.3599
 11
178.886523
 21
475.955278
 97
        0
 92
       16
 93
        3
 72
     1
 10
179.573903
 20
477.658336
 11
179.065354
 21
476.39835
 72
     1
 10
179.065354
 20
476.39835
 11
180.082451
 21
476.39835
 72
     1
 10
180.082451
 20
476.39835
 11
179.573903
 21
477.658336
 97
        0
 75
     0
 76
     1
 98
        1
 10
0.0
 20
0.0
  0
HATCH
  5
853
100
AcDbEntity
  8
M0
 62
     7
100
AcDbHatch
 10
0.0
 20
0.0
210
0.0
220
0.0
230
1.0
  2
SOLID
 70
     1
 71
     0
 91
        1
 92
        1
 93
       12
 72
     1
 10
171.695529
 20
475.3599
 11
171.695529
 21
476.578348
 72
     1
 10
171.695529
 20
476.578348
 11
173.177051
 21
476.578348
 72
     1
 10
173.177051
 20
476.578348
 11
173.177051
 21
475.3599
 72
     1
 10
173.177051
 20
475.3599
 11
173.910889
 21
475.3599
 72
     1
 10
173.910889
 20
475.3599
 11
173.910889
 21
478.1291
 72
     1
 10
173.910889
 20
478.1291
 11
173.177051
 21
478.1291
 72
     1
 10
173.177051
 20
478.1291
 11
173.177051
 21
477.02142
 72
     1
 10
173.177051
 20
477.02142
 11
171.695529
 21
477.02142
 72
     1
 10
171.695529
 20
477.02142
 11
171.695529
 21
478.1291
 72
     1
 10
171.695529
 20
478.1291
 11
170.961691
 21
478.1291
 72
     1
 10
170.961691
 20
478.1291
 11
170.961691
 21
475.3599
 72
     1
 10
170.961691
 20
475.3599
 11
171.695529
 21
475.3599
 97
        0
 75
     0
 76
     1
 98
        1
 10
0.0
 20
0.0
  0
HATCH
  5
854
100
AcDbEntity
  8
M0
 62
     7
100
AcDbHatch
 10
0.0
 20
0.0
210
0.0
220
0.0
230
1.0
  2
SOLID
 70
     1
 71
     0
 91
        1
 92
        1
 93
        7
 72
     1
 10
199.961691
 20
472.521014
 11
196.961691
 21
471.429103
 72
     1
 10
196.961691
 20
471.429103
 11
199.961691
 21
470.337192
 72
     1
 10
199.961691
 20
470.337192
 11
199.961691
 21
470.929103
 72
     1
 10
199.961691
 20
470.929103
 11
205.961691
 21
470.929103
 72
     1
 10
205.961691
 20
470.929103
 11
205.961691
 21
471.929103
 72
     1
 10
205.961691
 20
471.929103
 11
199.961691
 21
471.929103
 72
     1
 10
199.961691
 20
471.929103
 11
199.961691
 21
472.521014
 97
        0
 75
     0
 76
     1
 98
        1
 10
0.0
 20
0.0
  0
HATCH
  5
855
100
AcDbEntity
  8
M0
 62
     7
100
AcDbHatch
 10
0.0
 20
0.0
210
0.0
220
0.0
230
1.0
  2
SOLID
 70
     1
 71
     0
 91
        1
 92
        1
 93
        4
 72
     1
 10
188.961491
 20
475.3599
 11
188.961491
 21
478.1291
 72
     1
 10
188.961491
 20
478.1291
 11
188.227652
 21
478.1291
 72
     1
 10
188.227652
 20
478.1291
 11
188.227652
 21
475.3599
 72
     1
 10
188.227652
 20
475.3599
 11
188.961491
 21
475.3599
 97
        0
 75
     0
 76
     1
 98
        1
 10
0.0
 20
0.0
  0
LINE
  5
856
100
AcDbEntity
  8
M0
100
AcDbLine
 10
180.023897
 20
478.1291
 11
181.318498
 21
475.3599
  0
LINE
  5
857
100
AcDbEntity
  8
M0
100
AcDbLine
 10
176.610859
 20
475.3599
 11
177.344696
 21
475.3599
  0
LINE
  5
858
100
AcDbEntity
  8
M0
100
AcDbLine
 10
188.961491
 20
478.1291
 11
188.227652
 21
478.1291
  0
LINE
  5
859
100
AcDbEntity
  8
M0
100
AcDbLine
 10
180.501585
 20
475.3599
 11
181.318498
 21
475.3599
  0
LINE
  5
85A
100
AcDbEntity
  8
M0
100
AcDbLine
 10
178.646221
 20
475.3599
 11
178.886523
 21
475.955278
  0
LINE
  5
85B
100
AcDbEntity
  8
M0
100
AcDbLine
 10
174.492421
 20
478.1291
 11
174.492421
 21
475.3599
  0
LINE
  5
85C
100
AcDbEntity
  8
M0
100
AcDbLine
 10
205.961691
 20
470.929103
 11
199.961691
 21
470.929103
  0
LINE
  5
85D
100
AcDbEntity
  8
M0
100
AcDbLine
 10
187.646121
 20
478.1291
 11
186.912283
 21
478.1291
  0
TEXT
  5
85E
100
AcDbEntity
  8
M0
100
AcDbText
 10
193.086691
 20
466.129103
 40
2.0
  1
５６
 41
0.625
  7
STANDARD
100
AcDbText
  0
LINE
  5
85F
100
AcDbEntity
  8
M0
100
AcDbLine
 10
186.912283
 20
477.02142
 11
185.430761
 21
477.02142
  0
TEXT
  5
860
100
AcDbEntity
  8
M0
100
AcDbText
 10
171.086684
 20
472.129103
 40
2.0
  1
ＬＡＴＣＨＥＤ
 41
0.625
  7
STANDARD
100
AcDbText
  0
LINE
  5
861
100
AcDbEntity
  8
M0
100
AcDbLine
 10
186.912283
 20
477.02142
 11
186.912283
 21
478.1291
  0
LINE
  5
862
100
AcDbEntity
  8
M0
100
AcDbLine
 10
184.320771
 20
476.356812
 11
183.547705
 21
476.356812
  0
TEXT
  5
863
100
AcDbEntity
  8
M0
100
AcDbText
 10
193.086691
 20
479.129101
 40
2.0
  1
５５
 41
0.625
  7
STANDARD
100
AcDbText
  0
LINE
  5
864
100
AcDbEntity
  8
M0
100
AcDbLine
 10
196.961691
 20
471.429103
 11
199.961691
 21
470.337192
  0
LINE
  5
865
100
AcDbEntity
  8
M0
100
AcDbLine
 10
178.466223
 20
478.1291
 11
175.489333
 21
478.1291
  0
LINE
  5
866
100
AcDbEntity
  8
M0
100
AcDbLine
 10
205.961691
 20
471.929103
 11
199.961691
 21
471.929103
  0
LINE
  5
867
100
AcDbEntity
  8
M0
100
AcDbLine
 10
179.123908
 20
478.1291
 11
177.829307
 21
475.3599
  0
LINE
  5
868
100
AcDbEntity
  8
M0
100
AcDbLine
 10
199.961691
 20
470.337192
 11
199.961691
 21
470.929103
  0
LINE
  5
869
100
AcDbEntity
  8
M0
100
AcDbLine
 10
176.610859
 20
477.658336
 11
176.610859
 21
475.3599
  0
LINE
  5
86A
100
AcDbEntity
  8
M0
100
AcDbLine
 10
199.961691
 20
471.929103
 11
199.961691
 21
472.521014
  0
LINE
  5
86B
100
AcDbEntity
  8
M0
100
AcDbLine
 10
196.961691
 20
471.429103
 11
199.961691
 21
472.521014
  0
LINE
  5
86C
100
AcDbEntity
  8
M0
100
AcDbLine
 10
178.886523
 20
475.955278
 11
180.261282
 21
475.955278
  0
LINE
  5
86D
100
AcDbEntity
  8
M0
100
AcDbLine
 10
180.082451
 20
476.39835
 11
179.573903
 21
477.658336
  0
LINE
  5
86E
100
AcDbEntity
  8
M0
100
AcDbLine
 10
171.695529
 20
478.1291
 11
170.961691
 21
478.1291
  0
LINE
  5
86F
100
AcDbEntity
  8
M0
100
AcDbLine
 10
173.910889
 20
478.1291
 11
173.177051
 21
478.1291
  0
LINE
  5
870
100
AcDbEntity
  8
M0
100
AcDbLine
 10
173.177051
 20
475.3599
 11
173.910889
 21
475.3599
  0
LINE
  5
871
100
AcDbEntity
  8
M0
100
AcDbLine
 10
205.961691
 20
470.929103
 11
205.961691
 21
471.929103
  0
ARC
  5
872
100
AcDbEntity
  8
M0
100
AcDbCircle
 10
213.42465
 20
469.3291
 40
0.5
100
AcDbArc
 50
270.0
 51
360.0
  0
ARC
  5
873
100
AcDbEntity
  8
M0
100
AcDbCircle
 10
213.42465
 20
477.9291
 40
0.5
100
AcDbArc
 50
0.0
 51
90.0
  0
LINE
  5
874
100
AcDbEntity
  8
M0
100
AcDbLine
 10
213.924649
 20
477.929099
 11
213.924649
 21
469.3291
  0
LINE
  5
875
100
AcDbEntity
  8
M0
100
AcDbLine
 10
185.430761
 20
475.3599
 11
185.430761
 21
476.578348
  0
LINE
  5
876
100
AcDbEntity
  8
M0
100
AcDbLine
 10
175.489333
 20
477.658336
 11
176.610859
 21
477.658336
  0
LINE
  5
877
100
AcDbEntity
  8
M0
100
AcDbLine
 10
209.061691
 20
478.4291
 11
213.42465
 21
478.4291
  0
LINE
  5
878
100
AcDbEntity
  8
M0
100
AcDbLine
 10
175.489333
 20
478.1291
 11
175.489333
 21
477.658336
  0
LINE
  5
879
100
AcDbEntity
  8
M0
100
AcDbLine
 10
198.361691
 20
458.4291
 11
206.161692
 21
458.4291
  0
LINE
  5
87A
100
AcDbEntity
  8
M0
100
AcDbLine
 10
183.161691
 20
457.1291
 11
183.161691
 21
455.629101
  0
ARC
  5
87B
100
AcDbEntity
  8
M0
100
AcDbCircle
 10
192.361691
 20
458.0291
 40
0.5
100
AcDbArc
 50
270.0
 51
360.0
  0
LINE
  5
87C
100
AcDbEntity
  8
M0
100
AcDbLine
 10
175.561692
 20
456.629099
 11
175.461692
 21
456.629099
  0
LINE
  5
87D
100
AcDbEntity
  8
M0
100
AcDbLine
 10
183.261692
 20
457.1291
 11
183.161691
 21
457.1291
  0
ARC
  5
87E
100
AcDbEntity
  8
M0
100
AcDbCircle
 10
192.361691
 20
460.9291
 40
0.5
100
AcDbArc
 50
0.0
 51
90.0
  0
LINE
  5
87F
100
AcDbEntity
  8
M0
100
AcDbLine
 10
175.561692
 20
455.629101
 11
175.561692
 21
456.629099
  0
LINE
  5
880
100
AcDbEntity
  8
M0
100
AcDbLine
 10
185.430761
 20
476.578348
 11
186.912283
 21
476.578348
  0
LINE
  5
881
100
AcDbEntity
  8
M0
100
AcDbLine
 10
185.430761
 20
478.1291
 11
184.696923
 21
478.1291
  0
LINE
  5
882
100
AcDbEntity
  8
M0
100
AcDbLine
 10
177.344696
 20
477.658336
 11
177.344696
 21
475.3599
  0
LINE
  5
883
100
AcDbEntity
  8
M0
100
AcDbLine
 10
188.227652
 20
475.3599
 11
188.961491
 21
475.3599
  0
LINE
  5
884
100
AcDbEntity
  8
M0
100
AcDbLine
 10
177.344696
 20
477.658336
 11
178.466223
 21
477.658336
  0
LINE
  5
885
100
AcDbEntity
  8
M0
100
AcDbLine
 10
170.961691
 20
475.3599
 11
171.695529
 21
475.3599
  0
LINE
  5
886
100
AcDbEntity
  8
M0
100
AcDbLine
 10
180.082451
 20
476.39835
 11
179.065354
 21
476.39835
  0
LINE
  5
887
100
AcDbEntity
  8
M0
100
AcDbLine
 10
187.646121
 20
475.3599
 11
187.646121
 21
478.1291
  0
LINE
  5
888
100
AcDbEntity
  8
M0
100
AcDbLine
 10
184.696923
 20
478.1291
 11
184.696923
 21
475.3599
  0
LINE
  5
889
100
AcDbEntity
  8
M0
100
AcDbLine
 10
175.226259
 20
478.1291
 11
175.226259
 21
475.3599
  0
LINE
  5
88A
100
AcDbEntity
  8
M0
100
AcDbLine
 10
178.466223
 20
478.1291
 11
178.466223
 21
477.658336
  0
LINE
  5
88B
100
AcDbEntity
  8
M0
100
AcDbLine
 10
186.912283
 20
475.3599
 11
186.912283
 21
476.578348
  0
LINE
  5
88C
100
AcDbEntity
  8
M0
100
AcDbLine
 10
185.430761
 20
477.02142
 11
185.430761
 21
478.1291
  0
LINE
  5
88D
100
AcDbEntity
  8
M0
100
AcDbLine
 10
179.714971
 20
460.943463
 11
177.947392
 21
459.175763
  0
LINE
  5
88E
100
AcDbEntity
  8
M0
100
AcDbLine
 10
203.675517
 20
463.682794
 11
201.907939
 21
461.915215
  0
LINE
  5
88F
100
AcDbEntity
  8
M0
100
AcDbLine
 10
180.952275
 20
457.938458
 11
177.770635
 21
461.120221
  0
LINE
  5
890
100
AcDbEntity
  8
M0
100
AcDbLine
 10
203.852275
 20
461.738458
 11
200.670634
 21
464.92022
  0
CIRCLE
  5
891
100
AcDbEntity
  8
M0
100
AcDbCircle
 10
202.261691
 20
483.9291
 40
3.0
  0
LINE
  5
892
100
AcDbEntity
  8
M0
100
AcDbLine
 10
180.775517
 20
459.882794
 11
179.007939
 21
458.115216
  0
LINE
  5
893
100
AcDbEntity
  8
M0
100
AcDbLine
 10
202.61497
 20
464.743462
 11
200.847392
 21
462.975762
  0
LINE
  5
894
100
AcDbEntity
  8
M0
100
AcDbLine
 10
202.61497
 20
485.343462
 11
200.847392
 21
483.575762
  0
LINE
  5
895
100
AcDbEntity
  8
M0
100
AcDbLine
 10
203.675517
 20
484.282794
 11
201.907939
 21
482.515215
  0
LINE
  5
896
100
AcDbEntity
  8
M0
100
AcDbLine
 10
168.961691
 20
476.8291
 11
168.961691
 21
473.6291
  0
LINE
  5
897
100
AcDbEntity
  8
M0
100
AcDbLine
 10
180.952275
 20
486.138458
 11
177.770635
 21
489.32022
  0
LINE
  5
898
100
AcDbEntity
  8
M0
100
AcDbLine
 10
180.775517
 20
488.082794
 11
179.007939
 21
486.315215
  0
LINE
  5
899
100
AcDbEntity
  8
M0
100
AcDbLine
 10
203.852275
 20
482.338458
 11
200.670634
 21
485.52022
  0
LINE
  5
89A
100
AcDbEntity
  8
M0
100
AcDbLine
 10
179.714971
 20
489.143462
 11
177.947392
 21
487.375762
  0
ARC
  5
89B
100
AcDbEntity
  8
M0
100
AcDbCircle
 10
182.827713
 20
477.15988
 40
0.706146
100
AcDbArc
 50
2.247463
 51
18.629353
  0
ARC
  5
89C
100
AcDbEntity
  8
M0
100
AcDbCircle
 10
183.397426
 20
477.179602
 40
0.89999
100
AcDbArc
 50
11.57091
 51
66.454309
  0
ARC
  5
89D
100
AcDbEntity
  8
M0
100
AcDbCircle
 10
182.827713
 20
476.827576
 40
1.10768
100
AcDbArc
 50
248.465704
 51
287.487613
  0
ARC
  5
89E
100
AcDbEntity
  8
M0
100
AcDbCircle
 10
182.827713
 20
476.661424
 40
1.10768
100
AcDbArc
 50
72.944058
 51
108.768683
  0
ARC
  5
89F
100
AcDbEntity
  8
M0
100
AcDbCircle
 10
183.722164
 20
476.716807
 40
1.758441
100
AcDbArc
 50
160.088603
 51
196.481482
  0
ARC
  5
8A0
100
AcDbEntity
  8
M0
100
AcDbCircle
 10
182.827713
 20
476.356812
 40
0.719992
100
AcDbArc
 50
334.356275
 51
360.0
  0
ARC
  5
8A1
100
AcDbEntity
  8
M0
100
AcDbCircle
 10
182.659998
 20
476.402552
 40
0.650762
100
AcDbArc
 50
196.481517
 51
248.465722
  0
CIRCLE
  5
8A2
100
AcDbEntity
  8
M0
100
AcDbCircle
 10
202.261691
 20
463.3291
 40
3.0
  0
ARC
  5
8A3
100
AcDbEntity
  8
M0
100
AcDbCircle
 10
182.99828
 20
477.217379
 40
0.526148
100
AcDbArc
 50
18.629246
 51
72.943922
  0
CIRCLE
  5
8A4
100
AcDbEntity
  8
M0
100
AcDbCircle
 10
179.361691
 20
487.7291
 40
3.0
  0
ARC
  5
8A5
100
AcDbEntity
  8
M0
100
AcDbCircle
 10
182.680701
 20
477.094045
 40
0.650762
100
AcDbArc
 50
108.768698
 51
160.088638
  0
ARC
  5
8A6
100
AcDbEntity
  8
M0
100
AcDbCircle
 10
183.419226
 20
476.294059
 40
0.886144
100
AcDbArc
 50
292.42259
 51
346.150643
  0
CIRCLE
  5
8A7
100
AcDbEntity
  8
M0
100
AcDbCircle
 10
179.361691
 20
459.5291
 40
3.0
  0
ARC
  5
8A8
100
AcDbEntity
  8
M0
100
AcDbCircle
 10
182.827713
 20
477.062958
 40
1.481521
100
AcDbArc
 50
4.824937
 51
11.570943
  0
LINE
  5
8A9
100
AcDbEntity
  8
M0
100
AcDbLine
 10
171.695529
 20
476.578348
 11
173.177051
 21
476.578348
  0
LINE
  5
8AA
100
AcDbEntity
  8
M0
100
AcDbLine
 10
180.501585
 20
475.3599
 11
180.261282
 21
475.955278
  0
LINE
  5
8AB
100
AcDbEntity
  8
M0
100
AcDbLine
 10
174.492421
 20
475.3599
 11
175.226259
 21
475.3599
  0
ARC
  5
8AC
100
AcDbEntity
  8
M0
100
AcDbCircle
 10
182.993865
 20
476.716807
 40
1.799979
100
AcDbArc
 50
161.72132
 51
190.751551
  0
ARC
  5
8AD
100
AcDbEntity
  8
M0
100
AcDbCircle
 10
182.467971
 20
476.890514
 40
1.246139
100
AcDbArc
 50
109.456972
 51
161.721309
  0
LINE
  5
8AE
100
AcDbEntity
  8
M0
100
AcDbLine
 10
184.303985
 20
477.187572
 11
183.533315
 21
477.187572
  0
LINE
  5
8AF
100
AcDbEntity
  8
M0
100
AcDbLine
 10
173.177051
 20
478.1291
 11
173.177051
 21
477.02142
  0
LINE
  5
8B0
100
AcDbEntity
  8
M0
100
AcDbLine
 10
180.023897
 20
478.1291
 11
179.123908
 21
478.1291
  0
LINE
  5
8B1
100
AcDbEntity
  8
M0
100
AcDbLine
 10
171.695529
 20
478.1291
 11
171.695529
 21
477.02142
  0
LINE
  5
8B2
100
AcDbEntity
  8
M0
100
AcDbLine
 10
179.065354
 20
476.39835
 11
179.573903
 21
477.658336
  0
LINE
  5
8B3
100
AcDbEntity
  8
M0
100
AcDbLine
 10
173.910889
 20
478.1291
 11
173.910889
 21
475.3599
  0
LINE
  5
8B4
100
AcDbEntity
  8
M0
100
AcDbLine
 10
177.829307
 20
475.3599
 11
178.646221
 21
475.3599
  0
LINE
  5
8B5
100
AcDbEntity
  8
M0
100
AcDbLine
 10
171.695529
 20
476.578348
 11
171.695529
 21
475.3599
  0
LINE
  5
8B6
100
AcDbEntity
  8
M0
100
AcDbLine
 10
184.696923
 20
475.3599
 11
185.430761
 21
475.3599
  0
LINE
  5
8B7
100
AcDbEntity
  8
M0
100
AcDbLine
 10
186.912283
 20
475.3599
 11
187.646121
 21
475.3599
  0
LINE
  5
8B8
100
AcDbEntity
  8
M0
100
AcDbLine
 10
173.177051
 20
476.578348
 11
173.177051
 21
475.3599
  0
TEXT
  5
8B9
100
AcDbEntity
  8
M0
100
AcDbText
 10
199.486685
 20
474.3291
 40
2.0
  1
ＯＦＦ
 41
0.625
  7
STANDARD
100
AcDbText
  0
LINE
  5
8BA
100
AcDbEntity
  8
M0
100
AcDbLine
 10
175.226259
 20
478.1291
 11
174.492421
 21
478.1291
  0
LINE
  5
8BB
100
AcDbEntity
  8
M0
100
AcDbLine
 10
173.177051
 20
477.02142
 11
171.695529
 21
477.02142
  0
TEXT
  5
8BC
100
AcDbEntity
  8
M0
100
AcDbText
 10
177.986685
 20
466.129103
 40
2.0
  1
Ｅ２
 41
0.625
  7
STANDARD
100
AcDbText
  0
LINE
  5
8BD
100
AcDbEntity
  8
M0
100
AcDbLine
 10
188.227652
 20
475.3599
 11
188.227652
 21
478.1291
  0
ARC
  5
8BE
100
AcDbEntity
  8
M0
100
AcDbCircle
 10
183.002464
 20
476.272922
 40
0.526148
100
AcDbArc
 50
287.487588
 51
334.356243
  0
ARC
  5
8BF
100
AcDbEntity
  8
M0
100
AcDbCircle
 10
182.476953
 20
476.618654
 40
1.273831
100
AcDbArc
 50
190.75155
 51
252.447271
  0
ARC
  5
8C0
100
AcDbEntity
  8
M0
100
AcDbCircle
 10
182.827713
 20
476.439888
 40
1.495367
100
AcDbArc
 50
346.150651
 51
356.815254
  0
TEXT
  5
8C1
100
AcDbEntity
  8
M0
100
AcDbText
 10
171.086684
 20
469.629103
 40
2.0
  1
ＣＯＮＴＡＣＴＯＲ
 41
0.625
  7
STANDARD
100
AcDbText
  0
TEXT
  5
8C2
100
AcDbEntity
  8
M0
100
AcDbText
 10
177.986685
 20
479.129101
 40
2.0
  1
Ｅ１
 41
0.625
  7
STANDARD
100
AcDbText
  0
ARC
  5
8C3
100
AcDbEntity
  8
M0
100
AcDbCircle
 10
182.827713
 20
477.727566
 40
2.436895
100
AcDbArc
 50
252.447278
 51
292.42262
  0
LINE
  5
8C4
100
AcDbEntity
  8
M0
100
AcDbLine
 10
209.461692
 20
490.629099
 11
209.461692
 21
480.829099
  0
LINE
  5
8C5
100
AcDbEntity
  8
M0
100
AcDbLine
 10
206.161692
 20
479.829099
 11
206.161692
 21
490.629099
  0
LINE
  5
8C6
100
AcDbEntity
  8
M0
100
AcDbLine
 10
209.461692
 20
480.829099
 11
211.961691
 21
480.829099
  0
LINE
  5
8C7
100
AcDbEntity
  8
M0
100
AcDbLine
 10
198.361691
 20
490.629099
 11
198.361691
 21
479.829099
  0
LINE
  5
8C8
100
AcDbEntity
  8
M0
100
AcDbLine
 10
175.461692
 20
483.629099
 11
183.261692
 21
483.629099
  0
LINE
  5
8C9
100
AcDbEntity
  8
M0
100
AcDbLine
 10
211.961691
 20
478.629099
 11
209.461692
 21
478.629099
  0
LINE
  5
8CA
100
AcDbEntity
  8
M0
100
AcDbLine
 10
198.361691
 20
479.829099
 11
206.161692
 21
479.829099
  0
LINE
  5
8CB
100
AcDbEntity
  8
M0
100
AcDbLine
 10
175.461692
 20
491.6291
 11
175.461692
 21
490.629099
  0
LINE
  5
8CC
100
AcDbEntity
  8
M0
100
AcDbLine
 10
183.261692
 20
490.629099
 11
183.261692
 21
491.6291
  0
LINE
  5
8CD
100
AcDbEntity
  8
M0
100
AcDbLine
 10
190.961691
 20
461.5291
 11
190.961691
 21
461.429099
  0
LINE
  5
8CE
100
AcDbEntity
  8
M0
100
AcDbLine
 10
213.961692
 20
479.829099
 11
213.961692
 21
479.629099
  0
LINE
  5
8CF
100
AcDbEntity
  8
M0
100
AcDbLine
 10
211.961691
 20
480.829099
 11
212.961691
 21
480.829099
  0
LINE
  5
8D0
100
AcDbEntity
  8
M0
100
AcDbLine
 10
192.861691
 20
461.5291
 11
192.861691
 21
461.429099
  0
LINE
  5
8D1
100
AcDbEntity
  8
M0
100
AcDbLine
 10
212.961691
 20
478.629099
 11
211.961691
 21
478.629099
  0
ARC
  5
8D2
100
AcDbEntity
  8
M0
100
AcDbCircle
 10
187.761691
 20
460.9291
 40
0.5
100
AcDbArc
 50
90.0
 51
180.0
  0
ARC
  5
8D3
100
AcDbEntity
  8
M0
100
AcDbCircle
 10
212.961691
 20
479.6291
 40
1.0
100
AcDbArc
 50
270.0
 51
360.0
  0
LINE
  5
8D4
100
AcDbEntity
  8
M0
100
AcDbLine
 10
206.011691
 20
487.1791
 11
206.011691
 21
480.6791
  0
ARC
  5
8D5
100
AcDbEntity
  8
M0
100
AcDbCircle
 10
208.461691
 20
490.6291
 40
1.0
100
AcDbArc
 50
0.0
 51
90.0
  0
ARC
  5
8D6
100
AcDbEntity
  8
M0
100
AcDbCircle
 10
209.461691
 20
478.1291
 40
0.5
100
AcDbArc
 50
90.0
 51
180.0
  0
ARC
  5
8D7
100
AcDbEntity
  8
M0
100
AcDbCircle
 10
187.761691
 20
458.0291
 40
0.5
100
AcDbArc
 50
180.0
 51
270.0
  0
ARC
  5
8D8
100
AcDbEntity
  8
M0
100
AcDbCircle
 10
212.961691
 20
479.8291
 40
1.0
100
AcDbArc
 50
0.0
 51
90.0
  0
LINE
  5
8D9
100
AcDbEntity
  8
M0
100
AcDbLine
 10
166.961691
 20
491.6291
 11
212.961691
 21
491.6291
  0
LINE
  5
8DA
100
AcDbEntity
  8
M0
100
AcDbLine
 10
166.961691
 20
476.8291
 11
166.461692
 21
476.8291
  0
LINE
  5
8DB
100
AcDbEntity
  8
M0
100
AcDbLine
 10
183.261692
 20
483.629099
 11
183.261692
 21
490.629099
  0
LINE
  5
8DC
100
AcDbEntity
  8
M0
100
AcDbLine
 10
199.011691
 20
487.6791
 11
205.511691
 21
487.6791
  0
LINE
  5
8DD
100
AcDbEntity
  8
M0
100
AcDbLine
 10
205.511691
 20
480.179099
 11
199.011691
 21
480.179099
  0
LINE
  5
8DE
100
AcDbEntity
  8
M0
100
AcDbLine
 10
175.461692
 20
490.629099
 11
175.461692
 21
483.629099
  0
LINE
  5
8DF
100
AcDbEntity
  8
M0
100
AcDbLine
 10
213.961692
 20
473.6291
 11
213.924649
 21
473.6291
  0
LINE
  5
8E0
100
AcDbEntity
  8
M0
100
AcDbLine
 10
176.111691
 20
491.4791
 11
182.611691
 21
491.4791
  0
ARC
  5
8E1
100
AcDbEntity
  8
M0
100
AcDbCircle
 10
199.011691
 20
460.0791
 40
0.5
100
AcDbArc
 50
180.0
 51
270.0
  0
LINE
  5
8E2
100
AcDbEntity
  8
M0
100
AcDbLine
 10
182.611691
 20
455.7791
 11
176.111692
 21
455.7791
  0
ARC
  5
8E3
100
AcDbEntity
  8
M0
100
AcDbCircle
 10
182.611691
 20
462.7791
 40
0.5
100
AcDbArc
 50
0.0
 51
90.0
  0
ARC
  5
8E4
100
AcDbEntity
  8
M0
100
AcDbCircle
 10
182.611691
 20
456.2791
 40
0.5
100
AcDbArc
 50
270.0
 51
360.0
  0
LINE
  5
8E5
100
AcDbEntity
  8
M0
100
AcDbLine
 10
175.611692
 20
456.2791
 11
175.611692
 21
462.779099
  0
ARC
  5
8E6
100
AcDbEntity
  8
M0
100
AcDbCircle
 10
199.011691
 20
466.5791
 40
0.5
100
AcDbArc
 50
90.0
 51
180.0
  0
LINE
  5
8E7
100
AcDbEntity
  8
M0
100
AcDbLine
 10
175.611692
 20
484.4791
 11
175.611692
 21
490.9791
  0
ARC
  5
8E8
100
AcDbEntity
  8
M0
100
AcDbCircle
 10
176.111691
 20
490.9791
 40
0.5
100
AcDbArc
 50
90.0
 51
180.0
  0
LINE
  5
8E9
100
AcDbEntity
  8
M0
100
AcDbLine
 10
183.111691
 20
490.9791
 11
183.111691
 21
484.4791
  0
LINE
  5
8EA
100
AcDbEntity
  8
M0
100
AcDbLine
 10
176.111691
 20
463.2791
 11
182.611691
 21
463.2791
  0
LINE
  5
8EB
100
AcDbEntity
  8
M0
100
AcDbLine
 10
183.111691
 20
462.7791
 11
183.111691
 21
456.279101
  0
LINE
  5
8EC
100
AcDbEntity
  8
M0
100
AcDbLine
 10
182.611691
 20
483.979099
 11
176.111692
 21
483.979099
  0
ARC
  5
8ED
100
AcDbEntity
  8
M0
100
AcDbCircle
 10
176.111691
 20
484.4791
 40
0.5
100
AcDbArc
 50
180.0
 51
270.0
  0
ARC
  5
8EE
100
AcDbEntity
  8
M0
100
AcDbCircle
 10
199.011691
 20
487.1791
 40
0.5
100
AcDbArc
 50
90.0
 51
180.0
  0
ARC
  5
8EF
100
AcDbEntity
  8
M0
100
AcDbCircle
 10
199.011691
 20
480.6791
 40
0.5
100
AcDbArc
 50
180.0
 51
270.0
  0
LINE
  5
8F0
100
AcDbEntity
  8
M0
100
AcDbLine
 10
205.511691
 20
459.579101
 11
199.011692
 21
459.579101
  0
ARC
  5
8F1
100
AcDbEntity
  8
M0
100
AcDbCircle
 10
205.511691
 20
460.0791
 40
0.5
100
AcDbArc
 50
270.0
 51
360.0
  0
LINE
  5
8F2
100
AcDbEntity
  8
M0
100
AcDbLine
 10
192.861691
 20
461.429099
 11
192.861691
 21
459.629098
  0
LINE
  5
8F3
100
AcDbEntity
  8
M0
100
AcDbLine
 10
198.511692
 20
460.079098
 11
198.511692
 21
466.5791
  0
ARC
  5
8F4
100
AcDbEntity
  8
M0
100
AcDbCircle
 10
205.511691
 20
466.5791
 40
0.5
100
AcDbArc
 50
0.0
 51
90.0
  0
ARC
  5
8F5
100
AcDbEntity
  8
M0
100
AcDbCircle
 10
182.611691
 20
484.4791
 40
0.5
100
AcDbArc
 50
270.0
 51
360.0
  0
ARC
  5
8F6
100
AcDbEntity
  8
M0
100
AcDbCircle
 10
182.611691
 20
490.9791
 40
0.5
100
AcDbArc
 50
0.0
 51
90.0
  0
ARC
  5
8F7
100
AcDbEntity
  8
M0
100
AcDbCircle
 10
176.111691
 20
462.7791
 40
0.5
100
AcDbArc
 50
90.0
 51
180.0
  0
LINE
  5
8F8
100
AcDbEntity
  8
M0
100
AcDbLine
 10
206.011691
 20
466.5791
 11
206.011691
 21
460.079098
  0
LINE
  5
8F9
100
AcDbEntity
  8
M0
100
AcDbLine
 10
199.011691
 20
467.079099
 11
205.511691
 21
467.079099
  0
ARC
  5
8FA
100
AcDbEntity
  8
M0
100
AcDbCircle
 10
176.111691
 20
456.2791
 40
0.5
100
AcDbArc
 50
180.0
 51
270.0
  0
LINE
  5
8FB
100
AcDbEntity
  8
M0
100
AcDbLine
 10
206.161692
 20
488.8291
 11
198.361691
 21
488.8291
  0
LINE
  5
8FC
100
AcDbEntity
  8
M0
100
AcDbLine
 10
192.861691
 20
458.029101
 11
192.861691
 21
458.529098
  0
LINE
  5
8FD
100
AcDbEntity
  8
M0
100
AcDbLine
 10
165.961691
 20
456.629099
 11
165.961691
 21
463.129099
  0
LINE
  5
8FE
100
AcDbEntity
  8
M0
100
AcDbLine
 10
187.761691
 20
461.429099
 11
192.361691
 21
461.429099
  0
LINE
  5
8FF
100
AcDbEntity
  8
M0
100
AcDbLine
 10
192.361691
 20
457.5291
 11
187.761691
 21
457.5291
  0
LINE
  5
900
100
AcDbEntity
  8
M0
100
AcDbLine
 10
193.161691
 20
461.329099
 11
193.161691
 21
459.629098
  0
LINE
  5
901
100
AcDbEntity
  8
M0
100
AcDbLine
 10
192.861691
 20
460.9291
 11
192.861691
 21
458.529098
  0
LINE
  5
902
100
AcDbEntity
  8
M0
100
AcDbLine
 10
166.461692
 20
470.4291
 11
166.961691
 21
470.4291
  0
LINE
  5
903
100
AcDbEntity
  8
M0
100
AcDbLine
 10
213.961692
 20
490.6291
 11
213.961692
 21
456.629099
  0
LINE
  5
904
100
AcDbEntity
  8
M0
100
AcDbLine
 10
166.961691
 20
470.4291
 11
166.961691
 21
476.8291
  0
LINE
  5
905
100
AcDbEntity
  8
M0
100
AcDbLine
 10
193.161691
 20
457.1291
 11
187.261691
 21
457.1291
  0
LINE
  5
906
100
AcDbEntity
  8
M0
100
AcDbLine
 10
169.461691
 20
455.629101
 11
166.961691
 21
455.629101
  0
LINE
  5
907
100
AcDbEntity
  8
M0
100
AcDbLine
 10
165.961691
 20
456.629099
 11
165.961691
 21
490.6291
  0
LINE
  5
908
100
AcDbEntity
  8
M0
100
AcDbLine
 10
213.924649
 20
473.6291
 11
213.961692
 21
473.6291
  0
ARC
  5
909
100
AcDbEntity
  8
M0
100
AcDbCircle
 10
174.461691
 20
456.6291
 40
1.0
100
AcDbArc
 50
270.0
 51
360.0
  0
ARC
  5
90A
100
AcDbEntity
  8
M0
100
AcDbCircle
 10
166.961691
 20
456.6291
 40
1.0
100
AcDbArc
 50
180.0
 51
270.0
  0
ARC
  5
90B
100
AcDbEntity
  8
M0
100
AcDbCircle
 10
186.261691
 20
456.6291
 40
1.0
100
AcDbArc
 50
270.0
 51
360.0
  0
ARC
  5
90C
100
AcDbEntity
  8
M0
100
AcDbCircle
 10
212.961691
 20
456.6291
 40
1.0
100
AcDbArc
 50
270.0
 51
360.0
  0
ARC
  5
90D
100
AcDbEntity
  8
M0
100
AcDbCircle
 10
182.827713
 20
475.872202
 40
2.326127
100
AcDbArc
 50
66.454301
 51
109.456969
  0
ARC
  5
90E
100
AcDbEntity
  8
M0
100
AcDbCircle
 10
184.261691
 20
456.6291
 40
1.0
100
AcDbArc
 50
180.0
 51
270.0
  0
ARC
  5
90F
100
AcDbEntity
  8
M0
100
AcDbCircle
 10
166.461691
 20
469.9291
 40
0.5
100
AcDbArc
 50
90.0
 51
180.0
  0
ARC
  5
910
100
AcDbEntity
  8
M0
100
AcDbCircle
 10
209.461691
 20
469.1291
 40
0.5
100
AcDbArc
 50
180.0
 51
270.0
  0
ARC
  5
911
100
AcDbEntity
  8
M0
100
AcDbCircle
 10
208.461691
 20
456.6291
 40
1.0
100
AcDbArc
 50
270.0
 51
360.0
  0
ARC
  5
912
100
AcDbEntity
  8
M0
100
AcDbCircle
 10
212.961691
 20
467.6291
 40
1.0
100
AcDbArc
 50
0.0
 51
90.0
  0
ARC
  5
913
100
AcDbEntity
  8
M0
100
AcDbCircle
 10
197.361691
 20
456.6291
 40
1.0
100
AcDbArc
 50
270.0
 51
360.0
  0
ARC
  5
914
100
AcDbEntity
  8
M0
100
AcDbCircle
 10
194.161691
 20
456.6291
 40
1.0
100
AcDbArc
 50
180.0
 51
270.0
  0
ARC
  5
915
100
AcDbEntity
  8
M0
100
AcDbCircle
 10
212.961691
 20
467.4291
 40
1.0
100
AcDbArc
 50
270.0
 51
360.0
  0
ARC
  5
916
100
AcDbEntity
  8
M0
100
AcDbCircle
 10
207.161691
 20
456.6291
 40
1.0
100
AcDbArc
 50
180.0
 51
270.0
  0
ARC
  5
917
100
AcDbEntity
  8
M0
100
AcDbCircle
 10
205.511691
 20
480.6791
 40
0.5
100
AcDbArc
 50
270.0
 51
360.0
  0
LINE
  5
918
100
AcDbEntity
  8
M0
100
AcDbLine
 10
213.42465
 20
468.829099
 11
209.061691
 21
468.829099
  0
ARC
  5
919
100
AcDbEntity
  8
M0
100
AcDbCircle
 10
212.961691
 20
490.6291
 40
1.0
100
AcDbArc
 50
0.0
 51
90.0
  0
LINE
  5
91A
100
AcDbEntity
  8
M0
100
AcDbLine
 10
211.961691
 20
466.429099
 11
212.961691
 21
466.429099
  0
LINE
  5
91B
100
AcDbEntity
  8
M0
100
AcDbLine
 10
213.961692
 20
467.629099
 11
213.961692
 21
467.4291
  0
ARC
  5
91C
100
AcDbEntity
  8
M0
100
AcDbCircle
 10
205.511691
 20
487.1791
 40
0.5
100
AcDbArc
 50
0.0
 51
90.0
  0
LINE
  5
91D
100
AcDbEntity
  8
M0
100
AcDbLine
 10
211.961691
 20
468.629099
 11
212.961691
 21
468.629099
  0
ARC
  5
91E
100
AcDbEntity
  8
M0
100
AcDbCircle
 10
197.361691
 20
490.6291
 40
1.0
100
AcDbArc
 50
0.0
 51
90.0
  0
ARC
  5
91F
100
AcDbEntity
  8
M0
100
AcDbCircle
 10
184.261691
 20
490.6291
 40
1.0
100
AcDbArc
 50
90.0
 51
180.0
  0
LINE
  5
920
100
AcDbEntity
  8
M0
100
AcDbLine
 10
198.511692
 20
480.679099
 11
198.511692
 21
487.1791
  0
ARC
  5
921
100
AcDbEntity
  8
M0
100
AcDbCircle
 10
166.961691
 20
490.6291
 40
1.0
100
AcDbArc
 50
90.0
 51
180.0
  0
ARC
  5
922
100
AcDbEntity
  8
M0
100
AcDbCircle
 10
166.461691
 20
477.3291
 40
0.5
100
AcDbArc
 50
180.0
 51
270.0
  0
ARC
  5
923
100
AcDbEntity
  8
M0
100
AcDbCircle
 10
207.161691
 20
490.6291
 40
1.0
100
AcDbArc
 50
90.0
 51
180.0
  0
ARC
  5
924
100
AcDbEntity
  8
M0
100
AcDbCircle
 10
174.461691
 20
490.6291
 40
1.0
100
AcDbArc
 50
0.0
 51
90.0
  0
LINE
  5
925
100
AcDbEntity
  8
M0
100
AcDbLine
 10
187.261691
 20
461.5291
 11
187.261691
 21
456.629099
  0
LINE
  5
926
100
AcDbEntity
  8
M0
100
AcDbLine
 10
183.261692
 20
456.629099
 11
183.261692
 21
463.629099
  0
LINE
  5
927
100
AcDbEntity
  8
M0
100
AcDbLine
 10
193.161691
 20
456.629099
 11
193.161691
 21
461.5291
  0
LINE
  5
928
100
AcDbEntity
  8
M0
100
AcDbLine
 10
175.461692
 20
463.629099
 11
175.461692
 21
456.629099
  0
LINE
  5
929
100
AcDbEntity
  8
M0
100
AcDbLine
 10
212.961691
 20
455.629101
 11
166.961691
 21
455.629101
  0
LINE
  5
92A
100
AcDbEntity
  8
M0
100
AcDbLine
 10
193.161691
 20
461.5291
 11
187.261691
 21
461.5291
  0
LINE
  5
92B
100
AcDbEntity
  8
M0
100
AcDbLine
 10
183.261692
 20
463.629099
 11
175.461692
 21
463.629099
  0
LINE
  5
92C
100
AcDbEntity
  8
M0
100
AcDbLine
 10
209.461692
 20
466.429099
 11
209.461692
 21
456.629099
  0
LINE
  5
92D
100
AcDbEntity
  8
M0
100
AcDbLine
 10
208.961691
 20
478.1291
 11
208.961691
 21
469.129099
  0
LINE
  5
92E
100
AcDbEntity
  8
M0
100
AcDbLine
 10
211.961691
 20
466.429099
 11
209.461692
 21
466.429099
  0
LINE
  5
92F
100
AcDbEntity
  8
M0
100
AcDbLine
 10
206.161692
 20
467.4291
 11
198.361691
 21
467.4291
  0
LINE
  5
930
100
AcDbEntity
  8
M0
100
AcDbLine
 10
198.361691
 20
467.4291
 11
198.361691
 21
456.629099
  0
LINE
  5
931
100
AcDbEntity
  8
M0
100
AcDbLine
 10
209.461692
 20
468.629099
 11
211.961691
 21
468.629099
  0
LINE
  5
932
100
AcDbEntity
  8
M0
100
AcDbLine
 10
206.161692
 20
456.629099
 11
206.161692
 21
467.4291
  0
LINE
  5
933
100
AcDbEntity
  8
M0
100
AcDbLine
 10
169.461691
 20
482.1291
 11
196.461691
 21
482.1291
  0
LINE
  5
934
100
AcDbEntity
  8
M0
100
AcDbLine
 10
168.961691
 20
481.6291
 11
168.961691
 21
465.6291
  0
LINE
  5
935
100
AcDbEntity
  8
M0
100
AcDbLine
 10
169.461691
 20
465.1291
 11
196.461691
 21
465.1291
  0
LINE
  5
936
100
AcDbEntity
  8
M0
100
AcDbLine
 10
206.961691
 20
469.6291
 11
206.961691
 21
477.6291
  0
LINE
  5
937
100
AcDbEntity
  8
M0
100
AcDbLine
 10
206.461691
 20
469.1291
 11
197.461691
 21
469.1291
  0
LINE
  5
938
100
AcDbEntity
  8
M0
100
AcDbLine
 10
206.461691
 20
478.1291
 11
197.461691
 21
478.1291
  0
LINE
  5
939
100
AcDbEntity
  8
M0
100
AcDbLine
 10
196.961691
 20
465.6291
 11
196.961691
 21
468.6291
  0
LINE
  5
93A
100
AcDbEntity
  8
M0
100
AcDbLine
 10
196.961691
 20
478.6291
 11
196.961691
 21
481.6291
  0
ARC
  5
93B
100
AcDbEntity
  8
M0
100
AcDbCircle
 10
169.461691
 20
481.6291
 40
0.5
100
AcDbArc
 50
90.0
 51
180.0
  0
ARC
  5
93C
100
AcDbEntity
  8
M0
100
AcDbCircle
 10
196.461691
 20
481.6291
 40
0.5
100
AcDbArc
 50
0.0
 51
90.0
  0
ARC
  5
93D
100
AcDbEntity
  8
M0
100
AcDbCircle
 10
197.461691
 20
478.6291
 40
0.5
100
AcDbArc
 50
180.0
 51
270.0
  0
ARC
  5
93E
100
AcDbEntity
  8
M0
100
AcDbCircle
 10
206.461691
 20
477.6291
 40
0.5
100
AcDbArc
 50
0.0
 51
90.0
  0
ARC
  5
93F
100
AcDbEntity
  8
M0
100
AcDbCircle
 10
206.461691
 20
469.6291
 40
0.5
100
AcDbArc
 50
270.0
 51
360.0
  0
ARC
  5
940
100
AcDbEntity
  8
M0
100
AcDbCircle
 10
197.461691
 20
468.6291
 40
0.5
100
AcDbArc
 50
90.0
 51
180.0
  0
ARC
  5
941
100
AcDbEntity
  8
M0
100
AcDbCircle
 10
196.461691
 20
465.6291
 40
0.5
100
AcDbArc
 50
270.0
 51
360.0
  0
ARC
  5
942
100
AcDbEntity
  8
M0
100
AcDbCircle
 10
169.461691
 20
465.6291
 40
0.5
100
AcDbArc
 50
180.0
 51
270.0
  0
HATCH
  5
943
100
AcDbEntity
  8
M0
 62
     7
100
AcDbHatch
 10
0.0
 20
0.0
210
0.0
220
0.0
230
1.0
  2
SOLID
 70
     1
 71
     0
 91
        1
 92
        1
 93
        8
 72
     1
 10
177.344696
 20
475.3599
 11
177.344696
 21
477.658336
 72
     1
 10
177.344696
 20
477.658336
 11
178.466223
 21
477.658336
 72
     1
 10
178.466223
 20
477.658336
 11
178.466223
 21
478.1291
 72
     1
 10
178.466223
 20
478.1291
 11
175.489333
 21
478.1291
 72
     1
 10
175.489333
 20
478.1291
 11
175.489333
 21
477.658336
 72
     1
 10
175.489333
 20
477.658336
 11
176.610859
 21
477.658336
 72
     1
 10
176.610859
 20
477.658336
 11
176.610859
 21
475.3599
 72
     1
 10
176.610859
 20
475.3599
 11
177.344696
 21
475.3599
 97
        0
 75
     0
 76
     1
 98
        1
 10
0.0
 20
0.0
  0
CIRCLE
  5
944
100
AcDbEntity
  8
M0
  6
DIVIDE
 62
     7
100
AcDbCircle
 10
67.561694
 20
311.814549
 40
1.7
  0
CIRCLE
  5
945
100
AcDbEntity
  8
M0
  6
DIVIDE
 62
     7
100
AcDbCircle
 10
138.561694
 20
246.814549
 40
1.7
  0
CIRCLE
  5
946
100
AcDbEntity
  8
M0
  6
DIVIDE
 62
     7
100
AcDbCircle
 10
67.561694
 20
311.814549
 40
2.0
  0
CIRCLE
  5
947
100
AcDbEntity
  8
M0
  6
DIVIDE
 62
     7
100
AcDbCircle
 10
138.561694
 20
246.814549
 40
2.0
  0
CIRCLE
  5
948
100
AcDbEntity
  8
M0
  6
DIVIDE
 62
     7
100
AcDbCircle
 10
225.461691
 20
246.814549
 40
2.0
  0
CIRCLE
  5
949
100
AcDbEntity
  8
M0
  6
DIVIDE
 62
     7
100
AcDbCircle
 10
225.461691
 20
246.814549
 40
1.7
  0
CIRCLE
  5
94A
100
AcDbEntity
  8
M0
  6
DIVIDE
 62
     7
100
AcDbCircle
 10
154.461691
 20
311.814549
 40
2.0
  0
CIRCLE
  5
94B
100
AcDbEntity
  8
M0
  6
DIVIDE
 62
     7
100
AcDbCircle
 10
154.461691
 20
311.814549
 40
1.7
  0
LINE
  5
94C
100
AcDbEntity
  8
M0
  6
DIVIDE
 62
     7
100
AcDbLine
 10
142.011694
 20
253.91455
 11
151.011691
 21
253.91455
  0
LINE
  5
94D
100
AcDbEntity
  8
M0
  6
DASHDOT
 62
     7
100
AcDbLine
 10
71.659098
 20
311.814549
 11
63.464289
 21
311.814549
  0
LINE
  5
94E
100
AcDbEntity
  8
M0
  6
DASHDOT
 62
     7
100
AcDbLine
 10
158.559096
 20
311.814549
 11
150.364287
 21
311.814549
  0
LINE
  5
94F
100
AcDbEntity
  8
M0
  6
DASHDOT
 62
     7
100
AcDbLine
 10
67.561686
 20
315.911946
 11
67.561701
 21
307.717137
  0
LINE
  5
950
100
AcDbEntity
  8
M0
  6
DASHDOT
 62
     7
100
AcDbLine
 10
142.659098
 20
246.814549
 11
134.464289
 21
246.814549
  0
LINE
  5
951
100
AcDbEntity
  8
M0
  6
DASHDOT
 62
     7
100
AcDbLine
 10
229.559096
 20
246.814549
 11
221.364287
 21
246.814549
  0
LINE
  5
952
100
AcDbEntity
  8
M0
  6
DIVIDE
 62
     7
100
AcDbLine
 10
142.011694
 20
304.71455
 11
151.011691
 21
304.71455
  0
LINE
  5
953
100
AcDbEntity
  8
M0
  6
DASHDOT
 62
     7
100
AcDbLine
 10
154.461684
 20
315.911946
 11
154.461699
 21
307.717137
  0
LINE
  5
954
100
AcDbEntity
  8
M0
  6
DASHDOT
 62
     7
100
AcDbLine
 10
225.461684
 20
250.911946
 11
225.461699
 21
242.717137
  0
LINE
  5
955
100
AcDbEntity
  8
M0
  6
DASHDOT
 62
     7
100
AcDbLine
 10
138.561686
 20
250.911946
 11
138.561701
 21
242.717137
  0
LINE
  5
956
100
AcDbEntity
  8
M0
  6
DIVIDE
 62
     7
100
AcDbLine
 10
167.511691
 20
321.814549
 11
151.011691
 21
321.814549
  0
LINE
  5
957
100
AcDbEntity
  8
M0
  6
DIVIDE
 62
     7
100
AcDbLine
 10
151.011691
 20
321.814549
 11
151.011691
 21
304.71455
  0
LINE
  5
958
100
AcDbEntity
  8
M0
  6
DIVIDE
 62
     7
100
AcDbLine
 10
167.511691
 20
321.814549
 11
167.511691
 21
325.81455
  0
LINE
  5
959
100
AcDbEntity
  8
M0
  6
DIVIDE
 62
     7
100
AcDbLine
 10
212.411692
 20
321.814549
 11
212.411691
 21
325.81455
  0
LINE
  5
95A
100
AcDbEntity
  8
M0
  6
DIVIDE
 62
     7
100
AcDbLine
 10
212.411692
 20
321.814549
 11
228.911691
 21
321.814549
  0
LINE
  5
95B
100
AcDbEntity
  8
M0
  6
DIVIDE
 62
     7
100
AcDbLine
 10
167.511691
 20
325.81455
 11
212.411691
 21
325.81455
  0
LINE
  5
95C
100
AcDbEntity
  8
M0
  6
DIVIDE
 62
     7
100
AcDbLine
 10
228.911691
 20
236.814549
 11
228.911691
 21
321.814549
  0
LINE
  5
95D
100
AcDbEntity
  8
M0
  6
DIVIDE
 62
     7
100
AcDbLine
 10
228.911691
 20
236.814549
 11
151.011691
 21
236.81455
  0
LINE
  5
95E
100
AcDbEntity
  8
M0
  6
DIVIDE
 62
     7
100
AcDbLine
 10
151.011691
 20
253.91455
 11
151.011691
 21
236.814549
  0
LINE
  5
95F
100
AcDbEntity
  8
M0
  6
DIVIDE
 62
     7
100
AcDbLine
 10
80.611694
 20
321.814549
 11
64.111694
 21
321.814549
  0
LINE
  5
960
100
AcDbEntity
  8
M0
  6
DIVIDE
 62
     7
100
AcDbLine
 10
64.111694
 20
321.814549
 11
64.111694
 21
236.814549
  0
LINE
  5
961
100
AcDbEntity
  8
M0
  6
DIVIDE
 62
     7
100
AcDbLine
 10
80.611694
 20
321.814549
 11
80.611694
 21
325.81455
  0
LINE
  5
962
100
AcDbEntity
  8
M0
  6
DIVIDE
 62
     7
100
AcDbLine
 10
125.511694
 20
321.814549
 11
125.511694
 21
325.81455
  0
LINE
  5
963
100
AcDbEntity
  8
M0
  6
DIVIDE
 62
     7
100
AcDbLine
 10
125.511694
 20
321.814549
 11
142.011694
 21
321.814549
  0
LINE
  5
964
100
AcDbEntity
  8
M0
  6
DIVIDE
 62
     7
100
AcDbLine
 10
80.611694
 20
325.81455
 11
125.511694
 21
325.81455
  0
LINE
  5
965
100
AcDbEntity
  8
M0
  6
DIVIDE
 62
     7
100
AcDbLine
 10
142.011694
 20
236.814549
 11
142.011694
 21
253.91455
  0
LINE
  5
966
100
AcDbEntity
  8
M0
  6
DIVIDE
 62
     7
100
AcDbLine
 10
142.011694
 20
236.814549
 11
64.111694
 21
236.81455
  0
LINE
  5
967
100
AcDbEntity
  8
M0
  6
DIVIDE
 62
     7
100
AcDbLine
 10
142.011694
 20
304.71455
 11
142.011694
 21
321.814549
  0
LINE
  5
968
100
AcDbEntity
  8
M1
 62
     2
100
AcDbLine
 10
22.222223
 20
22.222223
 11
22.222223
 21
633.33335
  0
LINE
  5
969
100
AcDbEntity
  8
M1
 62
     2
100
AcDbLine
 10
22.222223
 20
633.33335
 11
444.444456
 21
633.33335
  0
LINE
  5
96A
100
AcDbEntity
  8
M1
 62
     2
100
AcDbLine
 10
444.444456
 20
633.33335
 11
444.444456
 21
22.222223
  0
LINE
  5
96B
100
AcDbEntity
  8
M1
 62
     2
100
AcDbLine
 10
444.444456
 20
22.222223
 11
22.222223
 21
22.222223
  0
LINE
  5
96C
100
AcDbEntity
  8
M1
 62
     2
100
AcDbLine
 10
444.444456
 20
44.444446
 11
222.222228
 21
44.444446
  0
LINE
  5
96D
100
AcDbEntity
  8
M1
 62
     2
100
AcDbLine
 10
444.444456
 20
66.666668
 11
222.222228
 21
66.666668
  0
LINE
  5
96E
100
AcDbEntity
  8
M1
 62
     2
100
AcDbLine
 10
444.444456
 20
88.888891
 11
222.222228
 21
88.888891
  0
LINE
  5
96F
100
AcDbEntity
  8
M1
 62
     2
100
AcDbLine
 10
222.222228
 20
22.222223
 11
222.222228
 21
88.888891
  0
TEXT
  5
970
100
AcDbEntity
  8
M1
 62
     2
100
AcDbText
 10
227.777784
 20
27.777779
 40
11.111112
  1
適　用；
  7
STANDARD
100
AcDbText
  0
TEXT
  5
971
100
AcDbEntity
  8
M1
 62
     2
100
AcDbText
 10
227.777784
 20
72.222224
 40
11.111112
  1
登録名：
  7
STANDARD
100
AcDbText
  0
TEXT
  5
972
100
AcDbEntity
  8
M1
 62
     2
100
AcDbText
 10
281.111119
 20
72.222224
 40
11.111112
  1
ＤＭＨＳ５０ＲＬＲ００
 41
0.5
  7
STANDARD
100
AcDbText
  0
TEXT
  5
973
100
AcDbEntity
  8
M1
 62
     2
100
AcDbText
 10
227.777784
 20
50.000001
 40
11.111112
  1
形　式；
  7
STANDARD
100
AcDbText
  0
TEXT
  5
974
100
AcDbEntity
  8
M1
 62
     2
100
AcDbText
 10
281.111119
 20
50.000001
 40
11.111112
  1
ＨＳ５０－ＲＬ
 41
0.5
  7
STANDARD
100
AcDbText
  0
LINE
  5
975
100
AcDbEntity
  8
DN0
100
AcDbLine
 10
126.784132
 20
204.459051
 11
162.850801
 21
204.459051
  0
TEXT
  5
976
100
AcDbEntity
  8
DN0
100
AcDbText
 10
127.780429
 20
205.34794
 40
8.888889
  1
せん孔図
 41
0.833333
  7
STANDARD
100
AcDbText
  0
ENDSEC
  0
SECTION
  2
OBJECTS
  0
DICTIONARY
  5
C
100
AcDbDictionary
  3
ACAD_GROUP
350
D
  3
ACAD_MLINESTYLE
350
E
  3
ACDBVARIABLEDICTIONARY
350
758
  0
DICTIONARY
  5
D
102
{ACAD_REACTORS
330
C
102
}
100
AcDbDictionary
  0
DICTIONARY
  5
E
102
{ACAD_REACTORS
330
C
102
}
100
AcDbDictionary
  3
STANDARD
350
13
  0
DICTIONARY
  5
758
102
{ACAD_REACTORS
330
C
102
}
100
AcDbDictionary
  3
SORTENTS
350
759
  0
MLINESTYLE
  5
13
102
{ACAD_REACTORS
330
E
102
}
100
AcDbMlineStyle
  2
STANDARD
 70
     0
  3

 62
     0
 51
90.0
 52
90.0
 71
     2
 49
0.5
 62
   256
  6
BYLAYER
 49
-0.5
 62
   256
  6
BYLAYER
  0
DICTIONARYVAR
  5
759
102
{ACAD_REACTORS
330
758
102
}
100
DictionaryVariables
280
     0
  1
96
  0
ENDSEC
  0
EOF
