  0
SECTION
  2
HEADER
  9
$ACADVER
  1
AC1014
  9
$INSBASE
 10
0.000000
 20
0.000000
 30
0.0
  9
$VIEWCTR
 10
7.531722
 20
4.5
  9
$VIEWSIZE
 40
9.0
  9
$SNAPMODE
 70
     0
  9
$SNAPUNIT
 10
1.0
 20
1.0
  9
$SNAPBASE
 10
0.0
 20
0.0
  9
$SNAPANG
 50
0.0
  9
$SNAPSTYLE
 70
     0
  9
$SNAPISOPAIR
 70
     0
  9
$GRIDMODE
 70
     0
  9
$GRIDUNIT
 10
0.0
 20
0.0
  9
$ORTHOMODE
 70
     0
  9
$REGENMODE
 70
     1
  9
$FILLMODE
 70
     1
  9
$QTEXTMODE
 70
     0
  9
$DRAGMODE
 70
     2
  9
$LTSCALE
  40
     1.000000
  9
$OSMODE
 70
     0
  9
$ATTMODE
 70
     1
  9
$TEXTSIZE
 40
0.2
  9
$TRACEWID
 40
0.05
  9
$TEXTSTYLE
  7
STANDARD
  9
$CELTYPE
  6
BYLAYER
  9
$CECOLOR
 62
   256
  9
$DIMSCALE
 40
1.0
  9
$DIMASZ
 40
0.18
  9
$DIMEXO
 40
0.0625
  9
$DIMDLI
 40
0.38
  9
$DIMRND
 40
0.0
  9
$DIMDLE
 40
0.0
  9
$DIMEXE
 40
0.18
  9
$DIMTP
 40
0.0
  9
$DIMTM
 40
0.0
  9
$DIMTXT
 40
0.18
  9
$DIMCEN
 40
0.09
  9
$DIMTSZ
 40
0.0
  9
$DIMTOL
 70
     0
  9
$DIMLIM
 70
     0
  9
$DIMTIH
 70
     1
  9
$DIMTOH
 70
     1
  9
$DIMSE1
 70
     0
  9
$DIMSE2
 70
     0
  9
$DIMTAD
 70
     0
  9
$DIMZIN
 70
     0
  9
$DIMBLK
  1

  9
$LUNITS
 70
     2
  9
$LUPREC
 70
     4
  9
$AXISMODE
 70
     0
  9
$AXISUNIT
 10
0.0
 20
0.0
  9
$SKETCHINC
 40
0.1
  9
$FILLETRAD
 40
0.0
  9
$AUNITS
 70
     0
  9
$AUPREC
 70
     0
  9
$MENU
  1
ACAD
  9
$ELEVATION
 40
0.0
  9
$THICKNESS
 40
0.0
  9
$VIEWDIR
 10
0.0
 20
0.0
 30
1.0
  9
$LIMCHECK
 70
     0
  9
$BLIPMODE
 70
     1
  9
$CHAMFERA
 40
0.0
  9
$CHAMFERB
 40
0.0
  9
$FASTZOOM
 70
     1
  9
$SKPOLY
 70
     0
  9
$TDCREATE
 40
0000000.0000000000
  9
$TDUPDATE
 40
0000000.0000000000
  9
$TDINDWG
 40
0.0000000000
  9
$TDUSRTIMER
 40
0.0000000000
  9
$USRTIMER
 70
     1
  9
$ANGBASE
 50
0.0
  9
$ANGDIR
 70
     0
  9
$PDMODE
 70
     0
  9
$PDSIZE
 40
0.0
  9
$PLINEWID
 40
0.0
  9
$COORDS
 70
     0
  9
$USERI1
 70
     0
  9
$USERI2
 70
     0
  9
$USERI3
 70
     0
  9
$USERI4
 70
     0
  9
$USERI5
 70
     0
  9
$USERR1
 40
0.0
  9
$USERR2
 40
0.0
  9
$USERR3
 40
0.0
  9
$USERR4
 40
0.0
  9
$USERR5
 40
0.0
  9
$CLAYER
  8
M2
  9
$EXTMIN
 10
-3.552714E-015
 20
-3.552714E-015
  9
$EXTMAX
 10
380.0
 20
550.0
  9
$LIMMIN
 10
0.0
 20
0.0
  9
$LIMMAX
 10
841.0
 20
594.0
  9
$HANDSEED
  5
A37
  0
ENDSEC
  0
SECTION
  2
CLASSES
  0
CLASS
  1
DICTIONARYVAR
  2
AcDbDictionaryVar
  3
"AutoCAD"
 90
        0
280
     0
281
     0
  0
CLASS
  1
HATCH
  2
AcDbHatch
  3
"ACAD_SEDONA"
 90
        0
280
     0
281
     1
  0
ENDSEC
  0
SECTION
  2
TABLES
  0
TABLE
  2
VPORT
  5
8
100
AcDbSymbolTable
 70
     2
  0
VPORT
  5
14
100
AcDbSymbolTableRecord
100
AcDbViewportTableRecord
  2
*ACTIVE
 70
     0
 10
0.0
 20
0.0
 11
1.0
 21
1.0
 12
484.0
 22
297.0
 13
0.0
 23
0.0
 14
1.0
 24
1.0
 15
0.0
 25
0.0
 16
0.0
 26
0.0
 36
1.0
 17
0.0
 27
0.0
 37
0.0
 40
594.0
 41
2.0
 42
50.0
 43
0.0
 44
0.0
 50
0.0
 51
0.0
 71
     0
 72
   100
 73
     1
 74
     1
 75
     0
 76
     0
 77
     0
 78
     0
  0
ENDTAB
  0
TABLE
  2
LTYPE
  5
5
100
AcDbSymbolTable
 70
     5
  0
LTYPE
  5
15
100
AcDbSymbolTableRecord
100
AcDbLinetypeTableRecord
  2
BYBLOCK
 70
     0
  3

 72
    65
 73
     0
 40
0.0
  0
LTYPE
  5
16
100
AcDbSymbolTableRecord
100
AcDbLinetypeTableRecord
  2
BYLAYER
 70
     0
  3

 72
    65
 73
     0
 40
0.0
  0
LTYPE
  5
17
100
AcDbSymbolTableRecord
100
AcDbLinetypeTableRecord
  2
CONTINUOUS
 70
    64
  3
Solid line
 72
    65
 73
     0
 40
0.0
  0
LTYPE
  5
18
100
AcDbSymbolTableRecord
100
AcDbLinetypeTableRecord
  2
DASHED
 70
    64
  3
__ __ __ __ __ __ __ __ __ __ __ __ __ __ __ __
 72
    65
 73
     2
 40
0.75
 49
0.5
 74
     0
 49
-0.25
 74
     0
  0
LTYPE
  5
19
100
AcDbSymbolTableRecord
100
AcDbLinetypeTableRecord
  2
DASHDOT
 70
    64
  3
__ . __ . __ . __ . __ . __ . __ . __ . __ . __
 72
    65
 73
     4
 40
1.0
 49
0.5
 74
     0
 49
-0.25
 74
     0
 49
0.0
 74
     0
 49
-0.25
 74
     0
  0
LTYPE
  5
1A
100
AcDbSymbolTableRecord
100
AcDbLinetypeTableRecord
  2
DIVIDE
 70
    64
  3
____ . . ____ . . ____ . . ____ . . ____ . . __
 72
    65
 73
     6
 40
1.25
 49
0.5
 74
     0
 49
-0.25
 74
     0
 49
0.0
 74
     0
 49
-0.25
 74
     0
 49
0.0
 74
     0
 49
-0.25
 74
     0
  0
LTYPE
  5
1B
100
AcDbSymbolTableRecord
100
AcDbLinetypeTableRecord
  2
DOT
 70
    64
  3
. . . . . . . . . . . . . . . . . . . . . . . .
 72
    65
 73
     2
 40
0.25
 49
0.0
 74
     0
 49
-0.25
 74
     0
  0
ENDTAB
  0
TABLE
  2
LAYER
  5
2
100
AcDbSymbolTable
 70
   102
  0
LAYER
  5
F
100
AcDbSymbolTableRecord
100
AcDbLayerTableRecord
  2
0
 70
     0
 62
     7
  6
CONTINUOUS
  0
LAYER
  5
1C
100
AcDbSymbolTableRecord
100
AcDbLayerTableRecord
  2
DEFPOINTS
 70
     0
 62
     7
  6
CONTINUOUS
  0
LAYER
  5
1D
100
AcDbSymbolTableRecord
100
AcDbLayerTableRecord
  2
M2
 70
     0
 62
     3
  6
CONTINUOUS
  0
LAYER
  5
1E
100
AcDbSymbolTableRecord
100
AcDbLayerTableRecord
  2
M3
 70
     0
 62
     3
  6
CONTINUOUS
  0
LAYER
  5
1F
100
AcDbSymbolTableRecord
100
AcDbLayerTableRecord
  2
M4
 70
     0
 62
     4
  6
CONTINUOUS
  0
LAYER
  5
20
100
AcDbSymbolTableRecord
100
AcDbLayerTableRecord
  2
M5
 70
     0
 62
     2
  6
CONTINUOUS
  0
ENDTAB
  0
TABLE
  2
STYLE
  5
3
100
AcDbSymbolTable
 70
     2
  0
STYLE
  5
10
100
AcDbSymbolTableRecord
100
AcDbTextStyleTableRecord
  2
STANDARD
 70
     0
 40
0.0
 41
1.0
 50
0.0
 71
     0
 42
0.2
  3
txt
  4
BIGFONT
  0
ENDTAB
  0
TABLE
  2
VIEW
  5
6
100
AcDbSymbolTable
 70
     0
  0
ENDTAB
  0
TABLE
  2
UCS
  5
7
100
AcDbSymbolTable
 70
     0
  0
ENDTAB
  0
TABLE
  2
APPID
  5
9
100
AcDbSymbolTable
 70
     1
  0
APPID
  5
11
100
AcDbSymbolTableRecord
100
AcDbRegAppTableRecord
  2
ACAD
 70
     0
  0
ENDTAB
  0
TABLE
  2
DIMSTYLE
  5
A
100
AcDbSymbolTable
 70
     2
  0
DIMSTYLE
105
27
100
AcDbSymbolTableRecord
100
AcDbDimStyleTableRecord
  2
STANDARD
 70
     0
  3

  4

  5

  6
_OPEN
  7
_OPEN
 40
1.0
 41
3.0
 42
1.0
 43
8.0
 44
1.0
 45
0.0
 46
0.0
 47
0.0
 48
0.0
140
3.15
141
0.09
142
0.0
143
0.03937
144
1.0
145
0.0
146
1.0
147
0.6
 71
     0
 72
     0
 73
     1
 74
     1
 75
     0
 76
     0
 77
     3
 78
     8
170
     0
171
     2
172
     0
173
     1
174
     0
175
     0
176
     0
177
     0
178
     0
270
     2
271
     2
272
     4
273
     2
274
     2
340
10
275
     0
280
     0
281
     0
282
     0
283
     1
284
     0
285
     0
286
     0
287
     3
288
     0
  0
DIMSTYLE
105
28
100
AcDbSymbolTableRecord
100
AcDbDimStyleTableRecord
  2
LEADSTYL
 70
     0
  3

  4

  5

  6
_OPEN
  7
_OPEN
 40
1.0
 41
3.0
 42
0.0625
 43
0.38
 44
0.18
 45
0.0
 46
0.0
 47
0.0
 48
0.0
140
3.15
141
0.09
142
0.0
143
25.4
144
1.0
145
0.0
146
1.0
147
0.6
 71
     0
 72
     0
 73
     1
 74
     1
 75
     0
 76
     0
 77
     0
 78
     0
170
     0
171
     2
172
     0
173
     1
174
     0
175
     0
176
     0
177
     0
178
     0
270
     2
271
     4
272
     4
273
     2
274
     2
340
10
275
     0
280
     0
281
     0
282
     0
283
     1
284
     0
285
     0
286
     0
287
     3
288
     0
  0
ENDTAB
  0
TABLE
  2
BLOCK_RECORD
  5
1
100
AcDbSymbolTable
 70
     6
  0
BLOCK_RECORD
  5
21
100
AcDbSymbolTableRecord
100
AcDbBlockTableRecord
  2
*MODEL_SPACE
  0
BLOCK_RECORD
  5
24
100
AcDbSymbolTableRecord
100
AcDbBlockTableRecord
  2
*PAPER_SPACE
  0
BLOCK_RECORD
  5
29
100
AcDbSymbolTableRecord
100
AcDbBlockTableRecord
  2
_NONE
  0
BLOCK_RECORD
  5
2D
100
AcDbSymbolTableRecord
100
AcDbBlockTableRecord
  2
_OPEN
  0
BLOCK_RECORD
  5
33
100
AcDbSymbolTableRecord
100
AcDbBlockTableRecord
  2
_CLOSED
  0
BLOCK_RECORD
  5
3A
100
AcDbSymbolTableRecord
100
AcDbBlockTableRecord
  2
_ORIGIN
  0
BLOCK_RECORD
  5
3F
100
AcDbSymbolTableRecord
100
AcDbBlockTableRecord
  2
_DOT
  0
BLOCK_RECORD
  5
47
100
AcDbSymbolTableRecord
100
AcDbBlockTableRecord
  2
_OBLIQUE
  0
ENDTAB
  0
ENDSEC
  0
SECTION
  2
BLOCKS
  0
BLOCK
  5
22
100
AcDbEntity
  8
0
100
AcDbBlockBegin
  2
*MODEL_SPACE
 70
     0
 10
0.0
 20
0.0
 30
0.0
  3
*MODEL_SPACE
  1

  0
ENDBLK
  5
23
100
AcDbEntity
  8
0
100
AcDbBlockEnd
  0
BLOCK
  5
25
100
AcDbEntity
 67
     1
  8
0
100
AcDbBlockBegin
  2
*PAPER_SPACE
 70
     0
 10
0.0
 20
0.0
 30
0.0
  3
*PAPER_SPACE
  1

  0
ENDBLK
  5
26
100
AcDbEntity
 67
     1
  8
0
100
AcDbBlockEnd
  0
BLOCK
  5
2A
100
AcDbEntity
  8
0
100
AcDbBlockBegin
  2
_NONE
 70
     0
 10
0.0
 20
0.0
  0
CIRCLE
  5
2B
100
AcDbEntity
  8
0
 62
     0
100
AcDbCircle
 10
0.0
 20
0.0
 40
0.25
  0
ENDBLK
  5
2C
100
AcDbEntity
  8
0
100
AcDbBlockEnd
  0
BLOCK
  5
2E
100
AcDbEntity
  8
0
100
AcDbBlockBegin
  2
_OPEN
 70
     0
 10
0.0
 20
0.0
  0
LINE
  5
2F
100
AcDbEntity
  8
0
 62
     0
100
AcDbLine
 10
-0.965926
 20
0.258819
 11
0.0
 21
0.0
  0
LINE
  5
30
100
AcDbEntity
  8
0
 62
     0
100
AcDbLine
 10
0.0
 20
0.0
 11
-0.965926
 21
-0.258819
  0
LINE
  5
31
100
AcDbEntity
  8
0
 62
     0
100
AcDbLine
 10
0.0
 20
0.0
 11
-1.0
 21
0.0
  0
ENDBLK
  5
32
100
AcDbEntity
  8
0
100
AcDbBlockEnd
  0
BLOCK
  5
34
100
AcDbEntity
  8
0
100
AcDbBlockBegin
  2
_CLOSED
 70
     0
 10
0.0
 20
0.0
  0
LINE
  5
35
100
AcDbEntity
  8
0
 62
     0
100
AcDbLine
 10
-0.965926
 20
0.258819
 11
0.0
 21
0.0
  0
LINE
  5
36
100
AcDbEntity
  8
0
 62
     0
100
AcDbLine
 10
0.0
 20
0.0
 11
-0.965926
 21
-0.258819
  0
LINE
  5
37
100
AcDbEntity
  8
0
 62
     0
100
AcDbLine
 10
-0.965926
 20
0.258819
 11
-0.965926
 21
-0.258819
  0
LINE
  5
38
100
AcDbEntity
  8
0
 62
     0
100
AcDbLine
 10
0.0
 20
0.0
 11
-1.0
 21
0.0
  0
ENDBLK
  5
39
100
AcDbEntity
  8
0
100
AcDbBlockEnd
  0
BLOCK
  5
3B
100
AcDbEntity
  8
0
100
AcDbBlockBegin
  2
_ORIGIN
 70
     0
 10
0.0
 20
0.0
  0
CIRCLE
  5
3C
100
AcDbEntity
  8
0
 62
     0
100
AcDbCircle
 10
0.0
 20
0.0
 40
0.5
  0
LINE
  5
3D
100
AcDbEntity
  8
0
 62
     0
100
AcDbLine
 10
0.0
 20
0.0
 11
-1.0
 21
0.0
  0
ENDBLK
  5
3E
100
AcDbEntity
  8
0
100
AcDbBlockEnd
  0
BLOCK
  5
40
100
AcDbEntity
  8
0
100
AcDbBlockBegin
  2
_DOT
 70
     0
 10
0.0
 20
0.0
  0
POLYLINE
  5
41
100
AcDbEntity
  8
0
 62
     0
100
AcDb2dPolyline
 66
     1
 70
     1
 40
0.5
 41
0.5
  0
VERTEX
  5
42
100
AcDbEntity
  8
0
 62
     0
100
AcDbVertex
100
AcDb2dVertex
 10
-0.25
 20
0.0
 42
1.0
  0
VERTEX
  5
43
100
AcDbEntity
  8
0
 62
     0
100
AcDbVertex
100
AcDb2dVertex
 10
0.25
 20
0.0
 42
1.0
  0
SEQEND
  5
44
100
AcDbEntity
  8
0
 62
     0
  0
LINE
  5
45
100
AcDbEntity
  8
0
 62
     0
100
AcDbLine
 10
-0.5
 20
0.0
 11
-1.0
 21
0.0
  0
ENDBLK
  5
46
100
AcDbEntity
  8
0
100
AcDbBlockEnd
  0
BLOCK
  5
48
100
AcDbEntity
  8
0
100
AcDbBlockBegin
  2
_OBLIQUE
 70
     0
 10
0.0
 20
0.0
  0
LINE
  5
49
100
AcDbEntity
  8
0
 62
     0
100
AcDbLine
 10
-0.353553
 20
-0.353553
 11
0.353553
 21
0.353553
  0
ENDBLK
  5
4A
100
AcDbEntity
  8
0
100
AcDbBlockEnd
  0
ENDSEC
  0
SECTION
  2
ENTITIES
  0
ARC
  5
4B
100
AcDbEntity
  8
M2
 62
     2
100
AcDbCircle
 10
290.585477
 20
332.916827
 40
3.599999
100
AcDbArc
 50
134.999796
 51
180.0
  0
ARC
  5
4C
100
AcDbEntity
  8
M2
 62
     2
100
AcDbCircle
 10
290.585477
 20
332.916812
 40
2.0
100
AcDbArc
 50
135.000425
 51
180.0
  0
LINE
  5
4D
100
AcDbEntity
  8
M2
 62
     2
100
AcDbLine
 10
294.430977
 20
341.853425
 11
288.039899
 21
335.46242
  0
LINE
  5
4E
100
AcDbEntity
  8
M2
 62
     2
100
AcDbLine
 10
288.58534
 20
332.916614
 11
288.58534
 21
330.853425
  0
LINE
  5
4F
100
AcDbEntity
  8
M2
 62
     2
100
AcDbLine
 10
296.693676
 20
341.853425
 11
289.171262
 21
334.331012
  0
LINE
  5
50
100
AcDbEntity
  8
M2
 62
     2
100
AcDbLine
 10
286.985486
 20
332.916614
 11
286.985486
 21
330.853425
  0
LINE
  5
51
100
AcDbEntity
  8
M2
 62
     6
100
AcDbLine
 10
74.944394
 20
289.153384
 11
73.944394
 21
289.153388
  0
LINE
  5
52
100
AcDbEntity
  8
M2
 62
     6
100
AcDbLine
 10
35.944433
 20
296.15352
 11
37.944425
 21
298.153758
  0
LINE
  5
53
100
AcDbEntity
  8
M2
 62
     6
100
AcDbLine
 10
52.944418
 20
291.653461
 11
50.944409
 21
293.653712
  0
LINE
  5
54
100
AcDbEntity
  8
M2
 62
     6
100
AcDbLine
 10
75.944418
 20
291.653381
 11
77.944409
 21
293.653618
  0
LINE
  5
55
100
AcDbEntity
  8
M2
 62
     6
100
AcDbLine
 10
55.944418
 20
291.653451
 11
57.944409
 21
293.653688
  0
LINE
  5
56
100
AcDbEntity
  8
M2
 62
     6
100
AcDbLine
 10
72.944418
 20
291.653391
 11
70.944409
 21
293.653887
  0
LINE
  5
57
100
AcDbEntity
  8
M2
 62
     6
100
AcDbLine
 10
75.944397
 20
290.153381
 11
75.944537
 21
330.153381
  0
LINE
  5
58
100
AcDbEntity
  8
M2
 62
     6
100
AcDbLine
 10
72.944397
 20
290.153391
 11
72.944537
 21
330.153391
  0
LINE
  5
59
100
AcDbEntity
  8
M2
 62
     6
100
AcDbLine
 10
52.944531
 20
328.653461
 11
48.292332
 21
328.653477
  0
LINE
  5
5A
100
AcDbEntity
  8
M2
 62
     6
100
AcDbLine
 10
70.944409
 20
293.653887
 11
70.944453
 21
306.153398
  0
LINE
  5
5B
100
AcDbEntity
  8
M2
 62
     6
100
AcDbLine
 10
55.944397
 20
290.153451
 11
55.944537
 21
330.153451
  0
LINE
  5
5C
100
AcDbEntity
  8
M2
 62
     6
100
AcDbLine
 10
32.944409
 20
293.45358
 11
32.944542
 21
331.653531
  0
LINE
  5
5D
100
AcDbEntity
  8
M2
 62
     6
100
AcDbLine
 10
95.794531
 20
328.653312
 11
87.34143
 21
328.653341
  0
ARC
  5
5E
100
AcDbEntity
  8
M2
 62
     6
100
AcDbCircle
 10
38.944453
 20
306.15351
 40
1.0
100
AcDbArc
 50
89.998926
 51
179.9998
  0
ARC
  5
5F
100
AcDbEntity
  8
M2
 62
     6
100
AcDbCircle
 10
78.944481
 20
314.15337
 40
1.0
100
AcDbArc
 50
179.9998
 51
270.0
  0
LINE
  5
60
100
AcDbEntity
  8
M2
 62
     6
100
AcDbLine
 10
91.944475
 20
314.153325
 11
91.944526
 21
328.653325
  0
ARC
  5
61
100
AcDbEntity
  8
M2
 62
     6
100
AcDbCircle
 10
58.944453
 20
306.15344
 40
1.0
100
AcDbArc
 50
89.998926
 51
179.9998
  0
ARC
  5
62
100
AcDbEntity
  8
M2
 62
     6
100
AcDbCircle
 10
51.944481
 20
314.153465
 40
1.0
100
AcDbArc
 50
270.0
 51
359.9998
  0
LINE
  5
63
100
AcDbEntity
  8
M2
 62
     6
100
AcDbLine
 10
52.944547
 20
328.653461
 11
50.94457
 21
326.653712
  0
ARC
  5
64
100
AcDbEntity
  8
M2
 62
     6
100
AcDbCircle
 10
34.944416
 20
295.653524
 40
1.0
100
AcDbArc
 50
270.0
 51
359.9998
  0
LINE
  5
65
100
AcDbEntity
  8
M2
 62
     6
100
AcDbLine
 10
52.944409
 20
293.45351
 11
32.944409
 21
293.45358
  0
LINE
  5
66
100
AcDbEntity
  8
M2
 62
     6
100
AcDbLine
 10
54.944394
 20
289.153454
 11
53.944394
 21
289.153458
  0
LINE
  5
67
100
AcDbEntity
  8
M2
 62
     6
100
AcDbLine
 10
72.944409
 20
293.45344
 11
55.944409
 21
293.453499
  0
LINE
  5
68
100
AcDbEntity
  8
M2
 62
     6
100
AcDbLine
 10
55.944547
 20
328.653451
 11
57.944524
 21
326.653444
  0
LINE
  5
69
100
AcDbEntity
  8
M2
 62
     6
100
AcDbLine
 10
34.944537
 20
330.153524
 11
32.944537
 21
330.153531
  0
LINE
  5
6A
100
AcDbEntity
  8
M2
 62
     6
100
AcDbLine
 10
95.794402
 20
291.653312
 11
95.794458
 21
307.65087
  0
ARC
  5
6B
100
AcDbEntity
  8
M2
 62
     6
100
AcDbCircle
 10
76.944463
 20
309.153377
 40
1.0
100
AcDbArc
 50
89.998926
 51
179.9998
  0
ARC
  5
6C
100
AcDbEntity
  8
M2
 62
     6
100
AcDbCircle
 10
74.944397
 20
290.153384
 40
1.0
100
AcDbArc
 50
270.0
 51
359.9998
  0
ARC
  5
6D
100
AcDbEntity
  8
M2
 62
     6
100
AcDbCircle
 10
53.944397
 20
290.153458
 40
1.0
100
AcDbArc
 50
179.9998
 51
270.0
  0
ARC
  5
6E
100
AcDbEntity
  8
M2
 62
     6
100
AcDbCircle
 10
34.944533
 20
329.153524
 40
1.0
100
AcDbArc
 50
0.0
 51
89.999126
  0
ARC
  5
6F
100
AcDbEntity
  8
M2
 62
     6
100
AcDbCircle
 10
105.794484
 20
315.153277
 40
13.299996
100
AcDbArc
 50
165.18762
 51
194.810764
  0
ARC
  5
70
100
AcDbEntity
  8
M2
 62
     6
100
AcDbCircle
 10
54.944397
 20
290.153454
 40
1.0
100
AcDbArc
 50
270.0
 51
359.9998
  0
ARC
  5
71
100
AcDbEntity
  8
M2
 62
     6
100
AcDbCircle
 10
51.944463
 20
309.153465
 40
1.0
100
AcDbArc
 50
0.0
 51
89.999126
  0
ARC
  5
72
100
AcDbEntity
  8
M2
 62
     6
100
AcDbCircle
 10
73.944397
 20
290.153388
 40
1.0
100
AcDbArc
 50
179.9998
 51
270.0
  0
ARC
  5
73
100
AcDbEntity
  8
M2
 62
     6
100
AcDbCircle
 10
56.944463
 20
309.153447
 40
1.0
100
AcDbArc
 50
89.998926
 51
179.9998
  0
ARC
  5
74
100
AcDbEntity
  8
M2
 62
     6
100
AcDbCircle
 10
36.944463
 20
309.153517
 40
1.0
100
AcDbArc
 50
89.998926
 51
179.9998
  0
ARC
  5
75
100
AcDbEntity
  8
M2
 62
     6
100
AcDbCircle
 10
95.294402
 20
291.653313
 40
0.5
100
AcDbArc
 50
270.0
 51
359.9998
  0
ARC
  5
76
100
AcDbEntity
  8
M2
 62
     6
100
AcDbCircle
 10
71.944463
 20
309.153395
 40
1.0
100
AcDbArc
 50
0.0
 51
89.999126
  0
ARC
  5
77
100
AcDbEntity
  8
M2
 62
     6
100
AcDbCircle
 10
90.944475
 20
314.153329
 40
1.0
100
AcDbArc
 50
270.0
 51
359.9998
  0
ARC
  5
78
100
AcDbEntity
  8
M2
 62
     6
100
AcDbCircle
 10
93.444397
 20
291.65332
 40
0.5
100
AcDbArc
 50
179.9998
 51
270.0
  0
CIRCLE
  5
79
100
AcDbEntity
  8
M2
 62
     6
100
AcDbCircle
 10
44.444427
 20
320.153182
 40
5.0
  0
LINE
  5
7A
100
AcDbEntity
  8
M2
 62
     6
100
AcDbLine
 10
35.944416
 20
295.65352
 11
35.944533
 21
329.15352
  0
CIRCLE
  5
7B
100
AcDbEntity
  8
M2
 62
     6
100
AcDbCircle
 10
84.444396
 20
320.152938
 40
5.0
  0
LINE
  5
7C
100
AcDbEntity
  8
M2
 62
     6
100
AcDbLine
 10
57.944409
 20
293.653688
 11
57.944453
 21
306.153444
  0
LINE
  5
7D
100
AcDbEntity
  8
M2
 62
     6
100
AcDbLine
 10
52.944397
 20
290.153461
 11
52.944537
 21
330.153461
  0
CIRCLE
  5
7E
100
AcDbEntity
  8
M2
 62
     6
100
AcDbCircle
 10
64.444534
 20
320.153426
 40
5.0
  0
LINE
  5
7F
100
AcDbEntity
  8
M2
 62
     6
100
AcDbLine
 10
92.944397
 20
291.653322
 11
92.944458
 21
309.153322
  0
ARC
  5
80
100
AcDbEntity
  8
M2
 62
     6
100
AcDbCircle
 10
54.944537
 20
330.153454
 40
1.0
100
AcDbArc
 50
0.0
 51
89.999126
  0
ARC
  5
81
100
AcDbEntity
  8
M2
 62
     6
100
AcDbCircle
 10
74.944537
 20
330.153384
 40
1.0
100
AcDbArc
 50
0.0
 51
89.999126
  0
ARC
  5
82
100
AcDbEntity
  8
M2
 62
     6
100
AcDbCircle
 10
73.944537
 20
330.153388
 40
1.0
100
AcDbArc
 50
89.998926
 51
179.9998
  0
CIRCLE
  5
83
100
AcDbEntity
  8
M2
 62
     6
100
AcDbCircle
 10
64.444412
 20
300.152694
 40
5.0
  0
CIRCLE
  5
84
100
AcDbEntity
  8
M2
 62
     6
100
AcDbCircle
 10
84.444267
 20
300.152823
 40
5.0
  0
ARC
  5
85
100
AcDbEntity
  8
M2
 62
     6
100
AcDbCircle
 10
53.944537
 20
330.153458
 40
1.0
100
AcDbArc
 50
89.998926
 51
179.9998
  0
LINE
  5
86
100
AcDbEntity
  8
M2
 62
     6
100
AcDbLine
 10
90.07967
 20
331.153332
 11
88.677459
 21
331.153336
  0
LINE
  5
87
100
AcDbEntity
  8
M2
 62
     6
100
AcDbLine
 10
57.944481
 20
314.153444
 11
57.944524
 21
326.653444
  0
LINE
  5
88
100
AcDbEntity
  8
M2
 62
     6
100
AcDbLine
 10
71.944477
 20
313.153395
 11
56.944477
 21
313.153447
  0
LINE
  5
89
100
AcDbEntity
  8
M2
 62
     6
100
AcDbLine
 10
108.583388
 20
331.153313
 11
95.808768
 21
331.153064
  0
LINE
  5
8A
100
AcDbEntity
  8
M2
 62
     6
100
AcDbLine
 10
42.217528
 20
331.653313
 11
32.944542
 21
331.653313
  0
LINE
  5
8B
100
AcDbEntity
  8
M2
 62
     6
100
AcDbLine
 10
90.944472
 20
313.153329
 11
75.944477
 21
313.153381
  0
LINE
  5
8C
100
AcDbEntity
  8
M2
 62
     6
100
AcDbLine
 10
50.944527
 20
314.153468
 11
50.94457
 21
326.653712
  0
LINE
  5
8D
100
AcDbEntity
  8
M2
 62
     6
100
AcDbLine
 10
91.944451
 20
307.153325
 11
76.944456
 21
307.153377
  0
LINE
  5
8E
100
AcDbEntity
  8
M2
 62
     6
100
AcDbLine
 10
51.944467
 20
310.153465
 11
36.944467
 21
310.153517
  0
LINE
  5
8F
100
AcDbEntity
  8
M2
 62
     6
100
AcDbLine
 10
37.944527
 20
314.153513
 11
37.94457
 21
326.654246
  0
LINE
  5
90
100
AcDbEntity
  8
M2
 62
     6
100
AcDbLine
 10
34.944413
 20
294.653524
 11
32.944413
 21
294.653531
  0
LINE
  5
91
100
AcDbEntity
  8
M2
 62
     6
100
AcDbLine
 10
71.944467
 20
310.153395
 11
56.944467
 21
310.153447
  0
LINE
  5
92
100
AcDbEntity
  8
M2
 62
     6
100
AcDbLine
 10
71.944456
 20
307.153395
 11
56.944456
 21
307.153447
  0
LINE
  5
93
100
AcDbEntity
  8
M2
 62
     6
100
AcDbLine
 10
72.944531
 20
328.653391
 11
67.829489
 21
328.653409
  0
LINE
  5
94
100
AcDbEntity
  8
M2
 62
     6
100
AcDbLine
 10
117.948001
 20
329.65087
 11
87.837601
 21
329.650579
  0
LINE
  5
95
100
AcDbEntity
  8
M2
 62
     6
100
AcDbLine
 10
72.944535
 20
329.653391
 11
68.345852
 21
329.653407
  0
LINE
  5
96
100
AcDbEntity
  8
M2
 62
     6
100
AcDbLine
 10
52.944535
 20
329.653461
 11
48.734413
 21
329.653476
  0
LINE
  5
97
100
AcDbEntity
  8
M2
 62
     6
100
AcDbLine
 10
92.947999
 20
310.15087
 11
92.947998
 21
307.65087
  0
LINE
  5
98
100
AcDbEntity
  8
M2
 62
     6
100
AcDbLine
 10
89.447997
 20
307.153334
 11
89.448001
 21
313.153334
  0
LINE
  5
99
100
AcDbEntity
  8
M2
 62
     6
100
AcDbLine
 10
95.798011
 20
318.55087
 11
92.93578
 21
318.55087
  0
LINE
  5
9A
100
AcDbEntity
  8
M2
 62
     6
100
AcDbLine
 10
95.798006
 20
311.75087
 11
92.937053
 21
311.75087
  0
LINE
  5
9B
100
AcDbEntity
  8
M2
 62
     6
100
AcDbLine
 10
50.944409
 20
293.653712
 11
50.944453
 21
306.153468
  0
LINE
  5
9C
100
AcDbEntity
  8
M2
 62
     6
100
AcDbLine
 10
70.944481
 20
314.153398
 11
70.944524
 21
326.653398
  0
LINE
  5
9D
100
AcDbEntity
  8
M2
 62
     6
100
AcDbLine
 10
77.944409
 20
293.653618
 11
77.944453
 21
306.153374
  0
LINE
  5
9E
100
AcDbEntity
  8
M2
 62
     6
100
AcDbLine
 10
90.944403
 20
293.453377
 11
90.944447
 21
306.153329
  0
LINE
  5
9F
100
AcDbEntity
  8
M2
 62
     6
100
AcDbLine
 10
77.944481
 20
314.153374
 11
77.944524
 21
326.653862
  0
LINE
  5
A0
100
AcDbEntity
  8
M2
 62
     6
100
AcDbLine
 10
90.944475
 20
314.153329
 11
90.944526
 21
328.653329
  0
ARC
  5
A1
100
AcDbEntity
  8
M2
 62
     6
100
AcDbCircle
 10
76.944453
 20
306.153377
 40
1.0
100
AcDbArc
 50
89.998926
 51
179.9998
  0
ARC
  5
A2
100
AcDbEntity
  8
M2
 62
     6
100
AcDbCircle
 10
91.944447
 20
306.153325
 40
1.0
100
AcDbArc
 50
0.0
 51
90.0
  0
ARC
  5
A3
100
AcDbEntity
  8
M2
 62
     6
100
AcDbCircle
 10
71.944453
 20
306.153395
 40
1.0
100
AcDbArc
 50
0.0
 51
89.999126
  0
ARC
  5
A4
100
AcDbEntity
  8
M2
 62
     6
100
AcDbCircle
 10
51.944453
 20
306.153465
 40
1.0
100
AcDbArc
 50
0.0
 51
89.999126
  0
ARC
  5
A5
100
AcDbEntity
  8
M2
 62
     6
100
AcDbCircle
 10
36.944453
 20
306.153517
 40
1.0
100
AcDbArc
 50
89.998926
 51
179.9998
  0
ARC
  5
A6
100
AcDbEntity
  8
M2
 62
     6
100
AcDbCircle
 10
89.944475
 20
314.153332
 40
1.0
100
AcDbArc
 50
270.0
 51
359.9998
  0
ARC
  5
A7
100
AcDbEntity
  8
M2
 62
     6
100
AcDbCircle
 10
71.944481
 20
314.153395
 40
1.0
100
AcDbArc
 50
270.0
 51
359.9998
  0
ARC
  5
A8
100
AcDbEntity
  8
M2
 62
     6
100
AcDbCircle
 10
56.944481
 20
314.153447
 40
1.0
100
AcDbArc
 50
179.9998
 51
270.0
  0
ARC
  5
A9
100
AcDbEntity
  8
M2
 62
     6
100
AcDbCircle
 10
89.944447
 20
306.153332
 40
1.0
100
AcDbArc
 50
0.0
 51
90.0
  0
CIRCLE
  5
AA
100
AcDbEntity
  8
M2
 62
     6
100
AcDbCircle
 10
44.444412
 20
300.152694
 40
5.0
  0
ARC
  5
AB
100
AcDbEntity
  8
M2
 62
     6
100
AcDbCircle
 10
49.944453
 20
306.153472
 40
1.0
100
AcDbArc
 50
0.0
 51
89.999126
  0
ARC
  5
AC
100
AcDbEntity
  8
M2
 62
     6
100
AcDbCircle
 10
69.944453
 20
306.153402
 40
1.0
100
AcDbArc
 50
0.0
 51
89.999126
  0
ARC
  5
AD
100
AcDbEntity
  8
M2
 62
     6
100
AcDbCircle
 10
36.944481
 20
314.153517
 40
1.0
100
AcDbArc
 50
179.9998
 51
270.0
  0
ARC
  5
AE
100
AcDbEntity
  8
M2
 62
     6
100
AcDbCircle
 10
78.944453
 20
306.15337
 40
1.0
100
AcDbArc
 50
89.998926
 51
179.9998
  0
LINE
  5
AF
100
AcDbEntity
  8
M2
 62
     6
100
AcDbLine
 10
92.944403
 20
293.45337
 11
75.944409
 21
293.45343
  0
LINE
  5
B0
100
AcDbEntity
  8
M2
 62
     6
100
AcDbLine
 10
51.944456
 20
307.153465
 11
36.944456
 21
307.153517
  0
LINE
  5
B1
100
AcDbEntity
  8
M2
 62
     6
100
AcDbLine
 10
72.944608
 20
328.653391
 11
70.944524
 21
326.653398
  0
LINE
  5
B2
100
AcDbEntity
  8
M2
 62
     6
100
AcDbLine
 10
51.944477
 20
313.153465
 11
36.944477
 21
313.153517
  0
LINE
  5
B3
100
AcDbEntity
  8
M2
 62
     6
100
AcDbLine
 10
89.447999
 20
310.153334
 11
76.944467
 21
310.153377
  0
LINE
  5
B4
100
AcDbEntity
  8
M2
 62
     6
100
AcDbLine
 10
35.944608
 20
328.653765
 11
37.94457
 21
326.654246
  0
LINE
  5
B5
100
AcDbEntity
  8
M2
 62
     6
100
AcDbLine
 10
37.944425
 20
298.153758
 11
37.944453
 21
306.153513
  0
ARC
  5
B6
100
AcDbEntity
  8
M2
 62
     6
100
AcDbCircle
 10
56.944453
 20
306.153447
 40
1.0
100
AcDbArc
 50
89.998926
 51
179.9998
  0
ARC
  5
B7
100
AcDbEntity
  8
M2
 62
     6
100
AcDbCircle
 10
38.944527
 20
314.15351
 40
1.0
100
AcDbArc
 50
179.9998
 51
270.0
  0
ARC
  5
B8
100
AcDbEntity
  8
M2
 62
     6
100
AcDbCircle
 10
49.944527
 20
314.153472
 40
1.0
100
AcDbArc
 50
270.0
 51
359.9998
  0
LINE
  5
B9
100
AcDbEntity
  8
M2
 62
     6
100
AcDbLine
 10
75.944608
 20
328.653381
 11
77.944524
 21
326.653862
  0
LINE
  5
BA
100
AcDbEntity
  8
M2
 62
     6
100
AcDbLine
 10
95.2944
 20
291.153313
 11
93.444395
 21
291.15332
  0
ARC
  5
BB
100
AcDbEntity
  8
M2
 62
     6
100
AcDbCircle
 10
69.944481
 20
314.153402
 40
1.0
100
AcDbArc
 50
270.0
 51
359.9998
  0
ARC
  5
BC
100
AcDbEntity
  8
M2
 62
     6
100
AcDbCircle
 10
58.944481
 20
314.15344
 40
1.0
100
AcDbArc
 50
179.9998
 51
270.0
  0
CIRCLE
  5
BD
100
AcDbEntity
  8
M2
 62
     6
100
AcDbCircle
 10
84.444396
 20
320.153067
 40
4.5
  0
LINE
  5
BE
100
AcDbEntity
  8
M2
 62
     6
100
AcDbLine
 10
82.48439
 20
322.113028
 11
86.404388
 21
318.192862
  0
LINE
  5
BF
100
AcDbEntity
  8
M2
 62
     6
100
AcDbLine
 10
85.312332
 20
322.43505
 11
82.162231
 21
319.284903
  0
LINE
  5
C0
100
AcDbEntity
  8
M2
 62
     6
100
AcDbLine
 10
86.726531
 20
321.020987
 11
83.576431
 21
317.870841
  0
LINE
  5
C1
100
AcDbEntity
  8
M2
  6
DASHDOT
 62
     6
100
AcDbLine
 10
83.944396
 20
320.153067
 11
84.944396
 21
320.153067
  0
LINE
  5
C2
100
AcDbEntity
  8
M2
  6
DASHDOT
 62
     6
100
AcDbLine
 10
84.444396
 20
319.653067
 11
84.444396
 21
320.653067
  0
CIRCLE
  5
C3
100
AcDbEntity
  8
M2
 62
     6
100
AcDbCircle
 10
44.444412
 20
300.152823
 40
4.5
  0
LINE
  5
C4
100
AcDbEntity
  8
M2
 62
     6
100
AcDbLine
 10
42.484405
 20
302.112784
 11
46.404403
 21
298.192618
  0
LINE
  5
C5
100
AcDbEntity
  8
M2
 62
     6
100
AcDbLine
 10
45.312347
 20
302.434806
 11
42.162246
 21
299.284659
  0
LINE
  5
C6
100
AcDbEntity
  8
M2
 62
     6
100
AcDbLine
 10
46.726547
 20
301.020743
 11
43.576446
 21
297.870597
  0
LINE
  5
C7
100
AcDbEntity
  8
M2
  6
DASHDOT
 62
     6
100
AcDbLine
 10
43.944412
 20
300.152823
 11
44.944412
 21
300.152823
  0
LINE
  5
C8
100
AcDbEntity
  8
M2
  6
DASHDOT
 62
     6
100
AcDbLine
 10
44.444412
 20
299.652823
 11
44.444412
 21
300.652823
  0
CIRCLE
  5
C9
100
AcDbEntity
  8
M2
 62
     6
100
AcDbCircle
 10
84.444396
 20
300.152823
 40
4.5
  0
LINE
  5
CA
100
AcDbEntity
  8
M2
 62
     6
100
AcDbLine
 10
82.48439
 20
302.112784
 11
86.404388
 21
298.192618
  0
LINE
  5
CB
100
AcDbEntity
  8
M2
 62
     6
100
AcDbLine
 10
85.312332
 20
302.434806
 11
82.162231
 21
299.284659
  0
LINE
  5
CC
100
AcDbEntity
  8
M2
 62
     6
100
AcDbLine
 10
86.726531
 20
301.020743
 11
83.576431
 21
297.870597
  0
LINE
  5
CD
100
AcDbEntity
  8
M2
  6
DASHDOT
 62
     6
100
AcDbLine
 10
83.944396
 20
300.152823
 11
84.944396
 21
300.152823
  0
LINE
  5
CE
100
AcDbEntity
  8
M2
  6
DASHDOT
 62
     6
100
AcDbLine
 10
84.444396
 20
299.652823
 11
84.444396
 21
300.652823
  0
CIRCLE
  5
CF
100
AcDbEntity
  8
M2
 62
     6
100
AcDbCircle
 10
64.444412
 20
300.152823
 40
4.5
  0
LINE
  5
D0
100
AcDbEntity
  8
M2
 62
     6
100
AcDbLine
 10
62.484405
 20
302.112784
 11
66.404403
 21
298.192618
  0
LINE
  5
D1
100
AcDbEntity
  8
M2
 62
     6
100
AcDbLine
 10
65.312347
 20
302.434806
 11
62.162246
 21
299.284659
  0
LINE
  5
D2
100
AcDbEntity
  8
M2
 62
     6
100
AcDbLine
 10
66.726547
 20
301.020743
 11
63.576446
 21
297.870597
  0
LINE
  5
D3
100
AcDbEntity
  8
M2
  6
DASHDOT
 62
     6
100
AcDbLine
 10
63.944412
 20
300.152823
 11
64.944412
 21
300.152823
  0
LINE
  5
D4
100
AcDbEntity
  8
M2
  6
DASHDOT
 62
     6
100
AcDbLine
 10
64.444412
 20
299.652823
 11
64.444412
 21
300.652823
  0
CIRCLE
  5
D5
100
AcDbEntity
  8
M2
 62
     6
100
AcDbCircle
 10
99.946792
 20
303.15087
 40
2.999997
  0
LINE
  5
D6
100
AcDbEntity
  8
M2
 62
     6
100
AcDbLine
 10
97.158194
 20
307.65087
 11
96.171645
 21
304.450919
  0
LINE
  5
D7
100
AcDbEntity
  8
M2
 62
     6
100
AcDbLine
 10
96.987808
 20
299.20362
 11
96.171645
 21
301.850943
  0
LINE
  5
D8
100
AcDbEntity
  8
M2
 62
     6
100
AcDbLine
 10
102.886642
 20
307.158683
 11
103.721694
 21
304.450919
  0
LINE
  5
D9
100
AcDbEntity
  8
M2
 62
     6
100
AcDbLine
 10
102.905288
 20
299.203605
 11
103.721694
 21
301.850943
  0
LINE
  5
DA
100
AcDbEntity
  8
M2
 62
     6
100
AcDbLine
 10
97.465835
 20
298.850943
 11
102.427505
 21
298.850943
  0
LINE
  5
DB
100
AcDbEntity
  8
M2
 62
     6
100
AcDbLine
 10
103.721694
 20
301.850943
 11
103.721694
 21
304.450919
  0
LINE
  5
DC
100
AcDbEntity
  8
M2
 62
     6
100
AcDbLine
 10
96.171645
 20
304.450919
 11
96.171645
 21
301.850943
  0
LINE
  5
DD
100
AcDbEntity
  8
M2
 62
     6
100
AcDbLine
 10
101.537368
 20
301.56005
 11
98.355728
 21
304.741813
  0
LINE
  5
DE
100
AcDbEntity
  8
M2
 62
     6
100
AcDbLine
 10
100.300063
 20
304.565055
 11
98.532485
 21
302.797355
  0
LINE
  5
DF
100
AcDbEntity
  8
M2
 62
     6
100
AcDbLine
 10
101.36061
 20
303.504386
 11
99.593032
 21
301.736808
  0
ARC
  5
E0
100
AcDbEntity
  8
M2
 62
     6
100
AcDbCircle
 10
97.465835
 20
299.350943
 40
0.5
100
AcDbArc
 50
197.128737
 51
270.0
  0
ARC
  5
E1
100
AcDbEntity
  8
M2
 62
     6
100
AcDbCircle
 10
102.427505
 20
299.350943
 40
0.5
100
AcDbArc
 50
270.0
 51
342.861308
  0
ARC
  5
E2
100
AcDbEntity
  8
M2
 62
     6
100
AcDbCircle
 10
102.427505
 20
306.950797
 40
0.5
100
AcDbArc
 50
17.138692
 51
90.0
  0
LINE
  5
E3
100
AcDbEntity
  8
M2
 62
     6
100
AcDbLine
 10
97.465835
 20
307.450797
 11
102.427505
 21
307.450797
  0
ARC
  5
E4
100
AcDbEntity
  8
M2
 62
     6
100
AcDbCircle
 10
97.465835
 20
306.950797
 40
0.5
100
AcDbArc
 50
90.0
 51
162.871263
  0
LINE
  5
E5
100
AcDbEntity
  8
M2
  6
DASHDOT
 62
     6
100
AcDbLine
 10
99.446792
 20
303.15087
 11
100.446792
 21
303.15087
  0
LINE
  5
E6
100
AcDbEntity
  8
M2
  6
DASHDOT
 62
     6
100
AcDbLine
 10
99.946792
 20
302.65087
 11
99.946792
 21
303.65087
  0
CIRCLE
  5
E7
100
AcDbEntity
  8
M2
 62
     6
100
AcDbCircle
 10
110.946792
 20
303.15087
 40
2.999997
  0
LINE
  5
E8
100
AcDbEntity
  8
M2
 62
     6
100
AcDbLine
 10
108.003551
 20
307.14927
 11
107.171645
 21
304.450919
  0
LINE
  5
E9
100
AcDbEntity
  8
M2
 62
     6
100
AcDbLine
 10
107.987808
 20
299.20362
 11
107.171645
 21
301.850943
  0
LINE
  5
EA
100
AcDbEntity
  8
M2
 62
     6
100
AcDbLine
 10
113.924705
 20
307.035262
 11
114.721694
 21
304.450919
  0
LINE
  5
EB
100
AcDbEntity
  8
M2
 62
     6
100
AcDbLine
 10
113.905288
 20
299.203605
 11
114.721694
 21
301.850943
  0
LINE
  5
EC
100
AcDbEntity
  8
M2
 62
     6
100
AcDbLine
 10
108.465835
 20
298.850943
 11
113.427505
 21
298.850943
  0
LINE
  5
ED
100
AcDbEntity
  8
M2
 62
     6
100
AcDbLine
 10
114.721694
 20
301.850943
 11
114.721694
 21
304.450919
  0
LINE
  5
EE
100
AcDbEntity
  8
M2
 62
     6
100
AcDbLine
 10
107.171645
 20
304.450919
 11
107.171645
 21
301.850943
  0
LINE
  5
EF
100
AcDbEntity
  8
M2
 62
     6
100
AcDbLine
 10
112.537368
 20
301.56005
 11
109.355728
 21
304.741813
  0
LINE
  5
F0
100
AcDbEntity
  8
M2
 62
     6
100
AcDbLine
 10
111.300063
 20
304.565055
 11
109.532485
 21
302.797355
  0
LINE
  5
F1
100
AcDbEntity
  8
M2
 62
     6
100
AcDbLine
 10
112.36061
 20
303.504386
 11
110.593032
 21
301.736808
  0
ARC
  5
F2
100
AcDbEntity
  8
M2
 62
     6
100
AcDbCircle
 10
108.465835
 20
299.350943
 40
0.5
100
AcDbArc
 50
197.128737
 51
270.0
  0
ARC
  5
F3
100
AcDbEntity
  8
M2
 62
     6
100
AcDbCircle
 10
113.427505
 20
299.350943
 40
0.5
100
AcDbArc
 50
270.0
 51
342.861308
  0
ARC
  5
F4
100
AcDbEntity
  8
M2
 62
     6
100
AcDbCircle
 10
113.427505
 20
306.950797
 40
0.5
100
AcDbArc
 50
17.138692
 51
90.0
  0
LINE
  5
F5
100
AcDbEntity
  8
M2
 62
     6
100
AcDbLine
 10
108.896217
 20
307.450797
 11
113.427505
 21
307.450797
  0
ARC
  5
F6
100
AcDbEntity
  8
M2
 62
     6
100
AcDbCircle
 10
108.465835
 20
306.950797
 40
0.5
100
AcDbArc
 50
156.480883
 51
162.871263
  0
LINE
  5
F7
100
AcDbEntity
  8
M2
  6
DASHDOT
 62
     6
100
AcDbLine
 10
110.446792
 20
303.15087
 11
111.446792
 21
303.15087
  0
LINE
  5
F8
100
AcDbEntity
  8
M2
  6
DASHDOT
 62
     6
100
AcDbLine
 10
110.946792
 20
302.65087
 11
110.946792
 21
303.65087
  0
CIRCLE
  5
F9
100
AcDbEntity
  8
M2
 62
     6
100
AcDbCircle
 10
44.444427
 20
320.153312
 40
4.5
  0
LINE
  5
FA
100
AcDbEntity
  8
M2
 62
     6
100
AcDbLine
 10
42.48442
 20
322.113273
 11
46.404418
 21
318.193107
  0
LINE
  5
FB
100
AcDbEntity
  8
M2
 62
     6
100
AcDbLine
 10
45.312362
 20
322.435294
 11
42.162261
 21
319.285148
  0
LINE
  5
FC
100
AcDbEntity
  8
M2
 62
     6
100
AcDbLine
 10
46.726562
 20
321.021232
 11
43.576461
 21
317.871085
  0
LINE
  5
FD
100
AcDbEntity
  8
M2
  6
DASHDOT
 62
     6
100
AcDbLine
 10
43.944427
 20
320.153312
 11
44.944427
 21
320.153312
  0
LINE
  5
FE
100
AcDbEntity
  8
M2
  6
DASHDOT
 62
     6
100
AcDbLine
 10
44.444427
 20
319.653312
 11
44.444427
 21
320.653312
  0
CIRCLE
  5
FF
100
AcDbEntity
  8
M2
 62
     6
100
AcDbCircle
 10
64.444534
 20
320.153556
 40
4.5
  0
LINE
  5
100
100
AcDbEntity
  8
M2
 62
     6
100
AcDbLine
 10
62.484527
 20
322.113517
 11
66.404525
 21
318.193351
  0
LINE
  5
101
100
AcDbEntity
  8
M2
 62
     6
100
AcDbLine
 10
65.312469
 20
322.435538
 11
62.162368
 21
319.285392
  0
LINE
  5
102
100
AcDbEntity
  8
M2
 62
     6
100
AcDbLine
 10
66.726669
 20
321.021476
 11
63.576568
 21
317.871329
  0
LINE
  5
103
100
AcDbEntity
  8
M2
  6
DASHDOT
 62
     6
100
AcDbLine
 10
63.944534
 20
320.153556
 11
64.944534
 21
320.153556
  0
LINE
  5
104
100
AcDbEntity
  8
M2
  6
DASHDOT
 62
     6
100
AcDbLine
 10
64.444534
 20
319.653556
 11
64.444534
 21
320.653556
  0
ARC
  5
105
100
AcDbEntity
  8
M2
 62
     6
100
AcDbCircle
 10
110.948013
 20
296.15087
 40
2.999997
100
AcDbArc
 50
115.844051
 51
424.156194
  0
LINE
  5
106
100
AcDbEntity
  8
M2
 62
     6
100
AcDbLine
 10
107.850524
 20
299.648673
 11
107.172866
 21
297.450919
  0
LINE
  5
107
100
AcDbEntity
  8
M2
 62
     6
100
AcDbLine
 10
107.989028
 20
292.20362
 11
107.172866
 21
294.850943
  0
LINE
  5
108
100
AcDbEntity
  8
M2
 62
     6
100
AcDbLine
 10
114.043838
 20
299.652823
 11
114.722915
 21
297.450919
  0
LINE
  5
109
100
AcDbEntity
  8
M2
 62
     6
100
AcDbLine
 10
113.906509
 20
292.203605
 11
114.722915
 21
294.850943
  0
LINE
  5
10A
100
AcDbEntity
  8
M2
 62
     6
100
AcDbLine
 10
108.467056
 20
291.850943
 11
113.428726
 21
291.850943
  0
LINE
  5
10B
100
AcDbEntity
  8
M2
 62
     6
100
AcDbLine
 10
114.722915
 20
294.850943
 11
114.722915
 21
297.450919
  0
LINE
  5
10C
100
AcDbEntity
  8
M2
 62
     6
100
AcDbLine
 10
107.172866
 20
297.450919
 11
107.172866
 21
294.850943
  0
LINE
  5
10D
100
AcDbEntity
  8
M2
 62
     6
100
AcDbLine
 10
112.538589
 20
294.56005
 11
109.356948
 21
297.741813
  0
LINE
  5
10E
100
AcDbEntity
  8
M2
 62
     6
100
AcDbLine
 10
111.301284
 20
297.565055
 11
109.533706
 21
295.797355
  0
LINE
  5
10F
100
AcDbEntity
  8
M2
 62
     6
100
AcDbLine
 10
112.361831
 20
296.504386
 11
110.594253
 21
294.736808
  0
ARC
  5
110
100
AcDbEntity
  8
M2
 62
     6
100
AcDbCircle
 10
108.467056
 20
292.350943
 40
0.5
100
AcDbArc
 50
197.128737
 51
270.0
  0
ARC
  5
111
100
AcDbEntity
  8
M2
 62
     6
100
AcDbCircle
 10
113.428726
 20
292.350943
 40
0.5
100
AcDbArc
 50
270.0
 51
342.861308
  0
LINE
  5
112
100
AcDbEntity
  8
M2
  6
DASHDOT
 62
     6
100
AcDbLine
 10
110.448013
 20
296.15087
 11
111.448013
 21
296.15087
  0
LINE
  5
113
100
AcDbEntity
  8
M2
  6
DASHDOT
 62
     6
100
AcDbLine
 10
110.948013
 20
295.65087
 11
110.948013
 21
296.65087
  0
LINE
  5
114
100
AcDbEntity
  8
M2
 62
     6
100
AcDbLine
 10
94.944137
 20
331.650657
 11
90.944137
 21
331.650642
  0
LINE
  5
115
100
AcDbEntity
  8
M2
 62
     6
100
AcDbLine
 10
89.944137
 20
330.650642
 11
89.944137
 21
329.650657
  0
LINE
  5
116
100
AcDbEntity
  8
M2
 62
     6
100
AcDbLine
 10
95.944137
 20
330.650657
 11
95.944137
 21
329.650657
  0
ARC
  5
117
100
AcDbEntity
  8
M2
 62
     6
100
AcDbCircle
 10
94.944137
 20
330.650657
 40
1.0
100
AcDbArc
 50
0.0
 51
89.999126
  0
ARC
  5
118
100
AcDbEntity
  8
M2
 62
     6
100
AcDbCircle
 10
90.944137
 20
330.650642
 40
1.0
100
AcDbArc
 50
89.999126
 51
179.999966
  0
ARC
  5
119
100
AcDbEntity
  8
M2
 62
     6
100
AcDbCircle
 10
105.947985
 20
288.150878
 40
1.0
100
AcDbArc
 50
179.999964
 51
270.0
  0
ARC
  5
11A
100
AcDbEntity
  8
M2
 62
     6
100
AcDbCircle
 10
105.947985
 20
288.150878
 40
1.0
100
AcDbArc
 50
270.0
 51
359.999964
  0
LINE
  5
11B
100
AcDbEntity
  8
M2
 62
     6
100
AcDbLine
 10
96.948016
 20
288.150883
 11
93.948016
 21
288.150885
  0
LINE
  5
11C
100
AcDbEntity
  8
M2
 62
     6
100
AcDbLine
 10
117.948011
 20
328.65087
 11
92.78201
 21
328.650627
  0
LINE
  5
11D
100
AcDbEntity
  8
M2
 62
     6
100
AcDbLine
 10
96.948003
 20
292.150883
 11
98.0053
 21
292.150883
  0
LINE
  5
11E
100
AcDbEntity
  8
M2
 62
     6
100
AcDbLine
 10
117.947986
 20
289.65087
 11
117.948013
 21
331.65087
  0
LINE
  5
11F
100
AcDbEntity
  8
M2
 62
     6
100
AcDbLine
 10
114.947987
 20
290.150872
 11
114.947998
 21
307.65087
  0
LINE
  5
120
100
AcDbEntity
  8
M2
 62
     6
100
AcDbLine
 10
117.447976
 20
298.150871
 11
115.947976
 21
298.150871
  0
ARC
  5
121
100
AcDbEntity
  8
M2
 62
     6
100
AcDbCircle
 10
117.447977
 20
298.650871
 40
0.5
100
AcDbArc
 50
270.0
 51
359.999964
  0
ARC
  5
122
100
AcDbEntity
  8
M2
 62
     6
100
AcDbCircle
 10
115.947977
 20
299.150871
 40
1.0
100
AcDbArc
 50
179.999964
 51
270.0
  0
LINE
  5
123
100
AcDbEntity
  8
M2
 62
     6
100
AcDbLine
 10
117.447987
 20
291.150871
 11
115.947987
 21
291.150871
  0
LINE
  5
124
100
AcDbEntity
  8
M2
 62
     6
100
AcDbLine
 10
117.447986
 20
289.150871
 11
115.947986
 21
289.150871
  0
ARC
  5
125
100
AcDbEntity
  8
M2
 62
     6
100
AcDbCircle
 10
117.447986
 20
289.650871
 40
0.5
100
AcDbArc
 50
270.0
 51
359.999964
  0
ARC
  5
126
100
AcDbEntity
  8
M2
 62
     6
100
AcDbCircle
 10
115.947987
 20
290.150871
 40
1.0
100
AcDbArc
 50
179.999964
 51
270.0
  0
ARC
  5
127
100
AcDbEntity
  8
M2
 62
     6
100
AcDbCircle
 10
117.447988
 20
291.650871
 40
0.5
100
AcDbArc
 50
270.0
 51
359.999964
  0
ARC
  5
128
100
AcDbEntity
  8
M2
 62
     6
100
AcDbCircle
 10
115.947988
 20
292.150871
 40
1.0
100
AcDbArc
 50
179.999964
 51
270.0
  0
LINE
  5
129
100
AcDbEntity
  8
M2
 62
     6
100
AcDbLine
 10
117.44799
 20
296.150871
 11
115.94799
 21
296.150871
  0
ARC
  5
12A
100
AcDbEntity
  8
M2
 62
     6
100
AcDbCircle
 10
115.947991
 20
297.150871
 40
1.0
100
AcDbArc
 50
179.999964
 51
270.0
  0
ARC
  5
12B
100
AcDbEntity
  8
M2
 62
     6
100
AcDbCircle
 10
117.447991
 20
296.650871
 40
0.5
100
AcDbArc
 50
270.0
 51
359.999964
  0
LINE
  5
12C
100
AcDbEntity
  8
M2
 62
     6
100
AcDbLine
 10
106.947985
 20
288.150877
 11
106.947997
 21
306.930923
  0
LINE
  5
12D
100
AcDbEntity
  8
M2
 62
     6
100
AcDbLine
 10
113.890249
 20
292.150873
 11
114.947957
 21
292.150872
  0
LINE
  5
12E
100
AcDbEntity
  8
M2
 62
     6
100
AcDbLine
 10
114.947962
 20
299.150872
 11
114.198648
 21
299.150628
  0
LINE
  5
12F
100
AcDbEntity
  8
M2
 62
     6
100
AcDbLine
 10
107.697031
 20
299.150633
 11
106.947962
 21
299.150877
  0
LINE
  5
130
100
AcDbEntity
  8
M2
 62
     6
100
AcDbLine
 10
103.947959
 20
295.150879
 11
103.947984
 21
307.059678
  0
LINE
  5
131
100
AcDbEntity
  8
M2
 62
     6
100
AcDbLine
 10
105.947989
 20
294.150878
 11
104.947989
 21
294.150878
  0
ARC
  5
132
100
AcDbEntity
  8
M2
 62
     6
100
AcDbCircle
 10
105.94799
 20
295.150878
 40
1.0
100
AcDbArc
 50
270.0
 51
359.999964
  0
ARC
  5
133
100
AcDbEntity
  8
M2
 62
     6
100
AcDbCircle
 10
104.94799
 20
295.150878
 40
1.0
100
AcDbArc
 50
179.999964
 51
270.0
  0
LINE
  5
134
100
AcDbEntity
  8
M2
 62
     6
100
AcDbLine
 10
102.889048
 20
299.15088
 11
103.947992
 21
299.150879
  0
LINE
  5
135
100
AcDbEntity
  8
M2
 62
     6
100
AcDbLine
 10
97.948003
 20
292.150883
 11
97.948003
 21
292.336674
  0
LINE
  5
136
100
AcDbEntity
  8
M2
 62
     6
100
AcDbLine
 10
96.948016
 20
288.150883
 11
96.948008
 21
299.332768
  0
LINE
  5
137
100
AcDbEntity
  8
M2
 62
     6
100
AcDbLine
 10
104.947985
 20
288.150878
 11
104.947989
 21
294.150878
  0
LINE
  5
138
100
AcDbEntity
  8
M2
 62
     6
100
AcDbLine
 10
106.947957
 20
292.150877
 11
108.005285
 21
292.150876
  0
LINE
  5
139
100
AcDbEntity
  8
M2
 62
     6
100
AcDbLine
 10
96.948004
 20
293.650883
 11
95.794363
 21
293.65064
  0
LINE
  5
13A
100
AcDbEntity
  8
M2
 62
     6
100
AcDbLine
 10
96.948005
 20
295.650883
 11
95.794365
 21
295.65064
  0
LINE
  5
13B
100
AcDbEntity
  8
M2
 62
     6
100
AcDbLine
 10
93.948001
 20
288.150885
 11
93.948002
 21
291.153083
  0
ARC
  5
13C
100
AcDbEntity
  8
M2
 62
     6
100
AcDbCircle
 10
113.447997
 20
306.150873
 40
1.499996
100
AcDbArc
 50
0.0
 51
11.546623
  0
LINE
  5
13D
100
AcDbEntity
  8
M2
 62
     6
100
AcDbLine
 10
95.798008
 20
315.150884
 11
94.298007
 21
313.6509
  0
LINE
  5
13E
100
AcDbEntity
  8
M2
 62
     6
100
AcDbLine
 10
95.798008
 20
315.150884
 11
94.298009
 21
316.650885
  0
LINE
  5
13F
100
AcDbEntity
  8
M2
 62
     6
100
AcDbLine
 10
93.448047
 20
313.65087
 11
93.448049
 21
316.65087
  0
LINE
  5
140
100
AcDbEntity
  8
M2
 62
     6
100
AcDbLine
 10
95.798015
 20
326.15087
 11
95.798005
 21
310.15087
  0
LINE
  5
141
100
AcDbEntity
  8
M2
 62
     6
100
AcDbLine
 10
94.297992
 20
313.650641
 11
93.448032
 21
313.650886
  0
LINE
  5
142
100
AcDbEntity
  8
M2
 62
     6
100
AcDbLine
 10
94.298009
 20
316.650641
 11
93.448049
 21
316.650886
  0
LINE
  5
143
100
AcDbEntity
  8
M2
 62
     6
100
AcDbLine
 10
103.890264
 20
292.150879
 11
104.947957
 21
292.150878
  0
LINE
  5
144
100
AcDbEntity
  8
M2
 62
     6
100
AcDbLine
 10
117.948013
 20
331.65087
 11
109.448013
 21
331.650876
  0
LINE
  5
145
100
AcDbEntity
  8
M2
 62
     6
100
AcDbLine
 10
108.448011
 20
329.650778
 11
108.448012
 21
330.650876
  0
ARC
  5
146
100
AcDbEntity
  8
M2
 62
     6
100
AcDbCircle
 10
109.448012
 20
330.650876
 40
1.0
100
AcDbArc
 50
90.0
 51
179.999964
  0
LINE
  5
147
100
AcDbEntity
  8
M2
 62
     6
100
AcDbLine
 10
96.247994
 20
320.664622
 11
95.798012
 21
320.924413
  0
LINE
  5
148
100
AcDbEntity
  8
M2
 62
     6
100
AcDbLine
 10
96.948032
 20
290.150883
 11
93.948017
 21
290.150885
  0
ARC
  5
149
100
AcDbEntity
  8
M2
 62
     6
100
AcDbCircle
 10
95.948018
 20
291.150884
 40
1.0
100
AcDbArc
 50
179.999964
 51
270.0
  0
ARC
  5
14A
100
AcDbEntity
  8
M2
 62
     6
100
AcDbCircle
 10
95.948018
 20
291.150884
 40
1.0
100
AcDbArc
 50
270.0
 51
359.999964
  0
LINE
  5
14B
100
AcDbEntity
  8
M2
 62
     6
100
AcDbLine
 10
109.575819
 20
320.605289
 11
111.825575
 21
317.924133
  0
LINE
  5
14C
100
AcDbEntity
  8
M2
 62
     6
100
AcDbLine
 10
111.825575
 20
317.924133
 11
112.438411
 21
318.438363
  0
LINE
  5
14D
100
AcDbEntity
  8
M2
 62
     6
100
AcDbLine
 10
112.438411
 20
318.438363
 11
110.188654
 21
321.119519
  0
LINE
  5
14E
100
AcDbEntity
  8
M2
 62
     6
100
AcDbLine
 10
110.188654
 20
321.119519
 11
109.575819
 21
320.605289
  0
CIRCLE
  5
14F
100
AcDbEntity
  8
M2
 62
     6
100
AcDbCircle
 10
105.798013
 20
315.15087
 40
3.75
  0
LINE
  5
150
100
AcDbEntity
  8
M2
 62
     6
100
AcDbLine
 10
106.398013
 20
317.65087
 11
106.398013
 21
312.65087
  0
LINE
  5
151
100
AcDbEntity
  8
M2
 62
     6
100
AcDbLine
 10
105.198013
 20
317.65087
 11
105.198013
 21
312.65087
  0
LINE
  5
152
100
AcDbEntity
  8
M2
 62
     6
100
AcDbLine
 10
106.398013
 20
312.65087
 11
105.198013
 21
312.65087
  0
LINE
  5
153
100
AcDbEntity
  8
M2
 62
     6
100
AcDbLine
 10
106.398013
 20
317.65087
 11
105.198013
 21
317.65087
  0
TEXT
  5
154
100
AcDbEntity
  8
M2
 62
     6
100
AcDbText
 10
117.298015
 20
308.389903
 40
2.0
  1
ＡＵＴＯ
 50
90.000556
 41
0.583333
  7
STANDARD
100
AcDbText
  0
CIRCLE
  5
155
100
AcDbEntity
  8
M2
 62
     6
100
AcDbCircle
 10
116.248013
 20
315.15087
 40
0.75
  0
CIRCLE
  5
156
100
AcDbEntity
  8
M2
 62
     6
100
AcDbCircle
 10
105.798013
 20
315.15087
 40
8.3
  0
TEXT
  5
157
100
AcDbEntity
  8
M2
 62
     6
100
AcDbText
 10
117.296978
 20
322.392894
 40
2.0
  1
ＴＲＩＰ
 50
90.000563
 41
0.625
  7
STANDARD
100
AcDbText
  0
LINE
  5
158
100
AcDbEntity
  8
M2
 62
     6
100
AcDbLine
 10
112.5991
 20
322.850708
 11
110.771658
 21
321.795632
  0
LINE
  5
159
100
AcDbEntity
  8
M2
 62
     6
100
AcDbLine
 10
112.5991
 20
322.850708
 11
110.599072
 21
324.00542
  0
LINE
  5
15A
100
AcDbEntity
  8
M2
 62
     6
100
AcDbLine
 10
110.59907
 20
323.100696
 11
110.599072
 21
324.00542
  0
LINE
  5
15B
100
AcDbEntity
  8
M2
 62
     6
100
AcDbLine
 10
110.599068
 20
321.921384
 11
110.59907
 21
322.600696
  0
LINE
  5
15C
100
AcDbEntity
  8
M2
 62
     6
100
AcDbLine
 10
110.59907
 20
322.600696
 11
109.457258
 21
322.600697
  0
LINE
  5
15D
100
AcDbEntity
  8
M2
 62
     6
100
AcDbLine
 10
110.59907
 20
323.100696
 11
109.09907
 21
323.100698
  0
LINE
  5
15E
100
AcDbEntity
  8
M2
 62
     6
100
AcDbLine
 10
114.098013
 20
328.65087
 11
114.098013
 21
324.15087
  0
LINE
  5
15F
100
AcDbEntity
  8
M2
 62
     6
100
AcDbLine
 10
102.798013
 20
324.15087
 11
114.098013
 21
324.15087
  0
LINE
  5
160
100
AcDbEntity
  8
M2
 62
     6
100
AcDbLine
 10
106.848027
 20
325.20087
 11
110.248027
 21
325.20087
  0
LINE
  5
161
100
AcDbEntity
  8
M2
 62
     6
100
AcDbLine
 10
106.848027
 20
327.50087
 11
110.248027
 21
327.50087
  0
LINE
  5
162
100
AcDbEntity
  8
M2
 62
     6
100
AcDbLine
 10
110.248027
 20
327.50087
 11
110.248027
 21
325.20087
  0
LINE
  5
163
100
AcDbEntity
  8
M2
 62
     6
100
AcDbLine
 10
106.848027
 20
327.50087
 11
106.848027
 21
325.20087
  0
LINE
  5
164
100
AcDbEntity
  8
M2
  6
DOT
 62
     6
100
AcDbLine
 10
105.239634
 20
326.35087
 11
105.239634
 21
324.15087
  0
LINE
  5
165
100
AcDbEntity
  8
M2
  6
DOT
 62
     6
100
AcDbLine
 10
102.798013
 20
326.35087
 11
105.239634
 21
326.35087
  0
LINE
  5
166
100
AcDbEntity
  8
M2
 62
     6
100
AcDbLine
 10
102.798013
 20
326.35087
 11
102.798013
 21
324.15087
  0
LINE
  5
167
100
AcDbEntity
  8
M2
 62
     6
100
AcDbLine
 10
102.798013
 20
326.35087
 11
99.598013
 21
326.35087
  0
LINE
  5
168
100
AcDbEntity
  8
M2
 62
     6
100
AcDbLine
 10
99.598013
 20
328.65087
 11
99.598013
 21
326.35087
  0
LINE
  5
169
100
AcDbEntity
  8
M2
 62
     6
100
AcDbLine
 10
98.487917
 20
319.371356
 11
95.798013
 21
320.924373
  0
LINE
  5
16A
100
AcDbEntity
  8
M2
 62
     6
100
AcDbLine
 10
97.098013
 20
326.15087
 11
91.944517
 21
326.15087
  0
ARC
  5
16B
100
AcDbEntity
  8
M2
 62
     6
100
AcDbCircle
 10
97.098013
 20
326.65087
 40
0.5
100
AcDbArc
 50
270.0
 51
360.0
  0
LINE
  5
16C
100
AcDbEntity
  8
M2
 62
     6
100
AcDbLine
 10
97.598013
 20
328.65087
 11
97.598013
 21
326.65087
  0
LINE
  5
16D
100
AcDbEntity
  8
M2
 62
     6
100
AcDbLine
 10
117.948013
 20
307.65087
 11
109.35329
 21
307.65087
  0
LINE
  5
16E
100
AcDbEntity
  8
M2
 62
     6
100
AcDbLine
 10
110.12814
 20
307.65087
 11
110.12814
 21
308.06991
  0
LINE
  5
16F
100
AcDbEntity
  8
M2
 62
     6
100
AcDbLine
 10
101.467886
 20
307.65087
 11
101.467886
 21
308.06991
  0
LINE
  5
170
100
AcDbEntity
  8
M2
 62
     6
100
AcDbLine
 10
102.242735
 20
307.65087
 11
92.948013
 21
307.65087
  0
LINE
  5
171
100
AcDbEntity
  8
M2
 62
     6
100
AcDbLine
 10
97.598013
 20
307.65087
 11
97.598013
 21
309.65087
  0
ARC
  5
172
100
AcDbEntity
  8
M2
 62
     6
100
AcDbCircle
 10
97.098013
 20
309.65087
 40
0.5
100
AcDbArc
 50
0.0
 51
90.0
  0
LINE
  5
173
100
AcDbEntity
  8
M2
 62
     6
100
AcDbLine
 10
92.948013
 20
310.15087
 11
97.098013
 21
310.15087
  0
LINE
  5
174
100
AcDbEntity
  8
M2
  6
DASHDOT
 62
     6
100
AcDbLine
 10
94.495009
 20
315.15087
 11
117.101016
 21
315.15087
  0
LINE
  5
175
100
AcDbEntity
  8
M2
  6
DASHDOT
 62
     6
100
AcDbLine
 10
105.798013
 20
303.847867
 11
105.798013
 21
326.453873
  0
ARC
  5
176
100
AcDbEntity
  8
M2
 62
     6
100
AcDbCircle
 10
100.948013
 20
296.15087
 40
2.999997
100
AcDbArc
 50
115.844051
 51
424.156194
  0
LINE
  5
177
100
AcDbEntity
  8
M2
 62
     6
100
AcDbLine
 10
97.604492
 20
298.850821
 11
97.172866
 21
297.450919
  0
LINE
  5
178
100
AcDbEntity
  8
M2
 62
     6
100
AcDbLine
 10
97.989028
 20
292.20362
 11
97.172866
 21
294.850943
  0
LINE
  5
179
100
AcDbEntity
  8
M2
 62
     6
100
AcDbLine
 10
103.906509
 20
292.203605
 11
104.534683
 21
294.24047
  0
LINE
  5
17A
100
AcDbEntity
  8
M2
 62
     6
100
AcDbLine
 10
98.467056
 20
291.850943
 11
103.428726
 21
291.850943
  0
LINE
  5
17B
100
AcDbEntity
  8
M2
 62
     6
100
AcDbLine
 10
97.172866
 20
297.450919
 11
97.172866
 21
294.850943
  0
LINE
  5
17C
100
AcDbEntity
  8
M2
 62
     6
100
AcDbLine
 10
102.538589
 20
294.56005
 11
99.356948
 21
297.741813
  0
LINE
  5
17D
100
AcDbEntity
  8
M2
 62
     6
100
AcDbLine
 10
101.301284
 20
297.565055
 11
99.533706
 21
295.797355
  0
LINE
  5
17E
100
AcDbEntity
  8
M2
 62
     6
100
AcDbLine
 10
102.361831
 20
296.504386
 11
100.594253
 21
294.736808
  0
ARC
  5
17F
100
AcDbEntity
  8
M2
 62
     6
100
AcDbCircle
 10
98.467056
 20
292.350943
 40
0.5
100
AcDbArc
 50
197.128737
 51
270.0
  0
ARC
  5
180
100
AcDbEntity
  8
M2
 62
     6
100
AcDbCircle
 10
103.428726
 20
292.350943
 40
0.5
100
AcDbArc
 50
270.0
 51
342.861308
  0
LINE
  5
181
100
AcDbEntity
  8
M2
  6
DASHDOT
 62
     6
100
AcDbLine
 10
100.448013
 20
296.15087
 11
101.448013
 21
296.15087
  0
LINE
  5
182
100
AcDbEntity
  8
M2
  6
DASHDOT
 62
     6
100
AcDbLine
 10
100.948013
 20
295.65087
 11
100.948013
 21
296.65087
  0
LINE
  5
183
100
AcDbEntity
  8
M2
 62
     6
100
AcDbLine
 10
80.710614
 20
329.65051
 11
75.944535
 21
329.650464
  0
LINE
  5
184
100
AcDbEntity
  8
M2
 62
     6
100
AcDbLine
 10
81.345787
 20
331.153362
 11
69.327416
 21
331.153404
  0
LINE
  5
185
100
AcDbEntity
  8
M2
 62
     6
100
AcDbLine
 10
80.699402
 20
328.653364
 11
75.944531
 21
328.653381
  0
LINE
  5
186
100
AcDbEntity
  8
M2
 62
     6
100
AcDbLine
 10
61.294542
 20
328.653432
 11
55.944531
 21
328.653451
  0
LINE
  5
187
100
AcDbEntity
  8
M2
 62
     6
100
AcDbLine
 10
61.294598
 20
329.653432
 11
55.944535
 21
329.653451
  0
LINE
  5
188
100
AcDbEntity
  8
M2
 62
     6
100
AcDbLine
 10
61.678937
 20
331.153431
 11
49.872966
 21
331.153472
  0
LINE
  5
189
100
AcDbEntity
  8
M2
 62
     6
100
AcDbLine
 10
41.905164
 20
329.6535
 11
35.81056
 21
329.653521
  0
LINE
  5
18A
100
AcDbEntity
  8
M2
 62
     6
100
AcDbLine
 10
41.835238
 20
328.6535
 11
35.944531
 21
328.65352
  0
LINE
  5
18B
100
AcDbEntity
  8
M2
100
AcDbLine
 10
154.04454
 20
380.060895
 11
154.04454
 21
380.558414
  0
LINE
  5
18C
100
AcDbEntity
  8
M2
100
AcDbLine
 10
158.09454
 20
381.153426
 11
160.59454
 21
381.153426
  0
LINE
  5
18D
100
AcDbEntity
  8
M2
100
AcDbLine
 10
131.49454
 20
393.653426
 11
123.69454
 21
393.653426
  0
LINE
  5
18E
100
AcDbEntity
  8
M2
100
AcDbLine
 10
187.19454
 20
411.103426
 11
187.19454
 21
393.569941
  0
LINE
  5
18F
100
AcDbEntity
  8
M2
100
AcDbLine
 10
195.994538
 20
388.053426
 11
191.49454
 21
388.053426
  0
LINE
  5
190
100
AcDbEntity
  8
M2
100
AcDbLine
 10
121.894539
 20
380.653426
 11
127.194539
 21
380.653426
  0
LINE
  5
191
100
AcDbEntity
  8
M2
100
AcDbLine
 10
127.194539
 20
388.053426
 11
127.194539
 21
380.653426
  0
LINE
  5
192
100
AcDbEntity
  8
M2
100
AcDbLine
 10
121.894539
 20
364.253427
 11
122.694541
 21
364.253427
  0
LINE
  5
193
100
AcDbEntity
  8
M2
100
AcDbLine
 10
157.59454
 20
381.653426
 11
157.59454
 21
388.600932
  0
LINE
  5
194
100
AcDbEntity
  8
M2
100
AcDbLine
 10
154.04454
 20
389.053426
 11
154.04454
 21
380.558414
  0
LINE
  5
195
100
AcDbEntity
  8
M2
100
AcDbLine
 10
164.64454
 20
389.053426
 11
164.64454
 21
380.558414
  0
LINE
  5
196
100
AcDbEntity
  8
M2
100
AcDbLine
 10
164.64454
 20
380.060895
 11
164.64454
 21
380.558414
  0
LINE
  5
197
100
AcDbEntity
  8
M2
100
AcDbLine
 10
134.79454
 20
344.853424
 11
134.79454
 21
345.853426
  0
LINE
  5
198
100
AcDbEntity
  8
M2
100
AcDbLine
 10
169.994539
 20
345.853426
 11
169.994539
 21
344.853424
  0
LINE
  5
199
100
AcDbEntity
  8
M2
100
AcDbLine
 10
152.89454
 20
395.353426
 11
153.29454
 21
395.353426
  0
LINE
  5
19A
100
AcDbEntity
  8
M2
100
AcDbLine
 10
196.79454
 20
380.653426
 11
196.79454
 21
388.053426
  0
LINE
  5
19B
100
AcDbEntity
  8
M2
100
AcDbLine
 10
165.39454
 20
395.353426
 11
165.79454
 21
395.353426
  0
LINE
  5
19C
100
AcDbEntity
  8
M2
100
AcDbLine
 10
195.494541
 20
388.053426
 11
195.494541
 21
380.653426
  0
LINE
  5
19D
100
AcDbEntity
  8
M2
100
AcDbLine
 10
191.49454
 20
380.653426
 11
195.994538
 21
380.653426
  0
LINE
  5
19E
100
AcDbEntity
  8
M2
100
AcDbLine
 10
194.99454
 20
375.053426
 11
187.19454
 21
375.053426
  0
LINE
  5
19F
100
AcDbEntity
  8
M2
100
AcDbLine
 10
123.69454
 20
375.053426
 11
131.49454
 21
375.053426
  0
LINE
  5
1A0
100
AcDbEntity
  8
M2
100
AcDbLine
 10
148.69454
 20
429.353428
 11
148.69454
 21
407.053427
  0
LINE
  5
1A1
100
AcDbEntity
  8
M2
100
AcDbLine
 10
183.89454
 20
422.853426
 11
183.89454
 21
423.853428
  0
LINE
  5
1A2
100
AcDbEntity
  8
M2
100
AcDbLine
 10
183.89454
 20
344.853424
 11
183.89454
 21
345.853426
  0
ARC
  5
1A3
100
AcDbEntity
  8
M2
100
AcDbCircle
 10
186.59454
 20
411.103426
 40
0.6
100
AcDbArc
 50
0.0
 51
90.0
  0
ARC
  5
1A4
100
AcDbEntity
  8
M2
100
AcDbCircle
 10
196.79454
 20
410.703426
 40
1.0
100
AcDbArc
 50
0.0
 51
90.0
  0
ARC
  5
1A5
100
AcDbEntity
  8
M2
100
AcDbCircle
 10
186.59454
 20
357.603426
 40
0.6
100
AcDbArc
 50
270.0
 51
360.0
  0
LINE
  5
1A6
100
AcDbEntity
  8
M2
100
AcDbLine
 10
130.84454
 20
401.603427
 11
124.344541
 21
401.60342
  0
ARC
  5
1A7
100
AcDbEntity
  8
M2
100
AcDbCircle
 10
132.09454
 20
357.603426
 40
0.6
100
AcDbArc
 50
180.0
 51
270.0
  0
LINE
  5
1A8
100
AcDbEntity
  8
M2
100
AcDbLine
 10
183.89454
 20
361.453426
 11
183.89454
 21
361.653425
  0
ARC
  5
1A9
100
AcDbEntity
  8
M2
100
AcDbCircle
 10
132.09454
 20
411.103426
 40
0.6
100
AcDbArc
 50
90.0
 51
180.0
  0
ARC
  5
1AA
100
AcDbEntity
  8
M2
100
AcDbCircle
 10
196.79454
 20
358.003426
 40
1.0
100
AcDbArc
 50
270.0
 51
360.0
  0
ARC
  5
1AB
100
AcDbEntity
  8
M2
100
AcDbCircle
 10
122.69454
 20
358.003426
 40
1.0
100
AcDbArc
 50
270.0
 51
360.0
  0
LINE
  5
1AC
100
AcDbEntity
  8
M2
100
AcDbLine
 10
131.49454
 20
411.103426
 11
131.49454
 21
393.541673
  0
LINE
  5
1AD
100
AcDbEntity
  8
M2
100
AcDbLine
 10
131.49454
 20
375.163747
 11
131.49454
 21
357.603426
  0
LINE
  5
1AE
100
AcDbEntity
  8
M2
100
AcDbLine
 10
187.19454
 20
393.653426
 11
194.99454
 21
393.653426
  0
LINE
  5
1AF
100
AcDbEntity
  8
M2
100
AcDbLine
 10
191.49454
 20
388.053426
 11
191.49454
 21
380.653426
  0
LINE
  5
1B0
100
AcDbEntity
  8
M2
100
AcDbLine
 10
196.79454
 20
357.003427
 11
195.994538
 21
357.003427
  0
LINE
  5
1B1
100
AcDbEntity
  8
M2
100
AcDbLine
 10
196.79454
 20
364.253427
 11
195.994538
 21
364.253427
  0
LINE
  5
1B2
100
AcDbEntity
  8
M2
100
AcDbLine
 10
122.694541
 20
411.703425
 11
121.894539
 21
411.703425
  0
LINE
  5
1B3
100
AcDbEntity
  8
M2
100
AcDbLine
 10
183.89454
 20
407.053427
 11
183.89454
 21
407.253426
  0
LINE
  5
1B4
100
AcDbEntity
  8
M2
100
AcDbLine
 10
195.994538
 20
411.703425
 11
196.79454
 21
411.703425
  0
LINE
  5
1B5
100
AcDbEntity
  8
M2
100
AcDbLine
 10
152.39454
 20
361.653425
 11
152.39454
 21
342.853426
  0
LINE
  5
1B6
100
AcDbEntity
  8
M2
100
AcDbLine
 10
134.79454
 20
361.453426
 11
134.79454
 21
361.653425
  0
LINE
  5
1B7
100
AcDbEntity
  8
M2
100
AcDbLine
 10
191.44782
 20
364.767787
 11
189.680242
 21
363.000087
  0
LINE
  5
1B8
100
AcDbEntity
  8
M2
100
AcDbLine
 10
192.685124
 20
361.762782
 11
189.503484
 21
364.944545
  0
LINE
  5
1B9
100
AcDbEntity
  8
M2
100
AcDbLine
 10
192.508367
 20
363.707118
 11
190.740789
 21
361.93954
  0
LINE
  5
1BA
100
AcDbEntity
  8
M2
100
AcDbLine
 10
143.625643
 20
355.320376
 11
141.277667
 21
352.972384
  0
LINE
  5
1BB
100
AcDbEntity
  8
M2
100
AcDbLine
 10
142.211443
 20
356.734591
 11
139.863467
 21
354.386599
  0
LINE
  5
1BC
100
AcDbEntity
  8
M2
100
AcDbLine
 10
139.675585
 20
356.922366
 11
143.938555
 21
352.659426
  0
ARC
  5
1BD
100
AcDbEntity
  8
M2
100
AcDbCircle
 10
122.69454
 20
410.703426
 40
1.0
100
AcDbArc
 50
0.0
 51
90.0
  0
ARC
  5
1BE
100
AcDbEntity
  8
M2
100
AcDbCircle
 10
121.89454
 20
410.703426
 40
1.0
100
AcDbArc
 50
90.0
 51
180.0
  0
ARC
  5
1BF
100
AcDbEntity
  8
M2
100
AcDbCircle
 10
195.99454
 20
358.003426
 40
1.0
100
AcDbArc
 50
180.0
 51
270.0
  0
LINE
  5
1C0
100
AcDbEntity
  8
M2
100
AcDbLine
 10
192.508367
 20
371.307118
 11
190.740789
 21
369.53954
  0
LINE
  5
1C1
100
AcDbEntity
  8
M2
100
AcDbLine
 10
191.44782
 20
372.367787
 11
189.680242
 21
370.600087
  0
LINE
  5
1C2
100
AcDbEntity
  8
M2
100
AcDbLine
 10
192.685124
 20
369.362783
 11
189.503484
 21
372.544545
  0
LINE
  5
1C3
100
AcDbEntity
  8
M2
100
AcDbLine
 10
161.225643
 20
355.320376
 11
158.877667
 21
352.972384
  0
LINE
  5
1C4
100
AcDbEntity
  8
M2
100
AcDbLine
 10
159.811443
 20
356.734591
 11
157.463467
 21
354.386599
  0
LINE
  5
1C5
100
AcDbEntity
  8
M2
100
AcDbLine
 10
157.275585
 20
356.922366
 11
161.538555
 21
352.659426
  0
LINE
  5
1C6
100
AcDbEntity
  8
M2
100
AcDbLine
 10
178.825643
 20
355.320376
 11
176.477667
 21
352.972384
  0
LINE
  5
1C7
100
AcDbEntity
  8
M2
100
AcDbLine
 10
177.411443
 20
356.734591
 11
175.063467
 21
354.386599
  0
LINE
  5
1C8
100
AcDbEntity
  8
M2
100
AcDbLine
 10
174.875585
 20
356.922366
 11
179.138555
 21
352.659426
  0
LINE
  5
1C9
100
AcDbEntity
  8
M2
100
AcDbLine
 10
123.69454
 20
358.003425
 11
123.69454
 21
379.653426
  0
LINE
  5
1CA
100
AcDbEntity
  8
M2
100
AcDbLine
 10
187.19454
 20
375.163747
 11
187.19454
 21
357.603426
  0
ARC
  5
1CB
100
AcDbEntity
  8
M2
100
AcDbCircle
 10
187.84454
 20
408.603426
 40
0.5
100
AcDbArc
 50
90.0
 51
180.0
  0
ARC
  5
1CC
100
AcDbEntity
  8
M2
100
AcDbCircle
 10
194.34454
 20
402.103426
 40
0.5
100
AcDbArc
 50
270.0
 51
360.0
  0
LINE
  5
1CD
100
AcDbEntity
  8
M2
100
AcDbLine
 10
121.894539
 20
380.653426
 11
121.894539
 21
388.053426
  0
LINE
  5
1CE
100
AcDbEntity
  8
M2
100
AcDbLine
 10
123.69454
 20
389.053426
 11
123.69454
 21
410.703427
  0
LINE
  5
1CF
100
AcDbEntity
  8
M2
100
AcDbLine
 10
123.194539
 20
388.053426
 11
123.194539
 21
380.653426
  0
LINE
  5
1D0
100
AcDbEntity
  8
M2
100
AcDbLine
 10
134.79454
 20
407.053427
 11
134.79454
 21
425.853424
  0
LINE
  5
1D1
100
AcDbEntity
  8
M2
100
AcDbLine
 10
183.89454
 20
423.853428
 11
183.89454
 21
425.853424
  0
LINE
  5
1D2
100
AcDbEntity
  8
M2
100
AcDbLine
 10
194.99454
 20
358.003425
 11
194.99454
 21
379.653426
  0
ARC
  5
1D3
100
AcDbEntity
  8
M2
100
AcDbCircle
 10
195.99454
 20
410.703426
 40
1.0
100
AcDbArc
 50
90.0
 51
180.0
  0
ARC
  5
1D4
100
AcDbEntity
  8
M2
100
AcDbCircle
 10
121.89454
 20
365.253426
 40
1.0
100
AcDbArc
 50
180.0
 51
270.0
  0
ARC
  5
1D5
100
AcDbEntity
  8
M2
100
AcDbCircle
 10
182.297672
 20
396.202682
 40
5.573176
100
AcDbArc
 50
320.442941
 51
331.479874
  0
ARC
  5
1D6
100
AcDbEntity
  8
M2
100
AcDbCircle
 10
132.09454
 20
403.853426
 40
0.6
100
AcDbArc
 50
90.0
 51
180.0
  0
ARC
  5
1D7
100
AcDbEntity
  8
M2
100
AcDbCircle
 10
136.391407
 20
396.202682
 40
5.573176
100
AcDbArc
 50
208.520126
 51
219.557059
  0
ARC
  5
1D8
100
AcDbEntity
  8
M2
100
AcDbCircle
 10
186.59454
 20
403.853426
 40
0.6
100
AcDbArc
 50
0.0
 51
90.0
  0
ARC
  5
1D9
100
AcDbEntity
  8
M2
100
AcDbCircle
 10
194.34454
 20
408.603426
 40
0.5
100
AcDbArc
 50
0.0
 51
90.0
  0
ARC
  5
1DA
100
AcDbEntity
  8
M2
100
AcDbCircle
 10
124.344539
 20
408.603425
 40
0.5
100
AcDbArc
 50
90.0
 51
180.0
  0
ARC
  5
1DB
100
AcDbEntity
  8
M2
100
AcDbCircle
 10
187.84454
 20
402.103426
 40
0.5
100
AcDbArc
 50
180.0
 51
270.0
  0
ARC
  5
1DC
100
AcDbEntity
  8
M2
100
AcDbCircle
 10
124.34454
 20
402.103425
 40
0.5
100
AcDbArc
 50
180.0
 51
270.0
  0
ARC
  5
1DD
100
AcDbEntity
  8
M2
100
AcDbCircle
 10
149.69454
 20
425.853426
 40
1.0
100
AcDbArc
 50
90.0
 51
180.0
  0
ARC
  5
1DE
100
AcDbEntity
  8
M2
100
AcDbCircle
 10
121.89454
 20
403.453426
 40
1.0
100
AcDbArc
 50
90.0
 51
180.0
  0
ARC
  5
1DF
100
AcDbEntity
  8
M2
100
AcDbCircle
 10
151.39454
 20
425.853426
 40
1.0
100
AcDbArc
 50
0.0
 51
90.0
  0
ARC
  5
1E0
100
AcDbEntity
  8
M2
100
AcDbCircle
 10
194.84454
 20
351.853426
 40
2.25
100
AcDbArc
 50
270.928845
 51
451.752277
  0
ARC
  5
1E1
100
AcDbEntity
  8
M2
100
AcDbCircle
 10
194.388541
 20
349.303722
 40
0.3
100
AcDbArc
 50
90.0
 51
180.0
  0
ARC
  5
1E2
100
AcDbEntity
  8
M2
100
AcDbCircle
 10
133.09454
 20
425.853426
 40
1.0
100
AcDbArc
 50
90.0
 51
180.0
  0
ARC
  5
1E3
100
AcDbEntity
  8
M2
100
AcDbCircle
 10
196.79454
 20
403.453426
 40
1.0
100
AcDbArc
 50
0.0
 51
90.0
  0
ARC
  5
1E4
100
AcDbEntity
  8
M2
100
AcDbCircle
 10
122.69454
 20
389.053426
 40
1.0
100
AcDbArc
 50
270.0
 51
360.0
  0
ARC
  5
1E5
100
AcDbEntity
  8
M2
100
AcDbCircle
 10
146.49454
 20
421.553426
 40
0.6
100
AcDbArc
 50
270.0
 51
352.509835
  0
ARC
  5
1E6
100
AcDbEntity
  8
M2
100
AcDbCircle
 10
196.79454
 20
389.053426
 40
1.0
100
AcDbArc
 50
270.0
 51
360.0
  0
ARC
  5
1E7
100
AcDbEntity
  8
M2
100
AcDbCircle
 10
195.99454
 20
389.053426
 40
1.0
100
AcDbArc
 50
180.0
 51
270.0
  0
ARC
  5
1E8
100
AcDbEntity
  8
M2
100
AcDbCircle
 10
167.29454
 20
425.853426
 40
1.0
100
AcDbArc
 50
90.0
 51
180.0
  0
ARC
  5
1E9
100
AcDbEntity
  8
M2
100
AcDbCircle
 10
133.79454
 20
425.853426
 40
1.0
100
AcDbArc
 50
0.0
 51
90.0
  0
ARC
  5
1EA
100
AcDbEntity
  8
M2
100
AcDbCircle
 10
184.89454
 20
425.853426
 40
1.0
100
AcDbArc
 50
90.0
 51
180.0
  0
LINE
  5
1EB
100
AcDbEntity
  8
M2
100
AcDbLine
 10
134.79454
 20
342.853428
 11
134.79454
 21
344.853424
  0
ARC
  5
1EC
100
AcDbEntity
  8
M2
100
AcDbCircle
 10
168.99454
 20
425.853426
 40
1.0
100
AcDbArc
 50
0.0
 51
90.0
  0
LINE
  5
1ED
100
AcDbEntity
  8
M2
100
AcDbLine
 10
169.994539
 20
344.853424
 11
169.994539
 21
342.853428
  0
LINE
  5
1EE
100
AcDbEntity
  8
M2
100
AcDbLine
 10
132.09454
 20
425.853426
 11
132.09454
 21
390.553426
  0
LINE
  5
1EF
100
AcDbEntity
  8
M2
100
AcDbLine
 10
149.19454
 20
408.753425
 11
151.89454
 21
408.753425
  0
LINE
  5
1F0
100
AcDbEntity
  8
M2
100
AcDbLine
 10
150.14454
 20
390.453426
 11
151.64454
 21
388.953426
  0
LINE
  5
1F1
100
AcDbEntity
  8
M2
100
AcDbLine
 10
185.594539
 20
361.653425
 11
133.094541
 21
361.653425
  0
LINE
  5
1F2
100
AcDbEntity
  8
M2
100
AcDbLine
 10
133.094541
 20
382.853426
 11
132.09454
 21
382.853426
  0
LINE
  5
1F3
100
AcDbEntity
  8
M2
100
AcDbLine
 10
153.79454
 20
374.853426
 11
164.89454
 21
374.853426
  0
LINE
  5
1F4
100
AcDbEntity
  8
M2
100
AcDbLine
 10
184.89454
 20
407.253426
 11
183.89454
 21
407.253426
  0
LINE
  5
1F5
100
AcDbEntity
  8
M2
100
AcDbLine
 10
132.09454
 20
378.153426
 11
132.09454
 21
342.853426
  0
LINE
  5
1F6
100
AcDbEntity
  8
M2
100
AcDbLine
 10
133.794539
 20
361.453426
 11
133.794539
 21
361.653425
  0
LINE
  5
1F7
100
AcDbEntity
  8
M2
100
AcDbLine
 10
191.096027
 20
351.935246
 11
191.096027
 21
351.903424
  0
LINE
  5
1F8
100
AcDbEntity
  8
M2
100
AcDbLine
 10
194.088542
 20
349.189237
 11
194.088542
 21
349.303723
  0
LINE
  5
1F9
100
AcDbEntity
  8
M2
100
AcDbLine
 10
198.29454
 20
355.553426
 11
198.29454
 21
344.853424
  0
LINE
  5
1FA
100
AcDbEntity
  8
M2
100
AcDbLine
 10
164.39454
 20
390.353426
 11
164.39454
 21
394.353426
  0
LINE
  5
1FB
100
AcDbEntity
  8
M2
100
AcDbLine
 10
150.14454
 20
394.353426
 11
150.14454
 21
374.020322
  0
LINE
  5
1FC
100
AcDbEntity
  8
M2
100
AcDbLine
 10
154.29454
 20
390.353426
 11
154.29454
 21
394.353426
  0
ARC
  5
1FD
100
AcDbEntity
  8
M2
100
AcDbCircle
 10
168.99454
 20
342.853426
 40
1.0
100
AcDbArc
 50
270.0
 51
360.0
  0
ARC
  5
1FE
100
AcDbEntity
  8
M2
100
AcDbCircle
 10
195.99454
 20
379.653426
 40
1.0
100
AcDbArc
 50
90.0
 51
180.0
  0
ARC
  5
1FF
100
AcDbEntity
  8
M2
100
AcDbCircle
 10
149.69454
 20
342.853426
 40
1.0
100
AcDbArc
 50
180.0
 51
270.0
  0
LINE
  5
200
100
AcDbEntity
  8
M2
100
AcDbLine
 10
153.79454
 20
378.653426
 11
164.89454
 21
378.653426
  0
LINE
  5
201
100
AcDbEntity
  8
M2
100
AcDbLine
 10
164.89454
 20
377.153426
 11
153.79454
 21
377.153426
  0
LINE
  5
202
100
AcDbEntity
  8
M2
100
AcDbLine
 10
132.59454
 20
377.153426
 11
133.094541
 21
377.153426
  0
LINE
  5
203
100
AcDbEntity
  8
M2
100
AcDbLine
 10
132.09454
 20
382.953426
 11
132.09454
 21
382.853426
  0
LINE
  5
204
100
AcDbEntity
  8
M2
100
AcDbLine
 10
132.09454
 20
385.853426
 11
132.09454
 21
385.753426
  0
LINE
  5
205
100
AcDbEntity
  8
M2
100
AcDbLine
 10
155.19454
 20
389.553426
 11
155.19454
 21
389.853426
  0
LINE
  5
206
100
AcDbEntity
  8
M2
100
AcDbLine
 10
169.994539
 20
417.553425
 11
169.994539
 21
420.353424
  0
LINE
  5
207
100
AcDbEntity
  8
M2
100
AcDbLine
 10
142.444541
 20
346.053426
 11
141.54454
 21
346.053426
  0
LINE
  5
208
100
AcDbEntity
  8
M2
100
AcDbLine
 10
163.49454
 20
378.653426
 11
163.49454
 21
379.153426
  0
LINE
  5
209
100
AcDbEntity
  8
M2
100
AcDbLine
 10
145.29454
 20
347.853427
 11
148.69454
 21
347.853427
  0
LINE
  5
20A
100
AcDbEntity
  8
M2
100
AcDbLine
 10
173.394542
 20
420.853425
 11
169.994539
 21
420.853425
  0
LINE
  5
20B
100
AcDbEntity
  8
M2
100
AcDbLine
 10
154.54454
 20
379.153426
 11
153.79454
 21
379.153426
  0
LINE
  5
20C
100
AcDbEntity
  8
M2
100
AcDbLine
 10
188.09454
 20
358.553425
 11
188.09454
 21
359.603426
  0
LINE
  5
20D
100
AcDbEntity
  8
M2
100
AcDbLine
 10
164.64454
 20
380.060895
 11
164.64454
 21
379.653426
  0
LINE
  5
20E
100
AcDbEntity
  8
M2
100
AcDbLine
 10
153.79454
 20
389.553426
 11
164.89454
 21
389.553426
  0
LINE
  5
20F
100
AcDbEntity
  8
M2
100
AcDbLine
 10
163.49454
 20
389.553426
 11
163.49454
 21
389.853426
  0
LINE
  5
210
100
AcDbEntity
  8
M2
100
AcDbLine
 10
154.54454
 20
379.153426
 11
164.14454
 21
379.153426
  0
ARC
  5
211
100
AcDbEntity
  8
M2
100
AcDbCircle
 10
122.69454
 20
365.253426
 40
1.0
100
AcDbArc
 50
270.0
 51
360.0
  0
ARC
  5
212
100
AcDbEntity
  8
M2
100
AcDbCircle
 10
132.09454
 20
364.853426
 40
0.6
100
AcDbArc
 50
180.0
 51
270.0
  0
ARC
  5
213
100
AcDbEntity
  8
M2
100
AcDbCircle
 10
186.59454
 20
364.853426
 40
0.6
100
AcDbArc
 50
270.0
 51
360.0
  0
ARC
  5
214
100
AcDbEntity
  8
M2
100
AcDbCircle
 10
184.152548
 20
373.759384
 40
3.350514
100
AcDbArc
 50
24.780822
 51
43.210715
  0
LINE
  5
215
100
AcDbEntity
  8
M2
100
AcDbLine
 10
162.89454
 20
347.853427
 11
166.29454
 21
347.853427
  0
LINE
  5
216
100
AcDbEntity
  8
M2
100
AcDbLine
 10
180.49454
 20
347.853427
 11
183.89454
 21
347.853427
  0
ARC
  5
217
100
AcDbEntity
  8
M2
100
AcDbCircle
 10
122.69454
 20
379.653426
 40
1.0
100
AcDbArc
 50
0.0
 51
90.0
  0
ARC
  5
218
100
AcDbEntity
  8
M2
100
AcDbCircle
 10
195.99454
 20
365.253426
 40
1.0
100
AcDbArc
 50
180.0
 51
270.0
  0
ARC
  5
219
100
AcDbEntity
  8
M2
100
AcDbCircle
 10
196.79454
 20
365.253426
 40
1.0
100
AcDbArc
 50
270.0
 51
360.0
  0
ARC
  5
21A
100
AcDbEntity
  8
M2
100
AcDbCircle
 10
134.536531
 20
373.759384
 40
3.350514
100
AcDbArc
 50
136.789285
 51
155.219178
  0
LINE
  5
21B
100
AcDbEntity
  8
M2
100
AcDbLine
 10
124.34454
 20
409.103426
 11
130.844539
 21
409.103426
  0
LINE
  5
21C
100
AcDbEntity
  8
M2
100
AcDbLine
 10
165.39454
 20
395.353426
 11
167.54454
 21
395.353426
  0
LINE
  5
21D
100
AcDbEntity
  8
M2
100
AcDbLine
 10
187.19454
 20
360.053426
 11
187.347046
 21
360.053426
  0
LINE
  5
21E
100
AcDbEntity
  8
M2
100
AcDbLine
 10
194.094539
 20
359.603426
 11
194.094539
 21
358.553425
  0
LINE
  5
21F
100
AcDbEntity
  8
M2
100
AcDbLine
 10
157.59454
 20
388.600932
 11
157.59454
 21
388.62238
  0
LINE
  5
220
100
AcDbEntity
  8
M2
100
AcDbLine
 10
154.04454
 20
388.62238
 11
154.04454
 21
388.600932
  0
LINE
  5
221
100
AcDbEntity
  8
M2
100
AcDbLine
 10
161.09454
 20
388.600932
 11
161.09454
 21
388.62238
  0
LINE
  5
222
100
AcDbEntity
  8
M2
100
AcDbLine
 10
154.04454
 20
380.060895
 11
154.04454
 21
379.653426
  0
LINE
  5
223
100
AcDbEntity
  8
M2
100
AcDbLine
 10
161.09454
 20
381.653426
 11
161.09454
 21
388.600932
  0
LINE
  5
224
100
AcDbEntity
  8
M2
100
AcDbLine
 10
164.64454
 20
388.62238
 11
164.64454
 21
388.600932
  0
LINE
  5
225
100
AcDbEntity
  8
M2
100
AcDbLine
 10
166.29454
 20
420.853425
 11
162.894542
 21
420.853425
  0
LINE
  5
226
100
AcDbEntity
  8
M2
100
AcDbLine
 10
194.094539
 20
358.553425
 11
188.09454
 21
358.553425
  0
ARC
  5
227
100
AcDbEntity
  8
M2
100
AcDbCircle
 10
124.344539
 20
408.603425
 40
0.5
100
AcDbArc
 50
90.0
 51
180.0
  0
ARC
  5
228
100
AcDbEntity
  8
M2
100
AcDbCircle
 10
130.84454
 20
402.103426
 40
0.5
100
AcDbArc
 50
270.0
 51
360.0
  0
ARC
  5
229
100
AcDbEntity
  8
M2
100
AcDbCircle
 10
130.844539
 20
408.603426
 40
0.5
100
AcDbArc
 50
0.0
 51
90.0
  0
ARC
  5
22A
100
AcDbEntity
  8
M2
100
AcDbCircle
 10
194.34454
 20
360.103426
 40
0.5
100
AcDbArc
 50
270.0
 51
360.0
  0
ARC
  5
22B
100
AcDbEntity
  8
M2
100
AcDbCircle
 10
172.044539
 20
428.203425
 40
0.5
100
AcDbArc
 50
90.0
 51
180.0
  0
ARC
  5
22C
100
AcDbEntity
  8
M2
100
AcDbCircle
 10
172.04454
 20
421.703425
 40
0.5
100
AcDbArc
 50
180.0
 51
270.0
  0
ARC
  5
22D
100
AcDbEntity
  8
M2
100
AcDbCircle
 10
124.34454
 20
402.103425
 40
0.5
100
AcDbArc
 50
180.0
 51
270.0
  0
LINE
  5
22E
100
AcDbEntity
  8
M2
100
AcDbLine
 10
150.34454
 20
370.853426
 11
150.34454
 21
369.853426
  0
LINE
  5
22F
100
AcDbEntity
  8
M2
100
AcDbLine
 10
165.84454
 20
371.353426
 11
167.84454
 21
371.353426
  0
LINE
  5
230
100
AcDbEntity
  8
M2
100
AcDbLine
 10
167.84454
 20
369.353426
 11
165.84454
 21
369.353426
  0
LINE
  5
231
100
AcDbEntity
  8
M2
100
AcDbLine
 10
162.34454
 20
396.553426
 11
162.34454
 21
398.153426
  0
LINE
  5
232
100
AcDbEntity
  8
M2
100
AcDbLine
 10
150.844539
 20
369.353426
 11
152.84454
 21
369.353426
  0
LINE
  5
233
100
AcDbEntity
  8
M2
100
AcDbLine
 10
162.34454
 20
398.153426
 11
156.34454
 21
398.153426
  0
LINE
  5
234
100
AcDbEntity
  8
M2
100
AcDbLine
 10
168.344539
 20
370.853426
 11
168.344539
 21
369.853426
  0
LINE
  5
235
100
AcDbEntity
  8
M2
100
AcDbLine
 10
164.24454
 20
394.553426
 11
164.24454
 21
394.053426
  0
LINE
  5
236
100
AcDbEntity
  8
M2
100
AcDbLine
 10
123.844539
 20
367.703425
 11
123.844539
 21
374.203426
  0
LINE
  5
237
100
AcDbEntity
  8
M2
100
AcDbLine
 10
133.094541
 20
407.053427
 11
185.594539
 21
407.053427
  0
LINE
  5
238
100
AcDbEntity
  8
M2
100
AcDbLine
 10
153.34454
 20
369.853426
 11
153.34454
 21
370.853426
  0
ARC
  5
239
100
AcDbEntity
  8
M2
100
AcDbCircle
 10
187.844539
 20
374.203425
 40
0.5
100
AcDbArc
 50
90.0
 51
180.0
  0
ARC
  5
23A
100
AcDbEntity
  8
M2
100
AcDbCircle
 10
187.84454
 20
367.703425
 40
0.5
100
AcDbArc
 50
180.0
 51
270.0
  0
ARC
  5
23B
100
AcDbEntity
  8
M2
100
AcDbCircle
 10
194.344539
 20
374.203426
 40
0.5
100
AcDbArc
 50
0.0
 51
90.0
  0
ARC
  5
23C
100
AcDbEntity
  8
M2
100
AcDbCircle
 10
194.34454
 20
367.703426
 40
0.5
100
AcDbArc
 50
270.0
 51
360.0
  0
ARC
  5
23D
100
AcDbEntity
  8
M2
100
AcDbCircle
 10
194.34454
 20
367.703426
 40
0.5
100
AcDbArc
 50
270.0
 51
360.0
  0
ARC
  5
23E
100
AcDbEntity
  8
M2
100
AcDbCircle
 10
131.44454
 20
345.353426
 40
0.5
100
AcDbArc
 50
180.0
 51
270.0
  0
LINE
  5
23F
100
AcDbEntity
  8
M2
100
AcDbLine
 10
131.344541
 20
408.603426
 11
131.344541
 21
402.103427
  0
LINE
  5
240
100
AcDbEntity
  8
M2
100
AcDbLine
 10
172.044539
 20
428.703428
 11
173.944542
 21
428.703428
  0
ARC
  5
241
100
AcDbEntity
  8
M2
100
AcDbCircle
 10
124.344539
 20
401.003425
 40
0.5
100
AcDbArc
 50
90.0
 51
180.0
  0
ARC
  5
242
100
AcDbEntity
  8
M2
100
AcDbCircle
 10
146.64454
 20
428.203426
 40
0.5
100
AcDbArc
 50
0.0
 51
90.0
  0
ARC
  5
243
100
AcDbEntity
  8
M2
100
AcDbCircle
 10
124.34454
 20
366.603426
 40
0.5
100
AcDbArc
 50
90.0
 51
180.0
  0
ARC
  5
244
100
AcDbEntity
  8
M2
100
AcDbCircle
 10
187.84454
 20
360.103425
 40
0.5
100
AcDbArc
 50
180.0
 51
270.0
  0
ARC
  5
245
100
AcDbEntity
  8
M2
100
AcDbCircle
 10
185.59454
 20
425.853426
 40
1.0
100
AcDbArc
 50
0.0
 51
90.0
  0
ARC
  5
246
100
AcDbEntity
  8
M2
100
AcDbCircle
 10
194.344539
 20
366.603426
 40
0.5
100
AcDbArc
 50
0.0
 51
90.0
  0
ARC
  5
247
100
AcDbEntity
  8
M2
100
AcDbCircle
 10
130.84454
 20
366.603426
 40
0.5
100
AcDbArc
 50
0.0
 51
90.0
  0
ARC
  5
248
100
AcDbEntity
  8
M2
100
AcDbCircle
 10
130.89454
 20
423.853426
 40
2.0
100
AcDbArc
 50
53.130102
 51
90.0
  0
ARC
  5
249
100
AcDbEntity
  8
M2
100
AcDbCircle
 10
187.79454
 20
423.853426
 40
2.0
100
AcDbArc
 50
90.0
 51
126.869898
  0
ARC
  5
24A
100
AcDbEntity
  8
M2
100
AcDbCircle
 10
124.34454
 20
360.103426
 40
0.5
100
AcDbArc
 50
180.0
 51
270.0
  0
ARC
  5
24B
100
AcDbEntity
  8
M2
100
AcDbCircle
 10
130.84454
 20
360.103426
 40
0.5
100
AcDbArc
 50
270.0
 51
360.0
  0
ARC
  5
24C
100
AcDbEntity
  8
M2
100
AcDbCircle
 10
187.84454
 20
394.503426
 40
0.5
100
AcDbArc
 50
180.0
 51
270.0
  0
ARC
  5
24D
100
AcDbEntity
  8
M2
100
AcDbCircle
 10
194.34454
 20
360.103426
 40
0.5
100
AcDbArc
 50
270.0
 51
360.0
  0
ARC
  5
24E
100
AcDbEntity
  8
M2
100
AcDbCircle
 10
194.34454
 20
394.503426
 40
0.5
100
AcDbArc
 50
270.0
 51
360.0
  0
ARC
  5
24F
100
AcDbEntity
  8
M2
100
AcDbCircle
 10
194.34454
 20
401.003426
 40
0.5
100
AcDbArc
 50
0.0
 51
90.0
  0
ARC
  5
250
100
AcDbEntity
  8
M2
100
AcDbCircle
 10
187.844539
 20
366.603425
 40
0.5
100
AcDbArc
 50
90.0
 51
180.0
  0
ARC
  5
251
100
AcDbEntity
  8
M2
100
AcDbCircle
 10
187.84454
 20
401.003426
 40
0.5
100
AcDbArc
 50
90.0
 51
180.0
  0
ARC
  5
252
100
AcDbEntity
  8
M2
100
AcDbCircle
 10
165.24454
 20
394.553426
 40
1.0
100
AcDbArc
 50
90.0
 51
180.0
  0
ARC
  5
253
100
AcDbEntity
  8
M2
100
AcDbCircle
 10
153.44454
 20
394.553426
 40
1.0
100
AcDbArc
 50
0.0
 51
90.0
  0
ARC
  5
254
100
AcDbEntity
  8
M2
100
AcDbCircle
 10
133.09454
 20
406.053426
 40
1.0
100
AcDbArc
 50
90.0
 51
180.0
  0
ARC
  5
255
100
AcDbEntity
  8
M2
100
AcDbCircle
 10
194.344539
 20
366.603426
 40
0.5
100
AcDbArc
 50
0.0
 51
90.0
  0
ARC
  5
256
100
AcDbEntity
  8
M2
100
AcDbCircle
 10
124.344539
 20
401.003425
 40
0.5
100
AcDbArc
 50
90.0
 51
180.0
  0
ARC
  5
257
100
AcDbEntity
  8
M2
100
AcDbCircle
 10
124.34454
 20
374.203426
 40
0.5
100
AcDbArc
 50
90.0
 51
180.0
  0
ARC
  5
258
100
AcDbEntity
  8
M2
100
AcDbCircle
 10
124.34454
 20
394.503425
 40
0.5
100
AcDbArc
 50
180.0
 51
270.0
  0
ARC
  5
259
100
AcDbEntity
  8
M2
100
AcDbCircle
 10
130.84454
 20
394.503426
 40
0.5
100
AcDbArc
 50
270.0
 51
360.0
  0
ARC
  5
25A
100
AcDbEntity
  8
M2
100
AcDbCircle
 10
124.34454
 20
394.503425
 40
0.5
100
AcDbArc
 50
180.0
 51
270.0
  0
ARC
  5
25B
100
AcDbEntity
  8
M2
100
AcDbCircle
 10
194.344539
 20
374.203426
 40
0.5
100
AcDbArc
 50
0.0
 51
90.0
  0
ARC
  5
25C
100
AcDbEntity
  8
M2
100
AcDbCircle
 10
154.54454
 20
388.62238
 40
0.5
100
AcDbArc
 50
90.0
 51
180.0
  0
ARC
  5
25D
100
AcDbEntity
  8
M2
100
AcDbCircle
 10
124.34454
 20
367.703426
 40
0.5
100
AcDbArc
 50
180.0
 51
270.0
  0
ARC
  5
25E
100
AcDbEntity
  8
M2
100
AcDbCircle
 10
164.14454
 20
388.62238
 40
0.5
100
AcDbArc
 50
0.0
 51
90.0
  0
ARC
  5
25F
100
AcDbEntity
  8
M2
100
AcDbCircle
 10
130.84454
 20
374.203426
 40
0.5
100
AcDbArc
 50
0.0
 51
90.0
  0
ARC
  5
260
100
AcDbEntity
  8
M2
100
AcDbCircle
 10
130.844539
 20
401.003426
 40
0.5
100
AcDbArc
 50
0.0
 51
90.0
  0
ARC
  5
261
100
AcDbEntity
  8
M2
100
AcDbCircle
 10
130.84454
 20
367.703426
 40
0.5
100
AcDbArc
 50
270.0
 51
360.0
  0
LINE
  5
262
100
AcDbEntity
  8
M2
100
AcDbLine
 10
130.84454
 20
367.203426
 11
124.34454
 21
367.203426
  0
LINE
  5
263
100
AcDbEntity
  8
M2
100
AcDbLine
 10
167.744539
 20
395.553426
 11
165.24454
 21
395.553426
  0
LINE
  5
264
100
AcDbEntity
  8
M2
100
AcDbLine
 10
187.84454
 20
401.503426
 11
194.34454
 21
401.503426
  0
LINE
  5
265
100
AcDbEntity
  8
M2
100
AcDbLine
 10
194.844541
 20
401.003426
 11
194.844541
 21
394.503426
  0
LINE
  5
266
100
AcDbEntity
  8
M2
100
AcDbLine
 10
194.34454
 20
394.003426
 11
187.84454
 21
394.003426
  0
LINE
  5
267
100
AcDbEntity
  8
M2
100
AcDbLine
 10
187.344541
 20
394.503426
 11
187.344541
 21
401.003427
  0
LINE
  5
268
100
AcDbEntity
  8
M2
100
AcDbLine
 10
156.34454
 20
396.553426
 11
156.34454
 21
398.153426
  0
ARC
  5
269
100
AcDbEntity
  8
M2
100
AcDbCircle
 10
146.64454
 20
421.703426
 40
0.5
100
AcDbArc
 50
270.0
 51
360.0
  0
LINE
  5
26A
100
AcDbEntity
  8
M2
100
AcDbLine
 10
156.34454
 20
396.553426
 11
162.34454
 21
396.553426
  0
LINE
  5
26B
100
AcDbEntity
  8
M2
100
AcDbLine
 10
150.94454
 20
373.153426
 11
167.744539
 21
373.153426
  0
LINE
  5
26C
100
AcDbEntity
  8
M2
100
AcDbLine
 10
149.94454
 20
374.153426
 11
149.94454
 21
394.553426
  0
LINE
  5
26D
100
AcDbEntity
  8
M2
100
AcDbLine
 10
168.74454
 20
374.153426
 11
168.74454
 21
394.553426
  0
LINE
  5
26E
100
AcDbEntity
  8
M2
100
AcDbLine
 10
194.844541
 20
367.703427
 11
194.844541
 21
374.203426
  0
LINE
  5
26F
100
AcDbEntity
  8
M2
100
AcDbLine
 10
124.34454
 20
374.703426
 11
130.84454
 21
374.703426
  0
LINE
  5
270
100
AcDbEntity
  8
M2
100
AcDbLine
 10
187.84454
 20
374.703426
 11
194.344539
 21
374.703426
  0
ARC
  5
271
100
AcDbEntity
  8
M2
100
AcDbCircle
 10
132.59454
 20
392.053426
 40
0.5
100
AcDbArc
 50
180.0
 51
270.0
  0
LINE
  5
272
100
AcDbEntity
  8
M2
100
AcDbLine
 10
130.84454
 20
359.603426
 11
124.34454
 21
359.603426
  0
ARC
  5
273
100
AcDbEntity
  8
M2
100
AcDbCircle
 10
186.09454
 20
392.053426
 40
0.5
100
AcDbArc
 50
270.0
 51
360.0
  0
LINE
  5
274
100
AcDbEntity
  8
M2
  6
DASHDOT
100
AcDbLine
 10
159.34454
 20
338.853426
 11
159.34454
 21
433.853427
  0
LINE
  5
275
100
AcDbEntity
  8
M2
  6
DASHDOT
100
AcDbLine
 10
215.894541
 20
384.353426
 11
15.894541
 21
384.353426
  0
LINE
  5
276
100
AcDbEntity
  8
M2
100
AcDbLine
 10
130.84454
 20
394.003426
 11
124.34454
 21
394.003426
  0
LINE
  5
277
100
AcDbEntity
  8
M2
100
AcDbLine
 10
131.344539
 20
374.203426
 11
131.344539
 21
367.703426
  0
LINE
  5
278
100
AcDbEntity
  8
M2
100
AcDbLine
 10
124.344539
 20
401.503426
 11
130.84454
 21
401.503426
  0
LINE
  5
279
100
AcDbEntity
  8
M2
  6
DASHDOT
100
AcDbLine
 10
127.09454
 20
405.353426
 11
128.09454
 21
405.353426
  0
LINE
  5
27A
100
AcDbEntity
  8
M2
  6
DASHDOT
100
AcDbLine
 10
127.59454
 20
404.853426
 11
127.59454
 21
405.853426
  0
LINE
  5
27B
100
AcDbEntity
  8
M2
100
AcDbLine
 10
157.275585
 20
415.922366
 11
161.538555
 21
411.659426
  0
LINE
  5
27C
100
AcDbEntity
  8
M2
100
AcDbLine
 10
161.225643
 20
414.320376
 11
158.877667
 21
411.972384
  0
LINE
  5
27D
100
AcDbEntity
  8
M2
100
AcDbLine
 10
177.411443
 20
415.734591
 11
175.063467
 21
413.386599
  0
LINE
  5
27E
100
AcDbEntity
  8
M2
100
AcDbLine
 10
174.875585
 20
415.922366
 11
179.138555
 21
411.659426
  0
LINE
  5
27F
100
AcDbEntity
  8
M2
100
AcDbLine
 10
178.825643
 20
414.320376
 11
176.477667
 21
411.972384
  0
LINE
  5
280
100
AcDbEntity
  8
M2
100
AcDbLine
 10
127.947818
 20
364.767787
 11
126.18024
 21
363.000087
  0
LINE
  5
281
100
AcDbEntity
  8
M2
100
AcDbLine
 10
129.185122
 20
396.162783
 11
126.003482
 21
399.344545
  0
LINE
  5
282
100
AcDbEntity
  8
M2
100
AcDbLine
 10
129.008365
 20
363.707118
 11
127.240787
 21
361.93954
  0
LINE
  5
283
100
AcDbEntity
  8
M2
100
AcDbLine
 10
129.008365
 20
371.307118
 11
127.240787
 21
369.53954
  0
LINE
  5
284
100
AcDbEntity
  8
M2
100
AcDbLine
 10
129.185122
 20
361.762782
 11
126.003482
 21
364.944545
  0
LINE
  5
285
100
AcDbEntity
  8
M2
100
AcDbLine
 10
127.947818
 20
372.367787
 11
126.18024
 21
370.600087
  0
LINE
  5
286
100
AcDbEntity
  8
M2
100
AcDbLine
 10
127.947818
 20
406.767788
 11
126.18024
 21
405.000087
  0
LINE
  5
287
100
AcDbEntity
  8
M2
100
AcDbLine
 10
129.008365
 20
405.707119
 11
127.240787
 21
403.939541
  0
LINE
  5
288
100
AcDbEntity
  8
M2
100
AcDbLine
 10
127.947818
 20
399.167788
 11
126.18024
 21
397.400087
  0
LINE
  5
289
100
AcDbEntity
  8
M2
100
AcDbLine
 10
129.185122
 20
403.762783
 11
126.003482
 21
406.944545
  0
LINE
  5
28A
100
AcDbEntity
  8
M2
100
AcDbLine
 10
129.008365
 20
398.107119
 11
127.240787
 21
396.33954
  0
LINE
  5
28B
100
AcDbEntity
  8
M2
  6
DASHDOT
100
AcDbLine
 10
176.44454
 20
354.853426
 11
177.44454
 21
354.853426
  0
LINE
  5
28C
100
AcDbEntity
  8
M2
  6
DASHDOT
100
AcDbLine
 10
141.74454
 20
354.353426
 11
141.74454
 21
355.353426
  0
LINE
  5
28D
100
AcDbEntity
  8
M2
  6
DASHDOT
100
AcDbLine
 10
176.94454
 20
354.353426
 11
176.94454
 21
355.353426
  0
LINE
  5
28E
100
AcDbEntity
  8
M2
  6
DASHDOT
100
AcDbLine
 10
159.34454
 20
354.353426
 11
159.34454
 21
355.353426
  0
LINE
  5
28F
100
AcDbEntity
  8
M2
  6
DASHDOT
100
AcDbLine
 10
158.84454
 20
354.853426
 11
159.84454
 21
354.853426
  0
LINE
  5
290
100
AcDbEntity
  8
M2
100
AcDbLine
 10
131.344539
 20
401.003426
 11
131.344539
 21
394.503427
  0
CIRCLE
  5
291
100
AcDbEntity
  8
M2
100
AcDbCircle
 10
191.094541
 20
363.353424
 40
3.0
  0
CIRCLE
  5
292
100
AcDbEntity
  8
M2
100
AcDbCircle
 10
191.094541
 20
370.953424
 40
3.0
  0
CIRCLE
  5
293
100
AcDbEntity
  8
M2
100
AcDbCircle
 10
141.74454
 20
354.853395
 40
4.499996
  0
CIRCLE
  5
294
100
AcDbEntity
  8
M2
100
AcDbCircle
 10
176.94454
 20
354.853395
 40
4.499996
  0
CIRCLE
  5
295
100
AcDbEntity
  8
M2
100
AcDbCircle
 10
159.34454
 20
354.853395
 40
4.499996
  0
LINE
  5
296
100
AcDbEntity
  8
M2
  6
DASHDOT
100
AcDbLine
 10
141.24454
 20
354.853426
 11
142.24454
 21
354.853426
  0
LINE
  5
297
100
AcDbEntity
  8
M2
100
AcDbLine
 10
181.79454
 20
420.853425
 11
181.79454
 21
429.853425
  0
LINE
  5
298
100
AcDbEntity
  8
M2
100
AcDbLine
 10
142.211443
 20
415.734591
 11
139.863467
 21
413.386599
  0
LINE
  5
299
100
AcDbEntity
  8
M2
100
AcDbLine
 10
139.675585
 20
415.922366
 11
143.938555
 21
411.659426
  0
LINE
  5
29A
100
AcDbEntity
  8
M2
100
AcDbLine
 10
143.625643
 20
414.320376
 11
141.277667
 21
411.972384
  0
LINE
  5
29B
100
AcDbEntity
  8
M2
100
AcDbLine
 10
159.811443
 20
415.734591
 11
157.463467
 21
413.386599
  0
LINE
  5
29C
100
AcDbEntity
  8
M2
  6
DASHDOT
100
AcDbLine
 10
159.34454
 20
414.353426
 11
159.34454
 21
413.353426
  0
LINE
  5
29D
100
AcDbEntity
  8
M2
  6
DASHDOT
100
AcDbLine
 10
158.84454
 20
413.853426
 11
159.84454
 21
413.853426
  0
LINE
  5
29E
100
AcDbEntity
  8
M2
  6
DASHDOT
100
AcDbLine
 10
176.94454
 20
414.353426
 11
176.94454
 21
413.353426
  0
LINE
  5
29F
100
AcDbEntity
  8
M2
  6
DASHDOT
100
AcDbLine
 10
176.44454
 20
413.853426
 11
177.44454
 21
413.853426
  0
LINE
  5
2A0
100
AcDbEntity
  8
M2
  6
DASHDOT
100
AcDbLine
 10
141.74454
 20
414.353426
 11
141.74454
 21
413.353426
  0
LINE
  5
2A1
100
AcDbEntity
  8
M2
100
AcDbLine
 10
123.844539
 20
360.103425
 11
123.844539
 21
366.603426
  0
LINE
  5
2A2
100
AcDbEntity
  8
M2
100
AcDbLine
 10
194.844541
 20
408.603427
 11
194.844541
 21
402.103426
  0
LINE
  5
2A3
100
AcDbEntity
  8
M2
100
AcDbLine
 10
131.344539
 20
366.603426
 11
131.344539
 21
360.103425
  0
LINE
  5
2A4
100
AcDbEntity
  8
M2
100
AcDbLine
 10
187.84454
 20
409.103426
 11
194.34454
 21
409.103426
  0
LINE
  5
2A5
100
AcDbEntity
  8
M2
100
AcDbLine
 10
147.14454
 20
428.203426
 11
147.14454
 21
421.703425
  0
LINE
  5
2A6
100
AcDbEntity
  8
M2
100
AcDbLine
 10
187.344541
 20
402.103427
 11
187.344541
 21
408.603426
  0
LINE
  5
2A7
100
AcDbEntity
  8
M2
100
AcDbLine
 10
194.34454
 20
359.603426
 11
187.84454
 21
359.603426
  0
LINE
  5
2A8
100
AcDbEntity
  8
M2
100
AcDbLine
 10
187.844539
 20
367.103426
 11
194.34454
 21
367.103426
  0
LINE
  5
2A9
100
AcDbEntity
  8
M2
100
AcDbLine
 10
187.344541
 20
367.703425
 11
187.344541
 21
374.203425
  0
LINE
  5
2AA
100
AcDbEntity
  8
M2
100
AcDbLine
 10
124.34454
 20
367.103426
 11
130.84454
 21
367.103426
  0
LINE
  5
2AB
100
AcDbEntity
  8
M2
100
AcDbLine
 10
146.64454
 20
421.203428
 11
145.294542
 21
421.203428
  0
LINE
  5
2AC
100
AcDbEntity
  8
M2
100
AcDbLine
 10
122.59454
 20
404.453425
 11
122.694541
 21
404.453425
  0
LINE
  5
2AD
100
AcDbEntity
  8
M2
100
AcDbLine
 10
196.09454
 20
404.453425
 11
195.994538
 21
404.453425
  0
LINE
  5
2AE
100
AcDbEntity
  8
M2
100
AcDbLine
 10
122.694541
 20
364.253427
 11
122.59454
 21
364.253427
  0
LINE
  5
2AF
100
AcDbEntity
  8
M2
100
AcDbLine
 10
123.844539
 20
408.603425
 11
123.844539
 21
402.103425
  0
LINE
  5
2B0
100
AcDbEntity
  8
M2
100
AcDbLine
 10
173.394542
 20
421.203424
 11
172.044541
 21
421.203424
  0
LINE
  5
2B1
100
AcDbEntity
  8
M2
100
AcDbLine
 10
194.34454
 20
367.203426
 11
187.84454
 21
367.203426
  0
LINE
  5
2B2
100
AcDbEntity
  8
M2
100
AcDbLine
 10
144.744542
 20
428.703424
 11
146.64454
 21
428.703424
  0
LINE
  5
2B3
100
AcDbEntity
  8
M2
100
AcDbLine
 10
194.34454
 20
401.603426
 11
187.84454
 21
401.603426
  0
LINE
  5
2B4
100
AcDbEntity
  8
M2
100
AcDbLine
 10
171.54454
 20
421.703425
 11
171.544537
 21
428.203425
  0
LINE
  5
2B5
100
AcDbEntity
  8
M2
100
AcDbLine
 10
148.69454
 20
344.853424
 11
148.69454
 21
342.853428
  0
LINE
  5
2B6
100
AcDbEntity
  8
M2
100
AcDbLine
 10
183.89454
 20
342.853428
 11
183.89454
 21
344.853424
  0
LINE
  5
2B7
100
AcDbEntity
  8
M2
100
AcDbLine
 10
195.994538
 20
364.253427
 11
196.09454
 21
364.253427
  0
LINE
  5
2B8
100
AcDbEntity
  8
M2
100
AcDbLine
 10
192.508367
 20
398.107119
 11
190.740789
 21
396.33954
  0
LINE
  5
2B9
100
AcDbEntity
  8
M2
100
AcDbLine
 10
191.44782
 20
399.167788
 11
189.680242
 21
397.400087
  0
CIRCLE
  5
2BA
100
AcDbEntity
  8
M2
100
AcDbCircle
 10
141.74454
 20
413.853457
 40
4.499996
  0
CIRCLE
  5
2BB
100
AcDbEntity
  8
M2
100
AcDbCircle
 10
176.94454
 20
413.853457
 40
4.499996
  0
CIRCLE
  5
2BC
100
AcDbEntity
  8
M2
100
AcDbCircle
 10
159.34454
 20
413.853457
 40
4.499996
  0
LINE
  5
2BD
100
AcDbEntity
  8
M2
100
AcDbLine
 10
129.185122
 20
369.362783
 11
126.003482
 21
372.544545
  0
LINE
  5
2BE
100
AcDbEntity
  8
M2
  6
DASHDOT
100
AcDbLine
 10
141.24454
 20
413.853426
 11
142.24454
 21
413.853426
  0
LINE
  5
2BF
100
AcDbEntity
  8
M2
100
AcDbLine
 10
192.508367
 20
405.707119
 11
190.740789
 21
403.939541
  0
LINE
  5
2C0
100
AcDbEntity
  8
M2
100
AcDbLine
 10
191.44782
 20
406.767788
 11
189.680242
 21
405.000087
  0
LINE
  5
2C1
100
AcDbEntity
  8
M2
100
AcDbLine
 10
192.685124
 20
403.762783
 11
189.503484
 21
406.944545
  0
LINE
  5
2C2
100
AcDbEntity
  8
M2
100
AcDbLine
 10
192.685124
 20
396.162783
 11
189.503484
 21
399.344545
  0
ARC
  5
2C3
100
AcDbEntity
  8
M2
100
AcDbCircle
 10
180.79454
 20
429.853426
 40
1.0
100
AcDbArc
 50
90.0
 51
148.211416
  0
CIRCLE
  5
2C4
100
AcDbEntity
  8
M2
100
AcDbCircle
 10
191.094541
 20
397.753427
 40
3.0
  0
ARC
  5
2C5
100
AcDbEntity
  8
M2
100
AcDbCircle
 10
180.79454
 20
429.853426
 40
1.0
100
AcDbArc
 50
0.0
 51
90.0
  0
LINE
  5
2C6
100
AcDbEntity
  8
M2
100
AcDbLine
 10
194.844541
 20
366.603426
 11
194.844541
 21
360.103426
  0
LINE
  5
2C7
100
AcDbEntity
  8
M2
100
AcDbLine
 10
123.844539
 20
401.003425
 11
123.844539
 21
394.503425
  0
LINE
  5
2C8
100
AcDbEntity
  8
M2
100
AcDbLine
 10
187.344541
 20
360.103425
 11
187.344541
 21
366.603425
  0
CIRCLE
  5
2C9
100
AcDbEntity
  8
M2
100
AcDbCircle
 10
127.594539
 20
405.353428
 40
3.0
  0
CIRCLE
  5
2CA
100
AcDbEntity
  8
M2
100
AcDbCircle
 10
127.594539
 20
397.753427
 40
3.0
  0
CIRCLE
  5
2CB
100
AcDbEntity
  8
M2
100
AcDbCircle
 10
127.594539
 20
363.353424
 40
3.0
  0
CIRCLE
  5
2CC
100
AcDbEntity
  8
M2
100
AcDbCircle
 10
127.594539
 20
370.953424
 40
3.0
  0
CIRCLE
  5
2CD
100
AcDbEntity
  8
M2
100
AcDbCircle
 10
191.094541
 20
405.353428
 40
3.0
  0
LINE
  5
2CE
100
AcDbEntity
  8
M2
100
AcDbLine
 10
194.094539
 20
409.153427
 11
194.99454
 21
409.153427
  0
LINE
  5
2CF
100
AcDbEntity
  8
M2
100
AcDbLine
 10
124.59454
 20
409.153427
 11
123.69454
 21
409.153427
  0
LINE
  5
2D0
100
AcDbEntity
  8
M2
100
AcDbLine
 10
187.19454
 20
409.153427
 11
188.09454
 21
409.153427
  0
LINE
  5
2D1
100
AcDbEntity
  8
M2
100
AcDbLine
 10
138.494539
 20
344.853424
 11
138.494539
 21
343.199373
  0
ARC
  5
2D2
100
AcDbEntity
  8
M2
100
AcDbCircle
 10
149.19454
 20
409.253426
 40
0.5
100
AcDbArc
 50
180.0
 51
270.0
  0
ARC
  5
2D3
100
AcDbEntity
  8
M2
100
AcDbCircle
 10
131.09454
 20
379.153426
 40
1.0
100
AcDbArc
 50
180.0
 51
270.0
  0
ARC
  5
2D4
100
AcDbEntity
  8
M2
100
AcDbCircle
 10
166.79454
 20
359.453426
 40
0.5
100
AcDbArc
 50
90.0
 51
180.0
  0
LINE
  5
2D5
100
AcDbEntity
  8
M2
100
AcDbLine
 10
196.09454
 20
411.703425
 11
195.994538
 21
411.703425
  0
ARC
  5
2D6
100
AcDbEntity
  8
M2
100
AcDbCircle
 10
176.69454
 20
344.853426
 40
3.5
100
AcDbArc
 50
160.537049
 51
180.0
  0
LINE
  5
2D7
100
AcDbEntity
  8
M2
100
AcDbLine
 10
148.89454
 20
426.453427
 11
148.89454
 21
428.653427
  0
LINE
  5
2D8
100
AcDbEntity
  8
M2
100
AcDbLine
 10
170.44454
 20
342.853428
 11
170.44454
 21
347.853427
  0
LINE
  5
2D9
100
AcDbEntity
  8
M2
100
AcDbLine
 10
148.24454
 20
342.853428
 11
148.24454
 21
347.853427
  0
LINE
  5
2DA
100
AcDbEntity
  8
M2
100
AcDbLine
 10
122.59454
 20
357.003427
 11
122.694541
 21
357.003427
  0
LINE
  5
2DB
100
AcDbEntity
  8
M2
100
AcDbLine
 10
182.944541
 20
347.853427
 11
182.944541
 21
342.853428
  0
LINE
  5
2DC
100
AcDbEntity
  8
M2
100
AcDbLine
 10
149.39454
 20
429.153424
 11
156.344542
 21
429.153424
  0
LINE
  5
2DD
100
AcDbEntity
  8
M2
100
AcDbLine
 10
120.894541
 20
410.703426
 11
120.894541
 21
344.853426
  0
LINE
  5
2DE
100
AcDbEntity
  8
M2
100
AcDbLine
 10
173.19454
 20
344.853424
 11
173.19454
 21
342.853428
  0
LINE
  5
2DF
100
AcDbEntity
  8
M2
100
AcDbLine
 10
122.59454
 20
411.703425
 11
122.694541
 21
411.703425
  0
LINE
  5
2E0
100
AcDbEntity
  8
M2
100
AcDbLine
 10
169.79454
 20
428.653427
 11
169.79454
 21
426.453427
  0
LINE
  5
2E1
100
AcDbEntity
  8
M2
100
AcDbLine
 10
195.29454
 20
341.853426
 11
179.54454
 21
341.853426
  0
LINE
  5
2E2
100
AcDbEntity
  8
M2
100
AcDbLine
 10
135.744539
 20
342.853428
 11
135.744539
 21
347.853427
  0
ARC
  5
2E3
100
AcDbEntity
  8
M2
100
AcDbCircle
 10
123.39454
 20
422.853426
 40
3.0
100
AcDbArc
 50
90.0
 51
180.0
  0
ARC
  5
2E4
100
AcDbEntity
  8
M2
100
AcDbCircle
 10
131.44454
 20
343.853426
 40
0.5
100
AcDbArc
 50
180.0
 51
270.0
  0
ARC
  5
2E5
100
AcDbEntity
  8
M2
100
AcDbCircle
 10
125.34454
 20
416.853426
 40
2.25
100
AcDbArc
 50
272.401074
 51
358.876481
  0
ARC
  5
2E6
100
AcDbEntity
  8
M2
100
AcDbCircle
 10
136.74454
 20
342.853426
 40
1.0
100
AcDbArc
 50
180.0
 51
270.0
  0
ARC
  5
2E7
100
AcDbEntity
  8
M2
100
AcDbCircle
 10
181.19454
 20
342.853426
 40
1.0
100
AcDbArc
 50
180.0
 51
270.0
  0
ARC
  5
2E8
100
AcDbEntity
  8
M2
100
AcDbCircle
 10
137.89454
 20
429.853426
 40
1.0
100
AcDbArc
 50
90.0
 51
180.0
  0
ARC
  5
2E9
100
AcDbEntity
  8
M2
100
AcDbCircle
 10
137.49454
 20
342.853426
 40
1.0
100
AcDbArc
 50
270.0
 51
304.15433
  0
ARC
  5
2EA
100
AcDbEntity
  8
M2
100
AcDbCircle
 10
172.19454
 20
342.853426
 40
1.0
100
AcDbArc
 50
270.0
 51
360.0
  0
ARC
  5
2EB
100
AcDbEntity
  8
M2
100
AcDbCircle
 10
194.79454
 20
422.853426
 40
3.0
100
AcDbArc
 50
0.0
 51
90.0
  0
ARC
  5
2EC
100
AcDbEntity
  8
M2
100
AcDbCircle
 10
124.29503
 20
419.403426
 40
0.3
100
AcDbArc
 50
270.0
 51
358.876481
  0
ARC
  5
2ED
100
AcDbEntity
  8
M2
100
AcDbCircle
 10
191.84454
 20
349.353426
 40
2.25
100
AcDbArc
 50
270.0
 51
355.815286
  0
ARC
  5
2EE
100
AcDbEntity
  8
M2
100
AcDbCircle
 10
129.34454
 20
419.353426
 40
2.25
100
AcDbArc
 50
270.0
 51
450.0
  0
ARC
  5
2EF
100
AcDbEntity
  8
M2
100
AcDbCircle
 10
126.84454
 20
419.353426
 40
2.25
100
AcDbArc
 50
90.0
 51
178.876481
  0
ARC
  5
2F0
100
AcDbEntity
  8
M2
100
AcDbCircle
 10
127.89405
 20
416.803426
 40
0.3
100
AcDbArc
 50
90.0
 51
178.876481
  0
ARC
  5
2F1
100
AcDbEntity
  8
M2
100
AcDbCircle
 10
189.34454
 20
349.353426
 40
2.25
100
AcDbArc
 50
90.0
 51
270.0
  0
ARC
  5
2F2
100
AcDbEntity
  8
M2
100
AcDbCircle
 10
169.49454
 20
359.453426
 40
0.5
100
AcDbArc
 50
0.0
 51
90.0
  0
ARC
  5
2F3
100
AcDbEntity
  8
M2
100
AcDbCircle
 10
151.89454
 20
359.453426
 40
0.5
100
AcDbArc
 50
0.0
 51
90.0
  0
ARC
  5
2F4
100
AcDbEntity
  8
M2
100
AcDbCircle
 10
123.84454
 20
416.853426
 40
2.25
100
AcDbArc
 50
90.0
 51
270.0
  0
ARC
  5
2F5
100
AcDbEntity
  8
M2
100
AcDbCircle
 10
149.19454
 20
359.453426
 40
0.5
100
AcDbArc
 50
90.0
 51
180.0
  0
LINE
  5
2F6
100
AcDbEntity
  8
M2
100
AcDbLine
 10
132.09454
 20
344.853424
 11
131.444541
 21
344.853424
  0
LINE
  5
2F7
100
AcDbEntity
  8
M2
100
AcDbLine
 10
187.794539
 20
425.853424
 11
194.79454
 21
425.853424
  0
LINE
  5
2F8
100
AcDbEntity
  8
M2
100
AcDbLine
 10
129.34454
 20
421.603427
 11
126.844541
 21
421.603427
  0
LINE
  5
2F9
100
AcDbEntity
  8
M2
100
AcDbLine
 10
123.844539
 20
414.603426
 11
125.438803
 21
414.605402
  0
LINE
  5
2FA
100
AcDbEntity
  8
M2
100
AcDbLine
 10
124.295031
 20
419.103426
 11
123.844539
 21
419.103426
  0
LINE
  5
2FB
100
AcDbEntity
  8
M2
100
AcDbLine
 10
127.894048
 20
417.103425
 11
129.34454
 21
417.103425
  0
LINE
  5
2FC
100
AcDbEntity
  8
M2
100
AcDbLine
 10
132.09454
 20
345.853426
 11
130.94454
 21
345.853426
  0
LINE
  5
2FD
100
AcDbEntity
  8
M2
100
AcDbLine
 10
130.94454
 20
345.353425
 11
130.94454
 21
345.853426
  0
LINE
  5
2FE
100
AcDbEntity
  8
M2
100
AcDbLine
 10
138.89454
 20
427.653425
 11
139.394539
 21
427.653425
  0
LINE
  5
2FF
100
AcDbEntity
  8
M2
100
AcDbLine
 10
197.794539
 20
360.553425
 11
198.29454
 21
355.553426
  0
ARC
  5
300
100
AcDbEntity
  8
M2
100
AcDbCircle
 10
176.69454
 20
344.853426
 40
3.5
100
AcDbArc
 50
0.0
 51
20.051043
  0
ARC
  5
301
100
AcDbEntity
  8
M2
100
AcDbCircle
 10
171.44454
 20
342.853426
 40
1.0
100
AcDbArc
 50
180.0
 51
270.0
  0
ARC
  5
302
100
AcDbEntity
  8
M2
100
AcDbCircle
 10
141.99454
 20
344.853426
 40
3.5
100
AcDbArc
 50
159.948957
 51
180.0
  0
ARC
  5
303
100
AcDbEntity
  8
M2
100
AcDbCircle
 10
169.29454
 20
428.653426
 40
0.5
100
AcDbArc
 50
0.0
 51
90.0
  0
LINE
  5
304
100
AcDbEntity
  8
M2
100
AcDbLine
 10
132.09454
 20
379.853426
 11
133.094541
 21
379.853426
  0
ARC
  5
305
100
AcDbEntity
  8
M2
100
AcDbCircle
 10
149.39454
 20
428.653426
 40
0.5
100
AcDbArc
 50
90.0
 51
180.0
  0
ARC
  5
306
100
AcDbEntity
  8
M2
100
AcDbCircle
 10
141.99454
 20
344.853426
 40
3.5
100
AcDbArc
 50
0.0
 51
19.462951
  0
ARC
  5
307
100
AcDbEntity
  8
M2
100
AcDbCircle
 10
121.89454
 20
358.003426
 40
1.0
100
AcDbArc
 50
180.0
 51
270.0
  0
ARC
  5
308
100
AcDbEntity
  8
M2
100
AcDbCircle
 10
181.94454
 20
342.853426
 40
1.0
100
AcDbArc
 50
270.0
 51
360.0
  0
LINE
  5
309
100
AcDbEntity
  8
M2
100
AcDbLine
 10
167.29454
 20
359.953426
 11
168.99454
 21
359.953426
  0
LINE
  5
30A
100
AcDbEntity
  8
M2
100
AcDbLine
 10
166.29454
 20
342.853428
 11
166.29454
 21
346.853424
  0
LINE
  5
30B
100
AcDbEntity
  8
M2
100
AcDbLine
 10
147.24454
 20
341.853426
 11
144.34454
 21
341.853426
  0
LINE
  5
30C
100
AcDbEntity
  8
M2
100
AcDbLine
 10
145.49454
 20
344.853424
 11
145.49454
 21
342.853428
  0
LINE
  5
30D
100
AcDbEntity
  8
M2
100
AcDbLine
 10
180.194541
 20
342.853428
 11
180.194541
 21
344.853424
  0
LINE
  5
30E
100
AcDbEntity
  8
M2
100
AcDbLine
 10
150.194536
 20
341.853426
 11
151.394539
 21
341.853426
  0
LINE
  5
30F
100
AcDbEntity
  8
M2
100
AcDbLine
 10
121.894539
 20
357.003427
 11
122.694541
 21
357.003427
  0
ARC
  5
310
100
AcDbEntity
  8
M2
100
AcDbCircle
 10
167.29454
 20
342.853426
 40
1.0
100
AcDbArc
 50
180.0
 51
270.0
  0
LINE
  5
311
100
AcDbEntity
  8
M2
100
AcDbLine
 10
136.89454
 20
420.853425
 11
136.89454
 21
429.853425
  0
LINE
  5
312
100
AcDbEntity
  8
M2
100
AcDbLine
 10
166.29454
 20
346.853424
 11
166.29454
 21
359.453425
  0
LINE
  5
313
100
AcDbEntity
  8
M2
100
AcDbLine
 10
132.09454
 20
352.853425
 11
130.94454
 21
352.853425
  0
LINE
  5
314
100
AcDbEntity
  8
M2
100
AcDbLine
 10
197.794539
 20
422.853426
 11
197.794539
 21
358.003426
  0
LINE
  5
315
100
AcDbEntity
  8
M2
100
AcDbLine
 10
134.79454
 20
422.353425
 11
136.89454
 21
422.353425
  0
LINE
  5
316
100
AcDbEntity
  8
M2
100
AcDbLine
 10
181.79454
 20
422.353425
 11
183.89454
 21
422.353425
  0
LINE
  5
317
100
AcDbEntity
  8
M2
100
AcDbLine
 10
120.39454
 20
413.153425
 11
120.39454
 21
422.853426
  0
LINE
  5
318
100
AcDbEntity
  8
M2
100
AcDbLine
 10
149.694539
 20
341.853426
 11
150.194536
 21
341.853426
  0
LINE
  5
319
100
AcDbEntity
  8
M2
100
AcDbLine
 10
190.79603
 20
351.603427
 11
189.344539
 21
351.603427
  0
LINE
  5
31A
100
AcDbEntity
  8
M2
100
AcDbLine
 10
130.94454
 20
352.853425
 11
130.94454
 21
346.853424
  0
LINE
  5
31B
100
AcDbEntity
  8
M2
100
AcDbLine
 10
130.94454
 20
346.853424
 11
132.09454
 21
346.853424
  0
LINE
  5
31C
100
AcDbEntity
  8
M2
100
AcDbLine
 10
186.09454
 20
391.553426
 11
185.594539
 21
391.553426
  0
LINE
  5
31D
100
AcDbEntity
  8
M2
100
AcDbLine
 10
186.594539
 20
389.053426
 11
186.594539
 21
385.753426
  0
LINE
  5
31E
100
AcDbEntity
  8
M2
100
AcDbLine
 10
152.84454
 20
371.353426
 11
150.844539
 21
371.353426
  0
LINE
  5
31F
100
AcDbEntity
  8
M2
100
AcDbLine
 10
150.94454
 20
395.553426
 11
153.44454
 21
395.553426
  0
LINE
  5
320
100
AcDbEntity
  8
M2
100
AcDbLine
 10
165.34454
 20
369.853426
 11
165.34454
 21
370.853426
  0
LINE
  5
321
100
AcDbEntity
  8
M2
100
AcDbLine
 10
132.09454
 20
385.853426
 11
133.094541
 21
385.853426
  0
LINE
  5
322
100
AcDbEntity
  8
M2
100
AcDbLine
 10
185.594539
 20
388.853426
 11
186.594539
 21
388.853426
  0
LINE
  5
323
100
AcDbEntity
  8
M2
100
AcDbLine
 10
133.094541
 20
391.553426
 11
132.59454
 21
391.553426
  0
LINE
  5
324
100
AcDbEntity
  8
M2
100
AcDbLine
 10
132.09454
 20
389.053426
 11
132.09454
 21
385.853426
  0
LINE
  5
325
100
AcDbEntity
  8
M2
100
AcDbLine
 10
185.594539
 20
385.853426
 11
185.594539
 21
382.853426
  0
LINE
  5
326
100
AcDbEntity
  8
M2
100
AcDbLine
 10
186.594539
 20
385.853426
 11
185.594539
 21
385.853426
  0
ARC
  5
327
100
AcDbEntity
  8
M2
100
AcDbCircle
 10
151.89454
 20
409.253426
 40
0.5
100
AcDbArc
 50
270.0
 51
360.0
  0
ARC
  5
328
100
AcDbEntity
  8
M2
100
AcDbCircle
 10
169.49454
 20
409.253426
 40
0.5
100
AcDbArc
 50
270.0
 51
360.0
  0
ARC
  5
329
100
AcDbEntity
  8
M2
100
AcDbCircle
 10
187.59454
 20
379.153426
 40
1.0
100
AcDbArc
 50
270.0
 51
360.0
  0
ARC
  5
32A
100
AcDbEntity
  8
M2
100
AcDbCircle
 10
151.39454
 20
342.853426
 40
1.0
100
AcDbArc
 50
270.0
 51
360.0
  0
ARC
  5
32B
100
AcDbEntity
  8
M2
100
AcDbCircle
 10
187.59454
 20
389.553426
 40
1.0
100
AcDbArc
 50
0.0
 51
90.0
  0
ARC
  5
32C
100
AcDbEntity
  8
M2
100
AcDbCircle
 10
185.59454
 20
342.853426
 40
1.0
100
AcDbArc
 50
270.0
 51
360.0
  0
CIRCLE
  5
32D
100
AcDbEntity
  8
M2
100
AcDbCircle
 10
124.34454
 20
346.353426
 40
2.25
  0
ARC
  5
32E
100
AcDbEntity
  8
M2
100
AcDbCircle
 10
131.09454
 20
389.553426
 40
1.0
100
AcDbArc
 50
90.0
 51
180.0
  0
CIRCLE
  5
32F
100
AcDbEntity
  8
M2
100
AcDbCircle
 10
194.34454
 20
421.353426
 40
2.25
  0
ARC
  5
330
100
AcDbEntity
  8
M2
100
AcDbCircle
 10
166.79454
 20
409.253426
 40
0.5
100
AcDbArc
 50
180.0
 51
270.0
  0
LINE
  5
331
100
AcDbEntity
  8
M2
100
AcDbLine
 10
189.344539
 20
347.103425
 11
191.844539
 21
347.103425
  0
LINE
  5
332
100
AcDbEntity
  8
M2
100
AcDbLine
 10
169.49454
 20
408.753425
 11
166.79454
 21
408.753425
  0
LINE
  5
333
100
AcDbEntity
  8
M2
100
AcDbLine
 10
148.69454
 20
420.853425
 11
145.294542
 21
420.853425
  0
LINE
  5
334
100
AcDbEntity
  8
M2
100
AcDbLine
 10
164.14454
 20
389.12238
 11
161.59454
 21
389.12238
  0
LINE
  5
335
100
AcDbEntity
  8
M2
100
AcDbLine
 10
157.09454
 20
389.12238
 11
154.54454
 21
389.12238
  0
LINE
  5
336
100
AcDbEntity
  8
M2
100
AcDbLine
 10
185.594539
 20
391.553426
 11
185.594539
 21
388.853426
  0
LINE
  5
337
100
AcDbEntity
  8
M2
100
AcDbLine
 10
151.394539
 20
359.953426
 11
149.694539
 21
359.953426
  0
LINE
  5
338
100
AcDbEntity
  8
M2
100
AcDbLine
 10
123.69454
 20
359.553425
 11
124.59454
 21
359.553425
  0
LINE
  5
339
100
AcDbEntity
  8
M2
100
AcDbLine
 10
149.694539
 20
359.953426
 11
149.194539
 21
359.953426
  0
LINE
  5
33A
100
AcDbEntity
  8
M2
100
AcDbLine
 10
186.594539
 20
390.553426
 11
187.594539
 21
390.553426
  0
LINE
  5
33B
100
AcDbEntity
  8
M2
100
AcDbLine
 10
151.89454
 20
359.953426
 11
151.394539
 21
359.953426
  0
LINE
  5
33C
100
AcDbEntity
  8
M2
100
AcDbLine
 10
132.09454
 20
390.553426
 11
131.09454
 21
390.553426
  0
LINE
  5
33D
100
AcDbEntity
  8
M2
100
AcDbLine
 10
133.094541
 20
385.853426
 11
133.094541
 21
382.853426
  0
LINE
  5
33E
100
AcDbEntity
  8
M2
100
AcDbLine
 10
154.44454
 20
394.553426
 11
154.44454
 21
394.053426
  0
LINE
  5
33F
100
AcDbEntity
  8
M2
100
AcDbLine
 10
186.594539
 20
382.953426
 11
186.594539
 21
379.653426
  0
LINE
  5
340
100
AcDbEntity
  8
M2
100
AcDbLine
 10
133.094541
 20
379.853426
 11
133.094541
 21
377.153426
  0
LINE
  5
341
100
AcDbEntity
  8
M2
100
AcDbLine
 10
154.44454
 20
394.553426
 11
164.24454
 21
394.553426
  0
LINE
  5
342
100
AcDbEntity
  8
M2
100
AcDbLine
 10
164.24454
 20
394.053426
 11
154.44454
 21
394.053426
  0
LINE
  5
343
100
AcDbEntity
  8
M2
100
AcDbLine
 10
185.594539
 20
379.853426
 11
185.594539
 21
377.153426
  0
LINE
  5
344
100
AcDbEntity
  8
M2
100
AcDbLine
 10
133.094541
 20
388.853426
 11
132.09454
 21
388.853426
  0
LINE
  5
345
100
AcDbEntity
  8
M2
100
AcDbLine
 10
186.594539
 20
379.853426
 11
185.594539
 21
379.853426
  0
LINE
  5
346
100
AcDbEntity
  8
M2
100
AcDbLine
 10
133.094541
 20
391.553426
 11
133.094541
 21
388.853426
  0
LINE
  5
347
100
AcDbEntity
  8
M2
100
AcDbLine
 10
132.09454
 20
382.853426
 11
132.09454
 21
379.653426
  0
LINE
  5
348
100
AcDbEntity
  8
M2
100
AcDbLine
 10
130.09454
 20
389.553426
 11
130.09454
 21
379.153426
  0
LINE
  5
349
100
AcDbEntity
  8
M2
100
AcDbLine
 10
131.09454
 20
382.953426
 11
132.794539
 21
382.953426
  0
LINE
  5
34A
100
AcDbEntity
  8
M2
100
AcDbLine
 10
188.594539
 20
389.553426
 11
188.594539
 21
379.153426
  0
LINE
  5
34B
100
AcDbEntity
  8
M2
100
AcDbLine
 10
131.09454
 20
378.153426
 11
132.09454
 21
378.153426
  0
LINE
  5
34C
100
AcDbEntity
  8
M2
100
AcDbLine
 10
134.79454
 20
346.853424
 11
134.79454
 21
361.453426
  0
LINE
  5
34D
100
AcDbEntity
  8
M2
100
AcDbLine
 10
132.09454
 20
385.753426
 11
132.09454
 21
385.853426
  0
LINE
  5
34E
100
AcDbEntity
  8
M2
100
AcDbLine
 10
188.09454
 20
359.553425
 11
187.19454
 21
359.553425
  0
LINE
  5
34F
100
AcDbEntity
  8
M2
100
AcDbLine
 10
196.09454
 20
357.003427
 11
195.994538
 21
357.003427
  0
LINE
  5
350
100
AcDbEntity
  8
M2
100
AcDbLine
 10
194.99454
 20
359.553425
 11
194.094539
 21
359.553425
  0
LINE
  5
351
100
AcDbEntity
  8
M2
100
AcDbLine
 10
132.09454
 20
382.953426
 11
132.09454
 21
382.853426
  0
LINE
  5
352
100
AcDbEntity
  8
M2
100
AcDbLine
 10
132.794539
 20
385.753426
 11
131.09454
 21
385.753426
  0
LINE
  5
353
100
AcDbEntity
  8
M2
100
AcDbLine
 10
134.79454
 20
361.453426
 11
133.794539
 21
361.453426
  0
LINE
  5
354
100
AcDbEntity
  8
M2
100
AcDbLine
 10
183.89454
 20
346.853424
 11
183.89454
 21
361.453426
  0
LINE
  5
355
100
AcDbEntity
  8
M2
100
AcDbLine
 10
169.994539
 20
359.453425
 11
169.994539
 21
346.853424
  0
ARC
  5
356
100
AcDbEntity
  8
M2
100
AcDbCircle
 10
137.89454
 20
429.853426
 40
1.0
100
AcDbArc
 50
31.788077
 51
90.0
  0
ARC
  5
357
100
AcDbEntity
  8
M2
100
AcDbCircle
 10
147.24454
 20
342.853426
 40
1.0
100
AcDbArc
 50
270.0
 51
360.0
  0
ARC
  5
358
100
AcDbEntity
  8
M2
100
AcDbCircle
 10
146.49454
 20
342.853426
 40
1.0
100
AcDbArc
 50
180.0
 51
270.0
  0
LINE
  5
359
100
AcDbEntity
  8
M2
100
AcDbLine
 10
123.394538
 20
425.853424
 11
130.894541
 21
425.853424
  0
LINE
  5
35A
100
AcDbEntity
  8
M2
100
AcDbLine
 10
187.594539
 20
378.153426
 11
186.594539
 21
378.153426
  0
LINE
  5
35B
100
AcDbEntity
  8
M2
100
AcDbLine
 10
166.79454
 20
359.953426
 11
167.29454
 21
359.953426
  0
LINE
  5
35C
100
AcDbEntity
  8
M2
100
AcDbLine
 10
187.594539
 20
389.053426
 11
187.594539
 21
379.653426
  0
LINE
  5
35D
100
AcDbEntity
  8
M2
100
AcDbLine
 10
183.89454
 20
361.453426
 11
184.89454
 21
361.453426
  0
LINE
  5
35E
100
AcDbEntity
  8
M2
100
AcDbLine
 10
131.09454
 20
389.053426
 11
131.09454
 21
379.653426
  0
LINE
  5
35F
100
AcDbEntity
  8
M2
100
AcDbLine
 10
168.99454
 20
359.953426
 11
169.49454
 21
359.953426
  0
ARC
  5
360
100
AcDbEntity
  8
M2
100
AcDbCircle
 10
152.84454
 20
369.853426
 40
0.5
100
AcDbArc
 50
270.0
 51
360.0
  0
ARC
  5
361
100
AcDbEntity
  8
M2
100
AcDbCircle
 10
150.94454
 20
374.153426
 40
1.0
100
AcDbArc
 50
180.0
 51
270.0
  0
ARC
  5
362
100
AcDbEntity
  8
M2
100
AcDbCircle
 10
167.84454
 20
370.853426
 40
0.5
100
AcDbArc
 50
0.0
 51
90.0
  0
ARC
  5
363
100
AcDbEntity
  8
M2
100
AcDbCircle
 10
152.84454
 20
370.853426
 40
0.5
100
AcDbArc
 50
0.0
 51
90.0
  0
ARC
  5
364
100
AcDbEntity
  8
M2
100
AcDbCircle
 10
167.84454
 20
369.853426
 40
0.5
100
AcDbArc
 50
270.0
 51
360.0
  0
ARC
  5
365
100
AcDbEntity
  8
M2
100
AcDbCircle
 10
150.84454
 20
369.853426
 40
0.5
100
AcDbArc
 50
180.0
 51
270.0
  0
ARC
  5
366
100
AcDbEntity
  8
M2
100
AcDbCircle
 10
157.09454
 20
388.62238
 40
0.5
100
AcDbArc
 50
0.0
 51
90.0
  0
LINE
  5
367
100
AcDbEntity
  8
M2
100
AcDbLine
 10
185.594539
 20
382.853426
 11
186.594539
 21
382.853426
  0
ARC
  5
368
100
AcDbEntity
  8
M2
100
AcDbCircle
 10
161.59454
 20
388.62238
 40
0.5
100
AcDbArc
 50
90.0
 51
180.0
  0
ARC
  5
369
100
AcDbEntity
  8
M2
100
AcDbCircle
 10
167.74454
 20
394.553426
 40
1.0
100
AcDbArc
 50
0.0
 51
90.0
  0
ARC
  5
36A
100
AcDbEntity
  8
M2
100
AcDbCircle
 10
150.94454
 20
394.553426
 40
1.0
100
AcDbArc
 50
90.0
 51
180.0
  0
ARC
  5
36B
100
AcDbEntity
  8
M2
100
AcDbCircle
 10
185.59454
 20
406.053426
 40
1.0
100
AcDbArc
 50
0.0
 51
90.0
  0
LINE
  5
36C
100
AcDbEntity
  8
M2
100
AcDbLine
 10
132.09454
 20
343.353425
 11
131.444541
 21
343.353425
  0
LINE
  5
36D
100
AcDbEntity
  8
M2
100
AcDbLine
 10
130.94454
 20
343.853426
 11
130.94454
 21
345.353425
  0
LINE
  5
36E
100
AcDbEntity
  8
M2
100
AcDbLine
 10
183.89454
 20
345.853426
 11
182.944541
 21
345.853426
  0
LINE
  5
36F
100
AcDbEntity
  8
M2
100
AcDbLine
 10
183.89454
 20
343.353425
 11
182.944541
 21
343.353425
  0
LINE
  5
370
100
AcDbEntity
  8
M2
100
AcDbLine
 10
183.89454
 20
344.853424
 11
182.944541
 21
344.853424
  0
LINE
  5
371
100
AcDbEntity
  8
M2
100
AcDbLine
 10
120.894541
 20
408.153427
 11
120.39454
 21
413.153425
  0
ARC
  5
372
100
AcDbEntity
  8
M2
100
AcDbCircle
 10
165.84454
 20
369.853426
 40
0.5
100
AcDbArc
 50
180.0
 51
270.0
  0
ARC
  5
373
100
AcDbEntity
  8
M2
100
AcDbCircle
 10
165.84454
 20
370.853426
 40
0.5
100
AcDbArc
 50
90.0
 51
180.0
  0
ARC
  5
374
100
AcDbEntity
  8
M2
100
AcDbCircle
 10
167.74454
 20
374.153426
 40
1.0
100
AcDbArc
 50
270.0
 51
360.0
  0
LINE
  5
375
100
AcDbEntity
  8
M2
100
AcDbLine
 10
130.594539
 20
359.553425
 11
131.49454
 21
359.553425
  0
ARC
  5
376
100
AcDbEntity
  8
M2
100
AcDbCircle
 10
150.84454
 20
370.853426
 40
0.5
100
AcDbArc
 50
90.0
 51
180.0
  0
LINE
  5
377
100
AcDbEntity
  8
M2
100
AcDbLine
 10
131.49454
 20
409.153427
 11
130.594539
 21
409.153427
  0
LINE
  5
378
100
AcDbEntity
  8
M2
100
AcDbLine
 10
147.19454
 20
429.353428
 11
144.744542
 21
429.353428
  0
ARC
  5
379
100
AcDbEntity
  8
M2
100
AcDbCircle
 10
154.54454
 20
379.653426
 40
0.5
100
AcDbArc
 50
180.0
 51
270.0
  0
ARC
  5
37A
100
AcDbEntity
  8
M2
100
AcDbCircle
 10
154.54454
 20
389.053426
 40
0.5
100
AcDbArc
 50
90.0
 51
180.0
  0
ARC
  5
37B
100
AcDbEntity
  8
M2
100
AcDbCircle
 10
160.59454
 20
381.653426
 40
0.5
100
AcDbArc
 50
270.0
 51
360.0
  0
LINE
  5
37C
100
AcDbEntity
  8
M2
100
AcDbLine
 10
173.944542
 20
429.353428
 11
171.49454
 21
429.353428
  0
LINE
  5
37D
100
AcDbEntity
  8
M2
100
AcDbLine
 10
153.29454
 20
395.353426
 11
151.14454
 21
395.353426
  0
ARC
  5
37E
100
AcDbEntity
  8
M2
100
AcDbCircle
 10
153.29454
 20
394.353426
 40
1.0
100
AcDbArc
 50
0.0
 51
90.0
  0
ARC
  5
37F
100
AcDbEntity
  8
M2
100
AcDbCircle
 10
167.54454
 20
376.853426
 40
1.0
100
AcDbArc
 50
0.0
 51
90.0
  0
ARC
  5
380
100
AcDbEntity
  8
M2
100
AcDbCircle
 10
165.39454
 20
394.353426
 40
1.0
100
AcDbArc
 50
90.0
 51
180.0
  0
LINE
  5
381
100
AcDbEntity
  8
M2
100
AcDbLine
 10
169.994539
 20
347.853427
 11
173.39454
 21
347.853427
  0
LINE
  5
382
100
AcDbEntity
  8
M2
100
AcDbLine
 10
183.89454
 20
420.853425
 11
180.494542
 21
420.853425
  0
LINE
  5
383
100
AcDbEntity
  8
M2
100
AcDbLine
 10
152.39454
 20
347.853427
 11
155.79454
 21
347.853427
  0
ARC
  5
384
100
AcDbEntity
  8
M2
100
AcDbCircle
 10
148.19454
 20
429.853426
 40
1.0
100
AcDbArc
 50
90.0
 51
180.0
  0
ARC
  5
385
100
AcDbEntity
  8
M2
100
AcDbCircle
 10
121.89454
 20
379.653426
 40
1.0
100
AcDbArc
 50
90.0
 51
180.0
  0
ARC
  5
386
100
AcDbEntity
  8
M2
100
AcDbCircle
 10
196.79454
 20
379.653426
 40
1.0
100
AcDbArc
 50
0.0
 51
90.0
  0
ARC
  5
387
100
AcDbEntity
  8
M2
100
AcDbCircle
 10
121.89454
 20
389.053426
 40
1.0
100
AcDbArc
 50
180.0
 51
270.0
  0
ARC
  5
388
100
AcDbEntity
  8
M2
100
AcDbCircle
 10
164.89454
 20
390.353426
 40
0.5
100
AcDbArc
 50
180.0
 51
270.0
  0
LINE
  5
389
100
AcDbEntity
  8
M2
100
AcDbLine
 10
134.79454
 20
347.853427
 11
138.19454
 21
347.853427
  0
LINE
  5
38A
100
AcDbEntity
  8
M2
100
AcDbLine
 10
155.19454
 20
378.653426
 11
155.19454
 21
379.153426
  0
LINE
  5
38B
100
AcDbEntity
  8
M2
100
AcDbLine
 10
164.14454
 20
379.153426
 11
164.89454
 21
379.153426
  0
LINE
  5
38C
100
AcDbEntity
  8
M2
100
AcDbLine
 10
185.594539
 20
379.653426
 11
187.594539
 21
379.653426
  0
LINE
  5
38D
100
AcDbEntity
  8
M2
100
AcDbLine
 10
183.89454
 20
407.053427
 11
183.89454
 21
425.853424
  0
LINE
  5
38E
100
AcDbEntity
  8
M2
100
AcDbLine
 10
186.594539
 20
342.853426
 11
186.594539
 21
378.153426
  0
LINE
  5
38F
100
AcDbEntity
  8
M2
100
AcDbLine
 10
152.39454
 20
407.053427
 11
152.39454
 21
425.853424
  0
LINE
  5
390
100
AcDbEntity
  8
M2
100
AcDbLine
 10
166.29454
 20
407.053427
 11
166.29454
 21
425.853424
  0
LINE
  5
391
100
AcDbEntity
  8
M2
100
AcDbLine
 10
164.89454
 20
389.853426
 11
153.79454
 21
389.853426
  0
LINE
  5
392
100
AcDbEntity
  8
M2
100
AcDbLine
 10
164.39454
 20
393.853426
 11
154.29454
 21
393.853426
  0
LINE
  5
393
100
AcDbEntity
  8
M2
100
AcDbLine
 10
184.89454
 20
426.853426
 11
185.394536
 21
426.853426
  0
LINE
  5
394
100
AcDbEntity
  8
M2
100
AcDbLine
 10
133.794539
 20
426.853426
 11
133.09454
 21
426.853426
  0
LINE
  5
395
100
AcDbEntity
  8
M2
100
AcDbLine
 10
154.29454
 20
390.353426
 11
164.39454
 21
390.353426
  0
LINE
  5
396
100
AcDbEntity
  8
M2
100
AcDbLine
 10
182.944541
 20
346.853424
 11
183.89454
 21
346.853424
  0
LINE
  5
397
100
AcDbEntity
  8
M2
100
AcDbLine
 10
194.775739
 20
354.102374
 11
193.346196
 21
354.103426
  0
LINE
  5
398
100
AcDbEntity
  8
M2
100
AcDbLine
 10
186.594539
 20
390.553426
 11
186.594539
 21
425.853426
  0
LINE
  5
399
100
AcDbEntity
  8
M2
100
AcDbLine
 10
194.388543
 20
349.603721
 11
194.881015
 21
349.603721
  0
LINE
  5
39A
100
AcDbEntity
  8
M2
100
AcDbLine
 10
133.794539
 20
407.253426
 11
134.79454
 21
407.253426
  0
LINE
  5
39B
100
AcDbEntity
  8
M2
100
AcDbLine
 10
133.094541
 20
379.653426
 11
131.09454
 21
379.653426
  0
LINE
  5
39C
100
AcDbEntity
  8
M2
100
AcDbLine
 10
184.89454
 20
361.453426
 11
184.89454
 21
361.653425
  0
LINE
  5
39D
100
AcDbEntity
  8
M2
100
AcDbLine
 10
167.29454
 20
426.853426
 11
168.99454
 21
426.853426
  0
LINE
  5
39E
100
AcDbEntity
  8
M2
100
AcDbLine
 10
151.394539
 20
426.853426
 11
149.69454
 21
426.853426
  0
LINE
  5
39F
100
AcDbEntity
  8
M2
100
AcDbLine
 10
187.594539
 20
389.053426
 11
185.594539
 21
389.053426
  0
LINE
  5
3A0
100
AcDbEntity
  8
M2
100
AcDbLine
 10
185.394536
 20
426.853426
 11
185.594539
 21
426.853426
  0
LINE
  5
3A1
100
AcDbEntity
  8
M2
100
AcDbLine
 10
184.89454
 20
407.053427
 11
184.89454
 21
407.253426
  0
ARC
  5
3A2
100
AcDbEntity
  8
M2
100
AcDbCircle
 10
158.09454
 20
381.653426
 40
0.5
100
AcDbArc
 50
180.0
 51
270.0
  0
ARC
  5
3A3
100
AcDbEntity
  8
M2
100
AcDbCircle
 10
164.14454
 20
389.053426
 40
0.5
100
AcDbArc
 50
0.0
 51
90.0
  0
ARC
  5
3A4
100
AcDbEntity
  8
M2
100
AcDbCircle
 10
146.49454
 20
421.553426
 40
0.6
100
AcDbArc
 50
215.685335
 51
270.0
  0
LINE
  5
3A5
100
AcDbEntity
  8
M2
100
AcDbLine
 10
187.19454
 20
367.153425
 11
194.99454
 21
367.153425
  0
ARC
  5
3A6
100
AcDbEntity
  8
M2
100
AcDbCircle
 10
164.14454
 20
379.653426
 40
0.5
100
AcDbArc
 50
270.0
 51
360.0
  0
ARC
  5
3A7
100
AcDbEntity
  8
M2
100
AcDbCircle
 10
133.09454
 20
342.853426
 40
1.0
100
AcDbArc
 50
180.0
 51
270.0
  0
ARC
  5
3A8
100
AcDbEntity
  8
M2
100
AcDbCircle
 10
184.89454
 20
342.853426
 40
1.0
100
AcDbArc
 50
180.0
 51
270.0
  0
ARC
  5
3A9
100
AcDbEntity
  8
M2
100
AcDbCircle
 10
195.99454
 20
403.453426
 40
1.0
100
AcDbArc
 50
90.0
 51
180.0
  0
ARC
  5
3AA
100
AcDbEntity
  8
M2
100
AcDbCircle
 10
133.79454
 20
342.853426
 40
1.0
100
AcDbArc
 50
270.0
 51
360.0
  0
ARC
  5
3AB
100
AcDbEntity
  8
M2
100
AcDbCircle
 10
172.19454
 20
421.553426
 40
0.6
100
AcDbArc
 50
187.490122
 51
324.314617
  0
LINE
  5
3AC
100
AcDbEntity
  8
M2
100
AcDbLine
 10
169.994539
 20
429.353428
 11
162.344542
 21
429.353428
  0
LINE
  5
3AD
100
AcDbEntity
  8
M2
100
AcDbLine
 10
194.99454
 20
401.553427
 11
187.19454
 21
401.553427
  0
LINE
  5
3AE
100
AcDbEntity
  8
M2
100
AcDbLine
 10
131.49454
 20
401.553427
 11
123.69454
 21
401.553427
  0
LINE
  5
3AF
100
AcDbEntity
  8
M2
100
AcDbLine
 10
166.04454
 20
395.353426
 11
167.54454
 21
395.353426
  0
LINE
  5
3B0
100
AcDbEntity
  8
M2
100
AcDbLine
 10
130.594539
 20
358.553425
 11
124.59454
 21
358.553425
  0
LINE
  5
3B1
100
AcDbEntity
  8
M2
100
AcDbLine
 10
130.594539
 20
359.603426
 11
130.594539
 21
358.553425
  0
LINE
  5
3B2
100
AcDbEntity
  8
M2
100
AcDbLine
 10
153.79454
 20
387.603426
 11
153.54454
 21
387.103426
  0
LINE
  5
3B3
100
AcDbEntity
  8
M2
100
AcDbLine
 10
124.59454
 20
358.553425
 11
124.59454
 21
359.603426
  0
LINE
  5
3B4
100
AcDbEntity
  8
M2
100
AcDbLine
 10
171.49454
 20
429.853425
 11
171.49454
 21
420.853425
  0
LINE
  5
3B5
100
AcDbEntity
  8
M2
100
AcDbLine
 10
137.89454
 20
430.853427
 11
138.741684
 21
430.853427
  0
LINE
  5
3B6
100
AcDbEntity
  8
M2
100
AcDbLine
 10
188.09454
 20
410.153427
 11
194.094539
 21
410.153427
  0
LINE
  5
3B7
100
AcDbEntity
  8
M2
100
AcDbLine
 10
124.59454
 20
409.103426
 11
124.59454
 21
410.153427
  0
LINE
  5
3B8
100
AcDbEntity
  8
M2
100
AcDbLine
 10
194.094539
 20
410.153427
 11
194.094539
 21
409.103426
  0
LINE
  5
3B9
100
AcDbEntity
  8
M2
100
AcDbLine
 10
188.09454
 20
409.103426
 11
188.09454
 21
410.153427
  0
LINE
  5
3BA
100
AcDbEntity
  8
M2
100
AcDbLine
 10
123.847046
 20
408.653426
 11
123.69454
 21
408.653426
  0
ARC
  5
3BB
100
AcDbEntity
  8
M2
100
AcDbCircle
 10
195.29454
 20
344.853426
 40
3.0
100
AcDbArc
 50
270.0
 51
360.0
  0
LINE
  5
3BC
100
AcDbEntity
  8
M2
100
AcDbLine
 10
169.994539
 20
407.053427
 11
169.994539
 21
429.353428
  0
LINE
  5
3BD
100
AcDbEntity
  8
M2
100
AcDbLine
 10
147.19454
 20
420.853425
 11
147.19454
 21
429.853425
  0
LINE
  5
3BE
100
AcDbEntity
  8
M2
100
AcDbLine
 10
124.59454
 20
410.153427
 11
130.594539
 21
410.153427
  0
LINE
  5
3BF
100
AcDbEntity
  8
M2
100
AcDbLine
 10
130.594539
 20
410.153427
 11
130.594539
 21
409.103426
  0
LINE
  5
3C0
100
AcDbEntity
  8
M2
100
AcDbLine
 10
164.89454
 20
374.353426
 11
164.89454
 21
381.103426
  0
LINE
  5
3C1
100
AcDbEntity
  8
M2
100
AcDbLine
 10
151.14454
 20
377.853426
 11
151.64454
 21
377.853426
  0
LINE
  5
3C2
100
AcDbEntity
  8
M2
100
AcDbLine
 10
133.794539
 20
407.053427
 11
133.794539
 21
407.253426
  0
LINE
  5
3C3
100
AcDbEntity
  8
M2
100
AcDbLine
 10
164.89454
 20
381.103426
 11
165.14454
 21
381.603426
  0
LINE
  5
3C4
100
AcDbEntity
  8
M2
100
AcDbLine
 10
151.64454
 20
373.353426
 11
151.14454
 21
373.353426
  0
LINE
  5
3C5
100
AcDbEntity
  8
M2
100
AcDbLine
 10
153.79454
 20
381.103426
 11
153.79454
 21
374.353426
  0
LINE
  5
3C6
100
AcDbEntity
  8
M2
100
AcDbLine
 10
167.54454
 20
373.353426
 11
165.89454
 21
373.353426
  0
LINE
  5
3C7
100
AcDbEntity
  8
M2
100
AcDbLine
 10
164.89454
 20
387.603426
 11
164.89454
 21
389.853426
  0
LINE
  5
3C8
100
AcDbEntity
  8
M2
100
AcDbLine
 10
168.54454
 20
390.453426
 11
167.04454
 21
388.953426
  0
LINE
  5
3C9
100
AcDbEntity
  8
M2
100
AcDbLine
 10
185.594539
 20
377.153426
 11
186.09454
 21
377.153426
  0
LINE
  5
3CA
100
AcDbEntity
  8
M2
100
AcDbLine
 10
153.79454
 20
389.853426
 11
153.79454
 21
387.603426
  0
LINE
  5
3CB
100
AcDbEntity
  8
M2
100
AcDbLine
 10
168.54454
 20
394.353426
 11
168.54454
 21
374.353426
  0
LINE
  5
3CC
100
AcDbEntity
  8
M2
100
AcDbLine
 10
153.54454
 20
387.103426
 11
153.54454
 21
381.603426
  0
LINE
  5
3CD
100
AcDbEntity
  8
M2
100
AcDbLine
 10
152.64454
 20
395.353426
 11
151.14454
 21
395.353426
  0
LINE
  5
3CE
100
AcDbEntity
  8
M2
100
AcDbLine
 10
165.14454
 20
387.103426
 11
164.89454
 21
387.603426
  0
LINE
  5
3CF
100
AcDbEntity
  8
M2
100
AcDbLine
 10
165.14454
 20
381.603426
 11
165.14454
 21
387.103426
  0
LINE
  5
3D0
100
AcDbEntity
  8
M2
100
AcDbLine
 10
151.64454
 20
388.953426
 11
151.64454
 21
377.853426
  0
LINE
  5
3D1
100
AcDbEntity
  8
M2
100
AcDbLine
 10
167.04454
 20
377.853426
 11
167.54454
 21
377.853426
  0
LINE
  5
3D2
100
AcDbEntity
  8
M2
100
AcDbLine
 10
131.09454
 20
389.053426
 11
133.094541
 21
389.053426
  0
LINE
  5
3D3
100
AcDbEntity
  8
M2
100
AcDbLine
 10
153.54454
 20
381.603426
 11
153.79454
 21
381.103426
  0
LINE
  5
3D4
100
AcDbEntity
  8
M2
100
AcDbLine
 10
165.89454
 20
373.353426
 11
152.79454
 21
373.353426
  0
LINE
  5
3D5
100
AcDbEntity
  8
M2
100
AcDbLine
 10
152.79454
 20
373.353426
 11
151.14454
 21
373.353426
  0
LINE
  5
3D6
100
AcDbEntity
  8
M2
100
AcDbLine
 10
167.04454
 20
388.953426
 11
167.04454
 21
377.853426
  0
LINE
  5
3D7
100
AcDbEntity
  8
M2
100
AcDbLine
 10
166.29454
 20
361.653425
 11
166.29454
 21
359.453425
  0
LINE
  5
3D8
100
AcDbEntity
  8
M2
100
AcDbLine
 10
169.994539
 20
361.453426
 11
166.29454
 21
361.453426
  0
LINE
  5
3D9
100
AcDbEntity
  8
M2
100
AcDbLine
 10
169.994539
 20
359.453425
 11
169.994539
 21
361.653425
  0
LINE
  5
3DA
100
AcDbEntity
  8
M2
100
AcDbLine
 10
195.994538
 20
388.053426
 11
196.79454
 21
388.053426
  0
LINE
  5
3DB
100
AcDbEntity
  8
M2
100
AcDbLine
 10
195.994538
 20
404.453425
 11
196.79454
 21
404.453425
  0
LINE
  5
3DC
100
AcDbEntity
  8
M2
100
AcDbLine
 10
123.69454
 20
367.153425
 11
131.49454
 21
367.153425
  0
LINE
  5
3DD
100
AcDbEntity
  8
M2
100
AcDbLine
 10
166.29454
 20
407.253426
 11
169.994539
 21
407.253426
  0
LINE
  5
3DE
100
AcDbEntity
  8
M2
100
AcDbLine
 10
185.89454
 20
385.753426
 11
187.594539
 21
385.753426
  0
LINE
  5
3DF
100
AcDbEntity
  8
M2
100
AcDbLine
 10
148.69454
 20
361.653425
 11
148.69454
 21
342.853428
  0
LINE
  5
3E0
100
AcDbEntity
  8
M2
100
AcDbLine
 10
185.89454
 20
382.953426
 11
185.89454
 21
385.753426
  0
LINE
  5
3E1
100
AcDbEntity
  8
M2
100
AcDbLine
 10
132.794539
 20
382.953426
 11
132.794539
 21
385.753426
  0
LINE
  5
3E2
100
AcDbEntity
  8
M2
100
AcDbLine
 10
148.69454
 20
361.453426
 11
152.39454
 21
361.453426
  0
ARC
  5
3E3
100
AcDbEntity
  8
M2
100
AcDbCircle
 10
170.49454
 20
429.853426
 40
1.0
100
AcDbArc
 50
0.0
 51
90.0
  0
LINE
  5
3E4
100
AcDbEntity
  8
M2
100
AcDbLine
 10
127.194539
 20
388.053426
 11
121.894539
 21
388.053426
  0
LINE
  5
3E5
100
AcDbEntity
  8
M2
100
AcDbLine
 10
122.694541
 20
404.453425
 11
121.894539
 21
404.453425
  0
LINE
  5
3E6
100
AcDbEntity
  8
M2
100
AcDbLine
 10
194.99454
 20
410.703426
 11
194.99454
 21
389.053426
  0
LINE
  5
3E7
100
AcDbEntity
  8
M2
100
AcDbLine
 10
196.79454
 20
380.653426
 11
195.994538
 21
380.653426
  0
ARC
  5
3E8
100
AcDbEntity
  8
M2
100
AcDbCircle
 10
185.59454
 20
362.653426
 40
1.0
100
AcDbArc
 50
270.0
 51
360.0
  0
ARC
  5
3E9
100
AcDbEntity
  8
M2
100
AcDbCircle
 10
165.89454
 20
374.353426
 40
1.0
100
AcDbArc
 50
180.0
 51
270.0
  0
ARC
  5
3EA
100
AcDbEntity
  8
M2
100
AcDbCircle
 10
167.54454
 20
374.353426
 40
1.0
100
AcDbArc
 50
270.0
 51
360.0
  0
ARC
  5
3EB
100
AcDbEntity
  8
M2
100
AcDbCircle
 10
132.59454
 20
376.653426
 40
0.5
100
AcDbArc
 50
90.0
 51
180.0
  0
ARC
  5
3EC
100
AcDbEntity
  8
M2
100
AcDbCircle
 10
151.14454
 20
374.353426
 40
1.0
100
AcDbArc
 50
180.0
 51
270.0
  0
ARC
  5
3ED
100
AcDbEntity
  8
M2
100
AcDbCircle
 10
167.54454
 20
394.353426
 40
1.0
100
AcDbArc
 50
0.0
 51
90.0
  0
ARC
  5
3EE
100
AcDbEntity
  8
M2
100
AcDbCircle
 10
193.34454
 20
351.853426
 40
2.25
100
AcDbArc
 50
89.957854
 51
177.916058
  0
LINE
  5
3EF
100
AcDbEntity
  8
M2
100
AcDbLine
 10
167.04454
 20
373.353426
 11
167.54454
 21
373.353426
  0
ARC
  5
3F0
100
AcDbEntity
  8
M2
100
AcDbCircle
 10
123.89454
 20
344.853426
 40
3.0
100
AcDbArc
 50
180.0
 51
270.0
  0
ARC
  5
3F1
100
AcDbEntity
  8
M2
100
AcDbCircle
 10
190.796028
 20
351.903426
 40
0.3
100
AcDbArc
 50
270.0
 51
360.0
  0
ARC
  5
3F2
100
AcDbEntity
  8
M2
100
AcDbCircle
 10
122.69454
 20
403.453426
 40
1.0
100
AcDbArc
 50
0.0
 51
90.0
  0
ARC
  5
3F3
100
AcDbEntity
  8
M2
100
AcDbCircle
 10
152.79454
 20
374.353426
 40
1.0
100
AcDbArc
 50
270.0
 51
360.0
  0
LINE
  5
3F4
100
AcDbEntity
  8
M2
100
AcDbLine
 10
183.89454
 20
342.853428
 11
183.89454
 21
346.853424
  0
LINE
  5
3F5
100
AcDbEntity
  8
M2
100
AcDbLine
 10
168.494544
 20
341.853426
 11
167.29454
 21
341.853426
  0
LINE
  5
3F6
100
AcDbEntity
  8
M2
100
AcDbLine
 10
134.79454
 20
342.853428
 11
134.79454
 21
346.853424
  0
LINE
  5
3F7
100
AcDbEntity
  8
M2
100
AcDbLine
 10
152.39454
 20
407.253426
 11
148.69454
 21
407.253426
  0
LINE
  5
3F8
100
AcDbEntity
  8
M2
100
AcDbLine
 10
187.594539
 20
382.953426
 11
185.89454
 21
382.953426
  0
LINE
  5
3F9
100
AcDbEntity
  8
M2
100
AcDbLine
 10
169.994539
 20
346.853424
 11
169.994539
 21
342.853428
  0
ARC
  5
3FA
100
AcDbEntity
  8
M2
100
AcDbCircle
 10
151.14454
 20
394.353426
 40
1.0
100
AcDbArc
 50
90.0
 51
180.0
  0
ARC
  5
3FB
100
AcDbEntity
  8
M2
100
AcDbCircle
 10
153.79454
 20
390.353426
 40
0.5
100
AcDbArc
 50
270.0
 51
360.0
  0
ARC
  5
3FC
100
AcDbEntity
  8
M2
100
AcDbCircle
 10
133.09454
 20
362.653426
 40
1.0
100
AcDbArc
 50
180.0
 51
270.0
  0
ARC
  5
3FD
100
AcDbEntity
  8
M2
100
AcDbCircle
 10
186.09454
 20
376.653426
 40
0.5
100
AcDbArc
 50
0.0
 51
90.0
  0
ARC
  5
3FE
100
AcDbEntity
  8
M2
100
AcDbCircle
 10
151.14454
 20
376.853426
 40
1.0
100
AcDbArc
 50
90.0
 51
180.0
  0
LINE
  5
3FF
100
AcDbEntity
  8
M2
100
AcDbLine
 10
168.99454
 20
341.853426
 11
168.494544
 21
341.853426
  0
ARC
  5
400
100
AcDbEntity
  8
M2
100
AcDbCircle
 10
175.294537
 20
424.95343
 40
3.0
100
AcDbArc
 50
129.296349
 51
230.703651
  0
LINE
  5
401
100
AcDbEntity
  8
M2
100
AcDbLine
 10
179.944542
 20
430.853427
 11
180.79454
 21
430.853427
  0
LINE
  5
402
100
AcDbEntity
  8
M2
100
AcDbLine
 10
155.794542
 20
420.853425
 11
152.39454
 21
420.853425
  0
LINE
  5
403
100
AcDbEntity
  8
M2
100
AcDbLine
 10
162.344542
 20
429.153424
 11
169.29454
 21
429.153424
  0
LINE
  5
404
100
AcDbEntity
  8
M2
100
AcDbLine
 10
156.344542
 20
429.353428
 11
148.69454
 21
429.353428
  0
LINE
  5
405
100
AcDbEntity
  8
M2
100
AcDbLine
 10
162.344542
 20
430.853427
 11
173.944542
 21
430.853427
  0
LINE
  5
406
100
AcDbEntity
  8
M2
100
AcDbLine
 10
138.194542
 20
420.853425
 11
134.79454
 21
420.853425
  0
ARC
  5
407
100
AcDbEntity
  8
M2
100
AcDbCircle
 10
143.39454
 20
424.953426
 40
3.0
100
AcDbArc
 50
309.296538
 51
410.703462
  0
LINE
  5
408
100
AcDbEntity
  8
M2
100
AcDbLine
 10
144.743004
 20
430.853427
 11
156.344542
 21
430.853427
  0
LINE
  5
409
100
AcDbEntity
  8
M2
100
AcDbLine
 10
173.170293
 20
341.853426
 11
171.44454
 21
341.853426
  0
LINE
  5
40A
100
AcDbEntity
  8
M2
100
AcDbLine
 10
137.970293
 20
341.853426
 11
123.89454
 21
341.853426
  0
LINE
  5
40B
100
AcDbEntity
  8
M2
 62
     4
100
AcDbLine
 10
338.385732
 20
332.853425
 11
306.785434
 21
332.853425
  0
LINE
  5
40C
100
AcDbEntity
  8
M2
 62
     4
100
AcDbLine
 10
338.385732
 20
338.853425
 11
306.785434
 21
338.853425
  0
ARC
  5
40D
100
AcDbEntity
  8
M2
 62
     4
100
AcDbCircle
 10
338.385732
 20
335.853425
 40
3.0
100
AcDbArc
 50
33.712965
 51
90.0
  0
ARC
  5
40E
100
AcDbEntity
  8
M2
 62
     4
100
AcDbCircle
 10
338.385732
 20
335.853425
 40
3.0
100
AcDbArc
 50
270.0
 51
326.287035
  0
ARC
  5
40F
100
AcDbEntity
  8
M2
 62
     4
100
AcDbCircle
 10
306.785434
 20
341.853425
 40
3.0
100
AcDbArc
 50
180.0
 51
270.0
  0
ARC
  5
410
100
AcDbEntity
  8
M2
 62
     4
100
AcDbCircle
 10
306.785434
 20
341.853425
 40
9.0
100
AcDbArc
 50
180.0
 51
270.0
  0
LINE
  5
411
100
AcDbEntity
  8
M2
 62
    74
100
AcDbLine
 10
120.894541
 20
408.653426
 11
120.894541
 21
384.353426
  0
LINE
  5
412
100
AcDbEntity
  8
M2
 62
    74
100
AcDbLine
 10
120.894541
 20
401.753426
 11
115.894541
 21
401.753426
  0
LINE
  5
413
100
AcDbEntity
  8
M2
 62
    74
100
AcDbLine
 10
118.294541
 20
409.753427
 11
113.494541
 21
409.753427
  0
LINE
  5
414
100
AcDbEntity
  8
M2
 62
    74
100
AcDbLine
 10
110.894541
 20
401.753426
 11
115.894541
 21
401.753426
  0
LINE
  5
415
100
AcDbEntity
  8
M2
 62
    74
100
AcDbLine
 10
120.894541
 20
405.853426
 11
115.894541
 21
405.853426
  0
LINE
  5
416
100
AcDbEntity
  8
M2
 62
    74
100
AcDbLine
 10
110.894541
 20
366.953426
 11
115.894541
 21
366.953426
  0
ARC
  5
417
100
AcDbEntity
  8
M2
 62
    74
100
AcDbCircle
 10
120.394541
 20
408.653426
 40
0.5
100
AcDbArc
 50
23.578178
 51
90.0
  0
LINE
  5
418
100
AcDbEntity
  8
M2
 62
    74
100
AcDbLine
 10
118.294541
 20
358.953425
 11
113.494541
 21
358.953425
  0
ARC
  5
419
100
AcDbEntity
  8
M2
 62
    74
100
AcDbCircle
 10
113.494541
 20
409.153426
 40
0.6
100
AcDbArc
 50
90.0
 51
180.0
  0
ARC
  5
41A
100
AcDbEntity
  8
M2
 62
    74
100
AcDbCircle
 10
111.394541
 20
408.653426
 40
0.5
100
AcDbArc
 50
90.0
 51
156.421822
  0
LINE
  5
41B
100
AcDbEntity
  8
M2
 62
    74
100
AcDbLine
 10
110.894541
 20
384.353426
 11
110.894541
 21
360.053426
  0
ARC
  5
41C
100
AcDbEntity
  8
M2
 62
    74
100
AcDbCircle
 10
118.294541
 20
409.153426
 40
0.6
100
AcDbArc
 50
0.0
 51
90.0
  0
LINE
  5
41D
100
AcDbEntity
  8
M2
 62
    74
100
AcDbLine
 10
120.894541
 20
360.053426
 11
120.894541
 21
384.353426
  0
LINE
  5
41E
100
AcDbEntity
  8
M2
 62
    74
100
AcDbLine
 10
120.894541
 20
362.853426
 11
115.894541
 21
362.853426
  0
ARC
  5
41F
100
AcDbEntity
  8
M2
 62
    74
100
AcDbCircle
 10
118.294541
 20
359.553426
 40
0.6
100
AcDbArc
 50
270.0
 51
360.0
  0
LINE
  5
420
100
AcDbEntity
  8
M2
  6
DASHDOT
 62
    74
100
AcDbLine
 10
115.894541
 20
353.183808
 11
115.894541
 21
413.566379
  0
ARC
  5
421
100
AcDbEntity
  8
M2
 62
    74
100
AcDbCircle
 10
120.394541
 20
360.053426
 40
0.5
100
AcDbArc
 50
270.0
 51
336.421822
  0
LINE
  5
422
100
AcDbEntity
  8
M2
 62
    74
100
AcDbLine
 10
120.894541
 20
366.953426
 11
115.894541
 21
366.953426
  0
LINE
  5
423
100
AcDbEntity
  8
M2
 62
    74
100
AcDbLine
 10
110.894541
 20
405.853426
 11
115.894541
 21
405.853426
  0
ARC
  5
424
100
AcDbEntity
  8
M2
 62
    74
100
AcDbCircle
 10
111.394541
 20
360.053426
 40
0.5
100
AcDbArc
 50
203.578178
 51
270.0
  0
LINE
  5
425
100
AcDbEntity
  8
M2
 62
    74
100
AcDbLine
 10
110.894541
 20
384.353426
 11
110.894541
 21
408.653426
  0
LINE
  5
426
100
AcDbEntity
  8
M2
 62
    74
100
AcDbLine
 10
111.394541
 20
359.553427
 11
120.394541
 21
359.553427
  0
ARC
  5
427
100
AcDbEntity
  8
M2
 62
    74
100
AcDbCircle
 10
113.494541
 20
359.553426
 40
0.6
100
AcDbArc
 50
180.0
 51
270.0
  0
LINE
  5
428
100
AcDbEntity
  8
M2
 62
    74
100
AcDbLine
 10
111.394541
 20
409.153425
 11
120.394541
 21
409.153425
  0
LINE
  5
429
100
AcDbEntity
  8
M2
 62
    74
100
AcDbLine
 10
110.894541
 20
362.853426
 11
115.894541
 21
362.853426
  0
ARC
  5
42A
100
AcDbEntity
  8
M2
 62
   154
100
AcDbCircle
 10
81.044542
 20
340.653424
 40
1.0
100
AcDbArc
 50
90.0
 51
180.0
  0
ARC
  5
42B
100
AcDbEntity
  8
M2
 62
   154
100
AcDbCircle
 10
79.044542
 20
338.653424
 40
1.0
100
AcDbArc
 50
350.191334
 51
360.0
  0
ARC
  5
42C
100
AcDbEntity
  8
M2
 62
   154
100
AcDbCircle
 10
61.044542
 20
340.653424
 40
1.0
100
AcDbArc
 50
0.0
 51
90.0
  0
LINE
  5
42D
100
AcDbEntity
  8
M2
 62
   154
100
AcDbLine
 10
81.044542
 20
341.653424
 11
87.212096
 21
341.653424
  0
LINE
  5
42E
100
AcDbEntity
  8
M2
 62
   154
100
AcDbLine
 10
44.944542
 20
352.453424
 11
45.194543
 21
352.453424
  0
LINE
  5
42F
100
AcDbEntity
  8
M2
 62
   154
100
AcDbLine
 10
80.044542
 20
338.653424
 11
80.044542
 21
340.653424
  0
LINE
  5
430
100
AcDbEntity
  8
M2
 62
   154
100
AcDbLine
 10
62.044542
 20
340.653424
 11
62.044542
 21
338.653424
  0
LINE
  5
431
100
AcDbEntity
  8
M2
 62
   154
100
AcDbLine
 10
61.044542
 20
341.653424
 11
58.725717
 21
341.653424
  0
LINE
  5
432
100
AcDbEntity
  8
M2
 62
   154
100
AcDbLine
 10
44.944542
 20
335.246041
 11
44.944542
 21
352.453424
  0
LINE
  5
433
100
AcDbEntity
  8
M2
 62
   154
100
AcDbLine
 10
97.144542
 20
342.326644
 11
97.144542
 21
338.682397
  0
LINE
  5
434
100
AcDbEntity
  8
M2
 62
   154
100
AcDbLine
 10
95.944542
 20
331.153424
 11
95.944542
 21
332.053426
  0
LINE
  5
435
100
AcDbEntity
  8
M2
 62
   154
100
AcDbLine
 10
46.144542
 20
341.853426
 11
46.144542
 21
336.826991
  0
LINE
  5
436
100
AcDbEntity
  8
M2
 62
   154
100
AcDbLine
 10
94.160025
 20
341.653424
 11
95.944542
 21
341.653424
  0
LINE
  5
437
100
AcDbEntity
  8
M2
 62
   154
100
AcDbLine
 10
49.807984
 20
341.653424
 11
46.144542
 21
341.653424
  0
LINE
  5
438
100
AcDbEntity
  8
M2
 62
   154
100
AcDbLine
 10
97.144542
 20
332.053426
 11
97.144542
 21
331.153424
  0
LINE
  5
439
100
AcDbEntity
  8
M2
 62
   154
100
AcDbLine
 10
95.944542
 20
339.379801
 11
95.944542
 21
342.417536
  0
ARC
  5
43A
100
AcDbEntity
  8
M2
 62
   154
100
AcDbCircle
 10
342.381218
 20
351.153425
 40
1.5
100
AcDbArc
 50
90.0
 51
180.0
  0
LINE
  5
43B
100
AcDbEntity
  8
M2
 62
   154
100
AcDbLine
 10
359.081218
 20
341.853425
 11
359.081218
 21
298.453425
  0
LINE
  5
43C
100
AcDbEntity
  8
M2
 62
   154
100
AcDbLine
 10
359.081218
 20
331.353425
 11
342.381218
 21
331.353425
  0
ARC
  5
43D
100
AcDbEntity
  8
M2
 62
   154
100
AcDbCircle
 10
342.381218
 20
332.853425
 40
1.5
100
AcDbArc
 50
180.0
 51
270.0
  0
ARC
  5
43E
100
AcDbEntity
  8
M2
 62
   154
100
AcDbCircle
 10
357.381218
 20
298.453425
 40
1.7
100
AcDbArc
 50
287.104635
 51
360.0
  0
LINE
  5
43F
100
AcDbEntity
  8
M2
 62
   154
100
AcDbLine
 10
359.081218
 20
300.153425
 11
357.881218
 21
300.153425
  0
LINE
  5
440
100
AcDbEntity
  8
M2
 62
   154
100
AcDbLine
 10
348.185434
 20
347.053425
 11
347.981218
 21
347.053425
  0
LINE
  5
441
100
AcDbEntity
  8
M2
 62
   154
100
AcDbLine
 10
347.481218
 20
346.553425
 11
347.481218
 21
342.353425
  0
LINE
  5
442
100
AcDbEntity
  8
M2
 62
   154
100
AcDbLine
 10
347.981218
 20
341.853425
 11
359.081218
 21
341.853425
  0
LINE
  5
443
100
AcDbEntity
  8
M2
 62
   154
100
AcDbLine
 10
357.881218
 20
331.353425
 11
357.881218
 21
298.453425
  0
LINE
  5
444
100
AcDbEntity
  8
M2
 62
   154
100
AcDbLine
 10
340.881218
 20
332.853425
 11
340.881218
 21
351.153425
  0
LINE
  5
445
100
AcDbEntity
  8
M2
 62
   154
100
AcDbLine
 10
342.381218
 20
352.653425
 11
348.185434
 21
352.653425
  0
ARC
  5
446
100
AcDbEntity
  8
M2
 62
   154
100
AcDbCircle
 10
347.981218
 20
346.553425
 40
0.5
100
AcDbArc
 50
90.0
 51
180.0
  0
ARC
  5
447
100
AcDbEntity
  8
M2
 62
   154
100
AcDbCircle
 10
347.981218
 20
342.353425
 40
0.5
100
AcDbArc
 50
180.0
 51
270.0
  0
LINE
  5
448
100
AcDbEntity
  8
M2
 62
     6
100
AcDbLine
 10
289.131218
 20
315.353425
 11
291.831218
 21
315.353425
  0
LINE
  5
449
100
AcDbEntity
  8
M2
 62
     6
100
AcDbLine
 10
291.831218
 20
315.353425
 11
291.831218
 21
314.353425
  0
LINE
  5
44A
100
AcDbEntity
  8
M2
 62
     6
100
AcDbLine
 10
289.131218
 20
314.353425
 11
291.831218
 21
314.353425
  0
LINE
  5
44B
100
AcDbEntity
  8
M2
 62
     6
100
AcDbLine
 10
289.131218
 20
317.56199
 11
289.131218
 21
315.353425
  0
LINE
  5
44C
100
AcDbEntity
  8
M2
 62
     6
100
AcDbLine
 10
289.131218
 20
317.56199
 11
291.831218
 21
317.56199
  0
LINE
  5
44D
100
AcDbEntity
  8
M2
 62
     6
100
AcDbLine
 10
289.131218
 20
318.485869
 11
291.831218
 21
318.485869
  0
LINE
  5
44E
100
AcDbEntity
  8
M2
 62
     6
100
AcDbLine
 10
289.131218
 20
320.358199
 11
291.831218
 21
320.358199
  0
LINE
  5
44F
100
AcDbEntity
  8
M2
 62
     6
100
AcDbLine
 10
294.381218
 20
322.353425
 11
293.831218
 21
322.353425
  0
LINE
  5
450
100
AcDbEntity
  8
M2
 62
     6
100
AcDbLine
 10
289.131218
 20
321.065306
 11
291.831218
 21
321.065306
  0
LINE
  5
451
100
AcDbEntity
  8
M2
 62
     6
100
AcDbLine
 10
289.131218
 20
322.316357
 11
289.131218
 21
321.065306
  0
LINE
  5
452
100
AcDbEntity
  8
M2
 62
     6
100
AcDbLine
 10
287.931218
 20
323.153425
 11
291.831218
 21
323.153425
  0
LINE
  5
453
100
AcDbEntity
  8
M2
 62
     6
100
AcDbLine
 10
291.831218
 20
321.065306
 11
291.831218
 21
320.358199
  0
LINE
  5
454
100
AcDbEntity
  8
M2
 62
     6
100
AcDbLine
 10
291.831218
 20
318.485869
 11
291.831218
 21
317.56199
  0
LINE
  5
455
100
AcDbEntity
  8
M2
 62
     6
100
AcDbLine
 10
291.831218
 20
322.699041
 11
291.831218
 21
322.316357
  0
LINE
  5
456
100
AcDbEntity
  8
M2
 62
     6
100
AcDbLine
 10
289.131218
 20
322.699041
 11
291.831218
 21
322.699041
  0
LINE
  5
457
100
AcDbEntity
  8
M2
 62
     6
100
AcDbLine
 10
289.131218
 20
323.153425
 11
289.131218
 21
322.699041
  0
LINE
  5
458
100
AcDbEntity
  8
M2
 62
     6
100
AcDbLine
 10
291.831218
 20
323.153425
 11
291.831218
 21
322.853425
  0
LINE
  5
459
100
AcDbEntity
  8
M2
 62
     6
100
AcDbLine
 10
289.131218
 20
320.358199
 11
289.131218
 21
318.485869
  0
LINE
  5
45A
100
AcDbEntity
  8
M2
 62
     6
100
AcDbLine
 10
291.831218
 20
322.853425
 11
293.831218
 21
322.853425
  0
LINE
  5
45B
100
AcDbEntity
  8
M2
 62
     6
100
AcDbLine
 10
289.131218
 20
322.316357
 11
291.831218
 21
322.316357
  0
LINE
  5
45C
100
AcDbEntity
  8
M2
 62
     6
100
AcDbLine
 10
282.881218
 20
309.853425
 11
282.881218
 21
325.853425
  0
ARC
  5
45D
100
AcDbEntity
  8
M2
 62
     6
100
AcDbCircle
 10
283.881218
 20
319.103425
 40
1.0
100
AcDbArc
 50
180.0
 51
270.0
  0
ARC
  5
45E
100
AcDbEntity
  8
M2
 62
     6
100
AcDbCircle
 10
284.831228
 20
318.103425
 40
0.5
100
AcDbArc
 50
90.0
 51
179.998251
  0
LINE
  5
45F
100
AcDbEntity
  8
M2
 62
     6
100
AcDbLine
 10
284.331228
 20
311.603425
 11
284.331228
 21
318.103425
  0
LINE
  5
460
100
AcDbEntity
  8
M2
 62
     6
100
AcDbLine
 10
284.831228
 20
318.603425
 11
287.931218
 21
318.603425
  0
ARC
  5
461
100
AcDbEntity
  8
M2
 62
     6
100
AcDbCircle
 10
284.831228
 20
311.603425
 40
0.5
100
AcDbArc
 50
179.998251
 51
270.0
  0
LINE
  5
462
100
AcDbEntity
  8
M2
 62
     6
100
AcDbLine
 10
287.931218
 20
311.103425
 11
284.831228
 21
311.103425
  0
LINE
  5
463
100
AcDbEntity
  8
M2
 62
     6
100
AcDbLine
 10
287.931218
 20
323.153425
 11
287.931218
 21
306.553425
  0
LINE
  5
464
100
AcDbEntity
  8
M2
 62
     6
100
AcDbLine
 10
289.131218
 20
307.00781
 11
291.831218
 21
307.00781
  0
LINE
  5
465
100
AcDbEntity
  8
M2
 62
     6
100
AcDbLine
 10
289.131218
 20
307.390494
 11
291.831218
 21
307.390494
  0
LINE
  5
466
100
AcDbEntity
  8
M2
 62
     6
100
AcDbLine
 10
287.931218
 20
306.553425
 11
291.831218
 21
306.553425
  0
LINE
  5
467
100
AcDbEntity
  8
M2
 62
     6
100
AcDbLine
 10
289.131218
 20
311.220982
 11
289.131218
 21
309.348651
  0
LINE
  5
468
100
AcDbEntity
  8
M2
 62
     6
100
AcDbLine
 10
289.131218
 20
308.641545
 11
289.131218
 21
307.390494
  0
LINE
  5
469
100
AcDbEntity
  8
M2
 62
     6
100
AcDbLine
 10
289.131218
 20
314.353425
 11
289.131218
 21
312.144861
  0
LINE
  5
46A
100
AcDbEntity
  8
M2
 62
     6
100
AcDbLine
 10
291.831218
 20
312.459284
 11
291.831218
 21
306.553425
  0
LINE
  5
46B
100
AcDbEntity
  8
M2
 62
     6
100
AcDbLine
 10
289.131218
 20
311.220982
 11
291.831218
 21
311.220982
  0
LINE
  5
46C
100
AcDbEntity
  8
M2
 62
     6
100
AcDbLine
 10
291.831218
 20
307.390494
 11
291.831218
 21
307.00781
  0
LINE
  5
46D
100
AcDbEntity
  8
M2
 62
     6
100
AcDbLine
 10
289.131218
 20
308.641545
 11
291.831218
 21
308.641545
  0
LINE
  5
46E
100
AcDbEntity
  8
M2
 62
     6
100
AcDbLine
 10
289.131218
 20
309.348651
 11
291.831218
 21
309.348651
  0
LINE
  5
46F
100
AcDbEntity
  8
M2
 62
     6
100
AcDbLine
 10
289.131218
 20
312.144861
 11
291.831218
 21
312.144861
  0
LINE
  5
470
100
AcDbEntity
  8
M2
 62
     6
100
AcDbLine
 10
289.131218
 20
307.00781
 11
289.131218
 21
306.553425
  0
LINE
  5
471
100
AcDbEntity
  8
M2
 62
     6
100
AcDbLine
 10
293.831218
 20
312.459284
 11
291.831218
 21
312.459284
  0
LINE
  5
472
100
AcDbEntity
  8
M2
 62
     6
100
AcDbLine
 10
293.831218
 20
307.853425
 11
291.831218
 21
307.853425
  0
LINE
  5
473
100
AcDbEntity
  8
M2
 62
     6
100
AcDbLine
 10
293.831218
 20
307.353425
 11
293.831218
 21
322.853425
  0
LINE
  5
474
100
AcDbEntity
  8
M2
 62
     6
100
AcDbLine
 10
301.581218
 20
307.353425
 11
293.831218
 21
307.353425
  0
LINE
  5
475
100
AcDbEntity
  8
M2
 62
     6
100
AcDbLine
 10
294.381218
 20
308.729701
 11
293.831218
 21
308.729701
  0
LINE
  5
476
100
AcDbEntity
  8
M2
 62
     6
100
AcDbLine
 10
294.381218
 20
323.853425
 11
287.381218
 21
323.853425
  0
LINE
  5
477
100
AcDbEntity
  8
M2
 62
     6
100
AcDbLine
 10
287.381218
 20
325.853425
 11
287.381218
 21
323.853425
  0
LINE
  5
478
100
AcDbEntity
  8
M2
 62
     6
100
AcDbLine
 10
282.881218
 20
325.853425
 11
287.381218
 21
325.853425
  0
ARC
  5
479
100
AcDbEntity
  8
M2
 62
     6
100
AcDbCircle
 10
282.881218
 20
326.853425
 40
1.0
100
AcDbArc
 50
180.0
 51
270.0
  0
ARC
  5
47A
100
AcDbEntity
  8
M2
 62
     6
100
AcDbCircle
 10
282.881218
 20
308.853425
 40
1.0
100
AcDbArc
 50
90.0
 51
180.0
  0
LINE
  5
47B
100
AcDbEntity
  8
M2
 62
     6
100
AcDbLine
 10
281.881218
 20
307.353425
 11
281.881218
 21
308.853425
  0
LINE
  5
47C
100
AcDbEntity
  8
M2
 62
     6
100
AcDbLine
 10
287.931218
 20
307.353425
 11
281.881218
 21
307.353425
  0
LINE
  5
47D
100
AcDbEntity
  8
M2
 62
     6
100
AcDbLine
 10
287.931218
 20
309.853425
 11
282.881218
 21
309.853425
  0
LINE
  5
47E
100
AcDbEntity
  8
M2
 62
     6
100
AcDbLine
 10
283.881218
 20
318.103425
 11
284.331228
 21
318.103425
  0
ARC
  5
47F
100
AcDbEntity
  8
M2
 62
     6
100
AcDbCircle
 10
283.881218
 20
310.603425
 40
1.0
100
AcDbArc
 50
90.0
 51
180.0
  0
LINE
  5
480
100
AcDbEntity
  8
M2
 62
     6
100
AcDbLine
 10
283.881218
 20
311.603425
 11
284.331228
 21
311.603425
  0
LINE
  5
481
100
AcDbEntity
  8
M2
 62
     6
100
AcDbLine
 10
294.381218
 20
307.353425
 11
294.381218
 21
328.353425
  0
LINE
  5
482
100
AcDbEntity
  8
M2
 62
     6
100
AcDbLine
 10
301.181218
 20
328.353425
 11
281.881218
 21
328.353425
  0
LINE
  5
483
100
AcDbEntity
  8
M2
 62
     6
100
AcDbLine
 10
292.381218
 20
324.903425
 11
294.381218
 21
324.903425
  0
LINE
  5
484
100
AcDbEntity
  8
M2
 62
     6
100
AcDbLine
 10
292.381218
 20
327.203425
 11
292.381218
 21
324.903425
  0
LINE
  5
485
100
AcDbEntity
  8
M2
 62
     6
100
AcDbLine
 10
292.381218
 20
327.203425
 11
294.381218
 21
327.203425
  0
LINE
  5
486
100
AcDbEntity
  8
M2
 62
     6
100
AcDbLine
 10
281.881218
 20
326.853425
 11
281.881218
 21
328.353425
  0
LINE
  5
487
100
AcDbEntity
  8
M2
  6
DASHED
 62
     6
100
AcDbLine
 10
288.381218
 20
307.353425
 11
288.381218
 21
308.553425
  0
LINE
  5
488
100
AcDbEntity
  8
M2
  6
DASHED
 62
     6
100
AcDbLine
 10
281.881218
 20
308.553425
 11
288.381218
 21
308.553425
  0
LINE
  5
489
100
AcDbEntity
  8
M2
 62
     6
100
AcDbLine
 10
288.38122
 20
307.35342
 11
292.206583
 21
293.076968
  0
LINE
  5
48A
100
AcDbEntity
  8
M2
 62
     6
100
AcDbLine
 10
295.381218
 20
307.353425
 11
298.402735
 21
296.076968
  0
LINE
  5
48B
100
AcDbEntity
  8
M2
 62
     6
100
AcDbLine
 10
294.381218
 20
307.353425
 11
294.381218
 21
328.353425
  0
LINE
  5
48C
100
AcDbEntity
  8
M2
 62
     6
100
AcDbLine
 10
282.881218
 20
309.853425
 11
282.881218
 21
325.853425
  0
LINE
  5
48D
100
AcDbEntity
  8
M2
 62
     6
100
AcDbLine
 10
281.881218
 20
328.353425
 11
281.881218
 21
326.853425
  0
LINE
  5
48E
100
AcDbEntity
  8
M2
 62
     6
100
AcDbLine
 10
281.881218
 20
308.853425
 11
281.881218
 21
307.353425
  0
LINE
  5
48F
100
AcDbEntity
  8
M2
 62
     6
100
AcDbLine
 10
279.881218
 20
313.853425
 11
279.881218
 21
325.353425
  0
LINE
  5
490
100
AcDbEntity
  8
M2
 62
     6
100
AcDbLine
 10
288.381218
 20
306.853425
 11
288.381218
 21
307.353425
  0
LINE
  5
491
100
AcDbEntity
  8
M2
 62
     6
100
AcDbLine
 10
289.439432
 20
293.573988
 11
285.881218
 21
306.853425
  0
LINE
  5
492
100
AcDbEntity
  8
M2
 62
     6
100
AcDbLine
 10
301.581218
 20
307.353425
 11
301.581218
 21
300.853425
  0
LINE
  5
493
100
AcDbEntity
  8
M2
 62
     6
100
AcDbLine
 10
280.881218
 20
326.353425
 11
282.027771
 21
326.353425
  0
LINE
  5
494
100
AcDbEntity
  8
M2
 62
     6
100
AcDbLine
 10
287.381218
 20
325.853425
 11
282.881218
 21
325.853425
  0
LINE
  5
495
100
AcDbEntity
  8
M2
 62
     6
100
AcDbLine
 10
305.081218
 20
326.353425
 11
301.881218
 21
326.353425
  0
LINE
  5
496
100
AcDbEntity
  8
M2
 62
     6
100
AcDbLine
 10
301.881218
 20
327.653425
 11
301.881218
 21
326.353425
  0
LINE
  5
497
100
AcDbEntity
  8
M2
 62
     6
100
AcDbLine
 10
314.681218
 20
329.253425
 11
303.681218
 21
329.253425
  0
LINE
  5
498
100
AcDbEntity
  8
M2
 62
     6
100
AcDbLine
 10
343.681218
 20
329.253425
 11
318.681218
 21
329.253425
  0
LINE
  5
499
100
AcDbEntity
  8
M2
 62
     6
100
AcDbLine
 10
278.881218
 20
330.853425
 11
302.181218
 21
330.853425
  0
LINE
  5
49A
100
AcDbEntity
  8
M2
 62
     6
100
AcDbLine
 10
354.881218
 20
331.353425
 11
357.881218
 21
331.353425
  0
LINE
  5
49B
100
AcDbEntity
  8
M2
 62
     6
100
AcDbLine
 10
305.781218
 20
328.353425
 11
354.881218
 21
328.353425
  0
LINE
  5
49C
100
AcDbEntity
  8
M2
 62
     6
100
AcDbLine
 10
305.681218
 20
328.353425
 11
280.881218
 21
328.353425
  0
LINE
  5
49D
100
AcDbEntity
  8
M2
 62
     6
100
AcDbLine
 10
347.881218
 20
329.253425
 11
354.865382
 21
329.253425
  0
ARC
  5
49E
100
AcDbEntity
  8
M2
 62
     6
100
AcDbCircle
 10
301.181218
 20
327.653425
 40
0.7
100
AcDbArc
 50
0.0
 51
90.0
  0
ARC
  5
49F
100
AcDbEntity
  8
M2
 62
     6
100
AcDbCircle
 10
302.181218
 20
329.353425
 40
1.5
100
AcDbArc
 50
0.0
 51
90.0
  0
ARC
  5
4A0
100
AcDbEntity
  8
M2
 62
     6
100
AcDbCircle
 10
283.577459
 20
292.853425
 40
4.0
100
AcDbArc
 50
195.0
 51
270.0
  0
ARC
  5
4A1
100
AcDbEntity
  8
M2
 62
     6
100
AcDbCircle
 10
278.881218
 20
326.853425
 40
4.0
100
AcDbArc
 50
90.0
 51
180.0
  0
ARC
  5
4A2
100
AcDbEntity
  8
M2
 62
     6
100
AcDbCircle
 10
309.926646
 20
292.853425
 40
4.0
100
AcDbArc
 50
270.0
 51
301.169221
  0
ARC
  5
4A3
100
AcDbEntity
  8
M2
 62
     6
100
AcDbCircle
 10
280.881218
 20
325.353425
 40
3.0
100
AcDbArc
 50
90.0
 51
179.938788
  0
ARC
  5
4A4
100
AcDbEntity
  8
M2
 62
     6
100
AcDbCircle
 10
292.336411
 20
294.353425
 40
3.0
100
AcDbArc
 50
195.058919
 51
269.938297
  0
ARC
  5
4A5
100
AcDbEntity
  8
M2
 62
     6
100
AcDbCircle
 10
305.781218
 20
327.653425
 40
0.7
100
AcDbArc
 50
90.0
 51
180.0
  0
ARC
  5
4A6
100
AcDbEntity
  8
M2
 62
     6
100
AcDbCircle
 10
280.881218
 20
325.353425
 40
1.0
100
AcDbArc
 50
90.0
 51
180.0
  0
LINE
  5
4A7
100
AcDbEntity
  8
M2
 62
     6
100
AcDbLine
 10
274.881218
 20
309.853425
 11
274.881218
 21
326.853425
  0
LINE
  5
4A8
100
AcDbEntity
  8
M2
 62
     6
100
AcDbLine
 10
275.174111
 20
310.86859
 11
275.174111
 21
312.853425
  0
ARC
  5
4A9
100
AcDbEntity
  8
M2
 62
     6
100
AcDbCircle
 10
328.327414
 20
288.853425
 40
2.0
100
AcDbArc
 50
194.99833
 51
270.0
  0
ARC
  5
4AA
100
AcDbEntity
  8
M2
 62
     6
100
AcDbCircle
 10
351.881218
 20
289.853425
 40
2.0
100
AcDbArc
 50
269.998343
 51
360.0
  0
ARC
  5
4AB
100
AcDbEntity
  8
M2
 62
     6
100
AcDbCircle
 10
344.47374
 20
288.853425
 40
2.0
100
AcDbArc
 50
269.999042
 51
330.0
  0
LINE
  5
4AC
100
AcDbEntity
  8
M2
 62
     6
100
AcDbLine
 10
274.881218
 20
309.853425
 11
279.713755
 21
291.818149
  0
LINE
  5
4AD
100
AcDbEntity
  8
M2
 62
     6
100
AcDbLine
 10
277.081218
 20
312.853425
 11
277.081218
 21
310.153425
  0
LINE
  5
4AE
100
AcDbEntity
  8
M2
 62
     6
100
AcDbLine
 10
277.881218
 20
309.853425
 11
277.881218
 21
325.356631
  0
ARC
  5
4AF
100
AcDbEntity
  8
M2
 62
     6
100
AcDbCircle
 10
327.255618
 20
292.853425
 40
2.0
100
AcDbArc
 50
195.0
 51
270.0
  0
ARC
  5
4B0
100
AcDbEntity
  8
M2
 62
     6
100
AcDbCircle
 10
345.628441
 20
290.853425
 40
2.0
100
AcDbArc
 50
270.0
 51
330.0
  0
ARC
  5
4B1
100
AcDbEntity
  8
M2
 62
     6
100
AcDbCircle
 10
304.581218
 20
300.853425
 40
3.0
100
AcDbArc
 50
180.0
 51
270.0
  0
ARC
  5
4B2
100
AcDbEntity
  8
M2
 62
     6
100
AcDbCircle
 10
282.881218
 20
308.853425
 40
1.0
100
AcDbArc
 50
90.0
 51
180.0
  0
ARC
  5
4B3
100
AcDbEntity
  8
M2
 62
     6
100
AcDbCircle
 10
282.881218
 20
326.853425
 40
1.0
100
AcDbArc
 50
180.0
 51
270.0
  0
ARC
  5
4B4
100
AcDbEntity
  8
M2
 62
     6
100
AcDbCircle
 10
357.131218
 20
292.603425
 40
0.75
100
AcDbArc
 50
270.0
 51
360.0
  0
ARC
  5
4B5
100
AcDbEntity
  8
M2
 62
     6
100
AcDbCircle
 10
295.10436
 20
293.853425
 40
3.0
100
AcDbArc
 50
195.0
 51
270.0
  0
ARC
  5
4B6
100
AcDbEntity
  8
M2
 62
     6
100
AcDbCircle
 10
318.881218
 20
289.853425
 40
1.0
100
AcDbArc
 50
270.246868
 51
360.0
  0
LINE
  5
4B7
100
AcDbEntity
  8
M2
 62
     6
100
AcDbLine
 10
295.10436
 20
290.853425
 11
309.881218
 21
290.853425
  0
LINE
  5
4B8
100
AcDbEntity
  8
M2
 62
     6
100
AcDbLine
 10
327.255618
 20
290.853425
 11
331.881218
 21
290.853425
  0
LINE
  5
4B9
100
AcDbEntity
  8
M2
 62
     6
100
AcDbLine
 10
293.450162
 20
291.353425
 11
292.33318
 21
291.353425
  0
LINE
  5
4BA
100
AcDbEntity
  8
M2
 62
     6
100
AcDbLine
 10
319.881218
 20
289.853425
 11
325.988913
 21
289.853425
  0
LINE
  5
4BB
100
AcDbEntity
  8
M2
 62
     6
100
AcDbLine
 10
312.881218
 20
288.853425
 11
309.881218
 21
290.853425
  0
LINE
  5
4BC
100
AcDbEntity
  8
M2
 62
     6
100
AcDbLine
 10
312.881218
 20
295.853425
 11
324.381218
 21
295.853425
  0
LINE
  5
4BD
100
AcDbEntity
  8
M2
  6
DASHED
 62
     6
100
AcDbLine
 10
284.547884
 20
307.353425
 11
281.881218
 21
308.353425
  0
LINE
  5
4BE
100
AcDbEntity
  8
M2
 62
     6
100
AcDbLine
 10
285.881218
 20
306.853425
 11
284.547884
 21
307.353425
  0
LINE
  5
4BF
100
AcDbEntity
  8
M2
 62
     6
100
AcDbLine
 10
312.881218
 20
295.853425
 11
309.881218
 21
297.853425
  0
LINE
  5
4C0
100
AcDbEntity
  8
M2
 62
     6
100
AcDbLine
 10
357.131218
 20
291.853425
 11
353.881218
 21
291.853425
  0
LINE
  5
4C1
100
AcDbEntity
  8
M2
 62
     6
100
AcDbLine
 10
349.381218
 20
293.353425
 11
357.881218
 21
293.353425
  0
LINE
  5
4C2
100
AcDbEntity
  8
M2
 62
     6
100
AcDbLine
 10
324.917116
 20
293.853425
 11
301.300513
 21
293.853425
  0
LINE
  5
4C3
100
AcDbEntity
  8
M2
 62
     6
100
AcDbLine
 10
346.205791
 20
287.853425
 11
349.381218
 21
293.353425
  0
LINE
  5
4C4
100
AcDbEntity
  8
M2
 62
     6
100
AcDbLine
 10
343.681218
 20
329.253425
 11
343.922372
 21
328.353425
  0
LINE
  5
4C5
100
AcDbEntity
  8
M2
 62
     6
100
AcDbLine
 10
357.881218
 20
292.603425
 11
357.881218
 21
331.353425
  0
LINE
  5
4C6
100
AcDbEntity
  8
M2
 62
     6
100
AcDbLine
 10
354.881218
 20
328.353425
 11
354.881218
 21
331.353425
  0
LINE
  5
4C7
100
AcDbEntity
  8
M2
 62
     6
100
AcDbLine
 10
353.881218
 20
289.853425
 11
353.881218
 21
293.353425
  0
LINE
  5
4C8
100
AcDbEntity
  8
M2
 62
     6
100
AcDbLine
 10
283.577459
 20
288.853425
 11
309.926646
 21
288.853425
  0
LINE
  5
4C9
100
AcDbEntity
  8
M2
 62
     6
100
AcDbLine
 10
346.205791
 20
287.853425
 11
351.88116
 21
287.853425
  0
LINE
  5
4CA
100
AcDbEntity
  8
M2
 62
     6
100
AcDbLine
 10
315.877128
 20
288.853425
 11
318.887116
 21
288.853425
  0
LINE
  5
4CB
100
AcDbEntity
  8
M2
 62
     6
100
AcDbLine
 10
334.881218
 20
288.853425
 11
345.628441
 21
288.853425
  0
LINE
  5
4CC
100
AcDbEntity
  8
M2
 62
     6
100
AcDbLine
 10
315.871218
 20
288.853425
 11
312.881218
 21
288.853425
  0
LINE
  5
4CD
100
AcDbEntity
  8
M2
 62
     6
100
AcDbLine
 10
347.640063
 20
328.353425
 11
347.881218
 21
329.253425
  0
LINE
  5
4CE
100
AcDbEntity
  8
M2
 62
     6
100
AcDbLine
 10
328.327414
 20
286.853425
 11
344.473707
 21
286.853425
  0
LINE
  5
4CF
100
AcDbEntity
  8
M2
 62
     6
100
AcDbLine
 10
309.881218
 20
293.853425
 11
309.881218
 21
290.853425
  0
LINE
  5
4D0
100
AcDbEntity
  8
M2
 62
     6
100
AcDbLine
 10
287.931218
 20
309.853425
 11
282.881218
 21
309.853425
  0
LINE
  5
4D1
100
AcDbEntity
  8
M2
 62
     6
100
AcDbLine
 10
318.440063
 20
328.353425
 11
318.681218
 21
329.253425
  0
LINE
  5
4D2
100
AcDbEntity
  8
M2
 62
     6
100
AcDbLine
 10
282.881218
 20
312.853425
 11
274.881218
 21
312.853425
  0
LINE
  5
4D3
100
AcDbEntity
  8
M2
 62
     6
100
AcDbLine
 10
305.081218
 20
327.653425
 11
305.081218
 21
326.353425
  0
LINE
  5
4D4
100
AcDbEntity
  8
M2
 62
     6
100
AcDbLine
 10
303.681218
 20
329.353425
 11
303.681218
 21
328.353425
  0
ARC
  5
4D5
100
AcDbEntity
  8
M2
 62
     6
100
AcDbCircle
 10
301.300513
 20
296.853425
 40
3.0
100
AcDbArc
 50
195.0
 51
270.0
  0
LINE
  5
4D6
100
AcDbEntity
  8
M2
 62
     6
100
AcDbLine
 10
334.881218
 20
288.853425
 11
331.881218
 21
290.853425
  0
LINE
  5
4D7
100
AcDbEntity
  8
M2
 62
     6
100
AcDbLine
 10
304.581218
 20
297.853425
 11
309.881218
 21
297.853425
  0
LINE
  5
4D8
100
AcDbEntity
  8
M2
 62
     6
100
AcDbLine
 10
285.881218
 20
306.853425
 11
288.515192
 21
306.853425
  0
LINE
  5
4D9
100
AcDbEntity
  8
M2
 62
     6
100
AcDbLine
 10
324.381218
 20
295.853425
 11
326.395548
 21
288.335843
  0
LINE
  5
4DA
100
AcDbEntity
  8
M2
 62
     6
100
AcDbLine
 10
314.681218
 20
329.253425
 11
314.922372
 21
328.353425
  0
LINE
  5
4DB
100
AcDbEntity
  8
M2
 62
     6
100
AcDbLine
 10
279.467004
 20
312.853425
 11
279.589776
 21
312.898361
  0
LINE
  5
4DC
100
AcDbEntity
  8
M2
 62
     6
100
AcDbLine
 10
279.589776
 20
312.898361
 11
279.703497
 21
313.032436
  0
LINE
  5
4DD
100
AcDbEntity
  8
M2
 62
     6
100
AcDbLine
 10
279.703497
 20
313.032436
 11
279.796855
 21
313.248565
  0
LINE
  5
4DE
100
AcDbEntity
  8
M2
 62
     6
100
AcDbLine
 10
279.796855
 20
313.248565
 11
279.85905
 21
313.530669
  0
LINE
  5
4DF
100
AcDbEntity
  8
M2
 62
     6
100
AcDbLine
 10
279.85905
 20
313.530669
 11
279.881218
 21
313.853425
  0
LINE
  5
4E0
100
AcDbEntity
  8
M2
 62
     6
100
AcDbLine
 10
281.881218
 20
308.353425
 11
274.881218
 21
310.978425
  0
ARC
  5
4E1
100
AcDbEntity
  8
M2
 62
     4
100
AcDbCircle
 10
300.785434
 20
458.853428
 40
3.0
100
AcDbArc
 50
2.171259E-012
 51
90.0
  0
ARC
  5
4E2
100
AcDbEntity
  8
M2
 62
     4
100
AcDbCircle
 10
300.785434
 20
458.853428
 40
3.0
100
AcDbArc
 50
90.0
 51
180.0
  0
ARC
  5
4E3
100
AcDbEntity
  8
M2
 62
     4
100
AcDbCircle
 10
312.59022
 20
456.395925
 40
3.0
100
AcDbArc
 50
341.737827
 51
540.26999
  0
ARC
  5
4E4
100
AcDbEntity
  8
M2
 62
     4
100
AcDbCircle
 10
306.785434
 20
457.8328
 40
3.0
100
AcDbArc
 50
350.842357
 51
540.0
  0
LINE
  5
4E5
100
AcDbEntity
  8
M2
 62
     4
100
AcDbLine
 10
315.439117
 20
455.455828
 11
306.000722
 21
426.853426
  0
LINE
  5
4E6
100
AcDbEntity
  8
M2
 62
     4
100
AcDbLine
 10
309.747196
 20
457.355346
 11
304.830101
 21
426.853426
  0
LINE
  5
4E7
100
AcDbEntity
  8
M2
 62
     4
100
AcDbLine
 10
297.785434
 20
426.853426
 11
297.785434
 21
458.853428
  0
LINE
  5
4E8
100
AcDbEntity
  8
M2
 62
     4
100
AcDbLine
 10
303.785434
 20
426.853426
 11
303.785434
 21
458.853428
  0
LINE
  5
4E9
100
AcDbEntity
  8
M2
  6
DASHED
100
AcDbLine
 10
297.785434
 20
420.853424
 11
297.785434
 21
392.853424
  0
LINE
  5
4EA
100
AcDbEntity
  8
M2
  6
DASHED
100
AcDbLine
 10
299.785434
 20
392.853424
 11
299.785434
 21
420.853424
  0
LINE
  5
4EB
100
AcDbEntity
  8
M2
  6
DASHED
100
AcDbLine
 10
299.785434
 20
420.853424
 11
297.785434
 21
420.853424
  0
LINE
  5
4EC
100
AcDbEntity
  8
M2
  6
DASHED
100
AcDbLine
 10
297.785434
 20
392.853424
 11
299.785434
 21
392.853424
  0
LINE
  5
4ED
100
AcDbEntity
  8
M2
100
AcDbLine
 10
351.385434
 20
367.29287
 11
335.885434
 21
367.29287
  0
LINE
  5
4EE
100
AcDbEntity
  8
M2
100
AcDbLine
 10
358.885434
 20
342.603427
 11
359.185434
 21
342.603427
  0
LINE
  5
4EF
100
AcDbEntity
  8
M2
100
AcDbLine
 10
313.485433
 20
430.853427
 11
315.985434
 21
430.853427
  0
LINE
  5
4F0
100
AcDbEntity
  8
M2
100
AcDbLine
 10
312.985432
 20
429.853425
 11
312.985432
 21
430.353426
  0
LINE
  5
4F1
100
AcDbEntity
  8
M2
100
AcDbLine
 10
359.185434
 20
355.603425
 11
358.885434
 21
355.603425
  0
LINE
  5
4F2
100
AcDbEntity
  8
M2
100
AcDbLine
 10
354.685434
 20
399.653426
 11
354.685434
 21
402.153425
  0
LINE
  5
4F3
100
AcDbEntity
  8
M2
100
AcDbLine
 10
310.285435
 20
387.053426
 11
310.285435
 21
381.853426
  0
LINE
  5
4F4
100
AcDbEntity
  8
M2
100
AcDbLine
 10
312.985432
 20
427.853425
 11
312.985432
 21
429.853425
  0
LINE
  5
4F5
100
AcDbEntity
  8
M2
100
AcDbLine
 10
312.985432
 20
428.753425
 11
312.985432
 21
429.853425
  0
LINE
  5
4F6
100
AcDbEntity
  8
M2
100
AcDbLine
 10
359.185434
 20
425.103427
 11
358.885434
 21
425.103427
  0
LINE
  5
4F7
100
AcDbEntity
  8
M2
100
AcDbLine
 10
335.885434
 20
370.169654
 11
351.385434
 21
370.169654
  0
LINE
  5
4F8
100
AcDbEntity
  8
M2
100
AcDbLine
 10
351.385434
 20
398.537198
 11
335.885434
 21
398.537198
  0
ARC
  5
4F9
100
AcDbEntity
  8
M2
100
AcDbCircle
 10
310.785434
 20
381.853426
 40
0.5
100
AcDbArc
 50
180.0
 51
203.578178
  0
ARC
  5
4FA
100
AcDbEntity
  8
M2
100
AcDbCircle
 10
321.685434
 20
380.353426
 40
0.5
100
AcDbArc
 50
270.0
 51
306.869898
  0
ARC
  5
4FB
100
AcDbEntity
  8
M2
100
AcDbCircle
 10
351.385434
 20
370.469654
 40
0.3
100
AcDbArc
 50
270.0
 51
360.0
  0
ARC
  5
4FC
100
AcDbEntity
  8
M2
100
AcDbCircle
 10
351.385434
 20
401.713981
 40
0.3
100
AcDbArc
 50
270.0
 51
360.0
  0
ARC
  5
4FD
100
AcDbEntity
  8
M2
100
AcDbCircle
 10
351.385434
 20
398.237198
 40
0.3
100
AcDbArc
 50
0.0
 51
90.0
  0
LINE
  5
4FE
100
AcDbEntity
  8
M2
100
AcDbLine
 10
324.085434
 20
430.853427
 11
332.87122
 21
430.853427
  0
LINE
  5
4FF
100
AcDbEntity
  8
M2
100
AcDbLine
 10
277.785436
 20
379.853426
 11
275.085435
 21
379.853426
  0
LINE
  5
500
100
AcDbEntity
  8
M2
100
AcDbLine
 10
312.985432
 20
421.78676
 11
312.985432
 21
427.853425
  0
LINE
  5
501
100
AcDbEntity
  8
M2
100
AcDbLine
 10
324.085434
 20
430.853427
 11
315.985434
 21
430.853427
  0
LINE
  5
502
100
AcDbEntity
  8
M2
100
AcDbLine
 10
338.285434
 20
425.439213
 11
338.285434
 21
422.353425
  0
LINE
  5
503
100
AcDbEntity
  8
M2
100
AcDbLine
 10
335.885434
 20
401.413981
 11
351.385434
 21
401.413981
  0
ARC
  5
504
100
AcDbEntity
  8
M2
100
AcDbCircle
 10
337.285434
 20
425.439212
 40
1.0
100
AcDbArc
 50
0.0
 51
45.0
  0
LINE
  5
505
100
AcDbEntity
  8
M2
100
AcDbLine
 10
333.578327
 20
430.560533
 11
337.99254
 21
426.146318
  0
LINE
  5
506
100
AcDbEntity
  8
M2
100
AcDbLine
 10
354.685434
 20
366.553426
 11
354.685434
 21
402.153425
  0
ARC
  5
507
100
AcDbEntity
  8
M2
100
AcDbCircle
 10
332.87122
 20
429.853426
 40
1.0
100
AcDbArc
 50
45.0
 51
90.0
  0
LINE
  5
508
100
AcDbEntity
  8
M2
100
AcDbLine
 10
325.185434
 20
430.853427
 11
324.685435
 21
430.853427
  0
LINE
  5
509
100
AcDbEntity
  8
M2
100
AcDbLine
 10
280.885436
 20
367.253425
 11
280.885436
 21
379.653426
  0
LINE
  5
50A
100
AcDbEntity
  8
M2
100
AcDbLine
 10
358.885434
 20
425.353427
 11
358.885434
 21
425.103427
  0
LINE
  5
50B
100
AcDbEntity
  8
M2
100
AcDbLine
 10
282.785431
 20
426.853426
 11
308.131926
 21
426.853426
  0
LINE
  5
50C
100
AcDbEntity
  8
M2
100
AcDbLine
 10
359.185434
 20
413.103426
 11
358.885434
 21
413.103426
  0
LINE
  5
50D
100
AcDbEntity
  8
M2
100
AcDbLine
 10
359.185434
 20
413.105436
 11
358.885434
 21
413.105436
  0
LINE
  5
50E
100
AcDbEntity
  8
M2
100
AcDbLine
 10
358.885434
 20
419.883732
 11
358.885434
 21
399.653426
  0
LINE
  5
50F
100
AcDbEntity
  8
M2
100
AcDbLine
 10
275.085435
 20
394.353426
 11
272.785433
 21
394.353426
  0
LINE
  5
510
100
AcDbEntity
  8
M2
100
AcDbLine
 10
283.885435
 20
380.653426
 11
281.885431
 21
380.653426
  0
LINE
  5
511
100
AcDbEntity
  8
M2
100
AcDbLine
 10
359.185434
 20
355.553426
 11
359.185434
 21
342.603427
  0
LINE
  5
512
100
AcDbEntity
  8
M2
100
AcDbLine
 10
295.285434
 20
364.253427
 11
283.885435
 21
364.253427
  0
LINE
  5
513
100
AcDbEntity
  8
M2
100
AcDbLine
 10
298.285433
 20
360.003425
 11
298.285433
 21
361.253426
  0
LINE
  5
514
100
AcDbEntity
  8
M2
100
AcDbLine
 10
319.485434
 20
359.553425
 11
317.325649
 21
357.717608
  0
LINE
  5
515
100
AcDbEntity
  8
M2
100
AcDbLine
 10
323.985434
 20
359.553425
 11
319.485434
 21
359.553425
  0
LINE
  5
516
100
AcDbEntity
  8
M2
100
AcDbLine
 10
313.785434
 20
381.853426
 11
313.785434
 21
387.053426
  0
LINE
  5
517
100
AcDbEntity
  8
M2
100
AcDbLine
 10
278.785431
 20
390.553426
 11
280.885436
 21
390.553426
  0
LINE
  5
518
100
AcDbEntity
  8
M2
100
AcDbLine
 10
277.785436
 20
346.853426
 11
277.785436
 21
421.853426
  0
LINE
  5
519
100
AcDbEntity
  8
M2
100
AcDbLine
 10
310.668395
 20
425.455403
 11
315.785435
 21
417.353426
  0
LINE
  5
51A
100
AcDbEntity
  8
M2
100
AcDbLine
 10
280.885436
 20
378.153426
 11
278.785431
 21
378.153426
  0
LINE
  5
51B
100
AcDbEntity
  8
M2
100
AcDbLine
 10
359.185434
 20
413.105436
 11
359.185434
 21
413.103426
  0
LINE
  5
51C
100
AcDbEntity
  8
M2
100
AcDbLine
 10
281.885431
 20
388.053426
 11
281.885431
 21
380.653426
  0
LINE
  5
51D
100
AcDbEntity
  8
M2
100
AcDbLine
 10
315.774121
 20
417.353426
 11
315.774121
 21
411.677782
  0
LINE
  5
51E
100
AcDbEntity
  8
M2
100
AcDbLine
 10
315.382701
 20
357.003427
 11
301.285435
 21
357.003427
  0
LINE
  5
51F
100
AcDbEntity
  8
M2
100
AcDbLine
 10
308.542792
 20
341.853425
 11
282.785431
 21
341.853425
  0
LINE
  5
520
100
AcDbEntity
  8
M2
100
AcDbLine
 10
321.985435
 20
388.653426
 11
321.685434
 21
388.653426
  0
LINE
  5
521
100
AcDbEntity
  8
M2
100
AcDbLine
 10
315.785435
 20
417.353426
 11
323.985434
 21
417.353426
  0
ARC
  5
522
100
AcDbEntity
  8
M2
100
AcDbCircle
 10
313.285434
 20
381.853426
 40
0.5
100
AcDbArc
 50
336.421822
 51
360.0
  0
ARC
  5
523
100
AcDbEntity
  8
M2
100
AcDbCircle
 10
308.131928
 20
423.853426
 40
3.0
100
AcDbArc
 50
32.275644
 51
90.0
  0
ARC
  5
524
100
AcDbEntity
  8
M2
100
AcDbCircle
 10
321.685434
 20
387.353426
 40
0.5
100
AcDbArc
 50
53.130102
 51
90.0
  0
ARC
  5
525
100
AcDbEntity
  8
M2
100
AcDbCircle
 10
351.385434
 20
366.992871
 40
0.3
100
AcDbArc
 50
0.0
 51
90.0
  0
LINE
  5
526
100
AcDbEntity
  8
M2
100
AcDbLine
 10
323.985434
 20
347.853426
 11
315.785435
 21
347.853426
  0
LINE
  5
527
100
AcDbEntity
  8
M2
100
AcDbLine
 10
315.774121
 20
357.02907
 11
315.774121
 21
347.853426
  0
ARC
  5
528
100
AcDbEntity
  8
M2
100
AcDbCircle
 10
313.485434
 20
430.353426
 40
0.5
100
AcDbArc
 50
90.0
 51
180.0
  0
LINE
  5
529
100
AcDbEntity
  8
M2
100
AcDbLine
 10
315.785435
 20
347.853426
 11
310.664114
 21
342.732106
  0
ARC
  5
52A
100
AcDbEntity
  8
M2
100
AcDbCircle
 10
281.885434
 20
389.053426
 40
1.0
100
AcDbArc
 50
180.0
 51
270.0
  0
ARC
  5
52B
100
AcDbEntity
  8
M2
100
AcDbCircle
 10
281.885434
 20
379.653426
 40
1.0
100
AcDbArc
 50
90.0
 51
180.0
  0
ARC
  5
52C
100
AcDbEntity
  8
M2
100
AcDbCircle
 10
318.285434
 20
342.853426
 40
1.0
100
AcDbArc
 50
180.0
 51
270.0
  0
ARC
  5
52D
100
AcDbEntity
  8
M2
100
AcDbCircle
 10
282.785434
 20
346.853426
 40
5.0
100
AcDbArc
 50
180.0
 51
270.0
  0
LINE
  5
52E
100
AcDbEntity
  8
M2
100
AcDbLine
 10
271.28543
 20
395.353426
 11
271.785431
 21
395.353426
  0
ARC
  5
52F
100
AcDbEntity
  8
M2
100
AcDbCircle
 10
301.285434
 20
360.003426
 40
3.0
100
AcDbArc
 50
180.0
 51
270.0
  0
ARC
  5
530
100
AcDbEntity
  8
M2
100
AcDbCircle
 10
283.885434
 20
367.253426
 40
3.0
100
AcDbArc
 50
180.0
 51
270.0
  0
ARC
  5
531
100
AcDbEntity
  8
M2
100
AcDbCircle
 10
278.785434
 20
389.553426
 40
1.0
100
AcDbArc
 50
90.0
 51
180.0
  0
ARC
  5
532
100
AcDbEntity
  8
M2
100
AcDbCircle
 10
295.285434
 20
361.253426
 40
3.0
100
AcDbArc
 50
0.0
 51
90.0
  0
ARC
  5
533
100
AcDbEntity
  8
M2
100
AcDbCircle
 10
313.785434
 20
428.153426
 40
1.0
100
AcDbArc
 50
143.130102
 51
180.0
  0
ARC
  5
534
100
AcDbEntity
  8
M2
100
AcDbCircle
 10
271.285434
 20
394.853426
 40
0.5
100
AcDbArc
 50
90.0
 51
180.0
  0
ARC
  5
535
100
AcDbEntity
  8
M2
100
AcDbCircle
 10
282.785434
 20
421.853426
 40
5.0
100
AcDbArc
 50
90.0
 51
180.0
  0
ARC
  5
536
100
AcDbEntity
  8
M2
100
AcDbCircle
 10
278.785434
 20
379.153426
 40
1.0
100
AcDbArc
 50
180.0
 51
270.0
  0
LINE
  5
537
100
AcDbEntity
  8
M2
100
AcDbLine
 10
312.785432
 20
422.103424
 11
312.785432
 21
428.153426
  0
ARC
  5
538
100
AcDbEntity
  8
M2
100
AcDbCircle
 10
315.382703
 20
360.003426
 40
3.0
100
AcDbArc
 50
270.0
 51
310.364537
  0
ELLIPSE
  5
539
100
AcDbEntity
  8
M2
100
AcDbEllipse
 10
271.285434
 20
390.660533
 11
-0.5
 21
0.0
210
0.0
220
0.0
230
1.0
 40
0.414214
 41
0.0
 42
1.570796326794897
  0
ARC
  5
53A
100
AcDbEntity
  8
M2
100
AcDbCircle
 10
308.542793
 20
344.853426
 40
3.0
100
AcDbArc
 50
270.0
 51
315.0
  0
LINE
  5
53B
100
AcDbEntity
  8
M2
100
AcDbLine
 10
277.785436
 20
391.553426
 11
275.585436
 21
391.553426
  0
LINE
  5
53C
100
AcDbEntity
  8
M2
100
AcDbLine
 10
276.085437
 20
407.053426
 11
277.785436
 21
407.053426
  0
LINE
  5
53D
100
AcDbEntity
  8
M2
100
AcDbLine
 10
277.785436
 20
385.853426
 11
275.085435
 21
385.853426
  0
LINE
  5
53E
100
AcDbEntity
  8
M2
100
AcDbLine
 10
309.485432
 20
381.653426
 11
321.185433
 21
381.653426
  0
LINE
  5
53F
100
AcDbEntity
  8
M2
100
AcDbLine
 10
321.685434
 20
390.053426
 11
321.685434
 21
387.553426
  0
LINE
  5
540
100
AcDbEntity
  8
M2
100
AcDbLine
 10
308.985435
 20
386.553426
 11
308.985435
 21
382.153426
  0
LINE
  5
541
100
AcDbEntity
  8
M2
100
AcDbLine
 10
275.085435
 20
388.853426
 11
277.785436
 21
388.853426
  0
LINE
  5
542
100
AcDbEntity
  8
M2
100
AcDbLine
 10
277.785436
 20
361.653425
 11
276.085437
 21
361.653425
  0
LINE
  5
543
100
AcDbEntity
  8
M2
100
AcDbLine
 10
275.085435
 20
382.853426
 11
277.785436
 21
382.853426
  0
LINE
  5
544
100
AcDbEntity
  8
M2
100
AcDbLine
 10
275.585436
 20
377.153426
 11
277.785436
 21
377.153426
  0
LINE
  5
545
100
AcDbEntity
  8
M2
100
AcDbLine
 10
276.585431
 20
391.553426
 11
276.585431
 21
388.853426
  0
LINE
  5
546
100
AcDbEntity
  8
M2
100
AcDbLine
 10
275.085435
 20
369.353426
 11
274.585434
 21
369.353426
  0
LINE
  5
547
100
AcDbEntity
  8
M2
100
AcDbLine
 10
276.585431
 20
385.853426
 11
276.585431
 21
382.853426
  0
LINE
  5
548
100
AcDbEntity
  8
M2
100
AcDbLine
 10
276.585431
 20
377.153426
 11
276.585431
 21
379.853426
  0
LINE
  5
549
100
AcDbEntity
  8
M2
100
AcDbLine
 10
317.285434
 20
342.853427
 11
317.285434
 21
347.853426
  0
LINE
  5
54A
100
AcDbEntity
  8
M2
100
AcDbLine
 10
274.585434
 20
371.353426
 11
275.085435
 21
371.353426
  0
LINE
  5
54B
100
AcDbEntity
  8
M2
100
AcDbLine
 10
274.085433
 20
369.853426
 11
274.085433
 21
370.853426
  0
LINE
  5
54C
100
AcDbEntity
  8
M2
100
AcDbLine
 10
284.885437
 20
389.053426
 11
284.885437
 21
379.653426
  0
LINE
  5
54D
100
AcDbEntity
  8
M2
100
AcDbLine
 10
309.485432
 20
387.053426
 11
321.185433
 21
387.053426
  0
LINE
  5
54E
100
AcDbEntity
  8
M2
100
AcDbLine
 10
322.185435
 20
390.553426
 11
323.985434
 21
390.553426
  0
LINE
  5
54F
100
AcDbEntity
  8
M2
100
AcDbLine
 10
275.085435
 20
362.653426
 11
275.085435
 21
406.053426
  0
LINE
  5
550
100
AcDbEntity
  8
M2
100
AcDbLine
 10
301.285435
 20
411.703425
 11
315.382701
 21
411.703425
  0
LINE
  5
551
100
AcDbEntity
  8
M2
100
AcDbLine
 10
321.685434
 20
381.153426
 11
321.685434
 21
378.653426
  0
LINE
  5
552
100
AcDbEntity
  8
M2
100
AcDbLine
 10
331.385434
 20
399.453426
 11
331.385434
 21
404.453425
  0
LINE
  5
553
100
AcDbEntity
  8
M2
100
AcDbLine
 10
348.185434
 20
409.153427
 11
348.185434
 21
424.853426
  0
LINE
  5
554
100
AcDbEntity
  8
M2
100
AcDbLine
 10
283.885435
 20
404.453425
 11
295.285434
 21
404.453425
  0
LINE
  5
555
100
AcDbEntity
  8
M2
100
AcDbLine
 10
323.985434
 20
390.353426
 11
323.985434
 21
417.353426
  0
LINE
  5
556
100
AcDbEntity
  8
M2
100
AcDbLine
 10
283.885435
 20
380.653426
 11
283.885435
 21
388.053426
  0
LINE
  5
557
100
AcDbEntity
  8
M2
100
AcDbLine
 10
358.385434
 20
402.153425
 11
351.685434
 21
402.153425
  0
LINE
  5
558
100
AcDbEntity
  8
M2
100
AcDbLine
 10
351.685434
 20
398.153426
 11
353.685434
 21
398.153426
  0
LINE
  5
559
100
AcDbEntity
  8
M2
100
AcDbLine
 10
298.285433
 20
407.453426
 11
298.285433
 21
408.703426
  0
LINE
  5
55A
100
AcDbEntity
  8
M2
100
AcDbLine
 10
317.325649
 20
410.989244
 11
319.485434
 21
409.153427
  0
LINE
  5
55B
100
AcDbEntity
  8
M2
100
AcDbLine
 10
348.185434
 20
345.853426
 11
347.481218
 21
345.149209
  0
LINE
  5
55C
100
AcDbEntity
  8
M2
100
AcDbLine
 10
348.185434
 20
343.353425
 11
347.685434
 21
343.353425
  0
LINE
  5
55D
100
AcDbEntity
  8
M2
100
AcDbLine
 10
280.885436
 20
389.053426
 11
280.885436
 21
401.453427
  0
LINE
  5
55E
100
AcDbEntity
  8
M2
100
AcDbLine
 10
319.485434
 20
409.153427
 11
348.185434
 21
409.153427
  0
LINE
  5
55F
100
AcDbEntity
  8
M2
100
AcDbLine
 10
283.885435
 20
388.053426
 11
281.885431
 21
388.053426
  0
ARC
  5
560
100
AcDbEntity
  8
M2
100
AcDbCircle
 10
274.585434
 20
370.853426
 40
0.5
100
AcDbArc
 50
90.0
 51
180.0
  0
ARC
  5
561
100
AcDbEntity
  8
M2
100
AcDbCircle
 10
274.585434
 20
369.853426
 40
0.5
100
AcDbArc
 50
180.0
 51
270.0
  0
LINE
  5
562
100
AcDbEntity
  8
M2
100
AcDbLine
 10
331.385434
 20
364.253427
 11
323.985434
 21
364.253427
  0
LINE
  5
563
100
AcDbEntity
  8
M2
100
AcDbLine
 10
335.885434
 20
401.413981
 11
335.885434
 21
398.537198
  0
ARC
  5
564
100
AcDbEntity
  8
M2
100
AcDbCircle
 10
321.185434
 20
387.553426
 40
0.5
100
AcDbArc
 50
270.0
 51
360.0
  0
ARC
  5
565
100
AcDbEntity
  8
M2
100
AcDbCircle
 10
309.485434
 20
386.553426
 40
0.5
100
AcDbArc
 50
90.0
 51
180.0
  0
ARC
  5
566
100
AcDbEntity
  8
M2
100
AcDbCircle
 10
276.085434
 20
362.653426
 40
1.0
100
AcDbArc
 50
180.0
 51
270.0
  0
ARC
  5
567
100
AcDbEntity
  8
M2
100
AcDbCircle
 10
275.585434
 20
392.053426
 40
0.5
100
AcDbArc
 50
180.0
 51
270.0
  0
LINE
  5
568
100
AcDbEntity
  8
M2
100
AcDbLine
 10
331.385434
 20
404.453425
 11
323.985434
 21
404.453425
  0
LINE
  5
569
100
AcDbEntity
  8
M2
100
AcDbLine
 10
351.685434
 20
402.153425
 11
351.685434
 21
401.713981
  0
LINE
  5
56A
100
AcDbEntity
  8
M2
100
AcDbLine
 10
359.185434
 20
422.82312
 11
358.885434
 21
422.82312
  0
ARC
  5
56B
100
AcDbEntity
  8
M2
100
AcDbCircle
 10
275.585434
 20
376.653426
 40
0.5
100
AcDbArc
 50
90.0
 51
180.0
  0
LINE
  5
56C
100
AcDbEntity
  8
M2
100
AcDbLine
 10
349.185434
 20
425.853424
 11
358.385434
 21
425.853424
  0
LINE
  5
56D
100
AcDbEntity
  8
M2
100
AcDbLine
 10
359.185434
 20
425.103427
 11
359.185434
 21
413.103426
  0
LINE
  5
56E
100
AcDbEntity
  8
M2
100
AcDbLine
 10
358.885434
 20
425.353427
 11
358.885434
 21
422.82312
  0
LINE
  5
56F
100
AcDbEntity
  8
M2
100
AcDbLine
 10
353.685434
 20
370.553426
 11
351.685434
 21
370.553426
  0
LINE
  5
570
100
AcDbEntity
  8
M2
100
AcDbLine
 10
351.685434
 20
366.992871
 11
351.685434
 21
366.553426
  0
LINE
  5
571
100
AcDbEntity
  8
M2
100
AcDbLine
 10
331.385434
 20
364.253427
 11
331.385434
 21
369.253425
  0
LINE
  5
572
100
AcDbEntity
  8
M2
100
AcDbLine
 10
358.885434
 20
366.053425
 11
358.885434
 21
353.323119
  0
LINE
  5
573
100
AcDbEntity
  8
M2
100
AcDbLine
 10
348.185434
 20
359.553425
 11
323.985434
 21
359.553425
  0
LINE
  5
574
100
AcDbEntity
  8
M2
100
AcDbLine
 10
354.985434
 20
398.653426
 11
354.685434
 21
399.653426
  0
LINE
  5
575
100
AcDbEntity
  8
M2
100
AcDbLine
 10
351.685434
 20
366.553426
 11
358.385434
 21
366.553426
  0
LINE
  5
576
100
AcDbEntity
  8
M2
100
AcDbLine
 10
354.985434
 20
398.653426
 11
354.985434
 21
396.653425
  0
LINE
  5
577
100
AcDbEntity
  8
M2
100
AcDbLine
 10
354.685434
 20
396.153426
 11
354.985434
 21
396.653425
  0
LINE
  5
578
100
AcDbEntity
  8
M2
100
AcDbLine
 10
323.985434
 20
417.353426
 11
328.692541
 21
422.060531
  0
LINE
  5
579
100
AcDbEntity
  8
M2
100
AcDbLine
 10
323.985434
 20
347.853426
 11
329.269354
 21
347.853426
  0
LINE
  5
57A
100
AcDbEntity
  8
M2
100
AcDbLine
 10
335.185434
 20
352.853425
 11
348.185434
 21
352.853425
  0
LINE
  5
57B
100
AcDbEntity
  8
M2
100
AcDbLine
 10
358.885434
 20
350.383733
 11
358.885434
 21
342.353426
  0
LINE
  5
57C
100
AcDbEntity
  8
M2
100
AcDbLine
 10
329.399648
 20
422.353425
 11
348.185434
 21
422.353425
  0
LINE
  5
57D
100
AcDbEntity
  8
M2
100
AcDbLine
 10
356.685434
 20
399.653426
 11
358.885434
 21
399.653426
  0
LINE
  5
57E
100
AcDbEntity
  8
M2
100
AcDbLine
 10
355.685434
 20
400.653426
 11
356.685434
 21
399.653426
  0
LINE
  5
57F
100
AcDbEntity
  8
M2
100
AcDbLine
 10
271.28543
 20
377.853426
 11
272.785433
 21
377.853426
  0
LINE
  5
580
100
AcDbEntity
  8
M2
100
AcDbLine
 10
271.785431
 20
395.353426
 11
275.085435
 21
395.353426
  0
LINE
  5
581
100
AcDbEntity
  8
M2
100
AcDbLine
 10
272.785433
 20
377.853426
 11
272.785433
 21
373.353426
  0
ARC
  5
582
100
AcDbEntity
  8
M2
100
AcDbCircle
 10
349.185434
 20
342.853426
 40
1.0
100
AcDbArc
 50
180.0
 51
270.0
  0
ARC
  5
583
100
AcDbEntity
  8
M2
100
AcDbCircle
 10
358.385434
 20
425.353426
 40
0.5
100
AcDbArc
 50
0.0
 51
90.0
  0
ARC
  5
584
100
AcDbEntity
  8
M2
100
AcDbCircle
 10
349.185434
 20
424.853426
 40
1.0
100
AcDbArc
 50
90.0
 51
180.0
  0
ARC
  5
585
100
AcDbEntity
  8
M2
100
AcDbCircle
 10
322.485434
 20
378.853426
 40
0.5
100
AcDbArc
 50
180.0
 51
270.0
  0
LINE
  5
586
100
AcDbEntity
  8
M2
100
AcDbLine
 10
359.185434
 20
353.323119
 11
358.885434
 21
353.323119
  0
LINE
  5
587
100
AcDbEntity
  8
M2
100
AcDbLine
 10
271.28543
 20
373.353426
 11
275.085435
 21
373.353426
  0
LINE
  5
588
100
AcDbEntity
  8
M2
100
AcDbLine
 10
271.785431
 20
395.353426
 11
271.28543
 21
395.353426
  0
LINE
  5
589
100
AcDbEntity
  8
M2
100
AcDbLine
 10
270.785437
 20
373.853426
 11
270.785437
 21
394.853426
  0
LINE
  5
58A
100
AcDbEntity
  8
M2
100
AcDbLine
 10
358.385434
 20
360.553425
 11
349.185434
 21
360.553425
  0
LINE
  5
58B
100
AcDbEntity
  8
M2
100
AcDbLine
 10
348.185434
 20
342.853426
 11
348.185434
 21
359.557907
  0
ARC
  5
58C
100
AcDbEntity
  8
M2
100
AcDbCircle
 10
353.685434
 20
371.553426
 40
1.0
100
AcDbArc
 50
270.0
 51
360.0
  0
ARC
  5
58D
100
AcDbEntity
  8
M2
100
AcDbCircle
 10
353.685434
 20
397.153426
 40
1.0
100
AcDbArc
 50
0.0
 51
90.0
  0
ARC
  5
58E
100
AcDbEntity
  8
M2
100
AcDbCircle
 10
358.385434
 20
402.653426
 40
0.5
100
AcDbArc
 50
270.0
 51
360.0
  0
ARC
  5
58F
100
AcDbEntity
  8
M2
100
AcDbCircle
 10
358.385434
 20
366.053426
 40
0.5
100
AcDbArc
 50
0.0
 51
90.0
  0
ARC
  5
590
100
AcDbEntity
  8
M2
100
AcDbCircle
 10
329.399647
 20
421.353426
 40
1.0
100
AcDbArc
 50
90.0
 51
135.0
  0
ELLIPSE
  5
591
100
AcDbEntity
  8
M2
100
AcDbEllipse
 10
358.385434
 20
360.528488
 11
-0.5
 21
0.0
210
0.0
220
0.0
230
1.0
 40
0.049876
 41
3.141592653589793
 42
4.71238898038469
  0
LINE
  5
592
100
AcDbEntity
  8
M2
100
AcDbLine
 10
322.185435
 20
378.153426
 11
323.985434
 21
378.153426
  0
ELLIPSE
  5
593
100
AcDbEntity
  8
M2
100
AcDbEllipse
 10
349.185434
 20
355.50355
 11
-1.0
 21
0.0
210
0.0
220
0.0
230
1.0
 40
0.049876
 41
4.71238898038469
 42
6.283185307179586
  0
ELLIPSE
  5
594
100
AcDbEntity
  8
M2
100
AcDbEllipse
 10
271.285434
 20
389.160533
 11
-0.5
 21
0.0
210
0.0
220
0.0
230
1.0
 40
0.414214
 41
0.0
 42
1.570796326794897
  0
ARC
  5
595
100
AcDbEntity
  8
M2
100
AcDbCircle
 10
271.285434
 20
373.853426
 40
0.5
100
AcDbArc
 50
180.0
 51
270.0
  0
ARC
  5
596
100
AcDbEntity
  8
M2
100
AcDbCircle
 10
351.539867
 20
357.227155
 40
4.084682
100
AcDbArc
 50
125.479034
 51
145.207368
  0
ARC
  5
597
100
AcDbEntity
  8
M2
100
AcDbCircle
 10
358.385434
 20
342.353426
 40
0.5
100
AcDbArc
 50
270.0
 51
360.0
  0
ARC
  5
598
100
AcDbEntity
  8
M2
100
AcDbCircle
 10
322.485434
 20
389.853426
 40
0.5
100
AcDbArc
 50
90.0
 51
180.0
  0
LINE
  5
599
100
AcDbEntity
  8
M2
100
AcDbLine
 10
358.385434
 20
355.553426
 11
349.185434
 21
355.553426
  0
ARC
  5
59A
100
AcDbEntity
  8
M2
100
AcDbCircle
 10
329.269354
 20
353.853426
 40
6.0
100
AcDbArc
 50
270.0
 51
350.405932
  0
ELLIPSE
  5
59B
100
AcDbEntity
  8
M2
100
AcDbEllipse
 10
358.385434
 20
355.528488
 11
-0.5
 21
0.0
210
0.0
220
0.0
230
1.0
 40
0.049876
 41
3.141592653589793
 42
4.71238898038469
  0
ARC
  5
59C
100
AcDbEntity
  8
M2
100
AcDbCircle
 10
315.985434
 20
427.853426
 40
3.0
100
AcDbArc
 50
90.0
 51
180.0
  0
ARC
  5
59D
100
AcDbEntity
  8
M2
100
AcDbCircle
 10
347.685434
 20
343.853426
 40
0.5
100
AcDbArc
 50
245.893597
 51
270.0
  0
ARC
  5
59E
100
AcDbEntity
  8
M2
100
AcDbCircle
 10
271.285434
 20
377.353426
 40
0.5
100
AcDbArc
 50
90.0
 51
180.0
  0
ARC
  5
59F
100
AcDbEntity
  8
M2
100
AcDbCircle
 10
283.885434
 20
389.053426
 40
1.0
100
AcDbArc
 50
270.0
 51
360.0
  0
LINE
  5
5A0
100
AcDbEntity
  8
M2
100
AcDbLine
 10
335.885434
 20
370.169654
 11
335.885434
 21
367.29287
  0
ARC
  5
5A1
100
AcDbEntity
  8
M2
100
AcDbCircle
 10
283.885434
 20
379.653426
 40
1.0
100
AcDbArc
 50
0.0
 51
90.0
  0
LINE
  5
5A2
100
AcDbEntity
  8
M2
100
AcDbLine
 10
359.185434
 20
419.883732
 11
358.885434
 21
419.883732
  0
LINE
  5
5A3
100
AcDbEntity
  8
M2
100
AcDbLine
 10
359.185434
 20
350.383733
 11
358.885434
 21
350.383733
  0
LINE
  5
5A4
100
AcDbEntity
  8
M2
100
AcDbLine
 10
358.385434
 20
341.853425
 11
349.185434
 21
341.853425
  0
ARC
  5
5A5
100
AcDbEntity
  8
M2
100
AcDbCircle
 10
276.085434
 20
406.053426
 40
1.0
100
AcDbArc
 50
90.0
 51
180.0
  0
ARC
  5
5A6
100
AcDbEntity
  8
M2
100
AcDbCircle
 10
295.285434
 20
407.453426
 40
3.0
100
AcDbArc
 50
270.0
 51
360.0
  0
ARC
  5
5A7
100
AcDbEntity
  8
M2
100
AcDbCircle
 10
322.185434
 20
390.053426
 40
0.5
100
AcDbArc
 50
90.0
 51
180.0
  0
ARC
  5
5A8
100
AcDbEntity
  8
M2
100
AcDbCircle
 10
301.285434
 20
408.703426
 40
3.0
100
AcDbArc
 50
90.0
 51
180.0
  0
ARC
  5
5A9
100
AcDbEntity
  8
M2
100
AcDbCircle
 10
315.382703
 20
408.703426
 40
3.0
100
AcDbArc
 50
49.635463
 51
90.0
  0
ARC
  5
5AA
100
AcDbEntity
  8
M2
100
AcDbCircle
 10
309.485434
 20
382.153426
 40
0.5
100
AcDbArc
 50
180.0
 51
270.0
  0
ARC
  5
5AB
100
AcDbEntity
  8
M2
100
AcDbCircle
 10
321.185434
 20
381.153426
 40
0.5
100
AcDbArc
 50
0.0
 51
90.0
  0
ARC
  5
5AC
100
AcDbEntity
  8
M2
100
AcDbCircle
 10
322.185434
 20
378.653426
 40
0.5
100
AcDbArc
 50
180.0
 51
270.0
  0
LINE
  5
5AD
100
AcDbEntity
  8
M2
100
AcDbLine
 10
272.785433
 20
388.953426
 11
271.28543
 21
388.953426
  0
LINE
  5
5AE
100
AcDbEntity
  8
M2
100
AcDbLine
 10
272.785433
 20
390.453426
 11
272.785433
 21
388.953426
  0
LINE
  5
5AF
100
AcDbEntity
  8
M2
100
AcDbLine
 10
272.785433
 20
390.453426
 11
271.28543
 21
390.453426
  0
LINE
  5
5B0
100
AcDbEntity
  8
M2
100
AcDbLine
 10
355.685434
 20
402.153425
 11
355.685434
 21
400.653426
  0
LINE
  5
5B1
100
AcDbEntity
  8
M2
100
AcDbLine
 10
322.485433
 20
390.353426
 11
323.985434
 21
390.353426
  0
LINE
  5
5B2
100
AcDbEntity
  8
M2
100
AcDbLine
 10
323.985434
 20
341.853425
 11
323.985434
 21
378.353426
  0
LINE
  5
5B3
100
AcDbEntity
  8
M2
100
AcDbLine
 10
321.985435
 20
378.853426
 11
321.985435
 21
389.853426
  0
ARC
  5
5B4
100
AcDbEntity
  8
M2
100
AcDbCircle
 10
283.885434
 20
401.453426
 40
3.0
100
AcDbArc
 50
90.0
 51
180.0
  0
LINE
  5
5B5
100
AcDbEntity
  8
M2
100
AcDbLine
 10
272.785433
 20
394.353426
 11
272.785433
 21
390.453426
  0
LINE
  5
5B6
100
AcDbEntity
  8
M2
100
AcDbLine
 10
331.385434
 20
369.253425
 11
323.985434
 21
369.253425
  0
LINE
  5
5B7
100
AcDbEntity
  8
M2
100
AcDbLine
 10
331.385434
 20
399.453426
 11
323.985434
 21
399.453426
  0
LINE
  5
5B8
100
AcDbEntity
  8
M2
100
AcDbLine
 10
322.485433
 20
378.353426
 11
323.985434
 21
378.353426
  0
LINE
  5
5B9
100
AcDbEntity
  8
M2
  6
DASHED
100
AcDbLine
 10
292.185473
 20
416.599081
 11
292.185473
 21
411.108755
  0
ARC
  5
5BA
100
AcDbEntity
  8
M2
  6
DASHED
100
AcDbCircle
 10
293.785434
 20
416.599081
 40
1.599998
100
AcDbArc
 50
95.007035
 51
179.999966
  0
LINE
  5
5BB
100
AcDbEntity
  8
M2
  6
DASHED
100
AcDbLine
 10
293.645785
 20
418.192999
 11
295.485385
 21
418.353933
  0
LINE
  5
5BC
100
AcDbEntity
  8
M2
  6
DASHED
100
AcDbLine
 10
293.645785
 20
409.514852
 11
295.485385
 21
409.353933
  0
ARC
  5
5BD
100
AcDbEntity
  8
M2
  6
DASHED
100
AcDbCircle
 10
293.785434
 20
411.108755
 40
1.599998
100
AcDbArc
 50
179.999966
 51
264.99283
  0
LINE
  5
5BE
100
AcDbEntity
  8
M2
  6
DASHED
100
AcDbLine
 10
295.485385
 20
409.353933
 11
295.485385
 21
418.353933
  0
LINE
  5
5BF
100
AcDbEntity
  8
M2
  6
DASHED
100
AcDbLine
 10
296.785434
 20
418.353918
 11
295.485385
 21
418.353918
  0
LINE
  5
5C0
100
AcDbEntity
  8
M2
  6
DASHED
100
AcDbLine
 10
295.485385
 20
409.353918
 11
296.785434
 21
409.353918
  0
LINE
  5
5C1
100
AcDbEntity
  8
M2
  6
DASHED
100
AcDbLine
 10
296.785434
 20
418.853212
 11
296.785434
 21
408.853212
  0
LINE
  5
5C2
100
AcDbEntity
  8
M2
  6
DASHED
100
AcDbLine
 10
296.785434
 20
418.853212
 11
297.785434
 21
418.85325
  0
LINE
  5
5C3
100
AcDbEntity
  8
M2
  6
DASHED
100
AcDbLine
 10
296.785434
 20
408.853212
 11
297.785434
 21
408.85325
  0
LINE
  5
5C4
100
AcDbEntity
  8
M2
  6
DASHED
100
AcDbLine
 10
299.785434
 20
411.353689
 11
307.785434
 21
411.353689
  0
LINE
  5
5C5
100
AcDbEntity
  8
M2
  6
DASHED
100
AcDbLine
 10
307.785434
 20
416.353625
 11
299.785434
 21
416.353325
  0
LINE
  5
5C6
100
AcDbEntity
  8
M2
  6
DASHED
100
AcDbLine
 10
307.785434
 20
411.353689
 11
307.785434
 21
416.353625
  0
LINE
  5
5C7
100
AcDbEntity
  8
M2
  6
DASHED
100
AcDbLine
 10
241.085433
 20
365.953428
 11
241.085433
 21
404.753428
  0
LINE
  5
5C8
100
AcDbEntity
  8
M2
  6
DASHED
100
AcDbLine
 10
239.485434
 20
386.653428
 11
239.485434
 21
383.853429
  0
LINE
  5
5C9
100
AcDbEntity
  8
M2
  6
DASHED
100
AcDbLine
 10
260.185434
 20
408.753429
 11
245.085433
 21
408.753429
  0
ARC
  5
5CA
100
AcDbEntity
  8
M2
  6
DASHED
100
AcDbCircle
 10
245.085433
 20
404.753428
 40
4.0
100
AcDbArc
 50
90.0
 51
180.0
  0
ARC
  5
5CB
100
AcDbEntity
  8
M2
  6
DASHED
100
AcDbCircle
 10
245.085433
 20
365.953428
 40
4.0
100
AcDbArc
 50
180.0
 51
270.0
  0
LINE
  5
5CC
100
AcDbEntity
  8
M2
  6
DASHED
100
AcDbLine
 10
260.185434
 20
361.953428
 11
245.085433
 21
361.953428
  0
LINE
  5
5CD
100
AcDbEntity
  8
M2
  6
DASHED
100
AcDbLine
 10
265.185433
 20
367.653435
 11
265.185433
 21
366.953428
  0
ARC
  5
5CE
100
AcDbEntity
  8
M2
  6
DASHED
100
AcDbCircle
 10
260.185433
 20
366.953428
 40
5.0
100
AcDbArc
 50
270.0
 51
360.0
  0
ARC
  5
5CF
100
AcDbEntity
  8
M2
  6
DASHED
100
AcDbCircle
 10
260.185433
 20
403.753428
 40
5.0
100
AcDbArc
 50
0.0
 51
90.0
  0
LINE
  5
5D0
100
AcDbEntity
  8
M2
  6
DASHED
100
AcDbLine
 10
239.485434
 20
386.653428
 11
241.085433
 21
386.653428
  0
LINE
  5
5D1
100
AcDbEntity
  8
M2
  6
DASHED
100
AcDbLine
 10
241.085433
 20
383.853429
 11
239.485434
 21
383.853429
  0
LINE
  5
5D2
100
AcDbEntity
  8
M2
  6
DASHED
100
AcDbLine
 10
265.185433
 20
403.053422
 11
265.185433
 21
403.753428
  0
LINE
  5
5D3
100
AcDbEntity
  8
M2
100
AcDbLine
 10
265.785433
 20
414.573557
 11
265.785433
 21
432.773557
  0
LINE
  5
5D4
100
AcDbEntity
  8
M2
  6
DASHED
100
AcDbLine
 10
274.585433
 20
403.053422
 11
265.185433
 21
403.053422
  0
LINE
  5
5D5
100
AcDbEntity
  8
M2
  6
DASHED
100
AcDbLine
 10
274.585434
 20
367.653435
 11
265.185433
 21
367.653435
  0
ARC
  5
5D6
100
AcDbEntity
  8
M2
  6
DASHED
100
AcDbCircle
 10
274.585433
 20
368.153434
 40
0.5
100
AcDbArc
 50
270.0
 51
360.0
  0
LINE
  5
5D7
100
AcDbEntity
  8
M2
  6
DASHED
100
AcDbLine
 10
272.985433
 20
405.053428
 11
273.385433
 21
405.053428
  0
ARC
  5
5D8
100
AcDbEntity
  8
M2
  6
DASHED
100
AcDbCircle
 10
274.585433
 20
402.553422
 40
0.5
100
AcDbArc
 50
0.0
 51
90.0
  0
LINE
  5
5D9
100
AcDbEntity
  8
M2
  6
DASHED
100
AcDbLine
 10
272.985433
 20
403.053422
 11
272.985433
 21
405.053428
  0
LINE
  5
5DA
100
AcDbEntity
  8
M2
  6
DASHED
100
AcDbLine
 10
273.385433
 20
405.053428
 11
273.985435
 21
403.053422
  0
LINE
  5
5DB
100
AcDbEntity
  8
M2
100
AcDbLine
 10
340.881218
 20
341.853425
 11
318.285434
 21
341.853425
  0
ARC
  5
5DC
100
AcDbEntity
  8
M2
 62
     4
100
AcDbCircle
 10
166.94454
 20
448.853428
 40
7.0
100
AcDbArc
 50
1.861079E-012
 51
90.0
  0
ARC
  5
5DD
100
AcDbEntity
  8
M2
 62
     4
100
AcDbCircle
 10
166.94454
 20
448.853428
 40
13.0
100
AcDbArc
 50
1.753709E-012
 51
90.0
  0
ARC
  5
5DE
100
AcDbEntity
  8
M2
 62
     4
100
AcDbCircle
 10
100.04454
 20
448.853428
 40
7.0
100
AcDbArc
 50
90.0
 51
180.0
  0
ARC
  5
5DF
100
AcDbEntity
  8
M2
 62
     4
100
AcDbCircle
 10
100.04454
 20
448.853428
 40
13.0
100
AcDbArc
 50
147.42103
 51
180.0
  0
LINE
  5
5E0
100
AcDbEntity
  8
M2
 62
     4
100
AcDbLine
 10
93.04454
 20
427.653428
 11
93.04454
 21
448.853428
  0
LINE
  5
5E1
100
AcDbEntity
  8
M2
 62
     4
100
AcDbLine
 10
87.04454
 20
427.653428
 11
87.04454
 21
448.853428
  0
LINE
  5
5E2
100
AcDbEntity
  8
M2
 62
     4
100
AcDbLine
 10
173.94454
 20
427.653428
 11
173.94454
 21
448.853428
  0
LINE
  5
5E3
100
AcDbEntity
  8
M2
 62
     4
100
AcDbLine
 10
160.298991
 20
455.853428
 11
166.94454
 21
455.853428
  0
LINE
  5
5E4
100
AcDbEntity
  8
M2
 62
     4
100
AcDbLine
 10
179.94454
 20
427.653428
 11
179.94454
 21
448.853428
  0
ARC
  5
5E5
100
AcDbEntity
  8
M2
 62
     4
100
AcDbCircle
 10
170.39454
 20
420.025746
 40
3.0
100
AcDbArc
 50
316.700419
 51
360.0
  0
LINE
  5
5E6
100
AcDbEntity
  8
M2
 62
     4
100
AcDbLine
 10
173.39454
 20
427.653428
 11
173.39454
 21
420.025746
  0
LINE
  5
5E7
100
AcDbEntity
  8
M2
  6
DASHDOT
 62
     4
100
AcDbLine
 10
176.94454
 20
414.353428
 11
176.94454
 21
413.353428
  0
ARC
  5
5E8
100
AcDbEntity
  8
M2
 62
     4
100
AcDbCircle
 10
183.49454
 20
420.025746
 40
3.0
100
AcDbArc
 50
180.0
 51
223.299581
  0
ARC
  5
5E9
100
AcDbEntity
  8
M2
 62
     4
100
AcDbCircle
 10
176.94454
 20
413.853428
 40
6.0
100
AcDbArc
 50
136.700419
 51
403.299581
  0
LINE
  5
5EA
100
AcDbEntity
  8
M2
 62
     4
100
AcDbLine
 10
173.39454
 20
427.653428
 11
180.49454
 21
427.653428
  0
LINE
  5
5EB
100
AcDbEntity
  8
M2
 62
     4
100
AcDbLine
 10
180.49454
 20
427.653428
 11
180.49454
 21
420.025746
  0
LINE
  5
5EC
100
AcDbEntity
  8
M2
  6
DASHDOT
 62
     4
100
AcDbLine
 10
176.44454
 20
413.853428
 11
177.44454
 21
413.853428
  0
LINE
  5
5ED
100
AcDbEntity
  8
M2
 62
     4
100
AcDbLine
 10
180.49454
 20
423.153428
 11
173.39454
 21
423.153428
  0
ARC
  5
5EE
100
AcDbEntity
  8
M2
 62
     4
100
AcDbCircle
 10
96.59454
 20
420.025746
 40
3.0
100
AcDbArc
 50
180.0
 51
223.299581
  0
LINE
  5
5EF
100
AcDbEntity
  8
M2
 62
     4
100
AcDbLine
 10
93.59454
 20
427.653428
 11
93.59454
 21
420.025746
  0
LINE
  5
5F0
100
AcDbEntity
  8
M2
  6
DASHDOT
 62
     4
100
AcDbLine
 10
90.04454
 20
414.353428
 11
90.04454
 21
413.353428
  0
ARC
  5
5F1
100
AcDbEntity
  8
M2
 62
     4
100
AcDbCircle
 10
83.49454
 20
420.025746
 40
3.0
100
AcDbArc
 50
316.700419
 51
360.0
  0
ARC
  5
5F2
100
AcDbEntity
  8
M2
 62
     4
100
AcDbCircle
 10
90.04454
 20
413.853428
 40
6.0
100
AcDbArc
 50
136.700419
 51
403.299581
  0
LINE
  5
5F3
100
AcDbEntity
  8
M2
 62
     4
100
AcDbLine
 10
93.59454
 20
427.653428
 11
86.49454
 21
427.653428
  0
LINE
  5
5F4
100
AcDbEntity
  8
M2
 62
     4
100
AcDbLine
 10
86.49454
 20
427.653428
 11
86.49454
 21
420.025746
  0
LINE
  5
5F5
100
AcDbEntity
  8
M2
  6
DASHDOT
 62
     4
100
AcDbLine
 10
90.54454
 20
413.853428
 11
89.54454
 21
413.853428
  0
LINE
  5
5F6
100
AcDbEntity
  8
M2
 62
     4
100
AcDbLine
 10
86.49454
 20
423.153428
 11
93.59454
 21
423.153428
  0
ARC
  5
5F7
100
AcDbEntity
  8
M2
 62
     4
100
AcDbCircle
 10
64.84454
 20
345.053426
 40
7.0
100
AcDbArc
 50
180.0
 51
270.0
  0
LINE
  5
5F8
100
AcDbEntity
  8
M2
 62
     4
100
AcDbLine
 10
69.916371
 20
332.053426
 11
81.848813
 21
332.053426
  0
ARC
  5
5F9
100
AcDbEntity
  8
M2
 62
     4
100
AcDbCircle
 10
64.84454
 20
345.053426
 40
13.0
100
AcDbArc
 50
217.083421
 51
259.239786
  0
ARC
  5
5FA
100
AcDbEntity
  8
M2
 62
     4
100
AcDbCircle
 10
166.94454
 20
345.053426
 40
7.0
100
AcDbArc
 50
270.0
 51
360.0
  0
ARC
  5
5FB
100
AcDbEntity
  8
M2
 62
     4
100
AcDbCircle
 10
166.94454
 20
345.053426
 40
13.0
100
AcDbArc
 50
270.0
 51
360.0
  0
LINE
  5
5FC
100
AcDbEntity
  8
M2
 62
     4
100
AcDbLine
 10
173.94454
 20
346.053426
 11
173.94454
 21
345.053426
  0
LINE
  5
5FD
100
AcDbEntity
  8
M2
 62
     4
100
AcDbLine
 10
179.94454
 20
346.053426
 11
179.94454
 21
345.053426
  0
LINE
  5
5FE
100
AcDbEntity
  8
M2
 62
     4
100
AcDbLine
 10
57.84454
 20
346.053426
 11
57.84454
 21
345.053426
  0
LINE
  5
5FF
100
AcDbEntity
  8
M2
 62
     4
100
AcDbLine
 10
166.94454
 20
338.053426
 11
160.298991
 21
338.053426
  0
LINE
  5
600
100
AcDbEntity
  8
M2
 62
     4
100
AcDbLine
 10
58.39454
 20
346.053426
 11
58.39454
 21
348.037652
  0
LINE
  5
601
100
AcDbEntity
  8
M2
  6
DASHDOT
 62
     4
100
AcDbLine
 10
54.84454
 20
354.353426
 11
54.84454
 21
355.353426
  0
ARC
  5
602
100
AcDbEntity
  8
M2
 62
     4
100
AcDbCircle
 10
54.84454
 20
354.853426
 40
6.0
100
AcDbArc
 50
142.44265
 51
209.55735
  0
LINE
  5
603
100
AcDbEntity
  8
M2
 62
     4
100
AcDbLine
 10
58.39454
 20
346.053426
 11
57.437
 21
346.053426
  0
LINE
  5
604
100
AcDbEntity
  8
M2
  6
DASHDOT
 62
     4
100
AcDbLine
 10
55.34454
 20
354.853426
 11
54.34454
 21
354.853426
  0
LINE
  5
605
100
AcDbEntity
  8
M2
 62
     4
100
AcDbLine
 10
57.927767
 20
347.553426
 11
58.39454
 21
347.553426
  0
ARC
  5
606
100
AcDbEntity
  8
M2
 62
     4
100
AcDbCircle
 10
170.39454
 20
348.681109
 40
3.0
100
AcDbArc
 50
0.0
 51
43.299581
  0
LINE
  5
607
100
AcDbEntity
  8
M2
 62
     4
100
AcDbLine
 10
173.39454
 20
346.053426
 11
173.39454
 21
348.681109
  0
LINE
  5
608
100
AcDbEntity
  8
M2
  6
DASHDOT
 62
     4
100
AcDbLine
 10
176.94454
 20
354.353426
 11
176.94454
 21
355.353426
  0
ARC
  5
609
100
AcDbEntity
  8
M2
 62
     4
100
AcDbCircle
 10
183.49454
 20
348.681109
 40
3.0
100
AcDbArc
 50
136.700419
 51
180.0
  0
ARC
  5
60A
100
AcDbEntity
  8
M2
 62
     4
100
AcDbCircle
 10
176.94454
 20
354.853426
 40
6.0
100
AcDbArc
 50
316.700419
 51
583.299581
  0
LINE
  5
60B
100
AcDbEntity
  8
M2
 62
     4
100
AcDbLine
 10
173.39454
 20
346.053426
 11
180.49454
 21
346.053426
  0
LINE
  5
60C
100
AcDbEntity
  8
M2
 62
     4
100
AcDbLine
 10
180.49454
 20
346.053426
 11
180.49454
 21
348.681109
  0
LINE
  5
60D
100
AcDbEntity
  8
M2
  6
DASHDOT
 62
     4
100
AcDbLine
 10
176.44454
 20
354.853426
 11
177.44454
 21
354.853426
  0
LINE
  5
60E
100
AcDbEntity
  8
M2
 62
     4
100
AcDbLine
 10
180.49454
 20
347.553426
 11
173.39454
 21
347.553426
  0
LINE
  5
60F
100
AcDbEntity
  8
M2
 62
     4
100
AcDbLine
 10
66.194142
 20
338.053426
 11
64.84454
 21
338.053426
  0
LINE
  5
610
100
AcDbEntity
  8
M2
 62
     4
100
AcDbLine
 10
89.180499
 20
332.053426
 11
166.94454
 21
332.053426
  0
ARC
  5
611
100
AcDbEntity
  8
M2
 62
     4
100
AcDbCircle
 10
54.84454
 20
354.853426
 40
6.0
100
AcDbArc
 50
52.442693
 51
119.557307
  0
ARC
  5
612
100
AcDbEntity
  8
M2
 62
     4
100
AcDbCircle
 10
54.84454
 20
354.853426
 40
6.0
100
AcDbArc
 50
322.44273
 51
389.55727
  0
ARC
  5
613
100
AcDbEntity
  8
M2
 62
     4
100
AcDbCircle
 10
82.44454
 20
345.053426
 40
7.0
100
AcDbArc
 50
193.729213
 51
270.0
  0
LINE
  5
614
100
AcDbEntity
  8
M2
 62
     4
100
AcDbLine
 10
89.180499
 20
332.053426
 11
149.34454
 21
332.053426
  0
ARC
  5
615
100
AcDbEntity
  8
M2
 62
     4
100
AcDbCircle
 10
82.44454
 20
345.053426
 40
13.0
100
AcDbArc
 50
221.79923
 51
267.40633
  0
ARC
  5
616
100
AcDbEntity
  8
M2
 62
     4
100
AcDbCircle
 10
149.34454
 20
345.053426
 40
7.0
100
AcDbArc
 50
270.0
 51
360.0
  0
ARC
  5
617
100
AcDbEntity
  8
M2
 62
     4
100
AcDbCircle
 10
149.34454
 20
345.053426
 40
13.0
100
AcDbArc
 50
270.0
 51
360.0
  0
LINE
  5
618
100
AcDbEntity
  8
M2
 62
     4
100
AcDbLine
 10
156.34454
 20
346.053426
 11
156.34454
 21
345.053426
  0
LINE
  5
619
100
AcDbEntity
  8
M2
 62
     4
100
AcDbLine
 10
162.34454
 20
346.053426
 11
162.34454
 21
345.053426
  0
LINE
  5
61A
100
AcDbEntity
  8
M2
 62
     4
100
AcDbLine
 10
149.34454
 20
338.053426
 11
142.698991
 21
338.053426
  0
LINE
  5
61B
100
AcDbEntity
  8
M2
 62
     4
100
AcDbLine
 10
75.99454
 20
346.053426
 11
75.99454
 21
347.729157
  0
LINE
  5
61C
100
AcDbEntity
  8
M2
  6
DASHDOT
 62
     4
100
AcDbLine
 10
72.44454
 20
354.353426
 11
72.44454
 21
355.353426
  0
ARC
  5
61D
100
AcDbEntity
  8
M2
 62
     4
100
AcDbCircle
 10
72.44454
 20
354.853426
 40
6.0
100
AcDbArc
 50
146.44265
 51
213.55735
  0
LINE
  5
61E
100
AcDbEntity
  8
M2
 62
     4
100
AcDbLine
 10
75.99454
 20
346.053426
 11
75.644542
 21
346.053426
  0
LINE
  5
61F
100
AcDbEntity
  8
M2
 62
     4
100
AcDbLine
 10
68.89454
 20
346.053426
 11
68.89454
 21
347.729165
  0
LINE
  5
620
100
AcDbEntity
  8
M2
  6
DASHDOT
 62
     4
100
AcDbLine
 10
72.94454
 20
354.853426
 11
71.94454
 21
354.853426
  0
ARC
  5
621
100
AcDbEntity
  8
M2
 62
     4
100
AcDbCircle
 10
152.79454
 20
348.681109
 40
3.0
100
AcDbArc
 50
0.0
 51
43.299581
  0
LINE
  5
622
100
AcDbEntity
  8
M2
 62
     4
100
AcDbLine
 10
155.79454
 20
346.053426
 11
155.79454
 21
348.681109
  0
LINE
  5
623
100
AcDbEntity
  8
M2
  6
DASHDOT
 62
     4
100
AcDbLine
 10
159.34454
 20
354.353426
 11
159.34454
 21
355.353426
  0
ARC
  5
624
100
AcDbEntity
  8
M2
 62
     4
100
AcDbCircle
 10
165.89454
 20
348.681109
 40
3.0
100
AcDbArc
 50
136.700419
 51
180.0
  0
ARC
  5
625
100
AcDbEntity
  8
M2
 62
     4
100
AcDbCircle
 10
159.34454
 20
354.853426
 40
6.0
100
AcDbArc
 50
316.700419
 51
583.299581
  0
LINE
  5
626
100
AcDbEntity
  8
M2
 62
     4
100
AcDbLine
 10
155.79454
 20
346.053426
 11
162.89454
 21
346.053426
  0
LINE
  5
627
100
AcDbEntity
  8
M2
 62
     4
100
AcDbLine
 10
162.89454
 20
346.053426
 11
162.89454
 21
348.681109
  0
LINE
  5
628
100
AcDbEntity
  8
M2
  6
DASHDOT
 62
     4
100
AcDbLine
 10
158.84454
 20
354.853426
 11
159.84454
 21
354.853426
  0
LINE
  5
629
100
AcDbEntity
  8
M2
 62
     4
100
AcDbLine
 10
162.89454
 20
347.553426
 11
155.79454
 21
347.553426
  0
LINE
  5
62A
100
AcDbEntity
  8
M2
 62
     4
100
AcDbLine
 10
85.202079
 20
338.053426
 11
82.44454
 21
338.053426
  0
ARC
  5
62B
100
AcDbEntity
  8
M2
 62
     4
100
AcDbCircle
 10
72.44454
 20
354.853426
 40
6.0
100
AcDbArc
 50
326.442731
 51
393.557269
  0
ARC
  5
62C
100
AcDbEntity
  8
M2
 62
     4
100
AcDbCircle
 10
72.44454
 20
354.853426
 40
6.0
100
AcDbArc
 50
56.44269
 51
123.55731
  0
LINE
  5
62D
100
AcDbEntity
  8
M2
 62
     4
100
AcDbLine
 10
69.244542
 20
346.053426
 11
68.89454
 21
346.053426
  0
ARC
  5
62E
100
AcDbEntity
  8
M2
 62
     4
100
AcDbCircle
 10
100.04454
 20
345.053426
 40
7.0
100
AcDbArc
 50
212.32698
 51
270.0
  0
LINE
  5
62F
100
AcDbEntity
  8
M2
 62
     4
100
AcDbLine
 10
100.04454
 20
332.053426
 11
131.74454
 21
332.053426
  0
ARC
  5
630
100
AcDbEntity
  8
M2
 62
     4
100
AcDbCircle
 10
100.04454
 20
345.053426
 40
13.0
100
AcDbArc
 50
180.0
 51
193.581716
  0
ARC
  5
631
100
AcDbEntity
  8
M2
 62
     4
100
AcDbCircle
 10
131.74454
 20
345.053426
 40
7.0
100
AcDbArc
 50
270.0
 51
360.0
  0
ARC
  5
632
100
AcDbEntity
  8
M2
 62
     4
100
AcDbCircle
 10
131.74454
 20
345.053426
 40
13.0
100
AcDbArc
 50
270.0
 51
360.0
  0
LINE
  5
633
100
AcDbEntity
  8
M2
 62
     4
100
AcDbLine
 10
138.74454
 20
346.053426
 11
138.74454
 21
345.053426
  0
LINE
  5
634
100
AcDbEntity
  8
M2
 62
     4
100
AcDbLine
 10
144.74454
 20
346.053426
 11
144.74454
 21
345.053426
  0
LINE
  5
635
100
AcDbEntity
  8
M2
 62
     4
100
AcDbLine
 10
131.74454
 20
338.053426
 11
100.04454
 21
338.053426
  0
LINE
  5
636
100
AcDbEntity
  8
M2
 62
     4
100
AcDbLine
 10
87.04454
 20
346.053426
 11
87.04454
 21
345.053426
  0
LINE
  5
637
100
AcDbEntity
  8
M2
  6
DASHDOT
 62
     4
100
AcDbLine
 10
90.04454
 20
354.353426
 11
90.04454
 21
355.353426
  0
ARC
  5
638
100
AcDbEntity
  8
M2
 62
     4
100
AcDbCircle
 10
90.04454
 20
354.853426
 40
6.0
100
AcDbArc
 50
150.44265
 51
217.55735
  0
LINE
  5
639
100
AcDbEntity
  8
M2
 62
     4
100
AcDbLine
 10
87.452084
 20
346.053426
 11
86.49454
 21
346.053426
  0
LINE
  5
63A
100
AcDbEntity
  8
M2
 62
     4
100
AcDbLine
 10
86.49454
 20
346.053426
 11
86.49454
 21
348.037655
  0
LINE
  5
63B
100
AcDbEntity
  8
M2
  6
DASHDOT
 62
     4
100
AcDbLine
 10
90.54454
 20
354.853426
 11
89.54454
 21
354.853426
  0
LINE
  5
63C
100
AcDbEntity
  8
M2
 62
     4
100
AcDbLine
 10
86.49454
 20
347.553426
 11
86.961317
 21
347.553426
  0
ARC
  5
63D
100
AcDbEntity
  8
M2
 62
     4
100
AcDbCircle
 10
135.19454
 20
348.681109
 40
3.0
100
AcDbArc
 50
1.085629E-012
 51
43.299581
  0
LINE
  5
63E
100
AcDbEntity
  8
M2
 62
     4
100
AcDbLine
 10
138.19454
 20
346.053426
 11
138.19454
 21
348.681109
  0
LINE
  5
63F
100
AcDbEntity
  8
M2
  6
DASHDOT
 62
     4
100
AcDbLine
 10
141.74454
 20
354.353426
 11
141.74454
 21
355.353426
  0
ARC
  5
640
100
AcDbEntity
  8
M2
 62
     4
100
AcDbCircle
 10
148.29454
 20
348.681109
 40
3.0
100
AcDbArc
 50
136.700419
 51
180.0
  0
ARC
  5
641
100
AcDbEntity
  8
M2
 62
     4
100
AcDbCircle
 10
141.74454
 20
354.853426
 40
6.0
100
AcDbArc
 50
316.700419
 51
583.299581
  0
LINE
  5
642
100
AcDbEntity
  8
M2
 62
     4
100
AcDbLine
 10
138.19454
 20
346.053426
 11
145.29454
 21
346.053426
  0
LINE
  5
643
100
AcDbEntity
  8
M2
 62
     4
100
AcDbLine
 10
145.29454
 20
346.053426
 11
145.29454
 21
348.681109
  0
LINE
  5
644
100
AcDbEntity
  8
M2
  6
DASHDOT
 62
     4
100
AcDbLine
 10
141.24454
 20
354.853426
 11
142.24454
 21
354.853426
  0
LINE
  5
645
100
AcDbEntity
  8
M2
 62
     4
100
AcDbLine
 10
145.29454
 20
347.553426
 11
138.19454
 21
347.553426
  0
ARC
  5
646
100
AcDbEntity
  8
M2
 62
     4
100
AcDbCircle
 10
90.04454
 20
354.853426
 40
6.0
100
AcDbArc
 50
60.442687
 51
127.557313
  0
ARC
  5
647
100
AcDbEntity
  8
M2
 62
     4
100
AcDbCircle
 10
90.04454
 20
354.853426
 40
6.0
100
AcDbArc
 50
330.44273
 51
397.55727
  0
ARC
  5
648
100
AcDbEntity
  8
M2
 62
     4
100
AcDbCircle
 10
100.04454
 20
345.053426
 40
13.0
100
AcDbArc
 50
226.816753
 51
270.0
  0
ARC
  5
649
100
AcDbEntity
  8
M2
 62
     4
100
AcDbCircle
 10
131.74454
 20
448.853428
 40
7.0
100
AcDbArc
 50
1.861079E-012
 51
90.0
  0
ARC
  5
64A
100
AcDbEntity
  8
M2
 62
     4
100
AcDbCircle
 10
131.74454
 20
448.853428
 40
13.0
100
AcDbArc
 50
1.753709E-012
 51
90.0
  0
ARC
  5
64B
100
AcDbEntity
  8
M2
 62
     4
100
AcDbCircle
 10
64.84454
 20
448.853428
 40
7.0
100
AcDbArc
 50
90.0
 51
180.0
  0
ARC
  5
64C
100
AcDbEntity
  8
M2
 62
     4
100
AcDbCircle
 10
64.84454
 20
448.853428
 40
13.0
100
AcDbArc
 50
90.0
 51
180.0
  0
LINE
  5
64D
100
AcDbEntity
  8
M2
 62
     4
100
AcDbLine
 10
57.84454
 20
427.653428
 11
57.84454
 21
448.853428
  0
LINE
  5
64E
100
AcDbEntity
  8
M2
 62
     4
100
AcDbLine
 10
51.84454
 20
427.653428
 11
51.84454
 21
448.853428
  0
LINE
  5
64F
100
AcDbEntity
  8
M2
 62
     4
100
AcDbLine
 10
138.74454
 20
427.653428
 11
138.74454
 21
448.853428
  0
LINE
  5
650
100
AcDbEntity
  8
M2
 62
     4
100
AcDbLine
 10
64.84454
 20
455.853428
 11
131.74454
 21
455.853428
  0
LINE
  5
651
100
AcDbEntity
  8
M2
 62
     4
100
AcDbLine
 10
144.74454
 20
427.653428
 11
144.74454
 21
448.853428
  0
ARC
  5
652
100
AcDbEntity
  8
M2
 62
     4
100
AcDbCircle
 10
135.19454
 20
420.025746
 40
3.0
100
AcDbArc
 50
316.700419
 51
360.0
  0
LINE
  5
653
100
AcDbEntity
  8
M2
 62
     4
100
AcDbLine
 10
138.19454
 20
427.653428
 11
138.19454
 21
420.025746
  0
LINE
  5
654
100
AcDbEntity
  8
M2
  6
DASHDOT
 62
     4
100
AcDbLine
 10
141.74454
 20
414.353428
 11
141.74454
 21
413.353428
  0
ARC
  5
655
100
AcDbEntity
  8
M2
 62
     4
100
AcDbCircle
 10
148.29454
 20
420.025746
 40
3.0
100
AcDbArc
 50
180.0
 51
223.299581
  0
ARC
  5
656
100
AcDbEntity
  8
M2
 62
     4
100
AcDbCircle
 10
141.74454
 20
413.853428
 40
6.0
100
AcDbArc
 50
136.700419
 51
403.299581
  0
LINE
  5
657
100
AcDbEntity
  8
M2
 62
     4
100
AcDbLine
 10
138.19454
 20
427.653428
 11
145.29454
 21
427.653428
  0
LINE
  5
658
100
AcDbEntity
  8
M2
 62
     4
100
AcDbLine
 10
145.29454
 20
427.653428
 11
145.29454
 21
420.025746
  0
LINE
  5
659
100
AcDbEntity
  8
M2
  6
DASHDOT
 62
     4
100
AcDbLine
 10
141.24454
 20
413.853428
 11
142.24454
 21
413.853428
  0
LINE
  5
65A
100
AcDbEntity
  8
M2
 62
     4
100
AcDbLine
 10
145.29454
 20
423.153428
 11
138.19454
 21
423.153428
  0
ARC
  5
65B
100
AcDbEntity
  8
M2
 62
     4
100
AcDbCircle
 10
61.39454
 20
420.025746
 40
3.0
100
AcDbArc
 50
180.0
 51
223.299581
  0
LINE
  5
65C
100
AcDbEntity
  8
M2
 62
     4
100
AcDbLine
 10
58.39454
 20
427.653428
 11
58.39454
 21
420.025746
  0
LINE
  5
65D
100
AcDbEntity
  8
M2
  6
DASHDOT
 62
     4
100
AcDbLine
 10
54.84454
 20
414.353428
 11
54.84454
 21
413.353428
  0
ARC
  5
65E
100
AcDbEntity
  8
M2
 62
     4
100
AcDbCircle
 10
48.29454
 20
420.025746
 40
3.0
100
AcDbArc
 50
316.700419
 51
360.0
  0
ARC
  5
65F
100
AcDbEntity
  8
M2
 62
     4
100
AcDbCircle
 10
54.84454
 20
413.853428
 40
6.0
100
AcDbArc
 50
136.700419
 51
403.299581
  0
LINE
  5
660
100
AcDbEntity
  8
M2
 62
     4
100
AcDbLine
 10
58.39454
 20
427.653428
 11
51.29454
 21
427.653428
  0
LINE
  5
661
100
AcDbEntity
  8
M2
 62
     4
100
AcDbLine
 10
51.29454
 20
427.653428
 11
51.29454
 21
420.025746
  0
LINE
  5
662
100
AcDbEntity
  8
M2
  6
DASHDOT
 62
     4
100
AcDbLine
 10
55.34454
 20
413.853428
 11
54.34454
 21
413.853428
  0
LINE
  5
663
100
AcDbEntity
  8
M2
 62
     4
100
AcDbLine
 10
51.29454
 20
423.153428
 11
58.39454
 21
423.153428
  0
LINE
  5
664
100
AcDbEntity
  8
M2
 62
     4
100
AcDbLine
 10
82.44454
 20
455.853428
 11
89.090089
 21
455.853428
  0
LINE
  5
665
100
AcDbEntity
  8
M2
 62
     4
100
AcDbLine
 10
166.94454
 20
461.853428
 11
64.84454
 21
461.853428
  0
LINE
  5
666
100
AcDbEntity
  8
M2
100
AcDbLine
 10
109.194542
 20
411.703425
 11
109.09454
 21
411.703425
  0
LINE
  5
667
100
AcDbEntity
  8
M2
100
AcDbLine
 10
61.994542
 20
426.453427
 11
61.994542
 21
428.653427
  0
LINE
  5
668
100
AcDbEntity
  8
M2
100
AcDbLine
 10
37.694542
 20
409.153427
 11
36.794542
 21
409.153427
  0
LINE
  5
669
100
AcDbEntity
  8
M2
100
AcDbLine
 10
107.194542
 20
409.153427
 11
108.094542
 21
409.153427
  0
LINE
  5
66A
100
AcDbEntity
  8
M2
100
AcDbLine
 10
93.594542
 20
420.853425
 11
94.494543
 21
420.853425
  0
LINE
  5
66B
100
AcDbEntity
  8
M2
100
AcDbLine
 10
100.294542
 20
409.153427
 11
101.194543
 21
409.153427
  0
LINE
  5
66C
100
AcDbEntity
  8
M2
100
AcDbLine
 10
86.294542
 20
344.853424
 11
86.294542
 21
342.853428
  0
LINE
  5
66D
100
AcDbEntity
  8
M2
100
AcDbLine
 10
35.694542
 20
411.703425
 11
35.794544
 21
411.703425
  0
LINE
  5
66E
100
AcDbEntity
  8
M2
100
AcDbLine
 10
108.394542
 20
341.853426
 11
94.15962
 21
341.853426
  0
LINE
  5
66F
100
AcDbEntity
  8
M2
100
AcDbLine
 10
82.894542
 20
428.653427
 11
82.894542
 21
426.453427
  0
LINE
  5
670
100
AcDbEntity
  8
M2
100
AcDbLine
 10
48.844541
 20
342.853428
 11
48.844541
 21
347.853427
  0
LINE
  5
671
100
AcDbEntity
  8
M2
100
AcDbLine
 10
61.344542
 20
342.853428
 11
61.344542
 21
347.853427
  0
LINE
  5
672
100
AcDbEntity
  8
M2
100
AcDbLine
 10
83.544542
 20
342.853428
 11
83.544542
 21
347.853427
  0
LINE
  5
673
100
AcDbEntity
  8
M2
100
AcDbLine
 10
35.694542
 20
357.003427
 11
35.794544
 21
357.003427
  0
LINE
  5
674
100
AcDbEntity
  8
M2
100
AcDbLine
 10
62.494542
 20
429.153424
 11
69.444542
 21
429.153424
  0
LINE
  5
675
100
AcDbEntity
  8
M2
100
AcDbLine
 10
96.044543
 20
347.853427
 11
96.044543
 21
342.853428
  0
LINE
  5
676
100
AcDbEntity
  8
M2
100
AcDbLine
 10
33.994543
 20
410.703426
 11
33.994543
 21
344.853426
  0
LINE
  5
677
100
AcDbEntity
  8
M2
100
AcDbLine
 10
34.994541
 20
357.003427
 11
35.794544
 21
357.003427
  0
LINE
  5
678
100
AcDbEntity
  8
M2
100
AcDbLine
 10
49.994542
 20
420.853425
 11
49.994542
 21
429.853425
  0
ARC
  5
679
100
AcDbEntity
  8
M2
100
AcDbCircle
 10
62.494542
 20
428.653426
 40
0.5
100
AcDbArc
 50
90.0
 51
180.0
  0
LINE
  5
67A
100
AcDbEntity
  8
M2
100
AcDbLine
 10
79.394542
 20
346.853424
 11
79.394542
 21
359.453425
  0
LINE
  5
67B
100
AcDbEntity
  8
M2
100
AcDbLine
 10
79.394542
 20
342.853428
 11
79.394542
 21
346.853424
  0
ARC
  5
67C
100
AcDbEntity
  8
M2
100
AcDbCircle
 10
34.994542
 20
358.003426
 40
1.0
100
AcDbArc
 50
180.0
 51
270.0
  0
LINE
  5
67D
100
AcDbEntity
  8
M2
100
AcDbLine
 10
80.394543
 20
359.953426
 11
82.094542
 21
359.953426
  0
ARC
  5
67E
100
AcDbEntity
  8
M2
100
AcDbCircle
 10
55.094542
 20
344.853426
 40
3.5
100
AcDbArc
 50
0.0
 51
20.051043
  0
ARC
  5
67F
100
AcDbEntity
  8
M2
100
AcDbCircle
 10
95.044542
 20
342.853426
 40
1.0
100
AcDbArc
 50
270.0
 51
360.0
  0
ARC
  5
680
100
AcDbEntity
  8
M2
100
AcDbCircle
 10
84.544542
 20
342.853426
 40
1.0
100
AcDbArc
 50
180.0
 51
270.0
  0
ARC
  5
681
100
AcDbEntity
  8
M2
100
AcDbCircle
 10
82.394542
 20
428.653426
 40
0.5
100
AcDbArc
 50
0.0
 51
90.0
  0
LINE
  5
682
100
AcDbEntity
  8
M2
100
AcDbLine
 10
60.344542
 20
341.853426
 11
58.618787
 21
341.853426
  0
LINE
  5
683
100
AcDbEntity
  8
M2
100
AcDbLine
 10
58.594542
 20
344.853424
 11
58.594542
 21
342.853428
  0
LINE
  5
684
100
AcDbEntity
  8
M2
100
AcDbLine
 10
63.294538
 20
341.853426
 11
64.494542
 21
341.853426
  0
LINE
  5
685
100
AcDbEntity
  8
M2
100
AcDbLine
 10
62.794542
 20
341.853426
 11
63.294538
 21
341.853426
  0
LINE
  5
686
100
AcDbEntity
  8
M2
100
AcDbLine
 10
33.494542
 20
413.153425
 11
33.494542
 21
422.853426
  0
LINE
  5
687
100
AcDbEntity
  8
M2
100
AcDbLine
 10
103.896032
 20
351.603427
 11
102.444541
 21
351.603427
  0
LINE
  5
688
100
AcDbEntity
  8
M2
100
AcDbLine
 10
44.044542
 20
346.853424
 11
44.944542
 21
346.853424
  0
LINE
  5
689
100
AcDbEntity
  8
M2
100
AcDbLine
 10
44.044542
 20
352.853425
 11
44.044542
 21
346.853424
  0
LINE
  5
68A
100
AcDbEntity
  8
M2
100
AcDbLine
 10
36.494541
 20
425.853424
 11
43.994543
 21
425.853424
  0
LINE
  5
68B
100
AcDbEntity
  8
M2
100
AcDbLine
 10
110.894541
 20
422.853426
 11
110.894541
 21
358.003426
  0
LINE
  5
68C
100
AcDbEntity
  8
M2
100
AcDbLine
 10
45.194543
 20
352.853425
 11
44.044542
 21
352.853425
  0
LINE
  5
68D
100
AcDbEntity
  8
M2
100
AcDbLine
 10
47.894542
 20
422.353425
 11
49.994542
 21
422.353425
  0
LINE
  5
68E
100
AcDbEntity
  8
M2
100
AcDbLine
 10
94.894542
 20
422.353425
 11
96.994542
 21
422.353425
  0
LINE
  5
68F
100
AcDbEntity
  8
M2
100
AcDbLine
 10
44.044542
 20
345.353425
 11
44.044542
 21
345.853426
  0
LINE
  5
690
100
AcDbEntity
  8
M2
100
AcDbLine
 10
44.944542
 20
345.853426
 11
44.044542
 21
345.853426
  0
LINE
  5
691
100
AcDbEntity
  8
M2
100
AcDbLine
 10
110.894541
 20
360.553425
 11
111.394542
 21
355.553426
  0
LINE
  5
692
100
AcDbEntity
  8
M2
100
AcDbLine
 10
100.894541
 20
425.853424
 11
107.894542
 21
425.853424
  0
LINE
  5
693
100
AcDbEntity
  8
M2
100
AcDbLine
 10
44.944542
 20
344.853424
 11
44.544543
 21
344.853424
  0
LINE
  5
694
100
AcDbEntity
  8
M2
100
AcDbLine
 10
42.444543
 20
421.603427
 11
39.944543
 21
421.603427
  0
LINE
  5
695
100
AcDbEntity
  8
M2
100
AcDbLine
 10
37.395033
 20
419.103426
 11
36.944541
 21
419.103426
  0
LINE
  5
696
100
AcDbEntity
  8
M2
100
AcDbLine
 10
36.944541
 20
414.603426
 11
38.538805
 21
414.605402
  0
LINE
  5
697
100
AcDbEntity
  8
M2
100
AcDbLine
 10
40.994051
 20
417.103425
 11
42.444543
 21
417.103425
  0
ARC
  5
698
100
AcDbEntity
  8
M2
100
AcDbCircle
 10
50.994542
 20
429.853426
 40
1.0
100
AcDbArc
 50
31.788331
 51
90.0
  0
ARC
  5
699
100
AcDbEntity
  8
M2
100
AcDbCircle
 10
59.594542
 20
342.853426
 40
1.0
100
AcDbArc
 50
180.0
 51
270.0
  0
ARC
  5
69A
100
AcDbEntity
  8
M2
100
AcDbCircle
 10
60.344542
 20
342.853426
 40
1.0
100
AcDbArc
 50
270.0
 51
360.0
  0
ARC
  5
69B
100
AcDbEntity
  8
M2
100
AcDbCircle
 10
94.294542
 20
342.853426
 40
1.0
100
AcDbArc
 50
262.312742
 51
270.0
  0
ARC
  5
69C
100
AcDbEntity
  8
M2
100
AcDbCircle
 10
49.844542
 20
342.853426
 40
1.0
100
AcDbArc
 50
180.0
 51
270.0
  0
ARC
  5
69D
100
AcDbEntity
  8
M2
100
AcDbCircle
 10
50.994542
 20
429.853426
 40
1.0
100
AcDbArc
 50
90.0
 51
180.0
  0
LINE
  5
69E
100
AcDbEntity
  8
M2
100
AcDbLine
 10
43.694542
 20
359.553425
 11
44.594542
 21
359.553425
  0
ARC
  5
69F
100
AcDbEntity
  8
M2
100
AcDbCircle
 10
85.294542
 20
342.853426
 40
1.0
100
AcDbArc
 50
270.0
 51
360.0
  0
LINE
  5
6A0
100
AcDbEntity
  8
M2
100
AcDbLine
 10
44.594542
 20
409.153427
 11
43.694542
 21
409.153427
  0
LINE
  5
6A1
100
AcDbEntity
  8
M2
100
AcDbLine
 10
44.044542
 20
343.853426
 11
44.044542
 21
345.353425
  0
LINE
  5
6A2
100
AcDbEntity
  8
M2
100
AcDbLine
 10
44.944542
 20
343.353425
 11
44.544543
 21
343.353425
  0
LINE
  5
6A3
100
AcDbEntity
  8
M2
100
AcDbLine
 10
33.994543
 20
408.153427
 11
33.494542
 21
413.153425
  0
LINE
  5
6A4
100
AcDbEntity
  8
M2
100
AcDbLine
 10
109.194542
 20
357.003427
 11
109.09454
 21
357.003427
  0
LINE
  5
6A5
100
AcDbEntity
  8
M2
100
AcDbLine
 10
101.194543
 20
359.553425
 11
100.294542
 21
359.553425
  0
LINE
  5
6A6
100
AcDbEntity
  8
M2
100
AcDbLine
 10
108.094542
 20
359.553425
 11
107.194542
 21
359.553425
  0
ARC
  5
6A7
100
AcDbEntity
  8
M2
100
AcDbCircle
 10
107.894542
 20
422.853426
 40
3.0
100
AcDbArc
 50
0.0
 51
90.0
  0
ARC
  5
6A8
100
AcDbEntity
  8
M2
100
AcDbCircle
 10
36.494542
 20
422.853426
 40
3.0
100
AcDbArc
 50
90.0
 51
180.0
  0
LINE
  5
6A9
100
AcDbEntity
  8
M2
100
AcDbLine
 10
45.894542
 20
385.753426
 11
44.194543
 21
385.753426
  0
ARC
  5
6AA
100
AcDbEntity
  8
M2
100
AcDbCircle
 10
44.544542
 20
343.853426
 40
0.5
100
AcDbArc
 50
180.0
 51
270.0
  0
LINE
  5
6AB
100
AcDbEntity
  8
M2
100
AcDbLine
 10
45.194543
 20
382.953426
 11
45.194543
 21
382.853426
  0
LINE
  5
6AC
100
AcDbEntity
  8
M2
100
AcDbLine
 10
47.894542
 20
361.453426
 11
46.894542
 21
361.453426
  0
LINE
  5
6AD
100
AcDbEntity
  8
M2
100
AcDbLine
 10
44.194543
 20
382.953426
 11
45.894542
 21
382.953426
  0
ARC
  5
6AE
100
AcDbEntity
  8
M2
100
AcDbCircle
 10
38.444542
 20
416.853426
 40
2.25
100
AcDbArc
 50
272.401074
 51
358.876481
  0
ARC
  5
6AF
100
AcDbEntity
  8
M2
100
AcDbCircle
 10
82.594542
 20
359.453426
 40
0.5
100
AcDbArc
 50
0.0
 51
90.0
  0
ARC
  5
6B0
100
AcDbEntity
  8
M2
100
AcDbCircle
 10
102.444542
 20
349.353426
 40
2.25
100
AcDbArc
 50
90.0
 51
270.0
  0
ARC
  5
6B1
100
AcDbEntity
  8
M2
100
AcDbCircle
 10
64.994542
 20
359.453426
 40
0.5
100
AcDbArc
 50
0.0
 51
90.0
  0
ARC
  5
6B2
100
AcDbEntity
  8
M2
100
AcDbCircle
 10
62.294542
 20
359.453426
 40
0.5
100
AcDbArc
 50
90.0
 51
180.0
  0
ARC
  5
6B3
100
AcDbEntity
  8
M2
100
AcDbCircle
 10
36.944542
 20
416.853426
 40
2.25
100
AcDbArc
 50
90.0
 51
270.0
  0
ARC
  5
6B4
100
AcDbEntity
  8
M2
100
AcDbCircle
 10
80.394542
 20
342.853426
 40
1.0
100
AcDbArc
 50
180.0
 51
270.0
  0
ARC
  5
6B5
100
AcDbEntity
  8
M2
100
AcDbCircle
 10
104.944542
 20
349.353426
 40
2.25
100
AcDbArc
 50
270.0
 51
355.815286
  0
ARC
  5
6B6
100
AcDbEntity
  8
M2
100
AcDbCircle
 10
37.395032
 20
419.403426
 40
0.3
100
AcDbArc
 50
270.0
 51
358.876481
  0
ARC
  5
6B7
100
AcDbEntity
  8
M2
100
AcDbCircle
 10
42.444542
 20
419.353426
 40
2.25
100
AcDbArc
 50
270.0
 51
450.0
  0
ARC
  5
6B8
100
AcDbEntity
  8
M2
100
AcDbCircle
 10
39.944542
 20
419.353426
 40
2.25
100
AcDbArc
 50
90.0
 51
178.876481
  0
ARC
  5
6B9
100
AcDbEntity
  8
M2
100
AcDbCircle
 10
40.994052
 20
416.803426
 40
0.3
100
AcDbArc
 50
90.0
 51
178.876481
  0
LINE
  5
6BA
100
AcDbEntity
  8
M2
100
AcDbLine
 10
43.194542
 20
389.553426
 11
43.194542
 21
379.153426
  0
LINE
  5
6BB
100
AcDbEntity
  8
M2
100
AcDbLine
 10
101.694542
 20
389.553426
 11
101.694542
 21
379.153426
  0
LINE
  5
6BC
100
AcDbEntity
  8
M2
100
AcDbLine
 10
47.894542
 20
346.853424
 11
47.894542
 21
361.453426
  0
LINE
  5
6BD
100
AcDbEntity
  8
M2
100
AcDbLine
 10
44.194543
 20
378.153426
 11
45.194543
 21
378.153426
  0
LINE
  5
6BE
100
AcDbEntity
  8
M2
100
AcDbLine
 10
45.194543
 20
385.753426
 11
45.194543
 21
385.853426
  0
LINE
  5
6BF
100
AcDbEntity
  8
M2
100
AcDbLine
 10
79.894542
 20
359.953426
 11
80.394543
 21
359.953426
  0
LINE
  5
6C0
100
AcDbEntity
  8
M2
100
AcDbLine
 10
100.694542
 20
378.153426
 11
99.694541
 21
378.153426
  0
LINE
  5
6C1
100
AcDbEntity
  8
M2
100
AcDbLine
 10
100.694542
 20
389.053426
 11
100.694542
 21
379.653426
  0
LINE
  5
6C2
100
AcDbEntity
  8
M2
100
AcDbLine
 10
44.194543
 20
389.053426
 11
44.194543
 21
379.653426
  0
LINE
  5
6C3
100
AcDbEntity
  8
M2
100
AcDbLine
 10
96.994542
 20
361.453426
 11
97.994542
 21
361.453426
  0
LINE
  5
6C4
100
AcDbEntity
  8
M2
100
AcDbLine
 10
82.094542
 20
359.953426
 11
82.594543
 21
359.953426
  0
LINE
  5
6C5
100
AcDbEntity
  8
M2
100
AcDbLine
 10
83.094542
 20
359.453425
 11
83.094542
 21
346.853424
  0
LINE
  5
6C6
100
AcDbEntity
  8
M2
100
AcDbLine
 10
96.994542
 20
346.853424
 11
96.994542
 21
361.453426
  0
ARC
  5
6C7
100
AcDbEntity
  8
M2
100
AcDbCircle
 10
44.194542
 20
379.153426
 40
1.0
100
AcDbArc
 50
180.0
 51
270.0
  0
ARC
  5
6C8
100
AcDbEntity
  8
M2
100
AcDbCircle
 10
62.294542
 20
409.253426
 40
0.5
100
AcDbArc
 50
180.0
 51
270.0
  0
ARC
  5
6C9
100
AcDbEntity
  8
M2
100
AcDbCircle
 10
79.894542
 20
359.453426
 40
0.5
100
AcDbArc
 50
90.0
 51
180.0
  0
ARC
  5
6CA
100
AcDbEntity
  8
M2
100
AcDbCircle
 10
89.794542
 20
344.853426
 40
3.5
100
AcDbArc
 50
159.948957
 51
180.0
  0
LINE
  5
6CB
100
AcDbEntity
  8
M2
100
AcDbLine
 10
36.794542
 20
359.553425
 11
37.694542
 21
359.553425
  0
ARC
  5
6CC
100
AcDbEntity
  8
M2
100
AcDbCircle
 10
44.194542
 20
389.553426
 40
1.0
100
AcDbArc
 50
90.0
 51
180.0
  0
ARC
  5
6CD
100
AcDbEntity
  8
M2
100
AcDbCircle
 10
79.894542
 20
409.253426
 40
0.5
100
AcDbArc
 50
180.0
 51
270.0
  0
LINE
  5
6CE
100
AcDbEntity
  8
M2
100
AcDbLine
 10
64.494542
 20
359.953426
 11
62.794542
 21
359.953426
  0
LINE
  5
6CF
100
AcDbEntity
  8
M2
100
AcDbLine
 10
62.794542
 20
359.953426
 11
62.294542
 21
359.953426
  0
ARC
  5
6D0
100
AcDbEntity
  8
M2
100
AcDbCircle
 10
82.594542
 20
409.253426
 40
0.5
100
AcDbArc
 50
270.0
 51
360.0
  0
ARC
  5
6D1
100
AcDbEntity
  8
M2
100
AcDbCircle
 10
64.994542
 20
409.253426
 40
0.5
100
AcDbArc
 50
270.0
 51
360.0
  0
LINE
  5
6D2
100
AcDbEntity
  8
M2
100
AcDbLine
 10
64.994542
 20
359.953426
 11
64.494542
 21
359.953426
  0
ARC
  5
6D3
100
AcDbEntity
  8
M2
100
AcDbCircle
 10
100.694542
 20
379.153426
 40
1.0
100
AcDbArc
 50
270.0
 51
360.0
  0
LINE
  5
6D4
100
AcDbEntity
  8
M2
100
AcDbLine
 10
99.694541
 20
390.553426
 11
100.694542
 21
390.553426
  0
LINE
  5
6D5
100
AcDbEntity
  8
M2
100
AcDbLine
 10
45.194543
 20
390.553426
 11
44.194543
 21
390.553426
  0
LINE
  5
6D6
100
AcDbEntity
  8
M2
100
AcDbLine
 10
82.594542
 20
408.753425
 11
79.894542
 21
408.753425
  0
ARC
  5
6D7
100
AcDbEntity
  8
M2
100
AcDbCircle
 10
100.694542
 20
389.553426
 40
1.0
100
AcDbArc
 50
0.0
 51
90.0
  0
CIRCLE
  5
6D8
100
AcDbEntity
  8
M2
100
AcDbCircle
 10
37.444542
 20
346.353426
 40
2.25
  0
ARC
  5
6D9
100
AcDbEntity
  8
M2
100
AcDbCircle
 10
64.494542
 20
342.853426
 40
1.0
100
AcDbArc
 50
270.0
 51
360.0
  0
LINE
  5
6DA
100
AcDbEntity
  8
M2
100
AcDbLine
 10
102.444541
 20
347.103425
 11
104.944541
 21
347.103425
  0
ARC
  5
6DB
100
AcDbEntity
  8
M2
100
AcDbCircle
 10
98.694542
 20
342.853426
 40
1.0
100
AcDbArc
 50
270.0
 51
360.0
  0
LINE
  5
6DC
100
AcDbEntity
  8
M2
100
AcDbLine
 10
61.794542
 20
420.853425
 11
58.394542
 21
420.853425
  0
CIRCLE
  5
6DD
100
AcDbEntity
  8
M2
100
AcDbCircle
 10
107.444542
 20
421.353426
 40
2.25
  0
ARC
  5
6DE
100
AcDbEntity
  8
M2
100
AcDbCircle
 10
70.194542
 20
388.62238
 40
0.5
100
AcDbArc
 50
0.0
 51
90.0
  0
LINE
  5
6DF
100
AcDbEntity
  8
M2
100
AcDbLine
 10
70.194542
 20
389.12238
 11
67.644542
 21
389.12238
  0
LINE
  5
6E0
100
AcDbEntity
  8
M2
100
AcDbLine
 10
77.244542
 20
389.12238
 11
74.694542
 21
389.12238
  0
LINE
  5
6E1
100
AcDbEntity
  8
M2
100
AcDbLine
 10
98.694541
 20
391.553426
 11
98.694541
 21
388.853426
  0
LINE
  5
6E2
100
AcDbEntity
  8
M2
100
AcDbLine
 10
46.194543
 20
388.853426
 11
45.194543
 21
388.853426
  0
LINE
  5
6E3
100
AcDbEntity
  8
M2
100
AcDbLine
 10
98.694541
 20
379.853426
 11
98.694541
 21
377.153426
  0
LINE
  5
6E4
100
AcDbEntity
  8
M2
100
AcDbLine
 10
99.694541
 20
379.853426
 11
98.694541
 21
379.853426
  0
LINE
  5
6E5
100
AcDbEntity
  8
M2
100
AcDbLine
 10
45.194543
 20
382.853426
 11
45.194543
 21
379.653426
  0
LINE
  5
6E6
100
AcDbEntity
  8
M2
100
AcDbLine
 10
46.194543
 20
391.553426
 11
46.194543
 21
388.853426
  0
LINE
  5
6E7
100
AcDbEntity
  8
M2
100
AcDbLine
 10
98.694541
 20
382.853426
 11
99.694541
 21
382.853426
  0
LINE
  5
6E8
100
AcDbEntity
  8
M2
100
AcDbLine
 10
67.544542
 20
394.553426
 11
67.544542
 21
394.053426
  0
LINE
  5
6E9
100
AcDbEntity
  8
M2
100
AcDbLine
 10
46.194543
 20
385.853426
 11
46.194543
 21
382.853426
  0
LINE
  5
6EA
100
AcDbEntity
  8
M2
100
AcDbLine
 10
99.694541
 20
382.953426
 11
99.694541
 21
379.653426
  0
LINE
  5
6EB
100
AcDbEntity
  8
M2
100
AcDbLine
 10
67.544542
 20
394.553426
 11
77.344542
 21
394.553426
  0
LINE
  5
6EC
100
AcDbEntity
  8
M2
100
AcDbLine
 10
46.194543
 20
379.853426
 11
46.194543
 21
377.153426
  0
LINE
  5
6ED
100
AcDbEntity
  8
M2
100
AcDbLine
 10
77.344542
 20
394.053426
 11
67.544542
 21
394.053426
  0
LINE
  5
6EE
100
AcDbEntity
  8
M2
100
AcDbLine
 10
98.694541
 20
388.853426
 11
99.694541
 21
388.853426
  0
LINE
  5
6EF
100
AcDbEntity
  8
M2
100
AcDbLine
 10
45.194543
 20
385.853426
 11
46.194543
 21
385.853426
  0
LINE
  5
6F0
100
AcDbEntity
  8
M2
100
AcDbLine
 10
46.194543
 20
391.553426
 11
45.694542
 21
391.553426
  0
LINE
  5
6F1
100
AcDbEntity
  8
M2
100
AcDbLine
 10
98.694541
 20
385.853426
 11
98.694541
 21
382.853426
  0
LINE
  5
6F2
100
AcDbEntity
  8
M2
100
AcDbLine
 10
45.194543
 20
389.053426
 11
45.194543
 21
385.853426
  0
LINE
  5
6F3
100
AcDbEntity
  8
M2
100
AcDbLine
 10
99.694541
 20
385.853426
 11
98.694541
 21
385.853426
  0
LINE
  5
6F4
100
AcDbEntity
  8
M2
100
AcDbLine
 10
99.694541
 20
389.053426
 11
99.694541
 21
385.753426
  0
LINE
  5
6F5
100
AcDbEntity
  8
M2
100
AcDbLine
 10
99.194542
 20
391.553426
 11
98.694541
 21
391.553426
  0
ARC
  5
6F6
100
AcDbEntity
  8
M2
100
AcDbCircle
 10
74.694542
 20
388.62238
 40
0.5
100
AcDbArc
 50
90.0
 51
180.0
  0
ARC
  5
6F7
100
AcDbEntity
  8
M2
100
AcDbCircle
 10
64.044542
 20
394.553426
 40
1.0
100
AcDbArc
 50
90.0
 51
180.0
  0
ARC
  5
6F8
100
AcDbEntity
  8
M2
100
AcDbCircle
 10
80.844542
 20
394.553426
 40
1.0
100
AcDbArc
 50
0.0
 51
90.0
  0
ARC
  5
6F9
100
AcDbEntity
  8
M2
100
AcDbCircle
 10
98.694542
 20
406.053426
 40
1.0
100
AcDbArc
 50
0.0
 51
90.0
  0
ARC
  5
6FA
100
AcDbEntity
  8
M2
100
AcDbCircle
 10
64.044542
 20
374.153426
 40
1.0
100
AcDbArc
 50
180.0
 51
270.0
  0
ARC
  5
6FB
100
AcDbEntity
  8
M2
100
AcDbCircle
 10
65.944542
 20
369.853426
 40
0.5
100
AcDbArc
 50
270.0
 51
360.0
  0
ARC
  5
6FC
100
AcDbEntity
  8
M2
100
AcDbCircle
 10
80.944542
 20
370.853426
 40
0.5
100
AcDbArc
 50
0.0
 51
90.0
  0
ARC
  5
6FD
100
AcDbEntity
  8
M2
100
AcDbCircle
 10
80.944542
 20
369.853426
 40
0.5
100
AcDbArc
 50
270.0
 51
360.0
  0
ARC
  5
6FE
100
AcDbEntity
  8
M2
100
AcDbCircle
 10
65.944542
 20
370.853426
 40
0.5
100
AcDbArc
 50
0.0
 51
90.0
  0
ARC
  5
6FF
100
AcDbEntity
  8
M2
100
AcDbCircle
 10
63.944542
 20
369.853426
 40
0.5
100
AcDbArc
 50
180.0
 51
270.0
  0
ARC
  5
700
100
AcDbEntity
  8
M2
100
AcDbCircle
 10
78.944542
 20
370.853426
 40
0.5
100
AcDbArc
 50
90.0
 51
180.0
  0
ARC
  5
701
100
AcDbEntity
  8
M2
100
AcDbCircle
 10
78.944542
 20
369.853426
 40
0.5
100
AcDbArc
 50
180.0
 51
270.0
  0
ARC
  5
702
100
AcDbEntity
  8
M2
100
AcDbCircle
 10
80.844542
 20
374.153426
 40
1.0
100
AcDbArc
 50
270.0
 51
360.0
  0
ARC
  5
703
100
AcDbEntity
  8
M2
100
AcDbCircle
 10
63.944542
 20
370.853426
 40
0.5
100
AcDbArc
 50
90.0
 51
180.0
  0
LINE
  5
704
100
AcDbEntity
  8
M2
100
AcDbLine
 10
65.944542
 20
371.353426
 11
63.944542
 21
371.353426
  0
LINE
  5
705
100
AcDbEntity
  8
M2
100
AcDbLine
 10
64.044542
 20
395.553426
 11
66.544542
 21
395.553426
  0
LINE
  5
706
100
AcDbEntity
  8
M2
100
AcDbLine
 10
78.444542
 20
369.853426
 11
78.444542
 21
370.853426
  0
LINE
  5
707
100
AcDbEntity
  8
M2
100
AcDbLine
 10
81.444542
 20
370.853426
 11
81.444542
 21
369.853426
  0
LINE
  5
708
100
AcDbEntity
  8
M2
100
AcDbLine
 10
77.344542
 20
394.553426
 11
77.344542
 21
394.053426
  0
LINE
  5
709
100
AcDbEntity
  8
M2
100
AcDbLine
 10
46.194543
 20
407.053427
 11
98.694541
 21
407.053427
  0
LINE
  5
70A
100
AcDbEntity
  8
M2
100
AcDbLine
 10
36.944541
 20
367.703425
 11
36.944541
 21
374.203426
  0
LINE
  5
70B
100
AcDbEntity
  8
M2
100
AcDbLine
 10
66.444542
 20
369.853426
 11
66.444542
 21
370.853426
  0
LINE
  5
70C
100
AcDbEntity
  8
M2
100
AcDbLine
 10
78.944542
 20
371.353426
 11
80.944543
 21
371.353426
  0
LINE
  5
70D
100
AcDbEntity
  8
M2
100
AcDbLine
 10
63.444542
 20
370.853426
 11
63.444542
 21
369.853426
  0
LINE
  5
70E
100
AcDbEntity
  8
M2
100
AcDbLine
 10
80.944543
 20
369.353426
 11
78.944542
 21
369.353426
  0
LINE
  5
70F
100
AcDbEntity
  8
M2
100
AcDbLine
 10
63.944542
 20
369.353426
 11
65.944542
 21
369.353426
  0
LINE
  5
710
100
AcDbEntity
  8
M2
100
AcDbLine
 10
75.444542
 20
396.553426
 11
75.444542
 21
398.153426
  0
LINE
  5
711
100
AcDbEntity
  8
M2
100
AcDbLine
 10
75.444542
 20
398.153426
 11
69.444542
 21
398.153426
  0
LINE
  5
712
100
AcDbEntity
  8
M2
100
AcDbLine
 10
69.444542
 20
396.553426
 11
69.444542
 21
398.153426
  0
LINE
  5
713
100
AcDbEntity
  8
M2
100
AcDbLine
 10
69.444542
 20
396.553426
 11
75.444542
 21
396.553426
  0
LINE
  5
714
100
AcDbEntity
  8
M2
100
AcDbLine
 10
63.044542
 20
374.153426
 11
63.044542
 21
394.553426
  0
LINE
  5
715
100
AcDbEntity
  8
M2
100
AcDbLine
 10
64.044542
 20
373.153426
 11
80.844542
 21
373.153426
  0
LINE
  5
716
100
AcDbEntity
  8
M2
100
AcDbLine
 10
81.844542
 20
374.153426
 11
81.844542
 21
394.553426
  0
ARC
  5
717
100
AcDbEntity
  8
M2
100
AcDbCircle
 10
45.694542
 20
392.053426
 40
0.5
100
AcDbArc
 50
180.0
 51
270.0
  0
ARC
  5
718
100
AcDbEntity
  8
M2
100
AcDbCircle
 10
99.194542
 20
392.053426
 40
0.5
100
AcDbArc
 50
270.0
 51
360.0
  0
ARC
  5
719
100
AcDbEntity
  8
M2
100
AcDbCircle
 10
78.344542
 20
394.553426
 40
1.0
100
AcDbArc
 50
90.0
 51
180.0
  0
ARC
  5
71A
100
AcDbEntity
  8
M2
100
AcDbCircle
 10
66.544542
 20
394.553426
 40
1.0
100
AcDbArc
 50
0.0
 51
90.0
  0
LINE
  5
71B
100
AcDbEntity
  8
M2
100
AcDbLine
 10
80.844542
 20
395.553426
 11
78.344542
 21
395.553426
  0
ARC
  5
71C
100
AcDbEntity
  8
M2
100
AcDbCircle
 10
46.194542
 20
406.053426
 40
1.0
100
AcDbArc
 50
90.0
 51
180.0
  0
LINE
  5
71D
100
AcDbEntity
  8
M2
100
AcDbLine
 10
43.944542
 20
367.203426
 11
37.444542
 21
367.203426
  0
LINE
  5
71E
100
AcDbEntity
  8
M2
100
AcDbLine
 10
100.944542
 20
401.503426
 11
107.444542
 21
401.503426
  0
LINE
  5
71F
100
AcDbEntity
  8
M2
100
AcDbLine
 10
107.444542
 20
394.003426
 11
100.944542
 21
394.003426
  0
LINE
  5
720
100
AcDbEntity
  8
M2
100
AcDbLine
 10
107.944543
 20
401.003426
 11
107.944543
 21
394.503426
  0
ARC
  5
721
100
AcDbEntity
  8
M2
100
AcDbCircle
 10
107.444542
 20
366.603426
 40
0.5
100
AcDbArc
 50
0.0
 51
90.0
  0
ARC
  5
722
100
AcDbEntity
  8
M2
100
AcDbCircle
 10
107.444543
 20
360.103426
 40
0.5
100
AcDbArc
 50
270.0
 51
360.0
  0
ARC
  5
723
100
AcDbEntity
  8
M2
100
AcDbCircle
 10
100.944542
 20
394.503426
 40
0.5
100
AcDbArc
 50
180.0
 51
270.0
  0
ARC
  5
724
100
AcDbEntity
  8
M2
100
AcDbCircle
 10
107.444542
 20
394.503426
 40
0.5
100
AcDbArc
 50
270.0
 51
360.0
  0
ARC
  5
725
100
AcDbEntity
  8
M2
100
AcDbCircle
 10
100.944542
 20
366.603425
 40
0.5
100
AcDbArc
 50
90.0
 51
180.0
  0
ARC
  5
726
100
AcDbEntity
  8
M2
100
AcDbCircle
 10
107.444542
 20
401.003426
 40
0.5
100
AcDbArc
 50
0.0
 51
90.0
  0
ARC
  5
727
100
AcDbEntity
  8
M2
100
AcDbCircle
 10
100.944542
 20
401.003426
 40
0.5
100
AcDbArc
 50
90.0
 51
180.0
  0
ARC
  5
728
100
AcDbEntity
  8
M2
100
AcDbCircle
 10
37.444542
 20
367.703426
 40
0.5
100
AcDbArc
 50
180.0
 51
270.0
  0
LINE
  5
729
100
AcDbEntity
  8
M2
100
AcDbLine
 10
100.444543
 20
394.503426
 11
100.444543
 21
401.003427
  0
LINE
  5
72A
100
AcDbEntity
  8
M2
  6
DASHDOT
100
AcDbLine
 10
72.444542
 20
338.853426
 11
72.444542
 21
433.853427
  0
ARC
  5
72B
100
AcDbEntity
  8
M2
100
AcDbCircle
 10
67.644542
 20
388.62238
 40
0.5
100
AcDbArc
 50
90.0
 51
180.0
  0
ARC
  5
72C
100
AcDbEntity
  8
M2
100
AcDbCircle
 10
77.244542
 20
388.62238
 40
0.5
100
AcDbArc
 50
0.0
 51
90.0
  0
LINE
  5
72D
100
AcDbEntity
  8
M2
100
AcDbLine
 10
43.944542
 20
394.003426
 11
37.444543
 21
394.003426
  0
LINE
  5
72E
100
AcDbEntity
  8
M2
100
AcDbLine
 10
37.444542
 20
401.503426
 11
43.944542
 21
401.503426
  0
LINE
  5
72F
100
AcDbEntity
  8
M2
100
AcDbLine
 10
44.444541
 20
374.203426
 11
44.444541
 21
367.703426
  0
LINE
  5
730
100
AcDbEntity
  8
M2
100
AcDbLine
 10
107.444542
 20
367.203426
 11
100.944543
 21
367.203426
  0
LINE
  5
731
100
AcDbEntity
  8
M2
100
AcDbLine
 10
37.444542
 20
374.703426
 11
43.944542
 21
374.703426
  0
ARC
  5
732
100
AcDbEntity
  8
M2
100
AcDbCircle
 10
43.944542
 20
401.003426
 40
0.5
100
AcDbArc
 50
0.0
 51
90.0
  0
ARC
  5
733
100
AcDbEntity
  8
M2
100
AcDbCircle
 10
43.944542
 20
374.203426
 40
0.5
100
AcDbArc
 50
0.0
 51
90.0
  0
ARC
  5
734
100
AcDbEntity
  8
M2
100
AcDbCircle
 10
43.944542
 20
367.703426
 40
0.5
100
AcDbArc
 50
270.0
 51
360.0
  0
ARC
  5
735
100
AcDbEntity
  8
M2
100
AcDbCircle
 10
37.444542
 20
374.203426
 40
0.5
100
AcDbArc
 50
90.0
 51
180.0
  0
ARC
  5
736
100
AcDbEntity
  8
M2
100
AcDbCircle
 10
37.444542
 20
401.003425
 40
0.5
100
AcDbArc
 50
90.0
 51
180.0
  0
ARC
  5
737
100
AcDbEntity
  8
M2
100
AcDbCircle
 10
37.444543
 20
394.503425
 40
0.5
100
AcDbArc
 50
180.0
 51
270.0
  0
ARC
  5
738
100
AcDbEntity
  8
M2
100
AcDbCircle
 10
37.444543
 20
394.503425
 40
0.5
100
AcDbArc
 50
180.0
 51
270.0
  0
ARC
  5
739
100
AcDbEntity
  8
M2
100
AcDbCircle
 10
43.944543
 20
394.503426
 40
0.5
100
AcDbArc
 50
270.0
 51
360.0
  0
LINE
  5
73A
100
AcDbEntity
  8
M2
100
AcDbLine
 10
107.944543
 20
367.703427
 11
107.944543
 21
374.203426
  0
LINE
  5
73B
100
AcDbEntity
  8
M2
100
AcDbLine
 10
100.944542
 20
374.703426
 11
107.444542
 21
374.703426
  0
LINE
  5
73C
100
AcDbEntity
  8
M2
100
AcDbLine
 10
43.944542
 20
359.603426
 11
37.444542
 21
359.603426
  0
ARC
  5
73D
100
AcDbEntity
  8
M2
100
AcDbCircle
 10
107.444542
 20
374.203426
 40
0.5
100
AcDbArc
 50
0.0
 51
90.0
  0
ARC
  5
73E
100
AcDbEntity
  8
M2
100
AcDbCircle
 10
37.444542
 20
401.003425
 40
0.5
100
AcDbArc
 50
90.0
 51
180.0
  0
ARC
  5
73F
100
AcDbEntity
  8
M2
100
AcDbCircle
 10
100.944543
 20
367.703425
 40
0.5
100
AcDbArc
 50
180.0
 51
270.0
  0
ARC
  5
740
100
AcDbEntity
  8
M2
100
AcDbCircle
 10
100.944542
 20
374.203425
 40
0.5
100
AcDbArc
 50
90.0
 51
180.0
  0
ARC
  5
741
100
AcDbEntity
  8
M2
100
AcDbCircle
 10
107.444542
 20
374.203426
 40
0.5
100
AcDbArc
 50
0.0
 51
90.0
  0
ARC
  5
742
100
AcDbEntity
  8
M2
100
AcDbCircle
 10
107.444543
 20
367.703426
 40
0.5
100
AcDbArc
 50
270.0
 51
360.0
  0
ARC
  5
743
100
AcDbEntity
  8
M2
100
AcDbCircle
 10
107.444543
 20
367.703426
 40
0.5
100
AcDbArc
 50
270.0
 51
360.0
  0
LINE
  5
744
100
AcDbEntity
  8
M2
100
AcDbLine
 10
36.944541
 20
401.003425
 11
36.944541
 21
394.503425
  0
LINE
  5
745
100
AcDbEntity
  8
M2
100
AcDbLine
 10
107.944543
 20
366.603426
 11
107.944543
 21
360.103426
  0
LINE
  5
746
100
AcDbEntity
  8
M2
100
AcDbLine
 10
100.444543
 20
360.103425
 11
100.444543
 21
366.603425
  0
LINE
  5
747
100
AcDbEntity
  8
M2
100
AcDbLine
 10
100.944542
 20
367.103426
 11
107.444542
 21
367.103426
  0
LINE
  5
748
100
AcDbEntity
  8
M2
100
AcDbLine
 10
107.444543
 20
359.603426
 11
100.944542
 21
359.603426
  0
ARC
  5
749
100
AcDbEntity
  8
M2
100
AcDbCircle
 10
44.544542
 20
345.353426
 40
0.5
100
AcDbArc
 50
180.0
 51
270.0
  0
LINE
  5
74A
100
AcDbEntity
  8
M2
100
AcDbLine
 10
100.444543
 20
367.703425
 11
100.444543
 21
374.203425
  0
ARC
  5
74B
100
AcDbEntity
  8
M2
100
AcDbCircle
 10
100.894542
 20
423.853426
 40
2.0
100
AcDbArc
 50
90.0
 51
126.869898
  0
ARC
  5
74C
100
AcDbEntity
  8
M2
100
AcDbCircle
 10
43.994542
 20
423.853426
 40
2.0
100
AcDbArc
 50
53.130102
 51
90.0
  0
LINE
  5
74D
100
AcDbEntity
  8
M2
100
AcDbLine
 10
37.444542
 20
367.103426
 11
43.944542
 21
367.103426
  0
ARC
  5
74E
100
AcDbEntity
  8
M2
100
AcDbCircle
 10
37.444542
 20
360.103426
 40
0.5
100
AcDbArc
 50
180.0
 51
270.0
  0
ARC
  5
74F
100
AcDbEntity
  8
M2
100
AcDbCircle
 10
43.944542
 20
360.103426
 40
0.5
100
AcDbArc
 50
270.0
 51
360.0
  0
ARC
  5
750
100
AcDbEntity
  8
M2
100
AcDbCircle
 10
59.744542
 20
421.703426
 40
0.5
100
AcDbArc
 50
270.0
 51
360.0
  0
ARC
  5
751
100
AcDbEntity
  8
M2
100
AcDbCircle
 10
37.444542
 20
366.603426
 40
0.5
100
AcDbArc
 50
90.0
 51
180.0
  0
ARC
  5
752
100
AcDbEntity
  8
M2
100
AcDbCircle
 10
59.744542
 20
428.203426
 40
0.5
100
AcDbArc
 50
0.0
 51
90.0
  0
ARC
  5
753
100
AcDbEntity
  8
M2
100
AcDbCircle
 10
100.944543
 20
360.103425
 40
0.5
100
AcDbArc
 50
180.0
 51
270.0
  0
ARC
  5
754
100
AcDbEntity
  8
M2
100
AcDbCircle
 10
107.444542
 20
366.603426
 40
0.5
100
AcDbArc
 50
0.0
 51
90.0
  0
ARC
  5
755
100
AcDbEntity
  8
M2
100
AcDbCircle
 10
98.694542
 20
425.853426
 40
1.0
100
AcDbArc
 50
0.0
 51
90.0
  0
ARC
  5
756
100
AcDbEntity
  8
M2
100
AcDbCircle
 10
43.944542
 20
366.603426
 40
0.5
100
AcDbArc
 50
0.0
 51
90.0
  0
ARC
  5
757
100
AcDbEntity
  8
M2
100
AcDbCircle
 10
107.444543
 20
360.103426
 40
0.5
100
AcDbArc
 50
270.0
 51
360.0
  0
LINE
  5
758
100
AcDbEntity
  8
M2
100
AcDbLine
 10
59.744542
 20
421.203428
 11
58.394542
 21
421.203428
  0
LINE
  5
759
100
AcDbEntity
  8
M2
100
AcDbLine
 10
107.944543
 20
408.603427
 11
107.944543
 21
402.103426
  0
LINE
  5
75A
100
AcDbEntity
  8
M2
100
AcDbLine
 10
36.944541
 20
360.103425
 11
36.944541
 21
366.603426
  0
LINE
  5
75B
100
AcDbEntity
  8
M2
100
AcDbLine
 10
44.444541
 20
366.603426
 11
44.444541
 21
360.103425
  0
LINE
  5
75C
100
AcDbEntity
  8
M2
100
AcDbLine
 10
60.244542
 20
428.203426
 11
60.244542
 21
421.703425
  0
LINE
  5
75D
100
AcDbEntity
  8
M2
100
AcDbLine
 10
100.944542
 20
409.103426
 11
107.444542
 21
409.103426
  0
LINE
  5
75E
100
AcDbEntity
  8
M2
100
AcDbLine
 10
100.444543
 20
402.103427
 11
100.444543
 21
408.603426
  0
LINE
  5
75F
100
AcDbEntity
  8
M2
100
AcDbLine
 10
107.444542
 20
401.603426
 11
100.944542
 21
401.603426
  0
LINE
  5
760
100
AcDbEntity
  8
M2
100
AcDbLine
 10
57.844542
 20
428.703424
 11
59.744542
 21
428.703424
  0
LINE
  5
761
100
AcDbEntity
  8
M2
100
AcDbLine
 10
84.644543
 20
421.703425
 11
84.644539
 21
428.203425
  0
LINE
  5
762
100
AcDbEntity
  8
M2
100
AcDbLine
 10
96.994542
 20
342.853428
 11
96.994542
 21
344.853424
  0
LINE
  5
763
100
AcDbEntity
  8
M2
100
AcDbLine
 10
61.794542
 20
344.853424
 11
61.794542
 21
342.853428
  0
LINE
  5
764
100
AcDbEntity
  8
M2
100
AcDbLine
 10
109.09454
 20
364.253427
 11
109.194542
 21
364.253427
  0
LINE
  5
765
100
AcDbEntity
  8
M2
100
AcDbLine
 10
109.194542
 20
404.453425
 11
109.09454
 21
404.453425
  0
LINE
  5
766
100
AcDbEntity
  8
M2
100
AcDbLine
 10
35.694542
 20
404.453425
 11
35.794544
 21
404.453425
  0
LINE
  5
767
100
AcDbEntity
  8
M2
100
AcDbLine
 10
35.794544
 20
364.253427
 11
35.694542
 21
364.253427
  0
LINE
  5
768
100
AcDbEntity
  8
M2
100
AcDbLine
 10
86.494542
 20
421.203424
 11
85.144543
 21
421.203424
  0
LINE
  5
769
100
AcDbEntity
  8
M2
100
AcDbLine
 10
36.944541
 20
408.603425
 11
36.944541
 21
402.103425
  0
LINE
  5
76A
100
AcDbEntity
  8
M2
100
AcDbLine
 10
44.444543
 20
408.603426
 11
44.444543
 21
402.103427
  0
ARC
  5
76B
100
AcDbEntity
  8
M2
100
AcDbCircle
 10
85.144542
 20
428.203425
 40
0.5
100
AcDbArc
 50
90.0
 51
180.0
  0
ARC
  5
76C
100
AcDbEntity
  8
M2
100
AcDbCircle
 10
37.444543
 20
402.103425
 40
0.5
100
AcDbArc
 50
180.0
 51
270.0
  0
ARC
  5
76D
100
AcDbEntity
  8
M2
100
AcDbCircle
 10
85.144543
 20
421.703425
 40
0.5
100
AcDbArc
 50
180.0
 51
270.0
  0
ARC
  5
76E
100
AcDbEntity
  8
M2
100
AcDbCircle
 10
37.444542
 20
408.603425
 40
0.5
100
AcDbArc
 50
90.0
 51
180.0
  0
LINE
  5
76F
100
AcDbEntity
  8
M2
100
AcDbLine
 10
85.144542
 20
428.703428
 11
87.044542
 21
428.703428
  0
ARC
  5
770
100
AcDbEntity
  8
M2
100
AcDbCircle
 10
43.944543
 20
402.103426
 40
0.5
100
AcDbArc
 50
270.0
 51
360.0
  0
ARC
  5
771
100
AcDbEntity
  8
M2
100
AcDbCircle
 10
43.944542
 20
408.603426
 40
0.5
100
AcDbArc
 50
0.0
 51
90.0
  0
ARC
  5
772
100
AcDbEntity
  8
M2
100
AcDbCircle
 10
100.944542
 20
408.603426
 40
0.5
100
AcDbArc
 50
90.0
 51
180.0
  0
LINE
  5
773
100
AcDbEntity
  8
M2
100
AcDbLine
 10
43.944542
 20
401.603427
 11
37.444543
 21
401.60342
  0
ARC
  5
774
100
AcDbEntity
  8
M2
100
AcDbCircle
 10
107.444542
 20
402.103426
 40
0.5
100
AcDbArc
 50
270.0
 51
360.0
  0
ARC
  5
775
100
AcDbEntity
  8
M2
100
AcDbCircle
 10
107.444542
 20
408.603426
 40
0.5
100
AcDbArc
 50
0.0
 51
90.0
  0
ARC
  5
776
100
AcDbEntity
  8
M2
100
AcDbCircle
 10
37.444542
 20
408.603425
 40
0.5
100
AcDbArc
 50
90.0
 51
180.0
  0
ARC
  5
777
100
AcDbEntity
  8
M2
100
AcDbCircle
 10
37.444543
 20
402.103425
 40
0.5
100
AcDbArc
 50
180.0
 51
270.0
  0
ARC
  5
778
100
AcDbEntity
  8
M2
100
AcDbCircle
 10
100.944542
 20
402.103426
 40
0.5
100
AcDbArc
 50
180.0
 51
270.0
  0
LINE
  5
779
100
AcDbEntity
  8
M2
100
AcDbLine
 10
96.994542
 20
361.453426
 11
96.994542
 21
361.653425
  0
LINE
  5
77A
100
AcDbEntity
  8
M2
100
AcDbLine
 10
96.994542
 20
407.053427
 11
96.994542
 21
407.253426
  0
LINE
  5
77B
100
AcDbEntity
  8
M2
100
AcDbLine
 10
35.794544
 20
411.703425
 11
34.994541
 21
411.703425
  0
LINE
  5
77C
100
AcDbEntity
  8
M2
100
AcDbLine
 10
109.09454
 20
411.703425
 11
109.894543
 21
411.703425
  0
LINE
  5
77D
100
AcDbEntity
  8
M2
100
AcDbLine
 10
47.894542
 20
361.453426
 11
47.894542
 21
361.653425
  0
LINE
  5
77E
100
AcDbEntity
  8
M2
100
AcDbLine
 10
65.494542
 20
361.653425
 11
65.494542
 21
342.853426
  0
LINE
  5
77F
100
AcDbEntity
  8
M2
100
AcDbLine
 10
36.794542
 20
389.053426
 11
36.794542
 21
410.703427
  0
LINE
  5
780
100
AcDbEntity
  8
M2
100
AcDbLine
 10
44.594542
 20
375.163747
 11
44.594542
 21
357.603426
  0
LINE
  5
781
100
AcDbEntity
  8
M2
100
AcDbLine
 10
44.594542
 20
411.103426
 11
44.594542
 21
393.541673
  0
LINE
  5
782
100
AcDbEntity
  8
M2
100
AcDbLine
 10
100.294542
 20
393.653426
 11
108.094542
 21
393.653426
  0
LINE
  5
783
100
AcDbEntity
  8
M2
100
AcDbLine
 10
109.894543
 20
357.003427
 11
109.09454
 21
357.003427
  0
LINE
  5
784
100
AcDbEntity
  8
M2
100
AcDbLine
 10
104.594542
 20
388.053426
 11
104.594542
 21
380.653426
  0
ARC
  5
785
100
AcDbEntity
  8
M2
100
AcDbCircle
 10
97.252551
 20
373.759384
 40
3.350514
100
AcDbArc
 50
24.780822
 51
43.210715
  0
ARC
  5
786
100
AcDbEntity
  8
M2
100
AcDbCircle
 10
34.994542
 20
365.253426
 40
1.0
100
AcDbArc
 50
180.0
 51
270.0
  0
ARC
  5
787
100
AcDbEntity
  8
M2
100
AcDbCircle
 10
109.094542
 20
410.703426
 40
1.0
100
AcDbArc
 50
90.0
 51
180.0
  0
ARC
  5
788
100
AcDbEntity
  8
M2
100
AcDbCircle
 10
95.397674
 20
396.202682
 40
5.573176
100
AcDbArc
 50
320.442941
 51
331.479874
  0
ARC
  5
789
100
AcDbEntity
  8
M2
100
AcDbCircle
 10
49.49141
 20
396.202682
 40
5.573176
100
AcDbArc
 50
208.520126
 51
219.557059
  0
ARC
  5
78A
100
AcDbEntity
  8
M2
100
AcDbCircle
 10
45.194542
 20
403.853426
 40
0.6
100
AcDbArc
 50
90.0
 51
180.0
  0
ARC
  5
78B
100
AcDbEntity
  8
M2
100
AcDbCircle
 10
99.694542
 20
403.853426
 40
0.6
100
AcDbArc
 50
0.0
 51
90.0
  0
ARC
  5
78C
100
AcDbEntity
  8
M2
100
AcDbCircle
 10
34.994542
 20
410.703426
 40
1.0
100
AcDbArc
 50
90.0
 51
180.0
  0
ARC
  5
78D
100
AcDbEntity
  8
M2
100
AcDbCircle
 10
35.794542
 20
410.703426
 40
1.0
100
AcDbArc
 50
0.0
 51
90.0
  0
ARC
  5
78E
100
AcDbEntity
  8
M2
100
AcDbCircle
 10
109.094542
 20
358.003426
 40
1.0
100
AcDbArc
 50
180.0
 51
270.0
  0
LINE
  5
78F
100
AcDbEntity
  8
M2
100
AcDbLine
 10
109.894543
 20
364.253427
 11
109.09454
 21
364.253427
  0
LINE
  5
790
100
AcDbEntity
  8
M2
100
AcDbLine
 10
34.994541
 20
364.253427
 11
35.794544
 21
364.253427
  0
LINE
  5
791
100
AcDbEntity
  8
M2
100
AcDbLine
 10
40.294542
 20
388.053426
 11
40.294542
 21
380.653426
  0
LINE
  5
792
100
AcDbEntity
  8
M2
100
AcDbLine
 10
70.694542
 20
381.653426
 11
70.694542
 21
388.600932
  0
LINE
  5
793
100
AcDbEntity
  8
M2
100
AcDbLine
 10
77.744542
 20
389.053426
 11
77.744542
 21
380.558414
  0
LINE
  5
794
100
AcDbEntity
  8
M2
100
AcDbLine
 10
67.144542
 20
389.053426
 11
67.144542
 21
380.558414
  0
LINE
  5
795
100
AcDbEntity
  8
M2
100
AcDbLine
 10
77.744542
 20
380.060895
 11
77.744542
 21
380.558414
  0
LINE
  5
796
100
AcDbEntity
  8
M2
100
AcDbLine
 10
71.194542
 20
381.153426
 11
73.694542
 21
381.153426
  0
LINE
  5
797
100
AcDbEntity
  8
M2
100
AcDbLine
 10
67.144542
 20
380.060895
 11
67.144542
 21
380.558414
  0
LINE
  5
798
100
AcDbEntity
  8
M2
100
AcDbLine
 10
44.594542
 20
393.653426
 11
36.794542
 21
393.653426
  0
LINE
  5
799
100
AcDbEntity
  8
M2
100
AcDbLine
 10
109.09454
 20
388.053426
 11
104.594542
 21
388.053426
  0
LINE
  5
79A
100
AcDbEntity
  8
M2
100
AcDbLine
 10
100.294542
 20
411.103426
 11
100.294542
 21
393.569941
  0
LINE
  5
79B
100
AcDbEntity
  8
M2
100
AcDbLine
 10
34.994541
 20
380.653426
 11
40.294542
 21
380.653426
  0
LINE
  5
79C
100
AcDbEntity
  8
M2
100
AcDbLine
 10
108.094542
 20
375.053426
 11
100.294542
 21
375.053426
  0
LINE
  5
79D
100
AcDbEntity
  8
M2
100
AcDbLine
 10
104.594542
 20
380.653426
 11
109.09454
 21
380.653426
  0
LINE
  5
79E
100
AcDbEntity
  8
M2
100
AcDbLine
 10
36.794542
 20
375.053426
 11
44.594542
 21
375.053426
  0
LINE
  5
79F
100
AcDbEntity
  8
M2
100
AcDbLine
 10
96.994542
 20
422.853426
 11
96.994542
 21
423.853428
  0
LINE
  5
7A0
100
AcDbEntity
  8
M2
100
AcDbLine
 10
61.794542
 20
429.353428
 11
61.794542
 21
407.053427
  0
LINE
  5
7A1
100
AcDbEntity
  8
M2
100
AcDbLine
 10
96.994542
 20
344.853424
 11
96.994542
 21
345.853426
  0
LINE
  5
7A2
100
AcDbEntity
  8
M2
100
AcDbLine
 10
83.094542
 20
345.853426
 11
83.094542
 21
344.853424
  0
LINE
  5
7A3
100
AcDbEntity
  8
M2
100
AcDbLine
 10
47.894542
 20
344.853424
 11
47.894542
 21
345.853426
  0
LINE
  5
7A4
100
AcDbEntity
  8
M2
100
AcDbLine
 10
65.994542
 20
395.353426
 11
66.394542
 21
395.353426
  0
LINE
  5
7A5
100
AcDbEntity
  8
M2
100
AcDbLine
 10
78.494542
 20
395.353426
 11
78.894542
 21
395.353426
  0
LINE
  5
7A6
100
AcDbEntity
  8
M2
100
AcDbLine
 10
109.894543
 20
380.653426
 11
109.894543
 21
388.053426
  0
LINE
  5
7A7
100
AcDbEntity
  8
M2
100
AcDbLine
 10
108.594543
 20
388.053426
 11
108.594543
 21
380.653426
  0
LINE
  5
7A8
100
AcDbEntity
  8
M2
100
AcDbLine
 10
34.994541
 20
380.653426
 11
34.994541
 21
388.053426
  0
LINE
  5
7A9
100
AcDbEntity
  8
M2
100
AcDbLine
 10
36.294541
 20
388.053426
 11
36.294541
 21
380.653426
  0
LINE
  5
7AA
100
AcDbEntity
  8
M2
100
AcDbLine
 10
96.994542
 20
423.853428
 11
96.994542
 21
425.853424
  0
LINE
  5
7AB
100
AcDbEntity
  8
M2
100
AcDbLine
 10
47.894542
 20
407.053427
 11
47.894542
 21
425.853424
  0
LINE
  5
7AC
100
AcDbEntity
  8
M2
100
AcDbLine
 10
108.094542
 20
358.003425
 11
108.094542
 21
379.653426
  0
LINE
  5
7AD
100
AcDbEntity
  8
M2
100
AcDbLine
 10
100.294542
 20
375.163747
 11
100.294542
 21
357.603426
  0
LINE
  5
7AE
100
AcDbEntity
  8
M2
100
AcDbLine
 10
36.794542
 20
358.003425
 11
36.794542
 21
379.653426
  0
ARC
  5
7AF
100
AcDbEntity
  8
M2
100
AcDbCircle
 10
35.794542
 20
379.653426
 40
1.0
100
AcDbArc
 50
0.0
 51
90.0
  0
ARC
  5
7B0
100
AcDbEntity
  8
M2
100
AcDbCircle
 10
109.894542
 20
365.253426
 40
1.0
100
AcDbArc
 50
270.0
 51
360.0
  0
ARC
  5
7B1
100
AcDbEntity
  8
M2
100
AcDbCircle
 10
109.094542
 20
365.253426
 40
1.0
100
AcDbArc
 50
180.0
 51
270.0
  0
ARC
  5
7B2
100
AcDbEntity
  8
M2
100
AcDbCircle
 10
47.636534
 20
373.759384
 40
3.350514
100
AcDbArc
 50
136.789285
 51
155.219178
  0
ARC
  5
7B3
100
AcDbEntity
  8
M2
100
AcDbCircle
 10
45.194542
 20
364.853426
 40
0.6
100
AcDbArc
 50
180.0
 51
270.0
  0
ARC
  5
7B4
100
AcDbEntity
  8
M2
100
AcDbCircle
 10
35.794542
 20
365.253426
 40
1.0
100
AcDbArc
 50
270.0
 51
360.0
  0
LINE
  5
7B5
100
AcDbEntity
  8
M2
100
AcDbLine
 10
47.894542
 20
342.853428
 11
47.894542
 21
344.853424
  0
ARC
  5
7B6
100
AcDbEntity
  8
M2
100
AcDbCircle
 10
99.694542
 20
364.853426
 40
0.6
100
AcDbArc
 50
270.0
 51
360.0
  0
LINE
  5
7B7
100
AcDbEntity
  8
M2
100
AcDbLine
 10
83.094542
 20
344.853424
 11
83.094542
 21
342.853428
  0
LINE
  5
7B8
100
AcDbEntity
  8
M2
100
AcDbLine
 10
37.444542
 20
409.103426
 11
43.944542
 21
409.103426
  0
LINE
  5
7B9
100
AcDbEntity
  8
M2
100
AcDbLine
 10
74.194542
 20
381.653426
 11
74.194542
 21
388.600932
  0
LINE
  5
7BA
100
AcDbEntity
  8
M2
100
AcDbLine
 10
79.394542
 20
420.853425
 11
75.994542
 21
420.853425
  0
LINE
  5
7BB
100
AcDbEntity
  8
M2
100
AcDbLine
 10
77.744542
 20
388.62238
 11
77.744542
 21
388.600932
  0
LINE
  5
7BC
100
AcDbEntity
  8
M2
100
AcDbLine
 10
107.194542
 20
358.553425
 11
101.194543
 21
358.553425
  0
LINE
  5
7BD
100
AcDbEntity
  8
M2
100
AcDbLine
 10
107.194542
 20
359.603426
 11
107.194542
 21
358.553425
  0
LINE
  5
7BE
100
AcDbEntity
  8
M2
100
AcDbLine
 10
100.294542
 20
360.053426
 11
100.447048
 21
360.053426
  0
ARC
  5
7BF
100
AcDbEntity
  8
M2
100
AcDbCircle
 10
109.894542
 20
358.003426
 40
1.0
100
AcDbArc
 50
270.0
 51
360.0
  0
ARC
  5
7C0
100
AcDbEntity
  8
M2
100
AcDbCircle
 10
45.194542
 20
411.103426
 40
0.6
100
AcDbArc
 50
90.0
 51
180.0
  0
ARC
  5
7C1
100
AcDbEntity
  8
M2
100
AcDbCircle
 10
35.794542
 20
358.003426
 40
1.0
100
AcDbArc
 50
270.0
 51
360.0
  0
ARC
  5
7C2
100
AcDbEntity
  8
M2
100
AcDbCircle
 10
109.894542
 20
410.703426
 40
1.0
100
AcDbArc
 50
0.0
 51
90.0
  0
ARC
  5
7C3
100
AcDbEntity
  8
M2
100
AcDbCircle
 10
99.694542
 20
411.103426
 40
0.6
100
AcDbArc
 50
0.0
 51
90.0
  0
ARC
  5
7C4
100
AcDbEntity
  8
M2
100
AcDbCircle
 10
99.694542
 20
357.603426
 40
0.6
100
AcDbArc
 50
270.0
 51
360.0
  0
LINE
  5
7C5
100
AcDbEntity
  8
M2
100
AcDbLine
 10
70.694542
 20
388.600932
 11
70.694542
 21
388.62238
  0
LINE
  5
7C6
100
AcDbEntity
  8
M2
100
AcDbLine
 10
74.194542
 20
388.600932
 11
74.194542
 21
388.62238
  0
LINE
  5
7C7
100
AcDbEntity
  8
M2
100
AcDbLine
 10
67.144542
 20
388.62238
 11
67.144542
 21
388.600932
  0
LINE
  5
7C8
100
AcDbEntity
  8
M2
100
AcDbLine
 10
67.144542
 20
380.060895
 11
67.144542
 21
379.653426
  0
ARC
  5
7C9
100
AcDbEntity
  8
M2
100
AcDbCircle
 10
45.194542
 20
357.603426
 40
0.6
100
AcDbArc
 50
180.0
 51
270.0
  0
LINE
  5
7CA
100
AcDbEntity
  8
M2
100
AcDbLine
 10
101.194543
 20
358.553425
 11
101.194543
 21
359.603426
  0
LINE
  5
7CB
100
AcDbEntity
  8
M2
100
AcDbLine
 10
67.644542
 20
379.153426
 11
66.894542
 21
379.153426
  0
LINE
  5
7CC
100
AcDbEntity
  8
M2
100
AcDbLine
 10
77.744542
 20
380.060895
 11
77.744542
 21
379.653426
  0
LINE
  5
7CD
100
AcDbEntity
  8
M2
100
AcDbLine
 10
76.594542
 20
389.553426
 11
76.594542
 21
389.853426
  0
LINE
  5
7CE
100
AcDbEntity
  8
M2
100
AcDbLine
 10
66.894542
 20
389.553426
 11
77.994542
 21
389.553426
  0
LINE
  5
7CF
100
AcDbEntity
  8
M2
100
AcDbLine
 10
67.644542
 20
379.153426
 11
77.244542
 21
379.153426
  0
LINE
  5
7D0
100
AcDbEntity
  8
M2
100
AcDbLine
 10
83.094542
 20
417.553425
 11
83.094542
 21
420.353424
  0
LINE
  5
7D1
100
AcDbEntity
  8
M2
100
AcDbLine
 10
68.294542
 20
389.553426
 11
68.294542
 21
389.853426
  0
LINE
  5
7D2
100
AcDbEntity
  8
M2
100
AcDbLine
 10
58.39454
 20
347.853427
 11
61.794542
 21
347.853427
  0
LINE
  5
7D3
100
AcDbEntity
  8
M2
100
AcDbLine
 10
76.594542
 20
378.653426
 11
76.594542
 21
379.153426
  0
LINE
  5
7D4
100
AcDbEntity
  8
M2
100
AcDbLine
 10
86.494542
 20
420.853425
 11
83.094542
 21
420.853425
  0
LINE
  5
7D5
100
AcDbEntity
  8
M2
100
AcDbLine
 10
94.01752
 20
347.853427
 11
96.994542
 21
347.853427
  0
LINE
  5
7D6
100
AcDbEntity
  8
M2
100
AcDbLine
 10
76.073311
 20
347.853427
 11
79.394542
 21
347.853427
  0
LINE
  5
7D7
100
AcDbEntity
  8
M2
100
AcDbLine
 10
96.994542
 20
420.853425
 11
93.594542
 21
420.853425
  0
LINE
  5
7D8
100
AcDbEntity
  8
M2
100
AcDbLine
 10
83.094542
 20
347.853427
 11
86.702715
 21
347.853427
  0
LINE
  5
7D9
100
AcDbEntity
  8
M2
100
AcDbLine
 10
65.494542
 20
347.853427
 11
68.815773
 21
347.853427
  0
LINE
  5
7DA
100
AcDbEntity
  8
M2
100
AcDbLine
 10
68.294542
 20
378.653426
 11
68.294542
 21
379.153426
  0
LINE
  5
7DB
100
AcDbEntity
  8
M2
100
AcDbLine
 10
47.894542
 20
347.853427
 11
50.871564
 21
347.853427
  0
LINE
  5
7DC
100
AcDbEntity
  8
M2
100
AcDbLine
 10
77.244542
 20
379.153426
 11
77.994542
 21
379.153426
  0
ARC
  5
7DD
100
AcDbEntity
  8
M2
100
AcDbCircle
 10
67.644542
 20
389.053426
 40
0.5
100
AcDbArc
 50
90.0
 51
180.0
  0
ARC
  5
7DE
100
AcDbEntity
  8
M2
100
AcDbCircle
 10
67.644542
 20
379.653426
 40
0.5
100
AcDbArc
 50
180.0
 51
270.0
  0
ARC
  5
7DF
100
AcDbEntity
  8
M2
100
AcDbCircle
 10
73.694542
 20
381.653426
 40
0.5
100
AcDbArc
 50
270.0
 51
360.0
  0
LINE
  5
7E0
100
AcDbEntity
  8
M2
100
AcDbLine
 10
100.294542
 20
367.153425
 11
108.094542
 21
367.153425
  0
LINE
  5
7E1
100
AcDbEntity
  8
M2
100
AcDbLine
 10
60.294542
 20
429.353428
 11
57.844542
 21
429.353428
  0
LINE
  5
7E2
100
AcDbEntity
  8
M2
100
AcDbLine
 10
87.044542
 20
429.353428
 11
84.594542
 21
429.353428
  0
LINE
  5
7E3
100
AcDbEntity
  8
M2
100
AcDbLine
 10
66.394542
 20
395.353426
 11
64.244542
 21
395.353426
  0
ARC
  5
7E4
100
AcDbEntity
  8
M2
100
AcDbCircle
 10
77.244542
 20
379.653426
 40
0.5
100
AcDbArc
 50
270.0
 51
360.0
  0
ARC
  5
7E5
100
AcDbEntity
  8
M2
100
AcDbCircle
 10
71.194542
 20
381.653426
 40
0.5
100
AcDbArc
 50
180.0
 51
270.0
  0
ARC
  5
7E6
100
AcDbEntity
  8
M2
100
AcDbCircle
 10
77.244542
 20
389.053426
 40
0.5
100
AcDbArc
 50
0.0
 51
90.0
  0
ARC
  5
7E7
100
AcDbEntity
  8
M2
100
AcDbCircle
 10
59.594542
 20
421.553426
 40
0.6
100
AcDbArc
 50
215.685335
 51
270.0
  0
ARC
  5
7E8
100
AcDbEntity
  8
M2
100
AcDbCircle
 10
85.294542
 20
421.553426
 40
0.6
100
AcDbArc
 50
187.490122
 51
324.314617
  0
ARC
  5
7E9
100
AcDbEntity
  8
M2
100
AcDbCircle
 10
46.194542
 20
342.853426
 40
1.0
100
AcDbArc
 50
180.0
 51
270.0
  0
ARC
  5
7EA
100
AcDbEntity
  8
M2
100
AcDbCircle
 10
109.094542
 20
403.453426
 40
1.0
100
AcDbArc
 50
90.0
 51
180.0
  0
ARC
  5
7EB
100
AcDbEntity
  8
M2
100
AcDbCircle
 10
97.994542
 20
342.853426
 40
1.0
100
AcDbArc
 50
180.0
 51
270.0
  0
ARC
  5
7EC
100
AcDbEntity
  8
M2
100
AcDbCircle
 10
46.894542
 20
342.853426
 40
1.0
100
AcDbArc
 50
270.0
 51
360.0
  0
ARC
  5
7ED
100
AcDbEntity
  8
M2
100
AcDbCircle
 10
109.094542
 20
379.653426
 40
1.0
100
AcDbArc
 50
90.0
 51
180.0
  0
ARC
  5
7EE
100
AcDbEntity
  8
M2
100
AcDbCircle
 10
82.094542
 20
342.853426
 40
1.0
100
AcDbArc
 50
270.0
 51
360.0
  0
ARC
  5
7EF
100
AcDbEntity
  8
M2
100
AcDbCircle
 10
62.794542
 20
342.853426
 40
1.0
100
AcDbArc
 50
180.0
 51
270.0
  0
ARC
  5
7F0
100
AcDbEntity
  8
M2
100
AcDbCircle
 10
35.794542
 20
389.053426
 40
1.0
100
AcDbArc
 50
270.0
 51
360.0
  0
ARC
  5
7F1
100
AcDbEntity
  8
M2
100
AcDbCircle
 10
109.894542
 20
403.453426
 40
1.0
100
AcDbArc
 50
0.0
 51
90.0
  0
ARC
  5
7F2
100
AcDbEntity
  8
M2
100
AcDbCircle
 10
59.594542
 20
421.553426
 40
0.6
100
AcDbArc
 50
270.0
 51
352.509835
  0
ARC
  5
7F3
100
AcDbEntity
  8
M2
100
AcDbCircle
 10
109.094542
 20
389.053426
 40
1.0
100
AcDbArc
 50
180.0
 51
270.0
  0
ARC
  5
7F4
100
AcDbEntity
  8
M2
100
AcDbCircle
 10
109.894542
 20
389.053426
 40
1.0
100
AcDbArc
 50
270.0
 51
360.0
  0
ARC
  5
7F5
100
AcDbEntity
  8
M2
100
AcDbCircle
 10
34.994542
 20
403.453426
 40
1.0
100
AcDbArc
 50
90.0
 51
180.0
  0
LINE
  5
7F6
100
AcDbEntity
  8
M2
100
AcDbLine
 10
77.494542
 20
393.853426
 11
67.394542
 21
393.853426
  0
LINE
  5
7F7
100
AcDbEntity
  8
M2
100
AcDbLine
 10
77.994542
 20
389.853426
 11
66.894542
 21
389.853426
  0
LINE
  5
7F8
100
AcDbEntity
  8
M2
100
AcDbLine
 10
97.994542
 20
426.853426
 11
98.494538
 21
426.853426
  0
LINE
  5
7F9
100
AcDbEntity
  8
M2
100
AcDbLine
 10
67.394542
 20
390.353426
 11
77.494542
 21
390.353426
  0
LINE
  5
7FA
100
AcDbEntity
  8
M2
100
AcDbLine
 10
46.894542
 20
426.853426
 11
46.194542
 21
426.853426
  0
LINE
  5
7FB
100
AcDbEntity
  8
M2
100
AcDbLine
 10
98.694541
 20
379.653426
 11
100.694542
 21
379.653426
  0
LINE
  5
7FC
100
AcDbEntity
  8
M2
100
AcDbLine
 10
96.994542
 20
407.053427
 11
96.994542
 21
425.853424
  0
LINE
  5
7FD
100
AcDbEntity
  8
M2
100
AcDbLine
 10
65.494542
 20
407.053427
 11
65.494542
 21
425.853424
  0
LINE
  5
7FE
100
AcDbEntity
  8
M2
100
AcDbLine
 10
99.694541
 20
342.853426
 11
99.694541
 21
378.153426
  0
LINE
  5
7FF
100
AcDbEntity
  8
M2
100
AcDbLine
 10
79.394542
 20
407.053427
 11
79.394542
 21
425.853424
  0
LINE
  5
800
100
AcDbEntity
  8
M2
100
AcDbLine
 10
80.394543
 20
426.853426
 11
82.094542
 21
426.853426
  0
LINE
  5
801
100
AcDbEntity
  8
M2
100
AcDbLine
 10
97.994542
 20
361.453426
 11
97.994542
 21
361.653425
  0
LINE
  5
802
100
AcDbEntity
  8
M2
100
AcDbLine
 10
64.494542
 20
426.853426
 11
62.794542
 21
426.853426
  0
LINE
  5
803
100
AcDbEntity
  8
M2
100
AcDbLine
 10
98.494538
 20
426.853426
 11
98.694541
 21
426.853426
  0
LINE
  5
804
100
AcDbEntity
  8
M2
100
AcDbLine
 10
100.694542
 20
389.053426
 11
98.694541
 21
389.053426
  0
LINE
  5
805
100
AcDbEntity
  8
M2
100
AcDbLine
 10
97.994542
 20
407.053427
 11
97.994542
 21
407.253426
  0
LINE
  5
806
100
AcDbEntity
  8
M2
100
AcDbLine
 10
107.875741
 20
354.102374
 11
106.446198
 21
354.103426
  0
LINE
  5
807
100
AcDbEntity
  8
M2
100
AcDbLine
 10
96.044543
 20
346.853424
 11
96.994542
 21
346.853424
  0
LINE
  5
808
100
AcDbEntity
  8
M2
100
AcDbLine
 10
99.694541
 20
390.553426
 11
99.694541
 21
425.853426
  0
LINE
  5
809
100
AcDbEntity
  8
M2
100
AcDbLine
 10
46.894542
 20
407.253426
 11
47.894542
 21
407.253426
  0
LINE
  5
80A
100
AcDbEntity
  8
M2
100
AcDbLine
 10
107.488545
 20
349.603721
 11
107.981018
 21
349.603721
  0
LINE
  5
80B
100
AcDbEntity
  8
M2
100
AcDbLine
 10
46.194543
 20
379.653426
 11
44.194543
 21
379.653426
  0
LINE
  5
80C
100
AcDbEntity
  8
M2
100
AcDbLine
 10
45.194543
 20
378.153426
 11
45.194543
 21
342.853426
  0
LINE
  5
80D
100
AcDbEntity
  8
M2
100
AcDbLine
 10
97.994542
 20
407.253426
 11
96.994542
 21
407.253426
  0
LINE
  5
80E
100
AcDbEntity
  8
M2
100
AcDbLine
 10
46.894542
 20
361.453426
 11
46.894542
 21
361.653425
  0
ARC
  5
80F
100
AcDbEntity
  8
M2
100
AcDbCircle
 10
62.794542
 20
425.853426
 40
1.0
100
AcDbArc
 50
90.0
 51
180.0
  0
ARC
  5
810
100
AcDbEntity
  8
M2
100
AcDbCircle
 10
64.494542
 20
425.853426
 40
1.0
100
AcDbArc
 50
0.0
 51
90.0
  0
ARC
  5
811
100
AcDbEntity
  8
M2
100
AcDbCircle
 10
107.488544
 20
349.303722
 40
0.3
100
AcDbArc
 50
90.0
 51
180.0
  0
ARC
  5
812
100
AcDbEntity
  8
M2
100
AcDbCircle
 10
107.944542
 20
351.853426
 40
2.25
100
AcDbArc
 50
270.928845
 51
451.752277
  0
ARC
  5
813
100
AcDbEntity
  8
M2
100
AcDbCircle
 10
46.194542
 20
425.853426
 40
1.0
100
AcDbArc
 50
90.0
 51
180.0
  0
ARC
  5
814
100
AcDbEntity
  8
M2
100
AcDbCircle
 10
46.894542
 20
425.853426
 40
1.0
100
AcDbArc
 50
0.0
 51
90.0
  0
ARC
  5
815
100
AcDbEntity
  8
M2
100
AcDbCircle
 10
80.394542
 20
425.853426
 40
1.0
100
AcDbArc
 50
90.0
 51
180.0
  0
ARC
  5
816
100
AcDbEntity
  8
M2
100
AcDbCircle
 10
97.994542
 20
425.853426
 40
1.0
100
AcDbArc
 50
90.0
 51
180.0
  0
LINE
  5
817
100
AcDbEntity
  8
M2
100
AcDbLine
 10
107.188544
 20
349.189237
 11
107.188544
 21
349.303723
  0
LINE
  5
818
100
AcDbEntity
  8
M2
100
AcDbLine
 10
104.19603
 20
351.935246
 11
104.19603
 21
351.903424
  0
LINE
  5
819
100
AcDbEntity
  8
M2
100
AcDbLine
 10
111.394542
 20
355.553426
 11
111.394542
 21
344.853424
  0
LINE
  5
81A
100
AcDbEntity
  8
M2
100
AcDbLine
 10
62.294542
 20
408.753425
 11
64.994542
 21
408.753425
  0
LINE
  5
81B
100
AcDbEntity
  8
M2
100
AcDbLine
 10
45.194543
 20
425.853426
 11
45.194543
 21
390.553426
  0
ARC
  5
81C
100
AcDbEntity
  8
M2
100
AcDbCircle
 10
82.094542
 20
425.853426
 40
1.0
100
AcDbArc
 50
0.0
 51
90.0
  0
LINE
  5
81D
100
AcDbEntity
  8
M2
100
AcDbLine
 10
63.244542
 20
390.453426
 11
64.744542
 21
388.953426
  0
LINE
  5
81E
100
AcDbEntity
  8
M2
100
AcDbLine
 10
46.194543
 20
382.853426
 11
45.194543
 21
382.853426
  0
LINE
  5
81F
100
AcDbEntity
  8
M2
100
AcDbLine
 10
98.694541
 20
361.653425
 11
46.194543
 21
361.653425
  0
LINE
  5
820
100
AcDbEntity
  8
M2
100
AcDbLine
 10
66.894542
 20
374.853426
 11
77.994542
 21
374.853426
  0
LINE
  5
821
100
AcDbEntity
  8
M2
100
AcDbLine
 10
77.994542
 20
377.153426
 11
66.894542
 21
377.153426
  0
LINE
  5
822
100
AcDbEntity
  8
M2
100
AcDbLine
 10
66.894542
 20
378.653426
 11
77.994542
 21
378.653426
  0
LINE
  5
823
100
AcDbEntity
  8
M2
100
AcDbLine
 10
45.694542
 20
377.153426
 11
46.194543
 21
377.153426
  0
LINE
  5
824
100
AcDbEntity
  8
M2
100
AcDbLine
 10
45.194543
 20
385.853426
 11
45.194543
 21
385.753426
  0
LINE
  5
825
100
AcDbEntity
  8
M2
100
AcDbLine
 10
45.194543
 20
382.953426
 11
45.194543
 21
382.853426
  0
LINE
  5
826
100
AcDbEntity
  8
M2
100
AcDbLine
 10
78.494542
 20
395.353426
 11
80.644542
 21
395.353426
  0
LINE
  5
827
100
AcDbEntity
  8
M2
100
AcDbLine
 10
63.244542
 20
394.353426
 11
63.244542
 21
374.020322
  0
LINE
  5
828
100
AcDbEntity
  8
M2
100
AcDbLine
 10
77.494542
 20
390.353426
 11
77.494542
 21
394.353426
  0
LINE
  5
829
100
AcDbEntity
  8
M2
100
AcDbLine
 10
67.394542
 20
390.353426
 11
67.394542
 21
394.353426
  0
LINE
  5
82A
100
AcDbEntity
  8
M2
100
AcDbLine
 10
45.194543
 20
379.853426
 11
46.194543
 21
379.853426
  0
LINE
  5
82B
100
AcDbEntity
  8
M2
100
AcDbLine
 10
77.994542
 20
387.603426
 11
77.994542
 21
389.853426
  0
LINE
  5
82C
100
AcDbEntity
  8
M2
100
AcDbLine
 10
80.644542
 20
373.353426
 11
78.994542
 21
373.353426
  0
LINE
  5
82D
100
AcDbEntity
  8
M2
100
AcDbLine
 10
81.644542
 20
390.453426
 11
80.144542
 21
388.953426
  0
LINE
  5
82E
100
AcDbEntity
  8
M2
100
AcDbLine
 10
66.894542
 20
389.853426
 11
66.894542
 21
387.603426
  0
LINE
  5
82F
100
AcDbEntity
  8
M2
100
AcDbLine
 10
98.694541
 20
377.153426
 11
99.194542
 21
377.153426
  0
LINE
  5
830
100
AcDbEntity
  8
M2
100
AcDbLine
 10
81.644542
 20
394.353426
 11
81.644542
 21
374.353426
  0
LINE
  5
831
100
AcDbEntity
  8
M2
100
AcDbLine
 10
64.244542
 20
377.853426
 11
64.744542
 21
377.853426
  0
LINE
  5
832
100
AcDbEntity
  8
M2
100
AcDbLine
 10
77.994542
 20
374.353426
 11
77.994542
 21
381.103426
  0
LINE
  5
833
100
AcDbEntity
  8
M2
100
AcDbLine
 10
46.894542
 20
407.053427
 11
46.894542
 21
407.253426
  0
LINE
  5
834
100
AcDbEntity
  8
M2
100
AcDbLine
 10
64.744542
 20
373.353426
 11
64.244542
 21
373.353426
  0
LINE
  5
835
100
AcDbEntity
  8
M2
100
AcDbLine
 10
77.994542
 20
381.103426
 11
78.244542
 21
381.603426
  0
LINE
  5
836
100
AcDbEntity
  8
M2
100
AcDbLine
 10
66.894542
 20
381.103426
 11
66.894542
 21
374.353426
  0
LINE
  5
837
100
AcDbEntity
  8
M2
100
AcDbLine
 10
66.644542
 20
381.603426
 11
66.894542
 21
381.103426
  0
ARC
  5
838
100
AcDbEntity
  8
M2
100
AcDbCircle
 10
108.394542
 20
344.853426
 40
3.0
100
AcDbArc
 50
270.0
 51
360.0
  0
ARC
  5
839
100
AcDbEntity
  8
M2
100
AcDbCircle
 10
106.444542
 20
351.853426
 40
2.25
100
AcDbArc
 50
89.957854
 51
177.916058
  0
ARC
  5
83A
100
AcDbEntity
  8
M2
100
AcDbCircle
 10
36.994542
 20
344.853426
 40
3.0
100
AcDbArc
 50
180.0
 51
270.0
  0
LINE
  5
83B
100
AcDbEntity
  8
M2
100
AcDbLine
 10
44.194543
 20
389.053426
 11
46.194543
 21
389.053426
  0
ARC
  5
83C
100
AcDbEntity
  8
M2
100
AcDbCircle
 10
35.794542
 20
403.453426
 40
1.0
100
AcDbArc
 50
0.0
 51
90.0
  0
LINE
  5
83D
100
AcDbEntity
  8
M2
100
AcDbLine
 10
78.994542
 20
373.353426
 11
65.894542
 21
373.353426
  0
LINE
  5
83E
100
AcDbEntity
  8
M2
100
AcDbLine
 10
80.144542
 20
388.953426
 11
80.144542
 21
377.853426
  0
LINE
  5
83F
100
AcDbEntity
  8
M2
100
AcDbLine
 10
65.894542
 20
373.353426
 11
64.244542
 21
373.353426
  0
LINE
  5
840
100
AcDbEntity
  8
M2
100
AcDbLine
 10
80.144542
 20
373.353426
 11
80.644542
 21
373.353426
  0
LINE
  5
841
100
AcDbEntity
  8
M2
100
AcDbLine
 10
65.744542
 20
395.353426
 11
64.244542
 21
395.353426
  0
LINE
  5
842
100
AcDbEntity
  8
M2
100
AcDbLine
 10
66.644542
 20
387.103426
 11
66.644542
 21
381.603426
  0
LINE
  5
843
100
AcDbEntity
  8
M2
100
AcDbLine
 10
78.244542
 20
387.103426
 11
77.994542
 21
387.603426
  0
ARC
  5
844
100
AcDbEntity
  8
M2
100
AcDbCircle
 10
103.89603
 20
351.903426
 40
0.3
100
AcDbArc
 50
270.0
 51
360.0
  0
LINE
  5
845
100
AcDbEntity
  8
M2
100
AcDbLine
 10
64.744542
 20
388.953426
 11
64.744542
 21
377.853426
  0
LINE
  5
846
100
AcDbEntity
  8
M2
100
AcDbLine
 10
78.244542
 20
381.603426
 11
78.244542
 21
387.103426
  0
LINE
  5
847
100
AcDbEntity
  8
M2
100
AcDbLine
 10
80.144542
 20
377.853426
 11
80.644542
 21
377.853426
  0
LINE
  5
848
100
AcDbEntity
  8
M2
100
AcDbLine
 10
66.894542
 20
387.603426
 11
66.644542
 21
387.103426
  0
LINE
  5
849
100
AcDbEntity
  8
M2
100
AcDbLine
 10
43.694542
 20
359.603426
 11
43.694542
 21
358.553425
  0
LINE
  5
84A
100
AcDbEntity
  8
M2
100
AcDbLine
 10
37.694542
 20
358.553425
 11
37.694542
 21
359.603426
  0
LINE
  5
84B
100
AcDbEntity
  8
M2
100
AcDbLine
 10
84.594542
 20
429.853425
 11
84.594542
 21
420.853425
  0
LINE
  5
84C
100
AcDbEntity
  8
M2
100
AcDbLine
 10
50.994542
 20
430.853427
 11
51.844542
 21
430.853427
  0
LINE
  5
84D
100
AcDbEntity
  8
M2
100
AcDbLine
 10
108.094542
 20
401.553427
 11
100.294542
 21
401.553427
  0
LINE
  5
84E
100
AcDbEntity
  8
M2
100
AcDbLine
 10
83.094542
 20
429.353428
 11
75.444542
 21
429.353428
  0
LINE
  5
84F
100
AcDbEntity
  8
M2
100
AcDbLine
 10
44.594542
 20
401.553427
 11
36.794542
 21
401.553427
  0
LINE
  5
850
100
AcDbEntity
  8
M2
100
AcDbLine
 10
43.694542
 20
358.553425
 11
37.694542
 21
358.553425
  0
LINE
  5
851
100
AcDbEntity
  8
M2
100
AcDbLine
 10
79.144542
 20
395.353426
 11
80.644542
 21
395.353426
  0
ARC
  5
852
100
AcDbEntity
  8
M2
100
AcDbCircle
 10
65.894542
 20
374.353426
 40
1.0
100
AcDbArc
 50
270.0
 51
360.0
  0
ARC
  5
853
100
AcDbEntity
  8
M2
100
AcDbCircle
 10
78.994542
 20
374.353426
 40
1.0
100
AcDbArc
 50
180.0
 51
270.0
  0
ARC
  5
854
100
AcDbEntity
  8
M2
100
AcDbCircle
 10
98.694542
 20
362.653426
 40
1.0
100
AcDbArc
 50
270.0
 51
360.0
  0
ARC
  5
855
100
AcDbEntity
  8
M2
100
AcDbCircle
 10
80.644542
 20
374.353426
 40
1.0
100
AcDbArc
 50
270.0
 51
360.0
  0
ARC
  5
856
100
AcDbEntity
  8
M2
100
AcDbCircle
 10
64.244542
 20
374.353426
 40
1.0
100
AcDbArc
 50
180.0
 51
270.0
  0
ARC
  5
857
100
AcDbEntity
  8
M2
100
AcDbCircle
 10
45.694542
 20
376.653426
 40
0.5
100
AcDbArc
 50
90.0
 51
180.0
  0
ARC
  5
858
100
AcDbEntity
  8
M2
100
AcDbCircle
 10
80.644542
 20
394.353426
 40
1.0
100
AcDbArc
 50
0.0
 51
90.0
  0
ARC
  5
859
100
AcDbEntity
  8
M2
100
AcDbCircle
 10
66.894542
 20
390.353426
 40
0.5
100
AcDbArc
 50
270.0
 51
360.0
  0
ARC
  5
85A
100
AcDbEntity
  8
M2
100
AcDbCircle
 10
64.244542
 20
394.353426
 40
1.0
100
AcDbArc
 50
90.0
 51
180.0
  0
ARC
  5
85B
100
AcDbEntity
  8
M2
100
AcDbCircle
 10
46.194542
 20
362.653426
 40
1.0
100
AcDbArc
 50
180.0
 51
270.0
  0
ARC
  5
85C
100
AcDbEntity
  8
M2
100
AcDbCircle
 10
64.244542
 20
376.853426
 40
1.0
100
AcDbArc
 50
90.0
 51
180.0
  0
LINE
  5
85D
100
AcDbEntity
  8
M2
100
AcDbLine
 10
83.094542
 20
407.053427
 11
83.094542
 21
429.353428
  0
ARC
  5
85E
100
AcDbEntity
  8
M2
100
AcDbCircle
 10
99.194542
 20
376.653426
 40
0.5
100
AcDbArc
 50
0.0
 51
90.0
  0
LINE
  5
85F
100
AcDbEntity
  8
M2
100
AcDbLine
 10
60.294542
 20
420.853425
 11
60.294542
 21
429.853425
  0
LINE
  5
860
100
AcDbEntity
  8
M2
100
AcDbLine
 10
37.694542
 20
410.153427
 11
43.694542
 21
410.153427
  0
LINE
  5
861
100
AcDbEntity
  8
M2
100
AcDbLine
 10
43.694542
 20
410.153427
 11
43.694542
 21
409.103426
  0
LINE
  5
862
100
AcDbEntity
  8
M2
100
AcDbLine
 10
37.694542
 20
409.103426
 11
37.694542
 21
410.153427
  0
LINE
  5
863
100
AcDbEntity
  8
M2
100
AcDbLine
 10
101.194543
 20
410.153427
 11
107.194542
 21
410.153427
  0
LINE
  5
864
100
AcDbEntity
  8
M2
100
AcDbLine
 10
107.194542
 20
410.153427
 11
107.194542
 21
409.103426
  0
LINE
  5
865
100
AcDbEntity
  8
M2
100
AcDbLine
 10
36.947048
 20
408.653426
 11
36.794542
 21
408.653426
  0
LINE
  5
866
100
AcDbEntity
  8
M2
100
AcDbLine
 10
101.194543
 20
409.103426
 11
101.194543
 21
410.153427
  0
ARC
  5
867
100
AcDbEntity
  8
M2
100
AcDbCircle
 10
83.594542
 20
429.853426
 40
1.0
100
AcDbArc
 50
0.0
 51
90.0
  0
LINE
  5
868
100
AcDbEntity
  8
M2
100
AcDbLine
 10
82.094542
 20
341.853426
 11
81.594546
 21
341.853426
  0
ARC
  5
869
100
AcDbEntity
  8
M2
100
AcDbCircle
 10
61.294542
 20
429.853426
 40
1.0
100
AcDbArc
 50
90.0
 51
180.0
  0
LINE
  5
86A
100
AcDbEntity
  8
M2
100
AcDbLine
 10
81.594546
 20
341.853426
 11
80.394543
 21
341.853426
  0
LINE
  5
86B
100
AcDbEntity
  8
M2
100
AcDbLine
 10
96.994542
 20
342.853428
 11
96.994542
 21
346.853424
  0
LINE
  5
86C
100
AcDbEntity
  8
M2
100
AcDbLine
 10
47.894542
 20
342.853428
 11
47.894542
 21
346.853424
  0
LINE
  5
86D
100
AcDbEntity
  8
M2
100
AcDbLine
 10
100.694542
 20
382.953426
 11
98.994543
 21
382.953426
  0
LINE
  5
86E
100
AcDbEntity
  8
M2
100
AcDbLine
 10
65.494542
 20
407.253426
 11
61.794542
 21
407.253426
  0
LINE
  5
86F
100
AcDbEntity
  8
M2
100
AcDbLine
 10
83.094542
 20
346.853424
 11
83.094542
 21
342.853428
  0
LINE
  5
870
100
AcDbEntity
  8
M2
100
AcDbLine
 10
98.994543
 20
385.753426
 11
100.694542
 21
385.753426
  0
LINE
  5
871
100
AcDbEntity
  8
M2
100
AcDbLine
 10
79.394542
 20
407.253426
 11
83.094542
 21
407.253426
  0
LINE
  5
872
100
AcDbEntity
  8
M2
100
AcDbLine
 10
61.794542
 20
361.653425
 11
61.794542
 21
342.853428
  0
LINE
  5
873
100
AcDbEntity
  8
M2
100
AcDbLine
 10
45.894542
 20
382.953426
 11
45.894542
 21
385.753426
  0
LINE
  5
874
100
AcDbEntity
  8
M2
100
AcDbLine
 10
98.994543
 20
382.953426
 11
98.994543
 21
385.753426
  0
LINE
  5
875
100
AcDbEntity
  8
M2
100
AcDbLine
 10
61.794542
 20
361.453426
 11
65.494542
 21
361.453426
  0
LINE
  5
876
100
AcDbEntity
  8
M2
100
AcDbLine
 10
83.094542
 20
361.453426
 11
79.394542
 21
361.453426
  0
LINE
  5
877
100
AcDbEntity
  8
M2
100
AcDbLine
 10
79.394542
 20
361.653425
 11
79.394542
 21
359.453425
  0
LINE
  5
878
100
AcDbEntity
  8
M2
100
AcDbLine
 10
83.094542
 20
359.453425
 11
83.094542
 21
361.653425
  0
LINE
  5
879
100
AcDbEntity
  8
M2
100
AcDbLine
 10
109.09454
 20
404.453425
 11
109.894543
 21
404.453425
  0
LINE
  5
87A
100
AcDbEntity
  8
M2
100
AcDbLine
 10
109.09454
 20
388.053426
 11
109.894543
 21
388.053426
  0
LINE
  5
87B
100
AcDbEntity
  8
M2
100
AcDbLine
 10
36.794542
 20
367.153425
 11
44.594542
 21
367.153425
  0
ARC
  5
87C
100
AcDbEntity
  8
M2
100
AcDbCircle
 10
34.994542
 20
379.653426
 40
1.0
100
AcDbArc
 50
90.0
 51
180.0
  0
ARC
  5
87D
100
AcDbEntity
  8
M2
100
AcDbCircle
 10
34.994542
 20
389.053426
 40
1.0
100
AcDbArc
 50
180.0
 51
270.0
  0
ARC
  5
87E
100
AcDbEntity
  8
M2
100
AcDbCircle
 10
109.894542
 20
379.653426
 40
1.0
100
AcDbArc
 50
0.0
 51
90.0
  0
ARC
  5
87F
100
AcDbEntity
  8
M2
100
AcDbCircle
 10
77.994542
 20
390.353426
 40
0.5
100
AcDbArc
 50
180.0
 51
270.0
  0
ARC
  5
880
100
AcDbEntity
  8
M2
100
AcDbCircle
 10
80.644542
 20
376.853426
 40
1.0
100
AcDbArc
 50
0.0
 51
90.0
  0
ARC
  5
881
100
AcDbEntity
  8
M2
100
AcDbCircle
 10
66.394542
 20
394.353426
 40
1.0
100
AcDbArc
 50
0.0
 51
90.0
  0
ARC
  5
882
100
AcDbEntity
  8
M2
100
AcDbCircle
 10
78.494542
 20
394.353426
 40
1.0
100
AcDbArc
 50
90.0
 51
180.0
  0
LINE
  5
883
100
AcDbEntity
  8
M2
100
AcDbLine
 10
35.794544
 20
404.453425
 11
34.994541
 21
404.453425
  0
LINE
  5
884
100
AcDbEntity
  8
M2
100
AcDbLine
 10
40.294542
 20
388.053426
 11
34.994541
 21
388.053426
  0
LINE
  5
885
100
AcDbEntity
  8
M2
100
AcDbLine
 10
108.094542
 20
410.703426
 11
108.094542
 21
389.053426
  0
LINE
  5
886
100
AcDbEntity
  8
M2
100
AcDbLine
 10
109.894543
 20
380.653426
 11
109.09454
 21
380.653426
  0
LINE
  5
887
100
AcDbEntity
  8
M2
  6
DASHDOT
100
AcDbLine
 10
54.344542
 20
354.853426
 11
55.344542
 21
354.853426
  0
LINE
  5
888
100
AcDbEntity
  8
M2
  6
DASHDOT
100
AcDbLine
 10
54.844542
 20
354.353426
 11
54.844542
 21
355.353426
  0
LINE
  5
889
100
AcDbEntity
  8
M2
  6
DASHDOT
100
AcDbLine
 10
89.544542
 20
354.853426
 11
90.544542
 21
354.853426
  0
LINE
  5
88A
100
AcDbEntity
  8
M2
  6
DASHDOT
100
AcDbLine
 10
90.044542
 20
354.353426
 11
90.044542
 21
355.353426
  0
LINE
  5
88B
100
AcDbEntity
  8
M2
  6
DASHDOT
100
AcDbLine
 10
71.944542
 20
354.853426
 11
72.944542
 21
354.853426
  0
LINE
  5
88C
100
AcDbEntity
  8
M2
  6
DASHDOT
100
AcDbLine
 10
72.444542
 20
354.353426
 11
72.444542
 21
355.353426
  0
LINE
  5
88D
100
AcDbEntity
  8
M2
100
AcDbLine
 10
44.444542
 20
401.003426
 11
44.444542
 21
394.503427
  0
LINE
  5
88E
100
AcDbEntity
  8
M2
  6
DASHDOT
100
AcDbLine
 10
71.944542
 20
413.853426
 11
72.944542
 21
413.853426
  0
LINE
  5
88F
100
AcDbEntity
  8
M2
  6
DASHDOT
100
AcDbLine
 10
72.444542
 20
414.353426
 11
72.444542
 21
413.353426
  0
LINE
  5
890
100
AcDbEntity
  8
M2
  6
DASHDOT
100
AcDbLine
 10
90.044542
 20
414.353426
 11
90.044542
 21
413.353426
  0
LINE
  5
891
100
AcDbEntity
  8
M2
  6
DASHDOT
100
AcDbLine
 10
54.844542
 20
414.353426
 11
54.844542
 21
413.353426
  0
LINE
  5
892
100
AcDbEntity
  8
M2
  6
DASHDOT
100
AcDbLine
 10
89.544542
 20
413.853426
 11
90.544542
 21
413.853426
  0
LINE
  5
893
100
AcDbEntity
  8
M2
  6
DASHDOT
100
AcDbLine
 10
54.344542
 20
413.853426
 11
55.344542
 21
413.853426
  0
ARC
  5
894
100
AcDbEntity
  8
M2
100
AcDbCircle
 10
93.894542
 20
429.853426
 40
1.0
100
AcDbArc
 50
90.0
 51
147.669234
  0
ARC
  5
895
100
AcDbEntity
  8
M2
100
AcDbCircle
 10
93.894542
 20
429.853426
 40
1.0
100
AcDbArc
 50
0.0
 51
90.0
  0
LINE
  5
896
100
AcDbEntity
  8
M2
100
AcDbLine
 10
94.894542
 20
420.853425
 11
94.894542
 21
429.853425
  0
CIRCLE
  5
897
100
AcDbEntity
  8
M2
100
AcDbCircle
 10
54.844542
 20
413.853457
 40
4.499996
  0
LINE
  5
898
100
AcDbEntity
  8
M2
100
AcDbLine
 10
55.311446
 20
415.734591
 11
52.963469
 21
413.386599
  0
LINE
  5
899
100
AcDbEntity
  8
M2
100
AcDbLine
 10
56.725646
 20
414.320376
 11
54.377669
 21
411.972384
  0
LINE
  5
89A
100
AcDbEntity
  8
M2
100
AcDbLine
 10
52.775588
 20
415.922366
 11
57.038558
 21
411.659426
  0
CIRCLE
  5
89B
100
AcDbEntity
  8
M2
100
AcDbCircle
 10
72.444542
 20
413.853457
 40
4.499996
  0
LINE
  5
89C
100
AcDbEntity
  8
M2
100
AcDbLine
 10
72.911446
 20
415.734591
 11
70.563469
 21
413.386599
  0
LINE
  5
89D
100
AcDbEntity
  8
M2
100
AcDbLine
 10
74.325646
 20
414.320376
 11
71.977669
 21
411.972384
  0
LINE
  5
89E
100
AcDbEntity
  8
M2
100
AcDbLine
 10
70.375588
 20
415.922366
 11
74.638558
 21
411.659426
  0
CIRCLE
  5
89F
100
AcDbEntity
  8
M2
100
AcDbCircle
 10
90.044542
 20
413.853457
 40
4.499996
  0
LINE
  5
8A0
100
AcDbEntity
  8
M2
100
AcDbLine
 10
90.511446
 20
415.734591
 11
88.163469
 21
413.386599
  0
LINE
  5
8A1
100
AcDbEntity
  8
M2
100
AcDbLine
 10
91.925646
 20
414.320376
 11
89.577669
 21
411.972384
  0
LINE
  5
8A2
100
AcDbEntity
  8
M2
100
AcDbLine
 10
87.975588
 20
415.922366
 11
92.238558
 21
411.659426
  0
LINE
  5
8A3
100
AcDbEntity
  8
M2
  6
DASHDOT
100
AcDbLine
 10
40.194542
 20
405.353426
 11
41.194542
 21
405.353426
  0
LINE
  5
8A4
100
AcDbEntity
  8
M2
  6
DASHDOT
100
AcDbLine
 10
40.694542
 20
404.853426
 11
40.694542
 21
405.853426
  0
CIRCLE
  5
8A5
100
AcDbEntity
  8
M2
100
AcDbCircle
 10
40.694541
 20
405.353428
 40
3.0
  0
LINE
  5
8A6
100
AcDbEntity
  8
M2
100
AcDbLine
 10
41.04782
 20
406.767788
 11
39.280242
 21
405.000087
  0
LINE
  5
8A7
100
AcDbEntity
  8
M2
100
AcDbLine
 10
42.108367
 20
405.707119
 11
40.340789
 21
403.939541
  0
LINE
  5
8A8
100
AcDbEntity
  8
M2
100
AcDbLine
 10
42.285125
 20
403.762783
 11
39.103484
 21
406.944545
  0
CIRCLE
  5
8A9
100
AcDbEntity
  8
M2
100
AcDbCircle
 10
40.694541
 20
397.753427
 40
3.0
  0
LINE
  5
8AA
100
AcDbEntity
  8
M2
100
AcDbLine
 10
41.04782
 20
399.167788
 11
39.280242
 21
397.400087
  0
LINE
  5
8AB
100
AcDbEntity
  8
M2
100
AcDbLine
 10
42.108367
 20
398.107119
 11
40.340789
 21
396.33954
  0
LINE
  5
8AC
100
AcDbEntity
  8
M2
100
AcDbLine
 10
42.285125
 20
396.162783
 11
39.103484
 21
399.344545
  0
CIRCLE
  5
8AD
100
AcDbEntity
  8
M2
100
AcDbCircle
 10
40.694541
 20
370.953424
 40
3.0
  0
CIRCLE
  5
8AE
100
AcDbEntity
  8
M2
100
AcDbCircle
 10
40.694541
 20
363.353424
 40
3.0
  0
LINE
  5
8AF
100
AcDbEntity
  8
M2
100
AcDbLine
 10
41.04782
 20
364.767787
 11
39.280242
 21
363.000087
  0
LINE
  5
8B0
100
AcDbEntity
  8
M2
100
AcDbLine
 10
42.108367
 20
363.707118
 11
40.340789
 21
361.93954
  0
LINE
  5
8B1
100
AcDbEntity
  8
M2
100
AcDbLine
 10
42.285125
 20
361.762782
 11
39.103484
 21
364.944545
  0
LINE
  5
8B2
100
AcDbEntity
  8
M2
100
AcDbLine
 10
42.108367
 20
371.307118
 11
40.340789
 21
369.53954
  0
LINE
  5
8B3
100
AcDbEntity
  8
M2
100
AcDbLine
 10
41.04782
 20
372.367787
 11
39.280242
 21
370.600087
  0
LINE
  5
8B4
100
AcDbEntity
  8
M2
100
AcDbLine
 10
42.285125
 20
369.362783
 11
39.103484
 21
372.544545
  0
CIRCLE
  5
8B5
100
AcDbEntity
  8
M2
100
AcDbCircle
 10
104.194543
 20
405.353428
 40
3.0
  0
LINE
  5
8B6
100
AcDbEntity
  8
M2
100
AcDbLine
 10
105.608369
 20
405.707119
 11
103.840791
 21
403.939541
  0
LINE
  5
8B7
100
AcDbEntity
  8
M2
100
AcDbLine
 10
105.785127
 20
403.762783
 11
102.603486
 21
406.944545
  0
LINE
  5
8B8
100
AcDbEntity
  8
M2
100
AcDbLine
 10
104.547822
 20
406.767788
 11
102.780244
 21
405.000087
  0
CIRCLE
  5
8B9
100
AcDbEntity
  8
M2
100
AcDbCircle
 10
104.194543
 20
397.753427
 40
3.0
  0
LINE
  5
8BA
100
AcDbEntity
  8
M2
100
AcDbLine
 10
105.785127
 20
396.162783
 11
102.603486
 21
399.344545
  0
LINE
  5
8BB
100
AcDbEntity
  8
M2
100
AcDbLine
 10
104.547822
 20
399.167788
 11
102.780244
 21
397.400087
  0
LINE
  5
8BC
100
AcDbEntity
  8
M2
100
AcDbLine
 10
105.608369
 20
398.107119
 11
103.840791
 21
396.33954
  0
CIRCLE
  5
8BD
100
AcDbEntity
  8
M2
100
AcDbCircle
 10
104.194543
 20
370.953424
 40
3.0
  0
LINE
  5
8BE
100
AcDbEntity
  8
M2
100
AcDbLine
 10
104.547822
 20
372.367787
 11
102.780244
 21
370.600087
  0
LINE
  5
8BF
100
AcDbEntity
  8
M2
100
AcDbLine
 10
105.608369
 20
371.307118
 11
103.840791
 21
369.53954
  0
LINE
  5
8C0
100
AcDbEntity
  8
M2
100
AcDbLine
 10
105.785127
 20
369.362783
 11
102.603486
 21
372.544545
  0
CIRCLE
  5
8C1
100
AcDbEntity
  8
M2
100
AcDbCircle
 10
104.194543
 20
363.353424
 40
3.0
  0
LINE
  5
8C2
100
AcDbEntity
  8
M2
100
AcDbLine
 10
105.785127
 20
361.762782
 11
102.603486
 21
364.944545
  0
LINE
  5
8C3
100
AcDbEntity
  8
M2
100
AcDbLine
 10
104.547822
 20
364.767787
 11
102.780244
 21
363.000087
  0
LINE
  5
8C4
100
AcDbEntity
  8
M2
100
AcDbLine
 10
105.608369
 20
363.707118
 11
103.840791
 21
361.93954
  0
CIRCLE
  5
8C5
100
AcDbEntity
  8
M2
100
AcDbCircle
 10
54.844542
 20
354.853395
 40
4.499996
  0
CIRCLE
  5
8C6
100
AcDbEntity
  8
M2
100
AcDbCircle
 10
72.444542
 20
354.853395
 40
4.499996
  0
CIRCLE
  5
8C7
100
AcDbEntity
  8
M2
100
AcDbCircle
 10
90.044542
 20
354.853395
 40
4.499996
  0
LINE
  5
8C8
100
AcDbEntity
  8
M2
100
AcDbLine
 10
55.311446
 20
356.734591
 11
52.963469
 21
354.386599
  0
LINE
  5
8C9
100
AcDbEntity
  8
M2
100
AcDbLine
 10
56.725646
 20
355.320376
 11
54.377669
 21
352.972384
  0
LINE
  5
8CA
100
AcDbEntity
  8
M2
100
AcDbLine
 10
52.775588
 20
356.922366
 11
57.038558
 21
352.659426
  0
LINE
  5
8CB
100
AcDbEntity
  8
M2
100
AcDbLine
 10
72.911446
 20
356.734591
 11
70.563469
 21
354.386599
  0
LINE
  5
8CC
100
AcDbEntity
  8
M2
100
AcDbLine
 10
74.325646
 20
355.320376
 11
71.977669
 21
352.972384
  0
LINE
  5
8CD
100
AcDbEntity
  8
M2
100
AcDbLine
 10
70.375588
 20
356.922366
 11
74.638558
 21
352.659426
  0
LINE
  5
8CE
100
AcDbEntity
  8
M2
100
AcDbLine
 10
90.511446
 20
356.734591
 11
88.163469
 21
354.386599
  0
LINE
  5
8CF
100
AcDbEntity
  8
M2
100
AcDbLine
 10
91.925646
 20
355.320376
 11
89.577669
 21
352.972384
  0
LINE
  5
8D0
100
AcDbEntity
  8
M2
100
AcDbLine
 10
87.975588
 20
356.922366
 11
92.238558
 21
352.659426
  0
LINE
  5
8D1
100
AcDbEntity
  8
M2
  6
DASHED
100
AcDbLine
 10
21.494546
 20
414.053426
 11
21.494546
 21
354.653426
  0
LINE
  5
8D2
100
AcDbEntity
  8
M2
  6
DASHED
100
AcDbLine
 10
21.494546
 20
414.053426
 11
33.994546
 21
414.053426
  0
LINE
  5
8D3
100
AcDbEntity
  8
M2
  6
DASHED
100
AcDbLine
 10
21.494546
 20
354.653426
 11
33.994546
 21
354.653426
  0
CIRCLE
  5
8D4
100
AcDbEntity
  8
M2
100
AcDbCircle
 10
72.444542
 20
354.853426
 40
5.0
  0
CIRCLE
  5
8D5
100
AcDbEntity
  8
M2
100
AcDbCircle
 10
90.044542
 20
354.853426
 40
5.0
  0
CIRCLE
  5
8D6
100
AcDbEntity
  8
M2
100
AcDbCircle
 10
54.844542
 20
354.853426
 40
5.0
  0
CIRCLE
  5
8D7
100
AcDbEntity
  8
M2
100
AcDbCircle
 10
54.844542
 20
413.853426
 40
5.0
  0
CIRCLE
  5
8D8
100
AcDbEntity
  8
M2
100
AcDbCircle
 10
72.444542
 20
413.853426
 40
5.0
  0
CIRCLE
  5
8D9
100
AcDbEntity
  8
M2
100
AcDbCircle
 10
90.044542
 20
413.853426
 40
5.0
  0
ARC
  5
8DA
100
AcDbEntity
  8
M2
100
AcDbCircle
 10
89.794542
 20
344.853426
 40
2.825
100
AcDbArc
 50
166.768235
 51
196.243021
  0
ARC
  5
8DB
100
AcDbEntity
  8
M2
100
AcDbCircle
 10
89.794542
 20
344.853426
 40
2.85
100
AcDbArc
 50
164.777422
 51
198.47529
  0
LINE
  5
8DC
100
AcDbEntity
  8
M2
100
AcDbLine
 10
87.322698
 20
341.853426
 11
84.544542
 21
341.853426
  0
LINE
  5
8DD
100
AcDbEntity
  8
M2
100
AcDbLine
 10
49.959792
 20
341.853426
 11
36.994542
 21
341.853426
  0
ARC
  5
8DE
100
AcDbEntity
  8
M2
100
AcDbCircle
 10
55.094542
 20
344.853426
 40
2.85
100
AcDbArc
 50
348.466838
 51
375.222936
  0
ARC
  5
8DF
100
AcDbEntity
  8
M2
100
AcDbCircle
 10
55.094542
 20
344.853426
 40
2.825
100
AcDbArc
 50
350.155147
 51
373.232179
  0
LINE
  5
8E0
100
AcDbEntity
  8
M2
  6
DASHED
100
AcDbLine
 10
210.294536
 20
414.053426
 11
197.794536
 21
414.053426
  0
LINE
  5
8E1
100
AcDbEntity
  8
M2
  6
DASHED
100
AcDbLine
 10
210.294536
 20
414.053426
 11
210.294536
 21
354.653426
  0
LINE
  5
8E2
100
AcDbEntity
  8
M2
  6
DASHED
100
AcDbLine
 10
210.294536
 20
354.653426
 11
197.794536
 21
354.653426
  0
LINE
  5
8E3
100
AcDbEntity
  8
M2
100
AcDbLine
 10
75.444542
 20
429.153424
 11
82.394542
 21
429.153424
  0
LINE
  5
8E4
100
AcDbEntity
  8
M2
100
AcDbLine
 10
69.444542
 20
429.353428
 11
61.794542
 21
429.353428
  0
LINE
  5
8E5
100
AcDbEntity
  8
M2
100
AcDbLine
 10
75.444542
 20
430.853427
 11
87.046081
 21
430.853427
  0
LINE
  5
8E6
100
AcDbEntity
  8
M2
100
AcDbLine
 10
68.894542
 20
420.853425
 11
65.494542
 21
420.853425
  0
LINE
  5
8E7
100
AcDbEntity
  8
M2
100
AcDbLine
 10
93.0474
 20
430.853427
 11
93.894542
 21
430.853427
  0
ARC
  5
8E8
100
AcDbEntity
  8
M2
100
AcDbCircle
 10
88.394539
 20
424.95343
 40
3.0
100
AcDbArc
 50
129.296407
 51
230.703593
  0
LINE
  5
8E9
100
AcDbEntity
  8
M2
100
AcDbLine
 10
57.844542
 20
430.853427
 11
69.444542
 21
430.853427
  0
ARC
  5
8EA
100
AcDbEntity
  8
M2
100
AcDbCircle
 10
56.494542
 20
424.953426
 40
3.0
100
AcDbArc
 50
309.29648
 51
410.70352
  0
LINE
  5
8EB
100
AcDbEntity
  8
M2
100
AcDbLine
 10
51.294542
 20
420.853425
 11
47.894542
 21
420.853425
  0
CIRCLE
  5
8EC
100
AcDbEntity
  8
M2
100
AcDbCircle
 10
176.94454
 20
413.853426
 40
5.0
  0
CIRCLE
  5
8ED
100
AcDbEntity
  8
M2
100
AcDbCircle
 10
159.34454
 20
413.853426
 40
5.0
  0
CIRCLE
  5
8EE
100
AcDbEntity
  8
M2
100
AcDbCircle
 10
141.74454
 20
413.853426
 40
5.0
  0
CIRCLE
  5
8EF
100
AcDbEntity
  8
M2
100
AcDbCircle
 10
141.74454
 20
354.853426
 40
5.0
  0
CIRCLE
  5
8F0
100
AcDbEntity
  8
M2
100
AcDbCircle
 10
159.34454
 20
354.853426
 40
5.0
  0
CIRCLE
  5
8F1
100
AcDbEntity
  8
M2
100
AcDbCircle
 10
176.94454
 20
354.853426
 40
5.0
  0
ARC
  5
8F2
100
AcDbEntity
  8
M2
 62
     4
100
AcDbCircle
 10
149.34454
 20
448.853428
 40
7.0
100
AcDbArc
 50
1.861079E-012
 51
90.0
  0
ARC
  5
8F3
100
AcDbEntity
  8
M2
 62
     4
100
AcDbCircle
 10
149.34454
 20
448.853428
 40
13.0
100
AcDbArc
 50
1.753709E-012
 51
90.0
  0
ARC
  5
8F4
100
AcDbEntity
  8
M2
 62
     4
100
AcDbCircle
 10
82.44454
 20
448.853428
 40
7.0
100
AcDbArc
 50
90.0
 51
180.0
  0
ARC
  5
8F5
100
AcDbEntity
  8
M2
 62
     4
100
AcDbCircle
 10
82.44454
 20
448.853428
 40
13.0
100
AcDbArc
 50
147.42103
 51
180.0
  0
LINE
  5
8F6
100
AcDbEntity
  8
M2
 62
     4
100
AcDbLine
 10
75.44454
 20
427.653428
 11
75.44454
 21
448.853428
  0
LINE
  5
8F7
100
AcDbEntity
  8
M2
 62
     4
100
AcDbLine
 10
69.44454
 20
427.653428
 11
69.44454
 21
448.853428
  0
LINE
  5
8F8
100
AcDbEntity
  8
M2
 62
     4
100
AcDbLine
 10
156.34454
 20
427.653428
 11
156.34454
 21
448.853428
  0
LINE
  5
8F9
100
AcDbEntity
  8
M2
 62
     4
100
AcDbLine
 10
142.698991
 20
455.853428
 11
149.34454
 21
455.853428
  0
LINE
  5
8FA
100
AcDbEntity
  8
M2
 62
     4
100
AcDbLine
 10
162.34454
 20
427.653428
 11
162.34454
 21
448.853428
  0
ARC
  5
8FB
100
AcDbEntity
  8
M2
 62
     4
100
AcDbCircle
 10
152.79454
 20
420.025746
 40
3.0
100
AcDbArc
 50
316.700419
 51
360.0
  0
LINE
  5
8FC
100
AcDbEntity
  8
M2
 62
     4
100
AcDbLine
 10
155.79454
 20
427.653428
 11
155.79454
 21
420.025746
  0
LINE
  5
8FD
100
AcDbEntity
  8
M2
  6
DASHDOT
 62
     4
100
AcDbLine
 10
159.34454
 20
414.353428
 11
159.34454
 21
413.353428
  0
ARC
  5
8FE
100
AcDbEntity
  8
M2
 62
     4
100
AcDbCircle
 10
165.89454
 20
420.025746
 40
3.0
100
AcDbArc
 50
180.0
 51
223.299581
  0
ARC
  5
8FF
100
AcDbEntity
  8
M2
 62
     4
100
AcDbCircle
 10
159.34454
 20
413.853428
 40
6.0
100
AcDbArc
 50
136.700419
 51
403.299581
  0
LINE
  5
900
100
AcDbEntity
  8
M2
 62
     4
100
AcDbLine
 10
155.79454
 20
427.653428
 11
162.89454
 21
427.653428
  0
LINE
  5
901
100
AcDbEntity
  8
M2
 62
     4
100
AcDbLine
 10
162.89454
 20
427.653428
 11
162.89454
 21
420.025746
  0
LINE
  5
902
100
AcDbEntity
  8
M2
  6
DASHDOT
 62
     4
100
AcDbLine
 10
158.84454
 20
413.853428
 11
159.84454
 21
413.853428
  0
LINE
  5
903
100
AcDbEntity
  8
M2
 62
     4
100
AcDbLine
 10
162.89454
 20
423.153428
 11
155.79454
 21
423.153428
  0
ARC
  5
904
100
AcDbEntity
  8
M2
 62
     4
100
AcDbCircle
 10
78.99454
 20
420.025746
 40
3.0
100
AcDbArc
 50
180.0
 51
223.299581
  0
LINE
  5
905
100
AcDbEntity
  8
M2
 62
     4
100
AcDbLine
 10
75.99454
 20
427.653428
 11
75.99454
 21
420.025746
  0
LINE
  5
906
100
AcDbEntity
  8
M2
  6
DASHDOT
 62
     4
100
AcDbLine
 10
72.44454
 20
414.353428
 11
72.44454
 21
413.353428
  0
ARC
  5
907
100
AcDbEntity
  8
M2
 62
     4
100
AcDbCircle
 10
65.89454
 20
420.025746
 40
3.0
100
AcDbArc
 50
316.700419
 51
360.0
  0
ARC
  5
908
100
AcDbEntity
  8
M2
 62
     4
100
AcDbCircle
 10
72.44454
 20
413.853428
 40
6.0
100
AcDbArc
 50
136.700419
 51
403.299581
  0
LINE
  5
909
100
AcDbEntity
  8
M2
 62
     4
100
AcDbLine
 10
75.99454
 20
427.653428
 11
68.89454
 21
427.653428
  0
LINE
  5
90A
100
AcDbEntity
  8
M2
 62
     4
100
AcDbLine
 10
68.89454
 20
427.653428
 11
68.89454
 21
420.025746
  0
LINE
  5
90B
100
AcDbEntity
  8
M2
  6
DASHDOT
 62
     4
100
AcDbLine
 10
72.94454
 20
413.853428
 11
71.94454
 21
413.853428
  0
LINE
  5
90C
100
AcDbEntity
  8
M2
 62
     4
100
AcDbLine
 10
68.89454
 20
423.153428
 11
75.99454
 21
423.153428
  0
LINE
  5
90D
100
AcDbEntity
  8
M2
 62
     2
100
AcDbLine
 10
90.745454
 20
334.853601
 11
83.115589
 21
334.320068
  0
LINE
  5
90E
100
AcDbEntity
  8
M2
 62
     2
100
AcDbLine
 10
86.030725
 20
339.536124
 11
93.647924
 21
340.068771
  0
ARC
  5
90F
100
AcDbEntity
  8
M2
 62
     2
100
AcDbCircle
 10
85.77526
 20
358.564656
 40
1.0
100
AcDbArc
 50
94.0
 51
184.0
  0
ARC
  5
910
100
AcDbEntity
  8
M2
 62
     2
100
AcDbCircle
 10
93.755772
 20
359.122708
 40
1.0
100
AcDbArc
 50
4.0
 51
94.0
  0
LINE
  5
911
100
AcDbEntity
  8
M2
 62
     2
100
AcDbLine
 10
93.686016
 20
360.120272
 11
85.705504
 21
359.56222
  0
LINE
  5
912
100
AcDbEntity
  8
M2
 62
     2
100
AcDbLine
 10
85.429262
 20
349.177065
 11
84.777696
 21
358.4949
  0
LINE
  5
913
100
AcDbEntity
  8
M2
 62
     2
100
AcDbLine
 10
95.404903
 20
349.874629
 11
94.753336
 21
359.192465
  0
ARC
  5
914
100
AcDbEntity
  8
M2
 62
     2
100
AcDbCircle
 10
86.426827
 20
349.246821
 40
1.0
100
AcDbArc
 50
184.0
 51
244.940719
  0
LINE
  5
915
100
AcDbEntity
  8
M2
 62
     2
100
AcDbLine
 10
78.740639
 20
323.693131
 11
79.347808
 21
315.010203
  0
LINE
  5
916
100
AcDbEntity
  8
M2
 62
     2
100
AcDbLine
 10
80.415129
 20
314.082396
 11
89.393205
 21
314.710204
  0
LINE
  5
917
100
AcDbEntity
  8
M2
 62
     2
100
AcDbLine
 10
81.052215
 20
330.628073
 11
87.262767
 21
341.740616
  0
LINE
  5
918
100
AcDbEntity
  8
M2
 62
     2
100
AcDbLine
 10
80.678293
 20
328.955232
 11
80.805687
 21
327.133419
  0
LINE
  5
919
100
AcDbEntity
  8
M2
 62
     2
100
AcDbLine
 10
87.569714
 20
329.171249
 11
93.780266
 21
340.283791
  0
LINE
  5
91A
100
AcDbEntity
  8
M2
 62
     2
100
AcDbLine
 10
94.154188
 20
341.956633
 11
93.822701
 21
346.697109
  0
LINE
  5
91B
100
AcDbEntity
  8
M2
 62
     2
100
AcDbLine
 10
87.636689
 20
343.413457
 11
87.438292
 21
346.250667
  0
LINE
  5
91C
100
AcDbEntity
  8
M2
 62
     2
100
AcDbLine
 10
87.195792
 20
327.498407
 11
87.190097
 21
327.57986
  0
LINE
  5
91D
100
AcDbEntity
  8
M2
 62
     2
100
AcDbLine
 10
90.321013
 20
315.777525
 11
89.713843
 21
324.460453
  0
ARC
  5
91E
100
AcDbEntity
  8
M2
 62
     2
100
AcDbCircle
 10
88.716279
 20
324.390696
 40
1.0
100
AcDbArc
 50
4.0
 51
73.948957
  0
ARC
  5
91F
100
AcDbEntity
  8
M2
 62
     2
100
AcDbCircle
 10
84.944381
 20
346.076276
 40
2.5
100
AcDbArc
 50
4.0
 51
64.940719
  0
ARC
  5
920
100
AcDbEntity
  8
M2
 62
     2
100
AcDbCircle
 10
96.316612
 20
346.8715
 40
2.5
100
AcDbArc
 50
123.059281
 51
184.0
  0
ARC
  5
921
100
AcDbEntity
  8
M2
 62
     2
100
AcDbCircle
 10
94.407339
 20
349.804873
 40
1.0
100
AcDbArc
 50
303.059281
 51
364.0
  0
ARC
  5
922
100
AcDbEntity
  8
M2
 62
     2
100
AcDbCircle
 10
78.311777
 20
326.959027
 40
2.5
100
AcDbArc
 50
294.051043
 51
364.0
  0
ARC
  5
923
100
AcDbEntity
  8
M2
 62
     2
100
AcDbCircle
 10
89.684007
 20
327.754251
 40
2.5
100
AcDbArc
 50
184.0
 51
253.948957
  0
ARC
  5
924
100
AcDbEntity
  8
M2
 62
     2
100
AcDbCircle
 10
79.738203
 20
323.762888
 40
1.0
100
AcDbArc
 50
114.051043
 51
184.0
  0
ARC
  5
925
100
AcDbEntity
  8
M2
 62
     2
100
AcDbCircle
 10
83.670985
 20
329.164501
 40
3.0
100
AcDbArc
 50
150.800152
 51
184.0
  0
ARC
  5
926
100
AcDbEntity
  8
M2
 62
     2
100
AcDbCircle
 10
90.188484
 20
327.707677
 40
3.0
100
AcDbArc
 50
150.800152
 51
184.0
  0
ARC
  5
927
100
AcDbEntity
  8
M2
 62
     2
100
AcDbCircle
 10
91.161496
 20
341.747363
 40
3.0
100
AcDbArc
 50
330.800152
 51
364.0
  0
ARC
  5
928
100
AcDbEntity
  8
M2
 62
     2
100
AcDbCircle
 10
84.643996
 20
343.204188
 40
3.0
100
AcDbArc
 50
330.800152
 51
364.0
  0
ARC
  5
929
100
AcDbEntity
  8
M2
 62
     2
100
AcDbCircle
 10
80.345372
 20
315.07996
 40
1.0
100
AcDbArc
 50
184.0
 51
274.0
  0
ARC
  5
92A
100
AcDbEntity
  8
M2
 62
     2
100
AcDbCircle
 10
89.323449
 20
315.707768
 40
1.0
100
AcDbArc
 50
274.0
 51
364.0
  0
LINE
  5
92B
100
AcDbEntity
  8
M2
  6
DIVIDE
 62
     7
100
AcDbLine
 10
362.185433
 20
397.853435
 11
355.685433
 21
397.853435
  0
LINE
  5
92C
100
AcDbEntity
  8
M2
  6
DIVIDE
 62
     7
100
AcDbLine
 10
362.185433
 20
370.853435
 11
355.685433
 21
370.853435
  0
LINE
  5
92D
100
AcDbEntity
  8
M2
  6
DIVIDE
 62
     7
100
AcDbLine
 10
361.185433
 20
396.853435
 11
354.685433
 21
396.853435
  0
LINE
  5
92E
100
AcDbEntity
  8
M2
  6
DIVIDE
 62
     7
100
AcDbLine
 10
355.685433
 20
370.853435
 11
355.685433
 21
366.853435
  0
LINE
  5
92F
100
AcDbEntity
  8
M2
  6
DIVIDE
 62
     7
100
AcDbLine
 10
361.185433
 20
371.853435
 11
354.685433
 21
371.853435
  0
LINE
  5
930
100
AcDbEntity
  8
M2
  6
DIVIDE
 62
     7
100
AcDbLine
 10
354.685433
 20
371.853435
 11
354.685433
 21
366.853435
  0
LINE
  5
931
100
AcDbEntity
  8
M2
  6
DIVIDE
 62
     7
100
AcDbLine
 10
355.685433
 20
401.853435
 11
354.685433
 21
401.853435
  0
LINE
  5
932
100
AcDbEntity
  8
M2
  6
DIVIDE
 62
     7
100
AcDbLine
 10
362.185433
 20
370.853435
 11
362.185433
 21
397.853435
  0
LINE
  5
933
100
AcDbEntity
  8
M2
  6
DIVIDE
 62
     7
100
AcDbLine
 10
354.685433
 20
401.853435
 11
354.685433
 21
396.853435
  0
LINE
  5
934
100
AcDbEntity
  8
M2
  6
DIVIDE
 62
     7
100
AcDbLine
 10
355.685433
 20
401.853435
 11
355.685433
 21
397.853435
  0
LINE
  5
935
100
AcDbEntity
  8
M2
  6
DIVIDE
 62
     7
100
AcDbLine
 10
354.685433
 20
366.853435
 11
355.685433
 21
366.853435
  0
LINE
  5
936
100
AcDbEntity
  8
M2
  6
DIVIDE
 62
     7
100
AcDbLine
 10
361.185433
 20
396.853435
 11
361.185433
 21
371.853435
  0
LINE
  5
937
100
AcDbEntity
  8
M2
 62
     2
100
AcDbLine
 10
71.748629
 20
334.853426
 11
64.100133
 21
334.853426
  0
LINE
  5
938
100
AcDbEntity
  8
M2
 62
     2
100
AcDbLine
 10
67.372022
 20
339.853426
 11
75.007821
 21
339.853426
  0
ARC
  5
939
100
AcDbEntity
  8
M2
 62
     2
100
AcDbCircle
 10
68.444542
 20
358.853426
 40
1.0
100
AcDbArc
 50
90.0
 51
180.0
  0
ARC
  5
93A
100
AcDbEntity
  8
M2
 62
     2
100
AcDbCircle
 10
76.444542
 20
358.853426
 40
1.0
100
AcDbArc
 50
0.0
 51
90.0
  0
LINE
  5
93B
100
AcDbEntity
  8
M2
 62
     2
100
AcDbLine
 10
76.444542
 20
359.853426
 11
68.444542
 21
359.853426
  0
LINE
  5
93C
100
AcDbEntity
  8
M2
 62
     2
100
AcDbLine
 10
67.444542
 20
349.512838
 11
67.444542
 21
358.853426
  0
LINE
  5
93D
100
AcDbEntity
  8
M2
 62
     2
100
AcDbLine
 10
77.444542
 20
349.512838
 11
77.444542
 21
358.853426
  0
ARC
  5
93E
100
AcDbEntity
  8
M2
 62
     2
100
AcDbCircle
 10
68.444542
 20
349.512838
 40
1.0
100
AcDbArc
 50
180.0
 51
240.940719
  0
LINE
  5
93F
100
AcDbEntity
  8
M2
 62
     2
100
AcDbLine
 10
58.994542
 20
324.557557
 11
58.994542
 21
315.853426
  0
LINE
  5
940
100
AcDbEntity
  8
M2
 62
     2
100
AcDbLine
 10
59.994542
 20
314.853426
 11
68.994542
 21
314.853426
  0
LINE
  5
941
100
AcDbEntity
  8
M2
 62
     2
100
AcDbLine
 10
61.784245
 20
331.314358
 11
68.754839
 21
341.966605
  0
LINE
  5
942
100
AcDbEntity
  8
M2
 62
     2
100
AcDbLine
 10
61.294542
 20
329.671675
 11
61.294542
 21
327.845413
  0
LINE
  5
943
100
AcDbEntity
  8
M2
 62
     2
100
AcDbLine
 10
68.184245
 20
329.406444
 11
75.154839
 21
340.058691
  0
LINE
  5
944
100
AcDbEntity
  8
M2
 62
     2
100
AcDbLine
 10
75.644542
 20
341.701374
 11
75.644542
 21
346.453426
  0
LINE
  5
945
100
AcDbEntity
  8
M2
 62
     2
100
AcDbLine
 10
69.244542
 20
343.609288
 11
69.244542
 21
346.453426
  0
LINE
  5
946
100
AcDbEntity
  8
M2
 62
     2
100
AcDbLine
 10
67.694542
 20
327.763761
 11
67.694542
 21
327.845413
  0
LINE
  5
947
100
AcDbEntity
  8
M2
 62
     2
100
AcDbLine
 10
69.994542
 20
315.853426
 11
69.994542
 21
324.557557
  0
ARC
  5
948
100
AcDbEntity
  8
M2
 62
     2
100
AcDbCircle
 10
68.994542
 20
324.557557
 40
1.0
100
AcDbArc
 50
0.0
 51
69.948957
  0
ARC
  5
949
100
AcDbEntity
  8
M2
 62
     2
100
AcDbCircle
 10
66.744542
 20
346.453426
 40
2.5
100
AcDbArc
 50
0.0
 51
60.940719
  0
ARC
  5
94A
100
AcDbEntity
  8
M2
 62
     2
100
AcDbCircle
 10
78.144542
 20
346.453426
 40
2.5
100
AcDbArc
 50
119.059281
 51
180.0
  0
ARC
  5
94B
100
AcDbEntity
  8
M2
 62
     2
100
AcDbCircle
 10
76.444542
 20
349.512838
 40
1.0
100
AcDbArc
 50
299.059281
 51
360.0
  0
ARC
  5
94C
100
AcDbEntity
  8
M2
 62
     2
100
AcDbCircle
 10
58.794542
 20
327.845413
 40
2.5
100
AcDbArc
 50
290.051043
 51
360.0
  0
ARC
  5
94D
100
AcDbEntity
  8
M2
 62
     2
100
AcDbCircle
 10
70.194542
 20
327.845413
 40
2.5
100
AcDbArc
 50
180.0
 51
249.948957
  0
ARC
  5
94E
100
AcDbEntity
  8
M2
 62
     2
100
AcDbCircle
 10
59.994542
 20
324.557557
 40
1.0
100
AcDbArc
 50
110.051043
 51
180.0
  0
ARC
  5
94F
100
AcDbEntity
  8
M2
 62
     2
100
AcDbCircle
 10
64.294542
 20
329.671675
 40
3.0
100
AcDbArc
 50
146.800152
 51
180.0
  0
ARC
  5
950
100
AcDbEntity
  8
M2
 62
     2
100
AcDbCircle
 10
70.694542
 20
327.763761
 40
3.0
100
AcDbArc
 50
146.800152
 51
180.0
  0
ARC
  5
951
100
AcDbEntity
  8
M2
 62
     2
100
AcDbCircle
 10
72.644542
 20
341.701374
 40
3.0
100
AcDbArc
 50
326.800152
 51
360.0
  0
ARC
  5
952
100
AcDbEntity
  8
M2
 62
     2
100
AcDbCircle
 10
66.244542
 20
343.609288
 40
3.0
100
AcDbArc
 50
326.800152
 51
360.0
  0
ARC
  5
953
100
AcDbEntity
  8
M2
 62
     2
100
AcDbCircle
 10
59.994542
 20
315.853426
 40
1.0
100
AcDbArc
 50
180.0
 51
270.0
  0
ARC
  5
954
100
AcDbEntity
  8
M2
 62
     2
100
AcDbCircle
 10
68.994542
 20
315.853426
 40
1.0
100
AcDbArc
 50
270.0
 51
360.0
  0
LINE
  5
955
100
AcDbEntity
  8
M2
 62
     2
100
AcDbLine
 10
52.755195
 20
334.950689
 11
45.12533
 21
335.484222
  0
LINE
  5
956
100
AcDbEntity
  8
M2
 62
     2
100
AcDbLine
 10
48.738031
 20
340.243806
 11
56.35523
 21
339.71116
  0
ARC
  5
957
100
AcDbEntity
  8
M2
 62
     2
100
AcDbCircle
 10
51.133312
 20
359.122708
 40
1.0
100
AcDbArc
 50
86.0
 51
176.0
  0
ARC
  5
958
100
AcDbEntity
  8
M2
 62
     2
100
AcDbCircle
 10
59.113824
 20
358.564656
 40
1.0
100
AcDbArc
 50
356.0
 51
446.0
  0
LINE
  5
959
100
AcDbEntity
  8
M2
 62
     2
100
AcDbLine
 10
59.183581
 20
359.56222
 11
51.203068
 21
360.120272
  0
LINE
  5
95A
100
AcDbEntity
  8
M2
 62
     2
100
AcDbLine
 10
49.484181
 20
349.874629
 11
50.135748
 21
359.192465
  0
LINE
  5
95B
100
AcDbEntity
  8
M2
 62
     2
100
AcDbLine
 10
59.459822
 20
349.177065
 11
60.111388
 21
358.4949
  0
ARC
  5
95C
100
AcDbEntity
  8
M2
 62
     2
100
AcDbCircle
 10
50.481745
 20
349.804873
 40
1.0
100
AcDbArc
 50
176.0
 51
236.940719
  0
LINE
  5
95D
100
AcDbEntity
  8
M2
 62
     2
100
AcDbLine
 10
39.313973
 20
325.56958
 11
38.706803
 21
316.886653
  0
LINE
  5
95E
100
AcDbEntity
  8
M2
 62
     2
100
AcDbLine
 10
39.634611
 20
315.819332
 11
48.612687
 21
315.191524
  0
LINE
  5
95F
100
AcDbEntity
  8
M2
 62
     2
100
AcDbLine
 10
42.56821
 20
332.115323
 11
50.264888
 21
342.255377
  0
LINE
  5
960
100
AcDbEntity
  8
M2
 62
     2
100
AcDbLine
 10
41.965113
 20
330.510801
 11
41.837719
 21
328.688988
  0
LINE
  5
961
100
AcDbEntity
  8
M2
 62
     2
100
AcDbLine
 10
48.819531
 20
329.765615
 11
56.516209
 21
339.90567
  0
LINE
  5
962
100
AcDbEntity
  8
M2
 62
     2
100
AcDbLine
 10
57.119306
 20
341.510191
 11
57.450793
 21
346.250667
  0
LINE
  5
963
100
AcDbEntity
  8
M2
 62
     2
100
AcDbLine
 10
50.867986
 20
343.859899
 11
51.066383
 21
346.697109
  0
LINE
  5
964
100
AcDbEntity
  8
M2
 62
     2
100
AcDbLine
 10
48.216433
 20
328.161094
 11
48.222129
 21
328.242547
  0
LINE
  5
965
100
AcDbEntity
  8
M2
 62
     2
100
AcDbLine
 10
49.680008
 20
316.119331
 11
50.287177
 21
324.802259
  0
ARC
  5
966
100
AcDbEntity
  8
M2
 62
     2
100
AcDbCircle
 10
49.289613
 20
324.872016
 40
1.0
100
AcDbArc
 50
356.0
 51
425.948957
  0
ARC
  5
967
100
AcDbEntity
  8
M2
 62
     2
100
AcDbCircle
 10
48.572473
 20
346.8715
 40
2.5
100
AcDbArc
 50
356.0
 51
416.940719
  0
ARC
  5
968
100
AcDbEntity
  8
M2
 62
     2
100
AcDbCircle
 10
59.944703
 20
346.076276
 40
2.5
100
AcDbArc
 50
115.059281
 51
176.0
  0
ARC
  5
969
100
AcDbEntity
  8
M2
 62
     2
100
AcDbCircle
 10
58.462258
 20
349.246821
 40
1.0
100
AcDbArc
 50
295.059281
 51
356.0
  0
ARC
  5
96A
100
AcDbEntity
  8
M2
 62
     2
100
AcDbCircle
 10
39.343809
 20
328.863379
 40
2.5
100
AcDbArc
 50
286.051043
 51
356.0
  0
ARC
  5
96B
100
AcDbEntity
  8
M2
 62
     2
100
AcDbCircle
 10
50.716039
 20
328.068155
 40
2.5
100
AcDbArc
 50
176.0
 51
245.948957
  0
ARC
  5
96C
100
AcDbEntity
  8
M2
 62
     2
100
AcDbCircle
 10
40.311537
 20
325.499824
 40
1.0
100
AcDbArc
 50
106.051043
 51
176.0
  0
ARC
  5
96D
100
AcDbEntity
  8
M2
 62
     2
100
AcDbCircle
 10
44.957805
 20
330.301532
 40
3.0
100
AcDbArc
 50
142.800152
 51
176.0
  0
ARC
  5
96E
100
AcDbEntity
  8
M2
 62
     2
100
AcDbCircle
 10
51.209126
 20
327.951824
 40
3.0
100
AcDbArc
 50
142.800152
 51
176.0
  0
ARC
  5
96F
100
AcDbEntity
  8
M2
 62
     2
100
AcDbCircle
 10
54.126614
 20
341.719461
 40
3.0
100
AcDbArc
 50
322.800152
 51
356.0
  0
ARC
  5
970
100
AcDbEntity
  8
M2
 62
     2
100
AcDbCircle
 10
47.875294
 20
344.069168
 40
3.0
100
AcDbArc
 50
322.800152
 51
356.0
  0
ARC
  5
971
100
AcDbEntity
  8
M2
 62
     2
100
AcDbCircle
 10
39.704367
 20
316.816896
 40
1.0
100
AcDbArc
 50
176.0
 51
266.0
  0
ARC
  5
972
100
AcDbEntity
  8
M2
 62
     2
100
AcDbCircle
 10
48.682444
 20
316.189088
 40
1.0
100
AcDbArc
 50
266.0
 51
356.0
  0
CIRCLE
  5
973
100
AcDbEntity
  8
M2
 62
     7
100
AcDbCircle
 10
36.944063
 20
196.457822
 40
1.7
  0
CIRCLE
  5
974
100
AcDbEntity
  8
M2
 62
     7
100
AcDbCircle
 10
36.944063
 20
196.457822
 40
2.0
  0
LINE
  5
975
100
AcDbEntity
  8
M2
  6
DASHDOT
 62
     7
100
AcDbLine
 10
36.944055
 20
200.555218
 11
36.94407
 21
192.360409
  0
LINE
  5
976
100
AcDbEntity
  8
M2
  6
DASHDOT
 62
     7
100
AcDbLine
 10
41.041467
 20
196.457822
 11
32.846658
 21
196.457822
  0
CIRCLE
  5
977
100
AcDbEntity
  8
M2
 62
     7
100
AcDbCircle
 10
107.944063
 20
131.457822
 40
1.7
  0
CIRCLE
  5
978
100
AcDbEntity
  8
M2
 62
     7
100
AcDbCircle
 10
107.944063
 20
131.457822
 40
2.0
  0
LINE
  5
979
100
AcDbEntity
  8
M2
  6
DASHDOT
 62
     7
100
AcDbLine
 10
107.944055
 20
135.555218
 11
107.94407
 21
127.360409
  0
LINE
  5
97A
100
AcDbEntity
  8
M2
  6
DASHDOT
 62
     7
100
AcDbLine
 10
112.041467
 20
131.457822
 11
103.846658
 21
131.457822
  0
CIRCLE
  5
97B
100
AcDbEntity
  8
M2
 62
     7
100
AcDbCircle
 10
124.844063
 20
196.457822
 40
1.7
  0
CIRCLE
  5
97C
100
AcDbEntity
  8
M2
 62
     7
100
AcDbCircle
 10
124.844063
 20
196.457822
 40
2.0
  0
LINE
  5
97D
100
AcDbEntity
  8
M2
  6
DASHDOT
 62
     7
100
AcDbLine
 10
124.844055
 20
200.555218
 11
124.84407
 21
192.360409
  0
LINE
  5
97E
100
AcDbEntity
  8
M2
  6
DASHDOT
 62
     7
100
AcDbLine
 10
128.941467
 20
196.457822
 11
120.746658
 21
196.457822
  0
CIRCLE
  5
97F
100
AcDbEntity
  8
M2
 62
     7
100
AcDbCircle
 10
195.844063
 20
131.457822
 40
1.7
  0
CIRCLE
  5
980
100
AcDbEntity
  8
M2
 62
     7
100
AcDbCircle
 10
195.844063
 20
131.457822
 40
2.0
  0
LINE
  5
981
100
AcDbEntity
  8
M2
  6
DASHDOT
 62
     7
100
AcDbLine
 10
195.844055
 20
135.555218
 11
195.84407
 21
127.360409
  0
LINE
  5
982
100
AcDbEntity
  8
M2
  6
DASHDOT
 62
     7
100
AcDbLine
 10
199.941467
 20
131.457822
 11
191.746658
 21
131.457822
  0
LINE
  5
983
100
AcDbEntity
  8
M2
  6
DIVIDE
100
AcDbLine
 10
111.394063
 20
210.457822
 11
111.394063
 21
189.357822
  0
LINE
  5
984
100
AcDbEntity
  8
M2
  6
DIVIDE
100
AcDbLine
 10
32.944409
 20
210.457822
 11
111.394063
 21
210.457822
  0
LINE
  5
985
100
AcDbEntity
  8
M2
  6
DIVIDE
100
AcDbLine
 10
199.294063
 20
210.457822
 11
199.294063
 21
111.257706
  0
LINE
  5
986
100
AcDbEntity
  8
M2
  6
DIVIDE
100
AcDbLine
 10
121.394063
 20
111.257708
 11
121.394063
 21
138.557819
  0
LINE
  5
987
100
AcDbEntity
  8
M2
  6
DIVIDE
100
AcDbLine
 10
121.394063
 20
210.457822
 11
199.294063
 21
210.457822
  0
LINE
  5
988
100
AcDbEntity
  8
M2
  6
DIVIDE
100
AcDbLine
 10
120.894061
 20
189.357822
 11
111.394063
 21
189.357822
  0
LINE
  5
989
100
AcDbEntity
  8
M2
  6
DIVIDE
100
AcDbLine
 10
120.894061
 20
138.557819
 11
111.394063
 21
138.557819
  0
LINE
  5
98A
100
AcDbEntity
  8
M2
  6
DIVIDE
100
AcDbLine
 10
32.943907
 20
66.755397
 11
32.944409
 21
210.457822
  0
LINE
  5
98B
100
AcDbEntity
  8
M2
  6
DIVIDE
100
AcDbLine
 10
117.947533
 20
111.257706
 11
111.394063
 21
111.257706
  0
LINE
  5
98C
100
AcDbEntity
  8
M2
  6
DIVIDE
100
AcDbLine
 10
117.947505
 20
66.755252
 11
117.947533
 21
111.255265
  0
LINE
  5
98D
100
AcDbEntity
  8
M2
  6
DIVIDE
100
AcDbLine
 10
117.947505
 20
66.755252
 11
32.943907
 21
66.755397
  0
LINE
  5
98E
100
AcDbEntity
  8
M2
  6
DIVIDE
100
AcDbLine
 10
121.394063
 20
111.257708
 11
199.294063
 21
111.257706
  0
LINE
  5
98F
100
AcDbEntity
  8
M2
  6
DIVIDE
100
AcDbLine
 10
121.394063
 20
189.357822
 11
121.394063
 21
210.457822
  0
LINE
  5
990
100
AcDbEntity
  8
M2
  6
DIVIDE
100
AcDbLine
 10
111.394063
 20
138.557819
 11
111.394063
 21
111.257706
  0
HATCH
  5
991
100
AcDbEntity
  8
M2
 62
     7
100
AcDbHatch
 10
0.0
 20
0.0
210
0.0
220
0.0
230
1.0
  2
SOLID
 70
     1
 71
     0
 91
        1
 92
        1
 93
        4
 72
     1
 10
265.785433
 20
432.773557
 11
263.785433
 21
432.773557
 72
     1
 10
263.785433
 20
432.773557
 11
263.785433
 21
414.573557
 72
     1
 10
263.785433
 20
414.573557
 11
265.785433
 21
414.573557
 72
     1
 10
265.785433
 20
414.573557
 11
265.785433
 21
432.773557
 97
        0
 75
     0
 76
     1
 98
        1
 10
0.0
 20
0.0
  0
LINE
  5
994
100
AcDbEntity
  8
M3
 62
     2
100
AcDbLine
 10
380.0
 20
60.0
 11
180.0
 21
60.0
  0
LINE
  5
995
100
AcDbEntity
  8
M3
 62
     2
100
AcDbLine
 10
-3.552714E-015
 20
-3.552714E-015
 11
-3.552714E-015
 21
550.0
  0
LINE
  5
996
100
AcDbEntity
  8
M3
 62
     2
100
AcDbLine
 10
380.0
 20
-3.552714E-015
 11
-3.552714E-015
 21
-3.552714E-015
  0
LINE
  5
997
100
AcDbEntity
  8
M3
 62
     2
100
AcDbLine
 10
380.0
 20
20.0
 11
180.0
 21
20.0
  0
TEXT
  5
998
100
AcDbEntity
  8
M3
 62
     2
100
AcDbText
 10
183.666668
 20
24.999999
 40
10.0
  1
形　式；
  7
STANDARD
100
AcDbText
  0
LINE
  5
999
100
AcDbEntity
  8
M3
 62
     2
100
AcDbLine
 10
380.0
 20
40.0
 11
180.0
 21
40.0
  0
TEXT
  5
99A
100
AcDbEntity
  8
M3
 62
     2
100
AcDbText
 10
183.666668
 20
45.000003
 40
10.0
  1
登録名：
  7
STANDARD
100
AcDbText
  0
LINE
  5
99B
100
AcDbEntity
  8
M3
 62
     2
100
AcDbLine
 10
180.0
 20
-3.552714E-015
 11
180.0
 21
60.0
  0
TEXT
  5
99C
100
AcDbEntity
  8
M3
 62
     2
100
AcDbText
 10
183.666668
 20
5.000001
 40
10.0
  1
適　用；
  7
STANDARD
100
AcDbText
  0
LINE
  5
99D
100
AcDbEntity
  8
M3
 62
     2
100
AcDbLine
 10
-3.552714E-015
 20
550.0
 11
380.0
 21
550.0
  0
LINE
  5
99E
100
AcDbEntity
  8
M3
 62
     2
100
AcDbLine
 10
380.0
 20
550.0
 11
380.0
 21
-3.552714E-015
  0
TEXT
  5
99F
100
AcDbEntity
  8
M3
 62
     2
100
AcDbText
 10
232.333339
 20
45.000003
 40
10.0
  1
ＤＭＨＳ５０ＲＴＲ００
 41
0.5
  7
STANDARD
100
AcDbText
  0
TEXT
  5
9A0
100
AcDbEntity
  8
M3
 62
     2
100
AcDbText
 10
232.333339
 20
24.999999
 40
10.0
  1
ＨＳ５０－ＲＴ，ＨＳ５０－ＲＴＫ
 41
0.5
  7
STANDARD
100
AcDbText
  0
LINE
  5
9A1
100
AcDbEntity
  8
M4
100
AcDbLine
 10
32.944542
 20
333.653544
 11
32.944542
 21
486.054423
  0
LINE
  5
9A2
100
AcDbEntity
  8
M4
100
AcDbLine
 10
198.294536
 20
357.553416
 11
198.294536
 21
486.054423
  0
LINE
  5
9A3
100
AcDbEntity
  8
M4
100
AcDbLine
 10
38.740097
 20
485.607337
 11
32.944542
 21
484.054423
  0
LINE
  5
9A4
100
AcDbEntity
  8
M4
100
AcDbLine
 10
32.944542
 20
484.054423
 11
38.740097
 21
482.501509
  0
LINE
  5
9A5
100
AcDbEntity
  8
M4
100
AcDbLine
 10
192.498981
 20
482.501509
 11
198.294536
 21
484.054423
  0
LINE
  5
9A6
100
AcDbEntity
  8
M4
100
AcDbLine
 10
198.294536
 20
484.054423
 11
192.498981
 21
485.607337
  0
LINE
  5
9A7
100
AcDbEntity
  8
M4
100
AcDbLine
 10
32.944542
 20
484.054423
 11
198.294536
 21
484.054423
  0
TEXT
  5
9A8
100
AcDbEntity
  8
M4
100
AcDbText
 10
105.74065
 20
485.254435
 40
5.0
  1
１６５．５
 41
0.666667
  7
STANDARD
100
AcDbText
  0
LINE
  5
9A9
100
AcDbEntity
  8
M4
100
AcDbLine
 10
64.444408
 20
297.652812
 11
64.444408
 21
274.182627
  0
LINE
  5
9AA
100
AcDbEntity
  8
M4
100
AcDbLine
 10
44.444408
 20
297.652812
 11
44.444408
 21
274.182627
  0
LINE
  5
9AB
100
AcDbEntity
  8
M4
100
AcDbLine
 10
58.648853
 20
274.629713
 11
64.444408
 21
276.182627
  0
LINE
  5
9AC
100
AcDbEntity
  8
M4
100
AcDbLine
 10
64.444408
 20
276.182627
 11
58.648853
 21
277.735542
  0
LINE
  5
9AD
100
AcDbEntity
  8
M4
100
AcDbLine
 10
50.239963
 20
277.735542
 11
44.444408
 21
276.182627
  0
LINE
  5
9AE
100
AcDbEntity
  8
M4
100
AcDbLine
 10
44.444408
 20
276.182627
 11
50.239963
 21
274.629713
  0
LINE
  5
9AF
100
AcDbEntity
  8
M4
100
AcDbLine
 10
64.444408
 20
276.182627
 11
44.444408
 21
276.182627
  0
TEXT
  5
9B0
100
AcDbEntity
  8
M4
100
AcDbText
 10
50.565525
 20
277.38264
 40
5.0
  1
２０
 41
0.666667
  7
STANDARD
100
AcDbText
  0
LINE
  5
9B1
100
AcDbEntity
  8
M4
100
AcDbLine
 10
175.944545
 20
430.853434
 11
229.368114
 21
430.853434
  0
LINE
  5
9B2
100
AcDbEntity
  8
M4
100
AcDbLine
 10
107.947986
 20
287.150889
 11
229.368114
 21
287.150889
  0
LINE
  5
9B3
100
AcDbEntity
  8
M4
100
AcDbLine
 10
228.921028
 20
425.057879
 11
227.368114
 21
430.853434
  0
LINE
  5
9B4
100
AcDbEntity
  8
M4
100
AcDbLine
 10
227.368114
 20
430.853434
 11
225.8152
 21
425.057879
  0
LINE
  5
9B5
100
AcDbEntity
  8
M4
100
AcDbLine
 10
225.8152
 20
292.946444
 11
227.368114
 21
287.150889
  0
LINE
  5
9B6
100
AcDbEntity
  8
M4
100
AcDbLine
 10
227.368114
 20
287.150889
 11
228.921028
 21
292.946444
  0
LINE
  5
9B7
100
AcDbEntity
  8
M4
100
AcDbLine
 10
227.368114
 20
430.853434
 11
227.368114
 21
287.150889
  0
TEXT
  5
9B8
100
AcDbEntity
  8
M4
100
AcDbText
 10
226.168117
 20
353.123271
 40
5.0
  1
１４４
 50
90.000003
 41
0.666667
  7
STANDARD
100
AcDbText
  0
LINE
  5
9B9
100
AcDbEntity
  8
M4
100
AcDbLine
 10
175.944545
 20
430.853434
 11
229.368099
 21
430.853434
  0
LINE
  5
9BA
100
AcDbEntity
  8
M4
100
AcDbLine
 10
168.944545
 20
461.853434
 11
229.368099
 21
461.853434
  0
LINE
  5
9BB
100
AcDbEntity
  8
M4
100
AcDbLine
 10
225.815185
 20
436.648989
 11
227.368099
 21
430.853434
  0
LINE
  5
9BC
100
AcDbEntity
  8
M4
100
AcDbLine
 10
227.368099
 20
430.853434
 11
228.921013
 21
436.648989
  0
LINE
  5
9BD
100
AcDbEntity
  8
M4
100
AcDbLine
 10
228.921013
 20
456.057879
 11
227.368099
 21
461.853434
  0
LINE
  5
9BE
100
AcDbEntity
  8
M4
100
AcDbLine
 10
227.368099
 20
461.853434
 11
225.815185
 21
456.057879
  0
LINE
  5
9BF
100
AcDbEntity
  8
M4
100
AcDbLine
 10
227.368099
 20
430.853434
 11
227.368099
 21
461.853434
  0
TEXT
  5
9C0
100
AcDbEntity
  8
M4
100
AcDbText
 10
226.168102
 20
438.474528
 40
5.0
  1
（３１）
 50
90.000003
 41
0.666667
  7
STANDARD
100
AcDbText
  0
LINE
  5
9C1
100
AcDbEntity
  8
M4
100
AcDbLine
 10
72.444545
 20
435.853434
 11
72.444545
 21
476.603953
  0
LINE
  5
9C2
100
AcDbEntity
  8
M4
100
AcDbLine
 10
159.344539
 20
435.853434
 11
159.344539
 21
476.603953
  0
LINE
  5
9C3
100
AcDbEntity
  8
M4
100
AcDbLine
 10
78.2401
 20
476.156867
 11
72.444545
 21
474.603953
  0
LINE
  5
9C4
100
AcDbEntity
  8
M4
100
AcDbLine
 10
72.444545
 20
474.603953
 11
78.2401
 21
473.051039
  0
LINE
  5
9C5
100
AcDbEntity
  8
M4
100
AcDbLine
 10
153.548984
 20
473.051039
 11
159.344539
 21
474.603953
  0
LINE
  5
9C6
100
AcDbEntity
  8
M4
100
AcDbLine
 10
159.344539
 20
474.603953
 11
153.548984
 21
476.156867
  0
LINE
  5
9C7
100
AcDbEntity
  8
M4
100
AcDbLine
 10
72.444545
 20
474.603953
 11
159.344539
 21
474.603953
  0
TEXT
  5
9C8
100
AcDbEntity
  8
M4
100
AcDbText
 10
112.015651
 20
475.803965
 40
5.0
  1
８７
 41
0.666667
  7
STANDARD
100
AcDbText
  0
LINE
  5
9C9
100
AcDbEntity
  8
M4
100
AcDbLine
 10
72.444545
 20
435.853434
 11
72.444545
 21
476.603953
  0
LINE
  5
9CA
100
AcDbEntity
  8
M4
100
AcDbLine
 10
54.844539
 20
416.353434
 11
54.844539
 21
476.603953
  0
LINE
  5
9CB
100
AcDbEntity
  8
M4
100
AcDbLine
 10
66.64899
 20
473.051039
 11
72.444545
 21
474.603953
  0
LINE
  5
9CC
100
AcDbEntity
  8
M4
100
AcDbLine
 10
72.444545
 20
474.603953
 11
66.64899
 21
476.156867
  0
LINE
  5
9CD
100
AcDbEntity
  8
M4
100
AcDbLine
 10
60.640094
 20
476.156867
 11
54.844539
 21
474.603953
  0
LINE
  5
9CE
100
AcDbEntity
  8
M4
100
AcDbLine
 10
54.844539
 20
474.603953
 11
60.640094
 21
473.051039
  0
LINE
  5
9CF
100
AcDbEntity
  8
M4
100
AcDbLine
 10
72.444545
 20
474.603953
 11
36.279075
 21
474.603953
  0
TEXT
  5
9D0
100
AcDbEntity
  8
M4
100
AcDbText
 10
38.400184
 20
475.803965
 40
5.0
  1
１７．６
 41
0.666667
  7
STANDARD
100
AcDbText
  0
LINE
  5
9D1
100
AcDbEntity
  8
M4
100
AcDbLine
 10
359.185436
 20
340.603434
 11
359.185436
 21
270.223429
  0
LINE
  5
9D2
100
AcDbEntity
  8
M4
100
AcDbLine
 10
284.331218
 20
316.103434
 11
284.331218
 21
270.223429
  0
LINE
  5
9D3
100
AcDbEntity
  8
M4
100
AcDbLine
 10
353.389881
 20
270.670515
 11
359.185436
 21
272.223429
  0
LINE
  5
9D4
100
AcDbEntity
  8
M4
100
AcDbLine
 10
359.185436
 20
272.223429
 11
353.389881
 21
273.776344
  0
LINE
  5
9D5
100
AcDbEntity
  8
M4
100
AcDbLine
 10
290.126773
 20
273.776344
 11
284.331218
 21
272.223429
  0
LINE
  5
9D6
100
AcDbEntity
  8
M4
100
AcDbLine
 10
284.331218
 20
272.223429
 11
290.126773
 21
270.670515
  0
LINE
  5
9D7
100
AcDbEntity
  8
M4
100
AcDbLine
 10
359.185436
 20
272.223429
 11
284.331218
 21
272.223429
  0
TEXT
  5
9D8
100
AcDbEntity
  8
M4
100
AcDbText
 10
317.879406
 20
273.423442
 40
5.0
  1
７５
 41
0.666667
  7
STANDARD
100
AcDbText
  0
LINE
  5
9D9
100
AcDbEntity
  8
M4
100
AcDbLine
 10
270.785442
 20
396.853434
 11
270.785442
 21
474.99293
  0
LINE
  5
9DA
100
AcDbEntity
  8
M4
100
AcDbLine
 10
353.389881
 20
471.440016
 11
359.185436
 21
472.99293
  0
LINE
  5
9DB
100
AcDbEntity
  8
M4
100
AcDbLine
 10
359.185436
 20
472.99293
 11
353.389881
 21
474.545844
  0
LINE
  5
9DC
100
AcDbEntity
  8
M4
100
AcDbLine
 10
276.580997
 20
474.545844
 11
270.785442
 21
472.99293
  0
LINE
  5
9DD
100
AcDbEntity
  8
M4
100
AcDbLine
 10
270.785442
 20
472.99293
 11
276.580997
 21
471.440016
  0
LINE
  5
9DE
100
AcDbEntity
  8
M4
100
AcDbLine
 10
359.185436
 20
472.99293
 11
270.785442
 21
472.99293
  0
TEXT
  5
9DF
100
AcDbEntity
  8
M4
100
AcDbText
 10
307.106517
 20
474.192942
 40
5.0
  1
８８．５
 41
0.666667
  7
STANDARD
100
AcDbText
  0
LINE
  5
9E0
100
AcDbEntity
  8
M4
100
AcDbLine
 10
359.185436
 20
427.103434
 11
359.185436
 21
482.707591
  0
LINE
  5
9E1
100
AcDbEntity
  8
M4
100
AcDbLine
 10
239.485424
 20
388.653422
 11
239.485424
 21
482.707591
  0
LINE
  5
9E2
100
AcDbEntity
  8
M4
100
AcDbLine
 10
353.389881
 20
479.154676
 11
359.185436
 21
480.707591
  0
LINE
  5
9E3
100
AcDbEntity
  8
M4
100
AcDbLine
 10
359.185436
 20
480.707591
 11
353.389881
 21
482.260505
  0
LINE
  5
9E4
100
AcDbEntity
  8
M4
100
AcDbLine
 10
245.280979
 20
482.260505
 11
239.485424
 21
480.707591
  0
LINE
  5
9E5
100
AcDbEntity
  8
M4
100
AcDbLine
 10
239.485424
 20
480.707591
 11
245.280979
 21
479.154676
  0
LINE
  5
9E6
100
AcDbEntity
  8
M4
100
AcDbLine
 10
359.185436
 20
480.707591
 11
239.485424
 21
480.707591
  0
TEXT
  5
9E7
100
AcDbEntity
  8
M4
100
AcDbText
 10
251.456524
 20
481.907603
 40
5.0
  1
１２０（補助接点ヘッドオンユニットを付けた場合）
 41
0.666667
  7
STANDARD
100
AcDbText
  0
LINE
  5
9E8
100
AcDbEntity
  8
M4
100
AcDbLine
 10
270.785442
 20
396.853434
 11
270.785442
 21
455.61259
  0
LINE
  5
9E9
100
AcDbEntity
  8
M4
100
AcDbLine
 10
265.785442
 20
434.77357
 11
265.785442
 21
455.61259
  0
LINE
  5
9EA
100
AcDbEntity
  8
M4
100
AcDbLine
 10
276.580997
 20
455.165504
 11
270.785442
 21
453.61259
  0
LINE
  5
9EB
100
AcDbEntity
  8
M4
100
AcDbLine
 10
270.785442
 20
453.61259
 11
276.580997
 21
452.059675
  0
LINE
  5
9EC
100
AcDbEntity
  8
M4
100
AcDbLine
 10
259.989887
 20
452.059675
 11
265.785442
 21
453.61259
  0
LINE
  5
9ED
100
AcDbEntity
  8
M4
100
AcDbLine
 10
265.785442
 20
453.61259
 11
259.989887
 21
455.165504
  0
LINE
  5
9EE
100
AcDbEntity
  8
M4
100
AcDbLine
 10
277.385442
 20
453.61259
 11
253.185442
 21
453.61259
  0
TEXT
  5
9EF
100
AcDbEntity
  8
M4
100
AcDbText
 10
254.726543
 20
454.812602
 40
5.0
  1
５
 41
0.666667
  7
STANDARD
100
AcDbText
  0
LINE
  5
9F0
100
AcDbEntity
  8
M4
100
AcDbLine
 10
348.185436
 20
426.853434
 11
348.185436
 21
450.800456
  0
LINE
  5
9F1
100
AcDbEntity
  8
M4
100
AcDbLine
 10
364.980991
 20
450.35337
 11
359.185436
 21
448.800456
  0
LINE
  5
9F2
100
AcDbEntity
  8
M4
100
AcDbLine
 10
359.185436
 20
448.800456
 11
364.980991
 21
447.247541
  0
LINE
  5
9F3
100
AcDbEntity
  8
M4
100
AcDbLine
 10
342.389881
 20
447.247541
 11
348.185436
 21
448.800456
  0
LINE
  5
9F4
100
AcDbEntity
  8
M4
100
AcDbLine
 10
348.185436
 20
448.800456
 11
342.389881
 21
450.35337
  0
LINE
  5
9F5
100
AcDbEntity
  8
M4
100
AcDbLine
 10
365.785436
 20
448.800456
 11
341.585436
 21
448.800456
  0
TEXT
  5
9F6
100
AcDbEntity
  8
M4
100
AcDbText
 10
349.03947
 20
450.000468
 40
5.0
  1
１１
 41
0.666667
  7
STANDARD
100
AcDbText
  0
LINE
  5
9F7
100
AcDbEntity
  8
M4
100
AcDbLine
 10
21.494545
 20
416.053416
 11
21.494545
 21
496.554911
  0
LINE
  5
9F8
100
AcDbEntity
  8
M4
100
AcDbLine
 10
210.294536
 20
416.053416
 11
210.294536
 21
496.554911
  0
LINE
  5
9F9
100
AcDbEntity
  8
M4
100
AcDbLine
 10
27.2901
 20
496.107826
 11
21.494545
 21
494.554911
  0
LINE
  5
9FA
100
AcDbEntity
  8
M4
100
AcDbLine
 10
21.494545
 20
494.554911
 11
27.2901
 21
493.001997
  0
LINE
  5
9FB
100
AcDbEntity
  8
M4
100
AcDbLine
 10
204.498981
 20
493.001997
 11
210.294536
 21
494.554911
  0
LINE
  5
9FC
100
AcDbEntity
  8
M4
100
AcDbLine
 10
210.294536
 20
494.554911
 11
204.498981
 21
496.107826
  0
LINE
  5
9FD
100
AcDbEntity
  8
M4
100
AcDbLine
 10
21.494545
 20
494.554911
 11
210.294536
 21
494.554911
  0
TEXT
  5
9FE
100
AcDbEntity
  8
M4
100
AcDbText
 10
68.015659
 20
495.754924
 40
5.0
  1
１８９（補助接点サイドオンユニットを付けた場合）
 41
0.666667
  7
STANDARD
100
AcDbText
  0
LINE
  5
9FF
100
AcDbEntity
  8
M4
100
AcDbLine
 10
36.944053
 20
202.555217
 11
36.944053
 21
240.275676
  0
LINE
  5
A00
100
AcDbEntity
  8
M4
100
AcDbLine
 10
107.944057
 20
137.555217
 11
107.944057
 21
240.275676
  0
LINE
  5
A01
100
AcDbEntity
  8
M4
100
AcDbLine
 10
42.739608
 20
239.82859
 11
36.944053
 21
238.275676
  0
LINE
  5
A02
100
AcDbEntity
  8
M4
100
AcDbLine
 10
36.944053
 20
238.275676
 11
42.739608
 21
236.722761
  0
LINE
  5
A03
100
AcDbEntity
  8
M4
100
AcDbLine
 10
102.148502
 20
236.722761
 11
107.944057
 21
238.275676
  0
LINE
  5
A04
100
AcDbEntity
  8
M4
100
AcDbLine
 10
107.944057
 20
238.275676
 11
102.148502
 21
239.82859
  0
LINE
  5
A05
100
AcDbEntity
  8
M4
100
AcDbLine
 10
36.944053
 20
238.275676
 11
107.944057
 21
238.275676
  0
TEXT
  5
A06
100
AcDbEntity
  8
M4
100
AcDbText
 10
68.565174
 20
239.475688
 40
5.0
  1
７１
 41
0.666667
  7
STANDARD
100
AcDbText
  0
LINE
  5
A07
100
AcDbEntity
  8
M4
100
AcDbLine
 10
36.944053
 20
202.555217
 11
36.944053
 21
240.275676
  0
LINE
  5
A08
100
AcDbEntity
  8
M4
100
AcDbLine
 10
32.944408
 20
212.45782
 11
32.944408
 21
240.275676
  0
LINE
  5
A09
100
AcDbEntity
  8
M4
100
AcDbLine
 10
42.739608
 20
239.82859
 11
36.944053
 21
238.275676
  0
LINE
  5
A0A
100
AcDbEntity
  8
M4
100
AcDbLine
 10
36.944053
 20
238.275676
 11
42.739608
 21
236.722761
  0
LINE
  5
A0B
100
AcDbEntity
  8
M4
100
AcDbLine
 10
27.148853
 20
236.722761
 11
32.944408
 21
238.275676
  0
LINE
  5
A0C
100
AcDbEntity
  8
M4
100
AcDbLine
 10
32.944408
 20
238.275676
 11
27.148853
 21
239.82859
  0
LINE
  5
A0D
100
AcDbEntity
  8
M4
100
AcDbLine
 10
43.544053
 20
238.275676
 11
21.977771
 21
238.275676
  0
TEXT
  5
A0E
100
AcDbEntity
  8
M4
100
AcDbText
 10
24.09888
 20
239.475688
 40
5.0
  1
４
 41
0.666667
  7
STANDARD
100
AcDbText
  0
LINE
  5
A0F
100
AcDbEntity
  8
M4
100
AcDbLine
 10
107.944057
 20
137.555217
 11
107.944057
 21
240.275676
  0
LINE
  5
A10
100
AcDbEntity
  8
M4
100
AcDbLine
 10
124.844051
 20
202.555217
 11
124.844051
 21
240.275676
  0
LINE
  5
A11
100
AcDbEntity
  8
M4
100
AcDbLine
 10
113.739612
 20
239.82859
 11
107.944057
 21
238.275676
  0
LINE
  5
A12
100
AcDbEntity
  8
M4
100
AcDbLine
 10
107.944057
 20
238.275676
 11
113.739612
 21
236.722761
  0
LINE
  5
A13
100
AcDbEntity
  8
M4
100
AcDbLine
 10
119.048496
 20
236.722761
 11
124.844051
 21
238.275676
  0
LINE
  5
A14
100
AcDbEntity
  8
M4
100
AcDbLine
 10
124.844051
 20
238.275676
 11
119.048496
 21
239.82859
  0
LINE
  5
A15
100
AcDbEntity
  8
M4
100
AcDbLine
 10
107.944057
 20
238.275676
 11
124.844051
 21
238.275676
  0
TEXT
  5
A16
100
AcDbEntity
  8
M4
100
AcDbText
 10
112.515163
 20
239.475688
 40
5.0
  1
１７
 41
0.666667
  7
STANDARD
100
AcDbText
  0
LINE
  5
A17
100
AcDbEntity
  8
M4
100
AcDbLine
 10
124.844051
 20
202.555217
 11
124.844051
 21
240.275676
  0
LINE
  5
A18
100
AcDbEntity
  8
M4
100
AcDbLine
 10
195.844051
 20
137.555217
 11
195.844051
 21
240.275676
  0
LINE
  5
A19
100
AcDbEntity
  8
M4
100
AcDbLine
 10
130.639606
 20
239.82859
 11
124.844051
 21
238.275676
  0
LINE
  5
A1A
100
AcDbEntity
  8
M4
100
AcDbLine
 10
124.844051
 20
238.275676
 11
130.639606
 21
236.722761
  0
LINE
  5
A1B
100
AcDbEntity
  8
M4
100
AcDbLine
 10
190.048496
 20
236.722761
 11
195.844051
 21
238.275676
  0
LINE
  5
A1C
100
AcDbEntity
  8
M4
100
AcDbLine
 10
195.844051
 20
238.275676
 11
190.048496
 21
239.82859
  0
LINE
  5
A1D
100
AcDbEntity
  8
M4
100
AcDbLine
 10
124.844051
 20
238.275676
 11
195.844051
 21
238.275676
  0
TEXT
  5
A1E
100
AcDbEntity
  8
M4
100
AcDbText
 10
156.46516
 20
239.475688
 40
5.0
  1
７１
 41
0.666667
  7
STANDARD
100
AcDbText
  0
LINE
  5
A1F
100
AcDbEntity
  8
M4
100
AcDbLine
 10
43.041465
 20
196.45782
 11
229.368114
 21
196.45782
  0
LINE
  5
A20
100
AcDbEntity
  8
M4
100
AcDbLine
 10
114.041469
 20
131.45782
 11
229.368114
 21
131.45782
  0
LINE
  5
A21
100
AcDbEntity
  8
M4
100
AcDbLine
 10
228.921028
 20
190.662265
 11
227.368114
 21
196.45782
  0
LINE
  5
A22
100
AcDbEntity
  8
M4
100
AcDbLine
 10
227.368114
 20
196.45782
 11
225.8152
 21
190.662265
  0
LINE
  5
A23
100
AcDbEntity
  8
M4
100
AcDbLine
 10
225.8152
 20
137.253375
 11
227.368114
 21
131.45782
  0
LINE
  5
A24
100
AcDbEntity
  8
M4
100
AcDbLine
 10
227.368114
 20
131.45782
 11
228.921028
 21
137.253375
  0
LINE
  5
A25
100
AcDbEntity
  8
M4
100
AcDbLine
 10
227.368114
 20
196.45782
 11
227.368114
 21
131.45782
  0
TEXT
  5
A26
100
AcDbEntity
  8
M4
100
AcDbText
 10
226.168117
 20
160.078929
 40
5.0
  1
６５
 50
90.000003
 41
0.666667
  7
STANDARD
100
AcDbText
  0
LINE
  5
A27
100
AcDbEntity
  8
M4
100
AcDbLine
 10
201.294063
 20
210.45782
 11
229.368114
 21
210.45782
  0
LINE
  5
A28
100
AcDbEntity
  8
M4
100
AcDbLine
 10
43.041465
 20
196.45782
 11
229.368114
 21
196.45782
  0
LINE
  5
A29
100
AcDbEntity
  8
M4
100
AcDbLine
 10
225.8152
 20
216.253375
 11
227.368114
 21
210.45782
  0
LINE
  5
A2A
100
AcDbEntity
  8
M4
100
AcDbLine
 10
227.368114
 20
210.45782
 11
228.921028
 21
216.253375
  0
LINE
  5
A2B
100
AcDbEntity
  8
M4
100
AcDbLine
 10
228.921028
 20
190.662265
 11
227.368114
 21
196.45782
  0
LINE
  5
A2C
100
AcDbEntity
  8
M4
100
AcDbLine
 10
227.368114
 20
196.45782
 11
225.8152
 21
190.662265
  0
LINE
  5
A2D
100
AcDbEntity
  8
M4
100
AcDbLine
 10
227.368114
 20
227.05782
 11
227.368114
 21
189.85782
  0
TEXT
  5
A2E
100
AcDbEntity
  8
M4
100
AcDbText
 10
226.168117
 20
217.178935
 40
5.0
  1
１４
 50
90.000003
 41
0.666667
  7
STANDARD
100
AcDbText
  0
TEXT
  5
A2F
100
AcDbEntity
  8
M4
100
AcDbText
 10
168.533367
 20
103.986766
 40
5.0
  1
４－Ｍ４ねじ穴
 41
0.666667
  7
STANDARD
100
AcDbText
  0
LINE
  5
A30
100
AcDbEntity
  8
M4
100
AcDbLine
 10
190.757386
 20
125.374769
 11
194.244243
 21
130.257579
  0
LINE
  5
A31
100
AcDbEntity
  8
M4
100
AcDbLine
 10
194.244243
 20
130.257579
 11
188.783132
 21
127.772371
  0
LINE
  5
A32
100
AcDbEntity
  8
M4
100
AcDbLine
 10
194.244243
 20
130.257579
 11
160.882763
 21
102.786769
  0
LINE
  5
A33
100
AcDbEntity
  8
M4
100
AcDbLine
 10
160.882763
 20
102.786769
 11
203.012249
 21
102.786769
  0
LINE
  5
A34
100
AcDbEntity
  8
M5
100
AcDbLine
 10
106.463332
 20
34.007299
 11
138.923333
 21
34.007299
  0
TEXT
  5
A35
100
AcDbEntity
  8
M5
100
AcDbText
 10
106.915554
 20
34.807299
 40
8.0
  1
せん孔図
 41
0.833333
  7
STANDARD
100
AcDbText
  0
ENDSEC
  0
SECTION
  2
OBJECTS
  0
DICTIONARY
  5
C
100
AcDbDictionary
  3
ACAD_GROUP
350
D
  3
ACAD_MLINESTYLE
350
E
  3
ACDBVARIABLEDICTIONARY
350
992
  0
DICTIONARY
  5
D
102
{ACAD_REACTORS
330
C
102
}
100
AcDbDictionary
  0
DICTIONARY
  5
E
102
{ACAD_REACTORS
330
C
102
}
100
AcDbDictionary
  3
STANDARD
350
13
  0
DICTIONARY
  5
992
102
{ACAD_REACTORS
330
C
102
}
100
AcDbDictionary
  3
SORTENTS
350
993
  0
MLINESTYLE
  5
13
102
{ACAD_REACTORS
330
E
102
}
100
AcDbMlineStyle
  2
STANDARD
 70
     0
  3

 62
     0
 51
90.0
 52
90.0
 71
     2
 49
0.5
 62
   256
  6
BYLAYER
 49
-0.5
 62
   256
  6
BYLAYER
  0
DICTIONARYVAR
  5
993
102
{ACAD_REACTORS
330
992
102
}
100
DictionaryVariables
280
     0
  1
96
  0
ENDSEC
  0
EOF
