  0
SECTION
  2
HEADER
  9
$ACADVER
  1
AC1014
  9
$INSBASE
 10
0.000000
 20
0.000000
 30
0.0
  9
$VIEWCTR
 10
7.531722
 20
4.5
  9
$VIEWSIZE
 40
9.0
  9
$SNAPMODE
 70
     0
  9
$SNAPUNIT
 10
1.0
 20
1.0
  9
$SNAPBASE
 10
0.0
 20
0.0
  9
$SNAPANG
 50
0.0
  9
$SNAPSTYLE
 70
     0
  9
$SNAPISOPAIR
 70
     0
  9
$GRIDMODE
 70
     0
  9
$GRIDUNIT
 10
0.0
 20
0.0
  9
$ORTHOMODE
 70
     0
  9
$REGENMODE
 70
     1
  9
$FILLMODE
 70
     1
  9
$QTEXTMODE
 70
     0
  9
$DRAGMODE
 70
     2
  9
$LTSCALE
  40
     1.000000
  9
$OSMODE
 70
     0
  9
$ATTMODE
 70
     1
  9
$TEXTSIZE
 40
0.2
  9
$TRACEWID
 40
0.05
  9
$TEXTSTYLE
  7
STANDARD
  9
$CELTYPE
  6
BYLAYER
  9
$CECOLOR
 62
   256
  9
$DIMSCALE
 40
1.0
  9
$DIMASZ
 40
0.18
  9
$DIMEXO
 40
0.0625
  9
$DIMDLI
 40
0.38
  9
$DIMRND
 40
0.0
  9
$DIMDLE
 40
0.0
  9
$DIMEXE
 40
0.18
  9
$DIMTP
 40
0.0
  9
$DIMTM
 40
0.0
  9
$DIMTXT
 40
0.18
  9
$DIMCEN
 40
0.09
  9
$DIMTSZ
 40
0.0
  9
$DIMTOL
 70
     0
  9
$DIMLIM
 70
     0
  9
$DIMTIH
 70
     1
  9
$DIMTOH
 70
     1
  9
$DIMSE1
 70
     0
  9
$DIMSE2
 70
     0
  9
$DIMTAD
 70
     0
  9
$DIMZIN
 70
     0
  9
$DIMBLK
  1

  9
$LUNITS
 70
     2
  9
$LUPREC
 70
     4
  9
$AXISMODE
 70
     0
  9
$AXISUNIT
 10
0.0
 20
0.0
  9
$SKETCHINC
 40
0.1
  9
$FILLETRAD
 40
0.0
  9
$AUNITS
 70
     0
  9
$AUPREC
 70
     0
  9
$MENU
  1
ACAD
  9
$ELEVATION
 40
0.0
  9
$THICKNESS
 40
0.0
  9
$VIEWDIR
 10
0.0
 20
0.0
 30
1.0
  9
$LIMCHECK
 70
     0
  9
$BLIPMODE
 70
     1
  9
$CHAMFERA
 40
0.0
  9
$CHAMFERB
 40
0.0
  9
$FASTZOOM
 70
     1
  9
$SKPOLY
 70
     0
  9
$TDCREATE
 40
0000000.0000000000
  9
$TDUPDATE
 40
0000000.0000000000
  9
$TDINDWG
 40
0.0000000000
  9
$TDUSRTIMER
 40
0.0000000000
  9
$USRTIMER
 70
     1
  9
$ANGBASE
 50
0.0
  9
$ANGDIR
 70
     0
  9
$PDMODE
 70
     0
  9
$PDSIZE
 40
0.0
  9
$PLINEWID
 40
0.0
  9
$COORDS
 70
     0
  9
$USERI1
 70
     0
  9
$USERI2
 70
     0
  9
$USERI3
 70
     0
  9
$USERI4
 70
     0
  9
$USERI5
 70
     0
  9
$USERR1
 40
0.0
  9
$USERR2
 40
0.0
  9
$USERR3
 40
0.0
  9
$USERR4
 40
0.0
  9
$USERR5
 40
0.0
  9
$CLAYER
  8
M0
  9
$EXTMIN
 10
14.717987
 20
15.85014
  9
$EXTMAX
 10
300.003268
 20
428.763047
  9
$LIMMIN
 10
0.0
 20
0.0
  9
$LIMMAX
 10
210.0
 20
297.0
  9
$HANDSEED
  5
742
  0
ENDSEC
  0
SECTION
  2
CLASSES
  0
CLASS
  1
DICTIONARYVAR
  2
AcDbDictionaryVar
  3
"AutoCAD"
 90
        0
280
     0
281
     0
  0
CLASS
  1
HATCH
  2
AcDbHatch
  3
"ACAD_SEDONA"
 90
        0
280
     0
281
     1
  0
ENDSEC
  0
SECTION
  2
TABLES
  0
TABLE
  2
VPORT
  5
8
100
AcDbSymbolTable
 70
     2
  0
VPORT
  5
14
100
AcDbSymbolTableRecord
100
AcDbViewportTableRecord
  2
*ACTIVE
 70
     0
 10
0.0
 20
0.0
 11
1.0
 21
1.0
 12
484.0
 22
297.0
 13
0.0
 23
0.0
 14
1.0
 24
1.0
 15
0.0
 25
0.0
 16
0.0
 26
0.0
 36
1.0
 17
0.0
 27
0.0
 37
0.0
 40
594.0
 41
2.0
 42
50.0
 43
0.0
 44
0.0
 50
0.0
 51
0.0
 71
     0
 72
   100
 73
     1
 74
     1
 75
     0
 76
     0
 77
     0
 78
     0
  0
ENDTAB
  0
TABLE
  2
LTYPE
  5
5
100
AcDbSymbolTable
 70
     5
  0
LTYPE
  5
15
100
AcDbSymbolTableRecord
100
AcDbLinetypeTableRecord
  2
BYBLOCK
 70
     0
  3

 72
    65
 73
     0
 40
0.0
  0
LTYPE
  5
16
100
AcDbSymbolTableRecord
100
AcDbLinetypeTableRecord
  2
BYLAYER
 70
     0
  3

 72
    65
 73
     0
 40
0.0
  0
LTYPE
  5
17
100
AcDbSymbolTableRecord
100
AcDbLinetypeTableRecord
  2
CONTINUOUS
 70
    64
  3
Solid line
 72
    65
 73
     0
 40
0.0
  0
LTYPE
  5
18
100
AcDbSymbolTableRecord
100
AcDbLinetypeTableRecord
  2
DASHED
 70
    64
  3
__ __ __ __ __ __ __ __ __ __ __ __ __ __ __ __
 72
    65
 73
     2
 40
0.75
 49
0.5
 74
     0
 49
-0.25
 74
     0
  0
LTYPE
  5
19
100
AcDbSymbolTableRecord
100
AcDbLinetypeTableRecord
  2
DASHDOT
 70
    64
  3
__ . __ . __ . __ . __ . __ . __ . __ . __ . __
 72
    65
 73
     4
 40
1.0
 49
0.5
 74
     0
 49
-0.25
 74
     0
 49
0.0
 74
     0
 49
-0.25
 74
     0
  0
LTYPE
  5
1A
100
AcDbSymbolTableRecord
100
AcDbLinetypeTableRecord
  2
DIVIDE
 70
    64
  3
____ . . ____ . . ____ . . ____ . . ____ . . __
 72
    65
 73
     6
 40
1.25
 49
0.5
 74
     0
 49
-0.25
 74
     0
 49
0.0
 74
     0
 49
-0.25
 74
     0
 49
0.0
 74
     0
 49
-0.25
 74
     0
  0
LTYPE
  5
1B
100
AcDbSymbolTableRecord
100
AcDbLinetypeTableRecord
  2
DOT
 70
    64
  3
. . . . . . . . . . . . . . . . . . . . . . . .
 72
    65
 73
     2
 40
0.25
 49
0.0
 74
     0
 49
-0.25
 74
     0
  0
ENDTAB
  0
TABLE
  2
LAYER
  5
2
100
AcDbSymbolTable
 70
   102
  0
LAYER
  5
F
100
AcDbSymbolTableRecord
100
AcDbLayerTableRecord
  2
0
 70
     0
 62
     7
  6
CONTINUOUS
  0
LAYER
  5
1C
100
AcDbSymbolTableRecord
100
AcDbLayerTableRecord
  2
DEFPOINTS
 70
     0
 62
     7
  6
CONTINUOUS
  0
LAYER
  5
1D
100
AcDbSymbolTableRecord
100
AcDbLayerTableRecord
  2
M0
 70
     0
 62
     3
  6
CONTINUOUS
  0
LAYER
  5
1E
100
AcDbSymbolTableRecord
100
AcDbLayerTableRecord
  2
M3
 70
     0
 62
     3
  6
CONTINUOUS
  0
LAYER
  5
1F
100
AcDbSymbolTableRecord
100
AcDbLayerTableRecord
  2
DD0
 70
     0
 62
     4
  6
CONTINUOUS
  0
LAYER
  5
20
100
AcDbSymbolTableRecord
100
AcDbLayerTableRecord
  2
DN0
 70
     0
 62
     2
  6
CONTINUOUS
  0
ENDTAB
  0
TABLE
  2
STYLE
  5
3
100
AcDbSymbolTable
 70
     2
  0
STYLE
  5
10
100
AcDbSymbolTableRecord
100
AcDbTextStyleTableRecord
  2
STANDARD
 70
     0
 40
0.0
 41
1.0
 50
0.0
 71
     0
 42
0.2
  3
txt
  4
BIGFONT
  0
ENDTAB
  0
TABLE
  2
VIEW
  5
6
100
AcDbSymbolTable
 70
     0
  0
ENDTAB
  0
TABLE
  2
UCS
  5
7
100
AcDbSymbolTable
 70
     0
  0
ENDTAB
  0
TABLE
  2
APPID
  5
9
100
AcDbSymbolTable
 70
     1
  0
APPID
  5
11
100
AcDbSymbolTableRecord
100
AcDbRegAppTableRecord
  2
ACAD
 70
     0
  0
ENDTAB
  0
TABLE
  2
DIMSTYLE
  5
A
100
AcDbSymbolTable
 70
     2
  0
DIMSTYLE
105
27
100
AcDbSymbolTableRecord
100
AcDbDimStyleTableRecord
  2
STANDARD
 70
     0
  3

  4

  5

  6
_OPEN
  7
_OPEN
 40
1.0
 41
4.504504
 42
1.0
 43
8.0
 44
1.0
 45
0.0
 46
0.0
 47
0.0
 48
0.0
140
4.72973
141
0.09
142
0.0
143
0.03937
144
1.0
145
0.0
146
1.0
147
0.6
 71
     0
 72
     0
 73
     1
 74
     1
 75
     0
 76
     0
 77
     3
 78
     8
170
     0
171
     2
172
     0
173
     1
174
     0
175
     0
176
     0
177
     0
178
     0
270
     2
271
     2
272
     4
273
     2
274
     2
340
10
275
     0
280
     0
281
     0
282
     0
283
     1
284
     0
285
     0
286
     0
287
     3
288
     0
  0
DIMSTYLE
105
28
100
AcDbSymbolTableRecord
100
AcDbDimStyleTableRecord
  2
LEADSTYL
 70
     0
  3

  4

  5

  6
_OPEN
  7
_OPEN
 40
1.0
 41
4.504504
 42
0.0625
 43
0.38
 44
0.18
 45
0.0
 46
0.0
 47
0.0
 48
0.0
140
4.72973
141
0.09
142
0.0
143
25.4
144
1.0
145
0.0
146
1.0
147
0.6
 71
     0
 72
     0
 73
     1
 74
     1
 75
     0
 76
     0
 77
     0
 78
     0
170
     0
171
     2
172
     0
173
     1
174
     0
175
     0
176
     0
177
     0
178
     0
270
     2
271
     4
272
     4
273
     2
274
     2
340
10
275
     0
280
     0
281
     0
282
     0
283
     1
284
     0
285
     0
286
     0
287
     3
288
     0
  0
ENDTAB
  0
TABLE
  2
BLOCK_RECORD
  5
1
100
AcDbSymbolTable
 70
    21
  0
BLOCK_RECORD
  5
21
100
AcDbSymbolTableRecord
100
AcDbBlockTableRecord
  2
*MODEL_SPACE
  0
BLOCK_RECORD
  5
24
100
AcDbSymbolTableRecord
100
AcDbBlockTableRecord
  2
*PAPER_SPACE
  0
BLOCK_RECORD
  5
29
100
AcDbSymbolTableRecord
100
AcDbBlockTableRecord
  2
_NONE
  0
BLOCK_RECORD
  5
2D
100
AcDbSymbolTableRecord
100
AcDbBlockTableRecord
  2
_OPEN
  0
BLOCK_RECORD
  5
33
100
AcDbSymbolTableRecord
100
AcDbBlockTableRecord
  2
_CLOSED
  0
BLOCK_RECORD
  5
3A
100
AcDbSymbolTableRecord
100
AcDbBlockTableRecord
  2
_ORIGIN
  0
BLOCK_RECORD
  5
3F
100
AcDbSymbolTableRecord
100
AcDbBlockTableRecord
  2
_DOT
  0
BLOCK_RECORD
  5
47
100
AcDbSymbolTableRecord
100
AcDbBlockTableRecord
  2
_OBLIQUE
  0
BLOCK_RECORD
  5
4B
100
AcDbSymbolTableRecord
100
AcDbBlockTableRecord
  2
DIMS0
  0
BLOCK_RECORD
  5
56
100
AcDbSymbolTableRecord
100
AcDbBlockTableRecord
  2
DIMS1
  0
BLOCK_RECORD
  5
62
100
AcDbSymbolTableRecord
100
AcDbBlockTableRecord
  2
DIMS2
  0
BLOCK_RECORD
  5
6E
100
AcDbSymbolTableRecord
100
AcDbBlockTableRecord
  2
DIMS3
  0
BLOCK_RECORD
  5
79
100
AcDbSymbolTableRecord
100
AcDbBlockTableRecord
  2
DIMS4
  0
BLOCK_RECORD
  5
85
100
AcDbSymbolTableRecord
100
AcDbBlockTableRecord
  2
DIMS5
  0
BLOCK_RECORD
  5
91
100
AcDbSymbolTableRecord
100
AcDbBlockTableRecord
  2
DIMS6
  0
BLOCK_RECORD
  5
9D
100
AcDbSymbolTableRecord
100
AcDbBlockTableRecord
  2
DIMS7
  0
BLOCK_RECORD
  5
A9
100
AcDbSymbolTableRecord
100
AcDbBlockTableRecord
  2
DIMS8
  0
BLOCK_RECORD
  5
B6
100
AcDbSymbolTableRecord
100
AcDbBlockTableRecord
  2
DIMS9
  0
BLOCK_RECORD
  5
C2
100
AcDbSymbolTableRecord
100
AcDbBlockTableRecord
  2
DIMS10
  0
BLOCK_RECORD
  5
CB
100
AcDbSymbolTableRecord
100
AcDbBlockTableRecord
  2
DIMS11
  0
BLOCK_RECORD
  5
D7
100
AcDbSymbolTableRecord
100
AcDbBlockTableRecord
  2
DIMS12
  0
BLOCK_RECORD
  5
E3
100
AcDbSymbolTableRecord
100
AcDbBlockTableRecord
  2
DIMS13
  0
BLOCK_RECORD
  5
EF
100
AcDbSymbolTableRecord
100
AcDbBlockTableRecord
  2
DIMS14
  0
ENDTAB
  0
ENDSEC
  0
SECTION
  2
BLOCKS
  0
BLOCK
  5
22
100
AcDbEntity
  8
0
100
AcDbBlockBegin
  2
*MODEL_SPACE
 70
     0
 10
0.0
 20
0.0
 30
0.0
  3
*MODEL_SPACE
  1

  0
ENDBLK
  5
23
100
AcDbEntity
  8
0
100
AcDbBlockEnd
  0
BLOCK
  5
25
100
AcDbEntity
 67
     1
  8
0
100
AcDbBlockBegin
  2
*PAPER_SPACE
 70
     0
 10
0.0
 20
0.0
 30
0.0
  3
*PAPER_SPACE
  1

  0
ENDBLK
  5
26
100
AcDbEntity
 67
     1
  8
0
100
AcDbBlockEnd
  0
BLOCK
  5
2A
100
AcDbEntity
  8
0
100
AcDbBlockBegin
  2
_NONE
 70
     0
 10
0.0
 20
0.0
  0
CIRCLE
  5
2B
100
AcDbEntity
  8
0
 62
     0
100
AcDbCircle
 10
0.0
 20
0.0
 40
0.25
  0
ENDBLK
  5
2C
100
AcDbEntity
  8
0
100
AcDbBlockEnd
  0
BLOCK
  5
2E
100
AcDbEntity
  8
0
100
AcDbBlockBegin
  2
_OPEN
 70
     0
 10
0.0
 20
0.0
  0
LINE
  5
2F
100
AcDbEntity
  8
0
 62
     0
100
AcDbLine
 10
-0.965926
 20
0.258819
 11
0.0
 21
0.0
  0
LINE
  5
30
100
AcDbEntity
  8
0
 62
     0
100
AcDbLine
 10
0.0
 20
0.0
 11
-0.965926
 21
-0.258819
  0
LINE
  5
31
100
AcDbEntity
  8
0
 62
     0
100
AcDbLine
 10
0.0
 20
0.0
 11
-1.0
 21
0.0
  0
ENDBLK
  5
32
100
AcDbEntity
  8
0
100
AcDbBlockEnd
  0
BLOCK
  5
34
100
AcDbEntity
  8
0
100
AcDbBlockBegin
  2
_CLOSED
 70
     0
 10
0.0
 20
0.0
  0
LINE
  5
35
100
AcDbEntity
  8
0
 62
     0
100
AcDbLine
 10
-0.965926
 20
0.258819
 11
0.0
 21
0.0
  0
LINE
  5
36
100
AcDbEntity
  8
0
 62
     0
100
AcDbLine
 10
0.0
 20
0.0
 11
-0.965926
 21
-0.258819
  0
LINE
  5
37
100
AcDbEntity
  8
0
 62
     0
100
AcDbLine
 10
-0.965926
 20
0.258819
 11
-0.965926
 21
-0.258819
  0
LINE
  5
38
100
AcDbEntity
  8
0
 62
     0
100
AcDbLine
 10
0.0
 20
0.0
 11
-1.0
 21
0.0
  0
ENDBLK
  5
39
100
AcDbEntity
  8
0
100
AcDbBlockEnd
  0
BLOCK
  5
3B
100
AcDbEntity
  8
0
100
AcDbBlockBegin
  2
_ORIGIN
 70
     0
 10
0.0
 20
0.0
  0
CIRCLE
  5
3C
100
AcDbEntity
  8
0
 62
     0
100
AcDbCircle
 10
0.0
 20
0.0
 40
0.5
  0
LINE
  5
3D
100
AcDbEntity
  8
0
 62
     0
100
AcDbLine
 10
0.0
 20
0.0
 11
-1.0
 21
0.0
  0
ENDBLK
  5
3E
100
AcDbEntity
  8
0
100
AcDbBlockEnd
  0
BLOCK
  5
40
100
AcDbEntity
  8
0
100
AcDbBlockBegin
  2
_DOT
 70
     0
 10
0.0
 20
0.0
  0
POLYLINE
  5
41
100
AcDbEntity
  8
0
 62
     0
100
AcDb2dPolyline
 66
     1
 70
     1
 40
0.5
 41
0.5
  0
VERTEX
  5
42
100
AcDbEntity
  8
0
 62
     0
100
AcDbVertex
100
AcDb2dVertex
 10
-0.25
 20
0.0
 42
1.0
  0
VERTEX
  5
43
100
AcDbEntity
  8
0
 62
     0
100
AcDbVertex
100
AcDb2dVertex
 10
0.25
 20
0.0
 42
1.0
  0
SEQEND
  5
44
100
AcDbEntity
  8
0
 62
     0
  0
LINE
  5
45
100
AcDbEntity
  8
0
 62
     0
100
AcDbLine
 10
-0.5
 20
0.0
 11
-1.0
 21
0.0
  0
ENDBLK
  5
46
100
AcDbEntity
  8
0
100
AcDbBlockEnd
  0
BLOCK
  5
48
100
AcDbEntity
  8
0
100
AcDbBlockBegin
  2
_OBLIQUE
 70
     0
 10
0.0
 20
0.0
  0
LINE
  5
49
100
AcDbEntity
  8
0
 62
     0
100
AcDbLine
 10
-0.353553
 20
-0.353553
 11
0.353553
 21
0.353553
  0
ENDBLK
  5
4A
100
AcDbEntity
  8
0
100
AcDbBlockEnd
  0
BLOCK
  5
4C
100
AcDbEntity
  8
DD0
100
AcDbBlockBegin
  2
DIMS0
 70
     0
 10
0.0
 20
0.0
  0
LINE
  5
4D
100
AcDbEntity
  8
DD0
100
AcDbLine
 10
190.661396
 20
343.904875
 11
190.661396
 21
406.175167
  0
LINE
  5
4E
100
AcDbEntity
  8
DD0
100
AcDbLine
 10
274.710374
 20
403.507814
 11
279.061391
 21
404.673666
  0
LINE
  5
4F
100
AcDbEntity
  8
DD0
100
AcDbLine
 10
279.061391
 20
404.673666
 11
274.710374
 21
405.839517
  0
LINE
  5
50
100
AcDbEntity
  8
DD0
100
AcDbLine
 10
195.012414
 20
405.839517
 11
190.661396
 21
404.673666
  0
LINE
  5
51
100
AcDbEntity
  8
DD0
100
AcDbLine
 10
190.661396
 20
404.673666
 11
195.012414
 21
403.507814
  0
LINE
  5
52
100
AcDbEntity
  8
DD0
100
AcDbLine
 10
279.061391
 20
404.673666
 11
190.661396
 21
404.673666
  0
TEXT
  5
53
100
AcDbEntity
  8
DD0
100
AcDbText
 10
229.113142
 20
405.574576
 40
3.753754
  1
８８．５
 41
0.666667
  7
STANDARD
100
AcDbText
  0
ENDBLK
  5
54
100
AcDbEntity
  8
DD0
100
AcDbBlockEnd
  0
BLOCK
  5
57
100
AcDbEntity
  8
DD0
100
AcDbBlockBegin
  2
DIMS1
 70
     0
 10
0.0
 20
0.0
  0
LINE
  5
58
100
AcDbEntity
  8
DD0
100
AcDbLine
 10
279.061391
 20
374.154874
 11
279.061391
 21
413.007714
  0
LINE
  5
59
100
AcDbEntity
  8
DD0
100
AcDbLine
 10
159.361393
 20
335.704879
 11
159.361393
 21
413.007714
  0
LINE
  5
5A
100
AcDbEntity
  8
DD0
100
AcDbLine
 10
274.710374
 20
410.340361
 11
279.061391
 21
411.506212
  0
LINE
  5
5B
100
AcDbEntity
  8
DD0
100
AcDbLine
 10
279.061391
 20
411.506212
 11
274.710374
 21
412.672064
  0
LINE
  5
5C
100
AcDbEntity
  8
DD0
100
AcDbLine
 10
163.712411
 20
412.672064
 11
159.361393
 21
411.506212
  0
LINE
  5
5D
100
AcDbEntity
  8
DD0
100
AcDbLine
 10
159.361393
 20
411.506212
 11
163.712411
 21
410.340361
  0
LINE
  5
5E
100
AcDbEntity
  8
DD0
100
AcDbLine
 10
279.061391
 20
411.506212
 11
159.361393
 21
411.506212
  0
TEXT
  5
5F
100
AcDbEntity
  8
DD0
100
AcDbText
 10
183.433094
 20
412.407122
 40
3.753754
  1
１２０（補助接点ヘッドオンユニットを付けた場合）
 41
0.666667
  7
STANDARD
100
AcDbText
  0
ENDBLK
  5
60
100
AcDbEntity
  8
DD0
100
AcDbBlockEnd
  0
BLOCK
  5
63
100
AcDbEntity
  8
DD0
100
AcDbBlockBegin
  2
DIMS2
 70
     0
 10
0.0
 20
0.0
  0
LINE
  5
64
100
AcDbEntity
  8
DD0
100
AcDbLine
 10
190.661396
 20
343.904875
 11
190.661396
 21
389.558209
  0
LINE
  5
65
100
AcDbEntity
  8
DD0
100
AcDbLine
 10
185.661394
 20
381.825004
 11
185.661394
 21
389.558209
  0
LINE
  5
66
100
AcDbEntity
  8
DD0
100
AcDbLine
 10
195.012414
 20
389.222559
 11
190.661396
 21
388.056707
  0
LINE
  5
67
100
AcDbEntity
  8
DD0
100
AcDbLine
 10
190.661396
 20
388.056707
 11
195.012414
 21
386.890856
  0
LINE
  5
68
100
AcDbEntity
  8
DD0
100
AcDbLine
 10
181.310377
 20
386.890856
 11
185.661394
 21
388.056707
  0
LINE
  5
69
100
AcDbEntity
  8
DD0
100
AcDbLine
 10
185.661394
 20
388.056707
 11
181.310377
 21
389.222559
  0
LINE
  5
6A
100
AcDbEntity
  8
DD0
100
AcDbLine
 10
195.616351
 20
388.056707
 11
176.201934
 21
388.056707
  0
TEXT
  5
6B
100
AcDbEntity
  8
DD0
100
AcDbText
 10
177.525755
 20
388.957617
 40
3.753754
  1
５
 41
0.666667
  7
STANDARD
100
AcDbText
  0
ENDBLK
  5
6C
100
AcDbEntity
  8
DD0
100
AcDbBlockEnd
  0
BLOCK
  5
6F
100
AcDbEntity
  8
DD0
100
AcDbBlockBegin
  2
DIMS3
 70
     0
 10
0.0
 20
0.0
  0
LINE
  5
70
100
AcDbEntity
  8
DD0
100
AcDbLine
 10
268.061385
 20
373.904868
 11
268.061385
 21
385.56201
  0
LINE
  5
71
100
AcDbEntity
  8
DD0
100
AcDbLine
 10
274.710374
 20
382.894657
 11
279.061391
 21
384.060508
  0
LINE
  5
72
100
AcDbEntity
  8
DD0
100
AcDbLine
 10
279.061391
 20
384.060508
 11
274.710374
 21
385.22636
  0
LINE
  5
73
100
AcDbEntity
  8
DD0
100
AcDbLine
 10
272.412402
 20
385.22636
 11
268.061385
 21
384.060508
  0
LINE
  5
74
100
AcDbEntity
  8
DD0
100
AcDbLine
 10
268.061385
 20
384.060508
 11
272.412402
 21
382.894657
  0
LINE
  5
75
100
AcDbEntity
  8
DD0
100
AcDbLine
 10
279.061391
 20
384.060508
 11
268.061385
 21
384.060508
  0
TEXT
  5
76
100
AcDbEntity
  8
DD0
100
AcDbText
 10
270.649925
 20
384.961418
 40
3.753754
  1
１１
 41
0.666667
  7
STANDARD
100
AcDbText
  0
ENDBLK
  5
77
100
AcDbEntity
  8
DD0
100
AcDbBlockEnd
  0
BLOCK
  5
7A
100
AcDbEntity
  8
DD0
100
AcDbBlockBegin
  2
DIMS4
 70
     0
 10
0.0
 20
0.0
  0
LINE
  5
7B
100
AcDbEntity
  8
DD0
100
AcDbLine
 10
45.404379
 20
280.704964
 11
45.404379
 21
398.358956
  0
LINE
  5
7C
100
AcDbEntity
  8
DD0
100
AcDbLine
 10
130.407853
 20
280.702307
 11
130.407853
 21
398.358956
  0
LINE
  5
7D
100
AcDbEntity
  8
DD0
100
AcDbLine
 10
49.755396
 20
398.023306
 11
45.404379
 21
396.857454
  0
LINE
  5
7E
100
AcDbEntity
  8
DD0
100
AcDbLine
 10
45.404379
 20
396.857454
 11
49.755396
 21
395.691603
  0
LINE
  5
7F
100
AcDbEntity
  8
DD0
100
AcDbLine
 10
126.056836
 20
395.691603
 11
130.407853
 21
396.857454
  0
LINE
  5
80
100
AcDbEntity
  8
DD0
100
AcDbLine
 10
130.407853
 20
396.857454
 11
126.056836
 21
398.023306
  0
LINE
  5
81
100
AcDbEntity
  8
DD0
100
AcDbLine
 10
45.404379
 20
396.857454
 11
130.407853
 21
396.857454
  0
TEXT
  5
82
100
AcDbEntity
  8
DD0
100
AcDbText
 10
85.160875
 20
397.758364
 40
3.753754
  1
８５
 41
0.666667
  7
STANDARD
100
AcDbText
  0
ENDBLK
  5
83
100
AcDbEntity
  8
DD0
100
AcDbBlockEnd
  0
BLOCK
  5
86
100
AcDbEntity
  8
DD0
100
AcDbBlockBegin
  2
DIMS5
 70
     0
 10
0.0
 20
0.0
  0
LINE
  5
87
100
AcDbEntity
  8
DD0
100
AcDbLine
 10
56.904251
 20
245.701257
 11
56.904251
 21
227.265616
  0
LINE
  5
88
100
AcDbEntity
  8
DD0
100
AcDbLine
 10
76.90425
 20
245.701257
 11
76.90425
 21
227.265616
  0
LINE
  5
89
100
AcDbEntity
  8
DD0
100
AcDbLine
 10
61.255268
 20
229.932969
 11
56.904251
 21
228.767117
  0
LINE
  5
8A
100
AcDbEntity
  8
DD0
100
AcDbLine
 10
56.904251
 20
228.767117
 11
61.255268
 21
227.601266
  0
LINE
  5
8B
100
AcDbEntity
  8
DD0
100
AcDbLine
 10
72.553233
 20
227.601266
 11
76.90425
 21
228.767117
  0
LINE
  5
8C
100
AcDbEntity
  8
DD0
100
AcDbLine
 10
76.90425
 20
228.767117
 11
72.553233
 21
229.932969
  0
LINE
  5
8D
100
AcDbEntity
  8
DD0
100
AcDbLine
 10
56.904251
 20
228.767117
 11
76.90425
 21
228.767117
  0
TEXT
  5
8E
100
AcDbEntity
  8
DD0
100
AcDbText
 10
64.159008
 20
229.668027
 40
3.753754
  1
２０
 41
0.666667
  7
STANDARD
100
AcDbText
  0
ENDBLK
  5
8F
100
AcDbEntity
  8
DD0
100
AcDbBlockEnd
  0
BLOCK
  5
92
100
AcDbEntity
  8
DD0
100
AcDbBlockBegin
  2
DIMS6
 70
     0
 10
0.0
 20
0.0
  0
LINE
  5
93
100
AcDbEntity
  8
DD0
100
AcDbLine
 10
107.855878
 20
378.40337
 11
147.14844
 21
378.40337
  0
LINE
  5
94
100
AcDbEntity
  8
DD0
100
AcDbLine
 10
119.909325
 20
234.700839
 11
147.14844
 21
234.700839
  0
LINE
  5
95
100
AcDbEntity
  8
DD0
100
AcDbLine
 10
146.81279
 20
374.052352
 11
145.646938
 21
378.40337
  0
LINE
  5
96
100
AcDbEntity
  8
DD0
100
AcDbLine
 10
145.646938
 20
378.40337
 11
144.481087
 21
374.052352
  0
LINE
  5
97
100
AcDbEntity
  8
DD0
100
AcDbLine
 10
144.481087
 20
239.051856
 11
145.646938
 21
234.700839
  0
LINE
  5
98
100
AcDbEntity
  8
DD0
100
AcDbLine
 10
145.646938
 20
234.700839
 11
146.81279
 21
239.051856
  0
LINE
  5
99
100
AcDbEntity
  8
DD0
100
AcDbLine
 10
145.646938
 20
378.40337
 11
145.646938
 21
234.700839
  0
TEXT
  5
9A
100
AcDbEntity
  8
DD0
100
AcDbText
 10
144.74604
 20
302.305337
 40
3.753754
  1
１４４
 50
90.000003
 41
0.666667
  7
STANDARD
100
AcDbText
  0
ENDBLK
  5
9B
100
AcDbEntity
  8
DD0
100
AcDbBlockEnd
  0
BLOCK
  5
9E
100
AcDbEntity
  8
DD0
100
AcDbBlockBegin
  2
DIMS7
 70
     0
 10
0.0
 20
0.0
  0
LINE
  5
9F
100
AcDbEntity
  8
DD0
100
AcDbLine
 10
67.304381
 20
363.404874
 11
67.304381
 21
391.490668
  0
LINE
  5
A0
100
AcDbEntity
  8
DD0
100
AcDbLine
 10
84.90438
 20
384.904874
 11
84.90438
 21
391.490668
  0
LINE
  5
A1
100
AcDbEntity
  8
DD0
100
AcDbLine
 10
71.655398
 20
391.155018
 11
67.304381
 21
389.989166
  0
LINE
  5
A2
100
AcDbEntity
  8
DD0
100
AcDbLine
 10
67.304381
 20
389.989166
 11
71.655398
 21
388.823315
  0
LINE
  5
A3
100
AcDbEntity
  8
DD0
100
AcDbLine
 10
80.553363
 20
388.823315
 11
84.90438
 21
389.989166
  0
LINE
  5
A4
100
AcDbEntity
  8
DD0
100
AcDbLine
 10
84.90438
 20
389.989166
 11
80.553363
 21
391.155018
  0
LINE
  5
A5
100
AcDbEntity
  8
DD0
100
AcDbLine
 10
67.304381
 20
389.989166
 11
84.90438
 21
389.989166
  0
TEXT
  5
A6
100
AcDbEntity
  8
DD0
100
AcDbText
 10
70.356132
 20
390.890076
 40
3.753754
  1
１７．５
 41
0.666667
  7
STANDARD
100
AcDbText
  0
ENDBLK
  5
A7
100
AcDbEntity
  8
DD0
100
AcDbBlockEnd
  0
BLOCK
  5
AA
100
AcDbEntity
  8
DD0
100
AcDbBlockBegin
  2
DIMS8
 70
     0
 10
0.0
 20
0.0
  0
LINE
  5
AB
100
AcDbEntity
  8
DD0
100
AcDbLine
 10
33.954382
 20
363.104876
 11
33.954382
 21
411.912655
  0
LINE
  5
AC
100
AcDbEntity
  8
DD0
100
AcDbLine
 10
135.85437
 20
363.104876
 11
135.85437
 21
411.912655
  0
LINE
  5
AD
100
AcDbEntity
  8
DD0
100
AcDbLine
 10
38.305399
 20
411.577005
 11
33.954382
 21
410.411154
  0
LINE
  5
AE
100
AcDbEntity
  8
DD0
100
AcDbLine
 10
33.954382
 20
410.411154
 11
38.305399
 21
409.245302
  0
LINE
  5
AF
100
AcDbEntity
  8
DD0
100
AcDbLine
 10
131.503353
 20
409.245302
 11
135.85437
 21
410.411154
  0
LINE
  5
B0
100
AcDbEntity
  8
DD0
100
AcDbLine
 10
135.85437
 20
410.411154
 11
131.503353
 21
411.577005
  0
LINE
  5
B1
100
AcDbEntity
  8
DD0
100
AcDbLine
 10
33.954382
 20
410.411154
 11
135.85437
 21
410.411154
  0
TEXT
  5
B2
100
AcDbEntity
  8
DD0
100
AcDbText
 10
80.65763
 20
411.312064
 40
3.753754
  1
１０２
 41
0.666667
  7
STANDARD
100
AcDbText
  0
TEXT
  5
B3
100
AcDbEntity
  8
DD0
100
AcDbText
 10
53.630604
 20
405.456217
 40
3.753754
  1
（補助接点サイドオンユニットを付けた場合）
 41
0.666667
  7
STANDARD
100
AcDbText
  0
ENDBLK
  5
B4
100
AcDbEntity
  8
DD0
100
AcDbBlockEnd
  0
BLOCK
  5
B7
100
AcDbEntity
  8
DD0
100
AcDbBlockBegin
  2
DIMS9
 70
     0
 10
0.0
 20
0.0
  0
LINE
  5
B8
100
AcDbEntity
  8
DD0
100
AcDbLine
 10
124.700023
 20
192.676187
 11
147.14844
 21
192.676187
  0
LINE
  5
B9
100
AcDbEntity
  8
DD0
100
AcDbLine
 10
55.003174
 20
179.631709
 11
147.14844
 21
179.631709
  0
LINE
  5
BA
100
AcDbEntity
  8
DD0
100
AcDbLine
 10
146.81279
 20
188.325169
 11
145.646938
 21
192.676187
  0
LINE
  5
BB
100
AcDbEntity
  8
DD0
100
AcDbLine
 10
145.646938
 20
192.676187
 11
144.481087
 21
188.325169
  0
LINE
  5
BC
100
AcDbEntity
  8
DD0
100
AcDbLine
 10
144.481087
 20
183.982726
 11
145.646938
 21
179.631709
  0
LINE
  5
BD
100
AcDbEntity
  8
DD0
100
AcDbLine
 10
145.646938
 20
179.631709
 11
146.81279
 21
183.982726
  0
LINE
  5
BE
100
AcDbEntity
  8
DD0
100
AcDbLine
 10
145.646938
 20
205.138649
 11
145.646938
 21
179.631709
  0
TEXT
  5
BF
100
AcDbEntity
  8
DD0
100
AcDbText
 10
144.74604
 20
197.888895
 40
3.753754
  1
１３
 50
90.000003
 41
0.666667
  7
STANDARD
100
AcDbText
  0
ENDBLK
  5
C0
100
AcDbEntity
  8
DD0
100
AcDbBlockEnd
  0
BLOCK
  5
C3
100
AcDbEntity
  8
DD0
100
AcDbBlockBegin
  2
DIMS10
 70
     0
 10
0.0
 20
0.0
  0
TEXT
  5
C4
100
AcDbEntity
  8
DD0
100
AcDbText
 10
130.345923
 20
107.080258
 40
3.753754
  1
２－Ｍ４ねじ穴
 41
0.666667
  7
STANDARD
100
AcDbText
  0
LINE
  5
C5
100
AcDbEntity
  8
DD0
100
AcDbLine
 10
124.65167
 20
108.803457
 11
121.13571
 21
111.619232
  0
LINE
  5
C6
100
AcDbEntity
  8
DD0
100
AcDbLine
 10
121.13571
 20
111.619232
 11
122.772733
 21
107.42272
  0
LINE
  5
C7
100
AcDbEntity
  8
DD0
100
AcDbLine
 10
121.13571
 20
111.619232
 11
125.133203
 21
106.179359
  0
LINE
  5
C8
100
AcDbEntity
  8
DD0
100
AcDbLine
 10
125.133203
 20
106.179359
 11
156.064132
 21
106.179359
  0
ENDBLK
  5
C9
100
AcDbEntity
  8
DD0
100
AcDbBlockEnd
  0
BLOCK
  5
CC
100
AcDbEntity
  8
DD0
100
AcDbBlockBegin
  2
DIMS11
 70
     0
 10
0.0
 20
0.0
  0
LINE
  5
CD
100
AcDbEntity
  8
DD0
100
AcDbLine
 10
120.404262
 20
120.230607
 11
120.404262
 21
207.897447
  0
LINE
  5
CE
100
AcDbEntity
  8
DD0
100
AcDbLine
 10
49.404264
 20
185.230608
 11
49.404264
 21
207.897447
  0
LINE
  5
CF
100
AcDbEntity
  8
DD0
100
AcDbLine
 10
116.053245
 20
205.230094
 11
120.404262
 21
206.395946
  0
LINE
  5
D0
100
AcDbEntity
  8
DD0
100
AcDbLine
 10
120.404262
 20
206.395946
 11
116.053245
 21
207.561797
  0
LINE
  5
D1
100
AcDbEntity
  8
DD0
100
AcDbLine
 10
53.755281
 20
207.561797
 11
49.404264
 21
206.395946
  0
LINE
  5
D2
100
AcDbEntity
  8
DD0
100
AcDbLine
 10
49.404264
 20
206.395946
 11
53.755281
 21
205.230094
  0
LINE
  5
D3
100
AcDbEntity
  8
DD0
100
AcDbLine
 10
120.404262
 20
206.395946
 11
49.404264
 21
206.395946
  0
TEXT
  5
D4
100
AcDbEntity
  8
DD0
100
AcDbText
 10
82.159023
 20
207.296856
 40
3.753754
  1
７１
 41
0.666667
  7
STANDARD
100
AcDbText
  0
ENDBLK
  5
D5
100
AcDbEntity
  8
DD0
100
AcDbBlockEnd
  0
BLOCK
  5
D8
100
AcDbEntity
  8
DD0
100
AcDbBlockBegin
  2
DIMS12
 70
     0
 10
0.0
 20
0.0
  0
LINE
  5
D9
100
AcDbEntity
  8
DD0
100
AcDbLine
 10
49.404264
 20
185.230608
 11
49.404264
 21
207.897447
  0
LINE
  5
DA
100
AcDbEntity
  8
DD0
100
AcDbLine
 10
45.404245
 20
194.177688
 11
45.404245
 21
207.897447
  0
LINE
  5
DB
100
AcDbEntity
  8
DD0
100
AcDbLine
 10
53.755281
 20
207.561797
 11
49.404264
 21
206.395946
  0
LINE
  5
DC
100
AcDbEntity
  8
DD0
100
AcDbLine
 10
49.404264
 20
206.395946
 11
53.755281
 21
205.230094
  0
LINE
  5
DD
100
AcDbEntity
  8
DD0
100
AcDbLine
 10
41.053227
 20
205.230094
 11
45.404245
 21
206.395946
  0
LINE
  5
DE
100
AcDbEntity
  8
DD0
100
AcDbLine
 10
45.404245
 20
206.395946
 11
41.053227
 21
207.561797
  0
LINE
  5
DF
100
AcDbEntity
  8
DD0
100
AcDbLine
 10
54.359219
 20
206.395946
 11
35.944785
 21
206.395946
  0
TEXT
  5
E0
100
AcDbEntity
  8
DD0
100
AcDbText
 10
37.268611
 20
207.296856
 40
3.753754
  1
４
 41
0.666667
  7
STANDARD
100
AcDbText
  0
ENDBLK
  5
E1
100
AcDbEntity
  8
DD0
100
AcDbBlockEnd
  0
BLOCK
  5
E4
100
AcDbEntity
  8
DD0
100
AcDbBlockBegin
  2
DIMS13
 70
     0
 10
0.0
 20
0.0
  0
LINE
  5
E5
100
AcDbEntity
  8
DD0
100
AcDbLine
 10
55.003174
 20
179.631709
 11
147.14844
 21
179.631709
  0
LINE
  5
E6
100
AcDbEntity
  8
DD0
100
AcDbLine
 10
126.003172
 20
114.631709
 11
147.14844
 21
114.631709
  0
LINE
  5
E7
100
AcDbEntity
  8
DD0
100
AcDbLine
 10
146.81279
 20
175.280692
 11
145.646938
 21
179.631709
  0
LINE
  5
E8
100
AcDbEntity
  8
DD0
100
AcDbLine
 10
145.646938
 20
179.631709
 11
144.481087
 21
175.280692
  0
LINE
  5
E9
100
AcDbEntity
  8
DD0
100
AcDbLine
 10
144.481087
 20
118.982726
 11
145.646938
 21
114.631709
  0
LINE
  5
EA
100
AcDbEntity
  8
DD0
100
AcDbLine
 10
145.646938
 20
114.631709
 11
146.81279
 21
118.982726
  0
LINE
  5
EB
100
AcDbEntity
  8
DD0
100
AcDbLine
 10
145.646938
 20
179.631709
 11
145.646938
 21
114.631709
  0
TEXT
  5
EC
100
AcDbEntity
  8
DD0
100
AcDbText
 10
144.74604
 20
144.38646
 40
3.753754
  1
６５
 50
90.000003
 41
0.666667
  7
STANDARD
100
AcDbText
  0
ENDBLK
  5
ED
100
AcDbEntity
  8
DD0
100
AcDbBlockEnd
  0
BLOCK
  5
F0
100
AcDbEntity
  8
DD0
100
AcDbBlockBegin
  2
DIMS14
 70
     0
 10
0.0
 20
0.0
  0
LINE
  5
F1
100
AcDbEntity
  8
DD0
100
AcDbLine
 10
279.061391
 20
288.651861
 11
279.061391
 21
213.991225
  0
LINE
  5
F2
100
AcDbEntity
  8
DD0
100
AcDbLine
 10
204.20718
 20
257.651867
 11
204.20718
 21
213.991225
  0
LINE
  5
F3
100
AcDbEntity
  8
DD0
100
AcDbLine
 10
274.710374
 20
214.326875
 11
279.061391
 21
215.492727
  0
LINE
  5
F4
100
AcDbEntity
  8
DD0
100
AcDbLine
 10
279.061391
 20
215.492727
 11
274.710374
 21
216.658578
  0
LINE
  5
F5
100
AcDbEntity
  8
DD0
100
AcDbLine
 10
208.558197
 20
216.658578
 11
204.20718
 21
215.492727
  0
LINE
  5
F6
100
AcDbEntity
  8
DD0
100
AcDbLine
 10
204.20718
 20
215.492727
 11
208.558197
 21
214.326875
  0
LINE
  5
F7
100
AcDbEntity
  8
DD0
100
AcDbLine
 10
279.061391
 20
215.492727
 11
204.20718
 21
215.492727
  0
TEXT
  5
F8
100
AcDbEntity
  8
DD0
100
AcDbText
 10
237.291204
 20
216.393637
 40
4.72973
  1
７５
 41
0.833333
  7
STANDARD
100
AcDbText
  0
ENDBLK
  5
F9
100
AcDbEntity
  8
DD0
100
AcDbBlockEnd
  0
ENDSEC
  0
SECTION
  2
ENTITIES
  0
INSERT
  5
55
100
AcDbEntity
  8
DD0
100
AcDbBlockReference
  2
DIMS0
 10
0.0
 20
0.0
  0
INSERT
  5
61
100
AcDbEntity
  8
DD0
100
AcDbBlockReference
  2
DIMS1
 10
0.0
 20
0.0
  0
INSERT
  5
6D
100
AcDbEntity
  8
DD0
100
AcDbBlockReference
  2
DIMS2
 10
0.0
 20
0.0
  0
INSERT
  5
78
100
AcDbEntity
  8
DD0
100
AcDbBlockReference
  2
DIMS3
 10
0.0
 20
0.0
  0
INSERT
  5
84
100
AcDbEntity
  8
DD0
100
AcDbBlockReference
  2
DIMS4
 10
0.0
 20
0.0
  0
INSERT
  5
90
100
AcDbEntity
  8
DD0
100
AcDbBlockReference
  2
DIMS5
 10
0.0
 20
0.0
  0
INSERT
  5
9C
100
AcDbEntity
  8
DD0
100
AcDbBlockReference
  2
DIMS6
 10
0.0
 20
0.0
  0
INSERT
  5
A8
100
AcDbEntity
  8
DD0
100
AcDbBlockReference
  2
DIMS7
 10
0.0
 20
0.0
  0
INSERT
  5
B5
100
AcDbEntity
  8
DD0
100
AcDbBlockReference
  2
DIMS8
 10
0.0
 20
0.0
  0
INSERT
  5
C1
100
AcDbEntity
  8
DD0
100
AcDbBlockReference
  2
DIMS9
 10
0.0
 20
0.0
  0
INSERT
  5
CA
100
AcDbEntity
  8
DD0
100
AcDbBlockReference
  2
DIMS10
 10
0.0
 20
0.0
  0
INSERT
  5
D6
100
AcDbEntity
  8
DD0
100
AcDbBlockReference
  2
DIMS11
 10
0.0
 20
0.0
  0
INSERT
  5
E2
100
AcDbEntity
  8
DD0
100
AcDbBlockReference
  2
DIMS12
 10
0.0
 20
0.0
  0
INSERT
  5
EE
100
AcDbEntity
  8
DD0
100
AcDbBlockReference
  2
DIMS13
 10
0.0
 20
0.0
  0
INSERT
  5
FA
100
AcDbEntity
  8
DD0
100
AcDbBlockReference
  2
DIMS14
 10
0.0
 20
0.0
  0
ARC
  5
FB
100
AcDbEntity
  8
M0
 62
     2
100
AcDbCircle
 10
210.461439
 20
280.466767
 40
3.599999
100
AcDbArc
 50
134.999796
 51
180.0
  0
ARC
  5
FC
100
AcDbEntity
  8
M0
 62
     2
100
AcDbCircle
 10
210.461439
 20
280.466752
 40
2.0
100
AcDbArc
 50
135.000425
 51
180.0
  0
LINE
  5
FD
100
AcDbEntity
  8
M0
 62
     2
100
AcDbLine
 10
214.30694
 20
289.403365
 11
207.915861
 21
283.01236
  0
LINE
  5
FE
100
AcDbEntity
  8
M0
 62
     2
100
AcDbLine
 10
208.461302
 20
280.466553
 11
208.461302
 21
278.403365
  0
LINE
  5
FF
100
AcDbEntity
  8
M0
 62
     2
100
AcDbLine
 10
216.569638
 20
289.403365
 11
209.047224
 21
281.880952
  0
LINE
  5
100
100
AcDbEntity
  8
M0
 62
     2
100
AcDbLine
 10
206.861448
 20
280.466553
 11
206.861448
 21
278.403365
  0
LINE
  5
101
100
AcDbEntity
  8
M0
  6
DASHED
100
AcDbLine
 10
243.561396
 20
378.403367
 11
243.561396
 21
369.903365
  0
LINE
  5
102
100
AcDbEntity
  8
M0
  6
DASHED
100
AcDbLine
 10
242.561396
 20
369.903365
 11
242.561396
 21
378.403367
  0
LINE
  5
103
100
AcDbEntity
  8
M0
  6
DASHED
100
AcDbLine
 10
217.661396
 20
368.403364
 11
217.661396
 21
340.403364
  0
LINE
  5
104
100
AcDbEntity
  8
M0
  6
DASHED
100
AcDbLine
 10
219.661396
 20
340.403364
 11
219.661396
 21
368.403364
  0
LINE
  5
105
100
AcDbEntity
  8
M0
  6
DASHED
100
AcDbLine
 10
219.661396
 20
368.403364
 11
217.661396
 21
368.403364
  0
LINE
  5
106
100
AcDbEntity
  8
M0
  6
DASHED
100
AcDbLine
 10
217.661396
 20
340.403364
 11
219.661396
 21
340.403364
  0
LINE
  5
107
100
AcDbEntity
  8
M0
100
AcDbLine
 10
271.261396
 20
314.84281
 11
255.761397
 21
314.84281
  0
LINE
  5
108
100
AcDbEntity
  8
M0
100
AcDbLine
 10
278.761396
 20
290.153367
 11
279.061396
 21
290.153367
  0
LINE
  5
109
100
AcDbEntity
  8
M0
100
AcDbLine
 10
233.361396
 20
378.403367
 11
235.861397
 21
378.403367
  0
LINE
  5
10A
100
AcDbEntity
  8
M0
100
AcDbLine
 10
232.861395
 20
377.403365
 11
232.861395
 21
377.903366
  0
LINE
  5
10B
100
AcDbEntity
  8
M0
100
AcDbLine
 10
279.061396
 20
303.153365
 11
278.761396
 21
303.153365
  0
LINE
  5
10C
100
AcDbEntity
  8
M0
100
AcDbLine
 10
274.561396
 20
347.203366
 11
274.561396
 21
349.703365
  0
LINE
  5
10D
100
AcDbEntity
  8
M0
100
AcDbLine
 10
230.161397
 20
334.603366
 11
230.161397
 21
329.403366
  0
LINE
  5
10E
100
AcDbEntity
  8
M0
100
AcDbLine
 10
232.861395
 20
375.403365
 11
232.861395
 21
377.403365
  0
LINE
  5
10F
100
AcDbEntity
  8
M0
100
AcDbLine
 10
232.861395
 20
376.303365
 11
232.861395
 21
377.403365
  0
LINE
  5
110
100
AcDbEntity
  8
M0
100
AcDbLine
 10
279.061396
 20
372.653366
 11
278.761396
 21
372.653366
  0
LINE
  5
111
100
AcDbEntity
  8
M0
100
AcDbLine
 10
255.761397
 20
317.719594
 11
271.261396
 21
317.719594
  0
LINE
  5
112
100
AcDbEntity
  8
M0
100
AcDbLine
 10
271.261396
 20
346.087138
 11
255.761397
 21
346.087138
  0
ARC
  5
113
100
AcDbEntity
  8
M0
100
AcDbCircle
 10
230.661396
 20
329.403366
 40
0.5
100
AcDbArc
 50
180.0
 51
203.578178
  0
ARC
  5
114
100
AcDbEntity
  8
M0
100
AcDbCircle
 10
241.561396
 20
327.903366
 40
0.5
100
AcDbArc
 50
270.0
 51
306.869898
  0
ARC
  5
115
100
AcDbEntity
  8
M0
100
AcDbCircle
 10
271.261396
 20
318.019594
 40
0.3
100
AcDbArc
 50
270.0
 51
360.0
  0
ARC
  5
116
100
AcDbEntity
  8
M0
100
AcDbCircle
 10
271.261396
 20
349.263921
 40
0.3
100
AcDbArc
 50
270.0
 51
360.0
  0
ARC
  5
117
100
AcDbEntity
  8
M0
100
AcDbCircle
 10
271.261396
 20
345.787138
 40
0.3
100
AcDbArc
 50
0.0
 51
90.0
  0
LINE
  5
118
100
AcDbEntity
  8
M0
100
AcDbLine
 10
243.961396
 20
378.403367
 11
252.747182
 21
378.403367
  0
LINE
  5
119
100
AcDbEntity
  8
M0
100
AcDbLine
 10
197.661398
 20
327.403366
 11
194.961397
 21
327.403366
  0
LINE
  5
11A
100
AcDbEntity
  8
M0
100
AcDbLine
 10
232.861395
 20
369.336699
 11
232.861395
 21
375.403365
  0
LINE
  5
11B
100
AcDbEntity
  8
M0
100
AcDbLine
 10
243.961396
 20
378.403367
 11
235.861397
 21
378.403367
  0
LINE
  5
11C
100
AcDbEntity
  8
M0
100
AcDbLine
 10
258.161396
 20
372.989153
 11
258.161396
 21
369.903365
  0
LINE
  5
11D
100
AcDbEntity
  8
M0
100
AcDbLine
 10
255.761397
 20
348.963921
 11
271.261396
 21
348.963921
  0
ARC
  5
11E
100
AcDbEntity
  8
M0
100
AcDbCircle
 10
257.161396
 20
372.989152
 40
1.0
100
AcDbArc
 50
0.0
 51
45.0
  0
LINE
  5
11F
100
AcDbEntity
  8
M0
100
AcDbLine
 10
253.454289
 20
378.110473
 11
257.868503
 21
373.696258
  0
LINE
  5
120
100
AcDbEntity
  8
M0
100
AcDbLine
 10
274.561396
 20
314.103366
 11
274.561396
 21
349.703365
  0
ARC
  5
121
100
AcDbEntity
  8
M0
100
AcDbCircle
 10
252.747183
 20
377.403366
 40
1.0
100
AcDbArc
 50
45.0
 51
90.0
  0
LINE
  5
122
100
AcDbEntity
  8
M0
100
AcDbLine
 10
245.061396
 20
378.403367
 11
244.561397
 21
378.403367
  0
LINE
  5
123
100
AcDbEntity
  8
M0
100
AcDbLine
 10
200.761399
 20
314.803365
 11
200.761399
 21
327.203366
  0
LINE
  5
124
100
AcDbEntity
  8
M0
100
AcDbLine
 10
278.761396
 20
372.903367
 11
278.761396
 21
372.653366
  0
LINE
  5
125
100
AcDbEntity
  8
M0
100
AcDbLine
 10
202.661394
 20
374.403366
 11
228.007889
 21
374.403366
  0
LINE
  5
126
100
AcDbEntity
  8
M0
100
AcDbLine
 10
279.061396
 20
360.653366
 11
278.761396
 21
360.653366
  0
LINE
  5
127
100
AcDbEntity
  8
M0
100
AcDbLine
 10
279.061396
 20
360.655376
 11
278.761396
 21
360.655376
  0
LINE
  5
128
100
AcDbEntity
  8
M0
100
AcDbLine
 10
278.761396
 20
367.433672
 11
278.761396
 21
347.203366
  0
LINE
  5
129
100
AcDbEntity
  8
M0
100
AcDbLine
 10
194.961397
 20
341.903366
 11
192.661396
 21
341.903366
  0
LINE
  5
12A
100
AcDbEntity
  8
M0
100
AcDbLine
 10
203.761397
 20
328.203366
 11
201.761393
 21
328.203366
  0
LINE
  5
12B
100
AcDbEntity
  8
M0
100
AcDbLine
 10
279.061396
 20
303.103366
 11
279.061396
 21
290.153367
  0
LINE
  5
12C
100
AcDbEntity
  8
M0
100
AcDbLine
 10
215.161397
 20
311.803366
 11
203.761397
 21
311.803366
  0
LINE
  5
12D
100
AcDbEntity
  8
M0
100
AcDbLine
 10
218.161395
 20
307.553365
 11
218.161395
 21
308.803366
  0
LINE
  5
12E
100
AcDbEntity
  8
M0
100
AcDbLine
 10
239.361397
 20
307.103365
 11
237.201611
 21
305.267548
  0
LINE
  5
12F
100
AcDbEntity
  8
M0
100
AcDbLine
 10
243.861396
 20
307.103365
 11
239.361397
 21
307.103365
  0
LINE
  5
130
100
AcDbEntity
  8
M0
100
AcDbLine
 10
233.661397
 20
329.403366
 11
233.661397
 21
334.603366
  0
LINE
  5
131
100
AcDbEntity
  8
M0
100
AcDbLine
 10
198.661393
 20
338.103366
 11
200.761399
 21
338.103366
  0
LINE
  5
132
100
AcDbEntity
  8
M0
100
AcDbLine
 10
197.661398
 20
294.403366
 11
197.661398
 21
369.403366
  0
LINE
  5
133
100
AcDbEntity
  8
M0
100
AcDbLine
 10
230.544357
 20
373.005343
 11
235.661397
 21
364.903366
  0
LINE
  5
134
100
AcDbEntity
  8
M0
100
AcDbLine
 10
200.761399
 20
325.703366
 11
198.661393
 21
325.703366
  0
LINE
  5
135
100
AcDbEntity
  8
M0
100
AcDbLine
 10
279.061396
 20
360.655376
 11
279.061396
 21
360.653366
  0
LINE
  5
136
100
AcDbEntity
  8
M0
100
AcDbLine
 10
201.761393
 20
335.603366
 11
201.761393
 21
328.203366
  0
LINE
  5
137
100
AcDbEntity
  8
M0
100
AcDbLine
 10
235.650084
 20
364.903366
 11
235.650084
 21
359.227722
  0
LINE
  5
138
100
AcDbEntity
  8
M0
100
AcDbLine
 10
235.258664
 20
304.553367
 11
221.161398
 21
304.553367
  0
LINE
  5
139
100
AcDbEntity
  8
M0
100
AcDbLine
 10
228.418755
 20
289.403365
 11
202.661394
 21
289.403365
  0
LINE
  5
13A
100
AcDbEntity
  8
M0
100
AcDbLine
 10
241.861398
 20
336.203366
 11
241.561397
 21
336.203366
  0
LINE
  5
13B
100
AcDbEntity
  8
M0
100
AcDbLine
 10
235.661397
 20
364.903366
 11
243.861396
 21
364.903366
  0
ARC
  5
13C
100
AcDbEntity
  8
M0
100
AcDbCircle
 10
233.161396
 20
329.403366
 40
0.5
100
AcDbArc
 50
336.421822
 51
360.0
  0
ARC
  5
13D
100
AcDbEntity
  8
M0
100
AcDbCircle
 10
228.00789
 20
371.403366
 40
3.0
100
AcDbArc
 50
32.275644
 51
90.0
  0
ARC
  5
13E
100
AcDbEntity
  8
M0
100
AcDbCircle
 10
241.561396
 20
334.903366
 40
0.5
100
AcDbArc
 50
53.130102
 51
90.0
  0
ARC
  5
13F
100
AcDbEntity
  8
M0
100
AcDbCircle
 10
271.261396
 20
314.542811
 40
0.3
100
AcDbArc
 50
0.0
 51
90.0
  0
LINE
  5
140
100
AcDbEntity
  8
M0
100
AcDbLine
 10
243.861396
 20
295.403366
 11
235.661397
 21
295.403366
  0
LINE
  5
141
100
AcDbEntity
  8
M0
100
AcDbLine
 10
235.650084
 20
304.57901
 11
235.650084
 21
295.403366
  0
ARC
  5
142
100
AcDbEntity
  8
M0
100
AcDbCircle
 10
233.361396
 20
377.903366
 40
0.5
100
AcDbArc
 50
90.0
 51
180.0
  0
LINE
  5
143
100
AcDbEntity
  8
M0
100
AcDbLine
 10
235.661397
 20
295.403366
 11
230.540077
 21
290.282046
  0
ARC
  5
144
100
AcDbEntity
  8
M0
100
AcDbCircle
 10
201.761396
 20
336.603366
 40
1.0
100
AcDbArc
 50
180.0
 51
270.0
  0
ARC
  5
145
100
AcDbEntity
  8
M0
100
AcDbCircle
 10
201.761396
 20
327.203366
 40
1.0
100
AcDbArc
 50
90.0
 51
180.0
  0
ARC
  5
146
100
AcDbEntity
  8
M0
100
AcDbCircle
 10
238.161396
 20
290.403366
 40
1.0
100
AcDbArc
 50
180.0
 51
270.0
  0
ARC
  5
147
100
AcDbEntity
  8
M0
100
AcDbCircle
 10
202.661396
 20
294.403366
 40
5.0
100
AcDbArc
 50
180.0
 51
270.0
  0
LINE
  5
148
100
AcDbEntity
  8
M0
100
AcDbLine
 10
191.161393
 20
342.903366
 11
191.661394
 21
342.903366
  0
ARC
  5
149
100
AcDbEntity
  8
M0
100
AcDbCircle
 10
221.161396
 20
307.553366
 40
3.0
100
AcDbArc
 50
180.0
 51
270.0
  0
ARC
  5
14A
100
AcDbEntity
  8
M0
100
AcDbCircle
 10
203.761396
 20
314.803366
 40
3.0
100
AcDbArc
 50
180.0
 51
270.0
  0
ARC
  5
14B
100
AcDbEntity
  8
M0
100
AcDbCircle
 10
198.661396
 20
337.103366
 40
1.0
100
AcDbArc
 50
90.0
 51
180.0
  0
ARC
  5
14C
100
AcDbEntity
  8
M0
100
AcDbCircle
 10
215.161396
 20
308.803366
 40
3.0
100
AcDbArc
 50
0.0
 51
90.0
  0
ARC
  5
14D
100
AcDbEntity
  8
M0
100
AcDbCircle
 10
233.661396
 20
375.703366
 40
1.0
100
AcDbArc
 50
143.130102
 51
180.0
  0
ARC
  5
14E
100
AcDbEntity
  8
M0
100
AcDbCircle
 10
191.161396
 20
342.403366
 40
0.5
100
AcDbArc
 50
90.0
 51
180.0
  0
ARC
  5
14F
100
AcDbEntity
  8
M0
100
AcDbCircle
 10
202.661396
 20
369.403366
 40
5.0
100
AcDbArc
 50
90.0
 51
180.0
  0
ARC
  5
150
100
AcDbEntity
  8
M0
100
AcDbCircle
 10
198.661396
 20
326.703366
 40
1.0
100
AcDbArc
 50
180.0
 51
270.0
  0
LINE
  5
151
100
AcDbEntity
  8
M0
100
AcDbLine
 10
232.661395
 20
369.653364
 11
232.661395
 21
375.703366
  0
ARC
  5
152
100
AcDbEntity
  8
M0
100
AcDbCircle
 10
235.258665
 20
307.553366
 40
3.0
100
AcDbArc
 50
270.0
 51
310.364537
  0
ELLIPSE
  5
153
100
AcDbEntity
  8
M0
100
AcDbEllipse
 10
191.161396
 20
338.210473
 11
-0.5
 21
0.0
210
0.0
220
0.0
230
1.0
 40
0.414214
 41
0.0
 42
1.570796326794897
  0
ARC
  5
154
100
AcDbEntity
  8
M0
100
AcDbCircle
 10
228.418756
 20
292.403366
 40
3.0
100
AcDbArc
 50
270.0
 51
315.0
  0
LINE
  5
155
100
AcDbEntity
  8
M0
100
AcDbLine
 10
197.661398
 20
339.103366
 11
195.461398
 21
339.103366
  0
LINE
  5
156
100
AcDbEntity
  8
M0
100
AcDbLine
 10
195.961399
 20
354.603366
 11
197.661398
 21
354.603366
  0
LINE
  5
157
100
AcDbEntity
  8
M0
100
AcDbLine
 10
197.661398
 20
333.403366
 11
194.961397
 21
333.403366
  0
LINE
  5
158
100
AcDbEntity
  8
M0
100
AcDbLine
 10
229.361395
 20
329.203366
 11
241.061396
 21
329.203366
  0
LINE
  5
159
100
AcDbEntity
  8
M0
100
AcDbLine
 10
241.561397
 20
337.603366
 11
241.561397
 21
335.103366
  0
LINE
  5
15A
100
AcDbEntity
  8
M0
100
AcDbLine
 10
228.861398
 20
334.103366
 11
228.861398
 21
329.703366
  0
LINE
  5
15B
100
AcDbEntity
  8
M0
100
AcDbLine
 10
194.961397
 20
336.403366
 11
197.661398
 21
336.403366
  0
LINE
  5
15C
100
AcDbEntity
  8
M0
100
AcDbLine
 10
197.661398
 20
309.203365
 11
195.961399
 21
309.203365
  0
LINE
  5
15D
100
AcDbEntity
  8
M0
100
AcDbLine
 10
194.961397
 20
330.403366
 11
197.661398
 21
330.403366
  0
LINE
  5
15E
100
AcDbEntity
  8
M0
100
AcDbLine
 10
195.461398
 20
324.703366
 11
197.661398
 21
324.703366
  0
LINE
  5
15F
100
AcDbEntity
  8
M0
100
AcDbLine
 10
196.461393
 20
339.103366
 11
196.461393
 21
336.403366
  0
LINE
  5
160
100
AcDbEntity
  8
M0
100
AcDbLine
 10
194.961397
 20
316.903366
 11
194.461396
 21
316.903366
  0
LINE
  5
161
100
AcDbEntity
  8
M0
100
AcDbLine
 10
196.461393
 20
333.403366
 11
196.461393
 21
330.403366
  0
LINE
  5
162
100
AcDbEntity
  8
M0
100
AcDbLine
 10
196.461393
 20
324.703366
 11
196.461393
 21
327.403366
  0
LINE
  5
163
100
AcDbEntity
  8
M0
100
AcDbLine
 10
237.161397
 20
290.403367
 11
237.161397
 21
295.403366
  0
LINE
  5
164
100
AcDbEntity
  8
M0
100
AcDbLine
 10
194.461396
 20
318.903366
 11
194.961397
 21
318.903366
  0
LINE
  5
165
100
AcDbEntity
  8
M0
100
AcDbLine
 10
193.961395
 20
317.403366
 11
193.961395
 21
318.403365
  0
LINE
  5
166
100
AcDbEntity
  8
M0
100
AcDbLine
 10
204.761399
 20
336.603366
 11
204.761399
 21
327.203366
  0
LINE
  5
167
100
AcDbEntity
  8
M0
100
AcDbLine
 10
229.361395
 20
334.603366
 11
241.061396
 21
334.603366
  0
LINE
  5
168
100
AcDbEntity
  8
M0
100
AcDbLine
 10
242.061398
 20
338.103366
 11
243.861396
 21
338.103366
  0
LINE
  5
169
100
AcDbEntity
  8
M0
100
AcDbLine
 10
194.961397
 20
310.203365
 11
194.961397
 21
353.603366
  0
LINE
  5
16A
100
AcDbEntity
  8
M0
100
AcDbLine
 10
221.161398
 20
359.253365
 11
235.258664
 21
359.253365
  0
LINE
  5
16B
100
AcDbEntity
  8
M0
100
AcDbLine
 10
241.561397
 20
328.703366
 11
241.561397
 21
326.203366
  0
LINE
  5
16C
100
AcDbEntity
  8
M0
100
AcDbLine
 10
251.261397
 20
347.003366
 11
251.261397
 21
352.003365
  0
LINE
  5
16D
100
AcDbEntity
  8
M0
100
AcDbLine
 10
268.061396
 20
356.703366
 11
268.061396
 21
372.403366
  0
LINE
  5
16E
100
AcDbEntity
  8
M0
100
AcDbLine
 10
203.761397
 20
352.003365
 11
215.161397
 21
352.003365
  0
LINE
  5
16F
100
AcDbEntity
  8
M0
100
AcDbLine
 10
243.861396
 20
337.903366
 11
243.861396
 21
364.903366
  0
LINE
  5
170
100
AcDbEntity
  8
M0
100
AcDbLine
 10
203.761397
 20
328.203366
 11
203.761397
 21
335.603366
  0
LINE
  5
171
100
AcDbEntity
  8
M0
100
AcDbLine
 10
278.261396
 20
349.703365
 11
271.561396
 21
349.703365
  0
LINE
  5
172
100
AcDbEntity
  8
M0
100
AcDbLine
 10
271.561396
 20
345.703366
 11
273.561396
 21
345.703366
  0
LINE
  5
173
100
AcDbEntity
  8
M0
100
AcDbLine
 10
218.161395
 20
355.003366
 11
218.161395
 21
356.253366
  0
LINE
  5
174
100
AcDbEntity
  8
M0
100
AcDbLine
 10
237.201611
 20
358.539184
 11
239.361397
 21
356.703366
  0
LINE
  5
175
100
AcDbEntity
  8
M0
100
AcDbLine
 10
268.061396
 20
293.403366
 11
267.35718
 21
292.699149
  0
LINE
  5
176
100
AcDbEntity
  8
M0
100
AcDbLine
 10
268.061396
 20
290.903365
 11
267.561396
 21
290.903365
  0
LINE
  5
177
100
AcDbEntity
  8
M0
100
AcDbLine
 10
200.761399
 20
336.603366
 11
200.761399
 21
349.003367
  0
LINE
  5
178
100
AcDbEntity
  8
M0
100
AcDbLine
 10
239.361397
 20
356.703366
 11
268.061396
 21
356.703366
  0
LINE
  5
179
100
AcDbEntity
  8
M0
100
AcDbLine
 10
203.761397
 20
335.603366
 11
201.761393
 21
335.603366
  0
ARC
  5
17A
100
AcDbEntity
  8
M0
100
AcDbCircle
 10
194.461396
 20
318.403366
 40
0.5
100
AcDbArc
 50
90.0
 51
180.0
  0
ARC
  5
17B
100
AcDbEntity
  8
M0
100
AcDbCircle
 10
194.461396
 20
317.403366
 40
0.5
100
AcDbArc
 50
180.0
 51
270.0
  0
LINE
  5
17C
100
AcDbEntity
  8
M0
100
AcDbLine
 10
251.261397
 20
311.803366
 11
243.861396
 21
311.803366
  0
LINE
  5
17D
100
AcDbEntity
  8
M0
100
AcDbLine
 10
255.761397
 20
348.963921
 11
255.761397
 21
346.087138
  0
ARC
  5
17E
100
AcDbEntity
  8
M0
100
AcDbCircle
 10
241.061396
 20
335.103366
 40
0.5
100
AcDbArc
 50
270.0
 51
360.0
  0
ARC
  5
17F
100
AcDbEntity
  8
M0
100
AcDbCircle
 10
229.361396
 20
334.103366
 40
0.5
100
AcDbArc
 50
90.0
 51
180.0
  0
ARC
  5
180
100
AcDbEntity
  8
M0
100
AcDbCircle
 10
195.961396
 20
310.203366
 40
1.0
100
AcDbArc
 50
180.0
 51
270.0
  0
ARC
  5
181
100
AcDbEntity
  8
M0
100
AcDbCircle
 10
195.461396
 20
339.603366
 40
0.5
100
AcDbArc
 50
180.0
 51
270.0
  0
LINE
  5
182
100
AcDbEntity
  8
M0
100
AcDbLine
 10
251.261397
 20
352.003365
 11
243.861396
 21
352.003365
  0
LINE
  5
183
100
AcDbEntity
  8
M0
100
AcDbLine
 10
271.561396
 20
349.703365
 11
271.561396
 21
349.263921
  0
LINE
  5
184
100
AcDbEntity
  8
M0
100
AcDbLine
 10
279.061396
 20
370.37306
 11
278.761396
 21
370.37306
  0
ARC
  5
185
100
AcDbEntity
  8
M0
100
AcDbCircle
 10
195.461396
 20
324.203366
 40
0.5
100
AcDbArc
 50
90.0
 51
180.0
  0
LINE
  5
186
100
AcDbEntity
  8
M0
100
AcDbLine
 10
269.061396
 20
373.403364
 11
278.261396
 21
373.403364
  0
LINE
  5
187
100
AcDbEntity
  8
M0
100
AcDbLine
 10
279.061396
 20
372.653366
 11
279.061396
 21
360.653366
  0
LINE
  5
188
100
AcDbEntity
  8
M0
100
AcDbLine
 10
278.761396
 20
372.903367
 11
278.761396
 21
370.37306
  0
LINE
  5
189
100
AcDbEntity
  8
M0
100
AcDbLine
 10
273.561396
 20
318.103366
 11
271.561396
 21
318.103366
  0
LINE
  5
18A
100
AcDbEntity
  8
M0
100
AcDbLine
 10
271.561396
 20
314.542811
 11
271.561396
 21
314.103366
  0
LINE
  5
18B
100
AcDbEntity
  8
M0
100
AcDbLine
 10
251.261397
 20
311.803366
 11
251.261397
 21
316.803365
  0
LINE
  5
18C
100
AcDbEntity
  8
M0
100
AcDbLine
 10
278.761396
 20
313.603365
 11
278.761396
 21
300.873059
  0
LINE
  5
18D
100
AcDbEntity
  8
M0
100
AcDbLine
 10
268.061396
 20
307.103365
 11
243.861396
 21
307.103365
  0
LINE
  5
18E
100
AcDbEntity
  8
M0
100
AcDbLine
 10
274.861396
 20
346.203366
 11
274.561396
 21
347.203366
  0
LINE
  5
18F
100
AcDbEntity
  8
M0
100
AcDbLine
 10
271.561396
 20
314.103366
 11
278.261396
 21
314.103366
  0
LINE
  5
190
100
AcDbEntity
  8
M0
100
AcDbLine
 10
274.861396
 20
346.203366
 11
274.861396
 21
344.203365
  0
LINE
  5
191
100
AcDbEntity
  8
M0
100
AcDbLine
 10
274.561396
 20
343.703366
 11
274.861396
 21
344.203365
  0
LINE
  5
192
100
AcDbEntity
  8
M0
100
AcDbLine
 10
243.861396
 20
364.903366
 11
248.568504
 21
369.610471
  0
LINE
  5
193
100
AcDbEntity
  8
M0
100
AcDbLine
 10
243.861396
 20
295.403366
 11
249.145316
 21
295.403366
  0
LINE
  5
194
100
AcDbEntity
  8
M0
100
AcDbLine
 10
255.061396
 20
300.403365
 11
268.061396
 21
300.403365
  0
LINE
  5
195
100
AcDbEntity
  8
M0
100
AcDbLine
 10
278.761396
 20
297.933673
 11
278.761396
 21
289.903366
  0
LINE
  5
196
100
AcDbEntity
  8
M0
100
AcDbLine
 10
249.27561
 20
369.903365
 11
268.061396
 21
369.903365
  0
LINE
  5
197
100
AcDbEntity
  8
M0
100
AcDbLine
 10
276.561396
 20
347.203366
 11
278.761396
 21
347.203366
  0
LINE
  5
198
100
AcDbEntity
  8
M0
100
AcDbLine
 10
275.561396
 20
348.203366
 11
276.561396
 21
347.203366
  0
LINE
  5
199
100
AcDbEntity
  8
M0
100
AcDbLine
 10
191.161393
 20
325.403366
 11
192.661396
 21
325.403366
  0
LINE
  5
19A
100
AcDbEntity
  8
M0
100
AcDbLine
 10
191.661394
 20
342.903366
 11
194.961397
 21
342.903366
  0
LINE
  5
19B
100
AcDbEntity
  8
M0
100
AcDbLine
 10
192.661396
 20
325.403366
 11
192.661396
 21
320.903366
  0
ARC
  5
19C
100
AcDbEntity
  8
M0
100
AcDbCircle
 10
269.061396
 20
290.403366
 40
1.0
100
AcDbArc
 50
180.0
 51
270.0
  0
ARC
  5
19D
100
AcDbEntity
  8
M0
100
AcDbCircle
 10
278.261396
 20
372.903366
 40
0.5
100
AcDbArc
 50
0.0
 51
90.0
  0
ARC
  5
19E
100
AcDbEntity
  8
M0
100
AcDbCircle
 10
269.061396
 20
372.403366
 40
1.0
100
AcDbArc
 50
90.0
 51
180.0
  0
ARC
  5
19F
100
AcDbEntity
  8
M0
100
AcDbCircle
 10
242.361396
 20
326.403366
 40
0.5
100
AcDbArc
 50
180.0
 51
270.0
  0
LINE
  5
1A0
100
AcDbEntity
  8
M0
100
AcDbLine
 10
279.061396
 20
300.873059
 11
278.761396
 21
300.873059
  0
LINE
  5
1A1
100
AcDbEntity
  8
M0
100
AcDbLine
 10
191.161393
 20
320.903366
 11
194.961397
 21
320.903366
  0
LINE
  5
1A2
100
AcDbEntity
  8
M0
100
AcDbLine
 10
191.661394
 20
342.903366
 11
191.161393
 21
342.903366
  0
LINE
  5
1A3
100
AcDbEntity
  8
M0
100
AcDbLine
 10
190.661399
 20
321.403366
 11
190.661399
 21
342.403366
  0
LINE
  5
1A4
100
AcDbEntity
  8
M0
100
AcDbLine
 10
278.261396
 20
308.103365
 11
269.061396
 21
308.103365
  0
LINE
  5
1A5
100
AcDbEntity
  8
M0
100
AcDbLine
 10
268.061396
 20
290.403366
 11
268.061396
 21
307.107847
  0
ARC
  5
1A6
100
AcDbEntity
  8
M0
100
AcDbCircle
 10
273.561396
 20
319.103366
 40
1.0
100
AcDbArc
 50
270.0
 51
360.0
  0
ARC
  5
1A7
100
AcDbEntity
  8
M0
100
AcDbCircle
 10
273.561396
 20
344.703366
 40
1.0
100
AcDbArc
 50
0.0
 51
90.0
  0
ARC
  5
1A8
100
AcDbEntity
  8
M0
100
AcDbCircle
 10
278.261396
 20
350.203366
 40
0.5
100
AcDbArc
 50
270.0
 51
360.0
  0
ARC
  5
1A9
100
AcDbEntity
  8
M0
100
AcDbCircle
 10
278.261396
 20
313.603366
 40
0.5
100
AcDbArc
 50
0.0
 51
90.0
  0
ARC
  5
1AA
100
AcDbEntity
  8
M0
100
AcDbCircle
 10
249.27561
 20
368.903366
 40
1.0
100
AcDbArc
 50
90.0
 51
135.0
  0
ELLIPSE
  5
1AB
100
AcDbEntity
  8
M0
100
AcDbEllipse
 10
278.261396
 20
308.078428
 11
-0.5
 21
0.0
210
0.0
220
0.0
230
1.0
 40
0.049876
 41
3.141592653589793
 42
4.71238898038469
  0
LINE
  5
1AC
100
AcDbEntity
  8
M0
100
AcDbLine
 10
242.061398
 20
325.703366
 11
243.861396
 21
325.703366
  0
ELLIPSE
  5
1AD
100
AcDbEntity
  8
M0
100
AcDbEllipse
 10
269.061396
 20
303.05349
 11
-1.0
 21
0.0
210
0.0
220
0.0
230
1.0
 40
0.049876
 41
4.71238898038469
 42
6.283185307179586
  0
ELLIPSE
  5
1AE
100
AcDbEntity
  8
M0
100
AcDbEllipse
 10
191.161396
 20
336.710473
 11
-0.5
 21
0.0
210
0.0
220
0.0
230
1.0
 40
0.414214
 41
0.0
 42
1.570796326794897
  0
ARC
  5
1AF
100
AcDbEntity
  8
M0
100
AcDbCircle
 10
191.161396
 20
321.403366
 40
0.5
100
AcDbArc
 50
180.0
 51
270.0
  0
ARC
  5
1B0
100
AcDbEntity
  8
M0
100
AcDbCircle
 10
271.415829
 20
304.777095
 40
4.084682
100
AcDbArc
 50
125.479034
 51
145.207368
  0
ARC
  5
1B1
100
AcDbEntity
  8
M0
100
AcDbCircle
 10
278.261396
 20
289.903366
 40
0.5
100
AcDbArc
 50
270.0
 51
360.0
  0
ARC
  5
1B2
100
AcDbEntity
  8
M0
100
AcDbCircle
 10
242.361396
 20
337.403366
 40
0.5
100
AcDbArc
 50
90.0
 51
180.0
  0
LINE
  5
1B3
100
AcDbEntity
  8
M0
100
AcDbLine
 10
278.261396
 20
303.103366
 11
269.061396
 21
303.103366
  0
ARC
  5
1B4
100
AcDbEntity
  8
M0
100
AcDbCircle
 10
249.145317
 20
301.403366
 40
6.0
100
AcDbArc
 50
270.0
 51
350.405932
  0
ELLIPSE
  5
1B5
100
AcDbEntity
  8
M0
100
AcDbEllipse
 10
278.261396
 20
303.078428
 11
-0.5
 21
0.0
210
0.0
220
0.0
230
1.0
 40
0.049876
 41
3.141592653589793
 42
4.71238898038469
  0
ARC
  5
1B6
100
AcDbEntity
  8
M0
100
AcDbCircle
 10
235.861396
 20
375.403366
 40
3.0
100
AcDbArc
 50
90.0
 51
180.0
  0
ARC
  5
1B7
100
AcDbEntity
  8
M0
100
AcDbCircle
 10
267.561396
 20
291.403366
 40
0.5
100
AcDbArc
 50
245.893597
 51
270.0
  0
ARC
  5
1B8
100
AcDbEntity
  8
M0
100
AcDbCircle
 10
191.161396
 20
324.903366
 40
0.5
100
AcDbArc
 50
90.0
 51
180.0
  0
ARC
  5
1B9
100
AcDbEntity
  8
M0
100
AcDbCircle
 10
203.761396
 20
336.603366
 40
1.0
100
AcDbArc
 50
270.0
 51
360.0
  0
LINE
  5
1BA
100
AcDbEntity
  8
M0
100
AcDbLine
 10
255.761397
 20
317.719594
 11
255.761397
 21
314.84281
  0
ARC
  5
1BB
100
AcDbEntity
  8
M0
100
AcDbCircle
 10
203.761396
 20
327.203366
 40
1.0
100
AcDbArc
 50
0.0
 51
90.0
  0
LINE
  5
1BC
100
AcDbEntity
  8
M0
100
AcDbLine
 10
279.061396
 20
367.433672
 11
278.761396
 21
367.433672
  0
LINE
  5
1BD
100
AcDbEntity
  8
M0
100
AcDbLine
 10
279.061396
 20
297.933673
 11
278.761396
 21
297.933673
  0
LINE
  5
1BE
100
AcDbEntity
  8
M0
100
AcDbLine
 10
278.261396
 20
289.403365
 11
269.061396
 21
289.403365
  0
ARC
  5
1BF
100
AcDbEntity
  8
M0
100
AcDbCircle
 10
195.961396
 20
353.603366
 40
1.0
100
AcDbArc
 50
90.0
 51
180.0
  0
ARC
  5
1C0
100
AcDbEntity
  8
M0
100
AcDbCircle
 10
215.161396
 20
355.003366
 40
3.0
100
AcDbArc
 50
270.0
 51
360.0
  0
ARC
  5
1C1
100
AcDbEntity
  8
M0
100
AcDbCircle
 10
242.061396
 20
337.603366
 40
0.5
100
AcDbArc
 50
90.0
 51
180.0
  0
ARC
  5
1C2
100
AcDbEntity
  8
M0
100
AcDbCircle
 10
221.161396
 20
356.253366
 40
3.0
100
AcDbArc
 50
90.0
 51
180.0
  0
ARC
  5
1C3
100
AcDbEntity
  8
M0
100
AcDbCircle
 10
235.258665
 20
356.253366
 40
3.0
100
AcDbArc
 50
49.635463
 51
90.0
  0
ARC
  5
1C4
100
AcDbEntity
  8
M0
100
AcDbCircle
 10
229.361396
 20
329.703366
 40
0.5
100
AcDbArc
 50
180.0
 51
270.0
  0
ARC
  5
1C5
100
AcDbEntity
  8
M0
100
AcDbCircle
 10
241.061396
 20
328.703366
 40
0.5
100
AcDbArc
 50
0.0
 51
90.0
  0
ARC
  5
1C6
100
AcDbEntity
  8
M0
100
AcDbCircle
 10
242.061396
 20
326.203366
 40
0.5
100
AcDbArc
 50
180.0
 51
270.0
  0
LINE
  5
1C7
100
AcDbEntity
  8
M0
100
AcDbLine
 10
192.661396
 20
336.503366
 11
191.161393
 21
336.503366
  0
LINE
  5
1C8
100
AcDbEntity
  8
M0
100
AcDbLine
 10
192.661396
 20
338.003366
 11
192.661396
 21
336.503366
  0
LINE
  5
1C9
100
AcDbEntity
  8
M0
100
AcDbLine
 10
192.661396
 20
338.003366
 11
191.161393
 21
338.003366
  0
LINE
  5
1CA
100
AcDbEntity
  8
M0
100
AcDbLine
 10
275.561396
 20
349.703365
 11
275.561396
 21
348.203366
  0
LINE
  5
1CB
100
AcDbEntity
  8
M0
100
AcDbLine
 10
242.361395
 20
337.903366
 11
243.861396
 21
337.903366
  0
LINE
  5
1CC
100
AcDbEntity
  8
M0
100
AcDbLine
 10
243.861396
 20
289.403365
 11
243.861396
 21
325.903366
  0
LINE
  5
1CD
100
AcDbEntity
  8
M0
100
AcDbLine
 10
241.861398
 20
326.403366
 11
241.861398
 21
337.403366
  0
ARC
  5
1CE
100
AcDbEntity
  8
M0
100
AcDbCircle
 10
203.761396
 20
349.003366
 40
3.0
100
AcDbArc
 50
90.0
 51
180.0
  0
LINE
  5
1CF
100
AcDbEntity
  8
M0
100
AcDbLine
 10
192.661396
 20
341.903366
 11
192.661396
 21
338.003366
  0
LINE
  5
1D0
100
AcDbEntity
  8
M0
100
AcDbLine
 10
251.261397
 20
316.803365
 11
243.861396
 21
316.803365
  0
LINE
  5
1D1
100
AcDbEntity
  8
M0
100
AcDbLine
 10
251.261397
 20
347.003366
 11
243.861396
 21
347.003366
  0
LINE
  5
1D2
100
AcDbEntity
  8
M0
100
AcDbLine
 10
242.361395
 20
325.903366
 11
243.861396
 21
325.903366
  0
LINE
  5
1D3
100
AcDbEntity
  8
M0
  6
DASHED
100
AcDbLine
 10
212.061436
 20
364.149021
 11
212.061436
 21
358.658695
  0
ARC
  5
1D4
100
AcDbEntity
  8
M0
  6
DASHED
100
AcDbCircle
 10
213.661396
 20
364.149021
 40
1.599998
100
AcDbArc
 50
95.007035
 51
179.999966
  0
LINE
  5
1D5
100
AcDbEntity
  8
M0
  6
DASHED
100
AcDbLine
 10
213.521748
 20
365.742939
 11
215.361347
 21
365.903873
  0
LINE
  5
1D6
100
AcDbEntity
  8
M0
  6
DASHED
100
AcDbLine
 10
213.521748
 20
357.064792
 11
215.361347
 21
356.903873
  0
ARC
  5
1D7
100
AcDbEntity
  8
M0
  6
DASHED
100
AcDbCircle
 10
213.661396
 20
358.658695
 40
1.599998
100
AcDbArc
 50
179.999966
 51
264.99283
  0
LINE
  5
1D8
100
AcDbEntity
  8
M0
  6
DASHED
100
AcDbLine
 10
215.361347
 20
356.903873
 11
215.361347
 21
365.903873
  0
LINE
  5
1D9
100
AcDbEntity
  8
M0
  6
DASHED
100
AcDbLine
 10
216.661396
 20
365.903858
 11
215.361347
 21
365.903858
  0
LINE
  5
1DA
100
AcDbEntity
  8
M0
  6
DASHED
100
AcDbLine
 10
215.361347
 20
356.903858
 11
216.661396
 21
356.903858
  0
LINE
  5
1DB
100
AcDbEntity
  8
M0
  6
DASHED
100
AcDbLine
 10
216.661396
 20
366.403152
 11
216.661396
 21
356.403152
  0
LINE
  5
1DC
100
AcDbEntity
  8
M0
  6
DASHED
100
AcDbLine
 10
216.661396
 20
366.403152
 11
217.661396
 21
366.40319
  0
LINE
  5
1DD
100
AcDbEntity
  8
M0
  6
DASHED
100
AcDbLine
 10
216.661396
 20
356.403152
 11
217.661396
 21
356.40319
  0
LINE
  5
1DE
100
AcDbEntity
  8
M0
  6
DASHED
100
AcDbLine
 10
219.661396
 20
358.903629
 11
227.661396
 21
358.903629
  0
LINE
  5
1DF
100
AcDbEntity
  8
M0
  6
DASHED
100
AcDbLine
 10
227.661396
 20
363.903565
 11
219.661396
 21
363.903265
  0
LINE
  5
1E0
100
AcDbEntity
  8
M0
  6
DASHED
100
AcDbLine
 10
227.661396
 20
358.903629
 11
227.661396
 21
363.903565
  0
LINE
  5
1E1
100
AcDbEntity
  8
M0
  6
DASHED
100
AcDbLine
 10
160.961396
 20
313.503368
 11
160.961396
 21
352.303368
  0
LINE
  5
1E2
100
AcDbEntity
  8
M0
  6
DASHED
100
AcDbLine
 10
159.361397
 20
334.203368
 11
159.361397
 21
331.403368
  0
LINE
  5
1E3
100
AcDbEntity
  8
M0
  6
DASHED
100
AcDbLine
 10
180.061396
 20
356.303369
 11
164.961396
 21
356.303369
  0
ARC
  5
1E4
100
AcDbEntity
  8
M0
  6
DASHED
100
AcDbCircle
 10
164.961396
 20
352.303368
 40
4.0
100
AcDbArc
 50
90.0
 51
180.0
  0
ARC
  5
1E5
100
AcDbEntity
  8
M0
  6
DASHED
100
AcDbCircle
 10
164.961396
 20
313.503368
 40
4.0
100
AcDbArc
 50
180.0
 51
270.0
  0
LINE
  5
1E6
100
AcDbEntity
  8
M0
  6
DASHED
100
AcDbLine
 10
180.061396
 20
309.503368
 11
164.961396
 21
309.503368
  0
LINE
  5
1E7
100
AcDbEntity
  8
M0
  6
DASHED
100
AcDbLine
 10
185.061396
 20
315.203375
 11
185.061396
 21
314.503368
  0
ARC
  5
1E8
100
AcDbEntity
  8
M0
  6
DASHED
100
AcDbCircle
 10
180.061396
 20
314.503368
 40
5.0
100
AcDbArc
 50
270.0
 51
360.0
  0
ARC
  5
1E9
100
AcDbEntity
  8
M0
  6
DASHED
100
AcDbCircle
 10
180.061396
 20
351.303368
 40
5.0
100
AcDbArc
 50
0.0
 51
90.0
  0
LINE
  5
1EA
100
AcDbEntity
  8
M0
  6
DASHED
100
AcDbLine
 10
159.361397
 20
334.203368
 11
160.961396
 21
334.203368
  0
LINE
  5
1EB
100
AcDbEntity
  8
M0
  6
DASHED
100
AcDbLine
 10
160.961396
 20
331.403368
 11
159.361397
 21
331.403368
  0
LINE
  5
1EC
100
AcDbEntity
  8
M0
  6
DASHED
100
AcDbLine
 10
185.061396
 20
350.603362
 11
185.061396
 21
351.303368
  0
LINE
  5
1ED
100
AcDbEntity
  8
M0
100
AcDbLine
 10
185.661395
 20
362.123497
 11
185.661395
 21
380.323497
  0
LINE
  5
1EE
100
AcDbEntity
  8
M0
  6
DASHED
100
AcDbLine
 10
194.461396
 20
350.603362
 11
185.061396
 21
350.603362
  0
LINE
  5
1EF
100
AcDbEntity
  8
M0
  6
DASHED
100
AcDbLine
 10
194.461397
 20
315.203375
 11
185.061396
 21
315.203375
  0
ARC
  5
1F0
100
AcDbEntity
  8
M0
  6
DASHED
100
AcDbCircle
 10
194.461396
 20
315.703374
 40
0.5
100
AcDbArc
 50
270.0
 51
360.0
  0
LINE
  5
1F1
100
AcDbEntity
  8
M0
  6
DASHED
100
AcDbLine
 10
192.861396
 20
352.603368
 11
193.261396
 21
352.603368
  0
ARC
  5
1F2
100
AcDbEntity
  8
M0
  6
DASHED
100
AcDbCircle
 10
194.461396
 20
350.103362
 40
0.5
100
AcDbArc
 50
0.0
 51
90.0
  0
LINE
  5
1F3
100
AcDbEntity
  8
M0
  6
DASHED
100
AcDbLine
 10
192.861396
 20
350.603362
 11
192.861396
 21
352.603368
  0
LINE
  5
1F4
100
AcDbEntity
  8
M0
  6
DASHED
100
AcDbLine
 10
193.261396
 20
352.603368
 11
193.861398
 21
350.603362
  0
LINE
  5
1F5
100
AcDbEntity
  8
M0
100
AcDbLine
 10
260.75718
 20
289.403365
 11
238.161396
 21
289.403365
  0
HATCH
  5
1F6
100
AcDbEntity
  8
M0
 62
     7
100
AcDbHatch
 10
0.0
 20
0.0
210
0.0
220
0.0
230
1.0
  2
SOLID
 70
     1
 71
     0
 91
        1
 92
        1
 93
        4
 72
     1
 10
185.661395
 20
380.323497
 11
183.661395
 21
380.323497
 72
     1
 10
183.661395
 20
380.323497
 11
183.661395
 21
362.123497
 72
     1
 10
183.661395
 20
362.123497
 11
185.661395
 21
362.123497
 72
     1
 10
185.661395
 20
362.123497
 11
185.661395
 21
380.323497
 97
        0
 75
     0
 76
     1
 98
        1
 10
0.0
 20
0.0
  0
LINE
  5
1F9
100
AcDbEntity
  8
M0
  6
DASHED
 62
     6
100
AcDbLine
 10
208.257181
 20
254.903365
 11
208.25718
 21
256.103365
  0
LINE
  5
1FA
100
AcDbEntity
  8
M0
  6
DASHED
 62
     6
100
AcDbLine
 10
201.75718
 20
256.103365
 11
208.25718
 21
256.103365
  0
LINE
  5
1FB
100
AcDbEntity
  8
M0
 62
     6
100
AcDbLine
 10
208.257182
 20
254.90336
 11
212.082545
 21
240.626908
  0
LINE
  5
1FC
100
AcDbEntity
  8
M0
 62
     6
100
AcDbLine
 10
215.25718
 20
254.903365
 11
218.278698
 21
243.626908
  0
LINE
  5
1FD
100
AcDbEntity
  8
M0
 62
     6
100
AcDbLine
 10
214.25718
 20
254.903365
 11
214.25718
 21
275.903365
  0
LINE
  5
1FE
100
AcDbEntity
  8
M0
 62
     6
100
AcDbLine
 10
202.75718
 20
257.403365
 11
202.75718
 21
273.403365
  0
LINE
  5
1FF
100
AcDbEntity
  8
M0
 62
     6
100
AcDbLine
 10
201.75718
 20
275.903365
 11
201.75718
 21
274.403365
  0
LINE
  5
200
100
AcDbEntity
  8
M0
 62
     6
100
AcDbLine
 10
201.75718
 20
256.403365
 11
201.75718
 21
254.903365
  0
LINE
  5
201
100
AcDbEntity
  8
M0
 62
     6
100
AcDbLine
 10
199.75718
 20
261.403365
 11
199.75718
 21
272.903365
  0
LINE
  5
202
100
AcDbEntity
  8
M0
 62
     6
100
AcDbLine
 10
208.25718
 20
254.403365
 11
208.25718
 21
254.903365
  0
LINE
  5
203
100
AcDbEntity
  8
M0
 62
     6
100
AcDbLine
 10
209.315395
 20
241.123928
 11
205.75718
 21
254.403365
  0
LINE
  5
204
100
AcDbEntity
  8
M0
 62
     6
100
AcDbLine
 10
221.45718
 20
254.903365
 11
221.45718
 21
248.403365
  0
LINE
  5
205
100
AcDbEntity
  8
M0
 62
     6
100
AcDbLine
 10
200.75718
 20
273.903365
 11
201.903733
 21
273.903365
  0
LINE
  5
206
100
AcDbEntity
  8
M0
 62
     6
100
AcDbLine
 10
207.25718
 20
273.403365
 11
202.75718
 21
273.403365
  0
LINE
  5
207
100
AcDbEntity
  8
M0
 62
     6
100
AcDbLine
 10
224.95718
 20
273.903365
 11
221.75718
 21
273.903365
  0
LINE
  5
208
100
AcDbEntity
  8
M0
 62
     6
100
AcDbLine
 10
221.75718
 20
275.203365
 11
221.75718
 21
273.903365
  0
LINE
  5
209
100
AcDbEntity
  8
M0
 62
     6
100
AcDbLine
 10
234.55718
 20
276.803365
 11
223.55718
 21
276.803365
  0
LINE
  5
20A
100
AcDbEntity
  8
M0
 62
     6
100
AcDbLine
 10
263.55718
 20
276.803365
 11
238.55718
 21
276.803365
  0
LINE
  5
20B
100
AcDbEntity
  8
M0
 62
     6
100
AcDbLine
 10
198.75718
 20
278.403365
 11
222.05718
 21
278.403365
  0
LINE
  5
20C
100
AcDbEntity
  8
M0
 62
     6
100
AcDbLine
 10
274.75718
 20
278.903365
 11
277.75718
 21
278.903365
  0
LINE
  5
20D
100
AcDbEntity
  8
M0
 62
     6
100
AcDbLine
 10
225.65718
 20
275.903365
 11
274.75718
 21
275.903365
  0
LINE
  5
20E
100
AcDbEntity
  8
M0
 62
     6
100
AcDbLine
 10
225.55718
 20
275.903365
 11
200.75718
 21
275.903365
  0
LINE
  5
20F
100
AcDbEntity
  8
M0
 62
     6
100
AcDbLine
 10
267.75718
 20
276.803365
 11
274.741345
 21
276.803365
  0
ARC
  5
210
100
AcDbEntity
  8
M0
 62
     6
100
AcDbCircle
 10
221.05718
 20
275.203365
 40
0.7
100
AcDbArc
 50
0.0
 51
90.0
  0
ARC
  5
211
100
AcDbEntity
  8
M0
 62
     6
100
AcDbCircle
 10
222.05718
 20
276.903365
 40
1.5
100
AcDbArc
 50
0.0
 51
90.0
  0
ARC
  5
212
100
AcDbEntity
  8
M0
 62
     6
100
AcDbCircle
 10
203.453421
 20
240.403365
 40
4.0
100
AcDbArc
 50
195.0
 51
270.0
  0
ARC
  5
213
100
AcDbEntity
  8
M0
 62
     6
100
AcDbCircle
 10
198.75718
 20
274.403365
 40
4.0
100
AcDbArc
 50
90.0
 51
180.0
  0
ARC
  5
214
100
AcDbEntity
  8
M0
 62
     6
100
AcDbCircle
 10
229.802609
 20
240.403365
 40
4.0
100
AcDbArc
 50
270.0
 51
301.169221
  0
ARC
  5
215
100
AcDbEntity
  8
M0
 62
     6
100
AcDbCircle
 10
200.75718
 20
272.903365
 40
3.0
100
AcDbArc
 50
90.0
 51
179.938788
  0
ARC
  5
216
100
AcDbEntity
  8
M0
 62
     6
100
AcDbCircle
 10
212.212374
 20
241.903365
 40
3.0
100
AcDbArc
 50
195.058919
 51
269.938297
  0
ARC
  5
217
100
AcDbEntity
  8
M0
 62
     6
100
AcDbCircle
 10
225.65718
 20
275.203365
 40
0.7
100
AcDbArc
 50
90.0
 51
180.0
  0
ARC
  5
218
100
AcDbEntity
  8
M0
 62
     6
100
AcDbCircle
 10
200.75718
 20
272.903365
 40
1.0
100
AcDbArc
 50
90.0
 51
180.0
  0
LINE
  5
219
100
AcDbEntity
  8
M0
 62
     6
100
AcDbLine
 10
194.75718
 20
257.403365
 11
194.75718
 21
274.403365
  0
LINE
  5
21A
100
AcDbEntity
  8
M0
 62
     6
100
AcDbLine
 10
195.050073
 20
258.41853
 11
195.050073
 21
260.403365
  0
ARC
  5
21B
100
AcDbEntity
  8
M0
 62
     6
100
AcDbCircle
 10
248.203377
 20
236.403365
 40
2.0
100
AcDbArc
 50
194.99833
 51
270.0
  0
ARC
  5
21C
100
AcDbEntity
  8
M0
 62
     6
100
AcDbCircle
 10
271.75718
 20
237.403365
 40
2.0
100
AcDbArc
 50
269.998343
 51
360.0
  0
ARC
  5
21D
100
AcDbEntity
  8
M0
 62
     6
100
AcDbCircle
 10
264.349703
 20
236.403365
 40
2.0
100
AcDbArc
 50
269.999042
 51
330.0
  0
LINE
  5
21E
100
AcDbEntity
  8
M0
 62
     6
100
AcDbLine
 10
194.75718
 20
257.403365
 11
199.589718
 21
239.368089
  0
LINE
  5
21F
100
AcDbEntity
  8
M0
 62
     6
100
AcDbLine
 10
196.95718
 20
260.403365
 11
196.95718
 21
257.703365
  0
LINE
  5
220
100
AcDbEntity
  8
M0
 62
     6
100
AcDbLine
 10
197.75718
 20
257.403365
 11
197.75718
 21
272.90657
  0
ARC
  5
221
100
AcDbEntity
  8
M0
 62
     6
100
AcDbCircle
 10
247.13158
 20
240.403365
 40
2.0
100
AcDbArc
 50
195.0
 51
270.0
  0
ARC
  5
222
100
AcDbEntity
  8
M0
 62
     6
100
AcDbCircle
 10
265.504403
 20
238.403365
 40
2.0
100
AcDbArc
 50
270.0
 51
330.0
  0
ARC
  5
223
100
AcDbEntity
  8
M0
 62
     6
100
AcDbCircle
 10
224.45718
 20
248.403365
 40
3.0
100
AcDbArc
 50
180.0
 51
270.0
  0
ARC
  5
224
100
AcDbEntity
  8
M0
 62
     6
100
AcDbCircle
 10
202.75718
 20
256.403365
 40
1.0
100
AcDbArc
 50
90.0
 51
180.0
  0
ARC
  5
225
100
AcDbEntity
  8
M0
 62
     6
100
AcDbCircle
 10
202.75718
 20
274.403365
 40
1.0
100
AcDbArc
 50
180.0
 51
270.0
  0
ARC
  5
226
100
AcDbEntity
  8
M0
 62
     6
100
AcDbCircle
 10
277.00718
 20
240.153365
 40
0.75
100
AcDbArc
 50
270.0
 51
360.0
  0
ARC
  5
227
100
AcDbEntity
  8
M0
 62
     6
100
AcDbCircle
 10
214.980323
 20
241.403365
 40
3.0
100
AcDbArc
 50
195.0
 51
270.0
  0
ARC
  5
228
100
AcDbEntity
  8
M0
 62
     6
100
AcDbCircle
 10
238.75718
 20
237.403365
 40
1.0
100
AcDbArc
 50
270.246868
 51
360.0
  0
LINE
  5
229
100
AcDbEntity
  8
M0
 62
     6
100
AcDbLine
 10
214.980323
 20
238.403365
 11
229.75718
 21
238.403365
  0
LINE
  5
22A
100
AcDbEntity
  8
M0
 62
     6
100
AcDbLine
 10
247.13158
 20
238.403365
 11
251.75718
 21
238.403365
  0
LINE
  5
22B
100
AcDbEntity
  8
M0
 62
     6
100
AcDbLine
 10
213.326125
 20
238.903365
 11
212.209143
 21
238.903365
  0
LINE
  5
22C
100
AcDbEntity
  8
M0
 62
     6
100
AcDbLine
 10
239.75718
 20
237.403365
 11
245.864875
 21
237.403365
  0
LINE
  5
22D
100
AcDbEntity
  8
M0
 62
     6
100
AcDbLine
 10
232.75718
 20
236.403365
 11
229.75718
 21
238.403365
  0
LINE
  5
22E
100
AcDbEntity
  8
M0
 62
     6
100
AcDbLine
 10
232.75718
 20
243.403365
 11
244.25718
 21
243.403365
  0
LINE
  5
22F
100
AcDbEntity
  8
M0
  6
DASHED
 62
     6
100
AcDbLine
 10
204.423847
 20
254.903365
 11
201.75718
 21
255.903365
  0
LINE
  5
230
100
AcDbEntity
  8
M0
 62
     6
100
AcDbLine
 10
205.75718
 20
254.403365
 11
204.423847
 21
254.903365
  0
LINE
  5
231
100
AcDbEntity
  8
M0
 62
     6
100
AcDbLine
 10
232.75718
 20
243.403365
 11
229.75718
 21
245.403365
  0
LINE
  5
232
100
AcDbEntity
  8
M0
 62
     6
100
AcDbLine
 10
277.00718
 20
239.403365
 11
273.75718
 21
239.403365
  0
LINE
  5
233
100
AcDbEntity
  8
M0
 62
     6
100
AcDbLine
 10
269.25718
 20
240.903365
 11
277.75718
 21
240.903365
  0
LINE
  5
234
100
AcDbEntity
  8
M0
 62
     6
100
AcDbLine
 10
244.793078
 20
241.403365
 11
221.176475
 21
241.403365
  0
LINE
  5
235
100
AcDbEntity
  8
M0
 62
     6
100
AcDbLine
 10
266.081754
 20
235.403365
 11
269.25718
 21
240.903365
  0
LINE
  5
236
100
AcDbEntity
  8
M0
 62
     6
100
AcDbLine
 10
263.55718
 20
276.803365
 11
263.798334
 21
275.903365
  0
LINE
  5
237
100
AcDbEntity
  8
M0
 62
     6
100
AcDbLine
 10
277.75718
 20
240.153365
 11
277.75718
 21
278.903365
  0
LINE
  5
238
100
AcDbEntity
  8
M0
 62
     6
100
AcDbLine
 10
274.75718
 20
275.903365
 11
274.75718
 21
278.903365
  0
LINE
  5
239
100
AcDbEntity
  8
M0
 62
     6
100
AcDbLine
 10
273.75718
 20
237.403365
 11
273.75718
 21
240.903365
  0
LINE
  5
23A
100
AcDbEntity
  8
M0
 62
     6
100
AcDbLine
 10
203.453421
 20
236.403365
 11
229.802609
 21
236.403365
  0
LINE
  5
23B
100
AcDbEntity
  8
M0
 62
     6
100
AcDbLine
 10
266.081754
 20
235.403365
 11
271.757123
 21
235.403365
  0
LINE
  5
23C
100
AcDbEntity
  8
M0
 62
     6
100
AcDbLine
 10
235.75309
 20
236.403365
 11
238.763078
 21
236.403365
  0
LINE
  5
23D
100
AcDbEntity
  8
M0
 62
     6
100
AcDbLine
 10
254.75718
 20
236.403365
 11
265.504403
 21
236.403365
  0
LINE
  5
23E
100
AcDbEntity
  8
M0
 62
     6
100
AcDbLine
 10
235.74718
 20
236.403365
 11
232.75718
 21
236.403365
  0
LINE
  5
23F
100
AcDbEntity
  8
M0
 62
     6
100
AcDbLine
 10
267.516026
 20
275.903365
 11
267.75718
 21
276.803365
  0
LINE
  5
240
100
AcDbEntity
  8
M0
 62
     6
100
AcDbLine
 10
248.203377
 20
234.403365
 11
264.34967
 21
234.403365
  0
LINE
  5
241
100
AcDbEntity
  8
M0
 62
     6
100
AcDbLine
 10
229.75718
 20
241.403365
 11
229.75718
 21
238.403365
  0
LINE
  5
242
100
AcDbEntity
  8
M0
 62
     6
100
AcDbLine
 10
207.80718
 20
257.403365
 11
202.75718
 21
257.403365
  0
LINE
  5
243
100
AcDbEntity
  8
M0
 62
     6
100
AcDbLine
 10
238.316026
 20
275.903365
 11
238.55718
 21
276.803365
  0
LINE
  5
244
100
AcDbEntity
  8
M0
 62
     6
100
AcDbLine
 10
202.75718
 20
260.403365
 11
194.75718
 21
260.403365
  0
LINE
  5
245
100
AcDbEntity
  8
M0
 62
     6
100
AcDbLine
 10
224.95718
 20
275.203365
 11
224.95718
 21
273.903365
  0
LINE
  5
246
100
AcDbEntity
  8
M0
 62
     6
100
AcDbLine
 10
223.55718
 20
276.903365
 11
223.55718
 21
275.903365
  0
ARC
  5
247
100
AcDbEntity
  8
M0
 62
     6
100
AcDbCircle
 10
221.176475
 20
244.403365
 40
3.0
100
AcDbArc
 50
195.0
 51
270.0
  0
LINE
  5
248
100
AcDbEntity
  8
M0
 62
     6
100
AcDbLine
 10
254.75718
 20
236.403365
 11
251.75718
 21
238.403365
  0
LINE
  5
249
100
AcDbEntity
  8
M0
 62
     6
100
AcDbLine
 10
224.45718
 20
245.403365
 11
229.75718
 21
245.403365
  0
LINE
  5
24A
100
AcDbEntity
  8
M0
 62
     6
100
AcDbLine
 10
205.75718
 20
254.403365
 11
208.391155
 21
254.403365
  0
LINE
  5
24B
100
AcDbEntity
  8
M0
 62
     6
100
AcDbLine
 10
244.25718
 20
243.403365
 11
246.27151
 21
235.885783
  0
LINE
  5
24C
100
AcDbEntity
  8
M0
 62
     6
100
AcDbLine
 10
234.55718
 20
276.803365
 11
234.798334
 21
275.903365
  0
LINE
  5
24D
100
AcDbEntity
  8
M0
 62
     6
100
AcDbLine
 10
199.342967
 20
260.403365
 11
199.465739
 21
260.448301
  0
LINE
  5
24E
100
AcDbEntity
  8
M0
 62
     6
100
AcDbLine
 10
199.465739
 20
260.448301
 11
199.579459
 21
260.582376
  0
LINE
  5
24F
100
AcDbEntity
  8
M0
 62
     6
100
AcDbLine
 10
199.579459
 20
260.582376
 11
199.672818
 21
260.798505
  0
LINE
  5
250
100
AcDbEntity
  8
M0
 62
     6
100
AcDbLine
 10
199.672818
 20
260.798505
 11
199.735012
 21
261.080609
  0
LINE
  5
251
100
AcDbEntity
  8
M0
 62
     6
100
AcDbLine
 10
199.735012
 20
261.080609
 11
199.75718
 21
261.403365
  0
LINE
  5
252
100
AcDbEntity
  8
M0
 62
     6
100
AcDbLine
 10
201.75718
 20
255.903365
 11
194.75718
 21
258.528365
  0
LINE
  5
253
100
AcDbEntity
  8
M0
  6
DIVIDE
 62
     7
100
AcDbLine
 10
282.061395
 20
345.403374
 11
275.561395
 21
345.403374
  0
LINE
  5
254
100
AcDbEntity
  8
M0
  6
DIVIDE
 62
     7
100
AcDbLine
 10
282.061395
 20
318.403374
 11
275.561395
 21
318.403374
  0
LINE
  5
255
100
AcDbEntity
  8
M0
  6
DIVIDE
 62
     7
100
AcDbLine
 10
281.061395
 20
344.403374
 11
274.561395
 21
344.403374
  0
LINE
  5
256
100
AcDbEntity
  8
M0
  6
DIVIDE
 62
     7
100
AcDbLine
 10
275.561395
 20
318.403374
 11
275.561395
 21
314.403374
  0
LINE
  5
257
100
AcDbEntity
  8
M0
  6
DIVIDE
 62
     7
100
AcDbLine
 10
281.061395
 20
319.403374
 11
274.561395
 21
319.403374
  0
LINE
  5
258
100
AcDbEntity
  8
M0
  6
DIVIDE
 62
     7
100
AcDbLine
 10
274.561395
 20
319.403374
 11
274.561395
 21
314.403374
  0
LINE
  5
259
100
AcDbEntity
  8
M0
  6
DIVIDE
 62
     7
100
AcDbLine
 10
275.561395
 20
349.403374
 11
274.561395
 21
349.403374
  0
LINE
  5
25A
100
AcDbEntity
  8
M0
  6
DIVIDE
 62
     7
100
AcDbLine
 10
282.061395
 20
318.403374
 11
282.061395
 21
345.403374
  0
LINE
  5
25B
100
AcDbEntity
  8
M0
  6
DIVIDE
 62
     7
100
AcDbLine
 10
274.561395
 20
349.403374
 11
274.561395
 21
344.403374
  0
LINE
  5
25C
100
AcDbEntity
  8
M0
  6
DIVIDE
 62
     7
100
AcDbLine
 10
275.561395
 20
349.403374
 11
275.561395
 21
345.403374
  0
LINE
  5
25D
100
AcDbEntity
  8
M0
  6
DIVIDE
 62
     7
100
AcDbLine
 10
274.561395
 20
314.403374
 11
275.561395
 21
314.403374
  0
LINE
  5
25E
100
AcDbEntity
  8
M0
  6
DIVIDE
 62
     7
100
AcDbLine
 10
281.061395
 20
344.403374
 11
281.061395
 21
319.403374
  0
LINE
  5
25F
100
AcDbEntity
  8
M0
 62
     2
100
AcDbLine
 10
103.20529
 20
282.40354
 11
95.575425
 21
281.870008
  0
LINE
  5
260
100
AcDbEntity
  8
M0
 62
     2
100
AcDbLine
 10
98.490562
 20
287.086064
 11
106.107761
 21
287.61871
  0
ARC
  5
261
100
AcDbEntity
  8
M0
 62
     2
100
AcDbCircle
 10
98.235097
 20
306.114596
 40
1.0
100
AcDbArc
 50
94.0
 51
184.0
  0
ARC
  5
262
100
AcDbEntity
  8
M0
 62
     2
100
AcDbCircle
 10
106.215609
 20
306.672648
 40
1.0
100
AcDbArc
 50
4.0
 51
94.0
  0
LINE
  5
263
100
AcDbEntity
  8
M0
 62
     2
100
AcDbLine
 10
106.145852
 20
307.670212
 11
98.16534
 21
307.11216
  0
LINE
  5
264
100
AcDbEntity
  8
M0
 62
     2
100
AcDbLine
 10
97.889099
 20
296.727005
 11
97.237533
 21
306.04484
  0
LINE
  5
265
100
AcDbEntity
  8
M0
 62
     2
100
AcDbLine
 10
107.86474
 20
297.424569
 11
107.213173
 21
306.742404
  0
ARC
  5
266
100
AcDbEntity
  8
M0
 62
     2
100
AcDbCircle
 10
98.886663
 20
296.796761
 40
1.0
100
AcDbArc
 50
184.0
 51
244.940719
  0
LINE
  5
267
100
AcDbEntity
  8
M0
 62
     2
100
AcDbLine
 10
91.200475
 20
271.243071
 11
91.807645
 21
262.560143
  0
LINE
  5
268
100
AcDbEntity
  8
M0
 62
     2
100
AcDbLine
 10
92.874965
 20
261.632336
 11
101.853042
 21
262.260144
  0
LINE
  5
269
100
AcDbEntity
  8
M0
 62
     2
100
AcDbLine
 10
93.512052
 20
278.178013
 11
99.722603
 21
289.290556
  0
LINE
  5
26A
100
AcDbEntity
  8
M0
 62
     2
100
AcDbLine
 10
93.13813
 20
276.505172
 11
93.265523
 21
274.683358
  0
LINE
  5
26B
100
AcDbEntity
  8
M0
 62
     2
100
AcDbLine
 10
100.029551
 20
276.721189
 11
106.240102
 21
287.833731
  0
LINE
  5
26C
100
AcDbEntity
  8
M0
 62
     2
100
AcDbLine
 10
106.614024
 20
289.506572
 11
106.282538
 21
294.247049
  0
LINE
  5
26D
100
AcDbEntity
  8
M0
 62
     2
100
AcDbLine
 10
100.096525
 20
290.963397
 11
99.898128
 21
293.800607
  0
LINE
  5
26E
100
AcDbEntity
  8
M0
 62
     2
100
AcDbLine
 10
99.655629
 20
275.048347
 11
99.649933
 21
275.1298
  0
LINE
  5
26F
100
AcDbEntity
  8
M0
 62
     2
100
AcDbLine
 10
102.780849
 20
263.327465
 11
102.17368
 21
272.010392
  0
ARC
  5
270
100
AcDbEntity
  8
M0
 62
     2
100
AcDbCircle
 10
101.176116
 20
271.940636
 40
1.0
100
AcDbArc
 50
4.0
 51
73.948957
  0
ARC
  5
271
100
AcDbEntity
  8
M0
 62
     2
100
AcDbCircle
 10
97.404218
 20
293.626216
 40
2.5
100
AcDbArc
 50
4.0
 51
64.940719
  0
ARC
  5
272
100
AcDbEntity
  8
M0
 62
     2
100
AcDbCircle
 10
108.776448
 20
294.42144
 40
2.5
100
AcDbArc
 50
123.059281
 51
184.0
  0
ARC
  5
273
100
AcDbEntity
  8
M0
 62
     2
100
AcDbCircle
 10
106.867175
 20
297.354813
 40
1.0
100
AcDbArc
 50
303.059281
 51
364.0
  0
ARC
  5
274
100
AcDbEntity
  8
M0
 62
     2
100
AcDbCircle
 10
90.771613
 20
274.508967
 40
2.5
100
AcDbArc
 50
294.051043
 51
364.0
  0
ARC
  5
275
100
AcDbEntity
  8
M0
 62
     2
100
AcDbCircle
 10
102.143843
 20
275.304191
 40
2.5
100
AcDbArc
 50
184.0
 51
253.948957
  0
ARC
  5
276
100
AcDbEntity
  8
M0
 62
     2
100
AcDbCircle
 10
92.198039
 20
271.312828
 40
1.0
100
AcDbArc
 50
114.051043
 51
184.0
  0
ARC
  5
277
100
AcDbEntity
  8
M0
 62
     2
100
AcDbCircle
 10
96.130822
 20
276.714441
 40
3.0
100
AcDbArc
 50
150.800152
 51
184.0
  0
ARC
  5
278
100
AcDbEntity
  8
M0
 62
     2
100
AcDbCircle
 10
102.648321
 20
275.257616
 40
3.0
100
AcDbArc
 50
150.800152
 51
184.0
  0
ARC
  5
279
100
AcDbEntity
  8
M0
 62
     2
100
AcDbCircle
 10
103.621332
 20
289.297303
 40
3.0
100
AcDbArc
 50
330.800152
 51
364.0
  0
ARC
  5
27A
100
AcDbEntity
  8
M0
 62
     2
100
AcDbCircle
 10
97.103833
 20
290.754128
 40
3.0
100
AcDbArc
 50
330.800152
 51
364.0
  0
ARC
  5
27B
100
AcDbEntity
  8
M0
 62
     2
100
AcDbCircle
 10
92.805209
 20
262.6299
 40
1.0
100
AcDbArc
 50
184.0
 51
274.0
  0
ARC
  5
27C
100
AcDbEntity
  8
M0
 62
     2
100
AcDbCircle
 10
101.783285
 20
263.257708
 40
1.0
100
AcDbArc
 50
274.0
 51
364.0
  0
LINE
  5
27D
100
AcDbEntity
  8
M0
 62
     2
100
AcDbLine
 10
65.215031
 20
282.500629
 11
57.585166
 21
283.034161
  0
LINE
  5
27E
100
AcDbEntity
  8
M0
 62
     2
100
AcDbLine
 10
61.197868
 20
287.793746
 11
68.815067
 21
287.2611
  0
ARC
  5
27F
100
AcDbEntity
  8
M0
 62
     2
100
AcDbCircle
 10
63.593148
 20
306.672648
 40
1.0
100
AcDbArc
 50
86.0
 51
176.0
  0
ARC
  5
280
100
AcDbEntity
  8
M0
 62
     2
100
AcDbCircle
 10
71.573661
 20
306.114596
 40
1.0
100
AcDbArc
 50
356.0
 51
446.0
  0
LINE
  5
281
100
AcDbEntity
  8
M0
 62
     2
100
AcDbLine
 10
71.643417
 20
307.11216
 11
63.662905
 21
307.670212
  0
LINE
  5
282
100
AcDbEntity
  8
M0
 62
     2
100
AcDbLine
 10
61.944018
 20
297.424569
 11
62.595584
 21
306.742404
  0
LINE
  5
283
100
AcDbEntity
  8
M0
 62
     2
100
AcDbLine
 10
71.919658
 20
296.727005
 11
72.571225
 21
306.04484
  0
ARC
  5
284
100
AcDbEntity
  8
M0
 62
     2
100
AcDbCircle
 10
62.941582
 20
297.354813
 40
1.0
100
AcDbArc
 50
176.0
 51
236.940719
  0
LINE
  5
285
100
AcDbEntity
  8
M0
 62
     2
100
AcDbLine
 10
51.773809
 20
273.11952
 11
51.16664
 21
264.436592
  0
LINE
  5
286
100
AcDbEntity
  8
M0
 62
     2
100
AcDbLine
 10
52.094447
 20
263.369272
 11
61.072524
 21
262.741464
  0
LINE
  5
287
100
AcDbEntity
  8
M0
 62
     2
100
AcDbLine
 10
55.028047
 20
279.665263
 11
62.724725
 21
289.805317
  0
LINE
  5
288
100
AcDbEntity
  8
M0
 62
     2
100
AcDbLine
 10
54.424949
 20
278.060741
 11
54.297556
 21
276.238928
  0
LINE
  5
289
100
AcDbEntity
  8
M0
 62
     2
100
AcDbLine
 10
61.279368
 20
277.315555
 11
68.976045
 21
287.455609
  0
LINE
  5
28A
100
AcDbEntity
  8
M0
 62
     2
100
AcDbLine
 10
69.579143
 20
289.060131
 11
69.910629
 21
293.800607
  0
LINE
  5
28B
100
AcDbEntity
  8
M0
 62
     2
100
AcDbLine
 10
63.327822
 20
291.409838
 11
63.526219
 21
294.247049
  0
LINE
  5
28C
100
AcDbEntity
  8
M0
 62
     2
100
AcDbLine
 10
60.67627
 20
275.711034
 11
60.681966
 21
275.792486
  0
LINE
  5
28D
100
AcDbEntity
  8
M0
 62
     2
100
AcDbLine
 10
62.139844
 20
263.669271
 11
62.747014
 21
272.352199
  0
ARC
  5
28E
100
AcDbEntity
  8
M0
 62
     2
100
AcDbCircle
 10
61.74945
 20
272.421956
 40
1.0
100
AcDbArc
 50
356.0
 51
425.948957
  0
ARC
  5
28F
100
AcDbEntity
  8
M0
 62
     2
100
AcDbCircle
 10
61.032309
 20
294.42144
 40
2.5
100
AcDbArc
 50
356.0
 51
416.940719
  0
ARC
  5
290
100
AcDbEntity
  8
M0
 62
     2
100
AcDbCircle
 10
72.404539
 20
293.626216
 40
2.5
100
AcDbArc
 50
115.059281
 51
176.0
  0
ARC
  5
291
100
AcDbEntity
  8
M0
 62
     2
100
AcDbCircle
 10
70.922094
 20
296.796761
 40
1.0
100
AcDbArc
 50
295.059281
 51
356.0
  0
ARC
  5
292
100
AcDbEntity
  8
M0
 62
     2
100
AcDbCircle
 10
51.803646
 20
276.413319
 40
2.5
100
AcDbArc
 50
286.051043
 51
356.0
  0
ARC
  5
293
100
AcDbEntity
  8
M0
 62
     2
100
AcDbCircle
 10
63.175876
 20
275.618095
 40
2.5
100
AcDbArc
 50
176.0
 51
245.948957
  0
ARC
  5
294
100
AcDbEntity
  8
M0
 62
     2
100
AcDbCircle
 10
52.771373
 20
273.049764
 40
1.0
100
AcDbArc
 50
106.051043
 51
176.0
  0
ARC
  5
295
100
AcDbEntity
  8
M0
 62
     2
100
AcDbCircle
 10
57.417641
 20
277.851472
 40
3.0
100
AcDbArc
 50
142.800152
 51
176.0
  0
ARC
  5
296
100
AcDbEntity
  8
M0
 62
     2
100
AcDbCircle
 10
63.668962
 20
275.501764
 40
3.0
100
AcDbArc
 50
142.800152
 51
176.0
  0
ARC
  5
297
100
AcDbEntity
  8
M0
 62
     2
100
AcDbCircle
 10
66.586451
 20
289.2694
 40
3.0
100
AcDbArc
 50
322.800152
 51
356.0
  0
ARC
  5
298
100
AcDbEntity
  8
M0
 62
     2
100
AcDbCircle
 10
60.33513
 20
291.619108
 40
3.0
100
AcDbArc
 50
322.800152
 51
356.0
  0
ARC
  5
299
100
AcDbEntity
  8
M0
 62
     2
100
AcDbCircle
 10
52.164204
 20
264.366836
 40
1.0
100
AcDbArc
 50
176.0
 51
266.0
  0
ARC
  5
29A
100
AcDbEntity
  8
M0
 62
     2
100
AcDbCircle
 10
61.14228
 20
263.739028
 40
1.0
100
AcDbArc
 50
266.0
 51
356.0
  0
LINE
  5
29B
100
AcDbEntity
  8
M0
 62
     6
100
AcDbLine
 10
87.40423
 20
236.703324
 11
86.40423
 21
236.703328
  0
LINE
  5
29C
100
AcDbEntity
  8
M0
 62
     6
100
AcDbLine
 10
48.40427
 20
243.70346
 11
50.404262
 21
245.703697
  0
LINE
  5
29D
100
AcDbEntity
  8
M0
 62
     6
100
AcDbLine
 10
65.404254
 20
239.203401
 11
63.404246
 21
241.203652
  0
LINE
  5
29E
100
AcDbEntity
  8
M0
 62
     6
100
AcDbLine
 10
88.404254
 20
239.203321
 11
90.404246
 21
241.203558
  0
LINE
  5
29F
100
AcDbEntity
  8
M0
 62
     6
100
AcDbLine
 10
68.404254
 20
239.203391
 11
70.404246
 21
241.203628
  0
LINE
  5
2A0
100
AcDbEntity
  8
M0
 62
     6
100
AcDbLine
 10
85.404254
 20
239.203331
 11
83.404246
 21
241.203826
  0
LINE
  5
2A1
100
AcDbEntity
  8
M0
 62
     6
100
AcDbLine
 10
88.404234
 20
237.703321
 11
88.404373
 21
277.703321
  0
LINE
  5
2A2
100
AcDbEntity
  8
M0
 62
     6
100
AcDbLine
 10
85.404234
 20
237.703331
 11
85.404373
 21
277.703331
  0
LINE
  5
2A3
100
AcDbEntity
  8
M0
 62
     6
100
AcDbLine
 10
65.404368
 20
276.203401
 11
60.752169
 21
276.203417
  0
LINE
  5
2A4
100
AcDbEntity
  8
M0
 62
     6
100
AcDbLine
 10
83.404246
 20
241.203826
 11
83.40429
 21
253.703338
  0
LINE
  5
2A5
100
AcDbEntity
  8
M0
 62
     6
100
AcDbLine
 10
68.404234
 20
237.703391
 11
68.404373
 21
277.703391
  0
LINE
  5
2A6
100
AcDbEntity
  8
M0
 62
     6
100
AcDbLine
 10
45.404245
 20
241.00352
 11
45.404378
 21
279.203471
  0
LINE
  5
2A7
100
AcDbEntity
  8
M0
 62
     6
100
AcDbLine
 10
108.254368
 20
276.203251
 11
99.801267
 21
276.203281
  0
ARC
  5
2A8
100
AcDbEntity
  8
M0
 62
     6
100
AcDbCircle
 10
51.40429
 20
253.70345
 40
1.0
100
AcDbArc
 50
89.998926
 51
179.9998
  0
ARC
  5
2A9
100
AcDbEntity
  8
M0
 62
     6
100
AcDbCircle
 10
91.404317
 20
261.70331
 40
1.0
100
AcDbArc
 50
179.9998
 51
270.0
  0
LINE
  5
2AA
100
AcDbEntity
  8
M0
 62
     6
100
AcDbLine
 10
104.404312
 20
261.703265
 11
104.404362
 21
276.203265
  0
ARC
  5
2AB
100
AcDbEntity
  8
M0
 62
     6
100
AcDbCircle
 10
71.40429
 20
253.70338
 40
1.0
100
AcDbArc
 50
89.998926
 51
179.9998
  0
ARC
  5
2AC
100
AcDbEntity
  8
M0
 62
     6
100
AcDbCircle
 10
64.404317
 20
261.703404
 40
1.0
100
AcDbArc
 50
270.0
 51
359.9998
  0
LINE
  5
2AD
100
AcDbEntity
  8
M0
 62
     6
100
AcDbLine
 10
65.404383
 20
276.203401
 11
63.404407
 21
274.203652
  0
ARC
  5
2AE
100
AcDbEntity
  8
M0
 62
     6
100
AcDbCircle
 10
47.404253
 20
243.203464
 40
1.0
100
AcDbArc
 50
270.0
 51
359.9998
  0
LINE
  5
2AF
100
AcDbEntity
  8
M0
 62
     6
100
AcDbLine
 10
65.404245
 20
241.00345
 11
45.404245
 21
241.00352
  0
LINE
  5
2B0
100
AcDbEntity
  8
M0
 62
     6
100
AcDbLine
 10
67.40423
 20
236.703394
 11
66.40423
 21
236.703397
  0
LINE
  5
2B1
100
AcDbEntity
  8
M0
 62
     6
100
AcDbLine
 10
85.404245
 20
241.00338
 11
68.404245
 21
241.003439
  0
LINE
  5
2B2
100
AcDbEntity
  8
M0
 62
     6
100
AcDbLine
 10
68.404383
 20
276.203391
 11
70.404361
 21
274.203384
  0
LINE
  5
2B3
100
AcDbEntity
  8
M0
 62
     6
100
AcDbLine
 10
47.404373
 20
277.703464
 11
45.404373
 21
277.703471
  0
LINE
  5
2B4
100
AcDbEntity
  8
M0
 62
     6
100
AcDbLine
 10
108.254239
 20
239.203251
 11
108.254294
 21
255.20081
  0
ARC
  5
2B5
100
AcDbEntity
  8
M0
 62
     6
100
AcDbCircle
 10
89.4043
 20
256.703317
 40
1.0
100
AcDbArc
 50
89.998926
 51
179.9998
  0
ARC
  5
2B6
100
AcDbEntity
  8
M0
 62
     6
100
AcDbCircle
 10
87.404234
 20
237.703324
 40
1.0
100
AcDbArc
 50
270.0
 51
359.9998
  0
ARC
  5
2B7
100
AcDbEntity
  8
M0
 62
     6
100
AcDbCircle
 10
66.404234
 20
237.703397
 40
1.0
100
AcDbArc
 50
179.9998
 51
270.0
  0
ARC
  5
2B8
100
AcDbEntity
  8
M0
 62
     6
100
AcDbCircle
 10
47.40437
 20
276.703464
 40
1.0
100
AcDbArc
 50
359.9998
 51
449.998926
  0
ARC
  5
2B9
100
AcDbEntity
  8
M0
 62
     6
100
AcDbCircle
 10
118.25432
 20
262.703217
 40
13.299996
100
AcDbArc
 50
165.18762
 51
194.810764
  0
ARC
  5
2BA
100
AcDbEntity
  8
M0
 62
     6
100
AcDbCircle
 10
67.404234
 20
237.703394
 40
1.0
100
AcDbArc
 50
270.0
 51
359.9998
  0
ARC
  5
2BB
100
AcDbEntity
  8
M0
 62
     6
100
AcDbCircle
 10
64.4043
 20
256.703404
 40
1.0
100
AcDbArc
 50
359.9998
 51
449.998926
  0
ARC
  5
2BC
100
AcDbEntity
  8
M0
 62
     6
100
AcDbCircle
 10
86.404234
 20
237.703328
 40
1.0
100
AcDbArc
 50
179.9998
 51
270.0
  0
ARC
  5
2BD
100
AcDbEntity
  8
M0
 62
     6
100
AcDbCircle
 10
69.4043
 20
256.703387
 40
1.0
100
AcDbArc
 50
89.998926
 51
179.9998
  0
ARC
  5
2BE
100
AcDbEntity
  8
M0
 62
     6
100
AcDbCircle
 10
49.4043
 20
256.703457
 40
1.0
100
AcDbArc
 50
89.998926
 51
179.9998
  0
ARC
  5
2BF
100
AcDbEntity
  8
M0
 62
     6
100
AcDbCircle
 10
107.754239
 20
239.203253
 40
0.5
100
AcDbArc
 50
270.0
 51
359.9998
  0
ARC
  5
2C0
100
AcDbEntity
  8
M0
 62
     6
100
AcDbCircle
 10
84.4043
 20
256.703335
 40
1.0
100
AcDbArc
 50
359.9998
 51
449.998926
  0
ARC
  5
2C1
100
AcDbEntity
  8
M0
 62
     6
100
AcDbCircle
 10
103.404312
 20
261.703268
 40
1.0
100
AcDbArc
 50
270.0
 51
359.9998
  0
ARC
  5
2C2
100
AcDbEntity
  8
M0
 62
     6
100
AcDbCircle
 10
105.904233
 20
239.20326
 40
0.5
100
AcDbArc
 50
179.9998
 51
270.0
  0
CIRCLE
  5
2C3
100
AcDbEntity
  8
M0
 62
     6
100
AcDbCircle
 10
56.904263
 20
267.703122
 40
5.0
  0
LINE
  5
2C4
100
AcDbEntity
  8
M0
 62
     6
100
AcDbLine
 10
48.404253
 20
243.20346
 11
48.40437
 21
276.70346
  0
CIRCLE
  5
2C5
100
AcDbEntity
  8
M0
 62
     6
100
AcDbCircle
 10
96.904233
 20
267.702878
 40
5.0
  0
LINE
  5
2C6
100
AcDbEntity
  8
M0
 62
     6
100
AcDbLine
 10
70.404246
 20
241.203628
 11
70.40429
 21
253.703384
  0
LINE
  5
2C7
100
AcDbEntity
  8
M0
 62
     6
100
AcDbLine
 10
65.404234
 20
237.703401
 11
65.404373
 21
277.703401
  0
CIRCLE
  5
2C8
100
AcDbEntity
  8
M0
 62
     6
100
AcDbCircle
 10
76.90437
 20
267.703366
 40
5.0
  0
LINE
  5
2C9
100
AcDbEntity
  8
M0
 62
     6
100
AcDbLine
 10
105.404233
 20
239.203261
 11
105.404294
 21
256.703261
  0
ARC
  5
2CA
100
AcDbEntity
  8
M0
 62
     6
100
AcDbCircle
 10
67.404373
 20
277.703394
 40
1.0
100
AcDbArc
 50
359.9998
 51
449.998926
  0
ARC
  5
2CB
100
AcDbEntity
  8
M0
 62
     6
100
AcDbCircle
 10
87.404373
 20
277.703324
 40
1.0
100
AcDbArc
 50
359.9998
 51
449.998926
  0
ARC
  5
2CC
100
AcDbEntity
  8
M0
 62
     6
100
AcDbCircle
 10
86.404373
 20
277.703328
 40
1.0
100
AcDbArc
 50
89.998926
 51
179.9998
  0
CIRCLE
  5
2CD
100
AcDbEntity
  8
M0
 62
     6
100
AcDbCircle
 10
76.904248
 20
247.702634
 40
5.0
  0
CIRCLE
  5
2CE
100
AcDbEntity
  8
M0
 62
     6
100
AcDbCircle
 10
96.904103
 20
247.702763
 40
5.0
  0
ARC
  5
2CF
100
AcDbEntity
  8
M0
 62
     6
100
AcDbCircle
 10
66.404373
 20
277.703397
 40
1.0
100
AcDbArc
 50
89.998926
 51
179.9998
  0
LINE
  5
2D0
100
AcDbEntity
  8
M0
 62
     6
100
AcDbLine
 10
102.539506
 20
278.703271
 11
101.137295
 21
278.703276
  0
LINE
  5
2D1
100
AcDbEntity
  8
M0
 62
     6
100
AcDbLine
 10
70.404317
 20
261.703384
 11
70.404361
 21
274.203384
  0
LINE
  5
2D2
100
AcDbEntity
  8
M0
 62
     6
100
AcDbLine
 10
84.404314
 20
260.703335
 11
69.404314
 21
260.703387
  0
LINE
  5
2D3
100
AcDbEntity
  8
M0
 62
     6
100
AcDbLine
 10
121.043225
 20
278.703253
 11
108.268605
 21
278.703004
  0
LINE
  5
2D4
100
AcDbEntity
  8
M0
 62
     6
100
AcDbLine
 10
54.677364
 20
279.203253
 11
45.404378
 21
279.203253
  0
LINE
  5
2D5
100
AcDbEntity
  8
M0
 62
     6
100
AcDbLine
 10
103.404308
 20
260.703268
 11
88.404314
 21
260.703321
  0
LINE
  5
2D6
100
AcDbEntity
  8
M0
 62
     6
100
AcDbLine
 10
63.404363
 20
261.703408
 11
63.404407
 21
274.203652
  0
LINE
  5
2D7
100
AcDbEntity
  8
M0
 62
     6
100
AcDbLine
 10
104.404287
 20
254.703265
 11
89.404293
 21
254.703317
  0
LINE
  5
2D8
100
AcDbEntity
  8
M0
 62
     6
100
AcDbLine
 10
64.404303
 20
257.703404
 11
49.404303
 21
257.703457
  0
LINE
  5
2D9
100
AcDbEntity
  8
M0
 62
     6
100
AcDbLine
 10
50.404363
 20
261.703453
 11
50.404407
 21
274.204186
  0
LINE
  5
2DA
100
AcDbEntity
  8
M0
 62
     6
100
AcDbLine
 10
47.404249
 20
242.203464
 11
45.404249
 21
242.203471
  0
LINE
  5
2DB
100
AcDbEntity
  8
M0
 62
     6
100
AcDbLine
 10
84.404303
 20
257.703335
 11
69.404303
 21
257.703387
  0
LINE
  5
2DC
100
AcDbEntity
  8
M0
 62
     6
100
AcDbLine
 10
84.404293
 20
254.703335
 11
69.404293
 21
254.703387
  0
LINE
  5
2DD
100
AcDbEntity
  8
M0
 62
     6
100
AcDbLine
 10
85.404368
 20
276.203331
 11
80.289326
 21
276.203349
  0
LINE
  5
2DE
100
AcDbEntity
  8
M0
 62
     6
100
AcDbLine
 10
130.407838
 20
277.20081
 11
100.297438
 21
277.200519
  0
LINE
  5
2DF
100
AcDbEntity
  8
M0
 62
     6
100
AcDbLine
 10
85.404371
 20
277.203331
 11
80.805688
 21
277.203347
  0
LINE
  5
2E0
100
AcDbEntity
  8
M0
 62
     6
100
AcDbLine
 10
65.404371
 20
277.203401
 11
61.194249
 21
277.203416
  0
LINE
  5
2E1
100
AcDbEntity
  8
M0
 62
     6
100
AcDbLine
 10
105.407836
 20
257.70081
 11
105.407834
 21
255.20081
  0
LINE
  5
2E2
100
AcDbEntity
  8
M0
 62
     6
100
AcDbLine
 10
101.907834
 20
254.703274
 11
101.907838
 21
260.703274
  0
LINE
  5
2E3
100
AcDbEntity
  8
M0
 62
     6
100
AcDbLine
 10
108.257847
 20
266.10081
 11
105.395617
 21
266.10081
  0
LINE
  5
2E4
100
AcDbEntity
  8
M0
 62
     6
100
AcDbLine
 10
108.257843
 20
259.30081
 11
105.396889
 21
259.30081
  0
LINE
  5
2E5
100
AcDbEntity
  8
M0
 62
     6
100
AcDbLine
 10
63.404246
 20
241.203652
 11
63.40429
 21
253.703408
  0
LINE
  5
2E6
100
AcDbEntity
  8
M0
 62
     6
100
AcDbLine
 10
83.404317
 20
261.703338
 11
83.404361
 21
274.203338
  0
LINE
  5
2E7
100
AcDbEntity
  8
M0
 62
     6
100
AcDbLine
 10
90.404246
 20
241.203558
 11
90.40429
 21
253.703314
  0
LINE
  5
2E8
100
AcDbEntity
  8
M0
 62
     6
100
AcDbLine
 10
103.404239
 20
241.003317
 11
103.404284
 21
253.703268
  0
LINE
  5
2E9
100
AcDbEntity
  8
M0
 62
     6
100
AcDbLine
 10
90.404317
 20
261.703314
 11
90.404361
 21
274.203802
  0
LINE
  5
2EA
100
AcDbEntity
  8
M0
 62
     6
100
AcDbLine
 10
103.404312
 20
261.703268
 11
103.404362
 21
276.203268
  0
ARC
  5
2EB
100
AcDbEntity
  8
M0
 62
     6
100
AcDbCircle
 10
89.40429
 20
253.703317
 40
1.0
100
AcDbArc
 50
89.998926
 51
179.9998
  0
ARC
  5
2EC
100
AcDbEntity
  8
M0
 62
     6
100
AcDbCircle
 10
104.404284
 20
253.703265
 40
1.0
100
AcDbArc
 50
359.9998
 51
450.0
  0
ARC
  5
2ED
100
AcDbEntity
  8
M0
 62
     6
100
AcDbCircle
 10
84.40429
 20
253.703335
 40
1.0
100
AcDbArc
 50
359.9998
 51
449.998926
  0
ARC
  5
2EE
100
AcDbEntity
  8
M0
 62
     6
100
AcDbCircle
 10
64.40429
 20
253.703404
 40
1.0
100
AcDbArc
 50
359.9998
 51
449.998926
  0
ARC
  5
2EF
100
AcDbEntity
  8
M0
 62
     6
100
AcDbCircle
 10
49.40429
 20
253.703457
 40
1.0
100
AcDbArc
 50
89.998926
 51
179.9998
  0
ARC
  5
2F0
100
AcDbEntity
  8
M0
 62
     6
100
AcDbCircle
 10
102.404312
 20
261.703272
 40
1.0
100
AcDbArc
 50
270.0
 51
359.9998
  0
ARC
  5
2F1
100
AcDbEntity
  8
M0
 62
     6
100
AcDbCircle
 10
84.404317
 20
261.703335
 40
1.0
100
AcDbArc
 50
270.0
 51
359.9998
  0
ARC
  5
2F2
100
AcDbEntity
  8
M0
 62
     6
100
AcDbCircle
 10
69.404317
 20
261.703387
 40
1.0
100
AcDbArc
 50
179.9998
 51
270.0
  0
ARC
  5
2F3
100
AcDbEntity
  8
M0
 62
     6
100
AcDbCircle
 10
102.404284
 20
253.703272
 40
1.0
100
AcDbArc
 50
359.9998
 51
450.0
  0
CIRCLE
  5
2F4
100
AcDbEntity
  8
M0
 62
     6
100
AcDbCircle
 10
56.904248
 20
247.702634
 40
5.0
  0
ARC
  5
2F5
100
AcDbEntity
  8
M0
 62
     6
100
AcDbCircle
 10
62.40429
 20
253.703411
 40
1.0
100
AcDbArc
 50
359.9998
 51
449.998926
  0
ARC
  5
2F6
100
AcDbEntity
  8
M0
 62
     6
100
AcDbCircle
 10
82.40429
 20
253.703342
 40
1.0
100
AcDbArc
 50
359.9998
 51
449.998926
  0
ARC
  5
2F7
100
AcDbEntity
  8
M0
 62
     6
100
AcDbCircle
 10
49.404317
 20
261.703457
 40
1.0
100
AcDbArc
 50
179.9998
 51
270.0
  0
ARC
  5
2F8
100
AcDbEntity
  8
M0
 62
     6
100
AcDbCircle
 10
91.40429
 20
253.70331
 40
1.0
100
AcDbArc
 50
89.998926
 51
179.9998
  0
LINE
  5
2F9
100
AcDbEntity
  8
M0
 62
     6
100
AcDbLine
 10
105.404239
 20
241.00331
 11
88.404245
 21
241.00337
  0
LINE
  5
2FA
100
AcDbEntity
  8
M0
 62
     6
100
AcDbLine
 10
64.404293
 20
254.703404
 11
49.404293
 21
254.703457
  0
LINE
  5
2FB
100
AcDbEntity
  8
M0
 62
     6
100
AcDbLine
 10
85.404444
 20
276.203331
 11
83.404361
 21
274.203338
  0
LINE
  5
2FC
100
AcDbEntity
  8
M0
 62
     6
100
AcDbLine
 10
64.404314
 20
260.703404
 11
49.404314
 21
260.703457
  0
LINE
  5
2FD
100
AcDbEntity
  8
M0
 62
     6
100
AcDbLine
 10
101.907836
 20
257.703274
 11
89.404303
 21
257.703317
  0
LINE
  5
2FE
100
AcDbEntity
  8
M0
 62
     6
100
AcDbLine
 10
48.404444
 20
276.203704
 11
50.404407
 21
274.204186
  0
LINE
  5
2FF
100
AcDbEntity
  8
M0
 62
     6
100
AcDbLine
 10
50.404262
 20
245.703697
 11
50.40429
 21
253.703453
  0
ARC
  5
300
100
AcDbEntity
  8
M0
 62
     6
100
AcDbCircle
 10
69.40429
 20
253.703387
 40
1.0
100
AcDbArc
 50
89.998926
 51
179.9998
  0
ARC
  5
301
100
AcDbEntity
  8
M0
 62
     6
100
AcDbCircle
 10
51.404363
 20
261.70345
 40
1.0
100
AcDbArc
 50
179.9998
 51
270.0
  0
ARC
  5
302
100
AcDbEntity
  8
M0
 62
     6
100
AcDbCircle
 10
62.404363
 20
261.703411
 40
1.0
100
AcDbArc
 50
270.0
 51
359.9998
  0
LINE
  5
303
100
AcDbEntity
  8
M0
 62
     6
100
AcDbLine
 10
88.404444
 20
276.203321
 11
90.404361
 21
274.203802
  0
LINE
  5
304
100
AcDbEntity
  8
M0
 62
     6
100
AcDbLine
 10
107.754237
 20
238.703253
 11
105.904231
 21
238.70326
  0
ARC
  5
305
100
AcDbEntity
  8
M0
 62
     6
100
AcDbCircle
 10
82.404317
 20
261.703342
 40
1.0
100
AcDbArc
 50
270.0
 51
359.9998
  0
ARC
  5
306
100
AcDbEntity
  8
M0
 62
     6
100
AcDbCircle
 10
71.404317
 20
261.70338
 40
1.0
100
AcDbArc
 50
179.9998
 51
270.0
  0
CIRCLE
  5
307
100
AcDbEntity
  8
M0
 62
     6
100
AcDbCircle
 10
96.904233
 20
267.703007
 40
4.5
  0
LINE
  5
308
100
AcDbEntity
  8
M0
 62
     6
100
AcDbLine
 10
94.944226
 20
269.662968
 11
98.864224
 21
265.742802
  0
LINE
  5
309
100
AcDbEntity
  8
M0
 62
     6
100
AcDbLine
 10
97.772168
 20
269.98499
 11
94.622067
 21
266.834843
  0
LINE
  5
30A
100
AcDbEntity
  8
M0
 62
     6
100
AcDbLine
 10
99.186368
 20
268.570927
 11
96.036267
 21
265.420781
  0
LINE
  5
30B
100
AcDbEntity
  8
M0
  6
DASHDOT
 62
     6
100
AcDbLine
 10
96.404233
 20
267.703007
 11
97.404233
 21
267.703007
  0
LINE
  5
30C
100
AcDbEntity
  8
M0
  6
DASHDOT
 62
     6
100
AcDbLine
 10
96.904233
 20
267.203007
 11
96.904233
 21
268.203007
  0
CIRCLE
  5
30D
100
AcDbEntity
  8
M0
 62
     6
100
AcDbCircle
 10
56.904248
 20
247.702763
 40
4.5
  0
LINE
  5
30E
100
AcDbEntity
  8
M0
 62
     6
100
AcDbLine
 10
54.944241
 20
249.662724
 11
58.86424
 21
245.742558
  0
LINE
  5
30F
100
AcDbEntity
  8
M0
 62
     6
100
AcDbLine
 10
57.772183
 20
249.984746
 11
54.622083
 21
246.834599
  0
LINE
  5
310
100
AcDbEntity
  8
M0
 62
     6
100
AcDbLine
 10
59.186383
 20
248.570683
 11
56.036282
 21
245.420537
  0
LINE
  5
311
100
AcDbEntity
  8
M0
  6
DASHDOT
 62
     6
100
AcDbLine
 10
56.404248
 20
247.702763
 11
57.404248
 21
247.702763
  0
LINE
  5
312
100
AcDbEntity
  8
M0
  6
DASHDOT
 62
     6
100
AcDbLine
 10
56.904248
 20
247.202763
 11
56.904248
 21
248.202763
  0
CIRCLE
  5
313
100
AcDbEntity
  8
M0
 62
     6
100
AcDbCircle
 10
96.904233
 20
247.702763
 40
4.5
  0
LINE
  5
314
100
AcDbEntity
  8
M0
 62
     6
100
AcDbLine
 10
94.944226
 20
249.662724
 11
98.864224
 21
245.742558
  0
LINE
  5
315
100
AcDbEntity
  8
M0
 62
     6
100
AcDbLine
 10
97.772168
 20
249.984746
 11
94.622067
 21
246.834599
  0
LINE
  5
316
100
AcDbEntity
  8
M0
 62
     6
100
AcDbLine
 10
99.186368
 20
248.570683
 11
96.036267
 21
245.420537
  0
LINE
  5
317
100
AcDbEntity
  8
M0
  6
DASHDOT
 62
     6
100
AcDbLine
 10
96.404233
 20
247.702763
 11
97.404233
 21
247.702763
  0
LINE
  5
318
100
AcDbEntity
  8
M0
  6
DASHDOT
 62
     6
100
AcDbLine
 10
96.904233
 20
247.202763
 11
96.904233
 21
248.202763
  0
CIRCLE
  5
319
100
AcDbEntity
  8
M0
 62
     6
100
AcDbCircle
 10
76.904248
 20
247.702763
 40
4.5
  0
LINE
  5
31A
100
AcDbEntity
  8
M0
 62
     6
100
AcDbLine
 10
74.944241
 20
249.662724
 11
78.86424
 21
245.742558
  0
LINE
  5
31B
100
AcDbEntity
  8
M0
 62
     6
100
AcDbLine
 10
77.772183
 20
249.984746
 11
74.622083
 21
246.834599
  0
LINE
  5
31C
100
AcDbEntity
  8
M0
 62
     6
100
AcDbLine
 10
79.186383
 20
248.570683
 11
76.036282
 21
245.420537
  0
LINE
  5
31D
100
AcDbEntity
  8
M0
  6
DASHDOT
 62
     6
100
AcDbLine
 10
76.404248
 20
247.702763
 11
77.404248
 21
247.702763
  0
LINE
  5
31E
100
AcDbEntity
  8
M0
  6
DASHDOT
 62
     6
100
AcDbLine
 10
76.904248
 20
247.202763
 11
76.904248
 21
248.202763
  0
CIRCLE
  5
31F
100
AcDbEntity
  8
M0
 62
     6
100
AcDbCircle
 10
112.406629
 20
250.70081
 40
2.999997
  0
LINE
  5
320
100
AcDbEntity
  8
M0
 62
     6
100
AcDbLine
 10
109.61803
 20
255.20081
 11
108.631482
 21
252.000859
  0
LINE
  5
321
100
AcDbEntity
  8
M0
 62
     6
100
AcDbLine
 10
109.447644
 20
246.75356
 11
108.631482
 21
249.400883
  0
LINE
  5
322
100
AcDbEntity
  8
M0
 62
     6
100
AcDbLine
 10
115.346479
 20
254.708623
 11
116.181531
 21
252.000859
  0
LINE
  5
323
100
AcDbEntity
  8
M0
 62
     6
100
AcDbLine
 10
115.365125
 20
246.753544
 11
116.181531
 21
249.400883
  0
LINE
  5
324
100
AcDbEntity
  8
M0
 62
     6
100
AcDbLine
 10
109.925671
 20
246.400883
 11
114.887341
 21
246.400883
  0
LINE
  5
325
100
AcDbEntity
  8
M0
 62
     6
100
AcDbLine
 10
116.181531
 20
249.400883
 11
116.181531
 21
252.000859
  0
LINE
  5
326
100
AcDbEntity
  8
M0
 62
     6
100
AcDbLine
 10
108.631482
 20
252.000859
 11
108.631482
 21
249.400883
  0
LINE
  5
327
100
AcDbEntity
  8
M0
 62
     6
100
AcDbLine
 10
113.997205
 20
249.10999
 11
110.815564
 21
252.291752
  0
LINE
  5
328
100
AcDbEntity
  8
M0
 62
     6
100
AcDbLine
 10
112.7599
 20
252.114995
 11
110.992322
 21
250.347294
  0
LINE
  5
329
100
AcDbEntity
  8
M0
 62
     6
100
AcDbLine
 10
113.820447
 20
251.054326
 11
112.052869
 21
249.286748
  0
ARC
  5
32A
100
AcDbEntity
  8
M0
 62
     6
100
AcDbCircle
 10
109.925671
 20
246.900883
 40
0.5
100
AcDbArc
 50
197.128737
 51
270.0
  0
ARC
  5
32B
100
AcDbEntity
  8
M0
 62
     6
100
AcDbCircle
 10
114.887341
 20
246.900883
 40
0.5
100
AcDbArc
 50
270.0
 51
342.861308
  0
ARC
  5
32C
100
AcDbEntity
  8
M0
 62
     6
100
AcDbCircle
 10
114.887341
 20
254.500737
 40
0.5
100
AcDbArc
 50
17.138692
 51
90.0
  0
LINE
  5
32D
100
AcDbEntity
  8
M0
 62
     6
100
AcDbLine
 10
109.925671
 20
255.000737
 11
114.887341
 21
255.000737
  0
ARC
  5
32E
100
AcDbEntity
  8
M0
 62
     6
100
AcDbCircle
 10
109.925671
 20
254.500737
 40
0.5
100
AcDbArc
 50
90.0
 51
162.871263
  0
LINE
  5
32F
100
AcDbEntity
  8
M0
  6
DASHDOT
 62
     6
100
AcDbLine
 10
111.906629
 20
250.70081
 11
112.906629
 21
250.70081
  0
LINE
  5
330
100
AcDbEntity
  8
M0
  6
DASHDOT
 62
     6
100
AcDbLine
 10
112.406629
 20
250.20081
 11
112.406629
 21
251.20081
  0
CIRCLE
  5
331
100
AcDbEntity
  8
M0
 62
     6
100
AcDbCircle
 10
123.406629
 20
250.70081
 40
2.999997
  0
LINE
  5
332
100
AcDbEntity
  8
M0
 62
     6
100
AcDbLine
 10
120.463387
 20
254.69921
 11
119.631482
 21
252.000859
  0
LINE
  5
333
100
AcDbEntity
  8
M0
 62
     6
100
AcDbLine
 10
120.447644
 20
246.75356
 11
119.631482
 21
249.400883
  0
LINE
  5
334
100
AcDbEntity
  8
M0
 62
     6
100
AcDbLine
 10
126.384541
 20
254.585201
 11
127.181531
 21
252.000859
  0
LINE
  5
335
100
AcDbEntity
  8
M0
 62
     6
100
AcDbLine
 10
126.365125
 20
246.753544
 11
127.181531
 21
249.400883
  0
LINE
  5
336
100
AcDbEntity
  8
M0
 62
     6
100
AcDbLine
 10
120.925671
 20
246.400883
 11
125.887341
 21
246.400883
  0
LINE
  5
337
100
AcDbEntity
  8
M0
 62
     6
100
AcDbLine
 10
127.181531
 20
249.400883
 11
127.181531
 21
252.000859
  0
LINE
  5
338
100
AcDbEntity
  8
M0
 62
     6
100
AcDbLine
 10
119.631482
 20
252.000859
 11
119.631482
 21
249.400883
  0
LINE
  5
339
100
AcDbEntity
  8
M0
 62
     6
100
AcDbLine
 10
124.997205
 20
249.10999
 11
121.815564
 21
252.291752
  0
LINE
  5
33A
100
AcDbEntity
  8
M0
 62
     6
100
AcDbLine
 10
123.7599
 20
252.114995
 11
121.992322
 21
250.347294
  0
LINE
  5
33B
100
AcDbEntity
  8
M0
 62
     6
100
AcDbLine
 10
124.820447
 20
251.054326
 11
123.052869
 21
249.286748
  0
ARC
  5
33C
100
AcDbEntity
  8
M0
 62
     6
100
AcDbCircle
 10
120.925671
 20
246.900883
 40
0.5
100
AcDbArc
 50
197.128737
 51
270.0
  0
ARC
  5
33D
100
AcDbEntity
  8
M0
 62
     6
100
AcDbCircle
 10
125.887341
 20
246.900883
 40
0.5
100
AcDbArc
 50
270.0
 51
342.861308
  0
ARC
  5
33E
100
AcDbEntity
  8
M0
 62
     6
100
AcDbCircle
 10
125.887341
 20
254.500737
 40
0.5
100
AcDbArc
 50
17.138692
 51
90.0
  0
LINE
  5
33F
100
AcDbEntity
  8
M0
 62
     6
100
AcDbLine
 10
121.356054
 20
255.000737
 11
125.887341
 21
255.000737
  0
ARC
  5
340
100
AcDbEntity
  8
M0
 62
     6
100
AcDbCircle
 10
120.925671
 20
254.500737
 40
0.5
100
AcDbArc
 50
156.480883
 51
162.871263
  0
LINE
  5
341
100
AcDbEntity
  8
M0
  6
DASHDOT
 62
     6
100
AcDbLine
 10
122.906629
 20
250.70081
 11
123.906629
 21
250.70081
  0
LINE
  5
342
100
AcDbEntity
  8
M0
  6
DASHDOT
 62
     6
100
AcDbLine
 10
123.406629
 20
250.20081
 11
123.406629
 21
251.20081
  0
CIRCLE
  5
343
100
AcDbEntity
  8
M0
 62
     6
100
AcDbCircle
 10
56.904263
 20
267.703251
 40
4.5
  0
LINE
  5
344
100
AcDbEntity
  8
M0
 62
     6
100
AcDbLine
 10
54.944257
 20
269.663212
 11
58.864255
 21
265.743046
  0
LINE
  5
345
100
AcDbEntity
  8
M0
 62
     6
100
AcDbLine
 10
57.772199
 20
269.985234
 11
54.622098
 21
266.835087
  0
LINE
  5
346
100
AcDbEntity
  8
M0
 62
     6
100
AcDbLine
 10
59.186398
 20
268.571171
 11
56.036298
 21
265.421025
  0
LINE
  5
347
100
AcDbEntity
  8
M0
  6
DASHDOT
 62
     6
100
AcDbLine
 10
56.404263
 20
267.703251
 11
57.404263
 21
267.703251
  0
LINE
  5
348
100
AcDbEntity
  8
M0
  6
DASHDOT
 62
     6
100
AcDbLine
 10
56.904263
 20
267.203251
 11
56.904263
 21
268.203251
  0
CIRCLE
  5
349
100
AcDbEntity
  8
M0
 62
     6
100
AcDbCircle
 10
76.90437
 20
267.703496
 40
4.5
  0
LINE
  5
34A
100
AcDbEntity
  8
M0
 62
     6
100
AcDbLine
 10
74.944363
 20
269.663457
 11
78.864362
 21
265.743291
  0
LINE
  5
34B
100
AcDbEntity
  8
M0
 62
     6
100
AcDbLine
 10
77.772305
 20
269.985478
 11
74.622205
 21
266.835332
  0
LINE
  5
34C
100
AcDbEntity
  8
M0
 62
     6
100
AcDbLine
 10
79.186505
 20
268.571416
 11
76.036405
 21
265.421269
  0
LINE
  5
34D
100
AcDbEntity
  8
M0
  6
DASHDOT
 62
     6
100
AcDbLine
 10
76.40437
 20
267.703496
 11
77.40437
 21
267.703496
  0
LINE
  5
34E
100
AcDbEntity
  8
M0
  6
DASHDOT
 62
     6
100
AcDbLine
 10
76.90437
 20
267.203496
 11
76.90437
 21
268.203496
  0
ARC
  5
34F
100
AcDbEntity
  8
M0
 62
     6
100
AcDbCircle
 10
123.407849
 20
243.70081
 40
2.999997
100
AcDbArc
 50
115.844051
 51
424.156194
  0
LINE
  5
350
100
AcDbEntity
  8
M0
 62
     6
100
AcDbLine
 10
120.310361
 20
247.198613
 11
119.632703
 21
245.000859
  0
LINE
  5
351
100
AcDbEntity
  8
M0
 62
     6
100
AcDbLine
 10
120.448865
 20
239.75356
 11
119.632703
 21
242.400883
  0
LINE
  5
352
100
AcDbEntity
  8
M0
 62
     6
100
AcDbLine
 10
126.503674
 20
247.202763
 11
127.182752
 21
245.000859
  0
LINE
  5
353
100
AcDbEntity
  8
M0
 62
     6
100
AcDbLine
 10
126.366345
 20
239.753544
 11
127.182752
 21
242.400883
  0
LINE
  5
354
100
AcDbEntity
  8
M0
 62
     6
100
AcDbLine
 10
120.926892
 20
239.400883
 11
125.888562
 21
239.400883
  0
LINE
  5
355
100
AcDbEntity
  8
M0
 62
     6
100
AcDbLine
 10
127.182752
 20
242.400883
 11
127.182752
 21
245.000859
  0
LINE
  5
356
100
AcDbEntity
  8
M0
 62
     6
100
AcDbLine
 10
119.632703
 20
245.000859
 11
119.632703
 21
242.400883
  0
LINE
  5
357
100
AcDbEntity
  8
M0
 62
     6
100
AcDbLine
 10
124.998425
 20
242.10999
 11
121.816785
 21
245.291752
  0
LINE
  5
358
100
AcDbEntity
  8
M0
 62
     6
100
AcDbLine
 10
123.761121
 20
245.114995
 11
121.993543
 21
243.347294
  0
LINE
  5
359
100
AcDbEntity
  8
M0
 62
     6
100
AcDbLine
 10
124.821668
 20
244.054326
 11
123.054089
 21
242.286748
  0
ARC
  5
35A
100
AcDbEntity
  8
M0
 62
     6
100
AcDbCircle
 10
120.926892
 20
239.900883
 40
0.5
100
AcDbArc
 50
197.128737
 51
270.0
  0
ARC
  5
35B
100
AcDbEntity
  8
M0
 62
     6
100
AcDbCircle
 10
125.888562
 20
239.900883
 40
0.5
100
AcDbArc
 50
270.0
 51
342.861308
  0
LINE
  5
35C
100
AcDbEntity
  8
M0
  6
DASHDOT
 62
     6
100
AcDbLine
 10
122.907849
 20
243.70081
 11
123.907849
 21
243.70081
  0
LINE
  5
35D
100
AcDbEntity
  8
M0
  6
DASHDOT
 62
     6
100
AcDbLine
 10
123.407849
 20
243.20081
 11
123.407849
 21
244.20081
  0
LINE
  5
35E
100
AcDbEntity
  8
M0
 62
     6
100
AcDbLine
 10
107.403973
 20
279.200597
 11
103.403973
 21
279.200582
  0
LINE
  5
35F
100
AcDbEntity
  8
M0
 62
     6
100
AcDbLine
 10
102.403973
 20
278.200582
 11
102.403973
 21
277.200597
  0
LINE
  5
360
100
AcDbEntity
  8
M0
 62
     6
100
AcDbLine
 10
108.403973
 20
278.200597
 11
108.403973
 21
277.200597
  0
ARC
  5
361
100
AcDbEntity
  8
M0
 62
     6
100
AcDbCircle
 10
107.403973
 20
278.200597
 40
1.0
100
AcDbArc
 50
0.0
 51
89.999126
  0
ARC
  5
362
100
AcDbEntity
  8
M0
 62
     6
100
AcDbCircle
 10
103.403973
 20
278.200582
 40
1.0
100
AcDbArc
 50
89.999126
 51
179.999966
  0
ARC
  5
363
100
AcDbEntity
  8
M0
 62
     6
100
AcDbCircle
 10
118.407822
 20
235.700818
 40
1.0
100
AcDbArc
 50
179.999964
 51
270.0
  0
ARC
  5
364
100
AcDbEntity
  8
M0
 62
     6
100
AcDbCircle
 10
118.407822
 20
235.700818
 40
1.0
100
AcDbArc
 50
270.0
 51
359.999964
  0
LINE
  5
365
100
AcDbEntity
  8
M0
 62
     6
100
AcDbLine
 10
109.407852
 20
235.700823
 11
106.407852
 21
235.700825
  0
LINE
  5
366
100
AcDbEntity
  8
M0
 62
     6
100
AcDbLine
 10
130.407847
 20
276.20081
 11
105.241847
 21
276.200566
  0
LINE
  5
367
100
AcDbEntity
  8
M0
 62
     6
100
AcDbLine
 10
109.40784
 20
239.700823
 11
110.465136
 21
239.700823
  0
LINE
  5
368
100
AcDbEntity
  8
M0
 62
     6
100
AcDbLine
 10
130.407823
 20
237.20081
 11
130.407849
 21
279.20081
  0
LINE
  5
369
100
AcDbEntity
  8
M0
 62
     6
100
AcDbLine
 10
127.407823
 20
237.700812
 11
127.407834
 21
255.20081
  0
LINE
  5
36A
100
AcDbEntity
  8
M0
 62
     6
100
AcDbLine
 10
129.907813
 20
245.70081
 11
128.407813
 21
245.700811
  0
ARC
  5
36B
100
AcDbEntity
  8
M0
 62
     6
100
AcDbCircle
 10
129.907813
 20
246.20081
 40
0.5
100
AcDbArc
 50
270.0
 51
359.999964
  0
ARC
  5
36C
100
AcDbEntity
  8
M0
 62
     6
100
AcDbCircle
 10
128.407814
 20
246.700811
 40
1.0
100
AcDbArc
 50
179.999964
 51
270.0
  0
LINE
  5
36D
100
AcDbEntity
  8
M0
 62
     6
100
AcDbLine
 10
129.907824
 20
238.70081
 11
128.407824
 21
238.700811
  0
LINE
  5
36E
100
AcDbEntity
  8
M0
 62
     6
100
AcDbLine
 10
129.907823
 20
236.70081
 11
128.407823
 21
236.700811
  0
ARC
  5
36F
100
AcDbEntity
  8
M0
 62
     6
100
AcDbCircle
 10
129.907823
 20
237.20081
 40
0.5
100
AcDbArc
 50
270.0
 51
359.999964
  0
ARC
  5
370
100
AcDbEntity
  8
M0
 62
     6
100
AcDbCircle
 10
128.407823
 20
237.700811
 40
1.0
100
AcDbArc
 50
179.999964
 51
270.0
  0
ARC
  5
371
100
AcDbEntity
  8
M0
 62
     6
100
AcDbCircle
 10
129.907824
 20
239.20081
 40
0.5
100
AcDbArc
 50
270.0
 51
359.999964
  0
ARC
  5
372
100
AcDbEntity
  8
M0
 62
     6
100
AcDbCircle
 10
128.407824
 20
239.700811
 40
1.0
100
AcDbArc
 50
179.999964
 51
270.0
  0
LINE
  5
373
100
AcDbEntity
  8
M0
 62
     6
100
AcDbLine
 10
129.907827
 20
243.70081
 11
128.407827
 21
243.700811
  0
ARC
  5
374
100
AcDbEntity
  8
M0
 62
     6
100
AcDbCircle
 10
128.407828
 20
244.700811
 40
1.0
100
AcDbArc
 50
179.999964
 51
270.0
  0
ARC
  5
375
100
AcDbEntity
  8
M0
 62
     6
100
AcDbCircle
 10
129.907827
 20
244.20081
 40
0.5
100
AcDbArc
 50
270.0
 51
359.999964
  0
LINE
  5
376
100
AcDbEntity
  8
M0
 62
     6
100
AcDbLine
 10
119.407822
 20
235.700817
 11
119.407834
 21
254.480863
  0
LINE
  5
377
100
AcDbEntity
  8
M0
 62
     6
100
AcDbLine
 10
126.350085
 20
239.700813
 11
127.407794
 21
239.700812
  0
LINE
  5
378
100
AcDbEntity
  8
M0
 62
     6
100
AcDbLine
 10
127.407798
 20
246.700812
 11
126.658485
 21
246.700568
  0
LINE
  5
379
100
AcDbEntity
  8
M0
 62
     6
100
AcDbLine
 10
120.156868
 20
246.700572
 11
119.407798
 21
246.700817
  0
LINE
  5
37A
100
AcDbEntity
  8
M0
 62
     6
100
AcDbLine
 10
116.407796
 20
242.700819
 11
116.40782
 21
254.609618
  0
LINE
  5
37B
100
AcDbEntity
  8
M0
 62
     6
100
AcDbLine
 10
118.407826
 20
241.700818
 11
117.407826
 21
241.700818
  0
ARC
  5
37C
100
AcDbEntity
  8
M0
 62
     6
100
AcDbCircle
 10
118.407826
 20
242.700818
 40
1.0
100
AcDbArc
 50
270.0
 51
359.999964
  0
ARC
  5
37D
100
AcDbEntity
  8
M0
 62
     6
100
AcDbCircle
 10
117.407826
 20
242.700818
 40
1.0
100
AcDbArc
 50
179.999964
 51
270.0
  0
LINE
  5
37E
100
AcDbEntity
  8
M0
 62
     6
100
AcDbLine
 10
115.348884
 20
246.70082
 11
116.407829
 21
246.700819
  0
LINE
  5
37F
100
AcDbEntity
  8
M0
 62
     6
100
AcDbLine
 10
110.40784
 20
239.700823
 11
110.40784
 21
239.886614
  0
LINE
  5
380
100
AcDbEntity
  8
M0
 62
     6
100
AcDbLine
 10
109.407852
 20
235.700823
 11
109.407844
 21
246.882708
  0
LINE
  5
381
100
AcDbEntity
  8
M0
 62
     6
100
AcDbLine
 10
117.407822
 20
235.700818
 11
117.407826
 21
241.700818
  0
LINE
  5
382
100
AcDbEntity
  8
M0
 62
     6
100
AcDbLine
 10
119.407794
 20
239.700817
 11
120.465121
 21
239.700816
  0
LINE
  5
383
100
AcDbEntity
  8
M0
 62
     6
100
AcDbLine
 10
109.407841
 20
241.200823
 11
108.2542
 21
241.20058
  0
LINE
  5
384
100
AcDbEntity
  8
M0
 62
     6
100
AcDbLine
 10
109.407842
 20
243.200823
 11
108.254201
 21
243.20058
  0
LINE
  5
385
100
AcDbEntity
  8
M0
 62
     6
100
AcDbLine
 10
106.407837
 20
235.700825
 11
106.407839
 21
238.703022
  0
ARC
  5
386
100
AcDbEntity
  8
M0
 62
     6
100
AcDbCircle
 10
125.907833
 20
253.700813
 40
1.499996
100
AcDbArc
 50
359.999964
 51
371.546587
  0
LINE
  5
387
100
AcDbEntity
  8
M0
 62
     6
100
AcDbLine
 10
108.257845
 20
262.700824
 11
106.757844
 21
261.20084
  0
LINE
  5
388
100
AcDbEntity
  8
M0
 62
     6
100
AcDbLine
 10
108.257845
 20
262.700824
 11
106.757846
 21
264.200825
  0
LINE
  5
389
100
AcDbEntity
  8
M0
 62
     6
100
AcDbLine
 10
105.907884
 20
261.20081
 11
105.907886
 21
264.20081
  0
LINE
  5
38A
100
AcDbEntity
  8
M0
 62
     6
100
AcDbLine
 10
108.257852
 20
273.70081
 11
108.257842
 21
257.70081
  0
LINE
  5
38B
100
AcDbEntity
  8
M0
 62
     6
100
AcDbLine
 10
106.757829
 20
261.200581
 11
105.907868
 21
261.200825
  0
LINE
  5
38C
100
AcDbEntity
  8
M0
 62
     6
100
AcDbLine
 10
106.757846
 20
264.200581
 11
105.907886
 21
264.200825
  0
LINE
  5
38D
100
AcDbEntity
  8
M0
 62
     6
100
AcDbLine
 10
116.3501
 20
239.700819
 11
117.407794
 21
239.700818
  0
LINE
  5
38E
100
AcDbEntity
  8
M0
 62
     6
100
AcDbLine
 10
130.407849
 20
279.20081
 11
121.907849
 21
279.200815
  0
LINE
  5
38F
100
AcDbEntity
  8
M0
 62
     6
100
AcDbLine
 10
120.907848
 20
277.200718
 11
120.907849
 21
278.200816
  0
ARC
  5
390
100
AcDbEntity
  8
M0
 62
     6
100
AcDbCircle
 10
121.907849
 20
278.200815
 40
1.0
100
AcDbArc
 50
90.0
 51
179.999964
  0
LINE
  5
391
100
AcDbEntity
  8
M0
 62
     6
100
AcDbLine
 10
108.70783
 20
268.214562
 11
108.257849
 21
268.474353
  0
LINE
  5
392
100
AcDbEntity
  8
M0
 62
     6
100
AcDbLine
 10
109.407869
 20
237.700823
 11
106.407854
 21
237.700825
  0
ARC
  5
393
100
AcDbEntity
  8
M0
 62
     6
100
AcDbCircle
 10
108.407854
 20
238.700824
 40
1.0
100
AcDbArc
 50
179.999964
 51
270.0
  0
ARC
  5
394
100
AcDbEntity
  8
M0
 62
     6
100
AcDbCircle
 10
108.407854
 20
238.700824
 40
1.0
100
AcDbArc
 50
270.0
 51
359.999964
  0
LINE
  5
395
100
AcDbEntity
  8
M0
 62
     6
100
AcDbLine
 10
122.035655
 20
268.155229
 11
124.285412
 21
265.474073
  0
LINE
  5
396
100
AcDbEntity
  8
M0
 62
     6
100
AcDbLine
 10
124.285412
 20
265.474073
 11
124.898248
 21
265.988303
  0
LINE
  5
397
100
AcDbEntity
  8
M0
 62
     6
100
AcDbLine
 10
124.898248
 20
265.988303
 11
122.648491
 21
268.669459
  0
LINE
  5
398
100
AcDbEntity
  8
M0
 62
     6
100
AcDbLine
 10
122.648491
 20
268.669459
 11
122.035655
 21
268.155229
  0
CIRCLE
  5
399
100
AcDbEntity
  8
M0
 62
     6
100
AcDbCircle
 10
118.257849
 20
262.70081
 40
3.75
  0
LINE
  5
39A
100
AcDbEntity
  8
M0
 62
     6
100
AcDbLine
 10
118.85785
 20
265.20081
 11
118.85785
 21
260.20081
  0
LINE
  5
39B
100
AcDbEntity
  8
M0
 62
     6
100
AcDbLine
 10
117.65785
 20
265.20081
 11
117.65785
 21
260.20081
  0
LINE
  5
39C
100
AcDbEntity
  8
M0
 62
     6
100
AcDbLine
 10
118.85785
 20
260.20081
 11
117.65785
 21
260.20081
  0
LINE
  5
39D
100
AcDbEntity
  8
M0
 62
     6
100
AcDbLine
 10
118.85785
 20
265.20081
 11
117.65785
 21
265.20081
  0
TEXT
  5
39E
100
AcDbEntity
  8
M0
 62
     6
100
AcDbText
 10
129.757854
 20
256.017632
 40
2.0
  1
ＡＵＴＯ
 50
90.000556
 41
0.583333
  7
STANDARD
100
AcDbText
  0
CIRCLE
  5
39F
100
AcDbEntity
  8
M0
 62
     6
100
AcDbCircle
 10
128.707849
 20
262.70081
 40
0.75
  0
CIRCLE
  5
3A0
100
AcDbEntity
  8
M0
 62
     6
100
AcDbCircle
 10
118.257849
 20
262.70081
 40
8.3
  0
TEXT
  5
3A1
100
AcDbEntity
  8
M0
 62
     6
100
AcDbText
 10
129.756808
 20
270.026164
 40
2.0
  1
ＴＲＩＰ
 50
90.000563
 41
0.625
  7
STANDARD
100
AcDbText
  0
LINE
  5
3A2
100
AcDbEntity
  8
M0
 62
     6
100
AcDbLine
 10
125.058937
 20
270.400648
 11
123.231494
 21
269.345572
  0
LINE
  5
3A3
100
AcDbEntity
  8
M0
 62
     6
100
AcDbLine
 10
125.058937
 20
270.400648
 11
123.058908
 21
271.55536
  0
LINE
  5
3A4
100
AcDbEntity
  8
M0
 62
     6
100
AcDbLine
 10
123.058907
 20
270.650636
 11
123.058908
 21
271.55536
  0
LINE
  5
3A5
100
AcDbEntity
  8
M0
 62
     6
100
AcDbLine
 10
123.058905
 20
269.471324
 11
123.058906
 21
270.150636
  0
LINE
  5
3A6
100
AcDbEntity
  8
M0
 62
     6
100
AcDbLine
 10
123.058906
 20
270.150636
 11
121.917094
 21
270.150637
  0
LINE
  5
3A7
100
AcDbEntity
  8
M0
 62
     6
100
AcDbLine
 10
123.058907
 20
270.650636
 11
121.558907
 21
270.650638
  0
LINE
  5
3A8
100
AcDbEntity
  8
M0
 62
     6
100
AcDbLine
 10
126.557849
 20
276.20081
 11
126.557849
 21
271.70081
  0
LINE
  5
3A9
100
AcDbEntity
  8
M0
 62
     6
100
AcDbLine
 10
115.257849
 20
271.70081
 11
126.557849
 21
271.70081
  0
LINE
  5
3AA
100
AcDbEntity
  8
M0
 62
     6
100
AcDbLine
 10
119.307864
 20
272.75081
 11
122.707863
 21
272.75081
  0
LINE
  5
3AB
100
AcDbEntity
  8
M0
 62
     6
100
AcDbLine
 10
119.307864
 20
275.05081
 11
122.707863
 21
275.05081
  0
LINE
  5
3AC
100
AcDbEntity
  8
M0
 62
     6
100
AcDbLine
 10
122.707863
 20
275.05081
 11
122.707863
 21
272.75081
  0
LINE
  5
3AD
100
AcDbEntity
  8
M0
 62
     6
100
AcDbLine
 10
119.307864
 20
275.05081
 11
119.307864
 21
272.75081
  0
LINE
  5
3AE
100
AcDbEntity
  8
M0
  6
DOT
 62
     6
100
AcDbLine
 10
117.699471
 20
273.90081
 11
117.699471
 21
271.70081
  0
LINE
  5
3AF
100
AcDbEntity
  8
M0
  6
DOT
 62
     6
100
AcDbLine
 10
115.257849
 20
273.90081
 11
117.699471
 21
273.90081
  0
LINE
  5
3B0
100
AcDbEntity
  8
M0
 62
     6
100
AcDbLine
 10
115.257849
 20
273.90081
 11
115.257849
 21
271.70081
  0
LINE
  5
3B1
100
AcDbEntity
  8
M0
 62
     6
100
AcDbLine
 10
115.257849
 20
273.90081
 11
112.057849
 21
273.90081
  0
LINE
  5
3B2
100
AcDbEntity
  8
M0
 62
     6
100
AcDbLine
 10
112.057849
 20
276.20081
 11
112.057849
 21
273.90081
  0
LINE
  5
3B3
100
AcDbEntity
  8
M0
 62
     6
100
AcDbLine
 10
110.947753
 20
266.921296
 11
108.257849
 21
268.474313
  0
LINE
  5
3B4
100
AcDbEntity
  8
M0
 62
     6
100
AcDbLine
 10
109.557849
 20
273.70081
 11
104.404354
 21
273.70081
  0
ARC
  5
3B5
100
AcDbEntity
  8
M0
 62
     6
100
AcDbCircle
 10
109.557849
 20
274.20081
 40
0.5
100
AcDbArc
 50
270.0
 51
360.0
  0
LINE
  5
3B6
100
AcDbEntity
  8
M0
 62
     6
100
AcDbLine
 10
110.057849
 20
276.20081
 11
110.057849
 21
274.20081
  0
LINE
  5
3B7
100
AcDbEntity
  8
M0
 62
     6
100
AcDbLine
 10
130.407849
 20
255.20081
 11
121.813127
 21
255.20081
  0
LINE
  5
3B8
100
AcDbEntity
  8
M0
 62
     6
100
AcDbLine
 10
122.587976
 20
255.20081
 11
122.587976
 21
255.61985
  0
LINE
  5
3B9
100
AcDbEntity
  8
M0
 62
     6
100
AcDbLine
 10
113.927722
 20
255.20081
 11
113.927722
 21
255.61985
  0
LINE
  5
3BA
100
AcDbEntity
  8
M0
 62
     6
100
AcDbLine
 10
114.702571
 20
255.20081
 11
105.407849
 21
255.20081
  0
LINE
  5
3BB
100
AcDbEntity
  8
M0
 62
     6
100
AcDbLine
 10
110.057849
 20
255.20081
 11
110.057849
 21
257.20081
  0
ARC
  5
3BC
100
AcDbEntity
  8
M0
 62
     6
100
AcDbCircle
 10
109.557849
 20
257.20081
 40
0.5
100
AcDbArc
 50
0.0
 51
90.0
  0
LINE
  5
3BD
100
AcDbEntity
  8
M0
 62
     6
100
AcDbLine
 10
105.407849
 20
257.70081
 11
109.557849
 21
257.70081
  0
LINE
  5
3BE
100
AcDbEntity
  8
M0
  6
DASHDOT
 62
     6
100
AcDbLine
 10
106.954846
 20
262.70081
 11
129.560852
 21
262.70081
  0
LINE
  5
3BF
100
AcDbEntity
  8
M0
  6
DASHDOT
 62
     6
100
AcDbLine
 10
118.257849
 20
251.397807
 11
118.257849
 21
274.003813
  0
ARC
  5
3C0
100
AcDbEntity
  8
M0
 62
     6
100
AcDbCircle
 10
113.407849
 20
243.70081
 40
2.999997
100
AcDbArc
 50
115.844051
 51
424.156194
  0
LINE
  5
3C1
100
AcDbEntity
  8
M0
 62
     6
100
AcDbLine
 10
110.064328
 20
246.400761
 11
109.632703
 21
245.000859
  0
LINE
  5
3C2
100
AcDbEntity
  8
M0
 62
     6
100
AcDbLine
 10
110.448865
 20
239.75356
 11
109.632703
 21
242.400883
  0
LINE
  5
3C3
100
AcDbEntity
  8
M0
 62
     6
100
AcDbLine
 10
116.366345
 20
239.753544
 11
116.994519
 21
241.79041
  0
LINE
  5
3C4
100
AcDbEntity
  8
M0
 62
     6
100
AcDbLine
 10
110.926892
 20
239.400883
 11
115.888562
 21
239.400883
  0
LINE
  5
3C5
100
AcDbEntity
  8
M0
 62
     6
100
AcDbLine
 10
109.632703
 20
245.000859
 11
109.632703
 21
242.400883
  0
LINE
  5
3C6
100
AcDbEntity
  8
M0
 62
     6
100
AcDbLine
 10
114.998425
 20
242.10999
 11
111.816785
 21
245.291752
  0
LINE
  5
3C7
100
AcDbEntity
  8
M0
 62
     6
100
AcDbLine
 10
113.761121
 20
245.114995
 11
111.993543
 21
243.347294
  0
LINE
  5
3C8
100
AcDbEntity
  8
M0
 62
     6
100
AcDbLine
 10
114.821668
 20
244.054326
 11
113.054089
 21
242.286748
  0
ARC
  5
3C9
100
AcDbEntity
  8
M0
 62
     6
100
AcDbCircle
 10
110.926892
 20
239.900883
 40
0.5
100
AcDbArc
 50
197.128737
 51
270.0
  0
ARC
  5
3CA
100
AcDbEntity
  8
M0
 62
     6
100
AcDbCircle
 10
115.888562
 20
239.900883
 40
0.5
100
AcDbArc
 50
270.0
 51
342.861308
  0
LINE
  5
3CB
100
AcDbEntity
  8
M0
  6
DASHDOT
 62
     6
100
AcDbLine
 10
112.907849
 20
243.70081
 11
113.907849
 21
243.70081
  0
LINE
  5
3CC
100
AcDbEntity
  8
M0
  6
DASHDOT
 62
     6
100
AcDbLine
 10
113.407849
 20
243.20081
 11
113.407849
 21
244.20081
  0
LINE
  5
3CD
100
AcDbEntity
  8
M0
 62
     6
100
AcDbLine
 10
93.170451
 20
277.20045
 11
88.404371
 21
277.200403
  0
LINE
  5
3CE
100
AcDbEntity
  8
M0
 62
     6
100
AcDbLine
 10
93.805624
 20
278.703302
 11
81.787253
 21
278.703344
  0
LINE
  5
3CF
100
AcDbEntity
  8
M0
 62
     6
100
AcDbLine
 10
93.159238
 20
276.203304
 11
88.404368
 21
276.203321
  0
LINE
  5
3D0
100
AcDbEntity
  8
M0
 62
     6
100
AcDbLine
 10
73.754379
 20
276.203372
 11
68.404368
 21
276.203391
  0
LINE
  5
3D1
100
AcDbEntity
  8
M0
 62
     6
100
AcDbLine
 10
73.754434
 20
277.203372
 11
68.404371
 21
277.203391
  0
LINE
  5
3D2
100
AcDbEntity
  8
M0
 62
     6
100
AcDbLine
 10
74.138774
 20
278.703371
 11
62.332802
 21
278.703412
  0
LINE
  5
3D3
100
AcDbEntity
  8
M0
 62
     6
100
AcDbLine
 10
54.365001
 20
277.203439
 11
48.270397
 21
277.203461
  0
LINE
  5
3D4
100
AcDbEntity
  8
M0
 62
     6
100
AcDbLine
 10
54.295074
 20
276.20344
 11
48.404368
 21
276.20346
  0
LINE
  5
3D5
100
AcDbEntity
  8
M0
100
AcDbLine
 10
121.654379
 20
359.253365
 11
121.554377
 21
359.253365
  0
LINE
  5
3D6
100
AcDbEntity
  8
M0
100
AcDbLine
 10
74.454379
 20
374.003367
 11
74.454379
 21
376.203367
  0
LINE
  5
3D7
100
AcDbEntity
  8
M0
100
AcDbLine
 10
50.154379
 20
356.703367
 11
49.254379
 21
356.703367
  0
LINE
  5
3D8
100
AcDbEntity
  8
M0
100
AcDbLine
 10
119.654378
 20
356.703367
 11
120.554379
 21
356.703367
  0
LINE
  5
3D9
100
AcDbEntity
  8
M0
100
AcDbLine
 10
100.504377
 20
368.403365
 11
106.954379
 21
368.403365
  0
LINE
  5
3DA
100
AcDbEntity
  8
M0
100
AcDbLine
 10
112.754379
 20
356.703367
 11
113.654379
 21
356.703367
  0
LINE
  5
3DB
100
AcDbEntity
  8
M0
100
AcDbLine
 10
98.754378
 20
292.403364
 11
98.754378
 21
290.403367
  0
LINE
  5
3DC
100
AcDbEntity
  8
M0
100
AcDbLine
 10
64.454379
 20
368.403365
 11
64.454379
 21
377.403366
  0
LINE
  5
3DD
100
AcDbEntity
  8
M0
100
AcDbLine
 10
48.154379
 20
359.253365
 11
48.25438
 21
359.253365
  0
LINE
  5
3DE
100
AcDbEntity
  8
M0
100
AcDbLine
 10
120.854379
 20
289.403365
 11
106.619457
 21
289.403365
  0
LINE
  5
3DF
100
AcDbEntity
  8
M0
100
AcDbLine
 10
95.354379
 20
376.203367
 11
95.354379
 21
374.003367
  0
LINE
  5
3E0
100
AcDbEntity
  8
M0
100
AcDbLine
 10
61.304378
 20
290.403367
 11
61.304378
 21
295.403366
  0
LINE
  5
3E1
100
AcDbEntity
  8
M0
100
AcDbLine
 10
73.804379
 20
290.403367
 11
73.804379
 21
295.403366
  0
LINE
  5
3E2
100
AcDbEntity
  8
M0
100
AcDbLine
 10
96.004378
 20
290.403367
 11
96.004378
 21
295.403366
  0
LINE
  5
3E3
100
AcDbEntity
  8
M0
100
AcDbLine
 10
48.154379
 20
304.553367
 11
48.25438
 21
304.553367
  0
LINE
  5
3E4
100
AcDbEntity
  8
M0
100
AcDbLine
 10
74.954379
 20
376.703364
 11
94.854379
 21
376.703364
  0
LINE
  5
3E5
100
AcDbEntity
  8
M0
100
AcDbLine
 10
108.50438
 20
295.403366
 11
108.50438
 21
290.403367
  0
LINE
  5
3E6
100
AcDbEntity
  8
M0
100
AcDbLine
 10
46.45438
 20
358.253366
 11
46.45438
 21
292.403366
  0
LINE
  5
3E7
100
AcDbEntity
  8
M0
100
AcDbLine
 10
47.454378
 20
304.553367
 11
48.25438
 21
304.553367
  0
LINE
  5
3E8
100
AcDbEntity
  8
M0
100
AcDbLine
 10
62.454379
 20
368.403365
 11
62.454379
 21
377.403365
  0
CIRCLE
  5
3E9
100
AcDbEntity
  8
M0
100
AcDbCircle
 10
84.904379
 20
372.203366
 40
3.1
  0
ARC
  5
3EA
100
AcDbEntity
  8
M0
100
AcDbCircle
 10
74.954379
 20
376.203366
 40
0.5
100
AcDbArc
 50
90.0
 51
180.0
  0
LINE
  5
3EB
100
AcDbEntity
  8
M0
100
AcDbLine
 10
91.854378
 20
294.403364
 11
91.854378
 21
307.003365
  0
LINE
  5
3EC
100
AcDbEntity
  8
M0
100
AcDbLine
 10
91.854378
 20
290.403367
 11
91.854378
 21
294.403364
  0
ARC
  5
3ED
100
AcDbEntity
  8
M0
100
AcDbCircle
 10
47.454379
 20
305.553366
 40
1.0
100
AcDbArc
 50
180.0
 51
270.0
  0
LINE
  5
3EE
100
AcDbEntity
  8
M0
100
AcDbLine
 10
92.854379
 20
307.503366
 11
94.554379
 21
307.503366
  0
ARC
  5
3EF
100
AcDbEntity
  8
M0
100
AcDbCircle
 10
67.554379
 20
292.403366
 40
3.5
100
AcDbArc
 50
0.0
 51
41.78523
  0
ARC
  5
3F0
100
AcDbEntity
  8
M0
100
AcDbCircle
 10
107.504379
 20
290.403366
 40
1.0
100
AcDbArc
 50
270.0
 51
360.0
  0
ARC
  5
3F1
100
AcDbEntity
  8
M0
100
AcDbCircle
 10
97.004379
 20
290.403366
 40
1.0
100
AcDbArc
 50
180.0
 51
270.0
  0
ARC
  5
3F2
100
AcDbEntity
  8
M0
100
AcDbCircle
 10
94.854379
 20
376.203366
 40
0.5
100
AcDbArc
 50
0.0
 51
90.0
  0
LINE
  5
3F3
100
AcDbEntity
  8
M0
100
AcDbLine
 10
72.804379
 20
289.403365
 11
69.603144
 21
289.403365
  0
LINE
  5
3F4
100
AcDbEntity
  8
M0
100
AcDbLine
 10
71.054379
 20
292.403364
 11
71.054379
 21
290.403367
  0
LINE
  5
3F5
100
AcDbEntity
  8
M0
100
AcDbLine
 10
75.754375
 20
289.403365
 11
76.954378
 21
289.403365
  0
LINE
  5
3F6
100
AcDbEntity
  8
M0
100
AcDbLine
 10
75.254378
 20
289.403365
 11
75.754375
 21
289.403365
  0
LINE
  5
3F7
100
AcDbEntity
  8
M0
100
AcDbLine
 10
45.954379
 20
360.703365
 11
45.954379
 21
370.403366
  0
LINE
  5
3F8
100
AcDbEntity
  8
M0
100
AcDbLine
 10
116.355868
 20
299.153367
 11
114.904378
 21
299.153367
  0
LINE
  5
3F9
100
AcDbEntity
  8
M0
100
AcDbLine
 10
56.504378
 20
294.403364
 11
57.404378
 21
294.403364
  0
LINE
  5
3FA
100
AcDbEntity
  8
M0
100
AcDbLine
 10
56.504378
 20
300.403365
 11
56.504378
 21
294.403364
  0
LINE
  5
3FB
100
AcDbEntity
  8
M0
100
AcDbLine
 10
48.954377
 20
373.403364
 11
56.454379
 21
373.403364
  0
LINE
  5
3FC
100
AcDbEntity
  8
M0
100
AcDbLine
 10
123.354378
 20
370.403366
 11
123.354378
 21
305.553366
  0
LINE
  5
3FD
100
AcDbEntity
  8
M0
100
AcDbLine
 10
57.654379
 20
300.403365
 11
56.504378
 21
300.403365
  0
LINE
  5
3FE
100
AcDbEntity
  8
M0
100
AcDbLine
 10
60.354378
 20
369.903365
 11
62.454379
 21
369.903365
  0
LINE
  5
3FF
100
AcDbEntity
  8
M0
100
AcDbLine
 10
107.354379
 20
369.903365
 11
109.454379
 21
369.903365
  0
LINE
  5
400
100
AcDbEntity
  8
M0
100
AcDbLine
 10
105.354378
 20
372.903367
 11
104.854379
 21
372.903367
  0
LINE
  5
401
100
AcDbEntity
  8
M0
100
AcDbLine
 10
64.454379
 20
372.903367
 11
64.954378
 21
372.903367
  0
LINE
  5
402
100
AcDbEntity
  8
M0
100
AcDbLine
 10
56.504378
 20
292.903365
 11
56.504378
 21
293.403366
  0
LINE
  5
403
100
AcDbEntity
  8
M0
100
AcDbLine
 10
57.404378
 20
293.403366
 11
56.504378
 21
293.403366
  0
LINE
  5
404
100
AcDbEntity
  8
M0
100
AcDbLine
 10
64.454379
 20
375.203365
 11
64.954378
 21
375.203365
  0
LINE
  5
405
100
AcDbEntity
  8
M0
100
AcDbLine
 10
105.354378
 20
374.003367
 11
104.854379
 21
374.003367
  0
LINE
  5
406
100
AcDbEntity
  8
M0
100
AcDbLine
 10
64.954378
 20
374.003367
 11
64.454379
 21
374.003367
  0
LINE
  5
407
100
AcDbEntity
  8
M0
100
AcDbLine
 10
123.354378
 20
308.103365
 11
123.854379
 21
303.103366
  0
LINE
  5
408
100
AcDbEntity
  8
M0
100
AcDbLine
 10
113.354378
 20
373.403364
 11
120.354379
 21
373.403364
  0
LINE
  5
409
100
AcDbEntity
  8
M0
100
AcDbLine
 10
57.404378
 20
292.403364
 11
57.004379
 21
292.403364
  0
LINE
  5
40A
100
AcDbEntity
  8
M0
100
AcDbLine
 10
54.904379
 20
369.153367
 11
52.40438
 21
369.153367
  0
LINE
  5
40B
100
AcDbEntity
  8
M0
100
AcDbLine
 10
49.854869
 20
366.653365
 11
49.404377
 21
366.653365
  0
LINE
  5
40C
100
AcDbEntity
  8
M0
100
AcDbLine
 10
49.404377
 20
362.153366
 11
50.998642
 21
362.155342
  0
LINE
  5
40D
100
AcDbEntity
  8
M0
100
AcDbLine
 10
53.453887
 20
364.653365
 11
54.904379
 21
364.653365
  0
ARC
  5
40E
100
AcDbEntity
  8
M0
100
AcDbCircle
 10
63.454379
 20
377.403366
 40
1.0
100
AcDbArc
 50
0.0
 51
90.0
  0
ARC
  5
40F
100
AcDbEntity
  8
M0
100
AcDbCircle
 10
72.054379
 20
290.403366
 40
1.0
100
AcDbArc
 50
180.0
 51
270.0
  0
ARC
  5
410
100
AcDbEntity
  8
M0
100
AcDbCircle
 10
72.804379
 20
290.403366
 40
1.0
100
AcDbArc
 50
270.0
 51
360.0
  0
ARC
  5
411
100
AcDbEntity
  8
M0
100
AcDbCircle
 10
106.754379
 20
290.403366
 40
1.0
100
AcDbArc
 50
262.312742
 51
270.0
  0
ARC
  5
412
100
AcDbEntity
  8
M0
100
AcDbCircle
 10
62.304379
 20
290.403366
 40
1.0
100
AcDbArc
 50
180.0
 51
270.0
  0
ARC
  5
413
100
AcDbEntity
  8
M0
100
AcDbCircle
 10
63.454379
 20
377.403366
 40
1.0
100
AcDbArc
 50
90.0
 51
180.0
  0
LINE
  5
414
100
AcDbEntity
  8
M0
100
AcDbLine
 10
56.154378
 20
307.103365
 11
57.054378
 21
307.103365
  0
ARC
  5
415
100
AcDbEntity
  8
M0
100
AcDbCircle
 10
97.754379
 20
290.403366
 40
1.0
100
AcDbArc
 50
270.0
 51
360.0
  0
LINE
  5
416
100
AcDbEntity
  8
M0
100
AcDbLine
 10
57.054378
 20
356.703367
 11
56.154378
 21
356.703367
  0
LINE
  5
417
100
AcDbEntity
  8
M0
100
AcDbLine
 10
56.504378
 20
291.403366
 11
56.504378
 21
292.903365
  0
LINE
  5
418
100
AcDbEntity
  8
M0
100
AcDbLine
 10
57.404378
 20
290.903365
 11
57.004379
 21
290.903365
  0
LINE
  5
419
100
AcDbEntity
  8
M0
100
AcDbLine
 10
46.45438
 20
355.703366
 11
45.954379
 21
360.703365
  0
LINE
  5
41A
100
AcDbEntity
  8
M0
100
AcDbLine
 10
121.654379
 20
304.553367
 11
121.554377
 21
304.553367
  0
LINE
  5
41B
100
AcDbEntity
  8
M0
100
AcDbLine
 10
113.654379
 20
307.103365
 11
112.754379
 21
307.103365
  0
LINE
  5
41C
100
AcDbEntity
  8
M0
100
AcDbLine
 10
120.554379
 20
307.103365
 11
119.654378
 21
307.103365
  0
ARC
  5
41D
100
AcDbEntity
  8
M0
100
AcDbCircle
 10
120.354379
 20
370.403366
 40
3.0
100
AcDbArc
 50
0.0
 51
90.0
  0
ARC
  5
41E
100
AcDbEntity
  8
M0
100
AcDbCircle
 10
48.954379
 20
370.403366
 40
3.0
100
AcDbArc
 50
90.0
 51
180.0
  0
LINE
  5
41F
100
AcDbEntity
  8
M0
100
AcDbLine
 10
58.354378
 20
333.303366
 11
56.654379
 21
333.303366
  0
ARC
  5
420
100
AcDbEntity
  8
M0
100
AcDbCircle
 10
66.654379
 20
377.403366
 40
0.5
100
AcDbArc
 50
270.0
 51
360.0
  0
ARC
  5
421
100
AcDbEntity
  8
M0
100
AcDbCircle
 10
103.154379
 20
377.903366
 40
0.5
100
AcDbArc
 50
90.0
 51
180.0
  0
ARC
  5
422
100
AcDbEntity
  8
M0
100
AcDbCircle
 10
57.004379
 20
291.403366
 40
0.5
100
AcDbArc
 50
180.0
 51
270.0
  0
ARC
  5
423
100
AcDbEntity
  8
M0
100
AcDbCircle
 10
103.154379
 20
377.403366
 40
0.5
100
AcDbArc
 50
180.0
 51
270.0
  0
LINE
  5
424
100
AcDbEntity
  8
M0
100
AcDbLine
 10
57.654379
 20
330.503366
 11
57.654379
 21
330.403366
  0
LINE
  5
425
100
AcDbEntity
  8
M0
100
AcDbLine
 10
60.354378
 20
309.003366
 11
59.354378
 21
309.003366
  0
LINE
  5
426
100
AcDbEntity
  8
M0
100
AcDbLine
 10
56.654379
 20
330.503366
 11
58.354378
 21
330.503366
  0
ARC
  5
427
100
AcDbEntity
  8
M0
100
AcDbCircle
 10
50.904379
 20
364.403366
 40
2.25
100
AcDbArc
 50
272.401074
 51
358.876481
  0
ARC
  5
428
100
AcDbEntity
  8
M0
100
AcDbCircle
 10
95.054379
 20
307.003366
 40
0.5
100
AcDbArc
 50
0.0
 51
90.0
  0
ARC
  5
429
100
AcDbEntity
  8
M0
100
AcDbCircle
 10
114.904379
 20
296.903366
 40
2.25
100
AcDbArc
 50
90.0
 51
270.0
  0
ARC
  5
42A
100
AcDbEntity
  8
M0
100
AcDbCircle
 10
77.454379
 20
307.003366
 40
0.5
100
AcDbArc
 50
0.0
 51
90.0
  0
ARC
  5
42B
100
AcDbEntity
  8
M0
100
AcDbCircle
 10
74.754379
 20
307.003366
 40
0.5
100
AcDbArc
 50
90.0
 51
180.0
  0
ARC
  5
42C
100
AcDbEntity
  8
M0
100
AcDbCircle
 10
49.404379
 20
364.403366
 40
2.25
100
AcDbArc
 50
90.0
 51
270.0
  0
ARC
  5
42D
100
AcDbEntity
  8
M0
100
AcDbCircle
 10
92.854379
 20
290.403366
 40
1.0
100
AcDbArc
 50
180.0
 51
270.0
  0
ARC
  5
42E
100
AcDbEntity
  8
M0
100
AcDbCircle
 10
117.404379
 20
296.903366
 40
2.25
100
AcDbArc
 50
270.0
 51
355.815286
  0
ARC
  5
42F
100
AcDbEntity
  8
M0
100
AcDbCircle
 10
49.854869
 20
366.953366
 40
0.3
100
AcDbArc
 50
270.0
 51
358.876481
  0
ARC
  5
430
100
AcDbEntity
  8
M0
100
AcDbCircle
 10
54.904379
 20
366.903366
 40
2.25
100
AcDbArc
 50
270.0
 51
450.0
  0
ARC
  5
431
100
AcDbEntity
  8
M0
100
AcDbCircle
 10
52.404379
 20
366.903366
 40
2.25
100
AcDbArc
 50
90.0
 51
178.876481
  0
ARC
  5
432
100
AcDbEntity
  8
M0
100
AcDbCircle
 10
66.654379
 20
377.903366
 40
0.5
100
AcDbArc
 50
0.0
 51
90.0
  0
ARC
  5
433
100
AcDbEntity
  8
M0
100
AcDbCircle
 10
53.453888
 20
364.353366
 40
0.3
100
AcDbArc
 50
90.0
 51
178.876481
  0
LINE
  5
434
100
AcDbEntity
  8
M0
100
AcDbLine
 10
55.654379
 20
337.103366
 11
55.654379
 21
326.703366
  0
LINE
  5
435
100
AcDbEntity
  8
M0
100
AcDbLine
 10
114.154378
 20
337.103366
 11
114.154378
 21
326.703366
  0
LINE
  5
436
100
AcDbEntity
  8
M0
100
AcDbLine
 10
60.354378
 20
294.403364
 11
60.354378
 21
309.003366
  0
LINE
  5
437
100
AcDbEntity
  8
M0
100
AcDbLine
 10
56.654379
 20
325.703366
 11
57.654379
 21
325.703366
  0
LINE
  5
438
100
AcDbEntity
  8
M0
100
AcDbLine
 10
57.654379
 20
333.303366
 11
57.654379
 21
333.403366
  0
LINE
  5
439
100
AcDbEntity
  8
M0
100
AcDbLine
 10
92.354379
 20
307.503366
 11
92.854379
 21
307.503366
  0
LINE
  5
43A
100
AcDbEntity
  8
M0
100
AcDbLine
 10
113.154378
 20
325.703366
 11
112.154378
 21
325.703366
  0
LINE
  5
43B
100
AcDbEntity
  8
M0
100
AcDbLine
 10
113.154378
 20
336.603366
 11
113.154378
 21
327.203366
  0
LINE
  5
43C
100
AcDbEntity
  8
M0
100
AcDbLine
 10
56.654379
 20
336.603366
 11
56.654379
 21
327.203366
  0
LINE
  5
43D
100
AcDbEntity
  8
M0
100
AcDbLine
 10
109.454379
 20
309.003366
 11
110.454379
 21
309.003366
  0
LINE
  5
43E
100
AcDbEntity
  8
M0
100
AcDbLine
 10
94.554379
 20
307.503366
 11
95.054379
 21
307.503366
  0
LINE
  5
43F
100
AcDbEntity
  8
M0
100
AcDbLine
 10
95.554378
 20
307.003365
 11
95.554378
 21
294.403364
  0
LINE
  5
440
100
AcDbEntity
  8
M0
100
AcDbLine
 10
109.454379
 20
294.403364
 11
109.454379
 21
309.003366
  0
ARC
  5
441
100
AcDbEntity
  8
M0
100
AcDbCircle
 10
56.654379
 20
326.703366
 40
1.0
100
AcDbArc
 50
180.0
 51
270.0
  0
ARC
  5
442
100
AcDbEntity
  8
M0
100
AcDbCircle
 10
74.754379
 20
356.803366
 40
0.5
100
AcDbArc
 50
180.0
 51
270.0
  0
ARC
  5
443
100
AcDbEntity
  8
M0
100
AcDbCircle
 10
92.354379
 20
307.003366
 40
0.5
100
AcDbArc
 50
90.0
 51
180.0
  0
ARC
  5
444
100
AcDbEntity
  8
M0
100
AcDbCircle
 10
102.254379
 20
292.403366
 40
3.5
100
AcDbArc
 50
138.21477
 51
180.0
  0
LINE
  5
445
100
AcDbEntity
  8
M0
100
AcDbLine
 10
49.254379
 20
307.103365
 11
50.154379
 21
307.103365
  0
ARC
  5
446
100
AcDbEntity
  8
M0
100
AcDbCircle
 10
56.654379
 20
337.103366
 40
1.0
100
AcDbArc
 50
90.0
 51
180.0
  0
ARC
  5
447
100
AcDbEntity
  8
M0
100
AcDbCircle
 10
92.354379
 20
356.803366
 40
0.5
100
AcDbArc
 50
180.0
 51
270.0
  0
LINE
  5
448
100
AcDbEntity
  8
M0
100
AcDbLine
 10
76.954378
 20
307.503366
 11
75.254378
 21
307.503366
  0
LINE
  5
449
100
AcDbEntity
  8
M0
100
AcDbLine
 10
75.254378
 20
307.503366
 11
74.754378
 21
307.503366
  0
ARC
  5
44A
100
AcDbEntity
  8
M0
100
AcDbCircle
 10
95.054379
 20
356.803366
 40
0.5
100
AcDbArc
 50
270.0
 51
360.0
  0
ARC
  5
44B
100
AcDbEntity
  8
M0
100
AcDbCircle
 10
77.454379
 20
356.803366
 40
0.5
100
AcDbArc
 50
270.0
 51
360.0
  0
LINE
  5
44C
100
AcDbEntity
  8
M0
100
AcDbLine
 10
77.454379
 20
307.503366
 11
76.954378
 21
307.503366
  0
ARC
  5
44D
100
AcDbEntity
  8
M0
100
AcDbCircle
 10
113.154379
 20
326.703366
 40
1.0
100
AcDbArc
 50
270.0
 51
360.0
  0
LINE
  5
44E
100
AcDbEntity
  8
M0
100
AcDbLine
 10
112.154378
 20
338.103366
 11
113.154378
 21
338.103366
  0
LINE
  5
44F
100
AcDbEntity
  8
M0
100
AcDbLine
 10
57.654379
 20
338.103366
 11
56.654379
 21
338.103366
  0
LINE
  5
450
100
AcDbEntity
  8
M0
100
AcDbLine
 10
95.054379
 20
356.303365
 11
92.354379
 21
356.303365
  0
ARC
  5
451
100
AcDbEntity
  8
M0
100
AcDbCircle
 10
113.154379
 20
337.103366
 40
1.0
100
AcDbArc
 50
0.0
 51
90.0
  0
CIRCLE
  5
452
100
AcDbEntity
  8
M0
100
AcDbCircle
 10
49.904379
 20
293.903366
 40
2.25
  0
ARC
  5
453
100
AcDbEntity
  8
M0
100
AcDbCircle
 10
76.954379
 20
290.403366
 40
1.0
100
AcDbArc
 50
270.0
 51
360.0
  0
LINE
  5
454
100
AcDbEntity
  8
M0
100
AcDbLine
 10
114.904378
 20
294.653365
 11
117.404377
 21
294.653365
  0
ARC
  5
455
100
AcDbEntity
  8
M0
100
AcDbCircle
 10
111.154379
 20
290.403366
 40
1.0
100
AcDbArc
 50
270.0
 51
360.0
  0
LINE
  5
456
100
AcDbEntity
  8
M0
100
AcDbLine
 10
74.254379
 20
368.403365
 11
60.354378
 21
368.403365
  0
CIRCLE
  5
457
100
AcDbEntity
  8
M0
100
AcDbCircle
 10
119.904379
 20
368.903366
 40
2.25
  0
ARC
  5
458
100
AcDbEntity
  8
M0
100
AcDbCircle
 10
82.654379
 20
336.172319
 40
0.5
100
AcDbArc
 50
0.0
 51
90.0
  0
LINE
  5
459
100
AcDbEntity
  8
M0
100
AcDbLine
 10
82.654379
 20
336.672319
 11
80.104379
 21
336.672319
  0
LINE
  5
45A
100
AcDbEntity
  8
M0
100
AcDbLine
 10
89.704378
 20
336.672319
 11
87.154379
 21
336.672319
  0
LINE
  5
45B
100
AcDbEntity
  8
M0
100
AcDbLine
 10
111.154378
 20
339.103366
 11
111.154378
 21
336.403366
  0
LINE
  5
45C
100
AcDbEntity
  8
M0
100
AcDbLine
 10
58.654379
 20
336.403366
 11
57.654379
 21
336.403366
  0
LINE
  5
45D
100
AcDbEntity
  8
M0
100
AcDbLine
 10
111.154378
 20
327.403366
 11
111.154378
 21
324.703366
  0
LINE
  5
45E
100
AcDbEntity
  8
M0
100
AcDbLine
 10
112.154378
 20
327.403366
 11
111.154378
 21
327.403366
  0
LINE
  5
45F
100
AcDbEntity
  8
M0
100
AcDbLine
 10
57.654379
 20
330.403366
 11
57.654379
 21
327.203366
  0
LINE
  5
460
100
AcDbEntity
  8
M0
100
AcDbLine
 10
58.654379
 20
339.103366
 11
58.654379
 21
336.403366
  0
LINE
  5
461
100
AcDbEntity
  8
M0
100
AcDbLine
 10
111.154378
 20
330.403366
 11
112.154378
 21
330.403366
  0
LINE
  5
462
100
AcDbEntity
  8
M0
100
AcDbLine
 10
80.004379
 20
342.103366
 11
80.004379
 21
341.603366
  0
LINE
  5
463
100
AcDbEntity
  8
M0
100
AcDbLine
 10
58.654379
 20
333.403366
 11
58.654379
 21
330.403366
  0
LINE
  5
464
100
AcDbEntity
  8
M0
100
AcDbLine
 10
112.154378
 20
330.503366
 11
112.154378
 21
327.203366
  0
LINE
  5
465
100
AcDbEntity
  8
M0
100
AcDbLine
 10
80.004379
 20
342.103366
 11
89.804379
 21
342.103366
  0
LINE
  5
466
100
AcDbEntity
  8
M0
100
AcDbLine
 10
58.654379
 20
327.403366
 11
58.654379
 21
324.703366
  0
LINE
  5
467
100
AcDbEntity
  8
M0
100
AcDbLine
 10
89.804379
 20
341.603366
 11
80.004379
 21
341.603366
  0
LINE
  5
468
100
AcDbEntity
  8
M0
100
AcDbLine
 10
111.154378
 20
336.403366
 11
112.154378
 21
336.403366
  0
LINE
  5
469
100
AcDbEntity
  8
M0
100
AcDbLine
 10
57.654379
 20
333.403366
 11
58.654379
 21
333.403366
  0
LINE
  5
46A
100
AcDbEntity
  8
M0
100
AcDbLine
 10
58.654379
 20
339.103366
 11
58.154378
 21
339.103366
  0
LINE
  5
46B
100
AcDbEntity
  8
M0
100
AcDbLine
 10
111.154378
 20
333.403366
 11
111.154378
 21
330.403366
  0
LINE
  5
46C
100
AcDbEntity
  8
M0
100
AcDbLine
 10
57.654379
 20
336.603366
 11
57.654379
 21
333.403366
  0
LINE
  5
46D
100
AcDbEntity
  8
M0
100
AcDbLine
 10
112.154378
 20
333.403366
 11
111.154378
 21
333.403366
  0
LINE
  5
46E
100
AcDbEntity
  8
M0
100
AcDbLine
 10
112.154378
 20
336.603366
 11
112.154378
 21
333.303366
  0
LINE
  5
46F
100
AcDbEntity
  8
M0
100
AcDbLine
 10
111.654379
 20
339.103366
 11
111.154378
 21
339.103366
  0
ARC
  5
470
100
AcDbEntity
  8
M0
100
AcDbCircle
 10
87.154379
 20
336.172319
 40
0.5
100
AcDbArc
 50
90.0
 51
180.0
  0
ARC
  5
471
100
AcDbEntity
  8
M0
100
AcDbCircle
 10
76.504379
 20
342.103366
 40
1.0
100
AcDbArc
 50
90.0
 51
180.0
  0
ARC
  5
472
100
AcDbEntity
  8
M0
100
AcDbCircle
 10
93.304379
 20
342.103366
 40
1.0
100
AcDbArc
 50
0.0
 51
90.0
  0
ARC
  5
473
100
AcDbEntity
  8
M0
100
AcDbCircle
 10
111.154379
 20
353.603366
 40
1.0
100
AcDbArc
 50
0.0
 51
90.0
  0
ARC
  5
474
100
AcDbEntity
  8
M0
100
AcDbCircle
 10
76.504379
 20
321.703366
 40
1.0
100
AcDbArc
 50
180.0
 51
270.0
  0
ARC
  5
475
100
AcDbEntity
  8
M0
100
AcDbCircle
 10
78.404379
 20
317.403366
 40
0.5
100
AcDbArc
 50
270.0
 51
360.0
  0
ARC
  5
476
100
AcDbEntity
  8
M0
100
AcDbCircle
 10
93.404379
 20
318.403366
 40
0.5
100
AcDbArc
 50
0.0
 51
90.0
  0
ARC
  5
477
100
AcDbEntity
  8
M0
100
AcDbCircle
 10
93.404379
 20
317.403366
 40
0.5
100
AcDbArc
 50
270.0
 51
360.0
  0
ARC
  5
478
100
AcDbEntity
  8
M0
100
AcDbCircle
 10
78.404379
 20
318.403366
 40
0.5
100
AcDbArc
 50
0.0
 51
90.0
  0
ARC
  5
479
100
AcDbEntity
  8
M0
100
AcDbCircle
 10
76.404379
 20
317.403366
 40
0.5
100
AcDbArc
 50
180.0
 51
270.0
  0
ARC
  5
47A
100
AcDbEntity
  8
M0
100
AcDbCircle
 10
91.404379
 20
318.403366
 40
0.5
100
AcDbArc
 50
90.0
 51
180.0
  0
ARC
  5
47B
100
AcDbEntity
  8
M0
100
AcDbCircle
 10
91.404379
 20
317.403366
 40
0.5
100
AcDbArc
 50
180.0
 51
270.0
  0
ARC
  5
47C
100
AcDbEntity
  8
M0
100
AcDbCircle
 10
93.304379
 20
321.703366
 40
1.0
100
AcDbArc
 50
270.0
 51
360.0
  0
ARC
  5
47D
100
AcDbEntity
  8
M0
100
AcDbCircle
 10
76.404379
 20
318.403366
 40
0.5
100
AcDbArc
 50
90.0
 51
180.0
  0
LINE
  5
47E
100
AcDbEntity
  8
M0
100
AcDbLine
 10
78.404379
 20
318.903366
 11
76.404378
 21
318.903366
  0
LINE
  5
47F
100
AcDbEntity
  8
M0
100
AcDbLine
 10
104.854379
 20
375.203365
 11
105.354378
 21
375.203365
  0
LINE
  5
480
100
AcDbEntity
  8
M0
100
AcDbLine
 10
76.504379
 20
343.103365
 11
79.004378
 21
343.103365
  0
LINE
  5
481
100
AcDbEntity
  8
M0
100
AcDbLine
 10
90.904379
 20
317.403366
 11
90.904379
 21
318.403365
  0
LINE
  5
482
100
AcDbEntity
  8
M0
100
AcDbLine
 10
105.354378
 20
376.903368
 11
104.354378
 21
376.903368
  0
LINE
  5
483
100
AcDbEntity
  8
M0
100
AcDbLine
 10
105.354378
 20
369.903365
 11
104.854379
 21
369.903365
  0
LINE
  5
484
100
AcDbEntity
  8
M0
100
AcDbLine
 10
67.154378
 20
377.403365
 11
67.154378
 21
377.903366
  0
LINE
  5
485
100
AcDbEntity
  8
M0
100
AcDbLine
 10
64.454379
 20
369.903365
 11
64.954378
 21
369.903365
  0
LINE
  5
486
100
AcDbEntity
  8
M0
100
AcDbLine
 10
102.654379
 20
377.403365
 11
102.654379
 21
377.903366
  0
LINE
  5
487
100
AcDbEntity
  8
M0
100
AcDbLine
 10
93.904378
 20
318.403365
 11
93.904378
 21
317.403366
  0
LINE
  5
488
100
AcDbEntity
  8
M0
100
AcDbLine
 10
89.804379
 20
342.103366
 11
89.804379
 21
341.603366
  0
LINE
  5
489
100
AcDbEntity
  8
M0
100
AcDbLine
 10
58.654379
 20
354.603366
 11
111.154378
 21
354.603366
  0
LINE
  5
48A
100
AcDbEntity
  8
M0
100
AcDbLine
 10
49.404377
 20
315.253365
 11
49.404377
 21
321.753366
  0
LINE
  5
48B
100
AcDbEntity
  8
M0
100
AcDbLine
 10
78.904379
 20
317.403366
 11
78.904379
 21
318.403365
  0
LINE
  5
48C
100
AcDbEntity
  8
M0
100
AcDbLine
 10
91.404379
 20
318.903366
 11
93.404379
 21
318.903366
  0
LINE
  5
48D
100
AcDbEntity
  8
M0
100
AcDbLine
 10
75.904379
 20
318.403365
 11
75.904379
 21
317.403366
  0
LINE
  5
48E
100
AcDbEntity
  8
M0
100
AcDbLine
 10
93.404379
 20
316.903366
 11
91.404379
 21
316.903366
  0
LINE
  5
48F
100
AcDbEntity
  8
M0
100
AcDbLine
 10
76.404378
 20
316.903366
 11
78.404379
 21
316.903366
  0
LINE
  5
490
100
AcDbEntity
  8
M0
100
AcDbLine
 10
87.904379
 20
344.103366
 11
87.904379
 21
345.703366
  0
LINE
  5
491
100
AcDbEntity
  8
M0
100
AcDbLine
 10
87.904379
 20
345.703366
 11
81.904379
 21
345.703366
  0
LINE
  5
492
100
AcDbEntity
  8
M0
100
AcDbLine
 10
81.904379
 20
344.103366
 11
81.904379
 21
345.703366
  0
LINE
  5
493
100
AcDbEntity
  8
M0
100
AcDbLine
 10
81.904379
 20
344.103366
 11
87.904379
 21
344.103366
  0
LINE
  5
494
100
AcDbEntity
  8
M0
100
AcDbLine
 10
75.504379
 20
321.703365
 11
75.504379
 21
342.103366
  0
LINE
  5
495
100
AcDbEntity
  8
M0
100
AcDbLine
 10
76.504379
 20
320.703366
 11
93.304378
 21
320.703366
  0
LINE
  5
496
100
AcDbEntity
  8
M0
100
AcDbLine
 10
94.304379
 20
321.703365
 11
94.304379
 21
342.103366
  0
ARC
  5
497
100
AcDbEntity
  8
M0
100
AcDbCircle
 10
58.154379
 20
339.603366
 40
0.5
100
AcDbArc
 50
180.0
 51
270.0
  0
ARC
  5
498
100
AcDbEntity
  8
M0
100
AcDbCircle
 10
111.654379
 20
339.603366
 40
0.5
100
AcDbArc
 50
270.0
 51
360.0
  0
ARC
  5
499
100
AcDbEntity
  8
M0
100
AcDbCircle
 10
90.804379
 20
342.103366
 40
1.0
100
AcDbArc
 50
90.0
 51
180.0
  0
ARC
  5
49A
100
AcDbEntity
  8
M0
100
AcDbCircle
 10
67.304378
 20
372.153366
 40
4.25
100
AcDbArc
 50
241.927521
 51
270.0
  0
ARC
  5
49B
100
AcDbEntity
  8
M0
100
AcDbCircle
 10
79.004379
 20
342.103366
 40
1.0
100
AcDbArc
 50
0.0
 51
90.0
  0
ARC
  5
49C
100
AcDbEntity
  8
M0
100
AcDbCircle
 10
67.304378
 20
372.153366
 40
4.25
100
AcDbArc
 50
241.927521
 51
298.072495
  0
LINE
  5
49D
100
AcDbEntity
  8
M0
100
AcDbLine
 10
93.304378
 20
343.103365
 11
90.804379
 21
343.103365
  0
ARC
  5
49E
100
AcDbEntity
  8
M0
100
AcDbCircle
 10
58.654379
 20
353.603366
 40
1.0
100
AcDbArc
 50
90.0
 51
180.0
  0
LINE
  5
49F
100
AcDbEntity
  8
M0
100
AcDbLine
 10
56.404379
 20
314.753366
 11
49.904379
 21
314.753366
  0
LINE
  5
4A0
100
AcDbEntity
  8
M0
100
AcDbLine
 10
113.404379
 20
349.053366
 11
119.904379
 21
349.053366
  0
LINE
  5
4A1
100
AcDbEntity
  8
M0
100
AcDbLine
 10
119.904379
 20
341.553366
 11
113.404379
 21
341.553366
  0
LINE
  5
4A2
100
AcDbEntity
  8
M0
100
AcDbLine
 10
120.40438
 20
348.553366
 11
120.40438
 21
342.053366
  0
ARC
  5
4A3
100
AcDbEntity
  8
M0
100
AcDbCircle
 10
119.904378
 20
314.153366
 40
0.5
100
AcDbArc
 50
0.0
 51
90.0
  0
ARC
  5
4A4
100
AcDbEntity
  8
M0
100
AcDbCircle
 10
119.904379
 20
307.653366
 40
0.5
100
AcDbArc
 50
270.0
 51
360.0
  0
ARC
  5
4A5
100
AcDbEntity
  8
M0
100
AcDbCircle
 10
113.404379
 20
342.053366
 40
0.5
100
AcDbArc
 50
180.0
 51
270.0
  0
ARC
  5
4A6
100
AcDbEntity
  8
M0
100
AcDbCircle
 10
119.904379
 20
342.053366
 40
0.5
100
AcDbArc
 50
270.0
 51
360.0
  0
ARC
  5
4A7
100
AcDbEntity
  8
M0
100
AcDbCircle
 10
113.404378
 20
314.153365
 40
0.5
100
AcDbArc
 50
90.0
 51
180.0
  0
ARC
  5
4A8
100
AcDbEntity
  8
M0
100
AcDbCircle
 10
119.904379
 20
348.553366
 40
0.5
100
AcDbArc
 50
0.0
 51
90.0
  0
ARC
  5
4A9
100
AcDbEntity
  8
M0
100
AcDbCircle
 10
113.404379
 20
348.553366
 40
0.5
100
AcDbArc
 50
90.0
 51
180.0
  0
ARC
  5
4AA
100
AcDbEntity
  8
M0
100
AcDbCircle
 10
49.904379
 20
315.253366
 40
0.5
100
AcDbArc
 50
180.0
 51
270.0
  0
LINE
  5
4AB
100
AcDbEntity
  8
M0
100
AcDbLine
 10
112.90438
 20
342.053366
 11
112.90438
 21
348.553366
  0
LINE
  5
4AC
100
AcDbEntity
  8
M0
  6
DASHDOT
100
AcDbLine
 10
128.354378
 20
331.903366
 11
41.45438
 21
331.903366
  0
LINE
  5
4AD
100
AcDbEntity
  8
M0
  6
DASHDOT
100
AcDbLine
 10
84.904379
 20
284.403365
 11
84.904379
 21
383.403367
  0
ARC
  5
4AE
100
AcDbEntity
  8
M0
100
AcDbCircle
 10
80.104379
 20
336.172319
 40
0.5
100
AcDbArc
 50
90.0
 51
180.0
  0
ARC
  5
4AF
100
AcDbEntity
  8
M0
100
AcDbCircle
 10
89.704378
 20
336.172319
 40
0.5
100
AcDbArc
 50
0.0
 51
90.0
  0
LINE
  5
4B0
100
AcDbEntity
  8
M0
100
AcDbLine
 10
56.404379
 20
341.553366
 11
49.904379
 21
341.553366
  0
LINE
  5
4B1
100
AcDbEntity
  8
M0
100
AcDbLine
 10
49.904378
 20
349.053366
 11
56.404379
 21
349.053366
  0
LINE
  5
4B2
100
AcDbEntity
  8
M0
100
AcDbLine
 10
56.904378
 20
321.753365
 11
56.904378
 21
315.253366
  0
LINE
  5
4B3
100
AcDbEntity
  8
M0
100
AcDbLine
 10
119.904379
 20
314.753366
 11
113.404379
 21
314.753366
  0
LINE
  5
4B4
100
AcDbEntity
  8
M0
100
AcDbLine
 10
49.904379
 20
322.253365
 11
56.404379
 21
322.253365
  0
ARC
  5
4B5
100
AcDbEntity
  8
M0
100
AcDbCircle
 10
56.404378
 20
348.553366
 40
0.5
100
AcDbArc
 50
0.0
 51
90.0
  0
ARC
  5
4B6
100
AcDbEntity
  8
M0
100
AcDbCircle
 10
56.404379
 20
321.753366
 40
0.5
100
AcDbArc
 50
0.0
 51
90.0
  0
ARC
  5
4B7
100
AcDbEntity
  8
M0
100
AcDbCircle
 10
56.404379
 20
315.253366
 40
0.5
100
AcDbArc
 50
270.0
 51
360.0
  0
ARC
  5
4B8
100
AcDbEntity
  8
M0
100
AcDbCircle
 10
49.904379
 20
321.753366
 40
0.5
100
AcDbArc
 50
90.0
 51
180.0
  0
ARC
  5
4B9
100
AcDbEntity
  8
M0
100
AcDbCircle
 10
49.904378
 20
348.553365
 40
0.5
100
AcDbArc
 50
90.0
 51
180.0
  0
ARC
  5
4BA
100
AcDbEntity
  8
M0
100
AcDbCircle
 10
49.904379
 20
342.053365
 40
0.5
100
AcDbArc
 50
180.0
 51
270.0
  0
ARC
  5
4BB
100
AcDbEntity
  8
M0
100
AcDbCircle
 10
49.904379
 20
342.053365
 40
0.5
100
AcDbArc
 50
180.0
 51
270.0
  0
ARC
  5
4BC
100
AcDbEntity
  8
M0
100
AcDbCircle
 10
56.404379
 20
342.053366
 40
0.5
100
AcDbArc
 50
270.0
 51
360.0
  0
LINE
  5
4BD
100
AcDbEntity
  8
M0
100
AcDbLine
 10
120.40438
 20
315.253367
 11
120.40438
 21
321.753366
  0
LINE
  5
4BE
100
AcDbEntity
  8
M0
100
AcDbLine
 10
113.404379
 20
322.253365
 11
119.904378
 21
322.253365
  0
LINE
  5
4BF
100
AcDbEntity
  8
M0
100
AcDbLine
 10
56.404379
 20
307.153366
 11
49.904379
 21
307.153366
  0
ARC
  5
4C0
100
AcDbEntity
  8
M0
100
AcDbCircle
 10
119.904378
 20
321.753366
 40
0.5
100
AcDbArc
 50
0.0
 51
90.0
  0
ARC
  5
4C1
100
AcDbEntity
  8
M0
100
AcDbCircle
 10
49.904378
 20
348.553365
 40
0.5
100
AcDbArc
 50
90.0
 51
180.0
  0
ARC
  5
4C2
100
AcDbEntity
  8
M0
100
AcDbCircle
 10
113.404379
 20
315.253365
 40
0.5
100
AcDbArc
 50
180.0
 51
270.0
  0
ARC
  5
4C3
100
AcDbEntity
  8
M0
100
AcDbCircle
 10
113.404378
 20
321.753365
 40
0.5
100
AcDbArc
 50
90.0
 51
180.0
  0
ARC
  5
4C4
100
AcDbEntity
  8
M0
100
AcDbCircle
 10
119.904378
 20
321.753366
 40
0.5
100
AcDbArc
 50
0.0
 51
90.0
  0
ARC
  5
4C5
100
AcDbEntity
  8
M0
100
AcDbCircle
 10
119.904379
 20
315.253366
 40
0.5
100
AcDbArc
 50
270.0
 51
360.0
  0
ARC
  5
4C6
100
AcDbEntity
  8
M0
100
AcDbCircle
 10
119.904379
 20
315.253366
 40
0.5
100
AcDbArc
 50
270.0
 51
360.0
  0
LINE
  5
4C7
100
AcDbEntity
  8
M0
100
AcDbLine
 10
49.404377
 20
348.553365
 11
49.404377
 21
342.053365
  0
LINE
  5
4C8
100
AcDbEntity
  8
M0
100
AcDbLine
 10
120.40438
 20
314.153366
 11
120.40438
 21
307.653366
  0
LINE
  5
4C9
100
AcDbEntity
  8
M0
100
AcDbLine
 10
112.90438
 20
307.653365
 11
112.90438
 21
314.153365
  0
LINE
  5
4CA
100
AcDbEntity
  8
M0
100
AcDbLine
 10
113.404378
 20
314.653366
 11
119.904379
 21
314.653366
  0
LINE
  5
4CB
100
AcDbEntity
  8
M0
100
AcDbLine
 10
119.904379
 20
307.153366
 11
113.404379
 21
307.153366
  0
ARC
  5
4CC
100
AcDbEntity
  8
M0
100
AcDbCircle
 10
57.004379
 20
292.903366
 40
0.5
100
AcDbArc
 50
180.0
 51
270.0
  0
LINE
  5
4CD
100
AcDbEntity
  8
M0
100
AcDbLine
 10
112.90438
 20
315.253365
 11
112.90438
 21
321.753365
  0
ARC
  5
4CE
100
AcDbEntity
  8
M0
100
AcDbCircle
 10
113.354379
 20
371.403366
 40
2.0
100
AcDbArc
 50
90.0
 51
126.869898
  0
ARC
  5
4CF
100
AcDbEntity
  8
M0
100
AcDbCircle
 10
56.454379
 20
371.403366
 40
2.0
100
AcDbArc
 50
53.130102
 51
90.0
  0
LINE
  5
4D0
100
AcDbEntity
  8
M0
100
AcDbLine
 10
49.904379
 20
314.653366
 11
56.404379
 21
314.653366
  0
ARC
  5
4D1
100
AcDbEntity
  8
M0
100
AcDbCircle
 10
49.904379
 20
307.653366
 40
0.5
100
AcDbArc
 50
180.0
 51
270.0
  0
ARC
  5
4D2
100
AcDbEntity
  8
M0
100
AcDbCircle
 10
56.404379
 20
307.653366
 40
0.5
100
AcDbArc
 50
270.0
 51
360.0
  0
ARC
  5
4D3
100
AcDbEntity
  8
M0
100
AcDbCircle
 10
65.704379
 20
369.253366
 40
0.5
100
AcDbArc
 50
180.0
 51
270.0
  0
ARC
  5
4D4
100
AcDbEntity
  8
M0
100
AcDbCircle
 10
72.204379
 20
369.253366
 40
0.5
100
AcDbArc
 50
270.0
 51
360.0
  0
ARC
  5
4D5
100
AcDbEntity
  8
M0
100
AcDbCircle
 10
49.904379
 20
314.153366
 40
0.5
100
AcDbArc
 50
90.0
 51
180.0
  0
ARC
  5
4D6
100
AcDbEntity
  8
M0
100
AcDbCircle
 10
72.204379
 20
375.753366
 40
0.5
100
AcDbArc
 50
0.0
 51
90.0
  0
ARC
  5
4D7
100
AcDbEntity
  8
M0
100
AcDbCircle
 10
113.404379
 20
307.653365
 40
0.5
100
AcDbArc
 50
180.0
 51
270.0
  0
ARC
  5
4D8
100
AcDbEntity
  8
M0
100
AcDbCircle
 10
119.904378
 20
314.153366
 40
0.5
100
AcDbArc
 50
0.0
 51
90.0
  0
ARC
  5
4D9
100
AcDbEntity
  8
M0
100
AcDbCircle
 10
111.154379
 20
373.403366
 40
1.0
100
AcDbArc
 50
0.0
 51
90.0
  0
ARC
  5
4DA
100
AcDbEntity
  8
M0
100
AcDbCircle
 10
56.404379
 20
314.153366
 40
0.5
100
AcDbArc
 50
0.0
 51
90.0
  0
ARC
  5
4DB
100
AcDbEntity
  8
M0
100
AcDbCircle
 10
119.904379
 20
307.653366
 40
0.5
100
AcDbArc
 50
270.0
 51
360.0
  0
LINE
  5
4DC
100
AcDbEntity
  8
M0
100
AcDbLine
 10
65.204379
 20
369.253365
 11
65.204379
 21
375.753366
  0
LINE
  5
4DD
100
AcDbEntity
  8
M0
100
AcDbLine
 10
72.204379
 20
368.753368
 11
65.704379
 21
368.753368
  0
LINE
  5
4DE
100
AcDbEntity
  8
M0
100
AcDbLine
 10
120.40438
 20
356.153367
 11
120.40438
 21
349.653366
  0
LINE
  5
4DF
100
AcDbEntity
  8
M0
100
AcDbLine
 10
49.404377
 20
307.653365
 11
49.404377
 21
314.153366
  0
LINE
  5
4E0
100
AcDbEntity
  8
M0
100
AcDbLine
 10
56.904378
 20
314.153366
 11
56.904378
 21
307.653365
  0
LINE
  5
4E1
100
AcDbEntity
  8
M0
100
AcDbLine
 10
72.704379
 20
375.753366
 11
72.704379
 21
369.253365
  0
LINE
  5
4E2
100
AcDbEntity
  8
M0
100
AcDbLine
 10
113.404379
 20
356.653366
 11
119.904379
 21
356.653366
  0
LINE
  5
4E3
100
AcDbEntity
  8
M0
100
AcDbLine
 10
112.90438
 20
349.653366
 11
112.90438
 21
356.153366
  0
LINE
  5
4E4
100
AcDbEntity
  8
M0
100
AcDbLine
 10
119.904379
 20
349.153365
 11
113.404379
 21
349.153365
  0
LINE
  5
4E5
100
AcDbEntity
  8
M0
100
AcDbLine
 10
65.704379
 20
376.253364
 11
72.204379
 21
376.253364
  0
LINE
  5
4E6
100
AcDbEntity
  8
M0
100
AcDbLine
 10
97.104379
 20
369.253365
 11
97.104376
 21
375.753365
  0
LINE
  5
4E7
100
AcDbEntity
  8
M0
100
AcDbLine
 10
109.454379
 20
290.403367
 11
109.454379
 21
292.403364
  0
LINE
  5
4E8
100
AcDbEntity
  8
M0
100
AcDbLine
 10
74.254379
 20
292.403364
 11
74.254379
 21
290.403367
  0
LINE
  5
4E9
100
AcDbEntity
  8
M0
100
AcDbLine
 10
121.554377
 20
311.803366
 11
121.654379
 21
311.803366
  0
LINE
  5
4EA
100
AcDbEntity
  8
M0
100
AcDbLine
 10
121.654379
 20
352.003365
 11
121.554377
 21
352.003365
  0
LINE
  5
4EB
100
AcDbEntity
  8
M0
100
AcDbLine
 10
48.154379
 20
352.003365
 11
48.25438
 21
352.003365
  0
LINE
  5
4EC
100
AcDbEntity
  8
M0
100
AcDbLine
 10
48.25438
 20
311.803366
 11
48.154379
 21
311.803366
  0
LINE
  5
4ED
100
AcDbEntity
  8
M0
100
AcDbLine
 10
104.104379
 20
368.753364
 11
97.604379
 21
368.753364
  0
LINE
  5
4EE
100
AcDbEntity
  8
M0
100
AcDbLine
 10
49.404377
 20
356.153365
 11
49.404377
 21
349.653365
  0
LINE
  5
4EF
100
AcDbEntity
  8
M0
100
AcDbLine
 10
56.90438
 20
356.153366
 11
56.90438
 21
349.653366
  0
ARC
  5
4F0
100
AcDbEntity
  8
M0
100
AcDbCircle
 10
67.554379
 20
292.403366
 40
2.65
100
AcDbArc
 50
324.234014
 51
350.223151
  0
ARC
  5
4F1
100
AcDbEntity
  8
M0
100
AcDbCircle
 10
97.604378
 20
375.753365
 40
0.5
100
AcDbArc
 50
90.0
 51
180.0
  0
ARC
  5
4F2
100
AcDbEntity
  8
M0
100
AcDbCircle
 10
49.904379
 20
349.653365
 40
0.5
100
AcDbArc
 50
180.0
 51
270.0
  0
ARC
  5
4F3
100
AcDbEntity
  8
M0
100
AcDbCircle
 10
97.604379
 20
369.253365
 40
0.5
100
AcDbArc
 50
180.0
 51
270.0
  0
ARC
  5
4F4
100
AcDbEntity
  8
M0
100
AcDbCircle
 10
104.104379
 20
369.253366
 40
0.5
100
AcDbArc
 50
270.0
 51
360.0
  0
ARC
  5
4F5
100
AcDbEntity
  8
M0
100
AcDbCircle
 10
49.904378
 20
356.153365
 40
0.5
100
AcDbArc
 50
90.0
 51
180.0
  0
ARC
  5
4F6
100
AcDbEntity
  8
M0
100
AcDbCircle
 10
104.104378
 20
375.753366
 40
0.5
100
AcDbArc
 50
0.0
 51
90.0
  0
LINE
  5
4F7
100
AcDbEntity
  8
M0
100
AcDbLine
 10
104.604379
 20
369.253365
 11
104.604379
 21
375.753366
  0
LINE
  5
4F8
100
AcDbEntity
  8
M0
100
AcDbLine
 10
97.604378
 20
376.253368
 11
104.104378
 21
376.253368
  0
ARC
  5
4F9
100
AcDbEntity
  8
M0
100
AcDbCircle
 10
56.404379
 20
349.653366
 40
0.5
100
AcDbArc
 50
270.0
 51
360.0
  0
ARC
  5
4FA
100
AcDbEntity
  8
M0
100
AcDbCircle
 10
56.404378
 20
356.153366
 40
0.5
100
AcDbArc
 50
0.0
 51
90.0
  0
ARC
  5
4FB
100
AcDbEntity
  8
M0
100
AcDbCircle
 10
104.104379
 20
369.253366
 40
0.5
100
AcDbArc
 50
270.0
 51
360.0
  0
ARC
  5
4FC
100
AcDbEntity
  8
M0
100
AcDbCircle
 10
65.704379
 20
375.753366
 40
0.5
100
AcDbArc
 50
90.0
 51
180.0
  0
ARC
  5
4FD
100
AcDbEntity
  8
M0
100
AcDbCircle
 10
113.404379
 20
356.153366
 40
0.5
100
AcDbArc
 50
90.0
 51
180.0
  0
LINE
  5
4FE
100
AcDbEntity
  8
M0
100
AcDbLine
 10
56.404379
 20
349.153367
 11
49.90438
 21
349.15336
  0
ARC
  5
4FF
100
AcDbEntity
  8
M0
100
AcDbCircle
 10
119.904379
 20
349.653366
 40
0.5
100
AcDbArc
 50
270.0
 51
360.0
  0
ARC
  5
500
100
AcDbEntity
  8
M0
100
AcDbCircle
 10
104.104378
 20
375.753366
 40
0.5
100
AcDbArc
 50
0.0
 51
90.0
  0
ARC
  5
501
100
AcDbEntity
  8
M0
100
AcDbCircle
 10
119.904379
 20
356.153366
 40
0.5
100
AcDbArc
 50
0.0
 51
90.0
  0
ARC
  5
502
100
AcDbEntity
  8
M0
100
AcDbCircle
 10
49.904378
 20
356.153365
 40
0.5
100
AcDbArc
 50
90.0
 51
180.0
  0
ARC
  5
503
100
AcDbEntity
  8
M0
100
AcDbCircle
 10
49.904379
 20
349.653365
 40
0.5
100
AcDbArc
 50
180.0
 51
270.0
  0
ARC
  5
504
100
AcDbEntity
  8
M0
100
AcDbCircle
 10
113.404379
 20
349.653366
 40
0.5
100
AcDbArc
 50
180.0
 51
270.0
  0
LINE
  5
505
100
AcDbEntity
  8
M0
100
AcDbLine
 10
109.454379
 20
309.003366
 11
109.454379
 21
309.203365
  0
LINE
  5
506
100
AcDbEntity
  8
M0
100
AcDbLine
 10
109.454379
 20
354.603366
 11
109.454379
 21
354.803366
  0
LINE
  5
507
100
AcDbEntity
  8
M0
100
AcDbLine
 10
48.25438
 20
359.253365
 11
47.454378
 21
359.253365
  0
LINE
  5
508
100
AcDbEntity
  8
M0
100
AcDbLine
 10
121.554377
 20
359.253365
 11
122.354379
 21
359.253365
  0
LINE
  5
509
100
AcDbEntity
  8
M0
100
AcDbLine
 10
60.354378
 20
309.003366
 11
60.354378
 21
309.203365
  0
LINE
  5
50A
100
AcDbEntity
  8
M0
100
AcDbLine
 10
77.954379
 20
309.203365
 11
77.954379
 21
290.403366
  0
LINE
  5
50B
100
AcDbEntity
  8
M0
100
AcDbLine
 10
49.254379
 20
336.603366
 11
49.254379
 21
358.253367
  0
LINE
  5
50C
100
AcDbEntity
  8
M0
100
AcDbLine
 10
57.054378
 20
322.713686
 11
57.054378
 21
305.153366
  0
LINE
  5
50D
100
AcDbEntity
  8
M0
100
AcDbLine
 10
57.054378
 20
358.653366
 11
57.054378
 21
341.091612
  0
LINE
  5
50E
100
AcDbEntity
  8
M0
100
AcDbLine
 10
112.754379
 20
341.203366
 11
120.554379
 21
341.203366
  0
LINE
  5
50F
100
AcDbEntity
  8
M0
100
AcDbLine
 10
122.354379
 20
304.553367
 11
121.554377
 21
304.553367
  0
LINE
  5
510
100
AcDbEntity
  8
M0
100
AcDbLine
 10
117.054379
 20
335.603366
 11
117.054379
 21
328.203366
  0
ARC
  5
511
100
AcDbEntity
  8
M0
100
AcDbCircle
 10
109.712387
 20
321.309324
 40
3.350514
100
AcDbArc
 50
24.780822
 51
43.210715
  0
ARC
  5
512
100
AcDbEntity
  8
M0
100
AcDbCircle
 10
47.454379
 20
312.803366
 40
1.0
100
AcDbArc
 50
180.0
 51
270.0
  0
ARC
  5
513
100
AcDbEntity
  8
M0
100
AcDbCircle
 10
121.554379
 20
358.253366
 40
1.0
100
AcDbArc
 50
90.0
 51
180.0
  0
ARC
  5
514
100
AcDbEntity
  8
M0
100
AcDbCircle
 10
107.857511
 20
343.752622
 40
5.573176
100
AcDbArc
 50
320.442941
 51
331.479874
  0
ARC
  5
515
100
AcDbEntity
  8
M0
100
AcDbCircle
 10
61.951246
 20
343.752622
 40
5.573176
100
AcDbArc
 50
208.520126
 51
219.557059
  0
ARC
  5
516
100
AcDbEntity
  8
M0
100
AcDbCircle
 10
57.654379
 20
351.403366
 40
0.6
100
AcDbArc
 50
90.0
 51
180.0
  0
ARC
  5
517
100
AcDbEntity
  8
M0
100
AcDbCircle
 10
112.154379
 20
351.403366
 40
0.6
100
AcDbArc
 50
0.0
 51
90.0
  0
ARC
  5
518
100
AcDbEntity
  8
M0
100
AcDbCircle
 10
47.454379
 20
358.253366
 40
1.0
100
AcDbArc
 50
90.0
 51
180.0
  0
ARC
  5
519
100
AcDbEntity
  8
M0
100
AcDbCircle
 10
48.254379
 20
358.253366
 40
1.0
100
AcDbArc
 50
0.0
 51
90.0
  0
ARC
  5
51A
100
AcDbEntity
  8
M0
100
AcDbCircle
 10
121.554379
 20
305.553366
 40
1.0
100
AcDbArc
 50
180.0
 51
270.0
  0
LINE
  5
51B
100
AcDbEntity
  8
M0
100
AcDbLine
 10
122.354379
 20
311.803366
 11
121.554377
 21
311.803366
  0
LINE
  5
51C
100
AcDbEntity
  8
M0
100
AcDbLine
 10
47.454378
 20
311.803366
 11
48.25438
 21
311.803366
  0
LINE
  5
51D
100
AcDbEntity
  8
M0
100
AcDbLine
 10
52.754378
 20
335.603366
 11
52.754378
 21
328.203366
  0
LINE
  5
51E
100
AcDbEntity
  8
M0
100
AcDbLine
 10
83.154379
 20
329.203366
 11
83.154379
 21
336.150872
  0
LINE
  5
51F
100
AcDbEntity
  8
M0
100
AcDbLine
 10
90.204378
 20
336.603366
 11
90.204378
 21
328.108353
  0
LINE
  5
520
100
AcDbEntity
  8
M0
100
AcDbLine
 10
79.604379
 20
336.603366
 11
79.604379
 21
328.108353
  0
LINE
  5
521
100
AcDbEntity
  8
M0
100
AcDbLine
 10
90.204378
 20
327.610835
 11
90.204378
 21
328.108353
  0
LINE
  5
522
100
AcDbEntity
  8
M0
100
AcDbLine
 10
83.654379
 20
328.703366
 11
86.154379
 21
328.703366
  0
LINE
  5
523
100
AcDbEntity
  8
M0
100
AcDbLine
 10
79.604379
 20
327.610835
 11
79.604379
 21
328.108353
  0
LINE
  5
524
100
AcDbEntity
  8
M0
100
AcDbLine
 10
57.054378
 20
341.203366
 11
49.254379
 21
341.203366
  0
LINE
  5
525
100
AcDbEntity
  8
M0
100
AcDbLine
 10
121.554377
 20
335.603366
 11
117.054379
 21
335.603366
  0
LINE
  5
526
100
AcDbEntity
  8
M0
100
AcDbLine
 10
112.754379
 20
358.653366
 11
112.754379
 21
341.119881
  0
LINE
  5
527
100
AcDbEntity
  8
M0
100
AcDbLine
 10
47.454378
 20
328.203366
 11
52.754378
 21
328.203366
  0
LINE
  5
528
100
AcDbEntity
  8
M0
100
AcDbLine
 10
120.554379
 20
322.603366
 11
112.754379
 21
322.603366
  0
LINE
  5
529
100
AcDbEntity
  8
M0
100
AcDbLine
 10
117.054379
 20
328.203366
 11
121.554377
 21
328.203366
  0
LINE
  5
52A
100
AcDbEntity
  8
M0
100
AcDbLine
 10
49.254379
 20
322.603366
 11
57.054378
 21
322.603366
  0
LINE
  5
52B
100
AcDbEntity
  8
M0
100
AcDbLine
 10
109.454379
 20
370.403366
 11
109.454379
 21
371.403368
  0
LINE
  5
52C
100
AcDbEntity
  8
M0
100
AcDbLine
 10
74.254379
 20
376.903368
 11
74.254379
 21
354.603366
  0
LINE
  5
52D
100
AcDbEntity
  8
M0
100
AcDbLine
 10
109.454379
 20
292.403364
 11
109.454379
 21
293.403366
  0
LINE
  5
52E
100
AcDbEntity
  8
M0
100
AcDbLine
 10
95.554378
 20
293.403366
 11
95.554378
 21
292.403364
  0
LINE
  5
52F
100
AcDbEntity
  8
M0
100
AcDbLine
 10
60.354378
 20
292.403364
 11
60.354378
 21
293.403366
  0
LINE
  5
530
100
AcDbEntity
  8
M0
100
AcDbLine
 10
78.454378
 20
342.903366
 11
78.854379
 21
342.903366
  0
LINE
  5
531
100
AcDbEntity
  8
M0
100
AcDbLine
 10
90.954379
 20
342.903366
 11
91.354379
 21
342.903366
  0
LINE
  5
532
100
AcDbEntity
  8
M0
100
AcDbLine
 10
122.354379
 20
328.203366
 11
122.354379
 21
335.603366
  0
LINE
  5
533
100
AcDbEntity
  8
M0
100
AcDbLine
 10
121.05438
 20
335.603366
 11
121.05438
 21
328.203366
  0
LINE
  5
534
100
AcDbEntity
  8
M0
100
AcDbLine
 10
47.454378
 20
328.203366
 11
47.454378
 21
335.603366
  0
LINE
  5
535
100
AcDbEntity
  8
M0
100
AcDbLine
 10
48.754378
 20
335.603366
 11
48.754378
 21
328.203366
  0
LINE
  5
536
100
AcDbEntity
  8
M0
100
AcDbLine
 10
109.454379
 20
371.403368
 11
109.454379
 21
373.403364
  0
LINE
  5
537
100
AcDbEntity
  8
M0
100
AcDbLine
 10
60.354378
 20
354.603366
 11
60.354378
 21
373.403364
  0
LINE
  5
538
100
AcDbEntity
  8
M0
100
AcDbLine
 10
120.554379
 20
305.553365
 11
120.554379
 21
327.203366
  0
LINE
  5
539
100
AcDbEntity
  8
M0
100
AcDbLine
 10
112.754379
 20
322.713686
 11
112.754379
 21
305.153366
  0
LINE
  5
53A
100
AcDbEntity
  8
M0
100
AcDbLine
 10
49.254379
 20
305.553365
 11
49.254379
 21
327.203366
  0
ARC
  5
53B
100
AcDbEntity
  8
M0
100
AcDbCircle
 10
48.254379
 20
327.203366
 40
1.0
100
AcDbArc
 50
0.0
 51
90.0
  0
ARC
  5
53C
100
AcDbEntity
  8
M0
100
AcDbCircle
 10
122.354379
 20
312.803366
 40
1.0
100
AcDbArc
 50
270.0
 51
360.0
  0
ARC
  5
53D
100
AcDbEntity
  8
M0
100
AcDbCircle
 10
121.554379
 20
312.803366
 40
1.0
100
AcDbArc
 50
180.0
 51
270.0
  0
ARC
  5
53E
100
AcDbEntity
  8
M0
100
AcDbCircle
 10
60.09637
 20
321.309324
 40
3.350514
100
AcDbArc
 50
136.789285
 51
155.219178
  0
ARC
  5
53F
100
AcDbEntity
  8
M0
100
AcDbCircle
 10
57.654379
 20
312.403366
 40
0.6
100
AcDbArc
 50
180.0
 51
270.0
  0
ARC
  5
540
100
AcDbEntity
  8
M0
100
AcDbCircle
 10
48.254379
 20
312.803366
 40
1.0
100
AcDbArc
 50
270.0
 51
360.0
  0
LINE
  5
541
100
AcDbEntity
  8
M0
100
AcDbLine
 10
60.354378
 20
290.403367
 11
60.354378
 21
292.403364
  0
ARC
  5
542
100
AcDbEntity
  8
M0
100
AcDbCircle
 10
112.154379
 20
312.403366
 40
0.6
100
AcDbArc
 50
270.0
 51
360.0
  0
LINE
  5
543
100
AcDbEntity
  8
M0
100
AcDbLine
 10
95.554378
 20
292.403364
 11
95.554378
 21
290.403367
  0
LINE
  5
544
100
AcDbEntity
  8
M0
100
AcDbLine
 10
70.165892
 20
292.853364
 11
69.844392
 21
292.853364
  0
LINE
  5
545
100
AcDbEntity
  8
M0
100
AcDbLine
 10
69.781458
 20
291.953368
 11
70.165892
 21
291.953368
  0
LINE
  5
546
100
AcDbEntity
  8
M0
100
AcDbLine
 10
49.904379
 20
356.653366
 11
56.404378
 21
356.653366
  0
LINE
  5
547
100
AcDbEntity
  8
M0
100
AcDbLine
 10
99.642866
 20
291.953368
 11
100.0273
 21
291.953368
  0
LINE
  5
548
100
AcDbEntity
  8
M0
100
AcDbLine
 10
99.964366
 20
292.853364
 11
99.642866
 21
292.853364
  0
ARC
  5
549
100
AcDbEntity
  8
M0
100
AcDbCircle
 10
67.554379
 20
292.403366
 40
2.65
100
AcDbArc
 50
9.776849
 51
27.519543
  0
ARC
  5
54A
100
AcDbEntity
  8
M0
100
AcDbCircle
 10
67.554379
 20
292.403366
 40
2.65
100
AcDbArc
 50
350.223151
 51
369.776849
  0
ARC
  5
54B
100
AcDbEntity
  8
M0
100
AcDbCircle
 10
102.254379
 20
292.403366
 40
2.65
100
AcDbArc
 50
152.234014
 51
170.223151
  0
ARC
  5
54C
100
AcDbEntity
  8
M0
100
AcDbCircle
 10
102.254379
 20
292.403366
 40
2.65
100
AcDbArc
 50
189.776849
 51
215.765986
  0
LINE
  5
54D
100
AcDbEntity
  8
M0
100
AcDbLine
 10
86.654379
 20
329.203366
 11
86.654379
 21
336.150872
  0
LINE
  5
54E
100
AcDbEntity
  8
M0
100
AcDbLine
 10
91.854378
 20
368.403365
 11
77.954379
 21
368.403365
  0
LINE
  5
54F
100
AcDbEntity
  8
M0
100
AcDbLine
 10
90.204378
 20
336.172319
 11
90.204378
 21
336.150872
  0
LINE
  5
550
100
AcDbEntity
  8
M0
100
AcDbLine
 10
119.654378
 20
306.103365
 11
113.654379
 21
306.103365
  0
LINE
  5
551
100
AcDbEntity
  8
M0
100
AcDbLine
 10
119.654378
 20
307.153366
 11
119.654378
 21
306.103365
  0
LINE
  5
552
100
AcDbEntity
  8
M0
100
AcDbLine
 10
112.754379
 20
307.603366
 11
112.906885
 21
307.603366
  0
ARC
  5
553
100
AcDbEntity
  8
M0
100
AcDbCircle
 10
122.354379
 20
305.553366
 40
1.0
100
AcDbArc
 50
270.0
 51
360.0
  0
ARC
  5
554
100
AcDbEntity
  8
M0
100
AcDbCircle
 10
57.654379
 20
358.653366
 40
0.6
100
AcDbArc
 50
90.0
 51
180.0
  0
ARC
  5
555
100
AcDbEntity
  8
M0
100
AcDbCircle
 10
48.254379
 20
305.553366
 40
1.0
100
AcDbArc
 50
270.0
 51
360.0
  0
ARC
  5
556
100
AcDbEntity
  8
M0
100
AcDbCircle
 10
122.354379
 20
358.253366
 40
1.0
100
AcDbArc
 50
0.0
 51
90.0
  0
ARC
  5
557
100
AcDbEntity
  8
M0
100
AcDbCircle
 10
112.154379
 20
358.653366
 40
0.6
100
AcDbArc
 50
0.0
 51
90.0
  0
ARC
  5
558
100
AcDbEntity
  8
M0
100
AcDbCircle
 10
112.154379
 20
305.153366
 40
0.6
100
AcDbArc
 50
270.0
 51
360.0
  0
LINE
  5
559
100
AcDbEntity
  8
M0
100
AcDbLine
 10
83.154379
 20
336.150872
 11
83.154379
 21
336.172319
  0
LINE
  5
55A
100
AcDbEntity
  8
M0
100
AcDbLine
 10
86.654379
 20
336.150872
 11
86.654379
 21
336.172319
  0
LINE
  5
55B
100
AcDbEntity
  8
M0
100
AcDbLine
 10
79.604379
 20
336.172319
 11
79.604379
 21
336.150872
  0
LINE
  5
55C
100
AcDbEntity
  8
M0
100
AcDbLine
 10
79.604379
 20
327.610835
 11
79.604379
 21
327.203366
  0
ARC
  5
55D
100
AcDbEntity
  8
M0
100
AcDbCircle
 10
57.654379
 20
305.153366
 40
0.6
100
AcDbArc
 50
180.0
 51
270.0
  0
LINE
  5
55E
100
AcDbEntity
  8
M0
100
AcDbLine
 10
113.654379
 20
306.103365
 11
113.654379
 21
307.153366
  0
LINE
  5
55F
100
AcDbEntity
  8
M0
100
AcDbLine
 10
80.104378
 20
326.703366
 11
79.354379
 21
326.703366
  0
LINE
  5
560
100
AcDbEntity
  8
M0
100
AcDbLine
 10
90.204378
 20
327.610835
 11
90.204378
 21
327.203366
  0
LINE
  5
561
100
AcDbEntity
  8
M0
100
AcDbLine
 10
89.054379
 20
337.103366
 11
89.054379
 21
337.403366
  0
LINE
  5
562
100
AcDbEntity
  8
M0
100
AcDbLine
 10
79.354379
 20
337.103366
 11
90.454379
 21
337.103366
  0
LINE
  5
563
100
AcDbEntity
  8
M0
100
AcDbLine
 10
80.104378
 20
326.703366
 11
89.704379
 21
326.703366
  0
LINE
  5
564
100
AcDbEntity
  8
M0
100
AcDbLine
 10
95.554378
 20
365.103365
 11
95.554378
 21
367.903364
  0
LINE
  5
565
100
AcDbEntity
  8
M0
100
AcDbLine
 10
80.754379
 20
337.103366
 11
80.754379
 21
337.403366
  0
LINE
  5
566
100
AcDbEntity
  8
M0
100
AcDbLine
 10
70.646206
 20
295.403366
 11
74.254379
 21
295.403366
  0
LINE
  5
567
100
AcDbEntity
  8
M0
100
AcDbLine
 10
89.054379
 20
326.203366
 11
89.054379
 21
326.703366
  0
LINE
  5
568
100
AcDbEntity
  8
M0
100
AcDbLine
 10
100.504378
 20
368.403365
 11
95.554378
 21
368.403365
  0
LINE
  5
569
100
AcDbEntity
  8
M0
100
AcDbLine
 10
106.477357
 20
295.403366
 11
109.454379
 21
295.403366
  0
LINE
  5
56A
100
AcDbEntity
  8
M0
100
AcDbLine
 10
88.533147
 20
295.403366
 11
91.854378
 21
295.403366
  0
LINE
  5
56B
100
AcDbEntity
  8
M0
100
AcDbLine
 10
109.454379
 20
368.403365
 11
104.504379
 21
368.403365
  0
LINE
  5
56C
100
AcDbEntity
  8
M0
100
AcDbLine
 10
95.554378
 20
295.403366
 11
99.162551
 21
295.403366
  0
LINE
  5
56D
100
AcDbEntity
  8
M0
100
AcDbLine
 10
77.954379
 20
295.403366
 11
81.27561
 21
295.403366
  0
LINE
  5
56E
100
AcDbEntity
  8
M0
100
AcDbLine
 10
80.754379
 20
326.203366
 11
80.754379
 21
326.703366
  0
LINE
  5
56F
100
AcDbEntity
  8
M0
100
AcDbLine
 10
60.354378
 20
295.403366
 11
63.3314
 21
295.403366
  0
LINE
  5
570
100
AcDbEntity
  8
M0
100
AcDbLine
 10
89.704379
 20
326.703366
 11
90.454379
 21
326.703366
  0
LINE
  5
571
100
AcDbEntity
  8
M0
100
AcDbLine
 10
104.854379
 20
376.403367
 11
104.354378
 21
376.903368
  0
LINE
  5
572
100
AcDbEntity
  8
M0
100
AcDbLine
 10
104.854379
 20
368.403365
 11
104.854379
 21
376.403367
  0
ARC
  5
573
100
AcDbEntity
  8
M0
100
AcDbCircle
 10
80.104379
 20
336.603366
 40
0.5
100
AcDbArc
 50
90.0
 51
180.0
  0
ARC
  5
574
100
AcDbEntity
  8
M0
100
AcDbCircle
 10
80.104379
 20
327.203366
 40
0.5
100
AcDbArc
 50
180.0
 51
270.0
  0
ARC
  5
575
100
AcDbEntity
  8
M0
100
AcDbCircle
 10
86.154379
 20
329.203366
 40
0.5
100
AcDbArc
 50
270.0
 51
360.0
  0
LINE
  5
576
100
AcDbEntity
  8
M0
100
AcDbLine
 10
112.754379
 20
314.703365
 11
120.554379
 21
314.703365
  0
ARC
  5
577
100
AcDbEntity
  8
M0
100
AcDbCircle
 10
102.504378
 20
372.153366
 40
4.25
100
AcDbArc
 50
241.927521
 51
298.072495
  0
LINE
  5
578
100
AcDbEntity
  8
M0
100
AcDbLine
 10
83.316928
 20
372.653366
 11
82.292866
 21
372.653366
  0
LINE
  5
579
100
AcDbEntity
  8
M0
100
AcDbLine
 10
82.292866
 20
371.753366
 11
83.316928
 21
371.753366
  0
LINE
  5
57A
100
AcDbEntity
  8
M0
100
AcDbLine
 10
87.515892
 20
372.653366
 11
86.491829
 21
372.653366
  0
LINE
  5
57B
100
AcDbEntity
  8
M0
100
AcDbLine
 10
86.491829
 20
371.753366
 11
87.515892
 21
371.753366
  0
LINE
  5
57C
100
AcDbEntity
  8
M0
100
AcDbLine
 10
85.354379
 20
372.653366
 11
85.354379
 21
373.403364
  0
LINE
  5
57D
100
AcDbEntity
  8
M0
100
AcDbLine
 10
85.354379
 20
371.003365
 11
85.354379
 21
371.753366
  0
LINE
  5
57E
100
AcDbEntity
  8
M0
100
AcDbLine
 10
85.354379
 20
373.403364
 11
84.454379
 21
373.403364
  0
LINE
  5
57F
100
AcDbEntity
  8
M0
100
AcDbLine
 10
72.754379
 20
376.903368
 11
64.454379
 21
376.903368
  0
LINE
  5
580
100
AcDbEntity
  8
M0
100
AcDbLine
 10
84.454379
 20
371.003365
 11
85.354379
 21
371.003365
  0
LINE
  5
581
100
AcDbEntity
  8
M0
100
AcDbLine
 10
83.316928
 20
372.653366
 11
84.454379
 21
372.653366
  0
LINE
  5
582
100
AcDbEntity
  8
M0
100
AcDbLine
 10
85.354379
 20
372.653366
 11
86.491829
 21
372.653366
  0
LINE
  5
583
100
AcDbEntity
  8
M0
100
AcDbLine
 10
84.454379
 20
373.403364
 11
84.454379
 21
372.653366
  0
LINE
  5
584
100
AcDbEntity
  8
M0
100
AcDbLine
 10
104.354378
 20
376.903368
 11
97.054379
 21
376.903368
  0
LINE
  5
585
100
AcDbEntity
  8
M0
100
AcDbLine
 10
84.454379
 20
371.753366
 11
83.316928
 21
371.753366
  0
LINE
  5
586
100
AcDbEntity
  8
M0
100
AcDbLine
 10
78.854379
 20
342.903366
 11
76.704379
 21
342.903366
  0
LINE
  5
587
100
AcDbEntity
  8
M0
100
AcDbLine
 10
65.454379
 20
376.903368
 11
64.954378
 21
376.403367
  0
LINE
  5
588
100
AcDbEntity
  8
M0
100
AcDbLine
 10
64.954378
 20
376.403367
 11
64.954378
 21
368.403365
  0
ARC
  5
589
100
AcDbEntity
  8
M0
100
AcDbCircle
 10
102.504378
 20
372.153366
 40
4.25
100
AcDbArc
 50
241.927521
 51
270.0
  0
ARC
  5
58A
100
AcDbEntity
  8
M0
100
AcDbCircle
 10
89.704379
 20
327.203366
 40
0.5
100
AcDbArc
 50
270.0
 51
360.0
  0
ARC
  5
58B
100
AcDbEntity
  8
M0
100
AcDbCircle
 10
83.654379
 20
329.203366
 40
0.5
100
AcDbArc
 50
180.0
 51
270.0
  0
ARC
  5
58C
100
AcDbEntity
  8
M0
100
AcDbCircle
 10
84.904378
 20
372.153366
 40
4.25
100
AcDbArc
 50
241.927521
 51
298.072495
  0
ARC
  5
58D
100
AcDbEntity
  8
M0
100
AcDbCircle
 10
89.704379
 20
336.603366
 40
0.5
100
AcDbArc
 50
0.0
 51
90.0
  0
LINE
  5
58E
100
AcDbEntity
  8
M0
100
AcDbLine
 10
86.491829
 20
371.753366
 11
85.354379
 21
371.753366
  0
ARC
  5
58F
100
AcDbEntity
  8
M0
100
AcDbCircle
 10
84.904378
 20
372.153366
 40
4.25
100
AcDbArc
 50
241.927521
 51
270.0
  0
LINE
  5
590
100
AcDbEntity
  8
M0
100
AcDbLine
 10
84.454379
 20
371.753366
 11
84.454379
 21
371.003365
  0
ARC
  5
591
100
AcDbEntity
  8
M0
100
AcDbCircle
 10
72.054379
 20
369.103366
 40
0.6
100
AcDbArc
 50
215.685335
 51
270.0
  0
ARC
  5
592
100
AcDbEntity
  8
M0
100
AcDbCircle
 10
100.454379
 20
367.903366
 40
1.0
100
AcDbArc
 50
30.0
 51
58.211672
  0
ARC
  5
593
100
AcDbEntity
  8
M0
100
AcDbCircle
 10
84.904379
 20
372.203366
 40
2.65
100
AcDbArc
 50
170.223151
 51
189.776849
  0
ARC
  5
594
100
AcDbEntity
  8
M0
100
AcDbCircle
 10
84.904379
 20
372.203366
 40
2.65
100
AcDbArc
 50
189.776849
 51
350.223151
  0
ARC
  5
595
100
AcDbEntity
  8
M0
100
AcDbCircle
 10
97.754379
 20
369.103366
 40
0.6
100
AcDbArc
 50
187.490122
 51
324.314617
  0
ARC
  5
596
100
AcDbEntity
  8
M0
100
AcDbCircle
 10
84.904379
 20
372.203366
 40
2.65
100
AcDbArc
 50
9.776849
 51
170.223151
  0
ARC
  5
597
100
AcDbEntity
  8
M0
100
AcDbCircle
 10
100.454379
 20
367.903366
 40
1.0
100
AcDbArc
 50
121.788346
 51
150.0
  0
ARC
  5
598
100
AcDbEntity
  8
M0
100
AcDbCircle
 10
84.904379
 20
372.203366
 40
2.65
100
AcDbArc
 50
350.223151
 51
369.776849
  0
ARC
  5
599
100
AcDbEntity
  8
M0
100
AcDbCircle
 10
58.654379
 20
290.403366
 40
1.0
100
AcDbArc
 50
180.0
 51
270.0
  0
ARC
  5
59A
100
AcDbEntity
  8
M0
100
AcDbCircle
 10
121.554379
 20
351.003366
 40
1.0
100
AcDbArc
 50
90.0
 51
180.0
  0
ARC
  5
59B
100
AcDbEntity
  8
M0
100
AcDbCircle
 10
110.454379
 20
290.403366
 40
1.0
100
AcDbArc
 50
180.0
 51
270.0
  0
ARC
  5
59C
100
AcDbEntity
  8
M0
100
AcDbCircle
 10
59.354379
 20
290.403366
 40
1.0
100
AcDbArc
 50
270.0
 51
360.0
  0
ARC
  5
59D
100
AcDbEntity
  8
M0
100
AcDbCircle
 10
121.554379
 20
327.203366
 40
1.0
100
AcDbArc
 50
90.0
 51
180.0
  0
ARC
  5
59E
100
AcDbEntity
  8
M0
100
AcDbCircle
 10
94.554379
 20
290.403366
 40
1.0
100
AcDbArc
 50
270.0
 51
360.0
  0
ARC
  5
59F
100
AcDbEntity
  8
M0
100
AcDbCircle
 10
75.254379
 20
290.403366
 40
1.0
100
AcDbArc
 50
180.0
 51
270.0
  0
ARC
  5
5A0
100
AcDbEntity
  8
M0
100
AcDbCircle
 10
48.254379
 20
336.603366
 40
1.0
100
AcDbArc
 50
270.0
 51
360.0
  0
ARC
  5
5A1
100
AcDbEntity
  8
M0
100
AcDbCircle
 10
122.354379
 20
351.003366
 40
1.0
100
AcDbArc
 50
0.0
 51
90.0
  0
ARC
  5
5A2
100
AcDbEntity
  8
M0
100
AcDbCircle
 10
72.054379
 20
369.103366
 40
0.6
100
AcDbArc
 50
270.0
 51
352.509835
  0
ARC
  5
5A3
100
AcDbEntity
  8
M0
100
AcDbCircle
 10
121.554379
 20
336.603366
 40
1.0
100
AcDbArc
 50
180.0
 51
270.0
  0
ARC
  5
5A4
100
AcDbEntity
  8
M0
100
AcDbCircle
 10
122.354379
 20
336.603366
 40
1.0
100
AcDbArc
 50
270.0
 51
360.0
  0
ARC
  5
5A5
100
AcDbEntity
  8
M0
100
AcDbCircle
 10
102.254379
 20
292.403366
 40
2.65
100
AcDbArc
 50
170.223151
 51
189.776849
  0
ARC
  5
5A6
100
AcDbEntity
  8
M0
100
AcDbCircle
 10
47.454379
 20
351.003366
 40
1.0
100
AcDbArc
 50
90.0
 51
180.0
  0
LINE
  5
5A7
100
AcDbEntity
  8
M0
100
AcDbLine
 10
89.954378
 20
341.403366
 11
79.854379
 21
341.403366
  0
LINE
  5
5A8
100
AcDbEntity
  8
M0
100
AcDbLine
 10
90.454379
 20
337.403366
 11
79.354379
 21
337.403366
  0
LINE
  5
5A9
100
AcDbEntity
  8
M0
100
AcDbLine
 10
110.454379
 20
374.403366
 11
110.954374
 21
374.403366
  0
LINE
  5
5AA
100
AcDbEntity
  8
M0
100
AcDbLine
 10
79.854379
 20
337.903366
 11
89.954378
 21
337.903366
  0
LINE
  5
5AB
100
AcDbEntity
  8
M0
100
AcDbLine
 10
59.354378
 20
374.403366
 11
58.654379
 21
374.403366
  0
LINE
  5
5AC
100
AcDbEntity
  8
M0
100
AcDbLine
 10
111.154378
 20
327.203366
 11
113.154378
 21
327.203366
  0
LINE
  5
5AD
100
AcDbEntity
  8
M0
100
AcDbLine
 10
109.454379
 20
354.603366
 11
109.454379
 21
373.403364
  0
LINE
  5
5AE
100
AcDbEntity
  8
M0
100
AcDbLine
 10
77.954379
 20
354.603366
 11
77.954379
 21
373.403364
  0
LINE
  5
5AF
100
AcDbEntity
  8
M0
100
AcDbLine
 10
112.154378
 20
290.403366
 11
112.154378
 21
325.703366
  0
LINE
  5
5B0
100
AcDbEntity
  8
M0
100
AcDbLine
 10
91.854378
 20
354.603366
 11
91.854378
 21
373.403364
  0
LINE
  5
5B1
100
AcDbEntity
  8
M0
100
AcDbLine
 10
92.854379
 20
374.403366
 11
94.554379
 21
374.403366
  0
LINE
  5
5B2
100
AcDbEntity
  8
M0
100
AcDbLine
 10
110.454379
 20
309.003366
 11
110.454379
 21
309.203365
  0
LINE
  5
5B3
100
AcDbEntity
  8
M0
100
AcDbLine
 10
76.954378
 20
374.403366
 11
75.254379
 21
374.403366
  0
LINE
  5
5B4
100
AcDbEntity
  8
M0
100
AcDbLine
 10
110.954374
 20
374.403366
 11
111.154378
 21
374.403366
  0
LINE
  5
5B5
100
AcDbEntity
  8
M0
100
AcDbLine
 10
113.154378
 20
336.603366
 11
111.154378
 21
336.603366
  0
LINE
  5
5B6
100
AcDbEntity
  8
M0
100
AcDbLine
 10
110.454379
 20
354.603366
 11
110.454379
 21
354.803366
  0
LINE
  5
5B7
100
AcDbEntity
  8
M0
100
AcDbLine
 10
120.335577
 20
301.652314
 11
118.906035
 21
301.653366
  0
LINE
  5
5B8
100
AcDbEntity
  8
M0
100
AcDbLine
 10
108.50438
 20
294.403364
 11
109.454379
 21
294.403364
  0
LINE
  5
5B9
100
AcDbEntity
  8
M0
100
AcDbLine
 10
112.154378
 20
338.103366
 11
112.154378
 21
373.403366
  0
LINE
  5
5BA
100
AcDbEntity
  8
M0
100
AcDbLine
 10
59.354378
 20
354.803366
 11
60.354378
 21
354.803366
  0
LINE
  5
5BB
100
AcDbEntity
  8
M0
100
AcDbLine
 10
119.948382
 20
297.15366
 11
120.440854
 21
297.15366
  0
LINE
  5
5BC
100
AcDbEntity
  8
M0
100
AcDbLine
 10
58.654379
 20
327.203366
 11
56.654379
 21
327.203366
  0
LINE
  5
5BD
100
AcDbEntity
  8
M0
100
AcDbLine
 10
57.654379
 20
325.703366
 11
57.654379
 21
290.403366
  0
LINE
  5
5BE
100
AcDbEntity
  8
M0
100
AcDbLine
 10
110.454379
 20
354.803366
 11
109.454379
 21
354.803366
  0
LINE
  5
5BF
100
AcDbEntity
  8
M0
100
AcDbLine
 10
59.354378
 20
309.003366
 11
59.354378
 21
309.203365
  0
ARC
  5
5C0
100
AcDbEntity
  8
M0
100
AcDbCircle
 10
75.254379
 20
373.403366
 40
1.0
100
AcDbArc
 50
90.0
 51
180.0
  0
ARC
  5
5C1
100
AcDbEntity
  8
M0
100
AcDbCircle
 10
76.954379
 20
373.403366
 40
1.0
100
AcDbArc
 50
0.0
 51
90.0
  0
ARC
  5
5C2
100
AcDbEntity
  8
M0
100
AcDbCircle
 10
119.94838
 20
296.853661
 40
0.3
100
AcDbArc
 50
90.0
 51
180.0
  0
ARC
  5
5C3
100
AcDbEntity
  8
M0
100
AcDbCircle
 10
120.404379
 20
299.403366
 40
2.25
100
AcDbArc
 50
270.928845
 51
451.752277
  0
ARC
  5
5C4
100
AcDbEntity
  8
M0
100
AcDbCircle
 10
58.654379
 20
373.403366
 40
1.0
100
AcDbArc
 50
90.0
 51
180.0
  0
ARC
  5
5C5
100
AcDbEntity
  8
M0
100
AcDbCircle
 10
59.354379
 20
373.403366
 40
1.0
100
AcDbArc
 50
0.0
 51
90.0
  0
ARC
  5
5C6
100
AcDbEntity
  8
M0
100
AcDbCircle
 10
92.854379
 20
373.403366
 40
1.0
100
AcDbArc
 50
90.0
 51
180.0
  0
ARC
  5
5C7
100
AcDbEntity
  8
M0
100
AcDbCircle
 10
110.454379
 20
373.403366
 40
1.0
100
AcDbArc
 50
90.0
 51
180.0
  0
LINE
  5
5C8
100
AcDbEntity
  8
M0
100
AcDbLine
 10
119.648381
 20
296.739177
 11
119.648381
 21
296.853663
  0
LINE
  5
5C9
100
AcDbEntity
  8
M0
100
AcDbLine
 10
116.655866
 20
299.485186
 11
116.655866
 21
299.453364
  0
LINE
  5
5CA
100
AcDbEntity
  8
M0
100
AcDbLine
 10
123.854379
 20
303.103366
 11
123.854379
 21
292.403364
  0
LINE
  5
5CB
100
AcDbEntity
  8
M0
100
AcDbLine
 10
74.754379
 20
356.303365
 11
77.454379
 21
356.303365
  0
LINE
  5
5CC
100
AcDbEntity
  8
M0
100
AcDbLine
 10
57.654379
 20
373.403366
 11
57.654379
 21
338.103366
  0
ARC
  5
5CD
100
AcDbEntity
  8
M0
100
AcDbCircle
 10
94.554379
 20
373.403366
 40
1.0
100
AcDbArc
 50
0.0
 51
90.0
  0
LINE
  5
5CE
100
AcDbEntity
  8
M0
100
AcDbLine
 10
75.704378
 20
338.003366
 11
77.204379
 21
336.503366
  0
LINE
  5
5CF
100
AcDbEntity
  8
M0
100
AcDbLine
 10
58.654379
 20
330.403366
 11
57.654379
 21
330.403366
  0
LINE
  5
5D0
100
AcDbEntity
  8
M0
100
AcDbLine
 10
111.154378
 20
309.203365
 11
58.654379
 21
309.203365
  0
LINE
  5
5D1
100
AcDbEntity
  8
M0
100
AcDbLine
 10
79.354379
 20
322.403366
 11
90.454379
 21
322.403366
  0
LINE
  5
5D2
100
AcDbEntity
  8
M0
100
AcDbLine
 10
90.454379
 20
324.703366
 11
79.354379
 21
324.703366
  0
LINE
  5
5D3
100
AcDbEntity
  8
M0
100
AcDbLine
 10
79.354379
 20
326.203366
 11
90.454379
 21
326.203366
  0
LINE
  5
5D4
100
AcDbEntity
  8
M0
100
AcDbLine
 10
58.154378
 20
324.703366
 11
58.654379
 21
324.703366
  0
LINE
  5
5D5
100
AcDbEntity
  8
M0
100
AcDbLine
 10
57.654379
 20
333.403366
 11
57.654379
 21
333.303366
  0
LINE
  5
5D6
100
AcDbEntity
  8
M0
100
AcDbLine
 10
57.654379
 20
330.503366
 11
57.654379
 21
330.403366
  0
LINE
  5
5D7
100
AcDbEntity
  8
M0
100
AcDbLine
 10
90.954379
 20
342.903366
 11
93.104379
 21
342.903366
  0
LINE
  5
5D8
100
AcDbEntity
  8
M0
100
AcDbLine
 10
75.704378
 20
341.903366
 11
75.704378
 21
321.570262
  0
LINE
  5
5D9
100
AcDbEntity
  8
M0
100
AcDbLine
 10
89.954378
 20
337.903366
 11
89.954378
 21
341.903366
  0
LINE
  5
5DA
100
AcDbEntity
  8
M0
100
AcDbLine
 10
79.854379
 20
337.903366
 11
79.854379
 21
341.903366
  0
LINE
  5
5DB
100
AcDbEntity
  8
M0
100
AcDbLine
 10
57.654379
 20
327.403366
 11
58.654379
 21
327.403366
  0
LINE
  5
5DC
100
AcDbEntity
  8
M0
100
AcDbLine
 10
90.454379
 20
335.153366
 11
90.454379
 21
337.403366
  0
LINE
  5
5DD
100
AcDbEntity
  8
M0
100
AcDbLine
 10
93.104379
 20
320.903366
 11
91.454379
 21
320.903366
  0
LINE
  5
5DE
100
AcDbEntity
  8
M0
100
AcDbLine
 10
94.104379
 20
338.003366
 11
92.604379
 21
336.503366
  0
LINE
  5
5DF
100
AcDbEntity
  8
M0
100
AcDbLine
 10
79.354379
 20
337.403366
 11
79.354379
 21
335.153366
  0
LINE
  5
5E0
100
AcDbEntity
  8
M0
100
AcDbLine
 10
111.154378
 20
324.703366
 11
111.654379
 21
324.703366
  0
LINE
  5
5E1
100
AcDbEntity
  8
M0
100
AcDbLine
 10
94.104379
 20
341.903366
 11
94.104379
 21
321.903366
  0
LINE
  5
5E2
100
AcDbEntity
  8
M0
100
AcDbLine
 10
76.704379
 20
325.403366
 11
77.204379
 21
325.403366
  0
LINE
  5
5E3
100
AcDbEntity
  8
M0
100
AcDbLine
 10
90.454379
 20
321.903366
 11
90.454379
 21
328.653366
  0
LINE
  5
5E4
100
AcDbEntity
  8
M0
100
AcDbLine
 10
59.354378
 20
354.603366
 11
59.354378
 21
354.803366
  0
LINE
  5
5E5
100
AcDbEntity
  8
M0
100
AcDbLine
 10
77.204379
 20
320.903366
 11
76.704379
 21
320.903366
  0
LINE
  5
5E6
100
AcDbEntity
  8
M0
100
AcDbLine
 10
90.454379
 20
328.653366
 11
90.704379
 21
329.153366
  0
LINE
  5
5E7
100
AcDbEntity
  8
M0
100
AcDbLine
 10
79.354379
 20
328.653366
 11
79.354379
 21
321.903366
  0
LINE
  5
5E8
100
AcDbEntity
  8
M0
100
AcDbLine
 10
79.104379
 20
329.153366
 11
79.354379
 21
328.653366
  0
ARC
  5
5E9
100
AcDbEntity
  8
M0
100
AcDbCircle
 10
120.854379
 20
292.403366
 40
3.0
100
AcDbArc
 50
270.0
 51
360.0
  0
ARC
  5
5EA
100
AcDbEntity
  8
M0
100
AcDbCircle
 10
118.904379
 20
299.403366
 40
2.25
100
AcDbArc
 50
89.957854
 51
177.916058
  0
ARC
  5
5EB
100
AcDbEntity
  8
M0
100
AcDbCircle
 10
49.454379
 20
292.403366
 40
3.0
100
AcDbArc
 50
180.0
 51
270.0
  0
LINE
  5
5EC
100
AcDbEntity
  8
M0
100
AcDbLine
 10
56.654379
 20
336.603366
 11
58.654379
 21
336.603366
  0
ARC
  5
5ED
100
AcDbEntity
  8
M0
100
AcDbCircle
 10
48.254379
 20
351.003366
 40
1.0
100
AcDbArc
 50
0.0
 51
90.0
  0
LINE
  5
5EE
100
AcDbEntity
  8
M0
100
AcDbLine
 10
91.454379
 20
320.903366
 11
78.354379
 21
320.903366
  0
LINE
  5
5EF
100
AcDbEntity
  8
M0
100
AcDbLine
 10
92.604379
 20
336.503366
 11
92.604379
 21
325.403366
  0
LINE
  5
5F0
100
AcDbEntity
  8
M0
100
AcDbLine
 10
78.354379
 20
320.903366
 11
76.704379
 21
320.903366
  0
LINE
  5
5F1
100
AcDbEntity
  8
M0
100
AcDbLine
 10
92.604379
 20
320.903366
 11
93.104379
 21
320.903366
  0
LINE
  5
5F2
100
AcDbEntity
  8
M0
100
AcDbLine
 10
78.204379
 20
342.903366
 11
76.704379
 21
342.903366
  0
LINE
  5
5F3
100
AcDbEntity
  8
M0
100
AcDbLine
 10
79.104379
 20
334.653366
 11
79.104379
 21
329.153366
  0
LINE
  5
5F4
100
AcDbEntity
  8
M0
100
AcDbLine
 10
90.704379
 20
334.653366
 11
90.454379
 21
335.153366
  0
ARC
  5
5F5
100
AcDbEntity
  8
M0
100
AcDbCircle
 10
116.355867
 20
299.453366
 40
0.3
100
AcDbArc
 50
270.0
 51
360.0
  0
LINE
  5
5F6
100
AcDbEntity
  8
M0
100
AcDbLine
 10
77.204379
 20
336.503366
 11
77.204379
 21
325.403366
  0
LINE
  5
5F7
100
AcDbEntity
  8
M0
100
AcDbLine
 10
90.704379
 20
329.153366
 11
90.704379
 21
334.653366
  0
LINE
  5
5F8
100
AcDbEntity
  8
M0
100
AcDbLine
 10
92.604379
 20
325.403366
 11
93.104379
 21
325.403366
  0
LINE
  5
5F9
100
AcDbEntity
  8
M0
100
AcDbLine
 10
79.354379
 20
335.153366
 11
79.104379
 21
334.653366
  0
LINE
  5
5FA
100
AcDbEntity
  8
M0
100
AcDbLine
 10
56.154378
 20
307.153366
 11
56.154378
 21
306.103365
  0
LINE
  5
5FB
100
AcDbEntity
  8
M0
100
AcDbLine
 10
50.154379
 20
306.103365
 11
50.154379
 21
307.153366
  0
LINE
  5
5FC
100
AcDbEntity
  8
M0
100
AcDbLine
 10
105.154379
 20
369.403367
 11
105.154379
 21
368.403365
  0
LINE
  5
5FD
100
AcDbEntity
  8
M0
100
AcDbLine
 10
97.054379
 20
377.403365
 11
97.054379
 21
368.403365
  0
LINE
  5
5FE
100
AcDbEntity
  8
M0
100
AcDbLine
 10
63.454379
 20
378.403367
 11
106.354379
 21
378.403367
  0
LINE
  5
5FF
100
AcDbEntity
  8
M0
100
AcDbLine
 10
120.554379
 20
349.103366
 11
112.754379
 21
349.103366
  0
LINE
  5
600
100
AcDbEntity
  8
M0
100
AcDbLine
 10
95.554378
 20
376.903368
 11
74.254379
 21
376.903368
  0
LINE
  5
601
100
AcDbEntity
  8
M0
100
AcDbLine
 10
57.054378
 20
349.103366
 11
49.254379
 21
349.103366
  0
LINE
  5
602
100
AcDbEntity
  8
M0
100
AcDbLine
 10
56.154378
 20
306.103365
 11
50.154379
 21
306.103365
  0
LINE
  5
603
100
AcDbEntity
  8
M0
100
AcDbLine
 10
91.604378
 20
342.903366
 11
93.104379
 21
342.903366
  0
ARC
  5
604
100
AcDbEntity
  8
M0
100
AcDbCircle
 10
78.354379
 20
321.903366
 40
1.0
100
AcDbArc
 50
270.0
 51
360.0
  0
ARC
  5
605
100
AcDbEntity
  8
M0
100
AcDbCircle
 10
91.454379
 20
321.903366
 40
1.0
100
AcDbArc
 50
180.0
 51
270.0
  0
ARC
  5
606
100
AcDbEntity
  8
M0
100
AcDbCircle
 10
111.154379
 20
310.203366
 40
1.0
100
AcDbArc
 50
270.0
 51
360.0
  0
ARC
  5
607
100
AcDbEntity
  8
M0
100
AcDbCircle
 10
93.104379
 20
321.903366
 40
1.0
100
AcDbArc
 50
270.0
 51
360.0
  0
ARC
  5
608
100
AcDbEntity
  8
M0
100
AcDbCircle
 10
76.704379
 20
321.903366
 40
1.0
100
AcDbArc
 50
180.0
 51
270.0
  0
ARC
  5
609
100
AcDbEntity
  8
M0
100
AcDbCircle
 10
58.154379
 20
324.203366
 40
0.5
100
AcDbArc
 50
90.0
 51
180.0
  0
ARC
  5
60A
100
AcDbEntity
  8
M0
100
AcDbCircle
 10
93.104379
 20
341.903366
 40
1.0
100
AcDbArc
 50
0.0
 51
90.0
  0
ARC
  5
60B
100
AcDbEntity
  8
M0
100
AcDbCircle
 10
79.354379
 20
337.903366
 40
0.5
100
AcDbArc
 50
270.0
 51
360.0
  0
ARC
  5
60C
100
AcDbEntity
  8
M0
100
AcDbCircle
 10
76.704379
 20
341.903366
 40
1.0
100
AcDbArc
 50
90.0
 51
180.0
  0
ARC
  5
60D
100
AcDbEntity
  8
M0
100
AcDbCircle
 10
58.654379
 20
310.203366
 40
1.0
100
AcDbArc
 50
180.0
 51
270.0
  0
ARC
  5
60E
100
AcDbEntity
  8
M0
100
AcDbCircle
 10
76.704379
 20
324.403366
 40
1.0
100
AcDbArc
 50
90.0
 51
180.0
  0
LINE
  5
60F
100
AcDbEntity
  8
M0
100
AcDbLine
 10
102.45438
 20
377.903366
 11
102.45438
 21
376.903368
  0
LINE
  5
610
100
AcDbEntity
  8
M0
100
AcDbLine
 10
95.554378
 20
354.603366
 11
95.554378
 21
376.903368
  0
ARC
  5
611
100
AcDbEntity
  8
M0
100
AcDbCircle
 10
111.654379
 20
324.203366
 40
0.5
100
AcDbArc
 50
0.0
 51
90.0
  0
LINE
  5
612
100
AcDbEntity
  8
M0
100
AcDbLine
 10
64.654379
 20
368.403365
 11
64.654379
 21
369.403367
  0
LINE
  5
613
100
AcDbEntity
  8
M0
100
AcDbLine
 10
72.754379
 20
368.403365
 11
72.754379
 21
377.403365
  0
LINE
  5
614
100
AcDbEntity
  8
M0
100
AcDbLine
 10
67.354378
 20
376.903368
 11
67.354378
 21
377.903366
  0
LINE
  5
615
100
AcDbEntity
  8
M0
100
AcDbLine
 10
50.154379
 20
357.703367
 11
56.154378
 21
357.703367
  0
LINE
  5
616
100
AcDbEntity
  8
M0
100
AcDbLine
 10
56.154378
 20
357.703367
 11
56.154378
 21
356.653366
  0
LINE
  5
617
100
AcDbEntity
  8
M0
100
AcDbLine
 10
50.154379
 20
356.653366
 11
50.154379
 21
357.703367
  0
LINE
  5
618
100
AcDbEntity
  8
M0
100
AcDbLine
 10
113.654379
 20
357.703367
 11
119.654378
 21
357.703367
  0
LINE
  5
619
100
AcDbEntity
  8
M0
100
AcDbLine
 10
119.654378
 20
357.703367
 11
119.654378
 21
356.653366
  0
LINE
  5
61A
100
AcDbEntity
  8
M0
100
AcDbLine
 10
49.406885
 20
356.203366
 11
49.254379
 21
356.203366
  0
LINE
  5
61B
100
AcDbEntity
  8
M0
100
AcDbLine
 10
113.654379
 20
356.653366
 11
113.654379
 21
357.703367
  0
ARC
  5
61C
100
AcDbEntity
  8
M0
100
AcDbCircle
 10
104.654379
 20
369.403366
 40
0.5
100
AcDbArc
 50
0.0
 51
66.421822
  0
ARC
  5
61D
100
AcDbEntity
  8
M0
100
AcDbCircle
 10
96.054379
 20
377.403366
 40
1.0
100
AcDbArc
 50
0.0
 51
90.0
  0
LINE
  5
61E
100
AcDbEntity
  8
M0
100
AcDbLine
 10
94.554379
 20
289.403365
 11
94.054383
 21
289.403365
  0
ARC
  5
61F
100
AcDbEntity
  8
M0
100
AcDbCircle
 10
67.854379
 20
377.903366
 40
0.5
100
AcDbArc
 50
90.0
 51
180.0
  0
ARC
  5
620
100
AcDbEntity
  8
M0
100
AcDbCircle
 10
65.154379
 20
369.403366
 40
0.5
100
AcDbArc
 50
113.578178
 51
180.0
  0
ARC
  5
621
100
AcDbEntity
  8
M0
100
AcDbCircle
 10
101.954379
 20
377.903366
 40
0.5
100
AcDbArc
 50
0.0
 51
90.0
  0
ARC
  5
622
100
AcDbEntity
  8
M0
100
AcDbCircle
 10
73.754379
 20
377.403366
 40
1.0
100
AcDbArc
 50
90.0
 51
180.0
  0
LINE
  5
623
100
AcDbEntity
  8
M0
100
AcDbLine
 10
94.054383
 20
289.403365
 11
92.854379
 21
289.403365
  0
LINE
  5
624
100
AcDbEntity
  8
M0
100
AcDbLine
 10
109.454379
 20
290.403367
 11
109.454379
 21
294.403364
  0
LINE
  5
625
100
AcDbEntity
  8
M0
100
AcDbLine
 10
60.354378
 20
290.403367
 11
60.354378
 21
294.403364
  0
LINE
  5
626
100
AcDbEntity
  8
M0
100
AcDbLine
 10
113.154378
 20
330.503366
 11
111.454379
 21
330.503366
  0
LINE
  5
627
100
AcDbEntity
  8
M0
100
AcDbLine
 10
77.954379
 20
354.803366
 11
74.254379
 21
354.803366
  0
LINE
  5
628
100
AcDbEntity
  8
M0
100
AcDbLine
 10
95.554378
 20
294.403364
 11
95.554378
 21
290.403367
  0
LINE
  5
629
100
AcDbEntity
  8
M0
100
AcDbLine
 10
111.454379
 20
333.303366
 11
113.154378
 21
333.303366
  0
LINE
  5
62A
100
AcDbEntity
  8
M0
100
AcDbLine
 10
91.854378
 20
354.803366
 11
95.554378
 21
354.803366
  0
LINE
  5
62B
100
AcDbEntity
  8
M0
100
AcDbLine
 10
74.254379
 20
309.203365
 11
74.254379
 21
290.403367
  0
LINE
  5
62C
100
AcDbEntity
  8
M0
100
AcDbLine
 10
58.354378
 20
330.503366
 11
58.354378
 21
333.303366
  0
LINE
  5
62D
100
AcDbEntity
  8
M0
100
AcDbLine
 10
111.454379
 20
330.503366
 11
111.454379
 21
333.303366
  0
LINE
  5
62E
100
AcDbEntity
  8
M0
100
AcDbLine
 10
74.254379
 20
309.003366
 11
77.954379
 21
309.003366
  0
LINE
  5
62F
100
AcDbEntity
  8
M0
100
AcDbLine
 10
95.554378
 20
309.003366
 11
91.854378
 21
309.003366
  0
LINE
  5
630
100
AcDbEntity
  8
M0
100
AcDbLine
 10
91.854378
 20
309.203365
 11
91.854378
 21
307.003365
  0
LINE
  5
631
100
AcDbEntity
  8
M0
100
AcDbLine
 10
95.554378
 20
307.003365
 11
95.554378
 21
309.203365
  0
LINE
  5
632
100
AcDbEntity
  8
M0
100
AcDbLine
 10
121.554377
 20
352.003365
 11
122.354379
 21
352.003365
  0
LINE
  5
633
100
AcDbEntity
  8
M0
100
AcDbLine
 10
121.554377
 20
335.603366
 11
122.354379
 21
335.603366
  0
LINE
  5
634
100
AcDbEntity
  8
M0
100
AcDbLine
 10
49.254379
 20
314.703365
 11
57.054378
 21
314.703365
  0
ARC
  5
635
100
AcDbEntity
  8
M0
100
AcDbCircle
 10
47.454379
 20
327.203366
 40
1.0
100
AcDbArc
 50
90.0
 51
180.0
  0
CIRCLE
  5
636
100
AcDbEntity
  8
M0
100
AcDbCircle
 10
84.904379
 20
372.203366
 40
2.85
  0
ARC
  5
637
100
AcDbEntity
  8
M0
100
AcDbCircle
 10
47.454379
 20
336.603366
 40
1.0
100
AcDbArc
 50
180.0
 51
270.0
  0
CIRCLE
  5
638
100
AcDbEntity
  8
M0
100
AcDbCircle
 10
84.904379
 20
372.203366
 40
2.825
  0
ARC
  5
639
100
AcDbEntity
  8
M0
100
AcDbCircle
 10
122.354379
 20
327.203366
 40
1.0
100
AcDbArc
 50
0.0
 51
90.0
  0
ARC
  5
63A
100
AcDbEntity
  8
M0
100
AcDbCircle
 10
90.454379
 20
337.903366
 40
0.5
100
AcDbArc
 50
180.0
 51
270.0
  0
ARC
  5
63B
100
AcDbEntity
  8
M0
100
AcDbCircle
 10
93.104379
 20
324.403366
 40
1.0
100
AcDbArc
 50
0.0
 51
90.0
  0
ARC
  5
63C
100
AcDbEntity
  8
M0
100
AcDbCircle
 10
78.854379
 20
341.903366
 40
1.0
100
AcDbArc
 50
0.0
 51
90.0
  0
ARC
  5
63D
100
AcDbEntity
  8
M0
100
AcDbCircle
 10
90.954379
 20
341.903366
 40
1.0
100
AcDbArc
 50
90.0
 51
180.0
  0
LINE
  5
63E
100
AcDbEntity
  8
M0
100
AcDbLine
 10
48.25438
 20
352.003365
 11
47.454378
 21
352.003365
  0
LINE
  5
63F
100
AcDbEntity
  8
M0
100
AcDbLine
 10
52.754378
 20
335.603366
 11
47.454378
 21
335.603366
  0
LINE
  5
640
100
AcDbEntity
  8
M0
100
AcDbLine
 10
120.554379
 20
358.253366
 11
120.554379
 21
336.603366
  0
LINE
  5
641
100
AcDbEntity
  8
M0
100
AcDbLine
 10
122.354379
 20
328.203366
 11
121.554377
 21
328.203366
  0
LINE
  5
642
100
AcDbEntity
  8
M0
  6
DASHDOT
100
AcDbLine
 10
66.804379
 20
302.403366
 11
67.804379
 21
302.403366
  0
LINE
  5
643
100
AcDbEntity
  8
M0
  6
DASHDOT
100
AcDbLine
 10
67.304379
 20
301.903366
 11
67.304379
 21
302.903366
  0
LINE
  5
644
100
AcDbEntity
  8
M0
  6
DASHDOT
100
AcDbLine
 10
102.004379
 20
302.403366
 11
103.004379
 21
302.403366
  0
LINE
  5
645
100
AcDbEntity
  8
M0
  6
DASHDOT
100
AcDbLine
 10
102.504379
 20
301.903366
 11
102.504379
 21
302.903366
  0
LINE
  5
646
100
AcDbEntity
  8
M0
  6
DASHDOT
100
AcDbLine
 10
84.404379
 20
302.403366
 11
85.404379
 21
302.403366
  0
LINE
  5
647
100
AcDbEntity
  8
M0
  6
DASHDOT
100
AcDbLine
 10
84.904379
 20
301.903366
 11
84.904379
 21
302.903366
  0
LINE
  5
648
100
AcDbEntity
  8
M0
100
AcDbLine
 10
56.904378
 20
348.553366
 11
56.904378
 21
342.053366
  0
LINE
  5
649
100
AcDbEntity
  8
M0
  6
DASHDOT
100
AcDbLine
 10
84.404379
 20
361.403366
 11
85.404379
 21
361.403366
  0
LINE
  5
64A
100
AcDbEntity
  8
M0
  6
DASHDOT
100
AcDbLine
 10
84.904379
 20
361.903366
 11
84.904379
 21
360.903366
  0
LINE
  5
64B
100
AcDbEntity
  8
M0
  6
DASHDOT
100
AcDbLine
 10
102.504379
 20
361.903366
 11
102.504379
 21
360.903366
  0
LINE
  5
64C
100
AcDbEntity
  8
M0
  6
DASHDOT
100
AcDbLine
 10
67.304379
 20
361.903366
 11
67.304379
 21
360.903366
  0
LINE
  5
64D
100
AcDbEntity
  8
M0
  6
DASHDOT
100
AcDbLine
 10
102.004379
 20
361.403366
 11
103.004379
 21
361.403366
  0
LINE
  5
64E
100
AcDbEntity
  8
M0
  6
DASHDOT
100
AcDbLine
 10
66.804379
 20
361.403366
 11
67.804379
 21
361.403366
  0
ARC
  5
64F
100
AcDbEntity
  8
M0
100
AcDbCircle
 10
106.354379
 20
377.403366
 40
1.0
100
AcDbArc
 50
90.0
 51
180.0
  0
ARC
  5
650
100
AcDbEntity
  8
M0
100
AcDbCircle
 10
106.354379
 20
377.403366
 40
1.0
100
AcDbArc
 50
0.0
 51
90.0
  0
LINE
  5
651
100
AcDbEntity
  8
M0
100
AcDbLine
 10
105.354378
 20
368.403365
 11
105.354378
 21
377.403366
  0
LINE
  5
652
100
AcDbEntity
  8
M0
100
AcDbLine
 10
107.354379
 20
368.403365
 11
107.354379
 21
377.403365
  0
CIRCLE
  5
653
100
AcDbEntity
  8
M0
100
AcDbCircle
 10
67.304379
 20
361.403397
 40
4.499996
  0
LINE
  5
654
100
AcDbEntity
  8
M0
100
AcDbLine
 10
67.771282
 20
363.284531
 11
65.423306
 21
360.936539
  0
LINE
  5
655
100
AcDbEntity
  8
M0
100
AcDbLine
 10
69.185482
 20
361.870316
 11
66.837505
 21
359.522324
  0
LINE
  5
656
100
AcDbEntity
  8
M0
100
AcDbLine
 10
65.235424
 20
363.472305
 11
69.498394
 21
359.209366
  0
CIRCLE
  5
657
100
AcDbEntity
  8
M0
100
AcDbCircle
 10
84.904379
 20
361.403397
 40
4.499996
  0
LINE
  5
658
100
AcDbEntity
  8
M0
100
AcDbLine
 10
85.371282
 20
363.284531
 11
83.023306
 21
360.936539
  0
LINE
  5
659
100
AcDbEntity
  8
M0
100
AcDbLine
 10
86.785482
 20
361.870316
 11
84.437505
 21
359.522324
  0
LINE
  5
65A
100
AcDbEntity
  8
M0
100
AcDbLine
 10
82.835424
 20
363.472305
 11
87.098394
 21
359.209366
  0
CIRCLE
  5
65B
100
AcDbEntity
  8
M0
100
AcDbCircle
 10
102.504379
 20
361.403397
 40
4.499996
  0
LINE
  5
65C
100
AcDbEntity
  8
M0
100
AcDbLine
 10
102.971282
 20
363.284531
 11
100.623306
 21
360.936539
  0
LINE
  5
65D
100
AcDbEntity
  8
M0
100
AcDbLine
 10
104.385482
 20
361.870316
 11
102.037505
 21
359.522324
  0
LINE
  5
65E
100
AcDbEntity
  8
M0
100
AcDbLine
 10
100.435424
 20
363.472305
 11
104.698394
 21
359.209366
  0
CIRCLE
  5
65F
100
AcDbEntity
  8
M0
100
AcDbCircle
 10
68.954379
 20
372.503366
 40
3.0
  0
LINE
  5
660
100
AcDbEntity
  8
M0
100
AcDbLine
 10
69.307658
 20
373.917726
 11
67.54008
 21
372.150026
  0
LINE
  5
661
100
AcDbEntity
  8
M0
100
AcDbLine
 10
70.368205
 20
372.857057
 11
68.600627
 21
371.089479
  0
LINE
  5
662
100
AcDbEntity
  8
M0
100
AcDbLine
 10
70.544962
 20
370.912721
 11
67.363322
 21
374.094484
  0
LINE
  5
663
100
AcDbEntity
  8
M0
  6
DASHDOT
100
AcDbLine
 10
52.654379
 20
352.903366
 11
53.654379
 21
352.903366
  0
LINE
  5
664
100
AcDbEntity
  8
M0
  6
DASHDOT
100
AcDbLine
 10
53.154379
 20
352.403366
 11
53.154379
 21
353.403366
  0
CIRCLE
  5
665
100
AcDbEntity
  8
M0
100
AcDbCircle
 10
100.854376
 20
372.50337
 40
3.0
  0
LINE
  5
666
100
AcDbEntity
  8
M0
100
AcDbLine
 10
101.207655
 20
373.91773
 11
99.440077
 21
372.150029
  0
LINE
  5
667
100
AcDbEntity
  8
M0
100
AcDbLine
 10
102.268202
 20
372.857061
 11
100.500624
 21
371.089483
  0
LINE
  5
668
100
AcDbEntity
  8
M0
100
AcDbLine
 10
102.444959
 20
370.912725
 11
99.263319
 21
374.094487
  0
CIRCLE
  5
669
100
AcDbEntity
  8
M0
100
AcDbCircle
 10
53.154378
 20
352.903367
 40
3.0
  0
LINE
  5
66A
100
AcDbEntity
  8
M0
100
AcDbLine
 10
53.507657
 20
354.317728
 11
51.740079
 21
352.550027
  0
LINE
  5
66B
100
AcDbEntity
  8
M0
100
AcDbLine
 10
54.568204
 20
353.257059
 11
52.800625
 21
351.48948
  0
LINE
  5
66C
100
AcDbEntity
  8
M0
100
AcDbLine
 10
54.744961
 20
351.312723
 11
51.563321
 21
354.494485
  0
CIRCLE
  5
66D
100
AcDbEntity
  8
M0
100
AcDbCircle
 10
53.154378
 20
345.303367
 40
3.0
  0
LINE
  5
66E
100
AcDbEntity
  8
M0
100
AcDbLine
 10
53.507657
 20
346.717727
 11
51.740079
 21
344.950027
  0
LINE
  5
66F
100
AcDbEntity
  8
M0
100
AcDbLine
 10
54.568204
 20
345.657058
 11
52.800625
 21
343.88948
  0
LINE
  5
670
100
AcDbEntity
  8
M0
100
AcDbLine
 10
54.744961
 20
343.712723
 11
51.563321
 21
346.894485
  0
CIRCLE
  5
671
100
AcDbEntity
  8
M0
100
AcDbCircle
 10
53.154378
 20
318.503364
 40
3.0
  0
CIRCLE
  5
672
100
AcDbEntity
  8
M0
100
AcDbCircle
 10
53.154378
 20
310.903364
 40
3.0
  0
LINE
  5
673
100
AcDbEntity
  8
M0
100
AcDbLine
 10
53.507657
 20
312.317727
 11
51.740079
 21
310.550027
  0
LINE
  5
674
100
AcDbEntity
  8
M0
100
AcDbLine
 10
54.568204
 20
311.257058
 11
52.800625
 21
309.48948
  0
LINE
  5
675
100
AcDbEntity
  8
M0
100
AcDbLine
 10
54.744961
 20
309.312722
 11
51.563321
 21
312.494485
  0
LINE
  5
676
100
AcDbEntity
  8
M0
100
AcDbLine
 10
54.568204
 20
318.857058
 11
52.800625
 21
317.08948
  0
LINE
  5
677
100
AcDbEntity
  8
M0
100
AcDbLine
 10
53.507657
 20
319.917727
 11
51.740079
 21
318.150027
  0
LINE
  5
678
100
AcDbEntity
  8
M0
100
AcDbLine
 10
54.744961
 20
316.912722
 11
51.563321
 21
320.094485
  0
CIRCLE
  5
679
100
AcDbEntity
  8
M0
100
AcDbCircle
 10
116.65438
 20
352.903367
 40
3.0
  0
LINE
  5
67A
100
AcDbEntity
  8
M0
100
AcDbLine
 10
118.068206
 20
353.257059
 11
116.300627
 21
351.48948
  0
LINE
  5
67B
100
AcDbEntity
  8
M0
100
AcDbLine
 10
118.244963
 20
351.312723
 11
115.063323
 21
354.494485
  0
LINE
  5
67C
100
AcDbEntity
  8
M0
100
AcDbLine
 10
117.007659
 20
354.317728
 11
115.240081
 21
352.550027
  0
CIRCLE
  5
67D
100
AcDbEntity
  8
M0
100
AcDbCircle
 10
116.65438
 20
345.303367
 40
3.0
  0
LINE
  5
67E
100
AcDbEntity
  8
M0
100
AcDbLine
 10
118.244963
 20
343.712723
 11
115.063323
 21
346.894485
  0
LINE
  5
67F
100
AcDbEntity
  8
M0
100
AcDbLine
 10
117.007659
 20
346.717727
 11
115.240081
 21
344.950027
  0
LINE
  5
680
100
AcDbEntity
  8
M0
100
AcDbLine
 10
118.068206
 20
345.657058
 11
116.300627
 21
343.88948
  0
CIRCLE
  5
681
100
AcDbEntity
  8
M0
100
AcDbCircle
 10
116.65438
 20
318.503364
 40
3.0
  0
LINE
  5
682
100
AcDbEntity
  8
M0
100
AcDbLine
 10
117.007659
 20
319.917727
 11
115.240081
 21
318.150027
  0
LINE
  5
683
100
AcDbEntity
  8
M0
100
AcDbLine
 10
118.068206
 20
318.857058
 11
116.300627
 21
317.08948
  0
LINE
  5
684
100
AcDbEntity
  8
M0
100
AcDbLine
 10
118.244963
 20
316.912722
 11
115.063323
 21
320.094485
  0
CIRCLE
  5
685
100
AcDbEntity
  8
M0
100
AcDbCircle
 10
116.65438
 20
310.903364
 40
3.0
  0
LINE
  5
686
100
AcDbEntity
  8
M0
100
AcDbLine
 10
118.244963
 20
309.312722
 11
115.063323
 21
312.494485
  0
LINE
  5
687
100
AcDbEntity
  8
M0
100
AcDbLine
 10
117.007659
 20
312.317727
 11
115.240081
 21
310.550027
  0
LINE
  5
688
100
AcDbEntity
  8
M0
100
AcDbLine
 10
118.068206
 20
311.257058
 11
116.300627
 21
309.48948
  0
CIRCLE
  5
689
100
AcDbEntity
  8
M0
100
AcDbCircle
 10
67.304379
 20
302.403335
 40
4.499996
  0
CIRCLE
  5
68A
100
AcDbEntity
  8
M0
100
AcDbCircle
 10
84.904379
 20
302.403335
 40
4.499996
  0
CIRCLE
  5
68B
100
AcDbEntity
  8
M0
100
AcDbCircle
 10
102.504379
 20
302.403335
 40
4.499996
  0
LINE
  5
68C
100
AcDbEntity
  8
M0
100
AcDbLine
 10
67.771282
 20
304.284531
 11
65.423306
 21
301.936539
  0
LINE
  5
68D
100
AcDbEntity
  8
M0
100
AcDbLine
 10
69.185482
 20
302.870316
 11
66.837505
 21
300.522324
  0
LINE
  5
68E
100
AcDbEntity
  8
M0
100
AcDbLine
 10
65.235424
 20
304.472305
 11
69.498394
 21
300.209366
  0
LINE
  5
68F
100
AcDbEntity
  8
M0
100
AcDbLine
 10
85.371282
 20
304.284531
 11
83.023306
 21
301.936539
  0
LINE
  5
690
100
AcDbEntity
  8
M0
100
AcDbLine
 10
86.785482
 20
302.870316
 11
84.437505
 21
300.522324
  0
LINE
  5
691
100
AcDbEntity
  8
M0
100
AcDbLine
 10
82.835424
 20
304.472305
 11
87.098394
 21
300.209366
  0
LINE
  5
692
100
AcDbEntity
  8
M0
100
AcDbLine
 10
102.971282
 20
304.284531
 11
100.623306
 21
301.936539
  0
LINE
  5
693
100
AcDbEntity
  8
M0
100
AcDbLine
 10
104.385482
 20
302.870316
 11
102.037505
 21
300.522324
  0
LINE
  5
694
100
AcDbEntity
  8
M0
100
AcDbLine
 10
100.435424
 20
304.472305
 11
104.698394
 21
300.209366
  0
LINE
  5
695
100
AcDbEntity
  8
M0
  6
DASHED
100
AcDbLine
 10
33.954383
 20
361.603366
 11
33.954383
 21
302.203366
  0
LINE
  5
696
100
AcDbEntity
  8
M0
  6
DASHED
100
AcDbLine
 10
33.954383
 20
361.603366
 11
46.454383
 21
361.603366
  0
LINE
  5
697
100
AcDbEntity
  8
M0
  6
DASHED
100
AcDbLine
 10
33.954383
 20
302.203366
 11
46.454383
 21
302.203366
  0
LINE
  5
698
100
AcDbEntity
  8
M0
  6
DASHED
100
AcDbLine
 10
135.854375
 20
361.603366
 11
135.854375
 21
302.203366
  0
LINE
  5
699
100
AcDbEntity
  8
M0
  6
DASHED
100
AcDbLine
 10
135.854375
 20
361.603366
 11
123.354375
 21
361.603366
  0
LINE
  5
69A
100
AcDbEntity
  8
M0
  6
DASHED
100
AcDbLine
 10
135.854375
 20
302.203366
 11
123.354375
 21
302.203366
  0
CIRCLE
  5
69B
100
AcDbEntity
  8
M0
100
AcDbCircle
 10
84.904379
 20
302.403366
 40
5.0
  0
CIRCLE
  5
69C
100
AcDbEntity
  8
M0
100
AcDbCircle
 10
102.504379
 20
302.403366
 40
5.0
  0
CIRCLE
  5
69D
100
AcDbEntity
  8
M0
100
AcDbCircle
 10
67.304379
 20
302.403366
 40
5.0
  0
CIRCLE
  5
69E
100
AcDbEntity
  8
M0
100
AcDbCircle
 10
67.304379
 20
361.403366
 40
5.0
  0
CIRCLE
  5
69F
100
AcDbEntity
  8
M0
100
AcDbCircle
 10
84.904379
 20
361.403366
 40
5.0
  0
CIRCLE
  5
6A0
100
AcDbEntity
  8
M0
100
AcDbCircle
 10
102.504379
 20
361.403366
 40
5.0
  0
ARC
  5
6A1
100
AcDbEntity
  8
M0
100
AcDbCircle
 10
102.254379
 20
292.403366
 40
2.825
100
AcDbArc
 50
147.029184
 51
220.262187
  0
ARC
  5
6A2
100
AcDbEntity
  8
M0
100
AcDbCircle
 10
102.254379
 20
292.403366
 40
2.85
100
AcDbArc
 50
146.446983
 51
220.780622
  0
LINE
  5
6A3
100
AcDbEntity
  8
M0
100
AcDbLine
 10
99.782534
 20
289.403365
 11
97.004379
 21
289.403365
  0
LINE
  5
6A4
100
AcDbEntity
  8
M0
100
AcDbLine
 10
62.419629
 20
289.403365
 11
49.454379
 21
289.403365
  0
ARC
  5
6A5
100
AcDbEntity
  8
M0
100
AcDbCircle
 10
67.554379
 20
292.403366
 40
2.85
100
AcDbArc
 50
318.236176
 51
393.553017
  0
ARC
  5
6A6
100
AcDbEntity
  8
M0
100
AcDbCircle
 10
67.554379
 20
292.403366
 40
2.825
100
AcDbArc
 50
318.895617
 51
392.970816
  0
ARC
  5
6A7
100
AcDbEntity
  8
M0
 62
   154
100
AcDbCircle
 10
93.504378
 20
288.203364
 40
1.0
100
AcDbArc
 50
90.0
 51
180.0
  0
ARC
  5
6A8
100
AcDbEntity
  8
M0
 62
   154
100
AcDbCircle
 10
91.504378
 20
286.203364
 40
1.0
100
AcDbArc
 50
270.0
 51
360.0
  0
ARC
  5
6A9
100
AcDbEntity
  8
M0
 62
   154
100
AcDbCircle
 10
75.504378
 20
286.203364
 40
1.0
100
AcDbArc
 50
180.0
 51
270.0
  0
ARC
  5
6AA
100
AcDbEntity
  8
M0
 62
   154
100
AcDbCircle
 10
73.504378
 20
288.203364
 40
1.0
100
AcDbArc
 50
0.0
 51
90.0
  0
LINE
  5
6AB
100
AcDbEntity
  8
M0
 62
   154
100
AcDbLine
 10
93.504378
 20
289.203364
 11
99.671932
 21
289.203364
  0
LINE
  5
6AC
100
AcDbEntity
  8
M0
 62
   154
100
AcDbLine
 10
57.404378
 20
300.003364
 11
57.654379
 21
300.003364
  0
LINE
  5
6AD
100
AcDbEntity
  8
M0
 62
   154
100
AcDbLine
 10
92.504378
 20
286.203364
 11
92.504378
 21
288.203364
  0
LINE
  5
6AE
100
AcDbEntity
  8
M0
 62
   154
100
AcDbLine
 10
75.504378
 20
285.203364
 11
78.392226
 21
285.203364
  0
LINE
  5
6AF
100
AcDbEntity
  8
M0
 62
   154
100
AcDbLine
 10
74.504378
 20
288.203364
 11
74.504378
 21
286.203364
  0
LINE
  5
6B0
100
AcDbEntity
  8
M0
 62
   154
100
AcDbLine
 10
73.504378
 20
289.203364
 11
69.585724
 21
289.203364
  0
LINE
  5
6B1
100
AcDbEntity
  8
M0
 62
   154
100
AcDbLine
 10
57.404378
 20
282.795981
 11
57.404378
 21
300.003364
  0
LINE
  5
6B2
100
AcDbEntity
  8
M0
 62
   154
100
AcDbLine
 10
109.604378
 20
289.876583
 11
109.604378
 21
278.703364
  0
LINE
  5
6B3
100
AcDbEntity
  8
M0
 62
   154
100
AcDbLine
 10
108.404378
 20
278.703364
 11
108.404378
 21
289.967476
  0
LINE
  5
6B4
100
AcDbEntity
  8
M0
 62
   154
100
AcDbLine
 10
58.604378
 20
289.403365
 11
58.604378
 21
284.376931
  0
LINE
  5
6B5
100
AcDbEntity
  8
M0
 62
   154
100
AcDbLine
 10
106.619861
 20
289.203364
 11
108.404378
 21
289.203364
  0
LINE
  5
6B6
100
AcDbEntity
  8
M0
 62
   154
100
AcDbLine
 10
86.040723
 20
285.203364
 11
91.504378
 21
285.203364
  0
LINE
  5
6B7
100
AcDbEntity
  8
M0
 62
   154
100
AcDbLine
 10
62.26782
 20
289.203364
 11
58.604378
 21
289.203364
  0
LINE
  5
6B8
100
AcDbEntity
  8
M0
 62
     6
100
AcDbLine
 10
209.00718
 20
262.903365
 11
211.70718
 21
262.903365
  0
LINE
  5
6B9
100
AcDbEntity
  8
M0
 62
     6
100
AcDbLine
 10
211.70718
 20
262.903365
 11
211.70718
 21
261.903365
  0
LINE
  5
6BA
100
AcDbEntity
  8
M0
 62
     6
100
AcDbLine
 10
209.00718
 20
261.903365
 11
211.70718
 21
261.903365
  0
LINE
  5
6BB
100
AcDbEntity
  8
M0
 62
     6
100
AcDbLine
 10
209.00718
 20
265.11193
 11
209.00718
 21
262.903365
  0
LINE
  5
6BC
100
AcDbEntity
  8
M0
 62
     6
100
AcDbLine
 10
209.00718
 20
265.11193
 11
211.70718
 21
265.11193
  0
LINE
  5
6BD
100
AcDbEntity
  8
M0
 62
     6
100
AcDbLine
 10
209.00718
 20
266.035809
 11
211.70718
 21
266.035809
  0
LINE
  5
6BE
100
AcDbEntity
  8
M0
 62
     6
100
AcDbLine
 10
209.00718
 20
267.908139
 11
211.70718
 21
267.908139
  0
LINE
  5
6BF
100
AcDbEntity
  8
M0
 62
     6
100
AcDbLine
 10
214.25718
 20
269.903365
 11
213.70718
 21
269.903365
  0
LINE
  5
6C0
100
AcDbEntity
  8
M0
 62
     6
100
AcDbLine
 10
209.00718
 20
268.615246
 11
211.70718
 21
268.615246
  0
LINE
  5
6C1
100
AcDbEntity
  8
M0
 62
     6
100
AcDbLine
 10
209.00718
 20
269.866297
 11
209.00718
 21
268.615246
  0
LINE
  5
6C2
100
AcDbEntity
  8
M0
 62
     6
100
AcDbLine
 10
207.80718
 20
270.703365
 11
211.70718
 21
270.703365
  0
LINE
  5
6C3
100
AcDbEntity
  8
M0
 62
     6
100
AcDbLine
 10
211.70718
 20
268.615246
 11
211.70718
 21
267.908139
  0
LINE
  5
6C4
100
AcDbEntity
  8
M0
 62
     6
100
AcDbLine
 10
211.70718
 20
266.035809
 11
211.70718
 21
265.11193
  0
LINE
  5
6C5
100
AcDbEntity
  8
M0
 62
     6
100
AcDbLine
 10
211.70718
 20
270.248981
 11
211.70718
 21
269.866297
  0
LINE
  5
6C6
100
AcDbEntity
  8
M0
 62
     6
100
AcDbLine
 10
209.00718
 20
270.248981
 11
211.70718
 21
270.248981
  0
LINE
  5
6C7
100
AcDbEntity
  8
M0
 62
     6
100
AcDbLine
 10
209.00718
 20
270.703365
 11
209.00718
 21
270.248981
  0
LINE
  5
6C8
100
AcDbEntity
  8
M0
 62
     6
100
AcDbLine
 10
211.70718
 20
270.703365
 11
211.70718
 21
270.403365
  0
LINE
  5
6C9
100
AcDbEntity
  8
M0
 62
     6
100
AcDbLine
 10
209.00718
 20
267.908139
 11
209.00718
 21
266.035809
  0
LINE
  5
6CA
100
AcDbEntity
  8
M0
 62
     6
100
AcDbLine
 10
211.70718
 20
270.403365
 11
213.70718
 21
270.403365
  0
LINE
  5
6CB
100
AcDbEntity
  8
M0
 62
     6
100
AcDbLine
 10
209.00718
 20
269.866297
 11
211.70718
 21
269.866297
  0
LINE
  5
6CC
100
AcDbEntity
  8
M0
 62
     6
100
AcDbLine
 10
202.75718
 20
257.403365
 11
202.75718
 21
273.403365
  0
ARC
  5
6CD
100
AcDbEntity
  8
M0
 62
     6
100
AcDbCircle
 10
203.75718
 20
266.653365
 40
1.0
100
AcDbArc
 50
180.0
 51
270.0
  0
ARC
  5
6CE
100
AcDbEntity
  8
M0
 62
     6
100
AcDbCircle
 10
204.70719
 20
265.653365
 40
0.5
100
AcDbArc
 50
90.0
 51
179.998251
  0
LINE
  5
6CF
100
AcDbEntity
  8
M0
 62
     6
100
AcDbLine
 10
204.20719
 20
259.153365
 11
204.20719
 21
265.653365
  0
LINE
  5
6D0
100
AcDbEntity
  8
M0
 62
     6
100
AcDbLine
 10
204.70719
 20
266.153365
 11
207.80718
 21
266.153365
  0
ARC
  5
6D1
100
AcDbEntity
  8
M0
 62
     6
100
AcDbCircle
 10
204.70719
 20
259.153365
 40
0.5
100
AcDbArc
 50
179.998251
 51
270.0
  0
LINE
  5
6D2
100
AcDbEntity
  8
M0
 62
     6
100
AcDbLine
 10
207.80718
 20
258.653365
 11
204.70719
 21
258.653365
  0
LINE
  5
6D3
100
AcDbEntity
  8
M0
 62
     6
100
AcDbLine
 10
207.80718
 20
270.703365
 11
207.80718
 21
254.103365
  0
LINE
  5
6D4
100
AcDbEntity
  8
M0
 62
     6
100
AcDbLine
 10
209.00718
 20
254.55775
 11
211.70718
 21
254.55775
  0
LINE
  5
6D5
100
AcDbEntity
  8
M0
 62
     6
100
AcDbLine
 10
209.00718
 20
254.940433
 11
211.70718
 21
254.940433
  0
LINE
  5
6D6
100
AcDbEntity
  8
M0
 62
     6
100
AcDbLine
 10
207.80718
 20
254.103365
 11
211.70718
 21
254.103365
  0
LINE
  5
6D7
100
AcDbEntity
  8
M0
 62
     6
100
AcDbLine
 10
209.00718
 20
258.770922
 11
209.00718
 21
256.898591
  0
LINE
  5
6D8
100
AcDbEntity
  8
M0
 62
     6
100
AcDbLine
 10
209.00718
 20
256.191485
 11
209.00718
 21
254.940433
  0
LINE
  5
6D9
100
AcDbEntity
  8
M0
 62
     6
100
AcDbLine
 10
209.00718
 20
261.903365
 11
209.00718
 21
259.694801
  0
LINE
  5
6DA
100
AcDbEntity
  8
M0
 62
     6
100
AcDbLine
 10
211.70718
 20
260.009224
 11
211.70718
 21
254.103365
  0
LINE
  5
6DB
100
AcDbEntity
  8
M0
 62
     6
100
AcDbLine
 10
209.00718
 20
258.770922
 11
211.70718
 21
258.770922
  0
LINE
  5
6DC
100
AcDbEntity
  8
M0
 62
     6
100
AcDbLine
 10
211.70718
 20
254.940433
 11
211.70718
 21
254.55775
  0
LINE
  5
6DD
100
AcDbEntity
  8
M0
 62
     6
100
AcDbLine
 10
209.00718
 20
256.191485
 11
211.70718
 21
256.191485
  0
LINE
  5
6DE
100
AcDbEntity
  8
M0
 62
     6
100
AcDbLine
 10
209.00718
 20
256.898591
 11
211.70718
 21
256.898591
  0
LINE
  5
6DF
100
AcDbEntity
  8
M0
 62
     6
100
AcDbLine
 10
209.00718
 20
259.694801
 11
211.70718
 21
259.694801
  0
LINE
  5
6E0
100
AcDbEntity
  8
M0
 62
     6
100
AcDbLine
 10
209.00718
 20
254.55775
 11
209.00718
 21
254.103365
  0
LINE
  5
6E1
100
AcDbEntity
  8
M0
 62
     6
100
AcDbLine
 10
213.70718
 20
260.009224
 11
211.70718
 21
260.009224
  0
LINE
  5
6E2
100
AcDbEntity
  8
M0
 62
     6
100
AcDbLine
 10
213.70718
 20
255.403365
 11
211.70718
 21
255.403365
  0
LINE
  5
6E3
100
AcDbEntity
  8
M0
 62
     6
100
AcDbLine
 10
213.70718
 20
254.903365
 11
213.70718
 21
270.403365
  0
LINE
  5
6E4
100
AcDbEntity
  8
M0
 62
     6
100
AcDbLine
 10
221.45718
 20
254.903365
 11
213.70718
 21
254.903365
  0
LINE
  5
6E5
100
AcDbEntity
  8
M0
 62
     6
100
AcDbLine
 10
214.25718
 20
256.279641
 11
213.70718
 21
256.279641
  0
LINE
  5
6E6
100
AcDbEntity
  8
M0
 62
     6
100
AcDbLine
 10
214.25718
 20
271.403365
 11
207.25718
 21
271.403365
  0
LINE
  5
6E7
100
AcDbEntity
  8
M0
 62
     6
100
AcDbLine
 10
207.25718
 20
273.403365
 11
207.25718
 21
271.403365
  0
LINE
  5
6E8
100
AcDbEntity
  8
M0
 62
     6
100
AcDbLine
 10
202.75718
 20
273.403365
 11
207.25718
 21
273.403365
  0
ARC
  5
6E9
100
AcDbEntity
  8
M0
 62
     6
100
AcDbCircle
 10
202.75718
 20
274.403365
 40
1.0
100
AcDbArc
 50
180.0
 51
270.0
  0
ARC
  5
6EA
100
AcDbEntity
  8
M0
 62
     6
100
AcDbCircle
 10
202.75718
 20
256.403365
 40
1.0
100
AcDbArc
 50
90.0
 51
180.0
  0
LINE
  5
6EB
100
AcDbEntity
  8
M0
 62
     6
100
AcDbLine
 10
201.75718
 20
254.903365
 11
201.75718
 21
256.403365
  0
LINE
  5
6EC
100
AcDbEntity
  8
M0
 62
     6
100
AcDbLine
 10
207.80718
 20
254.903365
 11
201.75718
 21
254.903365
  0
LINE
  5
6ED
100
AcDbEntity
  8
M0
 62
     6
100
AcDbLine
 10
207.80718
 20
257.403365
 11
202.75718
 21
257.403365
  0
LINE
  5
6EE
100
AcDbEntity
  8
M0
 62
     6
100
AcDbLine
 10
203.75718
 20
265.653365
 11
204.20719
 21
265.653365
  0
ARC
  5
6EF
100
AcDbEntity
  8
M0
 62
     6
100
AcDbCircle
 10
203.75718
 20
258.153365
 40
1.0
100
AcDbArc
 50
90.0
 51
180.0
  0
LINE
  5
6F0
100
AcDbEntity
  8
M0
 62
     6
100
AcDbLine
 10
203.75718
 20
259.153365
 11
204.20719
 21
259.153365
  0
LINE
  5
6F1
100
AcDbEntity
  8
M0
 62
     6
100
AcDbLine
 10
214.25718
 20
254.903365
 11
214.25718
 21
275.903365
  0
LINE
  5
6F2
100
AcDbEntity
  8
M0
 62
     6
100
AcDbLine
 10
221.05718
 20
275.903365
 11
201.75718
 21
275.903365
  0
LINE
  5
6F3
100
AcDbEntity
  8
M0
 62
     6
100
AcDbLine
 10
212.25718
 20
272.453365
 11
214.25718
 21
272.453365
  0
LINE
  5
6F4
100
AcDbEntity
  8
M0
 62
     6
100
AcDbLine
 10
212.25718
 20
274.753365
 11
212.25718
 21
272.453365
  0
LINE
  5
6F5
100
AcDbEntity
  8
M0
 62
     6
100
AcDbLine
 10
212.25718
 20
274.753365
 11
214.25718
 21
274.753365
  0
LINE
  5
6F6
100
AcDbEntity
  8
M0
 62
     6
100
AcDbLine
 10
201.75718
 20
274.403365
 11
201.75718
 21
275.903365
  0
LINE
  5
6F7
100
AcDbEntity
  8
M0
 62
     2
100
AcDbLine
 10
84.208466
 20
282.403366
 11
76.559969
 21
282.403366
  0
LINE
  5
6F8
100
AcDbEntity
  8
M0
 62
     2
100
AcDbLine
 10
79.831859
 20
287.403366
 11
87.467658
 21
287.403366
  0
ARC
  5
6F9
100
AcDbEntity
  8
M0
 62
     2
100
AcDbCircle
 10
80.904379
 20
306.403366
 40
1.0
100
AcDbArc
 50
90.0
 51
180.0
  0
ARC
  5
6FA
100
AcDbEntity
  8
M0
 62
     2
100
AcDbCircle
 10
88.904379
 20
306.403366
 40
1.0
100
AcDbArc
 50
0.0
 51
90.0
  0
LINE
  5
6FB
100
AcDbEntity
  8
M0
 62
     2
100
AcDbLine
 10
88.904379
 20
307.403366
 11
80.904379
 21
307.403366
  0
LINE
  5
6FC
100
AcDbEntity
  8
M0
 62
     2
100
AcDbLine
 10
79.904379
 20
297.062778
 11
79.904379
 21
306.403366
  0
LINE
  5
6FD
100
AcDbEntity
  8
M0
 62
     2
100
AcDbLine
 10
89.904379
 20
297.062778
 11
89.904379
 21
306.403366
  0
ARC
  5
6FE
100
AcDbEntity
  8
M0
 62
     2
100
AcDbCircle
 10
80.904379
 20
297.062778
 40
1.0
100
AcDbArc
 50
180.0
 51
240.940719
  0
LINE
  5
6FF
100
AcDbEntity
  8
M0
 62
     2
100
AcDbLine
 10
71.454379
 20
272.107497
 11
71.454379
 21
263.403366
  0
LINE
  5
700
100
AcDbEntity
  8
M0
 62
     2
100
AcDbLine
 10
72.454379
 20
262.403366
 11
81.454379
 21
262.403366
  0
LINE
  5
701
100
AcDbEntity
  8
M0
 62
     2
100
AcDbLine
 10
74.244081
 20
278.864298
 11
81.214676
 21
289.516545
  0
LINE
  5
702
100
AcDbEntity
  8
M0
 62
     2
100
AcDbLine
 10
73.754379
 20
277.221615
 11
73.754379
 21
275.395353
  0
LINE
  5
703
100
AcDbEntity
  8
M0
 62
     2
100
AcDbLine
 10
80.644081
 20
276.956384
 11
87.614676
 21
287.608631
  0
LINE
  5
704
100
AcDbEntity
  8
M0
 62
     2
100
AcDbLine
 10
88.104379
 20
289.251314
 11
88.104379
 21
294.003366
  0
LINE
  5
705
100
AcDbEntity
  8
M0
 62
     2
100
AcDbLine
 10
81.704379
 20
291.159228
 11
81.704379
 21
294.003366
  0
LINE
  5
706
100
AcDbEntity
  8
M0
 62
     2
100
AcDbLine
 10
80.154379
 20
275.313701
 11
80.154379
 21
275.395353
  0
LINE
  5
707
100
AcDbEntity
  8
M0
 62
     2
100
AcDbLine
 10
82.454379
 20
263.403366
 11
82.454379
 21
272.107497
  0
ARC
  5
708
100
AcDbEntity
  8
M0
 62
     2
100
AcDbCircle
 10
81.454379
 20
272.107497
 40
1.0
100
AcDbArc
 50
0.0
 51
69.948957
  0
ARC
  5
709
100
AcDbEntity
  8
M0
 62
     2
100
AcDbCircle
 10
79.204379
 20
294.003366
 40
2.5
100
AcDbArc
 50
0.0
 51
60.940719
  0
ARC
  5
70A
100
AcDbEntity
  8
M0
 62
     2
100
AcDbCircle
 10
90.604379
 20
294.003366
 40
2.5
100
AcDbArc
 50
119.059281
 51
180.0
  0
ARC
  5
70B
100
AcDbEntity
  8
M0
 62
     2
100
AcDbCircle
 10
88.904379
 20
297.062778
 40
1.0
100
AcDbArc
 50
299.059281
 51
360.0
  0
ARC
  5
70C
100
AcDbEntity
  8
M0
 62
     2
100
AcDbCircle
 10
71.254379
 20
275.395353
 40
2.5
100
AcDbArc
 50
290.051043
 51
360.0
  0
ARC
  5
70D
100
AcDbEntity
  8
M0
 62
     2
100
AcDbCircle
 10
82.654379
 20
275.395353
 40
2.5
100
AcDbArc
 50
180.0
 51
249.948957
  0
ARC
  5
70E
100
AcDbEntity
  8
M0
 62
     2
100
AcDbCircle
 10
72.454379
 20
272.107497
 40
1.0
100
AcDbArc
 50
110.051043
 51
180.0
  0
ARC
  5
70F
100
AcDbEntity
  8
M0
 62
     2
100
AcDbCircle
 10
76.754379
 20
277.221615
 40
3.0
100
AcDbArc
 50
146.800152
 51
180.0
  0
ARC
  5
710
100
AcDbEntity
  8
M0
 62
     2
100
AcDbCircle
 10
83.154379
 20
275.313701
 40
3.0
100
AcDbArc
 50
146.800152
 51
180.0
  0
ARC
  5
711
100
AcDbEntity
  8
M0
 62
     2
100
AcDbCircle
 10
85.104379
 20
289.251314
 40
3.0
100
AcDbArc
 50
326.800152
 51
360.0
  0
ARC
  5
712
100
AcDbEntity
  8
M0
 62
     2
100
AcDbCircle
 10
78.704379
 20
291.159228
 40
3.0
100
AcDbArc
 50
326.800152
 51
360.0
  0
ARC
  5
713
100
AcDbEntity
  8
M0
 62
     2
100
AcDbCircle
 10
72.454379
 20
263.403366
 40
1.0
100
AcDbArc
 50
180.0
 51
270.0
  0
ARC
  5
714
100
AcDbEntity
  8
M0
 62
     2
100
AcDbCircle
 10
81.454379
 20
263.403366
 40
1.0
100
AcDbArc
 50
270.0
 51
360.0
  0
ARC
  5
715
100
AcDbEntity
  8
M0
 62
   154
100
AcDbCircle
 10
262.25718
 20
298.703365
 40
1.5
100
AcDbArc
 50
90.0
 51
180.0
  0
LINE
  5
716
100
AcDbEntity
  8
M0
 62
   154
100
AcDbLine
 10
278.95718
 20
289.403365
 11
278.95718
 21
246.003365
  0
LINE
  5
717
100
AcDbEntity
  8
M0
 62
   154
100
AcDbLine
 10
278.95718
 20
278.903365
 11
262.25718
 21
278.903365
  0
ARC
  5
718
100
AcDbEntity
  8
M0
 62
   154
100
AcDbCircle
 10
262.25718
 20
280.403365
 40
1.5
100
AcDbArc
 50
180.0
 51
270.0
  0
ARC
  5
719
100
AcDbEntity
  8
M0
 62
   154
100
AcDbCircle
 10
277.25718
 20
246.003365
 40
1.7
100
AcDbArc
 50
287.104635
 51
360.0
  0
LINE
  5
71A
100
AcDbEntity
  8
M0
 62
   154
100
AcDbLine
 10
278.95718
 20
247.703365
 11
277.75718
 21
247.703365
  0
LINE
  5
71B
100
AcDbEntity
  8
M0
 62
   154
100
AcDbLine
 10
268.061396
 20
294.603365
 11
267.85718
 21
294.603365
  0
LINE
  5
71C
100
AcDbEntity
  8
M0
 62
   154
100
AcDbLine
 10
267.35718
 20
294.103365
 11
267.35718
 21
289.903365
  0
LINE
  5
71D
100
AcDbEntity
  8
M0
 62
   154
100
AcDbLine
 10
267.85718
 20
289.403365
 11
278.95718
 21
289.403365
  0
LINE
  5
71E
100
AcDbEntity
  8
M0
 62
   154
100
AcDbLine
 10
277.75718
 20
278.903365
 11
277.75718
 21
246.003365
  0
LINE
  5
71F
100
AcDbEntity
  8
M0
 62
   154
100
AcDbLine
 10
260.75718
 20
280.403365
 11
260.75718
 21
298.703365
  0
LINE
  5
720
100
AcDbEntity
  8
M0
 62
   154
100
AcDbLine
 10
262.25718
 20
300.203365
 11
268.061396
 21
300.203365
  0
ARC
  5
721
100
AcDbEntity
  8
M0
 62
   154
100
AcDbCircle
 10
267.85718
 20
294.103365
 40
0.5
100
AcDbArc
 50
90.0
 51
180.0
  0
ARC
  5
722
100
AcDbEntity
  8
M0
 62
   154
100
AcDbCircle
 10
267.85718
 20
289.903365
 40
0.5
100
AcDbArc
 50
180.0
 51
270.0
  0
LINE
  5
723
100
AcDbEntity
  8
M0
  6
DIVIDE
 62
     7
100
AcDbLine
 10
45.404245
 20
192.67619
 11
123.198524
 21
192.67619
  0
LINE
  5
724
100
AcDbEntity
  8
M0
  6
DIVIDE
 62
     7
100
AcDbLine
 10
123.198524
 20
192.67619
 11
123.198524
 21
93.67619
  0
CIRCLE
  5
725
100
AcDbEntity
  8
M0
 62
     7
100
AcDbCircle
 10
120.404277
 20
114.631708
 40
3.099999
  0
CIRCLE
  5
726
100
AcDbEntity
  8
M0
 62
     7
100
AcDbCircle
 10
120.404277
 20
114.631708
 40
1.549994
  0
LINE
  5
727
100
AcDbEntity
  8
M0
  6
DASHDOT
 62
     7
100
AcDbLine
 10
120.404262
 20
118.729104
 11
120.404277
 21
109.534295
  0
LINE
  5
728
100
AcDbEntity
  8
M0
  6
DASHDOT
 62
     7
100
AcDbLine
 10
124.501674
 20
114.631708
 11
116.306865
 21
114.631708
  0
CIRCLE
  5
729
100
AcDbEntity
  8
M0
 62
     7
100
AcDbCircle
 10
49.404277
 20
179.631708
 40
1.549994
  0
CIRCLE
  5
72A
100
AcDbEntity
  8
M0
 62
     7
100
AcDbCircle
 10
49.404277
 20
179.631708
 40
3.099999
  0
LINE
  5
72B
100
AcDbEntity
  8
M0
  6
DASHDOT
 62
     7
100
AcDbLine
 10
49.404262
 20
183.729104
 11
49.404277
 21
175.534295
  0
LINE
  5
72C
100
AcDbEntity
  8
M0
  6
DASHDOT
 62
     7
100
AcDbLine
 10
53.501674
 20
179.631708
 11
45.306865
 21
179.631708
  0
LINE
  5
72D
100
AcDbEntity
  8
M0
  6
DIVIDE
 62
     7
100
AcDbLine
 10
45.404245
 20
48.67619
 11
130.404245
 21
48.67619
  0
LINE
  5
72E
100
AcDbEntity
  8
M0
  6
DIVIDE
 62
     7
100
AcDbLine
 10
130.404245
 20
93.67619
 11
123.198524
 21
93.67619
  0
LINE
  5
72F
100
AcDbEntity
  8
M0
  6
DIVIDE
 62
     7
100
AcDbLine
 10
45.404245
 20
192.67619
 11
45.404245
 21
48.67619
  0
LINE
  5
730
100
AcDbEntity
  8
M0
  6
DIVIDE
 62
     7
100
AcDbLine
 10
130.404245
 20
93.67619
 11
130.404245
 21
48.67619
  0
LINE
  5
731
100
AcDbEntity
  8
M0
  6
DASHDOT
 62
     7
100
AcDbLine
 10
84.904379
 20
201.064214
 11
84.904379
 21
40.138008
  0
LINE
  5
732
100
AcDbEntity
  8
M3
 62
     2
100
AcDbLine
 10
300.003268
 20
60.895184
 11
149.85312
 21
60.895184
  0
LINE
  5
733
100
AcDbEntity
  8
M3
 62
     2
100
AcDbLine
 10
14.717987
 20
15.85014
 11
14.717987
 21
428.763047
  0
LINE
  5
734
100
AcDbEntity
  8
M3
 62
     2
100
AcDbLine
 10
300.003268
 20
15.85014
 11
14.717987
 21
15.85014
  0
LINE
  5
735
100
AcDbEntity
  8
M3
 62
     2
100
AcDbLine
 10
300.003268
 20
30.865154
 11
149.85312
 21
30.865154
  0
TEXT
  5
736
100
AcDbEntity
  8
M3
 62
     2
100
AcDbText
 10
153.106369
 20
34.618908
 40
7.507507
  1
形　式；
 41
1.0
  7
STANDARD
100
AcDbText
  0
LINE
  5
737
100
AcDbEntity
  8
M3
 62
     2
100
AcDbLine
 10
300.003268
 20
45.880169
 11
149.85312
 21
45.880169
  0
TEXT
  5
738
100
AcDbEntity
  8
M3
 62
     2
100
AcDbText
 10
153.106369
 20
49.633923
 40
7.507507
  1
登録名：
 41
1.0
  7
STANDARD
100
AcDbText
  0
LINE
  5
739
100
AcDbEntity
  8
M3
 62
     2
100
AcDbLine
 10
149.85312
 20
15.85014
 11
149.85312
 21
60.895184
  0
TEXT
  5
73A
100
AcDbEntity
  8
M3
 62
     2
100
AcDbText
 10
153.106369
 20
19.603893
 40
7.507507
  1
適　用；
 41
1.0
  7
STANDARD
100
AcDbText
  0
LINE
  5
73B
100
AcDbEntity
  8
M3
 62
     2
100
AcDbLine
 10
14.717987
 20
428.763047
 11
300.003268
 21
428.763047
  0
LINE
  5
73C
100
AcDbEntity
  8
M3
 62
     2
100
AcDbLine
 10
300.003268
 20
428.763047
 11
300.003268
 21
15.85014
  0
TEXT
  5
73D
100
AcDbEntity
  8
M3
 62
     2
100
AcDbText
 10
189.392663
 20
49.633923
 40
7.507507
  1
ＤＭＨＳ５０ＴＲ００
 41
0.5
  7
STANDARD
100
AcDbText
  0
TEXT
  5
73E
100
AcDbEntity
  8
M3
 62
     2
100
AcDbText
 10
189.392663
 20
34.618908
 40
7.507507
  1
ＨＳ５０－Ｔ，ＨＳ５０－ＴＫ
 41
0.5
  7
STANDARD
100
AcDbText
  0
LINE
  5
73F
100
AcDbEntity
  8
DN0
100
AcDbLine
 10
72.515323
 20
27.226029
 11
96.884692
 21
27.226029
  0
TEXT
  5
740
100
AcDbEntity
  8
DN0
100
AcDbText
 10
73.188496
 20
27.82663
 40
6.006006
  1
せん孔図
 41
0.833333
  7
STANDARD
100
AcDbText
  0
ENDSEC
  0
SECTION
  2
OBJECTS
  0
DICTIONARY
  5
C
100
AcDbDictionary
  3
ACAD_GROUP
350
D
  3
ACAD_MLINESTYLE
350
E
  3
ACDBVARIABLEDICTIONARY
350
1F7
  0
DICTIONARY
  5
D
102
{ACAD_REACTORS
330
C
102
}
100
AcDbDictionary
  0
DICTIONARY
  5
E
102
{ACAD_REACTORS
330
C
102
}
100
AcDbDictionary
  3
STANDARD
350
13
  0
DICTIONARY
  5
1F7
102
{ACAD_REACTORS
330
C
102
}
100
AcDbDictionary
  3
SORTENTS
350
1F8
  0
MLINESTYLE
  5
13
102
{ACAD_REACTORS
330
E
102
}
100
AcDbMlineStyle
  2
STANDARD
 70
     0
  3

 62
     0
 51
90.0
 52
90.0
 71
     2
 49
0.5
 62
   256
  6
BYLAYER
 49
-0.5
 62
   256
  6
BYLAYER
  0
DICTIONARYVAR
  5
1F8
102
{ACAD_REACTORS
330
1F7
102
}
100
DictionaryVariables
280
     0
  1
96
  0
ENDSEC
  0
EOF
