  0
SECTION
  2
HEADER
  9
$ACADVER
  1
AC1014
  9
$INSBASE
 10
0.000000
 20
0.000000
 30
0.0
  9
$VIEWCTR
 10
7.531722
 20
4.5
  9
$VIEWSIZE
 40
9.0
  9
$SNAPMODE
 70
     0
  9
$SNAPUNIT
 10
1.0
 20
1.0
  9
$SNAPBASE
 10
0.0
 20
0.0
  9
$SNAPANG
 50
0.0
  9
$SNAPSTYLE
 70
     0
  9
$SNAPISOPAIR
 70
     0
  9
$GRIDMODE
 70
     0
  9
$GRIDUNIT
 10
0.0
 20
0.0
  9
$ORTHOMODE
 70
     0
  9
$REGENMODE
 70
     1
  9
$FILLMODE
 70
     1
  9
$QTEXTMODE
 70
     0
  9
$DRAGMODE
 70
     2
  9
$LTSCALE
  40
     1.000000
  9
$OSMODE
 70
     0
  9
$ATTMODE
 70
     1
  9
$TEXTSIZE
 40
0.2
  9
$TRACEWID
 40
0.05
  9
$TEXTSTYLE
  7
STANDARD
  9
$CELTYPE
  6
BYLAYER
  9
$CECOLOR
 62
   256
  9
$DIMSCALE
 40
1.0
  9
$DIMASZ
 40
0.18
  9
$DIMEXO
 40
0.0625
  9
$DIMDLI
 40
0.38
  9
$DIMRND
 40
0.0
  9
$DIMDLE
 40
0.0
  9
$DIMEXE
 40
0.18
  9
$DIMTP
 40
0.0
  9
$DIMTM
 40
0.0
  9
$DIMTXT
 40
0.18
  9
$DIMCEN
 40
0.09
  9
$DIMTSZ
 40
0.0
  9
$DIMTOL
 70
     0
  9
$DIMLIM
 70
     0
  9
$DIMTIH
 70
     1
  9
$DIMTOH
 70
     1
  9
$DIMSE1
 70
     0
  9
$DIMSE2
 70
     0
  9
$DIMTAD
 70
     0
  9
$DIMZIN
 70
     0
  9
$DIMBLK
  1

  9
$LUNITS
 70
     2
  9
$LUPREC
 70
     4
  9
$AXISMODE
 70
     0
  9
$AXISUNIT
 10
0.0
 20
0.0
  9
$SKETCHINC
 40
0.1
  9
$FILLETRAD
 40
0.0
  9
$AUNITS
 70
     0
  9
$AUPREC
 70
     0
  9
$MENU
  1
ACAD
  9
$ELEVATION
 40
0.0
  9
$THICKNESS
 40
0.0
  9
$VIEWDIR
 10
0.0
 20
0.0
 30
1.0
  9
$LIMCHECK
 70
     0
  9
$BLIPMODE
 70
     1
  9
$CHAMFERA
 40
0.0
  9
$CHAMFERB
 40
0.0
  9
$FASTZOOM
 70
     1
  9
$SKPOLY
 70
     0
  9
$TDCREATE
 40
0000000.0000000000
  9
$TDUPDATE
 40
0000000.0000000000
  9
$TDINDWG
 40
0.0000000000
  9
$TDUSRTIMER
 40
0.0000000000
  9
$USRTIMER
 70
     1
  9
$ANGBASE
 50
0.0
  9
$ANGDIR
 70
     0
  9
$PDMODE
 70
     0
  9
$PDSIZE
 40
0.0
  9
$PLINEWID
 40
0.0
  9
$COORDS
 70
     0
  9
$USERI1
 70
     0
  9
$USERI2
 70
     0
  9
$USERI3
 70
     0
  9
$USERI4
 70
     0
  9
$USERI5
 70
     0
  9
$USERR1
 40
0.0
  9
$USERR2
 40
0.0
  9
$USERR3
 40
0.0
  9
$USERR4
 40
0.0
  9
$USERR5
 40
0.0
  9
$CLAYER
  8
M0
  9
$EXTMIN
 10
25.0
 20
25.0
  9
$EXTMAX
 10
499.999993
 20
712.499989
  9
$LIMMIN
 10
0.0
 20
0.0
  9
$LIMMAX
 10
210.0
 20
297.0
  9
$HANDSEED
  5
165
  0
ENDSEC
  0
SECTION
  2
CLASSES
  0
ENDSEC
  0
SECTION
  2
TABLES
  0
TABLE
  2
VPORT
  5
8
100
AcDbSymbolTable
 70
     2
  0
VPORT
  5
14
100
AcDbSymbolTableRecord
100
AcDbViewportTableRecord
  2
*ACTIVE
 70
     0
 10
0.0
 20
0.0
 11
1.0
 21
1.0
 12
484.0
 22
297.0
 13
0.0
 23
0.0
 14
1.0
 24
1.0
 15
0.0
 25
0.0
 16
0.0
 26
0.0
 36
1.0
 17
0.0
 27
0.0
 37
0.0
 40
594.0
 41
2.0
 42
50.0
 43
0.0
 44
0.0
 50
0.0
 51
0.0
 71
     0
 72
   100
 73
     1
 74
     1
 75
     0
 76
     0
 77
     0
 78
     0
  0
ENDTAB
  0
TABLE
  2
LTYPE
  5
5
100
AcDbSymbolTable
 70
     5
  0
LTYPE
  5
15
100
AcDbSymbolTableRecord
100
AcDbLinetypeTableRecord
  2
BYBLOCK
 70
     0
  3

 72
    65
 73
     0
 40
0.0
  0
LTYPE
  5
16
100
AcDbSymbolTableRecord
100
AcDbLinetypeTableRecord
  2
BYLAYER
 70
     0
  3

 72
    65
 73
     0
 40
0.0
  0
LTYPE
  5
17
100
AcDbSymbolTableRecord
100
AcDbLinetypeTableRecord
  2
CONTINUOUS
 70
    64
  3
Solid line
 72
    65
 73
     0
 40
0.0
  0
LTYPE
  5
18
100
AcDbSymbolTableRecord
100
AcDbLinetypeTableRecord
  2
DASHED
 70
    64
  3
__ __ __ __ __ __ __ __ __ __ __ __ __ __ __ __
 72
    65
 73
     2
 40
0.75
 49
0.5
 74
     0
 49
-0.25
 74
     0
  0
LTYPE
  5
19
100
AcDbSymbolTableRecord
100
AcDbLinetypeTableRecord
  2
DASHDOT
 70
    64
  3
__ . __ . __ . __ . __ . __ . __ . __ . __ . __
 72
    65
 73
     4
 40
1.0
 49
0.5
 74
     0
 49
-0.25
 74
     0
 49
0.0
 74
     0
 49
-0.25
 74
     0
  0
LTYPE
  5
1A
100
AcDbSymbolTableRecord
100
AcDbLinetypeTableRecord
  2
DIVIDE
 70
    64
  3
____ . . ____ . . ____ . . ____ . . ____ . . __
 72
    65
 73
     6
 40
1.25
 49
0.5
 74
     0
 49
-0.25
 74
     0
 49
0.0
 74
     0
 49
-0.25
 74
     0
 49
0.0
 74
     0
 49
-0.25
 74
     0
  0
LTYPE
  5
1B
100
AcDbSymbolTableRecord
100
AcDbLinetypeTableRecord
  2
DOT
 70
    64
  3
. . . . . . . . . . . . . . . . . . . . . . . .
 72
    65
 73
     2
 40
0.25
 49
0.0
 74
     0
 49
-0.25
 74
     0
  0
ENDTAB
  0
TABLE
  2
LAYER
  5
2
100
AcDbSymbolTable
 70
   102
  0
LAYER
  5
F
100
AcDbSymbolTableRecord
100
AcDbLayerTableRecord
  2
0
 70
     0
 62
     7
  6
CONTINUOUS
  0
LAYER
  5
1C
100
AcDbSymbolTableRecord
100
AcDbLayerTableRecord
  2
DEFPOINTS
 70
     0
 62
     7
  6
CONTINUOUS
  0
LAYER
  5
1D
100
AcDbSymbolTableRecord
100
AcDbLayerTableRecord
  2
M0
 70
     0
 62
     3
  6
CONTINUOUS
  0
LAYER
  5
1E
100
AcDbSymbolTableRecord
100
AcDbLayerTableRecord
  2
M1
 70
     0
 62
     3
  6
CONTINUOUS
  0
LAYER
  5
1F
100
AcDbSymbolTableRecord
100
AcDbLayerTableRecord
  2
DD0
 70
     0
 62
     4
  6
CONTINUOUS
  0
ENDTAB
  0
TABLE
  2
STYLE
  5
3
100
AcDbSymbolTable
 70
     2
  0
STYLE
  5
10
100
AcDbSymbolTableRecord
100
AcDbTextStyleTableRecord
  2
STANDARD
 70
     0
 40
0.0
 41
1.0
 50
0.0
 71
     0
 42
0.2
  3
txt
  4
BIGFONT
  0
ENDTAB
  0
TABLE
  2
VIEW
  5
6
100
AcDbSymbolTable
 70
     0
  0
ENDTAB
  0
TABLE
  2
UCS
  5
7
100
AcDbSymbolTable
 70
     0
  0
ENDTAB
  0
TABLE
  2
APPID
  5
9
100
AcDbSymbolTable
 70
     1
  0
APPID
  5
11
100
AcDbSymbolTableRecord
100
AcDbRegAppTableRecord
  2
ACAD
 70
     0
  0
ENDTAB
  0
TABLE
  2
DIMSTYLE
  5
A
100
AcDbSymbolTable
 70
     2
  0
DIMSTYLE
105
26
100
AcDbSymbolTableRecord
100
AcDbDimStyleTableRecord
  2
STANDARD
 70
     0
  3

  4

  5

  6
_OPEN
  7
_OPEN
 40
1.0
 41
7.5
 42
1.0
 43
8.0
 44
1.0
 45
0.0
 46
0.0
 47
0.0
 48
0.0
140
7.875
141
0.09
142
0.0
143
0.03937
144
1.0
145
0.0
146
1.0
147
0.6
 71
     0
 72
     0
 73
     1
 74
     1
 75
     0
 76
     0
 77
     3
 78
     8
170
     0
171
     2
172
     0
173
     1
174
     0
175
     0
176
     0
177
     0
178
     0
270
     2
271
     2
272
     4
273
     2
274
     2
340
10
275
     0
280
     0
281
     0
282
     0
283
     1
284
     0
285
     0
286
     0
287
     3
288
     0
  0
DIMSTYLE
105
27
100
AcDbSymbolTableRecord
100
AcDbDimStyleTableRecord
  2
LEADSTYL
 70
     0
  3

  4

  5

  6
_OPEN
  7
_OPEN
 40
1.0
 41
7.5
 42
0.0625
 43
0.38
 44
0.18
 45
0.0
 46
0.0
 47
0.0
 48
0.0
140
7.875
141
0.09
142
0.0
143
25.4
144
1.0
145
0.0
146
1.0
147
0.6
 71
     0
 72
     0
 73
     1
 74
     1
 75
     0
 76
     0
 77
     0
 78
     0
170
     0
171
     2
172
     0
173
     1
174
     0
175
     0
176
     0
177
     0
178
     0
270
     2
271
     4
272
     4
273
     2
274
     2
340
10
275
     0
280
     0
281
     0
282
     0
283
     1
284
     0
285
     0
286
     0
287
     3
288
     0
  0
ENDTAB
  0
TABLE
  2
BLOCK_RECORD
  5
1
100
AcDbSymbolTable
 70
    15
  0
BLOCK_RECORD
  5
20
100
AcDbSymbolTableRecord
100
AcDbBlockTableRecord
  2
*MODEL_SPACE
  0
BLOCK_RECORD
  5
23
100
AcDbSymbolTableRecord
100
AcDbBlockTableRecord
  2
*PAPER_SPACE
  0
BLOCK_RECORD
  5
28
100
AcDbSymbolTableRecord
100
AcDbBlockTableRecord
  2
_NONE
  0
BLOCK_RECORD
  5
2C
100
AcDbSymbolTableRecord
100
AcDbBlockTableRecord
  2
_OPEN
  0
BLOCK_RECORD
  5
32
100
AcDbSymbolTableRecord
100
AcDbBlockTableRecord
  2
_CLOSED
  0
BLOCK_RECORD
  5
39
100
AcDbSymbolTableRecord
100
AcDbBlockTableRecord
  2
_ORIGIN
  0
BLOCK_RECORD
  5
3E
100
AcDbSymbolTableRecord
100
AcDbBlockTableRecord
  2
_DOT
  0
BLOCK_RECORD
  5
46
100
AcDbSymbolTableRecord
100
AcDbBlockTableRecord
  2
_OBLIQUE
  0
BLOCK_RECORD
  5
4A
100
AcDbSymbolTableRecord
100
AcDbBlockTableRecord
  2
DIMS0
  0
BLOCK_RECORD
  5
53
100
AcDbSymbolTableRecord
100
AcDbBlockTableRecord
  2
DIMS1
  0
BLOCK_RECORD
  5
5C
100
AcDbSymbolTableRecord
100
AcDbBlockTableRecord
  2
DIMS2
  0
BLOCK_RECORD
  5
68
100
AcDbSymbolTableRecord
100
AcDbBlockTableRecord
  2
DIMS3
  0
BLOCK_RECORD
  5
74
100
AcDbSymbolTableRecord
100
AcDbBlockTableRecord
  2
DIMS4
  0
BLOCK_RECORD
  5
80
100
AcDbSymbolTableRecord
100
AcDbBlockTableRecord
  2
DIMS5
  0
BLOCK_RECORD
  5
8C
100
AcDbSymbolTableRecord
100
AcDbBlockTableRecord
  2
DIMS6
  0
BLOCK_RECORD
  5
95
100
AcDbSymbolTableRecord
100
AcDbBlockTableRecord
  2
DIMS7
  0
BLOCK_RECORD
  5
A1
100
AcDbSymbolTableRecord
100
AcDbBlockTableRecord
  2
DIMS8
  0
ENDTAB
  0
ENDSEC
  0
SECTION
  2
BLOCKS
  0
BLOCK
  5
21
100
AcDbEntity
  8
0
100
AcDbBlockBegin
  2
*MODEL_SPACE
 70
     0
 10
0.0
 20
0.0
 30
0.0
  3
*MODEL_SPACE
  1

  0
ENDBLK
  5
22
100
AcDbEntity
  8
0
100
AcDbBlockEnd
  0
BLOCK
  5
24
100
AcDbEntity
 67
     1
  8
0
100
AcDbBlockBegin
  2
*PAPER_SPACE
 70
     0
 10
0.0
 20
0.0
 30
0.0
  3
*PAPER_SPACE
  1

  0
ENDBLK
  5
25
100
AcDbEntity
 67
     1
  8
0
100
AcDbBlockEnd
  0
BLOCK
  5
29
100
AcDbEntity
  8
0
100
AcDbBlockBegin
  2
_NONE
 70
     0
 10
0.0
 20
0.0
  0
CIRCLE
  5
2A
100
AcDbEntity
  8
0
 62
     0
100
AcDbCircle
 10
0.0
 20
0.0
 40
0.25
  0
ENDBLK
  5
2B
100
AcDbEntity
  8
0
100
AcDbBlockEnd
  0
BLOCK
  5
2D
100
AcDbEntity
  8
0
100
AcDbBlockBegin
  2
_OPEN
 70
     0
 10
0.0
 20
0.0
  0
LINE
  5
2E
100
AcDbEntity
  8
0
 62
     0
100
AcDbLine
 10
-0.965926
 20
0.258819
 11
0.0
 21
0.0
  0
LINE
  5
2F
100
AcDbEntity
  8
0
 62
     0
100
AcDbLine
 10
0.0
 20
0.0
 11
-0.965926
 21
-0.258819
  0
LINE
  5
30
100
AcDbEntity
  8
0
 62
     0
100
AcDbLine
 10
0.0
 20
0.0
 11
-1.0
 21
0.0
  0
ENDBLK
  5
31
100
AcDbEntity
  8
0
100
AcDbBlockEnd
  0
BLOCK
  5
33
100
AcDbEntity
  8
0
100
AcDbBlockBegin
  2
_CLOSED
 70
     0
 10
0.0
 20
0.0
  0
LINE
  5
34
100
AcDbEntity
  8
0
 62
     0
100
AcDbLine
 10
-0.965926
 20
0.258819
 11
0.0
 21
0.0
  0
LINE
  5
35
100
AcDbEntity
  8
0
 62
     0
100
AcDbLine
 10
0.0
 20
0.0
 11
-0.965926
 21
-0.258819
  0
LINE
  5
36
100
AcDbEntity
  8
0
 62
     0
100
AcDbLine
 10
-0.965926
 20
0.258819
 11
-0.965926
 21
-0.258819
  0
LINE
  5
37
100
AcDbEntity
  8
0
 62
     0
100
AcDbLine
 10
0.0
 20
0.0
 11
-1.0
 21
0.0
  0
ENDBLK
  5
38
100
AcDbEntity
  8
0
100
AcDbBlockEnd
  0
BLOCK
  5
3A
100
AcDbEntity
  8
0
100
AcDbBlockBegin
  2
_ORIGIN
 70
     0
 10
0.0
 20
0.0
  0
CIRCLE
  5
3B
100
AcDbEntity
  8
0
 62
     0
100
AcDbCircle
 10
0.0
 20
0.0
 40
0.5
  0
LINE
  5
3C
100
AcDbEntity
  8
0
 62
     0
100
AcDbLine
 10
0.0
 20
0.0
 11
-1.0
 21
0.0
  0
ENDBLK
  5
3D
100
AcDbEntity
  8
0
100
AcDbBlockEnd
  0
BLOCK
  5
3F
100
AcDbEntity
  8
0
100
AcDbBlockBegin
  2
_DOT
 70
     0
 10
0.0
 20
0.0
  0
POLYLINE
  5
40
100
AcDbEntity
  8
0
 62
     0
100
AcDb2dPolyline
 66
     1
 70
     1
 40
0.5
 41
0.5
  0
VERTEX
  5
41
100
AcDbEntity
  8
0
 62
     0
100
AcDbVertex
100
AcDb2dVertex
 10
-0.25
 20
0.0
 42
1.0
  0
VERTEX
  5
42
100
AcDbEntity
  8
0
 62
     0
100
AcDbVertex
100
AcDb2dVertex
 10
0.25
 20
0.0
 42
1.0
  0
SEQEND
  5
43
100
AcDbEntity
  8
0
 62
     0
  0
LINE
  5
44
100
AcDbEntity
  8
0
 62
     0
100
AcDbLine
 10
-0.5
 20
0.0
 11
-1.0
 21
0.0
  0
ENDBLK
  5
45
100
AcDbEntity
  8
0
100
AcDbBlockEnd
  0
BLOCK
  5
47
100
AcDbEntity
  8
0
100
AcDbBlockBegin
  2
_OBLIQUE
 70
     0
 10
0.0
 20
0.0
  0
LINE
  5
48
100
AcDbEntity
  8
0
 62
     0
100
AcDbLine
 10
-0.353553
 20
-0.353553
 11
0.353553
 21
0.353553
  0
ENDBLK
  5
49
100
AcDbEntity
  8
0
100
AcDbBlockEnd
  0
BLOCK
  5
4B
100
AcDbEntity
  8
DD0
100
AcDbBlockBegin
  2
DIMS0
 70
     0
 10
0.0
 20
0.0
  0
LINE
  5
4C
100
AcDbEntity
  8
DD0
100
AcDbLine
 10
213.642556
 20
424.596742
 11
288.506675
 21
424.596742
  0
LINE
  5
4D
100
AcDbEntity
  8
DD0
100
AcDbLine
 10
284.065532
 20
431.841186
 11
286.006675
 21
424.596742
  0
LINE
  5
4E
100
AcDbEntity
  8
DD0
100
AcDbLine
 10
286.006675
 20
424.596742
 11
287.947818
 21
431.841186
  0
LINE
  5
4F
100
AcDbEntity
  8
DD0
100
AcDbLine
 10
286.006675
 20
591.596747
 11
286.006675
 21
424.596742
  0
TEXT
  5
50
100
AcDbEntity
  8
DD0
100
AcDbText
 10
283.506675
 20
493.942581
 40
10.0
  1
１６７
 50
90.000003
 41
0.833333
  7
STANDARD
100
AcDbText
  0
ENDBLK
  5
51
100
AcDbEntity
  8
DD0
100
AcDbBlockEnd
  0
BLOCK
  5
54
100
AcDbEntity
  8
DD0
100
AcDbBlockBegin
  2
DIMS1
 70
     0
 10
0.0
 20
0.0
  0
LINE
  5
55
100
AcDbEntity
  8
DD0
100
AcDbLine
 10
150.642765
 20
414.596742
 11
288.506675
 21
414.596742
  0
LINE
  5
56
100
AcDbEntity
  8
DD0
100
AcDbLine
 10
287.947818
 20
407.352299
 11
286.006675
 21
414.596742
  0
LINE
  5
57
100
AcDbEntity
  8
DD0
100
AcDbLine
 10
286.006675
 20
414.596742
 11
284.065532
 21
407.352299
  0
LINE
  5
58
100
AcDbEntity
  8
DD0
100
AcDbLine
 10
286.006675
 20
424.596742
 11
286.006675
 21
383.846742
  0
TEXT
  5
59
100
AcDbEntity
  8
DD0
100
AcDbText
 10
283.506675
 20
385.767571
 40
10.0
  1
１０
 50
90.000003
 41
0.833333
  7
STANDARD
100
AcDbText
  0
ENDBLK
  5
5A
100
AcDbEntity
  8
DD0
100
AcDbBlockEnd
  0
BLOCK
  5
5D
100
AcDbEntity
  8
DD0
100
AcDbBlockBegin
  2
DIMS2
 70
     0
 10
0.0
 20
0.0
  0
LINE
  5
5E
100
AcDbEntity
  8
DD0
100
AcDbLine
 10
64.14276
 20
581.096488
 11
64.14276
 21
640.629873
  0
LINE
  5
5F
100
AcDbEntity
  8
DD0
100
AcDbLine
 10
224.142567
 20
581.096259
 11
224.142567
 21
640.629873
  0
LINE
  5
60
100
AcDbEntity
  8
DD0
100
AcDbLine
 10
71.387204
 20
640.071016
 11
64.14276
 21
638.129873
  0
LINE
  5
61
100
AcDbEntity
  8
DD0
100
AcDbLine
 10
64.14276
 20
638.129873
 11
71.387204
 21
636.18873
  0
LINE
  5
62
100
AcDbEntity
  8
DD0
100
AcDbLine
 10
216.898124
 20
636.18873
 11
224.142567
 21
638.129873
  0
LINE
  5
63
100
AcDbEntity
  8
DD0
100
AcDbLine
 10
224.142567
 20
638.129873
 11
216.898124
 21
640.071016
  0
LINE
  5
64
100
AcDbEntity
  8
DD0
100
AcDbLine
 10
64.14276
 20
638.129873
 11
224.142567
 21
638.129873
  0
TEXT
  5
65
100
AcDbEntity
  8
DD0
100
AcDbText
 10
129.9885
 20
640.629873
 40
10.0
  1
１６０
 41
0.833333
  7
STANDARD
100
AcDbText
  0
ENDBLK
  5
66
100
AcDbEntity
  8
DD0
100
AcDbBlockEnd
  0
BLOCK
  5
69
100
AcDbEntity
  8
DD0
100
AcDbBlockBegin
  2
DIMS3
 70
     0
 10
0.0
 20
0.0
  0
LINE
  5
6A
100
AcDbEntity
  8
DD0
100
AcDbLine
 10
190.142571
 20
594.596511
 11
288.506675
 21
594.596511
  0
LINE
  5
6B
100
AcDbEntity
  8
DD0
100
AcDbLine
 10
213.642556
 20
591.596747
 11
288.506675
 21
591.596747
  0
LINE
  5
6C
100
AcDbEntity
  8
DD0
100
AcDbLine
 10
284.065532
 20
601.840954
 11
286.006675
 21
594.596511
  0
LINE
  5
6D
100
AcDbEntity
  8
DD0
100
AcDbLine
 10
286.006675
 20
594.596511
 11
287.947818
 21
601.840954
  0
LINE
  5
6E
100
AcDbEntity
  8
DD0
100
AcDbLine
 10
287.947818
 20
584.352304
 11
286.006675
 21
591.596747
  0
LINE
  5
6F
100
AcDbEntity
  8
DD0
100
AcDbLine
 10
286.006675
 20
591.596747
 11
284.065532
 21
584.352304
  0
LINE
  5
70
100
AcDbEntity
  8
DD0
100
AcDbLine
 10
286.006675
 20
615.346511
 11
286.006675
 21
583.346747
  0
TEXT
  5
71
100
AcDbEntity
  8
DD0
100
AcDbText
 10
283.506675
 20
603.692335
 40
10.0
  1
３
 50
90.000003
 41
0.833333
  7
STANDARD
100
AcDbText
  0
ENDBLK
  5
72
100
AcDbEntity
  8
DD0
100
AcDbBlockEnd
  0
BLOCK
  5
75
100
AcDbEntity
  8
DD0
100
AcDbBlockBegin
  2
DIMS4
 70
     0
 10
0.0
 20
0.0
  0
LINE
  5
76
100
AcDbEntity
  8
DD0
100
AcDbLine
 10
228.157422
 20
575.596763
 11
265.942932
 21
575.596763
  0
LINE
  5
77
100
AcDbEntity
  8
DD0
100
AcDbLine
 10
229.657399
 20
440.596269
 11
265.942932
 21
440.596269
  0
LINE
  5
78
100
AcDbEntity
  8
DD0
100
AcDbLine
 10
265.384075
 20
568.352319
 11
263.442932
 21
575.596763
  0
LINE
  5
79
100
AcDbEntity
  8
DD0
100
AcDbLine
 10
263.442932
 20
575.596763
 11
261.501789
 21
568.352319
  0
LINE
  5
7A
100
AcDbEntity
  8
DD0
100
AcDbLine
 10
261.501789
 20
447.840712
 11
263.442932
 21
440.596269
  0
LINE
  5
7B
100
AcDbEntity
  8
DD0
100
AcDbLine
 10
263.442932
 20
440.596269
 11
265.384075
 21
447.840712
  0
LINE
  5
7C
100
AcDbEntity
  8
DD0
100
AcDbLine
 10
263.442932
 20
575.596763
 11
263.442932
 21
440.596269
  0
TEXT
  5
7D
100
AcDbEntity
  8
DD0
100
AcDbText
 10
260.942932
 20
493.942352
 40
10.0
  1
１３５
 50
90.000003
 41
0.833333
  7
STANDARD
100
AcDbText
  0
ENDBLK
  5
7E
100
AcDbEntity
  8
DD0
100
AcDbBlockEnd
  0
BLOCK
  5
81
100
AcDbEntity
  8
DD0
100
AcDbBlockBegin
  2
DIMS5
 70
     0
 10
0.0
 20
0.0
  0
LINE
  5
82
100
AcDbEntity
  8
DD0
100
AcDbLine
 10
79.143065
 20
591.111747
 11
79.143065
 21
621.942435
  0
LINE
  5
83
100
AcDbEntity
  8
DD0
100
AcDbLine
 10
209.142415
 20
594.611769
 11
209.142415
 21
621.942435
  0
LINE
  5
84
100
AcDbEntity
  8
DD0
100
AcDbLine
 10
86.387509
 20
621.383577
 11
79.143065
 21
619.442435
  0
LINE
  5
85
100
AcDbEntity
  8
DD0
100
AcDbLine
 10
79.143065
 20
619.442435
 11
86.387509
 21
617.501292
  0
LINE
  5
86
100
AcDbEntity
  8
DD0
100
AcDbLine
 10
201.897971
 20
617.501292
 11
209.142415
 21
619.442435
  0
LINE
  5
87
100
AcDbEntity
  8
DD0
100
AcDbLine
 10
209.142415
 20
619.442435
 11
201.897971
 21
621.383577
  0
LINE
  5
88
100
AcDbEntity
  8
DD0
100
AcDbLine
 10
79.143065
 20
619.442435
 11
209.142415
 21
619.442435
  0
TEXT
  5
89
100
AcDbEntity
  8
DD0
100
AcDbText
 10
129.988576
 20
621.942435
 40
10.0
  1
１３０
 41
0.833333
  7
STANDARD
100
AcDbText
  0
ENDBLK
  5
8A
100
AcDbEntity
  8
DD0
100
AcDbBlockEnd
  0
BLOCK
  5
8D
100
AcDbEntity
  8
DD0
100
AcDbBlockBegin
  2
DIMS6
 70
     0
 10
0.0
 20
0.0
  0
LINE
  5
8E
100
AcDbEntity
  8
DD0
100
AcDbLine
 10
212.840115
 20
585.345797
 11
210.709931
 21
578.15467
  0
LINE
  5
8F
100
AcDbEntity
  8
DD0
100
AcDbLine
 10
210.709931
 20
578.15467
 11
216.150288
 21
583.317277
  0
LINE
  5
90
100
AcDbEntity
  8
DD0
100
AcDbLine
 10
210.709931
 20
578.15467
 11
247.463642
 21
638.129988
  0
LINE
  5
91
100
AcDbEntity
  8
DD0
100
AcDbLine
 10
247.463642
 20
638.129988
 11
353.963656
 21
638.129988
  0
TEXT
  5
92
100
AcDbEntity
  8
DD0
100
AcDbText
 10
250.809516
 20
642.879782
 40
10.0
  1
４－Ｍ４ねじ取付穴
 41
0.833333
  7
STANDARD
100
AcDbText
  0
ENDBLK
  5
93
100
AcDbEntity
  8
DD0
100
AcDbBlockEnd
  0
BLOCK
  5
96
100
AcDbEntity
  8
DD0
100
AcDbBlockBegin
  2
DIMS7
 70
     0
 10
0.0
 20
0.0
  0
LINE
  5
97
100
AcDbEntity
  8
DD0
100
AcDbLine
 10
341.117282
 20
586.596518
 11
341.117282
 21
621.942435
  0
LINE
  5
98
100
AcDbEntity
  8
DD0
100
AcDbLine
 10
438.120454
 20
588.096495
 11
438.120454
 21
621.942435
  0
LINE
  5
99
100
AcDbEntity
  8
DD0
100
AcDbLine
 10
348.361725
 20
621.383577
 11
341.117282
 21
619.442435
  0
LINE
  5
9A
100
AcDbEntity
  8
DD0
100
AcDbLine
 10
341.117282
 20
619.442435
 11
348.361725
 21
617.501292
  0
LINE
  5
9B
100
AcDbEntity
  8
DD0
100
AcDbLine
 10
430.87601
 20
617.501292
 11
438.120454
 21
619.442435
  0
LINE
  5
9C
100
AcDbEntity
  8
DD0
100
AcDbLine
 10
438.120454
 20
619.442435
 11
430.87601
 21
621.383577
  0
LINE
  5
9D
100
AcDbEntity
  8
DD0
100
AcDbLine
 10
341.117282
 20
619.442435
 11
438.120454
 21
619.442435
  0
TEXT
  5
9E
100
AcDbEntity
  8
DD0
100
AcDbText
 10
380.464685
 20
621.942435
 40
10.0
  1
９７
 41
0.833333
  7
STANDARD
100
AcDbText
  0
ENDBLK
  5
9F
100
AcDbEntity
  8
DD0
100
AcDbBlockEnd
  0
BLOCK
  5
A2
100
AcDbEntity
  8
DD0
100
AcDbBlockBegin
  2
DIMS8
 70
     0
 10
0.0
 20
0.0
  0
LINE
  5
A3
100
AcDbEntity
  8
DD0
100
AcDbLine
 10
429.875988
 20
458.860127
 11
437.120431
 21
460.80127
  0
LINE
  5
A4
100
AcDbEntity
  8
DD0
100
AcDbLine
 10
437.120431
 20
460.80127
 11
429.875988
 21
462.742413
  0
LINE
  5
A5
100
AcDbEntity
  8
DD0
100
AcDbLine
 10
445.364898
 20
462.742413
 11
438.120454
 21
460.80127
  0
LINE
  5
A6
100
AcDbEntity
  8
DD0
100
AcDbLine
 10
438.120454
 20
460.80127
 11
445.364898
 21
458.860127
  0
LINE
  5
A7
100
AcDbEntity
  8
DD0
100
AcDbLine
 10
428.870431
 20
460.80127
 11
491.066468
 21
460.80127
  0
TEXT
  5
A8
100
AcDbEntity
  8
DD0
100
AcDbText
 10
449.411942
 20
463.302813
 40
10.0
  1
ｔ０．８
 50
0.007875
 41
0.833333
  7
STANDARD
100
AcDbText
  0
ENDBLK
  5
A9
100
AcDbEntity
  8
DD0
100
AcDbBlockEnd
  0
ENDSEC
  0
SECTION
  2
ENTITIES
  0
INSERT
  5
52
100
AcDbEntity
  8
DD0
100
AcDbBlockReference
  2
DIMS0
 10
0.0
 20
0.0
  0
INSERT
  5
5B
100
AcDbEntity
  8
DD0
100
AcDbBlockReference
  2
DIMS1
 10
0.0
 20
0.0
  0
INSERT
  5
67
100
AcDbEntity
  8
DD0
100
AcDbBlockReference
  2
DIMS2
 10
0.0
 20
0.0
  0
INSERT
  5
73
100
AcDbEntity
  8
DD0
100
AcDbBlockReference
  2
DIMS3
 10
0.0
 20
0.0
  0
INSERT
  5
7F
100
AcDbEntity
  8
DD0
100
AcDbBlockReference
  2
DIMS4
 10
0.0
 20
0.0
  0
INSERT
  5
8B
100
AcDbEntity
  8
DD0
100
AcDbBlockReference
  2
DIMS5
 10
0.0
 20
0.0
  0
INSERT
  5
94
100
AcDbEntity
  8
DD0
100
AcDbBlockReference
  2
DIMS6
 10
0.0
 20
0.0
  0
INSERT
  5
A0
100
AcDbEntity
  8
DD0
100
AcDbBlockReference
  2
DIMS7
 10
0.0
 20
0.0
  0
INSERT
  5
AA
100
AcDbEntity
  8
DD0
100
AcDbBlockReference
  2
DIMS8
 10
0.0
 20
0.0
  0
LINE
  5
AB
100
AcDbEntity
  8
M0
100
AcDbLine
 10
77.142761
 20
424.596751
 11
211.142562
 21
424.596751
  0
LINE
  5
AC
100
AcDbEntity
  8
M0
100
AcDbLine
 10
224.142562
 20
437.596507
 11
224.142562
 21
578.596262
  0
LINE
  5
AD
100
AcDbEntity
  8
M0
100
AcDbLine
 10
211.142562
 20
591.596751
 11
77.142761
 21
591.596507
  0
LINE
  5
AE
100
AcDbEntity
  8
M0
100
AcDbLine
 10
64.142761
 20
578.596507
 11
64.142761
 21
437.596751
  0
LINE
  5
AF
100
AcDbEntity
  8
M0
  6
DASHDOT
100
AcDbLine
 10
45.257385
 20
508.096751
 11
241.29631
 21
508.096751
  0
LINE
  5
B0
100
AcDbEntity
  8
M0
  6
DASHDOT
100
AcDbLine
 10
144.142761
 20
405.901301
 11
144.142761
 21
606.635874
  0
ARC
  5
B1
100
AcDbEntity
  8
M0
100
AcDbCircle
 10
77.142761
 20
578.596507
 40
13.0
100
AcDbArc
 50
89.999933
 51
180.0
  0
ARC
  5
B2
100
AcDbEntity
  8
M0
100
AcDbCircle
 10
77.142761
 20
437.596751
 40
13.0
100
AcDbArc
 50
179.999933
 51
270.0
  0
ARC
  5
B3
100
AcDbEntity
  8
M0
100
AcDbCircle
 10
211.142562
 20
437.596751
 40
13.0
100
AcDbArc
 50
269.999933
 51
360.0
  0
ARC
  5
B4
100
AcDbEntity
  8
M0
100
AcDbCircle
 10
211.142562
 20
578.596507
 40
13.0
100
AcDbArc
 50
0.0
 51
90.0
  0
LINE
  5
B5
100
AcDbEntity
  8
M0
100
AcDbLine
 10
187.642562
 20
594.596507
 11
175.642562
 21
594.596507
  0
LINE
  5
B6
100
AcDbEntity
  8
M0
100
AcDbLine
 10
187.642562
 20
594.596751
 11
187.642562
 21
591.596507
  0
LINE
  5
B7
100
AcDbEntity
  8
M0
100
AcDbLine
 10
175.642562
 20
594.596751
 11
175.642562
 21
591.596507
  0
LINE
  5
B8
100
AcDbEntity
  8
M0
100
AcDbLine
 10
112.643081
 20
594.596751
 11
112.643081
 21
591.596507
  0
LINE
  5
B9
100
AcDbEntity
  8
M0
100
AcDbLine
 10
100.643081
 20
594.596751
 11
100.643081
 21
591.596507
  0
LINE
  5
BA
100
AcDbEntity
  8
M0
100
AcDbLine
 10
112.643081
 20
594.596507
 11
100.643081
 21
594.596262
  0
LINE
  5
BB
100
AcDbEntity
  8
M0
100
AcDbLine
 10
140.142761
 20
414.596751
 11
148.142761
 21
414.596751
  0
LINE
  5
BC
100
AcDbEntity
  8
M0
100
AcDbLine
 10
148.142761
 20
424.596751
 11
148.142761
 21
414.596751
  0
LINE
  5
BD
100
AcDbEntity
  8
M0
100
AcDbLine
 10
140.142761
 20
424.596751
 11
140.142761
 21
414.596751
  0
LINE
  5
BE
100
AcDbEntity
  8
M0
  6
DASHED
100
AcDbLine
 10
192.627395
 20
575.596751
 11
225.657424
 21
575.596751
  0
LINE
  5
BF
100
AcDbEntity
  8
M0
  6
DASHED
100
AcDbLine
 10
209.14241
 20
559.081736
 11
209.14241
 21
592.111765
  0
ARC
  5
C0
100
AcDbEntity
  8
M0
  6
DASHED
100
AcDbCircle
 10
209.14241
 20
575.596751
 40
3.0
100
AcDbArc
 50
0.0
 51
179.999964
  0
ARC
  5
C1
100
AcDbEntity
  8
M0
  6
DASHED
100
AcDbCircle
 10
209.14241
 20
568.596751
 40
5.0
100
AcDbArc
 50
126.869889
 51
413.130096
  0
LINE
  5
C2
100
AcDbEntity
  8
M0
  6
DASHED
100
AcDbLine
 10
189.127395
 20
568.596751
 11
229.157424
 21
568.596751
  0
LINE
  5
C3
100
AcDbEntity
  8
M0
  6
DASHED
100
AcDbLine
 10
209.14241
 20
548.581736
 11
209.14241
 21
588.611765
  0
LINE
  5
C4
100
AcDbEntity
  8
M0
  6
DASHED
100
AcDbLine
 10
206.14241
 20
575.596751
 11
206.14241
 21
572.596751
  0
LINE
  5
C5
100
AcDbEntity
  8
M0
  6
DASHED
100
AcDbLine
 10
212.14241
 20
575.596751
 11
212.14241
 21
572.596751
  0
CIRCLE
  5
C6
100
AcDbEntity
  8
M0
  6
DASHED
100
AcDbCircle
 10
79.142761
 20
440.596751
 40
3.0
  0
LINE
  5
C7
100
AcDbEntity
  8
M0
  6
DASHED
100
AcDbLine
 10
61.127746
 20
440.596751
 11
97.157775
 21
440.596751
  0
LINE
  5
C8
100
AcDbEntity
  8
M0
  6
DASHED
100
AcDbLine
 10
79.142761
 20
422.581736
 11
79.142761
 21
458.611765
  0
CIRCLE
  5
C9
100
AcDbEntity
  8
M0
  6
DASHED
100
AcDbCircle
 10
209.14241
 20
440.596262
 40
3.0
  0
LINE
  5
CA
100
AcDbEntity
  8
M0
  6
DASHED
100
AcDbLine
 10
227.157394
 20
440.596251
 11
191.127426
 21
440.596274
  0
LINE
  5
CB
100
AcDbEntity
  8
M0
  6
DASHED
100
AcDbLine
 10
209.142398
 20
422.581278
 11
209.142421
 21
458.611247
  0
ARC
  5
CC
100
AcDbEntity
  8
M0
  6
DASHED
100
AcDbCircle
 10
79.143051
 20
568.596751
 40
5.0
100
AcDbArc
 50
-233.130166
 51
53.130072
  0
LINE
  5
CD
100
AcDbEntity
  8
M0
  6
DASHED
100
AcDbLine
 10
99.158035
 20
568.596738
 11
59.128067
 21
568.596763
  0
LINE
  5
CE
100
AcDbEntity
  8
M0
  6
DASHED
100
AcDbLine
 10
79.143038
 20
548.581767
 11
79.143063
 21
588.611735
  0
LINE
  5
CF
100
AcDbEntity
  8
M0
  6
DASHED
100
AcDbLine
 10
82.143054
 20
575.596749
 11
82.143053
 21
572.596749
  0
LINE
  5
D0
100
AcDbEntity
  8
M0
  6
DASHED
100
AcDbLine
 10
76.143056
 20
575.596751
 11
76.143054
 21
572.596751
  0
LINE
  5
D1
100
AcDbEntity
  8
M0
  6
DASHED
100
AcDbLine
 10
95.658065
 20
575.59674
 11
62.628097
 21
575.596761
  0
LINE
  5
D2
100
AcDbEntity
  8
M0
  6
DASHED
100
AcDbLine
 10
79.143071
 20
559.081767
 11
79.143092
 21
592.111735
  0
ARC
  5
D3
100
AcDbEntity
  8
M0
  6
DASHED
100
AcDbCircle
 10
79.143081
 20
575.596751
 40
3.0
100
AcDbArc
 50
0.0
 51
179.999964
  0
LINE
  5
D4
100
AcDbEntity
  8
M0
100
AcDbLine
 10
391.117263
 20
426.596751
 11
434.120437
 21
426.596751
  0
LINE
  5
D5
100
AcDbEntity
  8
M0
100
AcDbLine
 10
438.120437
 20
430.596751
 11
438.120437
 21
585.596507
  0
LINE
  5
D6
100
AcDbEntity
  8
M0
100
AcDbLine
 10
434.120437
 20
589.596751
 11
391.117263
 21
589.596507
  0
LINE
  5
D7
100
AcDbEntity
  8
M0
100
AcDbLine
 10
381.120437
 20
588.101878
 11
381.120437
 21
427.908274
  0
LINE
  5
D8
100
AcDbEntity
  8
M0
100
AcDbLine
 10
386.320388
 20
597.596018
 11
387.120437
 21
597.596018
  0
LINE
  5
D9
100
AcDbEntity
  8
M0
100
AcDbLine
 10
387.120437
 20
597.596018
 11
387.120437
 21
591.596262
  0
LINE
  5
DA
100
AcDbEntity
  8
M0
100
AcDbLine
 10
386.320388
 20
597.596018
 11
386.320388
 21
591.596262
  0
LINE
  5
DB
100
AcDbEntity
  8
M0
  6
DASHED
100
AcDbLine
 10
437.120437
 20
588.242014
 11
437.120437
 21
427.950999
  0
ARC
  5
DC
100
AcDbEntity
  8
M0
100
AcDbCircle
 10
434.120437
 20
430.596751
 40
4.0
100
AcDbArc
 50
269.999781
 51
360.0
  0
ARC
  5
DD
100
AcDbEntity
  8
M0
100
AcDbCircle
 10
434.120437
 20
585.596507
 40
4.0
100
AcDbArc
 50
0.0
 51
90.0
  0
LINE
  5
DE
100
AcDbEntity
  8
M0
  6
DASHDOT
100
AcDbLine
 10
386.120437
 20
408.941935
 11
386.120437
 21
431.421076
  0
LINE
  5
DF
100
AcDbEntity
  8
M0
100
AcDbLine
 10
382.120437
 20
414.596262
 11
390.120437
 21
414.596262
  0
LINE
  5
E0
100
AcDbEntity
  8
M0
100
AcDbLine
 10
390.120437
 20
424.596507
 11
390.120437
 21
414.596262
  0
LINE
  5
E1
100
AcDbEntity
  8
M0
100
AcDbLine
 10
382.120437
 20
426.340891
 11
382.120437
 21
414.596262
  0
LINE
  5
E2
100
AcDbEntity
  8
M0
100
AcDbLine
 10
196.513992
 20
192.349924
 11
208.772048
 21
192.349924
  0
LINE
  5
E3
100
AcDbEntity
  8
M0
100
AcDbLine
 10
197.513748
 20
189.849924
 11
207.772048
 21
189.849924
  0
LINE
  5
E4
100
AcDbEntity
  8
M0
100
AcDbLine
 10
198.513748
 20
187.349924
 11
206.772048
 21
187.349924
  0
LINE
  5
E5
100
AcDbEntity
  8
M0
100
AcDbLine
 10
391.117263
 20
424.596507
 11
391.117263
 21
591.596507
  0
LINE
  5
E6
100
AcDbEntity
  8
M0
100
AcDbLine
 10
391.117263
 20
591.596507
 11
383.697586
 21
591.596507
  0
LINE
  5
E7
100
AcDbEntity
  8
M0
100
AcDbLine
 10
341.117263
 20
584.096507
 11
341.117263
 21
432.096507
  0
LINE
  5
E8
100
AcDbEntity
  8
M0
100
AcDbLine
 10
345.117263
 20
588.096507
 11
380.536697
 21
588.096507
  0
LINE
  5
E9
100
AcDbEntity
  8
M0
100
AcDbLine
 10
382.829177
 20
591.092356
 11
381.405105
 21
588.600169
  0
ARC
  5
EA
100
AcDbEntity
  8
M0
100
AcDbCircle
 10
383.697586
 20
590.596262
 40
1.0
100
AcDbArc
 50
90.0
 51
150.262492
  0
ARC
  5
EB
100
AcDbEntity
  8
M0
100
AcDbCircle
 10
380.536697
 20
589.096507
 40
1.0
100
AcDbArc
 50
270.0
 51
330.249236
  0
ARC
  5
EC
100
AcDbEntity
  8
M0
100
AcDbCircle
 10
345.117263
 20
584.096507
 40
4.0
100
AcDbArc
 50
89.999781
 51
180.0
  0
LINE
  5
ED
100
AcDbEntity
  8
M0
100
AcDbLine
 10
391.117263
 20
424.596507
 11
382.120437
 21
424.596262
  0
LINE
  5
EE
100
AcDbEntity
  8
M0
100
AcDbLine
 10
345.117263
 20
428.096507
 11
380.536697
 21
428.096507
  0
LINE
  5
EF
100
AcDbEntity
  8
M0
100
AcDbLine
 10
382.829177
 20
425.100657
 11
381.405105
 21
427.592844
  0
ARC
  5
F0
100
AcDbEntity
  8
M0
100
AcDbCircle
 10
383.697586
 20
425.596751
 40
1.0
100
AcDbArc
 50
209.737508
 51
269.999126
  0
ARC
  5
F1
100
AcDbEntity
  8
M0
100
AcDbCircle
 10
380.536697
 20
427.096507
 40
1.0
100
AcDbArc
 50
29.750764
 51
90.0
  0
ARC
  5
F2
100
AcDbEntity
  8
M0
100
AcDbCircle
 10
345.117263
 20
432.096507
 40
4.0
100
AcDbArc
 50
179.999781
 51
270.0
  0
LINE
  5
F3
100
AcDbEntity
  8
M0
100
AcDbLine
 10
64.142761
 20
270.392161
 11
224.142761
 21
270.392161
  0
LINE
  5
F4
100
AcDbEntity
  8
M0
100
AcDbLine
 10
224.142654
 20
270.392161
 11
224.142654
 21
279.391673
  0
LINE
  5
F5
100
AcDbEntity
  8
M0
100
AcDbLine
 10
217.642654
 20
320.392161
 11
70.642761
 21
320.391917
  0
LINE
  5
F6
100
AcDbEntity
  8
M0
100
AcDbLine
 10
64.142761
 20
279.392161
 11
64.142761
 21
270.392161
  0
LINE
  5
F7
100
AcDbEntity
  8
M0
  6
DASHDOT
100
AcDbLine
 10
144.142761
 20
212.173304
 11
144.142761
 21
335.407175
  0
LINE
  5
F8
100
AcDbEntity
  8
M0
100
AcDbLine
 10
66.642761
 20
316.391917
 11
66.642761
 21
281.392161
  0
LINE
  5
F9
100
AcDbEntity
  8
M0
100
AcDbLine
 10
221.642654
 20
281.391917
 11
221.642654
 21
316.391673
  0
LINE
  5
FA
100
AcDbEntity
  8
M0
100
AcDbLine
 10
65.142761
 20
280.392161
 11
65.642761
 21
280.392161
  0
ARC
  5
FB
100
AcDbEntity
  8
M0
100
AcDbCircle
 10
70.642761
 20
316.391917
 40
4.0
100
AcDbArc
 50
89.999781
 51
180.0
  0
ARC
  5
FC
100
AcDbEntity
  8
M0
100
AcDbCircle
 10
217.642654
 20
316.391917
 40
4.0
100
AcDbArc
 50
0.0
 51
90.0
  0
ARC
  5
FD
100
AcDbEntity
  8
M0
100
AcDbCircle
 10
65.142761
 20
279.392161
 40
1.0
100
AcDbArc
 50
89.999126
 51
179.999945
  0
ARC
  5
FE
100
AcDbEntity
  8
M0
100
AcDbCircle
 10
65.642761
 20
281.392161
 40
1.0
100
AcDbArc
 50
270.0
 51
360.0
  0
LINE
  5
FF
100
AcDbEntity
  8
M0
100
AcDbLine
 10
68.336471
 20
281.392161
 11
220.148162
 21
281.392161
  0
ARC
  5
100
100
AcDbEntity
  8
M0
100
AcDbCircle
 10
222.642654
 20
281.391917
 40
1.0
100
AcDbArc
 50
179.999945
 51
269.999126
  0
LINE
  5
101
100
AcDbEntity
  8
M0
100
AcDbLine
 10
223.142654
 20
280.391917
 11
222.642654
 21
280.391917
  0
ARC
  5
102
100
AcDbEntity
  8
M0
100
AcDbCircle
 10
223.142654
 20
279.391917
 40
1.0
100
AcDbArc
 50
0.0
 51
90.0
  0
LINE
  5
103
100
AcDbEntity
  8
M0
100
AcDbLine
 10
69.642761
 20
223.393885
 11
218.642593
 21
223.393885
  0
LINE
  5
104
100
AcDbEntity
  8
M0
100
AcDbLine
 10
222.642364
 20
227.39387
 11
222.642364
 21
270.392161
  0
LINE
  5
105
100
AcDbEntity
  8
M0
100
AcDbLine
 10
65.642761
 20
270.392161
 11
65.642761
 21
227.39387
  0
LINE
  5
106
100
AcDbEntity
  8
M0
100
AcDbLine
 10
145.142761
 20
233.631876
 11
145.142761
 21
237.439417
  0
LINE
  5
107
100
AcDbEntity
  8
M0
100
AcDbLine
 10
143.142761
 20
233.631876
 11
143.142761
 21
237.439417
  0
LINE
  5
108
100
AcDbEntity
  8
M0
100
AcDbLine
 10
145.142761
 20
259.348307
 11
145.142761
 21
263.383524
  0
LINE
  5
109
100
AcDbEntity
  8
M0
100
AcDbLine
 10
143.142761
 20
259.348307
 11
143.142761
 21
263.383524
  0
ARC
  5
10A
100
AcDbEntity
  8
M0
100
AcDbCircle
 10
69.642761
 20
227.393885
 40
4.0
100
AcDbArc
 50
179.999781
 51
270.0
  0
ARC
  5
10B
100
AcDbEntity
  8
M0
100
AcDbCircle
 10
218.642593
 20
227.393885
 40
4.0
100
AcDbArc
 50
269.999781
 51
360.0
  0
ARC
  5
10C
100
AcDbEntity
  8
M0
100
AcDbCircle
 10
69.642761
 20
227.393885
 40
4.0
100
AcDbArc
 50
179.999781
 51
270.0
  0
ARC
  5
10D
100
AcDbEntity
  8
M0
100
AcDbCircle
 10
218.642593
 20
227.393885
 40
4.0
100
AcDbArc
 50
269.999781
 51
360.0
  0
ARC
  5
10E
100
AcDbEntity
  8
M0
100
AcDbCircle
 10
104.142761
 20
248.39387
 40
10.999996
100
AcDbArc
 50
275.21591
 51
444.78401
  0
LINE
  5
10F
100
AcDbEntity
  8
M0
  6
DASHDOT
100
AcDbLine
 10
104.142761
 20
230.954401
 11
104.142761
 21
266.058802
  0
LINE
  5
110
100
AcDbEntity
  8
M0
100
AcDbLine
 10
105.142761
 20
234.081385
 11
105.142761
 21
237.439417
  0
LINE
  5
111
100
AcDbEntity
  8
M0
100
AcDbLine
 10
103.142761
 20
234.081385
 11
103.142761
 21
237.439417
  0
LINE
  5
112
100
AcDbEntity
  8
M0
100
AcDbLine
 10
105.142761
 20
259.348307
 11
105.142761
 21
262.168375
  0
LINE
  5
113
100
AcDbEntity
  8
M0
100
AcDbLine
 10
103.142761
 20
259.348307
 11
103.142761
 21
262.168375
  0
ARC
  5
114
100
AcDbEntity
  8
M0
100
AcDbCircle
 10
104.142761
 20
248.39387
 40
10.999996
100
AcDbArc
 50
95.215831
 51
264.784089
  0
ARC
  5
115
100
AcDbEntity
  8
M0
100
AcDbCircle
 10
184.142761
 20
248.39387
 40
10.999996
100
AcDbArc
 50
95.215911
 51
264.78401
  0
LINE
  5
116
100
AcDbEntity
  8
M0
  6
DASHDOT
100
AcDbLine
 10
184.142761
 20
231.069895
 11
184.142761
 21
266.674708
  0
LINE
  5
117
100
AcDbEntity
  8
M0
100
AcDbLine
 10
185.142761
 20
233.849482
 11
185.142761
 21
237.439417
  0
LINE
  5
118
100
AcDbEntity
  8
M0
100
AcDbLine
 10
183.142761
 20
233.849482
 11
183.142761
 21
237.439417
  0
LINE
  5
119
100
AcDbEntity
  8
M0
100
AcDbLine
 10
183.142761
 20
259.348307
 11
183.142761
 21
263.053187
  0
LINE
  5
11A
100
AcDbEntity
  8
M0
100
AcDbLine
 10
185.142761
 20
259.348307
 11
185.142761
 21
263.053187
  0
ARC
  5
11B
100
AcDbEntity
  8
M0
100
AcDbCircle
 10
184.142761
 20
248.39387
 40
10.999996
100
AcDbArc
 50
275.215831
 51
444.784089
  0
ARC
  5
11C
100
AcDbEntity
  8
M0
100
AcDbCircle
 10
144.142761
 20
248.39387
 40
10.999996
100
AcDbArc
 50
95.215897
 51
264.784089
  0
ARC
  5
11D
100
AcDbEntity
  8
M0
100
AcDbCircle
 10
144.142761
 20
248.39387
 40
10.999996
100
AcDbArc
 50
275.215861
 51
444.78407
  0
ARC
  5
11E
100
AcDbEntity
  8
M0
  6
DASHED
100
AcDbCircle
 10
94.142761
 20
248.39387
 40
10.999996
100
AcDbArc
 50
275.21591
 51
444.78401
  0
LINE
  5
11F
100
AcDbEntity
  8
M0
  6
DASHDOT
100
AcDbLine
 10
94.142761
 20
231.069834
 11
94.142761
 21
265.789423
  0
LINE
  5
120
100
AcDbEntity
  8
M0
  6
DASHED
100
AcDbLine
 10
95.142761
 20
233.995219
 11
95.142761
 21
237.439417
  0
LINE
  5
121
100
AcDbEntity
  8
M0
  6
DASHED
100
AcDbLine
 10
93.142761
 20
233.995234
 11
93.142761
 21
237.439417
  0
LINE
  5
122
100
AcDbEntity
  8
M0
  6
DASHED
100
AcDbLine
 10
93.142761
 20
259.348307
 11
93.142761
 21
262.13267
  0
LINE
  5
123
100
AcDbEntity
  8
M0
  6
DASHED
100
AcDbLine
 10
95.142761
 20
259.348307
 11
95.142761
 21
262.094187
  0
ARC
  5
124
100
AcDbEntity
  8
M0
  6
DASHED
100
AcDbCircle
 10
94.142761
 20
248.39387
 40
10.999996
100
AcDbArc
 50
95.215831
 51
264.784089
  0
LINE
  5
125
100
AcDbEntity
  8
M0
  6
DASHED
100
AcDbLine
 10
195.142593
 20
233.995203
 11
195.142593
 21
237.439387
  0
LINE
  5
126
100
AcDbEntity
  8
M0
  6
DASHED
100
AcDbLine
 10
193.142593
 20
233.995188
 11
193.142593
 21
237.439387
  0
LINE
  5
127
100
AcDbEntity
  8
M0
  6
DASHED
100
AcDbLine
 10
195.142593
 20
259.348277
 11
195.142593
 21
262.132639
  0
LINE
  5
128
100
AcDbEntity
  8
M0
  6
DASHED
100
AcDbLine
 10
193.142593
 20
259.348277
 11
193.142593
 21
262.094157
  0
ARC
  5
129
100
AcDbEntity
  8
M0
  6
DASHED
100
AcDbCircle
 10
194.142593
 20
248.39387
 40
10.999996
100
AcDbArc
 50
275.215831
 51
444.784089
  0
LINE
  5
12A
100
AcDbEntity
  8
M0
  6
DASHDOT
100
AcDbLine
 10
194.142593
 20
230.87739
 11
194.142593
 21
266.559245
  0
ARC
  5
12B
100
AcDbEntity
  8
M0
  6
DASHED
100
AcDbCircle
 10
194.142593
 20
248.39387
 40
10.999996
100
AcDbArc
 50
95.215911
 51
264.78401
  0
ARC
  5
12C
100
AcDbEntity
  8
M0
  6
DASHED
100
AcDbCircle
 10
126.642761
 20
248.39387
 40
10.999996
100
AcDbArc
 50
95.215831
 51
264.784089
  0
LINE
  5
12D
100
AcDbEntity
  8
M0
  6
DASHDOT
100
AcDbLine
 10
126.642761
 20
231.223795
 11
126.642761
 21
266.058863
  0
LINE
  5
12E
100
AcDbEntity
  8
M0
  6
DASHED
100
AcDbLine
 10
127.642761
 20
233.802775
 11
127.642761
 21
237.439417
  0
LINE
  5
12F
100
AcDbEntity
  8
M0
  6
DASHED
100
AcDbLine
 10
125.642761
 20
233.80276
 11
125.642761
 21
237.439417
  0
LINE
  5
130
100
AcDbEntity
  8
M0
  6
DASHED
100
AcDbLine
 10
125.642761
 20
259.348307
 11
125.642761
 21
262.094187
  0
LINE
  5
131
100
AcDbEntity
  8
M0
  6
DASHED
100
AcDbLine
 10
127.642761
 20
259.348307
 11
127.642761
 21
261.901728
  0
ARC
  5
132
100
AcDbEntity
  8
M0
  6
DASHED
100
AcDbCircle
 10
126.642761
 20
248.39387
 40
10.999996
100
AcDbArc
 50
275.21591
 51
444.78401
  0
ARC
  5
133
100
AcDbEntity
  8
M0
  6
DASHED
100
AcDbCircle
 10
161.642761
 20
248.39387
 40
10.999996
100
AcDbArc
 50
95.215911
 51
264.78401
  0
LINE
  5
134
100
AcDbEntity
  8
M0
  6
DASHDOT
100
AcDbLine
 10
161.642761
 20
230.87739
 11
161.642761
 21
266.482264
  0
LINE
  5
135
100
AcDbEntity
  8
M0
  6
DASHED
100
AcDbLine
 10
162.642761
 20
233.918238
 11
162.642761
 21
237.439417
  0
LINE
  5
136
100
AcDbEntity
  8
M0
  6
DASHED
100
AcDbLine
 10
160.642761
 20
234.072199
 11
160.642761
 21
237.439417
  0
ARC
  5
137
100
AcDbEntity
  8
M0
  6
DASHED
100
AcDbCircle
 10
161.642761
 20
248.39387
 40
10.999996
100
AcDbArc
 50
275.215831
 51
444.784089
  0
LINE
  5
138
100
AcDbEntity
  8
M0
  6
DASHED
100
AcDbLine
 10
162.642761
 20
259.348307
 11
162.642761
 21
262.363673
  0
LINE
  5
139
100
AcDbEntity
  8
M0
  6
DASHED
100
AcDbLine
 10
160.642761
 20
259.348307
 11
160.642761
 21
262.479136
  0
LINE
  5
13A
100
AcDbEntity
  8
M0
  6
DASHDOT
100
AcDbLine
 10
77.590438
 20
248.39387
 11
215.236831
 21
248.39387
  0
LINE
  5
13B
100
AcDbEntity
  8
M0
  6
DASHDOT
100
AcDbLine
 10
144.142761
 20
230.878855
 11
144.142761
 21
265.908884
  0
ARC
  5
13C
100
AcDbEntity
  8
M0
  6
DASHED
100
AcDbCircle
 10
144.142761
 20
248.39387
 40
2.5
100
AcDbArc
 50
287.457529
 51
612.542415
  0
LINE
  5
13D
100
AcDbEntity
  8
M0
  6
DASHED
100
AcDbLine
 10
144.892761
 20
242.735606
 11
144.892761
 21
246.009013
  0
LINE
  5
13E
100
AcDbEntity
  8
M0
  6
DASHED
100
AcDbLine
 10
143.392761
 20
242.851069
 11
143.392761
 21
246.009013
  0
CIRCLE
  5
13F
100
AcDbEntity
  8
M0
100
AcDbCircle
 10
144.142761
 20
276.392161
 40
4.0
  0
LINE
  5
140
100
AcDbEntity
  8
M0
  6
DASHDOT
100
AcDbLine
 10
125.127746
 20
276.392161
 11
163.157775
 21
276.392161
  0
LINE
  5
141
100
AcDbEntity
  8
M0
  6
DASHDOT
100
AcDbLine
 10
144.142761
 20
257.377146
 11
144.142761
 21
295.407175
  0
CIRCLE
  5
142
100
AcDbEntity
  8
M0
100
AcDbCircle
 10
202.642166
 20
233.39387
 40
2.0
  0
LINE
  5
143
100
AcDbEntity
  8
M0
100
AcDbLine
 10
202.642166
 20
192.349924
 11
202.642166
 21
231.39387
  0
LINE
  5
144
100
AcDbEntity
  8
M0
 62
     4
100
AcDbLine
 10
432.120437
 20
426.096505
 11
424.120437
 21
426.096508
  0
LINE
  5
145
100
AcDbEntity
  8
M0
 62
     4
100
AcDbLine
 10
432.120437
 20
426.596505
 11
424.120437
 21
426.596508
  0
LINE
  5
146
100
AcDbEntity
  8
M0
 62
     4
100
AcDbLine
 10
424.620437
 20
425.096508
 11
424.620437
 21
426.096508
  0
LINE
  5
147
100
AcDbEntity
  8
M0
 62
     4
100
AcDbLine
 10
431.620437
 20
425.096505
 11
431.620437
 21
426.096505
  0
LINE
  5
148
100
AcDbEntity
  8
M0
 62
     4
100
AcDbLine
 10
424.120437
 20
426.096508
 11
424.120437
 21
426.596508
  0
LINE
  5
149
100
AcDbEntity
  8
M0
 62
     4
100
AcDbLine
 10
432.120437
 20
426.096505
 11
432.120437
 21
426.596505
  0
LINE
  5
14A
100
AcDbEntity
  8
M0
 62
     4
100
AcDbLine
 10
431.620315
 20
425.096505
 11
424.620315
 21
425.096508
  0
LINE
  5
14B
100
AcDbEntity
  8
M0
 62
     4
100
AcDbLine
 10
426.120315
 20
425.096507
 11
430.120315
 21
425.096506
  0
LINE
  5
14C
100
AcDbEntity
  8
M0
 62
     4
100
AcDbLine
 10
424.620315
 20
425.096508
 11
424.620314
 21
424.117488
  0
ARC
  5
14D
100
AcDbEntity
  8
M0
 62
     4
100
AcDbCircle
 10
425.920317
 20
424.117488
 40
1.299999
100
AcDbArc
 50
179.99994
 51
253.398508
  0
LINE
  5
14E
100
AcDbEntity
  8
M0
 62
     4
100
AcDbLine
 10
431.620314
 20
424.117486
 11
431.620315
 21
425.096505
  0
ARC
  5
14F
100
AcDbEntity
  8
M0
 62
     4
100
AcDbCircle
 10
430.320311
 20
424.117487
 40
1.299999
100
AcDbArc
 50
286.601376
 51
359.99994
  0
LINE
  5
150
100
AcDbEntity
  8
M0
 62
     4
100
AcDbLine
 10
427.620314
 20
422.510401
 11
427.620314
 21
423.91041
  0
LINE
  5
151
100
AcDbEntity
  8
M0
 62
     4
100
AcDbLine
 10
427.620314
 20
423.91041
 11
428.620314
 21
423.91041
  0
LINE
  5
152
100
AcDbEntity
  8
M0
 62
     4
100
AcDbLine
 10
428.620314
 20
423.91041
 11
428.620314
 21
422.510401
  0
ARC
  5
153
100
AcDbEntity
  8
M0
 62
     4
100
AcDbCircle
 10
428.120317
 20
431.4965
 40
9.0
100
AcDbArc
 50
253.398433
 51
266.81522
  0
ARC
  5
154
100
AcDbEntity
  8
M0
 62
     4
100
AcDbCircle
 10
428.120317
 20
431.4965
 40
9.0
100
AcDbArc
 50
273.184672
 51
286.601512
  0
LINE
  5
155
100
AcDbEntity
  8
M0
 62
     4
100
AcDbLine
 10
428.120315
 20
426.096507
 11
428.620315
 21
425.096506
  0
LINE
  5
156
100
AcDbEntity
  8
M0
 62
     4
100
AcDbLine
 10
428.120315
 20
425.096507
 11
427.62033
 21
426.096507
  0
LINE
  5
157
100
AcDbEntity
  8
M1
 62
     2
100
AcDbLine
 10
25.0
 20
25.0
 11
25.0
 21
712.499989
  0
LINE
  5
158
100
AcDbEntity
  8
M1
 62
     2
100
AcDbLine
 10
25.0
 20
712.499989
 11
499.999993
 21
712.499989
  0
LINE
  5
159
100
AcDbEntity
  8
M1
 62
     2
100
AcDbLine
 10
499.999993
 20
712.499989
 11
499.999993
 21
25.0
  0
LINE
  5
15A
100
AcDbEntity
  8
M1
 62
     2
100
AcDbLine
 10
499.999993
 20
25.0
 11
25.0
 21
25.0
  0
LINE
  5
15B
100
AcDbEntity
  8
M1
 62
     2
100
AcDbLine
 10
499.999993
 20
49.999999
 11
249.999996
 21
49.999999
  0
LINE
  5
15C
100
AcDbEntity
  8
M1
 62
     2
100
AcDbLine
 10
499.999993
 20
74.999999
 11
249.999996
 21
74.999999
  0
LINE
  5
15D
100
AcDbEntity
  8
M1
 62
     2
100
AcDbLine
 10
499.999993
 20
99.999999
 11
249.999996
 21
99.999999
  0
LINE
  5
15E
100
AcDbEntity
  8
M1
 62
     2
100
AcDbLine
 10
249.999996
 20
25.0
 11
249.999996
 21
99.999999
  0
TEXT
  5
15F
100
AcDbEntity
  8
M1
 62
     2
100
AcDbText
 10
256.249996
 20
31.25
 40
12.5
  1
適　用；
  7
STANDARD
100
AcDbText
  0
TEXT
  5
160
100
AcDbEntity
  8
M1
 62
     2
100
AcDbText
 10
256.249996
 20
81.249999
 40
12.5
  1
登録名：
  7
STANDARD
100
AcDbText
  0
TEXT
  5
161
100
AcDbEntity
  8
M1
 62
     2
100
AcDbText
 10
316.249995
 20
81.249999
 40
12.5
  1
ＤＭＳＨ１１ＲＴＲ００
 41
0.5
  7
STANDARD
100
AcDbText
  0
TEXT
  5
162
100
AcDbEntity
  8
M1
 62
     2
100
AcDbText
 10
256.249996
 20
56.249999
 40
12.5
  1
形　式；
  7
STANDARD
100
AcDbText
  0
TEXT
  5
163
100
AcDbEntity
  8
M1
 62
     2
100
AcDbText
 10
316.249995
 20
56.249999
 40
12.5
  1
ＳＨ１１－ＲＴ
 41
0.5
  7
STANDARD
100
AcDbText
  0
ENDSEC
  0
SECTION
  2
OBJECTS
  0
DICTIONARY
  5
C
100
AcDbDictionary
  3
ACAD_GROUP
350
D
  3
ACAD_MLINESTYLE
350
E
  0
DICTIONARY
  5
D
102
{ACAD_REACTORS
330
C
102
}
100
AcDbDictionary
  0
DICTIONARY
  5
E
102
{ACAD_REACTORS
330
C
102
}
100
AcDbDictionary
  3
STANDARD
350
13
  0
MLINESTYLE
  5
13
102
{ACAD_REACTORS
330
E
102
}
100
AcDbMlineStyle
  2
STANDARD
 70
     0
  3

 62
     0
 51
90.0
 52
90.0
 71
     2
 49
0.5
 62
   256
  6
BYLAYER
 49
-0.5
 62
   256
  6
BYLAYER
  0
ENDSEC
  0
EOF
