  0
SECTION
  2
HEADER
  9
$ACADVER
  1
AC1014
  9
$INSBASE
 10
0.000000
 20
0.000000
 30
0.0
  9
$VIEWCTR
 10
7.531722
 20
4.5
  9
$VIEWSIZE
 40
9.0
  9
$SNAPMODE
 70
     0
  9
$SNAPUNIT
 10
1.0
 20
1.0
  9
$SNAPBASE
 10
0.0
 20
0.0
  9
$SNAPANG
 50
0.0
  9
$SNAPSTYLE
 70
     0
  9
$SNAPISOPAIR
 70
     0
  9
$GRIDMODE
 70
     0
  9
$GRIDUNIT
 10
0.0
 20
0.0
  9
$ORTHOMODE
 70
     0
  9
$REGENMODE
 70
     1
  9
$FILLMODE
 70
     1
  9
$QTEXTMODE
 70
     0
  9
$DRAGMODE
 70
     2
  9
$LTSCALE
  40
     1.000000
  9
$OSMODE
 70
     0
  9
$ATTMODE
 70
     1
  9
$TEXTSIZE
 40
0.2
  9
$TRACEWID
 40
0.05
  9
$TEXTSTYLE
  7
STANDARD
  9
$CELTYPE
  6
BYLAYER
  9
$CECOLOR
 62
   256
  9
$DIMSCALE
 40
1.0
  9
$DIMASZ
 40
0.18
  9
$DIMEXO
 40
0.0625
  9
$DIMDLI
 40
0.38
  9
$DIMRND
 40
0.0
  9
$DIMDLE
 40
0.0
  9
$DIMEXE
 40
0.18
  9
$DIMTP
 40
0.0
  9
$DIMTM
 40
0.0
  9
$DIMTXT
 40
0.18
  9
$DIMCEN
 40
0.09
  9
$DIMTSZ
 40
0.0
  9
$DIMTOL
 70
     0
  9
$DIMLIM
 70
     0
  9
$DIMTIH
 70
     1
  9
$DIMTOH
 70
     1
  9
$DIMSE1
 70
     0
  9
$DIMSE2
 70
     0
  9
$DIMTAD
 70
     0
  9
$DIMZIN
 70
     0
  9
$DIMBLK
  1

  9
$LUNITS
 70
     2
  9
$LUPREC
 70
     4
  9
$AXISMODE
 70
     0
  9
$AXISUNIT
 10
0.0
 20
0.0
  9
$SKETCHINC
 40
0.1
  9
$FILLETRAD
 40
0.0
  9
$AUNITS
 70
     0
  9
$AUPREC
 70
     0
  9
$MENU
  1
ACAD
  9
$ELEVATION
 40
0.0
  9
$THICKNESS
 40
0.0
  9
$VIEWDIR
 10
0.0
 20
0.0
 30
1.0
  9
$LIMCHECK
 70
     0
  9
$BLIPMODE
 70
     1
  9
$CHAMFERA
 40
0.0
  9
$CHAMFERB
 40
0.0
  9
$FASTZOOM
 70
     1
  9
$SKPOLY
 70
     0
  9
$TDCREATE
 40
0000000.0000000000
  9
$TDUPDATE
 40
0000000.0000000000
  9
$TDINDWG
 40
0.0000000000
  9
$TDUSRTIMER
 40
0.0000000000
  9
$USRTIMER
 70
     1
  9
$ANGBASE
 50
0.0
  9
$ANGDIR
 70
     0
  9
$PDMODE
 70
     0
  9
$PDSIZE
 40
0.0
  9
$PLINEWID
 40
0.0
  9
$COORDS
 70
     0
  9
$USERI1
 70
     0
  9
$USERI2
 70
     0
  9
$USERI3
 70
     0
  9
$USERI4
 70
     0
  9
$USERI5
 70
     0
  9
$USERR1
 40
0.0
  9
$USERR2
 40
0.0
  9
$USERR3
 40
0.0
  9
$USERR4
 40
0.0
  9
$USERR5
 40
0.0
  9
$CLAYER
  8
M0
  9
$EXTMIN
 10
25.0
 20
25.0
  9
$EXTMAX
 10
499.999993
 20
712.499989
  9
$LIMMIN
 10
0.0
 20
0.0
  9
$LIMMAX
 10
210.0
 20
297.0
  9
$HANDSEED
  5
1D2
  0
ENDSEC
  0
SECTION
  2
CLASSES
  0
ENDSEC
  0
SECTION
  2
TABLES
  0
TABLE
  2
VPORT
  5
8
100
AcDbSymbolTable
 70
     2
  0
VPORT
  5
14
100
AcDbSymbolTableRecord
100
AcDbViewportTableRecord
  2
*ACTIVE
 70
     0
 10
0.0
 20
0.0
 11
1.0
 21
1.0
 12
484.0
 22
297.0
 13
0.0
 23
0.0
 14
1.0
 24
1.0
 15
0.0
 25
0.0
 16
0.0
 26
0.0
 36
1.0
 17
0.0
 27
0.0
 37
0.0
 40
594.0
 41
2.0
 42
50.0
 43
0.0
 44
0.0
 50
0.0
 51
0.0
 71
     0
 72
   100
 73
     1
 74
     1
 75
     0
 76
     0
 77
     0
 78
     0
  0
ENDTAB
  0
TABLE
  2
LTYPE
  5
5
100
AcDbSymbolTable
 70
     5
  0
LTYPE
  5
15
100
AcDbSymbolTableRecord
100
AcDbLinetypeTableRecord
  2
BYBLOCK
 70
     0
  3

 72
    65
 73
     0
 40
0.0
  0
LTYPE
  5
16
100
AcDbSymbolTableRecord
100
AcDbLinetypeTableRecord
  2
BYLAYER
 70
     0
  3

 72
    65
 73
     0
 40
0.0
  0
LTYPE
  5
17
100
AcDbSymbolTableRecord
100
AcDbLinetypeTableRecord
  2
CONTINUOUS
 70
    64
  3
Solid line
 72
    65
 73
     0
 40
0.0
  0
LTYPE
  5
18
100
AcDbSymbolTableRecord
100
AcDbLinetypeTableRecord
  2
DASHED
 70
    64
  3
__ __ __ __ __ __ __ __ __ __ __ __ __ __ __ __
 72
    65
 73
     2
 40
0.75
 49
0.5
 74
     0
 49
-0.25
 74
     0
  0
LTYPE
  5
19
100
AcDbSymbolTableRecord
100
AcDbLinetypeTableRecord
  2
DASHDOT
 70
    64
  3
__ . __ . __ . __ . __ . __ . __ . __ . __ . __
 72
    65
 73
     4
 40
1.0
 49
0.5
 74
     0
 49
-0.25
 74
     0
 49
0.0
 74
     0
 49
-0.25
 74
     0
  0
LTYPE
  5
1A
100
AcDbSymbolTableRecord
100
AcDbLinetypeTableRecord
  2
DIVIDE
 70
    64
  3
____ . . ____ . . ____ . . ____ . . ____ . . __
 72
    65
 73
     6
 40
1.25
 49
0.5
 74
     0
 49
-0.25
 74
     0
 49
0.0
 74
     0
 49
-0.25
 74
     0
 49
0.0
 74
     0
 49
-0.25
 74
     0
  0
LTYPE
  5
1B
100
AcDbSymbolTableRecord
100
AcDbLinetypeTableRecord
  2
DOT
 70
    64
  3
. . . . . . . . . . . . . . . . . . . . . . . .
 72
    65
 73
     2
 40
0.25
 49
0.0
 74
     0
 49
-0.25
 74
     0
  0
ENDTAB
  0
TABLE
  2
LAYER
  5
2
100
AcDbSymbolTable
 70
   102
  0
LAYER
  5
F
100
AcDbSymbolTableRecord
100
AcDbLayerTableRecord
  2
0
 70
     0
 62
     7
  6
CONTINUOUS
  0
LAYER
  5
1C
100
AcDbSymbolTableRecord
100
AcDbLayerTableRecord
  2
DEFPOINTS
 70
     0
 62
     7
  6
CONTINUOUS
  0
LAYER
  5
1D
100
AcDbSymbolTableRecord
100
AcDbLayerTableRecord
  2
M0
 70
     0
 62
     3
  6
CONTINUOUS
  0
LAYER
  5
1E
100
AcDbSymbolTableRecord
100
AcDbLayerTableRecord
  2
M1
 70
     0
 62
     3
  6
CONTINUOUS
  0
LAYER
  5
1F
100
AcDbSymbolTableRecord
100
AcDbLayerTableRecord
  2
DD0
 70
     0
 62
     4
  6
CONTINUOUS
  0
LAYER
  5
20
100
AcDbSymbolTableRecord
100
AcDbLayerTableRecord
  2
DN0
 70
     0
 62
     2
  6
CONTINUOUS
  0
ENDTAB
  0
TABLE
  2
STYLE
  5
3
100
AcDbSymbolTable
 70
     2
  0
STYLE
  5
10
100
AcDbSymbolTableRecord
100
AcDbTextStyleTableRecord
  2
STANDARD
 70
     0
 40
0.0
 41
1.0
 50
0.0
 71
     0
 42
0.2
  3
txt
  4
BIGFONT
  0
ENDTAB
  0
TABLE
  2
VIEW
  5
6
100
AcDbSymbolTable
 70
     0
  0
ENDTAB
  0
TABLE
  2
UCS
  5
7
100
AcDbSymbolTable
 70
     0
  0
ENDTAB
  0
TABLE
  2
APPID
  5
9
100
AcDbSymbolTable
 70
     1
  0
APPID
  5
11
100
AcDbSymbolTableRecord
100
AcDbRegAppTableRecord
  2
ACAD
 70
     0
  0
ENDTAB
  0
TABLE
  2
DIMSTYLE
  5
A
100
AcDbSymbolTable
 70
     2
  0
DIMSTYLE
105
27
100
AcDbSymbolTableRecord
100
AcDbDimStyleTableRecord
  2
STANDARD
 70
     0
  3

  4

  5

  6
_OPEN
  7
_OPEN
 40
1.0
 41
7.5
 42
1.0
 43
8.0
 44
1.0
 45
0.0
 46
0.0
 47
0.0
 48
0.0
140
7.875
141
0.09
142
0.0
143
0.03937
144
1.0
145
0.0
146
1.0
147
0.6
 71
     0
 72
     0
 73
     1
 74
     1
 75
     0
 76
     0
 77
     3
 78
     8
170
     0
171
     2
172
     0
173
     1
174
     0
175
     0
176
     0
177
     0
178
     0
270
     2
271
     2
272
     4
273
     2
274
     2
340
10
275
     0
280
     0
281
     0
282
     0
283
     1
284
     0
285
     0
286
     0
287
     3
288
     0
  0
DIMSTYLE
105
28
100
AcDbSymbolTableRecord
100
AcDbDimStyleTableRecord
  2
LEADSTYL
 70
     0
  3

  4

  5

  6
_OPEN
  7
_OPEN
 40
1.0
 41
7.5
 42
0.0625
 43
0.38
 44
0.18
 45
0.0
 46
0.0
 47
0.0
 48
0.0
140
7.875
141
0.09
142
0.0
143
25.4
144
1.0
145
0.0
146
1.0
147
0.6
 71
     0
 72
     0
 73
     1
 74
     1
 75
     0
 76
     0
 77
     0
 78
     0
170
     0
171
     2
172
     0
173
     1
174
     0
175
     0
176
     0
177
     0
178
     0
270
     2
271
     4
272
     4
273
     2
274
     2
340
10
275
     0
280
     0
281
     0
282
     0
283
     1
284
     0
285
     0
286
     0
287
     3
288
     0
  0
ENDTAB
  0
TABLE
  2
BLOCK_RECORD
  5
1
100
AcDbSymbolTable
 70
    17
  0
BLOCK_RECORD
  5
21
100
AcDbSymbolTableRecord
100
AcDbBlockTableRecord
  2
*MODEL_SPACE
  0
BLOCK_RECORD
  5
24
100
AcDbSymbolTableRecord
100
AcDbBlockTableRecord
  2
*PAPER_SPACE
  0
BLOCK_RECORD
  5
29
100
AcDbSymbolTableRecord
100
AcDbBlockTableRecord
  2
_NONE
  0
BLOCK_RECORD
  5
2D
100
AcDbSymbolTableRecord
100
AcDbBlockTableRecord
  2
_OPEN
  0
BLOCK_RECORD
  5
33
100
AcDbSymbolTableRecord
100
AcDbBlockTableRecord
  2
_CLOSED
  0
BLOCK_RECORD
  5
3A
100
AcDbSymbolTableRecord
100
AcDbBlockTableRecord
  2
_ORIGIN
  0
BLOCK_RECORD
  5
3F
100
AcDbSymbolTableRecord
100
AcDbBlockTableRecord
  2
_DOT
  0
BLOCK_RECORD
  5
47
100
AcDbSymbolTableRecord
100
AcDbBlockTableRecord
  2
_OBLIQUE
  0
BLOCK_RECORD
  5
4B
100
AcDbSymbolTableRecord
100
AcDbBlockTableRecord
  2
DIMS0
  0
BLOCK_RECORD
  5
57
100
AcDbSymbolTableRecord
100
AcDbBlockTableRecord
  2
DIMS1
  0
BLOCK_RECORD
  5
63
100
AcDbSymbolTableRecord
100
AcDbBlockTableRecord
  2
DIMS2
  0
BLOCK_RECORD
  5
6F
100
AcDbSymbolTableRecord
100
AcDbBlockTableRecord
  2
DIMS3
  0
BLOCK_RECORD
  5
7B
100
AcDbSymbolTableRecord
100
AcDbBlockTableRecord
  2
DIMS4
  0
BLOCK_RECORD
  5
87
100
AcDbSymbolTableRecord
100
AcDbBlockTableRecord
  2
DIMS5
  0
BLOCK_RECORD
  5
93
100
AcDbSymbolTableRecord
100
AcDbBlockTableRecord
  2
DIMS6
  0
BLOCK_RECORD
  5
9F
100
AcDbSymbolTableRecord
100
AcDbBlockTableRecord
  2
DIMS7
  0
BLOCK_RECORD
  5
AB
100
AcDbSymbolTableRecord
100
AcDbBlockTableRecord
  2
DIMS8
  0
BLOCK_RECORD
  5
B4
100
AcDbSymbolTableRecord
100
AcDbBlockTableRecord
  2
DIMS9
  0
BLOCK_RECORD
  5
C0
100
AcDbSymbolTableRecord
100
AcDbBlockTableRecord
  2
DIMS10
  0
ENDTAB
  0
ENDSEC
  0
SECTION
  2
BLOCKS
  0
BLOCK
  5
22
100
AcDbEntity
  8
0
100
AcDbBlockBegin
  2
*MODEL_SPACE
 70
     0
 10
0.0
 20
0.0
 30
0.0
  3
*MODEL_SPACE
  1

  0
ENDBLK
  5
23
100
AcDbEntity
  8
0
100
AcDbBlockEnd
  0
BLOCK
  5
25
100
AcDbEntity
 67
     1
  8
0
100
AcDbBlockBegin
  2
*PAPER_SPACE
 70
     0
 10
0.0
 20
0.0
 30
0.0
  3
*PAPER_SPACE
  1

  0
ENDBLK
  5
26
100
AcDbEntity
 67
     1
  8
0
100
AcDbBlockEnd
  0
BLOCK
  5
2A
100
AcDbEntity
  8
0
100
AcDbBlockBegin
  2
_NONE
 70
     0
 10
0.0
 20
0.0
  0
CIRCLE
  5
2B
100
AcDbEntity
  8
0
 62
     0
100
AcDbCircle
 10
0.0
 20
0.0
 40
0.25
  0
ENDBLK
  5
2C
100
AcDbEntity
  8
0
100
AcDbBlockEnd
  0
BLOCK
  5
2E
100
AcDbEntity
  8
0
100
AcDbBlockBegin
  2
_OPEN
 70
     0
 10
0.0
 20
0.0
  0
LINE
  5
2F
100
AcDbEntity
  8
0
 62
     0
100
AcDbLine
 10
-0.965926
 20
0.258819
 11
0.0
 21
0.0
  0
LINE
  5
30
100
AcDbEntity
  8
0
 62
     0
100
AcDbLine
 10
0.0
 20
0.0
 11
-0.965926
 21
-0.258819
  0
LINE
  5
31
100
AcDbEntity
  8
0
 62
     0
100
AcDbLine
 10
0.0
 20
0.0
 11
-1.0
 21
0.0
  0
ENDBLK
  5
32
100
AcDbEntity
  8
0
100
AcDbBlockEnd
  0
BLOCK
  5
34
100
AcDbEntity
  8
0
100
AcDbBlockBegin
  2
_CLOSED
 70
     0
 10
0.0
 20
0.0
  0
LINE
  5
35
100
AcDbEntity
  8
0
 62
     0
100
AcDbLine
 10
-0.965926
 20
0.258819
 11
0.0
 21
0.0
  0
LINE
  5
36
100
AcDbEntity
  8
0
 62
     0
100
AcDbLine
 10
0.0
 20
0.0
 11
-0.965926
 21
-0.258819
  0
LINE
  5
37
100
AcDbEntity
  8
0
 62
     0
100
AcDbLine
 10
-0.965926
 20
0.258819
 11
-0.965926
 21
-0.258819
  0
LINE
  5
38
100
AcDbEntity
  8
0
 62
     0
100
AcDbLine
 10
0.0
 20
0.0
 11
-1.0
 21
0.0
  0
ENDBLK
  5
39
100
AcDbEntity
  8
0
100
AcDbBlockEnd
  0
BLOCK
  5
3B
100
AcDbEntity
  8
0
100
AcDbBlockBegin
  2
_ORIGIN
 70
     0
 10
0.0
 20
0.0
  0
CIRCLE
  5
3C
100
AcDbEntity
  8
0
 62
     0
100
AcDbCircle
 10
0.0
 20
0.0
 40
0.5
  0
LINE
  5
3D
100
AcDbEntity
  8
0
 62
     0
100
AcDbLine
 10
0.0
 20
0.0
 11
-1.0
 21
0.0
  0
ENDBLK
  5
3E
100
AcDbEntity
  8
0
100
AcDbBlockEnd
  0
BLOCK
  5
40
100
AcDbEntity
  8
0
100
AcDbBlockBegin
  2
_DOT
 70
     0
 10
0.0
 20
0.0
  0
POLYLINE
  5
41
100
AcDbEntity
  8
0
 62
     0
100
AcDb2dPolyline
 66
     1
 70
     1
 40
0.5
 41
0.5
  0
VERTEX
  5
42
100
AcDbEntity
  8
0
 62
     0
100
AcDbVertex
100
AcDb2dVertex
 10
-0.25
 20
0.0
 42
1.0
  0
VERTEX
  5
43
100
AcDbEntity
  8
0
 62
     0
100
AcDbVertex
100
AcDb2dVertex
 10
0.25
 20
0.0
 42
1.0
  0
SEQEND
  5
44
100
AcDbEntity
  8
0
 62
     0
  0
LINE
  5
45
100
AcDbEntity
  8
0
 62
     0
100
AcDbLine
 10
-0.5
 20
0.0
 11
-1.0
 21
0.0
  0
ENDBLK
  5
46
100
AcDbEntity
  8
0
100
AcDbBlockEnd
  0
BLOCK
  5
48
100
AcDbEntity
  8
0
100
AcDbBlockBegin
  2
_OBLIQUE
 70
     0
 10
0.0
 20
0.0
  0
LINE
  5
49
100
AcDbEntity
  8
0
 62
     0
100
AcDbLine
 10
-0.353553
 20
-0.353553
 11
0.353553
 21
0.353553
  0
ENDBLK
  5
4A
100
AcDbEntity
  8
0
100
AcDbBlockEnd
  0
BLOCK
  5
4C
100
AcDbEntity
  8
DD0
100
AcDbBlockBegin
  2
DIMS0
 70
     0
 10
0.0
 20
0.0
  0
LINE
  5
4D
100
AcDbEntity
  8
DD0
100
AcDbLine
 10
176.772992
 20
636.615439
 11
221.308095
 21
636.615439
  0
LINE
  5
4E
100
AcDbEntity
  8
DD0
100
AcDbLine
 10
185.772988
 20
633.615408
 11
221.308095
 21
633.615408
  0
LINE
  5
4F
100
AcDbEntity
  8
DD0
100
AcDbLine
 10
216.866952
 20
643.859882
 11
218.808095
 21
636.615439
  0
LINE
  5
50
100
AcDbEntity
  8
DD0
100
AcDbLine
 10
218.808095
 20
636.615439
 11
220.749237
 21
643.859882
  0
LINE
  5
51
100
AcDbEntity
  8
DD0
100
AcDbLine
 10
220.749237
 20
626.370964
 11
218.808095
 21
633.615408
  0
LINE
  5
52
100
AcDbEntity
  8
DD0
100
AcDbLine
 10
218.808095
 20
633.615408
 11
216.866952
 21
626.370964
  0
LINE
  5
53
100
AcDbEntity
  8
DD0
100
AcDbLine
 10
218.808095
 20
655.240438
 11
218.808095
 21
625.365408
  0
TEXT
  5
54
100
AcDbEntity
  8
DD0
100
AcDbText
 10
217.308098
 20
645.509161
 40
7.875
  1
３
 50
90.000003
 41
0.833333
  7
STANDARD
100
AcDbText
  0
ENDBLK
  5
55
100
AcDbEntity
  8
DD0
100
AcDbBlockEnd
  0
BLOCK
  5
58
100
AcDbEntity
  8
DD0
100
AcDbBlockBegin
  2
DIMS1
 70
     0
 10
0.0
 20
0.0
  0
LINE
  5
59
100
AcDbEntity
  8
DD0
100
AcDbLine
 10
185.772988
 20
633.615408
 11
221.308095
 21
633.615408
  0
LINE
  5
5A
100
AcDbEntity
  8
DD0
100
AcDbLine
 10
185.772988
 20
468.616097
 11
221.308095
 21
468.616097
  0
LINE
  5
5B
100
AcDbEntity
  8
DD0
100
AcDbLine
 10
220.749237
 20
626.370964
 11
218.808095
 21
633.615408
  0
LINE
  5
5C
100
AcDbEntity
  8
DD0
100
AcDbLine
 10
218.808095
 20
633.615408
 11
216.866952
 21
626.370964
  0
LINE
  5
5D
100
AcDbEntity
  8
DD0
100
AcDbLine
 10
216.866952
 20
475.860541
 11
218.808095
 21
468.616097
  0
LINE
  5
5E
100
AcDbEntity
  8
DD0
100
AcDbLine
 10
218.808095
 20
468.616097
 11
220.749237
 21
475.860541
  0
LINE
  5
5F
100
AcDbEntity
  8
DD0
100
AcDbLine
 10
218.808095
 20
633.615408
 11
218.808095
 21
468.616097
  0
TEXT
  5
60
100
AcDbEntity
  8
DD0
100
AcDbText
 10
217.308098
 20
539.946991
 40
7.875
  1
１６５
 50
90.000003
 41
0.833333
  7
STANDARD
100
AcDbText
  0
ENDBLK
  5
61
100
AcDbEntity
  8
DD0
100
AcDbBlockEnd
  0
BLOCK
  5
64
100
AcDbEntity
  8
DD0
100
AcDbBlockBegin
  2
DIMS2
 70
     0
 10
0.0
 20
0.0
  0
LINE
  5
65
100
AcDbEntity
  8
DD0
100
AcDbLine
 10
152.272995
 20
460.116113
 11
221.308095
 21
460.116113
  0
LINE
  5
66
100
AcDbEntity
  8
DD0
100
AcDbLine
 10
185.772988
 20
468.616097
 11
221.308095
 21
468.616097
  0
LINE
  5
67
100
AcDbEntity
  8
DD0
100
AcDbLine
 10
220.749237
 20
452.871669
 11
218.808095
 21
460.116113
  0
LINE
  5
68
100
AcDbEntity
  8
DD0
100
AcDbLine
 10
218.808095
 20
460.116113
 11
216.866952
 21
452.871669
  0
LINE
  5
69
100
AcDbEntity
  8
DD0
100
AcDbLine
 10
216.866952
 20
475.860541
 11
218.808095
 21
468.616097
  0
LINE
  5
6A
100
AcDbEntity
  8
DD0
100
AcDbLine
 10
218.808095
 20
468.616097
 11
220.749237
 21
475.860541
  0
LINE
  5
6B
100
AcDbEntity
  8
DD0
100
AcDbLine
 10
218.808095
 20
425.741111
 11
218.808095
 21
476.866097
  0
TEXT
  5
6C
100
AcDbEntity
  8
DD0
100
AcDbText
 10
217.308098
 20
427.759874
 40
7.875
  1
８．５
 50
90.000003
 41
0.833333
  7
STANDARD
100
AcDbText
  0
ENDBLK
  5
6D
100
AcDbEntity
  8
DD0
100
AcDbBlockEnd
  0
BLOCK
  5
70
100
AcDbEntity
  8
DD0
100
AcDbBlockBegin
  2
DIMS3
 70
     0
 10
0.0
 20
0.0
  0
LINE
  5
71
100
AcDbEntity
  8
DD0
100
AcDbLine
 10
102.272995
 20
632.11566
 11
102.272995
 21
663.406286
  0
LINE
  5
72
100
AcDbEntity
  8
DD0
100
AcDbLine
 10
187.272985
 20
632.115393
 11
187.272985
 21
663.406286
  0
LINE
  5
73
100
AcDbEntity
  8
DD0
100
AcDbLine
 10
109.517439
 20
662.847429
 11
102.272995
 21
660.906286
  0
LINE
  5
74
100
AcDbEntity
  8
DD0
100
AcDbLine
 10
102.272995
 20
660.906286
 11
109.517439
 21
658.965143
  0
LINE
  5
75
100
AcDbEntity
  8
DD0
100
AcDbLine
 10
180.028541
 20
658.965143
 11
187.272985
 21
660.906286
  0
LINE
  5
76
100
AcDbEntity
  8
DD0
100
AcDbLine
 10
187.272985
 20
660.906286
 11
180.028541
 21
662.847429
  0
LINE
  5
77
100
AcDbEntity
  8
DD0
100
AcDbLine
 10
102.272995
 20
660.906286
 11
187.272985
 21
660.906286
  0
TEXT
  5
78
100
AcDbEntity
  8
DD0
100
AcDbText
 10
137.541735
 20
662.406301
 40
7.875
  1
８５
 41
0.833333
  7
STANDARD
100
AcDbText
  0
ENDBLK
  5
79
100
AcDbEntity
  8
DD0
100
AcDbBlockEnd
  0
BLOCK
  5
7C
100
AcDbEntity
  8
DD0
100
AcDbBlockBegin
  2
DIMS4
 70
     0
 10
0.0
 20
0.0
  0
LINE
  5
7D
100
AcDbEntity
  8
DD0
100
AcDbLine
 10
279.353233
 20
630.699453
 11
279.353233
 21
663.169088
  0
LINE
  5
7E
100
AcDbEntity
  8
DD0
100
AcDbLine
 10
391.35322
 20
628.615866
 11
391.35322
 21
663.169088
  0
LINE
  5
7F
100
AcDbEntity
  8
DD0
100
AcDbLine
 10
286.597677
 20
662.610231
 11
279.353233
 21
660.669088
  0
LINE
  5
80
100
AcDbEntity
  8
DD0
100
AcDbLine
 10
279.353233
 20
660.669088
 11
286.597677
 21
658.727945
  0
LINE
  5
81
100
AcDbEntity
  8
DD0
100
AcDbLine
 10
384.108776
 20
658.727945
 11
391.35322
 21
660.669088
  0
LINE
  5
82
100
AcDbEntity
  8
DD0
100
AcDbLine
 10
391.35322
 20
660.669088
 11
384.108776
 21
662.610231
  0
LINE
  5
83
100
AcDbEntity
  8
DD0
100
AcDbLine
 10
279.353233
 20
660.669088
 11
391.35322
 21
660.669088
  0
TEXT
  5
84
100
AcDbEntity
  8
DD0
100
AcDbText
 10
324.184474
 20
662.169103
 40
7.875
  1
１１２
 41
0.833333
  7
STANDARD
100
AcDbText
  0
ENDBLK
  5
85
100
AcDbEntity
  8
DD0
100
AcDbBlockEnd
  0
BLOCK
  5
88
100
AcDbEntity
  8
DD0
100
AcDbBlockBegin
  2
DIMS5
 70
     0
 10
0.0
 20
0.0
  0
LINE
  5
89
100
AcDbEntity
  8
DD0
100
AcDbLine
 10
184.773004
 20
258.12532
 11
184.773004
 21
290.532527
  0
LINE
  5
8A
100
AcDbEntity
  8
DD0
100
AcDbLine
 10
177.273004
 20
260.62532
 11
177.273004
 21
290.532527
  0
LINE
  5
8B
100
AcDbEntity
  8
DD0
100
AcDbLine
 10
192.017447
 20
289.97367
 11
184.773004
 21
288.032527
  0
LINE
  5
8C
100
AcDbEntity
  8
DD0
100
AcDbLine
 10
184.773004
 20
288.032527
 11
192.017447
 21
286.091385
  0
LINE
  5
8D
100
AcDbEntity
  8
DD0
100
AcDbLine
 10
170.02856
 20
286.091385
 11
177.273004
 21
288.032527
  0
LINE
  5
8E
100
AcDbEntity
  8
DD0
100
AcDbLine
 10
177.273004
 20
288.032527
 11
170.02856
 21
289.97367
  0
LINE
  5
8F
100
AcDbEntity
  8
DD0
100
AcDbLine
 10
219.148006
 20
288.032527
 11
169.023004
 21
288.032527
  0
TEXT
  5
90
100
AcDbEntity
  8
DD0
100
AcDbText
 10
193.666764
 20
289.532524
 40
7.875
  1
７．５
 41
0.833333
  7
STANDARD
100
AcDbText
  0
ENDBLK
  5
91
100
AcDbEntity
  8
DD0
100
AcDbBlockEnd
  0
BLOCK
  5
94
100
AcDbEntity
  8
DD0
100
AcDbBlockBegin
  2
DIMS6
 70
     0
 10
0.0
 20
0.0
  0
LINE
  5
95
100
AcDbEntity
  8
DD0
100
AcDbLine
 10
187.273004
 20
255.62532
 11
235.763642
 21
255.62532
  0
LINE
  5
96
100
AcDbEntity
  8
DD0
100
AcDbLine
 10
194.772984
 20
243.125321
 11
235.763642
 21
243.125321
  0
LINE
  5
97
100
AcDbEntity
  8
DD0
100
AcDbLine
 10
231.322499
 20
262.869764
 11
233.263642
 21
255.62532
  0
LINE
  5
98
100
AcDbEntity
  8
DD0
100
AcDbLine
 10
233.263642
 20
255.62532
 11
235.204785
 21
262.869764
  0
LINE
  5
99
100
AcDbEntity
  8
DD0
100
AcDbLine
 10
235.204785
 20
235.880877
 11
233.263642
 21
243.125321
  0
LINE
  5
9A
100
AcDbEntity
  8
DD0
100
AcDbLine
 10
233.263642
 20
243.125321
 11
231.322499
 21
235.880877
  0
LINE
  5
9B
100
AcDbEntity
  8
DD0
100
AcDbLine
 10
233.263642
 20
289.943731
 11
233.263642
 21
234.875321
  0
TEXT
  5
9C
100
AcDbEntity
  8
DD0
100
AcDbText
 10
231.763646
 20
256.587486
 40
7.875
  1
１２．５
 50
90.000003
 41
0.833333
  7
STANDARD
100
AcDbText
  0
ENDBLK
  5
9D
100
AcDbEntity
  8
DD0
100
AcDbBlockEnd
  0
BLOCK
  5
A0
100
AcDbEntity
  8
DD0
100
AcDbBlockBegin
  2
DIMS7
 70
     0
 10
0.0
 20
0.0
  0
LINE
  5
A1
100
AcDbEntity
  8
DD0
100
AcDbLine
 10
194.772984
 20
243.125321
 11
235.763642
 21
243.125321
  0
LINE
  5
A2
100
AcDbEntity
  8
DD0
100
AcDbLine
 10
194.772984
 20
103.125332
 11
235.763642
 21
103.125332
  0
LINE
  5
A3
100
AcDbEntity
  8
DD0
100
AcDbLine
 10
235.204785
 20
235.880877
 11
233.263642
 21
243.125321
  0
LINE
  5
A4
100
AcDbEntity
  8
DD0
100
AcDbLine
 10
233.263642
 20
243.125321
 11
231.322499
 21
235.880877
  0
LINE
  5
A5
100
AcDbEntity
  8
DD0
100
AcDbLine
 10
231.322499
 20
110.369776
 11
233.263642
 21
103.125332
  0
LINE
  5
A6
100
AcDbEntity
  8
DD0
100
AcDbLine
 10
233.263642
 20
103.125332
 11
235.204785
 21
110.369776
  0
LINE
  5
A7
100
AcDbEntity
  8
DD0
100
AcDbLine
 10
233.263642
 20
243.125321
 11
233.263642
 21
103.125332
  0
TEXT
  5
A8
100
AcDbEntity
  8
DD0
100
AcDbText
 10
231.763646
 20
161.956579
 40
7.875
  1
１４０
 50
90.000003
 41
0.833333
  7
STANDARD
100
AcDbText
  0
ENDBLK
  5
A9
100
AcDbEntity
  8
DD0
100
AcDbBlockEnd
  0
BLOCK
  5
AC
100
AcDbEntity
  8
DD0
100
AcDbBlockBegin
  2
DIMS8
 70
     0
 10
0.0
 20
0.0
  0
TEXT
  5
AD
100
AcDbEntity
  8
DD0
100
AcDbText
 10
34.411915
 20
70.539216
 40
7.875
  1
４－Ｍ４ねじ穴
 41
0.833333
  7
STANDARD
100
AcDbText
  0
LINE
  5
AE
100
AcDbEntity
  8
DD0
100
AcDbLine
 10
107.788056
 20
91.506364
 11
109.995497
 21
98.674153
  0
LINE
  5
AF
100
AcDbEntity
  8
DD0
100
AcDbLine
 10
109.995497
 20
98.674153
 11
104.499902
 21
93.570386
  0
LINE
  5
B0
100
AcDbEntity
  8
DD0
100
AcDbLine
 10
109.995497
 20
98.674153
 11
91.393212
 21
69.039215
  0
LINE
  5
B1
100
AcDbEntity
  8
DD0
100
AcDbLine
 10
91.393193
 20
69.03921
 11
31.268241
 21
69.039225
  0
ENDBLK
  5
B2
100
AcDbEntity
  8
DD0
100
AcDbBlockEnd
  0
BLOCK
  5
B5
100
AcDbEntity
  8
DD0
100
AcDbBlockBegin
  2
DIMS9
 70
     0
 10
0.0
 20
0.0
  0
LINE
  5
B6
100
AcDbEntity
  8
DD0
100
AcDbLine
 10
112.273014
 20
260.62532
 11
112.273014
 21
290.532527
  0
LINE
  5
B7
100
AcDbEntity
  8
DD0
100
AcDbLine
 10
177.273004
 20
260.62532
 11
177.273004
 21
290.532527
  0
LINE
  5
B8
100
AcDbEntity
  8
DD0
100
AcDbLine
 10
119.517458
 20
289.97367
 11
112.273014
 21
288.032527
  0
LINE
  5
B9
100
AcDbEntity
  8
DD0
100
AcDbLine
 10
112.273014
 20
288.032527
 11
119.517458
 21
286.091385
  0
LINE
  5
BA
100
AcDbEntity
  8
DD0
100
AcDbLine
 10
170.02856
 20
286.091385
 11
177.273004
 21
288.032527
  0
LINE
  5
BB
100
AcDbEntity
  8
DD0
100
AcDbLine
 10
177.273004
 20
288.032527
 11
170.02856
 21
289.97367
  0
LINE
  5
BC
100
AcDbEntity
  8
DD0
100
AcDbLine
 10
112.273014
 20
288.032527
 11
177.273004
 21
288.032527
  0
TEXT
  5
BD
100
AcDbEntity
  8
DD0
100
AcDbText
 10
137.541754
 20
289.532524
 40
7.875
  1
６５
 41
0.833333
  7
STANDARD
100
AcDbText
  0
ENDBLK
  5
BE
100
AcDbEntity
  8
DD0
100
AcDbBlockEnd
  0
BLOCK
  5
C1
100
AcDbEntity
  8
DD0
100
AcDbBlockBegin
  2
DIMS10
 70
     0
 10
0.0
 20
0.0
  0
LINE
  5
C2
100
AcDbEntity
  8
DD0
100
AcDbLine
 10
391.35322
 20
628.615866
 11
391.35322
 21
643.169088
  0
LINE
  5
C3
100
AcDbEntity
  8
DD0
100
AcDbLine
 10
389.353365
 20
633.115835
 11
389.353365
 21
643.169088
  0
LINE
  5
C4
100
AcDbEntity
  8
DD0
100
AcDbLine
 10
398.597663
 20
642.610231
 11
391.35322
 21
640.669088
  0
LINE
  5
C5
100
AcDbEntity
  8
DD0
100
AcDbLine
 10
391.35322
 20
640.669088
 11
398.597663
 21
638.727945
  0
LINE
  5
C6
100
AcDbEntity
  8
DD0
100
AcDbLine
 10
382.108921
 20
638.727945
 11
389.353365
 21
640.669088
  0
LINE
  5
C7
100
AcDbEntity
  8
DD0
100
AcDbLine
 10
389.353365
 20
640.669088
 11
382.108921
 21
642.610231
  0
LINE
  5
C8
100
AcDbEntity
  8
DD0
100
AcDbLine
 10
399.60322
 20
640.669088
 11
370.728366
 21
640.669088
  0
TEXT
  5
C9
100
AcDbEntity
  8
DD0
100
AcDbText
 10
372.747133
 20
642.169104
 40
7.875
  1
２
 41
0.833333
  7
STANDARD
100
AcDbText
  0
ENDBLK
  5
CA
100
AcDbEntity
  8
DD0
100
AcDbBlockEnd
  0
ENDSEC
  0
SECTION
  2
ENTITIES
  0
INSERT
  5
56
100
AcDbEntity
  8
DD0
100
AcDbBlockReference
  2
DIMS0
 10
0.0
 20
0.0
  0
INSERT
  5
62
100
AcDbEntity
  8
DD0
100
AcDbBlockReference
  2
DIMS1
 10
0.0
 20
0.0
  0
INSERT
  5
6E
100
AcDbEntity
  8
DD0
100
AcDbBlockReference
  2
DIMS2
 10
0.0
 20
0.0
  0
INSERT
  5
7A
100
AcDbEntity
  8
DD0
100
AcDbBlockReference
  2
DIMS3
 10
0.0
 20
0.0
  0
INSERT
  5
86
100
AcDbEntity
  8
DD0
100
AcDbBlockReference
  2
DIMS4
 10
0.0
 20
0.0
  0
INSERT
  5
92
100
AcDbEntity
  8
DD0
100
AcDbBlockReference
  2
DIMS5
 10
0.0
 20
0.0
  0
INSERT
  5
9E
100
AcDbEntity
  8
DD0
100
AcDbBlockReference
  2
DIMS6
 10
0.0
 20
0.0
  0
INSERT
  5
AA
100
AcDbEntity
  8
DD0
100
AcDbBlockReference
  2
DIMS7
 10
0.0
 20
0.0
  0
INSERT
  5
B3
100
AcDbEntity
  8
DD0
100
AcDbBlockReference
  2
DIMS8
 10
0.0
 20
0.0
  0
INSERT
  5
BF
100
AcDbEntity
  8
DD0
100
AcDbBlockReference
  2
DIMS9
 10
0.0
 20
0.0
  0
INSERT
  5
CB
100
AcDbEntity
  8
DD0
100
AcDbBlockReference
  2
DIMS10
 10
0.0
 20
0.0
  0
ARC
  5
CC
100
AcDbEntity
  8
M0
100
AcDbCircle
 10
139.272993
 20
467.616112
 40
2.0
100
AcDbArc
 50
270.0
 51
272.526716
  0
ARC
  5
CD
100
AcDbEntity
  8
M0
100
AcDbCircle
 10
150.272992
 20
467.616112
 40
2.0
100
AcDbArc
 50
255.522335
 51
270.0
  0
ARC
  5
CE
100
AcDbEntity
  8
M0
100
AcDbCircle
 10
115.272997
 20
634.615624
 40
2.0
100
AcDbArc
 50
89.999563
 51
157.967082
  0
ARC
  5
CF
100
AcDbEntity
  8
M0
100
AcDbCircle
 10
174.272982
 20
634.615441
 40
2.0
100
AcDbArc
 50
22.038195
 51
90.0
  0
LINE
  5
D0
100
AcDbEntity
  8
M0
100
AcDbLine
 10
113.272997
 20
468.616112
 11
113.272997
 21
467.616112
  0
LINE
  5
D1
100
AcDbEntity
  8
M0
100
AcDbLine
 10
141.272993
 20
634.615548
 11
141.272993
 21
633.615548
  0
LINE
  5
D2
100
AcDbEntity
  8
M0
100
AcDbLine
 10
148.272992
 20
634.615517
 11
148.272992
 21
633.615517
  0
LINE
  5
D3
100
AcDbEntity
  8
M0
100
AcDbLine
 10
176.272982
 20
468.616112
 11
176.272982
 21
467.616112
  0
ARC
  5
D4
100
AcDbEntity
  8
M0
100
AcDbCircle
 10
115.272997
 20
467.616112
 40
2.0
100
AcDbArc
 50
179.999563
 51
270.0
  0
LINE
  5
D5
100
AcDbEntity
  8
M0
100
AcDbLine
 10
139.272993
 20
465.616112
 11
115.272997
 21
465.616112
  0
ARC
  5
D6
100
AcDbEntity
  8
M0
100
AcDbCircle
 10
174.272982
 20
467.616112
 40
2.0
100
AcDbArc
 50
269.999563
 51
360.0
  0
LINE
  5
D7
100
AcDbEntity
  8
M0
100
AcDbLine
 10
174.272982
 20
465.616112
 11
150.272992
 21
465.616112
  0
LINE
  5
D8
100
AcDbEntity
  8
M0
100
AcDbLine
 10
139.272999
 20
636.615548
 11
115.273013
 21
636.615624
  0
ARC
  5
D9
100
AcDbEntity
  8
M0
100
AcDbCircle
 10
139.272993
 20
634.615548
 40
2.0
100
AcDbArc
 50
0.0
 51
90.0
  0
ARC
  5
DA
100
AcDbEntity
  8
M0
100
AcDbCircle
 10
150.272992
 20
634.615517
 40
2.0
100
AcDbArc
 50
90.0
 51
180.0
  0
LINE
  5
DB
100
AcDbEntity
  8
M0
100
AcDbLine
 10
174.272997
 20
636.615441
 11
150.272998
 21
636.615517
  0
LINE
  5
DC
100
AcDbEntity
  8
M0
 62
     7
100
AcDbLine
 10
106.272997
 20
468.616112
 11
138.772993
 21
468.616112
  0
LINE
  5
DD
100
AcDbEntity
  8
M0
 62
     7
100
AcDbLine
 10
187.272982
 20
472.616097
 11
187.272982
 21
629.61541
  0
LINE
  5
DE
100
AcDbEntity
  8
M0
 62
     7
100
AcDbLine
 10
183.272982
 20
633.61541
 11
106.272997
 21
633.615655
  0
LINE
  5
DF
100
AcDbEntity
  8
M0
 62
     7
100
AcDbLine
 10
102.272997
 20
629.615655
 11
102.272997
 21
472.616112
  0
LINE
  5
E0
100
AcDbEntity
  8
M0
  6
DASHDOT
 62
     7
100
AcDbLine
 10
97.272997
 20
551.116094
 11
192.272982
 21
551.116094
  0
LINE
  5
E1
100
AcDbEntity
  8
M0
  6
DASHDOT
 62
     7
100
AcDbLine
 10
144.772992
 20
452.616112
 11
144.772992
 21
642.865899
  0
LINE
  5
E2
100
AcDbEntity
  8
M0
 62
     7
100
AcDbLine
 10
103.272997
 20
629.615655
 11
103.272997
 21
472.616112
  0
LINE
  5
E3
100
AcDbEntity
  8
M0
 62
     7
100
AcDbLine
 10
186.272982
 20
472.616097
 11
186.272982
 21
629.615655
  0
LINE
  5
E4
100
AcDbEntity
  8
M0
 62
     7
100
AcDbLine
 10
106.272997
 20
469.616112
 11
183.272982
 21
469.616112
  0
LINE
  5
E5
100
AcDbEntity
  8
M0
 62
     7
100
AcDbLine
 10
183.272982
 20
632.61541
 11
106.272997
 21
632.615655
  0
ARC
  5
E6
100
AcDbEntity
  8
M0
 62
     7
100
AcDbCircle
 10
183.272982
 20
629.615655
 40
3.0
100
AcDbArc
 50
0.0
 51
90.0
  0
ARC
  5
E7
100
AcDbEntity
  8
M0
 62
     7
100
AcDbCircle
 10
106.272997
 20
629.615655
 40
3.0
100
AcDbArc
 50
89.999709
 51
180.0
  0
ARC
  5
E8
100
AcDbEntity
  8
M0
 62
     7
100
AcDbCircle
 10
106.272997
 20
472.616112
 40
3.0
100
AcDbArc
 50
179.999709
 51
270.0
  0
ARC
  5
E9
100
AcDbEntity
  8
M0
 62
     7
100
AcDbCircle
 10
183.272982
 20
472.616112
 40
3.0
100
AcDbArc
 50
269.999709
 51
360.0
  0
ARC
  5
EA
100
AcDbEntity
  8
M0
 62
     7
100
AcDbCircle
 10
183.272982
 20
472.616112
 40
4.0
100
AcDbArc
 50
269.999781
 51
360.0
  0
ARC
  5
EB
100
AcDbEntity
  8
M0
 62
     7
100
AcDbCircle
 10
183.272982
 20
629.615655
 40
4.0
100
AcDbArc
 50
0.0
 51
90.0
  0
ARC
  5
EC
100
AcDbEntity
  8
M0
 62
     7
100
AcDbCircle
 10
106.272997
 20
629.615655
 40
4.0
100
AcDbArc
 50
89.999781
 51
180.0
  0
ARC
  5
ED
100
AcDbEntity
  8
M0
 62
     7
100
AcDbCircle
 10
106.272997
 20
472.616112
 40
4.0
100
AcDbArc
 50
179.999781
 51
270.0
  0
LINE
  5
EE
100
AcDbEntity
  8
M0
 62
     7
100
AcDbLine
 10
106.272997
 20
630.115899
 11
183.272982
 21
630.115899
  0
LINE
  5
EF
100
AcDbEntity
  8
M0
 62
     7
100
AcDbLine
 10
106.272997
 20
472.116112
 11
183.272982
 21
472.116112
  0
ARC
  5
F0
100
AcDbEntity
  8
M0
 62
     7
100
AcDbCircle
 10
106.272997
 20
475.116112
 40
3.0
100
AcDbArc
 50
179.999709
 51
270.0
  0
ARC
  5
F1
100
AcDbEntity
  8
M0
 62
     7
100
AcDbCircle
 10
183.272982
 20
627.115899
 40
3.0
100
AcDbArc
 50
0.0
 51
90.0
  0
ARC
  5
F2
100
AcDbEntity
  8
M0
 62
     7
100
AcDbCircle
 10
106.272997
 20
627.115899
 40
3.0
100
AcDbArc
 50
89.999709
 51
180.0
  0
ARC
  5
F3
100
AcDbEntity
  8
M0
 62
     7
100
AcDbCircle
 10
183.272982
 20
475.116112
 40
3.0
100
AcDbArc
 50
269.999709
 51
360.0
  0
LINE
  5
F4
100
AcDbEntity
  8
M0
  6
DASHDOT
 62
     7
100
AcDbLine
 10
135.527754
 20
465.116112
 11
155.160306
 21
465.116112
  0
LINE
  5
F5
100
AcDbEntity
  8
M0
 62
     7
100
AcDbLine
 10
139.772993
 20
460.116112
 11
149.772992
 21
460.116112
  0
LINE
  5
F6
100
AcDbEntity
  8
M0
 62
     7
100
AcDbLine
 10
149.772992
 20
468.616112
 11
149.772992
 21
460.116112
  0
LINE
  5
F7
100
AcDbEntity
  8
M0
 62
     7
100
AcDbLine
 10
139.772993
 20
468.616112
 11
139.772993
 21
460.116112
  0
LINE
  5
F8
100
AcDbEntity
  8
M0
 62
     7
100
AcDbLine
 10
148.272992
 20
469.616112
 11
148.272992
 21
460.116112
  0
LINE
  5
F9
100
AcDbEntity
  8
M0
 62
     7
100
AcDbLine
 10
141.272993
 20
469.616112
 11
141.272993
 21
460.116112
  0
LINE
  5
FA
100
AcDbEntity
  8
M0
 62
     7
100
AcDbLine
 10
141.272993
 20
468.616112
 11
148.272992
 21
468.616112
  0
LINE
  5
FB
100
AcDbEntity
  8
M0
 62
     7
100
AcDbLine
 10
150.772992
 20
468.616112
 11
183.272982
 21
468.616112
  0
ARC
  5
FC
100
AcDbEntity
  8
M0
 62
     7
100
AcDbCircle
 10
150.772992
 20
468.616112
 40
1.0
100
AcDbArc
 50
90.0
 51
179.999126
  0
ARC
  5
FD
100
AcDbEntity
  8
M0
 62
     7
100
AcDbCircle
 10
138.772993
 20
467.616112
 40
1.0
100
AcDbArc
 50
0.0
 51
90.0
  0
ARC
  5
FE
100
AcDbEntity
  8
M0
 62
     7
100
AcDbCircle
 10
150.772992
 20
467.616112
 40
1.0
100
AcDbArc
 50
90.0
 51
179.999126
  0
ARC
  5
FF
100
AcDbEntity
  8
M0
 62
     7
100
AcDbCircle
 10
138.772993
 20
468.616112
 40
1.0
100
AcDbArc
 50
0.0
 51
90.0
  0
LINE
  5
100
100
AcDbEntity
  8
M0
 62
     7
100
AcDbLine
 10
107.073
 20
635.365899
 11
122.073
 21
635.365899
  0
LINE
  5
101
100
AcDbEntity
  8
M0
 62
     7
100
AcDbLine
 10
122.073
 20
635.365899
 11
122.073
 21
634.615655
  0
LINE
  5
102
100
AcDbEntity
  8
M0
 62
     7
100
AcDbLine
 10
167.472979
 20
635.365899
 11
167.472979
 21
634.615655
  0
LINE
  5
103
100
AcDbEntity
  8
M0
 62
     7
100
AcDbLine
 10
182.472979
 20
635.365899
 11
182.472979
 21
634.615655
  0
LINE
  5
104
100
AcDbEntity
  8
M0
 62
     7
100
AcDbLine
 10
107.073
 20
635.365899
 11
107.073
 21
634.615655
  0
LINE
  5
105
100
AcDbEntity
  8
M0
 62
     7
100
AcDbLine
 10
167.472979
 20
635.365899
 11
182.472979
 21
635.365899
  0
ARC
  5
106
100
AcDbEntity
  8
M0
 62
     7
100
AcDbCircle
 10
166.472979
 20
634.615655
 40
1.0
100
AcDbArc
 50
269.999126
 51
360.0
  0
ARC
  5
107
100
AcDbEntity
  8
M0
 62
     7
100
AcDbCircle
 10
106.073
 20
634.615655
 40
1.0
100
AcDbArc
 50
270.0
 51
360.0
  0
ARC
  5
108
100
AcDbEntity
  8
M0
 62
     7
100
AcDbCircle
 10
123.073
 20
634.615655
 40
1.0
100
AcDbArc
 50
180.0
 51
270.0
  0
ARC
  5
109
100
AcDbEntity
  8
M0
 62
     7
100
AcDbCircle
 10
183.472979
 20
634.615655
 40
1.0
100
AcDbArc
 50
180.0
 51
269.999126
  0
LINE
  5
10A
100
AcDbEntity
  8
M0
100
AcDbLine
 10
144.773057
 20
465.681725
 11
143.818394
 21
466.636391
  0
LINE
  5
10B
100
AcDbEntity
  8
M0
100
AcDbLine
 10
144.77309
 20
464.550316
 11
145.727579
 21
463.595833
  0
LINE
  5
10C
100
AcDbEntity
  8
M0
100
AcDbLine
 10
145.727579
 20
463.595833
 11
146.293268
 21
464.161522
  0
LINE
  5
10D
100
AcDbEntity
  8
M0
100
AcDbLine
 10
143.252707
 20
466.070702
 11
144.20737
 21
465.116036
  0
LINE
  5
10E
100
AcDbEntity
  8
M0
100
AcDbLine
 10
143.818394
 20
466.636391
 11
143.252707
 21
466.070702
  0
LINE
  5
10F
100
AcDbEntity
  8
M0
100
AcDbLine
 10
146.293268
 20
464.161522
 11
145.338777
 21
465.116005
  0
LINE
  5
110
100
AcDbEntity
  8
M0
100
AcDbLine
 10
144.207542
 20
465.115868
 11
142.566337
 21
463.474999
  0
LINE
  5
111
100
AcDbEntity
  8
M0
100
AcDbLine
 10
145.338777
 20
465.116005
 11
146.979777
 21
466.757012
  0
LINE
  5
112
100
AcDbEntity
  8
M0
100
AcDbLine
 10
143.13209
 20
462.909325
 11
144.77309
 21
464.550316
  0
LINE
  5
113
100
AcDbEntity
  8
M0
100
AcDbLine
 10
146.41409
 20
467.322762
 11
144.77323
 21
465.681557
  0
CIRCLE
  5
114
100
AcDbEntity
  8
M0
100
AcDbCircle
 10
144.772992
 20
465.116112
 40
2.75
  0
CIRCLE
  5
115
100
AcDbEntity
  8
M0
100
AcDbCircle
 10
144.772992
 20
465.116112
 40
3.0
  0
ARC
  5
116
100
AcDbEntity
  8
M0
100
AcDbCircle
 10
354.353228
 20
634.616143
 40
2.0
100
AcDbArc
 50
90.0
 51
180.0
  0
LINE
  5
117
100
AcDbEntity
  8
M0
100
AcDbLine
 10
352.353228
 20
632.615685
 11
352.353228
 21
634.616143
  0
LINE
  5
118
100
AcDbEntity
  8
M0
100
AcDbLine
 10
378.353213
 20
636.616143
 11
354.353228
 21
636.616143
  0
ARC
  5
119
100
AcDbEntity
  8
M0
100
AcDbCircle
 10
378.353213
 20
634.616143
 40
2.0
100
AcDbArc
 50
0.0
 51
90.0
  0
LINE
  5
11A
100
AcDbEntity
  8
M0
100
AcDbLine
 10
380.353213
 20
632.615838
 11
380.353213
 21
634.616143
  0
ARC
  5
11B
100
AcDbEntity
  8
M0
100
AcDbCircle
 10
378.353213
 20
467.616173
 40
2.0
100
AcDbArc
 50
269.999563
 51
360.0
  0
LINE
  5
11C
100
AcDbEntity
  8
M0
100
AcDbLine
 10
380.353213
 20
467.616173
 11
380.353213
 21
469.616173
  0
LINE
  5
11D
100
AcDbEntity
  8
M0
100
AcDbLine
 10
378.353213
 20
465.616173
 11
354.353228
 21
465.616173
  0
ARC
  5
11E
100
AcDbEntity
  8
M0
100
AcDbCircle
 10
354.353228
 20
467.616173
 40
2.0
100
AcDbArc
 50
179.999563
 51
269.999563
  0
LINE
  5
11F
100
AcDbEntity
  8
M0
100
AcDbLine
 10
352.353228
 20
467.616173
 11
352.353228
 21
469.616173
  0
LINE
  5
120
100
AcDbEntity
  8
M0
100
AcDbLine
 10
279.353242
 20
628.199456
 11
279.353242
 21
474.032509
  0
LINE
  5
121
100
AcDbEntity
  8
M0
100
AcDbLine
 10
337.653185
 20
462.366173
 11
337.653185
 21
463.004738
  0
LINE
  5
122
100
AcDbEntity
  8
M0
100
AcDbLine
 10
337.653292
 20
462.365929
 11
337.918581
 21
462.365929
  0
ARC
  5
123
100
AcDbEntity
  8
M0
100
AcDbCircle
 10
342.653185
 20
465.116173
 40
7.0
100
AcDbArc
 50
183.276904
 51
196.255434
  0
LINE
  5
124
100
AcDbEntity
  8
M0
100
AcDbLine
 10
336.753176
 20
464.716027
 11
335.664629
 21
464.716027
  0
LINE
  5
125
100
AcDbEntity
  8
M0
100
AcDbLine
 10
336.753176
 20
465.171105
 11
336.753176
 21
464.716027
  0
LINE
  5
126
100
AcDbEntity
  8
M0
100
AcDbLine
 10
335.664614
 20
465.516076
 11
336.609866
 21
465.516076
  0
ARC
  5
127
100
AcDbEntity
  8
M0
100
AcDbCircle
 10
336.893008
 20
463.43673
 40
1.0
100
AcDbArc
 50
196.260869
 51
265.000684
  0
LINE
  5
128
100
AcDbEntity
  8
M0
100
AcDbLine
 10
337.65317
 20
462.366417
 11
336.805865
 21
462.440392
  0
ARC
  5
129
100
AcDbEntity
  8
M0
100
AcDbCircle
 10
342.653185
 20
465.116173
 40
7.0
100
AcDbArc
 50
163.748203
 51
176.724849
  0
LINE
  5
12A
100
AcDbEntity
  8
M0
100
AcDbLine
 10
337.853228
 20
632.615471
 11
337.853228
 21
469.616173
  0
LINE
  5
12B
100
AcDbEntity
  8
M0
100
AcDbLine
 10
338.853228
 20
633.615471
 11
338.853228
 21
468.616173
  0
LINE
  5
12C
100
AcDbEntity
  8
M0
  6
DASHDOT
100
AcDbLine
 10
274.353242
 20
551.116157
 11
348.353228
 21
551.116157
  0
LINE
  5
12D
100
AcDbEntity
  8
M0
100
AcDbLine
 10
337.853228
 20
632.61596
 11
281.267793
 21
630.197747
  0
ARC
  5
12E
100
AcDbEntity
  8
M0
100
AcDbCircle
 10
281.353242
 20
474.032509
 40
2.0
100
AcDbArc
 50
179.999563
 51
267.551282
  0
ARC
  5
12F
100
AcDbEntity
  8
M0
100
AcDbCircle
 10
281.353242
 20
628.199456
 40
2.0
100
AcDbArc
 50
92.448555
 51
180.0
  0
LINE
  5
130
100
AcDbEntity
  8
M0
100
AcDbLine
 10
347.053179
 20
635.365716
 11
340.603228
 21
635.365471
  0
LINE
  5
131
100
AcDbEntity
  8
M0
100
AcDbLine
 10
347.053179
 20
633.865716
 11
343.353228
 21
633.865471
  0
LINE
  5
132
100
AcDbEntity
  8
M0
100
AcDbLine
 10
347.053179
 20
633.865716
 11
347.053179
 21
635.365716
  0
LINE
  5
133
100
AcDbEntity
  8
M0
100
AcDbLine
 10
343.353228
 20
633.61596
 11
338.853472
 21
633.615716
  0
LINE
  5
134
100
AcDbEntity
  8
M0
100
AcDbLine
 10
337.853228
 20
632.615471
 11
340.603228
 21
635.365471
  0
LINE
  5
135
100
AcDbEntity
  8
M0
100
AcDbLine
 10
343.353228
 20
460.116173
 11
343.353228
 21
633.865471
  0
LINE
  5
136
100
AcDbEntity
  8
M0
100
AcDbLine
 10
281.267793
 20
472.03434
 11
337.853228
 21
469.616173
  0
LINE
  5
137
100
AcDbEntity
  8
M0
  6
DASHDOT
100
AcDbLine
 10
331.223376
 20
465.116173
 11
348.353228
 21
465.116173
  0
LINE
  5
138
100
AcDbEntity
  8
M0
100
AcDbLine
 10
338.853228
 20
460.116173
 11
343.353228
 21
460.116173
  0
LINE
  5
139
100
AcDbEntity
  8
M0
100
AcDbLine
 10
338.853228
 20
460.116173
 11
334.853228
 21
469.744378
  0
LINE
  5
13A
100
AcDbEntity
  8
M0
100
AcDbLine
 10
337.853228
 20
469.616173
 11
338.853228
 21
468.616173
  0
LINE
  5
13B
100
AcDbEntity
  8
M0
100
AcDbLine
 10
338.853228
 20
468.616173
 11
343.353228
 21
468.616173
  0
LINE
  5
13C
100
AcDbEntity
  8
M0
 62
     6
100
AcDbLine
 10
344.853228
 20
633.865578
 11
344.853228
 21
468.616173
  0
LINE
  5
13D
100
AcDbEntity
  8
M0
 62
     6
100
AcDbLine
 10
343.353228
 20
633.865471
 11
343.353228
 21
460.116173
  0
LINE
  5
13E
100
AcDbEntity
  8
M0
 62
     6
100
AcDbLine
 10
390.853213
 20
626.115883
 11
391.353213
 21
626.115883
  0
LINE
  5
13F
100
AcDbEntity
  8
M0
 62
     6
100
AcDbLine
 10
390.853213
 20
503.616173
 11
391.353213
 21
503.616173
  0
LINE
  5
140
100
AcDbEntity
  8
M0
 62
     6
100
AcDbLine
 10
391.353213
 20
546.616158
 11
391.353213
 21
558.616143
  0
LINE
  5
141
100
AcDbEntity
  8
M0
 62
     6
100
AcDbLine
 10
391.353213
 20
491.116173
 11
391.353213
 21
503.616173
  0
LINE
  5
142
100
AcDbEntity
  8
M0
 62
     6
100
AcDbLine
 10
390.853213
 20
476.116173
 11
391.353213
 21
476.116173
  0
LINE
  5
143
100
AcDbEntity
  8
M0
 62
     6
100
AcDbLine
 10
390.853213
 20
486.116173
 11
391.353213
 21
486.116173
  0
LINE
  5
144
100
AcDbEntity
  8
M0
 62
     6
100
AcDbLine
 10
390.853213
 20
491.116173
 11
391.353213
 21
491.116173
  0
LINE
  5
145
100
AcDbEntity
  8
M0
 62
     6
100
AcDbLine
 10
390.853213
 20
501.116173
 11
391.353213
 21
501.116173
  0
LINE
  5
146
100
AcDbEntity
  8
M0
 62
     6
100
AcDbLine
 10
391.353213
 20
601.616128
 11
391.353213
 21
626.115883
  0
LINE
  5
147
100
AcDbEntity
  8
M0
 62
     6
100
AcDbLine
 10
390.853213
 20
620.01603
 11
391.353213
 21
620.01603
  0
LINE
  5
148
100
AcDbEntity
  8
M0
 62
     6
100
AcDbLine
 10
390.853213
 20
608.136147
 11
391.353213
 21
608.136147
  0
LINE
  5
149
100
AcDbEntity
  8
M0
 62
     6
100
AcDbLine
 10
390.853213
 20
601.616128
 11
391.353213
 21
601.616128
  0
ARC
  5
14A
100
AcDbEntity
  8
M0
 62
     6
100
AcDbCircle
 10
350.353228
 20
468.616173
 40
1.0
100
AcDbArc
 50
90.0
 51
179.999126
  0
LINE
  5
14B
100
AcDbEntity
  8
M0
 62
     6
100
AcDbLine
 10
349.353228
 20
468.616173
 11
349.353228
 21
460.116173
  0
LINE
  5
14C
100
AcDbEntity
  8
M0
 62
     6
100
AcDbLine
 10
343.353228
 20
460.116173
 11
349.353228
 21
460.116173
  0
LINE
  5
14D
100
AcDbEntity
  8
M0
 62
     6
100
AcDbLine
 10
390.853213
 20
558.616143
 11
391.353213
 21
558.616143
  0
LINE
  5
14E
100
AcDbEntity
  8
M0
 62
     6
100
AcDbLine
 10
390.853213
 20
546.616158
 11
391.353213
 21
546.616158
  0
LINE
  5
14F
100
AcDbEntity
  8
M0
 62
     6
100
AcDbLine
 10
390.853213
 20
604.616128
 11
391.353213
 21
604.616128
  0
LINE
  5
150
100
AcDbEntity
  8
M0
 62
     6
100
AcDbLine
 10
344.853228
 20
635.615639
 11
343.353228
 21
635.615639
  0
LINE
  5
151
100
AcDbEntity
  8
M0
 62
     6
100
AcDbLine
 10
344.853228
 20
469.616173
 11
387.853213
 21
469.616173
  0
LINE
  5
152
100
AcDbEntity
  8
M0
 62
     6
100
AcDbLine
 10
344.853228
 20
633.615639
 11
343.353228
 21
633.615639
  0
LINE
  5
153
100
AcDbEntity
  8
M0
 62
     6
100
AcDbLine
 10
343.353228
 20
468.616173
 11
344.853228
 21
468.616173
  0
LINE
  5
154
100
AcDbEntity
  8
M0
 62
     6
100
AcDbLine
 10
344.853228
 20
635.615395
 11
344.853228
 21
635.365639
  0
LINE
  5
155
100
AcDbEntity
  8
M0
 62
     6
100
AcDbLine
 10
343.353228
 20
635.615395
 11
343.353228
 21
635.365578
  0
ARC
  5
156
100
AcDbEntity
  8
M0
 62
     6
100
AcDbCircle
 10
387.853213
 20
629.615639
 40
3.0
100
AcDbArc
 50
0.0
 51
90.0
  0
ARC
  5
157
100
AcDbEntity
  8
M0
 62
     6
100
AcDbCircle
 10
387.853213
 20
472.616173
 40
3.0
100
AcDbArc
 50
269.999709
 51
360.0
  0
LINE
  5
158
100
AcDbEntity
  8
M0
 62
     6
100
AcDbLine
 10
390.853213
 20
472.616158
 11
390.853213
 21
629.615639
  0
LINE
  5
159
100
AcDbEntity
  8
M0
  6
DASHDOT
 62
     6
100
AcDbLine
 10
336.853228
 20
551.116157
 11
396.353213
 21
551.116157
  0
LINE
  5
15A
100
AcDbEntity
  8
M0
 62
     6
100
AcDbLine
 10
387.853213
 20
632.615883
 11
344.853228
 21
632.615639
  0
LINE
  5
15B
100
AcDbEntity
  8
M0
 62
     6
100
AcDbLine
 10
391.353213
 20
476.116173
 11
391.353213
 21
486.116173
  0
LINE
  5
15C
100
AcDbEntity
  8
M0
  6
DASHED
100
AcDbLine
 10
389.35335
 20
630.615848
 11
389.35335
 21
600.499154
  0
LINE
  5
15D
100
AcDbEntity
  8
M0
  6
DASHED
100
AcDbLine
 10
388.853335
 20
631.115848
 11
368.857729
 21
631.115735
  0
ARC
  5
15E
100
AcDbEntity
  8
M0
  6
DASHED
100
AcDbCircle
 10
388.85335
 20
630.615848
 40
0.5
100
AcDbArc
 50
0.0
 51
90.0
  0
LINE
  5
15F
100
AcDbEntity
  8
M0
  6
DASHDOT
100
AcDbLine
 10
162.272997
 20
325.857796
 11
162.272997
 21
365.869803
  0
LINE
  5
160
100
AcDbEntity
  8
M0
  6
DASHDOT
100
AcDbLine
 10
142.266991
 20
345.863798
 11
182.278994
 21
345.863798
  0
CIRCLE
  5
161
100
AcDbEntity
  8
M0
100
AcDbCircle
 10
162.272997
 20
345.863798
 40
14.0
  0
LINE
  5
162
100
AcDbEntity
  8
M0
  6
DASHDOT
100
AcDbLine
 10
127.272997
 20
325.857796
 11
127.272997
 21
365.869803
  0
LINE
  5
163
100
AcDbEntity
  8
M0
  6
DASHDOT
100
AcDbLine
 10
107.267001
 20
345.863798
 11
147.279003
 21
345.863798
  0
CIRCLE
  5
164
100
AcDbEntity
  8
M0
100
AcDbCircle
 10
127.272997
 20
345.863798
 40
14.0
  0
CIRCLE
  5
165
100
AcDbEntity
  8
M0
100
AcDbCircle
 10
162.272997
 20
345.863798
 40
8.5
  0
CIRCLE
  5
166
100
AcDbEntity
  8
M0
100
AcDbCircle
 10
127.272997
 20
345.863798
 40
8.5
  0
CIRCLE
  5
167
100
AcDbEntity
  8
M0
  6
DASHED
100
AcDbCircle
 10
127.272997
 20
345.863798
 40
11.0
  0
CIRCLE
  5
168
100
AcDbEntity
  8
M0
  6
DASHED
100
AcDbCircle
 10
162.272997
 20
345.863798
 40
11.0
  0
LINE
  5
169
100
AcDbEntity
  8
M0
 62
     6
100
AcDbLine
 10
105.272997
 20
320.363808
 11
124.772997
 21
320.363808
  0
LINE
  5
16A
100
AcDbEntity
  8
M0
 62
     6
100
AcDbLine
 10
186.272997
 20
323.863793
 11
186.272997
 21
366.863766
  0
LINE
  5
16B
100
AcDbEntity
  8
M0
  6
DASHDOT
 62
     6
100
AcDbLine
 10
144.772997
 20
315.363808
 11
144.772997
 21
374.863793
  0
LINE
  5
16C
100
AcDbEntity
  8
M0
 62
     6
100
AcDbLine
 10
102.272997
 20
368.363766
 11
102.272997
 21
366.863766
  0
LINE
  5
16D
100
AcDbEntity
  8
M0
 62
     6
100
AcDbLine
 10
187.272997
 20
366.863766
 11
187.272997
 21
368.363766
  0
LINE
  5
16E
100
AcDbEntity
  8
M0
 62
     6
100
AcDbLine
 10
106.272997
 20
320.863808
 11
183.272997
 21
320.863808
  0
LINE
  5
16F
100
AcDbEntity
  8
M0
 62
     6
100
AcDbLine
 10
187.272997
 20
366.863781
 11
149.772997
 21
366.863766
  0
LINE
  5
170
100
AcDbEntity
  8
M0
 62
     6
100
AcDbLine
 10
187.272997
 20
368.363781
 11
102.272997
 21
368.363781
  0
ARC
  5
171
100
AcDbEntity
  8
M0
 62
     6
100
AcDbCircle
 10
106.272997
 20
323.863808
 40
3.0
100
AcDbArc
 50
179.999709
 51
270.0
  0
ARC
  5
172
100
AcDbEntity
  8
M0
 62
     6
100
AcDbCircle
 10
183.272997
 20
323.863808
 40
3.0
100
AcDbArc
 50
269.999709
 51
360.0
  0
LINE
  5
173
100
AcDbEntity
  8
M0
 62
     6
100
AcDbLine
 10
103.272997
 20
366.863766
 11
103.272997
 21
323.863808
  0
LINE
  5
174
100
AcDbEntity
  8
M0
 62
     6
100
AcDbLine
 10
149.772997
 20
362.363766
 11
139.772997
 21
362.363766
  0
LINE
  5
175
100
AcDbEntity
  8
M0
 62
     6
100
AcDbLine
 10
149.772997
 20
368.363781
 11
149.772997
 21
362.363781
  0
LINE
  5
176
100
AcDbEntity
  8
M0
 62
     6
100
AcDbLine
 10
139.772997
 20
368.363781
 11
139.772997
 21
362.363781
  0
LINE
  5
177
100
AcDbEntity
  8
M0
 62
     6
100
AcDbLine
 10
139.772997
 20
366.863766
 11
102.272997
 21
366.863781
  0
LINE
  5
178
100
AcDbEntity
  8
M0
 62
     6
100
AcDbLine
 10
107.272997
 20
320.863808
 11
107.272997
 21
320.363808
  0
LINE
  5
179
100
AcDbEntity
  8
M0
 62
     6
100
AcDbLine
 10
182.272997
 20
320.863808
 11
182.272997
 21
320.363808
  0
LINE
  5
17A
100
AcDbEntity
  8
M0
 62
     6
100
AcDbLine
 10
172.272997
 20
320.863808
 11
172.272997
 21
320.363808
  0
LINE
  5
17B
100
AcDbEntity
  8
M0
 62
     6
100
AcDbLine
 10
117.272997
 20
320.863808
 11
117.272997
 21
320.363808
  0
LINE
  5
17C
100
AcDbEntity
  8
M0
 62
     6
100
AcDbLine
 10
105.272997
 20
321.035378
 11
105.272997
 21
320.363808
  0
LINE
  5
17D
100
AcDbEntity
  8
M0
 62
     6
100
AcDbLine
 10
124.772997
 20
320.863808
 11
124.772997
 21
320.363808
  0
LINE
  5
17E
100
AcDbEntity
  8
M0
 62
     6
100
AcDbLine
 10
137.772997
 20
320.863808
 11
137.772997
 21
320.363808
  0
LINE
  5
17F
100
AcDbEntity
  8
M0
 62
     6
100
AcDbLine
 10
137.772997
 20
320.363808
 11
157.772997
 21
320.363808
  0
LINE
  5
180
100
AcDbEntity
  8
M0
 62
     6
100
AcDbLine
 10
157.772997
 20
320.863808
 11
157.772997
 21
320.363808
  0
LINE
  5
181
100
AcDbEntity
  8
M0
 62
     6
100
AcDbLine
 10
184.272997
 20
321.035378
 11
184.272997
 21
320.363808
  0
LINE
  5
182
100
AcDbEntity
  8
M0
 62
     6
100
AcDbLine
 10
170.272997
 20
320.863808
 11
170.272997
 21
320.363808
  0
LINE
  5
183
100
AcDbEntity
  8
M0
 62
     6
100
AcDbLine
 10
170.272997
 20
320.363808
 11
184.272997
 21
320.363808
  0
LINE
  5
184
100
AcDbEntity
  8
M0
 62
     6
100
AcDbLine
 10
145.772997
 20
320.863808
 11
145.772997
 21
320.363808
  0
LINE
  5
185
100
AcDbEntity
  8
M0
100
AcDbLine
 10
102.272997
 20
368.363781
 11
187.272997
 21
368.363781
  0
LINE
  5
186
100
AcDbEntity
  8
M0
100
AcDbLine
 10
184.272997
 20
432.363762
 11
105.272997
 21
432.363747
  0
LINE
  5
187
100
AcDbEntity
  8
M0
  6
DASHDOT
100
AcDbLine
 10
144.772997
 20
363.363781
 11
144.772997
 21
437.363778
  0
LINE
  5
188
100
AcDbEntity
  8
M0
100
AcDbLine
 10
187.272997
 20
368.363781
 11
187.272997
 21
372.863778
  0
LINE
  5
189
100
AcDbEntity
  8
M0
100
AcDbLine
 10
102.272997
 20
372.863778
 11
102.272997
 21
368.363781
  0
LINE
  5
18A
100
AcDbEntity
  8
M0
100
AcDbLine
 10
186.272997
 20
373.863778
 11
186.272997
 21
430.363762
  0
LINE
  5
18B
100
AcDbEntity
  8
M0
100
AcDbLine
 10
103.272997
 20
373.863778
 11
103.272997
 21
430.363747
  0
LINE
  5
18C
100
AcDbEntity
  8
M0
100
AcDbLine
 10
103.272997
 20
373.863778
 11
139.772997
 21
373.863778
  0
LINE
  5
18D
100
AcDbEntity
  8
M0
100
AcDbLine
 10
102.272997
 20
372.863778
 11
139.772997
 21
372.863778
  0
LINE
  5
18E
100
AcDbEntity
  8
M0
100
AcDbLine
 10
102.272997
 20
372.863778
 11
103.272997
 21
373.863778
  0
LINE
  5
18F
100
AcDbEntity
  8
M0
100
AcDbLine
 10
187.272997
 20
372.863778
 11
186.272997
 21
373.863778
  0
LINE
  5
190
100
AcDbEntity
  8
M0
100
AcDbLine
 10
139.772997
 20
368.363781
 11
139.772997
 21
376.863778
  0
LINE
  5
191
100
AcDbEntity
  8
M0
100
AcDbLine
 10
141.272997
 20
372.863778
 11
141.272997
 21
376.863778
  0
LINE
  5
192
100
AcDbEntity
  8
M0
100
AcDbLine
 10
139.772997
 20
376.863778
 11
141.272997
 21
376.863778
  0
LINE
  5
193
100
AcDbEntity
  8
M0
100
AcDbLine
 10
141.272997
 20
373.863778
 11
144.772997
 21
373.863778
  0
LINE
  5
194
100
AcDbEntity
  8
M0
100
AcDbLine
 10
141.272997
 20
372.863778
 11
144.772997
 21
372.863778
  0
ARC
  5
195
100
AcDbEntity
  8
M0
100
AcDbCircle
 10
184.272997
 20
430.363762
 40
2.0
100
AcDbArc
 50
0.0
 51
90.0
  0
ARC
  5
196
100
AcDbEntity
  8
M0
100
AcDbCircle
 10
105.272997
 20
430.363747
 40
2.0
100
AcDbArc
 50
89.999563
 51
180.0
  0
LINE
  5
197
100
AcDbEntity
  8
M0
100
AcDbLine
 10
187.272997
 20
372.863778
 11
149.772997
 21
372.863778
  0
LINE
  5
198
100
AcDbEntity
  8
M0
100
AcDbLine
 10
186.272997
 20
373.863778
 11
149.772997
 21
373.863778
  0
LINE
  5
199
100
AcDbEntity
  8
M0
100
AcDbLine
 10
149.772997
 20
376.863778
 11
148.272997
 21
376.863778
  0
LINE
  5
19A
100
AcDbEntity
  8
M0
100
AcDbLine
 10
148.272997
 20
372.863778
 11
148.272997
 21
376.863778
  0
LINE
  5
19B
100
AcDbEntity
  8
M0
100
AcDbLine
 10
149.772997
 20
368.363781
 11
149.772997
 21
376.863778
  0
LINE
  5
19C
100
AcDbEntity
  8
M0
100
AcDbLine
 10
148.272997
 20
373.863778
 11
144.772997
 21
373.863778
  0
LINE
  5
19D
100
AcDbEntity
  8
M0
100
AcDbLine
 10
148.272997
 20
372.863778
 11
144.772997
 21
372.863778
  0
ARC
  5
19E
100
AcDbEntity
  8
M0
 62
     4
100
AcDbCircle
 10
144.773243
 20
370.064004
 40
7.0
100
AcDbArc
 50
73.748284
 51
86.724989
  0
LINE
  5
19F
100
AcDbEntity
  8
M0
 62
     4
100
AcDbLine
 10
147.522997
 20
375.064004
 11
147.448778
 21
375.911325
  0
LINE
  5
1A0
100
AcDbEntity
  8
M0
 62
     4
100
AcDbLine
 10
142.023485
 20
375.064018
 11
142.097459
 21
375.911323
  0
ARC
  5
1A1
100
AcDbEntity
  8
M0
 62
     4
100
AcDbCircle
 10
143.093797
 20
375.824181
 40
1.0
100
AcDbArc
 50
106.261176
 51
175.001466
  0
ARC
  5
1A2
100
AcDbEntity
  8
M0
 62
     4
100
AcDbCircle
 10
146.45244
 20
375.824182
 40
1.0
100
AcDbArc
 50
4.998515
 51
73.752228
  0
LINE
  5
1A3
100
AcDbEntity
  8
M0
 62
     4
100
AcDbLine
 10
145.173143
 20
377.052575
 11
145.173143
 21
375.964013
  0
LINE
  5
1A4
100
AcDbEntity
  8
M0
 62
     4
100
AcDbLine
 10
145.173143
 20
375.964013
 11
144.373094
 21
375.964013
  0
LINE
  5
1A5
100
AcDbEntity
  8
M0
 62
     4
100
AcDbLine
 10
144.373094
 20
375.964013
 11
144.373094
 21
377.052559
  0
ARC
  5
1A6
100
AcDbEntity
  8
M0
 62
     4
100
AcDbCircle
 10
144.773243
 20
370.064004
 40
7.0
100
AcDbArc
 50
93.276997
 51
106.255558
  0
LINE
  5
1A7
100
AcDbEntity
  8
M0
 62
     4
100
AcDbLine
 10
147.772997
 20
374.363946
 11
141.772997
 21
374.363945
  0
LINE
  5
1A8
100
AcDbEntity
  8
M0
 62
     4
100
AcDbLine
 10
142.022997
 20
375.063896
 11
142.022997
 21
374.363945
  0
LINE
  5
1A9
100
AcDbEntity
  8
M0
 62
     4
100
AcDbLine
 10
147.522997
 20
375.063898
 11
147.522997
 21
374.363946
  0
LINE
  5
1AA
100
AcDbEntity
  8
M0
 62
     4
100
AcDbLine
 10
142.023241
 20
375.064003
 11
147.523241
 21
375.064004
  0
LINE
  5
1AB
100
AcDbEntity
  8
M0
 62
     4
100
AcDbLine
 10
147.772997
 20
374.363962
 11
147.772997
 21
373.863962
  0
LINE
  5
1AC
100
AcDbEntity
  8
M0
 62
     4
100
AcDbLine
 10
147.772997
 20
373.863962
 11
141.772997
 21
373.86396
  0
LINE
  5
1AD
100
AcDbEntity
  8
M0
 62
     4
100
AcDbLine
 10
141.772997
 20
374.36396
 11
141.772997
 21
373.86396
  0
LINE
  5
1AE
100
AcDbEntity
  8
M0
  6
DIVIDE
100
AcDbLine
 10
184.772997
 20
90.625328
 11
184.772997
 21
255.625328
  0
LINE
  5
1AF
100
AcDbEntity
  8
M0
  6
DIVIDE
100
AcDbLine
 10
184.772997
 20
255.625328
 11
104.772997
 21
255.625328
  0
LINE
  5
1B0
100
AcDbEntity
  8
M0
  6
DIVIDE
100
AcDbLine
 10
104.772997
 20
255.625328
 11
104.772997
 21
90.625328
  0
LINE
  5
1B1
100
AcDbEntity
  8
M0
  6
DIVIDE
100
AcDbLine
 10
104.772997
 20
90.625328
 11
184.772997
 21
90.625328
  0
LINE
  5
1B2
100
AcDbEntity
  8
M0
  6
DASHDOT
100
AcDbLine
 10
94.605115
 20
173.125328
 11
199.137928
 21
173.125328
  0
LINE
  5
1B3
100
AcDbEntity
  8
M0
  6
DASHDOT
100
AcDbLine
 10
144.772997
 20
80.426862
 11
144.772997
 21
267.885146
  0
CIRCLE
  5
1B4
100
AcDbEntity
  8
M0
100
AcDbCircle
 10
177.272997
 20
243.125328
 40
2.0
  0
CIRCLE
  5
1B5
100
AcDbEntity
  8
M0
100
AcDbCircle
 10
112.273013
 20
243.125328
 40
2.0
  0
CIRCLE
  5
1B6
100
AcDbEntity
  8
M0
100
AcDbCircle
 10
112.273013
 20
103.125328
 40
2.0
  0
CIRCLE
  5
1B7
100
AcDbEntity
  8
M0
100
AcDbCircle
 10
177.272997
 20
103.125328
 40
2.0
  0
CIRCLE
  5
1B8
100
AcDbEntity
  8
M0
100
AcDbCircle
 10
177.272997
 20
103.125328
 40
5.0
  0
LINE
  5
1B9
100
AcDbEntity
  8
M0
  6
DASHDOT
100
AcDbLine
 10
162.272997
 20
103.125328
 11
192.272982
 21
103.125328
  0
CIRCLE
  5
1BA
100
AcDbEntity
  8
M0
100
AcDbCircle
 10
112.273013
 20
103.125328
 40
5.0
  0
LINE
  5
1BB
100
AcDbEntity
  8
M0
  6
DASHDOT
100
AcDbLine
 10
97.273013
 20
103.125328
 11
127.272997
 21
103.125328
  0
CIRCLE
  5
1BC
100
AcDbEntity
  8
M0
100
AcDbCircle
 10
112.273013
 20
243.125328
 40
5.0
  0
LINE
  5
1BD
100
AcDbEntity
  8
M0
  6
DASHDOT
100
AcDbLine
 10
97.273013
 20
243.125328
 11
127.272997
 21
243.125328
  0
LINE
  5
1BE
100
AcDbEntity
  8
M0
  6
DASHDOT
100
AcDbLine
 10
112.273013
 20
228.125328
 11
112.273013
 21
258.125313
  0
CIRCLE
  5
1BF
100
AcDbEntity
  8
M0
100
AcDbCircle
 10
177.272997
 20
243.125328
 40
5.0
  0
LINE
  5
1C0
100
AcDbEntity
  8
M0
  6
DASHDOT
100
AcDbLine
 10
162.272997
 20
243.125328
 11
192.272982
 21
243.125328
  0
LINE
  5
1C1
100
AcDbEntity
  8
M0
  6
DASHDOT
100
AcDbLine
 10
177.272997
 20
228.125328
 11
177.272997
 21
258.125313
  0
LINE
  5
1C2
100
AcDbEntity
  8
M1
 62
     2
100
AcDbLine
 10
25.0
 20
25.0
 11
25.0
 21
712.499989
  0
LINE
  5
1C3
100
AcDbEntity
  8
M1
 62
     2
100
AcDbLine
 10
25.0
 20
712.499989
 11
499.999993
 21
712.499989
  0
LINE
  5
1C4
100
AcDbEntity
  8
M1
 62
     2
100
AcDbLine
 10
499.999993
 20
712.499989
 11
499.999993
 21
25.0
  0
LINE
  5
1C5
100
AcDbEntity
  8
M1
 62
     2
100
AcDbLine
 10
499.999993
 20
25.0
 11
25.0
 21
25.0
  0
LINE
  5
1C6
100
AcDbEntity
  8
M1
 62
     2
100
AcDbLine
 10
499.999993
 20
49.999999
 11
249.999996
 21
49.999999
  0
LINE
  5
1C7
100
AcDbEntity
  8
M1
 62
     2
100
AcDbLine
 10
499.999993
 20
74.999999
 11
249.999996
 21
74.999999
  0
LINE
  5
1C8
100
AcDbEntity
  8
M1
 62
     2
100
AcDbLine
 10
499.999993
 20
99.999999
 11
249.999996
 21
99.999999
  0
LINE
  5
1C9
100
AcDbEntity
  8
M1
 62
     2
100
AcDbLine
 10
249.999996
 20
25.0
 11
249.999996
 21
99.999999
  0
TEXT
  5
1CA
100
AcDbEntity
  8
M1
 62
     2
100
AcDbText
 10
256.249996
 20
31.25
 40
12.5
  1
適　用；
  7
STANDARD
100
AcDbText
  0
TEXT
  5
1CB
100
AcDbEntity
  8
M1
 62
     2
100
AcDbText
 10
256.249996
 20
81.249999
 40
12.5
  1
登録名：
  7
STANDARD
100
AcDbText
  0
TEXT
  5
1CC
100
AcDbEntity
  8
M1
 62
     2
100
AcDbText
 10
316.249995
 20
81.249999
 40
12.5
  1
ＤＭＳＨ１１ＴＲ００
 41
0.5
  7
STANDARD
100
AcDbText
  0
TEXT
  5
1CD
100
AcDbEntity
  8
M1
 62
     2
100
AcDbText
 10
256.249996
 20
56.249999
 40
12.5
  1
形　式；
  7
STANDARD
100
AcDbText
  0
TEXT
  5
1CE
100
AcDbEntity
  8
M1
 62
     2
100
AcDbText
 10
316.249995
 20
56.249999
 40
12.5
  1
ＳＨ１１－Ｔ
 41
0.5
  7
STANDARD
100
AcDbText
  0
LINE
  5
1CF
100
AcDbEntity
  8
DN0
100
AcDbLine
 10
125.232382
 20
48.460389
 11
170.882383
 21
48.460389
  0
TEXT
  5
1D0
100
AcDbEntity
  8
DN0
100
AcDbText
 10
126.494882
 20
49.585389
 40
11.25
  1
せん孔図
 41
0.833333
  7
STANDARD
100
AcDbText
  0
ENDSEC
  0
SECTION
  2
OBJECTS
  0
DICTIONARY
  5
C
100
AcDbDictionary
  3
ACAD_GROUP
350
D
  3
ACAD_MLINESTYLE
350
E
  0
DICTIONARY
  5
D
102
{ACAD_REACTORS
330
C
102
}
100
AcDbDictionary
  0
DICTIONARY
  5
E
102
{ACAD_REACTORS
330
C
102
}
100
AcDbDictionary
  3
STANDARD
350
13
  0
MLINESTYLE
  5
13
102
{ACAD_REACTORS
330
E
102
}
100
AcDbMlineStyle
  2
STANDARD
 70
     0
  3

 62
     0
 51
90.0
 52
90.0
 71
     2
 49
0.5
 62
   256
  6
BYLAYER
 49
-0.5
 62
   256
  6
BYLAYER
  0
ENDSEC
  0
EOF
