  0
SECTION
  2
HEADER
  9
$ACADVER
  1
AC1014
  9
$INSBASE
 10
0.000000
 20
0.000000
 30
0.0
  9
$VIEWCTR
 10
7.531722
 20
4.5
  9
$VIEWSIZE
 40
9.0
  9
$SNAPMODE
 70
     0
  9
$SNAPUNIT
 10
1.0
 20
1.0
  9
$SNAPBASE
 10
0.0
 20
0.0
  9
$SNAPANG
 50
0.0
  9
$SNAPSTYLE
 70
     0
  9
$SNAPISOPAIR
 70
     0
  9
$GRIDMODE
 70
     0
  9
$GRIDUNIT
 10
0.0
 20
0.0
  9
$ORTHOMODE
 70
     0
  9
$REGENMODE
 70
     1
  9
$FILLMODE
 70
     1
  9
$QTEXTMODE
 70
     0
  9
$DRAGMODE
 70
     2
  9
$LTSCALE
  40
     1.000000
  9
$OSMODE
 70
     0
  9
$ATTMODE
 70
     1
  9
$TEXTSIZE
 40
0.2
  9
$TRACEWID
 40
0.05
  9
$TEXTSTYLE
  7
STANDARD
  9
$CELTYPE
  6
BYLAYER
  9
$CECOLOR
 62
   256
  9
$DIMSCALE
 40
1.0
  9
$DIMASZ
 40
0.18
  9
$DIMEXO
 40
0.0625
  9
$DIMDLI
 40
0.38
  9
$DIMRND
 40
0.0
  9
$DIMDLE
 40
0.0
  9
$DIMEXE
 40
0.18
  9
$DIMTP
 40
0.0
  9
$DIMTM
 40
0.0
  9
$DIMTXT
 40
0.18
  9
$DIMCEN
 40
0.09
  9
$DIMTSZ
 40
0.0
  9
$DIMTOL
 70
     0
  9
$DIMLIM
 70
     0
  9
$DIMTIH
 70
     1
  9
$DIMTOH
 70
     1
  9
$DIMSE1
 70
     0
  9
$DIMSE2
 70
     0
  9
$DIMTAD
 70
     0
  9
$DIMZIN
 70
     0
  9
$DIMBLK
  1

  9
$LUNITS
 70
     2
  9
$LUPREC
 70
     4
  9
$AXISMODE
 70
     0
  9
$AXISUNIT
 10
0.0
 20
0.0
  9
$SKETCHINC
 40
0.1
  9
$FILLETRAD
 40
0.0
  9
$AUNITS
 70
     0
  9
$AUPREC
 70
     0
  9
$MENU
  1
ACAD
  9
$ELEVATION
 40
0.0
  9
$THICKNESS
 40
0.0
  9
$VIEWDIR
 10
0.0
 20
0.0
 30
1.0
  9
$LIMCHECK
 70
     0
  9
$BLIPMODE
 70
     1
  9
$CHAMFERA
 40
0.0
  9
$CHAMFERB
 40
0.0
  9
$FASTZOOM
 70
     1
  9
$SKPOLY
 70
     0
  9
$TDCREATE
 40
0000000.0000000000
  9
$TDUPDATE
 40
0000000.0000000000
  9
$TDINDWG
 40
0.0000000000
  9
$TDUSRTIMER
 40
0.0000000000
  9
$USRTIMER
 70
     1
  9
$ANGBASE
 50
0.0
  9
$ANGDIR
 70
     0
  9
$PDMODE
 70
     0
  9
$PDSIZE
 40
0.0
  9
$PLINEWID
 40
0.0
  9
$COORDS
 70
     0
  9
$USERI1
 70
     0
  9
$USERI2
 70
     0
  9
$USERI3
 70
     0
  9
$USERI4
 70
     0
  9
$USERI5
 70
     0
  9
$USERR1
 40
0.0
  9
$USERR2
 40
0.0
  9
$USERR3
 40
0.0
  9
$USERR4
 40
0.0
  9
$USERR5
 40
0.0
  9
$CLAYER
  8
M0
  9
$EXTMIN
 10
49.999999
 20
49.999999
  9
$EXTMAX
 10
999.999985
 20
1424.999979
  9
$LIMMIN
 10
0.0
 20
0.0
  9
$LIMMAX
 10
210.0
 20
297.0
  9
$HANDSEED
  5
287
  0
ENDSEC
  0
SECTION
  2
CLASSES
  0
ENDSEC
  0
SECTION
  2
TABLES
  0
TABLE
  2
VPORT
  5
8
100
AcDbSymbolTable
 70
     2
  0
VPORT
  5
14
100
AcDbSymbolTableRecord
100
AcDbViewportTableRecord
  2
*ACTIVE
 70
     0
 10
0.0
 20
0.0
 11
1.0
 21
1.0
 12
484.0
 22
297.0
 13
0.0
 23
0.0
 14
1.0
 24
1.0
 15
0.0
 25
0.0
 16
0.0
 26
0.0
 36
1.0
 17
0.0
 27
0.0
 37
0.0
 40
594.0
 41
2.0
 42
50.0
 43
0.0
 44
0.0
 50
0.0
 51
0.0
 71
     0
 72
   100
 73
     1
 74
     1
 75
     0
 76
     0
 77
     0
 78
     0
  0
ENDTAB
  0
TABLE
  2
LTYPE
  5
5
100
AcDbSymbolTable
 70
     5
  0
LTYPE
  5
15
100
AcDbSymbolTableRecord
100
AcDbLinetypeTableRecord
  2
BYBLOCK
 70
     0
  3

 72
    65
 73
     0
 40
0.0
  0
LTYPE
  5
16
100
AcDbSymbolTableRecord
100
AcDbLinetypeTableRecord
  2
BYLAYER
 70
     0
  3

 72
    65
 73
     0
 40
0.0
  0
LTYPE
  5
17
100
AcDbSymbolTableRecord
100
AcDbLinetypeTableRecord
  2
CONTINUOUS
 70
    64
  3
Solid line
 72
    65
 73
     0
 40
0.0
  0
LTYPE
  5
18
100
AcDbSymbolTableRecord
100
AcDbLinetypeTableRecord
  2
DASHED
 70
    64
  3
__ __ __ __ __ __ __ __ __ __ __ __ __ __ __ __
 72
    65
 73
     2
 40
0.75
 49
0.5
 74
     0
 49
-0.25
 74
     0
  0
LTYPE
  5
19
100
AcDbSymbolTableRecord
100
AcDbLinetypeTableRecord
  2
DASHDOT
 70
    64
  3
__ . __ . __ . __ . __ . __ . __ . __ . __ . __
 72
    65
 73
     4
 40
1.0
 49
0.5
 74
     0
 49
-0.25
 74
     0
 49
0.0
 74
     0
 49
-0.25
 74
     0
  0
LTYPE
  5
1A
100
AcDbSymbolTableRecord
100
AcDbLinetypeTableRecord
  2
DIVIDE
 70
    64
  3
____ . . ____ . . ____ . . ____ . . ____ . . __
 72
    65
 73
     6
 40
1.25
 49
0.5
 74
     0
 49
-0.25
 74
     0
 49
0.0
 74
     0
 49
-0.25
 74
     0
 49
0.0
 74
     0
 49
-0.25
 74
     0
  0
LTYPE
  5
1B
100
AcDbSymbolTableRecord
100
AcDbLinetypeTableRecord
  2
DOT
 70
    64
  3
. . . . . . . . . . . . . . . . . . . . . . . .
 72
    65
 73
     2
 40
0.25
 49
0.0
 74
     0
 49
-0.25
 74
     0
  0
ENDTAB
  0
TABLE
  2
LAYER
  5
2
100
AcDbSymbolTable
 70
   102
  0
LAYER
  5
F
100
AcDbSymbolTableRecord
100
AcDbLayerTableRecord
  2
0
 70
     0
 62
     7
  6
CONTINUOUS
  0
LAYER
  5
1C
100
AcDbSymbolTableRecord
100
AcDbLayerTableRecord
  2
DEFPOINTS
 70
     0
 62
     7
  6
CONTINUOUS
  0
LAYER
  5
1D
100
AcDbSymbolTableRecord
100
AcDbLayerTableRecord
  2
M0
 70
     0
 62
     3
  6
CONTINUOUS
  0
LAYER
  5
1E
100
AcDbSymbolTableRecord
100
AcDbLayerTableRecord
  2
M1
 70
     0
 62
     3
  6
CONTINUOUS
  0
LAYER
  5
1F
100
AcDbSymbolTableRecord
100
AcDbLayerTableRecord
  2
DD0
 70
     0
 62
     4
  6
CONTINUOUS
  0
ENDTAB
  0
TABLE
  2
STYLE
  5
3
100
AcDbSymbolTable
 70
     2
  0
STYLE
  5
10
100
AcDbSymbolTableRecord
100
AcDbTextStyleTableRecord
  2
STANDARD
 70
     0
 40
0.0
 41
1.0
 50
0.0
 71
     0
 42
0.2
  3
txt
  4
BIGFONT
  0
ENDTAB
  0
TABLE
  2
VIEW
  5
6
100
AcDbSymbolTable
 70
     0
  0
ENDTAB
  0
TABLE
  2
UCS
  5
7
100
AcDbSymbolTable
 70
     0
  0
ENDTAB
  0
TABLE
  2
APPID
  5
9
100
AcDbSymbolTable
 70
     1
  0
APPID
  5
11
100
AcDbSymbolTableRecord
100
AcDbRegAppTableRecord
  2
ACAD
 70
     0
  0
ENDTAB
  0
TABLE
  2
DIMSTYLE
  5
A
100
AcDbSymbolTable
 70
     2
  0
DIMSTYLE
105
26
100
AcDbSymbolTableRecord
100
AcDbDimStyleTableRecord
  2
STANDARD
 70
     0
  3

  4

  5

  6
_OPEN
  7
_OPEN
 40
1.0
 41
15.0
 42
1.0
 43
8.0
 44
1.0
 45
0.0
 46
0.0
 47
0.0
 48
0.0
140
15.75
141
0.09
142
0.0
143
0.03937
144
1.0
145
0.0
146
1.0
147
0.6
 71
     0
 72
     0
 73
     1
 74
     1
 75
     0
 76
     0
 77
     3
 78
     8
170
     0
171
     2
172
     0
173
     1
174
     0
175
     0
176
     0
177
     0
178
     0
270
     2
271
     2
272
     4
273
     2
274
     2
340
10
275
     0
280
     0
281
     0
282
     0
283
     1
284
     0
285
     0
286
     0
287
     3
288
     0
  0
DIMSTYLE
105
27
100
AcDbSymbolTableRecord
100
AcDbDimStyleTableRecord
  2
LEADSTYL
 70
     0
  3

  4

  5

  6
_OPEN
  7
_OPEN
 40
1.0
 41
15.0
 42
0.0625
 43
0.38
 44
0.18
 45
0.0
 46
0.0
 47
0.0
 48
0.0
140
15.75
141
0.09
142
0.0
143
25.4
144
1.0
145
0.0
146
1.0
147
0.6
 71
     0
 72
     0
 73
     1
 74
     1
 75
     0
 76
     0
 77
     0
 78
     0
170
     0
171
     2
172
     0
173
     1
174
     0
175
     0
176
     0
177
     0
178
     0
270
     2
271
     4
272
     4
273
     2
274
     2
340
10
275
     0
280
     0
281
     0
282
     0
283
     1
284
     0
285
     0
286
     0
287
     3
288
     0
  0
ENDTAB
  0
TABLE
  2
BLOCK_RECORD
  5
1
100
AcDbSymbolTable
 70
    15
  0
BLOCK_RECORD
  5
20
100
AcDbSymbolTableRecord
100
AcDbBlockTableRecord
  2
*MODEL_SPACE
  0
BLOCK_RECORD
  5
23
100
AcDbSymbolTableRecord
100
AcDbBlockTableRecord
  2
*PAPER_SPACE
  0
BLOCK_RECORD
  5
28
100
AcDbSymbolTableRecord
100
AcDbBlockTableRecord
  2
_NONE
  0
BLOCK_RECORD
  5
2C
100
AcDbSymbolTableRecord
100
AcDbBlockTableRecord
  2
_OPEN
  0
BLOCK_RECORD
  5
32
100
AcDbSymbolTableRecord
100
AcDbBlockTableRecord
  2
_CLOSED
  0
BLOCK_RECORD
  5
39
100
AcDbSymbolTableRecord
100
AcDbBlockTableRecord
  2
_ORIGIN
  0
BLOCK_RECORD
  5
3E
100
AcDbSymbolTableRecord
100
AcDbBlockTableRecord
  2
_DOT
  0
BLOCK_RECORD
  5
46
100
AcDbSymbolTableRecord
100
AcDbBlockTableRecord
  2
_OBLIQUE
  0
BLOCK_RECORD
  5
4A
100
AcDbSymbolTableRecord
100
AcDbBlockTableRecord
  2
DIMS0
  0
BLOCK_RECORD
  5
53
100
AcDbSymbolTableRecord
100
AcDbBlockTableRecord
  2
DIMS1
  0
BLOCK_RECORD
  5
5F
100
AcDbSymbolTableRecord
100
AcDbBlockTableRecord
  2
DIMS2
  0
BLOCK_RECORD
  5
6B
100
AcDbSymbolTableRecord
100
AcDbBlockTableRecord
  2
DIMS3
  0
BLOCK_RECORD
  5
77
100
AcDbSymbolTableRecord
100
AcDbBlockTableRecord
  2
DIMS4
  0
BLOCK_RECORD
  5
83
100
AcDbSymbolTableRecord
100
AcDbBlockTableRecord
  2
DIMS5
  0
BLOCK_RECORD
  5
8E
100
AcDbSymbolTableRecord
100
AcDbBlockTableRecord
  2
DIMS6
  0
BLOCK_RECORD
  5
9A
100
AcDbSymbolTableRecord
100
AcDbBlockTableRecord
  2
DIMS7
  0
BLOCK_RECORD
  5
A6
100
AcDbSymbolTableRecord
100
AcDbBlockTableRecord
  2
DIMS8
  0
ENDTAB
  0
ENDSEC
  0
SECTION
  2
BLOCKS
  0
BLOCK
  5
21
100
AcDbEntity
  8
0
100
AcDbBlockBegin
  2
*MODEL_SPACE
 70
     0
 10
0.0
 20
0.0
 30
0.0
  3
*MODEL_SPACE
  1

  0
ENDBLK
  5
22
100
AcDbEntity
  8
0
100
AcDbBlockEnd
  0
BLOCK
  5
24
100
AcDbEntity
 67
     1
  8
0
100
AcDbBlockBegin
  2
*PAPER_SPACE
 70
     0
 10
0.0
 20
0.0
 30
0.0
  3
*PAPER_SPACE
  1

  0
ENDBLK
  5
25
100
AcDbEntity
 67
     1
  8
0
100
AcDbBlockEnd
  0
BLOCK
  5
29
100
AcDbEntity
  8
0
100
AcDbBlockBegin
  2
_NONE
 70
     0
 10
0.0
 20
0.0
  0
CIRCLE
  5
2A
100
AcDbEntity
  8
0
 62
     0
100
AcDbCircle
 10
0.0
 20
0.0
 40
0.25
  0
ENDBLK
  5
2B
100
AcDbEntity
  8
0
100
AcDbBlockEnd
  0
BLOCK
  5
2D
100
AcDbEntity
  8
0
100
AcDbBlockBegin
  2
_OPEN
 70
     0
 10
0.0
 20
0.0
  0
LINE
  5
2E
100
AcDbEntity
  8
0
 62
     0
100
AcDbLine
 10
-0.965926
 20
0.258819
 11
0.0
 21
0.0
  0
LINE
  5
2F
100
AcDbEntity
  8
0
 62
     0
100
AcDbLine
 10
0.0
 20
0.0
 11
-0.965926
 21
-0.258819
  0
LINE
  5
30
100
AcDbEntity
  8
0
 62
     0
100
AcDbLine
 10
0.0
 20
0.0
 11
-1.0
 21
0.0
  0
ENDBLK
  5
31
100
AcDbEntity
  8
0
100
AcDbBlockEnd
  0
BLOCK
  5
33
100
AcDbEntity
  8
0
100
AcDbBlockBegin
  2
_CLOSED
 70
     0
 10
0.0
 20
0.0
  0
LINE
  5
34
100
AcDbEntity
  8
0
 62
     0
100
AcDbLine
 10
-0.965926
 20
0.258819
 11
0.0
 21
0.0
  0
LINE
  5
35
100
AcDbEntity
  8
0
 62
     0
100
AcDbLine
 10
0.0
 20
0.0
 11
-0.965926
 21
-0.258819
  0
LINE
  5
36
100
AcDbEntity
  8
0
 62
     0
100
AcDbLine
 10
-0.965926
 20
0.258819
 11
-0.965926
 21
-0.258819
  0
LINE
  5
37
100
AcDbEntity
  8
0
 62
     0
100
AcDbLine
 10
0.0
 20
0.0
 11
-1.0
 21
0.0
  0
ENDBLK
  5
38
100
AcDbEntity
  8
0
100
AcDbBlockEnd
  0
BLOCK
  5
3A
100
AcDbEntity
  8
0
100
AcDbBlockBegin
  2
_ORIGIN
 70
     0
 10
0.0
 20
0.0
  0
CIRCLE
  5
3B
100
AcDbEntity
  8
0
 62
     0
100
AcDbCircle
 10
0.0
 20
0.0
 40
0.5
  0
LINE
  5
3C
100
AcDbEntity
  8
0
 62
     0
100
AcDbLine
 10
0.0
 20
0.0
 11
-1.0
 21
0.0
  0
ENDBLK
  5
3D
100
AcDbEntity
  8
0
100
AcDbBlockEnd
  0
BLOCK
  5
3F
100
AcDbEntity
  8
0
100
AcDbBlockBegin
  2
_DOT
 70
     0
 10
0.0
 20
0.0
  0
POLYLINE
  5
40
100
AcDbEntity
  8
0
 62
     0
100
AcDb2dPolyline
 66
     1
 70
     1
 40
0.5
 41
0.5
  0
VERTEX
  5
41
100
AcDbEntity
  8
0
 62
     0
100
AcDbVertex
100
AcDb2dVertex
 10
-0.25
 20
0.0
 42
1.0
  0
VERTEX
  5
42
100
AcDbEntity
  8
0
 62
     0
100
AcDbVertex
100
AcDb2dVertex
 10
0.25
 20
0.0
 42
1.0
  0
SEQEND
  5
43
100
AcDbEntity
  8
0
 62
     0
  0
LINE
  5
44
100
AcDbEntity
  8
0
 62
     0
100
AcDbLine
 10
-0.5
 20
0.0
 11
-1.0
 21
0.0
  0
ENDBLK
  5
45
100
AcDbEntity
  8
0
100
AcDbBlockEnd
  0
BLOCK
  5
47
100
AcDbEntity
  8
0
100
AcDbBlockBegin
  2
_OBLIQUE
 70
     0
 10
0.0
 20
0.0
  0
LINE
  5
48
100
AcDbEntity
  8
0
 62
     0
100
AcDbLine
 10
-0.353553
 20
-0.353553
 11
0.353553
 21
0.353553
  0
ENDBLK
  5
49
100
AcDbEntity
  8
0
100
AcDbBlockEnd
  0
BLOCK
  5
4B
100
AcDbEntity
  8
DD0
100
AcDbBlockBegin
  2
DIMS0
 70
     0
 10
0.0
 20
0.0
  0
TEXT
  5
4C
100
AcDbEntity
  8
DD0
100
AcDbText
 10
432.342643
 20
572.889319
 40
20.0
  1
４－Ｍ８ボルト取付穴
 41
0.833333
  7
STANDARD
100
AcDbText
  0
LINE
  5
4D
100
AcDbEntity
  8
DD0
100
AcDbLine
 10
372.737474
 20
750.617089
 11
365.475153
 21
763.741825
  0
LINE
  5
4E
100
AcDbEntity
  8
DD0
100
AcDbLine
 10
365.475153
 20
763.741825
 11
365.202139
 21
748.74431
  0
LINE
  5
4F
100
AcDbEntity
  8
DD0
100
AcDbLine
 10
365.475153
 20
763.741825
 11
414.150957
 21
567.88932
  0
LINE
  5
50
100
AcDbEntity
  8
DD0
100
AcDbLine
 10
414.150957
 20
567.88932
 11
647.150946
 21
567.88932
  0
ENDBLK
  5
51
100
AcDbEntity
  8
DD0
100
AcDbBlockEnd
  0
BLOCK
  5
54
100
AcDbEntity
  8
DD0
100
AcDbBlockBegin
  2
DIMS1
 70
     0
 10
0.0
 20
0.0
  0
LINE
  5
55
100
AcDbEntity
  8
DD0
100
AcDbLine
 10
380.645975
 20
1154.11978
 11
484.556954
 21
1154.11978
  0
LINE
  5
56
100
AcDbEntity
  8
DD0
100
AcDbLine
 10
380.645975
 20
769.119785
 11
484.556954
 21
769.119785
  0
LINE
  5
57
100
AcDbEntity
  8
DD0
100
AcDbLine
 10
483.43924
 20
1139.630892
 11
479.556954
 21
1154.11978
  0
LINE
  5
58
100
AcDbEntity
  8
DD0
100
AcDbLine
 10
479.556954
 20
1154.11978
 11
475.674668
 21
1139.630892
  0
LINE
  5
59
100
AcDbEntity
  8
DD0
100
AcDbLine
 10
475.674668
 20
783.608672
 11
479.556954
 21
769.119785
  0
LINE
  5
5A
100
AcDbEntity
  8
DD0
100
AcDbLine
 10
479.556954
 20
769.119785
 11
483.43924
 21
783.608672
  0
LINE
  5
5B
100
AcDbEntity
  8
DD0
100
AcDbLine
 10
479.556954
 20
1154.11978
 11
479.556954
 21
769.119785
  0
TEXT
  5
5C
100
AcDbEntity
  8
DD0
100
AcDbText
 10
474.556954
 20
933.311416
 40
20.0
  1
３８５
 50
90.000003
 41
0.833333
  7
STANDARD
100
AcDbText
  0
ENDBLK
  5
5D
100
AcDbEntity
  8
DD0
100
AcDbBlockEnd
  0
BLOCK
  5
60
100
AcDbEntity
  8
DD0
100
AcDbBlockBegin
  2
DIMS2
 70
     0
 10
0.0
 20
0.0
  0
LINE
  5
61
100
AcDbEntity
  8
DD0
100
AcDbLine
 10
380.645975
 20
1154.11978
 11
484.556992
 21
1154.11978
  0
LINE
  5
62
100
AcDbEntity
  8
DD0
100
AcDbLine
 10
416.395982
 20
1241.619778
 11
484.556992
 21
1241.619778
  0
LINE
  5
63
100
AcDbEntity
  8
DD0
100
AcDbLine
 10
475.674706
 20
1168.608667
 11
479.556992
 21
1154.11978
  0
LINE
  5
64
100
AcDbEntity
  8
DD0
100
AcDbLine
 10
479.556992
 20
1154.11978
 11
483.439278
 21
1168.608667
  0
LINE
  5
65
100
AcDbEntity
  8
DD0
100
AcDbLine
 10
483.439278
 20
1227.130891
 11
479.556992
 21
1241.619778
  0
LINE
  5
66
100
AcDbEntity
  8
DD0
100
AcDbLine
 10
479.556992
 20
1241.619778
 11
475.674706
 21
1227.130891
  0
LINE
  5
67
100
AcDbEntity
  8
DD0
100
AcDbLine
 10
479.556992
 20
1154.11978
 11
479.556992
 21
1241.619778
  0
TEXT
  5
68
100
AcDbEntity
  8
DD0
100
AcDbText
 10
474.556992
 20
1179.561412
 40
20.0
  1
８８
 50
90.000003
 41
0.833333
  7
STANDARD
100
AcDbText
  0
ENDBLK
  5
69
100
AcDbEntity
  8
DD0
100
AcDbBlockEnd
  0
BLOCK
  5
6C
100
AcDbEntity
  8
DD0
100
AcDbBlockBegin
  2
DIMS3
 70
     0
 10
0.0
 20
0.0
  0
LINE
  5
6D
100
AcDbEntity
  8
DD0
100
AcDbLine
 10
416.395982
 20
681.619787
 11
541.787216
 21
681.619787
  0
LINE
  5
6E
100
AcDbEntity
  8
DD0
100
AcDbLine
 10
416.395982
 20
1241.619778
 11
541.787216
 21
1241.619778
  0
LINE
  5
6F
100
AcDbEntity
  8
DD0
100
AcDbLine
 10
532.90493
 20
696.108674
 11
536.787216
 21
681.619787
  0
LINE
  5
70
100
AcDbEntity
  8
DD0
100
AcDbLine
 10
536.787216
 20
681.619787
 11
540.669502
 21
696.108674
  0
LINE
  5
71
100
AcDbEntity
  8
DD0
100
AcDbLine
 10
540.669502
 20
1227.130891
 11
536.787216
 21
1241.619778
  0
LINE
  5
72
100
AcDbEntity
  8
DD0
100
AcDbLine
 10
536.787216
 20
1241.619778
 11
532.90493
 21
1227.130891
  0
LINE
  5
73
100
AcDbEntity
  8
DD0
100
AcDbLine
 10
536.787216
 20
681.619787
 11
536.787216
 21
1241.619778
  0
TEXT
  5
74
100
AcDbEntity
  8
DD0
100
AcDbText
 10
531.787216
 20
933.311416
 40
20.0
  1
５６０
 50
90.000003
 41
0.833333
  7
STANDARD
100
AcDbText
  0
ENDBLK
  5
75
100
AcDbEntity
  8
DD0
100
AcDbBlockEnd
  0
BLOCK
  5
78
100
AcDbEntity
  8
DD0
100
AcDbBlockBegin
  2
DIMS4
 70
     0
 10
0.0
 20
0.0
  0
LINE
  5
79
100
AcDbEntity
  8
DD0
100
AcDbLine
 10
361.395983
 20
1173.36981
 11
361.395983
 21
1300.531139
  0
LINE
  5
7A
100
AcDbEntity
  8
DD0
100
AcDbLine
 10
176.395986
 20
1173.36981
 11
176.395986
 21
1300.531139
  0
LINE
  5
7B
100
AcDbEntity
  8
DD0
100
AcDbLine
 10
346.907096
 20
1291.648853
 11
361.395983
 21
1295.531139
  0
LINE
  5
7C
100
AcDbEntity
  8
DD0
100
AcDbLine
 10
361.395983
 20
1295.531139
 11
346.907096
 21
1299.413425
  0
LINE
  5
7D
100
AcDbEntity
  8
DD0
100
AcDbLine
 10
190.884873
 20
1299.413425
 11
176.395986
 21
1295.531139
  0
LINE
  5
7E
100
AcDbEntity
  8
DD0
100
AcDbLine
 10
176.395986
 20
1295.531139
 11
190.884873
 21
1291.648853
  0
LINE
  5
7F
100
AcDbEntity
  8
DD0
100
AcDbLine
 10
361.395983
 20
1295.531139
 11
176.395986
 21
1295.531139
  0
TEXT
  5
80
100
AcDbEntity
  8
DD0
100
AcDbText
 10
240.587656
 20
1300.531139
 40
20.0
  1
１８５
 41
0.833333
  7
STANDARD
100
AcDbText
  0
ENDBLK
  5
81
100
AcDbEntity
  8
DD0
100
AcDbBlockEnd
  0
BLOCK
  5
84
100
AcDbEntity
  8
DD0
100
AcDbBlockBegin
  2
DIMS5
 70
     0
 10
0.0
 20
0.0
  0
LINE
  5
85
100
AcDbEntity
  8
DD0
100
AcDbLine
 10
277.695995
 20
671.619787
 11
541.787254
 21
671.619787
  0
LINE
  5
86
100
AcDbEntity
  8
DD0
100
AcDbLine
 10
540.66954
 20
657.1309
 11
536.787254
 21
671.619787
  0
LINE
  5
87
100
AcDbEntity
  8
DD0
100
AcDbLine
 10
536.787254
 20
671.619787
 11
532.904968
 21
657.1309
  0
LINE
  5
88
100
AcDbEntity
  8
DD0
100
AcDbLine
 10
532.904968
 20
696.108674
 11
536.787254
 21
681.619787
  0
LINE
  5
89
100
AcDbEntity
  8
DD0
100
AcDbLine
 10
536.787254
 20
681.619787
 11
540.66954
 21
696.108674
  0
LINE
  5
8A
100
AcDbEntity
  8
DD0
100
AcDbLine
 10
536.787254
 20
610.119787
 11
536.787254
 21
698.119786
  0
TEXT
  5
8B
100
AcDbEntity
  8
DD0
100
AcDbText
 10
531.787254
 20
613.961445
 40
20.0
  1
１０
 50
90.000003
 41
0.833333
  7
STANDARD
100
AcDbText
  0
ENDBLK
  5
8C
100
AcDbEntity
  8
DD0
100
AcDbBlockEnd
  0
BLOCK
  5
8F
100
AcDbEntity
  8
DD0
100
AcDbBlockBegin
  2
DIMS6
 70
     0
 10
0.0
 20
0.0
  0
LINE
  5
90
100
AcDbEntity
  8
DD0
100
AcDbLine
 10
126.395987
 20
1246.619778
 11
126.395987
 21
1351.921519
  0
LINE
  5
91
100
AcDbEntity
  8
DD0
100
AcDbLine
 10
411.395982
 20
1246.619778
 11
411.395982
 21
1351.921519
  0
LINE
  5
92
100
AcDbEntity
  8
DD0
100
AcDbLine
 10
140.884874
 20
1350.803805
 11
126.395987
 21
1346.921519
  0
LINE
  5
93
100
AcDbEntity
  8
DD0
100
AcDbLine
 10
126.395987
 20
1346.921519
 11
140.884874
 21
1343.039234
  0
LINE
  5
94
100
AcDbEntity
  8
DD0
100
AcDbLine
 10
396.907095
 20
1343.039234
 11
411.395982
 21
1346.921519
  0
LINE
  5
95
100
AcDbEntity
  8
DD0
100
AcDbLine
 10
411.395982
 20
1346.921519
 11
396.907095
 21
1350.803805
  0
LINE
  5
96
100
AcDbEntity
  8
DD0
100
AcDbLine
 10
126.395987
 20
1346.921519
 11
411.395982
 21
1346.921519
  0
TEXT
  5
97
100
AcDbEntity
  8
DD0
100
AcDbText
 10
240.587656
 20
1351.921519
 40
20.0
  1
２８５
 41
0.833333
  7
STANDARD
100
AcDbText
  0
ENDBLK
  5
98
100
AcDbEntity
  8
DD0
100
AcDbBlockEnd
  0
BLOCK
  5
9B
100
AcDbEntity
  8
DD0
100
AcDbBlockBegin
  2
DIMS7
 70
     0
 10
0.0
 20
0.0
  0
LINE
  5
9C
100
AcDbEntity
  8
DD0
100
AcDbLine
 10
856.195971
 20
1243.119793
 11
856.195971
 21
1351.921519
  0
LINE
  5
9D
100
AcDbEntity
  8
DD0
100
AcDbLine
 10
631.395979
 20
1244.819851
 11
631.395979
 21
1351.921519
  0
LINE
  5
9E
100
AcDbEntity
  8
DD0
100
AcDbLine
 10
841.707084
 20
1343.039234
 11
856.195971
 21
1346.921519
  0
LINE
  5
9F
100
AcDbEntity
  8
DD0
100
AcDbLine
 10
856.195971
 20
1346.921519
 11
841.707084
 21
1350.803805
  0
LINE
  5
A0
100
AcDbEntity
  8
DD0
100
AcDbLine
 10
645.884866
 20
1350.803805
 11
631.395979
 21
1346.921519
  0
LINE
  5
A1
100
AcDbEntity
  8
DD0
100
AcDbLine
 10
631.395979
 20
1346.921519
 11
645.884866
 21
1343.039234
  0
LINE
  5
A2
100
AcDbEntity
  8
DD0
100
AcDbLine
 10
856.195971
 20
1346.921519
 11
631.395979
 21
1346.921519
  0
TEXT
  5
A3
100
AcDbEntity
  8
DD0
100
AcDbText
 10
715.487628
 20
1351.921519
 40
20.0
  1
２２５
 41
0.833333
  7
STANDARD
100
AcDbText
  0
ENDBLK
  5
A4
100
AcDbEntity
  8
DD0
100
AcDbBlockEnd
  0
BLOCK
  5
A7
100
AcDbEntity
  8
DD0
100
AcDbBlockBegin
  2
DIMS8
 70
     0
 10
0.0
 20
0.0
  0
LINE
  5
A8
100
AcDbEntity
  8
DD0
100
AcDbLine
 10
870.684858
 20
736.902065
 11
856.195971
 21
733.01978
  0
LINE
  5
A9
100
AcDbEntity
  8
DD0
100
AcDbLine
 10
856.195971
 20
733.01978
 11
870.684858
 21
729.137494
  0
LINE
  5
AA
100
AcDbEntity
  8
DD0
100
AcDbLine
 10
835.707099
 20
729.137494
 11
850.195986
 21
733.01978
  0
LINE
  5
AB
100
AcDbEntity
  8
DD0
100
AcDbLine
 10
850.195986
 20
733.01978
 11
835.707099
 21
736.902065
  0
LINE
  5
AC
100
AcDbEntity
  8
DD0
100
AcDbLine
 10
957.695966
 20
733.01978
 11
833.695987
 21
733.01978
  0
TEXT
  5
AD
100
AcDbEntity
  8
DD0
100
AcDbText
 10
874.387619
 20
738.01978
 40
20.0
  1
ｔ１．６
 41
0.833333
  7
STANDARD
100
AcDbText
  0
ENDBLK
  5
AE
100
AcDbEntity
  8
DD0
100
AcDbBlockEnd
  0
ENDSEC
  0
SECTION
  2
ENTITIES
  0
INSERT
  5
52
100
AcDbEntity
  8
DD0
100
AcDbBlockReference
  2
DIMS0
 10
0.0
 20
0.0
  0
INSERT
  5
5E
100
AcDbEntity
  8
DD0
100
AcDbBlockReference
  2
DIMS1
 10
0.0
 20
0.0
  0
INSERT
  5
6A
100
AcDbEntity
  8
DD0
100
AcDbBlockReference
  2
DIMS2
 10
0.0
 20
0.0
  0
INSERT
  5
76
100
AcDbEntity
  8
DD0
100
AcDbBlockReference
  2
DIMS3
 10
0.0
 20
0.0
  0
INSERT
  5
82
100
AcDbEntity
  8
DD0
100
AcDbBlockReference
  2
DIMS4
 10
0.0
 20
0.0
  0
INSERT
  5
8D
100
AcDbEntity
  8
DD0
100
AcDbBlockReference
  2
DIMS5
 10
0.0
 20
0.0
  0
INSERT
  5
99
100
AcDbEntity
  8
DD0
100
AcDbBlockReference
  2
DIMS6
 10
0.0
 20
0.0
  0
INSERT
  5
A5
100
AcDbEntity
  8
DD0
100
AcDbBlockReference
  2
DIMS7
 10
0.0
 20
0.0
  0
INSERT
  5
AF
100
AcDbEntity
  8
DD0
100
AcDbBlockReference
  2
DIMS8
 10
0.0
 20
0.0
  0
CIRCLE
  5
B0
100
AcDbEntity
  8
M0
  6
DOT
 62
     4
100
AcDbCircle
 10
176.395986
 20
769.119815
 40
6.75
  0
CIRCLE
  5
B1
100
AcDbEntity
  8
M0
  6
DOT
 62
     4
100
AcDbCircle
 10
361.395986
 20
769.119815
 40
6.75
  0
LINE
  5
B2
100
AcDbEntity
  8
M0
  6
DASHDOT
 62
     4
100
AcDbLine
 10
347.145986
 20
1154.119815
 11
375.645986
 21
1154.119815
  0
LINE
  5
B3
100
AcDbEntity
  8
M0
  6
DASHDOT
 62
     4
100
AcDbLine
 10
361.395986
 20
1112.119815
 11
361.395986
 21
1168.369815
  0
ARC
  5
B4
100
AcDbEntity
  8
M0
  6
DOT
 62
     4
100
AcDbCircle
 10
361.395986
 20
1133.119815
 40
13.5
100
AcDbArc
 50
120.0
 51
420.0
  0
ARC
  5
B5
100
AcDbEntity
  8
M0
  6
DOT
 62
     4
100
AcDbCircle
 10
361.395986
 20
1154.119815
 40
6.75
100
AcDbArc
 50
0.0
 51
180.0
  0
ARC
  5
B6
100
AcDbEntity
  8
M0
  6
DOT
 62
     4
100
AcDbCircle
 10
176.395986
 20
1133.119815
 40
13.5
100
AcDbArc
 50
120.0
 51
420.0
  0
ARC
  5
B7
100
AcDbEntity
  8
M0
  6
DOT
 62
     4
100
AcDbCircle
 10
176.395986
 20
1154.119815
 40
6.75
100
AcDbArc
 50
0.0
 51
180.0
  0
LINE
  5
B8
100
AcDbEntity
  8
M0
  6
DASHDOT
 62
     4
100
AcDbLine
 10
176.395986
 20
1112.119815
 11
176.395986
 21
1168.369815
  0
LINE
  5
B9
100
AcDbEntity
  8
M0
  6
DOT
 62
     4
100
AcDbLine
 10
354.645986
 20
1154.119815
 11
354.645986
 21
1144.811158
  0
LINE
  5
BA
100
AcDbEntity
  8
M0
  6
DASHDOT
 62
     4
100
AcDbLine
 10
347.145986
 20
769.119815
 11
375.645986
 21
769.119815
  0
LINE
  5
BB
100
AcDbEntity
  8
M0
  6
DOT
 62
     4
100
AcDbLine
 10
169.645986
 20
1154.119815
 11
169.645986
 21
1144.811158
  0
LINE
  5
BC
100
AcDbEntity
  8
M0
  6
DOT
 62
     4
100
AcDbLine
 10
368.145986
 20
1154.119815
 11
368.145986
 21
1144.811158
  0
LINE
  5
BD
100
AcDbEntity
  8
M0
  6
DASHDOT
 62
     4
100
AcDbLine
 10
176.395986
 20
754.869815
 11
176.395986
 21
783.369815
  0
LINE
  5
BE
100
AcDbEntity
  8
M0
  6
DASHDOT
 62
     4
100
AcDbLine
 10
162.145986
 20
1154.119815
 11
190.645986
 21
1154.119815
  0
LINE
  5
BF
100
AcDbEntity
  8
M0
  6
DASHDOT
 62
     4
100
AcDbLine
 10
361.395986
 20
754.869815
 11
361.395986
 21
783.369815
  0
LINE
  5
C0
100
AcDbEntity
  8
M0
  6
DASHDOT
 62
     4
100
AcDbLine
 10
162.145986
 20
769.119815
 11
190.645986
 21
769.119815
  0
LINE
  5
C1
100
AcDbEntity
  8
M0
  6
DOT
 62
     4
100
AcDbLine
 10
183.145986
 20
1154.119815
 11
183.145986
 21
1144.811158
  0
LINE
  5
C2
100
AcDbEntity
  8
M0
 62
     4
100
AcDbLine
 10
264.395986
 20
681.619815
 11
264.395986
 21
678.619815
  0
LINE
  5
C3
100
AcDbEntity
  8
M0
 62
     4
100
AcDbLine
 10
273.895986
 20
672.819815
 11
263.895986
 21
672.819815
  0
LINE
  5
C4
100
AcDbEntity
  8
M0
 62
     4
100
AcDbLine
 10
263.895986
 20
672.819815
 11
265.095986
 21
671.619815
  0
LINE
  5
C5
100
AcDbEntity
  8
M0
 62
     4
100
AcDbLine
 10
273.395986
 20
681.619815
 11
273.395986
 21
678.619815
  0
LINE
  5
C6
100
AcDbEntity
  8
M0
 62
     4
100
AcDbLine
 10
272.695986
 20
671.619815
 11
273.895986
 21
672.819815
  0
LINE
  5
C7
100
AcDbEntity
  8
M0
 62
     4
100
AcDbLine
 10
263.895986
 20
678.619815
 11
263.895986
 21
672.819815
  0
LINE
  5
C8
100
AcDbEntity
  8
M0
 62
     4
100
AcDbLine
 10
273.895986
 20
672.819815
 11
273.895986
 21
678.619815
  0
LINE
  5
C9
100
AcDbEntity
  8
M0
 62
     4
100
AcDbLine
 10
273.395986
 20
681.619815
 11
264.395986
 21
681.619815
  0
LINE
  5
CA
100
AcDbEntity
  8
M0
 62
     4
100
AcDbLine
 10
265.095986
 20
671.619815
 11
272.695986
 21
671.619815
  0
LINE
  5
CB
100
AcDbEntity
  8
M0
 62
     4
100
AcDbLine
 10
273.895986
 20
678.619815
 11
263.895986
 21
678.619815
  0
LINE
  5
CC
100
AcDbEntity
  8
M0
  6
DASHDOT
 62
     4
100
AcDbLine
 10
363.395986
 20
666.419818
 11
363.395986
 21
691.619815
  0
LINE
  5
CD
100
AcDbEntity
  8
M0
 62
     4
100
AcDbLine
 10
355.894994
 20
681.619815
 11
355.894994
 21
677.113211
  0
LINE
  5
CE
100
AcDbEntity
  8
M0
 62
     4
100
AcDbLine
 10
357.095987
 20
676.419818
 11
369.695985
 21
676.419818
  0
LINE
  5
CF
100
AcDbEntity
  8
M0
 62
     4
100
AcDbLine
 10
370.896993
 20
677.11322
 11
370.896993
 21
681.619815
  0
LINE
  5
D0
100
AcDbEntity
  8
M0
 62
     4
100
AcDbLine
 10
359.643224
 20
677.113211
 11
359.643224
 21
681.619815
  0
LINE
  5
D1
100
AcDbEntity
  8
M0
 62
     4
100
AcDbLine
 10
367.148763
 20
677.113211
 11
367.148763
 21
681.619815
  0
LINE
  5
D2
100
AcDbEntity
  8
M0
 62
     4
100
AcDbLine
 10
355.894994
 20
677.113211
 11
357.095987
 21
676.419819
  0
ARC
  5
D3
100
AcDbEntity
  8
M0
 62
     4
100
AcDbCircle
 10
363.395993
 20
686.921851
 40
10.502033
100
AcDbArc
 50
249.063198
 51
290.93668
  0
ARC
  5
D4
100
AcDbEntity
  8
M0
 62
     4
100
AcDbCircle
 10
357.392369
 20
680.419818
 40
4.0
100
AcDbArc
 50
270.0
 51
304.243644
  0
LINE
  5
D5
100
AcDbEntity
  8
M0
 62
     4
100
AcDbLine
 10
370.896978
 20
677.113211
 11
369.695985
 21
676.419819
  0
ARC
  5
D6
100
AcDbEntity
  8
M0
 62
     4
100
AcDbCircle
 10
369.399602
 20
680.419818
 40
4.0
100
AcDbArc
 50
235.755784
 51
270.0
  0
LINE
  5
D7
100
AcDbEntity
  8
M0
 62
     4
100
AcDbLine
 10
411.395986
 20
681.619815
 11
411.395986
 21
1241.619815
  0
LINE
  5
D8
100
AcDbEntity
  8
M0
 62
     4
100
AcDbLine
 10
411.395986
 20
1241.619815
 11
126.395986
 21
1241.619815
  0
LINE
  5
D9
100
AcDbEntity
  8
M0
 62
     4
100
AcDbLine
 10
126.395986
 20
1241.619815
 11
126.395986
 21
681.619815
  0
LINE
  5
DA
100
AcDbEntity
  8
M0
 62
     4
100
AcDbLine
 10
126.395986
 20
681.619815
 11
411.395986
 21
681.619815
  0
LINE
  5
DB
100
AcDbEntity
  8
M0
  6
DASHDOT
 62
     4
100
AcDbLine
 10
101.395986
 20
961.619815
 11
436.395985
 21
961.619815
  0
LINE
  5
DC
100
AcDbEntity
  8
M0
  6
DASHDOT
 62
     4
100
AcDbLine
 10
268.895986
 20
656.619815
 11
268.895986
 21
1266.619814
  0
LINE
  5
DD
100
AcDbEntity
  8
M0
 62
     7
100
AcDbLine
 10
649.195986
 20
672.819815
 11
649.195986
 21
678.619815
  0
LINE
  5
DE
100
AcDbEntity
  8
M0
 62
     7
100
AcDbLine
 10
639.195986
 20
678.619815
 11
639.195986
 21
672.819815
  0
LINE
  5
DF
100
AcDbEntity
  8
M0
 62
     7
100
AcDbLine
 10
640.395986
 20
671.619815
 11
647.995986
 21
671.619815
  0
LINE
  5
E0
100
AcDbEntity
  8
M0
 62
     7
100
AcDbLine
 10
648.695986
 20
681.619815
 11
639.695986
 21
681.619815
  0
LINE
  5
E1
100
AcDbEntity
  8
M0
 62
     7
100
AcDbLine
 10
649.195986
 20
678.619815
 11
639.195986
 21
678.619815
  0
LINE
  5
E2
100
AcDbEntity
  8
M0
 62
     7
100
AcDbLine
 10
649.195986
 20
672.819815
 11
639.195986
 21
672.819815
  0
LINE
  5
E3
100
AcDbEntity
  8
M0
 62
     7
100
AcDbLine
 10
639.695986
 20
681.619815
 11
639.695986
 21
678.619815
  0
LINE
  5
E4
100
AcDbEntity
  8
M0
 62
     7
100
AcDbLine
 10
648.695986
 20
681.619815
 11
648.695986
 21
678.619815
  0
LINE
  5
E5
100
AcDbEntity
  8
M0
 62
     7
100
AcDbLine
 10
639.195986
 20
672.819815
 11
640.395986
 21
671.619815
  0
LINE
  5
E6
100
AcDbEntity
  8
M0
 62
     7
100
AcDbLine
 10
647.995986
 20
671.619815
 11
649.195986
 21
672.819815
  0
LINE
  5
E7
100
AcDbEntity
  8
M0
 62
     7
100
AcDbLine
 10
814.696953
 20
681.919829
 11
827.697442
 21
681.919807
  0
LINE
  5
E8
100
AcDbEntity
  8
M0
 62
     7
100
AcDbLine
 10
817.946449
 20
676.420064
 11
824.446686
 21
676.420046
  0
LINE
  5
E9
100
AcDbEntity
  8
M0
 62
     7
100
AcDbLine
 10
827.697413
 20
677.147444
 11
827.697426
 21
681.919792
  0
LINE
  5
EA
100
AcDbEntity
  8
M0
 62
     7
100
AcDbLine
 10
814.696953
 20
681.919829
 11
814.69694
 21
677.147481
  0
LINE
  5
EB
100
AcDbEntity
  8
M0
  6
DASHDOT
 62
     7
100
AcDbLine
 10
821.195933
 20
666.420055
 11
821.196014
 21
695.119815
  0
LINE
  5
EC
100
AcDbEntity
  8
M0
 62
     7
100
AcDbLine
 10
821.195977
 20
681.91984
 11
821.195963
 21
677.147462
  0
ARC
  5
ED
100
AcDbEntity
  8
M0
 62
     7
100
AcDbCircle
 10
824.446708
 20
684.047353
 40
7.627309
100
AcDbArc
 50
244.773433
 51
295.226126
  0
ARC
  5
EE
100
AcDbEntity
  8
M0
 62
     7
100
AcDbCircle
 10
817.946471
 20
684.041952
 40
7.621889
100
AcDbArc
 50
244.764363
 51
295.23564
  0
LINE
  5
EF
100
AcDbEntity
  8
M0
 62
     7
100
AcDbLine
 10
829.195968
 20
683.919818
 11
829.195968
 21
685.119815
  0
LINE
  5
F0
100
AcDbEntity
  8
M0
 62
     7
100
AcDbLine
 10
829.195968
 20
685.119815
 11
813.195968
 21
685.119815
  0
LINE
  5
F1
100
AcDbEntity
  8
M0
 62
     7
100
AcDbLine
 10
813.195968
 20
685.119815
 11
813.195968
 21
683.919818
  0
LINE
  5
F2
100
AcDbEntity
  8
M0
 62
     7
100
AcDbLine
 10
813.195968
 20
683.919818
 11
829.195968
 21
683.919818
  0
LINE
  5
F3
100
AcDbEntity
  8
M0
 62
     7
100
AcDbLine
 10
828.895989
 20
681.919818
 11
828.895989
 21
683.919818
  0
LINE
  5
F4
100
AcDbEntity
  8
M0
 62
     7
100
AcDbLine
 10
828.895989
 20
683.919818
 11
813.49598
 21
683.919818
  0
LINE
  5
F5
100
AcDbEntity
  8
M0
 62
     7
100
AcDbLine
 10
813.49598
 20
683.919818
 11
813.49598
 21
681.919818
  0
LINE
  5
F6
100
AcDbEntity
  8
M0
 62
     7
100
AcDbLine
 10
813.49598
 20
681.919818
 11
828.895989
 21
681.919818
  0
LINE
  5
F7
100
AcDbEntity
  8
M0
 62
     7
100
AcDbLine
 10
821.195992
 20
681.919818
 11
822.350686
 21
683.919818
  0
LINE
  5
F8
100
AcDbEntity
  8
M0
 62
     7
100
AcDbLine
 10
820.041298
 20
681.919818
 11
821.195992
 21
683.919818
  0
LINE
  5
F9
100
AcDbEntity
  8
M0
 62
     7
100
AcDbLine
 10
856.195986
 20
685.119815
 11
856.195986
 21
1238.119815
  0
LINE
  5
FA
100
AcDbEntity
  8
M0
 62
     7
100
AcDbLine
 10
856.195986
 20
1238.119815
 11
656.395986
 21
1238.119815
  0
LINE
  5
FB
100
AcDbEntity
  8
M0
 62
     7
100
AcDbLine
 10
656.395986
 20
685.119815
 11
856.195986
 21
685.119815
  0
LINE
  5
FC
100
AcDbEntity
  8
M0
  6
DASHDOT
 62
     7
100
AcDbLine
 10
611.395986
 20
961.619815
 11
876.195986
 21
961.619815
  0
LINE
  5
FD
100
AcDbEntity
  8
M0
  6
DOT
 62
     7
100
AcDbLine
 10
850.195986
 20
685.119815
 11
850.195986
 21
1238.119815
  0
LINE
  5
FE
100
AcDbEntity
  8
M0
 62
     7
100
AcDbLine
 10
656.395986
 20
681.619815
 11
656.395986
 21
1241.619815
  0
LINE
  5
FF
100
AcDbEntity
  8
M0
 62
     7
100
AcDbLine
 10
631.395986
 20
1239.819815
 11
631.395986
 21
683.419815
  0
LINE
  5
100
100
AcDbEntity
  8
M0
 62
     7
100
AcDbLine
 10
633.195986
 20
681.619815
 11
656.395986
 21
681.619815
  0
LINE
  5
101
100
AcDbEntity
  8
M0
 62
     7
100
AcDbLine
 10
656.395986
 20
1241.619815
 11
633.195986
 21
1241.619815
  0
ARC
  5
102
100
AcDbEntity
  8
M0
 62
     7
100
AcDbCircle
 10
633.195986
 20
1239.819815
 40
1.8
100
AcDbArc
 50
90.0
 51
180.0
  0
ARC
  5
103
100
AcDbEntity
  8
M0
 62
     7
100
AcDbCircle
 10
633.195986
 20
683.419815
 40
1.8
100
AcDbArc
 50
180.0
 51
270.0
  0
LINE
  5
104
100
AcDbEntity
  8
M0
 62
     7
100
AcDbLine
 10
688.695986
 20
758.119815
 11
688.695986
 21
736.119815
  0
LINE
  5
105
100
AcDbEntity
  8
M0
 62
     7
100
AcDbLine
 10
685.695986
 20
758.119815
 11
685.695986
 21
736.119815
  0
ARC
  5
106
100
AcDbEntity
  8
M0
 62
     7
100
AcDbCircle
 10
687.195986
 20
736.119815
 40
1.5
100
AcDbArc
 50
-180.0
 51
0.0
  0
ARC
  5
107
100
AcDbEntity
  8
M0
 62
     7
100
AcDbCircle
 10
687.195986
 20
758.119815
 40
1.5
100
AcDbArc
 50
0.0
 51
180.0
  0
ARC
  5
108
100
AcDbEntity
  8
M0
 62
     7
100
AcDbCircle
 10
687.195986
 20
758.119815
 40
1.5
100
AcDbArc
 50
0.0
 51
180.0
  0
LINE
  5
109
100
AcDbEntity
  8
M0
 62
     7
100
AcDbLine
 10
688.695986
 20
758.119815
 11
688.695986
 21
736.119815
  0
LINE
  5
10A
100
AcDbEntity
  8
M0
 62
     7
100
AcDbLine
 10
685.695986
 20
758.119815
 11
685.695986
 21
736.119815
  0
ARC
  5
10B
100
AcDbEntity
  8
M0
 62
     7
100
AcDbCircle
 10
687.195986
 20
736.119815
 40
1.5
100
AcDbArc
 50
-180.0
 51
0.0
  0
ARC
  5
10C
100
AcDbEntity
  8
M0
 62
     7
100
AcDbCircle
 10
687.195986
 20
787.119815
 40
1.5
100
AcDbArc
 50
0.0
 51
180.0
  0
LINE
  5
10D
100
AcDbEntity
  8
M0
 62
     7
100
AcDbLine
 10
688.695986
 20
787.119815
 11
688.695986
 21
765.119815
  0
LINE
  5
10E
100
AcDbEntity
  8
M0
 62
     7
100
AcDbLine
 10
685.695986
 20
787.119815
 11
685.695986
 21
765.119815
  0
ARC
  5
10F
100
AcDbEntity
  8
M0
 62
     7
100
AcDbCircle
 10
687.195986
 20
765.119815
 40
1.5
100
AcDbArc
 50
-180.0
 51
0.0
  0
ARC
  5
110
100
AcDbEntity
  8
M0
 62
     7
100
AcDbCircle
 10
693.195986
 20
758.119815
 40
1.5
100
AcDbArc
 50
0.0
 51
180.0
  0
LINE
  5
111
100
AcDbEntity
  8
M0
 62
     7
100
AcDbLine
 10
694.695986
 20
758.119815
 11
694.695986
 21
736.119815
  0
LINE
  5
112
100
AcDbEntity
  8
M0
 62
     7
100
AcDbLine
 10
691.695986
 20
758.119815
 11
691.695986
 21
736.119815
  0
ARC
  5
113
100
AcDbEntity
  8
M0
 62
     7
100
AcDbCircle
 10
693.195986
 20
736.119815
 40
1.5
100
AcDbArc
 50
-180.0
 51
0.0
  0
ARC
  5
114
100
AcDbEntity
  8
M0
 62
     7
100
AcDbCircle
 10
693.195986
 20
787.119815
 40
1.5
100
AcDbArc
 50
0.0
 51
180.0
  0
LINE
  5
115
100
AcDbEntity
  8
M0
 62
     7
100
AcDbLine
 10
694.695986
 20
787.119815
 11
694.695986
 21
765.119815
  0
LINE
  5
116
100
AcDbEntity
  8
M0
 62
     7
100
AcDbLine
 10
691.695986
 20
787.119815
 11
691.695986
 21
765.119815
  0
ARC
  5
117
100
AcDbEntity
  8
M0
 62
     7
100
AcDbCircle
 10
693.195986
 20
765.119815
 40
1.5
100
AcDbArc
 50
-180.0
 51
0.0
  0
ARC
  5
118
100
AcDbEntity
  8
M0
 62
     7
100
AcDbCircle
 10
699.195986
 20
758.119815
 40
1.5
100
AcDbArc
 50
0.0
 51
180.0
  0
LINE
  5
119
100
AcDbEntity
  8
M0
 62
     7
100
AcDbLine
 10
700.695986
 20
758.119815
 11
700.695986
 21
736.119815
  0
LINE
  5
11A
100
AcDbEntity
  8
M0
 62
     7
100
AcDbLine
 10
697.695986
 20
758.119815
 11
697.695986
 21
736.119815
  0
ARC
  5
11B
100
AcDbEntity
  8
M0
 62
     7
100
AcDbCircle
 10
699.195986
 20
736.119815
 40
1.5
100
AcDbArc
 50
-180.0
 51
0.0
  0
ARC
  5
11C
100
AcDbEntity
  8
M0
 62
     7
100
AcDbCircle
 10
699.195986
 20
787.119815
 40
1.5
100
AcDbArc
 50
0.0
 51
180.0
  0
LINE
  5
11D
100
AcDbEntity
  8
M0
 62
     7
100
AcDbLine
 10
700.695986
 20
787.119815
 11
700.695986
 21
765.119815
  0
LINE
  5
11E
100
AcDbEntity
  8
M0
 62
     7
100
AcDbLine
 10
697.695986
 20
787.119815
 11
697.695986
 21
765.119815
  0
ARC
  5
11F
100
AcDbEntity
  8
M0
 62
     7
100
AcDbCircle
 10
699.195986
 20
765.119815
 40
1.5
100
AcDbArc
 50
-180.0
 51
0.0
  0
ARC
  5
120
100
AcDbEntity
  8
M0
 62
     7
100
AcDbCircle
 10
705.195986
 20
758.119815
 40
1.5
100
AcDbArc
 50
0.0
 51
180.0
  0
LINE
  5
121
100
AcDbEntity
  8
M0
 62
     7
100
AcDbLine
 10
706.695986
 20
758.119815
 11
706.695986
 21
736.119815
  0
LINE
  5
122
100
AcDbEntity
  8
M0
 62
     7
100
AcDbLine
 10
703.695986
 20
758.119815
 11
703.695986
 21
736.119815
  0
ARC
  5
123
100
AcDbEntity
  8
M0
 62
     7
100
AcDbCircle
 10
705.195986
 20
736.119815
 40
1.5
100
AcDbArc
 50
-180.0
 51
0.0
  0
ARC
  5
124
100
AcDbEntity
  8
M0
 62
     7
100
AcDbCircle
 10
705.195986
 20
787.119815
 40
1.5
100
AcDbArc
 50
0.0
 51
180.0
  0
LINE
  5
125
100
AcDbEntity
  8
M0
 62
     7
100
AcDbLine
 10
706.695986
 20
787.119815
 11
706.695986
 21
765.119815
  0
LINE
  5
126
100
AcDbEntity
  8
M0
 62
     7
100
AcDbLine
 10
703.695986
 20
787.119815
 11
703.695986
 21
765.119815
  0
ARC
  5
127
100
AcDbEntity
  8
M0
 62
     7
100
AcDbCircle
 10
705.195986
 20
765.119815
 40
1.5
100
AcDbArc
 50
-180.0
 51
0.0
  0
ARC
  5
128
100
AcDbEntity
  8
M0
 62
     7
100
AcDbCircle
 10
711.195986
 20
758.119815
 40
1.5
100
AcDbArc
 50
0.0
 51
180.0
  0
LINE
  5
129
100
AcDbEntity
  8
M0
 62
     7
100
AcDbLine
 10
712.695986
 20
758.119815
 11
712.695986
 21
736.119815
  0
LINE
  5
12A
100
AcDbEntity
  8
M0
 62
     7
100
AcDbLine
 10
709.695986
 20
758.119815
 11
709.695986
 21
736.119815
  0
ARC
  5
12B
100
AcDbEntity
  8
M0
 62
     7
100
AcDbCircle
 10
711.195986
 20
736.119815
 40
1.5
100
AcDbArc
 50
-180.0
 51
0.0
  0
ARC
  5
12C
100
AcDbEntity
  8
M0
 62
     7
100
AcDbCircle
 10
711.195986
 20
787.119815
 40
1.5
100
AcDbArc
 50
0.0
 51
180.0
  0
LINE
  5
12D
100
AcDbEntity
  8
M0
 62
     7
100
AcDbLine
 10
712.695986
 20
787.119815
 11
712.695986
 21
765.119815
  0
LINE
  5
12E
100
AcDbEntity
  8
M0
 62
     7
100
AcDbLine
 10
709.695986
 20
787.119815
 11
709.695986
 21
765.119815
  0
ARC
  5
12F
100
AcDbEntity
  8
M0
 62
     7
100
AcDbCircle
 10
711.195986
 20
765.119815
 40
1.5
100
AcDbArc
 50
-180.0
 51
0.0
  0
ARC
  5
130
100
AcDbEntity
  8
M0
 62
     7
100
AcDbCircle
 10
717.195986
 20
758.119815
 40
1.5
100
AcDbArc
 50
0.0
 51
180.0
  0
LINE
  5
131
100
AcDbEntity
  8
M0
 62
     7
100
AcDbLine
 10
718.695986
 20
758.119815
 11
718.695986
 21
736.119815
  0
LINE
  5
132
100
AcDbEntity
  8
M0
 62
     7
100
AcDbLine
 10
715.695986
 20
758.119815
 11
715.695986
 21
736.119815
  0
ARC
  5
133
100
AcDbEntity
  8
M0
 62
     7
100
AcDbCircle
 10
717.195986
 20
736.119815
 40
1.5
100
AcDbArc
 50
-180.0
 51
0.0
  0
ARC
  5
134
100
AcDbEntity
  8
M0
 62
     7
100
AcDbCircle
 10
717.195986
 20
787.119815
 40
1.5
100
AcDbArc
 50
0.0
 51
180.0
  0
LINE
  5
135
100
AcDbEntity
  8
M0
 62
     7
100
AcDbLine
 10
718.695986
 20
787.119815
 11
718.695986
 21
765.119815
  0
LINE
  5
136
100
AcDbEntity
  8
M0
 62
     7
100
AcDbLine
 10
715.695986
 20
787.119815
 11
715.695986
 21
765.119815
  0
ARC
  5
137
100
AcDbEntity
  8
M0
 62
     7
100
AcDbCircle
 10
717.195986
 20
765.119815
 40
1.5
100
AcDbArc
 50
-180.0
 51
0.0
  0
ARC
  5
138
100
AcDbEntity
  8
M0
 62
     7
100
AcDbCircle
 10
723.195986
 20
758.119815
 40
1.5
100
AcDbArc
 50
0.0
 51
180.0
  0
LINE
  5
139
100
AcDbEntity
  8
M0
 62
     7
100
AcDbLine
 10
724.695986
 20
758.119815
 11
724.695986
 21
736.119815
  0
LINE
  5
13A
100
AcDbEntity
  8
M0
 62
     7
100
AcDbLine
 10
721.695986
 20
758.119815
 11
721.695986
 21
736.119815
  0
ARC
  5
13B
100
AcDbEntity
  8
M0
 62
     7
100
AcDbCircle
 10
723.195986
 20
736.119815
 40
1.5
100
AcDbArc
 50
-180.0
 51
0.0
  0
ARC
  5
13C
100
AcDbEntity
  8
M0
 62
     7
100
AcDbCircle
 10
723.195986
 20
787.119815
 40
1.5
100
AcDbArc
 50
0.0
 51
180.0
  0
LINE
  5
13D
100
AcDbEntity
  8
M0
 62
     7
100
AcDbLine
 10
724.695986
 20
787.119815
 11
724.695986
 21
765.119815
  0
LINE
  5
13E
100
AcDbEntity
  8
M0
 62
     7
100
AcDbLine
 10
721.695986
 20
787.119815
 11
721.695986
 21
765.119815
  0
ARC
  5
13F
100
AcDbEntity
  8
M0
 62
     7
100
AcDbCircle
 10
723.195986
 20
765.119815
 40
1.5
100
AcDbArc
 50
-180.0
 51
0.0
  0
ARC
  5
140
100
AcDbEntity
  8
M0
 62
     7
100
AcDbCircle
 10
729.195986
 20
758.119815
 40
1.5
100
AcDbArc
 50
0.0
 51
180.0
  0
LINE
  5
141
100
AcDbEntity
  8
M0
 62
     7
100
AcDbLine
 10
730.695986
 20
758.119815
 11
730.695986
 21
736.119815
  0
LINE
  5
142
100
AcDbEntity
  8
M0
 62
     7
100
AcDbLine
 10
727.695986
 20
758.119815
 11
727.695986
 21
736.119815
  0
ARC
  5
143
100
AcDbEntity
  8
M0
 62
     7
100
AcDbCircle
 10
729.195986
 20
736.119815
 40
1.5
100
AcDbArc
 50
-180.0
 51
0.0
  0
ARC
  5
144
100
AcDbEntity
  8
M0
 62
     7
100
AcDbCircle
 10
729.195986
 20
787.119815
 40
1.5
100
AcDbArc
 50
0.0
 51
180.0
  0
LINE
  5
145
100
AcDbEntity
  8
M0
 62
     7
100
AcDbLine
 10
730.695986
 20
787.119815
 11
730.695986
 21
765.119815
  0
LINE
  5
146
100
AcDbEntity
  8
M0
 62
     7
100
AcDbLine
 10
727.695986
 20
787.119815
 11
727.695986
 21
765.119815
  0
ARC
  5
147
100
AcDbEntity
  8
M0
 62
     7
100
AcDbCircle
 10
729.195986
 20
765.119815
 40
1.5
100
AcDbArc
 50
-180.0
 51
0.0
  0
ARC
  5
148
100
AcDbEntity
  8
M0
 62
     7
100
AcDbCircle
 10
735.195986
 20
758.119815
 40
1.5
100
AcDbArc
 50
0.0
 51
180.0
  0
LINE
  5
149
100
AcDbEntity
  8
M0
 62
     7
100
AcDbLine
 10
736.695986
 20
758.119815
 11
736.695986
 21
736.119815
  0
LINE
  5
14A
100
AcDbEntity
  8
M0
 62
     7
100
AcDbLine
 10
733.695986
 20
758.119815
 11
733.695986
 21
736.119815
  0
ARC
  5
14B
100
AcDbEntity
  8
M0
 62
     7
100
AcDbCircle
 10
735.195986
 20
736.119815
 40
1.5
100
AcDbArc
 50
-180.0
 51
0.0
  0
ARC
  5
14C
100
AcDbEntity
  8
M0
 62
     7
100
AcDbCircle
 10
735.195986
 20
787.119815
 40
1.5
100
AcDbArc
 50
0.0
 51
180.0
  0
LINE
  5
14D
100
AcDbEntity
  8
M0
 62
     7
100
AcDbLine
 10
736.695986
 20
787.119815
 11
736.695986
 21
765.119815
  0
LINE
  5
14E
100
AcDbEntity
  8
M0
 62
     7
100
AcDbLine
 10
733.695986
 20
787.119815
 11
733.695986
 21
765.119815
  0
ARC
  5
14F
100
AcDbEntity
  8
M0
 62
     7
100
AcDbCircle
 10
735.195986
 20
765.119815
 40
1.5
100
AcDbArc
 50
-180.0
 51
0.0
  0
ARC
  5
150
100
AcDbEntity
  8
M0
 62
     7
100
AcDbCircle
 10
741.195986
 20
758.119815
 40
1.5
100
AcDbArc
 50
0.0
 51
180.0
  0
LINE
  5
151
100
AcDbEntity
  8
M0
 62
     7
100
AcDbLine
 10
742.695986
 20
758.119815
 11
742.695986
 21
736.119815
  0
LINE
  5
152
100
AcDbEntity
  8
M0
 62
     7
100
AcDbLine
 10
739.695986
 20
758.119815
 11
739.695986
 21
736.119815
  0
ARC
  5
153
100
AcDbEntity
  8
M0
 62
     7
100
AcDbCircle
 10
741.195986
 20
736.119815
 40
1.5
100
AcDbArc
 50
-180.0
 51
0.0
  0
ARC
  5
154
100
AcDbEntity
  8
M0
 62
     7
100
AcDbCircle
 10
741.195986
 20
787.119815
 40
1.5
100
AcDbArc
 50
0.0
 51
180.0
  0
LINE
  5
155
100
AcDbEntity
  8
M0
 62
     7
100
AcDbLine
 10
742.695986
 20
787.119815
 11
742.695986
 21
765.119815
  0
LINE
  5
156
100
AcDbEntity
  8
M0
 62
     7
100
AcDbLine
 10
739.695986
 20
787.119815
 11
739.695986
 21
765.119815
  0
ARC
  5
157
100
AcDbEntity
  8
M0
 62
     7
100
AcDbCircle
 10
741.195986
 20
765.119815
 40
1.5
100
AcDbArc
 50
-180.0
 51
0.0
  0
ARC
  5
158
100
AcDbEntity
  8
M0
 62
     7
100
AcDbCircle
 10
747.195986
 20
758.119815
 40
1.5
100
AcDbArc
 50
0.0
 51
180.0
  0
LINE
  5
159
100
AcDbEntity
  8
M0
 62
     7
100
AcDbLine
 10
748.695986
 20
758.119815
 11
748.695986
 21
736.119815
  0
LINE
  5
15A
100
AcDbEntity
  8
M0
 62
     7
100
AcDbLine
 10
745.695986
 20
758.119815
 11
745.695986
 21
736.119815
  0
ARC
  5
15B
100
AcDbEntity
  8
M0
 62
     7
100
AcDbCircle
 10
747.195986
 20
736.119815
 40
1.5
100
AcDbArc
 50
-180.0
 51
0.0
  0
ARC
  5
15C
100
AcDbEntity
  8
M0
 62
     7
100
AcDbCircle
 10
747.195986
 20
787.119815
 40
1.5
100
AcDbArc
 50
0.0
 51
180.0
  0
LINE
  5
15D
100
AcDbEntity
  8
M0
 62
     7
100
AcDbLine
 10
748.695986
 20
787.119815
 11
748.695986
 21
765.119815
  0
LINE
  5
15E
100
AcDbEntity
  8
M0
 62
     7
100
AcDbLine
 10
745.695986
 20
787.119815
 11
745.695986
 21
765.119815
  0
ARC
  5
15F
100
AcDbEntity
  8
M0
 62
     7
100
AcDbCircle
 10
747.195986
 20
765.119815
 40
1.5
100
AcDbArc
 50
-180.0
 51
0.0
  0
ARC
  5
160
100
AcDbEntity
  8
M0
 62
     7
100
AcDbCircle
 10
753.195986
 20
758.119815
 40
1.5
100
AcDbArc
 50
0.0
 51
180.0
  0
LINE
  5
161
100
AcDbEntity
  8
M0
 62
     7
100
AcDbLine
 10
754.695986
 20
758.119815
 11
754.695986
 21
736.119815
  0
LINE
  5
162
100
AcDbEntity
  8
M0
 62
     7
100
AcDbLine
 10
751.695986
 20
758.119815
 11
751.695986
 21
736.119815
  0
ARC
  5
163
100
AcDbEntity
  8
M0
 62
     7
100
AcDbCircle
 10
753.195986
 20
736.119815
 40
1.5
100
AcDbArc
 50
-180.0
 51
0.0
  0
ARC
  5
164
100
AcDbEntity
  8
M0
 62
     7
100
AcDbCircle
 10
753.195986
 20
787.119815
 40
1.5
100
AcDbArc
 50
0.0
 51
180.0
  0
LINE
  5
165
100
AcDbEntity
  8
M0
 62
     7
100
AcDbLine
 10
754.695986
 20
787.119815
 11
754.695986
 21
765.119815
  0
LINE
  5
166
100
AcDbEntity
  8
M0
 62
     7
100
AcDbLine
 10
751.695986
 20
787.119815
 11
751.695986
 21
765.119815
  0
ARC
  5
167
100
AcDbEntity
  8
M0
 62
     7
100
AcDbCircle
 10
753.195986
 20
765.119815
 40
1.5
100
AcDbArc
 50
-180.0
 51
0.0
  0
ARC
  5
168
100
AcDbEntity
  8
M0
 62
     7
100
AcDbCircle
 10
759.195986
 20
758.119815
 40
1.5
100
AcDbArc
 50
0.0
 51
180.0
  0
LINE
  5
169
100
AcDbEntity
  8
M0
 62
     7
100
AcDbLine
 10
760.695986
 20
758.119815
 11
760.695986
 21
736.119815
  0
LINE
  5
16A
100
AcDbEntity
  8
M0
 62
     7
100
AcDbLine
 10
757.695986
 20
758.119815
 11
757.695986
 21
736.119815
  0
ARC
  5
16B
100
AcDbEntity
  8
M0
 62
     7
100
AcDbCircle
 10
759.195986
 20
736.119815
 40
1.5
100
AcDbArc
 50
-180.0
 51
0.0
  0
ARC
  5
16C
100
AcDbEntity
  8
M0
 62
     7
100
AcDbCircle
 10
759.195986
 20
787.119815
 40
1.5
100
AcDbArc
 50
0.0
 51
180.0
  0
LINE
  5
16D
100
AcDbEntity
  8
M0
 62
     7
100
AcDbLine
 10
760.695986
 20
787.119815
 11
760.695986
 21
765.119815
  0
LINE
  5
16E
100
AcDbEntity
  8
M0
 62
     7
100
AcDbLine
 10
757.695986
 20
787.119815
 11
757.695986
 21
765.119815
  0
ARC
  5
16F
100
AcDbEntity
  8
M0
 62
     7
100
AcDbCircle
 10
759.195986
 20
765.119815
 40
1.5
100
AcDbArc
 50
-180.0
 51
0.0
  0
ARC
  5
170
100
AcDbEntity
  8
M0
 62
     7
100
AcDbCircle
 10
765.195986
 20
758.119815
 40
1.5
100
AcDbArc
 50
0.0
 51
180.0
  0
LINE
  5
171
100
AcDbEntity
  8
M0
 62
     7
100
AcDbLine
 10
766.695986
 20
758.119815
 11
766.695986
 21
736.119815
  0
LINE
  5
172
100
AcDbEntity
  8
M0
 62
     7
100
AcDbLine
 10
763.695986
 20
758.119815
 11
763.695986
 21
736.119815
  0
ARC
  5
173
100
AcDbEntity
  8
M0
 62
     7
100
AcDbCircle
 10
765.195986
 20
736.119815
 40
1.5
100
AcDbArc
 50
-180.0
 51
0.0
  0
ARC
  5
174
100
AcDbEntity
  8
M0
 62
     7
100
AcDbCircle
 10
765.195986
 20
787.119815
 40
1.5
100
AcDbArc
 50
0.0
 51
180.0
  0
LINE
  5
175
100
AcDbEntity
  8
M0
 62
     7
100
AcDbLine
 10
766.695986
 20
787.119815
 11
766.695986
 21
765.119815
  0
LINE
  5
176
100
AcDbEntity
  8
M0
 62
     7
100
AcDbLine
 10
763.695986
 20
787.119815
 11
763.695986
 21
765.119815
  0
ARC
  5
177
100
AcDbEntity
  8
M0
 62
     7
100
AcDbCircle
 10
765.195986
 20
765.119815
 40
1.5
100
AcDbArc
 50
-180.0
 51
0.0
  0
ARC
  5
178
100
AcDbEntity
  8
M0
 62
     7
100
AcDbCircle
 10
771.195986
 20
758.119815
 40
1.5
100
AcDbArc
 50
0.0
 51
180.0
  0
LINE
  5
179
100
AcDbEntity
  8
M0
 62
     7
100
AcDbLine
 10
772.695986
 20
758.119815
 11
772.695986
 21
736.119815
  0
LINE
  5
17A
100
AcDbEntity
  8
M0
 62
     7
100
AcDbLine
 10
769.695986
 20
758.119815
 11
769.695986
 21
736.119815
  0
ARC
  5
17B
100
AcDbEntity
  8
M0
 62
     7
100
AcDbCircle
 10
771.195986
 20
736.119815
 40
1.5
100
AcDbArc
 50
-180.0
 51
0.0
  0
ARC
  5
17C
100
AcDbEntity
  8
M0
 62
     7
100
AcDbCircle
 10
771.195986
 20
787.119815
 40
1.5
100
AcDbArc
 50
0.0
 51
180.0
  0
LINE
  5
17D
100
AcDbEntity
  8
M0
 62
     7
100
AcDbLine
 10
772.695986
 20
787.119815
 11
772.695986
 21
765.119815
  0
LINE
  5
17E
100
AcDbEntity
  8
M0
 62
     7
100
AcDbLine
 10
769.695986
 20
787.119815
 11
769.695986
 21
765.119815
  0
ARC
  5
17F
100
AcDbEntity
  8
M0
 62
     7
100
AcDbCircle
 10
771.195986
 20
765.119815
 40
1.5
100
AcDbArc
 50
-180.0
 51
0.0
  0
ARC
  5
180
100
AcDbEntity
  8
M0
 62
     7
100
AcDbCircle
 10
777.195986
 20
758.119815
 40
1.5
100
AcDbArc
 50
0.0
 51
180.0
  0
LINE
  5
181
100
AcDbEntity
  8
M0
 62
     7
100
AcDbLine
 10
778.695986
 20
758.119815
 11
778.695986
 21
736.119815
  0
LINE
  5
182
100
AcDbEntity
  8
M0
 62
     7
100
AcDbLine
 10
775.695986
 20
758.119815
 11
775.695986
 21
736.119815
  0
ARC
  5
183
100
AcDbEntity
  8
M0
 62
     7
100
AcDbCircle
 10
777.195986
 20
736.119815
 40
1.5
100
AcDbArc
 50
-180.0
 51
0.0
  0
ARC
  5
184
100
AcDbEntity
  8
M0
 62
     7
100
AcDbCircle
 10
777.195986
 20
787.119815
 40
1.5
100
AcDbArc
 50
0.0
 51
180.0
  0
LINE
  5
185
100
AcDbEntity
  8
M0
 62
     7
100
AcDbLine
 10
778.695986
 20
787.119815
 11
778.695986
 21
765.119815
  0
LINE
  5
186
100
AcDbEntity
  8
M0
 62
     7
100
AcDbLine
 10
775.695986
 20
787.119815
 11
775.695986
 21
765.119815
  0
ARC
  5
187
100
AcDbEntity
  8
M0
 62
     7
100
AcDbCircle
 10
777.195986
 20
765.119815
 40
1.5
100
AcDbArc
 50
-180.0
 51
0.0
  0
ARC
  5
188
100
AcDbEntity
  8
M0
 62
     7
100
AcDbCircle
 10
783.195986
 20
758.119815
 40
1.5
100
AcDbArc
 50
0.0
 51
180.0
  0
LINE
  5
189
100
AcDbEntity
  8
M0
 62
     7
100
AcDbLine
 10
784.695986
 20
758.119815
 11
784.695986
 21
736.119815
  0
LINE
  5
18A
100
AcDbEntity
  8
M0
 62
     7
100
AcDbLine
 10
781.695986
 20
758.119815
 11
781.695986
 21
736.119815
  0
ARC
  5
18B
100
AcDbEntity
  8
M0
 62
     7
100
AcDbCircle
 10
783.195986
 20
736.119815
 40
1.5
100
AcDbArc
 50
-180.0
 51
0.0
  0
ARC
  5
18C
100
AcDbEntity
  8
M0
 62
     7
100
AcDbCircle
 10
783.195986
 20
787.119815
 40
1.5
100
AcDbArc
 50
0.0
 51
180.0
  0
LINE
  5
18D
100
AcDbEntity
  8
M0
 62
     7
100
AcDbLine
 10
784.695986
 20
787.119815
 11
784.695986
 21
765.119815
  0
LINE
  5
18E
100
AcDbEntity
  8
M0
 62
     7
100
AcDbLine
 10
781.695986
 20
787.119815
 11
781.695986
 21
765.119815
  0
ARC
  5
18F
100
AcDbEntity
  8
M0
 62
     7
100
AcDbCircle
 10
783.195986
 20
765.119815
 40
1.5
100
AcDbArc
 50
-180.0
 51
0.0
  0
ARC
  5
190
100
AcDbEntity
  8
M0
 62
     7
100
AcDbCircle
 10
789.195986
 20
758.119815
 40
1.5
100
AcDbArc
 50
0.0
 51
180.0
  0
LINE
  5
191
100
AcDbEntity
  8
M0
 62
     7
100
AcDbLine
 10
790.695986
 20
758.119815
 11
790.695986
 21
736.119815
  0
LINE
  5
192
100
AcDbEntity
  8
M0
 62
     7
100
AcDbLine
 10
787.695986
 20
758.119815
 11
787.695986
 21
736.119815
  0
ARC
  5
193
100
AcDbEntity
  8
M0
 62
     7
100
AcDbCircle
 10
789.195986
 20
736.119815
 40
1.5
100
AcDbArc
 50
-180.0
 51
0.0
  0
ARC
  5
194
100
AcDbEntity
  8
M0
 62
     7
100
AcDbCircle
 10
789.195986
 20
787.119815
 40
1.5
100
AcDbArc
 50
0.0
 51
180.0
  0
LINE
  5
195
100
AcDbEntity
  8
M0
 62
     7
100
AcDbLine
 10
790.695986
 20
787.119815
 11
790.695986
 21
765.119815
  0
LINE
  5
196
100
AcDbEntity
  8
M0
 62
     7
100
AcDbLine
 10
787.695986
 20
787.119815
 11
787.695986
 21
765.119815
  0
ARC
  5
197
100
AcDbEntity
  8
M0
 62
     7
100
AcDbCircle
 10
789.195986
 20
765.119815
 40
1.5
100
AcDbArc
 50
-180.0
 51
0.0
  0
ARC
  5
198
100
AcDbEntity
  8
M0
 62
     7
100
AcDbCircle
 10
795.195986
 20
758.119815
 40
1.5
100
AcDbArc
 50
0.0
 51
180.0
  0
LINE
  5
199
100
AcDbEntity
  8
M0
 62
     7
100
AcDbLine
 10
796.695986
 20
758.119815
 11
796.695986
 21
736.119815
  0
LINE
  5
19A
100
AcDbEntity
  8
M0
 62
     7
100
AcDbLine
 10
793.695986
 20
758.119815
 11
793.695986
 21
736.119815
  0
ARC
  5
19B
100
AcDbEntity
  8
M0
 62
     7
100
AcDbCircle
 10
795.195986
 20
736.119815
 40
1.5
100
AcDbArc
 50
-180.0
 51
0.0
  0
ARC
  5
19C
100
AcDbEntity
  8
M0
 62
     7
100
AcDbCircle
 10
795.195986
 20
787.119815
 40
1.5
100
AcDbArc
 50
0.0
 51
180.0
  0
LINE
  5
19D
100
AcDbEntity
  8
M0
 62
     7
100
AcDbLine
 10
796.695986
 20
787.119815
 11
796.695986
 21
765.119815
  0
LINE
  5
19E
100
AcDbEntity
  8
M0
 62
     7
100
AcDbLine
 10
793.695986
 20
787.119815
 11
793.695986
 21
765.119815
  0
ARC
  5
19F
100
AcDbEntity
  8
M0
 62
     7
100
AcDbCircle
 10
795.195986
 20
765.119815
 40
1.5
100
AcDbArc
 50
-180.0
 51
0.0
  0
ARC
  5
1A0
100
AcDbEntity
  8
M0
 62
     7
100
AcDbCircle
 10
801.195986
 20
758.119815
 40
1.5
100
AcDbArc
 50
0.0
 51
180.0
  0
LINE
  5
1A1
100
AcDbEntity
  8
M0
 62
     7
100
AcDbLine
 10
802.695986
 20
758.119815
 11
802.695986
 21
736.119815
  0
LINE
  5
1A2
100
AcDbEntity
  8
M0
 62
     7
100
AcDbLine
 10
799.695986
 20
758.119815
 11
799.695986
 21
736.119815
  0
ARC
  5
1A3
100
AcDbEntity
  8
M0
 62
     7
100
AcDbCircle
 10
801.195986
 20
736.119815
 40
1.5
100
AcDbArc
 50
-180.0
 51
0.0
  0
ARC
  5
1A4
100
AcDbEntity
  8
M0
 62
     7
100
AcDbCircle
 10
801.195986
 20
787.119815
 40
1.5
100
AcDbArc
 50
0.0
 51
180.0
  0
LINE
  5
1A5
100
AcDbEntity
  8
M0
 62
     7
100
AcDbLine
 10
802.695986
 20
787.119815
 11
802.695986
 21
765.119815
  0
LINE
  5
1A6
100
AcDbEntity
  8
M0
 62
     7
100
AcDbLine
 10
799.695986
 20
787.119815
 11
799.695986
 21
765.119815
  0
ARC
  5
1A7
100
AcDbEntity
  8
M0
 62
     7
100
AcDbCircle
 10
801.195986
 20
765.119815
 40
1.5
100
AcDbArc
 50
-180.0
 51
0.0
  0
LINE
  5
1A8
100
AcDbEntity
  8
M0
 62
     7
100
AcDbLine
 10
688.695986
 20
1165.119815
 11
688.695986
 21
1187.119815
  0
LINE
  5
1A9
100
AcDbEntity
  8
M0
 62
     7
100
AcDbLine
 10
685.695986
 20
1165.119815
 11
685.695986
 21
1187.119815
  0
ARC
  5
1AA
100
AcDbEntity
  8
M0
 62
     7
100
AcDbCircle
 10
687.195986
 20
1187.119815
 40
1.5
100
AcDbArc
 50
0.0
 51
180.0
  0
ARC
  5
1AB
100
AcDbEntity
  8
M0
 62
     7
100
AcDbCircle
 10
687.195986
 20
1165.119815
 40
1.5
100
AcDbArc
 50
180.0
 51
360.0
  0
ARC
  5
1AC
100
AcDbEntity
  8
M0
 62
     7
100
AcDbCircle
 10
687.195986
 20
1165.119815
 40
1.5
100
AcDbArc
 50
180.0
 51
360.0
  0
LINE
  5
1AD
100
AcDbEntity
  8
M0
 62
     7
100
AcDbLine
 10
688.695986
 20
1165.119815
 11
688.695986
 21
1187.119815
  0
LINE
  5
1AE
100
AcDbEntity
  8
M0
 62
     7
100
AcDbLine
 10
685.695986
 20
1165.119815
 11
685.695986
 21
1187.119815
  0
ARC
  5
1AF
100
AcDbEntity
  8
M0
 62
     7
100
AcDbCircle
 10
687.195986
 20
1187.119815
 40
1.5
100
AcDbArc
 50
0.0
 51
180.0
  0
ARC
  5
1B0
100
AcDbEntity
  8
M0
 62
     7
100
AcDbCircle
 10
687.195986
 20
1136.119815
 40
1.5
100
AcDbArc
 50
180.0
 51
360.0
  0
LINE
  5
1B1
100
AcDbEntity
  8
M0
 62
     7
100
AcDbLine
 10
688.695986
 20
1136.119815
 11
688.695986
 21
1158.119815
  0
LINE
  5
1B2
100
AcDbEntity
  8
M0
 62
     7
100
AcDbLine
 10
685.695986
 20
1136.119815
 11
685.695986
 21
1158.119815
  0
ARC
  5
1B3
100
AcDbEntity
  8
M0
 62
     7
100
AcDbCircle
 10
687.195986
 20
1158.119815
 40
1.5
100
AcDbArc
 50
0.0
 51
180.0
  0
ARC
  5
1B4
100
AcDbEntity
  8
M0
 62
     7
100
AcDbCircle
 10
693.195986
 20
1165.119815
 40
1.5
100
AcDbArc
 50
180.0
 51
360.0
  0
LINE
  5
1B5
100
AcDbEntity
  8
M0
 62
     7
100
AcDbLine
 10
694.695986
 20
1165.119815
 11
694.695986
 21
1187.119815
  0
LINE
  5
1B6
100
AcDbEntity
  8
M0
 62
     7
100
AcDbLine
 10
691.695986
 20
1165.119815
 11
691.695986
 21
1187.119815
  0
ARC
  5
1B7
100
AcDbEntity
  8
M0
 62
     7
100
AcDbCircle
 10
693.195986
 20
1187.119815
 40
1.5
100
AcDbArc
 50
0.0
 51
180.0
  0
ARC
  5
1B8
100
AcDbEntity
  8
M0
 62
     7
100
AcDbCircle
 10
693.195986
 20
1136.119815
 40
1.5
100
AcDbArc
 50
180.0
 51
360.0
  0
LINE
  5
1B9
100
AcDbEntity
  8
M0
 62
     7
100
AcDbLine
 10
694.695986
 20
1136.119815
 11
694.695986
 21
1158.119815
  0
LINE
  5
1BA
100
AcDbEntity
  8
M0
 62
     7
100
AcDbLine
 10
691.695986
 20
1136.119815
 11
691.695986
 21
1158.119815
  0
ARC
  5
1BB
100
AcDbEntity
  8
M0
 62
     7
100
AcDbCircle
 10
693.195986
 20
1158.119815
 40
1.5
100
AcDbArc
 50
0.0
 51
180.0
  0
ARC
  5
1BC
100
AcDbEntity
  8
M0
 62
     7
100
AcDbCircle
 10
699.195986
 20
1165.119815
 40
1.5
100
AcDbArc
 50
180.0
 51
360.0
  0
LINE
  5
1BD
100
AcDbEntity
  8
M0
 62
     7
100
AcDbLine
 10
700.695986
 20
1165.119815
 11
700.695986
 21
1187.119815
  0
LINE
  5
1BE
100
AcDbEntity
  8
M0
 62
     7
100
AcDbLine
 10
697.695986
 20
1165.119815
 11
697.695986
 21
1187.119815
  0
ARC
  5
1BF
100
AcDbEntity
  8
M0
 62
     7
100
AcDbCircle
 10
699.195986
 20
1187.119815
 40
1.5
100
AcDbArc
 50
0.0
 51
180.0
  0
ARC
  5
1C0
100
AcDbEntity
  8
M0
 62
     7
100
AcDbCircle
 10
699.195986
 20
1136.119815
 40
1.5
100
AcDbArc
 50
180.0
 51
360.0
  0
LINE
  5
1C1
100
AcDbEntity
  8
M0
 62
     7
100
AcDbLine
 10
700.695986
 20
1136.119815
 11
700.695986
 21
1158.119815
  0
LINE
  5
1C2
100
AcDbEntity
  8
M0
 62
     7
100
AcDbLine
 10
697.695986
 20
1136.119815
 11
697.695986
 21
1158.119815
  0
ARC
  5
1C3
100
AcDbEntity
  8
M0
 62
     7
100
AcDbCircle
 10
699.195986
 20
1158.119815
 40
1.5
100
AcDbArc
 50
0.0
 51
180.0
  0
ARC
  5
1C4
100
AcDbEntity
  8
M0
 62
     7
100
AcDbCircle
 10
705.195986
 20
1165.119815
 40
1.5
100
AcDbArc
 50
180.0
 51
360.0
  0
LINE
  5
1C5
100
AcDbEntity
  8
M0
 62
     7
100
AcDbLine
 10
706.695986
 20
1165.119815
 11
706.695986
 21
1187.119815
  0
LINE
  5
1C6
100
AcDbEntity
  8
M0
 62
     7
100
AcDbLine
 10
703.695986
 20
1165.119815
 11
703.695986
 21
1187.119815
  0
ARC
  5
1C7
100
AcDbEntity
  8
M0
 62
     7
100
AcDbCircle
 10
705.195986
 20
1187.119815
 40
1.5
100
AcDbArc
 50
0.0
 51
180.0
  0
ARC
  5
1C8
100
AcDbEntity
  8
M0
 62
     7
100
AcDbCircle
 10
705.195986
 20
1136.119815
 40
1.5
100
AcDbArc
 50
180.0
 51
360.0
  0
LINE
  5
1C9
100
AcDbEntity
  8
M0
 62
     7
100
AcDbLine
 10
706.695986
 20
1136.119815
 11
706.695986
 21
1158.119815
  0
LINE
  5
1CA
100
AcDbEntity
  8
M0
 62
     7
100
AcDbLine
 10
703.695986
 20
1136.119815
 11
703.695986
 21
1158.119815
  0
ARC
  5
1CB
100
AcDbEntity
  8
M0
 62
     7
100
AcDbCircle
 10
705.195986
 20
1158.119815
 40
1.5
100
AcDbArc
 50
0.0
 51
180.0
  0
ARC
  5
1CC
100
AcDbEntity
  8
M0
 62
     7
100
AcDbCircle
 10
711.195986
 20
1165.119815
 40
1.5
100
AcDbArc
 50
180.0
 51
360.0
  0
LINE
  5
1CD
100
AcDbEntity
  8
M0
 62
     7
100
AcDbLine
 10
712.695986
 20
1165.119815
 11
712.695986
 21
1187.119815
  0
LINE
  5
1CE
100
AcDbEntity
  8
M0
 62
     7
100
AcDbLine
 10
709.695986
 20
1165.119815
 11
709.695986
 21
1187.119815
  0
ARC
  5
1CF
100
AcDbEntity
  8
M0
 62
     7
100
AcDbCircle
 10
711.195986
 20
1187.119815
 40
1.5
100
AcDbArc
 50
0.0
 51
180.0
  0
ARC
  5
1D0
100
AcDbEntity
  8
M0
 62
     7
100
AcDbCircle
 10
711.195986
 20
1136.119815
 40
1.5
100
AcDbArc
 50
180.0
 51
360.0
  0
LINE
  5
1D1
100
AcDbEntity
  8
M0
 62
     7
100
AcDbLine
 10
712.695986
 20
1136.119815
 11
712.695986
 21
1158.119815
  0
LINE
  5
1D2
100
AcDbEntity
  8
M0
 62
     7
100
AcDbLine
 10
709.695986
 20
1136.119815
 11
709.695986
 21
1158.119815
  0
ARC
  5
1D3
100
AcDbEntity
  8
M0
 62
     7
100
AcDbCircle
 10
711.195986
 20
1158.119815
 40
1.5
100
AcDbArc
 50
0.0
 51
180.0
  0
ARC
  5
1D4
100
AcDbEntity
  8
M0
 62
     7
100
AcDbCircle
 10
717.195986
 20
1165.119815
 40
1.5
100
AcDbArc
 50
180.0
 51
360.0
  0
LINE
  5
1D5
100
AcDbEntity
  8
M0
 62
     7
100
AcDbLine
 10
718.695986
 20
1165.119815
 11
718.695986
 21
1187.119815
  0
LINE
  5
1D6
100
AcDbEntity
  8
M0
 62
     7
100
AcDbLine
 10
715.695986
 20
1165.119815
 11
715.695986
 21
1187.119815
  0
ARC
  5
1D7
100
AcDbEntity
  8
M0
 62
     7
100
AcDbCircle
 10
717.195986
 20
1187.119815
 40
1.5
100
AcDbArc
 50
0.0
 51
180.0
  0
ARC
  5
1D8
100
AcDbEntity
  8
M0
 62
     7
100
AcDbCircle
 10
717.195986
 20
1136.119815
 40
1.5
100
AcDbArc
 50
180.0
 51
360.0
  0
LINE
  5
1D9
100
AcDbEntity
  8
M0
 62
     7
100
AcDbLine
 10
718.695986
 20
1136.119815
 11
718.695986
 21
1158.119815
  0
LINE
  5
1DA
100
AcDbEntity
  8
M0
 62
     7
100
AcDbLine
 10
715.695986
 20
1136.119815
 11
715.695986
 21
1158.119815
  0
ARC
  5
1DB
100
AcDbEntity
  8
M0
 62
     7
100
AcDbCircle
 10
717.195986
 20
1158.119815
 40
1.5
100
AcDbArc
 50
0.0
 51
180.0
  0
ARC
  5
1DC
100
AcDbEntity
  8
M0
 62
     7
100
AcDbCircle
 10
723.195986
 20
1165.119815
 40
1.5
100
AcDbArc
 50
180.0
 51
360.0
  0
LINE
  5
1DD
100
AcDbEntity
  8
M0
 62
     7
100
AcDbLine
 10
724.695986
 20
1165.119815
 11
724.695986
 21
1187.119815
  0
LINE
  5
1DE
100
AcDbEntity
  8
M0
 62
     7
100
AcDbLine
 10
721.695986
 20
1165.119815
 11
721.695986
 21
1187.119815
  0
ARC
  5
1DF
100
AcDbEntity
  8
M0
 62
     7
100
AcDbCircle
 10
723.195986
 20
1187.119815
 40
1.5
100
AcDbArc
 50
0.0
 51
180.0
  0
ARC
  5
1E0
100
AcDbEntity
  8
M0
 62
     7
100
AcDbCircle
 10
723.195986
 20
1136.119815
 40
1.5
100
AcDbArc
 50
180.0
 51
360.0
  0
LINE
  5
1E1
100
AcDbEntity
  8
M0
 62
     7
100
AcDbLine
 10
724.695986
 20
1136.119815
 11
724.695986
 21
1158.119815
  0
LINE
  5
1E2
100
AcDbEntity
  8
M0
 62
     7
100
AcDbLine
 10
721.695986
 20
1136.119815
 11
721.695986
 21
1158.119815
  0
ARC
  5
1E3
100
AcDbEntity
  8
M0
 62
     7
100
AcDbCircle
 10
723.195986
 20
1158.119815
 40
1.5
100
AcDbArc
 50
0.0
 51
180.0
  0
ARC
  5
1E4
100
AcDbEntity
  8
M0
 62
     7
100
AcDbCircle
 10
729.195986
 20
1165.119815
 40
1.5
100
AcDbArc
 50
180.0
 51
360.0
  0
LINE
  5
1E5
100
AcDbEntity
  8
M0
 62
     7
100
AcDbLine
 10
730.695986
 20
1165.119815
 11
730.695986
 21
1187.119815
  0
LINE
  5
1E6
100
AcDbEntity
  8
M0
 62
     7
100
AcDbLine
 10
727.695986
 20
1165.119815
 11
727.695986
 21
1187.119815
  0
ARC
  5
1E7
100
AcDbEntity
  8
M0
 62
     7
100
AcDbCircle
 10
729.195986
 20
1187.119815
 40
1.5
100
AcDbArc
 50
0.0
 51
180.0
  0
ARC
  5
1E8
100
AcDbEntity
  8
M0
 62
     7
100
AcDbCircle
 10
729.195986
 20
1136.119815
 40
1.5
100
AcDbArc
 50
180.0
 51
360.0
  0
LINE
  5
1E9
100
AcDbEntity
  8
M0
 62
     7
100
AcDbLine
 10
730.695986
 20
1136.119815
 11
730.695986
 21
1158.119815
  0
LINE
  5
1EA
100
AcDbEntity
  8
M0
 62
     7
100
AcDbLine
 10
727.695986
 20
1136.119815
 11
727.695986
 21
1158.119815
  0
ARC
  5
1EB
100
AcDbEntity
  8
M0
 62
     7
100
AcDbCircle
 10
729.195986
 20
1158.119815
 40
1.5
100
AcDbArc
 50
0.0
 51
180.0
  0
ARC
  5
1EC
100
AcDbEntity
  8
M0
 62
     7
100
AcDbCircle
 10
735.195986
 20
1165.119815
 40
1.5
100
AcDbArc
 50
180.0
 51
360.0
  0
LINE
  5
1ED
100
AcDbEntity
  8
M0
 62
     7
100
AcDbLine
 10
736.695986
 20
1165.119815
 11
736.695986
 21
1187.119815
  0
LINE
  5
1EE
100
AcDbEntity
  8
M0
 62
     7
100
AcDbLine
 10
733.695986
 20
1165.119815
 11
733.695986
 21
1187.119815
  0
ARC
  5
1EF
100
AcDbEntity
  8
M0
 62
     7
100
AcDbCircle
 10
735.195986
 20
1187.119815
 40
1.5
100
AcDbArc
 50
0.0
 51
180.0
  0
ARC
  5
1F0
100
AcDbEntity
  8
M0
 62
     7
100
AcDbCircle
 10
735.195986
 20
1136.119815
 40
1.5
100
AcDbArc
 50
180.0
 51
360.0
  0
LINE
  5
1F1
100
AcDbEntity
  8
M0
 62
     7
100
AcDbLine
 10
736.695986
 20
1136.119815
 11
736.695986
 21
1158.119815
  0
LINE
  5
1F2
100
AcDbEntity
  8
M0
 62
     7
100
AcDbLine
 10
733.695986
 20
1136.119815
 11
733.695986
 21
1158.119815
  0
ARC
  5
1F3
100
AcDbEntity
  8
M0
 62
     7
100
AcDbCircle
 10
735.195986
 20
1158.119815
 40
1.5
100
AcDbArc
 50
0.0
 51
180.0
  0
ARC
  5
1F4
100
AcDbEntity
  8
M0
 62
     7
100
AcDbCircle
 10
741.195986
 20
1165.119815
 40
1.5
100
AcDbArc
 50
180.0
 51
360.0
  0
LINE
  5
1F5
100
AcDbEntity
  8
M0
 62
     7
100
AcDbLine
 10
742.695986
 20
1165.119815
 11
742.695986
 21
1187.119815
  0
LINE
  5
1F6
100
AcDbEntity
  8
M0
 62
     7
100
AcDbLine
 10
739.695986
 20
1165.119815
 11
739.695986
 21
1187.119815
  0
ARC
  5
1F7
100
AcDbEntity
  8
M0
 62
     7
100
AcDbCircle
 10
741.195986
 20
1187.119815
 40
1.5
100
AcDbArc
 50
0.0
 51
180.0
  0
ARC
  5
1F8
100
AcDbEntity
  8
M0
 62
     7
100
AcDbCircle
 10
741.195986
 20
1136.119815
 40
1.5
100
AcDbArc
 50
180.0
 51
360.0
  0
LINE
  5
1F9
100
AcDbEntity
  8
M0
 62
     7
100
AcDbLine
 10
742.695986
 20
1136.119815
 11
742.695986
 21
1158.119815
  0
LINE
  5
1FA
100
AcDbEntity
  8
M0
 62
     7
100
AcDbLine
 10
739.695986
 20
1136.119815
 11
739.695986
 21
1158.119815
  0
ARC
  5
1FB
100
AcDbEntity
  8
M0
 62
     7
100
AcDbCircle
 10
741.195986
 20
1158.119815
 40
1.5
100
AcDbArc
 50
0.0
 51
180.0
  0
ARC
  5
1FC
100
AcDbEntity
  8
M0
 62
     7
100
AcDbCircle
 10
747.195986
 20
1165.119815
 40
1.5
100
AcDbArc
 50
180.0
 51
360.0
  0
LINE
  5
1FD
100
AcDbEntity
  8
M0
 62
     7
100
AcDbLine
 10
748.695986
 20
1165.119815
 11
748.695986
 21
1187.119815
  0
LINE
  5
1FE
100
AcDbEntity
  8
M0
 62
     7
100
AcDbLine
 10
745.695986
 20
1165.119815
 11
745.695986
 21
1187.119815
  0
ARC
  5
1FF
100
AcDbEntity
  8
M0
 62
     7
100
AcDbCircle
 10
747.195986
 20
1187.119815
 40
1.5
100
AcDbArc
 50
0.0
 51
180.0
  0
ARC
  5
200
100
AcDbEntity
  8
M0
 62
     7
100
AcDbCircle
 10
747.195986
 20
1136.119815
 40
1.5
100
AcDbArc
 50
180.0
 51
360.0
  0
LINE
  5
201
100
AcDbEntity
  8
M0
 62
     7
100
AcDbLine
 10
748.695986
 20
1136.119815
 11
748.695986
 21
1158.119815
  0
LINE
  5
202
100
AcDbEntity
  8
M0
 62
     7
100
AcDbLine
 10
745.695986
 20
1136.119815
 11
745.695986
 21
1158.119815
  0
ARC
  5
203
100
AcDbEntity
  8
M0
 62
     7
100
AcDbCircle
 10
747.195986
 20
1158.119815
 40
1.5
100
AcDbArc
 50
0.0
 51
180.0
  0
ARC
  5
204
100
AcDbEntity
  8
M0
 62
     7
100
AcDbCircle
 10
753.195986
 20
1165.119815
 40
1.5
100
AcDbArc
 50
180.0
 51
360.0
  0
LINE
  5
205
100
AcDbEntity
  8
M0
 62
     7
100
AcDbLine
 10
754.695986
 20
1165.119815
 11
754.695986
 21
1187.119815
  0
LINE
  5
206
100
AcDbEntity
  8
M0
 62
     7
100
AcDbLine
 10
751.695986
 20
1165.119815
 11
751.695986
 21
1187.119815
  0
ARC
  5
207
100
AcDbEntity
  8
M0
 62
     7
100
AcDbCircle
 10
753.195986
 20
1187.119815
 40
1.5
100
AcDbArc
 50
0.0
 51
180.0
  0
ARC
  5
208
100
AcDbEntity
  8
M0
 62
     7
100
AcDbCircle
 10
753.195986
 20
1136.119815
 40
1.5
100
AcDbArc
 50
180.0
 51
360.0
  0
LINE
  5
209
100
AcDbEntity
  8
M0
 62
     7
100
AcDbLine
 10
754.695986
 20
1136.119815
 11
754.695986
 21
1158.119815
  0
LINE
  5
20A
100
AcDbEntity
  8
M0
 62
     7
100
AcDbLine
 10
751.695986
 20
1136.119815
 11
751.695986
 21
1158.119815
  0
ARC
  5
20B
100
AcDbEntity
  8
M0
 62
     7
100
AcDbCircle
 10
753.195986
 20
1158.119815
 40
1.5
100
AcDbArc
 50
0.0
 51
180.0
  0
ARC
  5
20C
100
AcDbEntity
  8
M0
 62
     7
100
AcDbCircle
 10
759.195986
 20
1165.119815
 40
1.5
100
AcDbArc
 50
180.0
 51
360.0
  0
LINE
  5
20D
100
AcDbEntity
  8
M0
 62
     7
100
AcDbLine
 10
760.695986
 20
1165.119815
 11
760.695986
 21
1187.119815
  0
LINE
  5
20E
100
AcDbEntity
  8
M0
 62
     7
100
AcDbLine
 10
757.695986
 20
1165.119815
 11
757.695986
 21
1187.119815
  0
ARC
  5
20F
100
AcDbEntity
  8
M0
 62
     7
100
AcDbCircle
 10
759.195986
 20
1187.119815
 40
1.5
100
AcDbArc
 50
0.0
 51
180.0
  0
ARC
  5
210
100
AcDbEntity
  8
M0
 62
     7
100
AcDbCircle
 10
759.195986
 20
1136.119815
 40
1.5
100
AcDbArc
 50
180.0
 51
360.0
  0
LINE
  5
211
100
AcDbEntity
  8
M0
 62
     7
100
AcDbLine
 10
760.695986
 20
1136.119815
 11
760.695986
 21
1158.119815
  0
LINE
  5
212
100
AcDbEntity
  8
M0
 62
     7
100
AcDbLine
 10
757.695986
 20
1136.119815
 11
757.695986
 21
1158.119815
  0
ARC
  5
213
100
AcDbEntity
  8
M0
 62
     7
100
AcDbCircle
 10
759.195986
 20
1158.119815
 40
1.5
100
AcDbArc
 50
0.0
 51
180.0
  0
ARC
  5
214
100
AcDbEntity
  8
M0
 62
     7
100
AcDbCircle
 10
765.195986
 20
1165.119815
 40
1.5
100
AcDbArc
 50
180.0
 51
360.0
  0
LINE
  5
215
100
AcDbEntity
  8
M0
 62
     7
100
AcDbLine
 10
766.695986
 20
1165.119815
 11
766.695986
 21
1187.119815
  0
LINE
  5
216
100
AcDbEntity
  8
M0
 62
     7
100
AcDbLine
 10
763.695986
 20
1165.119815
 11
763.695986
 21
1187.119815
  0
ARC
  5
217
100
AcDbEntity
  8
M0
 62
     7
100
AcDbCircle
 10
765.195986
 20
1187.119815
 40
1.5
100
AcDbArc
 50
0.0
 51
180.0
  0
ARC
  5
218
100
AcDbEntity
  8
M0
 62
     7
100
AcDbCircle
 10
765.195986
 20
1136.119815
 40
1.5
100
AcDbArc
 50
180.0
 51
360.0
  0
LINE
  5
219
100
AcDbEntity
  8
M0
 62
     7
100
AcDbLine
 10
766.695986
 20
1136.119815
 11
766.695986
 21
1158.119815
  0
LINE
  5
21A
100
AcDbEntity
  8
M0
 62
     7
100
AcDbLine
 10
763.695986
 20
1136.119815
 11
763.695986
 21
1158.119815
  0
ARC
  5
21B
100
AcDbEntity
  8
M0
 62
     7
100
AcDbCircle
 10
765.195986
 20
1158.119815
 40
1.5
100
AcDbArc
 50
0.0
 51
180.0
  0
ARC
  5
21C
100
AcDbEntity
  8
M0
 62
     7
100
AcDbCircle
 10
771.195986
 20
1165.119815
 40
1.5
100
AcDbArc
 50
180.0
 51
360.0
  0
LINE
  5
21D
100
AcDbEntity
  8
M0
 62
     7
100
AcDbLine
 10
772.695986
 20
1165.119815
 11
772.695986
 21
1187.119815
  0
LINE
  5
21E
100
AcDbEntity
  8
M0
 62
     7
100
AcDbLine
 10
769.695986
 20
1165.119815
 11
769.695986
 21
1187.119815
  0
ARC
  5
21F
100
AcDbEntity
  8
M0
 62
     7
100
AcDbCircle
 10
771.195986
 20
1187.119815
 40
1.5
100
AcDbArc
 50
0.0
 51
180.0
  0
ARC
  5
220
100
AcDbEntity
  8
M0
 62
     7
100
AcDbCircle
 10
771.195986
 20
1136.119815
 40
1.5
100
AcDbArc
 50
180.0
 51
360.0
  0
LINE
  5
221
100
AcDbEntity
  8
M0
 62
     7
100
AcDbLine
 10
772.695986
 20
1136.119815
 11
772.695986
 21
1158.119815
  0
LINE
  5
222
100
AcDbEntity
  8
M0
 62
     7
100
AcDbLine
 10
769.695986
 20
1136.119815
 11
769.695986
 21
1158.119815
  0
ARC
  5
223
100
AcDbEntity
  8
M0
 62
     7
100
AcDbCircle
 10
771.195986
 20
1158.119815
 40
1.5
100
AcDbArc
 50
0.0
 51
180.0
  0
ARC
  5
224
100
AcDbEntity
  8
M0
 62
     7
100
AcDbCircle
 10
777.195986
 20
1165.119815
 40
1.5
100
AcDbArc
 50
180.0
 51
360.0
  0
LINE
  5
225
100
AcDbEntity
  8
M0
 62
     7
100
AcDbLine
 10
778.695986
 20
1165.119815
 11
778.695986
 21
1187.119815
  0
LINE
  5
226
100
AcDbEntity
  8
M0
 62
     7
100
AcDbLine
 10
775.695986
 20
1165.119815
 11
775.695986
 21
1187.119815
  0
ARC
  5
227
100
AcDbEntity
  8
M0
 62
     7
100
AcDbCircle
 10
777.195986
 20
1187.119815
 40
1.5
100
AcDbArc
 50
0.0
 51
180.0
  0
ARC
  5
228
100
AcDbEntity
  8
M0
 62
     7
100
AcDbCircle
 10
777.195986
 20
1136.119815
 40
1.5
100
AcDbArc
 50
180.0
 51
360.0
  0
LINE
  5
229
100
AcDbEntity
  8
M0
 62
     7
100
AcDbLine
 10
778.695986
 20
1136.119815
 11
778.695986
 21
1158.119815
  0
LINE
  5
22A
100
AcDbEntity
  8
M0
 62
     7
100
AcDbLine
 10
775.695986
 20
1136.119815
 11
775.695986
 21
1158.119815
  0
ARC
  5
22B
100
AcDbEntity
  8
M0
 62
     7
100
AcDbCircle
 10
777.195986
 20
1158.119815
 40
1.5
100
AcDbArc
 50
0.0
 51
180.0
  0
ARC
  5
22C
100
AcDbEntity
  8
M0
 62
     7
100
AcDbCircle
 10
783.195986
 20
1165.119815
 40
1.5
100
AcDbArc
 50
180.0
 51
360.0
  0
LINE
  5
22D
100
AcDbEntity
  8
M0
 62
     7
100
AcDbLine
 10
784.695986
 20
1165.119815
 11
784.695986
 21
1187.119815
  0
LINE
  5
22E
100
AcDbEntity
  8
M0
 62
     7
100
AcDbLine
 10
781.695986
 20
1165.119815
 11
781.695986
 21
1187.119815
  0
ARC
  5
22F
100
AcDbEntity
  8
M0
 62
     7
100
AcDbCircle
 10
783.195986
 20
1187.119815
 40
1.5
100
AcDbArc
 50
0.0
 51
180.0
  0
ARC
  5
230
100
AcDbEntity
  8
M0
 62
     7
100
AcDbCircle
 10
783.195986
 20
1136.119815
 40
1.5
100
AcDbArc
 50
180.0
 51
360.0
  0
LINE
  5
231
100
AcDbEntity
  8
M0
 62
     7
100
AcDbLine
 10
784.695986
 20
1136.119815
 11
784.695986
 21
1158.119815
  0
LINE
  5
232
100
AcDbEntity
  8
M0
 62
     7
100
AcDbLine
 10
781.695986
 20
1136.119815
 11
781.695986
 21
1158.119815
  0
ARC
  5
233
100
AcDbEntity
  8
M0
 62
     7
100
AcDbCircle
 10
783.195986
 20
1158.119815
 40
1.5
100
AcDbArc
 50
0.0
 51
180.0
  0
ARC
  5
234
100
AcDbEntity
  8
M0
 62
     7
100
AcDbCircle
 10
789.195986
 20
1165.119815
 40
1.5
100
AcDbArc
 50
180.0
 51
360.0
  0
LINE
  5
235
100
AcDbEntity
  8
M0
 62
     7
100
AcDbLine
 10
790.695986
 20
1165.119815
 11
790.695986
 21
1187.119815
  0
LINE
  5
236
100
AcDbEntity
  8
M0
 62
     7
100
AcDbLine
 10
787.695986
 20
1165.119815
 11
787.695986
 21
1187.119815
  0
ARC
  5
237
100
AcDbEntity
  8
M0
 62
     7
100
AcDbCircle
 10
789.195986
 20
1187.119815
 40
1.5
100
AcDbArc
 50
0.0
 51
180.0
  0
ARC
  5
238
100
AcDbEntity
  8
M0
 62
     7
100
AcDbCircle
 10
789.195986
 20
1136.119815
 40
1.5
100
AcDbArc
 50
180.0
 51
360.0
  0
LINE
  5
239
100
AcDbEntity
  8
M0
 62
     7
100
AcDbLine
 10
790.695986
 20
1136.119815
 11
790.695986
 21
1158.119815
  0
LINE
  5
23A
100
AcDbEntity
  8
M0
 62
     7
100
AcDbLine
 10
787.695986
 20
1136.119815
 11
787.695986
 21
1158.119815
  0
ARC
  5
23B
100
AcDbEntity
  8
M0
 62
     7
100
AcDbCircle
 10
789.195986
 20
1158.119815
 40
1.5
100
AcDbArc
 50
0.0
 51
180.0
  0
ARC
  5
23C
100
AcDbEntity
  8
M0
 62
     7
100
AcDbCircle
 10
795.195986
 20
1165.119815
 40
1.5
100
AcDbArc
 50
180.0
 51
360.0
  0
LINE
  5
23D
100
AcDbEntity
  8
M0
 62
     7
100
AcDbLine
 10
796.695986
 20
1165.119815
 11
796.695986
 21
1187.119815
  0
LINE
  5
23E
100
AcDbEntity
  8
M0
 62
     7
100
AcDbLine
 10
793.695986
 20
1165.119815
 11
793.695986
 21
1187.119815
  0
ARC
  5
23F
100
AcDbEntity
  8
M0
 62
     7
100
AcDbCircle
 10
795.195986
 20
1187.119815
 40
1.5
100
AcDbArc
 50
0.0
 51
180.0
  0
ARC
  5
240
100
AcDbEntity
  8
M0
 62
     7
100
AcDbCircle
 10
795.195986
 20
1136.119815
 40
1.5
100
AcDbArc
 50
180.0
 51
360.0
  0
LINE
  5
241
100
AcDbEntity
  8
M0
 62
     7
100
AcDbLine
 10
796.695986
 20
1136.119815
 11
796.695986
 21
1158.119815
  0
LINE
  5
242
100
AcDbEntity
  8
M0
 62
     7
100
AcDbLine
 10
793.695986
 20
1136.119815
 11
793.695986
 21
1158.119815
  0
ARC
  5
243
100
AcDbEntity
  8
M0
 62
     7
100
AcDbCircle
 10
795.195986
 20
1158.119815
 40
1.5
100
AcDbArc
 50
0.0
 51
180.0
  0
ARC
  5
244
100
AcDbEntity
  8
M0
 62
     7
100
AcDbCircle
 10
801.195986
 20
1165.119815
 40
1.5
100
AcDbArc
 50
180.0
 51
360.0
  0
LINE
  5
245
100
AcDbEntity
  8
M0
 62
     7
100
AcDbLine
 10
802.695986
 20
1165.119815
 11
802.695986
 21
1187.119815
  0
LINE
  5
246
100
AcDbEntity
  8
M0
 62
     7
100
AcDbLine
 10
799.695986
 20
1165.119815
 11
799.695986
 21
1187.119815
  0
ARC
  5
247
100
AcDbEntity
  8
M0
 62
     7
100
AcDbCircle
 10
801.195986
 20
1187.119815
 40
1.5
100
AcDbArc
 50
0.0
 51
180.0
  0
ARC
  5
248
100
AcDbEntity
  8
M0
 62
     7
100
AcDbCircle
 10
801.195986
 20
1136.119815
 40
1.5
100
AcDbArc
 50
180.0
 51
360.0
  0
LINE
  5
249
100
AcDbEntity
  8
M0
 62
     7
100
AcDbLine
 10
802.695986
 20
1136.119815
 11
802.695986
 21
1158.119815
  0
LINE
  5
24A
100
AcDbEntity
  8
M0
 62
     7
100
AcDbLine
 10
799.695986
 20
1136.119815
 11
799.695986
 21
1158.119815
  0
ARC
  5
24B
100
AcDbEntity
  8
M0
 62
     7
100
AcDbCircle
 10
801.195986
 20
1158.119815
 40
1.5
100
AcDbArc
 50
0.0
 51
180.0
  0
CIRCLE
  5
24C
100
AcDbEntity
  8
M0
 62
     4
100
AcDbCircle
 10
208.895986
 20
357.49977
 40
32.5
  0
CIRCLE
  5
24D
100
AcDbEntity
  8
M0
 62
     4
100
AcDbCircle
 10
328.895986
 20
357.49977
 40
32.5
  0
CIRCLE
  5
24E
100
AcDbEntity
  8
M0
 62
     4
100
AcDbCircle
 10
208.895986
 20
357.49977
 40
27.5
  0
CIRCLE
  5
24F
100
AcDbEntity
  8
M0
 62
     4
100
AcDbCircle
 10
328.895986
 20
357.49977
 40
27.5
  0
LINE
  5
250
100
AcDbEntity
  8
M0
 62
     4
100
AcDbLine
 10
363.395993
 20
305.005309
 11
356.895993
 21
301.252532
  0
LINE
  5
251
100
AcDbEntity
  8
M0
 62
     4
100
AcDbLine
 10
356.895993
 20
301.252532
 11
356.895993
 21
293.746993
  0
LINE
  5
252
100
AcDbEntity
  8
M0
 62
     4
100
AcDbLine
 10
356.895993
 20
293.746993
 11
363.395978
 21
289.994216
  0
LINE
  5
253
100
AcDbEntity
  8
M0
 62
     4
100
AcDbLine
 10
363.395978
 20
289.994216
 11
369.895978
 21
293.746993
  0
LINE
  5
254
100
AcDbEntity
  8
M0
 62
     4
100
AcDbLine
 10
369.895978
 20
293.746993
 11
369.895993
 21
301.252532
  0
LINE
  5
255
100
AcDbEntity
  8
M0
 62
     4
100
AcDbLine
 10
369.895993
 20
301.252532
 11
363.395993
 21
305.005309
  0
CIRCLE
  5
256
100
AcDbEntity
  8
M0
 62
     4
100
AcDbCircle
 10
363.395993
 20
297.49977
 40
6.5
  0
CIRCLE
  5
257
100
AcDbEntity
  8
M0
 62
     4
100
AcDbCircle
 10
363.395986
 20
297.49977
 40
8.0
  0
LINE
  5
258
100
AcDbEntity
  8
M0
 62
     4
100
AcDbLine
 10
408.395986
 20
262.49977
 11
129.395986
 21
262.49977
  0
LINE
  5
259
100
AcDbEntity
  8
M0
 62
     4
100
AcDbLine
 10
129.395986
 20
462.29977
 11
129.395986
 21
262.49977
  0
LINE
  5
25A
100
AcDbEntity
  8
M0
 62
     4
100
AcDbLine
 10
408.395986
 20
462.29977
 11
408.395986
 21
262.49977
  0
CIRCLE
  5
25B
100
AcDbEntity
  8
M0
 62
     4
100
AcDbCircle
 10
268.895986
 20
357.49977
 40
11.0
  0
CIRCLE
  5
25C
100
AcDbEntity
  8
M0
 62
     4
100
AcDbCircle
 10
268.895986
 20
357.49977
 40
14.0
  0
LINE
  5
25D
100
AcDbEntity
  8
M0
  6
DASHDOT
 62
     4
100
AcDbLine
 10
286.395986
 20
357.49977
 11
371.395986
 21
357.49977
  0
LINE
  5
25E
100
AcDbEntity
  8
M0
  6
DASHDOT
 62
     4
100
AcDbLine
 10
328.895986
 20
309.99977
 11
328.895986
 21
404.99977
  0
LINE
  5
25F
100
AcDbEntity
  8
M0
  6
DASHDOT
 62
     4
100
AcDbLine
 10
166.395986
 20
357.49977
 11
251.395986
 21
357.49977
  0
LINE
  5
260
100
AcDbEntity
  8
M0
  6
DASHDOT
 62
     4
100
AcDbLine
 10
208.895986
 20
309.99977
 11
208.895986
 21
404.99977
  0
LINE
  5
261
100
AcDbEntity
  8
M0
  6
DASHDOT
 62
     4
100
AcDbLine
 10
247.895986
 20
357.49977
 11
289.895986
 21
357.49977
  0
LINE
  5
262
100
AcDbEntity
  8
M0
  6
DASHDOT
 62
     4
100
AcDbLine
 10
348.895986
 20
297.49977
 11
377.895986
 21
297.49977
  0
LINE
  5
263
100
AcDbEntity
  8
M0
  6
DASHDOT
 62
     4
100
AcDbLine
 10
363.395986
 20
282.99977
 11
363.395986
 21
311.99977
  0
LINE
  5
264
100
AcDbEntity
  8
M0
 62
     4
100
AcDbLine
 10
409.595986
 20
487.29977
 11
128.195986
 21
487.29977
  0
LINE
  5
265
100
AcDbEntity
  8
M0
 62
     4
100
AcDbLine
 10
411.395986
 20
462.29977
 11
126.395986
 21
462.29977
  0
LINE
  5
266
100
AcDbEntity
  8
M0
 62
     4
100
AcDbLine
 10
126.395986
 20
485.49977
 11
126.395986
 21
462.29977
  0
LINE
  5
267
100
AcDbEntity
  8
M0
 62
     4
100
AcDbLine
 10
411.395986
 20
485.49977
 11
411.395986
 21
462.29977
  0
LINE
  5
268
100
AcDbEntity
  8
M0
  6
DASHDOT
 62
     4
100
AcDbLine
 10
268.895986
 20
507.29977
 11
268.895986
 21
242.49977
  0
ARC
  5
269
100
AcDbEntity
  8
M0
 62
     4
100
AcDbCircle
 10
409.595986
 20
485.49977
 40
1.8
100
AcDbArc
 50
0.0
 51
90.0
  0
ARC
  5
26A
100
AcDbEntity
  8
M0
 62
     4
100
AcDbCircle
 10
128.195986
 20
485.49977
 40
1.8
100
AcDbArc
 50
90.0
 51
180.0
  0
CIRCLE
  5
26B
100
AcDbEntity
  8
M0
 62
     4
100
AcDbCircle
 10
268.895986
 20
474.49977
 40
5.0
  0
LINE
  5
26C
100
AcDbEntity
  8
M0
  6
DASHDOT
 62
     4
100
AcDbLine
 10
253.895986
 20
474.49977
 11
283.895986
 21
474.49977
  0
LINE
  5
26D
100
AcDbEntity
  8
M0
 62
     4
100
AcDbLine
 10
373.395986
 20
242.49977
 11
353.395986
 21
242.49977
  0
LINE
  5
26E
100
AcDbEntity
  8
M0
 62
     4
100
AcDbLine
 10
363.395986
 20
289.49977
 11
363.395986
 21
242.49977
  0
LINE
  5
26F
100
AcDbEntity
  8
M0
 62
     4
100
AcDbLine
 10
369.395986
 20
237.49977
 11
357.395986
 21
237.49977
  0
LINE
  5
270
100
AcDbEntity
  8
M0
 62
     4
100
AcDbLine
 10
367.395986
 20
232.49977
 11
359.395986
 21
232.49977
  0
CIRCLE
  5
271
100
AcDbEntity
  8
M0
  6
DOT
 62
     4
100
AcDbCircle
 10
328.895986
 20
382.49977
 40
32.5
  0
CIRCLE
  5
272
100
AcDbEntity
  8
M0
  6
DOT
 62
     4
100
AcDbCircle
 10
328.895986
 20
382.49977
 40
27.5
  0
LINE
  5
273
100
AcDbEntity
  8
M0
  6
DASHDOT
 62
     4
100
AcDbLine
 10
286.395986
 20
382.49977
 11
371.395986
 21
382.49977
  0
CIRCLE
  5
274
100
AcDbEntity
  8
M0
  6
DOT
 62
     4
100
AcDbCircle
 10
208.895986
 20
382.49977
 40
32.5
  0
CIRCLE
  5
275
100
AcDbEntity
  8
M0
  6
DOT
 62
     4
100
AcDbCircle
 10
208.895986
 20
382.49977
 40
27.5
  0
LINE
  5
276
100
AcDbEntity
  8
M0
  6
DASHDOT
 62
     4
100
AcDbLine
 10
166.395986
 20
382.49977
 11
251.395986
 21
382.49977
  0
LINE
  5
277
100
AcDbEntity
  8
M0
  6
DASHDOT
 62
     4
100
AcDbLine
 10
208.895986
 20
334.99977
 11
208.895986
 21
429.99977
  0
LINE
  5
278
100
AcDbEntity
  8
M0
  6
DASHDOT
 62
     4
100
AcDbLine
 10
328.895986
 20
334.99977
 11
328.895986
 21
429.99977
  0
LINE
  5
279
100
AcDbEntity
  8
M1
 62
     2
100
AcDbLine
 10
49.999999
 20
49.999999
 11
49.999999
 21
1424.999979
  0
LINE
  5
27A
100
AcDbEntity
  8
M1
 62
     2
100
AcDbLine
 10
49.999999
 20
1424.999979
 11
999.999985
 21
1424.999979
  0
LINE
  5
27B
100
AcDbEntity
  8
M1
 62
     2
100
AcDbLine
 10
999.999985
 20
1424.999979
 11
999.999985
 21
49.999999
  0
LINE
  5
27C
100
AcDbEntity
  8
M1
 62
     2
100
AcDbLine
 10
999.999985
 20
49.999999
 11
49.999999
 21
49.999999
  0
LINE
  5
27D
100
AcDbEntity
  8
M1
 62
     2
100
AcDbLine
 10
999.999985
 20
99.999999
 11
499.999993
 21
99.999999
  0
LINE
  5
27E
100
AcDbEntity
  8
M1
 62
     2
100
AcDbLine
 10
999.999985
 20
149.999998
 11
499.999993
 21
149.999998
  0
LINE
  5
27F
100
AcDbEntity
  8
M1
 62
     2
100
AcDbLine
 10
999.999985
 20
199.999997
 11
499.999993
 21
199.999997
  0
LINE
  5
280
100
AcDbEntity
  8
M1
 62
     2
100
AcDbLine
 10
499.999993
 20
49.999999
 11
499.999993
 21
199.999997
  0
TEXT
  5
281
100
AcDbEntity
  8
M1
 62
     2
100
AcDbText
 10
512.499992
 20
62.499999
 40
25.0
  1
適　用；
  7
STANDARD
100
AcDbText
  0
TEXT
  5
282
100
AcDbEntity
  8
M1
 62
     2
100
AcDbText
 10
512.499992
 20
162.499998
 40
25.0
  1
登録名：
  7
STANDARD
100
AcDbText
  0
TEXT
  5
283
100
AcDbEntity
  8
M1
 62
     2
100
AcDbText
 10
632.499991
 20
162.499998
 40
25.0
  1
ＤＭＳＨ１２５ＣＴＲ００
 41
0.5
  7
STANDARD
100
AcDbText
  0
TEXT
  5
284
100
AcDbEntity
  8
M1
 62
     2
100
AcDbText
 10
512.499992
 20
112.499998
 40
25.0
  1
形　式；
  7
STANDARD
100
AcDbText
  0
TEXT
  5
285
100
AcDbEntity
  8
M1
 62
     2
100
AcDbText
 10
632.499991
 20
112.499998
 40
25.0
  1
ＳＨ１２５Ｃ－Ｔ，ＳＨ１５０Ｃ－Ｔ，ＳＨ２００Ｃ－Ｔ，ＳＨ２５０Ｃ－Ｔ
 41
0.25
  7
STANDARD
100
AcDbText
  0
ENDSEC
  0
SECTION
  2
OBJECTS
  0
DICTIONARY
  5
C
100
AcDbDictionary
  3
ACAD_GROUP
350
D
  3
ACAD_MLINESTYLE
350
E
  0
DICTIONARY
  5
D
102
{ACAD_REACTORS
330
C
102
}
100
AcDbDictionary
  0
DICTIONARY
  5
E
102
{ACAD_REACTORS
330
C
102
}
100
AcDbDictionary
  3
STANDARD
350
13
  0
MLINESTYLE
  5
13
102
{ACAD_REACTORS
330
E
102
}
100
AcDbMlineStyle
  2
STANDARD
 70
     0
  3

 62
     0
 51
90.0
 52
90.0
 71
     2
 49
0.5
 62
   256
  6
BYLAYER
 49
-0.5
 62
   256
  6
BYLAYER
  0
ENDSEC
  0
EOF
