  0
SECTION
  2
HEADER
  9
$ACADVER
  1
AC1014
  9
$INSBASE
 10
0.000000
 20
0.000000
 30
0.0
  9
$VIEWCTR
 10
7.531722
 20
4.5
  9
$VIEWSIZE
 40
9.0
  9
$SNAPMODE
 70
     0
  9
$SNAPUNIT
 10
1.0
 20
1.0
  9
$SNAPBASE
 10
0.0
 20
0.0
  9
$SNAPANG
 50
0.0
  9
$SNAPSTYLE
 70
     0
  9
$SNAPISOPAIR
 70
     0
  9
$GRIDMODE
 70
     0
  9
$GRIDUNIT
 10
0.0
 20
0.0
  9
$ORTHOMODE
 70
     0
  9
$REGENMODE
 70
     1
  9
$FILLMODE
 70
     1
  9
$QTEXTMODE
 70
     0
  9
$DRAGMODE
 70
     2
  9
$LTSCALE
  40
     1.000000
  9
$OSMODE
 70
     0
  9
$ATTMODE
 70
     1
  9
$TEXTSIZE
 40
0.2
  9
$TRACEWID
 40
0.05
  9
$TEXTSTYLE
  7
STANDARD
  9
$CELTYPE
  6
BYLAYER
  9
$CECOLOR
 62
   256
  9
$DIMSCALE
 40
1.0
  9
$DIMASZ
 40
0.18
  9
$DIMEXO
 40
0.0625
  9
$DIMDLI
 40
0.38
  9
$DIMRND
 40
0.0
  9
$DIMDLE
 40
0.0
  9
$DIMEXE
 40
0.18
  9
$DIMTP
 40
0.0
  9
$DIMTM
 40
0.0
  9
$DIMTXT
 40
0.18
  9
$DIMCEN
 40
0.09
  9
$DIMTSZ
 40
0.0
  9
$DIMTOL
 70
     0
  9
$DIMLIM
 70
     0
  9
$DIMTIH
 70
     1
  9
$DIMTOH
 70
     1
  9
$DIMSE1
 70
     0
  9
$DIMSE2
 70
     0
  9
$DIMTAD
 70
     0
  9
$DIMZIN
 70
     0
  9
$DIMBLK
  1

  9
$LUNITS
 70
     2
  9
$LUPREC
 70
     4
  9
$AXISMODE
 70
     0
  9
$AXISUNIT
 10
0.0
 20
0.0
  9
$SKETCHINC
 40
0.1
  9
$FILLETRAD
 40
0.0
  9
$AUNITS
 70
     0
  9
$AUPREC
 70
     0
  9
$MENU
  1
ACAD
  9
$ELEVATION
 40
0.0
  9
$THICKNESS
 40
0.0
  9
$VIEWDIR
 10
0.0
 20
0.0
 30
1.0
  9
$LIMCHECK
 70
     0
  9
$BLIPMODE
 70
     1
  9
$CHAMFERA
 40
0.0
  9
$CHAMFERB
 40
0.0
  9
$FASTZOOM
 70
     1
  9
$SKPOLY
 70
     0
  9
$TDCREATE
 40
0000000.0000000000
  9
$TDUPDATE
 40
0000000.0000000000
  9
$TDINDWG
 40
0.0000000000
  9
$TDUSRTIMER
 40
0.0000000000
  9
$USRTIMER
 70
     1
  9
$ANGBASE
 50
0.0
  9
$ANGDIR
 70
     0
  9
$PDMODE
 70
     0
  9
$PDSIZE
 40
0.0
  9
$PLINEWID
 40
0.0
  9
$COORDS
 70
     0
  9
$USERI1
 70
     0
  9
$USERI2
 70
     0
  9
$USERI3
 70
     0
  9
$USERI4
 70
     0
  9
$USERI5
 70
     0
  9
$USERR1
 40
0.0
  9
$USERR2
 40
0.0
  9
$USERR3
 40
0.0
  9
$USERR4
 40
0.0
  9
$USERR5
 40
0.0
  9
$CLAYER
  8
M0
  9
$EXTMIN
 10
57.142858
 20
57.142858
  9
$EXTMAX
 10
1142.857162
 20
1628.571456
  9
$LIMMIN
 10
0.0
 20
0.0
  9
$LIMMAX
 10
210.0
 20
297.0
  9
$HANDSEED
  5
3DE
  0
ENDSEC
  0
SECTION
  2
CLASSES
  0
ENDSEC
  0
SECTION
  2
TABLES
  0
TABLE
  2
VPORT
  5
8
100
AcDbSymbolTable
 70
     2
  0
VPORT
  5
14
100
AcDbSymbolTableRecord
100
AcDbViewportTableRecord
  2
*ACTIVE
 70
     0
 10
0.0
 20
0.0
 11
1.0
 21
1.0
 12
484.0
 22
297.0
 13
0.0
 23
0.0
 14
1.0
 24
1.0
 15
0.0
 25
0.0
 16
0.0
 26
0.0
 36
1.0
 17
0.0
 27
0.0
 37
0.0
 40
594.0
 41
2.0
 42
50.0
 43
0.0
 44
0.0
 50
0.0
 51
0.0
 71
     0
 72
   100
 73
     1
 74
     1
 75
     0
 76
     0
 77
     0
 78
     0
  0
ENDTAB
  0
TABLE
  2
LTYPE
  5
5
100
AcDbSymbolTable
 70
     5
  0
LTYPE
  5
15
100
AcDbSymbolTableRecord
100
AcDbLinetypeTableRecord
  2
BYBLOCK
 70
     0
  3

 72
    65
 73
     0
 40
0.0
  0
LTYPE
  5
16
100
AcDbSymbolTableRecord
100
AcDbLinetypeTableRecord
  2
BYLAYER
 70
     0
  3

 72
    65
 73
     0
 40
0.0
  0
LTYPE
  5
17
100
AcDbSymbolTableRecord
100
AcDbLinetypeTableRecord
  2
CONTINUOUS
 70
    64
  3
Solid line
 72
    65
 73
     0
 40
0.0
  0
LTYPE
  5
18
100
AcDbSymbolTableRecord
100
AcDbLinetypeTableRecord
  2
DASHED
 70
    64
  3
__ __ __ __ __ __ __ __ __ __ __ __ __ __ __ __
 72
    65
 73
     2
 40
0.75
 49
0.5
 74
     0
 49
-0.25
 74
     0
  0
LTYPE
  5
19
100
AcDbSymbolTableRecord
100
AcDbLinetypeTableRecord
  2
DASHDOT
 70
    64
  3
__ . __ . __ . __ . __ . __ . __ . __ . __ . __
 72
    65
 73
     4
 40
1.0
 49
0.5
 74
     0
 49
-0.25
 74
     0
 49
0.0
 74
     0
 49
-0.25
 74
     0
  0
LTYPE
  5
1A
100
AcDbSymbolTableRecord
100
AcDbLinetypeTableRecord
  2
DIVIDE
 70
    64
  3
____ . . ____ . . ____ . . ____ . . ____ . . __
 72
    65
 73
     6
 40
1.25
 49
0.5
 74
     0
 49
-0.25
 74
     0
 49
0.0
 74
     0
 49
-0.25
 74
     0
 49
0.0
 74
     0
 49
-0.25
 74
     0
  0
LTYPE
  5
1B
100
AcDbSymbolTableRecord
100
AcDbLinetypeTableRecord
  2
DOT
 70
    64
  3
. . . . . . . . . . . . . . . . . . . . . . . .
 72
    65
 73
     2
 40
0.25
 49
0.0
 74
     0
 49
-0.25
 74
     0
  0
ENDTAB
  0
TABLE
  2
LAYER
  5
2
100
AcDbSymbolTable
 70
   102
  0
LAYER
  5
F
100
AcDbSymbolTableRecord
100
AcDbLayerTableRecord
  2
0
 70
     0
 62
     7
  6
CONTINUOUS
  0
LAYER
  5
1C
100
AcDbSymbolTableRecord
100
AcDbLayerTableRecord
  2
DEFPOINTS
 70
     0
 62
     7
  6
CONTINUOUS
  0
LAYER
  5
1D
100
AcDbSymbolTableRecord
100
AcDbLayerTableRecord
  2
M0
 70
     0
 62
     3
  6
CONTINUOUS
  0
LAYER
  5
1E
100
AcDbSymbolTableRecord
100
AcDbLayerTableRecord
  2
M1
 70
     0
 62
     3
  6
CONTINUOUS
  0
LAYER
  5
1F
100
AcDbSymbolTableRecord
100
AcDbLayerTableRecord
  2
DD0
 70
     0
 62
     4
  6
CONTINUOUS
  0
ENDTAB
  0
TABLE
  2
STYLE
  5
3
100
AcDbSymbolTable
 70
     2
  0
STYLE
  5
10
100
AcDbSymbolTableRecord
100
AcDbTextStyleTableRecord
  2
STANDARD
 70
     0
 40
0.0
 41
1.0
 50
0.0
 71
     0
 42
0.2
  3
txt
  4
BIGFONT
  0
ENDTAB
  0
TABLE
  2
VIEW
  5
6
100
AcDbSymbolTable
 70
     0
  0
ENDTAB
  0
TABLE
  2
UCS
  5
7
100
AcDbSymbolTable
 70
     0
  0
ENDTAB
  0
TABLE
  2
APPID
  5
9
100
AcDbSymbolTable
 70
     1
  0
APPID
  5
11
100
AcDbSymbolTableRecord
100
AcDbRegAppTableRecord
  2
ACAD
 70
     0
  0
ENDTAB
  0
TABLE
  2
DIMSTYLE
  5
A
100
AcDbSymbolTable
 70
     2
  0
DIMSTYLE
105
26
100
AcDbSymbolTableRecord
100
AcDbDimStyleTableRecord
  2
STANDARD
 70
     0
  3

  4

  5

  6
_OPEN
  7
_OPEN
 40
1.0
 41
17.142857
 42
1.0
 43
8.0
 44
1.0
 45
0.0
 46
0.0
 47
0.0
 48
0.0
140
18.000001
141
0.09
142
0.0
143
0.03937
144
1.0
145
0.0
146
1.0
147
0.6
 71
     0
 72
     0
 73
     1
 74
     1
 75
     0
 76
     0
 77
     3
 78
     8
170
     0
171
     2
172
     0
173
     1
174
     0
175
     0
176
     0
177
     0
178
     0
270
     2
271
     2
272
     4
273
     2
274
     2
340
10
275
     0
280
     0
281
     0
282
     0
283
     1
284
     0
285
     0
286
     0
287
     3
288
     0
  0
DIMSTYLE
105
27
100
AcDbSymbolTableRecord
100
AcDbDimStyleTableRecord
  2
LEADSTYL
 70
     0
  3

  4

  5

  6
_OPEN
  7
_OPEN
 40
1.0
 41
17.142857
 42
0.0625
 43
0.38
 44
0.18
 45
0.0
 46
0.0
 47
0.0
 48
0.0
140
18.000001
141
0.09
142
0.0
143
25.4
144
1.0
145
0.0
146
1.0
147
0.6
 71
     0
 72
     0
 73
     1
 74
     1
 75
     0
 76
     0
 77
     0
 78
     0
170
     0
171
     2
172
     0
173
     1
174
     0
175
     0
176
     0
177
     0
178
     0
270
     2
271
     4
272
     4
273
     2
274
     2
340
10
275
     0
280
     0
281
     0
282
     0
283
     1
284
     0
285
     0
286
     0
287
     3
288
     0
  0
ENDTAB
  0
TABLE
  2
BLOCK_RECORD
  5
1
100
AcDbSymbolTable
 70
    15
  0
BLOCK_RECORD
  5
20
100
AcDbSymbolTableRecord
100
AcDbBlockTableRecord
  2
*MODEL_SPACE
  0
BLOCK_RECORD
  5
23
100
AcDbSymbolTableRecord
100
AcDbBlockTableRecord
  2
*PAPER_SPACE
  0
BLOCK_RECORD
  5
28
100
AcDbSymbolTableRecord
100
AcDbBlockTableRecord
  2
_NONE
  0
BLOCK_RECORD
  5
2C
100
AcDbSymbolTableRecord
100
AcDbBlockTableRecord
  2
_OPEN
  0
BLOCK_RECORD
  5
32
100
AcDbSymbolTableRecord
100
AcDbBlockTableRecord
  2
_CLOSED
  0
BLOCK_RECORD
  5
39
100
AcDbSymbolTableRecord
100
AcDbBlockTableRecord
  2
_ORIGIN
  0
BLOCK_RECORD
  5
3E
100
AcDbSymbolTableRecord
100
AcDbBlockTableRecord
  2
_DOT
  0
BLOCK_RECORD
  5
46
100
AcDbSymbolTableRecord
100
AcDbBlockTableRecord
  2
_OBLIQUE
  0
BLOCK_RECORD
  5
4A
100
AcDbSymbolTableRecord
100
AcDbBlockTableRecord
  2
DIMS0
  0
BLOCK_RECORD
  5
53
100
AcDbSymbolTableRecord
100
AcDbBlockTableRecord
  2
DIMS1
  0
BLOCK_RECORD
  5
5F
100
AcDbSymbolTableRecord
100
AcDbBlockTableRecord
  2
DIMS2
  0
BLOCK_RECORD
  5
6B
100
AcDbSymbolTableRecord
100
AcDbBlockTableRecord
  2
DIMS3
  0
BLOCK_RECORD
  5
77
100
AcDbSymbolTableRecord
100
AcDbBlockTableRecord
  2
DIMS4
  0
BLOCK_RECORD
  5
83
100
AcDbSymbolTableRecord
100
AcDbBlockTableRecord
  2
DIMS5
  0
BLOCK_RECORD
  5
8E
100
AcDbSymbolTableRecord
100
AcDbBlockTableRecord
  2
DIMS6
  0
BLOCK_RECORD
  5
9A
100
AcDbSymbolTableRecord
100
AcDbBlockTableRecord
  2
DIMS7
  0
BLOCK_RECORD
  5
A6
100
AcDbSymbolTableRecord
100
AcDbBlockTableRecord
  2
DIMS8
  0
ENDTAB
  0
ENDSEC
  0
SECTION
  2
BLOCKS
  0
BLOCK
  5
21
100
AcDbEntity
  8
0
100
AcDbBlockBegin
  2
*MODEL_SPACE
 70
     0
 10
0.0
 20
0.0
 30
0.0
  3
*MODEL_SPACE
  1

  0
ENDBLK
  5
22
100
AcDbEntity
  8
0
100
AcDbBlockEnd
  0
BLOCK
  5
24
100
AcDbEntity
 67
     1
  8
0
100
AcDbBlockBegin
  2
*PAPER_SPACE
 70
     0
 10
0.0
 20
0.0
 30
0.0
  3
*PAPER_SPACE
  1

  0
ENDBLK
  5
25
100
AcDbEntity
 67
     1
  8
0
100
AcDbBlockEnd
  0
BLOCK
  5
29
100
AcDbEntity
  8
0
100
AcDbBlockBegin
  2
_NONE
 70
     0
 10
0.0
 20
0.0
  0
CIRCLE
  5
2A
100
AcDbEntity
  8
0
 62
     0
100
AcDbCircle
 10
0.0
 20
0.0
 40
0.25
  0
ENDBLK
  5
2B
100
AcDbEntity
  8
0
100
AcDbBlockEnd
  0
BLOCK
  5
2D
100
AcDbEntity
  8
0
100
AcDbBlockBegin
  2
_OPEN
 70
     0
 10
0.0
 20
0.0
  0
LINE
  5
2E
100
AcDbEntity
  8
0
 62
     0
100
AcDbLine
 10
-0.965926
 20
0.258819
 11
0.0
 21
0.0
  0
LINE
  5
2F
100
AcDbEntity
  8
0
 62
     0
100
AcDbLine
 10
0.0
 20
0.0
 11
-0.965926
 21
-0.258819
  0
LINE
  5
30
100
AcDbEntity
  8
0
 62
     0
100
AcDbLine
 10
0.0
 20
0.0
 11
-1.0
 21
0.0
  0
ENDBLK
  5
31
100
AcDbEntity
  8
0
100
AcDbBlockEnd
  0
BLOCK
  5
33
100
AcDbEntity
  8
0
100
AcDbBlockBegin
  2
_CLOSED
 70
     0
 10
0.0
 20
0.0
  0
LINE
  5
34
100
AcDbEntity
  8
0
 62
     0
100
AcDbLine
 10
-0.965926
 20
0.258819
 11
0.0
 21
0.0
  0
LINE
  5
35
100
AcDbEntity
  8
0
 62
     0
100
AcDbLine
 10
0.0
 20
0.0
 11
-0.965926
 21
-0.258819
  0
LINE
  5
36
100
AcDbEntity
  8
0
 62
     0
100
AcDbLine
 10
-0.965926
 20
0.258819
 11
-0.965926
 21
-0.258819
  0
LINE
  5
37
100
AcDbEntity
  8
0
 62
     0
100
AcDbLine
 10
0.0
 20
0.0
 11
-1.0
 21
0.0
  0
ENDBLK
  5
38
100
AcDbEntity
  8
0
100
AcDbBlockEnd
  0
BLOCK
  5
3A
100
AcDbEntity
  8
0
100
AcDbBlockBegin
  2
_ORIGIN
 70
     0
 10
0.0
 20
0.0
  0
CIRCLE
  5
3B
100
AcDbEntity
  8
0
 62
     0
100
AcDbCircle
 10
0.0
 20
0.0
 40
0.5
  0
LINE
  5
3C
100
AcDbEntity
  8
0
 62
     0
100
AcDbLine
 10
0.0
 20
0.0
 11
-1.0
 21
0.0
  0
ENDBLK
  5
3D
100
AcDbEntity
  8
0
100
AcDbBlockEnd
  0
BLOCK
  5
3F
100
AcDbEntity
  8
0
100
AcDbBlockBegin
  2
_DOT
 70
     0
 10
0.0
 20
0.0
  0
POLYLINE
  5
40
100
AcDbEntity
  8
0
 62
     0
100
AcDb2dPolyline
 66
     1
 70
     1
 40
0.5
 41
0.5
  0
VERTEX
  5
41
100
AcDbEntity
  8
0
 62
     0
100
AcDbVertex
100
AcDb2dVertex
 10
-0.25
 20
0.0
 42
1.0
  0
VERTEX
  5
42
100
AcDbEntity
  8
0
 62
     0
100
AcDbVertex
100
AcDb2dVertex
 10
0.25
 20
0.0
 42
1.0
  0
SEQEND
  5
43
100
AcDbEntity
  8
0
 62
     0
  0
LINE
  5
44
100
AcDbEntity
  8
0
 62
     0
100
AcDbLine
 10
-0.5
 20
0.0
 11
-1.0
 21
0.0
  0
ENDBLK
  5
45
100
AcDbEntity
  8
0
100
AcDbBlockEnd
  0
BLOCK
  5
47
100
AcDbEntity
  8
0
100
AcDbBlockBegin
  2
_OBLIQUE
 70
     0
 10
0.0
 20
0.0
  0
LINE
  5
48
100
AcDbEntity
  8
0
 62
     0
100
AcDbLine
 10
-0.353553
 20
-0.353553
 11
0.353553
 21
0.353553
  0
ENDBLK
  5
49
100
AcDbEntity
  8
0
100
AcDbBlockEnd
  0
BLOCK
  5
4B
100
AcDbEntity
  8
DD0
100
AcDbBlockBegin
  2
DIMS0
 70
     0
 10
0.0
 20
0.0
  0
LINE
  5
4C
100
AcDbEntity
  8
DD0
100
AcDbLine
 10
436.757533
 20
810.406498
 11
428.208887
 21
825.265779
  0
LINE
  5
4D
100
AcDbEntity
  8
DD0
100
AcDbLine
 10
428.208887
 20
825.265779
 11
428.182591
 21
808.122941
  0
LINE
  5
4E
100
AcDbEntity
  8
DD0
100
AcDbLine
 10
428.208887
 20
825.265779
 11
492.011073
 21
585.683386
  0
LINE
  5
4F
100
AcDbEntity
  8
DD0
100
AcDbLine
 10
492.011073
 20
585.683386
 11
781.153927
 21
585.683386
  0
TEXT
  5
50
100
AcDbEntity
  8
DD0
100
AcDbText
 10
512.801573
 20
591.397672
 40
22.857143
  1
４－Ｍ１０ボルト取付穴
 41
0.833333
  7
STANDARD
100
AcDbText
  0
ENDBLK
  5
51
100
AcDbEntity
  8
DD0
100
AcDbBlockEnd
  0
BLOCK
  5
54
100
AcDbEntity
  8
DD0
100
AcDbBlockBegin
  2
DIMS1
 70
     0
 10
0.0
 20
0.0
  0
LINE
  5
55
100
AcDbEntity
  8
DD0
100
AcDbLine
 10
446.886474
 20
1345.097418
 11
580.6118
 21
1345.097418
  0
LINE
  5
56
100
AcDbEntity
  8
DD0
100
AcDbLine
 10
446.886474
 20
830.097409
 11
580.6118
 21
830.097409
  0
LINE
  5
57
100
AcDbEntity
  8
DD0
100
AcDbLine
 10
579.334412
 20
1328.538689
 11
574.897514
 21
1345.097418
  0
LINE
  5
58
100
AcDbEntity
  8
DD0
100
AcDbLine
 10
574.897514
 20
1345.097418
 11
570.460616
 21
1328.538689
  0
LINE
  5
59
100
AcDbEntity
  8
DD0
100
AcDbLine
 10
570.460616
 20
846.656138
 11
574.897514
 21
830.097409
  0
LINE
  5
5A
100
AcDbEntity
  8
DD0
100
AcDbLine
 10
574.897514
 20
830.097409
 11
579.334412
 21
846.656138
  0
LINE
  5
5B
100
AcDbEntity
  8
DD0
100
AcDbLine
 10
574.897514
 20
1345.097418
 11
574.897514
 21
830.097409
  0
TEXT
  5
5C
100
AcDbEntity
  8
DD0
100
AcDbText
 10
569.183229
 20
1055.244994
 40
22.857143
  1
５１５
 50
90.000003
 41
0.833333
  7
STANDARD
100
AcDbText
  0
ENDBLK
  5
5D
100
AcDbEntity
  8
DD0
100
AcDbBlockEnd
  0
BLOCK
  5
60
100
AcDbEntity
  8
DD0
100
AcDbBlockBegin
  2
DIMS2
 70
     0
 10
0.0
 20
0.0
  0
LINE
  5
61
100
AcDbEntity
  8
DD0
100
AcDbLine
 10
446.886474
 20
1345.097418
 11
580.611844
 21
1345.097418
  0
LINE
  5
62
100
AcDbEntity
  8
DD0
100
AcDbLine
 10
498.636483
 20
1408.097384
 11
580.611844
 21
1408.097384
  0
LINE
  5
63
100
AcDbEntity
  8
DD0
100
AcDbLine
 10
570.46066
 20
1361.656146
 11
574.897558
 21
1345.097418
  0
LINE
  5
64
100
AcDbEntity
  8
DD0
100
AcDbLine
 10
574.897558
 20
1345.097418
 11
579.334456
 21
1361.656146
  0
LINE
  5
65
100
AcDbEntity
  8
DD0
100
AcDbLine
 10
579.334456
 20
1391.538655
 11
574.897558
 21
1408.097384
  0
LINE
  5
66
100
AcDbEntity
  8
DD0
100
AcDbLine
 10
574.897558
 20
1408.097384
 11
570.46066
 21
1391.538655
  0
LINE
  5
67
100
AcDbEntity
  8
DD0
100
AcDbLine
 10
574.897558
 20
1345.097418
 11
574.897558
 21
1408.097384
  0
TEXT
  5
68
100
AcDbEntity
  8
DD0
100
AcDbText
 10
569.183272
 20
1355.673553
 40
22.857143
  1
６３
 50
90.000003
 41
0.833333
  7
STANDARD
100
AcDbText
  0
ENDBLK
  5
69
100
AcDbEntity
  8
DD0
100
AcDbBlockEnd
  0
BLOCK
  5
6C
100
AcDbEntity
  8
DD0
100
AcDbBlockBegin
  2
DIMS3
 70
     0
 10
0.0
 20
0.0
  0
LINE
  5
6D
100
AcDbEntity
  8
DD0
100
AcDbLine
 10
498.636483
 20
718.097416
 11
655.822329
 21
718.097416
  0
LINE
  5
6E
100
AcDbEntity
  8
DD0
100
AcDbLine
 10
498.636483
 20
1408.097384
 11
655.822329
 21
1408.097384
  0
LINE
  5
6F
100
AcDbEntity
  8
DD0
100
AcDbLine
 10
645.671145
 20
734.656144
 11
650.108043
 21
718.097416
  0
LINE
  5
70
100
AcDbEntity
  8
DD0
100
AcDbLine
 10
650.108043
 20
718.097416
 11
654.544941
 21
734.656144
  0
LINE
  5
71
100
AcDbEntity
  8
DD0
100
AcDbLine
 10
654.544941
 20
1391.538655
 11
650.108043
 21
1408.097384
  0
LINE
  5
72
100
AcDbEntity
  8
DD0
100
AcDbLine
 10
650.108043
 20
1408.097384
 11
645.671145
 21
1391.538655
  0
LINE
  5
73
100
AcDbEntity
  8
DD0
100
AcDbLine
 10
650.108043
 20
718.097416
 11
650.108043
 21
1408.097384
  0
TEXT
  5
74
100
AcDbEntity
  8
DD0
100
AcDbText
 10
644.393757
 20
1030.744958
 40
22.857143
  1
６９０
 50
90.000003
 41
0.833333
  7
STANDARD
100
AcDbText
  0
ENDBLK
  5
75
100
AcDbEntity
  8
DD0
100
AcDbBlockEnd
  0
BLOCK
  5
78
100
AcDbEntity
  8
DD0
100
AcDbBlockBegin
  2
DIMS4
 70
     0
 10
0.0
 20
0.0
  0
LINE
  5
79
100
AcDbEntity
  8
DD0
100
AcDbLine
 10
426.922179
 20
1365.061669
 11
426.922179
 21
1473.761535
  0
LINE
  5
7A
100
AcDbEntity
  8
DD0
100
AcDbLine
 10
218.922188
 20
1365.061669
 11
218.922188
 21
1473.761535
  0
LINE
  5
7B
100
AcDbEntity
  8
DD0
100
AcDbLine
 10
410.36345
 20
1463.610351
 11
426.922179
 21
1468.047249
  0
LINE
  5
7C
100
AcDbEntity
  8
DD0
100
AcDbLine
 10
426.922179
 20
1468.047249
 11
410.36345
 21
1472.484147
  0
LINE
  5
7D
100
AcDbEntity
  8
DD0
100
AcDbLine
 10
235.480917
 20
1472.484147
 11
218.922188
 21
1468.047249
  0
LINE
  5
7E
100
AcDbEntity
  8
DD0
100
AcDbLine
 10
218.922188
 20
1468.047249
 11
235.480917
 21
1463.610351
  0
LINE
  5
7F
100
AcDbEntity
  8
DD0
100
AcDbLine
 10
426.922179
 20
1468.047249
 11
218.922188
 21
1468.047249
  0
TEXT
  5
80
100
AcDbEntity
  8
DD0
100
AcDbText
 10
290.569818
 20
1473.761535
 40
22.857143
  1
２０８
 41
0.833333
  7
STANDARD
100
AcDbText
  0
ENDBLK
  5
81
100
AcDbEntity
  8
DD0
100
AcDbBlockEnd
  0
BLOCK
  5
84
100
AcDbEntity
  8
DD0
100
AcDbBlockBegin
  2
DIMS5
 70
     0
 10
0.0
 20
0.0
  0
LINE
  5
85
100
AcDbEntity
  8
DD0
100
AcDbLine
 10
332.436486
 20
708.097415
 11
655.822329
 21
708.097415
  0
LINE
  5
86
100
AcDbEntity
  8
DD0
100
AcDbLine
 10
654.544941
 20
691.538687
 11
650.108043
 21
708.097415
  0
LINE
  5
87
100
AcDbEntity
  8
DD0
100
AcDbLine
 10
650.108043
 20
708.097415
 11
645.671145
 21
691.538687
  0
LINE
  5
88
100
AcDbEntity
  8
DD0
100
AcDbLine
 10
645.671145
 20
734.656144
 11
650.108043
 21
718.097416
  0
LINE
  5
89
100
AcDbEntity
  8
DD0
100
AcDbLine
 10
650.108043
 20
718.097416
 11
654.544941
 21
734.656144
  0
LINE
  5
8A
100
AcDbEntity
  8
DD0
100
AcDbLine
 10
650.108043
 20
637.811699
 11
650.108043
 21
736.954559
  0
TEXT
  5
8B
100
AcDbEntity
  8
DD0
100
AcDbText
 10
644.393757
 20
642.202166
 40
22.857143
  1
１０
 50
90.000003
 41
0.833333
  7
STANDARD
100
AcDbText
  0
ENDBLK
  5
8C
100
AcDbEntity
  8
DD0
100
AcDbBlockEnd
  0
BLOCK
  5
8F
100
AcDbEntity
  8
DD0
100
AcDbBlockBegin
  2
DIMS6
 70
     0
 10
0.0
 20
0.0
  0
LINE
  5
90
100
AcDbEntity
  8
DD0
100
AcDbLine
 10
152.922202
 20
1413.81167
 11
152.922202
 21
1537.552516
  0
LINE
  5
91
100
AcDbEntity
  8
DD0
100
AcDbLine
 10
492.922197
 20
1413.81167
 11
492.922197
 21
1537.552516
  0
LINE
  5
92
100
AcDbEntity
  8
DD0
100
AcDbLine
 10
169.480931
 20
1536.275129
 11
152.922202
 21
1531.838231
  0
LINE
  5
93
100
AcDbEntity
  8
DD0
100
AcDbLine
 10
152.922202
 20
1531.838231
 11
169.480931
 21
1527.401332
  0
LINE
  5
94
100
AcDbEntity
  8
DD0
100
AcDbLine
 10
476.363469
 20
1527.401332
 11
492.922197
 21
1531.838231
  0
LINE
  5
95
100
AcDbEntity
  8
DD0
100
AcDbLine
 10
492.922197
 20
1531.838231
 11
476.363469
 21
1536.275129
  0
LINE
  5
96
100
AcDbEntity
  8
DD0
100
AcDbLine
 10
152.922202
 20
1531.838231
 11
492.922197
 21
1531.838231
  0
TEXT
  5
97
100
AcDbEntity
  8
DD0
100
AcDbText
 10
290.569818
 20
1537.552516
 40
22.857143
  1
３４０
 41
0.833333
  7
STANDARD
100
AcDbText
  0
ENDBLK
  5
98
100
AcDbEntity
  8
DD0
100
AcDbBlockEnd
  0
BLOCK
  5
9B
100
AcDbEntity
  8
DD0
100
AcDbBlockBegin
  2
DIMS7
 70
     0
 10
0.0
 20
0.0
  0
LINE
  5
9C
100
AcDbEntity
  8
DD0
100
AcDbLine
 10
1025.324724
 20
715.883104
 11
1025.324724
 21
644.621375
  0
LINE
  5
9D
100
AcDbEntity
  8
DD0
100
AcDbLine
 10
1019.324794
 20
715.883104
 11
1019.324794
 21
644.621375
  0
LINE
  5
9E
100
AcDbEntity
  8
DD0
100
AcDbLine
 10
1041.883453
 20
654.772559
 11
1025.324724
 21
650.335661
  0
LINE
  5
9F
100
AcDbEntity
  8
DD0
100
AcDbLine
 10
1025.324724
 20
650.335661
 11
1041.883453
 21
645.898763
  0
LINE
  5
A0
100
AcDbEntity
  8
DD0
100
AcDbLine
 10
1002.766065
 20
645.898763
 11
1019.324794
 21
650.335661
  0
LINE
  5
A1
100
AcDbEntity
  8
DD0
100
AcDbLine
 10
1019.324794
 20
650.335661
 11
1002.766065
 21
654.772559
  0
LINE
  5
A2
100
AcDbEntity
  8
DD0
100
AcDbLine
 10
1118.467579
 20
650.335661
 11
1000.467651
 21
650.335661
  0
TEXT
  5
A3
100
AcDbEntity
  8
DD0
100
AcDbText
 10
1046.11518
 20
656.049947
 40
22.857143
  1
４．８
 41
0.833333
  7
STANDARD
100
AcDbText
  0
ENDBLK
  5
A4
100
AcDbEntity
  8
DD0
100
AcDbBlockEnd
  0
BLOCK
  5
A7
100
AcDbEntity
  8
DD0
100
AcDbBlockBegin
  2
DIMS8
 70
     0
 10
0.0
 20
0.0
  0
LINE
  5
A8
100
AcDbEntity
  8
DD0
100
AcDbLine
 10
1025.324724
 20
1410.311652
 11
1025.324724
 21
1473.761535
  0
LINE
  5
A9
100
AcDbEntity
  8
DD0
100
AcDbLine
 10
767.324755
 20
1412.011656
 11
767.324755
 21
1473.761535
  0
LINE
  5
AA
100
AcDbEntity
  8
DD0
100
AcDbLine
 10
1008.765996
 20
1463.610351
 11
1025.324724
 21
1468.047249
  0
LINE
  5
AB
100
AcDbEntity
  8
DD0
100
AcDbLine
 10
1025.324724
 20
1468.047249
 11
1008.765996
 21
1472.484147
  0
LINE
  5
AC
100
AcDbEntity
  8
DD0
100
AcDbLine
 10
783.883484
 20
1472.484147
 11
767.324755
 21
1468.047249
  0
LINE
  5
AD
100
AcDbEntity
  8
DD0
100
AcDbLine
 10
767.324755
 20
1468.047249
 11
783.883484
 21
1463.610351
  0
LINE
  5
AE
100
AcDbEntity
  8
DD0
100
AcDbLine
 10
1025.324724
 20
1468.047249
 11
767.324755
 21
1468.047249
  0
TEXT
  5
AF
100
AcDbEntity
  8
DD0
100
AcDbText
 10
863.97232
 20
1473.761535
 40
22.857143
  1
２５８
 41
0.833333
  7
STANDARD
100
AcDbText
  0
ENDBLK
  5
B0
100
AcDbEntity
  8
DD0
100
AcDbBlockEnd
  0
ENDSEC
  0
SECTION
  2
ENTITIES
  0
INSERT
  5
52
100
AcDbEntity
  8
DD0
100
AcDbBlockReference
  2
DIMS0
 10
0.0
 20
0.0
  0
INSERT
  5
5E
100
AcDbEntity
  8
DD0
100
AcDbBlockReference
  2
DIMS1
 10
0.0
 20
0.0
  0
INSERT
  5
6A
100
AcDbEntity
  8
DD0
100
AcDbBlockReference
  2
DIMS2
 10
0.0
 20
0.0
  0
INSERT
  5
76
100
AcDbEntity
  8
DD0
100
AcDbBlockReference
  2
DIMS3
 10
0.0
 20
0.0
  0
INSERT
  5
82
100
AcDbEntity
  8
DD0
100
AcDbBlockReference
  2
DIMS4
 10
0.0
 20
0.0
  0
INSERT
  5
8D
100
AcDbEntity
  8
DD0
100
AcDbBlockReference
  2
DIMS5
 10
0.0
 20
0.0
  0
INSERT
  5
99
100
AcDbEntity
  8
DD0
100
AcDbBlockReference
  2
DIMS6
 10
0.0
 20
0.0
  0
INSERT
  5
A5
100
AcDbEntity
  8
DD0
100
AcDbBlockReference
  2
DIMS7
 10
0.0
 20
0.0
  0
INSERT
  5
B1
100
AcDbEntity
  8
DD0
100
AcDbBlockReference
  2
DIMS8
 10
0.0
 20
0.0
  0
CIRCLE
  5
B2
100
AcDbEntity
  8
M0
  6
DOT
 62
     4
100
AcDbCircle
 10
218.922197
 20
830.097397
 40
5.0
  0
CIRCLE
  5
B3
100
AcDbEntity
  8
M0
  6
DOT
 62
     4
100
AcDbCircle
 10
426.922197
 20
830.097397
 40
5.0
  0
LINE
  5
B4
100
AcDbEntity
  8
M0
  6
DASHDOT
 62
     4
100
AcDbLine
 10
412.672197
 20
1345.097397
 11
441.172197
 21
1345.097397
  0
LINE
  5
B5
100
AcDbEntity
  8
M0
  6
DASHDOT
 62
     4
100
AcDbLine
 10
426.922197
 20
1330.052904
 11
426.922197
 21
1359.347397
  0
LINE
  5
B6
100
AcDbEntity
  8
M0
  6
DASHDOT
 62
     4
100
AcDbLine
 10
218.922197
 20
1330.052904
 11
218.922197
 21
1359.347397
  0
LINE
  5
B7
100
AcDbEntity
  8
M0
  6
DASHDOT
 62
     4
100
AcDbLine
 10
412.672197
 20
830.097397
 11
441.172197
 21
830.097397
  0
LINE
  5
B8
100
AcDbEntity
  8
M0
  6
DASHDOT
 62
     4
100
AcDbLine
 10
218.922197
 20
815.847397
 11
218.922197
 21
844.347397
  0
LINE
  5
B9
100
AcDbEntity
  8
M0
  6
DASHDOT
 62
     4
100
AcDbLine
 10
204.672197
 20
1345.097397
 11
233.172197
 21
1345.097397
  0
LINE
  5
BA
100
AcDbEntity
  8
M0
  6
DASHDOT
 62
     4
100
AcDbLine
 10
426.922197
 20
815.847397
 11
426.922197
 21
844.347397
  0
LINE
  5
BB
100
AcDbEntity
  8
M0
  6
DASHDOT
 62
     4
100
AcDbLine
 10
204.672197
 20
830.097397
 11
233.172197
 21
830.097397
  0
LINE
  5
BC
100
AcDbEntity
  8
M0
 62
     4
100
AcDbLine
 10
318.422197
 20
718.097397
 11
318.422197
 21
715.097397
  0
LINE
  5
BD
100
AcDbEntity
  8
M0
 62
     4
100
AcDbLine
 10
327.922197
 20
709.297397
 11
317.922197
 21
709.297397
  0
LINE
  5
BE
100
AcDbEntity
  8
M0
 62
     4
100
AcDbLine
 10
317.922197
 20
709.297397
 11
319.122197
 21
708.097397
  0
LINE
  5
BF
100
AcDbEntity
  8
M0
 62
     4
100
AcDbLine
 10
327.422197
 20
718.097397
 11
327.422197
 21
715.097397
  0
LINE
  5
C0
100
AcDbEntity
  8
M0
 62
     4
100
AcDbLine
 10
326.722197
 20
708.097397
 11
327.922197
 21
709.297397
  0
LINE
  5
C1
100
AcDbEntity
  8
M0
 62
     4
100
AcDbLine
 10
317.922197
 20
715.097397
 11
317.922197
 21
709.297397
  0
LINE
  5
C2
100
AcDbEntity
  8
M0
 62
     4
100
AcDbLine
 10
327.922197
 20
709.297397
 11
327.922197
 21
715.097397
  0
LINE
  5
C3
100
AcDbEntity
  8
M0
 62
     4
100
AcDbLine
 10
327.422197
 20
718.097397
 11
318.422197
 21
718.097397
  0
LINE
  5
C4
100
AcDbEntity
  8
M0
 62
     4
100
AcDbLine
 10
319.122197
 20
708.097397
 11
326.722197
 21
708.097397
  0
LINE
  5
C5
100
AcDbEntity
  8
M0
 62
     4
100
AcDbLine
 10
327.922197
 20
715.097397
 11
317.922197
 21
715.097397
  0
LINE
  5
C6
100
AcDbEntity
  8
M0
 62
     4
100
AcDbLine
 10
492.922197
 20
718.097397
 11
492.922197
 21
1408.097397
  0
LINE
  5
C7
100
AcDbEntity
  8
M0
 62
     4
100
AcDbLine
 10
492.922197
 20
1408.097397
 11
152.922197
 21
1408.097397
  0
LINE
  5
C8
100
AcDbEntity
  8
M0
 62
     4
100
AcDbLine
 10
152.922197
 20
1408.097397
 11
152.922197
 21
718.097397
  0
LINE
  5
C9
100
AcDbEntity
  8
M0
 62
     4
100
AcDbLine
 10
152.922197
 20
718.097397
 11
492.922197
 21
718.097397
  0
LINE
  5
CA
100
AcDbEntity
  8
M0
  6
DASHDOT
 62
     4
100
AcDbLine
 10
127.922198
 20
1063.097397
 11
517.922197
 21
1063.097397
  0
LINE
  5
CB
100
AcDbEntity
  8
M0
  6
DASHDOT
 62
     4
100
AcDbLine
 10
322.922197
 20
693.097397
 11
322.922197
 21
1433.097396
  0
CIRCLE
  5
CC
100
AcDbEntity
  8
M0
  6
DOT
 62
     4
100
AcDbCircle
 10
426.922197
 20
1345.097397
 40
5.0
  0
CIRCLE
  5
CD
100
AcDbEntity
  8
M0
  6
DOT
 62
     4
100
AcDbCircle
 10
218.922197
 20
1345.097397
 40
5.0
  0
LINE
  5
CE
100
AcDbEntity
  8
M0
 62
     7
100
AcDbLine
 10
785.124753
 20
709.297397
 11
785.124753
 21
715.097397
  0
LINE
  5
CF
100
AcDbEntity
  8
M0
 62
     7
100
AcDbLine
 10
775.124753
 20
715.097397
 11
775.124753
 21
709.297397
  0
LINE
  5
D0
100
AcDbEntity
  8
M0
 62
     7
100
AcDbLine
 10
776.324753
 20
708.097397
 11
783.924753
 21
708.097397
  0
LINE
  5
D1
100
AcDbEntity
  8
M0
 62
     7
100
AcDbLine
 10
784.624753
 20
718.097397
 11
775.624753
 21
718.097397
  0
LINE
  5
D2
100
AcDbEntity
  8
M0
 62
     7
100
AcDbLine
 10
785.124753
 20
715.097397
 11
775.124753
 21
715.097397
  0
LINE
  5
D3
100
AcDbEntity
  8
M0
 62
     7
100
AcDbLine
 10
785.124753
 20
709.297397
 11
775.124753
 21
709.297397
  0
LINE
  5
D4
100
AcDbEntity
  8
M0
 62
     7
100
AcDbLine
 10
775.624753
 20
718.097397
 11
775.624753
 21
715.097397
  0
LINE
  5
D5
100
AcDbEntity
  8
M0
 62
     7
100
AcDbLine
 10
784.624753
 20
718.097397
 11
784.624753
 21
715.097397
  0
LINE
  5
D6
100
AcDbEntity
  8
M0
 62
     7
100
AcDbLine
 10
775.124753
 20
709.297397
 11
776.324753
 21
708.097397
  0
LINE
  5
D7
100
AcDbEntity
  8
M0
 62
     7
100
AcDbLine
 10
783.924753
 20
708.097397
 11
785.124753
 21
709.297397
  0
LINE
  5
D8
100
AcDbEntity
  8
M0
 62
     7
100
AcDbLine
 10
928.825721
 20
718.397411
 11
941.826209
 21
718.397388
  0
LINE
  5
D9
100
AcDbEntity
  8
M0
 62
     7
100
AcDbLine
 10
932.075217
 20
712.897646
 11
938.575453
 21
712.897627
  0
LINE
  5
DA
100
AcDbEntity
  8
M0
 62
     7
100
AcDbLine
 10
941.82618
 20
713.625026
 11
941.826194
 21
718.397374
  0
LINE
  5
DB
100
AcDbEntity
  8
M0
 62
     7
100
AcDbLine
 10
928.825721
 20
718.397411
 11
928.825707
 21
713.625062
  0
LINE
  5
DC
100
AcDbEntity
  8
M0
  6
DASHDOT
 62
     7
100
AcDbLine
 10
935.3247
 20
702.897637
 11
935.324782
 21
731.597397
  0
LINE
  5
DD
100
AcDbEntity
  8
M0
 62
     7
100
AcDbLine
 10
935.324744
 20
718.397422
 11
935.324731
 21
713.625044
  0
ARC
  5
DE
100
AcDbEntity
  8
M0
 62
     7
100
AcDbCircle
 10
938.575475
 20
720.524935
 40
7.627309
100
AcDbArc
 50
244.773433
 51
295.226126
  0
ARC
  5
DF
100
AcDbEntity
  8
M0
 62
     7
100
AcDbCircle
 10
932.075238
 20
720.519534
 40
7.621889
100
AcDbArc
 50
244.764363
 51
295.23564
  0
LINE
  5
E0
100
AcDbEntity
  8
M0
 62
     7
100
AcDbLine
 10
943.324735
 20
721.597397
 11
927.324735
 21
721.597397
  0
LINE
  5
E1
100
AcDbEntity
  8
M0
 62
     7
100
AcDbLine
 10
1025.324753
 20
721.597397
 11
1025.324753
 21
1404.597397
  0
LINE
  5
E2
100
AcDbEntity
  8
M0
 62
     7
100
AcDbLine
 10
1025.324753
 20
1404.597397
 11
792.324753
 21
1404.597397
  0
LINE
  5
E3
100
AcDbEntity
  8
M0
 62
     7
100
AcDbLine
 10
792.324753
 20
721.597397
 11
1025.324753
 21
721.597397
  0
LINE
  5
E4
100
AcDbEntity
  8
M0
  6
DASHDOT
 62
     7
100
AcDbLine
 10
747.324753
 20
1063.097397
 11
1045.324753
 21
1063.097397
  0
LINE
  5
E5
100
AcDbEntity
  8
M0
  6
DOT
 62
     7
100
AcDbLine
 10
1019.324753
 20
721.597397
 11
1019.324753
 21
1404.597397
  0
LINE
  5
E6
100
AcDbEntity
  8
M0
 62
     7
100
AcDbLine
 10
792.324753
 20
718.097397
 11
792.324753
 21
1408.097397
  0
LINE
  5
E7
100
AcDbEntity
  8
M0
 62
     7
100
AcDbLine
 10
767.324753
 20
1406.297397
 11
767.324753
 21
719.897397
  0
LINE
  5
E8
100
AcDbEntity
  8
M0
 62
     7
100
AcDbLine
 10
769.124753
 20
718.097397
 11
792.324753
 21
718.097397
  0
LINE
  5
E9
100
AcDbEntity
  8
M0
 62
     7
100
AcDbLine
 10
792.324753
 20
1408.097397
 11
769.124753
 21
1408.097397
  0
ARC
  5
EA
100
AcDbEntity
  8
M0
 62
     7
100
AcDbCircle
 10
769.124753
 20
1406.297397
 40
1.8
100
AcDbArc
 50
90.0
 51
180.0
  0
ARC
  5
EB
100
AcDbEntity
  8
M0
 62
     7
100
AcDbCircle
 10
769.124753
 20
719.897397
 40
1.8
100
AcDbArc
 50
180.0
 51
270.0
  0
CIRCLE
  5
EC
100
AcDbEntity
  8
M0
 62
     4
100
AcDbCircle
 10
242.922197
 20
355.753515
 40
39.0
  0
CIRCLE
  5
ED
100
AcDbEntity
  8
M0
 62
     4
100
AcDbCircle
 10
402.922197
 20
355.753515
 40
39.0
  0
CIRCLE
  5
EE
100
AcDbEntity
  8
M0
 62
     4
100
AcDbCircle
 10
242.922197
 20
355.753515
 40
33.5
  0
CIRCLE
  5
EF
100
AcDbEntity
  8
M0
 62
     4
100
AcDbCircle
 10
402.922197
 20
355.753515
 40
33.5
  0
LINE
  5
F0
100
AcDbEntity
  8
M0
 62
     4
100
AcDbLine
 10
463.422205
 20
342.506277
 11
463.422205
 21
335.000738
  0
LINE
  5
F1
100
AcDbEntity
  8
M0
 62
     4
100
AcDbLine
 10
489.922197
 20
248.753515
 11
155.922197
 21
248.753515
  0
LINE
  5
F2
100
AcDbEntity
  8
M0
 62
     4
100
AcDbLine
 10
155.922197
 20
481.753515
 11
155.922197
 21
248.753515
  0
LINE
  5
F3
100
AcDbEntity
  8
M0
 62
     4
100
AcDbLine
 10
489.922197
 20
481.753515
 11
489.922197
 21
248.753515
  0
CIRCLE
  5
F4
100
AcDbEntity
  8
M0
 62
     4
100
AcDbCircle
 10
322.922197
 20
355.753515
 40
11.0
  0
CIRCLE
  5
F5
100
AcDbEntity
  8
M0
 62
     4
100
AcDbCircle
 10
322.922197
 20
355.753515
 40
14.0
  0
LINE
  5
F6
100
AcDbEntity
  8
M0
  6
DASHDOT
 62
     4
100
AcDbLine
 10
332.922197
 20
355.753515
 11
445.422197
 21
355.753515
  0
LINE
  5
F7
100
AcDbEntity
  8
M0
  6
DASHDOT
 62
     4
100
AcDbLine
 10
402.922197
 20
308.253515
 11
402.922197
 21
403.253515
  0
LINE
  5
F8
100
AcDbEntity
  8
M0
  6
DASHDOT
 62
     4
100
AcDbLine
 10
200.422197
 20
355.753515
 11
312.922197
 21
355.753515
  0
LINE
  5
F9
100
AcDbEntity
  8
M0
  6
DASHDOT
 62
     4
100
AcDbLine
 10
242.922197
 20
308.253515
 11
242.922197
 21
403.253515
  0
LINE
  5
FA
100
AcDbEntity
  8
M0
 62
     4
100
AcDbLine
 10
491.122197
 20
506.753515
 11
154.722197
 21
506.753515
  0
LINE
  5
FB
100
AcDbEntity
  8
M0
 62
     4
100
AcDbLine
 10
492.922197
 20
481.753515
 11
152.922197
 21
481.753515
  0
LINE
  5
FC
100
AcDbEntity
  8
M0
 62
     4
100
AcDbLine
 10
152.922197
 20
504.953515
 11
152.922197
 21
481.753515
  0
LINE
  5
FD
100
AcDbEntity
  8
M0
 62
     4
100
AcDbLine
 10
492.922197
 20
504.953515
 11
492.922197
 21
481.753515
  0
LINE
  5
FE
100
AcDbEntity
  8
M0
  6
DASHDOT
 62
     4
100
AcDbLine
 10
322.922197
 20
526.753515
 11
322.922197
 21
228.753515
  0
ARC
  5
FF
100
AcDbEntity
  8
M0
 62
     4
100
AcDbCircle
 10
491.122197
 20
504.953515
 40
1.8
100
AcDbArc
 50
0.0
 51
90.0
  0
ARC
  5
100
100
AcDbEntity
  8
M0
 62
     4
100
AcDbCircle
 10
154.722197
 20
504.953515
 40
1.8
100
AcDbArc
 50
90.0
 51
180.0
  0
CIRCLE
  5
101
100
AcDbEntity
  8
M0
 62
     4
100
AcDbCircle
 10
322.922197
 20
493.953515
 40
5.0
  0
LINE
  5
102
100
AcDbEntity
  8
M0
  6
DASHDOT
 62
     4
100
AcDbLine
 10
307.922197
 20
493.953515
 11
337.922197
 21
493.953515
  0
LINE
  5
103
100
AcDbEntity
  8
M0
  6
DASHDOT
 62
     4
100
AcDbLine
 10
242.922197
 20
333.253515
 11
242.922197
 21
412.13016
  0
LINE
  5
104
100
AcDbEntity
  8
M0
  6
DASHDOT
 62
     4
100
AcDbLine
 10
402.922197
 20
333.253515
 11
402.922197
 21
412.13016
  0
ARC
  5
105
100
AcDbEntity
  8
M0
 62
     7
100
AcDbCircle
 10
853.824753
 20
1304.097397
 40
1.5
100
AcDbArc
 50
180.0
 51
360.0
  0
ARC
  5
106
100
AcDbEntity
  8
M0
 62
     7
100
AcDbCircle
 10
853.824753
 20
1326.097397
 40
1.5
100
AcDbArc
 50
0.0
 51
180.0
  0
LINE
  5
107
100
AcDbEntity
  8
M0
 62
     7
100
AcDbLine
 10
852.324753
 20
1304.097397
 11
852.324753
 21
1326.097397
  0
LINE
  5
108
100
AcDbEntity
  8
M0
 62
     7
100
AcDbLine
 10
855.324753
 20
1304.097397
 11
855.324753
 21
1326.097397
  0
ARC
  5
109
100
AcDbEntity
  8
M0
 62
     7
100
AcDbCircle
 10
861.324753
 20
1355.097397
 40
1.5
100
AcDbArc
 50
0.0
 51
180.0
  0
ARC
  5
10A
100
AcDbEntity
  8
M0
 62
     7
100
AcDbCircle
 10
861.324753
 20
1304.097397
 40
1.5
100
AcDbArc
 50
180.0
 51
360.0
  0
ARC
  5
10B
100
AcDbEntity
  8
M0
 62
     7
100
AcDbCircle
 10
861.324753
 20
1333.097397
 40
1.5
100
AcDbArc
 50
180.0
 51
360.0
  0
ARC
  5
10C
100
AcDbEntity
  8
M0
 62
     7
100
AcDbCircle
 10
861.324753
 20
1333.097397
 40
1.5
100
AcDbArc
 50
180.0
 51
360.0
  0
ARC
  5
10D
100
AcDbEntity
  8
M0
 62
     7
100
AcDbCircle
 10
861.324753
 20
1326.097397
 40
1.5
100
AcDbArc
 50
0.0
 51
180.0
  0
LINE
  5
10E
100
AcDbEntity
  8
M0
 62
     7
100
AcDbLine
 10
862.824753
 20
1333.097397
 11
862.824753
 21
1355.097397
  0
LINE
  5
10F
100
AcDbEntity
  8
M0
 62
     7
100
AcDbLine
 10
859.824753
 20
1333.097397
 11
859.824753
 21
1355.097397
  0
LINE
  5
110
100
AcDbEntity
  8
M0
 62
     7
100
AcDbLine
 10
862.824753
 20
1333.097397
 11
862.824753
 21
1355.097397
  0
LINE
  5
111
100
AcDbEntity
  8
M0
 62
     7
100
AcDbLine
 10
859.824753
 20
1304.097397
 11
859.824753
 21
1326.097397
  0
ARC
  5
112
100
AcDbEntity
  8
M0
 62
     7
100
AcDbCircle
 10
861.324753
 20
1355.097397
 40
1.5
100
AcDbArc
 50
0.0
 51
180.0
  0
LINE
  5
113
100
AcDbEntity
  8
M0
 62
     7
100
AcDbLine
 10
859.824753
 20
1333.097397
 11
859.824753
 21
1355.097397
  0
LINE
  5
114
100
AcDbEntity
  8
M0
 62
     7
100
AcDbLine
 10
862.824753
 20
1304.097397
 11
862.824753
 21
1326.097397
  0
ARC
  5
115
100
AcDbEntity
  8
M0
 62
     7
100
AcDbCircle
 10
867.324753
 20
1355.097397
 40
1.5
100
AcDbArc
 50
0.0
 51
180.0
  0
ARC
  5
116
100
AcDbEntity
  8
M0
 62
     7
100
AcDbCircle
 10
867.324753
 20
1304.097397
 40
1.5
100
AcDbArc
 50
180.0
 51
360.0
  0
ARC
  5
117
100
AcDbEntity
  8
M0
 62
     7
100
AcDbCircle
 10
867.324753
 20
1333.097397
 40
1.5
100
AcDbArc
 50
180.0
 51
360.0
  0
ARC
  5
118
100
AcDbEntity
  8
M0
 62
     7
100
AcDbCircle
 10
867.324753
 20
1333.097397
 40
1.5
100
AcDbArc
 50
180.0
 51
360.0
  0
ARC
  5
119
100
AcDbEntity
  8
M0
 62
     7
100
AcDbCircle
 10
867.324753
 20
1326.097397
 40
1.5
100
AcDbArc
 50
0.0
 51
180.0
  0
LINE
  5
11A
100
AcDbEntity
  8
M0
 62
     7
100
AcDbLine
 10
868.824753
 20
1333.097397
 11
868.824753
 21
1355.097397
  0
LINE
  5
11B
100
AcDbEntity
  8
M0
 62
     7
100
AcDbLine
 10
865.824753
 20
1333.097397
 11
865.824753
 21
1355.097397
  0
LINE
  5
11C
100
AcDbEntity
  8
M0
 62
     7
100
AcDbLine
 10
868.824753
 20
1333.097397
 11
868.824753
 21
1355.097397
  0
LINE
  5
11D
100
AcDbEntity
  8
M0
 62
     7
100
AcDbLine
 10
865.824753
 20
1304.097397
 11
865.824753
 21
1326.097397
  0
ARC
  5
11E
100
AcDbEntity
  8
M0
 62
     7
100
AcDbCircle
 10
867.324753
 20
1355.097397
 40
1.5
100
AcDbArc
 50
0.0
 51
180.0
  0
LINE
  5
11F
100
AcDbEntity
  8
M0
 62
     7
100
AcDbLine
 10
865.824753
 20
1333.097397
 11
865.824753
 21
1355.097397
  0
LINE
  5
120
100
AcDbEntity
  8
M0
 62
     7
100
AcDbLine
 10
868.824753
 20
1304.097397
 11
868.824753
 21
1326.097397
  0
ARC
  5
121
100
AcDbEntity
  8
M0
 62
     7
100
AcDbCircle
 10
873.324753
 20
1355.097397
 40
1.5
100
AcDbArc
 50
0.0
 51
180.0
  0
ARC
  5
122
100
AcDbEntity
  8
M0
 62
     7
100
AcDbCircle
 10
873.324753
 20
1304.097397
 40
1.5
100
AcDbArc
 50
180.0
 51
360.0
  0
ARC
  5
123
100
AcDbEntity
  8
M0
 62
     7
100
AcDbCircle
 10
873.324753
 20
1333.097397
 40
1.5
100
AcDbArc
 50
180.0
 51
360.0
  0
ARC
  5
124
100
AcDbEntity
  8
M0
 62
     7
100
AcDbCircle
 10
873.324753
 20
1333.097397
 40
1.5
100
AcDbArc
 50
180.0
 51
360.0
  0
ARC
  5
125
100
AcDbEntity
  8
M0
 62
     7
100
AcDbCircle
 10
873.324753
 20
1326.097397
 40
1.5
100
AcDbArc
 50
0.0
 51
180.0
  0
LINE
  5
126
100
AcDbEntity
  8
M0
 62
     7
100
AcDbLine
 10
874.824753
 20
1333.097397
 11
874.824753
 21
1355.097397
  0
LINE
  5
127
100
AcDbEntity
  8
M0
 62
     7
100
AcDbLine
 10
871.824753
 20
1333.097397
 11
871.824753
 21
1355.097397
  0
LINE
  5
128
100
AcDbEntity
  8
M0
 62
     7
100
AcDbLine
 10
874.824753
 20
1333.097397
 11
874.824753
 21
1355.097397
  0
LINE
  5
129
100
AcDbEntity
  8
M0
 62
     7
100
AcDbLine
 10
871.824753
 20
1304.097397
 11
871.824753
 21
1326.097397
  0
ARC
  5
12A
100
AcDbEntity
  8
M0
 62
     7
100
AcDbCircle
 10
873.324753
 20
1355.097397
 40
1.5
100
AcDbArc
 50
0.0
 51
180.0
  0
LINE
  5
12B
100
AcDbEntity
  8
M0
 62
     7
100
AcDbLine
 10
871.824753
 20
1333.097397
 11
871.824753
 21
1355.097397
  0
LINE
  5
12C
100
AcDbEntity
  8
M0
 62
     7
100
AcDbLine
 10
874.824753
 20
1304.097397
 11
874.824753
 21
1326.097397
  0
ARC
  5
12D
100
AcDbEntity
  8
M0
 62
     7
100
AcDbCircle
 10
879.324753
 20
1355.097397
 40
1.5
100
AcDbArc
 50
0.0
 51
180.0
  0
ARC
  5
12E
100
AcDbEntity
  8
M0
 62
     7
100
AcDbCircle
 10
879.324753
 20
1304.097397
 40
1.5
100
AcDbArc
 50
180.0
 51
360.0
  0
ARC
  5
12F
100
AcDbEntity
  8
M0
 62
     7
100
AcDbCircle
 10
879.324753
 20
1333.097397
 40
1.5
100
AcDbArc
 50
180.0
 51
360.0
  0
ARC
  5
130
100
AcDbEntity
  8
M0
 62
     7
100
AcDbCircle
 10
879.324753
 20
1333.097397
 40
1.5
100
AcDbArc
 50
180.0
 51
360.0
  0
ARC
  5
131
100
AcDbEntity
  8
M0
 62
     7
100
AcDbCircle
 10
879.324753
 20
1326.097397
 40
1.5
100
AcDbArc
 50
0.0
 51
180.0
  0
LINE
  5
132
100
AcDbEntity
  8
M0
 62
     7
100
AcDbLine
 10
880.824753
 20
1333.097397
 11
880.824753
 21
1355.097397
  0
LINE
  5
133
100
AcDbEntity
  8
M0
 62
     7
100
AcDbLine
 10
877.824753
 20
1333.097397
 11
877.824753
 21
1355.097397
  0
LINE
  5
134
100
AcDbEntity
  8
M0
 62
     7
100
AcDbLine
 10
880.824753
 20
1333.097397
 11
880.824753
 21
1355.097397
  0
LINE
  5
135
100
AcDbEntity
  8
M0
 62
     7
100
AcDbLine
 10
877.824753
 20
1304.097397
 11
877.824753
 21
1326.097397
  0
ARC
  5
136
100
AcDbEntity
  8
M0
 62
     7
100
AcDbCircle
 10
879.324753
 20
1355.097397
 40
1.5
100
AcDbArc
 50
0.0
 51
180.0
  0
LINE
  5
137
100
AcDbEntity
  8
M0
 62
     7
100
AcDbLine
 10
877.824753
 20
1333.097397
 11
877.824753
 21
1355.097397
  0
LINE
  5
138
100
AcDbEntity
  8
M0
 62
     7
100
AcDbLine
 10
880.824753
 20
1304.097397
 11
880.824753
 21
1326.097397
  0
ARC
  5
139
100
AcDbEntity
  8
M0
 62
     7
100
AcDbCircle
 10
885.324753
 20
1355.097397
 40
1.5
100
AcDbArc
 50
0.0
 51
180.0
  0
ARC
  5
13A
100
AcDbEntity
  8
M0
 62
     7
100
AcDbCircle
 10
885.324753
 20
1304.097397
 40
1.5
100
AcDbArc
 50
180.0
 51
360.0
  0
ARC
  5
13B
100
AcDbEntity
  8
M0
 62
     7
100
AcDbCircle
 10
885.324753
 20
1333.097397
 40
1.5
100
AcDbArc
 50
180.0
 51
360.0
  0
ARC
  5
13C
100
AcDbEntity
  8
M0
 62
     7
100
AcDbCircle
 10
885.324753
 20
1333.097397
 40
1.5
100
AcDbArc
 50
180.0
 51
360.0
  0
ARC
  5
13D
100
AcDbEntity
  8
M0
 62
     7
100
AcDbCircle
 10
885.324753
 20
1326.097397
 40
1.5
100
AcDbArc
 50
0.0
 51
180.0
  0
LINE
  5
13E
100
AcDbEntity
  8
M0
 62
     7
100
AcDbLine
 10
886.824753
 20
1333.097397
 11
886.824753
 21
1355.097397
  0
LINE
  5
13F
100
AcDbEntity
  8
M0
 62
     7
100
AcDbLine
 10
883.824753
 20
1333.097397
 11
883.824753
 21
1355.097397
  0
LINE
  5
140
100
AcDbEntity
  8
M0
 62
     7
100
AcDbLine
 10
886.824753
 20
1333.097397
 11
886.824753
 21
1355.097397
  0
LINE
  5
141
100
AcDbEntity
  8
M0
 62
     7
100
AcDbLine
 10
883.824753
 20
1304.097397
 11
883.824753
 21
1326.097397
  0
ARC
  5
142
100
AcDbEntity
  8
M0
 62
     7
100
AcDbCircle
 10
885.324753
 20
1355.097397
 40
1.5
100
AcDbArc
 50
0.0
 51
180.0
  0
LINE
  5
143
100
AcDbEntity
  8
M0
 62
     7
100
AcDbLine
 10
883.824753
 20
1333.097397
 11
883.824753
 21
1355.097397
  0
LINE
  5
144
100
AcDbEntity
  8
M0
 62
     7
100
AcDbLine
 10
886.824753
 20
1304.097397
 11
886.824753
 21
1326.097397
  0
ARC
  5
145
100
AcDbEntity
  8
M0
 62
     7
100
AcDbCircle
 10
891.324753
 20
1355.097397
 40
1.5
100
AcDbArc
 50
0.0
 51
180.0
  0
ARC
  5
146
100
AcDbEntity
  8
M0
 62
     7
100
AcDbCircle
 10
891.324753
 20
1304.097397
 40
1.5
100
AcDbArc
 50
180.0
 51
360.0
  0
ARC
  5
147
100
AcDbEntity
  8
M0
 62
     7
100
AcDbCircle
 10
891.324753
 20
1333.097397
 40
1.5
100
AcDbArc
 50
180.0
 51
360.0
  0
ARC
  5
148
100
AcDbEntity
  8
M0
 62
     7
100
AcDbCircle
 10
891.324753
 20
1333.097397
 40
1.5
100
AcDbArc
 50
180.0
 51
360.0
  0
ARC
  5
149
100
AcDbEntity
  8
M0
 62
     7
100
AcDbCircle
 10
891.324753
 20
1326.097397
 40
1.5
100
AcDbArc
 50
0.0
 51
180.0
  0
LINE
  5
14A
100
AcDbEntity
  8
M0
 62
     7
100
AcDbLine
 10
892.824753
 20
1333.097397
 11
892.824753
 21
1355.097397
  0
LINE
  5
14B
100
AcDbEntity
  8
M0
 62
     7
100
AcDbLine
 10
889.824753
 20
1333.097397
 11
889.824753
 21
1355.097397
  0
LINE
  5
14C
100
AcDbEntity
  8
M0
 62
     7
100
AcDbLine
 10
892.824753
 20
1333.097397
 11
892.824753
 21
1355.097397
  0
LINE
  5
14D
100
AcDbEntity
  8
M0
 62
     7
100
AcDbLine
 10
889.824753
 20
1304.097397
 11
889.824753
 21
1326.097397
  0
ARC
  5
14E
100
AcDbEntity
  8
M0
 62
     7
100
AcDbCircle
 10
891.324753
 20
1355.097397
 40
1.5
100
AcDbArc
 50
0.0
 51
180.0
  0
LINE
  5
14F
100
AcDbEntity
  8
M0
 62
     7
100
AcDbLine
 10
889.824753
 20
1333.097397
 11
889.824753
 21
1355.097397
  0
LINE
  5
150
100
AcDbEntity
  8
M0
 62
     7
100
AcDbLine
 10
892.824753
 20
1304.097397
 11
892.824753
 21
1326.097397
  0
ARC
  5
151
100
AcDbEntity
  8
M0
 62
     7
100
AcDbCircle
 10
897.324753
 20
1355.097397
 40
1.5
100
AcDbArc
 50
0.0
 51
180.0
  0
ARC
  5
152
100
AcDbEntity
  8
M0
 62
     7
100
AcDbCircle
 10
897.324753
 20
1304.097397
 40
1.5
100
AcDbArc
 50
180.0
 51
360.0
  0
ARC
  5
153
100
AcDbEntity
  8
M0
 62
     7
100
AcDbCircle
 10
897.324753
 20
1333.097397
 40
1.5
100
AcDbArc
 50
180.0
 51
360.0
  0
ARC
  5
154
100
AcDbEntity
  8
M0
 62
     7
100
AcDbCircle
 10
897.324753
 20
1333.097397
 40
1.5
100
AcDbArc
 50
180.0
 51
360.0
  0
ARC
  5
155
100
AcDbEntity
  8
M0
 62
     7
100
AcDbCircle
 10
897.324753
 20
1326.097397
 40
1.5
100
AcDbArc
 50
0.0
 51
180.0
  0
LINE
  5
156
100
AcDbEntity
  8
M0
 62
     7
100
AcDbLine
 10
898.824753
 20
1333.097397
 11
898.824753
 21
1355.097397
  0
LINE
  5
157
100
AcDbEntity
  8
M0
 62
     7
100
AcDbLine
 10
895.824753
 20
1333.097397
 11
895.824753
 21
1355.097397
  0
LINE
  5
158
100
AcDbEntity
  8
M0
 62
     7
100
AcDbLine
 10
898.824753
 20
1333.097397
 11
898.824753
 21
1355.097397
  0
LINE
  5
159
100
AcDbEntity
  8
M0
 62
     7
100
AcDbLine
 10
895.824753
 20
1304.097397
 11
895.824753
 21
1326.097397
  0
ARC
  5
15A
100
AcDbEntity
  8
M0
 62
     7
100
AcDbCircle
 10
897.324753
 20
1355.097397
 40
1.5
100
AcDbArc
 50
0.0
 51
180.0
  0
LINE
  5
15B
100
AcDbEntity
  8
M0
 62
     7
100
AcDbLine
 10
895.824753
 20
1333.097397
 11
895.824753
 21
1355.097397
  0
LINE
  5
15C
100
AcDbEntity
  8
M0
 62
     7
100
AcDbLine
 10
898.824753
 20
1304.097397
 11
898.824753
 21
1326.097397
  0
ARC
  5
15D
100
AcDbEntity
  8
M0
 62
     7
100
AcDbCircle
 10
903.324753
 20
1355.097397
 40
1.5
100
AcDbArc
 50
0.0
 51
180.0
  0
ARC
  5
15E
100
AcDbEntity
  8
M0
 62
     7
100
AcDbCircle
 10
903.324753
 20
1304.097397
 40
1.5
100
AcDbArc
 50
180.0
 51
360.0
  0
ARC
  5
15F
100
AcDbEntity
  8
M0
 62
     7
100
AcDbCircle
 10
903.324753
 20
1333.097397
 40
1.5
100
AcDbArc
 50
180.0
 51
360.0
  0
ARC
  5
160
100
AcDbEntity
  8
M0
 62
     7
100
AcDbCircle
 10
903.324753
 20
1333.097397
 40
1.5
100
AcDbArc
 50
180.0
 51
360.0
  0
ARC
  5
161
100
AcDbEntity
  8
M0
 62
     7
100
AcDbCircle
 10
903.324753
 20
1326.097397
 40
1.5
100
AcDbArc
 50
0.0
 51
180.0
  0
LINE
  5
162
100
AcDbEntity
  8
M0
 62
     7
100
AcDbLine
 10
904.824753
 20
1333.097397
 11
904.824753
 21
1355.097397
  0
LINE
  5
163
100
AcDbEntity
  8
M0
 62
     7
100
AcDbLine
 10
901.824753
 20
1333.097397
 11
901.824753
 21
1355.097397
  0
LINE
  5
164
100
AcDbEntity
  8
M0
 62
     7
100
AcDbLine
 10
904.824753
 20
1333.097397
 11
904.824753
 21
1355.097397
  0
LINE
  5
165
100
AcDbEntity
  8
M0
 62
     7
100
AcDbLine
 10
901.824753
 20
1304.097397
 11
901.824753
 21
1326.097397
  0
ARC
  5
166
100
AcDbEntity
  8
M0
 62
     7
100
AcDbCircle
 10
903.324753
 20
1355.097397
 40
1.5
100
AcDbArc
 50
0.0
 51
180.0
  0
LINE
  5
167
100
AcDbEntity
  8
M0
 62
     7
100
AcDbLine
 10
901.824753
 20
1333.097397
 11
901.824753
 21
1355.097397
  0
LINE
  5
168
100
AcDbEntity
  8
M0
 62
     7
100
AcDbLine
 10
904.824753
 20
1304.097397
 11
904.824753
 21
1326.097397
  0
ARC
  5
169
100
AcDbEntity
  8
M0
 62
     7
100
AcDbCircle
 10
909.324753
 20
1355.097397
 40
1.5
100
AcDbArc
 50
0.0
 51
180.0
  0
ARC
  5
16A
100
AcDbEntity
  8
M0
 62
     7
100
AcDbCircle
 10
909.324753
 20
1304.097397
 40
1.5
100
AcDbArc
 50
180.0
 51
360.0
  0
ARC
  5
16B
100
AcDbEntity
  8
M0
 62
     7
100
AcDbCircle
 10
909.324753
 20
1333.097397
 40
1.5
100
AcDbArc
 50
180.0
 51
360.0
  0
ARC
  5
16C
100
AcDbEntity
  8
M0
 62
     7
100
AcDbCircle
 10
909.324753
 20
1333.097397
 40
1.5
100
AcDbArc
 50
180.0
 51
360.0
  0
ARC
  5
16D
100
AcDbEntity
  8
M0
 62
     7
100
AcDbCircle
 10
909.324753
 20
1326.097397
 40
1.5
100
AcDbArc
 50
0.0
 51
180.0
  0
LINE
  5
16E
100
AcDbEntity
  8
M0
 62
     7
100
AcDbLine
 10
910.824753
 20
1333.097397
 11
910.824753
 21
1355.097397
  0
LINE
  5
16F
100
AcDbEntity
  8
M0
 62
     7
100
AcDbLine
 10
907.824753
 20
1333.097397
 11
907.824753
 21
1355.097397
  0
LINE
  5
170
100
AcDbEntity
  8
M0
 62
     7
100
AcDbLine
 10
910.824753
 20
1333.097397
 11
910.824753
 21
1355.097397
  0
LINE
  5
171
100
AcDbEntity
  8
M0
 62
     7
100
AcDbLine
 10
907.824753
 20
1304.097397
 11
907.824753
 21
1326.097397
  0
ARC
  5
172
100
AcDbEntity
  8
M0
 62
     7
100
AcDbCircle
 10
909.324753
 20
1355.097397
 40
1.5
100
AcDbArc
 50
0.0
 51
180.0
  0
LINE
  5
173
100
AcDbEntity
  8
M0
 62
     7
100
AcDbLine
 10
907.824753
 20
1333.097397
 11
907.824753
 21
1355.097397
  0
LINE
  5
174
100
AcDbEntity
  8
M0
 62
     7
100
AcDbLine
 10
910.824753
 20
1304.097397
 11
910.824753
 21
1326.097397
  0
ARC
  5
175
100
AcDbEntity
  8
M0
 62
     7
100
AcDbCircle
 10
915.324753
 20
1355.097397
 40
1.5
100
AcDbArc
 50
0.0
 51
180.0
  0
ARC
  5
176
100
AcDbEntity
  8
M0
 62
     7
100
AcDbCircle
 10
915.324753
 20
1304.097397
 40
1.5
100
AcDbArc
 50
180.0
 51
360.0
  0
ARC
  5
177
100
AcDbEntity
  8
M0
 62
     7
100
AcDbCircle
 10
915.324753
 20
1333.097397
 40
1.5
100
AcDbArc
 50
180.0
 51
360.0
  0
ARC
  5
178
100
AcDbEntity
  8
M0
 62
     7
100
AcDbCircle
 10
915.324753
 20
1333.097397
 40
1.5
100
AcDbArc
 50
180.0
 51
360.0
  0
ARC
  5
179
100
AcDbEntity
  8
M0
 62
     7
100
AcDbCircle
 10
915.324753
 20
1326.097397
 40
1.5
100
AcDbArc
 50
0.0
 51
180.0
  0
LINE
  5
17A
100
AcDbEntity
  8
M0
 62
     7
100
AcDbLine
 10
916.824753
 20
1333.097397
 11
916.824753
 21
1355.097397
  0
LINE
  5
17B
100
AcDbEntity
  8
M0
 62
     7
100
AcDbLine
 10
913.824753
 20
1333.097397
 11
913.824753
 21
1355.097397
  0
LINE
  5
17C
100
AcDbEntity
  8
M0
 62
     7
100
AcDbLine
 10
916.824753
 20
1333.097397
 11
916.824753
 21
1355.097397
  0
LINE
  5
17D
100
AcDbEntity
  8
M0
 62
     7
100
AcDbLine
 10
913.824753
 20
1304.097397
 11
913.824753
 21
1326.097397
  0
ARC
  5
17E
100
AcDbEntity
  8
M0
 62
     7
100
AcDbCircle
 10
915.324753
 20
1355.097397
 40
1.5
100
AcDbArc
 50
0.0
 51
180.0
  0
LINE
  5
17F
100
AcDbEntity
  8
M0
 62
     7
100
AcDbLine
 10
913.824753
 20
1333.097397
 11
913.824753
 21
1355.097397
  0
LINE
  5
180
100
AcDbEntity
  8
M0
 62
     7
100
AcDbLine
 10
916.824753
 20
1304.097397
 11
916.824753
 21
1326.097397
  0
ARC
  5
181
100
AcDbEntity
  8
M0
 62
     7
100
AcDbCircle
 10
921.324753
 20
1355.097397
 40
1.5
100
AcDbArc
 50
0.0
 51
180.0
  0
ARC
  5
182
100
AcDbEntity
  8
M0
 62
     7
100
AcDbCircle
 10
921.324753
 20
1304.097397
 40
1.5
100
AcDbArc
 50
180.0
 51
360.0
  0
ARC
  5
183
100
AcDbEntity
  8
M0
 62
     7
100
AcDbCircle
 10
921.324753
 20
1333.097397
 40
1.5
100
AcDbArc
 50
180.0
 51
360.0
  0
ARC
  5
184
100
AcDbEntity
  8
M0
 62
     7
100
AcDbCircle
 10
921.324753
 20
1333.097397
 40
1.5
100
AcDbArc
 50
180.0
 51
360.0
  0
ARC
  5
185
100
AcDbEntity
  8
M0
 62
     7
100
AcDbCircle
 10
921.324753
 20
1326.097397
 40
1.5
100
AcDbArc
 50
0.0
 51
180.0
  0
LINE
  5
186
100
AcDbEntity
  8
M0
 62
     7
100
AcDbLine
 10
922.824753
 20
1333.097397
 11
922.824753
 21
1355.097397
  0
LINE
  5
187
100
AcDbEntity
  8
M0
 62
     7
100
AcDbLine
 10
919.824753
 20
1333.097397
 11
919.824753
 21
1355.097397
  0
LINE
  5
188
100
AcDbEntity
  8
M0
 62
     7
100
AcDbLine
 10
922.824753
 20
1333.097397
 11
922.824753
 21
1355.097397
  0
LINE
  5
189
100
AcDbEntity
  8
M0
 62
     7
100
AcDbLine
 10
919.824753
 20
1304.097397
 11
919.824753
 21
1326.097397
  0
ARC
  5
18A
100
AcDbEntity
  8
M0
 62
     7
100
AcDbCircle
 10
921.324753
 20
1355.097397
 40
1.5
100
AcDbArc
 50
0.0
 51
180.0
  0
LINE
  5
18B
100
AcDbEntity
  8
M0
 62
     7
100
AcDbLine
 10
919.824753
 20
1333.097397
 11
919.824753
 21
1355.097397
  0
LINE
  5
18C
100
AcDbEntity
  8
M0
 62
     7
100
AcDbLine
 10
922.824753
 20
1304.097397
 11
922.824753
 21
1326.097397
  0
ARC
  5
18D
100
AcDbEntity
  8
M0
 62
     7
100
AcDbCircle
 10
927.324753
 20
1355.097397
 40
1.5
100
AcDbArc
 50
0.0
 51
180.0
  0
ARC
  5
18E
100
AcDbEntity
  8
M0
 62
     7
100
AcDbCircle
 10
927.324753
 20
1304.097397
 40
1.5
100
AcDbArc
 50
180.0
 51
360.0
  0
ARC
  5
18F
100
AcDbEntity
  8
M0
 62
     7
100
AcDbCircle
 10
927.324753
 20
1333.097397
 40
1.5
100
AcDbArc
 50
180.0
 51
360.0
  0
ARC
  5
190
100
AcDbEntity
  8
M0
 62
     7
100
AcDbCircle
 10
927.324753
 20
1333.097397
 40
1.5
100
AcDbArc
 50
180.0
 51
360.0
  0
ARC
  5
191
100
AcDbEntity
  8
M0
 62
     7
100
AcDbCircle
 10
927.324753
 20
1326.097397
 40
1.5
100
AcDbArc
 50
0.0
 51
180.0
  0
LINE
  5
192
100
AcDbEntity
  8
M0
 62
     7
100
AcDbLine
 10
928.824753
 20
1333.097397
 11
928.824753
 21
1355.097397
  0
LINE
  5
193
100
AcDbEntity
  8
M0
 62
     7
100
AcDbLine
 10
925.824753
 20
1333.097397
 11
925.824753
 21
1355.097397
  0
LINE
  5
194
100
AcDbEntity
  8
M0
 62
     7
100
AcDbLine
 10
928.824753
 20
1333.097397
 11
928.824753
 21
1355.097397
  0
LINE
  5
195
100
AcDbEntity
  8
M0
 62
     7
100
AcDbLine
 10
925.824753
 20
1304.097397
 11
925.824753
 21
1326.097397
  0
ARC
  5
196
100
AcDbEntity
  8
M0
 62
     7
100
AcDbCircle
 10
927.324753
 20
1355.097397
 40
1.5
100
AcDbArc
 50
0.0
 51
180.0
  0
LINE
  5
197
100
AcDbEntity
  8
M0
 62
     7
100
AcDbLine
 10
925.824753
 20
1333.097397
 11
925.824753
 21
1355.097397
  0
LINE
  5
198
100
AcDbEntity
  8
M0
 62
     7
100
AcDbLine
 10
928.824753
 20
1304.097397
 11
928.824753
 21
1326.097397
  0
ARC
  5
199
100
AcDbEntity
  8
M0
 62
     7
100
AcDbCircle
 10
933.324753
 20
1355.097397
 40
1.5
100
AcDbArc
 50
0.0
 51
180.0
  0
ARC
  5
19A
100
AcDbEntity
  8
M0
 62
     7
100
AcDbCircle
 10
933.324753
 20
1304.097397
 40
1.5
100
AcDbArc
 50
180.0
 51
360.0
  0
ARC
  5
19B
100
AcDbEntity
  8
M0
 62
     7
100
AcDbCircle
 10
933.324753
 20
1333.097397
 40
1.5
100
AcDbArc
 50
180.0
 51
360.0
  0
ARC
  5
19C
100
AcDbEntity
  8
M0
 62
     7
100
AcDbCircle
 10
933.324753
 20
1333.097397
 40
1.5
100
AcDbArc
 50
180.0
 51
360.0
  0
ARC
  5
19D
100
AcDbEntity
  8
M0
 62
     7
100
AcDbCircle
 10
933.324753
 20
1326.097397
 40
1.5
100
AcDbArc
 50
0.0
 51
180.0
  0
LINE
  5
19E
100
AcDbEntity
  8
M0
 62
     7
100
AcDbLine
 10
934.824753
 20
1333.097397
 11
934.824753
 21
1355.097397
  0
LINE
  5
19F
100
AcDbEntity
  8
M0
 62
     7
100
AcDbLine
 10
931.824753
 20
1333.097397
 11
931.824753
 21
1355.097397
  0
LINE
  5
1A0
100
AcDbEntity
  8
M0
 62
     7
100
AcDbLine
 10
934.824753
 20
1333.097397
 11
934.824753
 21
1355.097397
  0
LINE
  5
1A1
100
AcDbEntity
  8
M0
 62
     7
100
AcDbLine
 10
931.824753
 20
1304.097397
 11
931.824753
 21
1326.097397
  0
ARC
  5
1A2
100
AcDbEntity
  8
M0
 62
     7
100
AcDbCircle
 10
933.324753
 20
1355.097397
 40
1.5
100
AcDbArc
 50
0.0
 51
180.0
  0
LINE
  5
1A3
100
AcDbEntity
  8
M0
 62
     7
100
AcDbLine
 10
931.824753
 20
1333.097397
 11
931.824753
 21
1355.097397
  0
LINE
  5
1A4
100
AcDbEntity
  8
M0
 62
     7
100
AcDbLine
 10
934.824753
 20
1304.097397
 11
934.824753
 21
1326.097397
  0
ARC
  5
1A5
100
AcDbEntity
  8
M0
 62
     7
100
AcDbCircle
 10
939.324753
 20
1355.097397
 40
1.5
100
AcDbArc
 50
0.0
 51
180.0
  0
ARC
  5
1A6
100
AcDbEntity
  8
M0
 62
     7
100
AcDbCircle
 10
939.324753
 20
1304.097397
 40
1.5
100
AcDbArc
 50
180.0
 51
360.0
  0
ARC
  5
1A7
100
AcDbEntity
  8
M0
 62
     7
100
AcDbCircle
 10
939.324753
 20
1333.097397
 40
1.5
100
AcDbArc
 50
180.0
 51
360.0
  0
ARC
  5
1A8
100
AcDbEntity
  8
M0
 62
     7
100
AcDbCircle
 10
939.324753
 20
1333.097397
 40
1.5
100
AcDbArc
 50
180.0
 51
360.0
  0
ARC
  5
1A9
100
AcDbEntity
  8
M0
 62
     7
100
AcDbCircle
 10
939.324753
 20
1326.097397
 40
1.5
100
AcDbArc
 50
0.0
 51
180.0
  0
LINE
  5
1AA
100
AcDbEntity
  8
M0
 62
     7
100
AcDbLine
 10
940.824753
 20
1333.097397
 11
940.824753
 21
1355.097397
  0
LINE
  5
1AB
100
AcDbEntity
  8
M0
 62
     7
100
AcDbLine
 10
937.824753
 20
1333.097397
 11
937.824753
 21
1355.097397
  0
LINE
  5
1AC
100
AcDbEntity
  8
M0
 62
     7
100
AcDbLine
 10
940.824753
 20
1333.097397
 11
940.824753
 21
1355.097397
  0
LINE
  5
1AD
100
AcDbEntity
  8
M0
 62
     7
100
AcDbLine
 10
937.824753
 20
1304.097397
 11
937.824753
 21
1326.097397
  0
ARC
  5
1AE
100
AcDbEntity
  8
M0
 62
     7
100
AcDbCircle
 10
939.324753
 20
1355.097397
 40
1.5
100
AcDbArc
 50
0.0
 51
180.0
  0
LINE
  5
1AF
100
AcDbEntity
  8
M0
 62
     7
100
AcDbLine
 10
937.824753
 20
1333.097397
 11
937.824753
 21
1355.097397
  0
LINE
  5
1B0
100
AcDbEntity
  8
M0
 62
     7
100
AcDbLine
 10
940.824753
 20
1304.097397
 11
940.824753
 21
1326.097397
  0
ARC
  5
1B1
100
AcDbEntity
  8
M0
 62
     7
100
AcDbCircle
 10
945.324753
 20
1355.097397
 40
1.5
100
AcDbArc
 50
0.0
 51
180.0
  0
ARC
  5
1B2
100
AcDbEntity
  8
M0
 62
     7
100
AcDbCircle
 10
945.324753
 20
1304.097397
 40
1.5
100
AcDbArc
 50
180.0
 51
360.0
  0
ARC
  5
1B3
100
AcDbEntity
  8
M0
 62
     7
100
AcDbCircle
 10
945.324753
 20
1333.097397
 40
1.5
100
AcDbArc
 50
180.0
 51
360.0
  0
ARC
  5
1B4
100
AcDbEntity
  8
M0
 62
     7
100
AcDbCircle
 10
945.324753
 20
1333.097397
 40
1.5
100
AcDbArc
 50
180.0
 51
360.0
  0
ARC
  5
1B5
100
AcDbEntity
  8
M0
 62
     7
100
AcDbCircle
 10
945.324753
 20
1326.097397
 40
1.5
100
AcDbArc
 50
0.0
 51
180.0
  0
LINE
  5
1B6
100
AcDbEntity
  8
M0
 62
     7
100
AcDbLine
 10
946.824753
 20
1333.097397
 11
946.824753
 21
1355.097397
  0
LINE
  5
1B7
100
AcDbEntity
  8
M0
 62
     7
100
AcDbLine
 10
943.824753
 20
1333.097397
 11
943.824753
 21
1355.097397
  0
LINE
  5
1B8
100
AcDbEntity
  8
M0
 62
     7
100
AcDbLine
 10
946.824753
 20
1333.097397
 11
946.824753
 21
1355.097397
  0
LINE
  5
1B9
100
AcDbEntity
  8
M0
 62
     7
100
AcDbLine
 10
943.824753
 20
1304.097397
 11
943.824753
 21
1326.097397
  0
ARC
  5
1BA
100
AcDbEntity
  8
M0
 62
     7
100
AcDbCircle
 10
945.324753
 20
1355.097397
 40
1.5
100
AcDbArc
 50
0.0
 51
180.0
  0
LINE
  5
1BB
100
AcDbEntity
  8
M0
 62
     7
100
AcDbLine
 10
943.824753
 20
1333.097397
 11
943.824753
 21
1355.097397
  0
LINE
  5
1BC
100
AcDbEntity
  8
M0
 62
     7
100
AcDbLine
 10
946.824753
 20
1304.097397
 11
946.824753
 21
1326.097397
  0
ARC
  5
1BD
100
AcDbEntity
  8
M0
 62
     7
100
AcDbCircle
 10
951.324753
 20
1355.097397
 40
1.5
100
AcDbArc
 50
0.0
 51
180.0
  0
ARC
  5
1BE
100
AcDbEntity
  8
M0
 62
     7
100
AcDbCircle
 10
951.324753
 20
1304.097397
 40
1.5
100
AcDbArc
 50
180.0
 51
360.0
  0
ARC
  5
1BF
100
AcDbEntity
  8
M0
 62
     7
100
AcDbCircle
 10
951.324753
 20
1333.097397
 40
1.5
100
AcDbArc
 50
180.0
 51
360.0
  0
ARC
  5
1C0
100
AcDbEntity
  8
M0
 62
     7
100
AcDbCircle
 10
951.324753
 20
1333.097397
 40
1.5
100
AcDbArc
 50
180.0
 51
360.0
  0
ARC
  5
1C1
100
AcDbEntity
  8
M0
 62
     7
100
AcDbCircle
 10
951.324753
 20
1326.097397
 40
1.5
100
AcDbArc
 50
0.0
 51
180.0
  0
LINE
  5
1C2
100
AcDbEntity
  8
M0
 62
     7
100
AcDbLine
 10
952.824753
 20
1333.097397
 11
952.824753
 21
1355.097397
  0
LINE
  5
1C3
100
AcDbEntity
  8
M0
 62
     7
100
AcDbLine
 10
949.824753
 20
1333.097397
 11
949.824753
 21
1355.097397
  0
LINE
  5
1C4
100
AcDbEntity
  8
M0
 62
     7
100
AcDbLine
 10
952.824753
 20
1333.097397
 11
952.824753
 21
1355.097397
  0
LINE
  5
1C5
100
AcDbEntity
  8
M0
 62
     7
100
AcDbLine
 10
949.824753
 20
1304.097397
 11
949.824753
 21
1326.097397
  0
ARC
  5
1C6
100
AcDbEntity
  8
M0
 62
     7
100
AcDbCircle
 10
951.324753
 20
1355.097397
 40
1.5
100
AcDbArc
 50
0.0
 51
180.0
  0
LINE
  5
1C7
100
AcDbEntity
  8
M0
 62
     7
100
AcDbLine
 10
949.824753
 20
1333.097397
 11
949.824753
 21
1355.097397
  0
LINE
  5
1C8
100
AcDbEntity
  8
M0
 62
     7
100
AcDbLine
 10
952.824753
 20
1304.097397
 11
952.824753
 21
1326.097397
  0
ARC
  5
1C9
100
AcDbEntity
  8
M0
 62
     7
100
AcDbCircle
 10
957.324753
 20
1355.097397
 40
1.5
100
AcDbArc
 50
0.0
 51
180.0
  0
ARC
  5
1CA
100
AcDbEntity
  8
M0
 62
     7
100
AcDbCircle
 10
957.324753
 20
1304.097397
 40
1.5
100
AcDbArc
 50
180.0
 51
360.0
  0
ARC
  5
1CB
100
AcDbEntity
  8
M0
 62
     7
100
AcDbCircle
 10
957.324753
 20
1333.097397
 40
1.5
100
AcDbArc
 50
180.0
 51
360.0
  0
ARC
  5
1CC
100
AcDbEntity
  8
M0
 62
     7
100
AcDbCircle
 10
957.324753
 20
1333.097397
 40
1.5
100
AcDbArc
 50
180.0
 51
360.0
  0
ARC
  5
1CD
100
AcDbEntity
  8
M0
 62
     7
100
AcDbCircle
 10
957.324753
 20
1326.097397
 40
1.5
100
AcDbArc
 50
0.0
 51
180.0
  0
LINE
  5
1CE
100
AcDbEntity
  8
M0
 62
     7
100
AcDbLine
 10
958.824753
 20
1333.097397
 11
958.824753
 21
1355.097397
  0
LINE
  5
1CF
100
AcDbEntity
  8
M0
 62
     7
100
AcDbLine
 10
955.824753
 20
1333.097397
 11
955.824753
 21
1355.097397
  0
LINE
  5
1D0
100
AcDbEntity
  8
M0
 62
     7
100
AcDbLine
 10
958.824753
 20
1333.097397
 11
958.824753
 21
1355.097397
  0
LINE
  5
1D1
100
AcDbEntity
  8
M0
 62
     7
100
AcDbLine
 10
955.824753
 20
1304.097397
 11
955.824753
 21
1326.097397
  0
ARC
  5
1D2
100
AcDbEntity
  8
M0
 62
     7
100
AcDbCircle
 10
957.324753
 20
1355.097397
 40
1.5
100
AcDbArc
 50
0.0
 51
180.0
  0
LINE
  5
1D3
100
AcDbEntity
  8
M0
 62
     7
100
AcDbLine
 10
955.824753
 20
1333.097397
 11
955.824753
 21
1355.097397
  0
LINE
  5
1D4
100
AcDbEntity
  8
M0
 62
     7
100
AcDbLine
 10
958.824753
 20
1304.097397
 11
958.824753
 21
1326.097397
  0
ARC
  5
1D5
100
AcDbEntity
  8
M0
 62
     7
100
AcDbCircle
 10
963.324753
 20
1355.097397
 40
1.5
100
AcDbArc
 50
0.0
 51
180.0
  0
ARC
  5
1D6
100
AcDbEntity
  8
M0
 62
     7
100
AcDbCircle
 10
963.324753
 20
1304.097397
 40
1.5
100
AcDbArc
 50
180.0
 51
360.0
  0
ARC
  5
1D7
100
AcDbEntity
  8
M0
 62
     7
100
AcDbCircle
 10
963.324753
 20
1333.097397
 40
1.5
100
AcDbArc
 50
180.0
 51
360.0
  0
ARC
  5
1D8
100
AcDbEntity
  8
M0
 62
     7
100
AcDbCircle
 10
963.324753
 20
1333.097397
 40
1.5
100
AcDbArc
 50
180.0
 51
360.0
  0
ARC
  5
1D9
100
AcDbEntity
  8
M0
 62
     7
100
AcDbCircle
 10
963.324753
 20
1326.097397
 40
1.5
100
AcDbArc
 50
0.0
 51
180.0
  0
LINE
  5
1DA
100
AcDbEntity
  8
M0
 62
     7
100
AcDbLine
 10
964.824753
 20
1333.097397
 11
964.824753
 21
1355.097397
  0
LINE
  5
1DB
100
AcDbEntity
  8
M0
 62
     7
100
AcDbLine
 10
961.824753
 20
1333.097397
 11
961.824753
 21
1355.097397
  0
LINE
  5
1DC
100
AcDbEntity
  8
M0
 62
     7
100
AcDbLine
 10
964.824753
 20
1333.097397
 11
964.824753
 21
1355.097397
  0
LINE
  5
1DD
100
AcDbEntity
  8
M0
 62
     7
100
AcDbLine
 10
961.824753
 20
1304.097397
 11
961.824753
 21
1326.097397
  0
ARC
  5
1DE
100
AcDbEntity
  8
M0
 62
     7
100
AcDbCircle
 10
963.324753
 20
1355.097397
 40
1.5
100
AcDbArc
 50
0.0
 51
180.0
  0
LINE
  5
1DF
100
AcDbEntity
  8
M0
 62
     7
100
AcDbLine
 10
961.824753
 20
1333.097397
 11
961.824753
 21
1355.097397
  0
LINE
  5
1E0
100
AcDbEntity
  8
M0
 62
     7
100
AcDbLine
 10
964.824753
 20
1304.097397
 11
964.824753
 21
1326.097397
  0
ARC
  5
1E1
100
AcDbEntity
  8
M0
 62
     7
100
AcDbCircle
 10
969.324753
 20
1355.097397
 40
1.5
100
AcDbArc
 50
0.0
 51
180.0
  0
ARC
  5
1E2
100
AcDbEntity
  8
M0
 62
     7
100
AcDbCircle
 10
969.324753
 20
1304.097397
 40
1.5
100
AcDbArc
 50
180.0
 51
360.0
  0
ARC
  5
1E3
100
AcDbEntity
  8
M0
 62
     7
100
AcDbCircle
 10
969.324753
 20
1333.097397
 40
1.5
100
AcDbArc
 50
180.0
 51
360.0
  0
ARC
  5
1E4
100
AcDbEntity
  8
M0
 62
     7
100
AcDbCircle
 10
969.324753
 20
1333.097397
 40
1.5
100
AcDbArc
 50
180.0
 51
360.0
  0
ARC
  5
1E5
100
AcDbEntity
  8
M0
 62
     7
100
AcDbCircle
 10
969.324753
 20
1326.097397
 40
1.5
100
AcDbArc
 50
0.0
 51
180.0
  0
LINE
  5
1E6
100
AcDbEntity
  8
M0
 62
     7
100
AcDbLine
 10
970.824753
 20
1333.097397
 11
970.824753
 21
1355.097397
  0
LINE
  5
1E7
100
AcDbEntity
  8
M0
 62
     7
100
AcDbLine
 10
967.824753
 20
1333.097397
 11
967.824753
 21
1355.097397
  0
LINE
  5
1E8
100
AcDbEntity
  8
M0
 62
     7
100
AcDbLine
 10
970.824753
 20
1333.097397
 11
970.824753
 21
1355.097397
  0
LINE
  5
1E9
100
AcDbEntity
  8
M0
 62
     7
100
AcDbLine
 10
967.824753
 20
1304.097397
 11
967.824753
 21
1326.097397
  0
ARC
  5
1EA
100
AcDbEntity
  8
M0
 62
     7
100
AcDbCircle
 10
969.324753
 20
1355.097397
 40
1.5
100
AcDbArc
 50
0.0
 51
180.0
  0
LINE
  5
1EB
100
AcDbEntity
  8
M0
 62
     7
100
AcDbLine
 10
967.824753
 20
1333.097397
 11
967.824753
 21
1355.097397
  0
LINE
  5
1EC
100
AcDbEntity
  8
M0
 62
     7
100
AcDbLine
 10
970.824753
 20
1304.097397
 11
970.824753
 21
1326.097397
  0
ARC
  5
1ED
100
AcDbEntity
  8
M0
 62
     7
100
AcDbCircle
 10
975.324753
 20
1355.097397
 40
1.5
100
AcDbArc
 50
0.0
 51
180.0
  0
ARC
  5
1EE
100
AcDbEntity
  8
M0
 62
     7
100
AcDbCircle
 10
975.324753
 20
1304.097397
 40
1.5
100
AcDbArc
 50
180.0
 51
360.0
  0
ARC
  5
1EF
100
AcDbEntity
  8
M0
 62
     7
100
AcDbCircle
 10
975.324753
 20
1333.097397
 40
1.5
100
AcDbArc
 50
180.0
 51
360.0
  0
ARC
  5
1F0
100
AcDbEntity
  8
M0
 62
     7
100
AcDbCircle
 10
975.324753
 20
1333.097397
 40
1.5
100
AcDbArc
 50
180.0
 51
360.0
  0
ARC
  5
1F1
100
AcDbEntity
  8
M0
 62
     7
100
AcDbCircle
 10
975.324753
 20
1326.097397
 40
1.5
100
AcDbArc
 50
0.0
 51
180.0
  0
LINE
  5
1F2
100
AcDbEntity
  8
M0
 62
     7
100
AcDbLine
 10
976.824753
 20
1333.097397
 11
976.824753
 21
1355.097397
  0
LINE
  5
1F3
100
AcDbEntity
  8
M0
 62
     7
100
AcDbLine
 10
973.824753
 20
1333.097397
 11
973.824753
 21
1355.097397
  0
LINE
  5
1F4
100
AcDbEntity
  8
M0
 62
     7
100
AcDbLine
 10
976.824753
 20
1333.097397
 11
976.824753
 21
1355.097397
  0
LINE
  5
1F5
100
AcDbEntity
  8
M0
 62
     7
100
AcDbLine
 10
973.824753
 20
1304.097397
 11
973.824753
 21
1326.097397
  0
ARC
  5
1F6
100
AcDbEntity
  8
M0
 62
     7
100
AcDbCircle
 10
975.324753
 20
1355.097397
 40
1.5
100
AcDbArc
 50
0.0
 51
180.0
  0
LINE
  5
1F7
100
AcDbEntity
  8
M0
 62
     7
100
AcDbLine
 10
973.824753
 20
1333.097397
 11
973.824753
 21
1355.097397
  0
LINE
  5
1F8
100
AcDbEntity
  8
M0
 62
     7
100
AcDbLine
 10
976.824753
 20
1304.097397
 11
976.824753
 21
1326.097397
  0
ARC
  5
1F9
100
AcDbEntity
  8
M0
 62
     7
100
AcDbCircle
 10
981.324753
 20
1355.097397
 40
1.5
100
AcDbArc
 50
0.0
 51
180.0
  0
ARC
  5
1FA
100
AcDbEntity
  8
M0
 62
     7
100
AcDbCircle
 10
981.324753
 20
1304.097397
 40
1.5
100
AcDbArc
 50
180.0
 51
360.0
  0
ARC
  5
1FB
100
AcDbEntity
  8
M0
 62
     7
100
AcDbCircle
 10
981.324753
 20
1333.097397
 40
1.5
100
AcDbArc
 50
180.0
 51
360.0
  0
ARC
  5
1FC
100
AcDbEntity
  8
M0
 62
     7
100
AcDbCircle
 10
981.324753
 20
1333.097397
 40
1.5
100
AcDbArc
 50
180.0
 51
360.0
  0
ARC
  5
1FD
100
AcDbEntity
  8
M0
 62
     7
100
AcDbCircle
 10
981.324753
 20
1326.097397
 40
1.5
100
AcDbArc
 50
0.0
 51
180.0
  0
LINE
  5
1FE
100
AcDbEntity
  8
M0
 62
     7
100
AcDbLine
 10
982.824753
 20
1333.097397
 11
982.824753
 21
1355.097397
  0
LINE
  5
1FF
100
AcDbEntity
  8
M0
 62
     7
100
AcDbLine
 10
979.824753
 20
1333.097397
 11
979.824753
 21
1355.097397
  0
LINE
  5
200
100
AcDbEntity
  8
M0
 62
     7
100
AcDbLine
 10
982.824753
 20
1333.097397
 11
982.824753
 21
1355.097397
  0
LINE
  5
201
100
AcDbEntity
  8
M0
 62
     7
100
AcDbLine
 10
979.824753
 20
1304.097397
 11
979.824753
 21
1326.097397
  0
ARC
  5
202
100
AcDbEntity
  8
M0
 62
     7
100
AcDbCircle
 10
981.324753
 20
1355.097397
 40
1.5
100
AcDbArc
 50
0.0
 51
180.0
  0
LINE
  5
203
100
AcDbEntity
  8
M0
 62
     7
100
AcDbLine
 10
979.824753
 20
1333.097397
 11
979.824753
 21
1355.097397
  0
LINE
  5
204
100
AcDbEntity
  8
M0
 62
     7
100
AcDbLine
 10
982.824753
 20
1304.097397
 11
982.824753
 21
1326.097397
  0
ARC
  5
205
100
AcDbEntity
  8
M0
 62
     7
100
AcDbCircle
 10
987.324753
 20
1355.097397
 40
1.5
100
AcDbArc
 50
0.0
 51
180.0
  0
ARC
  5
206
100
AcDbEntity
  8
M0
 62
     7
100
AcDbCircle
 10
987.324753
 20
1304.097397
 40
1.5
100
AcDbArc
 50
180.0
 51
360.0
  0
ARC
  5
207
100
AcDbEntity
  8
M0
 62
     7
100
AcDbCircle
 10
987.324753
 20
1333.097397
 40
1.5
100
AcDbArc
 50
180.0
 51
360.0
  0
ARC
  5
208
100
AcDbEntity
  8
M0
 62
     7
100
AcDbCircle
 10
987.324753
 20
1333.097397
 40
1.5
100
AcDbArc
 50
180.0
 51
360.0
  0
ARC
  5
209
100
AcDbEntity
  8
M0
 62
     7
100
AcDbCircle
 10
987.324753
 20
1326.097397
 40
1.5
100
AcDbArc
 50
0.0
 51
180.0
  0
LINE
  5
20A
100
AcDbEntity
  8
M0
 62
     7
100
AcDbLine
 10
988.824753
 20
1333.097397
 11
988.824753
 21
1355.097397
  0
LINE
  5
20B
100
AcDbEntity
  8
M0
 62
     7
100
AcDbLine
 10
985.824753
 20
1333.097397
 11
985.824753
 21
1355.097397
  0
LINE
  5
20C
100
AcDbEntity
  8
M0
 62
     7
100
AcDbLine
 10
988.824753
 20
1333.097397
 11
988.824753
 21
1355.097397
  0
LINE
  5
20D
100
AcDbEntity
  8
M0
 62
     7
100
AcDbLine
 10
985.824753
 20
1304.097397
 11
985.824753
 21
1326.097397
  0
ARC
  5
20E
100
AcDbEntity
  8
M0
 62
     7
100
AcDbCircle
 10
987.324753
 20
1355.097397
 40
1.5
100
AcDbArc
 50
0.0
 51
180.0
  0
LINE
  5
20F
100
AcDbEntity
  8
M0
 62
     7
100
AcDbLine
 10
985.824753
 20
1333.097397
 11
985.824753
 21
1355.097397
  0
LINE
  5
210
100
AcDbEntity
  8
M0
 62
     7
100
AcDbLine
 10
988.824753
 20
1304.097397
 11
988.824753
 21
1326.097397
  0
ARC
  5
211
100
AcDbEntity
  8
M0
 62
     7
100
AcDbCircle
 10
993.324753
 20
1355.097397
 40
1.5
100
AcDbArc
 50
0.0
 51
180.0
  0
ARC
  5
212
100
AcDbEntity
  8
M0
 62
     7
100
AcDbCircle
 10
993.324753
 20
1304.097397
 40
1.5
100
AcDbArc
 50
180.0
 51
360.0
  0
ARC
  5
213
100
AcDbEntity
  8
M0
 62
     7
100
AcDbCircle
 10
993.324753
 20
1333.097397
 40
1.5
100
AcDbArc
 50
180.0
 51
360.0
  0
ARC
  5
214
100
AcDbEntity
  8
M0
 62
     7
100
AcDbCircle
 10
993.324753
 20
1333.097397
 40
1.5
100
AcDbArc
 50
180.0
 51
360.0
  0
ARC
  5
215
100
AcDbEntity
  8
M0
 62
     7
100
AcDbCircle
 10
993.324753
 20
1326.097397
 40
1.5
100
AcDbArc
 50
0.0
 51
180.0
  0
LINE
  5
216
100
AcDbEntity
  8
M0
 62
     7
100
AcDbLine
 10
994.824753
 20
1333.097397
 11
994.824753
 21
1355.097397
  0
LINE
  5
217
100
AcDbEntity
  8
M0
 62
     7
100
AcDbLine
 10
991.824753
 20
1333.097397
 11
991.824753
 21
1355.097397
  0
LINE
  5
218
100
AcDbEntity
  8
M0
 62
     7
100
AcDbLine
 10
994.824753
 20
1333.097397
 11
994.824753
 21
1355.097397
  0
LINE
  5
219
100
AcDbEntity
  8
M0
 62
     7
100
AcDbLine
 10
991.824753
 20
1304.097397
 11
991.824753
 21
1326.097397
  0
ARC
  5
21A
100
AcDbEntity
  8
M0
 62
     7
100
AcDbCircle
 10
993.324753
 20
1355.097397
 40
1.5
100
AcDbArc
 50
0.0
 51
180.0
  0
LINE
  5
21B
100
AcDbEntity
  8
M0
 62
     7
100
AcDbLine
 10
991.824753
 20
1333.097397
 11
991.824753
 21
1355.097397
  0
LINE
  5
21C
100
AcDbEntity
  8
M0
 62
     7
100
AcDbLine
 10
994.824753
 20
1304.097397
 11
994.824753
 21
1326.097397
  0
ARC
  5
21D
100
AcDbEntity
  8
M0
 62
     7
100
AcDbCircle
 10
999.324753
 20
1355.097397
 40
1.5
100
AcDbArc
 50
0.0
 51
180.0
  0
ARC
  5
21E
100
AcDbEntity
  8
M0
 62
     7
100
AcDbCircle
 10
999.324753
 20
1304.097397
 40
1.5
100
AcDbArc
 50
180.0
 51
360.0
  0
ARC
  5
21F
100
AcDbEntity
  8
M0
 62
     7
100
AcDbCircle
 10
999.324753
 20
1333.097397
 40
1.5
100
AcDbArc
 50
180.0
 51
360.0
  0
ARC
  5
220
100
AcDbEntity
  8
M0
 62
     7
100
AcDbCircle
 10
999.324753
 20
1333.097397
 40
1.5
100
AcDbArc
 50
180.0
 51
360.0
  0
ARC
  5
221
100
AcDbEntity
  8
M0
 62
     7
100
AcDbCircle
 10
999.324753
 20
1326.097397
 40
1.5
100
AcDbArc
 50
0.0
 51
180.0
  0
LINE
  5
222
100
AcDbEntity
  8
M0
 62
     7
100
AcDbLine
 10
1000.824753
 20
1333.097397
 11
1000.824753
 21
1355.097397
  0
LINE
  5
223
100
AcDbEntity
  8
M0
 62
     7
100
AcDbLine
 10
997.824753
 20
1333.097397
 11
997.824753
 21
1355.097397
  0
LINE
  5
224
100
AcDbEntity
  8
M0
 62
     7
100
AcDbLine
 10
1000.824753
 20
1333.097397
 11
1000.824753
 21
1355.097397
  0
LINE
  5
225
100
AcDbEntity
  8
M0
 62
     7
100
AcDbLine
 10
997.824753
 20
1304.097397
 11
997.824753
 21
1326.097397
  0
ARC
  5
226
100
AcDbEntity
  8
M0
 62
     7
100
AcDbCircle
 10
999.324753
 20
1355.097397
 40
1.5
100
AcDbArc
 50
0.0
 51
180.0
  0
LINE
  5
227
100
AcDbEntity
  8
M0
 62
     7
100
AcDbLine
 10
997.824753
 20
1333.097397
 11
997.824753
 21
1355.097397
  0
LINE
  5
228
100
AcDbEntity
  8
M0
 62
     7
100
AcDbLine
 10
1000.824753
 20
1304.097397
 11
1000.824753
 21
1326.097397
  0
ARC
  5
229
100
AcDbEntity
  8
M0
 62
     7
100
AcDbCircle
 10
933.324753
 20
1246.097397
 40
1.5
100
AcDbArc
 50
-180.0
 51
0.0
  0
ARC
  5
22A
100
AcDbEntity
  8
M0
 62
     7
100
AcDbCircle
 10
933.324753
 20
1297.097397
 40
1.5
100
AcDbArc
 50
0.0
 51
180.0
  0
ARC
  5
22B
100
AcDbEntity
  8
M0
 62
     7
100
AcDbCircle
 10
933.324753
 20
1268.097397
 40
1.5
100
AcDbArc
 50
0.0
 51
180.0
  0
ARC
  5
22C
100
AcDbEntity
  8
M0
 62
     7
100
AcDbCircle
 10
933.324753
 20
1268.097397
 40
1.5
100
AcDbArc
 50
0.0
 51
180.0
  0
ARC
  5
22D
100
AcDbEntity
  8
M0
 62
     7
100
AcDbCircle
 10
933.324753
 20
1275.097397
 40
1.5
100
AcDbArc
 50
-180.0
 51
0.0
  0
LINE
  5
22E
100
AcDbEntity
  8
M0
 62
     7
100
AcDbLine
 10
934.824753
 20
1268.097397
 11
934.824753
 21
1246.097397
  0
LINE
  5
22F
100
AcDbEntity
  8
M0
 62
     7
100
AcDbLine
 10
931.824753
 20
1268.097397
 11
931.824753
 21
1246.097397
  0
LINE
  5
230
100
AcDbEntity
  8
M0
 62
     7
100
AcDbLine
 10
934.824753
 20
1268.097397
 11
934.824753
 21
1246.097397
  0
LINE
  5
231
100
AcDbEntity
  8
M0
 62
     7
100
AcDbLine
 10
931.824753
 20
1297.097397
 11
931.824753
 21
1275.097397
  0
ARC
  5
232
100
AcDbEntity
  8
M0
 62
     7
100
AcDbCircle
 10
933.324753
 20
1246.097397
 40
1.5
100
AcDbArc
 50
-180.0
 51
0.0
  0
LINE
  5
233
100
AcDbEntity
  8
M0
 62
     7
100
AcDbLine
 10
931.824753
 20
1268.097397
 11
931.824753
 21
1246.097397
  0
LINE
  5
234
100
AcDbEntity
  8
M0
 62
     7
100
AcDbLine
 10
934.824753
 20
1297.097397
 11
934.824753
 21
1275.097397
  0
ARC
  5
235
100
AcDbEntity
  8
M0
 62
     7
100
AcDbCircle
 10
885.324753
 20
1246.097397
 40
1.5
100
AcDbArc
 50
-180.0
 51
0.0
  0
ARC
  5
236
100
AcDbEntity
  8
M0
 62
     7
100
AcDbCircle
 10
885.324753
 20
1297.097397
 40
1.5
100
AcDbArc
 50
0.0
 51
180.0
  0
ARC
  5
237
100
AcDbEntity
  8
M0
 62
     7
100
AcDbCircle
 10
885.324753
 20
1268.097397
 40
1.5
100
AcDbArc
 50
0.0
 51
180.0
  0
ARC
  5
238
100
AcDbEntity
  8
M0
 62
     7
100
AcDbCircle
 10
885.324753
 20
1268.097397
 40
1.5
100
AcDbArc
 50
0.0
 51
180.0
  0
ARC
  5
239
100
AcDbEntity
  8
M0
 62
     7
100
AcDbCircle
 10
885.324753
 20
1275.097397
 40
1.5
100
AcDbArc
 50
-180.0
 51
0.0
  0
LINE
  5
23A
100
AcDbEntity
  8
M0
 62
     7
100
AcDbLine
 10
886.824753
 20
1268.097397
 11
886.824753
 21
1246.097397
  0
LINE
  5
23B
100
AcDbEntity
  8
M0
 62
     7
100
AcDbLine
 10
883.824753
 20
1268.097397
 11
883.824753
 21
1246.097397
  0
LINE
  5
23C
100
AcDbEntity
  8
M0
 62
     7
100
AcDbLine
 10
886.824753
 20
1268.097397
 11
886.824753
 21
1246.097397
  0
LINE
  5
23D
100
AcDbEntity
  8
M0
 62
     7
100
AcDbLine
 10
883.824753
 20
1297.097397
 11
883.824753
 21
1275.097397
  0
ARC
  5
23E
100
AcDbEntity
  8
M0
 62
     7
100
AcDbCircle
 10
885.324753
 20
1246.097397
 40
1.5
100
AcDbArc
 50
-180.0
 51
0.0
  0
LINE
  5
23F
100
AcDbEntity
  8
M0
 62
     7
100
AcDbLine
 10
883.824753
 20
1268.097397
 11
883.824753
 21
1246.097397
  0
LINE
  5
240
100
AcDbEntity
  8
M0
 62
     7
100
AcDbLine
 10
886.824753
 20
1297.097397
 11
886.824753
 21
1275.097397
  0
ARC
  5
241
100
AcDbEntity
  8
M0
 62
     7
100
AcDbCircle
 10
921.324753
 20
1246.097397
 40
1.5
100
AcDbArc
 50
-180.0
 51
0.0
  0
ARC
  5
242
100
AcDbEntity
  8
M0
 62
     7
100
AcDbCircle
 10
921.324753
 20
1297.097397
 40
1.5
100
AcDbArc
 50
0.0
 51
180.0
  0
ARC
  5
243
100
AcDbEntity
  8
M0
 62
     7
100
AcDbCircle
 10
921.324753
 20
1268.097397
 40
1.5
100
AcDbArc
 50
0.0
 51
180.0
  0
ARC
  5
244
100
AcDbEntity
  8
M0
 62
     7
100
AcDbCircle
 10
921.324753
 20
1268.097397
 40
1.5
100
AcDbArc
 50
0.0
 51
180.0
  0
ARC
  5
245
100
AcDbEntity
  8
M0
 62
     7
100
AcDbCircle
 10
921.324753
 20
1275.097397
 40
1.5
100
AcDbArc
 50
-180.0
 51
0.0
  0
LINE
  5
246
100
AcDbEntity
  8
M0
 62
     7
100
AcDbLine
 10
922.824753
 20
1268.097397
 11
922.824753
 21
1246.097397
  0
LINE
  5
247
100
AcDbEntity
  8
M0
 62
     7
100
AcDbLine
 10
919.824753
 20
1268.097397
 11
919.824753
 21
1246.097397
  0
LINE
  5
248
100
AcDbEntity
  8
M0
 62
     7
100
AcDbLine
 10
922.824753
 20
1268.097397
 11
922.824753
 21
1246.097397
  0
LINE
  5
249
100
AcDbEntity
  8
M0
 62
     7
100
AcDbLine
 10
919.824753
 20
1297.097397
 11
919.824753
 21
1275.097397
  0
ARC
  5
24A
100
AcDbEntity
  8
M0
 62
     7
100
AcDbCircle
 10
921.324753
 20
1246.097397
 40
1.5
100
AcDbArc
 50
-180.0
 51
0.0
  0
LINE
  5
24B
100
AcDbEntity
  8
M0
 62
     7
100
AcDbLine
 10
919.824753
 20
1268.097397
 11
919.824753
 21
1246.097397
  0
LINE
  5
24C
100
AcDbEntity
  8
M0
 62
     7
100
AcDbLine
 10
922.824753
 20
1297.097397
 11
922.824753
 21
1275.097397
  0
ARC
  5
24D
100
AcDbEntity
  8
M0
 62
     7
100
AcDbCircle
 10
927.324753
 20
1246.097397
 40
1.5
100
AcDbArc
 50
-180.0
 51
0.0
  0
ARC
  5
24E
100
AcDbEntity
  8
M0
 62
     7
100
AcDbCircle
 10
927.324753
 20
1297.097397
 40
1.5
100
AcDbArc
 50
0.0
 51
180.0
  0
ARC
  5
24F
100
AcDbEntity
  8
M0
 62
     7
100
AcDbCircle
 10
927.324753
 20
1268.097397
 40
1.5
100
AcDbArc
 50
0.0
 51
180.0
  0
ARC
  5
250
100
AcDbEntity
  8
M0
 62
     7
100
AcDbCircle
 10
927.324753
 20
1268.097397
 40
1.5
100
AcDbArc
 50
0.0
 51
180.0
  0
ARC
  5
251
100
AcDbEntity
  8
M0
 62
     7
100
AcDbCircle
 10
927.324753
 20
1275.097397
 40
1.5
100
AcDbArc
 50
-180.0
 51
0.0
  0
LINE
  5
252
100
AcDbEntity
  8
M0
 62
     7
100
AcDbLine
 10
928.824753
 20
1268.097397
 11
928.824753
 21
1246.097397
  0
LINE
  5
253
100
AcDbEntity
  8
M0
 62
     7
100
AcDbLine
 10
925.824753
 20
1268.097397
 11
925.824753
 21
1246.097397
  0
LINE
  5
254
100
AcDbEntity
  8
M0
 62
     7
100
AcDbLine
 10
928.824753
 20
1268.097397
 11
928.824753
 21
1246.097397
  0
LINE
  5
255
100
AcDbEntity
  8
M0
 62
     7
100
AcDbLine
 10
925.824753
 20
1297.097397
 11
925.824753
 21
1275.097397
  0
ARC
  5
256
100
AcDbEntity
  8
M0
 62
     7
100
AcDbCircle
 10
927.324753
 20
1246.097397
 40
1.5
100
AcDbArc
 50
-180.0
 51
0.0
  0
LINE
  5
257
100
AcDbEntity
  8
M0
 62
     7
100
AcDbLine
 10
925.824753
 20
1268.097397
 11
925.824753
 21
1246.097397
  0
LINE
  5
258
100
AcDbEntity
  8
M0
 62
     7
100
AcDbLine
 10
928.824753
 20
1297.097397
 11
928.824753
 21
1275.097397
  0
ARC
  5
259
100
AcDbEntity
  8
M0
 62
     7
100
AcDbCircle
 10
909.324753
 20
1246.097397
 40
1.5
100
AcDbArc
 50
-180.0
 51
0.0
  0
ARC
  5
25A
100
AcDbEntity
  8
M0
 62
     7
100
AcDbCircle
 10
909.324753
 20
1297.097397
 40
1.5
100
AcDbArc
 50
0.0
 51
180.0
  0
ARC
  5
25B
100
AcDbEntity
  8
M0
 62
     7
100
AcDbCircle
 10
909.324753
 20
1268.097397
 40
1.5
100
AcDbArc
 50
0.0
 51
180.0
  0
ARC
  5
25C
100
AcDbEntity
  8
M0
 62
     7
100
AcDbCircle
 10
909.324753
 20
1268.097397
 40
1.5
100
AcDbArc
 50
0.0
 51
180.0
  0
ARC
  5
25D
100
AcDbEntity
  8
M0
 62
     7
100
AcDbCircle
 10
909.324753
 20
1275.097397
 40
1.5
100
AcDbArc
 50
-180.0
 51
0.0
  0
LINE
  5
25E
100
AcDbEntity
  8
M0
 62
     7
100
AcDbLine
 10
910.824753
 20
1268.097397
 11
910.824753
 21
1246.097397
  0
LINE
  5
25F
100
AcDbEntity
  8
M0
 62
     7
100
AcDbLine
 10
907.824753
 20
1268.097397
 11
907.824753
 21
1246.097397
  0
LINE
  5
260
100
AcDbEntity
  8
M0
 62
     7
100
AcDbLine
 10
910.824753
 20
1268.097397
 11
910.824753
 21
1246.097397
  0
LINE
  5
261
100
AcDbEntity
  8
M0
 62
     7
100
AcDbLine
 10
907.824753
 20
1297.097397
 11
907.824753
 21
1275.097397
  0
ARC
  5
262
100
AcDbEntity
  8
M0
 62
     7
100
AcDbCircle
 10
909.324753
 20
1246.097397
 40
1.5
100
AcDbArc
 50
-180.0
 51
0.0
  0
LINE
  5
263
100
AcDbEntity
  8
M0
 62
     7
100
AcDbLine
 10
907.824753
 20
1268.097397
 11
907.824753
 21
1246.097397
  0
LINE
  5
264
100
AcDbEntity
  8
M0
 62
     7
100
AcDbLine
 10
910.824753
 20
1297.097397
 11
910.824753
 21
1275.097397
  0
ARC
  5
265
100
AcDbEntity
  8
M0
 62
     7
100
AcDbCircle
 10
897.324753
 20
1246.097397
 40
1.5
100
AcDbArc
 50
-180.0
 51
0.0
  0
ARC
  5
266
100
AcDbEntity
  8
M0
 62
     7
100
AcDbCircle
 10
897.324753
 20
1297.097397
 40
1.5
100
AcDbArc
 50
0.0
 51
180.0
  0
ARC
  5
267
100
AcDbEntity
  8
M0
 62
     7
100
AcDbCircle
 10
897.324753
 20
1268.097397
 40
1.5
100
AcDbArc
 50
0.0
 51
180.0
  0
ARC
  5
268
100
AcDbEntity
  8
M0
 62
     7
100
AcDbCircle
 10
897.324753
 20
1268.097397
 40
1.5
100
AcDbArc
 50
0.0
 51
180.0
  0
ARC
  5
269
100
AcDbEntity
  8
M0
 62
     7
100
AcDbCircle
 10
897.324753
 20
1275.097397
 40
1.5
100
AcDbArc
 50
-180.0
 51
0.0
  0
LINE
  5
26A
100
AcDbEntity
  8
M0
 62
     7
100
AcDbLine
 10
898.824753
 20
1268.097397
 11
898.824753
 21
1246.097397
  0
LINE
  5
26B
100
AcDbEntity
  8
M0
 62
     7
100
AcDbLine
 10
895.824753
 20
1268.097397
 11
895.824753
 21
1246.097397
  0
LINE
  5
26C
100
AcDbEntity
  8
M0
 62
     7
100
AcDbLine
 10
898.824753
 20
1268.097397
 11
898.824753
 21
1246.097397
  0
LINE
  5
26D
100
AcDbEntity
  8
M0
 62
     7
100
AcDbLine
 10
895.824753
 20
1297.097397
 11
895.824753
 21
1275.097397
  0
ARC
  5
26E
100
AcDbEntity
  8
M0
 62
     7
100
AcDbCircle
 10
897.324753
 20
1246.097397
 40
1.5
100
AcDbArc
 50
-180.0
 51
0.0
  0
LINE
  5
26F
100
AcDbEntity
  8
M0
 62
     7
100
AcDbLine
 10
895.824753
 20
1268.097397
 11
895.824753
 21
1246.097397
  0
LINE
  5
270
100
AcDbEntity
  8
M0
 62
     7
100
AcDbLine
 10
898.824753
 20
1297.097397
 11
898.824753
 21
1275.097397
  0
ARC
  5
271
100
AcDbEntity
  8
M0
 62
     7
100
AcDbCircle
 10
903.324753
 20
1246.097397
 40
1.5
100
AcDbArc
 50
-180.0
 51
0.0
  0
ARC
  5
272
100
AcDbEntity
  8
M0
 62
     7
100
AcDbCircle
 10
903.324753
 20
1297.097397
 40
1.5
100
AcDbArc
 50
0.0
 51
180.0
  0
ARC
  5
273
100
AcDbEntity
  8
M0
 62
     7
100
AcDbCircle
 10
903.324753
 20
1268.097397
 40
1.5
100
AcDbArc
 50
0.0
 51
180.0
  0
ARC
  5
274
100
AcDbEntity
  8
M0
 62
     7
100
AcDbCircle
 10
903.324753
 20
1268.097397
 40
1.5
100
AcDbArc
 50
0.0
 51
180.0
  0
ARC
  5
275
100
AcDbEntity
  8
M0
 62
     7
100
AcDbCircle
 10
903.324753
 20
1275.097397
 40
1.5
100
AcDbArc
 50
-180.0
 51
0.0
  0
LINE
  5
276
100
AcDbEntity
  8
M0
 62
     7
100
AcDbLine
 10
904.824753
 20
1268.097397
 11
904.824753
 21
1246.097397
  0
LINE
  5
277
100
AcDbEntity
  8
M0
 62
     7
100
AcDbLine
 10
901.824753
 20
1268.097397
 11
901.824753
 21
1246.097397
  0
LINE
  5
278
100
AcDbEntity
  8
M0
 62
     7
100
AcDbLine
 10
904.824753
 20
1268.097397
 11
904.824753
 21
1246.097397
  0
LINE
  5
279
100
AcDbEntity
  8
M0
 62
     7
100
AcDbLine
 10
901.824753
 20
1297.097397
 11
901.824753
 21
1275.097397
  0
ARC
  5
27A
100
AcDbEntity
  8
M0
 62
     7
100
AcDbCircle
 10
903.324753
 20
1246.097397
 40
1.5
100
AcDbArc
 50
-180.0
 51
0.0
  0
LINE
  5
27B
100
AcDbEntity
  8
M0
 62
     7
100
AcDbLine
 10
901.824753
 20
1268.097397
 11
901.824753
 21
1246.097397
  0
LINE
  5
27C
100
AcDbEntity
  8
M0
 62
     7
100
AcDbLine
 10
904.824753
 20
1297.097397
 11
904.824753
 21
1275.097397
  0
ARC
  5
27D
100
AcDbEntity
  8
M0
 62
     7
100
AcDbCircle
 10
891.324753
 20
1246.097397
 40
1.5
100
AcDbArc
 50
-180.0
 51
0.0
  0
ARC
  5
27E
100
AcDbEntity
  8
M0
 62
     7
100
AcDbCircle
 10
891.324753
 20
1297.097397
 40
1.5
100
AcDbArc
 50
0.0
 51
180.0
  0
ARC
  5
27F
100
AcDbEntity
  8
M0
 62
     7
100
AcDbCircle
 10
891.324753
 20
1268.097397
 40
1.5
100
AcDbArc
 50
0.0
 51
180.0
  0
ARC
  5
280
100
AcDbEntity
  8
M0
 62
     7
100
AcDbCircle
 10
891.324753
 20
1268.097397
 40
1.5
100
AcDbArc
 50
0.0
 51
180.0
  0
ARC
  5
281
100
AcDbEntity
  8
M0
 62
     7
100
AcDbCircle
 10
891.324753
 20
1275.097397
 40
1.5
100
AcDbArc
 50
-180.0
 51
0.0
  0
LINE
  5
282
100
AcDbEntity
  8
M0
 62
     7
100
AcDbLine
 10
892.824753
 20
1268.097397
 11
892.824753
 21
1246.097397
  0
LINE
  5
283
100
AcDbEntity
  8
M0
 62
     7
100
AcDbLine
 10
889.824753
 20
1268.097397
 11
889.824753
 21
1246.097397
  0
LINE
  5
284
100
AcDbEntity
  8
M0
 62
     7
100
AcDbLine
 10
892.824753
 20
1268.097397
 11
892.824753
 21
1246.097397
  0
LINE
  5
285
100
AcDbEntity
  8
M0
 62
     7
100
AcDbLine
 10
889.824753
 20
1297.097397
 11
889.824753
 21
1275.097397
  0
ARC
  5
286
100
AcDbEntity
  8
M0
 62
     7
100
AcDbCircle
 10
891.324753
 20
1246.097397
 40
1.5
100
AcDbArc
 50
-180.0
 51
0.0
  0
LINE
  5
287
100
AcDbEntity
  8
M0
 62
     7
100
AcDbLine
 10
889.824753
 20
1268.097397
 11
889.824753
 21
1246.097397
  0
LINE
  5
288
100
AcDbEntity
  8
M0
 62
     7
100
AcDbLine
 10
892.824753
 20
1297.097397
 11
892.824753
 21
1275.097397
  0
ARC
  5
289
100
AcDbEntity
  8
M0
 62
     7
100
AcDbCircle
 10
915.324753
 20
1246.097397
 40
1.5
100
AcDbArc
 50
-180.0
 51
0.0
  0
ARC
  5
28A
100
AcDbEntity
  8
M0
 62
     7
100
AcDbCircle
 10
915.324753
 20
1297.097397
 40
1.5
100
AcDbArc
 50
0.0
 51
180.0
  0
ARC
  5
28B
100
AcDbEntity
  8
M0
 62
     7
100
AcDbCircle
 10
915.324753
 20
1268.097397
 40
1.5
100
AcDbArc
 50
0.0
 51
180.0
  0
ARC
  5
28C
100
AcDbEntity
  8
M0
 62
     7
100
AcDbCircle
 10
915.324753
 20
1268.097397
 40
1.5
100
AcDbArc
 50
0.0
 51
180.0
  0
ARC
  5
28D
100
AcDbEntity
  8
M0
 62
     7
100
AcDbCircle
 10
915.324753
 20
1275.097397
 40
1.5
100
AcDbArc
 50
-180.0
 51
0.0
  0
LINE
  5
28E
100
AcDbEntity
  8
M0
 62
     7
100
AcDbLine
 10
916.824753
 20
1268.097397
 11
916.824753
 21
1246.097397
  0
LINE
  5
28F
100
AcDbEntity
  8
M0
 62
     7
100
AcDbLine
 10
913.824753
 20
1268.097397
 11
913.824753
 21
1246.097397
  0
LINE
  5
290
100
AcDbEntity
  8
M0
 62
     7
100
AcDbLine
 10
916.824753
 20
1268.097397
 11
916.824753
 21
1246.097397
  0
LINE
  5
291
100
AcDbEntity
  8
M0
 62
     7
100
AcDbLine
 10
913.824753
 20
1297.097397
 11
913.824753
 21
1275.097397
  0
ARC
  5
292
100
AcDbEntity
  8
M0
 62
     7
100
AcDbCircle
 10
915.324753
 20
1246.097397
 40
1.5
100
AcDbArc
 50
-180.0
 51
0.0
  0
LINE
  5
293
100
AcDbEntity
  8
M0
 62
     7
100
AcDbLine
 10
913.824753
 20
1268.097397
 11
913.824753
 21
1246.097397
  0
LINE
  5
294
100
AcDbEntity
  8
M0
 62
     7
100
AcDbLine
 10
916.824753
 20
1297.097397
 11
916.824753
 21
1275.097397
  0
ARC
  5
295
100
AcDbEntity
  8
M0
 62
     7
100
AcDbCircle
 10
951.324753
 20
1246.097397
 40
1.5
100
AcDbArc
 50
-180.0
 51
0.0
  0
ARC
  5
296
100
AcDbEntity
  8
M0
 62
     7
100
AcDbCircle
 10
951.324753
 20
1297.097397
 40
1.5
100
AcDbArc
 50
0.0
 51
180.0
  0
ARC
  5
297
100
AcDbEntity
  8
M0
 62
     7
100
AcDbCircle
 10
951.324753
 20
1268.097397
 40
1.5
100
AcDbArc
 50
0.0
 51
180.0
  0
ARC
  5
298
100
AcDbEntity
  8
M0
 62
     7
100
AcDbCircle
 10
951.324753
 20
1268.097397
 40
1.5
100
AcDbArc
 50
0.0
 51
180.0
  0
ARC
  5
299
100
AcDbEntity
  8
M0
 62
     7
100
AcDbCircle
 10
951.324753
 20
1275.097397
 40
1.5
100
AcDbArc
 50
-180.0
 51
0.0
  0
LINE
  5
29A
100
AcDbEntity
  8
M0
 62
     7
100
AcDbLine
 10
952.824753
 20
1268.097397
 11
952.824753
 21
1246.097397
  0
LINE
  5
29B
100
AcDbEntity
  8
M0
 62
     7
100
AcDbLine
 10
949.824753
 20
1268.097397
 11
949.824753
 21
1246.097397
  0
LINE
  5
29C
100
AcDbEntity
  8
M0
 62
     7
100
AcDbLine
 10
952.824753
 20
1268.097397
 11
952.824753
 21
1246.097397
  0
LINE
  5
29D
100
AcDbEntity
  8
M0
 62
     7
100
AcDbLine
 10
949.824753
 20
1297.097397
 11
949.824753
 21
1275.097397
  0
ARC
  5
29E
100
AcDbEntity
  8
M0
 62
     7
100
AcDbCircle
 10
951.324753
 20
1246.097397
 40
1.5
100
AcDbArc
 50
-180.0
 51
0.0
  0
LINE
  5
29F
100
AcDbEntity
  8
M0
 62
     7
100
AcDbLine
 10
949.824753
 20
1268.097397
 11
949.824753
 21
1246.097397
  0
LINE
  5
2A0
100
AcDbEntity
  8
M0
 62
     7
100
AcDbLine
 10
952.824753
 20
1297.097397
 11
952.824753
 21
1275.097397
  0
ARC
  5
2A1
100
AcDbEntity
  8
M0
 62
     7
100
AcDbCircle
 10
945.324753
 20
1246.097397
 40
1.5
100
AcDbArc
 50
-180.0
 51
0.0
  0
ARC
  5
2A2
100
AcDbEntity
  8
M0
 62
     7
100
AcDbCircle
 10
945.324753
 20
1297.097397
 40
1.5
100
AcDbArc
 50
0.0
 51
180.0
  0
ARC
  5
2A3
100
AcDbEntity
  8
M0
 62
     7
100
AcDbCircle
 10
945.324753
 20
1268.097397
 40
1.5
100
AcDbArc
 50
0.0
 51
180.0
  0
ARC
  5
2A4
100
AcDbEntity
  8
M0
 62
     7
100
AcDbCircle
 10
945.324753
 20
1268.097397
 40
1.5
100
AcDbArc
 50
0.0
 51
180.0
  0
ARC
  5
2A5
100
AcDbEntity
  8
M0
 62
     7
100
AcDbCircle
 10
945.324753
 20
1275.097397
 40
1.5
100
AcDbArc
 50
-180.0
 51
0.0
  0
LINE
  5
2A6
100
AcDbEntity
  8
M0
 62
     7
100
AcDbLine
 10
946.824753
 20
1268.097397
 11
946.824753
 21
1246.097397
  0
LINE
  5
2A7
100
AcDbEntity
  8
M0
 62
     7
100
AcDbLine
 10
943.824753
 20
1268.097397
 11
943.824753
 21
1246.097397
  0
LINE
  5
2A8
100
AcDbEntity
  8
M0
 62
     7
100
AcDbLine
 10
946.824753
 20
1268.097397
 11
946.824753
 21
1246.097397
  0
LINE
  5
2A9
100
AcDbEntity
  8
M0
 62
     7
100
AcDbLine
 10
943.824753
 20
1297.097397
 11
943.824753
 21
1275.097397
  0
ARC
  5
2AA
100
AcDbEntity
  8
M0
 62
     7
100
AcDbCircle
 10
945.324753
 20
1246.097397
 40
1.5
100
AcDbArc
 50
-180.0
 51
0.0
  0
LINE
  5
2AB
100
AcDbEntity
  8
M0
 62
     7
100
AcDbLine
 10
943.824753
 20
1268.097397
 11
943.824753
 21
1246.097397
  0
LINE
  5
2AC
100
AcDbEntity
  8
M0
 62
     7
100
AcDbLine
 10
946.824753
 20
1297.097397
 11
946.824753
 21
1275.097397
  0
ARC
  5
2AD
100
AcDbEntity
  8
M0
 62
     7
100
AcDbCircle
 10
939.324753
 20
1246.097397
 40
1.5
100
AcDbArc
 50
-180.0
 51
0.0
  0
ARC
  5
2AE
100
AcDbEntity
  8
M0
 62
     7
100
AcDbCircle
 10
939.324753
 20
1297.097397
 40
1.5
100
AcDbArc
 50
0.0
 51
180.0
  0
ARC
  5
2AF
100
AcDbEntity
  8
M0
 62
     7
100
AcDbCircle
 10
939.324753
 20
1268.097397
 40
1.5
100
AcDbArc
 50
0.0
 51
180.0
  0
ARC
  5
2B0
100
AcDbEntity
  8
M0
 62
     7
100
AcDbCircle
 10
939.324753
 20
1268.097397
 40
1.5
100
AcDbArc
 50
0.0
 51
180.0
  0
ARC
  5
2B1
100
AcDbEntity
  8
M0
 62
     7
100
AcDbCircle
 10
939.324753
 20
1275.097397
 40
1.5
100
AcDbArc
 50
-180.0
 51
0.0
  0
LINE
  5
2B2
100
AcDbEntity
  8
M0
 62
     7
100
AcDbLine
 10
940.824753
 20
1268.097397
 11
940.824753
 21
1246.097397
  0
LINE
  5
2B3
100
AcDbEntity
  8
M0
 62
     7
100
AcDbLine
 10
937.824753
 20
1268.097397
 11
937.824753
 21
1246.097397
  0
LINE
  5
2B4
100
AcDbEntity
  8
M0
 62
     7
100
AcDbLine
 10
940.824753
 20
1268.097397
 11
940.824753
 21
1246.097397
  0
LINE
  5
2B5
100
AcDbEntity
  8
M0
 62
     7
100
AcDbLine
 10
937.824753
 20
1297.097397
 11
937.824753
 21
1275.097397
  0
ARC
  5
2B6
100
AcDbEntity
  8
M0
 62
     7
100
AcDbCircle
 10
939.324753
 20
1246.097397
 40
1.5
100
AcDbArc
 50
-180.0
 51
0.0
  0
LINE
  5
2B7
100
AcDbEntity
  8
M0
 62
     7
100
AcDbLine
 10
937.824753
 20
1268.097397
 11
937.824753
 21
1246.097397
  0
LINE
  5
2B8
100
AcDbEntity
  8
M0
 62
     7
100
AcDbLine
 10
940.824753
 20
1297.097397
 11
940.824753
 21
1275.097397
  0
ARC
  5
2B9
100
AcDbEntity
  8
M0
 62
     7
100
AcDbCircle
 10
867.324753
 20
1246.097397
 40
1.5
100
AcDbArc
 50
-180.0
 51
0.0
  0
ARC
  5
2BA
100
AcDbEntity
  8
M0
 62
     7
100
AcDbCircle
 10
867.324753
 20
1297.097397
 40
1.5
100
AcDbArc
 50
0.0
 51
180.0
  0
ARC
  5
2BB
100
AcDbEntity
  8
M0
 62
     7
100
AcDbCircle
 10
867.324753
 20
1268.097397
 40
1.5
100
AcDbArc
 50
0.0
 51
180.0
  0
ARC
  5
2BC
100
AcDbEntity
  8
M0
 62
     7
100
AcDbCircle
 10
867.324753
 20
1268.097397
 40
1.5
100
AcDbArc
 50
0.0
 51
180.0
  0
ARC
  5
2BD
100
AcDbEntity
  8
M0
 62
     7
100
AcDbCircle
 10
867.324753
 20
1275.097397
 40
1.5
100
AcDbArc
 50
-180.0
 51
0.0
  0
LINE
  5
2BE
100
AcDbEntity
  8
M0
 62
     7
100
AcDbLine
 10
868.824753
 20
1268.097397
 11
868.824753
 21
1246.097397
  0
LINE
  5
2BF
100
AcDbEntity
  8
M0
 62
     7
100
AcDbLine
 10
865.824753
 20
1268.097397
 11
865.824753
 21
1246.097397
  0
LINE
  5
2C0
100
AcDbEntity
  8
M0
 62
     7
100
AcDbLine
 10
868.824753
 20
1268.097397
 11
868.824753
 21
1246.097397
  0
LINE
  5
2C1
100
AcDbEntity
  8
M0
 62
     7
100
AcDbLine
 10
865.824753
 20
1297.097397
 11
865.824753
 21
1275.097397
  0
ARC
  5
2C2
100
AcDbEntity
  8
M0
 62
     7
100
AcDbCircle
 10
867.324753
 20
1246.097397
 40
1.5
100
AcDbArc
 50
-180.0
 51
0.0
  0
LINE
  5
2C3
100
AcDbEntity
  8
M0
 62
     7
100
AcDbLine
 10
865.824753
 20
1268.097397
 11
865.824753
 21
1246.097397
  0
LINE
  5
2C4
100
AcDbEntity
  8
M0
 62
     7
100
AcDbLine
 10
868.824753
 20
1297.097397
 11
868.824753
 21
1275.097397
  0
ARC
  5
2C5
100
AcDbEntity
  8
M0
 62
     7
100
AcDbCircle
 10
853.824753
 20
1246.097397
 40
1.5
100
AcDbArc
 50
-180.0
 51
0.0
  0
ARC
  5
2C6
100
AcDbEntity
  8
M0
 62
     7
100
AcDbCircle
 10
853.824753
 20
1297.097397
 40
1.5
100
AcDbArc
 50
0.0
 51
180.0
  0
ARC
  5
2C7
100
AcDbEntity
  8
M0
 62
     7
100
AcDbCircle
 10
853.824753
 20
1268.097397
 40
1.5
100
AcDbArc
 50
0.0
 51
180.0
  0
ARC
  5
2C8
100
AcDbEntity
  8
M0
 62
     7
100
AcDbCircle
 10
853.824753
 20
1268.097397
 40
1.5
100
AcDbArc
 50
0.0
 51
180.0
  0
ARC
  5
2C9
100
AcDbEntity
  8
M0
 62
     7
100
AcDbCircle
 10
853.824753
 20
1275.097397
 40
1.5
100
AcDbArc
 50
-180.0
 51
0.0
  0
LINE
  5
2CA
100
AcDbEntity
  8
M0
 62
     7
100
AcDbLine
 10
855.324753
 20
1268.097397
 11
855.324753
 21
1246.097397
  0
LINE
  5
2CB
100
AcDbEntity
  8
M0
 62
     7
100
AcDbLine
 10
852.324753
 20
1268.097397
 11
852.324753
 21
1246.097397
  0
LINE
  5
2CC
100
AcDbEntity
  8
M0
 62
     7
100
AcDbLine
 10
855.324753
 20
1268.097397
 11
855.324753
 21
1246.097397
  0
LINE
  5
2CD
100
AcDbEntity
  8
M0
 62
     7
100
AcDbLine
 10
852.324753
 20
1297.097397
 11
852.324753
 21
1275.097397
  0
ARC
  5
2CE
100
AcDbEntity
  8
M0
 62
     7
100
AcDbCircle
 10
853.824753
 20
1246.097397
 40
1.5
100
AcDbArc
 50
-180.0
 51
0.0
  0
LINE
  5
2CF
100
AcDbEntity
  8
M0
 62
     7
100
AcDbLine
 10
852.324753
 20
1268.097397
 11
852.324753
 21
1246.097397
  0
LINE
  5
2D0
100
AcDbEntity
  8
M0
 62
     7
100
AcDbLine
 10
855.324753
 20
1297.097397
 11
855.324753
 21
1275.097397
  0
ARC
  5
2D1
100
AcDbEntity
  8
M0
 62
     7
100
AcDbCircle
 10
861.324753
 20
1246.097397
 40
1.5
100
AcDbArc
 50
-180.0
 51
0.0
  0
ARC
  5
2D2
100
AcDbEntity
  8
M0
 62
     7
100
AcDbCircle
 10
861.324753
 20
1297.097397
 40
1.5
100
AcDbArc
 50
0.0
 51
180.0
  0
ARC
  5
2D3
100
AcDbEntity
  8
M0
 62
     7
100
AcDbCircle
 10
861.324753
 20
1268.097397
 40
1.5
100
AcDbArc
 50
0.0
 51
180.0
  0
ARC
  5
2D4
100
AcDbEntity
  8
M0
 62
     7
100
AcDbCircle
 10
861.324753
 20
1268.097397
 40
1.5
100
AcDbArc
 50
0.0
 51
180.0
  0
ARC
  5
2D5
100
AcDbEntity
  8
M0
 62
     7
100
AcDbCircle
 10
861.324753
 20
1275.097397
 40
1.5
100
AcDbArc
 50
-180.0
 51
0.0
  0
LINE
  5
2D6
100
AcDbEntity
  8
M0
 62
     7
100
AcDbLine
 10
862.824753
 20
1268.097397
 11
862.824753
 21
1246.097397
  0
LINE
  5
2D7
100
AcDbEntity
  8
M0
 62
     7
100
AcDbLine
 10
859.824753
 20
1268.097397
 11
859.824753
 21
1246.097397
  0
LINE
  5
2D8
100
AcDbEntity
  8
M0
 62
     7
100
AcDbLine
 10
862.824753
 20
1268.097397
 11
862.824753
 21
1246.097397
  0
LINE
  5
2D9
100
AcDbEntity
  8
M0
 62
     7
100
AcDbLine
 10
859.824753
 20
1297.097397
 11
859.824753
 21
1275.097397
  0
ARC
  5
2DA
100
AcDbEntity
  8
M0
 62
     7
100
AcDbCircle
 10
861.324753
 20
1246.097397
 40
1.5
100
AcDbArc
 50
-180.0
 51
0.0
  0
LINE
  5
2DB
100
AcDbEntity
  8
M0
 62
     7
100
AcDbLine
 10
859.824753
 20
1268.097397
 11
859.824753
 21
1246.097397
  0
LINE
  5
2DC
100
AcDbEntity
  8
M0
 62
     7
100
AcDbLine
 10
862.824753
 20
1297.097397
 11
862.824753
 21
1275.097397
  0
ARC
  5
2DD
100
AcDbEntity
  8
M0
 62
     7
100
AcDbCircle
 10
873.324753
 20
1246.097397
 40
1.5
100
AcDbArc
 50
-180.0
 51
0.0
  0
ARC
  5
2DE
100
AcDbEntity
  8
M0
 62
     7
100
AcDbCircle
 10
873.324753
 20
1297.097397
 40
1.5
100
AcDbArc
 50
0.0
 51
180.0
  0
ARC
  5
2DF
100
AcDbEntity
  8
M0
 62
     7
100
AcDbCircle
 10
873.324753
 20
1268.097397
 40
1.5
100
AcDbArc
 50
0.0
 51
180.0
  0
ARC
  5
2E0
100
AcDbEntity
  8
M0
 62
     7
100
AcDbCircle
 10
873.324753
 20
1268.097397
 40
1.5
100
AcDbArc
 50
0.0
 51
180.0
  0
ARC
  5
2E1
100
AcDbEntity
  8
M0
 62
     7
100
AcDbCircle
 10
873.324753
 20
1275.097397
 40
1.5
100
AcDbArc
 50
-180.0
 51
0.0
  0
LINE
  5
2E2
100
AcDbEntity
  8
M0
 62
     7
100
AcDbLine
 10
874.824753
 20
1268.097397
 11
874.824753
 21
1246.097397
  0
LINE
  5
2E3
100
AcDbEntity
  8
M0
 62
     7
100
AcDbLine
 10
871.824753
 20
1268.097397
 11
871.824753
 21
1246.097397
  0
LINE
  5
2E4
100
AcDbEntity
  8
M0
 62
     7
100
AcDbLine
 10
874.824753
 20
1268.097397
 11
874.824753
 21
1246.097397
  0
LINE
  5
2E5
100
AcDbEntity
  8
M0
 62
     7
100
AcDbLine
 10
871.824753
 20
1297.097397
 11
871.824753
 21
1275.097397
  0
ARC
  5
2E6
100
AcDbEntity
  8
M0
 62
     7
100
AcDbCircle
 10
873.324753
 20
1246.097397
 40
1.5
100
AcDbArc
 50
-180.0
 51
0.0
  0
LINE
  5
2E7
100
AcDbEntity
  8
M0
 62
     7
100
AcDbLine
 10
871.824753
 20
1268.097397
 11
871.824753
 21
1246.097397
  0
LINE
  5
2E8
100
AcDbEntity
  8
M0
 62
     7
100
AcDbLine
 10
874.824753
 20
1297.097397
 11
874.824753
 21
1275.097397
  0
ARC
  5
2E9
100
AcDbEntity
  8
M0
 62
     7
100
AcDbCircle
 10
879.324753
 20
1246.097397
 40
1.5
100
AcDbArc
 50
-180.0
 51
0.0
  0
ARC
  5
2EA
100
AcDbEntity
  8
M0
 62
     7
100
AcDbCircle
 10
879.324753
 20
1297.097397
 40
1.5
100
AcDbArc
 50
0.0
 51
180.0
  0
ARC
  5
2EB
100
AcDbEntity
  8
M0
 62
     7
100
AcDbCircle
 10
879.324753
 20
1268.097397
 40
1.5
100
AcDbArc
 50
0.0
 51
180.0
  0
ARC
  5
2EC
100
AcDbEntity
  8
M0
 62
     7
100
AcDbCircle
 10
879.324753
 20
1268.097397
 40
1.5
100
AcDbArc
 50
0.0
 51
180.0
  0
ARC
  5
2ED
100
AcDbEntity
  8
M0
 62
     7
100
AcDbCircle
 10
879.324753
 20
1275.097397
 40
1.5
100
AcDbArc
 50
-180.0
 51
0.0
  0
LINE
  5
2EE
100
AcDbEntity
  8
M0
 62
     7
100
AcDbLine
 10
880.824753
 20
1268.097397
 11
880.824753
 21
1246.097397
  0
LINE
  5
2EF
100
AcDbEntity
  8
M0
 62
     7
100
AcDbLine
 10
877.824753
 20
1268.097397
 11
877.824753
 21
1246.097397
  0
LINE
  5
2F0
100
AcDbEntity
  8
M0
 62
     7
100
AcDbLine
 10
880.824753
 20
1268.097397
 11
880.824753
 21
1246.097397
  0
LINE
  5
2F1
100
AcDbEntity
  8
M0
 62
     7
100
AcDbLine
 10
877.824753
 20
1297.097397
 11
877.824753
 21
1275.097397
  0
ARC
  5
2F2
100
AcDbEntity
  8
M0
 62
     7
100
AcDbCircle
 10
879.324753
 20
1246.097397
 40
1.5
100
AcDbArc
 50
-180.0
 51
0.0
  0
LINE
  5
2F3
100
AcDbEntity
  8
M0
 62
     7
100
AcDbLine
 10
877.824753
 20
1268.097397
 11
877.824753
 21
1246.097397
  0
LINE
  5
2F4
100
AcDbEntity
  8
M0
 62
     7
100
AcDbLine
 10
880.824753
 20
1297.097397
 11
880.824753
 21
1275.097397
  0
ARC
  5
2F5
100
AcDbEntity
  8
M0
 62
     7
100
AcDbCircle
 10
957.324753
 20
1246.097397
 40
1.5
100
AcDbArc
 50
-180.0
 51
0.0
  0
ARC
  5
2F6
100
AcDbEntity
  8
M0
 62
     7
100
AcDbCircle
 10
957.324753
 20
1297.097397
 40
1.5
100
AcDbArc
 50
0.0
 51
180.0
  0
ARC
  5
2F7
100
AcDbEntity
  8
M0
 62
     7
100
AcDbCircle
 10
957.324753
 20
1268.097397
 40
1.5
100
AcDbArc
 50
0.0
 51
180.0
  0
ARC
  5
2F8
100
AcDbEntity
  8
M0
 62
     7
100
AcDbCircle
 10
957.324753
 20
1268.097397
 40
1.5
100
AcDbArc
 50
0.0
 51
180.0
  0
ARC
  5
2F9
100
AcDbEntity
  8
M0
 62
     7
100
AcDbCircle
 10
957.324753
 20
1275.097397
 40
1.5
100
AcDbArc
 50
-180.0
 51
0.0
  0
LINE
  5
2FA
100
AcDbEntity
  8
M0
 62
     7
100
AcDbLine
 10
958.824753
 20
1268.097397
 11
958.824753
 21
1246.097397
  0
LINE
  5
2FB
100
AcDbEntity
  8
M0
 62
     7
100
AcDbLine
 10
955.824753
 20
1268.097397
 11
955.824753
 21
1246.097397
  0
LINE
  5
2FC
100
AcDbEntity
  8
M0
 62
     7
100
AcDbLine
 10
958.824753
 20
1268.097397
 11
958.824753
 21
1246.097397
  0
LINE
  5
2FD
100
AcDbEntity
  8
M0
 62
     7
100
AcDbLine
 10
955.824753
 20
1297.097397
 11
955.824753
 21
1275.097397
  0
ARC
  5
2FE
100
AcDbEntity
  8
M0
 62
     7
100
AcDbCircle
 10
957.324753
 20
1246.097397
 40
1.5
100
AcDbArc
 50
-180.0
 51
0.0
  0
LINE
  5
2FF
100
AcDbEntity
  8
M0
 62
     7
100
AcDbLine
 10
955.824753
 20
1268.097397
 11
955.824753
 21
1246.097397
  0
LINE
  5
300
100
AcDbEntity
  8
M0
 62
     7
100
AcDbLine
 10
958.824753
 20
1297.097397
 11
958.824753
 21
1275.097397
  0
ARC
  5
301
100
AcDbEntity
  8
M0
 62
     7
100
AcDbCircle
 10
963.324753
 20
1246.097397
 40
1.5
100
AcDbArc
 50
-180.0
 51
0.0
  0
ARC
  5
302
100
AcDbEntity
  8
M0
 62
     7
100
AcDbCircle
 10
963.324753
 20
1297.097397
 40
1.5
100
AcDbArc
 50
0.0
 51
180.0
  0
ARC
  5
303
100
AcDbEntity
  8
M0
 62
     7
100
AcDbCircle
 10
963.324753
 20
1268.097397
 40
1.5
100
AcDbArc
 50
0.0
 51
180.0
  0
ARC
  5
304
100
AcDbEntity
  8
M0
 62
     7
100
AcDbCircle
 10
963.324753
 20
1268.097397
 40
1.5
100
AcDbArc
 50
0.0
 51
180.0
  0
ARC
  5
305
100
AcDbEntity
  8
M0
 62
     7
100
AcDbCircle
 10
963.324753
 20
1275.097397
 40
1.5
100
AcDbArc
 50
-180.0
 51
0.0
  0
LINE
  5
306
100
AcDbEntity
  8
M0
 62
     7
100
AcDbLine
 10
964.824753
 20
1268.097397
 11
964.824753
 21
1246.097397
  0
LINE
  5
307
100
AcDbEntity
  8
M0
 62
     7
100
AcDbLine
 10
961.824753
 20
1268.097397
 11
961.824753
 21
1246.097397
  0
LINE
  5
308
100
AcDbEntity
  8
M0
 62
     7
100
AcDbLine
 10
964.824753
 20
1268.097397
 11
964.824753
 21
1246.097397
  0
LINE
  5
309
100
AcDbEntity
  8
M0
 62
     7
100
AcDbLine
 10
961.824753
 20
1297.097397
 11
961.824753
 21
1275.097397
  0
ARC
  5
30A
100
AcDbEntity
  8
M0
 62
     7
100
AcDbCircle
 10
963.324753
 20
1246.097397
 40
1.5
100
AcDbArc
 50
-180.0
 51
0.0
  0
LINE
  5
30B
100
AcDbEntity
  8
M0
 62
     7
100
AcDbLine
 10
961.824753
 20
1268.097397
 11
961.824753
 21
1246.097397
  0
LINE
  5
30C
100
AcDbEntity
  8
M0
 62
     7
100
AcDbLine
 10
964.824753
 20
1297.097397
 11
964.824753
 21
1275.097397
  0
ARC
  5
30D
100
AcDbEntity
  8
M0
 62
     7
100
AcDbCircle
 10
969.324753
 20
1246.097397
 40
1.5
100
AcDbArc
 50
-180.0
 51
0.0
  0
ARC
  5
30E
100
AcDbEntity
  8
M0
 62
     7
100
AcDbCircle
 10
969.324753
 20
1297.097397
 40
1.5
100
AcDbArc
 50
0.0
 51
180.0
  0
ARC
  5
30F
100
AcDbEntity
  8
M0
 62
     7
100
AcDbCircle
 10
969.324753
 20
1268.097397
 40
1.5
100
AcDbArc
 50
0.0
 51
180.0
  0
ARC
  5
310
100
AcDbEntity
  8
M0
 62
     7
100
AcDbCircle
 10
969.324753
 20
1268.097397
 40
1.5
100
AcDbArc
 50
0.0
 51
180.0
  0
ARC
  5
311
100
AcDbEntity
  8
M0
 62
     7
100
AcDbCircle
 10
969.324753
 20
1275.097397
 40
1.5
100
AcDbArc
 50
-180.0
 51
0.0
  0
LINE
  5
312
100
AcDbEntity
  8
M0
 62
     7
100
AcDbLine
 10
970.824753
 20
1268.097397
 11
970.824753
 21
1246.097397
  0
LINE
  5
313
100
AcDbEntity
  8
M0
 62
     7
100
AcDbLine
 10
967.824753
 20
1268.097397
 11
967.824753
 21
1246.097397
  0
LINE
  5
314
100
AcDbEntity
  8
M0
 62
     7
100
AcDbLine
 10
970.824753
 20
1268.097397
 11
970.824753
 21
1246.097397
  0
LINE
  5
315
100
AcDbEntity
  8
M0
 62
     7
100
AcDbLine
 10
967.824753
 20
1297.097397
 11
967.824753
 21
1275.097397
  0
ARC
  5
316
100
AcDbEntity
  8
M0
 62
     7
100
AcDbCircle
 10
969.324753
 20
1246.097397
 40
1.5
100
AcDbArc
 50
-180.0
 51
0.0
  0
LINE
  5
317
100
AcDbEntity
  8
M0
 62
     7
100
AcDbLine
 10
967.824753
 20
1268.097397
 11
967.824753
 21
1246.097397
  0
LINE
  5
318
100
AcDbEntity
  8
M0
 62
     7
100
AcDbLine
 10
970.824753
 20
1297.097397
 11
970.824753
 21
1275.097397
  0
ARC
  5
319
100
AcDbEntity
  8
M0
 62
     7
100
AcDbCircle
 10
975.324753
 20
1246.097397
 40
1.5
100
AcDbArc
 50
-180.0
 51
0.0
  0
ARC
  5
31A
100
AcDbEntity
  8
M0
 62
     7
100
AcDbCircle
 10
975.324753
 20
1297.097397
 40
1.5
100
AcDbArc
 50
0.0
 51
180.0
  0
ARC
  5
31B
100
AcDbEntity
  8
M0
 62
     7
100
AcDbCircle
 10
975.324753
 20
1268.097397
 40
1.5
100
AcDbArc
 50
0.0
 51
180.0
  0
ARC
  5
31C
100
AcDbEntity
  8
M0
 62
     7
100
AcDbCircle
 10
975.324753
 20
1268.097397
 40
1.5
100
AcDbArc
 50
0.0
 51
180.0
  0
ARC
  5
31D
100
AcDbEntity
  8
M0
 62
     7
100
AcDbCircle
 10
975.324753
 20
1275.097397
 40
1.5
100
AcDbArc
 50
-180.0
 51
0.0
  0
LINE
  5
31E
100
AcDbEntity
  8
M0
 62
     7
100
AcDbLine
 10
976.824753
 20
1268.097397
 11
976.824753
 21
1246.097397
  0
LINE
  5
31F
100
AcDbEntity
  8
M0
 62
     7
100
AcDbLine
 10
973.824753
 20
1268.097397
 11
973.824753
 21
1246.097397
  0
LINE
  5
320
100
AcDbEntity
  8
M0
 62
     7
100
AcDbLine
 10
976.824753
 20
1268.097397
 11
976.824753
 21
1246.097397
  0
LINE
  5
321
100
AcDbEntity
  8
M0
 62
     7
100
AcDbLine
 10
973.824753
 20
1297.097397
 11
973.824753
 21
1275.097397
  0
ARC
  5
322
100
AcDbEntity
  8
M0
 62
     7
100
AcDbCircle
 10
975.324753
 20
1246.097397
 40
1.5
100
AcDbArc
 50
-180.0
 51
0.0
  0
LINE
  5
323
100
AcDbEntity
  8
M0
 62
     7
100
AcDbLine
 10
973.824753
 20
1268.097397
 11
973.824753
 21
1246.097397
  0
LINE
  5
324
100
AcDbEntity
  8
M0
 62
     7
100
AcDbLine
 10
976.824753
 20
1297.097397
 11
976.824753
 21
1275.097397
  0
ARC
  5
325
100
AcDbEntity
  8
M0
 62
     7
100
AcDbCircle
 10
981.324753
 20
1246.097397
 40
1.5
100
AcDbArc
 50
-180.0
 51
0.0
  0
ARC
  5
326
100
AcDbEntity
  8
M0
 62
     7
100
AcDbCircle
 10
981.324753
 20
1297.097397
 40
1.5
100
AcDbArc
 50
0.0
 51
180.0
  0
ARC
  5
327
100
AcDbEntity
  8
M0
 62
     7
100
AcDbCircle
 10
981.324753
 20
1268.097397
 40
1.5
100
AcDbArc
 50
0.0
 51
180.0
  0
ARC
  5
328
100
AcDbEntity
  8
M0
 62
     7
100
AcDbCircle
 10
981.324753
 20
1268.097397
 40
1.5
100
AcDbArc
 50
0.0
 51
180.0
  0
ARC
  5
329
100
AcDbEntity
  8
M0
 62
     7
100
AcDbCircle
 10
981.324753
 20
1275.097397
 40
1.5
100
AcDbArc
 50
-180.0
 51
0.0
  0
LINE
  5
32A
100
AcDbEntity
  8
M0
 62
     7
100
AcDbLine
 10
982.824753
 20
1268.097397
 11
982.824753
 21
1246.097397
  0
LINE
  5
32B
100
AcDbEntity
  8
M0
 62
     7
100
AcDbLine
 10
979.824753
 20
1268.097397
 11
979.824753
 21
1246.097397
  0
LINE
  5
32C
100
AcDbEntity
  8
M0
 62
     7
100
AcDbLine
 10
982.824753
 20
1268.097397
 11
982.824753
 21
1246.097397
  0
LINE
  5
32D
100
AcDbEntity
  8
M0
 62
     7
100
AcDbLine
 10
979.824753
 20
1297.097397
 11
979.824753
 21
1275.097397
  0
ARC
  5
32E
100
AcDbEntity
  8
M0
 62
     7
100
AcDbCircle
 10
981.324753
 20
1246.097397
 40
1.5
100
AcDbArc
 50
-180.0
 51
0.0
  0
LINE
  5
32F
100
AcDbEntity
  8
M0
 62
     7
100
AcDbLine
 10
979.824753
 20
1268.097397
 11
979.824753
 21
1246.097397
  0
LINE
  5
330
100
AcDbEntity
  8
M0
 62
     7
100
AcDbLine
 10
982.824753
 20
1297.097397
 11
982.824753
 21
1275.097397
  0
ARC
  5
331
100
AcDbEntity
  8
M0
 62
     7
100
AcDbCircle
 10
987.324753
 20
1246.097397
 40
1.5
100
AcDbArc
 50
-180.0
 51
0.0
  0
ARC
  5
332
100
AcDbEntity
  8
M0
 62
     7
100
AcDbCircle
 10
987.324753
 20
1297.097397
 40
1.5
100
AcDbArc
 50
0.0
 51
180.0
  0
ARC
  5
333
100
AcDbEntity
  8
M0
 62
     7
100
AcDbCircle
 10
987.324753
 20
1268.097397
 40
1.5
100
AcDbArc
 50
0.0
 51
180.0
  0
ARC
  5
334
100
AcDbEntity
  8
M0
 62
     7
100
AcDbCircle
 10
987.324753
 20
1268.097397
 40
1.5
100
AcDbArc
 50
0.0
 51
180.0
  0
ARC
  5
335
100
AcDbEntity
  8
M0
 62
     7
100
AcDbCircle
 10
987.324753
 20
1275.097397
 40
1.5
100
AcDbArc
 50
-180.0
 51
0.0
  0
LINE
  5
336
100
AcDbEntity
  8
M0
 62
     7
100
AcDbLine
 10
988.824753
 20
1268.097397
 11
988.824753
 21
1246.097397
  0
LINE
  5
337
100
AcDbEntity
  8
M0
 62
     7
100
AcDbLine
 10
985.824753
 20
1268.097397
 11
985.824753
 21
1246.097397
  0
LINE
  5
338
100
AcDbEntity
  8
M0
 62
     7
100
AcDbLine
 10
988.824753
 20
1268.097397
 11
988.824753
 21
1246.097397
  0
LINE
  5
339
100
AcDbEntity
  8
M0
 62
     7
100
AcDbLine
 10
985.824753
 20
1297.097397
 11
985.824753
 21
1275.097397
  0
ARC
  5
33A
100
AcDbEntity
  8
M0
 62
     7
100
AcDbCircle
 10
987.324753
 20
1246.097397
 40
1.5
100
AcDbArc
 50
-180.0
 51
0.0
  0
LINE
  5
33B
100
AcDbEntity
  8
M0
 62
     7
100
AcDbLine
 10
985.824753
 20
1268.097397
 11
985.824753
 21
1246.097397
  0
LINE
  5
33C
100
AcDbEntity
  8
M0
 62
     7
100
AcDbLine
 10
988.824753
 20
1297.097397
 11
988.824753
 21
1275.097397
  0
ARC
  5
33D
100
AcDbEntity
  8
M0
 62
     7
100
AcDbCircle
 10
993.324753
 20
1246.097397
 40
1.5
100
AcDbArc
 50
-180.0
 51
0.0
  0
ARC
  5
33E
100
AcDbEntity
  8
M0
 62
     7
100
AcDbCircle
 10
993.324753
 20
1297.097397
 40
1.5
100
AcDbArc
 50
0.0
 51
180.0
  0
ARC
  5
33F
100
AcDbEntity
  8
M0
 62
     7
100
AcDbCircle
 10
993.324753
 20
1268.097397
 40
1.5
100
AcDbArc
 50
0.0
 51
180.0
  0
ARC
  5
340
100
AcDbEntity
  8
M0
 62
     7
100
AcDbCircle
 10
993.324753
 20
1268.097397
 40
1.5
100
AcDbArc
 50
0.0
 51
180.0
  0
ARC
  5
341
100
AcDbEntity
  8
M0
 62
     7
100
AcDbCircle
 10
993.324753
 20
1275.097397
 40
1.5
100
AcDbArc
 50
-180.0
 51
0.0
  0
LINE
  5
342
100
AcDbEntity
  8
M0
 62
     7
100
AcDbLine
 10
994.824753
 20
1268.097397
 11
994.824753
 21
1246.097397
  0
LINE
  5
343
100
AcDbEntity
  8
M0
 62
     7
100
AcDbLine
 10
991.824753
 20
1268.097397
 11
991.824753
 21
1246.097397
  0
LINE
  5
344
100
AcDbEntity
  8
M0
 62
     7
100
AcDbLine
 10
994.824753
 20
1268.097397
 11
994.824753
 21
1246.097397
  0
LINE
  5
345
100
AcDbEntity
  8
M0
 62
     7
100
AcDbLine
 10
991.824753
 20
1297.097397
 11
991.824753
 21
1275.097397
  0
ARC
  5
346
100
AcDbEntity
  8
M0
 62
     7
100
AcDbCircle
 10
993.324753
 20
1246.097397
 40
1.5
100
AcDbArc
 50
-180.0
 51
0.0
  0
LINE
  5
347
100
AcDbEntity
  8
M0
 62
     7
100
AcDbLine
 10
991.824753
 20
1268.097397
 11
991.824753
 21
1246.097397
  0
LINE
  5
348
100
AcDbEntity
  8
M0
 62
     7
100
AcDbLine
 10
994.824753
 20
1297.097397
 11
994.824753
 21
1275.097397
  0
ARC
  5
349
100
AcDbEntity
  8
M0
 62
     7
100
AcDbCircle
 10
999.324753
 20
1246.097397
 40
1.5
100
AcDbArc
 50
-180.0
 51
0.0
  0
ARC
  5
34A
100
AcDbEntity
  8
M0
 62
     7
100
AcDbCircle
 10
999.324753
 20
1297.097397
 40
1.5
100
AcDbArc
 50
0.0
 51
180.0
  0
ARC
  5
34B
100
AcDbEntity
  8
M0
 62
     7
100
AcDbCircle
 10
999.324753
 20
1268.097397
 40
1.5
100
AcDbArc
 50
0.0
 51
180.0
  0
ARC
  5
34C
100
AcDbEntity
  8
M0
 62
     7
100
AcDbCircle
 10
999.324753
 20
1268.097397
 40
1.5
100
AcDbArc
 50
0.0
 51
180.0
  0
ARC
  5
34D
100
AcDbEntity
  8
M0
 62
     7
100
AcDbCircle
 10
999.324753
 20
1275.097397
 40
1.5
100
AcDbArc
 50
-180.0
 51
0.0
  0
LINE
  5
34E
100
AcDbEntity
  8
M0
 62
     7
100
AcDbLine
 10
1000.824753
 20
1268.097397
 11
1000.824753
 21
1246.097397
  0
LINE
  5
34F
100
AcDbEntity
  8
M0
 62
     7
100
AcDbLine
 10
997.824753
 20
1268.097397
 11
997.824753
 21
1246.097397
  0
LINE
  5
350
100
AcDbEntity
  8
M0
 62
     7
100
AcDbLine
 10
1000.824753
 20
1268.097397
 11
1000.824753
 21
1246.097397
  0
LINE
  5
351
100
AcDbEntity
  8
M0
 62
     7
100
AcDbLine
 10
997.824753
 20
1297.097397
 11
997.824753
 21
1275.097397
  0
ARC
  5
352
100
AcDbEntity
  8
M0
 62
     7
100
AcDbCircle
 10
999.324753
 20
1246.097397
 40
1.5
100
AcDbArc
 50
-180.0
 51
0.0
  0
LINE
  5
353
100
AcDbEntity
  8
M0
 62
     7
100
AcDbLine
 10
997.824753
 20
1268.097397
 11
997.824753
 21
1246.097397
  0
LINE
  5
354
100
AcDbEntity
  8
M0
 62
     7
100
AcDbLine
 10
1000.824753
 20
1297.097397
 11
1000.824753
 21
1275.097397
  0
ARC
  5
355
100
AcDbEntity
  8
M0
 62
     7
100
AcDbCircle
 10
853.824753
 20
1333.097397
 40
1.5
100
AcDbArc
 50
180.0
 51
360.0
  0
ARC
  5
356
100
AcDbEntity
  8
M0
 62
     7
100
AcDbCircle
 10
853.824753
 20
1355.097397
 40
1.5
100
AcDbArc
 50
0.0
 51
180.0
  0
ARC
  5
357
100
AcDbEntity
  8
M0
 62
     7
100
AcDbCircle
 10
853.824753
 20
1355.097397
 40
1.5
100
AcDbArc
 50
0.0
 51
180.0
  0
ARC
  5
358
100
AcDbEntity
  8
M0
 62
     7
100
AcDbCircle
 10
853.824753
 20
1333.097397
 40
1.5
100
AcDbArc
 50
180.0
 51
360.0
  0
LINE
  5
359
100
AcDbEntity
  8
M0
 62
     7
100
AcDbLine
 10
852.324753
 20
1333.097397
 11
852.324753
 21
1355.097397
  0
LINE
  5
35A
100
AcDbEntity
  8
M0
 62
     7
100
AcDbLine
 10
855.324753
 20
1333.097397
 11
855.324753
 21
1355.097397
  0
LINE
  5
35B
100
AcDbEntity
  8
M0
 62
     7
100
AcDbLine
 10
852.324753
 20
1333.097397
 11
852.324753
 21
1355.097397
  0
LINE
  5
35C
100
AcDbEntity
  8
M0
 62
     7
100
AcDbLine
 10
855.324753
 20
1333.097397
 11
855.324753
 21
1355.097397
  0
LINE
  5
35D
100
AcDbEntity
  8
M0
  6
DASHDOT
100
AcDbLine
 10
203.422197
 20
481.253515
 11
442.422197
 21
481.253515
  0
LINE
  5
35E
100
AcDbEntity
  8
M0
  6
DASHDOT
100
AcDbLine
 10
442.422197
 20
262.753515
 11
203.422197
 21
262.753515
  0
LINE
  5
35F
100
AcDbEntity
  8
M0
 62
     4
100
AcDbLine
 10
479.922197
 20
236.247083
 11
459.922197
 21
236.247083
  0
LINE
  5
360
100
AcDbEntity
  8
M0
 62
     4
100
AcDbLine
 10
475.922197
 20
231.247083
 11
463.922197
 21
231.247083
  0
LINE
  5
361
100
AcDbEntity
  8
M0
 62
     4
100
AcDbLine
 10
473.922197
 20
226.247083
 11
465.922197
 21
226.247083
  0
LINE
  5
362
100
AcDbEntity
  8
M0
 62
     7
100
AcDbLine
 10
442.422197
 20
481.253515
 11
464.422197
 21
481.253515
  0
ARC
  5
363
100
AcDbEntity
  8
M0
 62
     7
100
AcDbCircle
 10
464.422197
 20
479.753515
 40
1.5
100
AcDbArc
 50
270.0
 51
450.0
  0
ARC
  5
364
100
AcDbEntity
  8
M0
 62
     7
100
AcDbCircle
 10
442.422197
 20
479.753515
 40
1.5
100
AcDbArc
 50
90.0
 51
270.0
  0
ARC
  5
365
100
AcDbEntity
  8
M0
 62
     7
100
AcDbCircle
 10
464.422197
 20
479.753515
 40
1.5
100
AcDbArc
 50
270.0
 51
450.0
  0
LINE
  5
366
100
AcDbEntity
  8
M0
 62
     7
100
AcDbLine
 10
442.422197
 20
478.253515
 11
464.422197
 21
478.253515
  0
ARC
  5
367
100
AcDbEntity
  8
M0
 62
     7
100
AcDbCircle
 10
442.422197
 20
479.753515
 40
1.5
100
AcDbArc
 50
90.0
 51
270.0
  0
LINE
  5
368
100
AcDbEntity
  8
M0
 62
     7
100
AcDbLine
 10
442.422197
 20
478.253515
 11
464.422197
 21
478.253515
  0
LINE
  5
369
100
AcDbEntity
  8
M0
  6
DIVIDE
100
AcDbLine
 10
440.922197
 20
479.753515
 11
440.922197
 21
425.753515
  0
LINE
  5
36A
100
AcDbEntity
  8
M0
  6
DIVIDE
100
AcDbLine
 10
465.922197
 20
264.253515
 11
465.922197
 21
306.253515
  0
ARC
  5
36B
100
AcDbEntity
  8
M0
 62
     7
100
AcDbCircle
 10
442.422197
 20
425.753515
 40
1.5
100
AcDbArc
 50
90.0
 51
270.0
  0
ARC
  5
36C
100
AcDbEntity
  8
M0
 62
     7
100
AcDbCircle
 10
464.422197
 20
425.753515
 40
1.5
100
AcDbArc
 50
270.0
 51
450.0
  0
ARC
  5
36D
100
AcDbEntity
  8
M0
 62
     7
100
AcDbCircle
 10
464.422197
 20
425.753515
 40
1.5
100
AcDbArc
 50
270.0
 51
450.0
  0
ARC
  5
36E
100
AcDbEntity
  8
M0
 62
     7
100
AcDbCircle
 10
442.422197
 20
425.753515
 40
1.5
100
AcDbArc
 50
90.0
 51
270.0
  0
LINE
  5
36F
100
AcDbEntity
  8
M0
 62
     7
100
AcDbLine
 10
442.422197
 20
427.253515
 11
464.422197
 21
427.253515
  0
LINE
  5
370
100
AcDbEntity
  8
M0
 62
     7
100
AcDbLine
 10
442.422197
 20
424.253515
 11
464.422197
 21
424.253515
  0
LINE
  5
371
100
AcDbEntity
  8
M0
 62
     7
100
AcDbLine
 10
442.422197
 20
427.253515
 11
464.422197
 21
427.253515
  0
LINE
  5
372
100
AcDbEntity
  8
M0
 62
     7
100
AcDbLine
 10
442.422197
 20
424.253515
 11
464.422197
 21
424.253515
  0
LINE
  5
373
100
AcDbEntity
  8
M0
 62
     7
100
AcDbLine
 10
442.422197
 20
481.253515
 11
464.422197
 21
481.253515
  0
ARC
  5
374
100
AcDbEntity
  8
M0
 62
     7
100
AcDbCircle
 10
464.422197
 20
306.253515
 40
1.5
100
AcDbArc
 50
270.0
 51
450.0
  0
ARC
  5
375
100
AcDbEntity
  8
M0
 62
     7
100
AcDbCircle
 10
464.422197
 20
306.253515
 40
1.5
100
AcDbArc
 50
270.0
 51
450.0
  0
LINE
  5
376
100
AcDbEntity
  8
M0
 62
     7
100
AcDbLine
 10
442.422197
 20
304.753515
 11
464.422197
 21
304.753515
  0
LINE
  5
377
100
AcDbEntity
  8
M0
 62
     7
100
AcDbLine
 10
442.422197
 20
304.753515
 11
464.422197
 21
304.753515
  0
LINE
  5
378
100
AcDbEntity
  8
M0
 62
     7
100
AcDbLine
 10
442.422197
 20
307.753515
 11
464.422197
 21
307.753515
  0
LINE
  5
379
100
AcDbEntity
  8
M0
 62
     7
100
AcDbLine
 10
442.422197
 20
307.753515
 11
464.422197
 21
307.753515
  0
ARC
  5
37A
100
AcDbEntity
  8
M0
 62
     7
100
AcDbCircle
 10
442.422197
 20
306.253515
 40
1.5
100
AcDbArc
 50
90.0
 51
270.0
  0
ARC
  5
37B
100
AcDbEntity
  8
M0
 62
     7
100
AcDbCircle
 10
442.422197
 20
306.253515
 40
1.5
100
AcDbArc
 50
90.0
 51
270.0
  0
ARC
  5
37C
100
AcDbEntity
  8
M0
 62
     7
100
AcDbCircle
 10
464.422197
 20
264.253515
 40
1.5
100
AcDbArc
 50
270.0
 51
450.0
  0
ARC
  5
37D
100
AcDbEntity
  8
M0
 62
     7
100
AcDbCircle
 10
464.422197
 20
264.253515
 40
1.5
100
AcDbArc
 50
270.0
 51
450.0
  0
LINE
  5
37E
100
AcDbEntity
  8
M0
 62
     7
100
AcDbLine
 10
442.422197
 20
262.753515
 11
464.422197
 21
262.753515
  0
LINE
  5
37F
100
AcDbEntity
  8
M0
 62
     7
100
AcDbLine
 10
442.422197
 20
262.753515
 11
464.422197
 21
262.753515
  0
LINE
  5
380
100
AcDbEntity
  8
M0
 62
     7
100
AcDbLine
 10
442.422197
 20
265.753515
 11
464.422197
 21
265.753515
  0
LINE
  5
381
100
AcDbEntity
  8
M0
 62
     7
100
AcDbLine
 10
442.422197
 20
265.753515
 11
464.422197
 21
265.753515
  0
ARC
  5
382
100
AcDbEntity
  8
M0
 62
     7
100
AcDbCircle
 10
442.422197
 20
264.253515
 40
1.5
100
AcDbArc
 50
90.0
 51
270.0
  0
ARC
  5
383
100
AcDbEntity
  8
M0
 62
     7
100
AcDbCircle
 10
442.422197
 20
264.253515
 40
1.5
100
AcDbArc
 50
90.0
 51
270.0
  0
LINE
  5
384
100
AcDbEntity
  8
M0
  6
DIVIDE
100
AcDbLine
 10
465.922197
 20
425.753515
 11
465.922197
 21
479.753515
  0
LINE
  5
385
100
AcDbEntity
  8
M0
  6
DIVIDE
100
AcDbLine
 10
440.922197
 20
306.253515
 11
440.922197
 21
264.253515
  0
ARC
  5
386
100
AcDbEntity
  8
M0
 62
     7
100
AcDbCircle
 10
181.422197
 20
479.753515
 40
1.5
100
AcDbArc
 50
90.0
 51
270.0
  0
ARC
  5
387
100
AcDbEntity
  8
M0
 62
     7
100
AcDbCircle
 10
203.422197
 20
479.753515
 40
1.5
100
AcDbArc
 50
-90.0
 51
90.0
  0
ARC
  5
388
100
AcDbEntity
  8
M0
 62
     7
100
AcDbCircle
 10
181.422197
 20
479.753515
 40
1.5
100
AcDbArc
 50
90.0
 51
270.0
  0
LINE
  5
389
100
AcDbEntity
  8
M0
 62
     7
100
AcDbLine
 10
203.422197
 20
478.253515
 11
181.422197
 21
478.253515
  0
ARC
  5
38A
100
AcDbEntity
  8
M0
 62
     7
100
AcDbCircle
 10
203.422197
 20
479.753515
 40
1.5
100
AcDbArc
 50
-90.0
 51
90.0
  0
LINE
  5
38B
100
AcDbEntity
  8
M0
 62
     7
100
AcDbLine
 10
203.422197
 20
478.253515
 11
181.422197
 21
478.253515
  0
LINE
  5
38C
100
AcDbEntity
  8
M0
  6
DIVIDE
100
AcDbLine
 10
204.922197
 20
479.753515
 11
204.922197
 21
425.753515
  0
LINE
  5
38D
100
AcDbEntity
  8
M0
  6
DIVIDE
100
AcDbLine
 10
179.922197
 20
264.253515
 11
179.922197
 21
306.253515
  0
ARC
  5
38E
100
AcDbEntity
  8
M0
 62
     7
100
AcDbCircle
 10
203.422197
 20
425.753515
 40
1.5
100
AcDbArc
 50
-90.0
 51
90.0
  0
ARC
  5
38F
100
AcDbEntity
  8
M0
 62
     7
100
AcDbCircle
 10
181.422197
 20
425.753515
 40
1.5
100
AcDbArc
 50
90.0
 51
270.0
  0
ARC
  5
390
100
AcDbEntity
  8
M0
 62
     7
100
AcDbCircle
 10
181.422197
 20
425.753515
 40
1.5
100
AcDbArc
 50
90.0
 51
270.0
  0
ARC
  5
391
100
AcDbEntity
  8
M0
 62
     7
100
AcDbCircle
 10
203.422197
 20
425.753515
 40
1.5
100
AcDbArc
 50
-90.0
 51
90.0
  0
LINE
  5
392
100
AcDbEntity
  8
M0
 62
     7
100
AcDbLine
 10
203.422197
 20
427.253515
 11
181.422197
 21
427.253515
  0
LINE
  5
393
100
AcDbEntity
  8
M0
 62
     7
100
AcDbLine
 10
203.422197
 20
424.253515
 11
181.422197
 21
424.253515
  0
LINE
  5
394
100
AcDbEntity
  8
M0
 62
     7
100
AcDbLine
 10
203.422197
 20
427.253515
 11
181.422197
 21
427.253515
  0
LINE
  5
395
100
AcDbEntity
  8
M0
 62
     7
100
AcDbLine
 10
203.422197
 20
424.253515
 11
181.422197
 21
424.253515
  0
LINE
  5
396
100
AcDbEntity
  8
M0
 62
     7
100
AcDbLine
 10
203.422197
 20
481.253515
 11
181.422197
 21
481.253515
  0
ARC
  5
397
100
AcDbEntity
  8
M0
 62
     7
100
AcDbCircle
 10
181.422197
 20
306.253515
 40
1.5
100
AcDbArc
 50
90.0
 51
270.0
  0
ARC
  5
398
100
AcDbEntity
  8
M0
 62
     7
100
AcDbCircle
 10
181.422197
 20
306.253515
 40
1.5
100
AcDbArc
 50
90.0
 51
270.0
  0
LINE
  5
399
100
AcDbEntity
  8
M0
 62
     7
100
AcDbLine
 10
203.422197
 20
304.753515
 11
181.422197
 21
304.753515
  0
LINE
  5
39A
100
AcDbEntity
  8
M0
 62
     7
100
AcDbLine
 10
203.422197
 20
304.753515
 11
181.422197
 21
304.753515
  0
LINE
  5
39B
100
AcDbEntity
  8
M0
 62
     7
100
AcDbLine
 10
203.422197
 20
307.753515
 11
181.422197
 21
307.753515
  0
LINE
  5
39C
100
AcDbEntity
  8
M0
 62
     7
100
AcDbLine
 10
203.422197
 20
307.753515
 11
181.422197
 21
307.753515
  0
ARC
  5
39D
100
AcDbEntity
  8
M0
 62
     7
100
AcDbCircle
 10
203.422197
 20
306.253515
 40
1.5
100
AcDbArc
 50
-90.0
 51
90.0
  0
ARC
  5
39E
100
AcDbEntity
  8
M0
 62
     7
100
AcDbCircle
 10
203.422197
 20
306.253515
 40
1.5
100
AcDbArc
 50
-90.0
 51
90.0
  0
ARC
  5
39F
100
AcDbEntity
  8
M0
 62
     7
100
AcDbCircle
 10
181.422197
 20
264.253515
 40
1.5
100
AcDbArc
 50
90.0
 51
270.0
  0
ARC
  5
3A0
100
AcDbEntity
  8
M0
 62
     7
100
AcDbCircle
 10
181.422197
 20
264.253515
 40
1.5
100
AcDbArc
 50
90.0
 51
270.0
  0
LINE
  5
3A1
100
AcDbEntity
  8
M0
 62
     7
100
AcDbLine
 10
203.422197
 20
262.753515
 11
181.422197
 21
262.753515
  0
LINE
  5
3A2
100
AcDbEntity
  8
M0
 62
     7
100
AcDbLine
 10
203.422197
 20
262.753515
 11
181.422197
 21
262.753515
  0
LINE
  5
3A3
100
AcDbEntity
  8
M0
 62
     7
100
AcDbLine
 10
203.422197
 20
265.753515
 11
181.422197
 21
265.753515
  0
LINE
  5
3A4
100
AcDbEntity
  8
M0
 62
     7
100
AcDbLine
 10
203.422197
 20
265.753515
 11
181.422197
 21
265.753515
  0
ARC
  5
3A5
100
AcDbEntity
  8
M0
 62
     7
100
AcDbCircle
 10
203.422197
 20
264.253515
 40
1.5
100
AcDbArc
 50
-90.0
 51
90.0
  0
ARC
  5
3A6
100
AcDbEntity
  8
M0
 62
     7
100
AcDbCircle
 10
203.422197
 20
264.253515
 40
1.5
100
AcDbArc
 50
-90.0
 51
90.0
  0
LINE
  5
3A7
100
AcDbEntity
  8
M0
  6
DIVIDE
100
AcDbLine
 10
204.922197
 20
306.253515
 11
204.922197
 21
264.253515
  0
LINE
  5
3A8
100
AcDbEntity
  8
M0
  6
DIVIDE
100
AcDbLine
 10
179.922197
 20
425.753515
 11
179.922197
 21
479.753515
  0
LINE
  5
3A9
100
AcDbEntity
  8
M0
 62
     7
100
AcDbLine
 10
943.024756
 20
720.3974
 11
927.624747
 21
720.3974
  0
LINE
  5
3AA
100
AcDbEntity
  8
M0
 62
     7
100
AcDbLine
 10
927.624747
 20
718.3974
 11
943.024756
 21
718.3974
  0
LINE
  5
3AB
100
AcDbEntity
  8
M0
 62
     7
100
AcDbLine
 10
927.324735
 20
720.3974
 11
943.324735
 21
720.3974
  0
LINE
  5
3AC
100
AcDbEntity
  8
M0
 62
     7
100
AcDbLine
 10
943.024756
 20
718.3974
 11
943.024756
 21
720.3974
  0
LINE
  5
3AD
100
AcDbEntity
  8
M0
 62
     7
100
AcDbLine
 10
943.324735
 20
720.3974
 11
943.324735
 21
721.597397
  0
LINE
  5
3AE
100
AcDbEntity
  8
M0
 62
     7
100
AcDbLine
 10
927.324735
 20
721.597397
 11
927.324735
 21
720.3974
  0
LINE
  5
3AF
100
AcDbEntity
  8
M0
 62
     7
100
AcDbLine
 10
927.624747
 20
720.3974
 11
927.624747
 21
718.3974
  0
LINE
  5
3B0
100
AcDbEntity
  8
M0
 62
     7
100
AcDbLine
 10
934.170066
 20
718.3974
 11
935.324759
 21
720.3974
  0
LINE
  5
3B1
100
AcDbEntity
  8
M0
 62
     7
100
AcDbLine
 10
935.324759
 20
718.3974
 11
936.479453
 21
720.3974
  0
LINE
  5
3B2
100
AcDbEntity
  8
M0
 62
     4
100
AcDbLine
 10
469.922197
 20
330.753515
 11
469.922197
 21
236.247083
  0
LINE
  5
3B3
100
AcDbEntity
  8
M0
  6
DASHDOT
 62
     4
100
AcDbLine
 10
469.922197
 20
324.253515
 11
469.922197
 21
353.253515
  0
CIRCLE
  5
3B4
100
AcDbEntity
  8
M0
 62
     4
100
AcDbCircle
 10
469.922197
 20
338.753515
 40
8.0
  0
LINE
  5
3B5
100
AcDbEntity
  8
M0
 62
     4
100
AcDbLine
 10
463.422205
 20
335.000738
 11
469.92219
 21
331.247961
  0
LINE
  5
3B6
100
AcDbEntity
  8
M0
 62
     4
100
AcDbLine
 10
469.922205
 20
346.259054
 11
463.422205
 21
342.506277
  0
CIRCLE
  5
3B7
100
AcDbEntity
  8
M0
 62
     4
100
AcDbCircle
 10
469.922205
 20
338.753515
 40
6.5
  0
LINE
  5
3B8
100
AcDbEntity
  8
M0
  6
DASHDOT
 62
     4
100
AcDbLine
 10
455.422197
 20
338.753515
 11
484.422197
 21
338.753515
  0
LINE
  5
3B9
100
AcDbEntity
  8
M0
 62
     4
100
AcDbLine
 10
476.42219
 20
335.000738
 11
476.422205
 21
342.506277
  0
LINE
  5
3BA
100
AcDbEntity
  8
M0
 62
     4
100
AcDbLine
 10
469.92219
 20
331.247961
 11
476.42219
 21
335.000738
  0
LINE
  5
3BB
100
AcDbEntity
  8
M0
 62
     4
100
AcDbLine
 10
476.422205
 20
342.506277
 11
469.922205
 21
346.259054
  0
LINE
  5
3BC
100
AcDbEntity
  8
M0
 62
     7
100
AcDbLine
 10
480.6222
 20
716.8974
 11
465.222191
 21
716.8974
  0
LINE
  5
3BD
100
AcDbEntity
  8
M0
 62
     7
100
AcDbLine
 10
465.222191
 20
714.8974
 11
480.6222
 21
714.8974
  0
LINE
  5
3BE
100
AcDbEntity
  8
M0
 62
     7
100
AcDbLine
 10
464.922179
 20
716.8974
 11
480.922179
 21
716.8974
  0
LINE
  5
3BF
100
AcDbEntity
  8
M0
 62
     7
100
AcDbLine
 10
480.6222
 20
714.8974
 11
480.6222
 21
716.8974
  0
LINE
  5
3C0
100
AcDbEntity
  8
M0
 62
     7
100
AcDbLine
 10
480.922179
 20
716.8974
 11
480.922179
 21
718.097397
  0
LINE
  5
3C1
100
AcDbEntity
  8
M0
 62
     7
100
AcDbLine
 10
464.922179
 20
718.097397
 11
464.922179
 21
716.8974
  0
LINE
  5
3C2
100
AcDbEntity
  8
M0
 62
     7
100
AcDbLine
 10
465.222191
 20
716.8974
 11
465.222191
 21
714.8974
  0
LINE
  5
3C3
100
AcDbEntity
  8
M0
 62
     7
100
AcDbLine
 10
471.76751
 20
714.8974
 11
472.922203
 21
716.8974
  0
LINE
  5
3C4
100
AcDbEntity
  8
M0
 62
     7
100
AcDbLine
 10
472.922203
 20
714.8974
 11
474.076897
 21
716.8974
  0
LINE
  5
3C5
100
AcDbEntity
  8
M0
 62
     4
100
AcDbLine
 10
469.169435
 20
710.390793
 11
469.169435
 21
714.897397
  0
LINE
  5
3C6
100
AcDbEntity
  8
M0
 62
     4
100
AcDbLine
 10
476.674974
 20
710.390793
 11
476.674974
 21
714.897397
  0
LINE
  5
3C7
100
AcDbEntity
  8
M0
 62
     4
100
AcDbLine
 10
465.421205
 20
714.897397
 11
465.421205
 21
710.390793
  0
LINE
  5
3C8
100
AcDbEntity
  8
M0
 62
     4
100
AcDbLine
 10
480.423204
 20
710.390802
 11
480.423204
 21
714.897397
  0
LINE
  5
3C9
100
AcDbEntity
  8
M0
  6
DASHDOT
 62
     4
100
AcDbLine
 10
472.922197
 20
699.6974
 11
472.922197
 21
724.897397
  0
ARC
  5
3CA
100
AcDbEntity
  8
M0
 62
     4
100
AcDbCircle
 10
466.918581
 20
713.6974
 40
4.0
100
AcDbArc
 50
270.0
 51
304.243644
  0
ARC
  5
3CB
100
AcDbEntity
  8
M0
 62
     4
100
AcDbCircle
 10
478.925814
 20
713.6974
 40
4.0
100
AcDbArc
 50
235.755784
 51
270.0
  0
ARC
  5
3CC
100
AcDbEntity
  8
M0
 62
     4
100
AcDbCircle
 10
472.922205
 20
720.199433
 40
10.502033
100
AcDbArc
 50
249.063198
 51
290.93668
  0
LINE
  5
3CD
100
AcDbEntity
  8
M0
 62
     4
100
AcDbLine
 10
465.421205
 20
710.390793
 11
466.622198
 21
709.697401
  0
LINE
  5
3CE
100
AcDbEntity
  8
M0
 62
     4
100
AcDbLine
 10
480.423189
 20
710.390793
 11
479.222196
 21
709.697401
  0
LINE
  5
3CF
100
AcDbEntity
  8
M0
 62
     4
100
AcDbLine
 10
466.622198
 20
709.6974
 11
479.222196
 21
709.6974
  0
LINE
  5
3D0
100
AcDbEntity
  8
M1
 62
     2
100
AcDbLine
 10
57.142858
 20
57.142858
 11
57.142858
 21
1628.571456
  0
LINE
  5
3D1
100
AcDbEntity
  8
M1
 62
     2
100
AcDbLine
 10
57.142858
 20
1628.571456
 11
1142.857162
 21
1628.571456
  0
LINE
  5
3D2
100
AcDbEntity
  8
M1
 62
     2
100
AcDbLine
 10
1142.857162
 20
1628.571456
 11
1142.857162
 21
57.142858
  0
LINE
  5
3D3
100
AcDbEntity
  8
M1
 62
     2
100
AcDbLine
 10
1142.857162
 20
57.142858
 11
57.142858
 21
57.142858
  0
LINE
  5
3D4
100
AcDbEntity
  8
M1
 62
     2
100
AcDbLine
 10
1142.857162
 20
114.285716
 11
571.428581
 21
114.285716
  0
LINE
  5
3D5
100
AcDbEntity
  8
M1
 62
     2
100
AcDbLine
 10
1142.857162
 20
171.428574
 11
571.428581
 21
171.428574
  0
LINE
  5
3D6
100
AcDbEntity
  8
M1
 62
     2
100
AcDbLine
 10
1142.857162
 20
228.571432
 11
571.428581
 21
228.571432
  0
LINE
  5
3D7
100
AcDbEntity
  8
M1
 62
     2
100
AcDbLine
 10
571.428581
 20
57.142858
 11
571.428581
 21
228.571432
  0
TEXT
  5
3D8
100
AcDbEntity
  8
M1
 62
     2
100
AcDbText
 10
585.714296
 20
71.428573
 40
28.571428
  1
適　用；
 41
1.0
  7
STANDARD
100
AcDbText
  0
TEXT
  5
3D9
100
AcDbEntity
  8
M1
 62
     2
100
AcDbText
 10
585.714296
 20
185.714289
 40
28.571428
  1
登録名：
 41
1.0
  7
STANDARD
100
AcDbText
  0
TEXT
  5
3DA
100
AcDbEntity
  8
M1
 62
     2
100
AcDbText
 10
722.857155
 20
185.714289
 40
28.571428
  1
ＤＭＳＨ３００ＣＴＲ００
 41
0.5
  7
STANDARD
100
AcDbText
  0
TEXT
  5
3DB
100
AcDbEntity
  8
M1
 62
     2
100
AcDbText
 10
585.714296
 20
128.571431
 40
28.571428
  1
形　式；
 41
1.0
  7
STANDARD
100
AcDbText
  0
TEXT
  5
3DC
100
AcDbEntity
  8
M1
 62
     2
100
AcDbText
 10
722.857155
 20
128.571431
 40
28.571428
  1
ＳＨ３００Ｃ－Ｔ，ＳＨ４００Ｃ－Ｔ
 41
0.5
  7
STANDARD
100
AcDbText
  0
ENDSEC
  0
SECTION
  2
OBJECTS
  0
DICTIONARY
  5
C
100
AcDbDictionary
  3
ACAD_GROUP
350
D
  3
ACAD_MLINESTYLE
350
E
  0
DICTIONARY
  5
D
102
{ACAD_REACTORS
330
C
102
}
100
AcDbDictionary
  0
DICTIONARY
  5
E
102
{ACAD_REACTORS
330
C
102
}
100
AcDbDictionary
  3
STANDARD
350
13
  0
MLINESTYLE
  5
13
102
{ACAD_REACTORS
330
E
102
}
100
AcDbMlineStyle
  2
STANDARD
 70
     0
  3

 62
     0
 51
90.0
 52
90.0
 71
     2
 49
0.5
 62
   256
  6
BYLAYER
 49
-0.5
 62
   256
  6
BYLAYER
  0
ENDSEC
  0
EOF
