  0
SECTION
  2
HEADER
  9
$ACADVER
  1
AC1014
  9
$INSBASE
 10
0.000000
 20
0.000000
 30
0.0
  9
$VIEWCTR
 10
7.531722
 20
4.5
  9
$VIEWSIZE
 40
9.0
  9
$SNAPMODE
 70
     0
  9
$SNAPUNIT
 10
1.0
 20
1.0
  9
$SNAPBASE
 10
0.0
 20
0.0
  9
$SNAPANG
 50
0.0
  9
$SNAPSTYLE
 70
     0
  9
$SNAPISOPAIR
 70
     0
  9
$GRIDMODE
 70
     0
  9
$GRIDUNIT
 10
0.0
 20
0.0
  9
$ORTHOMODE
 70
     0
  9
$REGENMODE
 70
     1
  9
$FILLMODE
 70
     1
  9
$QTEXTMODE
 70
     0
  9
$DRAGMODE
 70
     2
  9
$LTSCALE
  40
     1.000000
  9
$OSMODE
 70
     0
  9
$ATTMODE
 70
     1
  9
$TEXTSIZE
 40
0.2
  9
$TRACEWID
 40
0.05
  9
$TEXTSTYLE
  7
STANDARD
  9
$CELTYPE
  6
BYLAYER
  9
$CECOLOR
 62
   256
  9
$DIMSCALE
 40
1.0
  9
$DIMASZ
 40
0.18
  9
$DIMEXO
 40
0.0625
  9
$DIMDLI
 40
0.38
  9
$DIMRND
 40
0.0
  9
$DIMDLE
 40
0.0
  9
$DIMEXE
 40
0.18
  9
$DIMTP
 40
0.0
  9
$DIMTM
 40
0.0
  9
$DIMTXT
 40
0.18
  9
$DIMCEN
 40
0.09
  9
$DIMTSZ
 40
0.0
  9
$DIMTOL
 70
     0
  9
$DIMLIM
 70
     0
  9
$DIMTIH
 70
     1
  9
$DIMTOH
 70
     1
  9
$DIMSE1
 70
     0
  9
$DIMSE2
 70
     0
  9
$DIMTAD
 70
     0
  9
$DIMZIN
 70
     0
  9
$DIMBLK
  1

  9
$LUNITS
 70
     2
  9
$LUPREC
 70
     4
  9
$AXISMODE
 70
     0
  9
$AXISUNIT
 10
0.0
 20
0.0
  9
$SKETCHINC
 40
0.1
  9
$FILLETRAD
 40
0.0
  9
$AUNITS
 70
     0
  9
$AUPREC
 70
     0
  9
$MENU
  1
ACAD
  9
$ELEVATION
 40
0.0
  9
$THICKNESS
 40
0.0
  9
$VIEWDIR
 10
0.0
 20
0.0
 30
1.0
  9
$LIMCHECK
 70
     0
  9
$BLIPMODE
 70
     1
  9
$CHAMFERA
 40
0.0
  9
$CHAMFERB
 40
0.0
  9
$FASTZOOM
 70
     1
  9
$SKPOLY
 70
     0
  9
$TDCREATE
 40
0000000.0000000000
  9
$TDUPDATE
 40
0000000.0000000000
  9
$TDINDWG
 40
0.0000000000
  9
$TDUSRTIMER
 40
0.0000000000
  9
$USRTIMER
 70
     1
  9
$ANGBASE
 50
0.0
  9
$ANGDIR
 70
     0
  9
$PDMODE
 70
     0
  9
$PDSIZE
 40
0.0
  9
$PLINEWID
 40
0.0
  9
$COORDS
 70
     0
  9
$USERI1
 70
     0
  9
$USERI2
 70
     0
  9
$USERI3
 70
     0
  9
$USERI4
 70
     0
  9
$USERI5
 70
     0
  9
$USERR1
 40
0.0
  9
$USERR2
 40
0.0
  9
$USERR3
 40
0.0
  9
$USERR4
 40
0.0
  9
$USERR5
 40
0.0
  9
$CLAYER
  8
M0
  9
$EXTMIN
 10
99.999999
 20
99.999999
  9
$EXTMAX
 10
1999.99997
 20
2849.999958
  9
$LIMMIN
 10
0.0
 20
0.0
  9
$LIMMAX
 10
210.0
 20
297.0
  9
$HANDSEED
  5
238
  0
ENDSEC
  0
SECTION
  2
CLASSES
  0
ENDSEC
  0
SECTION
  2
TABLES
  0
TABLE
  2
VPORT
  5
8
100
AcDbSymbolTable
 70
     2
  0
VPORT
  5
14
100
AcDbSymbolTableRecord
100
AcDbViewportTableRecord
  2
*ACTIVE
 70
     0
 10
0.0
 20
0.0
 11
1.0
 21
1.0
 12
484.0
 22
297.0
 13
0.0
 23
0.0
 14
1.0
 24
1.0
 15
0.0
 25
0.0
 16
0.0
 26
0.0
 36
1.0
 17
0.0
 27
0.0
 37
0.0
 40
594.0
 41
2.0
 42
50.0
 43
0.0
 44
0.0
 50
0.0
 51
0.0
 71
     0
 72
   100
 73
     1
 74
     1
 75
     0
 76
     0
 77
     0
 78
     0
  0
ENDTAB
  0
TABLE
  2
LTYPE
  5
5
100
AcDbSymbolTable
 70
     5
  0
LTYPE
  5
15
100
AcDbSymbolTableRecord
100
AcDbLinetypeTableRecord
  2
BYBLOCK
 70
     0
  3

 72
    65
 73
     0
 40
0.0
  0
LTYPE
  5
16
100
AcDbSymbolTableRecord
100
AcDbLinetypeTableRecord
  2
BYLAYER
 70
     0
  3

 72
    65
 73
     0
 40
0.0
  0
LTYPE
  5
17
100
AcDbSymbolTableRecord
100
AcDbLinetypeTableRecord
  2
CONTINUOUS
 70
    64
  3
Solid line
 72
    65
 73
     0
 40
0.0
  0
LTYPE
  5
18
100
AcDbSymbolTableRecord
100
AcDbLinetypeTableRecord
  2
DASHED
 70
    64
  3
__ __ __ __ __ __ __ __ __ __ __ __ __ __ __ __
 72
    65
 73
     2
 40
0.75
 49
0.5
 74
     0
 49
-0.25
 74
     0
  0
LTYPE
  5
19
100
AcDbSymbolTableRecord
100
AcDbLinetypeTableRecord
  2
DASHDOT
 70
    64
  3
__ . __ . __ . __ . __ . __ . __ . __ . __ . __
 72
    65
 73
     4
 40
1.0
 49
0.5
 74
     0
 49
-0.25
 74
     0
 49
0.0
 74
     0
 49
-0.25
 74
     0
  0
LTYPE
  5
1A
100
AcDbSymbolTableRecord
100
AcDbLinetypeTableRecord
  2
DIVIDE
 70
    64
  3
____ . . ____ . . ____ . . ____ . . ____ . . __
 72
    65
 73
     6
 40
1.25
 49
0.5
 74
     0
 49
-0.25
 74
     0
 49
0.0
 74
     0
 49
-0.25
 74
     0
 49
0.0
 74
     0
 49
-0.25
 74
     0
  0
LTYPE
  5
1B
100
AcDbSymbolTableRecord
100
AcDbLinetypeTableRecord
  2
DOT
 70
    64
  3
. . . . . . . . . . . . . . . . . . . . . . . .
 72
    65
 73
     2
 40
0.25
 49
0.0
 74
     0
 49
-0.25
 74
     0
  0
ENDTAB
  0
TABLE
  2
LAYER
  5
2
100
AcDbSymbolTable
 70
   102
  0
LAYER
  5
F
100
AcDbSymbolTableRecord
100
AcDbLayerTableRecord
  2
0
 70
     0
 62
     7
  6
CONTINUOUS
  0
LAYER
  5
1C
100
AcDbSymbolTableRecord
100
AcDbLayerTableRecord
  2
DEFPOINTS
 70
     0
 62
     7
  6
CONTINUOUS
  0
LAYER
  5
1D
100
AcDbSymbolTableRecord
100
AcDbLayerTableRecord
  2
M0
 70
     0
 62
     3
  6
CONTINUOUS
  0
LAYER
  5
1E
100
AcDbSymbolTableRecord
100
AcDbLayerTableRecord
  2
M1
 70
     0
 62
     3
  6
CONTINUOUS
  0
LAYER
  5
1F
100
AcDbSymbolTableRecord
100
AcDbLayerTableRecord
  2
DD0
 70
     0
 62
     4
  6
CONTINUOUS
  0
ENDTAB
  0
TABLE
  2
STYLE
  5
3
100
AcDbSymbolTable
 70
     2
  0
STYLE
  5
10
100
AcDbSymbolTableRecord
100
AcDbTextStyleTableRecord
  2
STANDARD
 70
     0
 40
0.0
 41
1.0
 50
0.0
 71
     0
 42
0.2
  3
txt
  4
BIGFONT
  0
ENDTAB
  0
TABLE
  2
VIEW
  5
6
100
AcDbSymbolTable
 70
     0
  0
ENDTAB
  0
TABLE
  2
UCS
  5
7
100
AcDbSymbolTable
 70
     0
  0
ENDTAB
  0
TABLE
  2
APPID
  5
9
100
AcDbSymbolTable
 70
     1
  0
APPID
  5
11
100
AcDbSymbolTableRecord
100
AcDbRegAppTableRecord
  2
ACAD
 70
     0
  0
ENDTAB
  0
TABLE
  2
DIMSTYLE
  5
A
100
AcDbSymbolTable
 70
     2
  0
DIMSTYLE
105
26
100
AcDbSymbolTableRecord
100
AcDbDimStyleTableRecord
  2
STANDARD
 70
     0
  3

  4

  5

  6
_OPEN
  7
_OPEN
 40
1.0
 41
30.0
 42
1.0
 43
8.0
 44
1.0
 45
0.0
 46
0.0
 47
0.0
 48
0.0
140
31.5
141
0.09
142
0.0
143
0.03937
144
1.0
145
0.0
146
1.0
147
0.6
 71
     0
 72
     0
 73
     1
 74
     1
 75
     0
 76
     0
 77
     3
 78
     8
170
     0
171
     2
172
     0
173
     1
174
     0
175
     0
176
     0
177
     0
178
     0
270
     2
271
     2
272
     4
273
     2
274
     2
340
10
275
     0
280
     0
281
     0
282
     0
283
     1
284
     0
285
     0
286
     0
287
     3
288
     0
  0
DIMSTYLE
105
27
100
AcDbSymbolTableRecord
100
AcDbDimStyleTableRecord
  2
LEADSTYL
 70
     0
  3

  4

  5

  6
_OPEN
  7
_OPEN
 40
1.0
 41
30.0
 42
0.0625
 43
0.38
 44
0.18
 45
0.0
 46
0.0
 47
0.0
 48
0.0
140
31.5
141
0.09
142
0.0
143
25.4
144
1.0
145
0.0
146
1.0
147
0.6
 71
     0
 72
     0
 73
     1
 74
     1
 75
     0
 76
     0
 77
     0
 78
     0
170
     0
171
     2
172
     0
173
     1
174
     0
175
     0
176
     0
177
     0
178
     0
270
     2
271
     4
272
     4
273
     2
274
     2
340
10
275
     0
280
     0
281
     0
282
     0
283
     1
284
     0
285
     0
286
     0
287
     3
288
     0
  0
ENDTAB
  0
TABLE
  2
BLOCK_RECORD
  5
1
100
AcDbSymbolTable
 70
    15
  0
BLOCK_RECORD
  5
20
100
AcDbSymbolTableRecord
100
AcDbBlockTableRecord
  2
*MODEL_SPACE
  0
BLOCK_RECORD
  5
23
100
AcDbSymbolTableRecord
100
AcDbBlockTableRecord
  2
*PAPER_SPACE
  0
BLOCK_RECORD
  5
28
100
AcDbSymbolTableRecord
100
AcDbBlockTableRecord
  2
_NONE
  0
BLOCK_RECORD
  5
2C
100
AcDbSymbolTableRecord
100
AcDbBlockTableRecord
  2
_OPEN
  0
BLOCK_RECORD
  5
32
100
AcDbSymbolTableRecord
100
AcDbBlockTableRecord
  2
_CLOSED
  0
BLOCK_RECORD
  5
39
100
AcDbSymbolTableRecord
100
AcDbBlockTableRecord
  2
_ORIGIN
  0
BLOCK_RECORD
  5
3E
100
AcDbSymbolTableRecord
100
AcDbBlockTableRecord
  2
_DOT
  0
BLOCK_RECORD
  5
46
100
AcDbSymbolTableRecord
100
AcDbBlockTableRecord
  2
_OBLIQUE
  0
BLOCK_RECORD
  5
4A
100
AcDbSymbolTableRecord
100
AcDbBlockTableRecord
  2
DIMS0
  0
BLOCK_RECORD
  5
56
100
AcDbSymbolTableRecord
100
AcDbBlockTableRecord
  2
DIMS1
  0
BLOCK_RECORD
  5
62
100
AcDbSymbolTableRecord
100
AcDbBlockTableRecord
  2
DIMS2
  0
BLOCK_RECORD
  5
6E
100
AcDbSymbolTableRecord
100
AcDbBlockTableRecord
  2
DIMS3
  0
BLOCK_RECORD
  5
7A
100
AcDbSymbolTableRecord
100
AcDbBlockTableRecord
  2
DIMS4
  0
BLOCK_RECORD
  5
86
100
AcDbSymbolTableRecord
100
AcDbBlockTableRecord
  2
DIMS5
  0
BLOCK_RECORD
  5
92
100
AcDbSymbolTableRecord
100
AcDbBlockTableRecord
  2
DIMS6
  0
BLOCK_RECORD
  5
9B
100
AcDbSymbolTableRecord
100
AcDbBlockTableRecord
  2
DIMS7
  0
BLOCK_RECORD
  5
A7
100
AcDbSymbolTableRecord
100
AcDbBlockTableRecord
  2
DIMS8
  0
ENDTAB
  0
ENDSEC
  0
SECTION
  2
BLOCKS
  0
BLOCK
  5
21
100
AcDbEntity
  8
0
100
AcDbBlockBegin
  2
*MODEL_SPACE
 70
     0
 10
0.0
 20
0.0
 30
0.0
  3
*MODEL_SPACE
  1

  0
ENDBLK
  5
22
100
AcDbEntity
  8
0
100
AcDbBlockEnd
  0
BLOCK
  5
24
100
AcDbEntity
 67
     1
  8
0
100
AcDbBlockBegin
  2
*PAPER_SPACE
 70
     0
 10
0.0
 20
0.0
 30
0.0
  3
*PAPER_SPACE
  1

  0
ENDBLK
  5
25
100
AcDbEntity
 67
     1
  8
0
100
AcDbBlockEnd
  0
BLOCK
  5
29
100
AcDbEntity
  8
0
100
AcDbBlockBegin
  2
_NONE
 70
     0
 10
0.0
 20
0.0
  0
CIRCLE
  5
2A
100
AcDbEntity
  8
0
 62
     0
100
AcDbCircle
 10
0.0
 20
0.0
 40
0.25
  0
ENDBLK
  5
2B
100
AcDbEntity
  8
0
100
AcDbBlockEnd
  0
BLOCK
  5
2D
100
AcDbEntity
  8
0
100
AcDbBlockBegin
  2
_OPEN
 70
     0
 10
0.0
 20
0.0
  0
LINE
  5
2E
100
AcDbEntity
  8
0
 62
     0
100
AcDbLine
 10
-0.965926
 20
0.258819
 11
0.0
 21
0.0
  0
LINE
  5
2F
100
AcDbEntity
  8
0
 62
     0
100
AcDbLine
 10
0.0
 20
0.0
 11
-0.965926
 21
-0.258819
  0
LINE
  5
30
100
AcDbEntity
  8
0
 62
     0
100
AcDbLine
 10
0.0
 20
0.0
 11
-1.0
 21
0.0
  0
ENDBLK
  5
31
100
AcDbEntity
  8
0
100
AcDbBlockEnd
  0
BLOCK
  5
33
100
AcDbEntity
  8
0
100
AcDbBlockBegin
  2
_CLOSED
 70
     0
 10
0.0
 20
0.0
  0
LINE
  5
34
100
AcDbEntity
  8
0
 62
     0
100
AcDbLine
 10
-0.965926
 20
0.258819
 11
0.0
 21
0.0
  0
LINE
  5
35
100
AcDbEntity
  8
0
 62
     0
100
AcDbLine
 10
0.0
 20
0.0
 11
-0.965926
 21
-0.258819
  0
LINE
  5
36
100
AcDbEntity
  8
0
 62
     0
100
AcDbLine
 10
-0.965926
 20
0.258819
 11
-0.965926
 21
-0.258819
  0
LINE
  5
37
100
AcDbEntity
  8
0
 62
     0
100
AcDbLine
 10
0.0
 20
0.0
 11
-1.0
 21
0.0
  0
ENDBLK
  5
38
100
AcDbEntity
  8
0
100
AcDbBlockEnd
  0
BLOCK
  5
3A
100
AcDbEntity
  8
0
100
AcDbBlockBegin
  2
_ORIGIN
 70
     0
 10
0.0
 20
0.0
  0
CIRCLE
  5
3B
100
AcDbEntity
  8
0
 62
     0
100
AcDbCircle
 10
0.0
 20
0.0
 40
0.5
  0
LINE
  5
3C
100
AcDbEntity
  8
0
 62
     0
100
AcDbLine
 10
0.0
 20
0.0
 11
-1.0
 21
0.0
  0
ENDBLK
  5
3D
100
AcDbEntity
  8
0
100
AcDbBlockEnd
  0
BLOCK
  5
3F
100
AcDbEntity
  8
0
100
AcDbBlockBegin
  2
_DOT
 70
     0
 10
0.0
 20
0.0
  0
POLYLINE
  5
40
100
AcDbEntity
  8
0
 62
     0
100
AcDb2dPolyline
 66
     1
 70
     1
 40
0.5
 41
0.5
  0
VERTEX
  5
41
100
AcDbEntity
  8
0
 62
     0
100
AcDbVertex
100
AcDb2dVertex
 10
-0.25
 20
0.0
 42
1.0
  0
VERTEX
  5
42
100
AcDbEntity
  8
0
 62
     0
100
AcDbVertex
100
AcDb2dVertex
 10
0.25
 20
0.0
 42
1.0
  0
SEQEND
  5
43
100
AcDbEntity
  8
0
 62
     0
  0
LINE
  5
44
100
AcDbEntity
  8
0
 62
     0
100
AcDbLine
 10
-0.5
 20
0.0
 11
-1.0
 21
0.0
  0
ENDBLK
  5
45
100
AcDbEntity
  8
0
100
AcDbBlockEnd
  0
BLOCK
  5
47
100
AcDbEntity
  8
0
100
AcDbBlockBegin
  2
_OBLIQUE
 70
     0
 10
0.0
 20
0.0
  0
LINE
  5
48
100
AcDbEntity
  8
0
 62
     0
100
AcDbLine
 10
-0.353553
 20
-0.353553
 11
0.353553
 21
0.353553
  0
ENDBLK
  5
49
100
AcDbEntity
  8
0
100
AcDbBlockEnd
  0
BLOCK
  5
4B
100
AcDbEntity
  8
DD0
100
AcDbBlockBegin
  2
DIMS0
 70
     0
 10
0.0
 20
0.0
  0
LINE
  5
4C
100
AcDbEntity
  8
DD0
100
AcDbLine
 10
281.522213
 20
2212.589384
 11
281.522213
 21
2407.972071
  0
LINE
  5
4D
100
AcDbEntity
  8
DD0
100
AcDbLine
 10
881.522204
 20
2212.589384
 11
881.522204
 21
2407.972071
  0
LINE
  5
4E
100
AcDbEntity
  8
DD0
100
AcDbLine
 10
310.499987
 20
2405.736643
 11
281.522213
 21
2397.972071
  0
LINE
  5
4F
100
AcDbEntity
  8
DD0
100
AcDbLine
 10
281.522213
 20
2397.972071
 11
310.499987
 21
2390.2075
  0
LINE
  5
50
100
AcDbEntity
  8
DD0
100
AcDbLine
 10
852.544429
 20
2390.2075
 11
881.522204
 21
2397.972071
  0
LINE
  5
51
100
AcDbEntity
  8
DD0
100
AcDbLine
 10
881.522204
 20
2397.972071
 11
852.544429
 21
2405.736643
  0
LINE
  5
52
100
AcDbEntity
  8
DD0
100
AcDbLine
 10
281.522213
 20
2397.972071
 11
881.522204
 21
2397.972071
  0
TEXT
  5
53
100
AcDbEntity
  8
DD0
100
AcDbText
 10
524.905552
 20
2407.972071
 40
39.999999
  1
６００
 41
0.833333
  7
STANDARD
100
AcDbText
  0
ENDBLK
  5
54
100
AcDbEntity
  8
DD0
100
AcDbBlockEnd
  0
BLOCK
  5
57
100
AcDbEntity
  8
DD0
100
AcDbBlockBegin
  2
DIMS1
 70
     0
 10
0.0
 20
0.0
  0
LINE
  5
58
100
AcDbEntity
  8
DD0
100
AcDbLine
 10
891.522204
 20
2202.589384
 11
1112.949431
 21
2202.589384
  0
LINE
  5
59
100
AcDbEntity
  8
DD0
100
AcDbLine
 10
891.522204
 20
1252.589322
 11
1112.949431
 21
1252.589322
  0
LINE
  5
5A
100
AcDbEntity
  8
DD0
100
AcDbLine
 10
1110.714003
 20
2173.611609
 11
1102.949431
 21
2202.589384
  0
LINE
  5
5B
100
AcDbEntity
  8
DD0
100
AcDbLine
 10
1102.949431
 20
2202.589384
 11
1095.18486
 21
2173.611609
  0
LINE
  5
5C
100
AcDbEntity
  8
DD0
100
AcDbLine
 10
1095.18486
 20
1281.567096
 11
1102.949431
 21
1252.589322
  0
LINE
  5
5D
100
AcDbEntity
  8
DD0
100
AcDbLine
 10
1102.949431
 20
1252.589322
 11
1110.714003
 21
1281.567096
  0
LINE
  5
5E
100
AcDbEntity
  8
DD0
100
AcDbLine
 10
1102.949431
 20
2202.589384
 11
1102.949431
 21
1252.589322
  0
TEXT
  5
5F
100
AcDbEntity
  8
DD0
100
AcDbText
 10
1092.949431
 20
1670.972658
 40
39.999999
  1
９５０
 50
90.000003
 41
0.833333
  7
STANDARD
100
AcDbText
  0
ENDBLK
  5
60
100
AcDbEntity
  8
DD0
100
AcDbBlockEnd
  0
BLOCK
  5
63
100
AcDbEntity
  8
DD0
100
AcDbBlockBegin
  2
DIMS2
 70
     0
 10
0.0
 20
0.0
  0
LINE
  5
64
100
AcDbEntity
  8
DD0
100
AcDbLine
 10
891.522204
 20
2202.589384
 11
1035.052856
 21
2202.589384
  0
LINE
  5
65
100
AcDbEntity
  8
DD0
100
AcDbLine
 10
869.522234
 20
2127.589385
 11
1035.052856
 21
2127.589385
  0
LINE
  5
66
100
AcDbEntity
  8
DD0
100
AcDbLine
 10
1017.288285
 20
2231.567158
 11
1025.052856
 21
2202.589384
  0
LINE
  5
67
100
AcDbEntity
  8
DD0
100
AcDbLine
 10
1025.052856
 20
2202.589384
 11
1032.817428
 21
2231.567158
  0
LINE
  5
68
100
AcDbEntity
  8
DD0
100
AcDbLine
 10
1032.817428
 20
2098.611611
 11
1025.052856
 21
2127.589385
  0
LINE
  5
69
100
AcDbEntity
  8
DD0
100
AcDbLine
 10
1025.052856
 20
2127.589385
 11
1017.288285
 21
2098.611611
  0
LINE
  5
6A
100
AcDbEntity
  8
DD0
100
AcDbLine
 10
1025.052856
 20
2235.589383
 11
1025.052856
 21
2094.589386
  0
TEXT
  5
6B
100
AcDbEntity
  8
DD0
100
AcDbText
 10
1015.052857
 20
2128.472651
 40
39.999999
  1
７５
 50
90.000003
 41
0.833333
  7
STANDARD
100
AcDbText
  0
ENDBLK
  5
6C
100
AcDbEntity
  8
DD0
100
AcDbBlockEnd
  0
BLOCK
  5
6F
100
AcDbEntity
  8
DD0
100
AcDbBlockBegin
  2
DIMS3
 70
     0
 10
0.0
 20
0.0
  0
LINE
  5
70
100
AcDbEntity
  8
DD0
100
AcDbLine
 10
745.322255
 20
1242.589322
 11
1112.949431
 21
1242.589322
  0
LINE
  5
71
100
AcDbEntity
  8
DD0
100
AcDbLine
 10
891.522204
 20
1252.589322
 11
1112.949431
 21
1252.589322
  0
LINE
  5
72
100
AcDbEntity
  8
DD0
100
AcDbLine
 10
1110.714003
 20
1213.611547
 11
1102.949431
 21
1242.589322
  0
LINE
  5
73
100
AcDbEntity
  8
DD0
100
AcDbLine
 10
1102.949431
 20
1242.589322
 11
1095.18486
 21
1213.611547
  0
LINE
  5
74
100
AcDbEntity
  8
DD0
100
AcDbLine
 10
1095.18486
 20
1281.567096
 11
1102.949431
 21
1252.589322
  0
LINE
  5
75
100
AcDbEntity
  8
DD0
100
AcDbLine
 10
1102.949431
 20
1252.589322
 11
1110.714003
 21
1281.567096
  0
LINE
  5
76
100
AcDbEntity
  8
DD0
100
AcDbLine
 10
1102.949431
 20
1119.589322
 11
1102.949431
 21
1285.589321
  0
TEXT
  5
77
100
AcDbEntity
  8
DD0
100
AcDbText
 10
1092.949431
 20
1127.272639
 40
39.999999
  1
１０
 50
90.000003
 41
0.833333
  7
STANDARD
100
AcDbText
  0
ENDBLK
  5
78
100
AcDbEntity
  8
DD0
100
AcDbBlockEnd
  0
BLOCK
  5
7B
100
AcDbEntity
  8
DD0
100
AcDbBlockBegin
  2
DIMS4
 70
     0
 10
0.0
 20
0.0
  0
LINE
  5
7C
100
AcDbEntity
  8
DD0
100
AcDbLine
 10
869.522234
 20
2127.589385
 11
1035.052856
 21
2127.589385
  0
LINE
  5
7D
100
AcDbEntity
  8
DD0
100
AcDbLine
 10
869.522234
 20
1327.589397
 11
1035.052856
 21
1327.589397
  0
LINE
  5
7E
100
AcDbEntity
  8
DD0
100
AcDbLine
 10
1032.817428
 20
2098.611611
 11
1025.052856
 21
2127.589385
  0
LINE
  5
7F
100
AcDbEntity
  8
DD0
100
AcDbLine
 10
1025.052856
 20
2127.589385
 11
1017.288285
 21
2098.611611
  0
LINE
  5
80
100
AcDbEntity
  8
DD0
100
AcDbLine
 10
1017.288285
 20
1356.567171
 11
1025.052856
 21
1327.589397
  0
LINE
  5
81
100
AcDbEntity
  8
DD0
100
AcDbLine
 10
1025.052856
 20
1327.589397
 11
1032.817428
 21
1356.567171
  0
LINE
  5
82
100
AcDbEntity
  8
DD0
100
AcDbLine
 10
1025.052856
 20
2127.589385
 11
1025.052856
 21
1327.589397
  0
TEXT
  5
83
100
AcDbEntity
  8
DD0
100
AcDbText
 10
1015.052857
 20
1670.972658
 40
39.999999
  1
８００
 50
90.000003
 41
0.833333
  7
STANDARD
100
AcDbText
  0
ENDBLK
  5
84
100
AcDbEntity
  8
DD0
100
AcDbBlockEnd
  0
BLOCK
  5
87
100
AcDbEntity
  8
DD0
100
AcDbBlockBegin
  2
DIMS5
 70
     0
 10
0.0
 20
0.0
  0
LINE
  5
88
100
AcDbEntity
  8
DD0
100
AcDbLine
 10
831.522204
 20
2165.589262
 11
831.522204
 21
2303.189358
  0
LINE
  5
89
100
AcDbEntity
  8
DD0
100
AcDbLine
 10
331.522212
 20
2165.589262
 11
331.522212
 21
2303.189358
  0
LINE
  5
8A
100
AcDbEntity
  8
DD0
100
AcDbLine
 10
802.54443
 20
2285.424786
 11
831.522204
 21
2293.189358
  0
LINE
  5
8B
100
AcDbEntity
  8
DD0
100
AcDbLine
 10
831.522204
 20
2293.189358
 11
802.54443
 21
2300.953929
  0
LINE
  5
8C
100
AcDbEntity
  8
DD0
100
AcDbLine
 10
360.499986
 20
2300.953929
 11
331.522212
 21
2293.189358
  0
LINE
  5
8D
100
AcDbEntity
  8
DD0
100
AcDbLine
 10
331.522212
 20
2293.189358
 11
360.499986
 21
2285.424786
  0
LINE
  5
8E
100
AcDbEntity
  8
DD0
100
AcDbLine
 10
831.522204
 20
2293.189358
 11
331.522212
 21
2293.189358
  0
TEXT
  5
8F
100
AcDbEntity
  8
DD0
100
AcDbText
 10
524.905552
 20
2303.189358
 40
39.999999
  1
５００
 41
0.833333
  7
STANDARD
100
AcDbText
  0
ENDBLK
  5
90
100
AcDbEntity
  8
DD0
100
AcDbBlockEnd
  0
BLOCK
  5
93
100
AcDbEntity
  8
DD0
100
AcDbBlockBegin
  2
DIMS6
 70
     0
 10
0.0
 20
0.0
  0
TEXT
  5
94
100
AcDbEntity
  8
DD0
100
AcDbText
 10
964.606626
 20
1022.05191
 40
39.999999
  1
４－Ｍ１２ボルト取付穴
 41
0.833333
  7
STANDARD
100
AcDbText
  0
LINE
  5
95
100
AcDbEntity
  8
DD0
100
AcDbLine
 10
852.4895
 20
1296.017203
 11
836.838138
 21
1321.610851
  0
LINE
  5
96
100
AcDbEntity
  8
DD0
100
AcDbLine
 10
836.838138
 20
1321.610851
 11
837.595791
 21
1291.62042
  0
LINE
  5
97
100
AcDbEntity
  8
DD0
100
AcDbLine
 10
836.838138
 20
1321.610851
 11
928.223253
 21
1012.051911
  0
LINE
  5
98
100
AcDbEntity
  8
DD0
100
AcDbLine
 10
928.223253
 20
1012.051911
 11
1434.223306
 21
1012.051911
  0
ENDBLK
  5
99
100
AcDbEntity
  8
DD0
100
AcDbBlockEnd
  0
BLOCK
  5
9C
100
AcDbEntity
  8
DD0
100
AcDbBlockBegin
  2
DIMS7
 70
     0
 10
0.0
 20
0.0
  0
LINE
  5
9D
100
AcDbEntity
  8
DD0
100
AcDbLine
 10
1691.522192
 20
2170.089384
 11
1691.522192
 21
2407.972071
  0
LINE
  5
9E
100
AcDbEntity
  8
DD0
100
AcDbLine
 10
1293.022289
 20
2212.589384
 11
1293.022289
 21
2407.972071
  0
LINE
  5
9F
100
AcDbEntity
  8
DD0
100
AcDbLine
 10
1662.544417
 20
2390.2075
 11
1691.522192
 21
2397.972071
  0
LINE
  5
A0
100
AcDbEntity
  8
DD0
100
AcDbLine
 10
1691.522192
 20
2397.972071
 11
1662.544417
 21
2405.736643
  0
LINE
  5
A1
100
AcDbEntity
  8
DD0
100
AcDbLine
 10
1322.000063
 20
2405.736643
 11
1293.022289
 21
2397.972071
  0
LINE
  5
A2
100
AcDbEntity
  8
DD0
100
AcDbLine
 10
1293.022289
 20
2397.972071
 11
1322.000063
 21
2390.2075
  0
LINE
  5
A3
100
AcDbEntity
  8
DD0
100
AcDbLine
 10
1691.522192
 20
2397.972071
 11
1293.022289
 21
2397.972071
  0
TEXT
  5
A4
100
AcDbEntity
  8
DD0
100
AcDbText
 10
1435.655584
 20
2407.972071
 40
39.999999
  1
４００
 41
0.833333
  7
STANDARD
100
AcDbText
  0
ENDBLK
  5
A5
100
AcDbEntity
  8
DD0
100
AcDbBlockEnd
  0
BLOCK
  5
A8
100
AcDbEntity
  8
DD0
100
AcDbBlockBegin
  2
DIMS8
 70
     0
 10
0.0
 20
0.0
  0
LINE
  5
A9
100
AcDbEntity
  8
DD0
100
AcDbLine
 10
1691.522192
 20
2170.089384
 11
1691.522192
 21
2304.089321
  0
LINE
  5
AA
100
AcDbEntity
  8
DD0
100
AcDbLine
 10
1680.222296
 20
2189.089323
 11
1680.222296
 21
2304.089321
  0
LINE
  5
AB
100
AcDbEntity
  8
DD0
100
AcDbLine
 10
1720.499966
 20
2301.853893
 11
1691.522192
 21
2294.089321
  0
LINE
  5
AC
100
AcDbEntity
  8
DD0
100
AcDbLine
 10
1691.522192
 20
2294.089321
 11
1720.499966
 21
2286.32475
  0
LINE
  5
AD
100
AcDbEntity
  8
DD0
100
AcDbLine
 10
1651.244521
 20
2286.32475
 11
1680.222296
 21
2294.089321
  0
LINE
  5
AE
100
AcDbEntity
  8
DD0
100
AcDbLine
 10
1680.222296
 20
2294.089321
 11
1651.244521
 21
2301.853893
  0
LINE
  5
AF
100
AcDbEntity
  8
DD0
100
AcDbLine
 10
1934.52218
 20
2294.089321
 11
1647.222296
 21
2294.089321
  0
TEXT
  5
B0
100
AcDbEntity
  8
DD0
100
AcDbText
 10
1727.905488
 20
2304.089321
 40
39.999999
  1
ｔ１１．３
 41
0.833333
  7
STANDARD
100
AcDbText
  0
ENDBLK
  5
B1
100
AcDbEntity
  8
DD0
100
AcDbBlockEnd
  0
ENDSEC
  0
SECTION
  2
ENTITIES
  0
INSERT
  5
55
100
AcDbEntity
  8
DD0
100
AcDbBlockReference
  2
DIMS0
 10
0.0
 20
0.0
  0
INSERT
  5
61
100
AcDbEntity
  8
DD0
100
AcDbBlockReference
  2
DIMS1
 10
0.0
 20
0.0
  0
INSERT
  5
6D
100
AcDbEntity
  8
DD0
100
AcDbBlockReference
  2
DIMS2
 10
0.0
 20
0.0
  0
INSERT
  5
79
100
AcDbEntity
  8
DD0
100
AcDbBlockReference
  2
DIMS3
 10
0.0
 20
0.0
  0
INSERT
  5
85
100
AcDbEntity
  8
DD0
100
AcDbBlockReference
  2
DIMS4
 10
0.0
 20
0.0
  0
INSERT
  5
91
100
AcDbEntity
  8
DD0
100
AcDbBlockReference
  2
DIMS5
 10
0.0
 20
0.0
  0
INSERT
  5
9A
100
AcDbEntity
  8
DD0
100
AcDbBlockReference
  2
DIMS6
 10
0.0
 20
0.0
  0
INSERT
  5
A6
100
AcDbEntity
  8
DD0
100
AcDbBlockReference
  2
DIMS7
 10
0.0
 20
0.0
  0
INSERT
  5
B2
100
AcDbEntity
  8
DD0
100
AcDbBlockReference
  2
DIMS8
 10
0.0
 20
0.0
  0
LINE
  5
B3
100
AcDbEntity
  8
M0
 62
     7
100
AcDbLine
 10
881.522217
 20
1252.589321
 11
881.522217
 21
2202.589321
  0
LINE
  5
B4
100
AcDbEntity
  8
M0
 62
     7
100
AcDbLine
 10
881.522217
 20
2202.589321
 11
281.522217
 21
2202.589321
  0
LINE
  5
B5
100
AcDbEntity
  8
M0
 62
     7
100
AcDbLine
 10
281.522217
 20
2202.589321
 11
281.522217
 21
1252.589321
  0
LINE
  5
B6
100
AcDbEntity
  8
M0
 62
     7
100
AcDbLine
 10
281.522217
 20
1252.589321
 11
881.522217
 21
1252.589321
  0
LINE
  5
B7
100
AcDbEntity
  8
M0
  6
DASHDOT
 62
     7
100
AcDbLine
 10
231.522218
 20
1727.589321
 11
931.522216
 21
1727.589321
  0
LINE
  5
B8
100
AcDbEntity
  8
M0
  6
DASHDOT
 62
     7
100
AcDbLine
 10
581.522217
 20
1202.589321
 11
581.522217
 21
2252.58932
  0
LINE
  5
B9
100
AcDbEntity
  8
M0
  6
DASHDOT
 62
     7
100
AcDbLine
 10
731.522217
 20
1217.589321
 11
731.522217
 21
1277.58932
  0
LINE
  5
BA
100
AcDbEntity
  8
M0
 62
     7
100
AcDbLine
 10
726.522217
 20
1243.789321
 11
727.722217
 21
1242.589321
  0
LINE
  5
BB
100
AcDbEntity
  8
M0
 62
     7
100
AcDbLine
 10
727.722217
 20
1242.589321
 11
735.322217
 21
1242.589321
  0
LINE
  5
BC
100
AcDbEntity
  8
M0
 62
     7
100
AcDbLine
 10
735.322217
 20
1242.589321
 11
736.522217
 21
1243.789321
  0
LINE
  5
BD
100
AcDbEntity
  8
M0
 62
     7
100
AcDbLine
 10
726.522217
 20
1243.789321
 11
736.522217
 21
1243.789321
  0
LINE
  5
BE
100
AcDbEntity
  8
M0
 62
     7
100
AcDbLine
 10
736.522217
 20
1249.589321
 11
726.522217
 21
1249.589321
  0
LINE
  5
BF
100
AcDbEntity
  8
M0
 62
     7
100
AcDbLine
 10
736.022217
 20
1249.589321
 11
736.022217
 21
1252.589321
  0
LINE
  5
C0
100
AcDbEntity
  8
M0
 62
     7
100
AcDbLine
 10
727.022217
 20
1249.589321
 11
727.022217
 21
1252.589321
  0
LINE
  5
C1
100
AcDbEntity
  8
M0
 62
     7
100
AcDbLine
 10
726.522217
 20
1249.589321
 11
726.522217
 21
1243.789321
  0
LINE
  5
C2
100
AcDbEntity
  8
M0
 62
     7
100
AcDbLine
 10
736.522217
 20
1243.789321
 11
736.522217
 21
1249.589321
  0
LINE
  5
C3
100
AcDbEntity
  8
M0
 62
     7
100
AcDbLine
 10
730.722217
 20
1243.789321
 11
730.722217
 21
1249.589321
  0
LINE
  5
C4
100
AcDbEntity
  8
M0
 62
     7
100
AcDbLine
 10
732.322217
 20
1243.789321
 11
732.322217
 21
1249.589321
  0
LINE
  5
C5
100
AcDbEntity
  8
M0
 62
     7
100
AcDbLine
 10
729.922217
 20
1243.789321
 11
729.922217
 21
1249.589321
  0
LINE
  5
C6
100
AcDbEntity
  8
M0
 62
     7
100
AcDbLine
 10
729.122217
 20
1243.789321
 11
729.122217
 21
1249.589321
  0
LINE
  5
C7
100
AcDbEntity
  8
M0
 62
     7
100
AcDbLine
 10
728.322217
 20
1243.789321
 11
728.322217
 21
1249.589321
  0
LINE
  5
C8
100
AcDbEntity
  8
M0
 62
     7
100
AcDbLine
 10
727.522217
 20
1243.789321
 11
727.522217
 21
1249.589321
  0
LINE
  5
C9
100
AcDbEntity
  8
M0
 62
     7
100
AcDbLine
 10
731.522217
 20
1243.789321
 11
731.522217
 21
1249.589321
  0
LINE
  5
CA
100
AcDbEntity
  8
M0
 62
     7
100
AcDbLine
 10
733.122217
 20
1243.789321
 11
733.122217
 21
1249.589321
  0
LINE
  5
CB
100
AcDbEntity
  8
M0
 62
     7
100
AcDbLine
 10
733.922217
 20
1243.789321
 11
733.922217
 21
1249.589321
  0
LINE
  5
CC
100
AcDbEntity
  8
M0
 62
     7
100
AcDbLine
 10
734.722217
 20
1243.789321
 11
734.722217
 21
1249.589321
  0
LINE
  5
CD
100
AcDbEntity
  8
M0
 62
     7
100
AcDbLine
 10
735.522217
 20
1243.789321
 11
735.522217
 21
1249.589321
  0
LINE
  5
CE
100
AcDbEntity
  8
M0
 62
     7
100
AcDbLine
 10
736.022217
 20
1252.589321
 11
727.022217
 21
1252.589321
  0
LINE
  5
CF
100
AcDbEntity
  8
M0
  6
DASHDOT
 62
     7
100
AcDbLine
 10
431.522217
 20
1217.589321
 11
431.522217
 21
1277.58932
  0
LINE
  5
D0
100
AcDbEntity
  8
M0
 62
     7
100
AcDbLine
 10
426.522217
 20
1243.789321
 11
427.722217
 21
1242.589321
  0
LINE
  5
D1
100
AcDbEntity
  8
M0
 62
     7
100
AcDbLine
 10
427.722217
 20
1242.589321
 11
435.322217
 21
1242.589321
  0
LINE
  5
D2
100
AcDbEntity
  8
M0
 62
     7
100
AcDbLine
 10
435.322217
 20
1242.589321
 11
436.522217
 21
1243.789321
  0
LINE
  5
D3
100
AcDbEntity
  8
M0
 62
     7
100
AcDbLine
 10
426.522217
 20
1243.789321
 11
436.522217
 21
1243.789321
  0
LINE
  5
D4
100
AcDbEntity
  8
M0
 62
     7
100
AcDbLine
 10
436.522217
 20
1249.589321
 11
426.522217
 21
1249.589321
  0
LINE
  5
D5
100
AcDbEntity
  8
M0
 62
     7
100
AcDbLine
 10
436.022217
 20
1249.589321
 11
436.022217
 21
1252.589321
  0
LINE
  5
D6
100
AcDbEntity
  8
M0
 62
     7
100
AcDbLine
 10
427.022217
 20
1249.589321
 11
427.022217
 21
1252.589321
  0
LINE
  5
D7
100
AcDbEntity
  8
M0
 62
     7
100
AcDbLine
 10
426.522217
 20
1249.589321
 11
426.522217
 21
1243.789321
  0
LINE
  5
D8
100
AcDbEntity
  8
M0
 62
     7
100
AcDbLine
 10
436.522217
 20
1243.789321
 11
436.522217
 21
1249.589321
  0
LINE
  5
D9
100
AcDbEntity
  8
M0
 62
     7
100
AcDbLine
 10
430.722217
 20
1243.789321
 11
430.722217
 21
1249.589321
  0
LINE
  5
DA
100
AcDbEntity
  8
M0
 62
     7
100
AcDbLine
 10
432.322217
 20
1243.789321
 11
432.322217
 21
1249.589321
  0
LINE
  5
DB
100
AcDbEntity
  8
M0
 62
     7
100
AcDbLine
 10
429.922217
 20
1243.789321
 11
429.922217
 21
1249.589321
  0
LINE
  5
DC
100
AcDbEntity
  8
M0
 62
     7
100
AcDbLine
 10
429.122217
 20
1243.789321
 11
429.122217
 21
1249.589321
  0
LINE
  5
DD
100
AcDbEntity
  8
M0
 62
     7
100
AcDbLine
 10
428.322217
 20
1243.789321
 11
428.322217
 21
1249.589321
  0
LINE
  5
DE
100
AcDbEntity
  8
M0
 62
     7
100
AcDbLine
 10
427.522217
 20
1243.789321
 11
427.522217
 21
1249.589321
  0
LINE
  5
DF
100
AcDbEntity
  8
M0
 62
     7
100
AcDbLine
 10
431.522217
 20
1243.789321
 11
431.522217
 21
1249.589321
  0
LINE
  5
E0
100
AcDbEntity
  8
M0
 62
     7
100
AcDbLine
 10
433.122217
 20
1243.789321
 11
433.122217
 21
1249.589321
  0
LINE
  5
E1
100
AcDbEntity
  8
M0
 62
     7
100
AcDbLine
 10
433.922217
 20
1243.789321
 11
433.922217
 21
1249.589321
  0
LINE
  5
E2
100
AcDbEntity
  8
M0
 62
     7
100
AcDbLine
 10
434.722217
 20
1243.789321
 11
434.722217
 21
1249.589321
  0
LINE
  5
E3
100
AcDbEntity
  8
M0
 62
     7
100
AcDbLine
 10
435.522217
 20
1243.789321
 11
435.522217
 21
1249.589321
  0
LINE
  5
E4
100
AcDbEntity
  8
M0
 62
     7
100
AcDbLine
 10
436.022217
 20
1252.589321
 11
427.022217
 21
1252.589321
  0
CIRCLE
  5
E5
100
AcDbEntity
  8
M0
  6
DOT
 62
     7
100
AcDbCircle
 10
831.522217
 20
2127.589321
 40
8.0
  0
LINE
  5
E6
100
AcDbEntity
  8
M0
  6
DASHDOT
 62
     7
100
AcDbLine
 10
803.522217
 20
2127.589321
 11
859.522217
 21
2127.589321
  0
LINE
  5
E7
100
AcDbEntity
  8
M0
  6
DASHDOT
 62
     7
100
AcDbLine
 10
831.522217
 20
2099.589321
 11
831.522217
 21
2155.58932
  0
CIRCLE
  5
E8
100
AcDbEntity
  8
M0
  6
DOT
 62
     7
100
AcDbCircle
 10
331.522217
 20
2127.589321
 40
8.0
  0
LINE
  5
E9
100
AcDbEntity
  8
M0
  6
DASHDOT
 62
     7
100
AcDbLine
 10
303.522217
 20
2127.589321
 11
359.522217
 21
2127.589321
  0
LINE
  5
EA
100
AcDbEntity
  8
M0
  6
DASHDOT
 62
     7
100
AcDbLine
 10
331.522217
 20
2099.589321
 11
331.522217
 21
2155.58932
  0
CIRCLE
  5
EB
100
AcDbEntity
  8
M0
  6
DOT
 62
     7
100
AcDbCircle
 10
331.522217
 20
1327.589321
 40
8.0
  0
LINE
  5
EC
100
AcDbEntity
  8
M0
  6
DASHDOT
 62
     7
100
AcDbLine
 10
303.522217
 20
1327.589321
 11
359.522217
 21
1327.589321
  0
LINE
  5
ED
100
AcDbEntity
  8
M0
  6
DASHDOT
 62
     7
100
AcDbLine
 10
331.522217
 20
1299.589321
 11
331.522217
 21
1355.58932
  0
CIRCLE
  5
EE
100
AcDbEntity
  8
M0
  6
DOT
 62
     7
100
AcDbCircle
 10
831.522217
 20
1327.589321
 40
8.0
  0
LINE
  5
EF
100
AcDbEntity
  8
M0
  6
DASHDOT
 62
     7
100
AcDbLine
 10
803.522217
 20
1327.589321
 11
859.522217
 21
1327.589321
  0
LINE
  5
F0
100
AcDbEntity
  8
M0
  6
DASHDOT
 62
     7
100
AcDbLine
 10
831.522217
 20
1299.589321
 11
831.522217
 21
1355.58932
  0
LINE
  5
F1
100
AcDbEntity
  8
M0
  6
DASHDOT
 62
     7
100
AcDbLine
 10
827.022299
 20
1232.389308
 11
827.022217
 21
1271.08913
  0
LINE
  5
F2
100
AcDbEntity
  8
M0
 62
     7
100
AcDbLine
 10
820.522217
 20
1247.389324
 11
833.522217
 21
1247.389324
  0
LINE
  5
F3
100
AcDbEntity
  8
M0
 62
     7
100
AcDbLine
 10
833.522217
 20
1252.589321
 11
833.522217
 21
1247.389324
  0
LINE
  5
F4
100
AcDbEntity
  8
M0
 62
     7
100
AcDbLine
 10
820.522217
 20
1252.589321
 11
820.522217
 21
1247.389324
  0
LINE
  5
F5
100
AcDbEntity
  8
M0
 62
     7
100
AcDbLine
 10
827.022256
 20
1252.589321
 11
827.022267
 21
1247.389324
  0
LINE
  5
F6
100
AcDbEntity
  8
M0
  6
DIVIDE
 62
     7
100
AcDbLine
 10
1600.022236
 20
2140.389321
 11
1396.022236
 21
2140.389321
  0
LINE
  5
F7
100
AcDbEntity
  8
M0
  6
DIVIDE
 62
     7
100
AcDbLine
 10
1356.022236
 20
2140.389321
 11
1332.022236
 21
2140.389321
  0
LINE
  5
F8
100
AcDbEntity
  8
M0
  6
DIVIDE
 62
     7
100
AcDbLine
 10
1600.022236
 20
2115.389321
 11
1396.022236
 21
2115.389321
  0
LINE
  5
F9
100
AcDbEntity
  8
M0
  6
DIVIDE
 62
     7
100
AcDbLine
 10
1356.022236
 20
2115.389321
 11
1332.022236
 21
2115.389321
  0
LINE
  5
FA
100
AcDbEntity
  8
M0
  6
DIVIDE
 62
     7
100
AcDbLine
 10
1600.022236
 20
2111.389321
 11
1396.022236
 21
2111.389321
  0
LINE
  5
FB
100
AcDbEntity
  8
M0
  6
DIVIDE
 62
     7
100
AcDbLine
 10
1356.022236
 20
2111.389321
 11
1332.022236
 21
2111.389321
  0
LINE
  5
FC
100
AcDbEntity
  8
M0
  6
DIVIDE
 62
     7
100
AcDbLine
 10
1600.022236
 20
2086.389321
 11
1396.022236
 21
2086.389321
  0
LINE
  5
FD
100
AcDbEntity
  8
M0
  6
DIVIDE
 62
     7
100
AcDbLine
 10
1356.022236
 20
2086.389321
 11
1332.022236
 21
2086.389321
  0
LINE
  5
FE
100
AcDbEntity
  8
M0
  6
DIVIDE
 62
     7
100
AcDbLine
 10
1600.022236
 20
2082.389321
 11
1396.022236
 21
2082.389321
  0
LINE
  5
FF
100
AcDbEntity
  8
M0
  6
DIVIDE
 62
     7
100
AcDbLine
 10
1356.022236
 20
2082.389321
 11
1332.022236
 21
2082.389321
  0
LINE
  5
100
100
AcDbEntity
  8
M0
  6
DIVIDE
 62
     7
100
AcDbLine
 10
1600.022236
 20
2057.389321
 11
1396.022236
 21
2057.389321
  0
LINE
  5
101
100
AcDbEntity
  8
M0
  6
DIVIDE
 62
     7
100
AcDbLine
 10
1356.022236
 20
2057.389321
 11
1332.022236
 21
2057.389321
  0
LINE
  5
102
100
AcDbEntity
  8
M0
  6
DIVIDE
 62
     7
100
AcDbLine
 10
1600.022236
 20
2053.389321
 11
1396.022236
 21
2053.389321
  0
LINE
  5
103
100
AcDbEntity
  8
M0
  6
DIVIDE
 62
     7
100
AcDbLine
 10
1356.022236
 20
2053.389321
 11
1332.022236
 21
2053.389321
  0
LINE
  5
104
100
AcDbEntity
  8
M0
  6
DIVIDE
 62
     7
100
AcDbLine
 10
1600.022236
 20
2028.389321
 11
1396.022236
 21
2028.389321
  0
LINE
  5
105
100
AcDbEntity
  8
M0
  6
DIVIDE
 62
     7
100
AcDbLine
 10
1356.022236
 20
2028.389321
 11
1332.022236
 21
2028.389321
  0
LINE
  5
106
100
AcDbEntity
  8
M0
  6
DIVIDE
 62
     7
100
AcDbLine
 10
1600.022236
 20
1314.789321
 11
1396.022236
 21
1314.789321
  0
LINE
  5
107
100
AcDbEntity
  8
M0
  6
DIVIDE
 62
     7
100
AcDbLine
 10
1356.022236
 20
1314.789321
 11
1332.022236
 21
1314.789321
  0
LINE
  5
108
100
AcDbEntity
  8
M0
  6
DIVIDE
 62
     7
100
AcDbLine
 10
1600.022236
 20
1339.789321
 11
1396.022236
 21
1339.789321
  0
LINE
  5
109
100
AcDbEntity
  8
M0
  6
DIVIDE
 62
     7
100
AcDbLine
 10
1356.022236
 20
1339.789321
 11
1332.022236
 21
1339.789321
  0
LINE
  5
10A
100
AcDbEntity
  8
M0
  6
DIVIDE
 62
     7
100
AcDbLine
 10
1600.022236
 20
1343.789321
 11
1396.022236
 21
1343.789321
  0
LINE
  5
10B
100
AcDbEntity
  8
M0
  6
DIVIDE
 62
     7
100
AcDbLine
 10
1356.022236
 20
1343.789321
 11
1332.022236
 21
1343.789321
  0
LINE
  5
10C
100
AcDbEntity
  8
M0
  6
DIVIDE
 62
     7
100
AcDbLine
 10
1600.022236
 20
1368.789321
 11
1396.022236
 21
1368.789321
  0
LINE
  5
10D
100
AcDbEntity
  8
M0
  6
DIVIDE
 62
     7
100
AcDbLine
 10
1356.022236
 20
1368.789321
 11
1332.022236
 21
1368.789321
  0
LINE
  5
10E
100
AcDbEntity
  8
M0
  6
DIVIDE
 62
     7
100
AcDbLine
 10
1600.022236
 20
1372.789321
 11
1396.022236
 21
1372.789321
  0
LINE
  5
10F
100
AcDbEntity
  8
M0
  6
DIVIDE
 62
     7
100
AcDbLine
 10
1356.022236
 20
1372.789321
 11
1332.022236
 21
1372.789321
  0
LINE
  5
110
100
AcDbEntity
  8
M0
  6
DIVIDE
 62
     7
100
AcDbLine
 10
1600.022236
 20
1397.789321
 11
1396.022236
 21
1397.789321
  0
LINE
  5
111
100
AcDbEntity
  8
M0
  6
DIVIDE
 62
     7
100
AcDbLine
 10
1356.022236
 20
1397.789321
 11
1332.022236
 21
1397.789321
  0
LINE
  5
112
100
AcDbEntity
  8
M0
  6
DIVIDE
 62
     7
100
AcDbLine
 10
1600.022236
 20
1401.789321
 11
1396.022236
 21
1401.789321
  0
LINE
  5
113
100
AcDbEntity
  8
M0
  6
DIVIDE
 62
     7
100
AcDbLine
 10
1356.022236
 20
1401.789321
 11
1332.022236
 21
1401.789321
  0
LINE
  5
114
100
AcDbEntity
  8
M0
  6
DIVIDE
 62
     7
100
AcDbLine
 10
1600.022236
 20
1426.789321
 11
1396.022236
 21
1426.789321
  0
LINE
  5
115
100
AcDbEntity
  8
M0
  6
DIVIDE
 62
     7
100
AcDbLine
 10
1356.022236
 20
1426.789321
 11
1332.022236
 21
1426.789321
  0
LINE
  5
116
100
AcDbEntity
  8
M0
 62
     7
100
AcDbLine
 10
1293.022236
 20
2202.589321
 11
1293.022236
 21
1252.589321
  0
LINE
  5
117
100
AcDbEntity
  8
M0
 62
     7
100
AcDbLine
 10
1318.022236
 20
2202.589321
 11
1318.022236
 21
1252.589321
  0
LINE
  5
118
100
AcDbEntity
  8
M0
 62
     7
100
AcDbLine
 10
1293.022236
 20
2202.589321
 11
1318.022236
 21
2202.589321
  0
LINE
  5
119
100
AcDbEntity
  8
M0
 62
     7
100
AcDbLine
 10
1293.022236
 20
1252.589321
 11
1318.022236
 21
1252.589321
  0
LINE
  5
11A
100
AcDbEntity
  8
M0
  6
DASHDOT
 62
     7
100
AcDbLine
 10
1253.022236
 20
1727.589321
 11
1731.522236
 21
1727.589321
  0
LINE
  5
11B
100
AcDbEntity
  8
M0
 62
     7
100
AcDbLine
 10
1318.022236
 20
1256.089321
 11
1682.522236
 21
1256.089321
  0
LINE
  5
11C
100
AcDbEntity
  8
M0
 62
     7
100
AcDbLine
 10
1318.022236
 20
2199.089321
 11
1682.522236
 21
2199.089321
  0
LINE
  5
11D
100
AcDbEntity
  8
M0
  6
DOT
 62
     7
100
AcDbLine
 10
1680.222236
 20
2179.089321
 11
1680.222236
 21
1276.089321
  0
LINE
  5
11E
100
AcDbEntity
  8
M0
 62
     7
100
AcDbLine
 10
1682.522236
 20
2199.089321
 11
1682.522236
 21
1256.089321
  0
LINE
  5
11F
100
AcDbEntity
  8
M0
 62
     7
100
AcDbLine
 10
1691.522236
 20
1360.089321
 11
1691.522236
 21
1295.089321
  0
LINE
  5
120
100
AcDbEntity
  8
M0
 62
     7
100
AcDbLine
 10
1682.522236
 20
1360.089321
 11
1691.522236
 21
1360.089321
  0
LINE
  5
121
100
AcDbEntity
  8
M0
 62
     7
100
AcDbLine
 10
1682.522236
 20
1295.089321
 11
1691.522236
 21
1295.089321
  0
LINE
  5
122
100
AcDbEntity
  8
M0
 62
     7
100
AcDbLine
 10
1691.522236
 20
2160.089321
 11
1691.522236
 21
2095.089321
  0
LINE
  5
123
100
AcDbEntity
  8
M0
 62
     7
100
AcDbLine
 10
1682.522236
 20
2160.089321
 11
1691.522236
 21
2160.089321
  0
LINE
  5
124
100
AcDbEntity
  8
M0
 62
     7
100
AcDbLine
 10
1682.522236
 20
2095.089321
 11
1691.522236
 21
2095.089321
  0
LINE
  5
125
100
AcDbEntity
  8
M0
  6
DASHDOT
 62
     7
100
AcDbLine
 10
1645.222286
 20
1232.389308
 11
1645.222204
 21
1271.08913
  0
LINE
  5
126
100
AcDbEntity
  8
M0
 62
     7
100
AcDbLine
 10
1637.222229
 20
1254.889324
 11
1653.222229
 21
1254.889324
  0
LINE
  5
127
100
AcDbEntity
  8
M0
 62
     7
100
AcDbLine
 10
1637.222229
 20
1256.089321
 11
1637.222229
 21
1254.889324
  0
LINE
  5
128
100
AcDbEntity
  8
M0
 62
     7
100
AcDbLine
 10
1653.222229
 20
1256.089321
 11
1637.222229
 21
1256.089321
  0
LINE
  5
129
100
AcDbEntity
  8
M0
 62
     7
100
AcDbLine
 10
1653.222229
 20
1254.889324
 11
1653.222229
 21
1256.089321
  0
LINE
  5
12A
100
AcDbEntity
  8
M0
 62
     7
100
AcDbLine
 10
1644.067557
 20
1252.889324
 11
1645.222251
 21
1254.889324
  0
LINE
  5
12B
100
AcDbEntity
  8
M0
 62
     7
100
AcDbLine
 10
1645.222251
 20
1252.889324
 11
1646.376944
 21
1254.889324
  0
LINE
  5
12C
100
AcDbEntity
  8
M0
 62
     7
100
AcDbLine
 10
1637.522239
 20
1252.889324
 11
1652.922248
 21
1252.889324
  0
LINE
  5
12D
100
AcDbEntity
  8
M0
 62
     7
100
AcDbLine
 10
1637.522239
 20
1254.889324
 11
1637.522239
 21
1252.889324
  0
LINE
  5
12E
100
AcDbEntity
  8
M0
 62
     7
100
AcDbLine
 10
1652.922248
 20
1254.889324
 11
1637.522239
 21
1254.889324
  0
LINE
  5
12F
100
AcDbEntity
  8
M0
 62
     7
100
AcDbLine
 10
1652.922248
 20
1252.889324
 11
1652.922248
 21
1254.889324
  0
LINE
  5
130
100
AcDbEntity
  8
M0
 62
     7
100
AcDbLine
 10
1649.222236
 20
1247.389324
 11
1649.222236
 21
1252.889324
  0
LINE
  5
131
100
AcDbEntity
  8
M0
 62
     7
100
AcDbLine
 10
1641.222236
 20
1252.889324
 11
1641.222236
 21
1247.389324
  0
LINE
  5
132
100
AcDbEntity
  8
M0
 62
     7
100
AcDbLine
 10
1652.723243
 20
1247.389324
 11
1652.723243
 21
1252.889324
  0
LINE
  5
133
100
AcDbEntity
  8
M0
 62
     7
100
AcDbLine
 10
1637.721244
 20
1247.389324
 11
1652.723243
 21
1247.389324
  0
LINE
  5
134
100
AcDbEntity
  8
M0
 62
     7
100
AcDbLine
 10
1637.721244
 20
1252.889324
 11
1637.721244
 21
1247.389324
  0
LINE
  5
135
100
AcDbEntity
  8
M0
 62
     7
100
AcDbLine
 10
1652.723243
 20
1252.889324
 11
1637.721244
 21
1252.889324
  0
LINE
  5
136
100
AcDbEntity
  8
M0
 62
     7
100
AcDbLine
 10
1311.022236
 20
1252.589321
 11
1302.022236
 21
1252.589321
  0
LINE
  5
137
100
AcDbEntity
  8
M0
 62
     7
100
AcDbLine
 10
1310.522236
 20
1243.789321
 11
1310.522236
 21
1249.589321
  0
LINE
  5
138
100
AcDbEntity
  8
M0
 62
     7
100
AcDbLine
 10
1309.722236
 20
1243.789321
 11
1309.722236
 21
1249.589321
  0
LINE
  5
139
100
AcDbEntity
  8
M0
 62
     7
100
AcDbLine
 10
1308.922236
 20
1243.789321
 11
1308.922236
 21
1249.589321
  0
LINE
  5
13A
100
AcDbEntity
  8
M0
 62
     7
100
AcDbLine
 10
1308.122236
 20
1243.789321
 11
1308.122236
 21
1249.589321
  0
LINE
  5
13B
100
AcDbEntity
  8
M0
 62
     7
100
AcDbLine
 10
1306.522236
 20
1243.789321
 11
1306.522236
 21
1249.589321
  0
LINE
  5
13C
100
AcDbEntity
  8
M0
 62
     7
100
AcDbLine
 10
1302.522236
 20
1243.789321
 11
1302.522236
 21
1249.589321
  0
LINE
  5
13D
100
AcDbEntity
  8
M0
 62
     7
100
AcDbLine
 10
1303.322236
 20
1243.789321
 11
1303.322236
 21
1249.589321
  0
LINE
  5
13E
100
AcDbEntity
  8
M0
 62
     7
100
AcDbLine
 10
1304.122236
 20
1243.789321
 11
1304.122236
 21
1249.589321
  0
LINE
  5
13F
100
AcDbEntity
  8
M0
 62
     7
100
AcDbLine
 10
1304.922236
 20
1243.789321
 11
1304.922236
 21
1249.589321
  0
LINE
  5
140
100
AcDbEntity
  8
M0
 62
     7
100
AcDbLine
 10
1307.322236
 20
1243.789321
 11
1307.322236
 21
1249.589321
  0
LINE
  5
141
100
AcDbEntity
  8
M0
 62
     7
100
AcDbLine
 10
1305.722236
 20
1243.789321
 11
1305.722236
 21
1249.589321
  0
LINE
  5
142
100
AcDbEntity
  8
M0
 62
     7
100
AcDbLine
 10
1311.522236
 20
1243.789321
 11
1311.522236
 21
1249.589321
  0
LINE
  5
143
100
AcDbEntity
  8
M0
 62
     7
100
AcDbLine
 10
1301.522236
 20
1249.589321
 11
1301.522236
 21
1243.789321
  0
LINE
  5
144
100
AcDbEntity
  8
M0
 62
     7
100
AcDbLine
 10
1302.022236
 20
1249.589321
 11
1302.022236
 21
1252.589321
  0
LINE
  5
145
100
AcDbEntity
  8
M0
 62
     7
100
AcDbLine
 10
1311.022236
 20
1249.589321
 11
1311.022236
 21
1252.589321
  0
LINE
  5
146
100
AcDbEntity
  8
M0
 62
     7
100
AcDbLine
 10
1311.522236
 20
1249.589321
 11
1301.522236
 21
1249.589321
  0
LINE
  5
147
100
AcDbEntity
  8
M0
 62
     7
100
AcDbLine
 10
1301.522236
 20
1243.789321
 11
1311.522236
 21
1243.789321
  0
LINE
  5
148
100
AcDbEntity
  8
M0
 62
     7
100
AcDbLine
 10
1310.322236
 20
1242.589321
 11
1311.522236
 21
1243.789321
  0
LINE
  5
149
100
AcDbEntity
  8
M0
 62
     7
100
AcDbLine
 10
1302.722236
 20
1242.589321
 11
1310.322236
 21
1242.589321
  0
LINE
  5
14A
100
AcDbEntity
  8
M0
 62
     7
100
AcDbLine
 10
1301.522236
 20
1243.789321
 11
1302.722236
 21
1242.589321
  0
LINE
  5
14B
100
AcDbEntity
  8
M0
  6
DASHDOT
 62
     7
100
AcDbLine
 10
1306.522236
 20
1217.589321
 11
1306.522236
 21
1277.58932
  0
LINE
  5
14C
100
AcDbEntity
  8
M0
 62
     7
100
AcDbLine
 10
1397.522236
 20
2138.889321
 11
1397.522236
 21
2116.889321
  0
ARC
  5
14D
100
AcDbEntity
  8
M0
 62
     7
100
AcDbCircle
 10
1396.022236
 20
2116.889321
 40
1.5
100
AcDbArc
 50
180.0
 51
360.0
  0
LINE
  5
14E
100
AcDbEntity
  8
M0
 62
     7
100
AcDbLine
 10
1394.522236
 20
2138.889321
 11
1394.522236
 21
2116.889321
  0
ARC
  5
14F
100
AcDbEntity
  8
M0
 62
     7
100
AcDbCircle
 10
1396.022236
 20
2138.889321
 40
1.5
100
AcDbArc
 50
0.0
 51
180.0
  0
LINE
  5
150
100
AcDbEntity
  8
M0
 62
     7
100
AcDbLine
 10
1397.522236
 20
2109.889321
 11
1397.522236
 21
2087.889321
  0
ARC
  5
151
100
AcDbEntity
  8
M0
 62
     7
100
AcDbCircle
 10
1396.022236
 20
2087.889321
 40
1.5
100
AcDbArc
 50
180.0
 51
360.0
  0
LINE
  5
152
100
AcDbEntity
  8
M0
 62
     7
100
AcDbLine
 10
1394.522236
 20
2109.889321
 11
1394.522236
 21
2087.889321
  0
ARC
  5
153
100
AcDbEntity
  8
M0
 62
     7
100
AcDbCircle
 10
1396.022236
 20
2109.889321
 40
1.5
100
AcDbArc
 50
0.0
 51
180.0
  0
LINE
  5
154
100
AcDbEntity
  8
M0
 62
     7
100
AcDbLine
 10
1397.522236
 20
2080.889321
 11
1397.522236
 21
2058.889321
  0
ARC
  5
155
100
AcDbEntity
  8
M0
 62
     7
100
AcDbCircle
 10
1396.022236
 20
2058.889321
 40
1.5
100
AcDbArc
 50
180.0
 51
360.0
  0
LINE
  5
156
100
AcDbEntity
  8
M0
 62
     7
100
AcDbLine
 10
1394.522236
 20
2080.889321
 11
1394.522236
 21
2058.889321
  0
ARC
  5
157
100
AcDbEntity
  8
M0
 62
     7
100
AcDbCircle
 10
1396.022236
 20
2080.889321
 40
1.5
100
AcDbArc
 50
0.0
 51
180.0
  0
LINE
  5
158
100
AcDbEntity
  8
M0
 62
     7
100
AcDbLine
 10
1397.522236
 20
2051.889321
 11
1397.522236
 21
2029.889321
  0
ARC
  5
159
100
AcDbEntity
  8
M0
 62
     7
100
AcDbCircle
 10
1396.022236
 20
2029.889321
 40
1.5
100
AcDbArc
 50
180.0
 51
360.0
  0
LINE
  5
15A
100
AcDbEntity
  8
M0
 62
     7
100
AcDbLine
 10
1394.522236
 20
2051.889321
 11
1394.522236
 21
2029.889321
  0
ARC
  5
15B
100
AcDbEntity
  8
M0
 62
     7
100
AcDbCircle
 10
1396.022236
 20
2051.889321
 40
1.5
100
AcDbArc
 50
0.0
 51
180.0
  0
LINE
  5
15C
100
AcDbEntity
  8
M0
 62
     7
100
AcDbLine
 10
1397.522236
 20
1316.289321
 11
1397.522236
 21
1338.289321
  0
ARC
  5
15D
100
AcDbEntity
  8
M0
 62
     7
100
AcDbCircle
 10
1396.022236
 20
1338.289321
 40
1.5
100
AcDbArc
 50
0.0
 51
180.0
  0
LINE
  5
15E
100
AcDbEntity
  8
M0
 62
     7
100
AcDbLine
 10
1394.522236
 20
1316.289321
 11
1394.522236
 21
1338.289321
  0
ARC
  5
15F
100
AcDbEntity
  8
M0
 62
     7
100
AcDbCircle
 10
1396.022236
 20
1316.289321
 40
1.5
100
AcDbArc
 50
-180.0
 51
0.0
  0
LINE
  5
160
100
AcDbEntity
  8
M0
 62
     7
100
AcDbLine
 10
1397.522236
 20
1345.289321
 11
1397.522236
 21
1367.289321
  0
ARC
  5
161
100
AcDbEntity
  8
M0
 62
     7
100
AcDbCircle
 10
1396.022236
 20
1367.289321
 40
1.5
100
AcDbArc
 50
0.0
 51
180.0
  0
LINE
  5
162
100
AcDbEntity
  8
M0
 62
     7
100
AcDbLine
 10
1394.522236
 20
1345.289321
 11
1394.522236
 21
1367.289321
  0
ARC
  5
163
100
AcDbEntity
  8
M0
 62
     7
100
AcDbCircle
 10
1396.022236
 20
1345.289321
 40
1.5
100
AcDbArc
 50
-180.0
 51
0.0
  0
LINE
  5
164
100
AcDbEntity
  8
M0
 62
     7
100
AcDbLine
 10
1397.522236
 20
1374.289321
 11
1397.522236
 21
1396.289321
  0
ARC
  5
165
100
AcDbEntity
  8
M0
 62
     7
100
AcDbCircle
 10
1396.022236
 20
1396.289321
 40
1.5
100
AcDbArc
 50
0.0
 51
180.0
  0
LINE
  5
166
100
AcDbEntity
  8
M0
 62
     7
100
AcDbLine
 10
1394.522236
 20
1374.289321
 11
1394.522236
 21
1396.289321
  0
ARC
  5
167
100
AcDbEntity
  8
M0
 62
     7
100
AcDbCircle
 10
1396.022236
 20
1374.289321
 40
1.5
100
AcDbArc
 50
-180.0
 51
0.0
  0
LINE
  5
168
100
AcDbEntity
  8
M0
 62
     7
100
AcDbLine
 10
1397.522236
 20
1403.289321
 11
1397.522236
 21
1425.289321
  0
ARC
  5
169
100
AcDbEntity
  8
M0
 62
     7
100
AcDbCircle
 10
1396.022236
 20
1425.289321
 40
1.5
100
AcDbArc
 50
0.0
 51
180.0
  0
LINE
  5
16A
100
AcDbEntity
  8
M0
 62
     7
100
AcDbLine
 10
1394.522236
 20
1403.289321
 11
1394.522236
 21
1425.289321
  0
ARC
  5
16B
100
AcDbEntity
  8
M0
 62
     7
100
AcDbCircle
 10
1396.022236
 20
1403.289321
 40
1.5
100
AcDbArc
 50
-180.0
 51
0.0
  0
LINE
  5
16C
100
AcDbEntity
  8
M0
 62
     7
100
AcDbLine
 10
1601.522236
 20
2138.889321
 11
1601.522236
 21
2116.889321
  0
ARC
  5
16D
100
AcDbEntity
  8
M0
 62
     7
100
AcDbCircle
 10
1600.022236
 20
2116.889321
 40
1.5
100
AcDbArc
 50
180.0
 51
360.0
  0
LINE
  5
16E
100
AcDbEntity
  8
M0
 62
     7
100
AcDbLine
 10
1598.522236
 20
2138.889321
 11
1598.522236
 21
2116.889321
  0
ARC
  5
16F
100
AcDbEntity
  8
M0
 62
     7
100
AcDbCircle
 10
1600.022236
 20
2138.889321
 40
1.5
100
AcDbArc
 50
0.0
 51
180.0
  0
LINE
  5
170
100
AcDbEntity
  8
M0
 62
     7
100
AcDbLine
 10
1601.522236
 20
2109.889321
 11
1601.522236
 21
2087.889321
  0
ARC
  5
171
100
AcDbEntity
  8
M0
 62
     7
100
AcDbCircle
 10
1600.022236
 20
2087.889321
 40
1.5
100
AcDbArc
 50
180.0
 51
360.0
  0
LINE
  5
172
100
AcDbEntity
  8
M0
 62
     7
100
AcDbLine
 10
1598.522236
 20
2109.889321
 11
1598.522236
 21
2087.889321
  0
ARC
  5
173
100
AcDbEntity
  8
M0
 62
     7
100
AcDbCircle
 10
1600.022236
 20
2109.889321
 40
1.5
100
AcDbArc
 50
0.0
 51
180.0
  0
LINE
  5
174
100
AcDbEntity
  8
M0
 62
     7
100
AcDbLine
 10
1601.522236
 20
2080.889321
 11
1601.522236
 21
2058.889321
  0
ARC
  5
175
100
AcDbEntity
  8
M0
 62
     7
100
AcDbCircle
 10
1600.022236
 20
2058.889321
 40
1.5
100
AcDbArc
 50
180.0
 51
360.0
  0
LINE
  5
176
100
AcDbEntity
  8
M0
 62
     7
100
AcDbLine
 10
1598.522236
 20
2080.889321
 11
1598.522236
 21
2058.889321
  0
ARC
  5
177
100
AcDbEntity
  8
M0
 62
     7
100
AcDbCircle
 10
1600.022236
 20
2080.889321
 40
1.5
100
AcDbArc
 50
0.0
 51
180.0
  0
LINE
  5
178
100
AcDbEntity
  8
M0
 62
     7
100
AcDbLine
 10
1601.522236
 20
2051.889321
 11
1601.522236
 21
2029.889321
  0
ARC
  5
179
100
AcDbEntity
  8
M0
 62
     7
100
AcDbCircle
 10
1600.022236
 20
2029.889321
 40
1.5
100
AcDbArc
 50
180.0
 51
360.0
  0
LINE
  5
17A
100
AcDbEntity
  8
M0
 62
     7
100
AcDbLine
 10
1598.522236
 20
2051.889321
 11
1598.522236
 21
2029.889321
  0
ARC
  5
17B
100
AcDbEntity
  8
M0
 62
     7
100
AcDbCircle
 10
1600.022236
 20
2051.889321
 40
1.5
100
AcDbArc
 50
0.0
 51
180.0
  0
LINE
  5
17C
100
AcDbEntity
  8
M0
 62
     7
100
AcDbLine
 10
1601.522236
 20
1316.289321
 11
1601.522236
 21
1338.289321
  0
ARC
  5
17D
100
AcDbEntity
  8
M0
 62
     7
100
AcDbCircle
 10
1600.022236
 20
1338.289321
 40
1.5
100
AcDbArc
 50
0.0
 51
180.0
  0
LINE
  5
17E
100
AcDbEntity
  8
M0
 62
     7
100
AcDbLine
 10
1598.522236
 20
1316.289321
 11
1598.522236
 21
1338.289321
  0
ARC
  5
17F
100
AcDbEntity
  8
M0
 62
     7
100
AcDbCircle
 10
1600.022236
 20
1316.289321
 40
1.5
100
AcDbArc
 50
-180.0
 51
0.0
  0
LINE
  5
180
100
AcDbEntity
  8
M0
 62
     7
100
AcDbLine
 10
1601.522236
 20
1345.289321
 11
1601.522236
 21
1367.289321
  0
ARC
  5
181
100
AcDbEntity
  8
M0
 62
     7
100
AcDbCircle
 10
1600.022236
 20
1367.289321
 40
1.5
100
AcDbArc
 50
0.0
 51
180.0
  0
LINE
  5
182
100
AcDbEntity
  8
M0
 62
     7
100
AcDbLine
 10
1598.522236
 20
1345.289321
 11
1598.522236
 21
1367.289321
  0
ARC
  5
183
100
AcDbEntity
  8
M0
 62
     7
100
AcDbCircle
 10
1600.022236
 20
1345.289321
 40
1.5
100
AcDbArc
 50
-180.0
 51
0.0
  0
LINE
  5
184
100
AcDbEntity
  8
M0
 62
     7
100
AcDbLine
 10
1601.522236
 20
1374.289321
 11
1601.522236
 21
1396.289321
  0
ARC
  5
185
100
AcDbEntity
  8
M0
 62
     7
100
AcDbCircle
 10
1600.022236
 20
1396.289321
 40
1.5
100
AcDbArc
 50
0.0
 51
180.0
  0
LINE
  5
186
100
AcDbEntity
  8
M0
 62
     7
100
AcDbLine
 10
1598.522236
 20
1374.289321
 11
1598.522236
 21
1396.289321
  0
ARC
  5
187
100
AcDbEntity
  8
M0
 62
     7
100
AcDbCircle
 10
1600.022236
 20
1374.289321
 40
1.5
100
AcDbArc
 50
-180.0
 51
0.0
  0
LINE
  5
188
100
AcDbEntity
  8
M0
 62
     7
100
AcDbLine
 10
1601.522236
 20
1403.289321
 11
1601.522236
 21
1425.289321
  0
ARC
  5
189
100
AcDbEntity
  8
M0
 62
     7
100
AcDbCircle
 10
1600.022236
 20
1425.289321
 40
1.5
100
AcDbArc
 50
0.0
 51
180.0
  0
LINE
  5
18A
100
AcDbEntity
  8
M0
 62
     7
100
AcDbLine
 10
1598.522236
 20
1403.289321
 11
1598.522236
 21
1425.289321
  0
ARC
  5
18B
100
AcDbEntity
  8
M0
 62
     7
100
AcDbCircle
 10
1600.022236
 20
1403.289321
 40
1.5
100
AcDbArc
 50
-180.0
 51
0.0
  0
LINE
  5
18C
100
AcDbEntity
  8
M0
 62
     7
100
AcDbLine
 10
1357.522236
 20
2138.889321
 11
1357.522236
 21
2116.889321
  0
ARC
  5
18D
100
AcDbEntity
  8
M0
 62
     7
100
AcDbCircle
 10
1356.022236
 20
2116.889321
 40
1.5
100
AcDbArc
 50
180.0
 51
360.0
  0
LINE
  5
18E
100
AcDbEntity
  8
M0
 62
     7
100
AcDbLine
 10
1354.522236
 20
2138.889321
 11
1354.522236
 21
2116.889321
  0
ARC
  5
18F
100
AcDbEntity
  8
M0
 62
     7
100
AcDbCircle
 10
1356.022236
 20
2138.889321
 40
1.5
100
AcDbArc
 50
0.0
 51
180.0
  0
LINE
  5
190
100
AcDbEntity
  8
M0
 62
     7
100
AcDbLine
 10
1357.522236
 20
2109.889321
 11
1357.522236
 21
2087.889321
  0
ARC
  5
191
100
AcDbEntity
  8
M0
 62
     7
100
AcDbCircle
 10
1356.022236
 20
2087.889321
 40
1.5
100
AcDbArc
 50
180.0
 51
360.0
  0
LINE
  5
192
100
AcDbEntity
  8
M0
 62
     7
100
AcDbLine
 10
1354.522236
 20
2109.889321
 11
1354.522236
 21
2087.889321
  0
ARC
  5
193
100
AcDbEntity
  8
M0
 62
     7
100
AcDbCircle
 10
1356.022236
 20
2109.889321
 40
1.5
100
AcDbArc
 50
0.0
 51
180.0
  0
LINE
  5
194
100
AcDbEntity
  8
M0
 62
     7
100
AcDbLine
 10
1357.522236
 20
2080.889321
 11
1357.522236
 21
2058.889321
  0
ARC
  5
195
100
AcDbEntity
  8
M0
 62
     7
100
AcDbCircle
 10
1356.022236
 20
2058.889321
 40
1.5
100
AcDbArc
 50
180.0
 51
360.0
  0
LINE
  5
196
100
AcDbEntity
  8
M0
 62
     7
100
AcDbLine
 10
1354.522236
 20
2080.889321
 11
1354.522236
 21
2058.889321
  0
ARC
  5
197
100
AcDbEntity
  8
M0
 62
     7
100
AcDbCircle
 10
1356.022236
 20
2080.889321
 40
1.5
100
AcDbArc
 50
0.0
 51
180.0
  0
LINE
  5
198
100
AcDbEntity
  8
M0
 62
     7
100
AcDbLine
 10
1357.522236
 20
2051.889321
 11
1357.522236
 21
2029.889321
  0
ARC
  5
199
100
AcDbEntity
  8
M0
 62
     7
100
AcDbCircle
 10
1356.022236
 20
2029.889321
 40
1.5
100
AcDbArc
 50
180.0
 51
360.0
  0
LINE
  5
19A
100
AcDbEntity
  8
M0
 62
     7
100
AcDbLine
 10
1354.522236
 20
2051.889321
 11
1354.522236
 21
2029.889321
  0
ARC
  5
19B
100
AcDbEntity
  8
M0
 62
     7
100
AcDbCircle
 10
1356.022236
 20
2051.889321
 40
1.5
100
AcDbArc
 50
0.0
 51
180.0
  0
LINE
  5
19C
100
AcDbEntity
  8
M0
 62
     7
100
AcDbLine
 10
1357.522236
 20
1316.289321
 11
1357.522236
 21
1338.289321
  0
ARC
  5
19D
100
AcDbEntity
  8
M0
 62
     7
100
AcDbCircle
 10
1356.022236
 20
1338.289321
 40
1.5
100
AcDbArc
 50
0.0
 51
180.0
  0
LINE
  5
19E
100
AcDbEntity
  8
M0
 62
     7
100
AcDbLine
 10
1354.522236
 20
1316.289321
 11
1354.522236
 21
1338.289321
  0
ARC
  5
19F
100
AcDbEntity
  8
M0
 62
     7
100
AcDbCircle
 10
1356.022236
 20
1316.289321
 40
1.5
100
AcDbArc
 50
-180.0
 51
0.0
  0
LINE
  5
1A0
100
AcDbEntity
  8
M0
 62
     7
100
AcDbLine
 10
1357.522236
 20
1345.289321
 11
1357.522236
 21
1367.289321
  0
ARC
  5
1A1
100
AcDbEntity
  8
M0
 62
     7
100
AcDbCircle
 10
1356.022236
 20
1367.289321
 40
1.5
100
AcDbArc
 50
0.0
 51
180.0
  0
LINE
  5
1A2
100
AcDbEntity
  8
M0
 62
     7
100
AcDbLine
 10
1354.522236
 20
1345.289321
 11
1354.522236
 21
1367.289321
  0
ARC
  5
1A3
100
AcDbEntity
  8
M0
 62
     7
100
AcDbCircle
 10
1356.022236
 20
1345.289321
 40
1.5
100
AcDbArc
 50
-180.0
 51
0.0
  0
LINE
  5
1A4
100
AcDbEntity
  8
M0
 62
     7
100
AcDbLine
 10
1357.522236
 20
1374.289321
 11
1357.522236
 21
1396.289321
  0
ARC
  5
1A5
100
AcDbEntity
  8
M0
 62
     7
100
AcDbCircle
 10
1356.022236
 20
1396.289321
 40
1.5
100
AcDbArc
 50
0.0
 51
180.0
  0
LINE
  5
1A6
100
AcDbEntity
  8
M0
 62
     7
100
AcDbLine
 10
1354.522236
 20
1374.289321
 11
1354.522236
 21
1396.289321
  0
ARC
  5
1A7
100
AcDbEntity
  8
M0
 62
     7
100
AcDbCircle
 10
1356.022236
 20
1374.289321
 40
1.5
100
AcDbArc
 50
-180.0
 51
0.0
  0
LINE
  5
1A8
100
AcDbEntity
  8
M0
 62
     7
100
AcDbLine
 10
1357.522236
 20
1403.289321
 11
1357.522236
 21
1425.289321
  0
ARC
  5
1A9
100
AcDbEntity
  8
M0
 62
     7
100
AcDbCircle
 10
1356.022236
 20
1425.289321
 40
1.5
100
AcDbArc
 50
0.0
 51
180.0
  0
LINE
  5
1AA
100
AcDbEntity
  8
M0
 62
     7
100
AcDbLine
 10
1354.522236
 20
1403.289321
 11
1354.522236
 21
1425.289321
  0
ARC
  5
1AB
100
AcDbEntity
  8
M0
 62
     7
100
AcDbCircle
 10
1356.022236
 20
1403.289321
 40
1.5
100
AcDbArc
 50
-180.0
 51
0.0
  0
LINE
  5
1AC
100
AcDbEntity
  8
M0
 62
     7
100
AcDbLine
 10
1333.522236
 20
2138.889321
 11
1333.522236
 21
2116.889321
  0
ARC
  5
1AD
100
AcDbEntity
  8
M0
 62
     7
100
AcDbCircle
 10
1332.022236
 20
2116.889321
 40
1.5
100
AcDbArc
 50
180.0
 51
360.0
  0
LINE
  5
1AE
100
AcDbEntity
  8
M0
 62
     7
100
AcDbLine
 10
1330.522236
 20
2138.889321
 11
1330.522236
 21
2116.889321
  0
ARC
  5
1AF
100
AcDbEntity
  8
M0
 62
     7
100
AcDbCircle
 10
1332.022236
 20
2138.889321
 40
1.5
100
AcDbArc
 50
0.0
 51
180.0
  0
LINE
  5
1B0
100
AcDbEntity
  8
M0
 62
     7
100
AcDbLine
 10
1333.522236
 20
2109.889321
 11
1333.522236
 21
2087.889321
  0
ARC
  5
1B1
100
AcDbEntity
  8
M0
 62
     7
100
AcDbCircle
 10
1332.022236
 20
2087.889321
 40
1.5
100
AcDbArc
 50
180.0
 51
360.0
  0
LINE
  5
1B2
100
AcDbEntity
  8
M0
 62
     7
100
AcDbLine
 10
1330.522236
 20
2109.889321
 11
1330.522236
 21
2087.889321
  0
ARC
  5
1B3
100
AcDbEntity
  8
M0
 62
     7
100
AcDbCircle
 10
1332.022236
 20
2109.889321
 40
1.5
100
AcDbArc
 50
0.0
 51
180.0
  0
LINE
  5
1B4
100
AcDbEntity
  8
M0
 62
     7
100
AcDbLine
 10
1333.522236
 20
2080.889321
 11
1333.522236
 21
2058.889321
  0
ARC
  5
1B5
100
AcDbEntity
  8
M0
 62
     7
100
AcDbCircle
 10
1332.022236
 20
2058.889321
 40
1.5
100
AcDbArc
 50
180.0
 51
360.0
  0
LINE
  5
1B6
100
AcDbEntity
  8
M0
 62
     7
100
AcDbLine
 10
1330.522236
 20
2080.889321
 11
1330.522236
 21
2058.889321
  0
ARC
  5
1B7
100
AcDbEntity
  8
M0
 62
     7
100
AcDbCircle
 10
1332.022236
 20
2080.889321
 40
1.5
100
AcDbArc
 50
0.0
 51
180.0
  0
LINE
  5
1B8
100
AcDbEntity
  8
M0
 62
     7
100
AcDbLine
 10
1333.522236
 20
2051.889321
 11
1333.522236
 21
2029.889321
  0
ARC
  5
1B9
100
AcDbEntity
  8
M0
 62
     7
100
AcDbCircle
 10
1332.022236
 20
2029.889321
 40
1.5
100
AcDbArc
 50
180.0
 51
360.0
  0
LINE
  5
1BA
100
AcDbEntity
  8
M0
 62
     7
100
AcDbLine
 10
1330.522236
 20
2051.889321
 11
1330.522236
 21
2029.889321
  0
ARC
  5
1BB
100
AcDbEntity
  8
M0
 62
     7
100
AcDbCircle
 10
1332.022236
 20
2051.889321
 40
1.5
100
AcDbArc
 50
0.0
 51
180.0
  0
LINE
  5
1BC
100
AcDbEntity
  8
M0
 62
     7
100
AcDbLine
 10
1333.522236
 20
1316.289321
 11
1333.522236
 21
1338.289321
  0
ARC
  5
1BD
100
AcDbEntity
  8
M0
 62
     7
100
AcDbCircle
 10
1332.022236
 20
1338.289321
 40
1.5
100
AcDbArc
 50
0.0
 51
180.0
  0
LINE
  5
1BE
100
AcDbEntity
  8
M0
 62
     7
100
AcDbLine
 10
1330.522236
 20
1316.289321
 11
1330.522236
 21
1338.289321
  0
ARC
  5
1BF
100
AcDbEntity
  8
M0
 62
     7
100
AcDbCircle
 10
1332.022236
 20
1316.289321
 40
1.5
100
AcDbArc
 50
-180.0
 51
0.0
  0
LINE
  5
1C0
100
AcDbEntity
  8
M0
 62
     7
100
AcDbLine
 10
1333.522236
 20
1345.289321
 11
1333.522236
 21
1367.289321
  0
ARC
  5
1C1
100
AcDbEntity
  8
M0
 62
     7
100
AcDbCircle
 10
1332.022236
 20
1367.289321
 40
1.5
100
AcDbArc
 50
0.0
 51
180.0
  0
LINE
  5
1C2
100
AcDbEntity
  8
M0
 62
     7
100
AcDbLine
 10
1330.522236
 20
1345.289321
 11
1330.522236
 21
1367.289321
  0
ARC
  5
1C3
100
AcDbEntity
  8
M0
 62
     7
100
AcDbCircle
 10
1332.022236
 20
1345.289321
 40
1.5
100
AcDbArc
 50
-180.0
 51
0.0
  0
LINE
  5
1C4
100
AcDbEntity
  8
M0
 62
     7
100
AcDbLine
 10
1333.522236
 20
1374.289321
 11
1333.522236
 21
1396.289321
  0
ARC
  5
1C5
100
AcDbEntity
  8
M0
 62
     7
100
AcDbCircle
 10
1332.022236
 20
1396.289321
 40
1.5
100
AcDbArc
 50
0.0
 51
180.0
  0
LINE
  5
1C6
100
AcDbEntity
  8
M0
 62
     7
100
AcDbLine
 10
1330.522236
 20
1374.289321
 11
1330.522236
 21
1396.289321
  0
ARC
  5
1C7
100
AcDbEntity
  8
M0
 62
     7
100
AcDbCircle
 10
1332.022236
 20
1374.289321
 40
1.5
100
AcDbArc
 50
-180.0
 51
0.0
  0
LINE
  5
1C8
100
AcDbEntity
  8
M0
 62
     7
100
AcDbLine
 10
1333.522236
 20
1403.289321
 11
1333.522236
 21
1425.289321
  0
ARC
  5
1C9
100
AcDbEntity
  8
M0
 62
     7
100
AcDbCircle
 10
1332.022236
 20
1425.289321
 40
1.5
100
AcDbArc
 50
0.0
 51
180.0
  0
LINE
  5
1CA
100
AcDbEntity
  8
M0
 62
     7
100
AcDbLine
 10
1330.522236
 20
1403.289321
 11
1330.522236
 21
1425.289321
  0
ARC
  5
1CB
100
AcDbEntity
  8
M0
 62
     7
100
AcDbCircle
 10
1332.022236
 20
1403.289321
 40
1.5
100
AcDbArc
 50
-180.0
 51
0.0
  0
LINE
  5
1CC
100
AcDbEntity
  8
M0
 62
     7
100
AcDbLine
 10
1691.522236
 20
2236.749492
 11
1693.862064
 21
2239.089321
  0
LINE
  5
1CD
100
AcDbEntity
  8
M0
 62
     7
100
AcDbLine
 10
1687.627314
 20
1480.389339
 11
1683.417157
 21
1480.389339
  0
LINE
  5
1CE
100
AcDbEntity
  8
M0
 62
     7
100
AcDbLine
 10
1683.417104
 20
1460.789333
 11
1687.627367
 21
1460.789333
  0
LINE
  5
1CF
100
AcDbEntity
  8
M0
 62
     7
100
AcDbLine
 10
1688.522236
 20
1462.339291
 11
1688.522236
 21
1478.839289
  0
LINE
  5
1D0
100
AcDbEntity
  8
M0
  6
DASHDOT
 62
     7
100
AcDbLine
 10
1695.52222
 20
1470.58929
 11
1675.522251
 21
1470.58929
  0
LINE
  5
1D1
100
AcDbEntity
  8
M0
 62
     7
100
AcDbLine
 10
1687.627314
 20
1465.689327
 11
1683.417157
 21
1465.689327
  0
LINE
  5
1D2
100
AcDbEntity
  8
M0
 62
     7
100
AcDbLine
 10
1687.627314
 20
1475.489315
 11
1683.417157
 21
1475.489315
  0
LINE
  5
1D3
100
AcDbEntity
  8
M0
 62
     7
100
AcDbLine
 10
1687.627314
 20
1480.389339
 11
1688.522235
 21
1478.83929
  0
ARC
  5
1D4
100
AcDbEntity
  8
M0
 62
     7
100
AcDbCircle
 10
1674.660219
 20
1470.589321
 40
13.862017
100
AcDbArc
 50
339.299428
 51
380.700522
  0
ARC
  5
1D5
100
AcDbEntity
  8
M0
 62
     7
100
AcDbCircle
 10
1683.522236
 20
1478.343842
 40
5.0
100
AcDbArc
 50
325.186284
 51
360.0
  0
LINE
  5
1D6
100
AcDbEntity
  8
M0
 62
     7
100
AcDbLine
 10
1687.627314
 20
1460.789241
 11
1688.522235
 21
1462.33929
  0
ARC
  5
1D7
100
AcDbEntity
  8
M0
 62
     7
100
AcDbCircle
 10
1683.522236
 20
1462.834738
 40
5.0
100
AcDbArc
 50
0.0
 51
34.813394
  0
LINE
  5
1D8
100
AcDbEntity
  8
M0
 62
     7
100
AcDbLine
 10
1682.522236
 20
1462.339291
 11
1682.522236
 21
1478.839289
  0
LINE
  5
1D9
100
AcDbEntity
  8
M0
 62
     7
100
AcDbLine
 10
1683.417157
 20
1480.389339
 11
1682.522236
 21
1478.83929
  0
ARC
  5
1DA
100
AcDbEntity
  8
M0
 62
     7
100
AcDbCircle
 10
1696.384252
 20
1470.589321
 40
13.862017
100
AcDbArc
 50
159.299467
 51
200.700243
  0
ARC
  5
1DB
100
AcDbEntity
  8
M0
 62
     7
100
AcDbCircle
 10
1687.522236
 20
1478.343842
 40
5.0
100
AcDbArc
 50
179.999967
 51
214.81339
  0
LINE
  5
1DC
100
AcDbEntity
  8
M0
 62
     7
100
AcDbLine
 10
1683.417157
 20
1460.789241
 11
1682.522236
 21
1462.33929
  0
ARC
  5
1DD
100
AcDbEntity
  8
M0
 62
     7
100
AcDbCircle
 10
1687.522236
 20
1462.834738
 40
5.0
100
AcDbArc
 50
145.186318
 51
179.999956
  0
LINE
  5
1DE
100
AcDbEntity
  8
M0
 62
     7
100
AcDbLine
 10
1687.627314
 20
1615.389369
 11
1683.417157
 21
1615.389369
  0
LINE
  5
1DF
100
AcDbEntity
  8
M0
 62
     7
100
AcDbLine
 10
1683.417104
 20
1595.789363
 11
1687.627367
 21
1595.789363
  0
LINE
  5
1E0
100
AcDbEntity
  8
M0
 62
     7
100
AcDbLine
 10
1688.522236
 20
1597.339322
 11
1688.522236
 21
1613.83932
  0
LINE
  5
1E1
100
AcDbEntity
  8
M0
  6
DASHDOT
 62
     7
100
AcDbLine
 10
1695.52222
 20
1605.589321
 11
1675.522251
 21
1605.589321
  0
LINE
  5
1E2
100
AcDbEntity
  8
M0
 62
     7
100
AcDbLine
 10
1687.627314
 20
1600.689357
 11
1683.417157
 21
1600.689357
  0
LINE
  5
1E3
100
AcDbEntity
  8
M0
 62
     7
100
AcDbLine
 10
1687.627314
 20
1610.489345
 11
1683.417157
 21
1610.489345
  0
LINE
  5
1E4
100
AcDbEntity
  8
M0
 62
     7
100
AcDbLine
 10
1687.627314
 20
1615.389369
 11
1688.522235
 21
1613.839321
  0
ARC
  5
1E5
100
AcDbEntity
  8
M0
 62
     7
100
AcDbCircle
 10
1674.660219
 20
1605.589351
 40
13.862017
100
AcDbArc
 50
339.299428
 51
380.700522
  0
ARC
  5
1E6
100
AcDbEntity
  8
M0
 62
     7
100
AcDbCircle
 10
1683.522236
 20
1613.343873
 40
5.0
100
AcDbArc
 50
325.186284
 51
360.0
  0
LINE
  5
1E7
100
AcDbEntity
  8
M0
 62
     7
100
AcDbLine
 10
1687.627314
 20
1595.789272
 11
1688.522235
 21
1597.339321
  0
ARC
  5
1E8
100
AcDbEntity
  8
M0
 62
     7
100
AcDbCircle
 10
1683.522236
 20
1597.834769
 40
5.0
100
AcDbArc
 50
0.0
 51
34.813394
  0
LINE
  5
1E9
100
AcDbEntity
  8
M0
 62
     7
100
AcDbLine
 10
1682.522236
 20
1597.339322
 11
1682.522236
 21
1613.83932
  0
LINE
  5
1EA
100
AcDbEntity
  8
M0
 62
     7
100
AcDbLine
 10
1683.417157
 20
1615.389369
 11
1682.522236
 21
1613.839321
  0
ARC
  5
1EB
100
AcDbEntity
  8
M0
 62
     7
100
AcDbCircle
 10
1696.384252
 20
1605.589351
 40
13.862017
100
AcDbArc
 50
159.299467
 51
200.700243
  0
ARC
  5
1EC
100
AcDbEntity
  8
M0
 62
     7
100
AcDbCircle
 10
1687.522236
 20
1613.343873
 40
5.0
100
AcDbArc
 50
179.999967
 51
214.81339
  0
LINE
  5
1ED
100
AcDbEntity
  8
M0
 62
     7
100
AcDbLine
 10
1683.417157
 20
1595.789272
 11
1682.522236
 21
1597.339321
  0
ARC
  5
1EE
100
AcDbEntity
  8
M0
 62
     7
100
AcDbCircle
 10
1687.522236
 20
1597.834769
 40
5.0
100
AcDbArc
 50
145.186318
 51
179.999956
  0
LINE
  5
1EF
100
AcDbEntity
  8
M0
 62
     7
100
AcDbLine
 10
1687.627314
 20
1837.389369
 11
1683.417157
 21
1837.389369
  0
LINE
  5
1F0
100
AcDbEntity
  8
M0
 62
     7
100
AcDbLine
 10
1683.417104
 20
1817.789363
 11
1687.627367
 21
1817.789363
  0
LINE
  5
1F1
100
AcDbEntity
  8
M0
 62
     7
100
AcDbLine
 10
1688.522236
 20
1819.339322
 11
1688.522236
 21
1835.83932
  0
LINE
  5
1F2
100
AcDbEntity
  8
M0
  6
DASHDOT
 62
     7
100
AcDbLine
 10
1695.52222
 20
1827.589321
 11
1675.522251
 21
1827.589321
  0
LINE
  5
1F3
100
AcDbEntity
  8
M0
 62
     7
100
AcDbLine
 10
1687.627314
 20
1822.689357
 11
1683.417157
 21
1822.689357
  0
LINE
  5
1F4
100
AcDbEntity
  8
M0
 62
     7
100
AcDbLine
 10
1687.627314
 20
1832.489345
 11
1683.417157
 21
1832.489345
  0
LINE
  5
1F5
100
AcDbEntity
  8
M0
 62
     7
100
AcDbLine
 10
1687.627314
 20
1837.389369
 11
1688.522235
 21
1835.839321
  0
ARC
  5
1F6
100
AcDbEntity
  8
M0
 62
     7
100
AcDbCircle
 10
1674.660219
 20
1827.589351
 40
13.862017
100
AcDbArc
 50
339.299428
 51
380.700522
  0
ARC
  5
1F7
100
AcDbEntity
  8
M0
 62
     7
100
AcDbCircle
 10
1683.522236
 20
1835.343873
 40
5.0
100
AcDbArc
 50
325.186284
 51
360.0
  0
LINE
  5
1F8
100
AcDbEntity
  8
M0
 62
     7
100
AcDbLine
 10
1687.627314
 20
1817.789272
 11
1688.522235
 21
1819.339321
  0
ARC
  5
1F9
100
AcDbEntity
  8
M0
 62
     7
100
AcDbCircle
 10
1683.522236
 20
1819.834769
 40
5.0
100
AcDbArc
 50
0.0
 51
34.813394
  0
LINE
  5
1FA
100
AcDbEntity
  8
M0
 62
     7
100
AcDbLine
 10
1682.522236
 20
1819.339322
 11
1682.522236
 21
1835.83932
  0
LINE
  5
1FB
100
AcDbEntity
  8
M0
 62
     7
100
AcDbLine
 10
1683.417157
 20
1837.389369
 11
1682.522236
 21
1835.839321
  0
ARC
  5
1FC
100
AcDbEntity
  8
M0
 62
     7
100
AcDbCircle
 10
1696.384252
 20
1827.589351
 40
13.862017
100
AcDbArc
 50
159.299467
 51
200.700243
  0
ARC
  5
1FD
100
AcDbEntity
  8
M0
 62
     7
100
AcDbCircle
 10
1687.522236
 20
1835.343873
 40
5.0
100
AcDbArc
 50
179.999967
 51
214.81339
  0
LINE
  5
1FE
100
AcDbEntity
  8
M0
 62
     7
100
AcDbLine
 10
1683.417157
 20
1817.789272
 11
1682.522236
 21
1819.339321
  0
ARC
  5
1FF
100
AcDbEntity
  8
M0
 62
     7
100
AcDbCircle
 10
1687.522236
 20
1819.834769
 40
5.0
100
AcDbArc
 50
145.186318
 51
179.999956
  0
CIRCLE
  5
200
100
AcDbEntity
  8
M0
 62
     7
100
AcDbCircle
 10
731.522217
 20
939.089321
 40
5.0
  0
CIRCLE
  5
201
100
AcDbEntity
  8
M0
 62
     7
100
AcDbCircle
 10
731.522217
 20
939.089321
 40
3.8
  0
CIRCLE
  5
202
100
AcDbEntity
  8
M0
 62
     7
100
AcDbCircle
 10
441.522217
 20
754.089321
 40
60.0
  0
CIRCLE
  5
203
100
AcDbEntity
  8
M0
 62
     7
100
AcDbCircle
 10
441.522217
 20
754.089321
 40
50.0
  0
CIRCLE
  5
204
100
AcDbEntity
  8
M0
 62
     7
100
AcDbCircle
 10
827.022217
 20
600.389321
 40
7.7
  0
CIRCLE
  5
205
100
AcDbEntity
  8
M0
 62
     7
100
AcDbCircle
 10
827.022217
 20
600.389321
 40
8.0
  0
CIRCLE
  5
206
100
AcDbEntity
  8
M0
 62
     7
100
AcDbCircle
 10
431.522217
 20
939.089321
 40
5.0
  0
CIRCLE
  5
207
100
AcDbEntity
  8
M0
 62
     7
100
AcDbCircle
 10
431.522217
 20
939.089321
 40
3.8
  0
CIRCLE
  5
208
100
AcDbEntity
  8
M0
 62
     7
100
AcDbCircle
 10
581.522217
 20
754.089321
 40
14.0
  0
LINE
  5
209
100
AcDbEntity
  8
M0
  6
DASHDOT
 62
     7
100
AcDbLine
 10
441.522217
 20
674.089321
 11
441.522217
 21
834.08932
  0
LINE
  5
20A
100
AcDbEntity
  8
M0
  6
DASHDOT
 62
     7
100
AcDbLine
 10
547.522217
 20
754.089321
 11
615.522217
 21
754.089321
  0
LINE
  5
20B
100
AcDbEntity
  8
M0
  6
DASHDOT
 62
     7
100
AcDbLine
 10
721.522217
 20
674.089321
 11
721.522217
 21
834.08932
  0
LINE
  5
20C
100
AcDbEntity
  8
M0
  6
DASHDOT
 62
     7
100
AcDbLine
 10
361.522217
 20
754.089321
 11
521.522217
 21
754.089321
  0
CIRCLE
  5
20D
100
AcDbEntity
  8
M0
 62
     7
100
AcDbCircle
 10
721.522217
 20
754.089321
 40
50.0
  0
CIRCLE
  5
20E
100
AcDbEntity
  8
M0
 62
     7
100
AcDbCircle
 10
581.522217
 20
754.089321
 40
11.0
  0
LINE
  5
20F
100
AcDbEntity
  8
M0
  6
DASHDOT
 62
     7
100
AcDbLine
 10
581.522217
 20
720.089321
 11
581.522217
 21
788.08932
  0
CIRCLE
  5
210
100
AcDbEntity
  8
M0
 62
     7
100
AcDbCircle
 10
721.522217
 20
754.089321
 40
60.0
  0
LINE
  5
211
100
AcDbEntity
  8
M0
  6
DASHDOT
 62
     7
100
AcDbLine
 10
641.522217
 20
754.089321
 11
801.522217
 21
754.089321
  0
LINE
  5
212
100
AcDbEntity
  8
M0
  6
DASHDOT
 62
     7
100
AcDbLine
 10
581.522217
 20
982.589321
 11
581.522217
 21
524.089321
  0
LINE
  5
213
100
AcDbEntity
  8
M0
 62
     7
100
AcDbLine
 10
881.522217
 20
952.589321
 11
881.522217
 21
927.589321
  0
LINE
  5
214
100
AcDbEntity
  8
M0
 62
     7
100
AcDbLine
 10
306.522217
 20
563.089321
 11
306.522217
 21
554.089321
  0
LINE
  5
215
100
AcDbEntity
  8
M0
 62
     7
100
AcDbLine
 10
285.022217
 20
927.589321
 11
285.022217
 21
563.089321
  0
LINE
  5
216
100
AcDbEntity
  8
M0
 62
     7
100
AcDbLine
 10
856.522217
 20
563.089321
 11
856.522217
 21
554.089321
  0
LINE
  5
217
100
AcDbEntity
  8
M0
 62
     7
100
AcDbLine
 10
881.522217
 20
927.589321
 11
281.522217
 21
927.589321
  0
LINE
  5
218
100
AcDbEntity
  8
M0
 62
     7
100
AcDbLine
 10
881.522217
 20
952.589321
 11
281.522217
 21
952.589321
  0
LINE
  5
219
100
AcDbEntity
  8
M0
 62
     7
100
AcDbLine
 10
878.022217
 20
563.089321
 11
285.022217
 21
563.089321
  0
LINE
  5
21A
100
AcDbEntity
  8
M0
 62
     7
100
AcDbLine
 10
281.522217
 20
952.589321
 11
281.522217
 21
927.589321
  0
LINE
  5
21B
100
AcDbEntity
  8
M0
 62
     7
100
AcDbLine
 10
856.522217
 20
554.089321
 11
306.522217
 21
554.089321
  0
LINE
  5
21C
100
AcDbEntity
  8
M0
 62
     7
100
AcDbLine
 10
878.022217
 20
927.589321
 11
878.022217
 21
563.089321
  0
LINE
  5
21D
100
AcDbEntity
  8
M0
 62
     7
100
AcDbLine
 10
827.022225
 20
607.89486
 11
820.522225
 21
604.142082
  0
LINE
  5
21E
100
AcDbEntity
  8
M0
 62
     7
100
AcDbLine
 10
820.522225
 20
604.142082
 11
820.522225
 21
596.636544
  0
LINE
  5
21F
100
AcDbEntity
  8
M0
 62
     7
100
AcDbLine
 10
820.522225
 20
596.636544
 11
827.022209
 21
592.883766
  0
LINE
  5
220
100
AcDbEntity
  8
M0
 62
     7
100
AcDbLine
 10
827.022209
 20
592.883766
 11
833.522209
 21
596.636544
  0
LINE
  5
221
100
AcDbEntity
  8
M0
 62
     7
100
AcDbLine
 10
833.522209
 20
596.636544
 11
833.522225
 21
604.142082
  0
LINE
  5
222
100
AcDbEntity
  8
M0
 62
     7
100
AcDbLine
 10
833.522225
 20
604.142082
 11
827.022225
 21
607.89486
  0
CIRCLE
  5
223
100
AcDbEntity
  8
M0
 62
     7
100
AcDbCircle
 10
827.022225
 20
600.389321
 40
6.5
  0
LINE
  5
224
100
AcDbEntity
  8
M0
  6
DASHDOT
 62
     7
100
AcDbLine
 10
845.522225
 20
600.389321
 11
808.522225
 21
600.389321
  0
LINE
  5
225
100
AcDbEntity
  8
M0
  6
DASHDOT
 62
     7
100
AcDbLine
 10
827.0222
 20
618.889321
 11
827.022234
 21
581.889321
  0
LINE
  5
226
100
AcDbEntity
  8
M0
 62
     7
100
AcDbLine
 10
830.355646
 20
494.089321
 11
823.688979
 21
494.089321
  0
LINE
  5
227
100
AcDbEntity
  8
M0
 62
     7
100
AcDbLine
 10
833.688975
 20
499.089321
 11
820.355641
 21
499.089321
  0
LINE
  5
228
100
AcDbEntity
  8
M0
 62
     7
100
AcDbLine
 10
827.022224
 20
592.389321
 11
827.022303
 21
504.089321
  0
LINE
  5
229
100
AcDbEntity
  8
M0
 62
     7
100
AcDbLine
 10
837.022303
 20
504.089321
 11
817.022303
 21
504.089321
  0
LINE
  5
22A
100
AcDbEntity
  8
M1
 62
     2
100
AcDbLine
 10
99.999999
 20
99.999999
 11
99.999999
 21
2849.999958
  0
LINE
  5
22B
100
AcDbEntity
  8
M1
 62
     2
100
AcDbLine
 10
99.999999
 20
2849.999958
 11
1999.99997
 21
2849.999958
  0
LINE
  5
22C
100
AcDbEntity
  8
M1
 62
     2
100
AcDbLine
 10
1999.99997
 20
2849.999958
 11
1999.99997
 21
99.999999
  0
LINE
  5
22D
100
AcDbEntity
  8
M1
 62
     2
100
AcDbLine
 10
1999.99997
 20
99.999999
 11
99.999999
 21
99.999999
  0
LINE
  5
22E
100
AcDbEntity
  8
M1
 62
     2
100
AcDbLine
 10
1999.99997
 20
199.999997
 11
999.999985
 21
199.999997
  0
LINE
  5
22F
100
AcDbEntity
  8
M1
 62
     2
100
AcDbLine
 10
1999.99997
 20
299.999996
 11
999.999985
 21
299.999996
  0
LINE
  5
230
100
AcDbEntity
  8
M1
 62
     2
100
AcDbLine
 10
1999.99997
 20
399.999994
 11
999.999985
 21
399.999994
  0
LINE
  5
231
100
AcDbEntity
  8
M1
 62
     2
100
AcDbLine
 10
999.999985
 20
99.999999
 11
999.999985
 21
399.999994
  0
TEXT
  5
232
100
AcDbEntity
  8
M1
 62
     2
100
AcDbText
 10
1024.999985
 20
124.999998
 40
50.0
  1
適　用；
  7
STANDARD
100
AcDbText
  0
TEXT
  5
233
100
AcDbEntity
  8
M1
 62
     2
100
AcDbText
 10
1024.999985
 20
324.999995
 40
50.0
  1
登録名：
  7
STANDARD
100
AcDbText
  0
TEXT
  5
234
100
AcDbEntity
  8
M1
 62
     2
100
AcDbText
 10
1264.999981
 20
324.999995
 40
50.0
  1
ＤＭＳＨ６００ＣＴＲ００
 41
0.5
  7
STANDARD
100
AcDbText
  0
TEXT
  5
235
100
AcDbEntity
  8
M1
 62
     2
100
AcDbText
 10
1024.999985
 20
224.999997
 40
50.0
  1
形　式；
  7
STANDARD
100
AcDbText
  0
TEXT
  5
236
100
AcDbEntity
  8
M1
 62
     2
100
AcDbText
 10
1264.999981
 20
224.999997
 40
50.0
  1
ＳＨ６００Ｃ－Ｔ
 41
0.5
  7
STANDARD
100
AcDbText
  0
ENDSEC
  0
SECTION
  2
OBJECTS
  0
DICTIONARY
  5
C
100
AcDbDictionary
  3
ACAD_GROUP
350
D
  3
ACAD_MLINESTYLE
350
E
  0
DICTIONARY
  5
D
102
{ACAD_REACTORS
330
C
102
}
100
AcDbDictionary
  0
DICTIONARY
  5
E
102
{ACAD_REACTORS
330
C
102
}
100
AcDbDictionary
  3
STANDARD
350
13
  0
MLINESTYLE
  5
13
102
{ACAD_REACTORS
330
E
102
}
100
AcDbMlineStyle
  2
STANDARD
 70
     0
  3

 62
     0
 51
90.0
 52
90.0
 71
     2
 49
0.5
 62
   256
  6
BYLAYER
 49
-0.5
 62
   256
  6
BYLAYER
  0
ENDSEC
  0
EOF
