  0
SECTION
  2
HEADER
  9
$ACADVER
  1
AC1014
  9
$INSBASE
 10
0.000000
 20
0.000000
 30
0.0
  9
$VIEWCTR
 10
7.531722
 20
4.5
  9
$VIEWSIZE
 40
9.0
  9
$SNAPMODE
 70
     0
  9
$SNAPUNIT
 10
1.0
 20
1.0
  9
$SNAPBASE
 10
0.0
 20
0.0
  9
$SNAPANG
 50
0.0
  9
$SNAPSTYLE
 70
     0
  9
$SNAPISOPAIR
 70
     0
  9
$GRIDMODE
 70
     0
  9
$GRIDUNIT
 10
0.0
 20
0.0
  9
$ORTHOMODE
 70
     0
  9
$REGENMODE
 70
     1
  9
$FILLMODE
 70
     1
  9
$QTEXTMODE
 70
     0
  9
$DRAGMODE
 70
     2
  9
$LTSCALE
  40
     1.000000
  9
$OSMODE
 70
     0
  9
$ATTMODE
 70
     1
  9
$TEXTSIZE
 40
0.2
  9
$TRACEWID
 40
0.05
  9
$TEXTSTYLE
  7
STANDARD
  9
$CELTYPE
  6
BYLAYER
  9
$CECOLOR
 62
   256
  9
$DIMSCALE
 40
1.0
  9
$DIMASZ
 40
0.18
  9
$DIMEXO
 40
0.0625
  9
$DIMDLI
 40
0.38
  9
$DIMRND
 40
0.0
  9
$DIMDLE
 40
0.0
  9
$DIMEXE
 40
0.18
  9
$DIMTP
 40
0.0
  9
$DIMTM
 40
0.0
  9
$DIMTXT
 40
0.18
  9
$DIMCEN
 40
0.09
  9
$DIMTSZ
 40
0.0
  9
$DIMTOL
 70
     0
  9
$DIMLIM
 70
     0
  9
$DIMTIH
 70
     1
  9
$DIMTOH
 70
     1
  9
$DIMSE1
 70
     0
  9
$DIMSE2
 70
     0
  9
$DIMTAD
 70
     0
  9
$DIMZIN
 70
     0
  9
$DIMBLK
  1

  9
$LUNITS
 70
     2
  9
$LUPREC
 70
     4
  9
$AXISMODE
 70
     0
  9
$AXISUNIT
 10
0.0
 20
0.0
  9
$SKETCHINC
 40
0.1
  9
$FILLETRAD
 40
0.0
  9
$AUNITS
 70
     0
  9
$AUPREC
 70
     0
  9
$MENU
  1
ACAD
  9
$ELEVATION
 40
0.0
  9
$THICKNESS
 40
0.0
  9
$VIEWDIR
 10
0.0
 20
0.0
 30
1.0
  9
$LIMCHECK
 70
     0
  9
$BLIPMODE
 70
     1
  9
$CHAMFERA
 40
0.0
  9
$CHAMFERB
 40
0.0
  9
$FASTZOOM
 70
     1
  9
$SKPOLY
 70
     0
  9
$TDCREATE
 40
0000000.0000000000
  9
$TDUPDATE
 40
0000000.0000000000
  9
$TDINDWG
 40
0.0000000000
  9
$TDUSRTIMER
 40
0.0000000000
  9
$USRTIMER
 70
     1
  9
$ANGBASE
 50
0.0
  9
$ANGDIR
 70
     0
  9
$PDMODE
 70
     0
  9
$PDSIZE
 40
0.0
  9
$PLINEWID
 40
0.0
  9
$COORDS
 70
     0
  9
$USERI1
 70
     0
  9
$USERI2
 70
     0
  9
$USERI3
 70
     0
  9
$USERI4
 70
     0
  9
$USERI5
 70
     0
  9
$USERR1
 40
0.0
  9
$USERR2
 40
0.0
  9
$USERR3
 40
0.0
  9
$USERR4
 40
0.0
  9
$USERR5
 40
0.0
  9
$CLAYER
  8
M0
  9
$EXTMIN
 10
49.999999
 20
49.999999
  9
$EXTMAX
 10
999.999985
 20
1424.999979
  9
$LIMMIN
 10
0.0
 20
0.0
  9
$LIMMAX
 10
210.0
 20
297.0
  9
$HANDSEED
  5
157
  0
ENDSEC
  0
SECTION
  2
CLASSES
  0
ENDSEC
  0
SECTION
  2
TABLES
  0
TABLE
  2
VPORT
  5
8
100
AcDbSymbolTable
 70
     2
  0
VPORT
  5
14
100
AcDbSymbolTableRecord
100
AcDbViewportTableRecord
  2
*ACTIVE
 70
     0
 10
0.0
 20
0.0
 11
1.0
 21
1.0
 12
484.0
 22
297.0
 13
0.0
 23
0.0
 14
1.0
 24
1.0
 15
0.0
 25
0.0
 16
0.0
 26
0.0
 36
1.0
 17
0.0
 27
0.0
 37
0.0
 40
594.0
 41
2.0
 42
50.0
 43
0.0
 44
0.0
 50
0.0
 51
0.0
 71
     0
 72
   100
 73
     1
 74
     1
 75
     0
 76
     0
 77
     0
 78
     0
  0
ENDTAB
  0
TABLE
  2
LTYPE
  5
5
100
AcDbSymbolTable
 70
     5
  0
LTYPE
  5
15
100
AcDbSymbolTableRecord
100
AcDbLinetypeTableRecord
  2
BYBLOCK
 70
     0
  3

 72
    65
 73
     0
 40
0.0
  0
LTYPE
  5
16
100
AcDbSymbolTableRecord
100
AcDbLinetypeTableRecord
  2
BYLAYER
 70
     0
  3

 72
    65
 73
     0
 40
0.0
  0
LTYPE
  5
17
100
AcDbSymbolTableRecord
100
AcDbLinetypeTableRecord
  2
CONTINUOUS
 70
    64
  3
Solid line
 72
    65
 73
     0
 40
0.0
  0
LTYPE
  5
18
100
AcDbSymbolTableRecord
100
AcDbLinetypeTableRecord
  2
DASHED
 70
    64
  3
__ __ __ __ __ __ __ __ __ __ __ __ __ __ __ __
 72
    65
 73
     2
 40
0.75
 49
0.5
 74
     0
 49
-0.25
 74
     0
  0
LTYPE
  5
19
100
AcDbSymbolTableRecord
100
AcDbLinetypeTableRecord
  2
DASHDOT
 70
    64
  3
__ . __ . __ . __ . __ . __ . __ . __ . __ . __
 72
    65
 73
     4
 40
1.0
 49
0.5
 74
     0
 49
-0.25
 74
     0
 49
0.0
 74
     0
 49
-0.25
 74
     0
  0
LTYPE
  5
1A
100
AcDbSymbolTableRecord
100
AcDbLinetypeTableRecord
  2
DIVIDE
 70
    64
  3
____ . . ____ . . ____ . . ____ . . ____ . . __
 72
    65
 73
     6
 40
1.25
 49
0.5
 74
     0
 49
-0.25
 74
     0
 49
0.0
 74
     0
 49
-0.25
 74
     0
 49
0.0
 74
     0
 49
-0.25
 74
     0
  0
LTYPE
  5
1B
100
AcDbSymbolTableRecord
100
AcDbLinetypeTableRecord
  2
DOT
 70
    64
  3
. . . . . . . . . . . . . . . . . . . . . . . .
 72
    65
 73
     2
 40
0.25
 49
0.0
 74
     0
 49
-0.25
 74
     0
  0
ENDTAB
  0
TABLE
  2
LAYER
  5
2
100
AcDbSymbolTable
 70
   102
  0
LAYER
  5
F
100
AcDbSymbolTableRecord
100
AcDbLayerTableRecord
  2
0
 70
     0
 62
     7
  6
CONTINUOUS
  0
LAYER
  5
1C
100
AcDbSymbolTableRecord
100
AcDbLayerTableRecord
  2
DEFPOINTS
 70
     0
 62
     7
  6
CONTINUOUS
  0
LAYER
  5
1D
100
AcDbSymbolTableRecord
100
AcDbLayerTableRecord
  2
M0
 70
     0
 62
     3
  6
CONTINUOUS
  0
LAYER
  5
1E
100
AcDbSymbolTableRecord
100
AcDbLayerTableRecord
  2
M1
 70
     0
 62
     3
  6
CONTINUOUS
  0
LAYER
  5
1F
100
AcDbSymbolTableRecord
100
AcDbLayerTableRecord
  2
DD0
 70
     0
 62
     4
  6
CONTINUOUS
  0
ENDTAB
  0
TABLE
  2
STYLE
  5
3
100
AcDbSymbolTable
 70
     2
  0
STYLE
  5
10
100
AcDbSymbolTableRecord
100
AcDbTextStyleTableRecord
  2
STANDARD
 70
     0
 40
0.0
 41
1.0
 50
0.0
 71
     0
 42
0.2
  3
txt
  4
BIGFONT
  0
ENDTAB
  0
TABLE
  2
VIEW
  5
6
100
AcDbSymbolTable
 70
     0
  0
ENDTAB
  0
TABLE
  2
UCS
  5
7
100
AcDbSymbolTable
 70
     0
  0
ENDTAB
  0
TABLE
  2
APPID
  5
9
100
AcDbSymbolTable
 70
     1
  0
APPID
  5
11
100
AcDbSymbolTableRecord
100
AcDbRegAppTableRecord
  2
ACAD
 70
     0
  0
ENDTAB
  0
TABLE
  2
DIMSTYLE
  5
A
100
AcDbSymbolTable
 70
     2
  0
DIMSTYLE
105
26
100
AcDbSymbolTableRecord
100
AcDbDimStyleTableRecord
  2
STANDARD
 70
     0
  3

  4

  5

  6
_OPEN
  7
_OPEN
 40
1.0
 41
15.0
 42
1.0
 43
8.0
 44
1.0
 45
0.0
 46
0.0
 47
0.0
 48
0.0
140
15.75
141
0.09
142
0.0
143
0.03937
144
1.0
145
0.0
146
1.0
147
0.6
 71
     0
 72
     0
 73
     1
 74
     1
 75
     0
 76
     0
 77
     3
 78
     8
170
     0
171
     2
172
     0
173
     1
174
     0
175
     0
176
     0
177
     0
178
     0
270
     2
271
     2
272
     4
273
     2
274
     2
340
10
275
     0
280
     0
281
     0
282
     0
283
     1
284
     0
285
     0
286
     0
287
     3
288
     0
  0
DIMSTYLE
105
27
100
AcDbSymbolTableRecord
100
AcDbDimStyleTableRecord
  2
LEADSTYL
 70
     0
  3

  4

  5

  6
_OPEN
  7
_OPEN
 40
1.0
 41
15.0
 42
0.0625
 43
0.38
 44
0.18
 45
0.0
 46
0.0
 47
0.0
 48
0.0
140
15.75
141
0.09
142
0.0
143
25.4
144
1.0
145
0.0
146
1.0
147
0.6
 71
     0
 72
     0
 73
     1
 74
     1
 75
     0
 76
     0
 77
     0
 78
     0
170
     0
171
     2
172
     0
173
     1
174
     0
175
     0
176
     0
177
     0
178
     0
270
     2
271
     4
272
     4
273
     2
274
     2
340
10
275
     0
280
     0
281
     0
282
     0
283
     1
284
     0
285
     0
286
     0
287
     3
288
     0
  0
ENDTAB
  0
TABLE
  2
BLOCK_RECORD
  5
1
100
AcDbSymbolTable
 70
    15
  0
BLOCK_RECORD
  5
20
100
AcDbSymbolTableRecord
100
AcDbBlockTableRecord
  2
*MODEL_SPACE
  0
BLOCK_RECORD
  5
23
100
AcDbSymbolTableRecord
100
AcDbBlockTableRecord
  2
*PAPER_SPACE
  0
BLOCK_RECORD
  5
28
100
AcDbSymbolTableRecord
100
AcDbBlockTableRecord
  2
_NONE
  0
BLOCK_RECORD
  5
2C
100
AcDbSymbolTableRecord
100
AcDbBlockTableRecord
  2
_OPEN
  0
BLOCK_RECORD
  5
32
100
AcDbSymbolTableRecord
100
AcDbBlockTableRecord
  2
_CLOSED
  0
BLOCK_RECORD
  5
39
100
AcDbSymbolTableRecord
100
AcDbBlockTableRecord
  2
_ORIGIN
  0
BLOCK_RECORD
  5
3E
100
AcDbSymbolTableRecord
100
AcDbBlockTableRecord
  2
_DOT
  0
BLOCK_RECORD
  5
46
100
AcDbSymbolTableRecord
100
AcDbBlockTableRecord
  2
_OBLIQUE
  0
BLOCK_RECORD
  5
4A
100
AcDbSymbolTableRecord
100
AcDbBlockTableRecord
  2
DIMS0
  0
BLOCK_RECORD
  5
56
100
AcDbSymbolTableRecord
100
AcDbBlockTableRecord
  2
DIMS1
  0
BLOCK_RECORD
  5
62
100
AcDbSymbolTableRecord
100
AcDbBlockTableRecord
  2
DIMS2
  0
BLOCK_RECORD
  5
6E
100
AcDbSymbolTableRecord
100
AcDbBlockTableRecord
  2
DIMS3
  0
BLOCK_RECORD
  5
79
100
AcDbSymbolTableRecord
100
AcDbBlockTableRecord
  2
DIMS4
  0
BLOCK_RECORD
  5
84
100
AcDbSymbolTableRecord
100
AcDbBlockTableRecord
  2
DIMS5
  0
BLOCK_RECORD
  5
90
100
AcDbSymbolTableRecord
100
AcDbBlockTableRecord
  2
DIMS6
  0
BLOCK_RECORD
  5
9C
100
AcDbSymbolTableRecord
100
AcDbBlockTableRecord
  2
DIMS7
  0
BLOCK_RECORD
  5
A5
100
AcDbSymbolTableRecord
100
AcDbBlockTableRecord
  2
DIMS8
  0
ENDTAB
  0
ENDSEC
  0
SECTION
  2
BLOCKS
  0
BLOCK
  5
21
100
AcDbEntity
  8
0
100
AcDbBlockBegin
  2
*MODEL_SPACE
 70
     0
 10
0.0
 20
0.0
 30
0.0
  3
*MODEL_SPACE
  1

  0
ENDBLK
  5
22
100
AcDbEntity
  8
0
100
AcDbBlockEnd
  0
BLOCK
  5
24
100
AcDbEntity
 67
     1
  8
0
100
AcDbBlockBegin
  2
*PAPER_SPACE
 70
     0
 10
0.0
 20
0.0
 30
0.0
  3
*PAPER_SPACE
  1

  0
ENDBLK
  5
25
100
AcDbEntity
 67
     1
  8
0
100
AcDbBlockEnd
  0
BLOCK
  5
29
100
AcDbEntity
  8
0
100
AcDbBlockBegin
  2
_NONE
 70
     0
 10
0.0
 20
0.0
  0
CIRCLE
  5
2A
100
AcDbEntity
  8
0
 62
     0
100
AcDbCircle
 10
0.0
 20
0.0
 40
0.25
  0
ENDBLK
  5
2B
100
AcDbEntity
  8
0
100
AcDbBlockEnd
  0
BLOCK
  5
2D
100
AcDbEntity
  8
0
100
AcDbBlockBegin
  2
_OPEN
 70
     0
 10
0.0
 20
0.0
  0
LINE
  5
2E
100
AcDbEntity
  8
0
 62
     0
100
AcDbLine
 10
-0.965926
 20
0.258819
 11
0.0
 21
0.0
  0
LINE
  5
2F
100
AcDbEntity
  8
0
 62
     0
100
AcDbLine
 10
0.0
 20
0.0
 11
-0.965926
 21
-0.258819
  0
LINE
  5
30
100
AcDbEntity
  8
0
 62
     0
100
AcDbLine
 10
0.0
 20
0.0
 11
-1.0
 21
0.0
  0
ENDBLK
  5
31
100
AcDbEntity
  8
0
100
AcDbBlockEnd
  0
BLOCK
  5
33
100
AcDbEntity
  8
0
100
AcDbBlockBegin
  2
_CLOSED
 70
     0
 10
0.0
 20
0.0
  0
LINE
  5
34
100
AcDbEntity
  8
0
 62
     0
100
AcDbLine
 10
-0.965926
 20
0.258819
 11
0.0
 21
0.0
  0
LINE
  5
35
100
AcDbEntity
  8
0
 62
     0
100
AcDbLine
 10
0.0
 20
0.0
 11
-0.965926
 21
-0.258819
  0
LINE
  5
36
100
AcDbEntity
  8
0
 62
     0
100
AcDbLine
 10
-0.965926
 20
0.258819
 11
-0.965926
 21
-0.258819
  0
LINE
  5
37
100
AcDbEntity
  8
0
 62
     0
100
AcDbLine
 10
0.0
 20
0.0
 11
-1.0
 21
0.0
  0
ENDBLK
  5
38
100
AcDbEntity
  8
0
100
AcDbBlockEnd
  0
BLOCK
  5
3A
100
AcDbEntity
  8
0
100
AcDbBlockBegin
  2
_ORIGIN
 70
     0
 10
0.0
 20
0.0
  0
CIRCLE
  5
3B
100
AcDbEntity
  8
0
 62
     0
100
AcDbCircle
 10
0.0
 20
0.0
 40
0.5
  0
LINE
  5
3C
100
AcDbEntity
  8
0
 62
     0
100
AcDbLine
 10
0.0
 20
0.0
 11
-1.0
 21
0.0
  0
ENDBLK
  5
3D
100
AcDbEntity
  8
0
100
AcDbBlockEnd
  0
BLOCK
  5
3F
100
AcDbEntity
  8
0
100
AcDbBlockBegin
  2
_DOT
 70
     0
 10
0.0
 20
0.0
  0
POLYLINE
  5
40
100
AcDbEntity
  8
0
 62
     0
100
AcDb2dPolyline
 66
     1
 70
     1
 40
0.5
 41
0.5
  0
VERTEX
  5
41
100
AcDbEntity
  8
0
 62
     0
100
AcDbVertex
100
AcDb2dVertex
 10
-0.25
 20
0.0
 42
1.0
  0
VERTEX
  5
42
100
AcDbEntity
  8
0
 62
     0
100
AcDbVertex
100
AcDb2dVertex
 10
0.25
 20
0.0
 42
1.0
  0
SEQEND
  5
43
100
AcDbEntity
  8
0
 62
     0
  0
LINE
  5
44
100
AcDbEntity
  8
0
 62
     0
100
AcDbLine
 10
-0.5
 20
0.0
 11
-1.0
 21
0.0
  0
ENDBLK
  5
45
100
AcDbEntity
  8
0
100
AcDbBlockEnd
  0
BLOCK
  5
47
100
AcDbEntity
  8
0
100
AcDbBlockBegin
  2
_OBLIQUE
 70
     0
 10
0.0
 20
0.0
  0
LINE
  5
48
100
AcDbEntity
  8
0
 62
     0
100
AcDbLine
 10
-0.353553
 20
-0.353553
 11
0.353553
 21
0.353553
  0
ENDBLK
  5
49
100
AcDbEntity
  8
0
100
AcDbBlockEnd
  0
BLOCK
  5
4B
100
AcDbEntity
  8
DD0
100
AcDbBlockBegin
  2
DIMS0
 70
     0
 10
0.0
 20
0.0
  0
LINE
  5
4C
100
AcDbEntity
  8
DD0
100
AcDbLine
 10
159.935911
 20
1169.538938
 11
159.935911
 21
1249.101468
  0
LINE
  5
4D
100
AcDbEntity
  8
DD0
100
AcDbLine
 10
499.935906
 20
1169.538938
 11
499.935906
 21
1249.101468
  0
LINE
  5
4E
100
AcDbEntity
  8
DD0
100
AcDbLine
 10
174.424798
 20
1247.983753
 11
159.935911
 21
1244.101468
  0
LINE
  5
4F
100
AcDbEntity
  8
DD0
100
AcDbLine
 10
159.935911
 20
1244.101468
 11
174.424798
 21
1240.219182
  0
LINE
  5
50
100
AcDbEntity
  8
DD0
100
AcDbLine
 10
485.447018
 20
1240.219182
 11
499.935906
 21
1244.101468
  0
LINE
  5
51
100
AcDbEntity
  8
DD0
100
AcDbLine
 10
499.935906
 20
1244.101468
 11
485.447018
 21
1247.983753
  0
LINE
  5
52
100
AcDbEntity
  8
DD0
100
AcDbLine
 10
159.935911
 20
1244.101468
 11
499.935906
 21
1244.101468
  0
TEXT
  5
53
100
AcDbEntity
  8
DD0
100
AcDbText
 10
307.598422
 20
1247.101498
 40
15.75
  1
３４０
 41
0.833333
  7
STANDARD
100
AcDbText
  0
ENDBLK
  5
54
100
AcDbEntity
  8
DD0
100
AcDbBlockEnd
  0
BLOCK
  5
57
100
AcDbEntity
  8
DD0
100
AcDbBlockBegin
  2
DIMS1
 70
     0
 10
0.0
 20
0.0
  0
LINE
  5
58
100
AcDbEntity
  8
DD0
100
AcDbLine
 10
504.935906
 20
1164.538938
 11
563.58924
 21
1164.538938
  0
LINE
  5
59
100
AcDbEntity
  8
DD0
100
AcDbLine
 10
484.864495
 20
1141.538984
 11
563.58924
 21
1141.538984
  0
LINE
  5
5A
100
AcDbEntity
  8
DD0
100
AcDbLine
 10
554.706955
 20
1179.027825
 11
558.58924
 21
1164.538938
  0
LINE
  5
5B
100
AcDbEntity
  8
DD0
100
AcDbLine
 10
558.58924
 20
1164.538938
 11
562.471526
 21
1179.027825
  0
LINE
  5
5C
100
AcDbEntity
  8
DD0
100
AcDbLine
 10
562.471526
 20
1127.050097
 11
558.58924
 21
1141.538984
  0
LINE
  5
5D
100
AcDbEntity
  8
DD0
100
AcDbLine
 10
558.58924
 20
1141.538984
 11
554.706955
 21
1127.050097
  0
LINE
  5
5E
100
AcDbEntity
  8
DD0
100
AcDbLine
 10
558.58924
 20
1217.538939
 11
558.58924
 21
1125.038985
  0
TEXT
  5
5F
100
AcDbEntity
  8
DD0
100
AcDbText
 10
555.589248
 20
1182.326459
 40
15.75
  1
２３
 50
90.000003
 41
0.833333
  7
STANDARD
100
AcDbText
  0
ENDBLK
  5
60
100
AcDbEntity
  8
DD0
100
AcDbBlockEnd
  0
BLOCK
  5
63
100
AcDbEntity
  8
DD0
100
AcDbBlockBegin
  2
DIMS2
 70
     0
 10
0.0
 20
0.0
  0
LINE
  5
64
100
AcDbEntity
  8
DD0
100
AcDbLine
 10
504.935906
 20
1164.538938
 11
604.216338
 21
1164.538938
  0
LINE
  5
65
100
AcDbEntity
  8
DD0
100
AcDbLine
 10
504.935906
 20
828.538959
 11
604.216338
 21
828.538959
  0
LINE
  5
66
100
AcDbEntity
  8
DD0
100
AcDbLine
 10
603.098624
 20
1150.050051
 11
599.216338
 21
1164.538938
  0
LINE
  5
67
100
AcDbEntity
  8
DD0
100
AcDbLine
 10
599.216338
 20
1164.538938
 11
595.334052
 21
1150.050051
  0
LINE
  5
68
100
AcDbEntity
  8
DD0
100
AcDbLine
 10
595.334052
 20
843.027846
 11
599.216338
 21
828.538959
  0
LINE
  5
69
100
AcDbEntity
  8
DD0
100
AcDbLine
 10
599.216338
 20
828.538959
 11
603.098624
 21
843.027846
  0
LINE
  5
6A
100
AcDbEntity
  8
DD0
100
AcDbLine
 10
599.216338
 20
1164.538938
 11
599.216338
 21
828.538959
  0
TEXT
  5
6B
100
AcDbEntity
  8
DD0
100
AcDbText
 10
596.216345
 20
974.201462
 40
15.75
  1
３３６
 50
90.000003
 41
0.833333
  7
STANDARD
100
AcDbText
  0
ENDBLK
  5
6C
100
AcDbEntity
  8
DD0
100
AcDbBlockEnd
  0
BLOCK
  5
6F
100
AcDbEntity
  8
DD0
100
AcDbBlockBegin
  2
DIMS3
 70
     0
 10
0.0
 20
0.0
  0
LINE
  5
70
100
AcDbEntity
  8
DD0
100
AcDbLine
 10
339.935908
 20
818.538959
 11
604.2163
 21
818.538959
  0
LINE
  5
71
100
AcDbEntity
  8
DD0
100
AcDbLine
 10
595.334014
 20
843.027846
 11
599.2163
 21
828.538959
  0
LINE
  5
72
100
AcDbEntity
  8
DD0
100
AcDbLine
 10
599.2163
 20
828.538959
 11
603.098585
 21
843.027846
  0
LINE
  5
73
100
AcDbEntity
  8
DD0
100
AcDbLine
 10
603.098585
 20
804.050072
 11
599.2163
 21
818.538959
  0
LINE
  5
74
100
AcDbEntity
  8
DD0
100
AcDbLine
 10
599.2163
 20
818.538959
 11
595.334014
 21
804.050072
  0
LINE
  5
75
100
AcDbEntity
  8
DD0
100
AcDbLine
 10
599.2163
 20
845.038958
 11
599.2163
 21
765.538958
  0
TEXT
  5
76
100
AcDbEntity
  8
DD0
100
AcDbText
 10
596.216307
 20
769.57645
 40
15.75
  1
１０
 50
90.000003
 41
0.833333
  7
STANDARD
100
AcDbText
  0
ENDBLK
  5
77
100
AcDbEntity
  8
DD0
100
AcDbBlockEnd
  0
BLOCK
  5
7A
100
AcDbEntity
  8
DD0
100
AcDbBlockBegin
  2
DIMS4
 70
     0
 10
0.0
 20
0.0
  0
LINE
  5
7B
100
AcDbEntity
  8
DD0
100
AcDbLine
 10
484.864495
 20
851.538989
 11
563.58924
 21
851.538989
  0
LINE
  5
7C
100
AcDbEntity
  8
DD0
100
AcDbLine
 10
562.471526
 20
1127.050097
 11
558.58924
 21
1141.538984
  0
LINE
  5
7D
100
AcDbEntity
  8
DD0
100
AcDbLine
 10
558.58924
 20
1141.538984
 11
554.706955
 21
1127.050097
  0
LINE
  5
7E
100
AcDbEntity
  8
DD0
100
AcDbLine
 10
554.706955
 20
866.027876
 11
558.58924
 21
851.538989
  0
LINE
  5
7F
100
AcDbEntity
  8
DD0
100
AcDbLine
 10
558.58924
 20
851.538989
 11
562.471526
 21
866.027876
  0
LINE
  5
80
100
AcDbEntity
  8
DD0
100
AcDbLine
 10
558.58924
 20
1141.538984
 11
558.58924
 21
851.538989
  0
TEXT
  5
81
100
AcDbEntity
  8
DD0
100
AcDbText
 10
555.589248
 20
974.201462
 40
15.75
  1
２９０
 50
90.000003
 41
0.833333
  7
STANDARD
100
AcDbText
  0
ENDBLK
  5
82
100
AcDbEntity
  8
DD0
100
AcDbBlockEnd
  0
BLOCK
  5
85
100
AcDbEntity
  8
DD0
100
AcDbBlockBegin
  2
DIMS5
 70
     0
 10
0.0
 20
0.0
  0
LINE
  5
86
100
AcDbEntity
  8
DD0
100
AcDbLine
 10
872.578646
 20
1166.038954
 11
872.578646
 21
1219.101468
  0
LINE
  5
87
100
AcDbEntity
  8
DD0
100
AcDbLine
 10
870.5786
 20
1155.495054
 11
870.5786
 21
1219.101468
  0
LINE
  5
88
100
AcDbEntity
  8
DD0
100
AcDbLine
 10
887.067533
 20
1217.983754
 11
872.578646
 21
1214.101468
  0
LINE
  5
89
100
AcDbEntity
  8
DD0
100
AcDbLine
 10
872.578646
 20
1214.101468
 11
887.067533
 21
1210.219182
  0
LINE
  5
8A
100
AcDbEntity
  8
DD0
100
AcDbLine
 10
856.089713
 20
1210.219182
 11
870.5786
 21
1214.101468
  0
LINE
  5
8B
100
AcDbEntity
  8
DD0
100
AcDbLine
 10
870.5786
 20
1214.101468
 11
856.089713
 21
1217.983754
  0
LINE
  5
8C
100
AcDbEntity
  8
DD0
100
AcDbLine
 10
957.078643
 20
1214.101468
 11
854.078601
 21
1214.101468
  0
TEXT
  5
8D
100
AcDbEntity
  8
DD0
100
AcDbText
 10
890.366167
 20
1217.101499
 40
15.75
  1
ｔ１．２
 41
0.833333
  7
STANDARD
100
AcDbText
  0
ENDBLK
  5
8E
100
AcDbEntity
  8
DD0
100
AcDbBlockEnd
  0
BLOCK
  5
91
100
AcDbEntity
  8
DD0
100
AcDbBlockBegin
  2
DIMS6
 70
     0
 10
0.0
 20
0.0
  0
LINE
  5
92
100
AcDbEntity
  8
DD0
100
AcDbLine
 10
872.578646
 20
1166.038954
 11
872.578646
 21
1249.101468
  0
LINE
  5
93
100
AcDbEntity
  8
DD0
100
AcDbLine
 10
707.578649
 20
1168.038999
 11
707.578649
 21
1249.101468
  0
LINE
  5
94
100
AcDbEntity
  8
DD0
100
AcDbLine
 10
858.089759
 20
1240.219182
 11
872.578646
 21
1244.101468
  0
LINE
  5
95
100
AcDbEntity
  8
DD0
100
AcDbLine
 10
872.578646
 20
1244.101468
 11
858.089759
 21
1247.983753
  0
LINE
  5
96
100
AcDbEntity
  8
DD0
100
AcDbLine
 10
722.067536
 20
1247.983753
 11
707.578649
 21
1244.101468
  0
LINE
  5
97
100
AcDbEntity
  8
DD0
100
AcDbLine
 10
707.578649
 20
1244.101468
 11
722.067536
 21
1240.219182
  0
LINE
  5
98
100
AcDbEntity
  8
DD0
100
AcDbLine
 10
872.578646
 20
1244.101468
 11
707.578649
 21
1244.101468
  0
TEXT
  5
99
100
AcDbEntity
  8
DD0
100
AcDbText
 10
767.741123
 20
1247.101498
 40
15.75
  1
１６５
 41
0.833333
  7
STANDARD
100
AcDbText
  0
ENDBLK
  5
9A
100
AcDbEntity
  8
DD0
100
AcDbBlockEnd
  0
BLOCK
  5
9D
100
AcDbEntity
  8
DD0
100
AcDbBlockBegin
  2
DIMS7
 70
     0
 10
0.0
 20
0.0
  0
TEXT
  5
9E
100
AcDbEntity
  8
DD0
100
AcDbText
 10
220.506196
 20
769.595325
 40
15.75
  1
４－Ｍ６ねじ取付穴
 41
0.833333
  7
STANDARD
100
AcDbText
  0
LINE
  5
9F
100
AcDbEntity
  8
DD0
100
AcDbLine
 10
203.374187
 20
835.07554
 11
196.515691
 21
848.415744
  0
LINE
  5
A0
100
AcDbEntity
  8
DD0
100
AcDbLine
 10
196.515691
 20
848.415744
 11
195.78522
 21
833.433541
  0
LINE
  5
A1
100
AcDbEntity
  8
DD0
100
AcDbLine
 10
196.515691
 20
848.415744
 11
214.218861
 21
766.595524
  0
LINE
  5
A2
100
AcDbEntity
  8
DD0
100
AcDbLine
 10
214.218842
 20
766.595524
 11
365.968851
 21
766.595295
  0
ENDBLK
  5
A3
100
AcDbEntity
  8
DD0
100
AcDbBlockEnd
  0
BLOCK
  5
A6
100
AcDbEntity
  8
DD0
100
AcDbBlockBegin
  2
DIMS8
 70
     0
 10
0.0
 20
0.0
  0
LINE
  5
A7
100
AcDbEntity
  8
DD0
100
AcDbLine
 10
194.93591
 20
1161.467573
 11
194.93591
 21
1213.192426
  0
LINE
  5
A8
100
AcDbEntity
  8
DD0
100
AcDbLine
 10
464.935906
 20
1161.467573
 11
464.935906
 21
1213.192426
  0
LINE
  5
A9
100
AcDbEntity
  8
DD0
100
AcDbLine
 10
209.424797
 20
1212.074712
 11
194.93591
 21
1208.192426
  0
LINE
  5
AA
100
AcDbEntity
  8
DD0
100
AcDbLine
 10
194.93591
 20
1208.192426
 11
209.424797
 21
1204.31014
  0
LINE
  5
AB
100
AcDbEntity
  8
DD0
100
AcDbLine
 10
450.447019
 20
1204.31014
 11
464.935906
 21
1208.192426
  0
LINE
  5
AC
100
AcDbEntity
  8
DD0
100
AcDbLine
 10
464.935906
 20
1208.192426
 11
450.447019
 21
1212.074712
  0
LINE
  5
AD
100
AcDbEntity
  8
DD0
100
AcDbLine
 10
194.93591
 20
1208.192426
 11
464.935906
 21
1208.192426
  0
TEXT
  5
AE
100
AcDbEntity
  8
DD0
100
AcDbText
 10
307.598422
 20
1211.192456
 40
15.75
  1
２７０
 41
0.833333
  7
STANDARD
100
AcDbText
  0
ENDBLK
  5
AF
100
AcDbEntity
  8
DD0
100
AcDbBlockEnd
  0
ENDSEC
  0
SECTION
  2
ENTITIES
  0
INSERT
  5
55
100
AcDbEntity
  8
DD0
100
AcDbBlockReference
  2
DIMS0
 10
0.0
 20
0.0
  0
INSERT
  5
61
100
AcDbEntity
  8
DD0
100
AcDbBlockReference
  2
DIMS1
 10
0.0
 20
0.0
  0
INSERT
  5
6D
100
AcDbEntity
  8
DD0
100
AcDbBlockReference
  2
DIMS2
 10
0.0
 20
0.0
  0
INSERT
  5
78
100
AcDbEntity
  8
DD0
100
AcDbBlockReference
  2
DIMS3
 10
0.0
 20
0.0
  0
INSERT
  5
83
100
AcDbEntity
  8
DD0
100
AcDbBlockReference
  2
DIMS4
 10
0.0
 20
0.0
  0
INSERT
  5
8F
100
AcDbEntity
  8
DD0
100
AcDbBlockReference
  2
DIMS5
 10
0.0
 20
0.0
  0
INSERT
  5
9B
100
AcDbEntity
  8
DD0
100
AcDbBlockReference
  2
DIMS6
 10
0.0
 20
0.0
  0
INSERT
  5
A4
100
AcDbEntity
  8
DD0
100
AcDbBlockReference
  2
DIMS7
 10
0.0
 20
0.0
  0
INSERT
  5
B0
100
AcDbEntity
  8
DD0
100
AcDbBlockReference
  2
DIMS8
 10
0.0
 20
0.0
  0
LINE
  5
B1
100
AcDbEntity
  8
M0
100
AcDbLine
 10
499.935908
 20
828.53897
 11
499.935908
 21
1164.53897
  0
LINE
  5
B2
100
AcDbEntity
  8
M0
100
AcDbLine
 10
499.935908
 20
1164.53897
 11
159.935908
 21
1164.53897
  0
LINE
  5
B3
100
AcDbEntity
  8
M0
100
AcDbLine
 10
159.935908
 20
1164.53897
 11
159.935908
 21
828.53897
  0
LINE
  5
B4
100
AcDbEntity
  8
M0
100
AcDbLine
 10
159.935908
 20
828.53897
 11
499.935908
 21
828.53897
  0
LINE
  5
B5
100
AcDbEntity
  8
M0
  6
DASHDOT
100
AcDbLine
 10
133.364482
 20
996.53897
 11
526.507335
 21
996.53897
  0
LINE
  5
B6
100
AcDbEntity
  8
M0
  6
DASHDOT
100
AcDbLine
 10
329.935908
 20
799.967544
 11
329.935908
 21
1193.110396
  0
LINE
  5
B7
100
AcDbEntity
  8
M0
100
AcDbLine
 10
872.578634
 20
832.03897
 11
872.578634
 21
1161.03897
  0
LINE
  5
B8
100
AcDbEntity
  8
M0
100
AcDbLine
 10
732.578634
 20
1164.53897
 11
709.078634
 21
1164.53897
  0
LINE
  5
B9
100
AcDbEntity
  8
M0
100
AcDbLine
 10
707.578634
 20
1163.03897
 11
707.578634
 21
830.03897
  0
LINE
  5
BA
100
AcDbEntity
  8
M0
100
AcDbLine
 10
709.078634
 20
828.53897
 11
732.578634
 21
828.53897
  0
LINE
  5
BB
100
AcDbEntity
  8
M0
  6
DASHDOT
100
AcDbLine
 10
679.007207
 20
996.53897
 11
901.15006
 21
996.53897
  0
ARC
  5
BC
100
AcDbEntity
  8
M0
100
AcDbCircle
 10
709.078634
 20
1163.03897
 40
1.5
100
AcDbArc
 50
89.999417
 51
180.0
  0
ARC
  5
BD
100
AcDbEntity
  8
M0
100
AcDbCircle
 10
709.078634
 20
830.03897
 40
1.5
100
AcDbArc
 50
179.999417
 51
270.0
  0
CIRCLE
  5
BE
100
AcDbEntity
  8
M0
100
AcDbCircle
 10
464.935908
 20
851.53897
 40
3.5
  0
LINE
  5
BF
100
AcDbEntity
  8
M0
  6
DASHDOT
100
AcDbLine
 10
450.007338
 20
851.53897
 11
479.864479
 21
851.53897
  0
LINE
  5
C0
100
AcDbEntity
  8
M0
  6
DASHDOT
100
AcDbLine
 10
464.935908
 20
836.610399
 11
464.935908
 21
866.467541
  0
CIRCLE
  5
C1
100
AcDbEntity
  8
M0
100
AcDbCircle
 10
194.935908
 20
851.53897
 40
3.5
  0
LINE
  5
C2
100
AcDbEntity
  8
M0
  6
DASHDOT
100
AcDbLine
 10
180.007338
 20
851.53897
 11
209.864479
 21
851.53897
  0
LINE
  5
C3
100
AcDbEntity
  8
M0
  6
DASHDOT
100
AcDbLine
 10
194.935908
 20
836.610399
 11
194.935908
 21
866.467541
  0
LINE
  5
C4
100
AcDbEntity
  8
M0
  6
DASHDOT
100
AcDbLine
 10
450.007338
 20
1141.53897
 11
479.864479
 21
1141.53897
  0
LINE
  5
C5
100
AcDbEntity
  8
M0
  6
DASHDOT
100
AcDbLine
 10
464.935908
 20
1126.610399
 11
464.935908
 21
1156.467541
  0
ARC
  5
C6
100
AcDbEntity
  8
M0
100
AcDbCircle
 10
464.935908
 20
1141.53897
 40
3.5
100
AcDbArc
 50
0.0
 51
179.999964
  0
LINE
  5
C7
100
AcDbEntity
  8
M0
  6
DASHDOT
100
AcDbLine
 10
180.007338
 20
1141.53897
 11
209.864479
 21
1141.53897
  0
LINE
  5
C8
100
AcDbEntity
  8
M0
  6
DASHDOT
100
AcDbLine
 10
194.935908
 20
1126.610399
 11
194.935908
 21
1156.467541
  0
ARC
  5
C9
100
AcDbEntity
  8
M0
100
AcDbCircle
 10
194.935908
 20
1141.53897
 40
3.5
100
AcDbArc
 50
0.0
 51
179.999964
  0
LINE
  5
CA
100
AcDbEntity
  8
M0
  6
DASHDOT
100
AcDbLine
 10
194.935908
 20
1113.610412
 11
194.935908
 21
1149.467528
  0
ARC
  5
CB
100
AcDbEntity
  8
M0
100
AcDbCircle
 10
194.935908
 20
1131.53897
 40
6.5
100
AcDbArc
 50
122.578946
 51
417.421017
  0
LINE
  5
CC
100
AcDbEntity
  8
M0
  6
DASHDOT
100
AcDbLine
 10
464.935908
 20
1113.610412
 11
464.935908
 21
1149.467528
  0
LINE
  5
CD
100
AcDbEntity
  8
M0
100
AcDbLine
 10
468.435907
 20
1141.53897
 11
468.435907
 21
1137.016195
  0
LINE
  5
CE
100
AcDbEntity
  8
M0
100
AcDbLine
 10
461.435908
 20
1141.53897
 11
461.435908
 21
1137.016195
  0
ARC
  5
CF
100
AcDbEntity
  8
M0
100
AcDbCircle
 10
464.935908
 20
1131.53897
 40
6.5
100
AcDbArc
 50
122.578946
 51
417.421017
  0
LINE
  5
D0
100
AcDbEntity
  8
M0
100
AcDbLine
 10
198.435908
 20
1141.53897
 11
198.435908
 21
1137.016195
  0
LINE
  5
D1
100
AcDbEntity
  8
M0
100
AcDbLine
 10
191.435908
 20
1141.53897
 11
191.435908
 21
1137.016195
  0
LINE
  5
D2
100
AcDbEntity
  8
M0
100
AcDbLine
 10
334.935908
 20
818.53897
 11
334.935908
 21
825.53897
  0
LINE
  5
D3
100
AcDbEntity
  8
M0
100
AcDbLine
 10
334.935908
 20
828.53897
 11
324.935908
 21
828.53897
  0
LINE
  5
D4
100
AcDbEntity
  8
M0
100
AcDbLine
 10
324.935908
 20
825.53897
 11
324.935908
 21
818.53897
  0
LINE
  5
D5
100
AcDbEntity
  8
M0
100
AcDbLine
 10
324.935908
 20
818.53897
 11
334.935908
 21
818.53897
  0
LINE
  5
D6
100
AcDbEntity
  8
M0
100
AcDbLine
 10
324.935908
 20
825.53897
 11
334.935908
 21
825.53897
  0
LINE
  5
D7
100
AcDbEntity
  8
M0
100
AcDbLine
 10
325.435908
 20
828.53897
 11
325.435908
 21
825.53897
  0
LINE
  5
D8
100
AcDbEntity
  8
M0
100
AcDbLine
 10
334.435908
 20
828.53897
 11
334.435908
 21
825.53897
  0
LINE
  5
D9
100
AcDbEntity
  8
M0
100
AcDbLine
 10
329.135908
 20
825.53897
 11
329.135908
 21
818.53897
  0
LINE
  5
DA
100
AcDbEntity
  8
M0
100
AcDbLine
 10
328.335909
 20
825.53897
 11
328.335909
 21
818.53897
  0
LINE
  5
DB
100
AcDbEntity
  8
M0
100
AcDbLine
 10
327.535909
 20
825.53897
 11
327.535909
 21
818.53897
  0
LINE
  5
DC
100
AcDbEntity
  8
M0
100
AcDbLine
 10
326.735908
 20
825.53897
 11
326.735908
 21
818.53897
  0
LINE
  5
DD
100
AcDbEntity
  8
M0
100
AcDbLine
 10
325.935908
 20
825.53897
 11
325.935908
 21
818.53897
  0
LINE
  5
DE
100
AcDbEntity
  8
M0
100
AcDbLine
 10
325.135909
 20
825.53897
 11
325.135909
 21
818.53897
  0
LINE
  5
DF
100
AcDbEntity
  8
M0
100
AcDbLine
 10
330.735908
 20
825.53897
 11
330.735908
 21
818.53897
  0
LINE
  5
E0
100
AcDbEntity
  8
M0
100
AcDbLine
 10
331.535908
 20
825.53897
 11
331.535908
 21
818.53897
  0
LINE
  5
E1
100
AcDbEntity
  8
M0
100
AcDbLine
 10
332.335908
 20
825.53897
 11
332.335908
 21
818.53897
  0
LINE
  5
E2
100
AcDbEntity
  8
M0
100
AcDbLine
 10
333.135908
 20
825.53897
 11
333.135908
 21
818.53897
  0
LINE
  5
E3
100
AcDbEntity
  8
M0
100
AcDbLine
 10
333.935908
 20
825.53897
 11
333.935908
 21
818.53897
  0
LINE
  5
E4
100
AcDbEntity
  8
M0
100
AcDbLine
 10
334.735908
 20
825.53897
 11
334.735908
 21
818.53897
  0
LINE
  5
E5
100
AcDbEntity
  8
M0
100
AcDbLine
 10
329.935908
 20
825.538969
 11
329.935908
 21
818.53897
  0
LINE
  5
E6
100
AcDbEntity
  8
M0
 62
   114
100
AcDbLine
 10
452.034281
 20
828.005521
 11
452.080939
 21
828.53892
  0
LINE
  5
E7
100
AcDbEntity
  8
M0
 62
   114
100
AcDbLine
 10
441.83755
 20
828.005524
 11
441.790887
 21
828.538923
  0
ARC
  5
E8
100
AcDbEntity
  8
M0
 62
   114
100
AcDbCircle
 10
443.730326
 20
828.171051
 40
1.9
100
AcDbArc
 50
184.99785
 51
254.639254
  0
ARC
  5
E9
100
AcDbEntity
  8
M0
 62
   114
100
AcDbCircle
 10
446.935911
 20
839.838775
 40
14.0
100
AcDbArc
 50
254.637813
 51
285.36235
  0
ARC
  5
EA
100
AcDbEntity
  8
M0
 62
   114
100
AcDbCircle
 10
450.14152
 20
828.171049
 40
1.9
100
AcDbArc
 50
285.361575
 51
355.001997
  0
LINE
  5
EB
100
AcDbEntity
  8
M0
100
AcDbLine
 10
499.935908
 20
657.467681
 11
499.935908
 21
680.967681
  0
LINE
  5
EC
100
AcDbEntity
  8
M0
100
AcDbLine
 10
498.435908
 20
682.467681
 11
161.435908
 21
682.467681
  0
LINE
  5
ED
100
AcDbEntity
  8
M0
100
AcDbLine
 10
159.935908
 20
680.967681
 11
159.935908
 21
657.467681
  0
LINE
  5
EE
100
AcDbEntity
  8
M0
100
AcDbLine
 10
162.935908
 20
517.467681
 11
496.935908
 21
517.467681
  0
LINE
  5
EF
100
AcDbEntity
  8
M0
100
AcDbLine
 10
499.935908
 20
657.467681
 11
159.935908
 21
657.467681
  0
LINE
  5
F0
100
AcDbEntity
  8
M0
100
AcDbLine
 10
162.935908
 20
657.467681
 11
162.935908
 21
517.467681
  0
LINE
  5
F1
100
AcDbEntity
  8
M0
100
AcDbLine
 10
496.935908
 20
657.467681
 11
496.935908
 21
517.467681
  0
ARC
  5
F2
100
AcDbEntity
  8
M0
100
AcDbCircle
 10
498.435908
 20
680.967681
 40
1.5
100
AcDbArc
 50
0.0
 51
90.0
  0
ARC
  5
F3
100
AcDbEntity
  8
M0
100
AcDbCircle
 10
161.435908
 20
680.967681
 40
1.5
100
AcDbArc
 50
89.999417
 51
180.0
  0
CIRCLE
  5
F4
100
AcDbEntity
  8
M0
100
AcDbCircle
 10
279.935908
 20
597.467681
 40
17.5
  0
CIRCLE
  5
F5
100
AcDbEntity
  8
M0
100
AcDbCircle
 10
379.935908
 20
597.467681
 40
17.5
  0
CIRCLE
  5
F6
100
AcDbEntity
  8
M0
  6
DASHED
100
AcDbCircle
 10
279.935908
 20
617.467681
 40
17.5
  0
CIRCLE
  5
F7
100
AcDbEntity
  8
M0
  6
DASHED
100
AcDbCircle
 10
379.935908
 20
617.467681
 40
17.5
  0
CIRCLE
  5
F8
100
AcDbEntity
  8
M0
100
AcDbCircle
 10
279.935908
 20
597.467681
 40
22.5
  0
LINE
  5
F9
100
AcDbEntity
  8
M0
  6
DASHDOT
100
AcDbLine
 10
246.00735
 20
597.467681
 11
313.864467
 21
597.467681
  0
LINE
  5
FA
100
AcDbEntity
  8
M0
  6
DASHDOT
100
AcDbLine
 10
279.935908
 20
563.539123
 11
279.935908
 21
631.396239
  0
CIRCLE
  5
FB
100
AcDbEntity
  8
M0
  6
DASHED
100
AcDbCircle
 10
279.935908
 20
617.467681
 40
22.5
  0
LINE
  5
FC
100
AcDbEntity
  8
M0
  6
DASHDOT
100
AcDbLine
 10
246.00735
 20
617.467681
 11
313.864467
 21
617.467681
  0
LINE
  5
FD
100
AcDbEntity
  8
M0
  6
DASHDOT
100
AcDbLine
 10
279.935908
 20
583.539123
 11
279.935908
 21
651.396239
  0
CIRCLE
  5
FE
100
AcDbEntity
  8
M0
100
AcDbCircle
 10
379.935908
 20
597.467681
 40
22.5
  0
LINE
  5
FF
100
AcDbEntity
  8
M0
  6
DASHDOT
100
AcDbLine
 10
346.00735
 20
597.467681
 11
413.864467
 21
597.467681
  0
LINE
  5
100
100
AcDbEntity
  8
M0
  6
DASHDOT
100
AcDbLine
 10
379.935908
 20
563.539123
 11
379.935908
 21
631.396239
  0
CIRCLE
  5
101
100
AcDbEntity
  8
M0
  6
DASHED
100
AcDbCircle
 10
379.935908
 20
617.467681
 40
22.5
  0
LINE
  5
102
100
AcDbEntity
  8
M0
  6
DASHDOT
100
AcDbLine
 10
346.00735
 20
617.467681
 11
413.864467
 21
617.467681
  0
LINE
  5
103
100
AcDbEntity
  8
M0
  6
DASHDOT
100
AcDbLine
 10
379.935908
 20
583.539123
 11
379.935908
 21
651.396239
  0
CIRCLE
  5
104
100
AcDbEntity
  8
M0
100
AcDbCircle
 10
329.935908
 20
597.467681
 40
11.0
  0
CIRCLE
  5
105
100
AcDbEntity
  8
M0
100
AcDbCircle
 10
329.935908
 20
597.467681
 40
14.0
  0
LINE
  5
106
100
AcDbEntity
  8
M0
  6
DASHDOT
100
AcDbLine
 10
304.50735
 20
597.467681
 11
355.364467
 21
597.467681
  0
CIRCLE
  5
107
100
AcDbEntity
  8
M0
100
AcDbCircle
 10
329.935908
 20
669.667632
 40
5.0
  0
LINE
  5
108
100
AcDbEntity
  8
M0
  6
DASHDOT
100
AcDbLine
 10
313.50735
 20
669.667632
 11
346.364467
 21
669.667632
  0
LINE
  5
109
100
AcDbEntity
  8
M0
  6
DASHDOT
100
AcDbLine
 10
329.935908
 20
506.601592
 11
329.935908
 21
686.09619
  0
LINE
  5
10A
100
AcDbEntity
  8
M0
100
AcDbLine
 10
732.578634
 20
1164.53897
 11
732.578634
 21
828.539046
  0
LINE
  5
10B
100
AcDbEntity
  8
M0
100
AcDbLine
 10
732.578634
 20
832.039046
 11
872.578634
 21
832.039046
  0
LINE
  5
10C
100
AcDbEntity
  8
M0
100
AcDbLine
 10
732.578634
 20
1161.03897
 11
872.578634
 21
1161.03897
  0
LINE
  5
10D
100
AcDbEntity
  8
M0
  6
DASHED
100
AcDbLine
 10
870.578634
 20
1150.495025
 11
870.578634
 21
838.91252
  0
LINE
  5
10E
100
AcDbEntity
  8
M0
100
AcDbLine
 10
725.378683
 20
818.53897
 11
725.378683
 21
825.53897
  0
LINE
  5
10F
100
AcDbEntity
  8
M0
100
AcDbLine
 10
725.378683
 20
828.53897
 11
715.378683
 21
828.53897
  0
LINE
  5
110
100
AcDbEntity
  8
M0
100
AcDbLine
 10
715.378683
 20
825.53897
 11
715.378683
 21
818.53897
  0
LINE
  5
111
100
AcDbEntity
  8
M0
100
AcDbLine
 10
715.378683
 20
818.53897
 11
725.378683
 21
818.53897
  0
LINE
  5
112
100
AcDbEntity
  8
M0
  6
DASHDOT
100
AcDbLine
 10
720.378683
 20
789.967544
 11
720.378683
 21
836.690725
  0
LINE
  5
113
100
AcDbEntity
  8
M0
100
AcDbLine
 10
715.378683
 20
825.53897
 11
725.378683
 21
825.53897
  0
LINE
  5
114
100
AcDbEntity
  8
M0
100
AcDbLine
 10
715.878683
 20
828.53897
 11
715.878683
 21
825.53897
  0
LINE
  5
115
100
AcDbEntity
  8
M0
100
AcDbLine
 10
724.878683
 20
828.53897
 11
724.878683
 21
825.53897
  0
LINE
  5
116
100
AcDbEntity
  8
M0
100
AcDbLine
 10
719.578683
 20
825.53897
 11
719.578683
 21
818.53897
  0
LINE
  5
117
100
AcDbEntity
  8
M0
100
AcDbLine
 10
718.778683
 20
825.53897
 11
718.778683
 21
818.53897
  0
LINE
  5
118
100
AcDbEntity
  8
M0
100
AcDbLine
 10
717.978683
 20
825.53897
 11
717.978683
 21
818.53897
  0
LINE
  5
119
100
AcDbEntity
  8
M0
100
AcDbLine
 10
717.178683
 20
825.53897
 11
717.178683
 21
818.53897
  0
LINE
  5
11A
100
AcDbEntity
  8
M0
100
AcDbLine
 10
716.378683
 20
825.53897
 11
716.378683
 21
818.53897
  0
LINE
  5
11B
100
AcDbEntity
  8
M0
100
AcDbLine
 10
715.578683
 20
825.53897
 11
715.578683
 21
818.53897
  0
LINE
  5
11C
100
AcDbEntity
  8
M0
100
AcDbLine
 10
721.178683
 20
825.53897
 11
721.178683
 21
818.53897
  0
LINE
  5
11D
100
AcDbEntity
  8
M0
100
AcDbLine
 10
721.978682
 20
825.53897
 11
721.978682
 21
818.53897
  0
LINE
  5
11E
100
AcDbEntity
  8
M0
100
AcDbLine
 10
722.778682
 20
825.53897
 11
722.778682
 21
818.53897
  0
LINE
  5
11F
100
AcDbEntity
  8
M0
100
AcDbLine
 10
723.578682
 20
825.53897
 11
723.578682
 21
818.53897
  0
LINE
  5
120
100
AcDbEntity
  8
M0
100
AcDbLine
 10
724.378683
 20
825.53897
 11
724.378683
 21
818.53897
  0
LINE
  5
121
100
AcDbEntity
  8
M0
100
AcDbLine
 10
725.178682
 20
825.53897
 11
725.178682
 21
818.53897
  0
LINE
  5
122
100
AcDbEntity
  8
M0
100
AcDbLine
 10
720.378683
 20
825.538969
 11
720.378683
 21
818.53897
  0
LINE
  5
123
100
AcDbEntity
  8
M0
  6
DASHDOT
100
AcDbLine
 10
720.378683
 20
836.690725
 11
720.378683
 21
857.110396
  0
LINE
  5
124
100
AcDbEntity
  8
M0
 62
   114
100
AcDbLine
 10
848.328634
 20
832.038968
 11
836.828634
 21
832.038972
  0
LINE
  5
125
100
AcDbEntity
  8
M0
 62
   114
100
AcDbLine
 10
848.328633
 20
831.23898
 11
848.328634
 21
832.038968
  0
LINE
  5
126
100
AcDbEntity
  8
M0
 62
   114
100
AcDbLine
 10
836.828633
 20
831.238984
 11
836.828634
 21
832.038972
  0
LINE
  5
127
100
AcDbEntity
  8
M0
 62
   114
100
AcDbLine
 10
848.328633
 20
831.23898
 11
836.828633
 21
831.238984
  0
LINE
  5
128
100
AcDbEntity
  8
M0
 62
   114
100
AcDbLine
 10
837.078633
 20
829.738984
 11
837.078633
 21
831.238984
  0
LINE
  5
129
100
AcDbEntity
  8
M0
 62
   114
100
AcDbLine
 10
848.078633
 20
829.73898
 11
848.078633
 21
831.23898
  0
ARC
  5
12A
100
AcDbEntity
  8
M0
 62
   114
100
AcDbCircle
 10
842.578636
 20
839.838973
 40
14.0
100
AcDbArc
 50
272.455645
 51
286.072581
  0
ARC
  5
12B
100
AcDbEntity
  8
M0
 62
   114
100
AcDbCircle
 10
842.578636
 20
839.838973
 40
14.0
100
AcDbArc
 50
253.92638
 51
267.543264
  0
LINE
  5
12C
100
AcDbEntity
  8
M0
 62
   114
100
AcDbLine
 10
843.178486
 20
827.951842
 11
843.178485
 21
825.851836
  0
LINE
  5
12D
100
AcDbEntity
  8
M0
 62
   114
100
AcDbLine
 10
841.978535
 20
827.951843
 11
843.178486
 21
827.951842
  0
LINE
  5
12E
100
AcDbEntity
  8
M0
 62
   114
100
AcDbLine
 10
841.978534
 20
825.851836
 11
841.978535
 21
827.951843
  0
ARC
  5
12F
100
AcDbEntity
  8
M0
 62
   114
100
AcDbCircle
 10
845.928486
 20
828.211958
 40
1.9
100
AcDbArc
 50
286.075403
 51
359.999953
  0
LINE
  5
130
100
AcDbEntity
  8
M0
 62
   114
100
AcDbLine
 10
847.828633
 20
828.211957
 11
847.828633
 21
829.738981
  0
ARC
  5
131
100
AcDbEntity
  8
M0
 62
   114
100
AcDbCircle
 10
839.228535
 20
828.21196
 40
1.9
100
AcDbArc
 50
179.999953
 51
253.924471
  0
LINE
  5
132
100
AcDbEntity
  8
M0
 62
   114
100
AcDbLine
 10
837.328633
 20
829.738984
 11
837.328633
 21
828.211961
  0
LINE
  5
133
100
AcDbEntity
  8
M0
  6
DASHDOT
 62
   114
100
AcDbLine
 10
842.578631
 20
823.483932
 11
842.578639
 21
847.401855
  0
LINE
  5
134
100
AcDbEntity
  8
M0
 62
   114
100
AcDbLine
 10
837.078633
 20
829.738984
 11
848.078633
 21
829.73898
  0
LINE
  5
135
100
AcDbEntity
  8
M0
 62
   114
100
AcDbLine
 10
842.578633
 20
831.238982
 11
843.578633
 21
829.738982
  0
LINE
  5
136
100
AcDbEntity
  8
M0
 62
   114
100
AcDbLine
 10
842.578633
 20
829.738982
 11
841.578633
 21
831.238983
  0
CIRCLE
  5
137
100
AcDbEntity
  8
M0
 62
   114
100
AcDbCircle
 10
446.935908
 20
547.467681
 40
5.25
  0
LINE
  5
138
100
AcDbEntity
  8
M0
 62
   114
100
AcDbLine
 10
447.784499
 20
547.467605
 11
451.048211
 21
550.731317
  0
LINE
  5
139
100
AcDbEntity
  8
M0
 62
   114
100
AcDbLine
 10
443.672261
 20
543.355368
 11
446.935973
 21
546.619079
  0
LINE
  5
13A
100
AcDbEntity
  8
M0
 62
   114
100
AcDbLine
 10
446.08749
 20
547.467562
 11
442.823757
 21
544.203829
  0
LINE
  5
13B
100
AcDbEntity
  8
M0
 62
   114
100
AcDbLine
 10
450.199739
 20
551.579832
 11
446.936016
 21
548.316088
  0
LINE
  5
13C
100
AcDbEntity
  8
M0
 62
   114
100
AcDbLine
 10
446.936005
 20
548.316099
 11
445.168239
 21
550.083866
  0
LINE
  5
13D
100
AcDbEntity
  8
M0
 62
   114
100
AcDbLine
 10
449.552266
 20
545.699838
 11
447.784499
 21
547.467605
  0
LINE
  5
13E
100
AcDbEntity
  8
M0
 62
   114
100
AcDbLine
 10
446.935973
 20
546.619079
 11
448.70374
 21
544.851312
  0
LINE
  5
13F
100
AcDbEntity
  8
M0
 62
   114
100
AcDbLine
 10
444.319713
 20
549.23534
 11
446.087479
 21
547.467573
  0
LINE
  5
140
100
AcDbEntity
  8
M0
 62
   114
100
AcDbLine
 10
448.70374
 20
544.851312
 11
449.552266
 21
545.699838
  0
LINE
  5
141
100
AcDbEntity
  8
M0
 62
   114
100
AcDbLine
 10
445.168239
 20
550.083866
 11
444.319713
 21
549.23534
  0
CIRCLE
  5
142
100
AcDbEntity
  8
M0
 62
   114
100
AcDbCircle
 10
446.935908
 20
547.467681
 40
5.75
  0
LINE
  5
143
100
AcDbEntity
  8
M0
  6
DASHDOT
 62
   114
100
AcDbLine
 10
438.580489
 20
547.467681
 11
455.291327
 21
547.467681
  0
LINE
  5
144
100
AcDbEntity
  8
M0
  6
DASHDOT
 62
   114
100
AcDbLine
 10
446.935908
 20
539.112262
 11
446.935909
 21
555.8231
  0
LINE
  5
145
100
AcDbEntity
  8
M0
100
AcDbLine
 10
446.935908
 20
541.717681
 11
446.935908
 21
484.664458
  0
LINE
  5
146
100
AcDbEntity
  8
M0
100
AcDbLine
 10
439.52209
 20
484.664458
 11
455.164912
 21
484.664458
  0
LINE
  5
147
100
AcDbEntity
  8
M0
100
AcDbLine
 10
453.322871
 20
479.664458
 11
441.466426
 21
479.664458
  0
LINE
  5
148
100
AcDbEntity
  8
M0
100
AcDbLine
 10
451.480586
 20
474.664458
 11
443.410762
 21
474.664458
  0
LINE
  5
149
100
AcDbEntity
  8
M1
 62
     2
100
AcDbLine
 10
49.999999
 20
49.999999
 11
49.999999
 21
1424.999979
  0
LINE
  5
14A
100
AcDbEntity
  8
M1
 62
     2
100
AcDbLine
 10
49.999999
 20
1424.999979
 11
999.999985
 21
1424.999979
  0
LINE
  5
14B
100
AcDbEntity
  8
M1
 62
     2
100
AcDbLine
 10
999.999985
 20
1424.999979
 11
999.999985
 21
49.999999
  0
LINE
  5
14C
100
AcDbEntity
  8
M1
 62
     2
100
AcDbLine
 10
999.999985
 20
49.999999
 11
49.999999
 21
49.999999
  0
LINE
  5
14D
100
AcDbEntity
  8
M1
 62
     2
100
AcDbLine
 10
999.999985
 20
99.999999
 11
499.999993
 21
99.999999
  0
LINE
  5
14E
100
AcDbEntity
  8
M1
 62
     2
100
AcDbLine
 10
999.999985
 20
149.999998
 11
499.999993
 21
149.999998
  0
LINE
  5
14F
100
AcDbEntity
  8
M1
 62
     2
100
AcDbLine
 10
999.999985
 20
199.999997
 11
499.999993
 21
199.999997
  0
LINE
  5
150
100
AcDbEntity
  8
M1
 62
     2
100
AcDbLine
 10
499.999993
 20
49.999999
 11
499.999993
 21
199.999997
  0
TEXT
  5
151
100
AcDbEntity
  8
M1
 62
     2
100
AcDbText
 10
512.499992
 20
62.499999
 40
25.0
  1
適　用；
  7
STANDARD
100
AcDbText
  0
TEXT
  5
152
100
AcDbEntity
  8
M1
 62
     2
100
AcDbText
 10
512.499992
 20
162.499998
 40
25.0
  1
登録名：
  7
STANDARD
100
AcDbText
  0
TEXT
  5
153
100
AcDbEntity
  8
M1
 62
     2
100
AcDbText
 10
632.499991
 20
162.499998
 40
25.0
  1
ＤＭＳＨ６５ＣＲＴＲ００
 41
0.5
  7
STANDARD
100
AcDbText
  0
TEXT
  5
154
100
AcDbEntity
  8
M1
 62
     2
100
AcDbText
 10
512.499992
 20
112.499998
 40
25.0
  1
形　式；
  7
STANDARD
100
AcDbText
  0
TEXT
  5
155
100
AcDbEntity
  8
M1
 62
     2
100
AcDbText
 10
632.499991
 20
112.499998
 40
25.0
  1
ＳＨ６５Ｃ－ＲＴ，ＳＨ８０Ｃ－ＲＴ
 41
0.5
  7
STANDARD
100
AcDbText
  0
ENDSEC
  0
SECTION
  2
OBJECTS
  0
DICTIONARY
  5
C
100
AcDbDictionary
  3
ACAD_GROUP
350
D
  3
ACAD_MLINESTYLE
350
E
  0
DICTIONARY
  5
D
102
{ACAD_REACTORS
330
C
102
}
100
AcDbDictionary
  0
DICTIONARY
  5
E
102
{ACAD_REACTORS
330
C
102
}
100
AcDbDictionary
  3
STANDARD
350
13
  0
MLINESTYLE
  5
13
102
{ACAD_REACTORS
330
E
102
}
100
AcDbMlineStyle
  2
STANDARD
 70
     0
  3

 62
     0
 51
90.0
 52
90.0
 71
     2
 49
0.5
 62
   256
  6
BYLAYER
 49
-0.5
 62
   256
  6
BYLAYER
  0
ENDSEC
  0
EOF
