  0
SECTION
  2
HEADER
  9
$ACADVER
  1
AC1014
  9
$INSBASE
 10
0.000000
 20
0.000000
 30
0.0
  9
$VIEWCTR
 10
7.531722
 20
4.5
  9
$VIEWSIZE
 40
9.0
  9
$SNAPMODE
 70
     0
  9
$SNAPUNIT
 10
1.0
 20
1.0
  9
$SNAPBASE
 10
0.0
 20
0.0
  9
$SNAPANG
 50
0.0
  9
$SNAPSTYLE
 70
     0
  9
$SNAPISOPAIR
 70
     0
  9
$GRIDMODE
 70
     0
  9
$GRIDUNIT
 10
0.0
 20
0.0
  9
$ORTHOMODE
 70
     0
  9
$REGENMODE
 70
     1
  9
$FILLMODE
 70
     1
  9
$QTEXTMODE
 70
     0
  9
$DRAGMODE
 70
     2
  9
$LTSCALE
  40
     1.000000
  9
$OSMODE
 70
     0
  9
$ATTMODE
 70
     1
  9
$TEXTSIZE
 40
0.2
  9
$TRACEWID
 40
0.05
  9
$TEXTSTYLE
  7
STANDARD
  9
$CELTYPE
  6
BYLAYER
  9
$CECOLOR
 62
   256
  9
$DIMSCALE
 40
1.0
  9
$DIMASZ
 40
0.18
  9
$DIMEXO
 40
0.0625
  9
$DIMDLI
 40
0.38
  9
$DIMRND
 40
0.0
  9
$DIMDLE
 40
0.0
  9
$DIMEXE
 40
0.18
  9
$DIMTP
 40
0.0
  9
$DIMTM
 40
0.0
  9
$DIMTXT
 40
0.18
  9
$DIMCEN
 40
0.09
  9
$DIMTSZ
 40
0.0
  9
$DIMTOL
 70
     0
  9
$DIMLIM
 70
     0
  9
$DIMTIH
 70
     1
  9
$DIMTOH
 70
     1
  9
$DIMSE1
 70
     0
  9
$DIMSE2
 70
     0
  9
$DIMTAD
 70
     0
  9
$DIMZIN
 70
     0
  9
$DIMBLK
  1

  9
$LUNITS
 70
     2
  9
$LUPREC
 70
     4
  9
$AXISMODE
 70
     0
  9
$AXISUNIT
 10
0.0
 20
0.0
  9
$SKETCHINC
 40
0.1
  9
$FILLETRAD
 40
0.0
  9
$AUNITS
 70
     0
  9
$AUPREC
 70
     0
  9
$MENU
  1
ACAD
  9
$ELEVATION
 40
0.0
  9
$THICKNESS
 40
0.0
  9
$VIEWDIR
 10
0.0
 20
0.0
 30
1.0
  9
$LIMCHECK
 70
     0
  9
$BLIPMODE
 70
     1
  9
$CHAMFERA
 40
0.0
  9
$CHAMFERB
 40
0.0
  9
$FASTZOOM
 70
     1
  9
$SKPOLY
 70
     0
  9
$TDCREATE
 40
0000000.0000000000
  9
$TDUPDATE
 40
0000000.0000000000
  9
$TDINDWG
 40
0.0000000000
  9
$TDUSRTIMER
 40
0.0000000000
  9
$USRTIMER
 70
     1
  9
$ANGBASE
 50
0.0
  9
$ANGDIR
 70
     0
  9
$PDMODE
 70
     0
  9
$PDSIZE
 40
0.0
  9
$PLINEWID
 40
0.0
  9
$COORDS
 70
     0
  9
$USERI1
 70
     0
  9
$USERI2
 70
     0
  9
$USERI3
 70
     0
  9
$USERI4
 70
     0
  9
$USERI5
 70
     0
  9
$USERR1
 40
0.0
  9
$USERR2
 40
0.0
  9
$USERR3
 40
0.0
  9
$USERR4
 40
0.0
  9
$USERR5
 40
0.0
  9
$CLAYER
  8
M0
  9
$EXTMIN
 10
33.333332
 20
33.333332
  9
$EXTMAX
 10
666.66664
 20
949.999962
  9
$LIMMIN
 10
0.0
 20
0.0
  9
$LIMMAX
 10
210.0
 20
297.0
  9
$HANDSEED
  5
157
  0
ENDSEC
  0
SECTION
  2
CLASSES
  0
ENDSEC
  0
SECTION
  2
TABLES
  0
TABLE
  2
VPORT
  5
8
100
AcDbSymbolTable
 70
     2
  0
VPORT
  5
14
100
AcDbSymbolTableRecord
100
AcDbViewportTableRecord
  2
*ACTIVE
 70
     0
 10
0.0
 20
0.0
 11
1.0
 21
1.0
 12
484.0
 22
297.0
 13
0.0
 23
0.0
 14
1.0
 24
1.0
 15
0.0
 25
0.0
 16
0.0
 26
0.0
 36
1.0
 17
0.0
 27
0.0
 37
0.0
 40
594.0
 41
2.0
 42
50.0
 43
0.0
 44
0.0
 50
0.0
 51
0.0
 71
     0
 72
   100
 73
     1
 74
     1
 75
     0
 76
     0
 77
     0
 78
     0
  0
ENDTAB
  0
TABLE
  2
LTYPE
  5
5
100
AcDbSymbolTable
 70
     5
  0
LTYPE
  5
15
100
AcDbSymbolTableRecord
100
AcDbLinetypeTableRecord
  2
BYBLOCK
 70
     0
  3

 72
    65
 73
     0
 40
0.0
  0
LTYPE
  5
16
100
AcDbSymbolTableRecord
100
AcDbLinetypeTableRecord
  2
BYLAYER
 70
     0
  3

 72
    65
 73
     0
 40
0.0
  0
LTYPE
  5
17
100
AcDbSymbolTableRecord
100
AcDbLinetypeTableRecord
  2
CONTINUOUS
 70
    64
  3
Solid line
 72
    65
 73
     0
 40
0.0
  0
LTYPE
  5
18
100
AcDbSymbolTableRecord
100
AcDbLinetypeTableRecord
  2
DASHED
 70
    64
  3
__ __ __ __ __ __ __ __ __ __ __ __ __ __ __ __
 72
    65
 73
     2
 40
0.75
 49
0.5
 74
     0
 49
-0.25
 74
     0
  0
LTYPE
  5
19
100
AcDbSymbolTableRecord
100
AcDbLinetypeTableRecord
  2
DASHDOT
 70
    64
  3
__ . __ . __ . __ . __ . __ . __ . __ . __ . __
 72
    65
 73
     4
 40
1.0
 49
0.5
 74
     0
 49
-0.25
 74
     0
 49
0.0
 74
     0
 49
-0.25
 74
     0
  0
LTYPE
  5
1A
100
AcDbSymbolTableRecord
100
AcDbLinetypeTableRecord
  2
DIVIDE
 70
    64
  3
____ . . ____ . . ____ . . ____ . . ____ . . __
 72
    65
 73
     6
 40
1.25
 49
0.5
 74
     0
 49
-0.25
 74
     0
 49
0.0
 74
     0
 49
-0.25
 74
     0
 49
0.0
 74
     0
 49
-0.25
 74
     0
  0
LTYPE
  5
1B
100
AcDbSymbolTableRecord
100
AcDbLinetypeTableRecord
  2
DOT
 70
    64
  3
. . . . . . . . . . . . . . . . . . . . . . . .
 72
    65
 73
     2
 40
0.25
 49
0.0
 74
     0
 49
-0.25
 74
     0
  0
ENDTAB
  0
TABLE
  2
LAYER
  5
2
100
AcDbSymbolTable
 70
   102
  0
LAYER
  5
F
100
AcDbSymbolTableRecord
100
AcDbLayerTableRecord
  2
0
 70
     0
 62
     7
  6
CONTINUOUS
  0
LAYER
  5
1C
100
AcDbSymbolTableRecord
100
AcDbLayerTableRecord
  2
DEFPOINTS
 70
     0
 62
     7
  6
CONTINUOUS
  0
LAYER
  5
1D
100
AcDbSymbolTableRecord
100
AcDbLayerTableRecord
  2
M0
 70
     0
 62
     3
  6
CONTINUOUS
  0
LAYER
  5
1E
100
AcDbSymbolTableRecord
100
AcDbLayerTableRecord
  2
M1
 70
     0
 62
     3
  6
CONTINUOUS
  0
LAYER
  5
1F
100
AcDbSymbolTableRecord
100
AcDbLayerTableRecord
  2
DD0
 70
     0
 62
     4
  6
CONTINUOUS
  0
ENDTAB
  0
TABLE
  2
STYLE
  5
3
100
AcDbSymbolTable
 70
     2
  0
STYLE
  5
10
100
AcDbSymbolTableRecord
100
AcDbTextStyleTableRecord
  2
STANDARD
 70
     0
 40
0.0
 41
1.0
 50
0.0
 71
     0
 42
0.2
  3
txt
  4
BIGFONT
  0
ENDTAB
  0
TABLE
  2
VIEW
  5
6
100
AcDbSymbolTable
 70
     0
  0
ENDTAB
  0
TABLE
  2
UCS
  5
7
100
AcDbSymbolTable
 70
     0
  0
ENDTAB
  0
TABLE
  2
APPID
  5
9
100
AcDbSymbolTable
 70
     1
  0
APPID
  5
11
100
AcDbSymbolTableRecord
100
AcDbRegAppTableRecord
  2
ACAD
 70
     0
  0
ENDTAB
  0
TABLE
  2
DIMSTYLE
  5
A
100
AcDbSymbolTable
 70
     2
  0
DIMSTYLE
105
26
100
AcDbSymbolTableRecord
100
AcDbDimStyleTableRecord
  2
STANDARD
 70
     0
  3

  4

  5

  6
_OPEN
  7
_OPEN
 40
1.0
 41
10.0
 42
1.0
 43
8.0
 44
1.0
 45
0.0
 46
0.0
 47
0.0
 48
0.0
140
10.5
141
0.09
142
0.0
143
0.03937
144
1.0
145
0.0
146
1.0
147
0.6
 71
     0
 72
     0
 73
     1
 74
     1
 75
     0
 76
     0
 77
     3
 78
     8
170
     0
171
     2
172
     0
173
     1
174
     0
175
     0
176
     0
177
     0
178
     0
270
     2
271
     2
272
     4
273
     2
274
     2
340
10
275
     0
280
     0
281
     0
282
     0
283
     1
284
     0
285
     0
286
     0
287
     3
288
     0
  0
DIMSTYLE
105
27
100
AcDbSymbolTableRecord
100
AcDbDimStyleTableRecord
  2
LEADSTYL
 70
     0
  3

  4

  5

  6
_OPEN
  7
_OPEN
 40
1.0
 41
10.0
 42
0.0625
 43
0.38
 44
0.18
 45
0.0
 46
0.0
 47
0.0
 48
0.0
140
10.5
141
0.09
142
0.0
143
25.4
144
1.0
145
0.0
146
1.0
147
0.6
 71
     0
 72
     0
 73
     1
 74
     1
 75
     0
 76
     0
 77
     0
 78
     0
170
     0
171
     2
172
     0
173
     1
174
     0
175
     0
176
     0
177
     0
178
     0
270
     2
271
     4
272
     4
273
     2
274
     2
340
10
275
     0
280
     0
281
     0
282
     0
283
     1
284
     0
285
     0
286
     0
287
     3
288
     0
  0
ENDTAB
  0
TABLE
  2
BLOCK_RECORD
  5
1
100
AcDbSymbolTable
 70
    15
  0
BLOCK_RECORD
  5
20
100
AcDbSymbolTableRecord
100
AcDbBlockTableRecord
  2
*MODEL_SPACE
  0
BLOCK_RECORD
  5
23
100
AcDbSymbolTableRecord
100
AcDbBlockTableRecord
  2
*PAPER_SPACE
  0
BLOCK_RECORD
  5
28
100
AcDbSymbolTableRecord
100
AcDbBlockTableRecord
  2
_NONE
  0
BLOCK_RECORD
  5
2C
100
AcDbSymbolTableRecord
100
AcDbBlockTableRecord
  2
_OPEN
  0
BLOCK_RECORD
  5
32
100
AcDbSymbolTableRecord
100
AcDbBlockTableRecord
  2
_CLOSED
  0
BLOCK_RECORD
  5
39
100
AcDbSymbolTableRecord
100
AcDbBlockTableRecord
  2
_ORIGIN
  0
BLOCK_RECORD
  5
3E
100
AcDbSymbolTableRecord
100
AcDbBlockTableRecord
  2
_DOT
  0
BLOCK_RECORD
  5
46
100
AcDbSymbolTableRecord
100
AcDbBlockTableRecord
  2
_OBLIQUE
  0
BLOCK_RECORD
  5
4A
100
AcDbSymbolTableRecord
100
AcDbBlockTableRecord
  2
DIMS0
  0
BLOCK_RECORD
  5
56
100
AcDbSymbolTableRecord
100
AcDbBlockTableRecord
  2
DIMS1
  0
BLOCK_RECORD
  5
62
100
AcDbSymbolTableRecord
100
AcDbBlockTableRecord
  2
DIMS2
  0
BLOCK_RECORD
  5
6E
100
AcDbSymbolTableRecord
100
AcDbBlockTableRecord
  2
DIMS3
  0
BLOCK_RECORD
  5
79
100
AcDbSymbolTableRecord
100
AcDbBlockTableRecord
  2
DIMS4
  0
BLOCK_RECORD
  5
84
100
AcDbSymbolTableRecord
100
AcDbBlockTableRecord
  2
DIMS5
  0
BLOCK_RECORD
  5
90
100
AcDbSymbolTableRecord
100
AcDbBlockTableRecord
  2
DIMS6
  0
BLOCK_RECORD
  5
9C
100
AcDbSymbolTableRecord
100
AcDbBlockTableRecord
  2
DIMS7
  0
BLOCK_RECORD
  5
A5
100
AcDbSymbolTableRecord
100
AcDbBlockTableRecord
  2
DIMS8
  0
ENDTAB
  0
ENDSEC
  0
SECTION
  2
BLOCKS
  0
BLOCK
  5
21
100
AcDbEntity
  8
0
100
AcDbBlockBegin
  2
*MODEL_SPACE
 70
     0
 10
0.0
 20
0.0
 30
0.0
  3
*MODEL_SPACE
  1

  0
ENDBLK
  5
22
100
AcDbEntity
  8
0
100
AcDbBlockEnd
  0
BLOCK
  5
24
100
AcDbEntity
 67
     1
  8
0
100
AcDbBlockBegin
  2
*PAPER_SPACE
 70
     0
 10
0.0
 20
0.0
 30
0.0
  3
*PAPER_SPACE
  1

  0
ENDBLK
  5
25
100
AcDbEntity
 67
     1
  8
0
100
AcDbBlockEnd
  0
BLOCK
  5
29
100
AcDbEntity
  8
0
100
AcDbBlockBegin
  2
_NONE
 70
     0
 10
0.0
 20
0.0
  0
CIRCLE
  5
2A
100
AcDbEntity
  8
0
 62
     0
100
AcDbCircle
 10
0.0
 20
0.0
 40
0.25
  0
ENDBLK
  5
2B
100
AcDbEntity
  8
0
100
AcDbBlockEnd
  0
BLOCK
  5
2D
100
AcDbEntity
  8
0
100
AcDbBlockBegin
  2
_OPEN
 70
     0
 10
0.0
 20
0.0
  0
LINE
  5
2E
100
AcDbEntity
  8
0
 62
     0
100
AcDbLine
 10
-0.965926
 20
0.258819
 11
0.0
 21
0.0
  0
LINE
  5
2F
100
AcDbEntity
  8
0
 62
     0
100
AcDbLine
 10
0.0
 20
0.0
 11
-0.965926
 21
-0.258819
  0
LINE
  5
30
100
AcDbEntity
  8
0
 62
     0
100
AcDbLine
 10
0.0
 20
0.0
 11
-1.0
 21
0.0
  0
ENDBLK
  5
31
100
AcDbEntity
  8
0
100
AcDbBlockEnd
  0
BLOCK
  5
33
100
AcDbEntity
  8
0
100
AcDbBlockBegin
  2
_CLOSED
 70
     0
 10
0.0
 20
0.0
  0
LINE
  5
34
100
AcDbEntity
  8
0
 62
     0
100
AcDbLine
 10
-0.965926
 20
0.258819
 11
0.0
 21
0.0
  0
LINE
  5
35
100
AcDbEntity
  8
0
 62
     0
100
AcDbLine
 10
0.0
 20
0.0
 11
-0.965926
 21
-0.258819
  0
LINE
  5
36
100
AcDbEntity
  8
0
 62
     0
100
AcDbLine
 10
-0.965926
 20
0.258819
 11
-0.965926
 21
-0.258819
  0
LINE
  5
37
100
AcDbEntity
  8
0
 62
     0
100
AcDbLine
 10
0.0
 20
0.0
 11
-1.0
 21
0.0
  0
ENDBLK
  5
38
100
AcDbEntity
  8
0
100
AcDbBlockEnd
  0
BLOCK
  5
3A
100
AcDbEntity
  8
0
100
AcDbBlockBegin
  2
_ORIGIN
 70
     0
 10
0.0
 20
0.0
  0
CIRCLE
  5
3B
100
AcDbEntity
  8
0
 62
     0
100
AcDbCircle
 10
0.0
 20
0.0
 40
0.5
  0
LINE
  5
3C
100
AcDbEntity
  8
0
 62
     0
100
AcDbLine
 10
0.0
 20
0.0
 11
-1.0
 21
0.0
  0
ENDBLK
  5
3D
100
AcDbEntity
  8
0
100
AcDbBlockEnd
  0
BLOCK
  5
3F
100
AcDbEntity
  8
0
100
AcDbBlockBegin
  2
_DOT
 70
     0
 10
0.0
 20
0.0
  0
POLYLINE
  5
40
100
AcDbEntity
  8
0
 62
     0
100
AcDb2dPolyline
 66
     1
 70
     1
 40
0.5
 41
0.5
  0
VERTEX
  5
41
100
AcDbEntity
  8
0
 62
     0
100
AcDbVertex
100
AcDb2dVertex
 10
-0.25
 20
0.0
 42
1.0
  0
VERTEX
  5
42
100
AcDbEntity
  8
0
 62
     0
100
AcDbVertex
100
AcDb2dVertex
 10
0.25
 20
0.0
 42
1.0
  0
SEQEND
  5
43
100
AcDbEntity
  8
0
 62
     0
  0
LINE
  5
44
100
AcDbEntity
  8
0
 62
     0
100
AcDbLine
 10
-0.5
 20
0.0
 11
-1.0
 21
0.0
  0
ENDBLK
  5
45
100
AcDbEntity
  8
0
100
AcDbBlockEnd
  0
BLOCK
  5
47
100
AcDbEntity
  8
0
100
AcDbBlockBegin
  2
_OBLIQUE
 70
     0
 10
0.0
 20
0.0
  0
LINE
  5
48
100
AcDbEntity
  8
0
 62
     0
100
AcDbLine
 10
-0.353553
 20
-0.353553
 11
0.353553
 21
0.353553
  0
ENDBLK
  5
49
100
AcDbEntity
  8
0
100
AcDbBlockEnd
  0
BLOCK
  5
4B
100
AcDbEntity
  8
DD0
100
AcDbBlockBegin
  2
DIMS0
 70
     0
 10
0.0
 20
0.0
  0
LINE
  5
4C
100
AcDbEntity
  8
DD0
100
AcDbLine
 10
82.519859
 20
803.212706
 11
82.519859
 21
881.412929
  0
LINE
  5
4D
100
AcDbEntity
  8
DD0
100
AcDbLine
 10
288.519861
 20
803.212706
 11
288.519861
 21
881.412929
  0
LINE
  5
4E
100
AcDbEntity
  8
DD0
100
AcDbLine
 10
92.179116
 20
880.667786
 11
82.519859
 21
878.079596
  0
LINE
  5
4F
100
AcDbEntity
  8
DD0
100
AcDbLine
 10
82.519859
 20
878.079596
 11
92.179116
 21
875.491405
  0
LINE
  5
50
100
AcDbEntity
  8
DD0
100
AcDbLine
 10
278.860603
 20
875.491405
 11
288.519861
 21
878.079596
  0
LINE
  5
51
100
AcDbEntity
  8
DD0
100
AcDbLine
 10
288.519861
 20
878.079596
 11
278.860603
 21
880.667786
  0
LINE
  5
52
100
AcDbEntity
  8
DD0
100
AcDbLine
 10
82.519859
 20
878.079596
 11
288.519861
 21
878.079596
  0
TEXT
  5
53
100
AcDbEntity
  8
DD0
100
AcDbText
 10
166.647641
 20
881.412929
 40
13.333333
  1
２０６
 41
0.833333
  7
STANDARD
100
AcDbText
  0
ENDBLK
  5
54
100
AcDbEntity
  8
DD0
100
AcDbBlockEnd
  0
BLOCK
  5
57
100
AcDbEntity
  8
DD0
100
AcDbBlockBegin
  2
DIMS1
 70
     0
 10
0.0
 20
0.0
  0
LINE
  5
58
100
AcDbEntity
  8
DD0
100
AcDbLine
 10
291.853194
 20
799.879373
 11
341.780535
 21
799.879373
  0
LINE
  5
59
100
AcDbEntity
  8
DD0
100
AcDbLine
 10
283.781752
 20
776.879394
 11
341.780535
 21
776.879394
  0
LINE
  5
5A
100
AcDbEntity
  8
DD0
100
AcDbLine
 10
335.859011
 20
809.538631
 11
338.447201
 21
799.879373
  0
LINE
  5
5B
100
AcDbEntity
  8
DD0
100
AcDbLine
 10
338.447201
 20
799.879373
 11
341.035392
 21
809.538631
  0
LINE
  5
5C
100
AcDbEntity
  8
DD0
100
AcDbLine
 10
341.035392
 20
767.220136
 11
338.447201
 21
776.879394
  0
LINE
  5
5D
100
AcDbEntity
  8
DD0
100
AcDbLine
 10
338.447201
 20
776.879394
 11
335.859011
 21
767.220136
  0
LINE
  5
5E
100
AcDbEntity
  8
DD0
100
AcDbLine
 10
338.447201
 20
840.879372
 11
338.447201
 21
765.879395
  0
TEXT
  5
5F
100
AcDbEntity
  8
DD0
100
AcDbText
 10
335.113868
 20
812.007138
 40
13.333333
  1
２３
 50
90.000003
 41
0.833333
  7
STANDARD
100
AcDbText
  0
ENDBLK
  5
60
100
AcDbEntity
  8
DD0
100
AcDbBlockEnd
  0
BLOCK
  5
63
100
AcDbEntity
  8
DD0
100
AcDbBlockBegin
  2
DIMS2
 70
     0
 10
0.0
 20
0.0
  0
LINE
  5
64
100
AcDbEntity
  8
DD0
100
AcDbLine
 10
291.853194
 20
799.879373
 11
373.11822
 21
799.879373
  0
LINE
  5
65
100
AcDbEntity
  8
DD0
100
AcDbLine
 10
291.853194
 20
463.879376
 11
373.11822
 21
463.879376
  0
LINE
  5
66
100
AcDbEntity
  8
DD0
100
AcDbLine
 10
372.373078
 20
790.220115
 11
369.784887
 21
799.879373
  0
LINE
  5
67
100
AcDbEntity
  8
DD0
100
AcDbLine
 10
369.784887
 20
799.879373
 11
367.196697
 21
790.220115
  0
LINE
  5
68
100
AcDbEntity
  8
DD0
100
AcDbLine
 10
367.196697
 20
473.538634
 11
369.784887
 21
463.879376
  0
LINE
  5
69
100
AcDbEntity
  8
DD0
100
AcDbLine
 10
369.784887
 20
463.879376
 11
372.373078
 21
473.538634
  0
LINE
  5
6A
100
AcDbEntity
  8
DD0
100
AcDbLine
 10
369.784887
 20
799.879373
 11
369.784887
 21
463.879376
  0
TEXT
  5
6B
100
AcDbEntity
  8
DD0
100
AcDbText
 10
366.451554
 20
613.007105
 40
13.333333
  1
３３６
 50
90.000003
 41
0.833333
  7
STANDARD
100
AcDbText
  0
ENDBLK
  5
6C
100
AcDbEntity
  8
DD0
100
AcDbBlockEnd
  0
BLOCK
  5
6F
100
AcDbEntity
  8
DD0
100
AcDbBlockBegin
  2
DIMS3
 70
     0
 10
0.0
 20
0.0
  0
LINE
  5
70
100
AcDbEntity
  8
DD0
100
AcDbLine
 10
193.853193
 20
453.879376
 11
373.11822
 21
453.879376
  0
LINE
  5
71
100
AcDbEntity
  8
DD0
100
AcDbLine
 10
367.196697
 20
473.538634
 11
369.784887
 21
463.879376
  0
LINE
  5
72
100
AcDbEntity
  8
DD0
100
AcDbLine
 10
369.784887
 20
463.879376
 11
372.373078
 21
473.538634
  0
LINE
  5
73
100
AcDbEntity
  8
DD0
100
AcDbLine
 10
372.373078
 20
444.220119
 11
369.784887
 21
453.879376
  0
LINE
  5
74
100
AcDbEntity
  8
DD0
100
AcDbLine
 10
369.784887
 20
453.879376
 11
367.196697
 21
444.220119
  0
LINE
  5
75
100
AcDbEntity
  8
DD0
100
AcDbLine
 10
369.784887
 20
474.879376
 11
369.784887
 21
412.879377
  0
TEXT
  5
76
100
AcDbEntity
  8
DD0
100
AcDbText
 10
366.451554
 20
415.440483
 40
13.333333
  1
１０
 50
90.000003
 41
0.833333
  7
STANDARD
100
AcDbText
  0
ENDBLK
  5
77
100
AcDbEntity
  8
DD0
100
AcDbBlockEnd
  0
BLOCK
  5
7A
100
AcDbEntity
  8
DD0
100
AcDbBlockBegin
  2
DIMS4
 70
     0
 10
0.0
 20
0.0
  0
LINE
  5
7B
100
AcDbEntity
  8
DD0
100
AcDbLine
 10
283.781752
 20
486.879355
 11
341.780509
 21
486.879355
  0
LINE
  5
7C
100
AcDbEntity
  8
DD0
100
AcDbLine
 10
341.035366
 20
767.220136
 11
338.447176
 21
776.879394
  0
LINE
  5
7D
100
AcDbEntity
  8
DD0
100
AcDbLine
 10
338.447176
 20
776.879394
 11
335.858985
 21
767.220136
  0
LINE
  5
7E
100
AcDbEntity
  8
DD0
100
AcDbLine
 10
335.858985
 20
496.538613
 11
338.447176
 21
486.879355
  0
LINE
  5
7F
100
AcDbEntity
  8
DD0
100
AcDbLine
 10
338.447176
 20
486.879355
 11
341.035366
 21
496.538613
  0
LINE
  5
80
100
AcDbEntity
  8
DD0
100
AcDbLine
 10
338.447176
 20
776.879394
 11
338.447176
 21
486.879355
  0
TEXT
  5
81
100
AcDbEntity
  8
DD0
100
AcDbText
 10
335.113843
 20
613.007105
 40
13.333333
  1
２９０
 50
90.000003
 41
0.833333
  7
STANDARD
100
AcDbText
  0
ENDBLK
  5
82
100
AcDbEntity
  8
DD0
100
AcDbBlockEnd
  0
BLOCK
  5
85
100
AcDbEntity
  8
DD0
100
AcDbBlockBegin
  2
DIMS5
 70
     0
 10
0.0
 20
0.0
  0
LINE
  5
86
100
AcDbEntity
  8
DD0
100
AcDbLine
 10
589.591143
 20
799.712696
 11
589.591143
 21
831.134661
  0
LINE
  5
87
100
AcDbEntity
  8
DD0
100
AcDbLine
 10
587.591173
 20
789.168772
 11
587.591173
 21
831.134661
  0
LINE
  5
88
100
AcDbEntity
  8
DD0
100
AcDbLine
 10
599.250401
 20
830.389519
 11
589.591143
 21
827.801328
  0
LINE
  5
89
100
AcDbEntity
  8
DD0
100
AcDbLine
 10
589.591143
 20
827.801328
 11
599.250401
 21
825.213138
  0
LINE
  5
8A
100
AcDbEntity
  8
DD0
100
AcDbLine
 10
577.931915
 20
825.213138
 11
587.591173
 21
827.801328
  0
LINE
  5
8B
100
AcDbEntity
  8
DD0
100
AcDbLine
 10
587.591173
 20
827.801328
 11
577.931915
 21
830.389519
  0
LINE
  5
8C
100
AcDbEntity
  8
DD0
100
AcDbLine
 10
657.257804
 20
827.801328
 11
576.591174
 21
827.801328
  0
TEXT
  5
8D
100
AcDbEntity
  8
DD0
100
AcDbText
 10
601.718908
 20
831.134661
 40
13.333333
  1
ｔ０．８
 41
0.833333
  7
STANDARD
100
AcDbText
  0
ENDBLK
  5
8E
100
AcDbEntity
  8
DD0
100
AcDbBlockEnd
  0
BLOCK
  5
91
100
AcDbEntity
  8
DD0
100
AcDbBlockBegin
  2
DIMS6
 70
     0
 10
0.0
 20
0.0
  0
LINE
  5
92
100
AcDbEntity
  8
DD0
100
AcDbLine
 10
589.591143
 20
799.712696
 11
589.591143
 21
854.147712
  0
LINE
  5
93
100
AcDbEntity
  8
DD0
100
AcDbLine
 10
424.591149
 20
801.712716
 11
424.591149
 21
854.147712
  0
LINE
  5
94
100
AcDbEntity
  8
DD0
100
AcDbLine
 10
579.931885
 20
848.226239
 11
589.591143
 21
850.814429
  0
LINE
  5
95
100
AcDbEntity
  8
DD0
100
AcDbLine
 10
589.591143
 20
850.814429
 11
579.931885
 21
853.40262
  0
LINE
  5
96
100
AcDbEntity
  8
DD0
100
AcDbLine
 10
434.250407
 20
853.40262
 11
424.591149
 21
850.814429
  0
LINE
  5
97
100
AcDbEntity
  8
DD0
100
AcDbLine
 10
424.591149
 20
850.814429
 11
434.250407
 21
848.226239
  0
LINE
  5
98
100
AcDbEntity
  8
DD0
100
AcDbLine
 10
589.591143
 20
850.814429
 11
424.591149
 21
850.814429
  0
TEXT
  5
99
100
AcDbEntity
  8
DD0
100
AcDbText
 10
488.218902
 20
854.147712
 40
13.333333
  1
１６５
 41
0.833333
  7
STANDARD
100
AcDbText
  0
ENDBLK
  5
9A
100
AcDbEntity
  8
DD0
100
AcDbBlockEnd
  0
BLOCK
  5
9D
100
AcDbEntity
  8
DD0
100
AcDbBlockBegin
  2
DIMS7
 70
     0
 10
0.0
 20
0.0
  0
TEXT
  5
9E
100
AcDbEntity
  8
DD0
100
AcDbText
 10
133.393273
 20
391.649256
 40
13.333333
  1
４－Ｍ６ねじ取付穴
 41
0.833333
  7
STANDARD
100
AcDbText
  0
LINE
  5
9F
100
AcDbEntity
  8
DD0
100
AcDbLine
 10
111.776634
 20
474.917316
 11
107.099631
 21
483.756186
  0
LINE
  5
A0
100
AcDbEntity
  8
DD0
100
AcDbLine
 10
107.099631
 20
483.756186
 11
106.730599
 21
473.762998
  0
LINE
  5
A1
100
AcDbEntity
  8
DD0
100
AcDbLine
 10
107.099631
 20
483.756186
 11
128.932261
 21
388.316075
  0
LINE
  5
A2
100
AcDbEntity
  8
DD0
100
AcDbLine
 10
128.932261
 20
388.316075
 11
255.598897
 21
388.315872
  0
ENDBLK
  5
A3
100
AcDbEntity
  8
DD0
100
AcDbBlockEnd
  0
BLOCK
  5
A6
100
AcDbEntity
  8
DD0
100
AcDbBlockBegin
  2
DIMS8
 70
     0
 10
0.0
 20
0.0
  0
LINE
  5
A7
100
AcDbEntity
  8
DD0
100
AcDbLine
 10
105.519863
 20
795.141265
 11
105.519863
 21
854.147814
  0
LINE
  5
A8
100
AcDbEntity
  8
DD0
100
AcDbLine
 10
265.519856
 20
795.141265
 11
265.519856
 21
854.147814
  0
LINE
  5
A9
100
AcDbEntity
  8
DD0
100
AcDbLine
 10
115.179121
 20
853.40262
 11
105.519863
 21
850.814429
  0
LINE
  5
AA
100
AcDbEntity
  8
DD0
100
AcDbLine
 10
105.519863
 20
850.814429
 11
115.179121
 21
848.226239
  0
LINE
  5
AB
100
AcDbEntity
  8
DD0
100
AcDbLine
 10
255.860599
 20
848.226239
 11
265.519856
 21
850.814429
  0
LINE
  5
AC
100
AcDbEntity
  8
DD0
100
AcDbLine
 10
265.519856
 20
850.814429
 11
255.860599
 21
853.40262
  0
LINE
  5
AD
100
AcDbEntity
  8
DD0
100
AcDbLine
 10
105.519863
 20
850.814429
 11
265.519856
 21
850.814429
  0
TEXT
  5
AE
100
AcDbEntity
  8
DD0
100
AcDbText
 10
166.647641
 20
854.147712
 40
13.333333
  1
１６０
 41
0.833333
  7
STANDARD
100
AcDbText
  0
ENDBLK
  5
AF
100
AcDbEntity
  8
DD0
100
AcDbBlockEnd
  0
ENDSEC
  0
SECTION
  2
ENTITIES
  0
INSERT
  5
55
100
AcDbEntity
  8
DD0
100
AcDbBlockReference
  2
DIMS0
 10
0.0
 20
0.0
  0
INSERT
  5
61
100
AcDbEntity
  8
DD0
100
AcDbBlockReference
  2
DIMS1
 10
0.0
 20
0.0
  0
INSERT
  5
6D
100
AcDbEntity
  8
DD0
100
AcDbBlockReference
  2
DIMS2
 10
0.0
 20
0.0
  0
INSERT
  5
78
100
AcDbEntity
  8
DD0
100
AcDbBlockReference
  2
DIMS3
 10
0.0
 20
0.0
  0
INSERT
  5
83
100
AcDbEntity
  8
DD0
100
AcDbBlockReference
  2
DIMS4
 10
0.0
 20
0.0
  0
INSERT
  5
8F
100
AcDbEntity
  8
DD0
100
AcDbBlockReference
  2
DIMS5
 10
0.0
 20
0.0
  0
INSERT
  5
9B
100
AcDbEntity
  8
DD0
100
AcDbBlockReference
  2
DIMS6
 10
0.0
 20
0.0
  0
INSERT
  5
A4
100
AcDbEntity
  8
DD0
100
AcDbBlockReference
  2
DIMS7
 10
0.0
 20
0.0
  0
INSERT
  5
B0
100
AcDbEntity
  8
DD0
100
AcDbBlockReference
  2
DIMS8
 10
0.0
 20
0.0
  0
LINE
  5
B1
100
AcDbEntity
  8
M0
100
AcDbLine
 10
288.519861
 20
463.879375
 11
288.519861
 21
799.879375
  0
LINE
  5
B2
100
AcDbEntity
  8
M0
100
AcDbLine
 10
288.519861
 20
799.879375
 11
82.519861
 21
799.879375
  0
LINE
  5
B3
100
AcDbEntity
  8
M0
100
AcDbLine
 10
82.519861
 20
799.879375
 11
82.519861
 21
463.879375
  0
LINE
  5
B4
100
AcDbEntity
  8
M0
100
AcDbLine
 10
82.519861
 20
463.879375
 11
288.519861
 21
463.879375
  0
LINE
  5
B5
100
AcDbEntity
  8
M0
  6
DASHDOT
100
AcDbLine
 10
53.948435
 20
631.879375
 11
317.091287
 21
631.879375
  0
LINE
  5
B6
100
AcDbEntity
  8
M0
  6
DASHDOT
100
AcDbLine
 10
185.519861
 20
435.307949
 11
185.519861
 21
828.450802
  0
LINE
  5
B7
100
AcDbEntity
  8
M0
100
AcDbLine
 10
589.59115
 20
467.379375
 11
589.59115
 21
796.379375
  0
LINE
  5
B8
100
AcDbEntity
  8
M0
100
AcDbLine
 10
449.59115
 20
799.879375
 11
426.09115
 21
799.879375
  0
LINE
  5
B9
100
AcDbEntity
  8
M0
100
AcDbLine
 10
424.59115
 20
798.379375
 11
424.59115
 21
465.379375
  0
LINE
  5
BA
100
AcDbEntity
  8
M0
100
AcDbLine
 10
426.09115
 20
463.879375
 11
449.59115
 21
463.879375
  0
LINE
  5
BB
100
AcDbEntity
  8
M0
  6
DASHDOT
100
AcDbLine
 10
396.019724
 20
631.879375
 11
618.162577
 21
631.879375
  0
ARC
  5
BC
100
AcDbEntity
  8
M0
100
AcDbCircle
 10
426.09115
 20
798.379375
 40
1.5
100
AcDbArc
 50
89.999417
 51
180.0
  0
ARC
  5
BD
100
AcDbEntity
  8
M0
100
AcDbCircle
 10
426.09115
 20
465.379375
 40
1.5
100
AcDbArc
 50
179.999417
 51
270.0
  0
CIRCLE
  5
BE
100
AcDbEntity
  8
M0
100
AcDbCircle
 10
265.519861
 20
486.879375
 40
3.5
  0
LINE
  5
BF
100
AcDbEntity
  8
M0
  6
DASHDOT
100
AcDbLine
 10
250.59129
 20
486.879375
 11
280.448432
 21
486.879375
  0
LINE
  5
C0
100
AcDbEntity
  8
M0
  6
DASHDOT
100
AcDbLine
 10
265.519861
 20
471.950804
 11
265.519861
 21
501.807946
  0
CIRCLE
  5
C1
100
AcDbEntity
  8
M0
100
AcDbCircle
 10
105.519861
 20
486.879375
 40
3.5
  0
LINE
  5
C2
100
AcDbEntity
  8
M0
  6
DASHDOT
100
AcDbLine
 10
90.59129
 20
486.879375
 11
120.448432
 21
486.879375
  0
LINE
  5
C3
100
AcDbEntity
  8
M0
  6
DASHDOT
100
AcDbLine
 10
105.519861
 20
471.950804
 11
105.519861
 21
501.807946
  0
LINE
  5
C4
100
AcDbEntity
  8
M0
  6
DASHDOT
100
AcDbLine
 10
250.59129
 20
776.879375
 11
280.448432
 21
776.879375
  0
LINE
  5
C5
100
AcDbEntity
  8
M0
  6
DASHDOT
100
AcDbLine
 10
265.519861
 20
761.950804
 11
265.519861
 21
791.807946
  0
ARC
  5
C6
100
AcDbEntity
  8
M0
100
AcDbCircle
 10
265.519861
 20
776.879375
 40
3.5
100
AcDbArc
 50
0.0
 51
179.999964
  0
LINE
  5
C7
100
AcDbEntity
  8
M0
  6
DASHDOT
100
AcDbLine
 10
90.59129
 20
776.879375
 11
120.448432
 21
776.879375
  0
LINE
  5
C8
100
AcDbEntity
  8
M0
  6
DASHDOT
100
AcDbLine
 10
105.519861
 20
761.950804
 11
105.519861
 21
791.807946
  0
ARC
  5
C9
100
AcDbEntity
  8
M0
100
AcDbCircle
 10
105.519861
 20
776.879375
 40
3.5
100
AcDbArc
 50
0.0
 51
179.999964
  0
LINE
  5
CA
100
AcDbEntity
  8
M0
  6
DASHDOT
100
AcDbLine
 10
105.519861
 20
748.950817
 11
105.519861
 21
784.807933
  0
ARC
  5
CB
100
AcDbEntity
  8
M0
100
AcDbCircle
 10
105.519861
 20
766.879375
 40
6.5
100
AcDbArc
 50
122.578946
 51
417.421017
  0
LINE
  5
CC
100
AcDbEntity
  8
M0
  6
DASHDOT
100
AcDbLine
 10
265.519861
 20
748.950817
 11
265.519861
 21
784.807933
  0
LINE
  5
CD
100
AcDbEntity
  8
M0
100
AcDbLine
 10
269.01986
 20
776.879375
 11
269.01986
 21
772.3566
  0
LINE
  5
CE
100
AcDbEntity
  8
M0
100
AcDbLine
 10
262.019861
 20
776.879375
 11
262.019861
 21
772.3566
  0
ARC
  5
CF
100
AcDbEntity
  8
M0
100
AcDbCircle
 10
265.519861
 20
766.879375
 40
6.5
100
AcDbArc
 50
122.578946
 51
417.421017
  0
LINE
  5
D0
100
AcDbEntity
  8
M0
100
AcDbLine
 10
109.019861
 20
776.879375
 11
109.019861
 21
772.3566
  0
LINE
  5
D1
100
AcDbEntity
  8
M0
100
AcDbLine
 10
102.019861
 20
776.879375
 11
102.019861
 21
772.3566
  0
LINE
  5
D2
100
AcDbEntity
  8
M0
100
AcDbLine
 10
190.519861
 20
453.879375
 11
190.519861
 21
460.879375
  0
LINE
  5
D3
100
AcDbEntity
  8
M0
100
AcDbLine
 10
190.519861
 20
463.879375
 11
180.519861
 21
463.879375
  0
LINE
  5
D4
100
AcDbEntity
  8
M0
100
AcDbLine
 10
180.519861
 20
460.879375
 11
180.519861
 21
453.879375
  0
LINE
  5
D5
100
AcDbEntity
  8
M0
100
AcDbLine
 10
180.519861
 20
453.879375
 11
190.519861
 21
453.879375
  0
LINE
  5
D6
100
AcDbEntity
  8
M0
100
AcDbLine
 10
180.519861
 20
460.879375
 11
190.519861
 21
460.879375
  0
LINE
  5
D7
100
AcDbEntity
  8
M0
100
AcDbLine
 10
181.019861
 20
463.879375
 11
181.019861
 21
460.879375
  0
LINE
  5
D8
100
AcDbEntity
  8
M0
100
AcDbLine
 10
190.019861
 20
463.879375
 11
190.019861
 21
460.879375
  0
LINE
  5
D9
100
AcDbEntity
  8
M0
100
AcDbLine
 10
184.719861
 20
460.879375
 11
184.719861
 21
453.879375
  0
LINE
  5
DA
100
AcDbEntity
  8
M0
100
AcDbLine
 10
183.919862
 20
460.879375
 11
183.919862
 21
453.879375
  0
LINE
  5
DB
100
AcDbEntity
  8
M0
100
AcDbLine
 10
183.119861
 20
460.879375
 11
183.119861
 21
453.879375
  0
LINE
  5
DC
100
AcDbEntity
  8
M0
100
AcDbLine
 10
182.319861
 20
460.879375
 11
182.319861
 21
453.879375
  0
LINE
  5
DD
100
AcDbEntity
  8
M0
100
AcDbLine
 10
181.519861
 20
460.879375
 11
181.519861
 21
453.879375
  0
LINE
  5
DE
100
AcDbEntity
  8
M0
100
AcDbLine
 10
180.719862
 20
460.879375
 11
180.719862
 21
453.879375
  0
LINE
  5
DF
100
AcDbEntity
  8
M0
100
AcDbLine
 10
186.319861
 20
460.879375
 11
186.319861
 21
453.879375
  0
LINE
  5
E0
100
AcDbEntity
  8
M0
100
AcDbLine
 10
187.119861
 20
460.879375
 11
187.119861
 21
453.879375
  0
LINE
  5
E1
100
AcDbEntity
  8
M0
100
AcDbLine
 10
187.919861
 20
460.879375
 11
187.919861
 21
453.879375
  0
LINE
  5
E2
100
AcDbEntity
  8
M0
100
AcDbLine
 10
188.719861
 20
460.879375
 11
188.719861
 21
453.879375
  0
LINE
  5
E3
100
AcDbEntity
  8
M0
100
AcDbLine
 10
189.519861
 20
460.879375
 11
189.519861
 21
453.879375
  0
LINE
  5
E4
100
AcDbEntity
  8
M0
100
AcDbLine
 10
190.31986
 20
460.879375
 11
190.31986
 21
453.879375
  0
LINE
  5
E5
100
AcDbEntity
  8
M0
100
AcDbLine
 10
185.519861
 20
460.879374
 11
185.519861
 21
453.879375
  0
LINE
  5
E6
100
AcDbEntity
  8
M0
 62
   114
100
AcDbLine
 10
260.618234
 20
463.345926
 11
260.664892
 21
463.879325
  0
LINE
  5
E7
100
AcDbEntity
  8
M0
 62
   114
100
AcDbLine
 10
250.421502
 20
463.345929
 11
250.37484
 21
463.879328
  0
ARC
  5
E8
100
AcDbEntity
  8
M0
 62
   114
100
AcDbCircle
 10
252.314279
 20
463.511456
 40
1.9
100
AcDbArc
 50
184.99785
 51
254.639254
  0
ARC
  5
E9
100
AcDbEntity
  8
M0
 62
   114
100
AcDbCircle
 10
255.519864
 20
475.17918
 40
14.0
100
AcDbArc
 50
254.637813
 51
285.36235
  0
ARC
  5
EA
100
AcDbEntity
  8
M0
 62
   114
100
AcDbCircle
 10
258.725473
 20
463.511454
 40
1.9
100
AcDbArc
 50
285.361575
 51
355.001997
  0
LINE
  5
EB
100
AcDbEntity
  8
M0
100
AcDbLine
 10
288.519861
 20
292.808086
 11
288.519861
 21
316.308086
  0
LINE
  5
EC
100
AcDbEntity
  8
M0
100
AcDbLine
 10
287.019861
 20
317.808086
 11
84.019861
 21
317.808086
  0
LINE
  5
ED
100
AcDbEntity
  8
M0
100
AcDbLine
 10
82.519861
 20
316.308086
 11
82.519861
 21
292.808086
  0
LINE
  5
EE
100
AcDbEntity
  8
M0
100
AcDbLine
 10
85.519861
 20
152.808086
 11
285.519861
 21
152.808086
  0
LINE
  5
EF
100
AcDbEntity
  8
M0
100
AcDbLine
 10
288.519861
 20
292.808086
 11
82.519861
 21
292.808086
  0
LINE
  5
F0
100
AcDbEntity
  8
M0
100
AcDbLine
 10
85.519861
 20
292.808086
 11
85.519861
 21
152.808086
  0
LINE
  5
F1
100
AcDbEntity
  8
M0
100
AcDbLine
 10
285.519861
 20
292.808086
 11
285.519861
 21
152.808086
  0
ARC
  5
F2
100
AcDbEntity
  8
M0
100
AcDbCircle
 10
287.019861
 20
316.308086
 40
1.5
100
AcDbArc
 50
0.0
 51
90.0
  0
ARC
  5
F3
100
AcDbEntity
  8
M0
100
AcDbCircle
 10
84.019861
 20
316.308086
 40
1.5
100
AcDbArc
 50
89.999417
 51
180.0
  0
CIRCLE
  5
F4
100
AcDbEntity
  8
M0
100
AcDbCircle
 10
135.519861
 20
232.808086
 40
17.5
  0
CIRCLE
  5
F5
100
AcDbEntity
  8
M0
100
AcDbCircle
 10
235.519861
 20
232.808086
 40
17.5
  0
CIRCLE
  5
F6
100
AcDbEntity
  8
M0
  6
DASHED
100
AcDbCircle
 10
135.519861
 20
252.808086
 40
17.5
  0
CIRCLE
  5
F7
100
AcDbEntity
  8
M0
  6
DASHED
100
AcDbCircle
 10
235.519861
 20
252.808086
 40
17.5
  0
CIRCLE
  5
F8
100
AcDbEntity
  8
M0
100
AcDbCircle
 10
135.519861
 20
232.808086
 40
22.5
  0
LINE
  5
F9
100
AcDbEntity
  8
M0
  6
DASHDOT
100
AcDbLine
 10
101.591303
 20
232.808086
 11
169.448419
 21
232.808086
  0
LINE
  5
FA
100
AcDbEntity
  8
M0
  6
DASHDOT
100
AcDbLine
 10
135.519861
 20
198.879528
 11
135.519861
 21
266.736644
  0
CIRCLE
  5
FB
100
AcDbEntity
  8
M0
  6
DASHED
100
AcDbCircle
 10
135.519861
 20
252.808086
 40
22.5
  0
LINE
  5
FC
100
AcDbEntity
  8
M0
  6
DASHDOT
100
AcDbLine
 10
101.591303
 20
252.808086
 11
169.448419
 21
252.808086
  0
LINE
  5
FD
100
AcDbEntity
  8
M0
  6
DASHDOT
100
AcDbLine
 10
135.519861
 20
218.879528
 11
135.519861
 21
286.736644
  0
CIRCLE
  5
FE
100
AcDbEntity
  8
M0
100
AcDbCircle
 10
235.519861
 20
232.808086
 40
22.5
  0
LINE
  5
FF
100
AcDbEntity
  8
M0
  6
DASHDOT
100
AcDbLine
 10
201.591303
 20
232.808086
 11
269.448419
 21
232.808086
  0
LINE
  5
100
100
AcDbEntity
  8
M0
  6
DASHDOT
100
AcDbLine
 10
235.519861
 20
198.879528
 11
235.519861
 21
266.736644
  0
CIRCLE
  5
101
100
AcDbEntity
  8
M0
  6
DASHED
100
AcDbCircle
 10
235.519861
 20
252.808086
 40
22.5
  0
LINE
  5
102
100
AcDbEntity
  8
M0
  6
DASHDOT
100
AcDbLine
 10
201.591303
 20
252.808086
 11
269.448419
 21
252.808086
  0
LINE
  5
103
100
AcDbEntity
  8
M0
  6
DASHDOT
100
AcDbLine
 10
235.519861
 20
218.879528
 11
235.519861
 21
286.736644
  0
CIRCLE
  5
104
100
AcDbEntity
  8
M0
100
AcDbCircle
 10
185.519861
 20
232.808086
 40
11.0
  0
CIRCLE
  5
105
100
AcDbEntity
  8
M0
100
AcDbCircle
 10
185.519861
 20
232.808086
 40
14.0
  0
LINE
  5
106
100
AcDbEntity
  8
M0
  6
DASHDOT
100
AcDbLine
 10
160.091303
 20
232.808086
 11
210.948419
 21
232.808086
  0
CIRCLE
  5
107
100
AcDbEntity
  8
M0
100
AcDbCircle
 10
185.519861
 20
305.008037
 40
5.0
  0
LINE
  5
108
100
AcDbEntity
  8
M0
  6
DASHDOT
100
AcDbLine
 10
169.091303
 20
305.008037
 11
201.948419
 21
305.008037
  0
LINE
  5
109
100
AcDbEntity
  8
M0
  6
DASHDOT
100
AcDbLine
 10
185.519861
 20
141.941997
 11
185.519861
 21
321.436596
  0
LINE
  5
10A
100
AcDbEntity
  8
M0
100
AcDbLine
 10
449.59115
 20
799.879375
 11
449.59115
 21
463.879451
  0
LINE
  5
10B
100
AcDbEntity
  8
M0
100
AcDbLine
 10
449.59115
 20
467.379451
 11
589.59115
 21
467.379451
  0
LINE
  5
10C
100
AcDbEntity
  8
M0
100
AcDbLine
 10
449.59115
 20
796.379375
 11
589.59115
 21
796.379375
  0
LINE
  5
10D
100
AcDbEntity
  8
M0
  6
DASHED
100
AcDbLine
 10
587.59115
 20
785.83543
 11
587.59115
 21
474.252926
  0
LINE
  5
10E
100
AcDbEntity
  8
M0
100
AcDbLine
 10
442.391199
 20
453.879375
 11
442.391199
 21
460.879375
  0
LINE
  5
10F
100
AcDbEntity
  8
M0
100
AcDbLine
 10
442.391199
 20
463.879375
 11
432.391199
 21
463.879375
  0
LINE
  5
110
100
AcDbEntity
  8
M0
100
AcDbLine
 10
432.391199
 20
460.879375
 11
432.391199
 21
453.879375
  0
LINE
  5
111
100
AcDbEntity
  8
M0
100
AcDbLine
 10
432.391199
 20
453.879375
 11
442.391199
 21
453.879375
  0
LINE
  5
112
100
AcDbEntity
  8
M0
  6
DASHDOT
100
AcDbLine
 10
437.391199
 20
425.307949
 11
437.391199
 21
472.03113
  0
LINE
  5
113
100
AcDbEntity
  8
M0
100
AcDbLine
 10
432.391199
 20
460.879375
 11
442.391199
 21
460.879375
  0
LINE
  5
114
100
AcDbEntity
  8
M0
100
AcDbLine
 10
432.891199
 20
463.879375
 11
432.891199
 21
460.879375
  0
LINE
  5
115
100
AcDbEntity
  8
M0
100
AcDbLine
 10
441.891199
 20
463.879375
 11
441.891199
 21
460.879375
  0
LINE
  5
116
100
AcDbEntity
  8
M0
100
AcDbLine
 10
436.591199
 20
460.879375
 11
436.591199
 21
453.879375
  0
LINE
  5
117
100
AcDbEntity
  8
M0
100
AcDbLine
 10
435.7912
 20
460.879375
 11
435.7912
 21
453.879375
  0
LINE
  5
118
100
AcDbEntity
  8
M0
100
AcDbLine
 10
434.991199
 20
460.879375
 11
434.991199
 21
453.879375
  0
LINE
  5
119
100
AcDbEntity
  8
M0
100
AcDbLine
 10
434.191199
 20
460.879375
 11
434.191199
 21
453.879375
  0
LINE
  5
11A
100
AcDbEntity
  8
M0
100
AcDbLine
 10
433.391199
 20
460.879375
 11
433.391199
 21
453.879375
  0
LINE
  5
11B
100
AcDbEntity
  8
M0
100
AcDbLine
 10
432.5912
 20
460.879375
 11
432.5912
 21
453.879375
  0
LINE
  5
11C
100
AcDbEntity
  8
M0
100
AcDbLine
 10
438.191199
 20
460.879375
 11
438.191199
 21
453.879375
  0
LINE
  5
11D
100
AcDbEntity
  8
M0
100
AcDbLine
 10
438.991198
 20
460.879375
 11
438.991198
 21
453.879375
  0
LINE
  5
11E
100
AcDbEntity
  8
M0
100
AcDbLine
 10
439.791199
 20
460.879375
 11
439.791199
 21
453.879375
  0
LINE
  5
11F
100
AcDbEntity
  8
M0
100
AcDbLine
 10
440.591199
 20
460.879375
 11
440.591199
 21
453.879375
  0
LINE
  5
120
100
AcDbEntity
  8
M0
100
AcDbLine
 10
441.391199
 20
460.879375
 11
441.391199
 21
453.879375
  0
LINE
  5
121
100
AcDbEntity
  8
M0
100
AcDbLine
 10
442.191198
 20
460.879375
 11
442.191198
 21
453.879375
  0
LINE
  5
122
100
AcDbEntity
  8
M0
100
AcDbLine
 10
437.391199
 20
460.879374
 11
437.391199
 21
453.879375
  0
LINE
  5
123
100
AcDbEntity
  8
M0
  6
DASHDOT
100
AcDbLine
 10
437.391199
 20
472.03113
 11
437.391199
 21
492.450802
  0
LINE
  5
124
100
AcDbEntity
  8
M0
 62
   114
100
AcDbLine
 10
575.34115
 20
467.379373
 11
563.84115
 21
467.379377
  0
LINE
  5
125
100
AcDbEntity
  8
M0
 62
   114
100
AcDbLine
 10
575.34115
 20
466.579386
 11
575.34115
 21
467.379373
  0
LINE
  5
126
100
AcDbEntity
  8
M0
 62
   114
100
AcDbLine
 10
563.84115
 20
466.579389
 11
563.84115
 21
467.379377
  0
LINE
  5
127
100
AcDbEntity
  8
M0
 62
   114
100
AcDbLine
 10
575.34115
 20
466.579386
 11
563.84115
 21
466.579389
  0
LINE
  5
128
100
AcDbEntity
  8
M0
 62
   114
100
AcDbLine
 10
564.091149
 20
465.079389
 11
564.09115
 21
466.579389
  0
LINE
  5
129
100
AcDbEntity
  8
M0
 62
   114
100
AcDbLine
 10
575.091149
 20
465.079386
 11
575.09115
 21
466.579386
  0
ARC
  5
12A
100
AcDbEntity
  8
M0
 62
   114
100
AcDbCircle
 10
569.591153
 20
475.179378
 40
14.0
100
AcDbArc
 50
272.455645
 51
286.072581
  0
ARC
  5
12B
100
AcDbEntity
  8
M0
 62
   114
100
AcDbCircle
 10
569.591153
 20
475.179378
 40
14.0
100
AcDbArc
 50
253.92638
 51
267.543264
  0
LINE
  5
12C
100
AcDbEntity
  8
M0
 62
   114
100
AcDbLine
 10
570.191002
 20
463.292247
 11
570.191002
 21
461.192241
  0
LINE
  5
12D
100
AcDbEntity
  8
M0
 62
   114
100
AcDbLine
 10
568.991051
 20
463.292248
 11
570.191002
 21
463.292247
  0
LINE
  5
12E
100
AcDbEntity
  8
M0
 62
   114
100
AcDbLine
 10
568.991051
 20
461.192242
 11
568.991051
 21
463.292248
  0
ARC
  5
12F
100
AcDbEntity
  8
M0
 62
   114
100
AcDbCircle
 10
572.941002
 20
463.552363
 40
1.9
100
AcDbArc
 50
286.075403
 51
359.999953
  0
LINE
  5
130
100
AcDbEntity
  8
M0
 62
   114
100
AcDbLine
 10
574.841149
 20
463.552362
 11
574.841149
 21
465.079386
  0
ARC
  5
131
100
AcDbEntity
  8
M0
 62
   114
100
AcDbCircle
 10
566.241051
 20
463.552365
 40
1.9
100
AcDbArc
 50
179.999953
 51
253.924471
  0
LINE
  5
132
100
AcDbEntity
  8
M0
 62
   114
100
AcDbLine
 10
564.341149
 20
465.079389
 11
564.341149
 21
463.552366
  0
LINE
  5
133
100
AcDbEntity
  8
M0
  6
DASHDOT
 62
   114
100
AcDbLine
 10
569.591147
 20
458.824337
 11
569.591155
 21
482.74226
  0
LINE
  5
134
100
AcDbEntity
  8
M0
 62
   114
100
AcDbLine
 10
564.091149
 20
465.079389
 11
575.091149
 21
465.079386
  0
LINE
  5
135
100
AcDbEntity
  8
M0
 62
   114
100
AcDbLine
 10
569.59115
 20
466.579387
 11
570.591149
 21
465.079387
  0
LINE
  5
136
100
AcDbEntity
  8
M0
 62
   114
100
AcDbLine
 10
569.591149
 20
465.079387
 11
568.59115
 21
466.579388
  0
CIRCLE
  5
137
100
AcDbEntity
  8
M0
 62
   114
100
AcDbCircle
 10
255.519861
 20
172.808086
 40
5.25
  0
LINE
  5
138
100
AcDbEntity
  8
M0
 62
   114
100
AcDbLine
 10
256.368452
 20
172.808011
 11
259.632164
 21
176.071722
  0
LINE
  5
139
100
AcDbEntity
  8
M0
 62
   114
100
AcDbLine
 10
252.256214
 20
168.695773
 11
255.519926
 21
171.959485
  0
LINE
  5
13A
100
AcDbEntity
  8
M0
 62
   114
100
AcDbLine
 10
254.671443
 20
172.807967
 11
251.40771
 21
169.544234
  0
LINE
  5
13B
100
AcDbEntity
  8
M0
 62
   114
100
AcDbLine
 10
258.783692
 20
176.920237
 11
255.519969
 21
173.656493
  0
LINE
  5
13C
100
AcDbEntity
  8
M0
 62
   114
100
AcDbLine
 10
255.519958
 20
173.656504
 11
253.752191
 21
175.424271
  0
LINE
  5
13D
100
AcDbEntity
  8
M0
 62
   114
100
AcDbLine
 10
258.136219
 20
171.040243
 11
256.368452
 21
172.808011
  0
LINE
  5
13E
100
AcDbEntity
  8
M0
 62
   114
100
AcDbLine
 10
255.519926
 20
171.959485
 11
257.287693
 21
170.191718
  0
LINE
  5
13F
100
AcDbEntity
  8
M0
 62
   114
100
AcDbLine
 10
252.903665
 20
174.575745
 11
254.671432
 21
172.807978
  0
LINE
  5
140
100
AcDbEntity
  8
M0
 62
   114
100
AcDbLine
 10
257.287693
 20
170.191718
 11
258.136219
 21
171.040243
  0
LINE
  5
141
100
AcDbEntity
  8
M0
 62
   114
100
AcDbLine
 10
253.752191
 20
175.424271
 11
252.903665
 21
174.575745
  0
CIRCLE
  5
142
100
AcDbEntity
  8
M0
 62
   114
100
AcDbCircle
 10
255.519861
 20
172.808086
 40
5.75
  0
LINE
  5
143
100
AcDbEntity
  8
M0
  6
DASHDOT
 62
   114
100
AcDbLine
 10
247.164442
 20
172.808086
 11
263.87528
 21
172.808086
  0
LINE
  5
144
100
AcDbEntity
  8
M0
  6
DASHDOT
 62
   114
100
AcDbLine
 10
255.519861
 20
164.452667
 11
255.519861
 21
181.163505
  0
LINE
  5
145
100
AcDbEntity
  8
M0
100
AcDbLine
 10
255.519861
 20
167.058086
 11
255.519861
 21
120.004863
  0
LINE
  5
146
100
AcDbEntity
  8
M0
100
AcDbLine
 10
248.106043
 20
120.004863
 11
263.748865
 21
120.004863
  0
LINE
  5
147
100
AcDbEntity
  8
M0
100
AcDbLine
 10
261.906824
 20
115.004863
 11
250.050378
 21
115.004863
  0
LINE
  5
148
100
AcDbEntity
  8
M0
100
AcDbLine
 10
260.064539
 20
110.004863
 11
251.994714
 21
110.004863
  0
LINE
  5
149
100
AcDbEntity
  8
M1
 62
     2
100
AcDbLine
 10
33.333332
 20
33.333332
 11
33.333332
 21
949.999962
  0
LINE
  5
14A
100
AcDbEntity
  8
M1
 62
     2
100
AcDbLine
 10
33.333332
 20
949.999962
 11
666.66664
 21
949.999962
  0
LINE
  5
14B
100
AcDbEntity
  8
M1
 62
     2
100
AcDbLine
 10
666.66664
 20
949.999962
 11
666.66664
 21
33.333332
  0
LINE
  5
14C
100
AcDbEntity
  8
M1
 62
     2
100
AcDbLine
 10
666.66664
 20
33.333332
 11
33.333332
 21
33.333332
  0
LINE
  5
14D
100
AcDbEntity
  8
M1
 62
     2
100
AcDbLine
 10
666.66664
 20
66.666664
 11
333.33332
 21
66.666664
  0
LINE
  5
14E
100
AcDbEntity
  8
M1
 62
     2
100
AcDbLine
 10
666.66664
 20
99.999996
 11
333.33332
 21
99.999996
  0
LINE
  5
14F
100
AcDbEntity
  8
M1
 62
     2
100
AcDbLine
 10
666.66664
 20
133.333328
 11
333.33332
 21
133.333328
  0
LINE
  5
150
100
AcDbEntity
  8
M1
 62
     2
100
AcDbLine
 10
333.33332
 20
33.333332
 11
333.33332
 21
133.333328
  0
TEXT
  5
151
100
AcDbEntity
  8
M1
 62
     2
100
AcDbText
 10
341.666653
 20
41.666665
 40
16.666666
  1
適　用；
 41
1.0
  7
STANDARD
100
AcDbText
  0
TEXT
  5
152
100
AcDbEntity
  8
M1
 62
     2
100
AcDbText
 10
341.666653
 20
108.333329
 40
16.666666
  1
登録名：
 41
1.0
  7
STANDARD
100
AcDbText
  0
TEXT
  5
153
100
AcDbEntity
  8
M1
 62
     2
100
AcDbText
 10
421.66665
 20
108.333329
 40
16.666666
  1
ＤＭＳＨ６５ＣＴＲ００
 41
0.5
  7
STANDARD
100
AcDbText
  0
TEXT
  5
154
100
AcDbEntity
  8
M1
 62
     2
100
AcDbText
 10
341.666653
 20
74.999997
 40
16.666666
  1
形　式；
 41
1.0
  7
STANDARD
100
AcDbText
  0
TEXT
  5
155
100
AcDbEntity
  8
M1
 62
     2
100
AcDbText
 10
421.66665
 20
74.999997
 40
16.666666
  1
ＳＨ６５Ｃ－Ｔ，ＳＨ８０Ｃ－Ｔ
 41
0.5
  7
STANDARD
100
AcDbText
  0
ENDSEC
  0
SECTION
  2
OBJECTS
  0
DICTIONARY
  5
C
100
AcDbDictionary
  3
ACAD_GROUP
350
D
  3
ACAD_MLINESTYLE
350
E
  0
DICTIONARY
  5
D
102
{ACAD_REACTORS
330
C
102
}
100
AcDbDictionary
  0
DICTIONARY
  5
E
102
{ACAD_REACTORS
330
C
102
}
100
AcDbDictionary
  3
STANDARD
350
13
  0
MLINESTYLE
  5
13
102
{ACAD_REACTORS
330
E
102
}
100
AcDbMlineStyle
  2
STANDARD
 70
     0
  3

 62
     0
 51
90.0
 52
90.0
 71
     2
 49
0.5
 62
   256
  6
BYLAYER
 49
-0.5
 62
   256
  6
BYLAYER
  0
ENDSEC
  0
EOF
