  0
SECTION
  2
HEADER
  9
$ACADVER
  1
AC1014
  9
$INSBASE
 10
0.000000
 20
0.000000
 30
0.0
  9
$VIEWCTR
 10
7.531722
 20
4.5
  9
$VIEWSIZE
 40
9.0
  9
$SNAPMODE
 70
     0
  9
$SNAPUNIT
 10
1.0
 20
1.0
  9
$SNAPBASE
 10
0.0
 20
0.0
  9
$SNAPANG
 50
0.0
  9
$SNAPSTYLE
 70
     0
  9
$SNAPISOPAIR
 70
     0
  9
$GRIDMODE
 70
     0
  9
$GRIDUNIT
 10
0.0
 20
0.0
  9
$ORTHOMODE
 70
     0
  9
$REGENMODE
 70
     1
  9
$FILLMODE
 70
     1
  9
$QTEXTMODE
 70
     0
  9
$DRAGMODE
 70
     2
  9
$LTSCALE
  40
     1.000000
  9
$OSMODE
 70
     0
  9
$ATTMODE
 70
     1
  9
$TEXTSIZE
 40
0.2
  9
$TRACEWID
 40
0.05
  9
$TEXTSTYLE
  7
STANDARD
  9
$CELTYPE
  6
BYLAYER
  9
$CECOLOR
 62
   256
  9
$DIMSCALE
 40
1.0
  9
$DIMASZ
 40
0.18
  9
$DIMEXO
 40
0.0625
  9
$DIMDLI
 40
0.38
  9
$DIMRND
 40
0.0
  9
$DIMDLE
 40
0.0
  9
$DIMEXE
 40
0.18
  9
$DIMTP
 40
0.0
  9
$DIMTM
 40
0.0
  9
$DIMTXT
 40
0.18
  9
$DIMCEN
 40
0.09
  9
$DIMTSZ
 40
0.0
  9
$DIMTOL
 70
     0
  9
$DIMLIM
 70
     0
  9
$DIMTIH
 70
     1
  9
$DIMTOH
 70
     1
  9
$DIMSE1
 70
     0
  9
$DIMSE2
 70
     0
  9
$DIMTAD
 70
     0
  9
$DIMZIN
 70
     0
  9
$DIMBLK
  1

  9
$LUNITS
 70
     2
  9
$LUPREC
 70
     4
  9
$AXISMODE
 70
     0
  9
$AXISUNIT
 10
0.0
 20
0.0
  9
$SKETCHINC
 40
0.1
  9
$FILLETRAD
 40
0.0
  9
$AUNITS
 70
     0
  9
$AUPREC
 70
     0
  9
$MENU
  1
ACAD
  9
$ELEVATION
 40
0.0
  9
$THICKNESS
 40
0.0
  9
$VIEWDIR
 10
0.0
 20
0.0
 30
1.0
  9
$LIMCHECK
 70
     0
  9
$BLIPMODE
 70
     1
  9
$CHAMFERA
 40
0.0
  9
$CHAMFERB
 40
0.0
  9
$FASTZOOM
 70
     1
  9
$SKPOLY
 70
     0
  9
$TDCREATE
 40
0000000.0000000000
  9
$TDUPDATE
 40
0000000.0000000000
  9
$TDINDWG
 40
0.0000000000
  9
$TDUSRTIMER
 40
0.0000000000
  9
$USRTIMER
 70
     1
  9
$ANGBASE
 50
0.0
  9
$ANGDIR
 70
     0
  9
$PDMODE
 70
     0
  9
$PDSIZE
 40
0.0
  9
$PLINEWID
 40
0.0
  9
$COORDS
 70
     0
  9
$USERI1
 70
     0
  9
$USERI2
 70
     0
  9
$USERI3
 70
     0
  9
$USERI4
 70
     0
  9
$USERI5
 70
     0
  9
$USERR1
 40
0.0
  9
$USERR2
 40
0.0
  9
$USERR3
 40
0.0
  9
$USERR4
 40
0.0
  9
$USERR5
 40
0.0
  9
$CLAYER
  8
M2
  9
$EXTMIN
 10
20.0
 20
20.0
  9
$EXTMAX
 10
400.0
 20
570.0
  9
$LIMMIN
 10
0.0
 20
0.0
  9
$LIMMAX
 10
210.0
 20
297.0
  9
$HANDSEED
  5
1F2
  0
ENDSEC
  0
SECTION
  2
CLASSES
  0
CLASS
  1
DICTIONARYVAR
  2
AcDbDictionaryVar
  3
"AutoCAD"
 90
        0
280
     0
281
     0
  0
CLASS
  1
HATCH
  2
AcDbHatch
  3
"ACAD_SEDONA"
 90
        0
280
     0
281
     1
  0
ENDSEC
  0
SECTION
  2
TABLES
  0
TABLE
  2
VPORT
  5
8
100
AcDbSymbolTable
 70
     2
  0
VPORT
  5
14
100
AcDbSymbolTableRecord
100
AcDbViewportTableRecord
  2
*ACTIVE
 70
     0
 10
0.0
 20
0.0
 11
1.0
 21
1.0
 12
484.0
 22
297.0
 13
0.0
 23
0.0
 14
1.0
 24
1.0
 15
0.0
 25
0.0
 16
0.0
 26
0.0
 36
1.0
 17
0.0
 27
0.0
 37
0.0
 40
594.0
 41
2.0
 42
50.0
 43
0.0
 44
0.0
 50
0.0
 51
0.0
 71
     0
 72
   100
 73
     1
 74
     1
 75
     0
 76
     0
 77
     0
 78
     0
  0
ENDTAB
  0
TABLE
  2
LTYPE
  5
5
100
AcDbSymbolTable
 70
     5
  0
LTYPE
  5
15
100
AcDbSymbolTableRecord
100
AcDbLinetypeTableRecord
  2
BYBLOCK
 70
     0
  3

 72
    65
 73
     0
 40
0.0
  0
LTYPE
  5
16
100
AcDbSymbolTableRecord
100
AcDbLinetypeTableRecord
  2
BYLAYER
 70
     0
  3

 72
    65
 73
     0
 40
0.0
  0
LTYPE
  5
17
100
AcDbSymbolTableRecord
100
AcDbLinetypeTableRecord
  2
CONTINUOUS
 70
    64
  3
Solid line
 72
    65
 73
     0
 40
0.0
  0
LTYPE
  5
18
100
AcDbSymbolTableRecord
100
AcDbLinetypeTableRecord
  2
DASHED
 70
    64
  3
__ __ __ __ __ __ __ __ __ __ __ __ __ __ __ __
 72
    65
 73
     2
 40
0.75
 49
0.5
 74
     0
 49
-0.25
 74
     0
  0
LTYPE
  5
19
100
AcDbSymbolTableRecord
100
AcDbLinetypeTableRecord
  2
DASHDOT
 70
    64
  3
__ . __ . __ . __ . __ . __ . __ . __ . __ . __
 72
    65
 73
     4
 40
1.0
 49
0.5
 74
     0
 49
-0.25
 74
     0
 49
0.0
 74
     0
 49
-0.25
 74
     0
  0
LTYPE
  5
1A
100
AcDbSymbolTableRecord
100
AcDbLinetypeTableRecord
  2
DIVIDE
 70
    64
  3
____ . . ____ . . ____ . . ____ . . ____ . . __
 72
    65
 73
     6
 40
1.25
 49
0.5
 74
     0
 49
-0.25
 74
     0
 49
0.0
 74
     0
 49
-0.25
 74
     0
 49
0.0
 74
     0
 49
-0.25
 74
     0
  0
LTYPE
  5
1B
100
AcDbSymbolTableRecord
100
AcDbLinetypeTableRecord
  2
DOT
 70
    64
  3
. . . . . . . . . . . . . . . . . . . . . . . .
 72
    65
 73
     2
 40
0.25
 49
0.0
 74
     0
 49
-0.25
 74
     0
  0
ENDTAB
  0
TABLE
  2
LAYER
  5
2
100
AcDbSymbolTable
 70
   102
  0
LAYER
  5
F
100
AcDbSymbolTableRecord
100
AcDbLayerTableRecord
  2
0
 70
     0
 62
     7
  6
CONTINUOUS
  0
LAYER
  5
1C
100
AcDbSymbolTableRecord
100
AcDbLayerTableRecord
  2
DEFPOINTS
 70
     0
 62
     7
  6
CONTINUOUS
  0
LAYER
  5
1D
100
AcDbSymbolTableRecord
100
AcDbLayerTableRecord
  2
M0
 70
     0
 62
     3
  6
CONTINUOUS
  0
LAYER
  5
1E
100
AcDbSymbolTableRecord
100
AcDbLayerTableRecord
  2
M1
 70
     0
 62
     3
  6
CONTINUOUS
  0
LAYER
  5
1F
100
AcDbSymbolTableRecord
100
AcDbLayerTableRecord
  2
M2
 70
     0
 62
     3
  6
CONTINUOUS
  0
LAYER
  5
20
100
AcDbSymbolTableRecord
100
AcDbLayerTableRecord
  2
DD0
 70
     0
 62
     4
  6
CONTINUOUS
  0
LAYER
  5
21
100
AcDbSymbolTableRecord
100
AcDbLayerTableRecord
  2
DN0
 70
     0
 62
     2
  6
CONTINUOUS
  0
ENDTAB
  0
TABLE
  2
STYLE
  5
3
100
AcDbSymbolTable
 70
     2
  0
STYLE
  5
10
100
AcDbSymbolTableRecord
100
AcDbTextStyleTableRecord
  2
STANDARD
 70
     0
 40
0.0
 41
1.0
 50
0.0
 71
     0
 42
0.2
  3
txt
  4
BIGFONT
  0
ENDTAB
  0
TABLE
  2
VIEW
  5
6
100
AcDbSymbolTable
 70
     0
  0
ENDTAB
  0
TABLE
  2
UCS
  5
7
100
AcDbSymbolTable
 70
     0
  0
ENDTAB
  0
TABLE
  2
APPID
  5
9
100
AcDbSymbolTable
 70
     1
  0
APPID
  5
11
100
AcDbSymbolTableRecord
100
AcDbRegAppTableRecord
  2
ACAD
 70
     0
  0
ENDTAB
  0
TABLE
  2
DIMSTYLE
  5
A
100
AcDbSymbolTable
 70
     2
  0
DIMSTYLE
105
28
100
AcDbSymbolTableRecord
100
AcDbDimStyleTableRecord
  2
STANDARD
 70
     0
  3

  4

  5

  6
_OPEN
  7
_OPEN
 40
1.0
 41
6.0
 42
1.0
 43
8.0
 44
1.0
 45
0.0
 46
0.0
 47
0.0
 48
0.0
140
6.3
141
0.09
142
0.0
143
0.03937
144
1.0
145
0.0
146
1.0
147
0.6
 71
     0
 72
     0
 73
     1
 74
     1
 75
     0
 76
     0
 77
     3
 78
     8
170
     0
171
     2
172
     0
173
     1
174
     0
175
     0
176
     0
177
     0
178
     0
270
     2
271
     2
272
     4
273
     2
274
     2
340
10
275
     0
280
     0
281
     0
282
     0
283
     1
284
     0
285
     0
286
     0
287
     3
288
     0
  0
DIMSTYLE
105
29
100
AcDbSymbolTableRecord
100
AcDbDimStyleTableRecord
  2
LEADSTYL
 70
     0
  3

  4

  5

  6
_OPEN
  7
_OPEN
 40
1.0
 41
6.0
 42
0.0625
 43
0.38
 44
0.18
 45
0.0
 46
0.0
 47
0.0
 48
0.0
140
6.3
141
0.09
142
0.0
143
25.4
144
1.0
145
0.0
146
1.0
147
0.6
 71
     0
 72
     0
 73
     1
 74
     1
 75
     0
 76
     0
 77
     0
 78
     0
170
     0
171
     2
172
     0
173
     1
174
     0
175
     0
176
     0
177
     0
178
     0
270
     2
271
     4
272
     4
273
     2
274
     2
340
10
275
     0
280
     0
281
     0
282
     0
283
     1
284
     0
285
     0
286
     0
287
     3
288
     0
  0
ENDTAB
  0
TABLE
  2
BLOCK_RECORD
  5
1
100
AcDbSymbolTable
 70
    18
  0
BLOCK_RECORD
  5
22
100
AcDbSymbolTableRecord
100
AcDbBlockTableRecord
  2
*MODEL_SPACE
  0
BLOCK_RECORD
  5
25
100
AcDbSymbolTableRecord
100
AcDbBlockTableRecord
  2
*PAPER_SPACE
  0
BLOCK_RECORD
  5
2A
100
AcDbSymbolTableRecord
100
AcDbBlockTableRecord
  2
_NONE
  0
BLOCK_RECORD
  5
2E
100
AcDbSymbolTableRecord
100
AcDbBlockTableRecord
  2
_OPEN
  0
BLOCK_RECORD
  5
34
100
AcDbSymbolTableRecord
100
AcDbBlockTableRecord
  2
_CLOSED
  0
BLOCK_RECORD
  5
3B
100
AcDbSymbolTableRecord
100
AcDbBlockTableRecord
  2
_ORIGIN
  0
BLOCK_RECORD
  5
40
100
AcDbSymbolTableRecord
100
AcDbBlockTableRecord
  2
_DOT
  0
BLOCK_RECORD
  5
48
100
AcDbSymbolTableRecord
100
AcDbBlockTableRecord
  2
_OBLIQUE
  0
BLOCK_RECORD
  5
4C
100
AcDbSymbolTableRecord
100
AcDbBlockTableRecord
  2
DIMS0
  0
BLOCK_RECORD
  5
58
100
AcDbSymbolTableRecord
100
AcDbBlockTableRecord
  2
DIMS1
  0
BLOCK_RECORD
  5
64
100
AcDbSymbolTableRecord
100
AcDbBlockTableRecord
  2
DIMS2
  0
BLOCK_RECORD
  5
70
100
AcDbSymbolTableRecord
100
AcDbBlockTableRecord
  2
DIMS3
  0
BLOCK_RECORD
  5
7C
100
AcDbSymbolTableRecord
100
AcDbBlockTableRecord
  2
DIMS4
  0
BLOCK_RECORD
  5
88
100
AcDbSymbolTableRecord
100
AcDbBlockTableRecord
  2
DIMS5
  0
BLOCK_RECORD
  5
94
100
AcDbSymbolTableRecord
100
AcDbBlockTableRecord
  2
DIMS6
  0
BLOCK_RECORD
  5
A0
100
AcDbSymbolTableRecord
100
AcDbBlockTableRecord
  2
DIMS7
  0
BLOCK_RECORD
  5
AC
100
AcDbSymbolTableRecord
100
AcDbBlockTableRecord
  2
DIMS8
  0
BLOCK_RECORD
  5
B5
100
AcDbSymbolTableRecord
100
AcDbBlockTableRecord
  2
DIMS9
  0
BLOCK_RECORD
  5
C1
100
AcDbSymbolTableRecord
100
AcDbBlockTableRecord
  2
DIMS10
  0
BLOCK_RECORD
  5
CD
100
AcDbSymbolTableRecord
100
AcDbBlockTableRecord
  2
DIMS11
  0
ENDTAB
  0
ENDSEC
  0
SECTION
  2
BLOCKS
  0
BLOCK
  5
23
100
AcDbEntity
  8
0
100
AcDbBlockBegin
  2
*MODEL_SPACE
 70
     0
 10
0.0
 20
0.0
 30
0.0
  3
*MODEL_SPACE
  1

  0
ENDBLK
  5
24
100
AcDbEntity
  8
0
100
AcDbBlockEnd
  0
BLOCK
  5
26
100
AcDbEntity
 67
     1
  8
0
100
AcDbBlockBegin
  2
*PAPER_SPACE
 70
     0
 10
0.0
 20
0.0
 30
0.0
  3
*PAPER_SPACE
  1

  0
ENDBLK
  5
27
100
AcDbEntity
 67
     1
  8
0
100
AcDbBlockEnd
  0
BLOCK
  5
2B
100
AcDbEntity
  8
0
100
AcDbBlockBegin
  2
_NONE
 70
     0
 10
0.0
 20
0.0
  0
CIRCLE
  5
2C
100
AcDbEntity
  8
0
 62
     0
100
AcDbCircle
 10
0.0
 20
0.0
 40
0.25
  0
ENDBLK
  5
2D
100
AcDbEntity
  8
0
100
AcDbBlockEnd
  0
BLOCK
  5
2F
100
AcDbEntity
  8
0
100
AcDbBlockBegin
  2
_OPEN
 70
     0
 10
0.0
 20
0.0
  0
LINE
  5
30
100
AcDbEntity
  8
0
 62
     0
100
AcDbLine
 10
-0.965926
 20
0.258819
 11
0.0
 21
0.0
  0
LINE
  5
31
100
AcDbEntity
  8
0
 62
     0
100
AcDbLine
 10
0.0
 20
0.0
 11
-0.965926
 21
-0.258819
  0
LINE
  5
32
100
AcDbEntity
  8
0
 62
     0
100
AcDbLine
 10
0.0
 20
0.0
 11
-1.0
 21
0.0
  0
ENDBLK
  5
33
100
AcDbEntity
  8
0
100
AcDbBlockEnd
  0
BLOCK
  5
35
100
AcDbEntity
  8
0
100
AcDbBlockBegin
  2
_CLOSED
 70
     0
 10
0.0
 20
0.0
  0
LINE
  5
36
100
AcDbEntity
  8
0
 62
     0
100
AcDbLine
 10
-0.965926
 20
0.258819
 11
0.0
 21
0.0
  0
LINE
  5
37
100
AcDbEntity
  8
0
 62
     0
100
AcDbLine
 10
0.0
 20
0.0
 11
-0.965926
 21
-0.258819
  0
LINE
  5
38
100
AcDbEntity
  8
0
 62
     0
100
AcDbLine
 10
-0.965926
 20
0.258819
 11
-0.965926
 21
-0.258819
  0
LINE
  5
39
100
AcDbEntity
  8
0
 62
     0
100
AcDbLine
 10
0.0
 20
0.0
 11
-1.0
 21
0.0
  0
ENDBLK
  5
3A
100
AcDbEntity
  8
0
100
AcDbBlockEnd
  0
BLOCK
  5
3C
100
AcDbEntity
  8
0
100
AcDbBlockBegin
  2
_ORIGIN
 70
     0
 10
0.0
 20
0.0
  0
CIRCLE
  5
3D
100
AcDbEntity
  8
0
 62
     0
100
AcDbCircle
 10
0.0
 20
0.0
 40
0.5
  0
LINE
  5
3E
100
AcDbEntity
  8
0
 62
     0
100
AcDbLine
 10
0.0
 20
0.0
 11
-1.0
 21
0.0
  0
ENDBLK
  5
3F
100
AcDbEntity
  8
0
100
AcDbBlockEnd
  0
BLOCK
  5
41
100
AcDbEntity
  8
0
100
AcDbBlockBegin
  2
_DOT
 70
     0
 10
0.0
 20
0.0
  0
POLYLINE
  5
42
100
AcDbEntity
  8
0
 62
     0
100
AcDb2dPolyline
 66
     1
 70
     1
 40
0.5
 41
0.5
  0
VERTEX
  5
43
100
AcDbEntity
  8
0
 62
     0
100
AcDbVertex
100
AcDb2dVertex
 10
-0.25
 20
0.0
 42
1.0
  0
VERTEX
  5
44
100
AcDbEntity
  8
0
 62
     0
100
AcDbVertex
100
AcDb2dVertex
 10
0.25
 20
0.0
 42
1.0
  0
SEQEND
  5
45
100
AcDbEntity
  8
0
 62
     0
  0
LINE
  5
46
100
AcDbEntity
  8
0
 62
     0
100
AcDbLine
 10
-0.5
 20
0.0
 11
-1.0
 21
0.0
  0
ENDBLK
  5
47
100
AcDbEntity
  8
0
100
AcDbBlockEnd
  0
BLOCK
  5
49
100
AcDbEntity
  8
0
100
AcDbBlockBegin
  2
_OBLIQUE
 70
     0
 10
0.0
 20
0.0
  0
LINE
  5
4A
100
AcDbEntity
  8
0
 62
     0
100
AcDbLine
 10
-0.353553
 20
-0.353553
 11
0.353553
 21
0.353553
  0
ENDBLK
  5
4B
100
AcDbEntity
  8
0
100
AcDbBlockEnd
  0
BLOCK
  5
4D
100
AcDbEntity
  8
DD0
100
AcDbBlockBegin
  2
DIMS0
 70
     0
 10
0.0
 20
0.0
  0
LINE
  5
4E
100
AcDbEntity
  8
DD0
100
AcDbLine
 10
141.603088
 20
524.156982
 11
172.331161
 21
524.156982
  0
LINE
  5
4F
100
AcDbEntity
  8
DD0
100
AcDbLine
 10
150.603073
 20
521.156921
 11
172.331161
 21
521.156921
  0
LINE
  5
50
100
AcDbEntity
  8
DD0
100
AcDbLine
 10
168.778247
 20
529.952537
 11
170.331161
 21
524.156982
  0
LINE
  5
51
100
AcDbEntity
  8
DD0
100
AcDbLine
 10
170.331161
 20
524.156982
 11
171.884076
 21
529.952537
  0
LINE
  5
52
100
AcDbEntity
  8
DD0
100
AcDbLine
 10
171.884076
 20
515.361366
 11
170.331161
 21
521.156921
  0
LINE
  5
53
100
AcDbEntity
  8
DD0
100
AcDbLine
 10
170.331161
 20
521.156921
 11
168.778247
 21
515.361366
  0
LINE
  5
54
100
AcDbEntity
  8
DD0
100
AcDbLine
 10
170.331161
 20
539.056982
 11
170.331161
 21
514.556921
  0
TEXT
  5
55
100
AcDbEntity
  8
DD0
100
AcDbText
 10
169.131165
 20
531.27196
 40
6.3
  1
３
 50
90.000003
 41
0.833333
  7
STANDARD
100
AcDbText
  0
ENDBLK
  5
56
100
AcDbEntity
  8
DD0
100
AcDbBlockEnd
  0
BLOCK
  5
59
100
AcDbEntity
  8
DD0
100
AcDbBlockBegin
  2
DIMS1
 70
     0
 10
0.0
 20
0.0
  0
LINE
  5
5A
100
AcDbEntity
  8
DD0
100
AcDbLine
 10
150.603073
 20
521.156921
 11
172.331161
 21
521.156921
  0
LINE
  5
5B
100
AcDbEntity
  8
DD0
100
AcDbLine
 10
150.603073
 20
356.157654
 11
172.331161
 21
356.157654
  0
LINE
  5
5C
100
AcDbEntity
  8
DD0
100
AcDbLine
 10
171.884076
 20
515.361366
 11
170.331161
 21
521.156921
  0
LINE
  5
5D
100
AcDbEntity
  8
DD0
100
AcDbLine
 10
170.331161
 20
521.156921
 11
168.778247
 21
515.361366
  0
LINE
  5
5E
100
AcDbEntity
  8
DD0
100
AcDbLine
 10
168.778247
 20
361.953209
 11
170.331161
 21
356.157654
  0
LINE
  5
5F
100
AcDbEntity
  8
DD0
100
AcDbLine
 10
170.331161
 20
356.157654
 11
171.884076
 21
361.953209
  0
LINE
  5
60
100
AcDbEntity
  8
DD0
100
AcDbLine
 10
170.331161
 20
521.156921
 11
170.331161
 21
356.157654
  0
TEXT
  5
61
100
AcDbEntity
  8
DD0
100
AcDbText
 10
169.131165
 20
429.722278
 40
6.3
  1
１６５
 50
90.000003
 41
0.833333
  7
STANDARD
100
AcDbText
  0
ENDBLK
  5
62
100
AcDbEntity
  8
DD0
100
AcDbBlockEnd
  0
BLOCK
  5
65
100
AcDbEntity
  8
DD0
100
AcDbBlockBegin
  2
DIMS2
 70
     0
 10
0.0
 20
0.0
  0
LINE
  5
66
100
AcDbEntity
  8
DD0
100
AcDbLine
 10
117.103073
 20
347.657654
 11
172.331161
 21
347.657654
  0
LINE
  5
67
100
AcDbEntity
  8
DD0
100
AcDbLine
 10
150.603073
 20
356.157654
 11
172.331161
 21
356.157654
  0
LINE
  5
68
100
AcDbEntity
  8
DD0
100
AcDbLine
 10
171.884076
 20
341.862099
 11
170.331161
 21
347.657654
  0
LINE
  5
69
100
AcDbEntity
  8
DD0
100
AcDbLine
 10
170.331161
 20
347.657654
 11
168.778247
 21
341.862099
  0
LINE
  5
6A
100
AcDbEntity
  8
DD0
100
AcDbLine
 10
168.778247
 20
361.953209
 11
170.331161
 21
356.157654
  0
LINE
  5
6B
100
AcDbEntity
  8
DD0
100
AcDbLine
 10
170.331161
 20
356.157654
 11
171.884076
 21
361.953209
  0
LINE
  5
6C
100
AcDbEntity
  8
DD0
100
AcDbLine
 10
170.331161
 20
320.157652
 11
170.331161
 21
362.757654
  0
TEXT
  5
6D
100
AcDbEntity
  8
DD0
100
AcDbText
 10
169.131165
 20
321.772662
 40
6.3
  1
８．５
 50
90.000003
 41
0.833333
  7
STANDARD
100
AcDbText
  0
ENDBLK
  5
6E
100
AcDbEntity
  8
DD0
100
AcDbBlockEnd
  0
BLOCK
  5
71
100
AcDbEntity
  8
DD0
100
AcDbBlockBegin
  2
DIMS3
 70
     0
 10
0.0
 20
0.0
  0
LINE
  5
72
100
AcDbEntity
  8
DD0
100
AcDbLine
 10
67.603081
 20
519.157166
 11
67.603081
 21
544.189697
  0
LINE
  5
73
100
AcDbEntity
  8
DD0
100
AcDbLine
 10
152.603073
 20
519.156921
 11
152.603073
 21
544.189697
  0
LINE
  5
74
100
AcDbEntity
  8
DD0
100
AcDbLine
 10
73.398636
 20
543.742612
 11
67.603081
 21
542.189697
  0
LINE
  5
75
100
AcDbEntity
  8
DD0
100
AcDbLine
 10
67.603081
 20
542.189697
 11
73.398636
 21
540.636783
  0
LINE
  5
76
100
AcDbEntity
  8
DD0
100
AcDbLine
 10
146.807518
 20
540.636783
 11
152.603073
 21
542.189697
  0
LINE
  5
77
100
AcDbEntity
  8
DD0
100
AcDbLine
 10
152.603073
 20
542.189697
 11
146.807518
 21
543.742612
  0
LINE
  5
78
100
AcDbEntity
  8
DD0
100
AcDbLine
 10
67.603081
 20
542.189697
 11
152.603073
 21
542.189697
  0
TEXT
  5
79
100
AcDbEntity
  8
DD0
100
AcDbText
 10
104.318072
 20
543.389709
 40
6.3
  1
８５
 41
0.833333
  7
STANDARD
100
AcDbText
  0
ENDBLK
  5
7A
100
AcDbEntity
  8
DD0
100
AcDbBlockEnd
  0
BLOCK
  5
7D
100
AcDbEntity
  8
DD0
100
AcDbBlockBegin
  2
DIMS4
 70
     0
 10
0.0
 20
0.0
  0
LINE
  5
7E
100
AcDbEntity
  8
DD0
100
AcDbLine
 10
229.683319
 20
517.740967
 11
229.683319
 21
543.716675
  0
LINE
  5
7F
100
AcDbEntity
  8
DD0
100
AcDbLine
 10
341.683289
 20
515.65741
 11
341.683289
 21
543.716675
  0
LINE
  5
80
100
AcDbEntity
  8
DD0
100
AcDbLine
 10
235.478874
 20
543.269589
 11
229.683319
 21
541.716675
  0
LINE
  5
81
100
AcDbEntity
  8
DD0
100
AcDbLine
 10
229.683319
 20
541.716675
 11
235.478874
 21
540.16376
  0
LINE
  5
82
100
AcDbEntity
  8
DD0
100
AcDbLine
 10
335.887734
 20
540.16376
 11
341.683289
 21
541.716675
  0
LINE
  5
83
100
AcDbEntity
  8
DD0
100
AcDbLine
 10
341.683289
 20
541.716675
 11
335.887734
 21
543.269589
  0
LINE
  5
84
100
AcDbEntity
  8
DD0
100
AcDbLine
 10
229.683319
 20
541.716675
 11
341.683289
 21
541.716675
  0
TEXT
  5
85
100
AcDbEntity
  8
DD0
100
AcDbText
 10
276.748279
 20
542.916687
 40
6.3
  1
１１２
 41
0.833333
  7
STANDARD
100
AcDbText
  0
ENDBLK
  5
86
100
AcDbEntity
  8
DD0
100
AcDbBlockEnd
  0
BLOCK
  5
89
100
AcDbEntity
  8
DD0
100
AcDbBlockBegin
  2
DIMS5
 70
     0
 10
0.0
 20
0.0
  0
LINE
  5
8A
100
AcDbEntity
  8
DD0
100
AcDbLine
 10
338.683441
 20
519.15741
 11
338.683441
 21
532.891968
  0
LINE
  5
8B
100
AcDbEntity
  8
DD0
100
AcDbLine
 10
341.183289
 20
519.157166
 11
341.183289
 21
532.891968
  0
LINE
  5
8C
100
AcDbEntity
  8
DD0
100
AcDbLine
 10
332.887886
 20
529.339053
 11
338.683441
 21
530.891968
  0
LINE
  5
8D
100
AcDbEntity
  8
DD0
100
AcDbLine
 10
338.683441
 20
530.891968
 11
332.887886
 21
532.444882
  0
LINE
  5
8E
100
AcDbEntity
  8
DD0
100
AcDbLine
 10
346.978844
 20
532.444882
 11
341.183289
 21
530.891968
  0
LINE
  5
8F
100
AcDbEntity
  8
DD0
100
AcDbLine
 10
341.183289
 20
530.891968
 11
346.978844
 21
529.339053
  0
LINE
  5
90
100
AcDbEntity
  8
DD0
100
AcDbLine
 10
311.183439
 20
530.891968
 11
347.783288
 21
530.891968
  0
TEXT
  5
91
100
AcDbEntity
  8
DD0
100
AcDbText
 10
312.79845
 20
532.09198
 40
6.3
  1
２．５
 41
0.833333
  7
STANDARD
100
AcDbText
  0
ENDBLK
  5
92
100
AcDbEntity
  8
DD0
100
AcDbBlockEnd
  0
BLOCK
  5
95
100
AcDbEntity
  8
DD0
100
AcDbBlockBegin
  2
DIMS6
 70
     0
 10
0.0
 20
0.0
  0
LINE
  5
96
100
AcDbEntity
  8
DD0
100
AcDbLine
 10
269.40271
 20
275.405334
 11
286.227936
 21
275.405334
  0
LINE
  5
97
100
AcDbEntity
  8
DD0
100
AcDbLine
 10
267.002716
 20
200.405334
 11
286.227936
 21
200.405334
  0
LINE
  5
98
100
AcDbEntity
  8
DD0
100
AcDbLine
 10
285.78085
 20
269.60978
 11
284.227936
 21
275.405334
  0
LINE
  5
99
100
AcDbEntity
  8
DD0
100
AcDbLine
 10
284.227936
 20
275.405334
 11
282.675021
 21
269.60978
  0
LINE
  5
9A
100
AcDbEntity
  8
DD0
100
AcDbLine
 10
282.675021
 20
206.200889
 11
284.227936
 21
200.405334
  0
LINE
  5
9B
100
AcDbEntity
  8
DD0
100
AcDbLine
 10
284.227936
 20
200.405334
 11
285.78085
 21
206.200889
  0
LINE
  5
9C
100
AcDbEntity
  8
DD0
100
AcDbLine
 10
284.227936
 20
275.405334
 11
284.227936
 21
200.405334
  0
TEXT
  5
9D
100
AcDbEntity
  8
DD0
100
AcDbText
 10
283.027924
 20
228.97034
 40
6.3
  1
１２５
 50
90.000003
 41
0.833333
  7
STANDARD
100
AcDbText
  0
ENDBLK
  5
9E
100
AcDbEntity
  8
DD0
100
AcDbBlockEnd
  0
BLOCK
  5
A1
100
AcDbEntity
  8
DD0
100
AcDbBlockBegin
  2
DIMS7
 70
     0
 10
0.0
 20
0.0
  0
LINE
  5
A2
100
AcDbEntity
  8
DD0
100
AcDbLine
 10
269.40271
 20
275.405334
 11
301.747253
 21
275.405334
  0
LINE
  5
A3
100
AcDbEntity
  8
DD0
100
AcDbLine
 10
269.40271
 20
191.405334
 11
301.747253
 21
191.405334
  0
LINE
  5
A4
100
AcDbEntity
  8
DD0
100
AcDbLine
 10
301.300168
 20
269.60978
 11
299.747253
 21
275.405334
  0
LINE
  5
A5
100
AcDbEntity
  8
DD0
100
AcDbLine
 10
299.747253
 20
275.405334
 11
298.194339
 21
269.60978
  0
LINE
  5
A6
100
AcDbEntity
  8
DD0
100
AcDbLine
 10
298.194339
 20
197.200889
 11
299.747253
 21
191.405334
  0
LINE
  5
A7
100
AcDbEntity
  8
DD0
100
AcDbLine
 10
299.747253
 20
191.405334
 11
301.300168
 21
197.200889
  0
LINE
  5
A8
100
AcDbEntity
  8
DD0
100
AcDbLine
 10
299.747253
 20
275.405334
 11
299.747253
 21
191.405334
  0
TEXT
  5
A9
100
AcDbEntity
  8
DD0
100
AcDbText
 10
298.547241
 20
224.47034
 40
6.3
  1
１４０
 50
90.000003
 41
0.833333
  7
STANDARD
100
AcDbText
  0
ENDBLK
  5
AA
100
AcDbEntity
  8
DD0
100
AcDbBlockEnd
  0
BLOCK
  5
AD
100
AcDbEntity
  8
DD0
100
AcDbBlockBegin
  2
DIMS8
 70
     0
 10
0.0
 20
0.0
  0
TEXT
  5
AE
100
AcDbEntity
  8
DD0
100
AcDbText
 10
164.371905
 20
172.852936
 40
6.3
  1
４－Ｍ４ねじ穴
 41
0.833333
  7
STANDARD
100
AcDbText
  0
LINE
  5
AF
100
AcDbEntity
  8
DD0
100
AcDbLine
 10
216.962054
 20
182.831571
 11
218.036224
 21
188.734634
  0
LINE
  5
B0
100
AcDbEntity
  8
DD0
100
AcDbLine
 10
218.036224
 20
188.734634
 11
214.154434
 21
184.159517
  0
LINE
  5
B1
100
AcDbEntity
  8
DD0
100
AcDbLine
 10
218.036224
 20
188.734634
 11
209.95694
 21
171.652939
  0
LINE
  5
B2
100
AcDbEntity
  8
DD0
100
AcDbLine
 10
209.95694
 20
171.652939
 11
161.856964
 21
171.652939
  0
ENDBLK
  5
B3
100
AcDbEntity
  8
DD0
100
AcDbBlockEnd
  0
BLOCK
  5
B6
100
AcDbEntity
  8
DD0
100
AcDbBlockBegin
  2
DIMS9
 70
     0
 10
0.0
 20
0.0
  0
LINE
  5
B7
100
AcDbEntity
  8
DD0
100
AcDbLine
 10
219.40274
 20
286.405334
 11
219.40274
 21
302.795807
  0
LINE
  5
B8
100
AcDbEntity
  8
DD0
100
AcDbLine
 10
258.40274
 20
286.405334
 11
258.40274
 21
302.795807
  0
LINE
  5
B9
100
AcDbEntity
  8
DD0
100
AcDbLine
 10
225.198295
 20
302.348721
 11
219.40274
 21
300.795807
  0
LINE
  5
BA
100
AcDbEntity
  8
DD0
100
AcDbLine
 10
219.40274
 20
300.795807
 11
225.198295
 21
299.242893
  0
LINE
  5
BB
100
AcDbEntity
  8
DD0
100
AcDbLine
 10
252.607186
 20
299.242893
 11
258.40274
 21
300.795807
  0
LINE
  5
BC
100
AcDbEntity
  8
DD0
100
AcDbLine
 10
258.40274
 20
300.795807
 11
252.607186
 21
302.348721
  0
LINE
  5
BD
100
AcDbEntity
  8
DD0
100
AcDbLine
 10
219.40274
 20
300.795807
 11
258.40274
 21
300.795807
  0
TEXT
  5
BE
100
AcDbEntity
  8
DD0
100
AcDbText
 10
233.11774
 20
301.995819
 40
6.3
  1
６５
 41
0.833333
  7
STANDARD
100
AcDbText
  0
ENDBLK
  5
BF
100
AcDbEntity
  8
DD0
100
AcDbBlockEnd
  0
BLOCK
  5
C2
100
AcDbEntity
  8
DD0
100
AcDbBlockBegin
  2
DIMS10
 70
     0
 10
0.0
 20
0.0
  0
LINE
  5
C3
100
AcDbEntity
  8
DD0
100
AcDbLine
 10
342.911804
 20
269.405334
 11
359.487305
 21
269.405334
  0
LINE
  5
C4
100
AcDbEntity
  8
DD0
100
AcDbLine
 10
342.911804
 20
197.405334
 11
359.487305
 21
197.405334
  0
LINE
  5
C5
100
AcDbEntity
  8
DD0
100
AcDbLine
 10
359.040219
 20
263.60978
 11
357.487305
 21
269.405334
  0
LINE
  5
C6
100
AcDbEntity
  8
DD0
100
AcDbLine
 10
357.487305
 20
269.405334
 11
355.93439
 21
263.60978
  0
LINE
  5
C7
100
AcDbEntity
  8
DD0
100
AcDbLine
 10
355.93439
 20
203.200889
 11
357.487305
 21
197.405334
  0
LINE
  5
C8
100
AcDbEntity
  8
DD0
100
AcDbLine
 10
357.487305
 20
197.405334
 11
359.040219
 21
203.200889
  0
LINE
  5
C9
100
AcDbEntity
  8
DD0
100
AcDbLine
 10
357.487305
 20
269.405334
 11
357.487305
 21
197.405334
  0
TEXT
  5
CA
100
AcDbEntity
  8
DD0
100
AcDbText
 10
356.287292
 20
224.47034
 40
6.3
  1
１２０
 50
90.000003
 41
0.833333
  7
STANDARD
100
AcDbText
  0
ENDBLK
  5
CB
100
AcDbEntity
  8
DD0
100
AcDbBlockEnd
  0
BLOCK
  5
CE
100
AcDbEntity
  8
DD0
100
AcDbBlockBegin
  2
DIMS11
 70
     0
 10
0.0
 20
0.0
  0
TEXT
  5
CF
100
AcDbEntity
  8
DD0
100
AcDbText
 10
343.928699
 20
180.058304
 40
6.3
  1
２－Ｍ５ねじ穴
 41
0.833333
  7
STANDARD
100
AcDbText
  0
LINE
  5
D0
100
AcDbEntity
  8
DD0
100
AcDbLine
 10
337.623766
 20
190.45379
 11
333.733978
 21
195.02211
  0
LINE
  5
D1
100
AcDbEntity
  8
DD0
100
AcDbLine
 10
333.733978
 20
195.02211
 11
334.818473
 21
189.120935
  0
LINE
  5
D2
100
AcDbEntity
  8
DD0
100
AcDbLine
 10
333.733978
 20
195.02211
 11
341.413727
 21
178.858353
  0
LINE
  5
D3
100
AcDbEntity
  8
DD0
100
AcDbLine
 10
341.413727
 20
178.858337
 11
389.513733
 21
178.858337
  0
ENDBLK
  5
D4
100
AcDbEntity
  8
DD0
100
AcDbBlockEnd
  0
ENDSEC
  0
SECTION
  2
ENTITIES
  0
INSERT
  5
57
100
AcDbEntity
  8
DD0
100
AcDbBlockReference
  2
DIMS0
 10
0.0
 20
0.0
  0
INSERT
  5
63
100
AcDbEntity
  8
DD0
100
AcDbBlockReference
  2
DIMS1
 10
0.0
 20
0.0
  0
INSERT
  5
6F
100
AcDbEntity
  8
DD0
100
AcDbBlockReference
  2
DIMS2
 10
0.0
 20
0.0
  0
INSERT
  5
7B
100
AcDbEntity
  8
DD0
100
AcDbBlockReference
  2
DIMS3
 10
0.0
 20
0.0
  0
INSERT
  5
87
100
AcDbEntity
  8
DD0
100
AcDbBlockReference
  2
DIMS4
 10
0.0
 20
0.0
  0
INSERT
  5
93
100
AcDbEntity
  8
DD0
100
AcDbBlockReference
  2
DIMS5
 10
0.0
 20
0.0
  0
INSERT
  5
9F
100
AcDbEntity
  8
DD0
100
AcDbBlockReference
  2
DIMS6
 10
0.0
 20
0.0
  0
INSERT
  5
AB
100
AcDbEntity
  8
DD0
100
AcDbBlockReference
  2
DIMS7
 10
0.0
 20
0.0
  0
INSERT
  5
B4
100
AcDbEntity
  8
DD0
100
AcDbBlockReference
  2
DIMS8
 10
0.0
 20
0.0
  0
INSERT
  5
C0
100
AcDbEntity
  8
DD0
100
AcDbBlockReference
  2
DIMS9
 10
0.0
 20
0.0
  0
INSERT
  5
CC
100
AcDbEntity
  8
DD0
100
AcDbBlockReference
  2
DIMS10
 10
0.0
 20
0.0
  0
INSERT
  5
D5
100
AcDbEntity
  8
DD0
100
AcDbBlockReference
  2
DIMS11
 10
0.0
 20
0.0
  0
ARC
  5
D6
100
AcDbEntity
  8
M0
100
AcDbCircle
 10
104.603078
 20
355.157647
 40
2.0
100
AcDbArc
 50
270.0
 51
272.526716
  0
ARC
  5
D7
100
AcDbEntity
  8
M0
100
AcDbCircle
 10
115.603077
 20
355.157647
 40
2.0
100
AcDbArc
 50
255.522335
 51
270.0
  0
ARC
  5
D8
100
AcDbEntity
  8
M0
100
AcDbCircle
 10
80.603081
 20
522.157159
 40
2.0
100
AcDbArc
 50
89.999563
 51
157.967082
  0
ARC
  5
D9
100
AcDbEntity
  8
M0
100
AcDbCircle
 10
139.603066
 20
522.156976
 40
2.0
100
AcDbArc
 50
22.038195
 51
90.0
  0
LINE
  5
DA
100
AcDbEntity
  8
M0
100
AcDbLine
 10
78.603081
 20
356.157647
 11
78.603081
 21
355.157647
  0
LINE
  5
DB
100
AcDbEntity
  8
M0
100
AcDbLine
 10
106.603078
 20
522.157082
 11
106.603078
 21
521.157082
  0
LINE
  5
DC
100
AcDbEntity
  8
M0
100
AcDbLine
 10
113.603077
 20
522.157052
 11
113.603077
 21
521.157052
  0
LINE
  5
DD
100
AcDbEntity
  8
M0
100
AcDbLine
 10
141.603066
 20
356.157647
 11
141.603066
 21
355.157647
  0
ARC
  5
DE
100
AcDbEntity
  8
M0
100
AcDbCircle
 10
80.603081
 20
355.157647
 40
2.0
100
AcDbArc
 50
179.999563
 51
270.0
  0
LINE
  5
DF
100
AcDbEntity
  8
M0
100
AcDbLine
 10
104.603078
 20
353.157647
 11
80.603081
 21
353.157647
  0
ARC
  5
E0
100
AcDbEntity
  8
M0
100
AcDbCircle
 10
139.603066
 20
355.157647
 40
2.0
100
AcDbArc
 50
269.999563
 51
360.0
  0
LINE
  5
E1
100
AcDbEntity
  8
M0
100
AcDbLine
 10
139.603066
 20
353.157647
 11
115.603077
 21
353.157647
  0
LINE
  5
E2
100
AcDbEntity
  8
M0
100
AcDbLine
 10
104.603083
 20
524.157082
 11
80.603097
 21
524.157159
  0
ARC
  5
E3
100
AcDbEntity
  8
M0
100
AcDbCircle
 10
104.603078
 20
522.157082
 40
2.0
100
AcDbArc
 50
0.0
 51
90.0
  0
ARC
  5
E4
100
AcDbEntity
  8
M0
100
AcDbCircle
 10
115.603077
 20
522.157052
 40
2.0
100
AcDbArc
 50
90.0
 51
180.0
  0
LINE
  5
E5
100
AcDbEntity
  8
M0
100
AcDbLine
 10
139.603081
 20
524.156976
 11
115.603082
 21
524.157052
  0
LINE
  5
E6
100
AcDbEntity
  8
M0
 62
     7
100
AcDbLine
 10
71.603081
 20
356.157647
 11
104.103078
 21
356.157647
  0
LINE
  5
E7
100
AcDbEntity
  8
M0
 62
     7
100
AcDbLine
 10
152.603066
 20
360.157632
 11
152.603066
 21
517.156945
  0
LINE
  5
E8
100
AcDbEntity
  8
M0
 62
     7
100
AcDbLine
 10
148.603066
 20
521.156945
 11
71.603081
 21
521.157189
  0
LINE
  5
E9
100
AcDbEntity
  8
M0
 62
     7
100
AcDbLine
 10
67.603081
 20
517.157189
 11
67.603081
 21
360.157647
  0
LINE
  5
EA
100
AcDbEntity
  8
M0
  6
DASHDOT
 62
     7
100
AcDbLine
 10
62.603081
 20
438.657629
 11
157.603066
 21
438.657629
  0
LINE
  5
EB
100
AcDbEntity
  8
M0
  6
DASHDOT
 62
     7
100
AcDbLine
 10
110.103077
 20
340.157647
 11
110.103077
 21
530.407433
  0
LINE
  5
EC
100
AcDbEntity
  8
M0
 62
     7
100
AcDbLine
 10
68.603081
 20
517.157189
 11
68.603081
 21
360.157647
  0
LINE
  5
ED
100
AcDbEntity
  8
M0
 62
     7
100
AcDbLine
 10
151.603066
 20
360.157632
 11
151.603066
 21
517.157189
  0
LINE
  5
EE
100
AcDbEntity
  8
M0
 62
     7
100
AcDbLine
 10
71.603081
 20
357.157647
 11
148.603066
 21
357.157647
  0
LINE
  5
EF
100
AcDbEntity
  8
M0
 62
     7
100
AcDbLine
 10
148.603066
 20
520.156945
 11
71.603081
 21
520.157189
  0
ARC
  5
F0
100
AcDbEntity
  8
M0
 62
     7
100
AcDbCircle
 10
148.603066
 20
517.157189
 40
3.0
100
AcDbArc
 50
0.0
 51
90.0
  0
ARC
  5
F1
100
AcDbEntity
  8
M0
 62
     7
100
AcDbCircle
 10
71.603081
 20
517.157189
 40
3.0
100
AcDbArc
 50
89.999709
 51
180.0
  0
ARC
  5
F2
100
AcDbEntity
  8
M0
 62
     7
100
AcDbCircle
 10
71.603081
 20
360.157647
 40
3.0
100
AcDbArc
 50
179.999709
 51
270.0
  0
ARC
  5
F3
100
AcDbEntity
  8
M0
 62
     7
100
AcDbCircle
 10
148.603066
 20
360.157647
 40
3.0
100
AcDbArc
 50
269.999709
 51
360.0
  0
ARC
  5
F4
100
AcDbEntity
  8
M0
 62
     7
100
AcDbCircle
 10
148.603066
 20
360.157647
 40
4.0
100
AcDbArc
 50
269.999781
 51
360.0
  0
ARC
  5
F5
100
AcDbEntity
  8
M0
 62
     7
100
AcDbCircle
 10
148.603066
 20
517.157189
 40
4.0
100
AcDbArc
 50
0.0
 51
90.0
  0
ARC
  5
F6
100
AcDbEntity
  8
M0
 62
     7
100
AcDbCircle
 10
71.603081
 20
517.157189
 40
4.0
100
AcDbArc
 50
89.999781
 51
180.0
  0
ARC
  5
F7
100
AcDbEntity
  8
M0
 62
     7
100
AcDbCircle
 10
71.603081
 20
360.157647
 40
4.0
100
AcDbArc
 50
179.999781
 51
270.0
  0
LINE
  5
F8
100
AcDbEntity
  8
M0
 62
     7
100
AcDbLine
 10
71.603081
 20
517.657433
 11
148.603066
 21
517.657433
  0
LINE
  5
F9
100
AcDbEntity
  8
M0
 62
     7
100
AcDbLine
 10
71.603081
 20
359.657647
 11
148.603066
 21
359.657647
  0
ARC
  5
FA
100
AcDbEntity
  8
M0
 62
     7
100
AcDbCircle
 10
71.603081
 20
362.657647
 40
3.0
100
AcDbArc
 50
179.999709
 51
270.0
  0
ARC
  5
FB
100
AcDbEntity
  8
M0
 62
     7
100
AcDbCircle
 10
148.603066
 20
514.657433
 40
3.0
100
AcDbArc
 50
0.0
 51
90.0
  0
ARC
  5
FC
100
AcDbEntity
  8
M0
 62
     7
100
AcDbCircle
 10
71.603081
 20
514.657433
 40
3.0
100
AcDbArc
 50
89.999709
 51
180.0
  0
ARC
  5
FD
100
AcDbEntity
  8
M0
 62
     7
100
AcDbCircle
 10
148.603066
 20
362.657647
 40
3.0
100
AcDbArc
 50
269.999709
 51
360.0
  0
LINE
  5
FE
100
AcDbEntity
  8
M0
  6
DASHDOT
 62
     7
100
AcDbLine
 10
100.857838
 20
352.657647
 11
120.49039
 21
352.657647
  0
LINE
  5
FF
100
AcDbEntity
  8
M0
 62
     7
100
AcDbLine
 10
105.103078
 20
347.657647
 11
115.103077
 21
347.657647
  0
LINE
  5
100
100
AcDbEntity
  8
M0
 62
     7
100
AcDbLine
 10
115.103077
 20
356.157647
 11
115.103077
 21
347.657647
  0
LINE
  5
101
100
AcDbEntity
  8
M0
 62
     7
100
AcDbLine
 10
105.103078
 20
356.157647
 11
105.103078
 21
347.657647
  0
LINE
  5
102
100
AcDbEntity
  8
M0
 62
     7
100
AcDbLine
 10
113.603077
 20
357.157647
 11
113.603077
 21
347.657647
  0
LINE
  5
103
100
AcDbEntity
  8
M0
 62
     7
100
AcDbLine
 10
106.603078
 20
357.157647
 11
106.603078
 21
347.657647
  0
LINE
  5
104
100
AcDbEntity
  8
M0
 62
     7
100
AcDbLine
 10
106.603078
 20
356.157647
 11
113.603077
 21
356.157647
  0
LINE
  5
105
100
AcDbEntity
  8
M0
 62
     7
100
AcDbLine
 10
116.103077
 20
356.157647
 11
148.603066
 21
356.157647
  0
ARC
  5
106
100
AcDbEntity
  8
M0
 62
     7
100
AcDbCircle
 10
116.103077
 20
356.157647
 40
1.0
100
AcDbArc
 50
90.0
 51
179.999126
  0
ARC
  5
107
100
AcDbEntity
  8
M0
 62
     7
100
AcDbCircle
 10
104.103078
 20
355.157647
 40
1.0
100
AcDbArc
 50
0.0
 51
90.0
  0
ARC
  5
108
100
AcDbEntity
  8
M0
 62
     7
100
AcDbCircle
 10
116.103077
 20
355.157647
 40
1.0
100
AcDbArc
 50
90.0
 51
179.999126
  0
ARC
  5
109
100
AcDbEntity
  8
M0
 62
     7
100
AcDbCircle
 10
104.103078
 20
356.157647
 40
1.0
100
AcDbArc
 50
0.0
 51
90.0
  0
LINE
  5
10A
100
AcDbEntity
  8
M0
 62
     7
100
AcDbLine
 10
72.403084
 20
522.907433
 11
87.403084
 21
522.907433
  0
LINE
  5
10B
100
AcDbEntity
  8
M0
 62
     7
100
AcDbLine
 10
87.403084
 20
522.907433
 11
87.403084
 21
522.157189
  0
LINE
  5
10C
100
AcDbEntity
  8
M0
 62
     7
100
AcDbLine
 10
132.803063
 20
522.907433
 11
132.803063
 21
522.157189
  0
LINE
  5
10D
100
AcDbEntity
  8
M0
 62
     7
100
AcDbLine
 10
147.803063
 20
522.907433
 11
147.803063
 21
522.157189
  0
LINE
  5
10E
100
AcDbEntity
  8
M0
 62
     7
100
AcDbLine
 10
72.403084
 20
522.907433
 11
72.403084
 21
522.157189
  0
LINE
  5
10F
100
AcDbEntity
  8
M0
 62
     7
100
AcDbLine
 10
132.803063
 20
522.907433
 11
147.803063
 21
522.907433
  0
ARC
  5
110
100
AcDbEntity
  8
M0
 62
     7
100
AcDbCircle
 10
131.803063
 20
522.157189
 40
1.0
100
AcDbArc
 50
269.999126
 51
360.0
  0
ARC
  5
111
100
AcDbEntity
  8
M0
 62
     7
100
AcDbCircle
 10
71.403084
 20
522.157189
 40
1.0
100
AcDbArc
 50
270.0
 51
360.0
  0
ARC
  5
112
100
AcDbEntity
  8
M0
 62
     7
100
AcDbCircle
 10
88.403084
 20
522.157189
 40
1.0
100
AcDbArc
 50
180.0
 51
270.0
  0
ARC
  5
113
100
AcDbEntity
  8
M0
 62
     7
100
AcDbCircle
 10
148.803063
 20
522.157189
 40
1.0
100
AcDbArc
 50
180.0
 51
269.999126
  0
LINE
  5
114
100
AcDbEntity
  8
M0
100
AcDbLine
 10
110.103141
 20
353.22326
 11
109.148478
 21
354.177926
  0
LINE
  5
115
100
AcDbEntity
  8
M0
100
AcDbLine
 10
110.103174
 20
352.091851
 11
111.057664
 21
351.137368
  0
LINE
  5
116
100
AcDbEntity
  8
M0
100
AcDbLine
 10
111.057664
 20
351.137368
 11
111.623352
 21
351.703057
  0
LINE
  5
117
100
AcDbEntity
  8
M0
100
AcDbLine
 10
108.582791
 20
353.612237
 11
109.537454
 21
352.657571
  0
LINE
  5
118
100
AcDbEntity
  8
M0
100
AcDbLine
 10
109.148478
 20
354.177926
 11
108.582791
 21
353.612237
  0
LINE
  5
119
100
AcDbEntity
  8
M0
100
AcDbLine
 10
111.623352
 20
351.703057
 11
110.668861
 21
352.65754
  0
LINE
  5
11A
100
AcDbEntity
  8
M0
100
AcDbLine
 10
109.537627
 20
352.657403
 11
107.896422
 21
351.016534
  0
LINE
  5
11B
100
AcDbEntity
  8
M0
100
AcDbLine
 10
110.668861
 20
352.65754
 11
112.309861
 21
354.298547
  0
LINE
  5
11C
100
AcDbEntity
  8
M0
100
AcDbLine
 10
108.462174
 20
350.45086
 11
110.103174
 21
352.091851
  0
LINE
  5
11D
100
AcDbEntity
  8
M0
100
AcDbLine
 10
111.744174
 20
354.864297
 11
110.103314
 21
353.223092
  0
CIRCLE
  5
11E
100
AcDbEntity
  8
M0
100
AcDbCircle
 10
110.103077
 20
352.657647
 40
2.75
  0
CIRCLE
  5
11F
100
AcDbEntity
  8
M0
100
AcDbCircle
 10
110.103077
 20
352.657647
 40
3.0
  0
ARC
  5
120
100
AcDbEntity
  8
M0
100
AcDbCircle
 10
304.683312
 20
522.157678
 40
2.0
100
AcDbArc
 50
90.0
 51
180.0
  0
LINE
  5
121
100
AcDbEntity
  8
M0
100
AcDbLine
 10
302.683312
 20
520.15722
 11
302.683312
 21
522.157678
  0
LINE
  5
122
100
AcDbEntity
  8
M0
100
AcDbLine
 10
328.683297
 20
524.157678
 11
304.683312
 21
524.157678
  0
ARC
  5
123
100
AcDbEntity
  8
M0
100
AcDbCircle
 10
328.683297
 20
522.157678
 40
2.0
100
AcDbArc
 50
0.0
 51
90.0
  0
LINE
  5
124
100
AcDbEntity
  8
M0
100
AcDbLine
 10
330.683297
 20
520.157372
 11
330.683297
 21
522.157678
  0
ARC
  5
125
100
AcDbEntity
  8
M0
100
AcDbCircle
 10
328.683297
 20
355.157708
 40
2.0
100
AcDbArc
 50
269.999563
 51
360.0
  0
LINE
  5
126
100
AcDbEntity
  8
M0
100
AcDbLine
 10
330.683297
 20
355.157708
 11
330.683297
 21
357.157708
  0
LINE
  5
127
100
AcDbEntity
  8
M0
100
AcDbLine
 10
328.683297
 20
353.157708
 11
304.683312
 21
353.157708
  0
ARC
  5
128
100
AcDbEntity
  8
M0
100
AcDbCircle
 10
304.683312
 20
355.157708
 40
2.0
100
AcDbArc
 50
179.999563
 51
269.999563
  0
LINE
  5
129
100
AcDbEntity
  8
M0
100
AcDbLine
 10
302.683312
 20
355.157708
 11
302.683312
 21
357.157708
  0
LINE
  5
12A
100
AcDbEntity
  8
M0
100
AcDbLine
 10
229.683326
 20
515.740991
 11
229.683326
 21
361.574044
  0
LINE
  5
12B
100
AcDbEntity
  8
M0
100
AcDbLine
 10
287.983269
 20
349.907708
 11
287.983269
 21
350.546273
  0
LINE
  5
12C
100
AcDbEntity
  8
M0
100
AcDbLine
 10
287.983376
 20
349.907464
 11
288.248665
 21
349.907464
  0
ARC
  5
12D
100
AcDbEntity
  8
M0
100
AcDbCircle
 10
292.983269
 20
352.657708
 40
7.0
100
AcDbArc
 50
183.276904
 51
196.255434
  0
LINE
  5
12E
100
AcDbEntity
  8
M0
100
AcDbLine
 10
287.08326
 20
352.257562
 11
285.994713
 21
352.257562
  0
LINE
  5
12F
100
AcDbEntity
  8
M0
100
AcDbLine
 10
287.08326
 20
352.71264
 11
287.08326
 21
352.257562
  0
LINE
  5
130
100
AcDbEntity
  8
M0
100
AcDbLine
 10
285.994698
 20
353.05761
 11
286.93995
 21
353.05761
  0
ARC
  5
131
100
AcDbEntity
  8
M0
100
AcDbCircle
 10
287.223092
 20
350.978265
 40
1.0
100
AcDbArc
 50
196.260869
 51
265.000684
  0
LINE
  5
132
100
AcDbEntity
  8
M0
100
AcDbLine
 10
287.983254
 20
349.907952
 11
287.135949
 21
349.981927
  0
ARC
  5
133
100
AcDbEntity
  8
M0
100
AcDbCircle
 10
292.983269
 20
352.657708
 40
7.0
100
AcDbArc
 50
163.748203
 51
176.724849
  0
LINE
  5
134
100
AcDbEntity
  8
M0
100
AcDbLine
 10
288.183312
 20
520.157006
 11
288.183312
 21
357.157708
  0
LINE
  5
135
100
AcDbEntity
  8
M0
100
AcDbLine
 10
289.183312
 20
521.157006
 11
289.183312
 21
356.157708
  0
LINE
  5
136
100
AcDbEntity
  8
M0
  6
DASHDOT
100
AcDbLine
 10
224.683326
 20
438.657692
 11
298.683312
 21
438.657692
  0
LINE
  5
137
100
AcDbEntity
  8
M0
100
AcDbLine
 10
288.183312
 20
520.157494
 11
231.597877
 21
517.739282
  0
ARC
  5
138
100
AcDbEntity
  8
M0
100
AcDbCircle
 10
231.683326
 20
361.574044
 40
2.0
100
AcDbArc
 50
179.999563
 51
267.551282
  0
ARC
  5
139
100
AcDbEntity
  8
M0
100
AcDbCircle
 10
231.683326
 20
515.740991
 40
2.0
100
AcDbArc
 50
92.448555
 51
180.0
  0
LINE
  5
13A
100
AcDbEntity
  8
M0
100
AcDbLine
 10
297.383263
 20
522.90725
 11
290.933312
 21
522.907006
  0
LINE
  5
13B
100
AcDbEntity
  8
M0
100
AcDbLine
 10
297.383263
 20
521.40725
 11
293.683312
 21
521.407006
  0
LINE
  5
13C
100
AcDbEntity
  8
M0
100
AcDbLine
 10
297.383263
 20
521.40725
 11
297.383263
 21
522.90725
  0
LINE
  5
13D
100
AcDbEntity
  8
M0
100
AcDbLine
 10
293.683312
 20
521.157494
 11
289.183556
 21
521.15725
  0
LINE
  5
13E
100
AcDbEntity
  8
M0
100
AcDbLine
 10
288.183312
 20
520.157006
 11
290.933312
 21
522.907006
  0
LINE
  5
13F
100
AcDbEntity
  8
M0
100
AcDbLine
 10
293.683312
 20
347.657708
 11
293.683312
 21
521.407006
  0
LINE
  5
140
100
AcDbEntity
  8
M0
100
AcDbLine
 10
231.597877
 20
359.575875
 11
288.183312
 21
357.157708
  0
LINE
  5
141
100
AcDbEntity
  8
M0
  6
DASHDOT
100
AcDbLine
 10
281.55346
 20
352.657708
 11
298.683312
 21
352.657708
  0
LINE
  5
142
100
AcDbEntity
  8
M0
100
AcDbLine
 10
289.183312
 20
347.657708
 11
293.683312
 21
347.657708
  0
LINE
  5
143
100
AcDbEntity
  8
M0
100
AcDbLine
 10
289.183312
 20
347.657708
 11
285.183312
 21
357.285912
  0
LINE
  5
144
100
AcDbEntity
  8
M0
100
AcDbLine
 10
288.183312
 20
357.157708
 11
289.183312
 21
356.157708
  0
LINE
  5
145
100
AcDbEntity
  8
M0
100
AcDbLine
 10
289.183312
 20
356.157708
 11
293.683312
 21
356.157708
  0
LINE
  5
146
100
AcDbEntity
  8
M0
 62
     6
100
AcDbLine
 10
295.183312
 20
521.407113
 11
295.183312
 21
356.157708
  0
LINE
  5
147
100
AcDbEntity
  8
M0
 62
     6
100
AcDbLine
 10
293.683312
 20
521.407006
 11
293.683312
 21
347.657708
  0
LINE
  5
148
100
AcDbEntity
  8
M0
 62
     6
100
AcDbLine
 10
341.183297
 20
513.657418
 11
341.683297
 21
513.657418
  0
LINE
  5
149
100
AcDbEntity
  8
M0
 62
     6
100
AcDbLine
 10
341.183297
 20
391.157708
 11
341.683297
 21
391.157708
  0
LINE
  5
14A
100
AcDbEntity
  8
M0
 62
     6
100
AcDbLine
 10
341.683297
 20
434.157693
 11
341.683297
 21
446.157678
  0
LINE
  5
14B
100
AcDbEntity
  8
M0
 62
     6
100
AcDbLine
 10
341.683297
 20
378.657708
 11
341.683297
 21
391.157708
  0
LINE
  5
14C
100
AcDbEntity
  8
M0
 62
     6
100
AcDbLine
 10
341.183297
 20
363.657708
 11
341.683297
 21
363.657708
  0
LINE
  5
14D
100
AcDbEntity
  8
M0
 62
     6
100
AcDbLine
 10
341.183297
 20
373.657708
 11
341.683297
 21
373.657708
  0
LINE
  5
14E
100
AcDbEntity
  8
M0
 62
     6
100
AcDbLine
 10
341.183297
 20
378.657708
 11
341.683297
 21
378.657708
  0
LINE
  5
14F
100
AcDbEntity
  8
M0
 62
     6
100
AcDbLine
 10
341.183297
 20
388.657708
 11
341.683297
 21
388.657708
  0
LINE
  5
150
100
AcDbEntity
  8
M0
 62
     6
100
AcDbLine
 10
341.683297
 20
489.157662
 11
341.683297
 21
513.657418
  0
LINE
  5
151
100
AcDbEntity
  8
M0
 62
     6
100
AcDbLine
 10
341.183297
 20
507.557565
 11
341.683297
 21
507.557565
  0
LINE
  5
152
100
AcDbEntity
  8
M0
 62
     6
100
AcDbLine
 10
341.183297
 20
495.677682
 11
341.683297
 21
495.677682
  0
LINE
  5
153
100
AcDbEntity
  8
M0
 62
     6
100
AcDbLine
 10
341.183297
 20
489.157662
 11
341.683297
 21
489.157662
  0
ARC
  5
154
100
AcDbEntity
  8
M0
 62
     6
100
AcDbCircle
 10
300.683312
 20
356.157708
 40
1.0
100
AcDbArc
 50
90.0
 51
179.999126
  0
LINE
  5
155
100
AcDbEntity
  8
M0
 62
     6
100
AcDbLine
 10
299.683312
 20
356.157708
 11
299.683312
 21
347.657708
  0
LINE
  5
156
100
AcDbEntity
  8
M0
 62
     6
100
AcDbLine
 10
293.683312
 20
347.657708
 11
299.683312
 21
347.657708
  0
LINE
  5
157
100
AcDbEntity
  8
M0
 62
     6
100
AcDbLine
 10
341.183297
 20
446.157678
 11
341.683297
 21
446.157678
  0
LINE
  5
158
100
AcDbEntity
  8
M0
 62
     6
100
AcDbLine
 10
341.183297
 20
434.157693
 11
341.683297
 21
434.157693
  0
LINE
  5
159
100
AcDbEntity
  8
M0
 62
     6
100
AcDbLine
 10
341.183297
 20
492.157662
 11
341.683297
 21
492.157662
  0
LINE
  5
15A
100
AcDbEntity
  8
M0
 62
     6
100
AcDbLine
 10
295.183312
 20
523.157174
 11
293.683312
 21
523.157174
  0
LINE
  5
15B
100
AcDbEntity
  8
M0
 62
     6
100
AcDbLine
 10
295.183312
 20
357.157708
 11
338.183297
 21
357.157708
  0
LINE
  5
15C
100
AcDbEntity
  8
M0
 62
     6
100
AcDbLine
 10
295.183312
 20
521.157174
 11
293.683312
 21
521.157174
  0
LINE
  5
15D
100
AcDbEntity
  8
M0
 62
     6
100
AcDbLine
 10
293.683312
 20
356.157708
 11
295.183312
 21
356.157708
  0
LINE
  5
15E
100
AcDbEntity
  8
M0
 62
     6
100
AcDbLine
 10
295.183312
 20
523.15693
 11
295.183312
 21
522.907174
  0
LINE
  5
15F
100
AcDbEntity
  8
M0
 62
     6
100
AcDbLine
 10
293.683312
 20
523.15693
 11
293.683312
 21
522.907113
  0
ARC
  5
160
100
AcDbEntity
  8
M0
 62
     6
100
AcDbCircle
 10
338.183297
 20
517.157174
 40
3.0
100
AcDbArc
 50
0.0
 51
90.0
  0
ARC
  5
161
100
AcDbEntity
  8
M0
 62
     6
100
AcDbCircle
 10
338.183297
 20
360.157708
 40
3.0
100
AcDbArc
 50
269.999709
 51
360.0
  0
LINE
  5
162
100
AcDbEntity
  8
M0
 62
     6
100
AcDbLine
 10
341.183297
 20
360.157693
 11
341.183297
 21
517.157174
  0
LINE
  5
163
100
AcDbEntity
  8
M0
  6
DASHDOT
 62
     6
100
AcDbLine
 10
287.183312
 20
438.657692
 11
346.683297
 21
438.657692
  0
LINE
  5
164
100
AcDbEntity
  8
M0
 62
     6
100
AcDbLine
 10
338.183297
 20
520.157418
 11
295.183312
 21
520.157174
  0
LINE
  5
165
100
AcDbEntity
  8
M0
 62
     6
100
AcDbLine
 10
341.683297
 20
363.657708
 11
341.683297
 21
373.657708
  0
LINE
  5
166
100
AcDbEntity
  8
M0
  6
DASHED
100
AcDbLine
 10
338.683434
 20
517.157383
 11
338.683434
 21
487.040688
  0
LINE
  5
167
100
AcDbEntity
  8
M0
  6
DASHED
100
AcDbLine
 10
338.183419
 20
517.657383
 11
318.187813
 21
517.657269
  0
ARC
  5
168
100
AcDbEntity
  8
M0
  6
DASHED
100
AcDbCircle
 10
338.183434
 20
517.157383
 40
0.5
100
AcDbArc
 50
0.0
 51
90.0
  0
LINE
  5
169
100
AcDbEntity
  8
M0
  6
DASHDOT
100
AcDbLine
 10
127.603081
 20
188.654496
 11
127.603081
 21
228.666503
  0
LINE
  5
16A
100
AcDbEntity
  8
M0
  6
DASHDOT
100
AcDbLine
 10
107.597075
 20
208.660497
 11
147.609078
 21
208.660497
  0
CIRCLE
  5
16B
100
AcDbEntity
  8
M0
100
AcDbCircle
 10
127.603081
 20
208.660497
 40
14.0
  0
LINE
  5
16C
100
AcDbEntity
  8
M0
  6
DASHDOT
100
AcDbLine
 10
92.603081
 20
188.654496
 11
92.603081
 21
228.666503
  0
LINE
  5
16D
100
AcDbEntity
  8
M0
  6
DASHDOT
100
AcDbLine
 10
72.597085
 20
208.660497
 11
112.609088
 21
208.660497
  0
CIRCLE
  5
16E
100
AcDbEntity
  8
M0
100
AcDbCircle
 10
92.603081
 20
208.660497
 40
14.0
  0
CIRCLE
  5
16F
100
AcDbEntity
  8
M0
100
AcDbCircle
 10
127.603081
 20
208.660497
 40
8.5
  0
CIRCLE
  5
170
100
AcDbEntity
  8
M0
100
AcDbCircle
 10
92.603081
 20
208.660497
 40
8.5
  0
CIRCLE
  5
171
100
AcDbEntity
  8
M0
  6
DASHED
100
AcDbCircle
 10
92.603081
 20
208.660497
 40
11.0
  0
CIRCLE
  5
172
100
AcDbEntity
  8
M0
  6
DASHED
100
AcDbCircle
 10
127.603081
 20
208.660497
 40
11.0
  0
LINE
  5
173
100
AcDbEntity
  8
M0
 62
     6
100
AcDbLine
 10
70.603081
 20
183.160508
 11
90.103081
 21
183.160508
  0
LINE
  5
174
100
AcDbEntity
  8
M0
 62
     6
100
AcDbLine
 10
151.603081
 20
186.660493
 11
151.603081
 21
229.660466
  0
LINE
  5
175
100
AcDbEntity
  8
M0
  6
DASHDOT
 62
     6
100
AcDbLine
 10
110.103081
 20
178.160508
 11
110.103081
 21
237.660493
  0
LINE
  5
176
100
AcDbEntity
  8
M0
 62
     6
100
AcDbLine
 10
67.603081
 20
231.160466
 11
67.603081
 21
229.660466
  0
LINE
  5
177
100
AcDbEntity
  8
M0
 62
     6
100
AcDbLine
 10
152.603081
 20
229.660466
 11
152.603081
 21
231.160466
  0
LINE
  5
178
100
AcDbEntity
  8
M0
 62
     6
100
AcDbLine
 10
71.603081
 20
183.660508
 11
148.603081
 21
183.660508
  0
LINE
  5
179
100
AcDbEntity
  8
M0
 62
     6
100
AcDbLine
 10
152.603081
 20
229.660481
 11
115.103081
 21
229.660466
  0
LINE
  5
17A
100
AcDbEntity
  8
M0
 62
     6
100
AcDbLine
 10
152.603081
 20
231.160481
 11
67.603081
 21
231.160481
  0
ARC
  5
17B
100
AcDbEntity
  8
M0
 62
     6
100
AcDbCircle
 10
71.603081
 20
186.660508
 40
3.0
100
AcDbArc
 50
179.999709
 51
270.0
  0
ARC
  5
17C
100
AcDbEntity
  8
M0
 62
     6
100
AcDbCircle
 10
148.603081
 20
186.660508
 40
3.0
100
AcDbArc
 50
269.999709
 51
360.0
  0
LINE
  5
17D
100
AcDbEntity
  8
M0
 62
     6
100
AcDbLine
 10
68.603081
 20
229.660466
 11
68.603081
 21
186.660508
  0
LINE
  5
17E
100
AcDbEntity
  8
M0
 62
     6
100
AcDbLine
 10
115.103081
 20
225.160466
 11
105.103081
 21
225.160466
  0
LINE
  5
17F
100
AcDbEntity
  8
M0
 62
     6
100
AcDbLine
 10
115.103081
 20
231.160481
 11
115.103081
 21
225.160481
  0
LINE
  5
180
100
AcDbEntity
  8
M0
 62
     6
100
AcDbLine
 10
105.103081
 20
231.160481
 11
105.103081
 21
225.160481
  0
LINE
  5
181
100
AcDbEntity
  8
M0
 62
     6
100
AcDbLine
 10
105.103081
 20
229.660466
 11
67.603081
 21
229.660481
  0
LINE
  5
182
100
AcDbEntity
  8
M0
 62
     6
100
AcDbLine
 10
72.603081
 20
183.660508
 11
72.603081
 21
183.160508
  0
LINE
  5
183
100
AcDbEntity
  8
M0
 62
     6
100
AcDbLine
 10
147.603081
 20
183.660508
 11
147.603081
 21
183.160508
  0
LINE
  5
184
100
AcDbEntity
  8
M0
 62
     6
100
AcDbLine
 10
137.603081
 20
183.660508
 11
137.603081
 21
183.160508
  0
LINE
  5
185
100
AcDbEntity
  8
M0
 62
     6
100
AcDbLine
 10
82.603081
 20
183.660508
 11
82.603081
 21
183.160508
  0
LINE
  5
186
100
AcDbEntity
  8
M0
 62
     6
100
AcDbLine
 10
70.603081
 20
183.832078
 11
70.603081
 21
183.160508
  0
LINE
  5
187
100
AcDbEntity
  8
M0
 62
     6
100
AcDbLine
 10
90.103081
 20
183.660508
 11
90.103081
 21
183.160508
  0
LINE
  5
188
100
AcDbEntity
  8
M0
 62
     6
100
AcDbLine
 10
103.103081
 20
183.660508
 11
103.103081
 21
183.160508
  0
LINE
  5
189
100
AcDbEntity
  8
M0
 62
     6
100
AcDbLine
 10
103.103081
 20
183.160508
 11
123.103081
 21
183.160508
  0
LINE
  5
18A
100
AcDbEntity
  8
M0
 62
     6
100
AcDbLine
 10
123.103081
 20
183.660508
 11
123.103081
 21
183.160508
  0
LINE
  5
18B
100
AcDbEntity
  8
M0
 62
     6
100
AcDbLine
 10
149.603081
 20
183.832078
 11
149.603081
 21
183.160508
  0
LINE
  5
18C
100
AcDbEntity
  8
M0
 62
     6
100
AcDbLine
 10
135.603081
 20
183.660508
 11
135.603081
 21
183.160508
  0
LINE
  5
18D
100
AcDbEntity
  8
M0
 62
     6
100
AcDbLine
 10
135.603081
 20
183.160508
 11
149.603081
 21
183.160508
  0
LINE
  5
18E
100
AcDbEntity
  8
M0
 62
     6
100
AcDbLine
 10
111.103081
 20
183.660508
 11
111.103081
 21
183.160508
  0
LINE
  5
18F
100
AcDbEntity
  8
M0
100
AcDbLine
 10
67.603081
 20
231.160481
 11
152.603081
 21
231.160481
  0
LINE
  5
190
100
AcDbEntity
  8
M0
100
AcDbLine
 10
149.603081
 20
295.160462
 11
70.603081
 21
295.160447
  0
LINE
  5
191
100
AcDbEntity
  8
M0
  6
DASHDOT
100
AcDbLine
 10
110.103081
 20
226.160481
 11
110.103081
 21
300.160477
  0
LINE
  5
192
100
AcDbEntity
  8
M0
100
AcDbLine
 10
152.603081
 20
231.160481
 11
152.603081
 21
235.660477
  0
LINE
  5
193
100
AcDbEntity
  8
M0
100
AcDbLine
 10
67.603081
 20
235.660477
 11
67.603081
 21
231.160481
  0
LINE
  5
194
100
AcDbEntity
  8
M0
100
AcDbLine
 10
151.603081
 20
236.660477
 11
151.603081
 21
293.160462
  0
LINE
  5
195
100
AcDbEntity
  8
M0
100
AcDbLine
 10
68.603081
 20
236.660477
 11
68.603081
 21
293.160447
  0
LINE
  5
196
100
AcDbEntity
  8
M0
100
AcDbLine
 10
68.603081
 20
236.660477
 11
105.103081
 21
236.660477
  0
LINE
  5
197
100
AcDbEntity
  8
M0
100
AcDbLine
 10
67.603081
 20
235.660477
 11
105.103081
 21
235.660477
  0
LINE
  5
198
100
AcDbEntity
  8
M0
100
AcDbLine
 10
67.603081
 20
235.660477
 11
68.603081
 21
236.660477
  0
LINE
  5
199
100
AcDbEntity
  8
M0
100
AcDbLine
 10
152.603081
 20
235.660477
 11
151.603081
 21
236.660477
  0
LINE
  5
19A
100
AcDbEntity
  8
M0
100
AcDbLine
 10
105.103081
 20
231.160481
 11
105.103081
 21
239.660477
  0
LINE
  5
19B
100
AcDbEntity
  8
M0
100
AcDbLine
 10
106.603081
 20
235.660477
 11
106.603081
 21
239.660477
  0
LINE
  5
19C
100
AcDbEntity
  8
M0
100
AcDbLine
 10
105.103081
 20
239.660477
 11
106.603081
 21
239.660477
  0
LINE
  5
19D
100
AcDbEntity
  8
M0
100
AcDbLine
 10
106.603081
 20
236.660477
 11
110.103081
 21
236.660477
  0
LINE
  5
19E
100
AcDbEntity
  8
M0
100
AcDbLine
 10
106.603081
 20
235.660477
 11
110.103081
 21
235.660477
  0
ARC
  5
19F
100
AcDbEntity
  8
M0
100
AcDbCircle
 10
149.603081
 20
293.160462
 40
2.0
100
AcDbArc
 50
0.0
 51
90.0
  0
ARC
  5
1A0
100
AcDbEntity
  8
M0
100
AcDbCircle
 10
70.603081
 20
293.160447
 40
2.0
100
AcDbArc
 50
89.999563
 51
180.0
  0
LINE
  5
1A1
100
AcDbEntity
  8
M0
100
AcDbLine
 10
152.603081
 20
235.660477
 11
115.103081
 21
235.660477
  0
LINE
  5
1A2
100
AcDbEntity
  8
M0
100
AcDbLine
 10
151.603081
 20
236.660477
 11
115.103081
 21
236.660477
  0
LINE
  5
1A3
100
AcDbEntity
  8
M0
100
AcDbLine
 10
115.103081
 20
239.660477
 11
113.603081
 21
239.660477
  0
LINE
  5
1A4
100
AcDbEntity
  8
M0
100
AcDbLine
 10
113.603081
 20
235.660477
 11
113.603081
 21
239.660477
  0
LINE
  5
1A5
100
AcDbEntity
  8
M0
100
AcDbLine
 10
115.103081
 20
231.160481
 11
115.103081
 21
239.660477
  0
LINE
  5
1A6
100
AcDbEntity
  8
M0
100
AcDbLine
 10
113.603081
 20
236.660477
 11
110.103081
 21
236.660477
  0
LINE
  5
1A7
100
AcDbEntity
  8
M0
100
AcDbLine
 10
113.603081
 20
235.660477
 11
110.103081
 21
235.660477
  0
ARC
  5
1A8
100
AcDbEntity
  8
M0
 62
     4
100
AcDbCircle
 10
110.103327
 20
232.860703
 40
7.0
100
AcDbArc
 50
73.748284
 51
86.724989
  0
LINE
  5
1A9
100
AcDbEntity
  8
M0
 62
     4
100
AcDbLine
 10
112.853081
 20
237.860704
 11
112.778862
 21
238.708024
  0
LINE
  5
1AA
100
AcDbEntity
  8
M0
 62
     4
100
AcDbLine
 10
107.353569
 20
237.860717
 11
107.427544
 21
238.708023
  0
ARC
  5
1AB
100
AcDbEntity
  8
M0
 62
     4
100
AcDbCircle
 10
108.423882
 20
238.62088
 40
1.0
100
AcDbArc
 50
106.261176
 51
175.001466
  0
ARC
  5
1AC
100
AcDbEntity
  8
M0
 62
     4
100
AcDbCircle
 10
111.782524
 20
238.620881
 40
1.0
100
AcDbArc
 50
4.998515
 51
73.752228
  0
LINE
  5
1AD
100
AcDbEntity
  8
M0
 62
     4
100
AcDbLine
 10
110.503227
 20
239.849274
 11
110.503227
 21
238.760712
  0
LINE
  5
1AE
100
AcDbEntity
  8
M0
 62
     4
100
AcDbLine
 10
110.503227
 20
238.760712
 11
109.703178
 21
238.760712
  0
LINE
  5
1AF
100
AcDbEntity
  8
M0
 62
     4
100
AcDbLine
 10
109.703178
 20
238.760712
 11
109.703178
 21
239.849259
  0
ARC
  5
1B0
100
AcDbEntity
  8
M0
 62
     4
100
AcDbCircle
 10
110.103327
 20
232.860703
 40
7.0
100
AcDbArc
 50
93.276997
 51
106.255558
  0
LINE
  5
1B1
100
AcDbEntity
  8
M0
 62
     4
100
AcDbLine
 10
113.103081
 20
237.160646
 11
107.103081
 21
237.160644
  0
LINE
  5
1B2
100
AcDbEntity
  8
M0
 62
     4
100
AcDbLine
 10
107.353081
 20
237.860595
 11
107.353081
 21
237.160644
  0
LINE
  5
1B3
100
AcDbEntity
  8
M0
 62
     4
100
AcDbLine
 10
112.853081
 20
237.860597
 11
112.853081
 21
237.160646
  0
LINE
  5
1B4
100
AcDbEntity
  8
M0
 62
     4
100
AcDbLine
 10
107.353325
 20
237.860702
 11
112.853325
 21
237.860704
  0
LINE
  5
1B5
100
AcDbEntity
  8
M0
 62
     4
100
AcDbLine
 10
113.103081
 20
237.160661
 11
113.103081
 21
236.660661
  0
LINE
  5
1B6
100
AcDbEntity
  8
M0
 62
     4
100
AcDbLine
 10
113.103081
 20
236.660661
 11
107.103081
 21
236.660659
  0
LINE
  5
1B7
100
AcDbEntity
  8
M0
 62
     4
100
AcDbLine
 10
107.103081
 20
237.160659
 11
107.103081
 21
236.660659
  0
LINE
  5
1B8
100
AcDbEntity
  8
M1
 62
     2
100
AcDbLine
 10
20.0
 20
20.0
 11
20.0
 21
570.0
  0
LINE
  5
1B9
100
AcDbEntity
  8
M1
 62
     2
100
AcDbLine
 10
20.0
 20
570.0
 11
400.0
 21
570.0
  0
LINE
  5
1BA
100
AcDbEntity
  8
M1
 62
     2
100
AcDbLine
 10
400.0
 20
570.0
 11
400.0
 21
20.0
  0
LINE
  5
1BB
100
AcDbEntity
  8
M1
 62
     2
100
AcDbLine
 10
400.0
 20
20.0
 11
20.0
 21
20.0
  0
LINE
  5
1BC
100
AcDbEntity
  8
M1
 62
     2
100
AcDbLine
 10
400.0
 20
40.0
 11
200.0
 21
40.0
  0
LINE
  5
1BD
100
AcDbEntity
  8
M1
 62
     2
100
AcDbLine
 10
400.0
 20
60.0
 11
200.0
 21
60.0
  0
LINE
  5
1BE
100
AcDbEntity
  8
M1
 62
     2
100
AcDbLine
 10
400.0
 20
80.0
 11
200.0
 21
80.0
  0
LINE
  5
1BF
100
AcDbEntity
  8
M1
 62
     2
100
AcDbLine
 10
200.0
 20
20.0
 11
200.0
 21
80.0
  0
TEXT
  5
1C0
100
AcDbEntity
  8
M1
 62
     2
100
AcDbText
 10
205.0
 20
25.0
 40
10.0
  1
適　用；
  7
STANDARD
100
AcDbText
  0
TEXT
  5
1C1
100
AcDbEntity
  8
M1
 62
     2
100
AcDbText
 10
205.0
 20
65.0
 40
10.0
  1
登録名：
  7
STANDARD
100
AcDbText
  0
TEXT
  5
1C2
100
AcDbEntity
  8
M1
 62
     2
100
AcDbText
 10
253.0
 20
65.0
 40
10.0
  1
ＤＭＳＨＳ１０ＴＲ００
 41
0.5
  7
STANDARD
100
AcDbText
  0
TEXT
  5
1C3
100
AcDbEntity
  8
M1
 62
     2
100
AcDbText
 10
205.0
 20
45.0
 40
10.0
  1
形　式；
  7
STANDARD
100
AcDbText
  0
TEXT
  5
1C4
100
AcDbEntity
  8
M1
 62
     2
100
AcDbText
 10
253.0
 20
45.0
 40
10.0
  1
ＳＨＳ１０－Ｔ
 41
0.5
  7
STANDARD
100
AcDbText
  0
LINE
  5
1C5
100
AcDbEntity
  8
M2
  6
DASHDOT
100
AcDbLine
 10
205.89372
 20
233.405332
 11
271.911741
 21
233.405332
  0
LINE
  5
1C6
100
AcDbEntity
  8
M2
  6
DASHDOT
100
AcDbLine
 10
235.90273
 20
170.396321
 11
235.90273
 21
296.414344
  0
CIRCLE
  5
1C7
100
AcDbEntity
  8
M2
100
AcDbCircle
 10
258.402731
 20
275.405334
 40
1.2
  0
CIRCLE
  5
1C8
100
AcDbEntity
  8
M2
100
AcDbCircle
 10
219.402739
 20
275.405334
 40
1.2
  0
CIRCLE
  5
1C9
100
AcDbEntity
  8
M2
100
AcDbCircle
 10
219.402739
 20
191.405331
 40
1.2
  0
CIRCLE
  5
1CA
100
AcDbEntity
  8
M2
100
AcDbCircle
 10
258.402731
 20
191.405331
 40
1.2
  0
CIRCLE
  5
1CB
100
AcDbEntity
  8
M2
100
AcDbCircle
 10
258.402731
 20
200.405331
 40
1.2
  0
CIRCLE
  5
1CC
100
AcDbEntity
  8
M2
100
AcDbCircle
 10
219.40273
 20
200.405331
 40
1.2
  0
CIRCLE
  5
1CD
100
AcDbEntity
  8
M2
100
AcDbCircle
 10
219.40273
 20
200.405331
 40
0.6
  0
LINE
  5
1CE
100
AcDbEntity
  8
M2
  6
DASHDOT
100
AcDbLine
 10
212.802739
 20
200.405331
 11
226.00273
 21
200.405331
  0
LINE
  5
1CF
100
AcDbEntity
  8
M2
  6
DASHDOT
100
AcDbLine
 10
219.40273
 20
193.80534
 11
219.40273
 21
207.005331
  0
CIRCLE
  5
1D0
100
AcDbEntity
  8
M2
100
AcDbCircle
 10
258.402731
 20
200.405331
 40
0.6
  0
LINE
  5
1D1
100
AcDbEntity
  8
M2
  6
DASHDOT
100
AcDbLine
 10
251.802731
 20
200.405331
 11
265.002722
 21
200.405331
  0
LINE
  5
1D2
100
AcDbEntity
  8
M2
  6
DASHDOT
100
AcDbLine
 10
258.402731
 20
193.80534
 11
258.402731
 21
207.005331
  0
CIRCLE
  5
1D3
100
AcDbEntity
  8
M2
100
AcDbCircle
 10
258.402731
 20
191.405331
 40
3.0
  0
LINE
  5
1D4
100
AcDbEntity
  8
M2
  6
DASHDOT
100
AcDbLine
 10
249.402731
 20
191.405331
 11
267.402722
 21
191.405331
  0
LINE
  5
1D5
100
AcDbEntity
  8
M2
  6
DASHDOT
100
AcDbLine
 10
258.402731
 20
182.40534
 11
258.402731
 21
200.405331
  0
CIRCLE
  5
1D6
100
AcDbEntity
  8
M2
100
AcDbCircle
 10
219.402739
 20
191.405331
 40
3.0
  0
LINE
  5
1D7
100
AcDbEntity
  8
M2
  6
DASHDOT
100
AcDbLine
 10
210.402738
 20
191.405331
 11
228.40273
 21
191.405331
  0
LINE
  5
1D8
100
AcDbEntity
  8
M2
  6
DASHDOT
100
AcDbLine
 10
219.402739
 20
182.40534
 11
219.402739
 21
200.405331
  0
CIRCLE
  5
1D9
100
AcDbEntity
  8
M2
100
AcDbCircle
 10
219.402739
 20
275.405334
 40
3.0
  0
LINE
  5
1DA
100
AcDbEntity
  8
M2
  6
DASHDOT
100
AcDbLine
 10
210.402738
 20
275.405334
 11
228.40273
 21
275.405334
  0
LINE
  5
1DB
100
AcDbEntity
  8
M2
  6
DASHDOT
100
AcDbLine
 10
219.402739
 20
266.405334
 11
219.402739
 21
284.405325
  0
CIRCLE
  5
1DC
100
AcDbEntity
  8
M2
100
AcDbCircle
 10
258.402731
 20
275.405334
 40
3.0
  0
LINE
  5
1DD
100
AcDbEntity
  8
M2
  6
DASHDOT
100
AcDbLine
 10
249.402731
 20
275.405334
 11
267.402722
 21
275.405334
  0
LINE
  5
1DE
100
AcDbEntity
  8
M2
  6
DASHDOT
100
AcDbLine
 10
258.402731
 20
266.405334
 11
258.402731
 21
284.405325
  0
CIRCLE
  5
1DF
100
AcDbEntity
  8
M2
100
AcDbCircle
 10
170.595238
 20
275.405334
 40
1.2
  0
LINE
  5
1E0
100
AcDbEntity
  8
M2
  6
DASHDOT
100
AcDbLine
 10
319.911825
 20
233.405332
 11
343.911817
 21
233.405332
  0
CIRCLE
  5
1E1
100
AcDbEntity
  8
M2
100
AcDbCircle
 10
331.911816
 20
269.405334
 40
1.5
  0
CIRCLE
  5
1E2
100
AcDbEntity
  8
M2
100
AcDbCircle
 10
331.911816
 20
197.405331
 40
1.5
  0
CIRCLE
  5
1E3
100
AcDbEntity
  8
M2
100
AcDbCircle
 10
331.911816
 20
269.405334
 40
3.0
  0
LINE
  5
1E4
100
AcDbEntity
  8
M2
  6
DASHDOT
100
AcDbLine
 10
322.911816
 20
269.405334
 11
340.911816
 21
269.405334
  0
LINE
  5
1E5
100
AcDbEntity
  8
M2
  6
DASHDOT
100
AcDbLine
 10
331.911816
 20
260.405334
 11
331.911816
 21
278.405325
  0
CIRCLE
  5
1E6
100
AcDbEntity
  8
M2
100
AcDbCircle
 10
331.911816
 20
197.405331
 40
3.0
  0
LINE
  5
1E7
100
AcDbEntity
  8
M2
  6
DASHDOT
100
AcDbLine
 10
322.911816
 20
197.405331
 11
340.911816
 21
197.405331
  0
LINE
  5
1E8
100
AcDbEntity
  8
M2
  6
DASHDOT
100
AcDbLine
 10
331.911816
 20
188.40534
 11
331.911816
 21
260.622552
  0
HATCH
  5
1E9
100
AcDbEntity
  8
M2
 62
     7
100
AcDbHatch
 10
0.0
 20
0.0
210
0.0
220
0.0
230
1.0
  2
SOLID
 70
     1
 71
     0
 91
        1
 92
        1
 93
        1
 72
     2
 10
219.40273
 20
200.405331
 40
1.2
 50
0.0
 51
360.0
 73
     0
 97
        0
 75
     0
 76
     1
 98
        1
 10
0.0
 20
0.0
  0
HATCH
  5
1EC
100
AcDbEntity
  8
M2
 62
     7
100
AcDbHatch
 10
0.0
 20
0.0
210
0.0
220
0.0
230
1.0
  2
SOLID
 70
     1
 71
     0
 91
        1
 92
        1
 93
        1
 72
     2
 10
170.595238
 20
275.405334
 40
1.2
 50
0.0
 51
360.0
 73
     0
 97
        0
 75
     0
 76
     1
 98
        1
 10
0.0
 20
0.0
  0
HATCH
  5
1ED
100
AcDbEntity
  8
M2
 62
     7
100
AcDbHatch
 10
0.0
 20
0.0
210
0.0
220
0.0
230
1.0
  2
SOLID
 70
     1
 71
     0
 91
        1
 92
        1
 93
        1
 72
     2
 10
258.402731
 20
200.405331
 40
1.2
 50
0.0
 51
360.0
 73
     0
 97
        0
 75
     0
 76
     1
 98
        1
 10
0.0
 20
0.0
  0
TEXT
  5
1EE
100
AcDbEntity
  8
DN0
100
AcDbText
 10
176.085635
 20
273.734924
 40
6.3
  1
も使用可能
 41
0.833333
  7
STANDARD
100
AcDbText
  0
LINE
  5
1EF
100
AcDbEntity
  8
DN0
100
AcDbLine
 10
222.179407
 20
137.351633
 11
348.699408
 21
137.351633
  0
TEXT
  5
1F0
100
AcDbEntity
  8
DN0
100
AcDbText
 10
223.189407
 20
138.251633
 40
9.0
  1
せん孔図（右図でも取付可能）
 41
0.833333
  7
STANDARD
100
AcDbText
  0
ENDSEC
  0
SECTION
  2
OBJECTS
  0
DICTIONARY
  5
C
100
AcDbDictionary
  3
ACAD_GROUP
350
D
  3
ACAD_MLINESTYLE
350
E
  3
ACDBVARIABLEDICTIONARY
350
1EA
  0
DICTIONARY
  5
D
102
{ACAD_REACTORS
330
C
102
}
100
AcDbDictionary
  0
DICTIONARY
  5
E
102
{ACAD_REACTORS
330
C
102
}
100
AcDbDictionary
  3
STANDARD
350
13
  0
DICTIONARY
  5
1EA
102
{ACAD_REACTORS
330
C
102
}
100
AcDbDictionary
  3
SORTENTS
350
1EB
  0
MLINESTYLE
  5
13
102
{ACAD_REACTORS
330
E
102
}
100
AcDbMlineStyle
  2
STANDARD
 70
     0
  3

 62
     0
 51
90.0
 52
90.0
 71
     2
 49
0.5
 62
   256
  6
BYLAYER
 49
-0.5
 62
   256
  6
BYLAYER
  0
DICTIONARYVAR
  5
1EB
102
{ACAD_REACTORS
330
1EA
102
}
100
DictionaryVariables
280
     0
  1
96
  0
ENDSEC
  0
EOF
