  0
SECTION
  2
HEADER
  9
$ACADVER
  1
AC1014
  9
$INSBASE
 10
0.000000
 20
0.000000
 30
0.0
  9
$VIEWCTR
 10
7.531722
 20
4.5
  9
$VIEWSIZE
 40
9.0
  9
$SNAPMODE
 70
     0
  9
$SNAPUNIT
 10
1.0
 20
1.0
  9
$SNAPBASE
 10
0.0
 20
0.0
  9
$SNAPANG
 50
0.0
  9
$SNAPSTYLE
 70
     0
  9
$SNAPISOPAIR
 70
     0
  9
$GRIDMODE
 70
     0
  9
$GRIDUNIT
 10
0.0
 20
0.0
  9
$ORTHOMODE
 70
     0
  9
$REGENMODE
 70
     1
  9
$FILLMODE
 70
     1
  9
$QTEXTMODE
 70
     0
  9
$DRAGMODE
 70
     2
  9
$LTSCALE
  40
     1.000000
  9
$OSMODE
 70
     0
  9
$ATTMODE
 70
     1
  9
$TEXTSIZE
 40
0.2
  9
$TRACEWID
 40
0.05
  9
$TEXTSTYLE
  7
STANDARD
  9
$CELTYPE
  6
BYLAYER
  9
$CECOLOR
 62
   256
  9
$DIMSCALE
 40
1.0
  9
$DIMASZ
 40
0.18
  9
$DIMEXO
 40
0.0625
  9
$DIMDLI
 40
0.38
  9
$DIMRND
 40
0.0
  9
$DIMDLE
 40
0.0
  9
$DIMEXE
 40
0.18
  9
$DIMTP
 40
0.0
  9
$DIMTM
 40
0.0
  9
$DIMTXT
 40
0.18
  9
$DIMCEN
 40
0.09
  9
$DIMTSZ
 40
0.0
  9
$DIMTOL
 70
     0
  9
$DIMLIM
 70
     0
  9
$DIMTIH
 70
     1
  9
$DIMTOH
 70
     1
  9
$DIMSE1
 70
     0
  9
$DIMSE2
 70
     0
  9
$DIMTAD
 70
     0
  9
$DIMZIN
 70
     0
  9
$DIMBLK
  1

  9
$LUNITS
 70
     2
  9
$LUPREC
 70
     4
  9
$AXISMODE
 70
     0
  9
$AXISUNIT
 10
0.0
 20
0.0
  9
$SKETCHINC
 40
0.1
  9
$FILLETRAD
 40
0.0
  9
$AUNITS
 70
     0
  9
$AUPREC
 70
     0
  9
$MENU
  1
ACAD
  9
$ELEVATION
 40
0.0
  9
$THICKNESS
 40
0.0
  9
$VIEWDIR
 10
0.0
 20
0.0
 30
1.0
  9
$LIMCHECK
 70
     0
  9
$BLIPMODE
 70
     1
  9
$CHAMFERA
 40
0.0
  9
$CHAMFERB
 40
0.0
  9
$FASTZOOM
 70
     1
  9
$SKPOLY
 70
     0
  9
$TDCREATE
 40
0000000.0000000000
  9
$TDUPDATE
 40
0000000.0000000000
  9
$TDINDWG
 40
0.0000000000
  9
$TDUSRTIMER
 40
0.0000000000
  9
$USRTIMER
 70
     1
  9
$ANGBASE
 50
0.0
  9
$ANGDIR
 70
     0
  9
$PDMODE
 70
     0
  9
$PDSIZE
 40
0.0
  9
$PLINEWID
 40
0.0
  9
$COORDS
 70
     0
  9
$USERI1
 70
     0
  9
$USERI2
 70
     0
  9
$USERI3
 70
     0
  9
$USERI4
 70
     0
  9
$USERI5
 70
     0
  9
$USERR1
 40
0.0
  9
$USERR2
 40
0.0
  9
$USERR3
 40
0.0
  9
$USERR4
 40
0.0
  9
$USERR5
 40
0.0
  9
$CLAYER
  8
M0
  9
$EXTMIN
 10
25.0
 20
25.0
  9
$EXTMAX
 10
499.999993
 20
712.499989
  9
$LIMMIN
 10
0.0
 20
0.0
  9
$LIMMAX
 10
210.0
 20
297.0
  9
$HANDSEED
  5
195
  0
ENDSEC
  0
SECTION
  2
CLASSES
  0
ENDSEC
  0
SECTION
  2
TABLES
  0
TABLE
  2
VPORT
  5
8
100
AcDbSymbolTable
 70
     2
  0
VPORT
  5
14
100
AcDbSymbolTableRecord
100
AcDbViewportTableRecord
  2
*ACTIVE
 70
     0
 10
0.0
 20
0.0
 11
1.0
 21
1.0
 12
484.0
 22
297.0
 13
0.0
 23
0.0
 14
1.0
 24
1.0
 15
0.0
 25
0.0
 16
0.0
 26
0.0
 36
1.0
 17
0.0
 27
0.0
 37
0.0
 40
594.0
 41
2.0
 42
50.0
 43
0.0
 44
0.0
 50
0.0
 51
0.0
 71
     0
 72
   100
 73
     1
 74
     1
 75
     0
 76
     0
 77
     0
 78
     0
  0
ENDTAB
  0
TABLE
  2
LTYPE
  5
5
100
AcDbSymbolTable
 70
     5
  0
LTYPE
  5
15
100
AcDbSymbolTableRecord
100
AcDbLinetypeTableRecord
  2
BYBLOCK
 70
     0
  3

 72
    65
 73
     0
 40
0.0
  0
LTYPE
  5
16
100
AcDbSymbolTableRecord
100
AcDbLinetypeTableRecord
  2
BYLAYER
 70
     0
  3

 72
    65
 73
     0
 40
0.0
  0
LTYPE
  5
17
100
AcDbSymbolTableRecord
100
AcDbLinetypeTableRecord
  2
CONTINUOUS
 70
    64
  3
Solid line
 72
    65
 73
     0
 40
0.0
  0
LTYPE
  5
18
100
AcDbSymbolTableRecord
100
AcDbLinetypeTableRecord
  2
DASHED
 70
    64
  3
__ __ __ __ __ __ __ __ __ __ __ __ __ __ __ __
 72
    65
 73
     2
 40
0.75
 49
0.5
 74
     0
 49
-0.25
 74
     0
  0
LTYPE
  5
19
100
AcDbSymbolTableRecord
100
AcDbLinetypeTableRecord
  2
DASHDOT
 70
    64
  3
__ . __ . __ . __ . __ . __ . __ . __ . __ . __
 72
    65
 73
     4
 40
1.0
 49
0.5
 74
     0
 49
-0.25
 74
     0
 49
0.0
 74
     0
 49
-0.25
 74
     0
  0
LTYPE
  5
1A
100
AcDbSymbolTableRecord
100
AcDbLinetypeTableRecord
  2
DIVIDE
 70
    64
  3
____ . . ____ . . ____ . . ____ . . ____ . . __
 72
    65
 73
     6
 40
1.25
 49
0.5
 74
     0
 49
-0.25
 74
     0
 49
0.0
 74
     0
 49
-0.25
 74
     0
 49
0.0
 74
     0
 49
-0.25
 74
     0
  0
LTYPE
  5
1B
100
AcDbSymbolTableRecord
100
AcDbLinetypeTableRecord
  2
DOT
 70
    64
  3
. . . . . . . . . . . . . . . . . . . . . . . .
 72
    65
 73
     2
 40
0.25
 49
0.0
 74
     0
 49
-0.25
 74
     0
  0
ENDTAB
  0
TABLE
  2
LAYER
  5
2
100
AcDbSymbolTable
 70
   102
  0
LAYER
  5
F
100
AcDbSymbolTableRecord
100
AcDbLayerTableRecord
  2
0
 70
     0
 62
     7
  6
CONTINUOUS
  0
LAYER
  5
1C
100
AcDbSymbolTableRecord
100
AcDbLayerTableRecord
  2
DEFPOINTS
 70
     0
 62
     7
  6
CONTINUOUS
  0
LAYER
  5
1D
100
AcDbSymbolTableRecord
100
AcDbLayerTableRecord
  2
M0
 70
     0
 62
     3
  6
CONTINUOUS
  0
LAYER
  5
1E
100
AcDbSymbolTableRecord
100
AcDbLayerTableRecord
  2
M1
 70
     0
 62
     3
  6
CONTINUOUS
  0
LAYER
  5
1F
100
AcDbSymbolTableRecord
100
AcDbLayerTableRecord
  2
DD0
 70
     0
 62
     4
  6
CONTINUOUS
  0
ENDTAB
  0
TABLE
  2
STYLE
  5
3
100
AcDbSymbolTable
 70
     2
  0
STYLE
  5
10
100
AcDbSymbolTableRecord
100
AcDbTextStyleTableRecord
  2
STANDARD
 70
     0
 40
0.0
 41
1.0
 50
0.0
 71
     0
 42
0.2
  3
txt
  4
BIGFONT
  0
ENDTAB
  0
TABLE
  2
VIEW
  5
6
100
AcDbSymbolTable
 70
     0
  0
ENDTAB
  0
TABLE
  2
UCS
  5
7
100
AcDbSymbolTable
 70
     0
  0
ENDTAB
  0
TABLE
  2
APPID
  5
9
100
AcDbSymbolTable
 70
     1
  0
APPID
  5
11
100
AcDbSymbolTableRecord
100
AcDbRegAppTableRecord
  2
ACAD
 70
     0
  0
ENDTAB
  0
TABLE
  2
DIMSTYLE
  5
A
100
AcDbSymbolTable
 70
     2
  0
DIMSTYLE
105
26
100
AcDbSymbolTableRecord
100
AcDbDimStyleTableRecord
  2
STANDARD
 70
     0
  3

  4

  5

  6
_OPEN
  7
_OPEN
 40
1.0
 41
7.5
 42
1.0
 43
8.0
 44
1.0
 45
0.0
 46
0.0
 47
0.0
 48
0.0
140
7.875
141
0.09
142
0.0
143
0.03937
144
1.0
145
0.0
146
1.0
147
0.6
 71
     0
 72
     0
 73
     1
 74
     1
 75
     0
 76
     0
 77
     3
 78
     8
170
     0
171
     2
172
     0
173
     1
174
     0
175
     0
176
     0
177
     0
178
     0
270
     2
271
     2
272
     4
273
     2
274
     2
340
10
275
     0
280
     0
281
     0
282
     0
283
     1
284
     0
285
     0
286
     0
287
     3
288
     0
  0
DIMSTYLE
105
27
100
AcDbSymbolTableRecord
100
AcDbDimStyleTableRecord
  2
LEADSTYL
 70
     0
  3

  4

  5

  6
_OPEN
  7
_OPEN
 40
1.0
 41
7.5
 42
0.0625
 43
0.38
 44
0.18
 45
0.0
 46
0.0
 47
0.0
 48
0.0
140
7.875
141
0.09
142
0.0
143
25.4
144
1.0
145
0.0
146
1.0
147
0.6
 71
     0
 72
     0
 73
     1
 74
     1
 75
     0
 76
     0
 77
     0
 78
     0
170
     0
171
     2
172
     0
173
     1
174
     0
175
     0
176
     0
177
     0
178
     0
270
     2
271
     4
272
     4
273
     2
274
     2
340
10
275
     0
280
     0
281
     0
282
     0
283
     1
284
     0
285
     0
286
     0
287
     3
288
     0
  0
ENDTAB
  0
TABLE
  2
BLOCK_RECORD
  5
1
100
AcDbSymbolTable
 70
    17
  0
BLOCK_RECORD
  5
20
100
AcDbSymbolTableRecord
100
AcDbBlockTableRecord
  2
*MODEL_SPACE
  0
BLOCK_RECORD
  5
23
100
AcDbSymbolTableRecord
100
AcDbBlockTableRecord
  2
*PAPER_SPACE
  0
BLOCK_RECORD
  5
28
100
AcDbSymbolTableRecord
100
AcDbBlockTableRecord
  2
_NONE
  0
BLOCK_RECORD
  5
2C
100
AcDbSymbolTableRecord
100
AcDbBlockTableRecord
  2
_OPEN
  0
BLOCK_RECORD
  5
32
100
AcDbSymbolTableRecord
100
AcDbBlockTableRecord
  2
_CLOSED
  0
BLOCK_RECORD
  5
39
100
AcDbSymbolTableRecord
100
AcDbBlockTableRecord
  2
_ORIGIN
  0
BLOCK_RECORD
  5
3E
100
AcDbSymbolTableRecord
100
AcDbBlockTableRecord
  2
_DOT
  0
BLOCK_RECORD
  5
46
100
AcDbSymbolTableRecord
100
AcDbBlockTableRecord
  2
_OBLIQUE
  0
BLOCK_RECORD
  5
4A
100
AcDbSymbolTableRecord
100
AcDbBlockTableRecord
  2
DIMS0
  0
BLOCK_RECORD
  5
56
100
AcDbSymbolTableRecord
100
AcDbBlockTableRecord
  2
DIMS1
  0
BLOCK_RECORD
  5
5F
100
AcDbSymbolTableRecord
100
AcDbBlockTableRecord
  2
DIMS2
  0
BLOCK_RECORD
  5
68
100
AcDbSymbolTableRecord
100
AcDbBlockTableRecord
  2
DIMS3
  0
BLOCK_RECORD
  5
74
100
AcDbSymbolTableRecord
100
AcDbBlockTableRecord
  2
DIMS4
  0
BLOCK_RECORD
  5
80
100
AcDbSymbolTableRecord
100
AcDbBlockTableRecord
  2
DIMS5
  0
BLOCK_RECORD
  5
8C
100
AcDbSymbolTableRecord
100
AcDbBlockTableRecord
  2
DIMS6
  0
BLOCK_RECORD
  5
98
100
AcDbSymbolTableRecord
100
AcDbBlockTableRecord
  2
DIMS7
  0
BLOCK_RECORD
  5
A2
100
AcDbSymbolTableRecord
100
AcDbBlockTableRecord
  2
DIMS8
  0
BLOCK_RECORD
  5
AB
100
AcDbSymbolTableRecord
100
AcDbBlockTableRecord
  2
DIMS9
  0
BLOCK_RECORD
  5
B7
100
AcDbSymbolTableRecord
100
AcDbBlockTableRecord
  2
DIMS10
  0
ENDTAB
  0
ENDSEC
  0
SECTION
  2
BLOCKS
  0
BLOCK
  5
21
100
AcDbEntity
  8
0
100
AcDbBlockBegin
  2
*MODEL_SPACE
 70
     0
 10
0.0
 20
0.0
 30
0.0
  3
*MODEL_SPACE
  1

  0
ENDBLK
  5
22
100
AcDbEntity
  8
0
100
AcDbBlockEnd
  0
BLOCK
  5
24
100
AcDbEntity
 67
     1
  8
0
100
AcDbBlockBegin
  2
*PAPER_SPACE
 70
     0
 10
0.0
 20
0.0
 30
0.0
  3
*PAPER_SPACE
  1

  0
ENDBLK
  5
25
100
AcDbEntity
 67
     1
  8
0
100
AcDbBlockEnd
  0
BLOCK
  5
29
100
AcDbEntity
  8
0
100
AcDbBlockBegin
  2
_NONE
 70
     0
 10
0.0
 20
0.0
  0
CIRCLE
  5
2A
100
AcDbEntity
  8
0
 62
     0
100
AcDbCircle
 10
0.0
 20
0.0
 40
0.25
  0
ENDBLK
  5
2B
100
AcDbEntity
  8
0
100
AcDbBlockEnd
  0
BLOCK
  5
2D
100
AcDbEntity
  8
0
100
AcDbBlockBegin
  2
_OPEN
 70
     0
 10
0.0
 20
0.0
  0
LINE
  5
2E
100
AcDbEntity
  8
0
 62
     0
100
AcDbLine
 10
-0.965926
 20
0.258819
 11
0.0
 21
0.0
  0
LINE
  5
2F
100
AcDbEntity
  8
0
 62
     0
100
AcDbLine
 10
0.0
 20
0.0
 11
-0.965926
 21
-0.258819
  0
LINE
  5
30
100
AcDbEntity
  8
0
 62
     0
100
AcDbLine
 10
0.0
 20
0.0
 11
-1.0
 21
0.0
  0
ENDBLK
  5
31
100
AcDbEntity
  8
0
100
AcDbBlockEnd
  0
BLOCK
  5
33
100
AcDbEntity
  8
0
100
AcDbBlockBegin
  2
_CLOSED
 70
     0
 10
0.0
 20
0.0
  0
LINE
  5
34
100
AcDbEntity
  8
0
 62
     0
100
AcDbLine
 10
-0.965926
 20
0.258819
 11
0.0
 21
0.0
  0
LINE
  5
35
100
AcDbEntity
  8
0
 62
     0
100
AcDbLine
 10
0.0
 20
0.0
 11
-0.965926
 21
-0.258819
  0
LINE
  5
36
100
AcDbEntity
  8
0
 62
     0
100
AcDbLine
 10
-0.965926
 20
0.258819
 11
-0.965926
 21
-0.258819
  0
LINE
  5
37
100
AcDbEntity
  8
0
 62
     0
100
AcDbLine
 10
0.0
 20
0.0
 11
-1.0
 21
0.0
  0
ENDBLK
  5
38
100
AcDbEntity
  8
0
100
AcDbBlockEnd
  0
BLOCK
  5
3A
100
AcDbEntity
  8
0
100
AcDbBlockBegin
  2
_ORIGIN
 70
     0
 10
0.0
 20
0.0
  0
CIRCLE
  5
3B
100
AcDbEntity
  8
0
 62
     0
100
AcDbCircle
 10
0.0
 20
0.0
 40
0.5
  0
LINE
  5
3C
100
AcDbEntity
  8
0
 62
     0
100
AcDbLine
 10
0.0
 20
0.0
 11
-1.0
 21
0.0
  0
ENDBLK
  5
3D
100
AcDbEntity
  8
0
100
AcDbBlockEnd
  0
BLOCK
  5
3F
100
AcDbEntity
  8
0
100
AcDbBlockBegin
  2
_DOT
 70
     0
 10
0.0
 20
0.0
  0
POLYLINE
  5
40
100
AcDbEntity
  8
0
 62
     0
100
AcDb2dPolyline
 66
     1
 70
     1
 40
0.5
 41
0.5
  0
VERTEX
  5
41
100
AcDbEntity
  8
0
 62
     0
100
AcDbVertex
100
AcDb2dVertex
 10
-0.25
 20
0.0
 42
1.0
  0
VERTEX
  5
42
100
AcDbEntity
  8
0
 62
     0
100
AcDbVertex
100
AcDb2dVertex
 10
0.25
 20
0.0
 42
1.0
  0
SEQEND
  5
43
100
AcDbEntity
  8
0
 62
     0
  0
LINE
  5
44
100
AcDbEntity
  8
0
 62
     0
100
AcDbLine
 10
-0.5
 20
0.0
 11
-1.0
 21
0.0
  0
ENDBLK
  5
45
100
AcDbEntity
  8
0
100
AcDbBlockEnd
  0
BLOCK
  5
47
100
AcDbEntity
  8
0
100
AcDbBlockBegin
  2
_OBLIQUE
 70
     0
 10
0.0
 20
0.0
  0
LINE
  5
48
100
AcDbEntity
  8
0
 62
     0
100
AcDbLine
 10
-0.353553
 20
-0.353553
 11
0.353553
 21
0.353553
  0
ENDBLK
  5
49
100
AcDbEntity
  8
0
100
AcDbBlockEnd
  0
BLOCK
  5
4B
100
AcDbEntity
  8
DD0
100
AcDbBlockBegin
  2
DIMS0
 70
     0
 10
0.0
 20
0.0
  0
LINE
  5
4C
100
AcDbEntity
  8
DD0
100
AcDbLine
 10
201.23491
 20
604.04296
 11
296.827026
 21
604.04296
  0
LINE
  5
4D
100
AcDbEntity
  8
DD0
100
AcDbLine
 10
231.734673
 20
600.542975
 11
296.827026
 21
600.542975
  0
LINE
  5
4E
100
AcDbEntity
  8
DD0
100
AcDbLine
 10
292.385883
 20
611.287403
 11
294.327026
 21
604.04296
  0
LINE
  5
4F
100
AcDbEntity
  8
DD0
100
AcDbLine
 10
294.327026
 20
604.04296
 11
296.268169
 21
611.287403
  0
LINE
  5
50
100
AcDbEntity
  8
DD0
100
AcDbLine
 10
296.268169
 20
593.298531
 11
294.327026
 21
600.542975
  0
LINE
  5
51
100
AcDbEntity
  8
DD0
100
AcDbLine
 10
294.327026
 20
600.542975
 11
292.385883
 21
593.298531
  0
LINE
  5
52
100
AcDbEntity
  8
DD0
100
AcDbLine
 10
294.327026
 20
638.417962
 11
294.327026
 21
592.292975
  0
TEXT
  5
53
100
AcDbEntity
  8
DD0
100
AcDbText
 10
292.82703
 20
612.93672
 40
7.875
  1
３．５
 50
90.000003
 41
0.833333
  7
STANDARD
100
AcDbText
  0
ENDBLK
  5
54
100
AcDbEntity
  8
DD0
100
AcDbBlockEnd
  0
BLOCK
  5
57
100
AcDbEntity
  8
DD0
100
AcDbBlockBegin
  2
DIMS1
 70
     0
 10
0.0
 20
0.0
  0
LINE
  5
58
100
AcDbEntity
  8
DD0
100
AcDbLine
 10
231.734673
 20
425.542978
 11
296.827026
 21
425.542978
  0
LINE
  5
59
100
AcDbEntity
  8
DD0
100
AcDbLine
 10
292.385883
 20
432.787421
 11
294.327026
 21
425.542978
  0
LINE
  5
5A
100
AcDbEntity
  8
DD0
100
AcDbLine
 10
294.327026
 20
425.542978
 11
296.268169
 21
432.787421
  0
LINE
  5
5B
100
AcDbEntity
  8
DD0
100
AcDbLine
 10
294.327026
 20
600.542975
 11
294.327026
 21
425.542978
  0
TEXT
  5
5C
100
AcDbEntity
  8
DD0
100
AcDbText
 10
292.82703
 20
501.874214
 40
7.875
  1
１７５
 50
90.000003
 41
0.833333
  7
STANDARD
100
AcDbText
  0
ENDBLK
  5
5D
100
AcDbEntity
  8
DD0
100
AcDbBlockEnd
  0
BLOCK
  5
60
100
AcDbEntity
  8
DD0
100
AcDbBlockBegin
  2
DIMS2
 70
     0
 10
0.0
 20
0.0
  0
LINE
  5
61
100
AcDbEntity
  8
DD0
100
AcDbLine
 10
153.034694
 20
415.543207
 11
296.827026
 21
415.543207
  0
LINE
  5
62
100
AcDbEntity
  8
DD0
100
AcDbLine
 10
296.268169
 20
408.298763
 11
294.327026
 21
415.543207
  0
LINE
  5
63
100
AcDbEntity
  8
DD0
100
AcDbLine
 10
294.327026
 20
415.543207
 11
292.385883
 21
408.298763
  0
LINE
  5
64
100
AcDbEntity
  8
DD0
100
AcDbLine
 10
294.327026
 20
425.542978
 11
294.327026
 21
389.043206
  0
TEXT
  5
65
100
AcDbEntity
  8
DD0
100
AcDbText
 10
292.82703
 20
391.061952
 40
7.875
  1
１０
 50
90.000003
 41
0.833333
  7
STANDARD
100
AcDbText
  0
ENDBLK
  5
66
100
AcDbEntity
  8
DD0
100
AcDbBlockEnd
  0
BLOCK
  5
69
100
AcDbEntity
  8
DD0
100
AcDbBlockBegin
  2
DIMS3
 70
     0
 10
0.0
 20
0.0
  0
LINE
  5
6A
100
AcDbEntity
  8
DD0
100
AcDbLine
 10
231.734673
 20
600.542975
 11
277.555595
 21
600.543051
  0
LINE
  5
6B
100
AcDbEntity
  8
DD0
100
AcDbLine
 10
239.240776
 20
583.042975
 11
277.555614
 21
583.043052
  0
LINE
  5
6C
100
AcDbEntity
  8
DD0
100
AcDbLine
 10
273.114444
 20
607.787493
 11
275.055595
 21
600.543051
  0
LINE
  5
6D
100
AcDbEntity
  8
DD0
100
AcDbLine
 10
275.055595
 20
600.543051
 11
276.99673
 21
607.787497
  0
LINE
  5
6E
100
AcDbEntity
  8
DD0
100
AcDbLine
 10
276.996765
 20
575.79861
 11
275.055614
 21
583.043052
  0
LINE
  5
6F
100
AcDbEntity
  8
DD0
100
AcDbLine
 10
275.055614
 20
583.043052
 11
273.114479
 21
575.798606
  0
LINE
  5
70
100
AcDbEntity
  8
DD0
100
AcDbLine
 10
275.055549
 20
642.79305
 11
275.055623
 21
574.793052
  0
TEXT
  5
71
100
AcDbEntity
  8
DD0
100
AcDbText
 10
273.555599
 20
609.436812
 40
7.875
  1
１７．５
 50
90.000064
 41
0.833333
  7
STANDARD
100
AcDbText
  0
ENDBLK
  5
72
100
AcDbEntity
  8
DD0
100
AcDbBlockEnd
  0
BLOCK
  5
75
100
AcDbEntity
  8
DD0
100
AcDbBlockBegin
  2
DIMS4
 70
     0
 10
0.0
 20
0.0
  0
LINE
  5
76
100
AcDbEntity
  8
DD0
100
AcDbLine
 10
245.234677
 20
587.042495
 11
245.234677
 21
671.87293
  0
LINE
  5
77
100
AcDbEntity
  8
DD0
100
AcDbLine
 10
50.234889
 20
587.042723
 11
50.234889
 21
671.87293
  0
LINE
  5
78
100
AcDbEntity
  8
DD0
100
AcDbLine
 10
237.990233
 20
667.431787
 11
245.234677
 21
669.37293
  0
LINE
  5
79
100
AcDbEntity
  8
DD0
100
AcDbLine
 10
245.234677
 20
669.37293
 11
237.990233
 21
671.314073
  0
LINE
  5
7A
100
AcDbEntity
  8
DD0
100
AcDbLine
 10
57.479333
 20
671.314073
 11
50.234889
 21
669.37293
  0
LINE
  5
7B
100
AcDbEntity
  8
DD0
100
AcDbLine
 10
50.234889
 20
669.37293
 11
57.479333
 21
667.431787
  0
LINE
  5
7C
100
AcDbEntity
  8
DD0
100
AcDbLine
 10
245.234677
 20
669.37293
 11
50.234889
 21
669.37293
  0
TEXT
  5
7D
100
AcDbEntity
  8
DD0
100
AcDbText
 10
136.56603
 20
670.872945
 40
7.875
  1
１９５
 41
0.833333
  7
STANDARD
100
AcDbText
  0
ENDBLK
  5
7E
100
AcDbEntity
  8
DD0
100
AcDbBlockEnd
  0
BLOCK
  5
81
100
AcDbEntity
  8
DD0
100
AcDbBlockBegin
  2
DIMS5
 70
     0
 10
0.0
 20
0.0
  0
LINE
  5
82
100
AcDbEntity
  8
DD0
100
AcDbLine
 10
245.234677
 20
587.042495
 11
245.234677
 21
652.601461
  0
LINE
  5
83
100
AcDbEntity
  8
DD0
100
AcDbLine
 10
227.734925
 20
594.720717
 11
227.734925
 21
652.601461
  0
LINE
  5
84
100
AcDbEntity
  8
DD0
100
AcDbLine
 10
252.47912
 20
652.042604
 11
245.234677
 21
650.101461
  0
LINE
  5
85
100
AcDbEntity
  8
DD0
100
AcDbLine
 10
245.234677
 20
650.101461
 11
252.47912
 21
648.160318
  0
LINE
  5
86
100
AcDbEntity
  8
DD0
100
AcDbLine
 10
220.490481
 20
648.160318
 11
227.734925
 21
650.101461
  0
LINE
  5
87
100
AcDbEntity
  8
DD0
100
AcDbLine
 10
227.734925
 20
650.101461
 11
220.490481
 21
652.042604
  0
LINE
  5
88
100
AcDbEntity
  8
DD0
100
AcDbLine
 10
287.484675
 20
650.101461
 11
219.484925
 21
650.101461
  0
TEXT
  5
89
100
AcDbEntity
  8
DD0
100
AcDbText
 10
254.128437
 20
651.601476
 40
7.875
  1
１７．５
 41
0.833333
  7
STANDARD
100
AcDbText
  0
ENDBLK
  5
8A
100
AcDbEntity
  8
DD0
100
AcDbBlockEnd
  0
BLOCK
  5
8D
100
AcDbEntity
  8
DD0
100
AcDbBlockBegin
  2
DIMS6
 70
     0
 10
0.0
 20
0.0
  0
LINE
  5
8E
100
AcDbEntity
  8
DD0
100
AcDbLine
 10
444.553865
 20
596.292487
 11
444.553865
 21
652.601461
  0
LINE
  5
8F
100
AcDbEntity
  8
DD0
100
AcDbLine
 10
328.056064
 20
515.542976
 11
328.056064
 21
652.601461
  0
LINE
  5
90
100
AcDbEntity
  8
DD0
100
AcDbLine
 10
437.309421
 20
648.160318
 11
444.553865
 21
650.101461
  0
LINE
  5
91
100
AcDbEntity
  8
DD0
100
AcDbLine
 10
444.553865
 20
650.101461
 11
437.309421
 21
652.042604
  0
LINE
  5
92
100
AcDbEntity
  8
DD0
100
AcDbLine
 10
335.300507
 20
652.042604
 11
328.056064
 21
650.101461
  0
LINE
  5
93
100
AcDbEntity
  8
DD0
100
AcDbLine
 10
328.056064
 20
650.101461
 11
335.300507
 21
648.160318
  0
LINE
  5
94
100
AcDbEntity
  8
DD0
100
AcDbLine
 10
444.553865
 20
650.101461
 11
328.056064
 21
650.101461
  0
TEXT
  5
95
100
AcDbEntity
  8
DD0
100
AcDbText
 10
367.261217
 20
651.601476
 40
7.875
  1
１１６．５
 41
0.833333
  7
STANDARD
100
AcDbText
  0
ENDBLK
  5
96
100
AcDbEntity
  8
DD0
100
AcDbBlockEnd
  0
BLOCK
  5
99
100
AcDbEntity
  8
DD0
100
AcDbBlockBegin
  2
DIMS7
 70
     0
 10
0.0
 20
0.0
  0
LINE
  5
9A
100
AcDbEntity
  8
DD0
100
AcDbLine
 10
451.798308
 20
469.411076
 11
444.553865
 21
467.469933
  0
LINE
  5
9B
100
AcDbEntity
  8
DD0
100
AcDbLine
 10
444.553865
 20
467.469933
 11
451.798308
 21
465.52879
  0
LINE
  5
9C
100
AcDbEntity
  8
DD0
100
AcDbLine
 10
433.7093
 20
465.52879
 11
440.953744
 21
467.469933
  0
LINE
  5
9D
100
AcDbEntity
  8
DD0
100
AcDbLine
 10
440.953744
 20
467.469933
 11
433.7093
 21
469.411076
  0
LINE
  5
9E
100
AcDbEntity
  8
DD0
100
AcDbLine
 10
494.678862
 20
467.469933
 11
432.703744
 21
467.469933
  0
TEXT
  5
9F
100
AcDbEntity
  8
DD0
100
AcDbText
 10
453.447625
 20
468.969948
 40
7.875
  1
　ｔ１．２
 41
0.833333
  7
STANDARD
100
AcDbText
  0
ENDBLK
  5
A0
100
AcDbEntity
  8
DD0
100
AcDbBlockEnd
  0
BLOCK
  5
A3
100
AcDbEntity
  8
DD0
100
AcDbBlockBegin
  2
DIMS8
 70
     0
 10
0.0
 20
0.0
  0
TEXT
  5
A4
100
AcDbEntity
  8
DD0
100
AcDbText
 10
251.336021
 20
369.538035
 40
7.875
  1
４－Ｍ５ネジ取付穴
 41
0.833333
  7
STANDARD
100
AcDbText
  0
LINE
  5
A5
100
AcDbEntity
  8
DD0
100
AcDbLine
 10
233.301235
 20
434.176652
 11
229.62751
 21
440.715287
  0
LINE
  5
A6
100
AcDbEntity
  8
DD0
100
AcDbLine
 10
229.62751
 20
440.715287
 11
229.539732
 21
433.215801
  0
LINE
  5
A7
100
AcDbEntity
  8
DD0
100
AcDbLine
 10
229.62751
 20
440.715287
 11
248.192421
 21
368.038096
  0
LINE
  5
A8
100
AcDbEntity
  8
DD0
100
AcDbLine
 10
248.192421
 20
368.038096
 11
324.292331
 21
368.037867
  0
ENDBLK
  5
A9
100
AcDbEntity
  8
DD0
100
AcDbBlockEnd
  0
BLOCK
  5
AC
100
AcDbEntity
  8
DD0
100
AcDbBlockBegin
  2
DIMS9
 70
     0
 10
0.0
 20
0.0
  0
LINE
  5
AD
100
AcDbEntity
  8
DD0
100
AcDbLine
 10
239.240776
 20
583.042975
 11
277.555614
 21
583.042975
  0
LINE
  5
AE
100
AcDbEntity
  8
DD0
100
AcDbLine
 10
239.240776
 20
443.042977
 11
277.555614
 21
443.042977
  0
LINE
  5
AF
100
AcDbEntity
  8
DD0
100
AcDbLine
 10
276.996757
 20
575.798532
 11
275.055614
 21
583.042975
  0
LINE
  5
B0
100
AcDbEntity
  8
DD0
100
AcDbLine
 10
275.055614
 20
583.042975
 11
273.114471
 21
575.798532
  0
LINE
  5
B1
100
AcDbEntity
  8
DD0
100
AcDbLine
 10
273.114471
 20
450.287421
 11
275.055614
 21
443.042977
  0
LINE
  5
B2
100
AcDbEntity
  8
DD0
100
AcDbLine
 10
275.055614
 20
443.042977
 11
276.996757
 21
450.287421
  0
LINE
  5
B3
100
AcDbEntity
  8
DD0
100
AcDbLine
 10
275.055614
 20
583.042975
 11
275.055614
 21
443.042977
  0
TEXT
  5
B4
100
AcDbEntity
  8
DD0
100
AcDbText
 10
273.555618
 20
501.874214
 40
7.875
  1
１４０
 50
90.000003
 41
0.833333
  7
STANDARD
100
AcDbText
  0
ENDBLK
  5
B5
100
AcDbEntity
  8
DD0
100
AcDbBlockEnd
  0
BLOCK
  5
B8
100
AcDbEntity
  8
DD0
100
AcDbBlockBegin
  2
DIMS10
 70
     0
 10
0.0
 20
0.0
  0
LINE
  5
B9
100
AcDbEntity
  8
DD0
100
AcDbLine
 10
67.734918
 20
594.72045
 11
67.734918
 21
652.601461
  0
LINE
  5
BA
100
AcDbEntity
  8
DD0
100
AcDbLine
 10
227.734925
 20
594.720717
 11
227.734925
 21
652.601461
  0
LINE
  5
BB
100
AcDbEntity
  8
DD0
100
AcDbLine
 10
74.979361
 20
652.042604
 11
67.734918
 21
650.101461
  0
LINE
  5
BC
100
AcDbEntity
  8
DD0
100
AcDbLine
 10
67.734918
 20
650.101461
 11
74.979361
 21
648.160318
  0
LINE
  5
BD
100
AcDbEntity
  8
DD0
100
AcDbLine
 10
220.490481
 20
648.160318
 11
227.734925
 21
650.101461
  0
LINE
  5
BE
100
AcDbEntity
  8
DD0
100
AcDbLine
 10
227.734925
 20
650.101461
 11
220.490481
 21
652.042604
  0
LINE
  5
BF
100
AcDbEntity
  8
DD0
100
AcDbLine
 10
67.734918
 20
650.101461
 11
227.734925
 21
650.101461
  0
TEXT
  5
C0
100
AcDbEntity
  8
DD0
100
AcDbText
 10
136.566183
 20
651.601476
 40
7.875
  1
１６０
 41
0.833333
  7
STANDARD
100
AcDbText
  0
ENDBLK
  5
C1
100
AcDbEntity
  8
DD0
100
AcDbBlockEnd
  0
ENDSEC
  0
SECTION
  2
ENTITIES
  0
INSERT
  5
55
100
AcDbEntity
  8
DD0
100
AcDbBlockReference
  2
DIMS0
 10
0.0
 20
0.0
  0
INSERT
  5
5E
100
AcDbEntity
  8
DD0
100
AcDbBlockReference
  2
DIMS1
 10
0.0
 20
0.0
  0
INSERT
  5
67
100
AcDbEntity
  8
DD0
100
AcDbBlockReference
  2
DIMS2
 10
0.0
 20
0.0
  0
INSERT
  5
73
100
AcDbEntity
  8
DD0
100
AcDbBlockReference
  2
DIMS3
 10
0.0
 20
0.0
  0
INSERT
  5
7F
100
AcDbEntity
  8
DD0
100
AcDbBlockReference
  2
DIMS4
 10
0.0
 20
0.0
  0
INSERT
  5
8B
100
AcDbEntity
  8
DD0
100
AcDbBlockReference
  2
DIMS5
 10
0.0
 20
0.0
  0
INSERT
  5
97
100
AcDbEntity
  8
DD0
100
AcDbBlockReference
  2
DIMS6
 10
0.0
 20
0.0
  0
INSERT
  5
A1
100
AcDbEntity
  8
DD0
100
AcDbBlockReference
  2
DIMS7
 10
0.0
 20
0.0
  0
INSERT
  5
AA
100
AcDbEntity
  8
DD0
100
AcDbBlockReference
  2
DIMS8
 10
0.0
 20
0.0
  0
INSERT
  5
B6
100
AcDbEntity
  8
DD0
100
AcDbBlockReference
  2
DIMS9
 10
0.0
 20
0.0
  0
INSERT
  5
C2
100
AcDbEntity
  8
DD0
100
AcDbBlockReference
  2
DIMS10
 10
0.0
 20
0.0
  0
LINE
  5
C3
100
AcDbEntity
  8
M0
 62
     7
100
AcDbLine
 10
66.234888
 20
425.542974
 11
229.234674
 21
425.542974
  0
LINE
  5
C4
100
AcDbEntity
  8
M0
 62
     7
100
AcDbLine
 10
245.234674
 20
441.54273
 11
245.234674
 21
584.542486
  0
LINE
  5
C5
100
AcDbEntity
  8
M0
 62
     7
100
AcDbLine
 10
229.234674
 20
600.542974
 11
66.234888
 21
600.54273
  0
LINE
  5
C6
100
AcDbEntity
  8
M0
 62
     7
100
AcDbLine
 10
50.234888
 20
584.54273
 11
50.234888
 21
441.542974
  0
ARC
  5
C7
100
AcDbEntity
  8
M0
 62
     7
100
AcDbCircle
 10
229.234674
 20
584.54273
 40
16.0
100
AcDbArc
 50
0.0
 51
90.0
  0
ARC
  5
C8
100
AcDbEntity
  8
M0
 62
     7
100
AcDbCircle
 10
66.234888
 20
584.54273
 40
16.0
100
AcDbArc
 50
89.999945
 51
180.0
  0
ARC
  5
C9
100
AcDbEntity
  8
M0
 62
     7
100
AcDbCircle
 10
66.234888
 20
441.542974
 40
16.0
100
AcDbArc
 50
179.999945
 51
270.0
  0
ARC
  5
CA
100
AcDbEntity
  8
M0
 62
     7
100
AcDbCircle
 10
229.234674
 20
441.542974
 40
16.0
100
AcDbArc
 50
269.999945
 51
360.0
  0
LINE
  5
CB
100
AcDbEntity
  8
M0
 62
     7
100
AcDbLine
 10
66.234888
 20
428.042974
 11
229.234674
 21
428.042974
  0
LINE
  5
CC
100
AcDbEntity
  8
M0
 62
     7
100
AcDbLine
 10
242.734674
 20
441.54273
 11
242.734674
 21
584.542486
  0
LINE
  5
CD
100
AcDbEntity
  8
M0
 62
     7
100
AcDbLine
 10
229.234674
 20
598.042974
 11
66.234888
 21
598.04273
  0
LINE
  5
CE
100
AcDbEntity
  8
M0
 62
     7
100
AcDbLine
 10
52.734888
 20
584.54273
 11
52.734888
 21
441.542974
  0
LINE
  5
CF
100
AcDbEntity
  8
M0
  6
DASHDOT
 62
     7
100
AcDbLine
 10
37.719873
 20
513.042974
 11
257.749811
 21
513.042974
  0
LINE
  5
D0
100
AcDbEntity
  8
M0
  6
DASHDOT
 62
     7
100
AcDbLine
 10
147.734888
 20
408.230138
 11
147.734888
 21
612.307866
  0
ARC
  5
D1
100
AcDbEntity
  8
M0
 62
     7
100
AcDbCircle
 10
66.234888
 20
441.542974
 40
13.499995
100
AcDbArc
 50
179.999935
 51
270.0
  0
ARC
  5
D2
100
AcDbEntity
  8
M0
 62
     7
100
AcDbCircle
 10
229.234674
 20
441.542974
 40
13.499995
100
AcDbArc
 50
269.999935
 51
360.0
  0
ARC
  5
D3
100
AcDbEntity
  8
M0
 62
     7
100
AcDbCircle
 10
229.234674
 20
584.54273
 40
13.499995
100
AcDbArc
 50
0.0
 51
90.0
  0
ARC
  5
D4
100
AcDbEntity
  8
M0
 62
     7
100
AcDbCircle
 10
66.234888
 20
584.54273
 40
13.499995
100
AcDbArc
 50
89.999935
 51
180.0
  0
LINE
  5
D5
100
AcDbEntity
  8
M0
 62
     7
100
AcDbLine
 10
334.248926
 20
428.042974
 11
383.554102
 21
428.042974
  0
LINE
  5
D6
100
AcDbEntity
  8
M0
 62
     7
100
AcDbLine
 10
396.054102
 20
425.542974
 11
396.053857
 21
600.542974
  0
LINE
  5
D7
100
AcDbEntity
  8
M0
 62
     7
100
AcDbLine
 10
383.554102
 20
598.042974
 11
334.248926
 21
598.04273
  0
LINE
  5
D8
100
AcDbEntity
  8
M0
  6
DASHDOT
 62
     7
100
AcDbLine
 10
319.636377
 20
513.042974
 11
396.054102
 21
513.042974
  0
LINE
  5
D9
100
AcDbEntity
  8
M0
 62
     7
100
AcDbLine
 10
384.554102
 20
599.54273
 11
384.554102
 21
426.542974
  0
LINE
  5
DA
100
AcDbEntity
  8
M0
 62
     7
100
AcDbLine
 10
385.554102
 20
425.542974
 11
396.054102
 21
425.542974
  0
LINE
  5
DB
100
AcDbEntity
  8
M0
 62
     7
100
AcDbLine
 10
396.053857
 20
600.542974
 11
385.554102
 21
600.542974
  0
ARC
  5
DC
100
AcDbEntity
  8
M0
 62
     7
100
AcDbCircle
 10
383.554102
 20
427.042974
 40
1.0
100
AcDbArc
 50
0.0
 51
90.0
  0
ARC
  5
DD
100
AcDbEntity
  8
M0
 62
     7
100
AcDbCircle
 10
383.554102
 20
599.04273
 40
1.0
100
AcDbArc
 50
270.0
 51
360.0
  0
ARC
  5
DE
100
AcDbEntity
  8
M0
 62
     7
100
AcDbCircle
 10
385.554102
 20
599.54273
 40
1.0
100
AcDbArc
 50
90.0
 51
180.0
  0
ARC
  5
DF
100
AcDbEntity
  8
M0
 62
     7
100
AcDbCircle
 10
385.554102
 20
426.542974
 40
1.0
100
AcDbArc
 50
179.999126
 51
270.0
  0
ARC
  5
E0
100
AcDbEntity
  8
M0
 62
     7
100
AcDbCircle
 10
1828.054102
 20
513.042974
 40
1499.998047
100
AcDbArc
 50
176.896217
 51
183.103766
  0
ARC
  5
E1
100
AcDbEntity
  8
M0
 62
     7
100
AcDbCircle
 10
334.248926
 20
432.042974
 40
4.0
100
AcDbArc
 50
183.106699
 51
270.0
  0
ARC
  5
E2
100
AcDbEntity
  8
M0
 62
     7
100
AcDbCircle
 10
334.248926
 20
594.04273
 40
4.0
100
AcDbArc
 50
89.999781
 51
176.896587
  0
LINE
  5
E3
100
AcDbEntity
  8
M0
 62
     7
100
AcDbLine
 10
50.234857
 20
277.474126
 11
245.234674
 21
277.474126
  0
LINE
  5
E4
100
AcDbEntity
  8
M0
 62
     7
100
AcDbLine
 10
242.734674
 20
289.973638
 11
242.734674
 21
341.473638
  0
LINE
  5
E5
100
AcDbEntity
  8
M0
 62
     7
100
AcDbLine
 10
238.734674
 20
345.474126
 11
56.734857
 21
345.473882
  0
LINE
  5
E6
100
AcDbEntity
  8
M0
 62
     7
100
AcDbLine
 10
52.734857
 20
341.473882
 11
52.734857
 21
289.973638
  0
LINE
  5
E7
100
AcDbEntity
  8
M0
  6
DASHDOT
 62
     7
100
AcDbLine
 10
147.734857
 20
288.973638
 11
147.734857
 21
354.042257
  0
LINE
  5
E8
100
AcDbEntity
  8
M0
 62
     7
100
AcDbLine
 10
245.234674
 20
277.474126
 11
245.234674
 21
287.973394
  0
LINE
  5
E9
100
AcDbEntity
  8
M0
 62
     7
100
AcDbLine
 10
244.234674
 20
288.973882
 11
51.234811
 21
288.973638
  0
LINE
  5
EA
100
AcDbEntity
  8
M0
 62
     7
100
AcDbLine
 10
50.234811
 20
287.973638
 11
50.234857
 21
277.474126
  0
ARC
  5
EB
100
AcDbEntity
  8
M0
 62
     7
100
AcDbCircle
 10
51.734857
 20
289.973638
 40
1.0
100
AcDbArc
 50
270.0
 51
360.0
  0
ARC
  5
EC
100
AcDbEntity
  8
M0
 62
     7
100
AcDbCircle
 10
243.734674
 20
289.973638
 40
1.0
100
AcDbArc
 50
180.0
 51
269.999126
  0
ARC
  5
ED
100
AcDbEntity
  8
M0
 62
     7
100
AcDbCircle
 10
51.234811
 20
287.973638
 40
1.0
100
AcDbArc
 50
89.999126
 51
180.0
  0
ARC
  5
EE
100
AcDbEntity
  8
M0
 62
     7
100
AcDbCircle
 10
244.234674
 20
287.973638
 40
1.0
100
AcDbArc
 50
359.985957
 51
450.0
  0
ARC
  5
EF
100
AcDbEntity
  8
M0
 62
     7
100
AcDbCircle
 10
238.734674
 20
341.473882
 40
4.0
100
AcDbArc
 50
0.0
 51
90.0
  0
ARC
  5
F0
100
AcDbEntity
  8
M0
 62
     7
100
AcDbCircle
 10
56.734857
 20
341.473882
 40
4.0
100
AcDbArc
 50
89.999781
 51
180.0
  0
CIRCLE
  5
F1
100
AcDbEntity
  8
M0
  6
DASHED
 62
     4
100
AcDbCircle
 10
67.734918
 20
443.042974
 40
3.0
  0
CIRCLE
  5
F2
100
AcDbEntity
  8
M0
  6
DASHED
 62
     4
100
AcDbCircle
 10
227.734918
 20
443.042974
 40
3.0
  0
LINE
  5
F3
100
AcDbEntity
  8
M0
  6
DASHDOT
 62
     4
100
AcDbLine
 10
76.740778
 20
443.042974
 11
58.728815
 21
443.042974
  0
LINE
  5
F4
100
AcDbEntity
  8
M0
  6
DASHDOT
 62
     4
100
AcDbLine
 10
67.734918
 20
452.048833
 11
67.734918
 21
434.03687
  0
LINE
  5
F5
100
AcDbEntity
  8
M0
  6
DASHDOT
 62
     4
100
AcDbLine
 10
236.740778
 20
443.042974
 11
218.728815
 21
443.042974
  0
LINE
  5
F6
100
AcDbEntity
  8
M0
  6
DASHDOT
 62
     4
100
AcDbLine
 10
227.734918
 20
452.048833
 11
227.734918
 21
434.03687
  0
ARC
  5
F7
100
AcDbEntity
  8
M0
  6
DASHED
 62
     4
100
AcDbCircle
 10
227.734918
 20
583.042974
 40
3.0
100
AcDbArc
 50
0.0
 51
180.0
  0
ARC
  5
F8
100
AcDbEntity
  8
M0
  6
DASHED
 62
     4
100
AcDbCircle
 10
227.734918
 20
576.04273
 40
4.999986
100
AcDbArc
 50
126.871611
 51
413.132271
  0
LINE
  5
F9
100
AcDbEntity
  8
M0
  6
DASHED
 62
     4
100
AcDbLine
 10
224.734918
 20
583.04273
 11
224.734918
 21
580.042486
  0
LINE
  5
FA
100
AcDbEntity
  8
M0
  6
DASHED
 62
     4
100
AcDbLine
 10
230.734674
 20
583.042241
 11
230.734674
 21
580.04273
  0
LINE
  5
FB
100
AcDbEntity
  8
M0
  6
DASHDOT
 62
     4
100
AcDbLine
 10
227.734918
 20
592.220708
 11
227.734918
 21
565.036626
  0
LINE
  5
FC
100
AcDbEntity
  8
M0
  6
DASHDOT
 62
     4
100
AcDbLine
 10
236.740778
 20
583.042974
 11
218.728815
 21
583.042974
  0
ARC
  5
FD
100
AcDbEntity
  8
M0
  6
DASHED
 62
     4
100
AcDbCircle
 10
67.734918
 20
583.042974
 40
3.0
100
AcDbArc
 50
0.0
 51
180.0
  0
ARC
  5
FE
100
AcDbEntity
  8
M0
  6
DASHED
 62
     4
100
AcDbCircle
 10
67.734918
 20
576.04273
 40
4.999986
100
AcDbArc
 50
-233.132271
 51
53.130627
  0
LINE
  5
FF
100
AcDbEntity
  8
M0
  6
DASHED
 62
     4
100
AcDbLine
 10
70.734674
 20
583.04273
 11
70.734674
 21
580.042486
  0
LINE
  5
100
100
AcDbEntity
  8
M0
  6
DASHED
 62
     4
100
AcDbLine
 10
64.735162
 20
583.042241
 11
64.735162
 21
580.04273
  0
LINE
  5
101
100
AcDbEntity
  8
M0
  6
DASHDOT
 62
     4
100
AcDbLine
 10
67.734918
 20
592.220464
 11
67.734918
 21
565.036626
  0
LINE
  5
102
100
AcDbEntity
  8
M0
  6
DASHDOT
 62
     4
100
AcDbLine
 10
58.729059
 20
583.042974
 11
76.740778
 21
583.042974
  0
LINE
  5
103
100
AcDbEntity
  8
M0
 62
     4
100
AcDbLine
 10
198.734918
 20
600.54273
 11
198.734918
 21
604.042974
  0
LINE
  5
104
100
AcDbEntity
  8
M0
 62
     4
100
AcDbLine
 10
198.734918
 20
604.042974
 11
186.734918
 21
604.042974
  0
LINE
  5
105
100
AcDbEntity
  8
M0
 62
     4
100
AcDbLine
 10
186.734918
 20
604.042974
 11
186.734918
 21
600.54273
  0
LINE
  5
106
100
AcDbEntity
  8
M0
 62
     4
100
AcDbLine
 10
96.734918
 20
600.54273
 11
96.734918
 21
604.042974
  0
LINE
  5
107
100
AcDbEntity
  8
M0
 62
     4
100
AcDbLine
 10
96.734918
 20
604.042974
 11
108.734918
 21
604.04273
  0
LINE
  5
108
100
AcDbEntity
  8
M0
 62
     4
100
AcDbLine
 10
108.734918
 20
604.04273
 11
108.734918
 21
600.54273
  0
LINE
  5
109
100
AcDbEntity
  8
M0
 62
     4
100
AcDbLine
 10
396.054102
 20
427.292974
 11
439.553857
 21
427.292974
  0
LINE
  5
10A
100
AcDbEntity
  8
M0
 62
     4
100
AcDbLine
 10
444.553857
 20
432.29273
 11
444.553857
 21
593.792486
  0
LINE
  5
10B
100
AcDbEntity
  8
M0
 62
     4
100
AcDbLine
 10
439.553857
 20
598.792974
 11
396.054102
 21
598.79273
  0
LINE
  5
10C
100
AcDbEntity
  8
M0
  6
DASHDOT
 62
     4
100
AcDbLine
 10
396.054102
 20
513.042974
 11
459.56875
 21
513.042974
  0
ARC
  5
10D
100
AcDbEntity
  8
M0
 62
     4
100
AcDbCircle
 10
439.553857
 20
432.292974
 40
4.999994
100
AcDbArc
 50
270.0
 51
360.0
  0
ARC
  5
10E
100
AcDbEntity
  8
M0
 62
     4
100
AcDbCircle
 10
439.553857
 20
593.79273
 40
4.999994
100
AcDbArc
 50
0.0
 51
90.0
  0
LINE
  5
10F
100
AcDbEntity
  8
M0
  6
DASHED
 62
     4
100
AcDbLine
 10
440.95376
 20
432.29273
 11
440.95376
 21
593.792486
  0
LINE
  5
110
100
AcDbEntity
  8
M0
 62
     4
100
AcDbLine
 10
390.553857
 20
600.54273
 11
390.553857
 21
604.042974
  0
LINE
  5
111
100
AcDbEntity
  8
M0
 62
     4
100
AcDbLine
 10
390.553857
 20
604.042974
 11
386.95376
 21
604.042974
  0
LINE
  5
112
100
AcDbEntity
  8
M0
 62
     4
100
AcDbLine
 10
386.95376
 20
604.042974
 11
386.95376
 21
600.54273
  0
LINE
  5
113
100
AcDbEntity
  8
M0
  6
DASHDOT
 62
     4
100
AcDbLine
 10
431.553857
 20
558.79273
 11
397.553125
 21
558.791997
  0
LINE
  5
114
100
AcDbEntity
  8
M0
  6
DASHDOT
 62
     4
100
AcDbLine
 10
414.552881
 20
575.79273
 11
414.553857
 21
541.791997
  0
ARC
  5
115
100
AcDbEntity
  8
M0
 62
     4
100
AcDbCircle
 10
414.553857
 20
558.79273
 40
10.999999
100
AcDbArc
 50
185.215836
 51
354.784013
  0
LINE
  5
116
100
AcDbEntity
  8
M0
 62
     4
100
AcDbLine
 10
430.552881
 20
559.792486
 11
425.508203
 21
559.792486
  0
LINE
  5
117
100
AcDbEntity
  8
M0
 62
     4
100
AcDbLine
 10
430.552881
 20
557.792486
 11
425.508203
 21
557.792486
  0
ARC
  5
118
100
AcDbEntity
  8
M0
 62
     4
100
AcDbCircle
 10
414.553857
 20
558.79273
 40
10.999999
100
AcDbArc
 50
5.215908
 51
174.784164
  0
LINE
  5
119
100
AcDbEntity
  8
M0
 62
     4
100
AcDbLine
 10
403.599268
 20
557.792486
 11
398.552881
 21
557.792486
  0
LINE
  5
11A
100
AcDbEntity
  8
M0
 62
     4
100
AcDbLine
 10
403.599268
 20
559.792486
 11
398.552881
 21
559.792486
  0
ARC
  5
11B
100
AcDbEntity
  8
M0
 62
     4
100
AcDbCircle
 10
147.734918
 20
258.973882
 40
10.999993
100
AcDbArc
 50
275.215803
 51
444.784011
  0
ARC
  5
11C
100
AcDbEntity
  8
M0
  6
DASHED
 62
     4
100
AcDbCircle
 10
165.234918
 20
258.973882
 40
10.999993
100
AcDbArc
 50
275.21575
 51
444.784085
  0
ARC
  5
11D
100
AcDbEntity
  8
M0
 62
     4
100
AcDbCircle
 10
187.734918
 20
258.973882
 40
10.999993
100
AcDbArc
 50
95.215994
 51
264.784092
  0
ARC
  5
11E
100
AcDbEntity
  8
M0
  6
DASHED
 62
     4
100
AcDbCircle
 10
207.734918
 20
258.973882
 40
10.999993
100
AcDbArc
 50
275.21503
 51
444.784884
  0
ARC
  5
11F
100
AcDbEntity
  8
M0
  6
DASHED
 62
     4
100
AcDbCircle
 10
130.234918
 20
258.973882
 40
10.999988
100
AcDbArc
 50
95.215915
 51
264.784171
  0
ARC
  5
120
100
AcDbEntity
  8
M0
 62
     4
100
AcDbCircle
 10
107.734918
 20
258.973882
 40
10.999988
100
AcDbArc
 50
95.215915
 51
264.784171
  0
ARC
  5
121
100
AcDbEntity
  8
M0
  6
DASHED
 62
     4
100
AcDbCircle
 10
87.734918
 20
258.973882
 40
10.999988
100
AcDbArc
 50
95.215915
 51
264.784171
  0
LINE
  5
122
100
AcDbEntity
  8
M0
  6
DASHDOT
 62
     4
100
AcDbLine
 10
165.234918
 20
275.973638
 11
165.234918
 21
241.973882
  0
LINE
  5
123
100
AcDbEntity
  8
M0
  6
DASHDOT
 62
     4
100
AcDbLine
 10
187.734918
 20
275.973638
 11
187.734918
 21
241.973882
  0
LINE
  5
124
100
AcDbEntity
  8
M0
  6
DASHDOT
 62
     4
100
AcDbLine
 10
207.734918
 20
275.973638
 11
207.734918
 21
243.973638
  0
LINE
  5
125
100
AcDbEntity
  8
M0
  6
DASHDOT
 62
     4
100
AcDbLine
 10
130.234918
 20
275.973638
 11
130.234918
 21
241.973882
  0
LINE
  5
126
100
AcDbEntity
  8
M0
  6
DASHDOT
 62
     4
100
AcDbLine
 10
107.734918
 20
275.973638
 11
107.734918
 21
241.973882
  0
LINE
  5
127
100
AcDbEntity
  8
M0
  6
DASHDOT
 62
     4
100
AcDbLine
 10
87.734918
 20
275.973638
 11
87.734918
 21
241.973882
  0
LINE
  5
128
100
AcDbEntity
  8
M0
 62
     4
100
AcDbLine
 10
56.984918
 20
228.973882
 11
238.484918
 21
228.973882
  0
LINE
  5
129
100
AcDbEntity
  8
M0
 62
     4
100
AcDbLine
 10
243.484918
 20
233.973638
 11
243.484918
 21
277.474126
  0
LINE
  5
12A
100
AcDbEntity
  8
M0
 62
     4
100
AcDbLine
 10
51.984918
 20
277.474126
 11
51.984918
 21
233.973882
  0
LINE
  5
12B
100
AcDbEntity
  8
M0
  6
DASHDOT
 62
     4
100
AcDbLine
 10
70.443903
 20
258.973882
 11
226.027643
 21
258.973882
  0
LINE
  5
12C
100
AcDbEntity
  8
M0
  6
DASHDOT
 62
     4
100
AcDbLine
 10
147.734918
 20
218.859044
 11
147.734918
 21
277.474126
  0
ARC
  5
12D
100
AcDbEntity
  8
M0
 62
     4
100
AcDbCircle
 10
56.984918
 20
233.973882
 40
4.999994
100
AcDbArc
 50
179.999967
 51
270.0
  0
ARC
  5
12E
100
AcDbEntity
  8
M0
 62
     4
100
AcDbCircle
 10
238.484918
 20
233.973882
 40
4.999994
100
AcDbArc
 50
269.999825
 51
360.0
  0
LINE
  5
12F
100
AcDbEntity
  8
M0
  6
DASHED
 62
     4
100
AcDbLine
 10
88.734918
 20
274.973882
 11
88.734918
 21
269.928228
  0
LINE
  5
130
100
AcDbEntity
  8
M0
  6
DASHED
 62
     4
100
AcDbLine
 10
86.734918
 20
274.973882
 11
86.734918
 21
269.928228
  0
LINE
  5
131
100
AcDbEntity
  8
M0
 62
     4
100
AcDbLine
 10
106.734918
 20
274.973882
 11
106.734918
 21
269.928228
  0
LINE
  5
132
100
AcDbEntity
  8
M0
 62
     4
100
AcDbLine
 10
108.734918
 20
274.973882
 11
108.734918
 21
269.928228
  0
LINE
  5
133
100
AcDbEntity
  8
M0
  6
DASHED
 62
     4
100
AcDbLine
 10
129.234918
 20
274.973882
 11
129.234918
 21
269.928228
  0
LINE
  5
134
100
AcDbEntity
  8
M0
  6
DASHED
 62
     4
100
AcDbLine
 10
131.234918
 20
274.973882
 11
131.234918
 21
269.928228
  0
LINE
  5
135
100
AcDbEntity
  8
M0
 62
     4
100
AcDbLine
 10
146.734918
 20
242.973882
 11
146.734918
 21
248.019292
  0
LINE
  5
136
100
AcDbEntity
  8
M0
 62
     4
100
AcDbLine
 10
148.734918
 20
242.973882
 11
148.734918
 21
248.019292
  0
LINE
  5
137
100
AcDbEntity
  8
M0
  6
DASHED
 62
     4
100
AcDbLine
 10
164.234918
 20
274.973882
 11
164.234918
 21
269.928228
  0
LINE
  5
138
100
AcDbEntity
  8
M0
  6
DASHED
 62
     4
100
AcDbLine
 10
166.234918
 20
274.973882
 11
166.234918
 21
269.928228
  0
LINE
  5
139
100
AcDbEntity
  8
M0
 62
     4
100
AcDbLine
 10
186.734918
 20
274.973882
 11
186.734918
 21
269.928228
  0
LINE
  5
13A
100
AcDbEntity
  8
M0
 62
     4
100
AcDbLine
 10
188.734918
 20
274.973882
 11
188.734918
 21
269.928228
  0
LINE
  5
13B
100
AcDbEntity
  8
M0
  6
DASHED
 62
     4
100
AcDbLine
 10
206.734766
 20
274.973882
 11
206.734766
 21
269.928228
  0
LINE
  5
13C
100
AcDbEntity
  8
M0
  6
DASHED
 62
     4
100
AcDbLine
 10
208.734766
 20
274.973882
 11
208.734766
 21
269.928228
  0
LINE
  5
13D
100
AcDbEntity
  8
M0
  6
DASHED
 62
     4
100
AcDbLine
 10
164.234918
 20
248.019292
 11
164.234918
 21
242.973882
  0
LINE
  5
13E
100
AcDbEntity
  8
M0
  6
DASHED
 62
     4
100
AcDbLine
 10
166.234918
 20
248.019292
 11
166.234918
 21
242.973882
  0
LINE
  5
13F
100
AcDbEntity
  8
M0
 62
     4
100
AcDbLine
 10
186.734918
 20
248.019292
 11
186.734918
 21
242.973882
  0
LINE
  5
140
100
AcDbEntity
  8
M0
 62
     4
100
AcDbLine
 10
188.734918
 20
248.019292
 11
188.734918
 21
242.973882
  0
LINE
  5
141
100
AcDbEntity
  8
M0
  6
DASHED
 62
     4
100
AcDbLine
 10
206.734766
 20
248.019292
 11
206.734766
 21
242.973882
  0
LINE
  5
142
100
AcDbEntity
  8
M0
  6
DASHED
 62
     4
100
AcDbLine
 10
208.734766
 20
248.019292
 11
208.734766
 21
242.973882
  0
LINE
  5
143
100
AcDbEntity
  8
M0
 62
     4
100
AcDbLine
 10
106.734918
 20
248.019292
 11
106.734918
 21
242.973882
  0
LINE
  5
144
100
AcDbEntity
  8
M0
 62
     4
100
AcDbLine
 10
108.734918
 20
248.019292
 11
108.734918
 21
242.973882
  0
LINE
  5
145
100
AcDbEntity
  8
M0
  6
DASHED
 62
     4
100
AcDbLine
 10
129.234918
 20
248.019292
 11
129.234918
 21
242.973882
  0
LINE
  5
146
100
AcDbEntity
  8
M0
  6
DASHED
 62
     4
100
AcDbLine
 10
131.234918
 20
248.019292
 11
131.234918
 21
242.973882
  0
LINE
  5
147
100
AcDbEntity
  8
M0
 62
     4
100
AcDbLine
 10
146.734918
 20
269.928228
 11
146.734918
 21
274.973882
  0
LINE
  5
148
100
AcDbEntity
  8
M0
 62
     4
100
AcDbLine
 10
148.734918
 20
269.928228
 11
148.734918
 21
274.973882
  0
LINE
  5
149
100
AcDbEntity
  8
M0
  6
DASHED
 62
     4
100
AcDbLine
 10
86.734918
 20
248.019292
 11
86.734918
 21
242.973882
  0
LINE
  5
14A
100
AcDbEntity
  8
M0
  6
DASHED
 62
     4
100
AcDbLine
 10
88.734918
 20
248.019292
 11
88.734918
 21
242.973882
  0
ARC
  5
14B
100
AcDbEntity
  8
M0
  6
DASHED
 62
     4
100
AcDbCircle
 10
130.234918
 20
258.973882
 40
10.999988
100
AcDbArc
 50
-84.784171
 51
84.784006
  0
ARC
  5
14C
100
AcDbEntity
  8
M0
 62
     4
100
AcDbCircle
 10
107.734918
 20
258.973882
 40
10.999988
100
AcDbArc
 50
-84.784171
 51
84.784006
  0
ARC
  5
14D
100
AcDbEntity
  8
M0
  6
DASHED
 62
     4
100
AcDbCircle
 10
87.734918
 20
258.973882
 40
10.999988
100
AcDbArc
 50
-84.784171
 51
84.784006
  0
ARC
  5
14E
100
AcDbEntity
  8
M0
 62
     4
100
AcDbCircle
 10
147.734918
 20
258.973882
 40
10.999993
100
AcDbArc
 50
95.21595
 51
264.784144
  0
ARC
  5
14F
100
AcDbEntity
  8
M0
  6
DASHED
 62
     4
100
AcDbCircle
 10
165.234918
 20
258.973882
 40
10.999993
100
AcDbArc
 50
95.215994
 51
264.784092
  0
ARC
  5
150
100
AcDbEntity
  8
M0
 62
     4
100
AcDbCircle
 10
187.734918
 20
258.973882
 40
10.999993
100
AcDbArc
 50
275.21575
 51
444.784085
  0
ARC
  5
151
100
AcDbEntity
  8
M0
  6
DASHED
 62
     4
100
AcDbCircle
 10
207.734918
 20
258.973882
 40
10.999993
100
AcDbArc
 50
95.216793
 51
264.783293
  0
LINE
  5
152
100
AcDbEntity
  8
M0
 62
     6
100
AcDbLine
 10
144.934839
 20
415.543218
 11
150.534692
 21
415.543218
  0
LINE
  5
153
100
AcDbEntity
  8
M0
 62
     6
100
AcDbLine
 10
151.734888
 20
425.543218
 11
143.734888
 21
425.543218
  0
LINE
  5
154
100
AcDbEntity
  8
M0
 62
     6
100
AcDbLine
 10
143.734888
 20
425.543218
 11
143.734888
 21
416.743169
  0
LINE
  5
155
100
AcDbEntity
  8
M0
 62
     6
100
AcDbLine
 10
143.734888
 20
416.743169
 11
144.934839
 21
415.543218
  0
LINE
  5
156
100
AcDbEntity
  8
M0
 62
     6
100
AcDbLine
 10
150.534692
 20
415.543218
 11
151.734888
 21
416.743169
  0
LINE
  5
157
100
AcDbEntity
  8
M0
 62
     6
100
AcDbLine
 10
143.734888
 20
416.743169
 11
151.734888
 21
416.743169
  0
LINE
  5
158
100
AcDbEntity
  8
M0
 62
     6
100
AcDbLine
 10
145.334741
 20
425.543218
 11
145.334741
 21
416.743169
  0
LINE
  5
159
100
AcDbEntity
  8
M0
 62
     6
100
AcDbLine
 10
146.934839
 20
425.543218
 11
146.934839
 21
416.743169
  0
LINE
  5
15A
100
AcDbEntity
  8
M0
 62
     6
100
AcDbLine
 10
148.534692
 20
425.543218
 11
148.534692
 21
416.743169
  0
LINE
  5
15B
100
AcDbEntity
  8
M0
 62
     6
100
AcDbLine
 10
150.13479
 20
425.543218
 11
150.13479
 21
416.743169
  0
LINE
  5
15C
100
AcDbEntity
  8
M0
 62
     6
100
AcDbLine
 10
151.734644
 20
425.543218
 11
151.734644
 21
416.743169
  0
LINE
  5
15D
100
AcDbEntity
  8
M0
 62
     6
100
AcDbLine
 10
387.254053
 20
415.543218
 11
392.853906
 21
415.543218
  0
LINE
  5
15E
100
AcDbEntity
  8
M0
 62
     6
100
AcDbLine
 10
394.054102
 20
425.543218
 11
386.054102
 21
425.543218
  0
LINE
  5
15F
100
AcDbEntity
  8
M0
 62
     6
100
AcDbLine
 10
386.054102
 20
425.543218
 11
386.054102
 21
416.743169
  0
LINE
  5
160
100
AcDbEntity
  8
M0
 62
     6
100
AcDbLine
 10
386.054102
 20
416.743169
 11
387.254053
 21
415.543218
  0
LINE
  5
161
100
AcDbEntity
  8
M0
 62
     6
100
AcDbLine
 10
392.853906
 20
415.543218
 11
394.054102
 21
416.743169
  0
LINE
  5
162
100
AcDbEntity
  8
M0
 62
     6
100
AcDbLine
 10
386.054102
 20
416.743169
 11
394.054102
 21
416.743169
  0
LINE
  5
163
100
AcDbEntity
  8
M0
 62
     6
100
AcDbLine
 10
387.653955
 20
425.543218
 11
387.653955
 21
416.743169
  0
LINE
  5
164
100
AcDbEntity
  8
M0
 62
     6
100
AcDbLine
 10
389.254053
 20
425.543218
 11
389.254053
 21
416.743169
  0
LINE
  5
165
100
AcDbEntity
  8
M0
 62
     6
100
AcDbLine
 10
390.853906
 20
425.543218
 11
390.853906
 21
416.743169
  0
LINE
  5
166
100
AcDbEntity
  8
M0
 62
     6
100
AcDbLine
 10
392.454004
 20
425.543218
 11
392.454004
 21
416.743169
  0
LINE
  5
167
100
AcDbEntity
  8
M0
 62
     6
100
AcDbLine
 10
394.053857
 20
425.543218
 11
394.053857
 21
416.743169
  0
CIRCLE
  5
168
100
AcDbEntity
  8
M0
 62
     6
100
AcDbCircle
 10
147.734857
 20
283.474126
 40
4.0
  0
LINE
  5
169
100
AcDbEntity
  8
M0
  6
DASHDOT
 62
     6
100
AcDbLine
 10
157.740778
 20
283.474126
 11
137.728845
 21
283.474126
  0
LINE
  5
16A
100
AcDbEntity
  8
M0
  6
DASHDOT
 62
     6
100
AcDbLine
 10
147.734842
 20
288.973638
 11
147.734842
 21
277.474126
  0
CIRCLE
  5
16B
100
AcDbEntity
  8
M0
 62
     2
100
AcDbCircle
 10
213.48445
 20
242.474055
 40
3.499996
  0
LINE
  5
16C
100
AcDbEntity
  8
M0
 62
     2
100
AcDbLine
 10
214.898491
 20
243.180989
 11
215.287434
 21
243.569932
  0
LINE
  5
16D
100
AcDbEntity
  8
M0
 62
     2
100
AcDbLine
 10
214.191039
 20
243.88775
 11
214.580327
 21
244.277039
  0
LINE
  5
16E
100
AcDbEntity
  8
M0
 62
     2
100
AcDbLine
 10
216.287327
 20
240.378284
 11
214.898664
 21
241.766948
  0
LINE
  5
16F
100
AcDbEntity
  8
M0
 62
     2
100
AcDbLine
 10
215.580221
 20
239.671177
 11
214.191557
 21
241.059841
  0
LINE
  5
170
100
AcDbEntity
  8
M0
 62
     2
100
AcDbLine
 10
214.580327
 20
244.277039
 11
215.287434
 21
243.569932
  0
LINE
  5
171
100
AcDbEntity
  8
M0
 62
     2
100
AcDbLine
 10
212.3884
 20
240.670898
 11
211.681293
 21
241.378005
  0
LINE
  5
172
100
AcDbEntity
  8
M0
 62
     2
100
AcDbLine
 10
211.681121
 20
241.377832
 11
212.069719
 21
241.76643
  0
LINE
  5
173
100
AcDbEntity
  8
M0
 62
     2
100
AcDbLine
 10
212.388227
 20
240.670725
 11
212.777171
 21
241.059668
  0
LINE
  5
174
100
AcDbEntity
  8
M0
 62
     2
100
AcDbLine
 10
212.069891
 20
243.180816
 11
210.6814
 21
244.569998
  0
LINE
  5
175
100
AcDbEntity
  8
M0
 62
     2
100
AcDbLine
 10
212.776825
 20
243.888096
 11
211.388507
 21
245.277105
  0
LINE
  5
176
100
AcDbEntity
  8
M0
 62
     2
100
AcDbLine
 10
212.635611
 20
244.029655
 11
211.928504
 21
243.322548
  0
LINE
  5
177
100
AcDbEntity
  8
M0
 62
     2
100
AcDbLine
 10
214.332771
 20
240.918282
 11
215.039878
 21
241.625388
  0
ARC
  5
178
100
AcDbEntity
  8
M0
 62
     2
100
AcDbCircle
 10
211.362784
 20
242.473709
 40
1.0
100
AcDbArc
 50
314.986014
 51
404.999948
  0
ARC
  5
179
100
AcDbEntity
  8
M0
 62
     2
100
AcDbCircle
 10
213.484277
 20
240.352562
 40
1.0
100
AcDbArc
 50
45.000002
 51
134.999948
  0
ARC
  5
17A
100
AcDbEntity
  8
M0
 62
     2
100
AcDbCircle
 10
213.483932
 20
244.594857
 40
1.0
100
AcDbArc
 50
224.986014
 51
315.000002
  0
ARC
  5
17B
100
AcDbEntity
  8
M0
 62
     2
100
AcDbCircle
 10
215.605598
 20
242.473882
 40
1.0
100
AcDbArc
 50
135.000002
 51
224.999948
  0
LINE
  5
17C
100
AcDbEntity
  8
M0
 62
     2
100
AcDbLine
 10
427.651758
 20
426.174077
 11
427.553857
 21
427.293218
  0
ARC
  5
17D
100
AcDbEntity
  8
M0
 62
     2
100
AcDbCircle
 10
428.946924
 20
426.287114
 40
1.299994
100
AcDbArc
 50
184.987909
 51
254.121075
  0
ARC
  5
17E
100
AcDbEntity
  8
M0
 62
     2
100
AcDbCircle
 10
431.053857
 20
433.693364
 40
8.99998
100
AcDbArc
 50
254.120141
 51
285.882813
  0
ARC
  5
17F
100
AcDbEntity
  8
M0
 62
     2
100
AcDbCircle
 10
433.161035
 20
426.287114
 40
1.299994
100
AcDbArc
 50
285.889196
 51
355.012049
  0
LINE
  5
180
100
AcDbEntity
  8
M0
 62
     2
100
AcDbLine
 10
434.456201
 20
426.174077
 11
434.553857
 21
427.29273
  0
LINE
  5
181
100
AcDbEntity
  8
M0
 62
     2
100
AcDbLine
 10
434.553857
 20
427.293218
 11
427.553857
 21
427.293218
  0
LINE
  5
182
100
AcDbEntity
  8
M0
  6
DASHDOT
 62
     2
100
AcDbLine
 10
431.053769
 20
431.517593
 11
431.053579
 21
421.394015
  0
LINE
  5
183
100
AcDbEntity
  8
M0
100
AcDbLine
 10
213.484277
 20
238.974058
 11
213.484277
 21
207.126714
  0
LINE
  5
184
100
AcDbEntity
  8
M0
100
AcDbLine
 10
220.484277
 20
207.126714
 11
206.484277
 21
207.126714
  0
LINE
  5
185
100
AcDbEntity
  8
M0
100
AcDbLine
 10
217.484277
 20
204.626958
 11
209.483789
 21
204.62647
  0
LINE
  5
186
100
AcDbEntity
  8
M0
100
AcDbLine
 10
215.484277
 20
202.127202
 11
211.483545
 21
202.12647
  0
LINE
  5
187
100
AcDbEntity
  8
M1
 62
     2
100
AcDbLine
 10
25.0
 20
25.0
 11
25.0
 21
712.499989
  0
LINE
  5
188
100
AcDbEntity
  8
M1
 62
     2
100
AcDbLine
 10
25.0
 20
712.499989
 11
499.999993
 21
712.499989
  0
LINE
  5
189
100
AcDbEntity
  8
M1
 62
     2
100
AcDbLine
 10
499.999993
 20
712.499989
 11
499.999993
 21
25.0
  0
LINE
  5
18A
100
AcDbEntity
  8
M1
 62
     2
100
AcDbLine
 10
499.999993
 20
25.0
 11
25.0
 21
25.0
  0
LINE
  5
18B
100
AcDbEntity
  8
M1
 62
     2
100
AcDbLine
 10
499.999993
 20
49.999999
 11
249.999996
 21
49.999999
  0
LINE
  5
18C
100
AcDbEntity
  8
M1
 62
     2
100
AcDbLine
 10
499.999993
 20
74.999999
 11
249.999996
 21
74.999999
  0
LINE
  5
18D
100
AcDbEntity
  8
M1
 62
     2
100
AcDbLine
 10
499.999993
 20
99.999999
 11
249.999996
 21
99.999999
  0
LINE
  5
18E
100
AcDbEntity
  8
M1
 62
     2
100
AcDbLine
 10
249.999996
 20
25.0
 11
249.999996
 21
99.999999
  0
TEXT
  5
18F
100
AcDbEntity
  8
M1
 62
     2
100
AcDbText
 10
256.249996
 20
31.25
 40
12.5
  1
適　用；
  7
STANDARD
100
AcDbText
  0
TEXT
  5
190
100
AcDbEntity
  8
M1
 62
     2
100
AcDbText
 10
256.249996
 20
81.249999
 40
12.5
  1
登録名：
  7
STANDARD
100
AcDbText
  0
TEXT
  5
191
100
AcDbEntity
  8
M1
 62
     2
100
AcDbText
 10
316.249995
 20
81.249999
 40
12.5
  1
ＤＭＳＨＳ２０ＲＴＲ００
 41
0.5
  7
STANDARD
100
AcDbText
  0
TEXT
  5
192
100
AcDbEntity
  8
M1
 62
     2
100
AcDbText
 10
256.249996
 20
56.249999
 40
12.5
  1
形　式；
  7
STANDARD
100
AcDbText
  0
TEXT
  5
193
100
AcDbEntity
  8
M1
 62
     2
100
AcDbText
 10
316.249995
 20
56.249999
 40
12.5
  1
ＳＨＳ２０－ＲＴ
 41
0.5
  7
STANDARD
100
AcDbText
  0
ENDSEC
  0
SECTION
  2
OBJECTS
  0
DICTIONARY
  5
C
100
AcDbDictionary
  3
ACAD_GROUP
350
D
  3
ACAD_MLINESTYLE
350
E
  0
DICTIONARY
  5
D
102
{ACAD_REACTORS
330
C
102
}
100
AcDbDictionary
  0
DICTIONARY
  5
E
102
{ACAD_REACTORS
330
C
102
}
100
AcDbDictionary
  3
STANDARD
350
13
  0
MLINESTYLE
  5
13
102
{ACAD_REACTORS
330
E
102
}
100
AcDbMlineStyle
  2
STANDARD
 70
     0
  3

 62
     0
 51
90.0
 52
90.0
 71
     2
 49
0.5
 62
   256
  6
BYLAYER
 49
-0.5
 62
   256
  6
BYLAYER
  0
ENDSEC
  0
EOF
