  0
SECTION
  2
HEADER
  9
$ACADVER
  1
AC1014
  9
$INSBASE
 10
0.000000
 20
0.000000
 30
0.0
  9
$VIEWCTR
 10
7.531722
 20
4.5
  9
$VIEWSIZE
 40
9.0
  9
$SNAPMODE
 70
     0
  9
$SNAPUNIT
 10
1.0
 20
1.0
  9
$SNAPBASE
 10
0.0
 20
0.0
  9
$SNAPANG
 50
0.0
  9
$SNAPSTYLE
 70
     0
  9
$SNAPISOPAIR
 70
     0
  9
$GRIDMODE
 70
     0
  9
$GRIDUNIT
 10
0.0
 20
0.0
  9
$ORTHOMODE
 70
     0
  9
$REGENMODE
 70
     1
  9
$FILLMODE
 70
     1
  9
$QTEXTMODE
 70
     0
  9
$DRAGMODE
 70
     2
  9
$LTSCALE
  40
     1.000000
  9
$OSMODE
 70
     0
  9
$ATTMODE
 70
     1
  9
$TEXTSIZE
 40
0.2
  9
$TRACEWID
 40
0.05
  9
$TEXTSTYLE
  7
STANDARD
  9
$CELTYPE
  6
BYLAYER
  9
$CECOLOR
 62
   256
  9
$DIMSCALE
 40
1.0
  9
$DIMASZ
 40
0.18
  9
$DIMEXO
 40
0.0625
  9
$DIMDLI
 40
0.38
  9
$DIMRND
 40
0.0
  9
$DIMDLE
 40
0.0
  9
$DIMEXE
 40
0.18
  9
$DIMTP
 40
0.0
  9
$DIMTM
 40
0.0
  9
$DIMTXT
 40
0.18
  9
$DIMCEN
 40
0.09
  9
$DIMTSZ
 40
0.0
  9
$DIMTOL
 70
     0
  9
$DIMLIM
 70
     0
  9
$DIMTIH
 70
     1
  9
$DIMTOH
 70
     1
  9
$DIMSE1
 70
     0
  9
$DIMSE2
 70
     0
  9
$DIMTAD
 70
     0
  9
$DIMZIN
 70
     0
  9
$DIMBLK
  1

  9
$LUNITS
 70
     2
  9
$LUPREC
 70
     4
  9
$AXISMODE
 70
     0
  9
$AXISUNIT
 10
0.0
 20
0.0
  9
$SKETCHINC
 40
0.1
  9
$FILLETRAD
 40
0.0
  9
$AUNITS
 70
     0
  9
$AUPREC
 70
     0
  9
$MENU
  1
ACAD
  9
$ELEVATION
 40
0.0
  9
$THICKNESS
 40
0.0
  9
$VIEWDIR
 10
0.0
 20
0.0
 30
1.0
  9
$LIMCHECK
 70
     0
  9
$BLIPMODE
 70
     1
  9
$CHAMFERA
 40
0.0
  9
$CHAMFERB
 40
0.0
  9
$FASTZOOM
 70
     1
  9
$SKPOLY
 70
     0
  9
$TDCREATE
 40
0000000.0000000000
  9
$TDUPDATE
 40
0000000.0000000000
  9
$TDINDWG
 40
0.0000000000
  9
$TDUSRTIMER
 40
0.0000000000
  9
$USRTIMER
 70
     1
  9
$ANGBASE
 50
0.0
  9
$ANGDIR
 70
     0
  9
$PDMODE
 70
     0
  9
$PDSIZE
 40
0.0
  9
$PLINEWID
 40
0.0
  9
$COORDS
 70
     0
  9
$USERI1
 70
     0
  9
$USERI2
 70
     0
  9
$USERI3
 70
     0
  9
$USERI4
 70
     0
  9
$USERI5
 70
     0
  9
$USERR1
 40
0.0
  9
$USERR2
 40
0.0
  9
$USERR3
 40
0.0
  9
$USERR4
 40
0.0
  9
$USERR5
 40
0.0
  9
$CLAYER
  8
M0
  9
$EXTMIN
 10
25.0
 20
25.0
  9
$EXTMAX
 10
499.999993
 20
712.499989
  9
$LIMMIN
 10
0.0
 20
0.0
  9
$LIMMAX
 10
210.0
 20
297.0
  9
$HANDSEED
  5
133
  0
ENDSEC
  0
SECTION
  2
CLASSES
  0
ENDSEC
  0
SECTION
  2
TABLES
  0
TABLE
  2
VPORT
  5
8
100
AcDbSymbolTable
 70
     2
  0
VPORT
  5
14
100
AcDbSymbolTableRecord
100
AcDbViewportTableRecord
  2
*ACTIVE
 70
     0
 10
0.0
 20
0.0
 11
1.0
 21
1.0
 12
484.0
 22
297.0
 13
0.0
 23
0.0
 14
1.0
 24
1.0
 15
0.0
 25
0.0
 16
0.0
 26
0.0
 36
1.0
 17
0.0
 27
0.0
 37
0.0
 40
594.0
 41
2.0
 42
50.0
 43
0.0
 44
0.0
 50
0.0
 51
0.0
 71
     0
 72
   100
 73
     1
 74
     1
 75
     0
 76
     0
 77
     0
 78
     0
  0
ENDTAB
  0
TABLE
  2
LTYPE
  5
5
100
AcDbSymbolTable
 70
     5
  0
LTYPE
  5
15
100
AcDbSymbolTableRecord
100
AcDbLinetypeTableRecord
  2
BYBLOCK
 70
     0
  3

 72
    65
 73
     0
 40
0.0
  0
LTYPE
  5
16
100
AcDbSymbolTableRecord
100
AcDbLinetypeTableRecord
  2
BYLAYER
 70
     0
  3

 72
    65
 73
     0
 40
0.0
  0
LTYPE
  5
17
100
AcDbSymbolTableRecord
100
AcDbLinetypeTableRecord
  2
CONTINUOUS
 70
    64
  3
Solid line
 72
    65
 73
     0
 40
0.0
  0
LTYPE
  5
18
100
AcDbSymbolTableRecord
100
AcDbLinetypeTableRecord
  2
DASHED
 70
    64
  3
__ __ __ __ __ __ __ __ __ __ __ __ __ __ __ __
 72
    65
 73
     2
 40
0.75
 49
0.5
 74
     0
 49
-0.25
 74
     0
  0
LTYPE
  5
19
100
AcDbSymbolTableRecord
100
AcDbLinetypeTableRecord
  2
DASHDOT
 70
    64
  3
__ . __ . __ . __ . __ . __ . __ . __ . __ . __
 72
    65
 73
     4
 40
1.0
 49
0.5
 74
     0
 49
-0.25
 74
     0
 49
0.0
 74
     0
 49
-0.25
 74
     0
  0
LTYPE
  5
1A
100
AcDbSymbolTableRecord
100
AcDbLinetypeTableRecord
  2
DIVIDE
 70
    64
  3
____ . . ____ . . ____ . . ____ . . ____ . . __
 72
    65
 73
     6
 40
1.25
 49
0.5
 74
     0
 49
-0.25
 74
     0
 49
0.0
 74
     0
 49
-0.25
 74
     0
 49
0.0
 74
     0
 49
-0.25
 74
     0
  0
LTYPE
  5
1B
100
AcDbSymbolTableRecord
100
AcDbLinetypeTableRecord
  2
DOT
 70
    64
  3
. . . . . . . . . . . . . . . . . . . . . . . .
 72
    65
 73
     2
 40
0.25
 49
0.0
 74
     0
 49
-0.25
 74
     0
  0
ENDTAB
  0
TABLE
  2
LAYER
  5
2
100
AcDbSymbolTable
 70
   102
  0
LAYER
  5
F
100
AcDbSymbolTableRecord
100
AcDbLayerTableRecord
  2
0
 70
     0
 62
     7
  6
CONTINUOUS
  0
LAYER
  5
1C
100
AcDbSymbolTableRecord
100
AcDbLayerTableRecord
  2
DEFPOINTS
 70
     0
 62
     7
  6
CONTINUOUS
  0
LAYER
  5
1D
100
AcDbSymbolTableRecord
100
AcDbLayerTableRecord
  2
M0
 70
     0
 62
     3
  6
CONTINUOUS
  0
LAYER
  5
1E
100
AcDbSymbolTableRecord
100
AcDbLayerTableRecord
  2
M1
 70
     0
 62
     3
  6
CONTINUOUS
  0
LAYER
  5
1F
100
AcDbSymbolTableRecord
100
AcDbLayerTableRecord
  2
DD0
 70
     0
 62
     4
  6
CONTINUOUS
  0
ENDTAB
  0
TABLE
  2
STYLE
  5
3
100
AcDbSymbolTable
 70
     2
  0
STYLE
  5
10
100
AcDbSymbolTableRecord
100
AcDbTextStyleTableRecord
  2
STANDARD
 70
     0
 40
0.0
 41
1.0
 50
0.0
 71
     0
 42
0.2
  3
txt
  4
BIGFONT
  0
ENDTAB
  0
TABLE
  2
VIEW
  5
6
100
AcDbSymbolTable
 70
     0
  0
ENDTAB
  0
TABLE
  2
UCS
  5
7
100
AcDbSymbolTable
 70
     0
  0
ENDTAB
  0
TABLE
  2
APPID
  5
9
100
AcDbSymbolTable
 70
     1
  0
APPID
  5
11
100
AcDbSymbolTableRecord
100
AcDbRegAppTableRecord
  2
ACAD
 70
     0
  0
ENDTAB
  0
TABLE
  2
DIMSTYLE
  5
A
100
AcDbSymbolTable
 70
     2
  0
DIMSTYLE
105
26
100
AcDbSymbolTableRecord
100
AcDbDimStyleTableRecord
  2
STANDARD
 70
     0
  3

  4

  5

  6
_OPEN
  7
_OPEN
 40
1.0
 41
7.5
 42
1.0
 43
8.0
 44
1.0
 45
0.0
 46
0.0
 47
0.0
 48
0.0
140
7.875
141
0.09
142
0.0
143
0.03937
144
1.0
145
0.0
146
1.0
147
0.6
 71
     0
 72
     0
 73
     1
 74
     1
 75
     0
 76
     0
 77
     3
 78
     8
170
     0
171
     2
172
     0
173
     1
174
     0
175
     0
176
     0
177
     0
178
     0
270
     2
271
     2
272
     4
273
     2
274
     2
340
10
275
     0
280
     0
281
     0
282
     0
283
     1
284
     0
285
     0
286
     0
287
     3
288
     0
  0
DIMSTYLE
105
27
100
AcDbSymbolTableRecord
100
AcDbDimStyleTableRecord
  2
LEADSTYL
 70
     0
  3

  4

  5

  6
_OPEN
  7
_OPEN
 40
1.0
 41
7.5
 42
0.0625
 43
0.38
 44
0.18
 45
0.0
 46
0.0
 47
0.0
 48
0.0
140
7.875
141
0.09
142
0.0
143
25.4
144
1.0
145
0.0
146
1.0
147
0.6
 71
     0
 72
     0
 73
     1
 74
     1
 75
     0
 76
     0
 77
     0
 78
     0
170
     0
171
     2
172
     0
173
     1
174
     0
175
     0
176
     0
177
     0
178
     0
270
     2
271
     4
272
     4
273
     2
274
     2
340
10
275
     0
280
     0
281
     0
282
     0
283
     1
284
     0
285
     0
286
     0
287
     3
288
     0
  0
ENDTAB
  0
TABLE
  2
BLOCK_RECORD
  5
1
100
AcDbSymbolTable
 70
    15
  0
BLOCK_RECORD
  5
20
100
AcDbSymbolTableRecord
100
AcDbBlockTableRecord
  2
*MODEL_SPACE
  0
BLOCK_RECORD
  5
23
100
AcDbSymbolTableRecord
100
AcDbBlockTableRecord
  2
*PAPER_SPACE
  0
BLOCK_RECORD
  5
28
100
AcDbSymbolTableRecord
100
AcDbBlockTableRecord
  2
_NONE
  0
BLOCK_RECORD
  5
2C
100
AcDbSymbolTableRecord
100
AcDbBlockTableRecord
  2
_OPEN
  0
BLOCK_RECORD
  5
32
100
AcDbSymbolTableRecord
100
AcDbBlockTableRecord
  2
_CLOSED
  0
BLOCK_RECORD
  5
39
100
AcDbSymbolTableRecord
100
AcDbBlockTableRecord
  2
_ORIGIN
  0
BLOCK_RECORD
  5
3E
100
AcDbSymbolTableRecord
100
AcDbBlockTableRecord
  2
_DOT
  0
BLOCK_RECORD
  5
46
100
AcDbSymbolTableRecord
100
AcDbBlockTableRecord
  2
_OBLIQUE
  0
BLOCK_RECORD
  5
4A
100
AcDbSymbolTableRecord
100
AcDbBlockTableRecord
  2
DIMS0
  0
BLOCK_RECORD
  5
56
100
AcDbSymbolTableRecord
100
AcDbBlockTableRecord
  2
DIMS1
  0
BLOCK_RECORD
  5
5F
100
AcDbSymbolTableRecord
100
AcDbBlockTableRecord
  2
DIMS2
  0
BLOCK_RECORD
  5
6B
100
AcDbSymbolTableRecord
100
AcDbBlockTableRecord
  2
DIMS3
  0
BLOCK_RECORD
  5
77
100
AcDbSymbolTableRecord
100
AcDbBlockTableRecord
  2
DIMS4
  0
BLOCK_RECORD
  5
82
100
AcDbSymbolTableRecord
100
AcDbBlockTableRecord
  2
DIMS5
  0
BLOCK_RECORD
  5
8B
100
AcDbSymbolTableRecord
100
AcDbBlockTableRecord
  2
DIMS6
  0
BLOCK_RECORD
  5
97
100
AcDbSymbolTableRecord
100
AcDbBlockTableRecord
  2
DIMS7
  0
BLOCK_RECORD
  5
A3
100
AcDbSymbolTableRecord
100
AcDbBlockTableRecord
  2
DIMS8
  0
ENDTAB
  0
ENDSEC
  0
SECTION
  2
BLOCKS
  0
BLOCK
  5
21
100
AcDbEntity
  8
0
100
AcDbBlockBegin
  2
*MODEL_SPACE
 70
     0
 10
0.0
 20
0.0
 30
0.0
  3
*MODEL_SPACE
  1

  0
ENDBLK
  5
22
100
AcDbEntity
  8
0
100
AcDbBlockEnd
  0
BLOCK
  5
24
100
AcDbEntity
 67
     1
  8
0
100
AcDbBlockBegin
  2
*PAPER_SPACE
 70
     0
 10
0.0
 20
0.0
 30
0.0
  3
*PAPER_SPACE
  1

  0
ENDBLK
  5
25
100
AcDbEntity
 67
     1
  8
0
100
AcDbBlockEnd
  0
BLOCK
  5
29
100
AcDbEntity
  8
0
100
AcDbBlockBegin
  2
_NONE
 70
     0
 10
0.0
 20
0.0
  0
CIRCLE
  5
2A
100
AcDbEntity
  8
0
 62
     0
100
AcDbCircle
 10
0.0
 20
0.0
 40
0.25
  0
ENDBLK
  5
2B
100
AcDbEntity
  8
0
100
AcDbBlockEnd
  0
BLOCK
  5
2D
100
AcDbEntity
  8
0
100
AcDbBlockBegin
  2
_OPEN
 70
     0
 10
0.0
 20
0.0
  0
LINE
  5
2E
100
AcDbEntity
  8
0
 62
     0
100
AcDbLine
 10
-0.965926
 20
0.258819
 11
0.0
 21
0.0
  0
LINE
  5
2F
100
AcDbEntity
  8
0
 62
     0
100
AcDbLine
 10
0.0
 20
0.0
 11
-0.965926
 21
-0.258819
  0
LINE
  5
30
100
AcDbEntity
  8
0
 62
     0
100
AcDbLine
 10
0.0
 20
0.0
 11
-1.0
 21
0.0
  0
ENDBLK
  5
31
100
AcDbEntity
  8
0
100
AcDbBlockEnd
  0
BLOCK
  5
33
100
AcDbEntity
  8
0
100
AcDbBlockBegin
  2
_CLOSED
 70
     0
 10
0.0
 20
0.0
  0
LINE
  5
34
100
AcDbEntity
  8
0
 62
     0
100
AcDbLine
 10
-0.965926
 20
0.258819
 11
0.0
 21
0.0
  0
LINE
  5
35
100
AcDbEntity
  8
0
 62
     0
100
AcDbLine
 10
0.0
 20
0.0
 11
-0.965926
 21
-0.258819
  0
LINE
  5
36
100
AcDbEntity
  8
0
 62
     0
100
AcDbLine
 10
-0.965926
 20
0.258819
 11
-0.965926
 21
-0.258819
  0
LINE
  5
37
100
AcDbEntity
  8
0
 62
     0
100
AcDbLine
 10
0.0
 20
0.0
 11
-1.0
 21
0.0
  0
ENDBLK
  5
38
100
AcDbEntity
  8
0
100
AcDbBlockEnd
  0
BLOCK
  5
3A
100
AcDbEntity
  8
0
100
AcDbBlockBegin
  2
_ORIGIN
 70
     0
 10
0.0
 20
0.0
  0
CIRCLE
  5
3B
100
AcDbEntity
  8
0
 62
     0
100
AcDbCircle
 10
0.0
 20
0.0
 40
0.5
  0
LINE
  5
3C
100
AcDbEntity
  8
0
 62
     0
100
AcDbLine
 10
0.0
 20
0.0
 11
-1.0
 21
0.0
  0
ENDBLK
  5
3D
100
AcDbEntity
  8
0
100
AcDbBlockEnd
  0
BLOCK
  5
3F
100
AcDbEntity
  8
0
100
AcDbBlockBegin
  2
_DOT
 70
     0
 10
0.0
 20
0.0
  0
POLYLINE
  5
40
100
AcDbEntity
  8
0
 62
     0
100
AcDb2dPolyline
 66
     1
 70
     1
 40
0.5
 41
0.5
  0
VERTEX
  5
41
100
AcDbEntity
  8
0
 62
     0
100
AcDbVertex
100
AcDb2dVertex
 10
-0.25
 20
0.0
 42
1.0
  0
VERTEX
  5
42
100
AcDbEntity
  8
0
 62
     0
100
AcDbVertex
100
AcDb2dVertex
 10
0.25
 20
0.0
 42
1.0
  0
SEQEND
  5
43
100
AcDbEntity
  8
0
 62
     0
  0
LINE
  5
44
100
AcDbEntity
  8
0
 62
     0
100
AcDbLine
 10
-0.5
 20
0.0
 11
-1.0
 21
0.0
  0
ENDBLK
  5
45
100
AcDbEntity
  8
0
100
AcDbBlockEnd
  0
BLOCK
  5
47
100
AcDbEntity
  8
0
100
AcDbBlockBegin
  2
_OBLIQUE
 70
     0
 10
0.0
 20
0.0
  0
LINE
  5
48
100
AcDbEntity
  8
0
 62
     0
100
AcDbLine
 10
-0.353553
 20
-0.353553
 11
0.353553
 21
0.353553
  0
ENDBLK
  5
49
100
AcDbEntity
  8
0
100
AcDbBlockEnd
  0
BLOCK
  5
4B
100
AcDbEntity
  8
DD0
100
AcDbBlockBegin
  2
DIMS0
 70
     0
 10
0.0
 20
0.0
  0
LINE
  5
4C
100
AcDbEntity
  8
DD0
100
AcDbLine
 10
208.037163
 20
591.141921
 11
274.051719
 21
591.141921
  0
LINE
  5
4D
100
AcDbEntity
  8
DD0
100
AcDbLine
 10
208.037163
 20
416.141923
 11
274.051719
 21
416.141923
  0
LINE
  5
4E
100
AcDbEntity
  8
DD0
100
AcDbLine
 10
273.492862
 20
583.897477
 11
271.551719
 21
591.141921
  0
LINE
  5
4F
100
AcDbEntity
  8
DD0
100
AcDbLine
 10
271.551719
 20
591.141921
 11
269.610577
 21
583.897477
  0
LINE
  5
50
100
AcDbEntity
  8
DD0
100
AcDbLine
 10
269.610577
 20
423.386367
 11
271.551719
 21
416.141923
  0
LINE
  5
51
100
AcDbEntity
  8
DD0
100
AcDbLine
 10
271.551719
 20
416.141923
 11
273.492862
 21
423.386367
  0
LINE
  5
52
100
AcDbEntity
  8
DD0
100
AcDbLine
 10
271.551719
 20
591.141921
 11
271.551719
 21
416.141923
  0
TEXT
  5
53
100
AcDbEntity
  8
DD0
100
AcDbText
 10
270.051723
 20
492.47316
 40
7.875
  1
１７５
 50
90.000003
 41
0.833333
  7
STANDARD
100
AcDbText
  0
ENDBLK
  5
54
100
AcDbEntity
  8
DD0
100
AcDbBlockEnd
  0
BLOCK
  5
57
100
AcDbEntity
  8
DD0
100
AcDbBlockBegin
  2
DIMS1
 70
     0
 10
0.0
 20
0.0
  0
LINE
  5
58
100
AcDbEntity
  8
DD0
100
AcDbLine
 10
171.837365
 20
406.141657
 11
274.051719
 21
406.141657
  0
LINE
  5
59
100
AcDbEntity
  8
DD0
100
AcDbLine
 10
273.492862
 20
398.897213
 11
271.551719
 21
406.141657
  0
LINE
  5
5A
100
AcDbEntity
  8
DD0
100
AcDbLine
 10
271.551719
 20
406.141657
 11
269.610577
 21
398.897213
  0
LINE
  5
5B
100
AcDbEntity
  8
DD0
100
AcDbLine
 10
271.551719
 20
416.141923
 11
271.551719
 21
379.641656
  0
TEXT
  5
5C
100
AcDbEntity
  8
DD0
100
AcDbText
 10
270.051723
 20
381.660402
 40
7.875
  1
１０
 50
90.000003
 41
0.833333
  7
STANDARD
100
AcDbText
  0
ENDBLK
  5
5D
100
AcDbEntity
  8
DD0
100
AcDbBlockEnd
  0
BLOCK
  5
60
100
AcDbEntity
  8
DD0
100
AcDbBlockBegin
  2
DIMS2
 70
     0
 10
0.0
 20
0.0
  0
LINE
  5
61
100
AcDbEntity
  8
DD0
100
AcDbLine
 10
111.537388
 20
577.641669
 11
111.537388
 21
630.961676
  0
LINE
  5
62
100
AcDbEntity
  8
DD0
100
AcDbLine
 10
221.537148
 20
577.641402
 11
221.537148
 21
630.961676
  0
LINE
  5
63
100
AcDbEntity
  8
DD0
100
AcDbLine
 10
118.781832
 20
630.402819
 11
111.537388
 21
628.461676
  0
LINE
  5
64
100
AcDbEntity
  8
DD0
100
AcDbLine
 10
111.537388
 20
628.461676
 11
118.781832
 21
626.520533
  0
LINE
  5
65
100
AcDbEntity
  8
DD0
100
AcDbLine
 10
214.292704
 20
626.520533
 11
221.537148
 21
628.461676
  0
LINE
  5
66
100
AcDbEntity
  8
DD0
100
AcDbLine
 10
221.537148
 20
628.461676
 11
214.292704
 21
630.402819
  0
LINE
  5
67
100
AcDbEntity
  8
DD0
100
AcDbLine
 10
111.537388
 20
628.461676
 11
221.537148
 21
628.461676
  0
TEXT
  5
68
100
AcDbEntity
  8
DD0
100
AcDbText
 10
155.36852
 20
629.961691
 40
7.875
  1
１１０
 41
0.833333
  7
STANDARD
100
AcDbText
  0
ENDBLK
  5
69
100
AcDbEntity
  8
DD0
100
AcDbBlockEnd
  0
BLOCK
  5
6C
100
AcDbEntity
  8
DD0
100
AcDbBlockBegin
  2
DIMS3
 70
     0
 10
0.0
 20
0.0
  0
LINE
  5
6D
100
AcDbEntity
  8
DD0
100
AcDbLine
 10
208.037163
 20
591.141921
 11
253.612343
 21
591.141921
  0
LINE
  5
6E
100
AcDbEntity
  8
DD0
100
AcDbLine
 10
215.543019
 20
573.641921
 11
253.612343
 21
573.641921
  0
LINE
  5
6F
100
AcDbEntity
  8
DD0
100
AcDbLine
 10
249.1712
 20
598.386364
 11
251.112343
 21
591.141921
  0
LINE
  5
70
100
AcDbEntity
  8
DD0
100
AcDbLine
 10
251.112343
 20
591.141921
 11
253.053486
 21
598.386364
  0
LINE
  5
71
100
AcDbEntity
  8
DD0
100
AcDbLine
 10
253.053486
 20
566.397478
 11
251.112343
 21
573.641921
  0
LINE
  5
72
100
AcDbEntity
  8
DD0
100
AcDbLine
 10
251.112343
 20
573.641921
 11
249.1712
 21
566.397478
  0
LINE
  5
73
100
AcDbEntity
  8
DD0
100
AcDbLine
 10
251.112343
 20
633.391919
 11
251.112343
 21
565.391921
  0
TEXT
  5
74
100
AcDbEntity
  8
DD0
100
AcDbText
 10
249.612347
 20
600.035681
 40
7.875
  1
１７．５
 50
90.000003
 41
0.833333
  7
STANDARD
100
AcDbText
  0
ENDBLK
  5
75
100
AcDbEntity
  8
DD0
100
AcDbBlockEnd
  0
BLOCK
  5
78
100
AcDbEntity
  8
DD0
100
AcDbBlockBegin
  2
DIMS4
 70
     0
 10
0.0
 20
0.0
  0
LINE
  5
79
100
AcDbEntity
  8
DD0
100
AcDbLine
 10
215.543019
 20
433.641923
 11
253.612343
 21
433.641923
  0
LINE
  5
7A
100
AcDbEntity
  8
DD0
100
AcDbLine
 10
253.053486
 20
566.397478
 11
251.112343
 21
573.641921
  0
LINE
  5
7B
100
AcDbEntity
  8
DD0
100
AcDbLine
 10
251.112343
 20
573.641921
 11
249.1712
 21
566.397478
  0
LINE
  5
7C
100
AcDbEntity
  8
DD0
100
AcDbLine
 10
249.1712
 20
440.886367
 11
251.112343
 21
433.641923
  0
LINE
  5
7D
100
AcDbEntity
  8
DD0
100
AcDbLine
 10
251.112343
 20
433.641923
 11
253.053486
 21
440.886367
  0
LINE
  5
7E
100
AcDbEntity
  8
DD0
100
AcDbLine
 10
251.112343
 20
573.641921
 11
251.112343
 21
433.641923
  0
TEXT
  5
7F
100
AcDbEntity
  8
DD0
100
AcDbText
 10
249.612347
 20
492.47316
 40
7.875
  1
１４０
 50
90.000003
 41
0.833333
  7
STANDARD
100
AcDbText
  0
ENDBLK
  5
80
100
AcDbEntity
  8
DD0
100
AcDbBlockEnd
  0
BLOCK
  5
83
100
AcDbEntity
  8
DD0
100
AcDbBlockBegin
  2
DIMS5
 70
     0
 10
0.0
 20
0.0
  0
TEXT
  5
84
100
AcDbEntity
  8
DD0
100
AcDbText
 10
254.255829
 20
356.106371
 40
7.875
  1
４－Ｍ５ネジ取付穴
 41
0.833333
  7
STANDARD
100
AcDbText
  0
LINE
  5
85
100
AcDbEntity
  8
DD0
100
AcDbLine
 10
210.580008
 20
425.663679
 11
205.179421
 21
430.867875
  0
LINE
  5
86
100
AcDbEntity
  8
DD0
100
AcDbLine
 10
205.179421
 20
430.867875
 11
207.254368
 21
423.660616
  0
LINE
  5
87
100
AcDbEntity
  8
DD0
100
AcDbLine
 10
205.179421
 20
430.867875
 11
251.112343
 21
354.606509
  0
LINE
  5
88
100
AcDbEntity
  8
DD0
100
AcDbLine
 10
251.112343
 20
354.606509
 11
326.9873
 21
354.60628
  0
ENDBLK
  5
89
100
AcDbEntity
  8
DD0
100
AcDbBlockEnd
  0
BLOCK
  5
8C
100
AcDbEntity
  8
DD0
100
AcDbBlockBegin
  2
DIMS6
 70
     0
 10
0.0
 20
0.0
  0
LINE
  5
8D
100
AcDbEntity
  8
DD0
100
AcDbLine
 10
129.037636
 20
585.148002
 11
129.037636
 21
617.218542
  0
LINE
  5
8E
100
AcDbEntity
  8
DD0
100
AcDbLine
 10
204.037148
 20
585.148002
 11
204.037148
 21
617.218542
  0
LINE
  5
8F
100
AcDbEntity
  8
DD0
100
AcDbLine
 10
136.282079
 20
616.659685
 11
129.037636
 21
614.718542
  0
LINE
  5
90
100
AcDbEntity
  8
DD0
100
AcDbLine
 10
129.037636
 20
614.718542
 11
136.282079
 21
612.7774
  0
LINE
  5
91
100
AcDbEntity
  8
DD0
100
AcDbLine
 10
196.792705
 20
612.7774
 11
204.037148
 21
614.718542
  0
LINE
  5
92
100
AcDbEntity
  8
DD0
100
AcDbLine
 10
204.037148
 20
614.718542
 11
196.792705
 21
616.659685
  0
LINE
  5
93
100
AcDbEntity
  8
DD0
100
AcDbLine
 10
129.037636
 20
614.718542
 11
204.037148
 21
614.718542
  0
TEXT
  5
94
100
AcDbEntity
  8
DD0
100
AcDbText
 10
159.306146
 20
616.218558
 40
7.875
  1
７５
 41
0.833333
  7
STANDARD
100
AcDbText
  0
ENDBLK
  5
95
100
AcDbEntity
  8
DD0
100
AcDbBlockEnd
  0
BLOCK
  5
98
100
AcDbEntity
  8
DD0
100
AcDbBlockBegin
  2
DIMS7
 70
     0
 10
0.0
 20
0.0
  0
LINE
  5
99
100
AcDbEntity
  8
DD0
100
AcDbLine
 10
307.557178
 20
587.14141
 11
307.557178
 21
617.218542
  0
LINE
  5
9A
100
AcDbEntity
  8
DD0
100
AcDbLine
 10
421.557191
 20
588.640929
 11
421.557191
 21
617.218542
  0
LINE
  5
9B
100
AcDbEntity
  8
DD0
100
AcDbLine
 10
314.801621
 20
616.659685
 11
307.557178
 21
614.718542
  0
LINE
  5
9C
100
AcDbEntity
  8
DD0
100
AcDbLine
 10
307.557178
 20
614.718542
 11
314.801621
 21
612.7774
  0
LINE
  5
9D
100
AcDbEntity
  8
DD0
100
AcDbLine
 10
414.312748
 20
612.7774
 11
421.557191
 21
614.718542
  0
LINE
  5
9E
100
AcDbEntity
  8
DD0
100
AcDbLine
 10
421.557191
 20
614.718542
 11
414.312748
 21
616.659685
  0
LINE
  5
9F
100
AcDbEntity
  8
DD0
100
AcDbLine
 10
307.557178
 20
614.718542
 11
421.557191
 21
614.718542
  0
TEXT
  5
A0
100
AcDbEntity
  8
DD0
100
AcDbText
 10
353.388422
 20
616.218558
 40
7.875
  1
１１４
 41
0.833333
  7
STANDARD
100
AcDbText
  0
ENDBLK
  5
A1
100
AcDbEntity
  8
DD0
100
AcDbBlockEnd
  0
BLOCK
  5
A4
100
AcDbEntity
  8
DD0
100
AcDbBlockBegin
  2
DIMS8
 70
     0
 10
0.0
 20
0.0
  0
LINE
  5
A5
100
AcDbEntity
  8
DD0
100
AcDbLine
 10
412.512668
 20
472.591092
 11
419.757112
 21
474.532235
  0
LINE
  5
A6
100
AcDbEntity
  8
DD0
100
AcDbLine
 10
419.757112
 20
474.532235
 11
412.512668
 21
476.473378
  0
LINE
  5
A7
100
AcDbEntity
  8
DD0
100
AcDbLine
 10
428.801635
 20
476.473378
 11
421.557191
 21
474.532235
  0
LINE
  5
A8
100
AcDbEntity
  8
DD0
100
AcDbLine
 10
421.557191
 20
474.532235
 11
428.801635
 21
472.591092
  0
LINE
  5
A9
100
AcDbEntity
  8
DD0
100
AcDbLine
 10
411.507112
 20
474.532235
 11
463.80719
 21
474.532235
  0
TEXT
  5
AA
100
AcDbEntity
  8
DD0
100
AcDbText
 10
430.450952
 20
476.03225
 40
7.875
  1
ｔ０．８
 41
0.833333
  7
STANDARD
100
AcDbText
  0
ENDBLK
  5
AB
100
AcDbEntity
  8
DD0
100
AcDbBlockEnd
  0
ENDSEC
  0
SECTION
  2
ENTITIES
  0
INSERT
  5
55
100
AcDbEntity
  8
DD0
100
AcDbBlockReference
  2
DIMS0
 10
0.0
 20
0.0
  0
INSERT
  5
5E
100
AcDbEntity
  8
DD0
100
AcDbBlockReference
  2
DIMS1
 10
0.0
 20
0.0
  0
INSERT
  5
6A
100
AcDbEntity
  8
DD0
100
AcDbBlockReference
  2
DIMS2
 10
0.0
 20
0.0
  0
INSERT
  5
76
100
AcDbEntity
  8
DD0
100
AcDbBlockReference
  2
DIMS3
 10
0.0
 20
0.0
  0
INSERT
  5
81
100
AcDbEntity
  8
DD0
100
AcDbBlockReference
  2
DIMS4
 10
0.0
 20
0.0
  0
INSERT
  5
8A
100
AcDbEntity
  8
DD0
100
AcDbBlockReference
  2
DIMS5
 10
0.0
 20
0.0
  0
INSERT
  5
96
100
AcDbEntity
  8
DD0
100
AcDbBlockReference
  2
DIMS6
 10
0.0
 20
0.0
  0
INSERT
  5
A2
100
AcDbEntity
  8
DD0
100
AcDbBlockReference
  2
DIMS7
 10
0.0
 20
0.0
  0
INSERT
  5
AC
100
AcDbEntity
  8
DD0
100
AcDbBlockReference
  2
DIMS8
 10
0.0
 20
0.0
  0
LINE
  5
AD
100
AcDbEntity
  8
M0
 62
     7
100
AcDbLine
 10
111.537369
 20
280.933655
 11
221.537156
 21
280.933655
  0
LINE
  5
AE
100
AcDbEntity
  8
M0
 62
     7
100
AcDbLine
 10
221.537156
 20
280.933655
 11
221.537156
 21
288.452454
  0
LINE
  5
AF
100
AcDbEntity
  8
M0
 62
     7
100
AcDbLine
 10
215.037156
 20
342.933655
 11
118.037369
 21
342.933411
  0
LINE
  5
B0
100
AcDbEntity
  8
M0
 62
     7
100
AcDbLine
 10
111.537369
 20
288.45221
 11
111.537369
 21
280.933655
  0
LINE
  5
B1
100
AcDbEntity
  8
M0
  6
DASHDOT
 62
     7
100
AcDbLine
 10
166.537369
 20
280.933655
 11
166.537369
 21
357.948548
  0
LINE
  5
B2
100
AcDbEntity
  8
M0
 62
     7
100
AcDbLine
 10
114.037369
 20
338.933411
 11
114.037369
 21
291.414124
  0
LINE
  5
B3
100
AcDbEntity
  8
M0
 62
     7
100
AcDbLine
 10
219.037156
 20
291.41388
 11
219.037156
 21
338.933167
  0
LINE
  5
B4
100
AcDbEntity
  8
M0
 62
     7
100
AcDbLine
 10
113.914368
 20
290.933655
 11
219.159959
 21
290.933655
  0
LINE
  5
B5
100
AcDbEntity
  8
M0
 62
     7
100
AcDbLine
 10
113.662019
 20
290.633118
 11
111.912507
 21
289.23346
  0
LINE
  5
B6
100
AcDbEntity
  8
M0
 62
     7
100
AcDbLine
 10
219.412644
 20
290.633118
 11
221.161912
 21
289.233704
  0
ARC
  5
B7
100
AcDbEntity
  8
M0
 62
     7
100
AcDbCircle
 10
113.037369
 20
291.414124
 40
1.0
100
AcDbArc
 50
308.652777
 51
360.0
  0
ARC
  5
B8
100
AcDbEntity
  8
M0
 62
     7
100
AcDbCircle
 10
220.037156
 20
291.41388
 40
1.0
100
AcDbArc
 50
180.0
 51
231.343946
  0
ARC
  5
B9
100
AcDbEntity
  8
M0
 62
     7
100
AcDbCircle
 10
220.537156
 20
288.452698
 40
1.0
100
AcDbArc
 50
359.985957
 51
411.34241
  0
ARC
  5
BA
100
AcDbEntity
  8
M0
 62
     7
100
AcDbCircle
 10
112.537369
 20
288.452454
 40
1.0
100
AcDbArc
 50
128.662358
 51
180.013988
  0
ARC
  5
BB
100
AcDbEntity
  8
M0
 62
     7
100
AcDbCircle
 10
215.037156
 20
338.933411
 40
4.0
100
AcDbArc
 50
0.0
 51
90.0
  0
ARC
  5
BC
100
AcDbEntity
  8
M0
 62
     7
100
AcDbCircle
 10
118.037369
 20
338.933411
 40
4.0
100
AcDbArc
 50
90.0
 51
180.0
  0
LINE
  5
BD
100
AcDbEntity
  8
M0
 62
     7
100
AcDbLine
 10
362.0374
 20
416.141663
 11
369.557175
 21
416.141663
  0
LINE
  5
BE
100
AcDbEntity
  8
M0
 62
     7
100
AcDbLine
 10
369.557175
 20
416.141663
 11
369.557175
 21
591.141663
  0
LINE
  5
BF
100
AcDbEntity
  8
M0
 62
     7
100
AcDbLine
 10
369.557175
 20
591.141663
 11
362.037888
 21
591.141663
  0
LINE
  5
C0
100
AcDbEntity
  8
M0
 62
     7
100
AcDbLine
 10
307.557175
 20
584.641419
 11
307.557175
 21
422.641663
  0
LINE
  5
C1
100
AcDbEntity
  8
M0
  6
DASHDOT
 62
     7
100
AcDbLine
 10
295.677537
 20
503.641663
 11
369.557175
 21
503.641663
  0
LINE
  5
C2
100
AcDbEntity
  8
M0
 62
     7
100
AcDbLine
 10
311.557175
 20
418.641663
 11
359.076218
 21
418.641663
  0
LINE
  5
C3
100
AcDbEntity
  8
M0
 62
     7
100
AcDbLine
 10
359.076707
 20
588.641663
 11
311.557175
 21
588.641419
  0
LINE
  5
C4
100
AcDbEntity
  8
M0
 62
     7
100
AcDbLine
 10
359.557175
 20
418.518372
 11
359.557175
 21
588.764221
  0
LINE
  5
C5
100
AcDbEntity
  8
M0
 62
     7
100
AcDbLine
 10
359.857224
 20
418.266419
 11
361.256638
 21
416.516907
  0
ARC
  5
C6
100
AcDbEntity
  8
M0
 62
     7
100
AcDbCircle
 10
359.076218
 20
417.641663
 40
1.0
100
AcDbArc
 50
38.657939
 51
90.0
  0
ARC
  5
C7
100
AcDbEntity
  8
M0
 62
     7
100
AcDbCircle
 10
362.0374
 20
417.141663
 40
1.0
100
AcDbArc
 50
218.665961
 51
269.999126
  0
LINE
  5
C8
100
AcDbEntity
  8
M0
 62
     7
100
AcDbLine
 10
361.256882
 20
590.76593
 11
359.857468
 21
589.016663
  0
ARC
  5
C9
100
AcDbEntity
  8
M0
 62
     7
100
AcDbCircle
 10
362.037888
 20
590.141419
 40
1.0
100
AcDbArc
 50
90.0
 51
141.353845
  0
ARC
  5
CA
100
AcDbEntity
  8
M0
 62
     7
100
AcDbCircle
 10
359.076707
 20
589.641419
 40
1.0
100
AcDbArc
 50
269.999126
 51
321.333365
  0
ARC
  5
CB
100
AcDbEntity
  8
M0
 62
     7
100
AcDbCircle
 10
311.557175
 20
584.641419
 40
4.0
100
AcDbArc
 50
90.0
 51
180.0
  0
ARC
  5
CC
100
AcDbEntity
  8
M0
 62
     7
100
AcDbCircle
 10
311.557175
 20
422.641663
 40
4.0
100
AcDbArc
 50
179.999973
 51
270.0
  0
LINE
  5
CD
100
AcDbEntity
  8
M0
 62
     7
100
AcDbLine
 10
127.537385
 20
416.141907
 11
205.537156
 21
416.141907
  0
LINE
  5
CE
100
AcDbEntity
  8
M0
 62
     7
100
AcDbLine
 10
221.537156
 20
432.141663
 11
221.537156
 21
575.141419
  0
LINE
  5
CF
100
AcDbEntity
  8
M0
 62
     7
100
AcDbLine
 10
205.537156
 20
591.141907
 11
127.537385
 21
591.141663
  0
LINE
  5
D0
100
AcDbEntity
  8
M0
 62
     7
100
AcDbLine
 10
111.537385
 20
575.141663
 11
111.537385
 21
432.141907
  0
LINE
  5
D1
100
AcDbEntity
  8
M0
  6
DASHDOT
 62
     7
100
AcDbLine
 10
96.52237
 20
503.641907
 11
236.552293
 21
503.641907
  0
LINE
  5
D2
100
AcDbEntity
  8
M0
  6
DASHDOT
 62
     7
100
AcDbLine
 10
166.537385
 20
401.12677
 11
166.537385
 21
606.156799
  0
ARC
  5
D3
100
AcDbEntity
  8
M0
 62
     7
100
AcDbCircle
 10
205.537156
 20
432.141907
 40
16.0
100
AcDbArc
 50
269.999945
 51
360.0
  0
ARC
  5
D4
100
AcDbEntity
  8
M0
 62
     7
100
AcDbCircle
 10
205.537156
 20
575.141663
 40
16.0
100
AcDbArc
 50
0.0
 51
90.0
  0
ARC
  5
D5
100
AcDbEntity
  8
M0
 62
     7
100
AcDbCircle
 10
127.537385
 20
575.141663
 40
16.0
100
AcDbArc
 50
90.0
 51
180.0
  0
ARC
  5
D6
100
AcDbEntity
  8
M0
 62
     7
100
AcDbCircle
 10
127.537385
 20
432.141907
 40
16.0
100
AcDbArc
 50
180.0
 51
269.999945
  0
LINE
  5
D7
100
AcDbEntity
  8
M0
 62
     7
100
AcDbLine
 10
114.037385
 20
575.141663
 11
114.037385
 21
432.141907
  0
LINE
  5
D8
100
AcDbEntity
  8
M0
 62
     7
100
AcDbLine
 10
127.537385
 20
418.641907
 11
205.537156
 21
418.641907
  0
LINE
  5
D9
100
AcDbEntity
  8
M0
 62
     7
100
AcDbLine
 10
219.037156
 20
432.141663
 11
219.037156
 21
575.141419
  0
LINE
  5
DA
100
AcDbEntity
  8
M0
 62
     7
100
AcDbLine
 10
205.537156
 20
588.641907
 11
127.537385
 21
588.641663
  0
ARC
  5
DB
100
AcDbEntity
  8
M0
 62
     7
100
AcDbCircle
 10
205.537156
 20
575.141663
 40
13.499995
100
AcDbArc
 50
0.0
 51
90.0
  0
ARC
  5
DC
100
AcDbEntity
  8
M0
 62
     7
100
AcDbCircle
 10
127.537385
 20
575.141663
 40
13.499995
100
AcDbArc
 50
90.0
 51
180.0
  0
ARC
  5
DD
100
AcDbEntity
  8
M0
 62
     7
100
AcDbCircle
 10
127.537385
 20
432.141907
 40
13.499995
100
AcDbArc
 50
180.0
 51
269.999943
  0
ARC
  5
DE
100
AcDbEntity
  8
M0
 62
     7
100
AcDbCircle
 10
205.537156
 20
432.141907
 40
13.499995
100
AcDbArc
 50
269.999935
 51
360.0
  0
LINE
  5
DF
100
AcDbEntity
  8
M0
 62
     4
100
AcDbLine
 10
369.557175
 20
417.141419
 11
417.557175
 21
417.141419
  0
LINE
  5
E0
100
AcDbEntity
  8
M0
 62
     4
100
AcDbLine
 10
421.557175
 20
421.141174
 11
421.557175
 21
586.14093
  0
LINE
  5
E1
100
AcDbEntity
  8
M0
 62
     4
100
AcDbLine
 10
417.557175
 20
590.141419
 11
369.557175
 21
590.141174
  0
LINE
  5
E2
100
AcDbEntity
  8
M0
  6
DASHDOT
 62
     4
100
AcDbLine
 10
369.557175
 20
503.641419
 11
449.298341
 21
503.641419
  0
ARC
  5
E3
100
AcDbEntity
  8
M0
 62
     4
100
AcDbCircle
 10
417.557175
 20
421.141419
 40
4.0
100
AcDbArc
 50
269.999781
 51
360.0
  0
ARC
  5
E4
100
AcDbEntity
  8
M0
 62
     4
100
AcDbCircle
 10
417.557175
 20
586.141174
 40
4.0
100
AcDbArc
 50
0.0
 51
90.0
  0
LINE
  5
E5
100
AcDbEntity
  8
M0
  6
DASHED
 62
     4
100
AcDbLine
 10
419.757127
 20
426.465881
 11
419.757127
 21
580.279114
  0
LINE
  5
E6
100
AcDbEntity
  8
M0
 62
     4
100
AcDbLine
 10
117.0374
 20
228.933655
 11
216.0374
 21
228.933655
  0
LINE
  5
E7
100
AcDbEntity
  8
M0
 62
     4
100
AcDbLine
 10
220.0374
 20
232.933411
 11
220.0374
 21
280.933655
  0
LINE
  5
E8
100
AcDbEntity
  8
M0
 62
     4
100
AcDbLine
 10
113.0374
 20
280.933655
 11
113.0374
 21
232.933655
  0
ARC
  5
E9
100
AcDbEntity
  8
M0
 62
     4
100
AcDbCircle
 10
216.0374
 20
232.933655
 40
4.0
100
AcDbArc
 50
269.999781
 51
360.0
  0
ARC
  5
EA
100
AcDbEntity
  8
M0
 62
     4
100
AcDbCircle
 10
117.0374
 20
232.933655
 40
4.0
100
AcDbArc
 50
179.999973
 51
270.0
  0
CIRCLE
  5
EB
100
AcDbEntity
  8
M0
 62
     4
100
AcDbCircle
 10
149.0374
 20
258.933411
 40
10.999996
  0
LINE
  5
EC
100
AcDbEntity
  8
M0
  6
DASHDOT
 62
     4
100
AcDbLine
 10
166.043259
 20
258.933411
 11
132.031296
 21
258.933411
  0
LINE
  5
ED
100
AcDbEntity
  8
M0
  6
DASHDOT
 62
     4
100
AcDbLine
 10
149.037156
 20
275.93927
 11
149.0374
 21
241.927307
  0
CIRCLE
  5
EE
100
AcDbEntity
  8
M0
 62
     4
100
AcDbCircle
 10
184.0374
 20
258.933411
 40
10.999996
  0
LINE
  5
EF
100
AcDbEntity
  8
M0
  6
DASHDOT
 62
     4
100
AcDbLine
 10
201.043259
 20
258.933411
 11
167.031296
 21
258.933411
  0
LINE
  5
F0
100
AcDbEntity
  8
M0
  6
DASHDOT
 62
     4
100
AcDbLine
 10
184.037156
 20
275.93927
 11
184.0374
 21
241.927307
  0
LINE
  5
F1
100
AcDbEntity
  8
M0
  6
DASHDOT
 62
     4
100
AcDbLine
 10
166.5374
 20
280.933655
 11
166.5374
 21
223.075409
  0
CIRCLE
  5
F2
100
AcDbEntity
  8
M0
  6
DASHED
 62
     4
100
AcDbCircle
 10
204.037156
 20
433.641907
 40
3.0
  0
LINE
  5
F3
100
AcDbEntity
  8
M0
  6
DASHDOT
 62
     4
100
AcDbLine
 10
213.043015
 20
433.641907
 11
195.031052
 21
433.641907
  0
LINE
  5
F4
100
AcDbEntity
  8
M0
  6
DASHDOT
 62
     4
100
AcDbLine
 10
204.037156
 20
442.647766
 11
204.037156
 21
424.635803
  0
CIRCLE
  5
F5
100
AcDbEntity
  8
M0
  6
DASHED
 62
     4
100
AcDbCircle
 10
129.037644
 20
433.641907
 40
3.0
  0
LINE
  5
F6
100
AcDbEntity
  8
M0
  6
DASHDOT
 62
     4
100
AcDbLine
 10
120.031787
 20
433.641913
 11
138.043746
 21
433.641901
  0
LINE
  5
F7
100
AcDbEntity
  8
M0
  6
DASHDOT
 62
     4
100
AcDbLine
 10
129.03765
 20
442.647764
 11
129.037638
 21
424.635805
  0
CIRCLE
  5
F8
100
AcDbEntity
  8
M0
  6
DASHED
 62
     4
100
AcDbCircle
 10
129.037644
 20
573.641907
 40
3.0
  0
LINE
  5
F9
100
AcDbEntity
  8
M0
  6
DASHDOT
 62
     4
100
AcDbLine
 10
120.031787
 20
573.641901
 11
138.043746
 21
573.641913
  0
LINE
  5
FA
100
AcDbEntity
  8
M0
  6
DASHDOT
 62
     4
100
AcDbLine
 10
129.03765
 20
564.636049
 11
129.037638
 21
582.648008
  0
CIRCLE
  5
FB
100
AcDbEntity
  8
M0
  6
DASHED
 62
     4
100
AcDbCircle
 10
204.037156
 20
573.641907
 40
3.0
  0
LINE
  5
FC
100
AcDbEntity
  8
M0
  6
DASHDOT
 62
     4
100
AcDbLine
 10
213.043015
 20
573.641907
 11
195.031052
 21
573.641907
  0
LINE
  5
FD
100
AcDbEntity
  8
M0
  6
DASHDOT
 62
     4
100
AcDbLine
 10
204.037156
 20
564.636048
 11
204.037156
 21
582.64801
  0
LINE
  5
FE
100
AcDbEntity
  8
M0
 62
     6
100
AcDbLine
 10
163.737382
 20
406.141663
 11
169.337373
 21
406.141663
  0
LINE
  5
FF
100
AcDbEntity
  8
M0
 62
     6
100
AcDbLine
 10
170.537385
 20
407.341614
 11
170.537385
 21
416.141663
  0
LINE
  5
100
100
AcDbEntity
  8
M0
 62
     6
100
AcDbLine
 10
170.537385
 20
416.141663
 11
162.537385
 21
416.141663
  0
LINE
  5
101
100
AcDbEntity
  8
M0
 62
     6
100
AcDbLine
 10
162.537385
 20
416.141663
 11
162.537385
 21
407.341614
  0
LINE
  5
102
100
AcDbEntity
  8
M0
 62
     6
100
AcDbLine
 10
169.337373
 20
406.141663
 11
170.537385
 21
407.341614
  0
LINE
  5
103
100
AcDbEntity
  8
M0
 62
     6
100
AcDbLine
 10
162.537385
 20
407.341614
 11
163.737382
 21
406.141663
  0
LINE
  5
104
100
AcDbEntity
  8
M0
 62
     6
100
AcDbLine
 10
162.537385
 20
407.341614
 11
170.537385
 21
407.341614
  0
LINE
  5
105
100
AcDbEntity
  8
M0
 62
     6
100
AcDbLine
 10
167.537385
 20
407.341614
 11
167.537385
 21
416.141663
  0
LINE
  5
106
100
AcDbEntity
  8
M0
 62
     6
100
AcDbLine
 10
165.537385
 20
416.141663
 11
165.537385
 21
407.341614
  0
LINE
  5
107
100
AcDbEntity
  8
M0
 62
     6
100
AcDbLine
 10
169.537385
 20
407.341614
 11
169.537385
 21
416.141663
  0
LINE
  5
108
100
AcDbEntity
  8
M0
 62
     6
100
AcDbLine
 10
163.537385
 20
416.141663
 11
163.537385
 21
407.341614
  0
LINE
  5
109
100
AcDbEntity
  8
M0
 62
     6
100
AcDbLine
 10
361.755418
 20
406.141663
 11
367.355408
 21
406.141663
  0
LINE
  5
10A
100
AcDbEntity
  8
M0
 62
     6
100
AcDbLine
 10
368.555421
 20
407.341614
 11
368.555421
 21
416.141663
  0
LINE
  5
10B
100
AcDbEntity
  8
M0
 62
     6
100
AcDbLine
 10
368.555421
 20
416.141663
 11
360.555421
 21
416.141663
  0
LINE
  5
10C
100
AcDbEntity
  8
M0
 62
     6
100
AcDbLine
 10
360.555421
 20
416.141663
 11
360.555421
 21
407.341614
  0
LINE
  5
10D
100
AcDbEntity
  8
M0
  6
DASHDOT
 62
     6
100
AcDbLine
 10
364.555421
 20
391.126526
 11
364.555421
 21
431.156555
  0
LINE
  5
10E
100
AcDbEntity
  8
M0
 62
     6
100
AcDbLine
 10
367.355408
 20
406.141663
 11
368.555421
 21
407.341614
  0
LINE
  5
10F
100
AcDbEntity
  8
M0
 62
     6
100
AcDbLine
 10
360.555421
 20
407.341614
 11
361.755418
 21
406.141663
  0
LINE
  5
110
100
AcDbEntity
  8
M0
 62
     6
100
AcDbLine
 10
360.555421
 20
407.341614
 11
368.555421
 21
407.341614
  0
LINE
  5
111
100
AcDbEntity
  8
M0
 62
     6
100
AcDbLine
 10
365.555421
 20
407.341614
 11
365.555421
 21
416.141663
  0
LINE
  5
112
100
AcDbEntity
  8
M0
 62
     6
100
AcDbLine
 10
363.555421
 20
416.141663
 11
363.555421
 21
407.341614
  0
LINE
  5
113
100
AcDbEntity
  8
M0
 62
     6
100
AcDbLine
 10
367.555421
 20
407.341614
 11
367.555421
 21
416.141663
  0
LINE
  5
114
100
AcDbEntity
  8
M0
 62
     6
100
AcDbLine
 10
361.555421
 20
416.141663
 11
361.555421
 21
407.341614
  0
CIRCLE
  5
115
100
AcDbEntity
  8
M0
 62
     6
100
AcDbCircle
 10
166.5374
 20
285.933411
 40
4.0
  0
LINE
  5
116
100
AcDbEntity
  8
M0
  6
DASHDOT
 62
     6
100
AcDbLine
 10
174.543259
 20
285.933411
 11
158.531296
 21
285.933411
  0
LINE
  5
117
100
AcDbEntity
  8
M0
 62
     2
100
AcDbLine
 10
404.475602
 20
414.541184
 11
408.6382
 21
414.541184
  0
LINE
  5
118
100
AcDbEntity
  8
M0
 62
     2
100
AcDbLine
 10
410.056931
 20
417.141174
 11
403.056931
 21
417.141174
  0
ARC
  5
119
100
AcDbEntity
  8
M0
 62
     2
100
AcDbCircle
 10
408.6382
 20
415.841171
 40
1.299999
100
AcDbArc
 50
270.0
 51
354.999582
  0
LINE
  5
11A
100
AcDbEntity
  8
M0
 62
     2
100
AcDbLine
 10
403.056916
 20
417.141159
 11
403.180558
 21
415.72786
  0
LINE
  5
11B
100
AcDbEntity
  8
M0
 62
     2
100
AcDbLine
 10
410.056916
 20
417.141159
 11
409.933259
 21
415.72786
  0
ARC
  5
11C
100
AcDbEntity
  8
M0
 62
     2
100
AcDbCircle
 10
404.475602
 20
415.841171
 40
1.299999
100
AcDbArc
 50
185.000415
 51
270.0
  0
CIRCLE
  5
11D
100
AcDbEntity
  8
M0
 62
     2
100
AcDbCircle
 10
166.5374
 20
243.933411
 40
3.499996
  0
LINE
  5
11E
100
AcDbEntity
  8
M0
  6
DASHDOT
 62
     2
100
AcDbLine
 10
174.543259
 20
243.933411
 11
158.531296
 21
243.933411
  0
LINE
  5
11F
100
AcDbEntity
  8
M0
 62
     2
100
AcDbLine
 10
168.325135
 20
242.145569
 11
164.860932
 21
245.609924
  0
LINE
  5
120
100
AcDbEntity
  8
M0
 62
     2
100
AcDbLine
 10
166.794739
 20
245.604553
 11
164.831589
 21
243.641419
  0
LINE
  5
121
100
AcDbEntity
  8
M0
 62
     2
100
AcDbLine
 10
168.208955
 20
244.190491
 11
166.245789
 21
242.227356
  0
LINE
  5
122
100
AcDbEntity
  8
M0
100
AcDbLine
 10
174.042552
 20
223.075442
 11
159.032248
 21
223.075442
  0
LINE
  5
123
100
AcDbEntity
  8
M0
100
AcDbLine
 10
171.255189
 20
220.075012
 11
161.819566
 21
220.075012
  0
LINE
  5
124
100
AcDbEntity
  8
M0
100
AcDbLine
 10
168.46785
 20
217.075012
 11
164.606904
 21
217.075012
  0
LINE
  5
125
100
AcDbEntity
  8
M1
 62
     2
100
AcDbLine
 10
25.0
 20
25.0
 11
25.0
 21
712.499989
  0
LINE
  5
126
100
AcDbEntity
  8
M1
 62
     2
100
AcDbLine
 10
25.0
 20
712.499989
 11
499.999993
 21
712.499989
  0
LINE
  5
127
100
AcDbEntity
  8
M1
 62
     2
100
AcDbLine
 10
499.999993
 20
712.499989
 11
499.999993
 21
25.0
  0
LINE
  5
128
100
AcDbEntity
  8
M1
 62
     2
100
AcDbLine
 10
499.999993
 20
25.0
 11
25.0
 21
25.0
  0
LINE
  5
129
100
AcDbEntity
  8
M1
 62
     2
100
AcDbLine
 10
499.999993
 20
49.999999
 11
249.999996
 21
49.999999
  0
LINE
  5
12A
100
AcDbEntity
  8
M1
 62
     2
100
AcDbLine
 10
499.999993
 20
74.999999
 11
249.999996
 21
74.999999
  0
LINE
  5
12B
100
AcDbEntity
  8
M1
 62
     2
100
AcDbLine
 10
499.999993
 20
99.999999
 11
249.999996
 21
99.999999
  0
LINE
  5
12C
100
AcDbEntity
  8
M1
 62
     2
100
AcDbLine
 10
249.999996
 20
25.0
 11
249.999996
 21
99.999999
  0
TEXT
  5
12D
100
AcDbEntity
  8
M1
 62
     2
100
AcDbText
 10
256.249996
 20
31.25
 40
12.5
  1
適　用；
  7
STANDARD
100
AcDbText
  0
TEXT
  5
12E
100
AcDbEntity
  8
M1
 62
     2
100
AcDbText
 10
256.249996
 20
81.249999
 40
12.5
  1
登録名：
  7
STANDARD
100
AcDbText
  0
TEXT
  5
12F
100
AcDbEntity
  8
M1
 62
     2
100
AcDbText
 10
316.249995
 20
81.249999
 40
12.5
  1
ＤＭＳＨＳ２０ＴＲ００
 41
0.5
  7
STANDARD
100
AcDbText
  0
TEXT
  5
130
100
AcDbEntity
  8
M1
 62
     2
100
AcDbText
 10
256.249996
 20
56.249999
 40
12.5
  1
形　式；
  7
STANDARD
100
AcDbText
  0
TEXT
  5
131
100
AcDbEntity
  8
M1
 62
     2
100
AcDbText
 10
316.249995
 20
56.249999
 40
12.5
  1
ＳＨＳ２０－Ｔ
 41
0.5
  7
STANDARD
100
AcDbText
  0
ENDSEC
  0
SECTION
  2
OBJECTS
  0
DICTIONARY
  5
C
100
AcDbDictionary
  3
ACAD_GROUP
350
D
  3
ACAD_MLINESTYLE
350
E
  0
DICTIONARY
  5
D
102
{ACAD_REACTORS
330
C
102
}
100
AcDbDictionary
  0
DICTIONARY
  5
E
102
{ACAD_REACTORS
330
C
102
}
100
AcDbDictionary
  3
STANDARD
350
13
  0
MLINESTYLE
  5
13
102
{ACAD_REACTORS
330
E
102
}
100
AcDbMlineStyle
  2
STANDARD
 70
     0
  3

 62
     0
 51
90.0
 52
90.0
 71
     2
 49
0.5
 62
   256
  6
BYLAYER
 49
-0.5
 62
   256
  6
BYLAYER
  0
ENDSEC
  0
EOF
