  0
SECTION
  2
HEADER
  9
$ACADVER
  1
AC1014
  9
$INSBASE
 10
0.000000
 20
0.000000
 30
0.0
  9
$VIEWCTR
 10
7.531722
 20
4.5
  9
$VIEWSIZE
 40
9.0
  9
$SNAPMODE
 70
     0
  9
$SNAPUNIT
 10
1.0
 20
1.0
  9
$SNAPBASE
 10
0.0
 20
0.0
  9
$SNAPANG
 50
0.0
  9
$SNAPSTYLE
 70
     0
  9
$SNAPISOPAIR
 70
     0
  9
$GRIDMODE
 70
     0
  9
$GRIDUNIT
 10
0.0
 20
0.0
  9
$ORTHOMODE
 70
     0
  9
$REGENMODE
 70
     1
  9
$FILLMODE
 70
     1
  9
$QTEXTMODE
 70
     0
  9
$DRAGMODE
 70
     2
  9
$LTSCALE
  40
     1.000000
  9
$OSMODE
 70
     0
  9
$ATTMODE
 70
     1
  9
$TEXTSIZE
 40
0.2
  9
$TRACEWID
 40
0.05
  9
$TEXTSTYLE
  7
STANDARD
  9
$CELTYPE
  6
BYLAYER
  9
$CECOLOR
 62
   256
  9
$DIMSCALE
 40
1.0
  9
$DIMASZ
 40
0.18
  9
$DIMEXO
 40
0.0625
  9
$DIMDLI
 40
0.38
  9
$DIMRND
 40
0.0
  9
$DIMDLE
 40
0.0
  9
$DIMEXE
 40
0.18
  9
$DIMTP
 40
0.0
  9
$DIMTM
 40
0.0
  9
$DIMTXT
 40
0.18
  9
$DIMCEN
 40
0.09
  9
$DIMTSZ
 40
0.0
  9
$DIMTOL
 70
     0
  9
$DIMLIM
 70
     0
  9
$DIMTIH
 70
     1
  9
$DIMTOH
 70
     1
  9
$DIMSE1
 70
     0
  9
$DIMSE2
 70
     0
  9
$DIMTAD
 70
     0
  9
$DIMZIN
 70
     0
  9
$DIMBLK
  1

  9
$LUNITS
 70
     2
  9
$LUPREC
 70
     4
  9
$AXISMODE
 70
     0
  9
$AXISUNIT
 10
0.0
 20
0.0
  9
$SKETCHINC
 40
0.1
  9
$FILLETRAD
 40
0.0
  9
$AUNITS
 70
     0
  9
$AUPREC
 70
     0
  9
$MENU
  1
ACAD
  9
$ELEVATION
 40
0.0
  9
$THICKNESS
 40
0.0
  9
$VIEWDIR
 10
0.0
 20
0.0
 30
1.0
  9
$LIMCHECK
 70
     0
  9
$BLIPMODE
 70
     1
  9
$CHAMFERA
 40
0.0
  9
$CHAMFERB
 40
0.0
  9
$FASTZOOM
 70
     1
  9
$SKPOLY
 70
     0
  9
$TDCREATE
 40
0000000.0000000000
  9
$TDUPDATE
 40
0000000.0000000000
  9
$TDINDWG
 40
0.0000000000
  9
$TDUSRTIMER
 40
0.0000000000
  9
$USRTIMER
 70
     1
  9
$ANGBASE
 50
0.0
  9
$ANGDIR
 70
     0
  9
$PDMODE
 70
     0
  9
$PDSIZE
 40
0.0
  9
$PLINEWID
 40
0.0
  9
$COORDS
 70
     0
  9
$USERI1
 70
     0
  9
$USERI2
 70
     0
  9
$USERI3
 70
     0
  9
$USERI4
 70
     0
  9
$USERI5
 70
     0
  9
$USERR1
 40
0.0
  9
$USERR2
 40
0.0
  9
$USERR3
 40
0.0
  9
$USERR4
 40
0.0
  9
$USERR5
 40
0.0
  9
$CLAYER
  8
M0
  9
$EXTMIN
 10
33.333332
 20
33.333332
  9
$EXTMAX
 10
666.66664
 20
949.999962
  9
$LIMMIN
 10
0.0
 20
0.0
  9
$LIMMAX
 10
210.0
 20
297.0
  9
$HANDSEED
  5
153
  0
ENDSEC
  0
SECTION
  2
CLASSES
  0
ENDSEC
  0
SECTION
  2
TABLES
  0
TABLE
  2
VPORT
  5
8
100
AcDbSymbolTable
 70
     2
  0
VPORT
  5
14
100
AcDbSymbolTableRecord
100
AcDbViewportTableRecord
  2
*ACTIVE
 70
     0
 10
0.0
 20
0.0
 11
1.0
 21
1.0
 12
484.0
 22
297.0
 13
0.0
 23
0.0
 14
1.0
 24
1.0
 15
0.0
 25
0.0
 16
0.0
 26
0.0
 36
1.0
 17
0.0
 27
0.0
 37
0.0
 40
594.0
 41
2.0
 42
50.0
 43
0.0
 44
0.0
 50
0.0
 51
0.0
 71
     0
 72
   100
 73
     1
 74
     1
 75
     0
 76
     0
 77
     0
 78
     0
  0
ENDTAB
  0
TABLE
  2
LTYPE
  5
5
100
AcDbSymbolTable
 70
     5
  0
LTYPE
  5
15
100
AcDbSymbolTableRecord
100
AcDbLinetypeTableRecord
  2
BYBLOCK
 70
     0
  3

 72
    65
 73
     0
 40
0.0
  0
LTYPE
  5
16
100
AcDbSymbolTableRecord
100
AcDbLinetypeTableRecord
  2
BYLAYER
 70
     0
  3

 72
    65
 73
     0
 40
0.0
  0
LTYPE
  5
17
100
AcDbSymbolTableRecord
100
AcDbLinetypeTableRecord
  2
CONTINUOUS
 70
    64
  3
Solid line
 72
    65
 73
     0
 40
0.0
  0
LTYPE
  5
18
100
AcDbSymbolTableRecord
100
AcDbLinetypeTableRecord
  2
DASHED
 70
    64
  3
__ __ __ __ __ __ __ __ __ __ __ __ __ __ __ __
 72
    65
 73
     2
 40
0.75
 49
0.5
 74
     0
 49
-0.25
 74
     0
  0
LTYPE
  5
19
100
AcDbSymbolTableRecord
100
AcDbLinetypeTableRecord
  2
DASHDOT
 70
    64
  3
__ . __ . __ . __ . __ . __ . __ . __ . __ . __
 72
    65
 73
     4
 40
1.0
 49
0.5
 74
     0
 49
-0.25
 74
     0
 49
0.0
 74
     0
 49
-0.25
 74
     0
  0
LTYPE
  5
1A
100
AcDbSymbolTableRecord
100
AcDbLinetypeTableRecord
  2
DIVIDE
 70
    64
  3
____ . . ____ . . ____ . . ____ . . ____ . . __
 72
    65
 73
     6
 40
1.25
 49
0.5
 74
     0
 49
-0.25
 74
     0
 49
0.0
 74
     0
 49
-0.25
 74
     0
 49
0.0
 74
     0
 49
-0.25
 74
     0
  0
LTYPE
  5
1B
100
AcDbSymbolTableRecord
100
AcDbLinetypeTableRecord
  2
DOT
 70
    64
  3
. . . . . . . . . . . . . . . . . . . . . . . .
 72
    65
 73
     2
 40
0.25
 49
0.0
 74
     0
 49
-0.25
 74
     0
  0
ENDTAB
  0
TABLE
  2
LAYER
  5
2
100
AcDbSymbolTable
 70
   102
  0
LAYER
  5
F
100
AcDbSymbolTableRecord
100
AcDbLayerTableRecord
  2
0
 70
     0
 62
     7
  6
CONTINUOUS
  0
LAYER
  5
1C
100
AcDbSymbolTableRecord
100
AcDbLayerTableRecord
  2
DEFPOINTS
 70
     0
 62
     7
  6
CONTINUOUS
  0
LAYER
  5
1D
100
AcDbSymbolTableRecord
100
AcDbLayerTableRecord
  2
M0
 70
     0
 62
     3
  6
CONTINUOUS
  0
LAYER
  5
1E
100
AcDbSymbolTableRecord
100
AcDbLayerTableRecord
  2
M1
 70
     0
 62
     3
  6
CONTINUOUS
  0
LAYER
  5
1F
100
AcDbSymbolTableRecord
100
AcDbLayerTableRecord
  2
DD0
 70
     0
 62
     4
  6
CONTINUOUS
  0
ENDTAB
  0
TABLE
  2
STYLE
  5
3
100
AcDbSymbolTable
 70
     2
  0
STYLE
  5
10
100
AcDbSymbolTableRecord
100
AcDbTextStyleTableRecord
  2
STANDARD
 70
     0
 40
0.0
 41
1.0
 50
0.0
 71
     0
 42
0.2
  3
txt
  4
BIGFONT
  0
ENDTAB
  0
TABLE
  2
VIEW
  5
6
100
AcDbSymbolTable
 70
     0
  0
ENDTAB
  0
TABLE
  2
UCS
  5
7
100
AcDbSymbolTable
 70
     0
  0
ENDTAB
  0
TABLE
  2
APPID
  5
9
100
AcDbSymbolTable
 70
     1
  0
APPID
  5
11
100
AcDbSymbolTableRecord
100
AcDbRegAppTableRecord
  2
ACAD
 70
     0
  0
ENDTAB
  0
TABLE
  2
DIMSTYLE
  5
A
100
AcDbSymbolTable
 70
     2
  0
DIMSTYLE
105
26
100
AcDbSymbolTableRecord
100
AcDbDimStyleTableRecord
  2
STANDARD
 70
     0
  3

  4

  5

  6
_OPEN
  7
_OPEN
 40
1.0
 41
10.0
 42
1.0
 43
8.0
 44
1.0
 45
0.0
 46
0.0
 47
0.0
 48
0.0
140
10.5
141
0.09
142
0.0
143
0.03937
144
1.0
145
0.0
146
1.0
147
0.6
 71
     0
 72
     0
 73
     1
 74
     1
 75
     0
 76
     0
 77
     3
 78
     8
170
     0
171
     2
172
     0
173
     1
174
     0
175
     0
176
     0
177
     0
178
     0
270
     2
271
     2
272
     4
273
     2
274
     2
340
10
275
     0
280
     0
281
     0
282
     0
283
     1
284
     0
285
     0
286
     0
287
     3
288
     0
  0
DIMSTYLE
105
27
100
AcDbSymbolTableRecord
100
AcDbDimStyleTableRecord
  2
LEADSTYL
 70
     0
  3

  4

  5

  6
_OPEN
  7
_OPEN
 40
1.0
 41
10.0
 42
0.0625
 43
0.38
 44
0.18
 45
0.0
 46
0.0
 47
0.0
 48
0.0
140
10.5
141
0.09
142
0.0
143
25.4
144
1.0
145
0.0
146
1.0
147
0.6
 71
     0
 72
     0
 73
     1
 74
     1
 75
     0
 76
     0
 77
     0
 78
     0
170
     0
171
     2
172
     0
173
     1
174
     0
175
     0
176
     0
177
     0
178
     0
270
     2
271
     4
272
     4
273
     2
274
     2
340
10
275
     0
280
     0
281
     0
282
     0
283
     1
284
     0
285
     0
286
     0
287
     3
288
     0
  0
ENDTAB
  0
TABLE
  2
BLOCK_RECORD
  5
1
100
AcDbSymbolTable
 70
    16
  0
BLOCK_RECORD
  5
20
100
AcDbSymbolTableRecord
100
AcDbBlockTableRecord
  2
*MODEL_SPACE
  0
BLOCK_RECORD
  5
23
100
AcDbSymbolTableRecord
100
AcDbBlockTableRecord
  2
*PAPER_SPACE
  0
BLOCK_RECORD
  5
28
100
AcDbSymbolTableRecord
100
AcDbBlockTableRecord
  2
_NONE
  0
BLOCK_RECORD
  5
2C
100
AcDbSymbolTableRecord
100
AcDbBlockTableRecord
  2
_OPEN
  0
BLOCK_RECORD
  5
32
100
AcDbSymbolTableRecord
100
AcDbBlockTableRecord
  2
_CLOSED
  0
BLOCK_RECORD
  5
39
100
AcDbSymbolTableRecord
100
AcDbBlockTableRecord
  2
_ORIGIN
  0
BLOCK_RECORD
  5
3E
100
AcDbSymbolTableRecord
100
AcDbBlockTableRecord
  2
_DOT
  0
BLOCK_RECORD
  5
46
100
AcDbSymbolTableRecord
100
AcDbBlockTableRecord
  2
_OBLIQUE
  0
BLOCK_RECORD
  5
4A
100
AcDbSymbolTableRecord
100
AcDbBlockTableRecord
  2
DIMS0
  0
BLOCK_RECORD
  5
56
100
AcDbSymbolTableRecord
100
AcDbBlockTableRecord
  2
DIMS1
  0
BLOCK_RECORD
  5
62
100
AcDbSymbolTableRecord
100
AcDbBlockTableRecord
  2
DIMS2
  0
BLOCK_RECORD
  5
6B
100
AcDbSymbolTableRecord
100
AcDbBlockTableRecord
  2
DIMS3
  0
BLOCK_RECORD
  5
77
100
AcDbSymbolTableRecord
100
AcDbBlockTableRecord
  2
DIMS4
  0
BLOCK_RECORD
  5
7C
100
AcDbSymbolTableRecord
100
AcDbBlockTableRecord
  2
DIMS5
  0
BLOCK_RECORD
  5
88
100
AcDbSymbolTableRecord
100
AcDbBlockTableRecord
  2
DIMS6
  0
BLOCK_RECORD
  5
94
100
AcDbSymbolTableRecord
100
AcDbBlockTableRecord
  2
DIMS7
  0
BLOCK_RECORD
  5
A0
100
AcDbSymbolTableRecord
100
AcDbBlockTableRecord
  2
DIMS8
  0
BLOCK_RECORD
  5
AC
100
AcDbSymbolTableRecord
100
AcDbBlockTableRecord
  2
DIMS9
  0
ENDTAB
  0
ENDSEC
  0
SECTION
  2
BLOCKS
  0
BLOCK
  5
21
100
AcDbEntity
  8
0
100
AcDbBlockBegin
  2
*MODEL_SPACE
 70
     0
 10
0.0
 20
0.0
 30
0.0
  3
*MODEL_SPACE
  1

  0
ENDBLK
  5
22
100
AcDbEntity
  8
0
100
AcDbBlockEnd
  0
BLOCK
  5
24
100
AcDbEntity
 67
     1
  8
0
100
AcDbBlockBegin
  2
*PAPER_SPACE
 70
     0
 10
0.0
 20
0.0
 30
0.0
  3
*PAPER_SPACE
  1

  0
ENDBLK
  5
25
100
AcDbEntity
 67
     1
  8
0
100
AcDbBlockEnd
  0
BLOCK
  5
29
100
AcDbEntity
  8
0
100
AcDbBlockBegin
  2
_NONE
 70
     0
 10
0.0
 20
0.0
  0
CIRCLE
  5
2A
100
AcDbEntity
  8
0
 62
     0
100
AcDbCircle
 10
0.0
 20
0.0
 40
0.25
  0
ENDBLK
  5
2B
100
AcDbEntity
  8
0
100
AcDbBlockEnd
  0
BLOCK
  5
2D
100
AcDbEntity
  8
0
100
AcDbBlockBegin
  2
_OPEN
 70
     0
 10
0.0
 20
0.0
  0
LINE
  5
2E
100
AcDbEntity
  8
0
 62
     0
100
AcDbLine
 10
-0.965926
 20
0.258819
 11
0.0
 21
0.0
  0
LINE
  5
2F
100
AcDbEntity
  8
0
 62
     0
100
AcDbLine
 10
0.0
 20
0.0
 11
-0.965926
 21
-0.258819
  0
LINE
  5
30
100
AcDbEntity
  8
0
 62
     0
100
AcDbLine
 10
0.0
 20
0.0
 11
-1.0
 21
0.0
  0
ENDBLK
  5
31
100
AcDbEntity
  8
0
100
AcDbBlockEnd
  0
BLOCK
  5
33
100
AcDbEntity
  8
0
100
AcDbBlockBegin
  2
_CLOSED
 70
     0
 10
0.0
 20
0.0
  0
LINE
  5
34
100
AcDbEntity
  8
0
 62
     0
100
AcDbLine
 10
-0.965926
 20
0.258819
 11
0.0
 21
0.0
  0
LINE
  5
35
100
AcDbEntity
  8
0
 62
     0
100
AcDbLine
 10
0.0
 20
0.0
 11
-0.965926
 21
-0.258819
  0
LINE
  5
36
100
AcDbEntity
  8
0
 62
     0
100
AcDbLine
 10
-0.965926
 20
0.258819
 11
-0.965926
 21
-0.258819
  0
LINE
  5
37
100
AcDbEntity
  8
0
 62
     0
100
AcDbLine
 10
0.0
 20
0.0
 11
-1.0
 21
0.0
  0
ENDBLK
  5
38
100
AcDbEntity
  8
0
100
AcDbBlockEnd
  0
BLOCK
  5
3A
100
AcDbEntity
  8
0
100
AcDbBlockBegin
  2
_ORIGIN
 70
     0
 10
0.0
 20
0.0
  0
CIRCLE
  5
3B
100
AcDbEntity
  8
0
 62
     0
100
AcDbCircle
 10
0.0
 20
0.0
 40
0.5
  0
LINE
  5
3C
100
AcDbEntity
  8
0
 62
     0
100
AcDbLine
 10
0.0
 20
0.0
 11
-1.0
 21
0.0
  0
ENDBLK
  5
3D
100
AcDbEntity
  8
0
100
AcDbBlockEnd
  0
BLOCK
  5
3F
100
AcDbEntity
  8
0
100
AcDbBlockBegin
  2
_DOT
 70
     0
 10
0.0
 20
0.0
  0
POLYLINE
  5
40
100
AcDbEntity
  8
0
 62
     0
100
AcDb2dPolyline
 66
     1
 70
     1
 40
0.5
 41
0.5
  0
VERTEX
  5
41
100
AcDbEntity
  8
0
 62
     0
100
AcDbVertex
100
AcDb2dVertex
 10
-0.25
 20
0.0
 42
1.0
  0
VERTEX
  5
42
100
AcDbEntity
  8
0
 62
     0
100
AcDbVertex
100
AcDb2dVertex
 10
0.25
 20
0.0
 42
1.0
  0
SEQEND
  5
43
100
AcDbEntity
  8
0
 62
     0
  0
LINE
  5
44
100
AcDbEntity
  8
0
 62
     0
100
AcDbLine
 10
-0.5
 20
0.0
 11
-1.0
 21
0.0
  0
ENDBLK
  5
45
100
AcDbEntity
  8
0
100
AcDbBlockEnd
  0
BLOCK
  5
47
100
AcDbEntity
  8
0
100
AcDbBlockBegin
  2
_OBLIQUE
 70
     0
 10
0.0
 20
0.0
  0
LINE
  5
48
100
AcDbEntity
  8
0
 62
     0
100
AcDbLine
 10
-0.353553
 20
-0.353553
 11
0.353553
 21
0.353553
  0
ENDBLK
  5
49
100
AcDbEntity
  8
0
100
AcDbBlockEnd
  0
BLOCK
  5
4B
100
AcDbEntity
  8
DD0
100
AcDbBlockBegin
  2
DIMS0
 70
     0
 10
0.0
 20
0.0
  0
LINE
  5
4C
100
AcDbEntity
  8
DD0
100
AcDbLine
 10
281.055236
 20
546.824217
 11
340.218747
 21
546.824217
  0
LINE
  5
4D
100
AcDbEntity
  8
DD0
100
AcDbLine
 10
281.055236
 20
756.824209
 11
340.218747
 21
756.824209
  0
LINE
  5
4E
100
AcDbEntity
  8
DD0
100
AcDbLine
 10
334.297223
 20
556.483475
 11
336.885413
 21
546.824217
  0
LINE
  5
4F
100
AcDbEntity
  8
DD0
100
AcDbLine
 10
336.885413
 20
546.824217
 11
339.473604
 21
556.483475
  0
LINE
  5
50
100
AcDbEntity
  8
DD0
100
AcDbLine
 10
339.473604
 20
747.164951
 11
336.885413
 21
756.824209
  0
LINE
  5
51
100
AcDbEntity
  8
DD0
100
AcDbLine
 10
336.885413
 20
756.824209
 11
334.297223
 21
747.164951
  0
LINE
  5
52
100
AcDbEntity
  8
DD0
100
AcDbLine
 10
336.885413
 20
546.824217
 11
336.885413
 21
756.824209
  0
TEXT
  5
53
100
AcDbEntity
  8
DD0
100
AcDbText
 10
333.55208
 20
632.951969
 40
13.333333
  1
２１０
 50
90.000003
 41
0.833333
  7
STANDARD
100
AcDbText
  0
ENDBLK
  5
54
100
AcDbEntity
  8
DD0
100
AcDbBlockEnd
  0
BLOCK
  5
57
100
AcDbEntity
  8
DD0
100
AcDbBlockBegin
  2
DIMS1
 70
     0
 10
0.0
 20
0.0
  0
LINE
  5
58
100
AcDbEntity
  8
DD0
100
AcDbLine
 10
276.703676
 20
756.824209
 11
340.218747
 21
756.824209
  0
LINE
  5
59
100
AcDbEntity
  8
DD0
100
AcDbLine
 10
278.055231
 20
779.324208
 11
340.218747
 21
779.324208
  0
LINE
  5
5A
100
AcDbEntity
  8
DD0
100
AcDbLine
 10
339.473604
 20
747.164951
 11
336.885413
 21
756.824209
  0
LINE
  5
5B
100
AcDbEntity
  8
DD0
100
AcDbLine
 10
336.885413
 20
756.824209
 11
334.297223
 21
747.164951
  0
LINE
  5
5C
100
AcDbEntity
  8
DD0
100
AcDbLine
 10
334.297223
 20
788.983466
 11
336.885413
 21
779.324208
  0
LINE
  5
5D
100
AcDbEntity
  8
DD0
100
AcDbLine
 10
336.885413
 20
779.324208
 11
339.473604
 21
788.983466
  0
LINE
  5
5E
100
AcDbEntity
  8
DD0
100
AcDbLine
 10
336.885413
 20
745.82421
 11
336.885413
 21
846.99087
  0
TEXT
  5
5F
100
AcDbEntity
  8
DD0
100
AcDbText
 10
333.55208
 20
791.451973
 40
13.333333
  1
２２．５
 50
90.000003
 41
0.833333
  7
STANDARD
100
AcDbText
  0
ENDBLK
  5
60
100
AcDbEntity
  8
DD0
100
AcDbBlockEnd
  0
BLOCK
  5
63
100
AcDbEntity
  8
DD0
100
AcDbBlockBegin
  2
DIMS2
 70
     0
 10
0.0
 20
0.0
  0
TEXT
  5
64
100
AcDbEntity
  8
DD0
100
AcDbText
 10
325.844946
 20
429.146305
 40
13.333333
  1
４－Ｍ５ネジ取付穴
 41
0.833333
  7
STANDARD
100
AcDbText
  0
LINE
  5
65
100
AcDbEntity
  8
DD0
100
AcDbLine
 10
275.803683
 20
536.579843
 11
270.044799
 21
544.755126
  0
LINE
  5
66
100
AcDbEntity
  8
DD0
100
AcDbLine
 10
270.044799
 20
544.755126
 11
270.944497
 21
534.795681
  0
LINE
  5
67
100
AcDbEntity
  8
DD0
100
AcDbLine
 10
270.044799
 20
544.755126
 11
313.717156
 21
425.812946
  0
LINE
  5
68
100
AcDbEntity
  8
DD0
100
AcDbLine
 10
313.717156
 20
425.812946
 11
455.717145
 21
425.812946
  0
ENDBLK
  5
69
100
AcDbEntity
  8
DD0
100
AcDbBlockEnd
  0
BLOCK
  5
6C
100
AcDbEntity
  8
DD0
100
AcDbBlockBegin
  2
DIMS3
 70
     0
 10
0.0
 20
0.0
  0
LINE
  5
6D
100
AcDbEntity
  8
DD0
100
AcDbLine
 10
162.221902
 20
770.657572
 11
162.221902
 21
819.523486
  0
LINE
  5
6E
100
AcDbEntity
  8
DD0
100
AcDbLine
 10
267.221898
 20
770.657572
 11
267.221898
 21
819.523486
  0
LINE
  5
6F
100
AcDbEntity
  8
DD0
100
AcDbLine
 10
171.88116
 20
818.778344
 11
162.221902
 21
816.190153
  0
LINE
  5
70
100
AcDbEntity
  8
DD0
100
AcDbLine
 10
162.221902
 20
816.190153
 11
171.88116
 21
813.601963
  0
LINE
  5
71
100
AcDbEntity
  8
DD0
100
AcDbLine
 10
257.56264
 20
813.601963
 11
267.221898
 21
816.190153
  0
LINE
  5
72
100
AcDbEntity
  8
DD0
100
AcDbLine
 10
267.221898
 20
816.190153
 11
257.56264
 21
818.778344
  0
LINE
  5
73
100
AcDbEntity
  8
DD0
100
AcDbLine
 10
162.221902
 20
816.190153
 11
267.221898
 21
816.190153
  0
TEXT
  5
74
100
AcDbEntity
  8
DD0
100
AcDbText
 10
195.849682
 20
819.523486
 40
13.333333
  1
１０５
 41
0.833333
  7
STANDARD
100
AcDbText
  0
ENDBLK
  5
75
100
AcDbEntity
  8
DD0
100
AcDbBlockEnd
  0
BLOCK
  5
78
100
AcDbEntity
  8
DD0
100
AcDbBlockBegin
  2
DIMS4
 70
     0
 10
0.0
 20
0.0
  0
LINE
  5
79
100
AcDbEntity
  8
DD0
100
AcDbLine
 10
278.055231
 20
524.324218
 11
311.471596
 21
524.324218
  0
ENDBLK
  5
7A
100
AcDbEntity
  8
DD0
100
AcDbBlockEnd
  0
BLOCK
  5
7D
100
AcDbEntity
  8
DD0
100
AcDbBlockBegin
  2
DIMS5
 70
     0
 10
0.0
 20
0.0
  0
LINE
  5
7E
100
AcDbEntity
  8
DD0
100
AcDbLine
 10
221.055238
 20
514.319336
 11
365.913961
 21
514.319336
  0
LINE
  5
7F
100
AcDbEntity
  8
DD0
100
AcDbLine
 10
278.055231
 20
524.324218
 11
365.913961
 21
524.324218
  0
LINE
  5
80
100
AcDbEntity
  8
DD0
100
AcDbLine
 10
365.168819
 20
504.660078
 11
362.580628
 21
514.319336
  0
LINE
  5
81
100
AcDbEntity
  8
DD0
100
AcDbLine
 10
362.580628
 20
514.319336
 11
359.992438
 21
504.660078
  0
LINE
  5
82
100
AcDbEntity
  8
DD0
100
AcDbLine
 10
359.992438
 20
533.983476
 11
362.580628
 21
524.324218
  0
LINE
  5
83
100
AcDbEntity
  8
DD0
100
AcDbLine
 10
362.580628
 20
524.324218
 11
365.168819
 21
533.983476
  0
LINE
  5
84
100
AcDbEntity
  8
DD0
100
AcDbLine
 10
362.580628
 20
473.319337
 11
362.580628
 21
535.324218
  0
TEXT
  5
85
100
AcDbEntity
  8
DD0
100
AcDbText
 10
359.247295
 20
475.880442
 40
13.333333
  1
１０
 50
90.000003
 41
0.833333
  7
STANDARD
100
AcDbText
  0
ENDBLK
  5
86
100
AcDbEntity
  8
DD0
100
AcDbBlockEnd
  0
BLOCK
  5
89
100
AcDbEntity
  8
DD0
100
AcDbBlockBegin
  2
DIMS6
 70
     0
 10
0.0
 20
0.0
  0
LINE
  5
8A
100
AcDbEntity
  8
DD0
100
AcDbLine
 10
139.721903
 20
767.657542
 11
139.721903
 21
844.440071
  0
LINE
  5
8B
100
AcDbEntity
  8
DD0
100
AcDbLine
 10
289.721897
 20
767.657542
 11
289.721897
 21
844.440071
  0
LINE
  5
8C
100
AcDbEntity
  8
DD0
100
AcDbLine
 10
149.381161
 20
843.694928
 11
139.721903
 21
841.106737
  0
LINE
  5
8D
100
AcDbEntity
  8
DD0
100
AcDbLine
 10
139.721903
 20
841.106737
 11
149.381161
 21
838.518547
  0
LINE
  5
8E
100
AcDbEntity
  8
DD0
100
AcDbLine
 10
280.062639
 20
838.518547
 11
289.721897
 21
841.106737
  0
LINE
  5
8F
100
AcDbEntity
  8
DD0
100
AcDbLine
 10
289.721897
 20
841.106737
 11
280.062639
 21
843.694928
  0
LINE
  5
90
100
AcDbEntity
  8
DD0
100
AcDbLine
 10
139.721903
 20
841.106737
 11
289.721897
 21
841.106737
  0
TEXT
  5
91
100
AcDbEntity
  8
DD0
100
AcDbText
 10
195.849682
 20
844.440071
 40
13.333333
  1
１５０
 41
0.833333
  7
STANDARD
100
AcDbText
  0
ENDBLK
  5
92
100
AcDbEntity
  8
DD0
100
AcDbBlockEnd
  0
BLOCK
  5
95
100
AcDbEntity
  8
DD0
100
AcDbBlockBegin
  2
DIMS7
 70
     0
 10
0.0
 20
0.0
  0
LINE
  5
96
100
AcDbEntity
  8
DD0
100
AcDbLine
 10
278.055231
 20
779.324208
 11
365.913961
 21
779.324208
  0
LINE
  5
97
100
AcDbEntity
  8
DD0
100
AcDbLine
 10
278.055231
 20
524.324218
 11
365.913961
 21
524.324218
  0
LINE
  5
98
100
AcDbEntity
  8
DD0
100
AcDbLine
 10
365.168819
 20
769.66495
 11
362.580628
 21
779.324208
  0
LINE
  5
99
100
AcDbEntity
  8
DD0
100
AcDbLine
 10
362.580628
 20
779.324208
 11
359.992438
 21
769.66495
  0
LINE
  5
9A
100
AcDbEntity
  8
DD0
100
AcDbLine
 10
359.992438
 20
533.983476
 11
362.580628
 21
524.324218
  0
LINE
  5
9B
100
AcDbEntity
  8
DD0
100
AcDbLine
 10
362.580628
 20
524.324218
 11
365.168819
 21
533.983476
  0
LINE
  5
9C
100
AcDbEntity
  8
DD0
100
AcDbLine
 10
362.580628
 20
779.324208
 11
362.580628
 21
524.324218
  0
TEXT
  5
9D
100
AcDbEntity
  8
DD0
100
AcDbText
 10
359.247295
 20
632.951969
 40
13.333333
  1
２５５
 50
90.000003
 41
0.833333
  7
STANDARD
100
AcDbText
  0
ENDBLK
  5
9E
100
AcDbEntity
  8
DD0
100
AcDbBlockEnd
  0
BLOCK
  5
A1
100
AcDbEntity
  8
DD0
100
AcDbBlockBegin
  2
DIMS8
 70
     0
 10
0.0
 20
0.0
  0
LINE
  5
A2
100
AcDbEntity
  8
DD0
100
AcDbLine
 10
438.171776
 20
655.157546
 11
438.171776
 21
819.523486
  0
LINE
  5
A3
100
AcDbEntity
  8
DD0
100
AcDbLine
 10
568.171771
 20
767.657542
 11
568.171771
 21
819.523486
  0
LINE
  5
A4
100
AcDbEntity
  8
DD0
100
AcDbLine
 10
447.831034
 20
818.778344
 11
438.171776
 21
816.190153
  0
LINE
  5
A5
100
AcDbEntity
  8
DD0
100
AcDbLine
 10
438.171776
 20
816.190153
 11
447.831034
 21
813.601963
  0
LINE
  5
A6
100
AcDbEntity
  8
DD0
100
AcDbLine
 10
558.512513
 20
813.601963
 11
568.171771
 21
816.190153
  0
LINE
  5
A7
100
AcDbEntity
  8
DD0
100
AcDbLine
 10
568.171771
 20
816.190153
 11
558.512513
 21
818.778344
  0
LINE
  5
A8
100
AcDbEntity
  8
DD0
100
AcDbLine
 10
438.171776
 20
816.190153
 11
568.171771
 21
816.190153
  0
TEXT
  5
A9
100
AcDbEntity
  8
DD0
100
AcDbText
 10
484.29953
 20
819.523486
 40
13.333333
  1
１３０
 41
0.833333
  7
STANDARD
100
AcDbText
  0
ENDBLK
  5
AA
100
AcDbEntity
  8
DD0
100
AcDbBlockEnd
  0
BLOCK
  5
AD
100
AcDbEntity
  8
DD0
100
AcDbBlockBegin
  2
DIMS9
 70
     0
 10
0.0
 20
0.0
  0
LINE
  5
AE
100
AcDbEntity
  8
DD0
100
AcDbLine
 10
556.312552
 20
563.323195
 11
565.97181
 21
565.911385
  0
LINE
  5
AF
100
AcDbEntity
  8
DD0
100
AcDbLine
 10
565.97181
 20
565.911385
 11
556.312552
 21
568.499575
  0
LINE
  5
B0
100
AcDbEntity
  8
DD0
100
AcDbLine
 10
577.831029
 20
568.499575
 11
568.171771
 21
565.911385
  0
LINE
  5
B1
100
AcDbEntity
  8
DD0
100
AcDbLine
 10
568.171771
 20
565.911385
 11
577.831029
 21
563.323195
  0
LINE
  5
B2
100
AcDbEntity
  8
DD0
100
AcDbLine
 10
554.97181
 20
565.911385
 11
635.838432
 21
565.911385
  0
TEXT
  5
B3
100
AcDbEntity
  8
DD0
100
AcDbText
 10
580.299536
 20
569.244718
 40
13.333333
  1
ｔ１．２
 41
0.833333
  7
STANDARD
100
AcDbText
  0
ENDBLK
  5
B4
100
AcDbEntity
  8
DD0
100
AcDbBlockEnd
  0
ENDSEC
  0
SECTION
  2
ENTITIES
  0
INSERT
  5
55
100
AcDbEntity
  8
DD0
100
AcDbBlockReference
  2
DIMS0
 10
0.0
 20
0.0
  0
INSERT
  5
61
100
AcDbEntity
  8
DD0
100
AcDbBlockReference
  2
DIMS1
 10
0.0
 20
0.0
  0
INSERT
  5
6A
100
AcDbEntity
  8
DD0
100
AcDbBlockReference
  2
DIMS2
 10
0.0
 20
0.0
  0
INSERT
  5
76
100
AcDbEntity
  8
DD0
100
AcDbBlockReference
  2
DIMS3
 10
0.0
 20
0.0
  0
INSERT
  5
7B
100
AcDbEntity
  8
DD0
100
AcDbBlockReference
  2
DIMS4
 10
0.0
 20
0.0
  0
INSERT
  5
87
100
AcDbEntity
  8
DD0
100
AcDbBlockReference
  2
DIMS5
 10
0.0
 20
0.0
  0
INSERT
  5
93
100
AcDbEntity
  8
DD0
100
AcDbBlockReference
  2
DIMS6
 10
0.0
 20
0.0
  0
INSERT
  5
9F
100
AcDbEntity
  8
DD0
100
AcDbBlockReference
  2
DIMS7
 10
0.0
 20
0.0
  0
INSERT
  5
AB
100
AcDbEntity
  8
DD0
100
AcDbBlockReference
  2
DIMS8
 10
0.0
 20
0.0
  0
INSERT
  5
B5
100
AcDbEntity
  8
DD0
100
AcDbBlockReference
  2
DIMS9
 10
0.0
 20
0.0
  0
LINE
  5
B6
100
AcDbEntity
  8
M0
  6
DASHDOT
 62
   234
100
AcDbLine
 10
256.721901
 20
546.824216
 11
277.721901
 21
546.824216
  0
LINE
  5
B7
100
AcDbEntity
  8
M0
  6
DASHDOT
 62
   234
100
AcDbLine
 10
267.221901
 20
557.324216
 11
267.221901
 21
536.324216
  0
CIRCLE
  5
B8
100
AcDbEntity
  8
M0
  6
DASHED
 62
   234
100
AcDbCircle
 10
267.221901
 20
546.824216
 40
3.5
  0
LINE
  5
B9
100
AcDbEntity
  8
M0
  6
DASHDOT
 62
   234
100
AcDbLine
 10
256.721901
 20
756.824216
 11
277.721901
 21
756.824216
  0
LINE
  5
BA
100
AcDbEntity
  8
M0
  6
DASHDOT
 62
   234
100
AcDbLine
 10
267.221901
 20
746.324216
 11
267.221901
 21
767.324216
  0
CIRCLE
  5
BB
100
AcDbEntity
  8
M0
  6
DASHED
 62
   234
100
AcDbCircle
 10
267.221901
 20
756.824216
 40
3.5
  0
LINE
  5
BC
100
AcDbEntity
  8
M0
 62
   234
100
AcDbLine
 10
217.721901
 20
524.324216
 11
217.721901
 21
516.357408
  0
LINE
  5
BD
100
AcDbEntity
  8
M0
 62
   234
100
AcDbLine
 10
218.721901
 20
524.324216
 11
218.721901
 21
516.357408
  0
LINE
  5
BE
100
AcDbEntity
  8
M0
 62
   234
100
AcDbLine
 10
215.721901
 20
524.324216
 11
215.721901
 21
516.586063
  0
LINE
  5
BF
100
AcDbEntity
  8
M0
 62
   234
100
AcDbLine
 10
210.721901
 20
516.357408
 11
218.721901
 21
516.357408
  0
LINE
  5
C0
100
AcDbEntity
  8
M0
 62
   234
100
AcDbLine
 10
211.721901
 20
514.319341
 11
217.721901
 21
514.319341
  0
LINE
  5
C1
100
AcDbEntity
  8
M0
 62
   234
100
AcDbLine
 10
210.721901
 20
516.357408
 11
211.721901
 21
514.319341
  0
LINE
  5
C2
100
AcDbEntity
  8
M0
 62
   234
100
AcDbLine
 10
218.721901
 20
516.357408
 11
217.721901
 21
514.319341
  0
LINE
  5
C3
100
AcDbEntity
  8
M0
 62
   234
100
AcDbLine
 10
210.721901
 20
524.324216
 11
210.721901
 21
516.357408
  0
LINE
  5
C4
100
AcDbEntity
  8
M0
 62
   234
100
AcDbLine
 10
211.721901
 20
524.324216
 11
211.721901
 21
516.357408
  0
LINE
  5
C5
100
AcDbEntity
  8
M0
 62
   234
100
AcDbLine
 10
213.721901
 20
524.324216
 11
213.721901
 21
516.586063
  0
LINE
  5
C6
100
AcDbEntity
  8
M0
  6
DASHDOT
 62
   234
100
AcDbLine
 10
172.721901
 20
546.824216
 11
151.721901
 21
546.824216
  0
LINE
  5
C7
100
AcDbEntity
  8
M0
  6
DASHDOT
 62
   234
100
AcDbLine
 10
162.221901
 20
557.324216
 11
162.221901
 21
536.324216
  0
CIRCLE
  5
C8
100
AcDbEntity
  8
M0
  6
DASHED
 62
   234
100
AcDbCircle
 10
162.221901
 20
546.824216
 40
3.5
  0
LINE
  5
C9
100
AcDbEntity
  8
M0
  6
DASHDOT
 62
   234
100
AcDbLine
 10
172.721901
 20
756.824216
 11
151.721901
 21
756.824216
  0
LINE
  5
CA
100
AcDbEntity
  8
M0
  6
DASHDOT
 62
   234
100
AcDbLine
 10
162.221901
 20
746.324216
 11
162.221901
 21
767.324216
  0
CIRCLE
  5
CB
100
AcDbEntity
  8
M0
  6
DASHED
 62
   234
100
AcDbCircle
 10
162.221901
 20
756.824216
 40
3.5
  0
LINE
  5
CC
100
AcDbEntity
  8
M0
 62
   234
100
AcDbLine
 10
289.721901
 20
539.324216
 11
289.721901
 21
764.324216
  0
LINE
  5
CD
100
AcDbEntity
  8
M0
 62
   234
100
AcDbLine
 10
274.721901
 20
779.324216
 11
154.721901
 21
779.324216
  0
LINE
  5
CE
100
AcDbEntity
  8
M0
 62
   234
100
AcDbLine
 10
139.721901
 20
764.324216
 11
139.721901
 21
539.324216
  0
LINE
  5
CF
100
AcDbEntity
  8
M0
 62
   234
100
AcDbLine
 10
154.721901
 20
524.324216
 11
274.721901
 21
524.324216
  0
LINE
  5
D0
100
AcDbEntity
  8
M0
  6
DASHDOT
 62
   234
100
AcDbLine
 10
119.721901
 20
651.824216
 11
309.721901
 21
651.824216
  0
LINE
  5
D1
100
AcDbEntity
  8
M0
  6
DASHDOT
 62
   234
100
AcDbLine
 10
214.721901
 20
510.618484
 11
214.721901
 21
799.324216
  0
LINE
  5
D2
100
AcDbEntity
  8
M0
 62
   234
100
AcDbLine
 10
154.721901
 20
774.324216
 11
274.721901
 21
774.324216
  0
LINE
  5
D3
100
AcDbEntity
  8
M0
 62
   234
100
AcDbLine
 10
154.721901
 20
529.324216
 11
274.721901
 21
529.324216
  0
LINE
  5
D4
100
AcDbEntity
  8
M0
 62
   234
100
AcDbLine
 10
144.721901
 20
539.324216
 11
144.721901
 21
764.324216
  0
LINE
  5
D5
100
AcDbEntity
  8
M0
 62
   234
100
AcDbLine
 10
284.721901
 20
539.324216
 11
284.721901
 21
764.324216
  0
ARC
  5
D6
100
AcDbEntity
  8
M0
 62
   234
100
AcDbCircle
 10
154.721901
 20
764.324216
 40
15.0
100
AcDbArc
 50
90.0
 51
180.0
  0
ARC
  5
D7
100
AcDbEntity
  8
M0
 62
   234
100
AcDbCircle
 10
274.721901
 20
764.324216
 40
15.0
100
AcDbArc
 50
0.0
 51
90.0
  0
ARC
  5
D8
100
AcDbEntity
  8
M0
 62
   234
100
AcDbCircle
 10
154.721901
 20
539.324216
 40
15.0
100
AcDbArc
 50
180.0
 51
270.0
  0
ARC
  5
D9
100
AcDbEntity
  8
M0
 62
   234
100
AcDbCircle
 10
274.721901
 20
539.324216
 40
15.0
100
AcDbArc
 50
270.0
 51
360.0
  0
ARC
  5
DA
100
AcDbEntity
  8
M0
 62
   234
100
AcDbCircle
 10
154.721901
 20
764.324216
 40
10.0
100
AcDbArc
 50
90.0
 51
180.0
  0
ARC
  5
DB
100
AcDbEntity
  8
M0
 62
   234
100
AcDbCircle
 10
274.721901
 20
764.324216
 40
10.0
100
AcDbArc
 50
0.0
 51
90.0
  0
ARC
  5
DC
100
AcDbEntity
  8
M0
 62
   234
100
AcDbCircle
 10
154.721901
 20
539.324216
 40
10.0
100
AcDbArc
 50
180.0
 51
270.0
  0
ARC
  5
DD
100
AcDbEntity
  8
M0
 62
   234
100
AcDbCircle
 10
274.721901
 20
539.324216
 40
10.0
100
AcDbArc
 50
270.0
 51
360.0
  0
LINE
  5
DE
100
AcDbEntity
  8
M0
 62
   234
100
AcDbLine
 10
279.721901
 20
436.782585
 11
149.721901
 21
436.782585
  0
ARC
  5
DF
100
AcDbEntity
  8
M0
 62
   234
100
AcDbCircle
 10
149.721901
 20
426.782585
 40
10.0
100
AcDbArc
 50
90.0
 51
180.0
  0
LINE
  5
E0
100
AcDbEntity
  8
M0
 62
   234
100
AcDbLine
 10
289.721901
 20
388.629516
 11
289.721901
 21
426.782585
  0
ARC
  5
E1
100
AcDbEntity
  8
M0
 62
   234
100
AcDbCircle
 10
149.721901
 20
316.782585
 40
10.0
100
AcDbArc
 50
180.0
 51
270.0
  0
ARC
  5
E2
100
AcDbEntity
  8
M0
 62
   234
100
AcDbCircle
 10
279.721901
 20
426.782585
 40
10.0
100
AcDbArc
 50
0.0
 51
90.0
  0
ARC
  5
E3
100
AcDbEntity
  8
M0
 62
   234
100
AcDbCircle
 10
279.721901
 20
316.782585
 40
10.0
100
AcDbArc
 50
270.0
 51
360.0
  0
LINE
  5
E4
100
AcDbEntity
  8
M0
 62
   234
100
AcDbLine
 10
139.721901
 20
426.782585
 11
139.721901
 21
388.629516
  0
LINE
  5
E5
100
AcDbEntity
  8
M0
 62
   234
100
AcDbLine
 10
289.721901
 20
316.782585
 11
289.721901
 21
373.282585
  0
LINE
  5
E6
100
AcDbEntity
  8
M0
  6
DASHDOT
 62
   234
100
AcDbLine
 10
214.721901
 20
286.782585
 11
214.721901
 21
456.782585
  0
LINE
  5
E7
100
AcDbEntity
  8
M0
 62
   234
100
AcDbLine
 10
149.721901
 20
306.782585
 11
279.721901
 21
306.782585
  0
LINE
  5
E8
100
AcDbEntity
  8
M0
 62
   234
100
AcDbLine
 10
139.721901
 20
373.282585
 11
139.721901
 21
316.782585
  0
LINE
  5
E9
100
AcDbEntity
  8
M0
  6
DASHDOT
 62
   234
100
AcDbLine
 10
211.721901
 20
346.782585
 11
167.721901
 21
346.782585
  0
LINE
  5
EA
100
AcDbEntity
  8
M0
  6
DASHDOT
 62
   234
100
AcDbLine
 10
189.721901
 20
324.782585
 11
189.721901
 21
368.782585
  0
LINE
  5
EB
100
AcDbEntity
  8
M0
 62
   234
100
AcDbLine
 10
200.676352
 20
347.782585
 11
195.732403
 21
347.782585
  0
LINE
  5
EC
100
AcDbEntity
  8
M0
 62
   234
100
AcDbLine
 10
190.721901
 20
360.746826
 11
190.721901
 21
366.01991
  0
LINE
  5
ED
100
AcDbEntity
  8
M0
 62
   234
100
AcDbLine
 10
188.721901
 20
360.746826
 11
188.721901
 21
366.01991
  0
LINE
  5
EE
100
AcDbEntity
  8
M0
 62
   234
100
AcDbLine
 10
200.676352
 20
345.782585
 11
195.732403
 21
345.782585
  0
LINE
  5
EF
100
AcDbEntity
  8
M0
 62
   234
100
AcDbLine
 10
178.76745
 20
347.782585
 11
183.711399
 21
347.782585
  0
LINE
  5
F0
100
AcDbEntity
  8
M0
 62
   234
100
AcDbLine
 10
178.76745
 20
345.782585
 11
183.711399
 21
345.782585
  0
LINE
  5
F1
100
AcDbEntity
  8
M0
 62
   234
100
AcDbLine
 10
188.721901
 20
332.818345
 11
188.721901
 21
327.545261
  0
LINE
  5
F2
100
AcDbEntity
  8
M0
 62
   234
100
AcDbLine
 10
190.721901
 20
332.818345
 11
190.721901
 21
327.545261
  0
ARC
  5
F3
100
AcDbEntity
  8
M0
 62
   234
100
AcDbCircle
 10
189.721901
 20
346.782585
 40
11.0
100
AcDbArc
 50
185.215909
 51
354.784091
  0
ARC
  5
F4
100
AcDbEntity
  8
M0
 62
   234
100
AcDbCircle
 10
189.721901
 20
346.782585
 40
11.0
100
AcDbArc
 50
5.215909
 51
174.784091
  0
ARC
  5
F5
100
AcDbEntity
  8
M0
 62
   234
100
AcDbCircle
 10
189.721901
 20
346.782585
 40
14.0
100
AcDbArc
 50
94.096044
 51
265.903956
  0
ARC
  5
F6
100
AcDbEntity
  8
M0
 62
   234
100
AcDbCircle
 10
189.721901
 20
346.782585
 40
14.0
100
AcDbArc
 50
-85.903956
 51
85.903956
  0
LINE
  5
F7
100
AcDbEntity
  8
M0
  6
DASHDOT
 62
   234
100
AcDbLine
 10
200.721901
 20
380.956051
 11
228.721901
 21
380.956051
  0
CIRCLE
  5
F8
100
AcDbEntity
  8
M0
 62
   234
100
AcDbCircle
 10
214.721901
 20
380.956051
 40
5.0
  0
LINE
  5
F9
100
AcDbEntity
  8
M0
 62
   234
100
AcDbLine
 10
292.721901
 20
373.282585
 11
136.721901
 21
373.282585
  0
LINE
  5
FA
100
AcDbEntity
  8
M0
 62
   234
100
AcDbLine
 10
292.721901
 20
388.629516
 11
136.721901
 21
388.629516
  0
LINE
  5
FB
100
AcDbEntity
  8
M0
  6
DASHDOT
 62
   234
100
AcDbLine
 10
217.721901
 20
346.782585
 11
261.721901
 21
346.782585
  0
LINE
  5
FC
100
AcDbEntity
  8
M0
  6
DASHDOT
 62
   234
100
AcDbLine
 10
239.721901
 20
324.782585
 11
239.721901
 21
368.782585
  0
LINE
  5
FD
100
AcDbEntity
  8
M0
 62
   234
100
AcDbLine
 10
228.76745
 20
347.782585
 11
233.711399
 21
347.782585
  0
LINE
  5
FE
100
AcDbEntity
  8
M0
 62
   234
100
AcDbLine
 10
238.721901
 20
360.746826
 11
238.721901
 21
366.01991
  0
LINE
  5
FF
100
AcDbEntity
  8
M0
 62
   234
100
AcDbLine
 10
240.721901
 20
360.746826
 11
240.721901
 21
366.01991
  0
LINE
  5
100
100
AcDbEntity
  8
M0
 62
   234
100
AcDbLine
 10
228.76745
 20
345.782585
 11
233.711399
 21
345.782585
  0
LINE
  5
101
100
AcDbEntity
  8
M0
 62
   234
100
AcDbLine
 10
250.676352
 20
347.782585
 11
245.732403
 21
347.782585
  0
LINE
  5
102
100
AcDbEntity
  8
M0
 62
   234
100
AcDbLine
 10
250.676352
 20
345.782585
 11
245.732403
 21
345.782585
  0
LINE
  5
103
100
AcDbEntity
  8
M0
 62
   234
100
AcDbLine
 10
240.721901
 20
332.818345
 11
240.721901
 21
327.545261
  0
LINE
  5
104
100
AcDbEntity
  8
M0
 62
   234
100
AcDbLine
 10
238.721901
 20
332.818345
 11
238.721901
 21
327.545261
  0
ARC
  5
105
100
AcDbEntity
  8
M0
 62
   234
100
AcDbCircle
 10
239.721901
 20
346.782585
 40
11.0
100
AcDbArc
 50
185.215909
 51
354.784091
  0
ARC
  5
106
100
AcDbEntity
  8
M0
 62
   234
100
AcDbCircle
 10
239.721901
 20
346.782585
 40
11.0
100
AcDbArc
 50
5.215909
 51
174.784091
  0
ARC
  5
107
100
AcDbEntity
  8
M0
 62
   234
100
AcDbCircle
 10
239.721901
 20
346.782585
 40
14.0
100
AcDbArc
 50
274.096044
 51
445.903956
  0
ARC
  5
108
100
AcDbEntity
  8
M0
 62
   234
100
AcDbCircle
 10
239.721901
 20
346.782585
 40
14.0
100
AcDbArc
 50
94.096044
 51
265.903956
  0
LINE
  5
109
100
AcDbEntity
  8
M0
 62
   234
100
AcDbLine
 10
136.721901
 20
388.629516
 11
136.721901
 21
373.282585
  0
LINE
  5
10A
100
AcDbEntity
  8
M0
 62
   234
100
AcDbLine
 10
292.721901
 20
388.629516
 11
292.721901
 21
373.282585
  0
CIRCLE
  5
10B
100
AcDbEntity
  8
M0
 62
   234
100
AcDbCircle
 10
268.116437
 20
325.124354
 40
5.0
  0
LINE
  5
10C
100
AcDbEntity
  8
M0
  6
DASHDOT
 62
   234
100
AcDbLine
 10
255.116437
 20
325.124354
 11
281.116437
 21
325.124354
  0
LINE
  5
10D
100
AcDbEntity
  8
M0
  6
DASHDOT
 62
   234
100
AcDbLine
 10
268.116437
 20
298.502999
 11
268.116437
 21
338.124354
  0
LINE
  5
10E
100
AcDbEntity
  8
M0
 62
   234
100
AcDbLine
 10
266.24354
 20
327.760363
 11
268.116437
 21
325.124354
  0
LINE
  5
10F
100
AcDbEntity
  8
M0
 62
   234
100
AcDbLine
 10
269.989334
 20
322.488345
 11
268.116437
 21
325.124354
  0
LINE
  5
110
100
AcDbEntity
  8
M0
 62
   234
100
AcDbLine
 10
266.24354
 20
324.56021
 11
268.116437
 21
327.760363
  0
LINE
  5
111
100
AcDbEntity
  8
M0
 62
   234
100
AcDbLine
 10
268.116437
 20
323.156061
 11
269.989334
 21
326.25825
  0
LINE
  5
112
100
AcDbEntity
  8
M0
 62
   234
100
AcDbLine
 10
263.116437
 20
298.502999
 11
273.116437
 21
298.502999
  0
LINE
  5
113
100
AcDbEntity
  8
M0
 62
   234
100
AcDbLine
 10
264.818499
 20
295.620614
 11
271.469471
 21
295.620614
  0
LINE
  5
114
100
AcDbEntity
  8
M0
 62
   234
100
AcDbLine
 10
266.607381
 20
292.269383
 11
269.63472
 21
292.269383
  0
ARC
  5
115
100
AcDbEntity
  8
M0
 62
   234
100
AcDbCircle
 10
528.171791
 20
724.324216
 40
11.0
100
AcDbArc
 50
275.215909
 51
360.0
  0
ARC
  5
116
100
AcDbEntity
  8
M0
 62
   234
100
AcDbCircle
 10
528.171791
 20
724.324216
 40
11.0
100
AcDbArc
 50
95.215909
 51
180.0
  0
ARC
  5
117
100
AcDbEntity
  8
M0
 62
   234
100
AcDbCircle
 10
528.171791
 20
724.324216
 40
14.0
100
AcDbArc
 50
4.096044
 51
90.0
  0
ARC
  5
118
100
AcDbEntity
  8
M0
 62
   234
100
AcDbCircle
 10
528.171791
 20
724.324216
 40
14.0
100
AcDbArc
 50
184.096044
 51
270.0
  0
ARC
  5
119
100
AcDbEntity
  8
M0
 62
   234
100
AcDbCircle
 10
528.171791
 20
724.324216
 40
11.0
100
AcDbArc
 50
180.0
 51
264.784091
  0
ARC
  5
11A
100
AcDbEntity
  8
M0
 62
   234
100
AcDbCircle
 10
528.171791
 20
724.324216
 40
14.0
100
AcDbArc
 50
90.0
 51
175.903956
  0
ARC
  5
11B
100
AcDbEntity
  8
M0
 62
   234
100
AcDbCircle
 10
528.171791
 20
724.324216
 40
14.0
100
AcDbArc
 50
270.0
 51
355.903956
  0
ARC
  5
11C
100
AcDbEntity
  8
M0
 62
   234
100
AcDbCircle
 10
528.171791
 20
724.324216
 40
11.0
100
AcDbArc
 50
5.921615E-012
 51
84.784091
  0
LINE
  5
11D
100
AcDbEntity
  8
M0
 62
   234
100
AcDbLine
 10
514.207551
 20
723.324216
 11
508.713458
 21
723.324216
  0
LINE
  5
11E
100
AcDbEntity
  8
M0
 62
   234
100
AcDbLine
 10
514.207551
 20
725.324216
 11
508.713458
 21
725.324216
  0
LINE
  5
11F
100
AcDbEntity
  8
M0
 62
   234
100
AcDbLine
 10
529.171791
 20
735.278667
 11
529.171791
 21
730.490609
  0
LINE
  5
120
100
AcDbEntity
  8
M0
 62
   234
100
AcDbLine
 10
527.171791
 20
735.278667
 11
527.171791
 21
730.490609
  0
LINE
  5
121
100
AcDbEntity
  8
M0
 62
   234
100
AcDbLine
 10
542.136031
 20
725.324216
 11
547.630125
 21
725.324216
  0
LINE
  5
122
100
AcDbEntity
  8
M0
 62
   234
100
AcDbLine
 10
542.136031
 20
723.324216
 11
547.630125
 21
723.324216
  0
LINE
  5
123
100
AcDbEntity
  8
M0
 62
   234
100
AcDbLine
 10
529.171791
 20
713.369765
 11
529.171791
 21
718.157823
  0
LINE
  5
124
100
AcDbEntity
  8
M0
 62
   234
100
AcDbLine
 10
527.171791
 20
713.369765
 11
527.171791
 21
718.157823
  0
LINE
  5
125
100
AcDbEntity
  8
M0
 62
   234
100
AcDbLine
 10
492.496791
 20
511.319341
 11
498.496791
 21
511.319341
  0
LINE
  5
126
100
AcDbEntity
  8
M0
 62
   234
100
AcDbLine
 10
499.496791
 20
513.357408
 11
498.496791
 21
511.319341
  0
LINE
  5
127
100
AcDbEntity
  8
M0
 62
   234
100
AcDbLine
 10
491.496791
 20
513.357408
 11
499.496791
 21
513.357408
  0
LINE
  5
128
100
AcDbEntity
  8
M0
 62
   234
100
AcDbLine
 10
492.496791
 20
521.324216
 11
492.496791
 21
513.357408
  0
LINE
  5
129
100
AcDbEntity
  8
M0
 62
   234
100
AcDbLine
 10
491.496791
 20
513.357408
 11
492.496791
 21
511.319341
  0
LINE
  5
12A
100
AcDbEntity
  8
M0
  6
DASHDOT
 62
   234
100
AcDbLine
 10
495.496791
 20
499.67498
 11
495.496791
 21
532.894661
  0
LINE
  5
12B
100
AcDbEntity
  8
M0
 62
   234
100
AcDbLine
 10
494.496791
 20
521.324216
 11
494.496791
 21
513.586063
  0
LINE
  5
12C
100
AcDbEntity
  8
M0
 62
   234
100
AcDbLine
 10
496.496791
 20
521.324216
 11
496.496791
 21
513.586063
  0
LINE
  5
12D
100
AcDbEntity
  8
M0
 62
   234
100
AcDbLine
 10
499.496791
 20
521.324216
 11
499.496791
 21
513.357408
  0
LINE
  5
12E
100
AcDbEntity
  8
M0
 62
   234
100
AcDbLine
 10
498.496791
 20
521.324216
 11
498.496791
 21
513.357408
  0
LINE
  5
12F
100
AcDbEntity
  8
M0
 62
   234
100
AcDbLine
 10
491.496791
 20
521.324216
 11
491.496791
 21
513.357408
  0
LINE
  5
130
100
AcDbEntity
  8
M0
 62
   234
100
AcDbLine
 10
568.171791
 20
539.324216
 11
568.171791
 21
764.324216
  0
LINE
  5
131
100
AcDbEntity
  8
M0
 62
   234
100
AcDbLine
 10
553.171791
 20
779.324216
 11
503.171791
 21
779.324216
  0
LINE
  5
132
100
AcDbEntity
  8
M0
 62
   234
100
AcDbLine
 10
443.171791
 20
764.324216
 11
438.171791
 21
651.824216
  0
LINE
  5
133
100
AcDbEntity
  8
M0
 62
   234
100
AcDbLine
 10
458.171791
 20
524.324216
 11
487.821791
 21
524.324216
  0
LINE
  5
134
100
AcDbEntity
  8
M0
  6
DASHDOT
 62
   234
100
AcDbLine
 10
418.171791
 20
651.824216
 11
588.171791
 21
651.824216
  0
LINE
  5
135
100
AcDbEntity
  8
M0
 62
   234
100
AcDbLine
 10
503.171791
 20
521.324216
 11
503.171791
 21
782.324216
  0
LINE
  5
136
100
AcDbEntity
  8
M0
 62
   234
100
AcDbLine
 10
487.821791
 20
521.324216
 11
487.821791
 21
782.324216
  0
LINE
  5
137
100
AcDbEntity
  8
M0
 62
   234
100
AcDbLine
 10
487.821791
 20
782.324216
 11
503.171791
 21
782.324216
  0
LINE
  5
138
100
AcDbEntity
  8
M0
 62
   234
100
AcDbLine
 10
487.821791
 20
779.324216
 11
458.171791
 21
779.324216
  0
LINE
  5
139
100
AcDbEntity
  8
M0
 62
   234
100
AcDbLine
 10
487.821791
 20
521.324216
 11
503.171791
 21
521.324216
  0
LINE
  5
13A
100
AcDbEntity
  8
M0
 62
   234
100
AcDbLine
 10
503.171791
 20
524.324216
 11
553.171791
 21
524.324216
  0
ARC
  5
13B
100
AcDbEntity
  8
M0
 62
   234
100
AcDbCircle
 10
458.171791
 20
764.324216
 40
15.0
100
AcDbArc
 50
90.0
 51
180.0
  0
ARC
  5
13C
100
AcDbEntity
  8
M0
 62
   234
100
AcDbCircle
 10
458.171791
 20
539.324216
 40
15.0
100
AcDbArc
 50
180.0
 51
270.0
  0
ARC
  5
13D
100
AcDbEntity
  8
M0
 62
   234
100
AcDbCircle
 10
553.171791
 20
539.324216
 40
15.0
100
AcDbArc
 50
270.0
 51
360.0
  0
ARC
  5
13E
100
AcDbEntity
  8
M0
 62
   234
100
AcDbCircle
 10
553.171791
 20
764.324216
 40
15.0
100
AcDbArc
 50
0.0
 51
90.0
  0
LINE
  5
13F
100
AcDbEntity
  8
M0
  6
DASHDOT
 62
   234
100
AcDbLine
 10
505.687657
 20
724.324216
 11
554.387334
 21
724.324216
  0
LINE
  5
140
100
AcDbEntity
  8
M0
  6
DASHDOT
 62
   234
100
AcDbLine
 10
528.171791
 20
696.897466
 11
528.171791
 21
745.816512
  0
LINE
  5
141
100
AcDbEntity
  8
M0
  6
DOT
 62
   234
100
AcDbLine
 10
565.971791
 20
772.144702
 11
565.971791
 21
531.50373
  0
LINE
  5
142
100
AcDbEntity
  8
M0
  6
DASHDOT
 62
   234
100
AcDbLine
 10
549.831791
 20
516.941925
 11
549.831791
 21
527.583481
  0
ARC
  5
143
100
AcDbEntity
  8
M0
 62
   234
100
AcDbCircle
 10
549.831791
 20
524.324216
 40
5.0
100
AcDbArc
 50
180.0
 51
360.0
  0
LINE
  5
144
100
AcDbEntity
  8
M0
 62
   234
100
AcDbLine
 10
438.171791
 20
651.824216
 11
443.171791
 21
539.324216
  0
LINE
  5
145
100
AcDbEntity
  8
M1
 62
     2
100
AcDbLine
 10
33.333332
 20
33.333332
 11
33.333332
 21
949.999962
  0
LINE
  5
146
100
AcDbEntity
  8
M1
 62
     2
100
AcDbLine
 10
33.333332
 20
949.999962
 11
666.66664
 21
949.999962
  0
LINE
  5
147
100
AcDbEntity
  8
M1
 62
     2
100
AcDbLine
 10
666.66664
 20
949.999962
 11
666.66664
 21
33.333332
  0
LINE
  5
148
100
AcDbEntity
  8
M1
 62
     2
100
AcDbLine
 10
666.66664
 20
33.333332
 11
33.333332
 21
33.333332
  0
LINE
  5
149
100
AcDbEntity
  8
M1
 62
     2
100
AcDbLine
 10
666.66664
 20
66.666664
 11
333.33332
 21
66.666664
  0
LINE
  5
14A
100
AcDbEntity
  8
M1
 62
     2
100
AcDbLine
 10
666.66664
 20
99.999996
 11
333.33332
 21
99.999996
  0
LINE
  5
14B
100
AcDbEntity
  8
M1
 62
     2
100
AcDbLine
 10
666.66664
 20
133.333328
 11
333.33332
 21
133.333328
  0
LINE
  5
14C
100
AcDbEntity
  8
M1
 62
     2
100
AcDbLine
 10
333.33332
 20
33.333332
 11
333.33332
 21
133.333328
  0
TEXT
  5
14D
100
AcDbEntity
  8
M1
 62
     2
100
AcDbText
 10
341.666653
 20
41.666665
 40
16.666666
  1
適　用；
 41
1.0
  7
STANDARD
100
AcDbText
  0
TEXT
  5
14E
100
AcDbEntity
  8
M1
 62
     2
100
AcDbText
 10
341.666653
 20
108.333329
 40
16.666666
  1
登録名：
 41
1.0
  7
STANDARD
100
AcDbText
  0
TEXT
  5
14F
100
AcDbEntity
  8
M1
 62
     2
100
AcDbText
 10
421.66665
 20
108.333329
 40
16.666666
  1
ＤＭＳＨＳ２５ＴＲ００
 41
0.5
  7
STANDARD
100
AcDbText
  0
TEXT
  5
150
100
AcDbEntity
  8
M1
 62
     2
100
AcDbText
 10
341.666653
 20
74.999997
 40
16.666666
  1
形　式；
 41
1.0
  7
STANDARD
100
AcDbText
  0
TEXT
  5
151
100
AcDbEntity
  8
M1
 62
     2
100
AcDbText
 10
421.66665
 20
74.999997
 40
16.666666
  1
ＳＨＳ２５－Ｔ
 41
0.5
  7
STANDARD
100
AcDbText
  0
ENDSEC
  0
SECTION
  2
OBJECTS
  0
DICTIONARY
  5
C
100
AcDbDictionary
  3
ACAD_GROUP
350
D
  3
ACAD_MLINESTYLE
350
E
  0
DICTIONARY
  5
D
102
{ACAD_REACTORS
330
C
102
}
100
AcDbDictionary
  0
DICTIONARY
  5
E
102
{ACAD_REACTORS
330
C
102
}
100
AcDbDictionary
  3
STANDARD
350
13
  0
MLINESTYLE
  5
13
102
{ACAD_REACTORS
330
E
102
}
100
AcDbMlineStyle
  2
STANDARD
 70
     0
  3

 62
     0
 51
90.0
 52
90.0
 71
     2
 49
0.5
 62
   256
  6
BYLAYER
 49
-0.5
 62
   256
  6
BYLAYER
  0
ENDSEC
  0
EOF
