  0
SECTION
  2
HEADER
  9
$ACADVER
  1
AC1014
  9
$INSBASE
 10
0.000000
 20
0.000000
 30
0.0
  9
$VIEWCTR
 10
7.531722
 20
4.5
  9
$VIEWSIZE
 40
9.0
  9
$SNAPMODE
 70
     0
  9
$SNAPUNIT
 10
1.0
 20
1.0
  9
$SNAPBASE
 10
0.0
 20
0.0
  9
$SNAPANG
 50
0.0
  9
$SNAPSTYLE
 70
     0
  9
$SNAPISOPAIR
 70
     0
  9
$GRIDMODE
 70
     0
  9
$GRIDUNIT
 10
0.0
 20
0.0
  9
$ORTHOMODE
 70
     0
  9
$REGENMODE
 70
     1
  9
$FILLMODE
 70
     1
  9
$QTEXTMODE
 70
     0
  9
$DRAGMODE
 70
     2
  9
$LTSCALE
  40
     1.000000
  9
$OSMODE
 70
     0
  9
$ATTMODE
 70
     1
  9
$TEXTSIZE
 40
0.2
  9
$TRACEWID
 40
0.05
  9
$TEXTSTYLE
  7
STANDARD
  9
$CELTYPE
  6
BYLAYER
  9
$CECOLOR
 62
   256
  9
$DIMSCALE
 40
1.0
  9
$DIMASZ
 40
0.18
  9
$DIMEXO
 40
0.0625
  9
$DIMDLI
 40
0.38
  9
$DIMRND
 40
0.0
  9
$DIMDLE
 40
0.0
  9
$DIMEXE
 40
0.18
  9
$DIMTP
 40
0.0
  9
$DIMTM
 40
0.0
  9
$DIMTXT
 40
0.18
  9
$DIMCEN
 40
0.09
  9
$DIMTSZ
 40
0.0
  9
$DIMTOL
 70
     0
  9
$DIMLIM
 70
     0
  9
$DIMTIH
 70
     1
  9
$DIMTOH
 70
     1
  9
$DIMSE1
 70
     0
  9
$DIMSE2
 70
     0
  9
$DIMTAD
 70
     0
  9
$DIMZIN
 70
     0
  9
$DIMBLK
  1

  9
$LUNITS
 70
     2
  9
$LUPREC
 70
     4
  9
$AXISMODE
 70
     0
  9
$AXISUNIT
 10
0.0
 20
0.0
  9
$SKETCHINC
 40
0.1
  9
$FILLETRAD
 40
0.0
  9
$AUNITS
 70
     0
  9
$AUPREC
 70
     0
  9
$MENU
  1
ACAD
  9
$ELEVATION
 40
0.0
  9
$THICKNESS
 40
0.0
  9
$VIEWDIR
 10
0.0
 20
0.0
 30
1.0
  9
$LIMCHECK
 70
     0
  9
$BLIPMODE
 70
     1
  9
$CHAMFERA
 40
0.0
  9
$CHAMFERB
 40
0.0
  9
$FASTZOOM
 70
     1
  9
$SKPOLY
 70
     0
  9
$TDCREATE
 40
0000000.0000000000
  9
$TDUPDATE
 40
0000000.0000000000
  9
$TDINDWG
 40
0.0000000000
  9
$TDUSRTIMER
 40
0.0000000000
  9
$USRTIMER
 70
     1
  9
$ANGBASE
 50
0.0
  9
$ANGDIR
 70
     0
  9
$PDMODE
 70
     0
  9
$PDSIZE
 40
0.0
  9
$PLINEWID
 40
0.0
  9
$COORDS
 70
     0
  9
$USERI1
 70
     0
  9
$USERI2
 70
     0
  9
$USERI3
 70
     0
  9
$USERI4
 70
     0
  9
$USERI5
 70
     0
  9
$USERR1
 40
0.0
  9
$USERR2
 40
0.0
  9
$USERR3
 40
0.0
  9
$USERR4
 40
0.0
  9
$USERR5
 40
0.0
  9
$CLAYER
  8
M0
  9
$EXTMIN
 10
33.333332
 20
33.333332
  9
$EXTMAX
 10
666.66664
 20
949.999962
  9
$LIMMIN
 10
0.0
 20
0.0
  9
$LIMMAX
 10
210.0
 20
297.0
  9
$HANDSEED
  5
1CA
  0
ENDSEC
  0
SECTION
  2
CLASSES
  0
ENDSEC
  0
SECTION
  2
TABLES
  0
TABLE
  2
VPORT
  5
8
100
AcDbSymbolTable
 70
     2
  0
VPORT
  5
14
100
AcDbSymbolTableRecord
100
AcDbViewportTableRecord
  2
*ACTIVE
 70
     0
 10
0.0
 20
0.0
 11
1.0
 21
1.0
 12
484.0
 22
297.0
 13
0.0
 23
0.0
 14
1.0
 24
1.0
 15
0.0
 25
0.0
 16
0.0
 26
0.0
 36
1.0
 17
0.0
 27
0.0
 37
0.0
 40
594.0
 41
2.0
 42
50.0
 43
0.0
 44
0.0
 50
0.0
 51
0.0
 71
     0
 72
   100
 73
     1
 74
     1
 75
     0
 76
     0
 77
     0
 78
     0
  0
ENDTAB
  0
TABLE
  2
LTYPE
  5
5
100
AcDbSymbolTable
 70
     5
  0
LTYPE
  5
15
100
AcDbSymbolTableRecord
100
AcDbLinetypeTableRecord
  2
BYBLOCK
 70
     0
  3

 72
    65
 73
     0
 40
0.0
  0
LTYPE
  5
16
100
AcDbSymbolTableRecord
100
AcDbLinetypeTableRecord
  2
BYLAYER
 70
     0
  3

 72
    65
 73
     0
 40
0.0
  0
LTYPE
  5
17
100
AcDbSymbolTableRecord
100
AcDbLinetypeTableRecord
  2
CONTINUOUS
 70
    64
  3
Solid line
 72
    65
 73
     0
 40
0.0
  0
LTYPE
  5
18
100
AcDbSymbolTableRecord
100
AcDbLinetypeTableRecord
  2
DASHED
 70
    64
  3
__ __ __ __ __ __ __ __ __ __ __ __ __ __ __ __
 72
    65
 73
     2
 40
0.75
 49
0.5
 74
     0
 49
-0.25
 74
     0
  0
LTYPE
  5
19
100
AcDbSymbolTableRecord
100
AcDbLinetypeTableRecord
  2
DASHDOT
 70
    64
  3
__ . __ . __ . __ . __ . __ . __ . __ . __ . __
 72
    65
 73
     4
 40
1.0
 49
0.5
 74
     0
 49
-0.25
 74
     0
 49
0.0
 74
     0
 49
-0.25
 74
     0
  0
LTYPE
  5
1A
100
AcDbSymbolTableRecord
100
AcDbLinetypeTableRecord
  2
DIVIDE
 70
    64
  3
____ . . ____ . . ____ . . ____ . . ____ . . __
 72
    65
 73
     6
 40
1.25
 49
0.5
 74
     0
 49
-0.25
 74
     0
 49
0.0
 74
     0
 49
-0.25
 74
     0
 49
0.0
 74
     0
 49
-0.25
 74
     0
  0
LTYPE
  5
1B
100
AcDbSymbolTableRecord
100
AcDbLinetypeTableRecord
  2
DOT
 70
    64
  3
. . . . . . . . . . . . . . . . . . . . . . . .
 72
    65
 73
     2
 40
0.25
 49
0.0
 74
     0
 49
-0.25
 74
     0
  0
ENDTAB
  0
TABLE
  2
LAYER
  5
2
100
AcDbSymbolTable
 70
   102
  0
LAYER
  5
F
100
AcDbSymbolTableRecord
100
AcDbLayerTableRecord
  2
0
 70
     0
 62
     7
  6
CONTINUOUS
  0
LAYER
  5
1C
100
AcDbSymbolTableRecord
100
AcDbLayerTableRecord
  2
DEFPOINTS
 70
     0
 62
     7
  6
CONTINUOUS
  0
LAYER
  5
1D
100
AcDbSymbolTableRecord
100
AcDbLayerTableRecord
  2
M0
 70
     0
 62
     3
  6
CONTINUOUS
  0
LAYER
  5
1E
100
AcDbSymbolTableRecord
100
AcDbLayerTableRecord
  2
M1
 70
     0
 62
     3
  6
CONTINUOUS
  0
LAYER
  5
1F
100
AcDbSymbolTableRecord
100
AcDbLayerTableRecord
  2
DD0
 70
     0
 62
     4
  6
CONTINUOUS
  0
ENDTAB
  0
TABLE
  2
STYLE
  5
3
100
AcDbSymbolTable
 70
     2
  0
STYLE
  5
10
100
AcDbSymbolTableRecord
100
AcDbTextStyleTableRecord
  2
STANDARD
 70
     0
 40
0.0
 41
1.0
 50
0.0
 71
     0
 42
0.2
  3
txt
  4
BIGFONT
  0
ENDTAB
  0
TABLE
  2
VIEW
  5
6
100
AcDbSymbolTable
 70
     0
  0
ENDTAB
  0
TABLE
  2
UCS
  5
7
100
AcDbSymbolTable
 70
     0
  0
ENDTAB
  0
TABLE
  2
APPID
  5
9
100
AcDbSymbolTable
 70
     1
  0
APPID
  5
11
100
AcDbSymbolTableRecord
100
AcDbRegAppTableRecord
  2
ACAD
 70
     0
  0
ENDTAB
  0
TABLE
  2
DIMSTYLE
  5
A
100
AcDbSymbolTable
 70
     2
  0
DIMSTYLE
105
26
100
AcDbSymbolTableRecord
100
AcDbDimStyleTableRecord
  2
STANDARD
 70
     0
  3

  4

  5

  6
_OPEN
  7
_OPEN
 40
1.0
 41
10.0
 42
1.0
 43
8.0
 44
1.0
 45
0.0
 46
0.0
 47
0.0
 48
0.0
140
10.5
141
0.09
142
0.0
143
0.03937
144
1.0
145
0.0
146
1.0
147
0.6
 71
     0
 72
     0
 73
     1
 74
     1
 75
     0
 76
     0
 77
     3
 78
     8
170
     0
171
     2
172
     0
173
     1
174
     0
175
     0
176
     0
177
     0
178
     0
270
     2
271
     2
272
     4
273
     2
274
     2
340
10
275
     0
280
     0
281
     0
282
     0
283
     1
284
     0
285
     0
286
     0
287
     3
288
     0
  0
DIMSTYLE
105
27
100
AcDbSymbolTableRecord
100
AcDbDimStyleTableRecord
  2
LEADSTYL
 70
     0
  3

  4

  5

  6
_OPEN
  7
_OPEN
 40
1.0
 41
10.0
 42
0.0625
 43
0.38
 44
0.18
 45
0.0
 46
0.0
 47
0.0
 48
0.0
140
10.5
141
0.09
142
0.0
143
25.4
144
1.0
145
0.0
146
1.0
147
0.6
 71
     0
 72
     0
 73
     1
 74
     1
 75
     0
 76
     0
 77
     0
 78
     0
170
     0
171
     2
172
     0
173
     1
174
     0
175
     0
176
     0
177
     0
178
     0
270
     2
271
     4
272
     4
273
     2
274
     2
340
10
275
     0
280
     0
281
     0
282
     0
283
     1
284
     0
285
     0
286
     0
287
     3
288
     0
  0
ENDTAB
  0
TABLE
  2
BLOCK_RECORD
  5
1
100
AcDbSymbolTable
 70
    17
  0
BLOCK_RECORD
  5
20
100
AcDbSymbolTableRecord
100
AcDbBlockTableRecord
  2
*MODEL_SPACE
  0
BLOCK_RECORD
  5
23
100
AcDbSymbolTableRecord
100
AcDbBlockTableRecord
  2
*PAPER_SPACE
  0
BLOCK_RECORD
  5
28
100
AcDbSymbolTableRecord
100
AcDbBlockTableRecord
  2
_NONE
  0
BLOCK_RECORD
  5
2C
100
AcDbSymbolTableRecord
100
AcDbBlockTableRecord
  2
_OPEN
  0
BLOCK_RECORD
  5
32
100
AcDbSymbolTableRecord
100
AcDbBlockTableRecord
  2
_CLOSED
  0
BLOCK_RECORD
  5
39
100
AcDbSymbolTableRecord
100
AcDbBlockTableRecord
  2
_ORIGIN
  0
BLOCK_RECORD
  5
3E
100
AcDbSymbolTableRecord
100
AcDbBlockTableRecord
  2
_DOT
  0
BLOCK_RECORD
  5
46
100
AcDbSymbolTableRecord
100
AcDbBlockTableRecord
  2
_OBLIQUE
  0
BLOCK_RECORD
  5
4A
100
AcDbSymbolTableRecord
100
AcDbBlockTableRecord
  2
DIMS0
  0
BLOCK_RECORD
  5
56
100
AcDbSymbolTableRecord
100
AcDbBlockTableRecord
  2
DIMS1
  0
BLOCK_RECORD
  5
5F
100
AcDbSymbolTableRecord
100
AcDbBlockTableRecord
  2
DIMS2
  0
BLOCK_RECORD
  5
68
100
AcDbSymbolTableRecord
100
AcDbBlockTableRecord
  2
DIMS3
  0
BLOCK_RECORD
  5
74
100
AcDbSymbolTableRecord
100
AcDbBlockTableRecord
  2
DIMS4
  0
BLOCK_RECORD
  5
80
100
AcDbSymbolTableRecord
100
AcDbBlockTableRecord
  2
DIMS5
  0
BLOCK_RECORD
  5
8C
100
AcDbSymbolTableRecord
100
AcDbBlockTableRecord
  2
DIMS6
  0
BLOCK_RECORD
  5
98
100
AcDbSymbolTableRecord
100
AcDbBlockTableRecord
  2
DIMS7
  0
BLOCK_RECORD
  5
A2
100
AcDbSymbolTableRecord
100
AcDbBlockTableRecord
  2
DIMS8
  0
BLOCK_RECORD
  5
AB
100
AcDbSymbolTableRecord
100
AcDbBlockTableRecord
  2
DIMS9
  0
BLOCK_RECORD
  5
B7
100
AcDbSymbolTableRecord
100
AcDbBlockTableRecord
  2
DIMS10
  0
ENDTAB
  0
ENDSEC
  0
SECTION
  2
BLOCKS
  0
BLOCK
  5
21
100
AcDbEntity
  8
0
100
AcDbBlockBegin
  2
*MODEL_SPACE
 70
     0
 10
0.0
 20
0.0
 30
0.0
  3
*MODEL_SPACE
  1

  0
ENDBLK
  5
22
100
AcDbEntity
  8
0
100
AcDbBlockEnd
  0
BLOCK
  5
24
100
AcDbEntity
 67
     1
  8
0
100
AcDbBlockBegin
  2
*PAPER_SPACE
 70
     0
 10
0.0
 20
0.0
 30
0.0
  3
*PAPER_SPACE
  1

  0
ENDBLK
  5
25
100
AcDbEntity
 67
     1
  8
0
100
AcDbBlockEnd
  0
BLOCK
  5
29
100
AcDbEntity
  8
0
100
AcDbBlockBegin
  2
_NONE
 70
     0
 10
0.0
 20
0.0
  0
CIRCLE
  5
2A
100
AcDbEntity
  8
0
 62
     0
100
AcDbCircle
 10
0.0
 20
0.0
 40
0.25
  0
ENDBLK
  5
2B
100
AcDbEntity
  8
0
100
AcDbBlockEnd
  0
BLOCK
  5
2D
100
AcDbEntity
  8
0
100
AcDbBlockBegin
  2
_OPEN
 70
     0
 10
0.0
 20
0.0
  0
LINE
  5
2E
100
AcDbEntity
  8
0
 62
     0
100
AcDbLine
 10
-0.965926
 20
0.258819
 11
0.0
 21
0.0
  0
LINE
  5
2F
100
AcDbEntity
  8
0
 62
     0
100
AcDbLine
 10
0.0
 20
0.0
 11
-0.965926
 21
-0.258819
  0
LINE
  5
30
100
AcDbEntity
  8
0
 62
     0
100
AcDbLine
 10
0.0
 20
0.0
 11
-1.0
 21
0.0
  0
ENDBLK
  5
31
100
AcDbEntity
  8
0
100
AcDbBlockEnd
  0
BLOCK
  5
33
100
AcDbEntity
  8
0
100
AcDbBlockBegin
  2
_CLOSED
 70
     0
 10
0.0
 20
0.0
  0
LINE
  5
34
100
AcDbEntity
  8
0
 62
     0
100
AcDbLine
 10
-0.965926
 20
0.258819
 11
0.0
 21
0.0
  0
LINE
  5
35
100
AcDbEntity
  8
0
 62
     0
100
AcDbLine
 10
0.0
 20
0.0
 11
-0.965926
 21
-0.258819
  0
LINE
  5
36
100
AcDbEntity
  8
0
 62
     0
100
AcDbLine
 10
-0.965926
 20
0.258819
 11
-0.965926
 21
-0.258819
  0
LINE
  5
37
100
AcDbEntity
  8
0
 62
     0
100
AcDbLine
 10
0.0
 20
0.0
 11
-1.0
 21
0.0
  0
ENDBLK
  5
38
100
AcDbEntity
  8
0
100
AcDbBlockEnd
  0
BLOCK
  5
3A
100
AcDbEntity
  8
0
100
AcDbBlockBegin
  2
_ORIGIN
 70
     0
 10
0.0
 20
0.0
  0
CIRCLE
  5
3B
100
AcDbEntity
  8
0
 62
     0
100
AcDbCircle
 10
0.0
 20
0.0
 40
0.5
  0
LINE
  5
3C
100
AcDbEntity
  8
0
 62
     0
100
AcDbLine
 10
0.0
 20
0.0
 11
-1.0
 21
0.0
  0
ENDBLK
  5
3D
100
AcDbEntity
  8
0
100
AcDbBlockEnd
  0
BLOCK
  5
3F
100
AcDbEntity
  8
0
100
AcDbBlockBegin
  2
_DOT
 70
     0
 10
0.0
 20
0.0
  0
POLYLINE
  5
40
100
AcDbEntity
  8
0
 62
     0
100
AcDb2dPolyline
 66
     1
 70
     1
 40
0.5
 41
0.5
  0
VERTEX
  5
41
100
AcDbEntity
  8
0
 62
     0
100
AcDbVertex
100
AcDb2dVertex
 10
-0.25
 20
0.0
 42
1.0
  0
VERTEX
  5
42
100
AcDbEntity
  8
0
 62
     0
100
AcDbVertex
100
AcDb2dVertex
 10
0.25
 20
0.0
 42
1.0
  0
SEQEND
  5
43
100
AcDbEntity
  8
0
 62
     0
  0
LINE
  5
44
100
AcDbEntity
  8
0
 62
     0
100
AcDbLine
 10
-0.5
 20
0.0
 11
-1.0
 21
0.0
  0
ENDBLK
  5
45
100
AcDbEntity
  8
0
100
AcDbBlockEnd
  0
BLOCK
  5
47
100
AcDbEntity
  8
0
100
AcDbBlockBegin
  2
_OBLIQUE
 70
     0
 10
0.0
 20
0.0
  0
LINE
  5
48
100
AcDbEntity
  8
0
 62
     0
100
AcDbLine
 10
-0.353553
 20
-0.353553
 11
0.353553
 21
0.353553
  0
ENDBLK
  5
49
100
AcDbEntity
  8
0
100
AcDbBlockEnd
  0
BLOCK
  5
4B
100
AcDbEntity
  8
DD0
100
AcDbBlockBegin
  2
DIMS0
 70
     0
 10
0.0
 20
0.0
  0
LINE
  5
4C
100
AcDbEntity
  8
DD0
100
AcDbLine
 10
255.897207
 20
776.161316
 11
406.022806
 21
776.161316
  0
LINE
  5
4D
100
AcDbEntity
  8
DD0
100
AcDbLine
 10
291.397007
 20
772.161326
 11
406.022806
 21
772.161326
  0
LINE
  5
4E
100
AcDbEntity
  8
DD0
100
AcDbLine
 10
400.101282
 20
785.820573
 11
402.689473
 21
776.161316
  0
LINE
  5
4F
100
AcDbEntity
  8
DD0
100
AcDbLine
 10
402.689473
 20
776.161316
 11
405.277663
 21
785.820573
  0
LINE
  5
50
100
AcDbEntity
  8
DD0
100
AcDbLine
 10
405.277663
 20
762.502068
 11
402.689473
 21
772.161326
  0
LINE
  5
51
100
AcDbEntity
  8
DD0
100
AcDbLine
 10
402.689473
 20
772.161326
 11
400.101282
 21
762.502068
  0
LINE
  5
52
100
AcDbEntity
  8
DD0
100
AcDbLine
 10
402.689473
 20
800.994647
 11
402.689473
 21
761.161327
  0
TEXT
  5
53
100
AcDbEntity
  8
DD0
100
AcDbText
 10
400.689478
 20
788.019663
 40
10.5
  1
４
 50
90.000003
 41
0.833333
  7
STANDARD
100
AcDbText
  0
ENDBLK
  5
54
100
AcDbEntity
  8
DD0
100
AcDbBlockEnd
  0
BLOCK
  5
57
100
AcDbEntity
  8
DD0
100
AcDbBlockBegin
  2
DIMS1
 70
     0
 10
0.0
 20
0.0
  0
LINE
  5
58
100
AcDbEntity
  8
DD0
100
AcDbLine
 10
291.397007
 20
517.161336
 11
406.022806
 21
517.161336
  0
LINE
  5
59
100
AcDbEntity
  8
DD0
100
AcDbLine
 10
400.101282
 20
526.820594
 11
402.689473
 21
517.161336
  0
LINE
  5
5A
100
AcDbEntity
  8
DD0
100
AcDbLine
 10
402.689473
 20
517.161336
 11
405.277663
 21
526.820594
  0
LINE
  5
5B
100
AcDbEntity
  8
DD0
100
AcDbLine
 10
402.689473
 20
772.161326
 11
402.689473
 21
517.161336
  0
TEXT
  5
5C
100
AcDbEntity
  8
DD0
100
AcDbText
 10
400.689478
 20
629.769649
 40
10.5
  1
２５５
 50
90.000003
 41
0.833333
  7
STANDARD
100
AcDbText
  0
ENDBLK
  5
5D
100
AcDbEntity
  8
DD0
100
AcDbBlockEnd
  0
BLOCK
  5
60
100
AcDbEntity
  8
DD0
100
AcDbBlockBegin
  2
DIMS2
 70
     0
 10
0.0
 20
0.0
  0
LINE
  5
61
100
AcDbEntity
  8
DD0
100
AcDbLine
 10
193.696777
 20
507.16154
 11
406.022806
 21
507.16154
  0
LINE
  5
62
100
AcDbEntity
  8
DD0
100
AcDbLine
 10
405.277663
 20
497.502282
 11
402.689473
 21
507.16154
  0
LINE
  5
63
100
AcDbEntity
  8
DD0
100
AcDbLine
 10
402.689473
 20
507.16154
 11
400.101282
 21
497.502282
  0
LINE
  5
64
100
AcDbEntity
  8
DD0
100
AcDbLine
 10
402.689473
 20
517.161336
 11
402.689473
 21
471.828207
  0
TEXT
  5
65
100
AcDbEntity
  8
DD0
100
AcDbText
 10
400.689478
 20
474.519868
 40
10.5
  1
１０
 50
90.000003
 41
0.833333
  7
STANDARD
100
AcDbText
  0
ENDBLK
  5
66
100
AcDbEntity
  8
DD0
100
AcDbBlockEnd
  0
BLOCK
  5
69
100
AcDbEntity
  8
DD0
100
AcDbBlockBegin
  2
DIMS3
 70
     0
 10
0.0
 20
0.0
  0
LINE
  5
6A
100
AcDbEntity
  8
DD0
100
AcDbLine
 10
291.397007
 20
772.161326
 11
377.222733
 21
772.161428
  0
LINE
  5
6B
100
AcDbEntity
  8
DD0
100
AcDbLine
 10
293.903085
 20
749.661327
 11
377.222758
 21
749.661429
  0
LINE
  5
6C
100
AcDbEntity
  8
DD0
100
AcDbLine
 10
371.301198
 20
781.820683
 11
373.8894
 21
772.161428
  0
LINE
  5
6D
100
AcDbEntity
  8
DD0
100
AcDbLine
 10
373.8894
 20
772.161428
 11
376.477579
 21
781.820688
  0
LINE
  5
6E
100
AcDbEntity
  8
DD0
100
AcDbLine
 10
376.477626
 20
740.002174
 11
373.889425
 21
749.661429
  0
LINE
  5
6F
100
AcDbEntity
  8
DD0
100
AcDbLine
 10
373.889425
 20
749.661429
 11
371.301246
 21
740.002168
  0
LINE
  5
70
100
AcDbEntity
  8
DD0
100
AcDbLine
 10
373.889336
 20
828.494757
 11
373.889437
 21
738.661429
  0
TEXT
  5
71
100
AcDbEntity
  8
DD0
100
AcDbText
 10
371.889405
 20
784.019775
 40
10.5
  1
２２．５
 50
90.000064
 41
0.833333
  7
STANDARD
100
AcDbText
  0
ENDBLK
  5
72
100
AcDbEntity
  8
DD0
100
AcDbBlockEnd
  0
BLOCK
  5
75
100
AcDbEntity
  8
DD0
100
AcDbBlockBegin
  2
DIMS4
 70
     0
 10
0.0
 20
0.0
  0
LINE
  5
76
100
AcDbEntity
  8
DD0
100
AcDbLine
 10
304.063658
 20
759.494141
 11
304.063658
 21
867.982448
  0
LINE
  5
77
100
AcDbEntity
  8
DD0
100
AcDbLine
 10
69.063883
 20
759.494395
 11
69.063883
 21
867.982448
  0
LINE
  5
78
100
AcDbEntity
  8
DD0
100
AcDbLine
 10
294.4044
 20
862.060925
 11
304.063658
 21
864.649115
  0
LINE
  5
79
100
AcDbEntity
  8
DD0
100
AcDbLine
 10
304.063658
 20
864.649115
 11
294.4044
 21
867.237306
  0
LINE
  5
7A
100
AcDbEntity
  8
DD0
100
AcDbLine
 10
78.723141
 20
867.237306
 11
69.063883
 21
864.649115
  0
LINE
  5
7B
100
AcDbEntity
  8
DD0
100
AcDbLine
 10
69.063883
 20
864.649115
 11
78.723141
 21
862.060925
  0
LINE
  5
7C
100
AcDbEntity
  8
DD0
100
AcDbLine
 10
304.063658
 20
864.649115
 11
69.063883
 21
864.649115
  0
TEXT
  5
7D
100
AcDbEntity
  8
DD0
100
AcDbText
 10
171.672107
 20
866.649135
 40
10.5
  1
２３５
 41
0.833333
  7
STANDARD
100
AcDbText
  0
ENDBLK
  5
7E
100
AcDbEntity
  8
DD0
100
AcDbBlockEnd
  0
BLOCK
  5
81
100
AcDbEntity
  8
DD0
100
AcDbBlockBegin
  2
DIMS5
 70
     0
 10
0.0
 20
0.0
  0
LINE
  5
82
100
AcDbEntity
  8
DD0
100
AcDbLine
 10
304.063658
 20
759.494141
 11
304.063658
 21
837.540148
  0
LINE
  5
83
100
AcDbEntity
  8
DD0
100
AcDbLine
 10
281.563888
 20
762.172364
 11
281.563888
 21
837.540148
  0
LINE
  5
84
100
AcDbEntity
  8
DD0
100
AcDbLine
 10
313.722916
 20
836.795005
 11
304.063658
 21
834.206815
  0
LINE
  5
85
100
AcDbEntity
  8
DD0
100
AcDbLine
 10
304.063658
 20
834.206815
 11
313.722916
 21
831.618625
  0
LINE
  5
86
100
AcDbEntity
  8
DD0
100
AcDbLine
 10
271.90463
 20
831.618625
 11
281.563888
 21
834.206815
  0
LINE
  5
87
100
AcDbEntity
  8
DD0
100
AcDbLine
 10
281.563888
 20
834.206815
 11
271.90463
 21
836.795005
  0
LINE
  5
88
100
AcDbEntity
  8
DD0
100
AcDbLine
 10
360.396988
 20
834.206815
 11
270.563888
 21
834.206815
  0
TEXT
  5
89
100
AcDbEntity
  8
DD0
100
AcDbText
 10
315.922005
 20
836.206835
 40
10.5
  1
２２．５
 41
0.833333
  7
STANDARD
100
AcDbText
  0
ENDBLK
  5
8A
100
AcDbEntity
  8
DD0
100
AcDbBlockEnd
  0
BLOCK
  5
8D
100
AcDbEntity
  8
DD0
100
AcDbBlockBegin
  2
DIMS6
 70
     0
 10
0.0
 20
0.0
  0
LINE
  5
8E
100
AcDbEntity
  8
DD0
100
AcDbLine
 10
458.384178
 20
647.994664
 11
458.384178
 21
837.540148
  0
LINE
  5
8F
100
AcDbEntity
  8
DD0
100
AcDbLine
 10
588.382952
 20
768.494181
 11
588.382952
 21
837.540148
  0
LINE
  5
90
100
AcDbEntity
  8
DD0
100
AcDbLine
 10
468.043436
 20
836.795005
 11
458.384178
 21
834.206815
  0
LINE
  5
91
100
AcDbEntity
  8
DD0
100
AcDbLine
 10
458.384178
 20
834.206815
 11
468.043436
 21
831.618625
  0
LINE
  5
92
100
AcDbEntity
  8
DD0
100
AcDbLine
 10
578.723694
 20
831.618625
 11
588.382952
 21
834.206815
  0
LINE
  5
93
100
AcDbEntity
  8
DD0
100
AcDbLine
 10
588.382952
 20
834.206815
 11
578.723694
 21
836.795005
  0
LINE
  5
94
100
AcDbEntity
  8
DD0
100
AcDbLine
 10
458.384178
 20
834.206815
 11
588.382952
 21
834.206815
  0
TEXT
  5
95
100
AcDbEntity
  8
DD0
100
AcDbText
 10
508.491882
 20
836.206835
 40
10.5
  1
１３０
 41
0.833333
  7
STANDARD
100
AcDbText
  0
ENDBLK
  5
96
100
AcDbEntity
  8
DD0
100
AcDbBlockEnd
  0
BLOCK
  5
99
100
AcDbEntity
  8
DD0
100
AcDbBlockBegin
  2
DIMS7
 70
     0
 10
0.0
 20
0.0
  0
LINE
  5
9A
100
AcDbEntity
  8
DD0
100
AcDbLine
 10
598.04221
 20
573.652112
 11
588.382952
 21
571.063922
  0
LINE
  5
9B
100
AcDbEntity
  8
DD0
100
AcDbLine
 10
588.382952
 20
571.063922
 11
598.04221
 21
568.475731
  0
LINE
  5
9C
100
AcDbEntity
  8
DD0
100
AcDbLine
 10
575.123637
 20
568.475731
 11
584.782895
 21
571.063922
  0
LINE
  5
9D
100
AcDbEntity
  8
DD0
100
AcDbLine
 10
584.782895
 20
571.063922
 11
575.123637
 21
573.652112
  0
LINE
  5
9E
100
AcDbEntity
  8
DD0
100
AcDbLine
 10
655.21628
 20
571.063922
 11
573.782896
 21
571.063922
  0
TEXT
  5
9F
100
AcDbEntity
  8
DD0
100
AcDbText
 10
600.241299
 20
573.063942
 40
10.5
  1
　ｔ１．２
 41
0.833333
  7
STANDARD
100
AcDbText
  0
ENDBLK
  5
A0
100
AcDbEntity
  8
DD0
100
AcDbBlockEnd
  0
BLOCK
  5
A3
100
AcDbEntity
  8
DD0
100
AcDbBlockBegin
  2
DIMS8
 70
     0
 10
0.0
 20
0.0
  0
TEXT
  5
A4
100
AcDbEntity
  8
DD0
100
AcDbText
 10
300.332838
 20
448.51459
 40
10.5
  1
４－Ｍ５ネジ取付穴
 41
0.833333
  7
STANDARD
100
AcDbText
  0
LINE
  5
A5
100
AcDbEntity
  8
DD0
100
AcDbLine
 10
287.355856
 20
528.125184
 11
283.456384
 21
537.333556
  0
LINE
  5
A6
100
AcDbEntity
  8
DD0
100
AcDbLine
 10
283.456384
 20
537.333556
 11
282.22924
 21
527.409136
  0
LINE
  5
A7
100
AcDbEntity
  8
DD0
100
AcDbLine
 10
283.456384
 20
537.333556
 11
296.141295
 21
446.514671
  0
LINE
  5
A8
100
AcDbEntity
  8
DD0
100
AcDbLine
 10
296.14132
 20
446.514671
 11
397.307927
 21
446.514519
  0
ENDBLK
  5
A9
100
AcDbEntity
  8
DD0
100
AcDbBlockEnd
  0
BLOCK
  5
AC
100
AcDbEntity
  8
DD0
100
AcDbBlockBegin
  2
DIMS9
 70
     0
 10
0.0
 20
0.0
  0
LINE
  5
AD
100
AcDbEntity
  8
DD0
100
AcDbLine
 10
293.903085
 20
749.661327
 11
377.222784
 21
749.661327
  0
LINE
  5
AE
100
AcDbEntity
  8
DD0
100
AcDbLine
 10
293.903085
 20
539.661335
 11
377.222784
 21
539.661335
  0
LINE
  5
AF
100
AcDbEntity
  8
DD0
100
AcDbLine
 10
376.477641
 20
740.002069
 11
373.88945
 21
749.661327
  0
LINE
  5
B0
100
AcDbEntity
  8
DD0
100
AcDbLine
 10
373.88945
 20
749.661327
 11
371.30126
 21
740.002069
  0
LINE
  5
B1
100
AcDbEntity
  8
DD0
100
AcDbLine
 10
371.30126
 20
549.320593
 11
373.88945
 21
539.661335
  0
LINE
  5
B2
100
AcDbEntity
  8
DD0
100
AcDbLine
 10
373.88945
 20
539.661335
 11
376.477641
 21
549.320593
  0
LINE
  5
B3
100
AcDbEntity
  8
DD0
100
AcDbLine
 10
373.88945
 20
749.661327
 11
373.88945
 21
539.661335
  0
TEXT
  5
B4
100
AcDbEntity
  8
DD0
100
AcDbText
 10
371.889456
 20
629.769649
 40
10.5
  1
２１０
 50
90.000003
 41
0.833333
  7
STANDARD
100
AcDbText
  0
ENDBLK
  5
B5
100
AcDbEntity
  8
DD0
100
AcDbBlockEnd
  0
BLOCK
  5
B8
100
AcDbEntity
  8
DD0
100
AcDbBlockBegin
  2
DIMS10
 70
     0
 10
0.0
 20
0.0
  0
LINE
  5
B9
100
AcDbEntity
  8
DD0
100
AcDbLine
 10
91.563863
 20
762.17216
 11
91.563863
 21
837.540148
  0
LINE
  5
BA
100
AcDbEntity
  8
DD0
100
AcDbLine
 10
281.563888
 20
762.172364
 11
281.563888
 21
837.540148
  0
LINE
  5
BB
100
AcDbEntity
  8
DD0
100
AcDbLine
 10
101.223121
 20
836.795005
 11
91.563863
 21
834.206815
  0
LINE
  5
BC
100
AcDbEntity
  8
DD0
100
AcDbLine
 10
91.563863
 20
834.206815
 11
101.223121
 21
831.618625
  0
LINE
  5
BD
100
AcDbEntity
  8
DD0
100
AcDbLine
 10
271.90463
 20
831.618625
 11
281.563888
 21
834.206815
  0
LINE
  5
BE
100
AcDbEntity
  8
DD0
100
AcDbLine
 10
281.563888
 20
834.206815
 11
271.90463
 21
836.795005
  0
LINE
  5
BF
100
AcDbEntity
  8
DD0
100
AcDbLine
 10
91.563863
 20
834.206815
 11
281.563888
 21
834.206815
  0
TEXT
  5
C0
100
AcDbEntity
  8
DD0
100
AcDbText
 10
171.672209
 20
836.206835
 40
10.5
  1
１９０
 41
0.833333
  7
STANDARD
100
AcDbText
  0
ENDBLK
  5
C1
100
AcDbEntity
  8
DD0
100
AcDbBlockEnd
  0
ENDSEC
  0
SECTION
  2
ENTITIES
  0
INSERT
  5
55
100
AcDbEntity
  8
DD0
100
AcDbBlockReference
  2
DIMS0
 10
0.0
 20
0.0
  0
INSERT
  5
5E
100
AcDbEntity
  8
DD0
100
AcDbBlockReference
  2
DIMS1
 10
0.0
 20
0.0
  0
INSERT
  5
67
100
AcDbEntity
  8
DD0
100
AcDbBlockReference
  2
DIMS2
 10
0.0
 20
0.0
  0
INSERT
  5
73
100
AcDbEntity
  8
DD0
100
AcDbBlockReference
  2
DIMS3
 10
0.0
 20
0.0
  0
INSERT
  5
7F
100
AcDbEntity
  8
DD0
100
AcDbBlockReference
  2
DIMS4
 10
0.0
 20
0.0
  0
INSERT
  5
8B
100
AcDbEntity
  8
DD0
100
AcDbBlockReference
  2
DIMS5
 10
0.0
 20
0.0
  0
INSERT
  5
97
100
AcDbEntity
  8
DD0
100
AcDbBlockReference
  2
DIMS6
 10
0.0
 20
0.0
  0
INSERT
  5
A1
100
AcDbEntity
  8
DD0
100
AcDbBlockReference
  2
DIMS7
 10
0.0
 20
0.0
  0
INSERT
  5
AA
100
AcDbEntity
  8
DD0
100
AcDbBlockReference
  2
DIMS8
 10
0.0
 20
0.0
  0
INSERT
  5
B6
100
AcDbEntity
  8
DD0
100
AcDbBlockReference
  2
DIMS9
 10
0.0
 20
0.0
  0
INSERT
  5
C2
100
AcDbEntity
  8
DD0
100
AcDbBlockReference
  2
DIMS10
 10
0.0
 20
0.0
  0
LINE
  5
C3
100
AcDbEntity
  8
M0
 62
     7
100
AcDbLine
 10
85.063881
 20
517.161312
 11
288.063667
 21
517.161312
  0
LINE
  5
C4
100
AcDbEntity
  8
M0
 62
     7
100
AcDbLine
 10
304.063667
 20
533.161068
 11
304.063667
 21
756.160824
  0
LINE
  5
C5
100
AcDbEntity
  8
M0
 62
     7
100
AcDbLine
 10
288.063667
 20
772.161312
 11
85.063881
 21
772.161068
  0
LINE
  5
C6
100
AcDbEntity
  8
M0
 62
     7
100
AcDbLine
 10
69.063881
 20
756.161068
 11
69.063881
 21
533.161312
  0
ARC
  5
C7
100
AcDbEntity
  8
M0
 62
     7
100
AcDbCircle
 10
288.063667
 20
756.161068
 40
16.0
100
AcDbArc
 50
0.0
 51
90.0
  0
ARC
  5
C8
100
AcDbEntity
  8
M0
 62
     7
100
AcDbCircle
 10
85.063881
 20
756.161068
 40
16.0
100
AcDbArc
 50
89.999945
 51
180.0
  0
ARC
  5
C9
100
AcDbEntity
  8
M0
 62
     7
100
AcDbCircle
 10
85.063881
 20
533.161312
 40
16.0
100
AcDbArc
 50
179.999945
 51
270.0
  0
ARC
  5
CA
100
AcDbEntity
  8
M0
 62
     7
100
AcDbCircle
 10
288.063667
 20
533.161312
 40
16.0
100
AcDbArc
 50
269.999945
 51
360.0
  0
LINE
  5
CB
100
AcDbEntity
  8
M0
 62
     7
100
AcDbLine
 10
85.063881
 20
519.661312
 11
288.063667
 21
519.661312
  0
LINE
  5
CC
100
AcDbEntity
  8
M0
 62
     7
100
AcDbLine
 10
301.563667
 20
533.161068
 11
301.563667
 21
756.160824
  0
LINE
  5
CD
100
AcDbEntity
  8
M0
 62
     7
100
AcDbLine
 10
288.063667
 20
769.661312
 11
85.063881
 21
769.661068
  0
LINE
  5
CE
100
AcDbEntity
  8
M0
 62
     7
100
AcDbLine
 10
71.563881
 20
756.161068
 11
71.563881
 21
533.161312
  0
LINE
  5
CF
100
AcDbEntity
  8
M0
  6
DASHDOT
 62
     7
100
AcDbLine
 10
56.548866
 20
644.661312
 11
316.578804
 21
644.661312
  0
LINE
  5
D0
100
AcDbEntity
  8
M0
  6
DASHDOT
 62
     7
100
AcDbLine
 10
186.563881
 20
499.848477
 11
186.563881
 21
783.926205
  0
ARC
  5
D1
100
AcDbEntity
  8
M0
 62
     7
100
AcDbCircle
 10
85.063881
 20
533.161312
 40
13.499995
100
AcDbArc
 50
179.999935
 51
270.0
  0
ARC
  5
D2
100
AcDbEntity
  8
M0
 62
     7
100
AcDbCircle
 10
288.063667
 20
533.161312
 40
13.499995
100
AcDbArc
 50
269.999935
 51
360.0
  0
ARC
  5
D3
100
AcDbEntity
  8
M0
 62
     7
100
AcDbCircle
 10
288.063667
 20
756.161068
 40
13.499995
100
AcDbArc
 50
0.0
 51
90.0
  0
ARC
  5
D4
100
AcDbEntity
  8
M0
 62
     7
100
AcDbCircle
 10
85.063881
 20
756.161068
 40
13.499995
100
AcDbArc
 50
89.999935
 51
180.0
  0
LINE
  5
D5
100
AcDbEntity
  8
M0
 62
     7
100
AcDbLine
 10
467.10807
 20
520.161312
 11
507.383216
 21
520.161312
  0
LINE
  5
D6
100
AcDbEntity
  8
M0
 62
     7
100
AcDbLine
 10
522.383216
 20
517.161312
 11
522.383216
 21
772.161312
  0
LINE
  5
D7
100
AcDbEntity
  8
M0
  6
DASHDOT
 62
     7
100
AcDbLine
 10
449.965492
 20
644.661312
 11
522.383216
 21
644.661312
  0
LINE
  5
D8
100
AcDbEntity
  8
M0
 62
     7
100
AcDbLine
 10
508.383216
 20
771.161312
 11
508.383216
 21
770.161312
  0
LINE
  5
D9
100
AcDbEntity
  8
M0
 62
     7
100
AcDbLine
 10
509.383216
 20
772.161312
 11
522.383216
 21
772.161312
  0
LINE
  5
DA
100
AcDbEntity
  8
M0
 62
     7
100
AcDbLine
 10
509.383216
 20
517.161312
 11
522.383216
 21
517.161312
  0
LINE
  5
DB
100
AcDbEntity
  8
M0
 62
     7
100
AcDbLine
 10
467.10807
 20
769.161312
 11
507.383216
 21
769.161312
  0
ARC
  5
DC
100
AcDbEntity
  8
M0
 62
     7
100
AcDbCircle
 10
3043.258216
 20
644.661068
 40
2584.874023
100
AcDbArc
 50
177.366298
 51
182.63363
  0
ARC
  5
DD
100
AcDbEntity
  8
M0
 62
     7
100
AcDbCircle
 10
467.10807
 20
763.161312
 40
6.0
100
AcDbArc
 50
89.999854
 51
177.367095
  0
ARC
  5
DE
100
AcDbEntity
  8
M0
 62
     7
100
AcDbCircle
 10
467.10807
 20
526.161312
 40
6.0
100
AcDbArc
 50
182.635234
 51
270.0
  0
LINE
  5
DF
100
AcDbEntity
  8
M0
 62
     7
100
AcDbLine
 10
508.383216
 20
519.161312
 11
508.383216
 21
518.161312
  0
ARC
  5
E0
100
AcDbEntity
  8
M0
 62
     7
100
AcDbCircle
 10
509.383216
 20
771.161312
 40
1.0
100
AcDbArc
 50
90.0
 51
180.0
  0
ARC
  5
E1
100
AcDbEntity
  8
M0
 62
     7
100
AcDbCircle
 10
507.383216
 20
770.161312
 40
1.0
100
AcDbArc
 50
270.0
 51
360.0
  0
ARC
  5
E2
100
AcDbEntity
  8
M0
 62
     7
100
AcDbCircle
 10
509.383216
 20
518.161312
 40
1.0
100
AcDbArc
 50
179.999126
 51
270.0
  0
ARC
  5
E3
100
AcDbEntity
  8
M0
 62
     7
100
AcDbCircle
 10
507.383216
 20
519.161312
 40
1.0
100
AcDbArc
 50
0.0
 51
90.0
  0
LINE
  5
E4
100
AcDbEntity
  8
M0
 62
     7
100
AcDbLine
 10
508.383216
 20
770.161312
 11
508.383216
 21
519.161312
  0
LINE
  5
E5
100
AcDbEntity
  8
M0
 62
     7
100
AcDbLine
 10
69.063881
 20
329.092465
 11
304.063697
 21
329.092465
  0
LINE
  5
E6
100
AcDbEntity
  8
M0
 62
     7
100
AcDbLine
 10
301.563636
 20
344.091976
 11
301.563636
 21
393.091976
  0
LINE
  5
E7
100
AcDbEntity
  8
M0
 62
     7
100
AcDbLine
 10
297.563697
 20
397.092465
 11
75.563881
 21
397.092221
  0
LINE
  5
E8
100
AcDbEntity
  8
M0
 62
     7
100
AcDbLine
 10
71.563881
 20
393.092221
 11
71.563881
 21
344.091976
  0
LINE
  5
E9
100
AcDbEntity
  8
M0
  6
DASHDOT
 62
     7
100
AcDbLine
 10
186.563881
 20
340.591976
 11
186.563881
 21
405.660595
  0
LINE
  5
EA
100
AcDbEntity
  8
M0
 62
     7
100
AcDbLine
 10
304.063636
 20
329.092465
 11
304.063636
 21
342.091732
  0
LINE
  5
EB
100
AcDbEntity
  8
M0
 62
     7
100
AcDbLine
 10
303.063697
 20
343.092221
 11
70.06385
 21
343.091976
  0
LINE
  5
EC
100
AcDbEntity
  8
M0
 62
     7
100
AcDbLine
 10
69.063835
 20
342.091732
 11
69.063881
 21
329.092465
  0
ARC
  5
ED
100
AcDbEntity
  8
M0
 62
     7
100
AcDbCircle
 10
70.563896
 20
344.091976
 40
1.0
100
AcDbArc
 50
270.0
 51
360.0
  0
ARC
  5
EE
100
AcDbEntity
  8
M0
 62
     7
100
AcDbCircle
 10
302.563697
 20
344.091976
 40
1.0
100
AcDbArc
 50
180.0
 51
269.999126
  0
ARC
  5
EF
100
AcDbEntity
  8
M0
 62
     7
100
AcDbCircle
 10
70.06385
 20
342.091976
 40
1.0
100
AcDbArc
 50
89.999126
 51
180.0
  0
ARC
  5
F0
100
AcDbEntity
  8
M0
 62
     7
100
AcDbCircle
 10
303.063697
 20
342.091976
 40
1.0
100
AcDbArc
 50
359.985957
 51
450.0
  0
ARC
  5
F1
100
AcDbEntity
  8
M0
 62
     7
100
AcDbCircle
 10
297.563697
 20
393.092221
 40
4.0
100
AcDbArc
 50
0.0
 51
90.0
  0
ARC
  5
F2
100
AcDbEntity
  8
M0
 62
     7
100
AcDbCircle
 10
75.563881
 20
393.092221
 40
4.0
100
AcDbArc
 50
89.999781
 51
180.0
  0
LINE
  5
F3
100
AcDbEntity
  8
M0
 62
     4
100
AcDbLine
 10
252.563881
 20
772.661053
 11
252.563881
 21
776.161297
  0
LINE
  5
F4
100
AcDbEntity
  8
M0
 62
     4
100
AcDbLine
 10
252.563881
 20
776.161297
 11
240.563881
 21
776.161297
  0
LINE
  5
F5
100
AcDbEntity
  8
M0
 62
     4
100
AcDbLine
 10
240.563881
 20
776.161297
 11
240.563881
 21
772.661053
  0
LINE
  5
F6
100
AcDbEntity
  8
M0
 62
     4
100
AcDbLine
 10
120.563881
 20
772.661068
 11
120.563881
 21
776.161312
  0
LINE
  5
F7
100
AcDbEntity
  8
M0
 62
     4
100
AcDbLine
 10
120.563881
 20
776.161312
 11
132.563881
 21
776.161068
  0
LINE
  5
F8
100
AcDbEntity
  8
M0
 62
     4
100
AcDbLine
 10
132.563881
 20
776.161068
 11
132.563881
 21
772.661068
  0
LINE
  5
F9
100
AcDbEntity
  8
M0
 62
     4
100
AcDbLine
 10
522.383216
 20
519.161312
 11
583.382972
 21
519.161312
  0
LINE
  5
FA
100
AcDbEntity
  8
M0
 62
     4
100
AcDbLine
 10
588.382972
 20
524.161068
 11
588.382972
 21
765.160824
  0
LINE
  5
FB
100
AcDbEntity
  8
M0
 62
     4
100
AcDbLine
 10
583.382972
 20
770.161312
 11
522.383216
 21
770.161068
  0
LINE
  5
FC
100
AcDbEntity
  8
M0
  6
DASHDOT
 62
     4
100
AcDbLine
 10
524.85839
 20
644.661312
 11
603.397865
 21
644.661312
  0
ARC
  5
FD
100
AcDbEntity
  8
M0
 62
     4
100
AcDbCircle
 10
583.382972
 20
524.161312
 40
4.999994
100
AcDbArc
 50
270.0
 51
360.0
  0
ARC
  5
FE
100
AcDbEntity
  8
M0
 62
     4
100
AcDbCircle
 10
583.382972
 20
765.161068
 40
4.999994
100
AcDbArc
 50
0.0
 51
90.0
  0
LINE
  5
FF
100
AcDbEntity
  8
M0
  6
DASHED
 62
     4
100
AcDbLine
 10
584.782875
 20
524.161068
 11
584.782875
 21
765.160824
  0
LINE
  5
100
100
AcDbEntity
  8
M0
 62
     4
100
AcDbLine
 10
517.132972
 20
771.911038
 11
517.132972
 21
775.411282
  0
LINE
  5
101
100
AcDbEntity
  8
M0
 62
     4
100
AcDbLine
 10
517.132972
 20
775.411282
 11
513.532875
 21
775.411282
  0
LINE
  5
102
100
AcDbEntity
  8
M0
 62
     4
100
AcDbLine
 10
513.532875
 20
775.411282
 11
513.532875
 21
771.911038
  0
LINE
  5
103
100
AcDbEntity
  8
M0
  6
DASHDOT
 62
     4
100
AcDbLine
 10
565.382988
 20
715.161053
 11
531.382255
 21
715.16032
  0
LINE
  5
104
100
AcDbEntity
  8
M0
  6
DASHDOT
 62
     4
100
AcDbLine
 10
548.382011
 20
732.161053
 11
548.382988
 21
698.16032
  0
ARC
  5
105
100
AcDbEntity
  8
M0
 62
     4
100
AcDbCircle
 10
548.382988
 20
715.161053
 40
10.999999
100
AcDbArc
 50
96.531626
 51
263.469989
  0
LINE
  5
106
100
AcDbEntity
  8
M0
 62
     4
100
AcDbLine
 10
529.381996
 20
716.160336
 11
534.437904
 21
716.410824
  0
LINE
  5
107
100
AcDbEntity
  8
M0
 62
     4
100
AcDbLine
 10
529.381996
 20
714.160336
 11
534.43766
 21
713.910824
  0
LINE
  5
108
100
AcDbEntity
  8
M0
 62
     4
100
AcDbLine
 10
567.381996
 20
716.160336
 11
562.325843
 21
716.410824
  0
LINE
  5
109
100
AcDbEntity
  8
M0
 62
     4
100
AcDbLine
 10
562.326088
 20
713.910824
 11
567.381996
 21
714.160336
  0
LINE
  5
10A
100
AcDbEntity
  8
M0
 62
     4
100
AcDbLine
 10
547.131996
 20
704.232113
 11
547.381996
 21
709.16058
  0
LINE
  5
10B
100
AcDbEntity
  8
M0
 62
     4
100
AcDbLine
 10
549.381996
 20
709.16058
 11
549.631996
 21
704.231869
  0
LINE
  5
10C
100
AcDbEntity
  8
M0
 62
     4
100
AcDbLine
 10
547.131996
 20
726.089291
 11
547.381996
 21
721.16058
  0
LINE
  5
10D
100
AcDbEntity
  8
M0
 62
     4
100
AcDbLine
 10
549.631996
 20
726.089535
 11
549.381996
 21
721.16058
  0
ARC
  5
10E
100
AcDbEntity
  8
M0
 62
     4
100
AcDbCircle
 10
548.382988
 20
715.161053
 40
10.999999
100
AcDbArc
 50
276.518338
 51
443.479977
  0
ARC
  5
10F
100
AcDbEntity
  8
M0
 62
     4
100
AcDbCircle
 10
548.381996
 20
715.16058
 40
14.0
100
AcDbArc
 50
5.122665
 51
174.876491
  0
ARC
  5
110
100
AcDbEntity
  8
M0
 62
     4
100
AcDbCircle
 10
548.381996
 20
715.16058
 40
14.0
100
AcDbArc
 50
185.122389
 51
354.878419
  0
ARC
  5
111
100
AcDbEntity
  8
M0
 62
     4
100
AcDbCircle
 10
186.563882
 20
307.092221
 40
10.999993
100
AcDbArc
 50
186.524823
 51
353.473658
  0
ARC
  5
112
100
AcDbEntity
  8
M0
  6
DASHED
 62
     4
100
AcDbCircle
 10
211.563881
 20
307.092205
 40
10.999993
100
AcDbArc
 50
186.524822
 51
353.473737
  0
ARC
  5
113
100
AcDbEntity
  8
M0
  6
DASHED
 62
     4
100
AcDbCircle
 10
256.563881
 20
307.092221
 40
10.999993
100
AcDbArc
 50
186.524815
 51
353.473658
  0
ARC
  5
114
100
AcDbEntity
  8
M0
 62
     4
100
AcDbCircle
 10
246.563881
 20
307.092221
 40
10.999993
100
AcDbArc
 50
186.524815
 51
353.473658
  0
ARC
  5
115
100
AcDbEntity
  8
M0
  6
DASHED
 62
     4
100
AcDbCircle
 10
161.563881
 20
307.091976
 40
10.999988
100
AcDbArc
 50
6.526347
 51
173.475009
  0
ARC
  5
116
100
AcDbEntity
  8
M0
  6
DASHED
 62
     4
100
AcDbCircle
 10
116.563896
 20
307.092205
 40
10.999988
100
AcDbArc
 50
6.525061
 51
173.476212
  0
ARC
  5
117
100
AcDbEntity
  8
M0
 62
     4
100
AcDbCircle
 10
126.563896
 20
307.092221
 40
10.999988
100
AcDbArc
 50
6.524982
 51
173.476291
  0
LINE
  5
118
100
AcDbEntity
  8
M0
  6
DASHDOT
 62
     4
100
AcDbLine
 10
211.563881
 20
324.091961
 11
211.563881
 21
290.092218
  0
LINE
  5
119
100
AcDbEntity
  8
M0
  6
DASHDOT
 62
     4
100
AcDbLine
 10
256.563881
 20
324.091976
 11
256.563881
 21
290.092221
  0
LINE
  5
11A
100
AcDbEntity
  8
M0
  6
DASHDOT
 62
     4
100
AcDbLine
 10
246.563881
 20
324.091976
 11
246.563881
 21
292.091976
  0
LINE
  5
11B
100
AcDbEntity
  8
M0
  6
DASHDOT
 62
     4
100
AcDbLine
 10
161.563896
 20
324.091961
 11
161.563896
 21
290.092215
  0
LINE
  5
11C
100
AcDbEntity
  8
M0
  6
DASHDOT
 62
     4
100
AcDbLine
 10
116.563896
 20
324.091961
 11
116.563896
 21
290.09221
  0
LINE
  5
11D
100
AcDbEntity
  8
M0
  6
DASHDOT
 62
     4
100
AcDbLine
 10
126.563896
 20
324.091976
 11
126.563896
 21
290.092221
  0
LINE
  5
11E
100
AcDbEntity
  8
M0
 62
     4
100
AcDbLine
 10
76.563896
 20
267.092221
 11
296.563881
 21
267.092221
  0
LINE
  5
11F
100
AcDbEntity
  8
M0
 62
     4
100
AcDbLine
 10
301.563881
 20
272.092221
 11
301.563881
 21
329.092465
  0
LINE
  5
120
100
AcDbEntity
  8
M0
 62
     4
100
AcDbLine
 10
71.563881
 20
329.092221
 11
71.563881
 21
272.091976
  0
LINE
  5
121
100
AcDbEntity
  8
M0
  6
DASHDOT
 62
     4
100
AcDbLine
 10
109.27288
 20
307.092221
 11
264.856605
 21
307.092221
  0
LINE
  5
122
100
AcDbEntity
  8
M0
  6
DASHDOT
 62
     4
100
AcDbLine
 10
186.563881
 20
270.477383
 11
186.563881
 21
329.092465
  0
ARC
  5
123
100
AcDbEntity
  8
M0
 62
     4
100
AcDbCircle
 10
76.563896
 20
272.092214
 40
4.999994
100
AcDbArc
 50
179.999956
 51
270.0
  0
ARC
  5
124
100
AcDbEntity
  8
M0
 62
     4
100
AcDbCircle
 10
296.563881
 20
272.092221
 40
4.999994
100
AcDbArc
 50
269.999825
 51
360.0
  0
LINE
  5
125
100
AcDbEntity
  8
M0
  6
DASHED
 62
     4
100
AcDbLine
 10
115.313896
 20
321.036068
 11
115.563896
 21
326.092221
  0
LINE
  5
126
100
AcDbEntity
  8
M0
  6
DASHED
 62
     4
100
AcDbLine
 10
117.563896
 20
326.092221
 11
117.813896
 21
321.036068
  0
LINE
  5
127
100
AcDbEntity
  8
M0
 62
     4
100
AcDbLine
 10
125.313896
 20
321.036068
 11
125.563896
 21
326.092221
  0
LINE
  5
128
100
AcDbEntity
  8
M0
 62
     4
100
AcDbLine
 10
127.563896
 20
326.092221
 11
127.813896
 21
321.036068
  0
LINE
  5
129
100
AcDbEntity
  8
M0
  6
DASHED
 62
     4
100
AcDbLine
 10
160.313881
 20
321.036068
 11
160.563881
 21
326.092221
  0
LINE
  5
12A
100
AcDbEntity
  8
M0
  6
DASHED
 62
     4
100
AcDbLine
 10
162.563881
 20
326.092221
 11
162.813881
 21
321.036068
  0
LINE
  5
12B
100
AcDbEntity
  8
M0
 62
     4
100
AcDbLine
 10
185.313881
 20
321.036068
 11
185.563881
 21
326.092221
  0
LINE
  5
12C
100
AcDbEntity
  8
M0
 62
     4
100
AcDbLine
 10
187.563881
 20
326.092221
 11
187.813881
 21
321.036068
  0
LINE
  5
12D
100
AcDbEntity
  8
M0
  6
DASHED
 62
     4
100
AcDbLine
 10
210.313881
 20
321.036068
 11
210.563881
 21
326.092221
  0
LINE
  5
12E
100
AcDbEntity
  8
M0
  6
DASHED
 62
     4
100
AcDbLine
 10
212.563881
 20
326.092221
 11
212.813881
 21
321.036068
  0
LINE
  5
12F
100
AcDbEntity
  8
M0
 62
     4
100
AcDbLine
 10
245.313881
 20
321.036068
 11
245.563881
 21
326.092221
  0
LINE
  5
130
100
AcDbEntity
  8
M0
 62
     4
100
AcDbLine
 10
247.563881
 20
326.092221
 11
247.813881
 21
321.036068
  0
LINE
  5
131
100
AcDbEntity
  8
M0
  6
DASHED
 62
     4
100
AcDbLine
 10
255.313881
 20
321.036068
 11
255.563881
 21
326.092221
  0
LINE
  5
132
100
AcDbEntity
  8
M0
  6
DASHED
 62
     4
100
AcDbLine
 10
257.563881
 20
326.092221
 11
257.813881
 21
321.036068
  0
LINE
  5
133
100
AcDbEntity
  8
M0
  6
DASHED
 62
     4
100
AcDbLine
 10
257.813881
 20
293.148129
 11
257.563881
 21
288.092221
  0
LINE
  5
134
100
AcDbEntity
  8
M0
  6
DASHED
 62
     4
100
AcDbLine
 10
255.563881
 20
288.092221
 11
255.313881
 21
293.148129
  0
LINE
  5
135
100
AcDbEntity
  8
M0
 62
     4
100
AcDbLine
 10
247.563881
 20
288.092221
 11
247.813881
 21
293.148129
  0
LINE
  5
136
100
AcDbEntity
  8
M0
 62
     4
100
AcDbLine
 10
245.563881
 20
288.092221
 11
245.313881
 21
293.148129
  0
LINE
  5
137
100
AcDbEntity
  8
M0
  6
DASHED
 62
     4
100
AcDbLine
 10
212.813881
 20
293.148129
 11
212.563881
 21
288.092221
  0
LINE
  5
138
100
AcDbEntity
  8
M0
  6
DASHED
 62
     4
100
AcDbLine
 10
210.563881
 20
288.092221
 11
210.313881
 21
293.148129
  0
LINE
  5
139
100
AcDbEntity
  8
M0
 62
     4
100
AcDbLine
 10
187.563881
 20
288.092221
 11
187.813881
 21
293.148129
  0
LINE
  5
13A
100
AcDbEntity
  8
M0
 62
     4
100
AcDbLine
 10
185.563881
 20
288.092221
 11
185.313881
 21
293.148129
  0
LINE
  5
13B
100
AcDbEntity
  8
M0
  6
DASHED
 62
     4
100
AcDbLine
 10
162.563881
 20
288.092221
 11
162.813881
 21
293.148129
  0
LINE
  5
13C
100
AcDbEntity
  8
M0
  6
DASHED
 62
     4
100
AcDbLine
 10
160.563881
 20
288.092221
 11
160.313881
 21
293.148129
  0
LINE
  5
13D
100
AcDbEntity
  8
M0
 62
     4
100
AcDbLine
 10
127.563896
 20
288.092221
 11
127.813896
 21
293.148129
  0
LINE
  5
13E
100
AcDbEntity
  8
M0
 62
     4
100
AcDbLine
 10
125.563896
 20
288.092221
 11
125.313896
 21
293.148129
  0
LINE
  5
13F
100
AcDbEntity
  8
M0
  6
DASHED
 62
     4
100
AcDbLine
 10
117.563896
 20
288.092221
 11
117.813896
 21
293.148129
  0
LINE
  5
140
100
AcDbEntity
  8
M0
  6
DASHED
 62
     4
100
AcDbLine
 10
115.563896
 20
288.092221
 11
115.313896
 21
293.148129
  0
LINE
  5
141
100
AcDbEntity
  8
M0
  6
DASHED
 62
     4
100
AcDbLine
 10
105.635124
 20
305.842221
 11
110.563896
 21
306.092221
  0
LINE
  5
142
100
AcDbEntity
  8
M0
  6
DASHED
 62
     4
100
AcDbLine
 10
105.635185
 20
308.342221
 11
110.563896
 21
308.092221
  0
LINE
  5
143
100
AcDbEntity
  8
M0
 62
     4
100
AcDbLine
 10
115.635154
 20
308.342221
 11
120.563896
 21
308.092221
  0
LINE
  5
144
100
AcDbEntity
  8
M0
 62
     4
100
AcDbLine
 10
120.563896
 20
306.092221
 11
115.635154
 21
305.842221
  0
LINE
  5
145
100
AcDbEntity
  8
M0
  6
DASHED
 62
     4
100
AcDbLine
 10
122.563896
 20
308.092221
 11
127.492591
 21
308.342221
  0
LINE
  5
146
100
AcDbEntity
  8
M0
  6
DASHED
 62
     4
100
AcDbLine
 10
122.563896
 20
306.092221
 11
127.492652
 21
305.842221
  0
LINE
  5
147
100
AcDbEntity
  8
M0
 62
     4
100
AcDbLine
 10
132.563881
 20
308.092221
 11
137.492591
 21
308.342221
  0
LINE
  5
148
100
AcDbEntity
  8
M0
 62
     4
100
AcDbLine
 10
132.563881
 20
306.092221
 11
137.492591
 21
305.842221
  0
LINE
  5
149
100
AcDbEntity
  8
M0
  6
DASHED
 62
     4
100
AcDbLine
 10
150.63517
 20
308.342221
 11
155.563881
 21
308.092221
  0
LINE
  5
14A
100
AcDbEntity
  8
M0
  6
DASHED
 62
     4
100
AcDbLine
 10
150.634925
 20
305.842221
 11
155.563881
 21
306.092221
  0
LINE
  5
14B
100
AcDbEntity
  8
M0
  6
DASHED
 62
     4
100
AcDbLine
 10
172.492347
 20
308.342221
 11
167.563881
 21
308.092221
  0
LINE
  5
14C
100
AcDbEntity
  8
M0
  6
DASHED
 62
     4
100
AcDbLine
 10
167.563881
 20
306.092221
 11
172.492591
 21
305.842221
  0
LINE
  5
14D
100
AcDbEntity
  8
M0
 62
     4
100
AcDbLine
 10
175.634925
 20
308.342221
 11
180.563881
 21
308.092221
  0
LINE
  5
14E
100
AcDbEntity
  8
M0
 62
     4
100
AcDbLine
 10
175.634925
 20
305.842221
 11
180.563881
 21
306.092221
  0
LINE
  5
14F
100
AcDbEntity
  8
M0
 62
     4
100
AcDbLine
 10
197.492591
 20
308.342221
 11
192.563881
 21
308.092221
  0
LINE
  5
150
100
AcDbEntity
  8
M0
 62
     4
100
AcDbLine
 10
192.563881
 20
306.092221
 11
197.492591
 21
305.842221
  0
LINE
  5
151
100
AcDbEntity
  8
M0
  6
DASHED
 62
     4
100
AcDbLine
 10
200.63517
 20
308.342221
 11
205.563881
 21
308.092221
  0
LINE
  5
152
100
AcDbEntity
  8
M0
  6
DASHED
 62
     4
100
AcDbLine
 10
200.634925
 20
305.842221
 11
205.563881
 21
306.092221
  0
LINE
  5
153
100
AcDbEntity
  8
M0
  6
DASHED
 62
     4
100
AcDbLine
 10
222.492347
 20
308.342221
 11
217.563881
 21
308.092221
  0
LINE
  5
154
100
AcDbEntity
  8
M0
  6
DASHED
 62
     4
100
AcDbLine
 10
217.563881
 20
306.092221
 11
222.492591
 21
305.842221
  0
LINE
  5
155
100
AcDbEntity
  8
M0
 62
     4
100
AcDbLine
 10
235.634925
 20
308.342221
 11
240.563881
 21
308.092221
  0
LINE
  5
156
100
AcDbEntity
  8
M0
 62
     4
100
AcDbLine
 10
240.563881
 20
306.092221
 11
235.634925
 21
305.842221
  0
LINE
  5
157
100
AcDbEntity
  8
M0
  6
DASHED
 62
     4
100
AcDbLine
 10
245.634925
 20
308.342221
 11
250.563881
 21
308.092221
  0
LINE
  5
158
100
AcDbEntity
  8
M0
  6
DASHED
 62
     4
100
AcDbLine
 10
245.634925
 20
305.842221
 11
250.563881
 21
306.092221
  0
LINE
  5
159
100
AcDbEntity
  8
M0
 62
     4
100
AcDbLine
 10
257.492591
 20
308.342221
 11
252.563881
 21
308.092221
  0
LINE
  5
15A
100
AcDbEntity
  8
M0
 62
     4
100
AcDbLine
 10
257.492591
 20
305.842221
 11
252.563881
 21
306.092221
  0
LINE
  5
15B
100
AcDbEntity
  8
M0
  6
DASHED
 62
     4
100
AcDbLine
 10
267.492591
 20
308.342221
 11
262.563881
 21
308.092221
  0
LINE
  5
15C
100
AcDbEntity
  8
M0
  6
DASHED
 62
     4
100
AcDbLine
 10
262.563881
 20
306.092221
 11
267.492591
 21
305.842221
  0
ARC
  5
15D
100
AcDbEntity
  8
M0
  6
DASHED
 62
     4
100
AcDbCircle
 10
116.563896
 20
307.092205
 40
10.999988
100
AcDbArc
 50
186.524912
 51
353.473816
  0
ARC
  5
15E
100
AcDbEntity
  8
M0
 62
     4
100
AcDbCircle
 10
126.563896
 20
307.092221
 40
10.999988
100
AcDbArc
 50
186.524991
 51
353.473658
  0
ARC
  5
15F
100
AcDbEntity
  8
M0
  6
DASHED
 62
     4
100
AcDbCircle
 10
161.563896
 20
307.092205
 40
10.999988
100
AcDbArc
 50
186.524833
 51
353.473734
  0
ARC
  5
160
100
AcDbEntity
  8
M0
 62
     4
100
AcDbCircle
 10
186.563882
 20
307.092221
 40
10.999993
100
AcDbArc
 50
6.524983
 51
173.476376
  0
ARC
  5
161
100
AcDbEntity
  8
M0
  6
DASHED
 62
     4
100
AcDbCircle
 10
211.563881
 20
307.092205
 40
10.999993
100
AcDbArc
 50
6.525149
 51
173.475097
  0
ARC
  5
162
100
AcDbEntity
  8
M0
 62
     4
100
AcDbCircle
 10
246.563881
 20
307.092221
 40
10.999993
100
AcDbArc
 50
6.524991
 51
173.476379
  0
ARC
  5
163
100
AcDbEntity
  8
M0
  6
DASHED
 62
     4
100
AcDbCircle
 10
256.563881
 20
307.092221
 40
10.999993
100
AcDbArc
 50
6.524991
 51
173.476379
  0
LINE
  5
164
100
AcDbEntity
  8
M0
 62
     4
100
AcDbLine
 10
182.763832
 20
507.161556
 11
190.363441
 21
507.161556
  0
LINE
  5
165
100
AcDbEntity
  8
M0
 62
     4
100
AcDbLine
 10
190.563881
 20
517.161556
 11
182.563881
 21
517.161556
  0
LINE
  5
166
100
AcDbEntity
  8
M0
 62
     4
100
AcDbLine
 10
181.563881
 20
517.161556
 11
181.563881
 21
508.361508
  0
LINE
  5
167
100
AcDbEntity
  8
M0
 62
     4
100
AcDbLine
 10
181.563881
 20
508.361508
 11
182.763832
 21
507.161556
  0
LINE
  5
168
100
AcDbEntity
  8
M0
 62
     4
100
AcDbLine
 10
190.363685
 20
507.161556
 11
191.563881
 21
508.361508
  0
LINE
  5
169
100
AcDbEntity
  8
M0
 62
     4
100
AcDbLine
 10
181.563881
 20
508.361508
 11
191.563636
 21
508.361508
  0
LINE
  5
16A
100
AcDbEntity
  8
M0
 62
     4
100
AcDbLine
 10
184.163734
 20
517.161556
 11
184.163734
 21
508.361508
  0
LINE
  5
16B
100
AcDbEntity
  8
M0
 62
     4
100
AcDbLine
 10
185.763832
 20
517.161556
 11
185.763832
 21
508.361508
  0
LINE
  5
16C
100
AcDbEntity
  8
M0
 62
     4
100
AcDbLine
 10
187.363685
 20
517.161556
 11
187.363685
 21
508.361508
  0
LINE
  5
16D
100
AcDbEntity
  8
M0
 62
     4
100
AcDbLine
 10
188.963783
 20
517.161556
 11
188.963783
 21
508.361508
  0
LINE
  5
16E
100
AcDbEntity
  8
M0
 62
     4
100
AcDbLine
 10
191.563636
 20
517.161556
 11
191.563636
 21
508.361508
  0
LINE
  5
16F
100
AcDbEntity
  8
M0
 62
     4
100
AcDbLine
 10
182.563881
 20
517.161312
 11
182.563881
 21
508.361508
  0
LINE
  5
170
100
AcDbEntity
  8
M0
 62
     4
100
AcDbLine
 10
190.563636
 20
517.161556
 11
190.563636
 21
508.361508
  0
ARC
  5
171
100
AcDbEntity
  8
M0
  6
DASHED
 62
     4
100
AcDbCircle
 10
116.563896
 20
307.092221
 40
14.0
100
AcDbArc
 50
95.122514
 51
264.877419
  0
ARC
  5
172
100
AcDbEntity
  8
M0
 62
     4
100
AcDbCircle
 10
126.563896
 20
307.092221
 40
14.0
100
AcDbArc
 50
95.122514
 51
264.877419
  0
ARC
  5
173
100
AcDbEntity
  8
M0
  6
DASHED
 62
     4
100
AcDbCircle
 10
161.563881
 20
307.092221
 40
14.0
100
AcDbArc
 50
95.122514
 51
264.876542
  0
ARC
  5
174
100
AcDbEntity
  8
M0
 62
     4
100
AcDbCircle
 10
186.563881
 20
307.092221
 40
14.0
100
AcDbArc
 50
95.122564
 51
185.14954
  0
ARC
  5
175
100
AcDbEntity
  8
M0
  6
DASHED
 62
     4
100
AcDbCircle
 10
211.563881
 20
307.092221
 40
14.0
100
AcDbArc
 50
95.122576
 51
264.87648
  0
ARC
  5
176
100
AcDbEntity
  8
M0
 62
     4
100
AcDbCircle
 10
246.563881
 20
307.092221
 40
14.0
100
AcDbArc
 50
95.122576
 51
264.87648
  0
ARC
  5
177
100
AcDbEntity
  8
M0
  6
DASHED
 62
     4
100
AcDbCircle
 10
256.563881
 20
307.092221
 40
14.0
100
AcDbArc
 50
95.122576
 51
264.87648
  0
ARC
  5
178
100
AcDbEntity
  8
M0
 62
     4
100
AcDbCircle
 10
126.563896
 20
307.092221
 40
14.0
100
AcDbArc
 50
275.122519
 51
444.877424
  0
ARC
  5
179
100
AcDbEntity
  8
M0
  6
DASHED
 62
     4
100
AcDbCircle
 10
116.563896
 20
307.092221
 40
14.0
100
AcDbArc
 50
275.122519
 51
444.877424
  0
ARC
  5
17A
100
AcDbEntity
  8
M0
 62
     4
100
AcDbCircle
 10
186.563881
 20
307.092221
 40
14.0
100
AcDbArc
 50
185.14954
 51
264.876484
  0
ARC
  5
17B
100
AcDbEntity
  8
M0
 62
     4
100
AcDbCircle
 10
186.563881
 20
307.092221
 40
14.0
100
AcDbArc
 50
354.850397
 51
444.878382
  0
ARC
  5
17C
100
AcDbEntity
  8
M0
  6
DASHED
 62
     4
100
AcDbCircle
 10
161.563881
 20
307.092221
 40
14.0
100
AcDbArc
 50
275.122519
 51
444.878363
  0
ARC
  5
17D
100
AcDbEntity
  8
M0
 62
     4
100
AcDbCircle
 10
186.563881
 20
307.092221
 40
14.0
100
AcDbArc
 50
275.12248
 51
354.850397
  0
ARC
  5
17E
100
AcDbEntity
  8
M0
  6
DASHED
 62
     4
100
AcDbCircle
 10
211.563881
 20
307.092221
 40
14.0
100
AcDbArc
 50
275.122457
 51
444.878425
  0
ARC
  5
17F
100
AcDbEntity
  8
M0
  6
DASHED
 62
     4
100
AcDbCircle
 10
256.563881
 20
307.092221
 40
14.0
100
AcDbArc
 50
275.122457
 51
444.878425
  0
ARC
  5
180
100
AcDbEntity
  8
M0
 62
     4
100
AcDbCircle
 10
246.563881
 20
307.092221
 40
14.0
100
AcDbArc
 50
275.122457
 51
444.878425
  0
LINE
  5
181
100
AcDbEntity
  8
M0
 62
     6
100
AcDbLine
 10
512.582923
 20
507.161556
 11
520.182533
 21
507.161556
  0
LINE
  5
182
100
AcDbEntity
  8
M0
 62
     6
100
AcDbLine
 10
520.382972
 20
517.161556
 11
512.382972
 21
517.161556
  0
LINE
  5
183
100
AcDbEntity
  8
M0
 62
     6
100
AcDbLine
 10
511.382972
 20
517.161556
 11
511.382972
 21
508.361508
  0
LINE
  5
184
100
AcDbEntity
  8
M0
 62
     6
100
AcDbLine
 10
511.382972
 20
508.361508
 11
512.582923
 21
507.161556
  0
LINE
  5
185
100
AcDbEntity
  8
M0
 62
     6
100
AcDbLine
 10
520.182777
 20
507.161556
 11
521.382972
 21
508.361508
  0
LINE
  5
186
100
AcDbEntity
  8
M0
 62
     6
100
AcDbLine
 10
511.382972
 20
508.361508
 11
521.382728
 21
508.361508
  0
LINE
  5
187
100
AcDbEntity
  8
M0
 62
     6
100
AcDbLine
 10
513.982826
 20
517.161556
 11
513.982826
 21
508.361508
  0
LINE
  5
188
100
AcDbEntity
  8
M0
 62
     6
100
AcDbLine
 10
515.582923
 20
517.161556
 11
515.582923
 21
508.361508
  0
LINE
  5
189
100
AcDbEntity
  8
M0
 62
     6
100
AcDbLine
 10
517.182777
 20
517.161556
 11
517.182777
 21
508.361508
  0
LINE
  5
18A
100
AcDbEntity
  8
M0
 62
     6
100
AcDbLine
 10
518.782875
 20
517.161556
 11
518.782875
 21
508.361508
  0
LINE
  5
18B
100
AcDbEntity
  8
M0
 62
     6
100
AcDbLine
 10
521.382728
 20
517.161556
 11
521.382728
 21
508.361508
  0
LINE
  5
18C
100
AcDbEntity
  8
M0
 62
     6
100
AcDbLine
 10
512.382972
 20
517.161312
 11
512.382972
 21
508.361508
  0
LINE
  5
18D
100
AcDbEntity
  8
M0
 62
     6
100
AcDbLine
 10
520.382728
 20
517.161556
 11
520.382728
 21
508.361508
  0
CIRCLE
  5
18E
100
AcDbEntity
  8
M0
 62
     6
100
AcDbCircle
 10
186.563896
 20
336.092465
 40
4.0
  0
LINE
  5
18F
100
AcDbEntity
  8
M0
  6
DASHDOT
 62
     6
100
AcDbLine
 10
196.569816
 20
336.092465
 11
176.557884
 21
336.092465
  0
LINE
  5
190
100
AcDbEntity
  8
M0
  6
DASHDOT
 62
     6
100
AcDbLine
 10
186.563881
 20
341.591976
 11
186.563881
 21
330.092465
  0
LINE
  5
191
100
AcDbEntity
  8
M0
 62
     2
100
AcDbLine
 10
571.480873
 20
518.042416
 11
571.382972
 21
519.161556
  0
ARC
  5
192
100
AcDbEntity
  8
M0
 62
     2
100
AcDbCircle
 10
572.776039
 20
518.155453
 40
1.299994
100
AcDbArc
 50
184.987909
 51
254.121075
  0
ARC
  5
193
100
AcDbEntity
  8
M0
 62
     2
100
AcDbCircle
 10
574.882972
 20
525.561703
 40
8.99998
100
AcDbArc
 50
254.120141
 51
285.882813
  0
ARC
  5
194
100
AcDbEntity
  8
M0
 62
     2
100
AcDbCircle
 10
576.99015
 20
518.155453
 40
1.299994
100
AcDbArc
 50
285.889196
 51
355.012049
  0
LINE
  5
195
100
AcDbEntity
  8
M0
 62
     2
100
AcDbLine
 10
578.285316
 20
518.042416
 11
578.382972
 21
519.161068
  0
LINE
  5
196
100
AcDbEntity
  8
M0
 62
     2
100
AcDbLine
 10
578.382972
 20
519.161556
 11
571.382972
 21
519.161556
  0
LINE
  5
197
100
AcDbEntity
  8
M0
  6
DASHDOT
 62
     2
100
AcDbLine
 10
574.882883
 20
523.385931
 11
574.882694
 21
513.262353
  0
LINE
  5
198
100
AcDbEntity
  8
M0
100
AcDbLine
 10
276.563392
 20
282.092221
 11
276.563392
 21
245.245053
  0
LINE
  5
199
100
AcDbEntity
  8
M0
100
AcDbLine
 10
283.563392
 20
245.245053
 11
269.563392
 21
245.245053
  0
LINE
  5
19A
100
AcDbEntity
  8
M0
100
AcDbLine
 10
280.563392
 20
242.745297
 11
272.562904
 21
242.744808
  0
LINE
  5
19B
100
AcDbEntity
  8
M0
100
AcDbLine
 10
278.563392
 20
240.245541
 11
274.56266
 21
240.244808
  0
CIRCLE
  5
19C
100
AcDbEntity
  8
M0
  6
DASHED
100
AcDbCircle
 10
281.563881
 20
539.661312
 40
3.0
  0
LINE
  5
19D
100
AcDbEntity
  8
M0
  6
DASHDOT
100
AcDbLine
 10
290.56974
 20
539.661312
 11
272.557777
 21
539.661312
  0
LINE
  5
19E
100
AcDbEntity
  8
M0
  6
DASHDOT
100
AcDbLine
 10
281.563881
 20
548.667172
 11
281.563881
 21
530.655209
  0
CIRCLE
  5
19F
100
AcDbEntity
  8
M0
  6
DASHED
100
AcDbCircle
 10
91.563881
 20
539.661312
 40
3.0
  0
LINE
  5
1A0
100
AcDbEntity
  8
M0
  6
DASHDOT
100
AcDbLine
 10
100.56974
 20
539.661312
 11
82.557777
 21
539.661312
  0
LINE
  5
1A1
100
AcDbEntity
  8
M0
  6
DASHDOT
100
AcDbLine
 10
91.563881
 20
548.667172
 11
91.563881
 21
530.655209
  0
ARC
  5
1A2
100
AcDbEntity
  8
M0
  6
DASHED
100
AcDbCircle
 10
91.563865
 20
749.661312
 40
3.0
100
AcDbArc
 50
0.0
 51
179.999982
  0
ARC
  5
1A3
100
AcDbEntity
  8
M0
  6
DASHED
100
AcDbCircle
 10
91.563865
 20
742.661068
 40
4.999985
100
AcDbArc
 50
-233.132354
 51
53.13066
  0
LINE
  5
1A4
100
AcDbEntity
  8
M0
  6
DASHED
100
AcDbLine
 10
94.563621
 20
749.661068
 11
94.563621
 21
746.660824
  0
LINE
  5
1A5
100
AcDbEntity
  8
M0
  6
DASHED
100
AcDbLine
 10
88.564109
 20
749.66058
 11
88.564109
 21
746.661068
  0
LINE
  5
1A6
100
AcDbEntity
  8
M0
  6
DASHDOT
100
AcDbLine
 10
91.563865
 20
758.838803
 11
91.563865
 21
731.654965
  0
LINE
  5
1A7
100
AcDbEntity
  8
M0
  6
DASHDOT
100
AcDbLine
 10
82.558006
 20
749.661312
 11
100.569725
 21
749.661312
  0
ARC
  5
1A8
100
AcDbEntity
  8
M0
  6
DASHED
100
AcDbCircle
 10
281.563881
 20
749.661312
 40
3.0
100
AcDbArc
 50
0.0
 51
179.999982
  0
ARC
  5
1A9
100
AcDbEntity
  8
M0
  6
DASHED
100
AcDbCircle
 10
281.563881
 20
742.661068
 40
4.999985
100
AcDbArc
 50
126.871526
 51
413.132338
  0
LINE
  5
1AA
100
AcDbEntity
  8
M0
  6
DASHED
100
AcDbLine
 10
278.563881
 20
749.661068
 11
278.563881
 21
746.660824
  0
LINE
  5
1AB
100
AcDbEntity
  8
M0
  6
DASHED
100
AcDbLine
 10
284.563636
 20
749.66058
 11
284.563636
 21
746.661068
  0
LINE
  5
1AC
100
AcDbEntity
  8
M0
  6
DASHDOT
100
AcDbLine
 10
281.563881
 20
758.839047
 11
281.563881
 21
731.654965
  0
LINE
  5
1AD
100
AcDbEntity
  8
M0
  6
DASHDOT
100
AcDbLine
 10
290.56974
 20
749.661312
 11
272.557777
 21
749.661312
  0
CIRCLE
  5
1AE
100
AcDbEntity
  8
M0
 62
   114
100
AcDbCircle
 10
276.563392
 20
287.092221
 40
4.5
  0
LINE
  5
1AF
100
AcDbEntity
  8
M0
 62
   114
100
AcDbLine
 10
277.163398
 20
286.492123
 11
281.023185
 21
286.492123
  0
LINE
  5
1B0
100
AcDbEntity
  8
M0
 62
   114
100
AcDbLine
 10
272.103584
 20
286.492123
 11
275.963386
 21
286.492123
  0
LINE
  5
1B1
100
AcDbEntity
  8
M0
 62
   114
100
AcDbLine
 10
275.963386
 20
287.692059
 11
272.103538
 21
287.692059
  0
LINE
  5
1B2
100
AcDbEntity
  8
M0
 62
   114
100
AcDbLine
 10
281.023231
 20
287.692074
 11
277.163398
 21
287.692059
  0
LINE
  5
1B3
100
AcDbEntity
  8
M0
 62
   114
100
AcDbLine
 10
275.963386
 20
286.492123
 11
275.963386
 21
284.692074
  0
LINE
  5
1B4
100
AcDbEntity
  8
M0
 62
   114
100
AcDbLine
 10
275.963386
 20
289.492123
 11
275.963386
 21
287.692074
  0
LINE
  5
1B5
100
AcDbEntity
  8
M0
 62
   114
100
AcDbLine
 10
277.163398
 20
287.692074
 11
277.163398
 21
289.492123
  0
LINE
  5
1B6
100
AcDbEntity
  8
M0
 62
   114
100
AcDbLine
 10
277.163398
 20
284.692074
 11
277.163398
 21
286.492123
  0
LINE
  5
1B7
100
AcDbEntity
  8
M0
 62
   114
100
AcDbLine
 10
275.963386
 20
284.692074
 11
277.163398
 21
284.692074
  0
LINE
  5
1B8
100
AcDbEntity
  8
M0
 62
   114
100
AcDbLine
 10
277.163398
 20
289.492123
 11
275.963386
 21
289.492123
  0
CIRCLE
  5
1B9
100
AcDbEntity
  8
M0
 62
   114
100
AcDbCircle
 10
276.563392
 20
287.092221
 40
5.0
  0
LINE
  5
1BA
100
AcDbEntity
  8
M0
  6
DASHDOT
 62
   114
100
AcDbLine
 10
269.563392
 20
287.092221
 11
283.563392
 21
287.092221
  0
LINE
  5
1BB
100
AcDbEntity
  8
M0
  6
DASHDOT
 62
   114
100
AcDbLine
 10
276.563392
 20
280.092221
 11
276.563392
 21
294.092221
  0
LINE
  5
1BC
100
AcDbEntity
  8
M1
 62
     2
100
AcDbLine
 10
33.333332
 20
33.333332
 11
33.333332
 21
949.999962
  0
LINE
  5
1BD
100
AcDbEntity
  8
M1
 62
     2
100
AcDbLine
 10
33.333332
 20
949.999962
 11
666.66664
 21
949.999962
  0
LINE
  5
1BE
100
AcDbEntity
  8
M1
 62
     2
100
AcDbLine
 10
666.66664
 20
949.999962
 11
666.66664
 21
33.333332
  0
LINE
  5
1BF
100
AcDbEntity
  8
M1
 62
     2
100
AcDbLine
 10
666.66664
 20
33.333332
 11
33.333332
 21
33.333332
  0
LINE
  5
1C0
100
AcDbEntity
  8
M1
 62
     2
100
AcDbLine
 10
666.66664
 20
66.666664
 11
333.33332
 21
66.666664
  0
LINE
  5
1C1
100
AcDbEntity
  8
M1
 62
     2
100
AcDbLine
 10
666.66664
 20
99.999996
 11
333.33332
 21
99.999996
  0
LINE
  5
1C2
100
AcDbEntity
  8
M1
 62
     2
100
AcDbLine
 10
666.66664
 20
133.333328
 11
333.33332
 21
133.333328
  0
LINE
  5
1C3
100
AcDbEntity
  8
M1
 62
     2
100
AcDbLine
 10
333.33332
 20
33.333332
 11
333.33332
 21
133.333328
  0
TEXT
  5
1C4
100
AcDbEntity
  8
M1
 62
     2
100
AcDbText
 10
341.666653
 20
41.666665
 40
16.666666
  1
適　用；
 41
1.0
  7
STANDARD
100
AcDbText
  0
TEXT
  5
1C5
100
AcDbEntity
  8
M1
 62
     2
100
AcDbText
 10
341.666653
 20
108.333329
 40
16.666666
  1
登録名：
 41
1.0
  7
STANDARD
100
AcDbText
  0
TEXT
  5
1C6
100
AcDbEntity
  8
M1
 62
     2
100
AcDbText
 10
421.66665
 20
108.333329
 40
16.666666
  1
ＤＭＳＨＳ３５ＲＴＲ００
 41
0.5
  7
STANDARD
100
AcDbText
  0
TEXT
  5
1C7
100
AcDbEntity
  8
M1
 62
     2
100
AcDbText
 10
341.666653
 20
74.999997
 40
16.666666
  1
形　式；
 41
1.0
  7
STANDARD
100
AcDbText
  0
TEXT
  5
1C8
100
AcDbEntity
  8
M1
 62
     2
100
AcDbText
 10
421.66665
 20
74.999997
 40
16.666666
  1
ＳＨＳ３５－ＲＴ
 41
0.5
  7
STANDARD
100
AcDbText
  0
ENDSEC
  0
SECTION
  2
OBJECTS
  0
DICTIONARY
  5
C
100
AcDbDictionary
  3
ACAD_GROUP
350
D
  3
ACAD_MLINESTYLE
350
E
  0
DICTIONARY
  5
D
102
{ACAD_REACTORS
330
C
102
}
100
AcDbDictionary
  0
DICTIONARY
  5
E
102
{ACAD_REACTORS
330
C
102
}
100
AcDbDictionary
  3
STANDARD
350
13
  0
MLINESTYLE
  5
13
102
{ACAD_REACTORS
330
E
102
}
100
AcDbMlineStyle
  2
STANDARD
 70
     0
  3

 62
     0
 51
90.0
 52
90.0
 71
     2
 49
0.5
 62
   256
  6
BYLAYER
 49
-0.5
 62
   256
  6
BYLAYER
  0
ENDSEC
  0
EOF
