  0
SECTION
  2
HEADER
  9
$ACADVER
  1
AC1014
  9
$INSBASE
 10
0.000000
 20
0.000000
 30
0.0
  9
$VIEWCTR
 10
7.531722
 20
4.5
  9
$VIEWSIZE
 40
9.0
  9
$SNAPMODE
 70
     0
  9
$SNAPUNIT
 10
1.0
 20
1.0
  9
$SNAPBASE
 10
0.0
 20
0.0
  9
$SNAPANG
 50
0.0
  9
$SNAPSTYLE
 70
     0
  9
$SNAPISOPAIR
 70
     0
  9
$GRIDMODE
 70
     0
  9
$GRIDUNIT
 10
0.0
 20
0.0
  9
$ORTHOMODE
 70
     0
  9
$REGENMODE
 70
     1
  9
$FILLMODE
 70
     1
  9
$QTEXTMODE
 70
     0
  9
$DRAGMODE
 70
     2
  9
$LTSCALE
  40
     1.000000
  9
$OSMODE
 70
     0
  9
$ATTMODE
 70
     1
  9
$TEXTSIZE
 40
0.2
  9
$TRACEWID
 40
0.05
  9
$TEXTSTYLE
  7
STANDARD
  9
$CELTYPE
  6
BYLAYER
  9
$CECOLOR
 62
   256
  9
$DIMSCALE
 40
1.0
  9
$DIMASZ
 40
0.18
  9
$DIMEXO
 40
0.0625
  9
$DIMDLI
 40
0.38
  9
$DIMRND
 40
0.0
  9
$DIMDLE
 40
0.0
  9
$DIMEXE
 40
0.18
  9
$DIMTP
 40
0.0
  9
$DIMTM
 40
0.0
  9
$DIMTXT
 40
0.18
  9
$DIMCEN
 40
0.09
  9
$DIMTSZ
 40
0.0
  9
$DIMTOL
 70
     0
  9
$DIMLIM
 70
     0
  9
$DIMTIH
 70
     1
  9
$DIMTOH
 70
     1
  9
$DIMSE1
 70
     0
  9
$DIMSE2
 70
     0
  9
$DIMTAD
 70
     0
  9
$DIMZIN
 70
     0
  9
$DIMBLK
  1

  9
$LUNITS
 70
     2
  9
$LUPREC
 70
     4
  9
$AXISMODE
 70
     0
  9
$AXISUNIT
 10
0.0
 20
0.0
  9
$SKETCHINC
 40
0.1
  9
$FILLETRAD
 40
0.0
  9
$AUNITS
 70
     0
  9
$AUPREC
 70
     0
  9
$MENU
  1
ACAD
  9
$ELEVATION
 40
0.0
  9
$THICKNESS
 40
0.0
  9
$VIEWDIR
 10
0.0
 20
0.0
 30
1.0
  9
$LIMCHECK
 70
     0
  9
$BLIPMODE
 70
     1
  9
$CHAMFERA
 40
0.0
  9
$CHAMFERB
 40
0.0
  9
$FASTZOOM
 70
     1
  9
$SKPOLY
 70
     0
  9
$TDCREATE
 40
0000000.0000000000
  9
$TDUPDATE
 40
0000000.0000000000
  9
$TDINDWG
 40
0.0000000000
  9
$TDUSRTIMER
 40
0.0000000000
  9
$USRTIMER
 70
     1
  9
$ANGBASE
 50
0.0
  9
$ANGDIR
 70
     0
  9
$PDMODE
 70
     0
  9
$PDSIZE
 40
0.0
  9
$PLINEWID
 40
0.0
  9
$COORDS
 70
     0
  9
$USERI1
 70
     0
  9
$USERI2
 70
     0
  9
$USERI3
 70
     0
  9
$USERI4
 70
     0
  9
$USERI5
 70
     0
  9
$USERR1
 40
0.0
  9
$USERR2
 40
0.0
  9
$USERR3
 40
0.0
  9
$USERR4
 40
0.0
  9
$USERR5
 40
0.0
  9
$CLAYER
  8
M0
  9
$EXTMIN
 10
11.764706
 20
11.764706
  9
$EXTMAX
 10
235.294111
 20
335.294108
  9
$LIMMIN
 10
0.0
 20
0.0
  9
$LIMMAX
 10
210.0
 20
297.0
  9
$HANDSEED
  5
2FD
  0
ENDSEC
  0
SECTION
  2
CLASSES
  0
ENDSEC
  0
SECTION
  2
TABLES
  0
TABLE
  2
VPORT
  5
8
100
AcDbSymbolTable
 70
     2
  0
VPORT
  5
14
100
AcDbSymbolTableRecord
100
AcDbViewportTableRecord
  2
*ACTIVE
 70
     0
 10
0.0
 20
0.0
 11
1.0
 21
1.0
 12
484.0
 22
297.0
 13
0.0
 23
0.0
 14
1.0
 24
1.0
 15
0.0
 25
0.0
 16
0.0
 26
0.0
 36
1.0
 17
0.0
 27
0.0
 37
0.0
 40
594.0
 41
2.0
 42
50.0
 43
0.0
 44
0.0
 50
0.0
 51
0.0
 71
     0
 72
   100
 73
     1
 74
     1
 75
     0
 76
     0
 77
     0
 78
     0
  0
ENDTAB
  0
TABLE
  2
LTYPE
  5
5
100
AcDbSymbolTable
 70
     5
  0
LTYPE
  5
15
100
AcDbSymbolTableRecord
100
AcDbLinetypeTableRecord
  2
BYBLOCK
 70
     0
  3

 72
    65
 73
     0
 40
0.0
  0
LTYPE
  5
16
100
AcDbSymbolTableRecord
100
AcDbLinetypeTableRecord
  2
BYLAYER
 70
     0
  3

 72
    65
 73
     0
 40
0.0
  0
LTYPE
  5
17
100
AcDbSymbolTableRecord
100
AcDbLinetypeTableRecord
  2
CONTINUOUS
 70
    64
  3
Solid line
 72
    65
 73
     0
 40
0.0
  0
LTYPE
  5
18
100
AcDbSymbolTableRecord
100
AcDbLinetypeTableRecord
  2
DASHED
 70
    64
  3
__ __ __ __ __ __ __ __ __ __ __ __ __ __ __ __
 72
    65
 73
     2
 40
0.75
 49
0.5
 74
     0
 49
-0.25
 74
     0
  0
LTYPE
  5
19
100
AcDbSymbolTableRecord
100
AcDbLinetypeTableRecord
  2
DASHDOT
 70
    64
  3
__ . __ . __ . __ . __ . __ . __ . __ . __ . __
 72
    65
 73
     4
 40
1.0
 49
0.5
 74
     0
 49
-0.25
 74
     0
 49
0.0
 74
     0
 49
-0.25
 74
     0
  0
LTYPE
  5
1A
100
AcDbSymbolTableRecord
100
AcDbLinetypeTableRecord
  2
DIVIDE
 70
    64
  3
____ . . ____ . . ____ . . ____ . . ____ . . __
 72
    65
 73
     6
 40
1.25
 49
0.5
 74
     0
 49
-0.25
 74
     0
 49
0.0
 74
     0
 49
-0.25
 74
     0
 49
0.0
 74
     0
 49
-0.25
 74
     0
  0
LTYPE
  5
1B
100
AcDbSymbolTableRecord
100
AcDbLinetypeTableRecord
  2
DOT
 70
    64
  3
. . . . . . . . . . . . . . . . . . . . . . . .
 72
    65
 73
     2
 40
0.25
 49
0.0
 74
     0
 49
-0.25
 74
     0
  0
ENDTAB
  0
TABLE
  2
LAYER
  5
2
100
AcDbSymbolTable
 70
   102
  0
LAYER
  5
F
100
AcDbSymbolTableRecord
100
AcDbLayerTableRecord
  2
0
 70
     0
 62
     7
  6
CONTINUOUS
  0
LAYER
  5
1C
100
AcDbSymbolTableRecord
100
AcDbLayerTableRecord
  2
DEFPOINTS
 70
     0
 62
     7
  6
CONTINUOUS
  0
LAYER
  5
1D
100
AcDbSymbolTableRecord
100
AcDbLayerTableRecord
  2
M0
 70
     0
 62
     3
  6
CONTINUOUS
  0
LAYER
  5
1E
100
AcDbSymbolTableRecord
100
AcDbLayerTableRecord
  2
M1
 70
     0
 62
     3
  6
CONTINUOUS
  0
LAYER
  5
1F
100
AcDbSymbolTableRecord
100
AcDbLayerTableRecord
  2
DD0
 70
     0
 62
     4
  6
CONTINUOUS
  0
LAYER
  5
20
100
AcDbSymbolTableRecord
100
AcDbLayerTableRecord
  2
DN0
 70
     0
 62
     2
  6
CONTINUOUS
  0
ENDTAB
  0
TABLE
  2
STYLE
  5
3
100
AcDbSymbolTable
 70
     2
  0
STYLE
  5
10
100
AcDbSymbolTableRecord
100
AcDbTextStyleTableRecord
  2
STANDARD
 70
     0
 40
0.0
 41
1.0
 50
0.0
 71
     0
 42
0.2
  3
txt
  4
BIGFONT
  0
ENDTAB
  0
TABLE
  2
VIEW
  5
6
100
AcDbSymbolTable
 70
     0
  0
ENDTAB
  0
TABLE
  2
UCS
  5
7
100
AcDbSymbolTable
 70
     0
  0
ENDTAB
  0
TABLE
  2
APPID
  5
9
100
AcDbSymbolTable
 70
     1
  0
APPID
  5
11
100
AcDbSymbolTableRecord
100
AcDbRegAppTableRecord
  2
ACAD
 70
     0
  0
ENDTAB
  0
TABLE
  2
DIMSTYLE
  5
A
100
AcDbSymbolTable
 70
     2
  0
DIMSTYLE
105
27
100
AcDbSymbolTableRecord
100
AcDbDimStyleTableRecord
  2
STANDARD
 70
     0
  3

  4

  5

  6
_OPEN
  7
_OPEN
 40
1.0
 41
3.529412
 42
1.0
 43
8.0
 44
1.0
 45
0.0
 46
0.0
 47
0.0
 48
0.0
140
3.705882
141
0.09
142
0.0
143
0.03937
144
1.0
145
0.0
146
1.0
147
0.6
 71
     0
 72
     0
 73
     1
 74
     1
 75
     0
 76
     0
 77
     3
 78
     8
170
     0
171
     2
172
     0
173
     1
174
     0
175
     0
176
     0
177
     0
178
     0
270
     2
271
     2
272
     4
273
     2
274
     2
340
10
275
     0
280
     0
281
     0
282
     0
283
     1
284
     0
285
     0
286
     0
287
     3
288
     0
  0
DIMSTYLE
105
28
100
AcDbSymbolTableRecord
100
AcDbDimStyleTableRecord
  2
LEADSTYL
 70
     0
  3

  4

  5

  6
_OPEN
  7
_OPEN
 40
1.0
 41
3.529412
 42
0.0625
 43
0.38
 44
0.18
 45
0.0
 46
0.0
 47
0.0
 48
0.0
140
3.705882
141
0.09
142
0.0
143
25.4
144
1.0
145
0.0
146
1.0
147
0.6
 71
     0
 72
     0
 73
     1
 74
     1
 75
     0
 76
     0
 77
     0
 78
     0
170
     0
171
     2
172
     0
173
     1
174
     0
175
     0
176
     0
177
     0
178
     0
270
     2
271
     4
272
     4
273
     2
274
     2
340
10
275
     0
280
     0
281
     0
282
     0
283
     1
284
     0
285
     0
286
     0
287
     3
288
     0
  0
ENDTAB
  0
TABLE
  2
BLOCK_RECORD
  5
1
100
AcDbSymbolTable
 70
    16
  0
BLOCK_RECORD
  5
21
100
AcDbSymbolTableRecord
100
AcDbBlockTableRecord
  2
*MODEL_SPACE
  0
BLOCK_RECORD
  5
24
100
AcDbSymbolTableRecord
100
AcDbBlockTableRecord
  2
*PAPER_SPACE
  0
BLOCK_RECORD
  5
29
100
AcDbSymbolTableRecord
100
AcDbBlockTableRecord
  2
_NONE
  0
BLOCK_RECORD
  5
2D
100
AcDbSymbolTableRecord
100
AcDbBlockTableRecord
  2
_OPEN
  0
BLOCK_RECORD
  5
33
100
AcDbSymbolTableRecord
100
AcDbBlockTableRecord
  2
_CLOSED
  0
BLOCK_RECORD
  5
3A
100
AcDbSymbolTableRecord
100
AcDbBlockTableRecord
  2
_ORIGIN
  0
BLOCK_RECORD
  5
3F
100
AcDbSymbolTableRecord
100
AcDbBlockTableRecord
  2
_DOT
  0
BLOCK_RECORD
  5
47
100
AcDbSymbolTableRecord
100
AcDbBlockTableRecord
  2
_OBLIQUE
  0
BLOCK_RECORD
  5
4B
100
AcDbSymbolTableRecord
100
AcDbBlockTableRecord
  2
DIMS0
  0
BLOCK_RECORD
  5
57
100
AcDbSymbolTableRecord
100
AcDbBlockTableRecord
  2
DIMS1
  0
BLOCK_RECORD
  5
63
100
AcDbSymbolTableRecord
100
AcDbBlockTableRecord
  2
DIMS2
  0
BLOCK_RECORD
  5
6F
100
AcDbSymbolTableRecord
100
AcDbBlockTableRecord
  2
DIMS3
  0
BLOCK_RECORD
  5
7B
100
AcDbSymbolTableRecord
100
AcDbBlockTableRecord
  2
DIMS4
  0
BLOCK_RECORD
  5
87
100
AcDbSymbolTableRecord
100
AcDbBlockTableRecord
  2
DIMS5
  0
BLOCK_RECORD
  5
8C
100
AcDbSymbolTableRecord
100
AcDbBlockTableRecord
  2
DIMS6
  0
BLOCK_RECORD
  5
93
100
AcDbSymbolTableRecord
100
AcDbBlockTableRecord
  2
DIMS7
  0
BLOCK_RECORD
  5
9F
100
AcDbSymbolTableRecord
100
AcDbBlockTableRecord
  2
DIMS8
  0
BLOCK_RECORD
  5
AB
100
AcDbSymbolTableRecord
100
AcDbBlockTableRecord
  2
DIMS9
  0
ENDTAB
  0
ENDSEC
  0
SECTION
  2
BLOCKS
  0
BLOCK
  5
22
100
AcDbEntity
  8
0
100
AcDbBlockBegin
  2
*MODEL_SPACE
 70
     0
 10
0.0
 20
0.0
 30
0.0
  3
*MODEL_SPACE
  1

  0
ENDBLK
  5
23
100
AcDbEntity
  8
0
100
AcDbBlockEnd
  0
BLOCK
  5
25
100
AcDbEntity
 67
     1
  8
0
100
AcDbBlockBegin
  2
*PAPER_SPACE
 70
     0
 10
0.0
 20
0.0
 30
0.0
  3
*PAPER_SPACE
  1

  0
ENDBLK
  5
26
100
AcDbEntity
 67
     1
  8
0
100
AcDbBlockEnd
  0
BLOCK
  5
2A
100
AcDbEntity
  8
0
100
AcDbBlockBegin
  2
_NONE
 70
     0
 10
0.0
 20
0.0
  0
CIRCLE
  5
2B
100
AcDbEntity
  8
0
 62
     0
100
AcDbCircle
 10
0.0
 20
0.0
 40
0.25
  0
ENDBLK
  5
2C
100
AcDbEntity
  8
0
100
AcDbBlockEnd
  0
BLOCK
  5
2E
100
AcDbEntity
  8
0
100
AcDbBlockBegin
  2
_OPEN
 70
     0
 10
0.0
 20
0.0
  0
LINE
  5
2F
100
AcDbEntity
  8
0
 62
     0
100
AcDbLine
 10
-0.965926
 20
0.258819
 11
0.0
 21
0.0
  0
LINE
  5
30
100
AcDbEntity
  8
0
 62
     0
100
AcDbLine
 10
0.0
 20
0.0
 11
-0.965926
 21
-0.258819
  0
LINE
  5
31
100
AcDbEntity
  8
0
 62
     0
100
AcDbLine
 10
0.0
 20
0.0
 11
-1.0
 21
0.0
  0
ENDBLK
  5
32
100
AcDbEntity
  8
0
100
AcDbBlockEnd
  0
BLOCK
  5
34
100
AcDbEntity
  8
0
100
AcDbBlockBegin
  2
_CLOSED
 70
     0
 10
0.0
 20
0.0
  0
LINE
  5
35
100
AcDbEntity
  8
0
 62
     0
100
AcDbLine
 10
-0.965926
 20
0.258819
 11
0.0
 21
0.0
  0
LINE
  5
36
100
AcDbEntity
  8
0
 62
     0
100
AcDbLine
 10
0.0
 20
0.0
 11
-0.965926
 21
-0.258819
  0
LINE
  5
37
100
AcDbEntity
  8
0
 62
     0
100
AcDbLine
 10
-0.965926
 20
0.258819
 11
-0.965926
 21
-0.258819
  0
LINE
  5
38
100
AcDbEntity
  8
0
 62
     0
100
AcDbLine
 10
0.0
 20
0.0
 11
-1.0
 21
0.0
  0
ENDBLK
  5
39
100
AcDbEntity
  8
0
100
AcDbBlockEnd
  0
BLOCK
  5
3B
100
AcDbEntity
  8
0
100
AcDbBlockBegin
  2
_ORIGIN
 70
     0
 10
0.0
 20
0.0
  0
CIRCLE
  5
3C
100
AcDbEntity
  8
0
 62
     0
100
AcDbCircle
 10
0.0
 20
0.0
 40
0.5
  0
LINE
  5
3D
100
AcDbEntity
  8
0
 62
     0
100
AcDbLine
 10
0.0
 20
0.0
 11
-1.0
 21
0.0
  0
ENDBLK
  5
3E
100
AcDbEntity
  8
0
100
AcDbBlockEnd
  0
BLOCK
  5
40
100
AcDbEntity
  8
0
100
AcDbBlockBegin
  2
_DOT
 70
     0
 10
0.0
 20
0.0
  0
POLYLINE
  5
41
100
AcDbEntity
  8
0
 62
     0
100
AcDb2dPolyline
 66
     1
 70
     1
 40
0.5
 41
0.5
  0
VERTEX
  5
42
100
AcDbEntity
  8
0
 62
     0
100
AcDbVertex
100
AcDb2dVertex
 10
-0.25
 20
0.0
 42
1.0
  0
VERTEX
  5
43
100
AcDbEntity
  8
0
 62
     0
100
AcDbVertex
100
AcDb2dVertex
 10
0.25
 20
0.0
 42
1.0
  0
SEQEND
  5
44
100
AcDbEntity
  8
0
 62
     0
  0
LINE
  5
45
100
AcDbEntity
  8
0
 62
     0
100
AcDbLine
 10
-0.5
 20
0.0
 11
-1.0
 21
0.0
  0
ENDBLK
  5
46
100
AcDbEntity
  8
0
100
AcDbBlockEnd
  0
BLOCK
  5
48
100
AcDbEntity
  8
0
100
AcDbBlockBegin
  2
_OBLIQUE
 70
     0
 10
0.0
 20
0.0
  0
LINE
  5
49
100
AcDbEntity
  8
0
 62
     0
100
AcDbLine
 10
-0.353553
 20
-0.353553
 11
0.353553
 21
0.353553
  0
ENDBLK
  5
4A
100
AcDbEntity
  8
0
100
AcDbBlockEnd
  0
BLOCK
  5
4C
100
AcDbEntity
  8
DD0
100
AcDbBlockBegin
  2
DIMS0
 70
     0
 10
0.0
 20
0.0
  0
LINE
  5
4D
100
AcDbEntity
  8
DD0
100
AcDbLine
 10
108.329878
 20
225.151612
 11
108.329878
 21
200.606091
  0
LINE
  5
4E
100
AcDbEntity
  8
DD0
100
AcDbLine
 10
118.329958
 20
219.151605
 11
118.329958
 21
200.606091
  0
LINE
  5
4F
100
AcDbEntity
  8
DD0
100
AcDbLine
 10
111.739027
 20
202.696041
 11
108.329878
 21
201.782562
  0
LINE
  5
50
100
AcDbEntity
  8
DD0
100
AcDbLine
 10
108.329878
 20
201.782562
 11
111.739027
 21
200.869083
  0
LINE
  5
51
100
AcDbEntity
  8
DD0
100
AcDbLine
 10
114.920808
 20
200.869083
 11
118.329958
 21
201.782562
  0
LINE
  5
52
100
AcDbEntity
  8
DD0
100
AcDbLine
 10
118.329958
 20
201.782562
 11
114.920808
 21
202.696041
  0
LINE
  5
53
100
AcDbEntity
  8
DD0
100
AcDbLine
 10
108.329878
 20
201.782562
 11
118.329958
 21
201.782562
  0
TEXT
  5
54
100
AcDbEntity
  8
DD0
100
AcDbText
 10
107.64756
 20
197.253161
 40
3.705882
  1
最小１０
 41
0.666667
  7
STANDARD
100
AcDbText
  0
ENDBLK
  5
55
100
AcDbEntity
  8
DD0
100
AcDbBlockEnd
  0
BLOCK
  5
58
100
AcDbEntity
  8
DD0
100
AcDbBlockBegin
  2
DIMS1
 70
     0
 10
0.0
 20
0.0
  0
LINE
  5
59
100
AcDbEntity
  8
DD0
100
AcDbLine
 10
222.329885
 20
280.004516
 11
222.329885
 21
293.620382
  0
LINE
  5
5A
100
AcDbEntity
  8
DD0
100
AcDbLine
 10
118.329958
 20
273.504487
 11
118.329958
 21
293.620382
  0
LINE
  5
5B
100
AcDbEntity
  8
DD0
100
AcDbLine
 10
218.920735
 20
291.530432
 11
222.329885
 21
292.443911
  0
LINE
  5
5C
100
AcDbEntity
  8
DD0
100
AcDbLine
 10
222.329885
 20
292.443911
 11
218.920735
 21
293.35739
  0
LINE
  5
5D
100
AcDbEntity
  8
DD0
100
AcDbLine
 10
121.739108
 20
293.35739
 11
118.329958
 21
292.443911
  0
LINE
  5
5E
100
AcDbEntity
  8
DD0
100
AcDbLine
 10
118.329958
 20
292.443911
 11
121.739108
 21
291.530432
  0
LINE
  5
5F
100
AcDbEntity
  8
DD0
100
AcDbLine
 10
222.329885
 20
292.443911
 11
118.329958
 21
292.443911
  0
TEXT
  5
60
100
AcDbEntity
  8
DD0
100
AcDbText
 10
165.074038
 20
293.149801
 40
3.705882
  1
１０４
 41
0.833333
  7
STANDARD
100
AcDbText
  0
ENDBLK
  5
61
100
AcDbEntity
  8
DD0
100
AcDbBlockEnd
  0
BLOCK
  5
64
100
AcDbEntity
  8
DD0
100
AcDbBlockBegin
  2
DIMS2
 70
     0
 10
0.0
 20
0.0
  0
LINE
  5
65
100
AcDbEntity
  8
DD0
100
AcDbLine
 10
80.770979
 20
279.504476
 11
80.770979
 21
293.620382
  0
LINE
  5
66
100
AcDbEntity
  8
DD0
100
AcDbLine
 10
27.770982
 20
276.004433
 11
27.770982
 21
293.620382
  0
LINE
  5
67
100
AcDbEntity
  8
DD0
100
AcDbLine
 10
77.36183
 20
291.530432
 11
80.770979
 21
292.443911
  0
LINE
  5
68
100
AcDbEntity
  8
DD0
100
AcDbLine
 10
80.770979
 20
292.443911
 11
77.36183
 21
293.35739
  0
LINE
  5
69
100
AcDbEntity
  8
DD0
100
AcDbLine
 10
31.180132
 20
293.35739
 11
27.770982
 21
292.443911
  0
LINE
  5
6A
100
AcDbEntity
  8
DD0
100
AcDbLine
 10
27.770982
 20
292.443911
 11
31.180132
 21
291.530432
  0
LINE
  5
6B
100
AcDbEntity
  8
DD0
100
AcDbLine
 10
80.770979
 20
292.443911
 11
27.770982
 21
292.443911
  0
TEXT
  5
6C
100
AcDbEntity
  8
DD0
100
AcDbText
 10
50.868037
 20
293.149801
 40
3.705882
  1
５３
 41
0.833333
  7
STANDARD
100
AcDbText
  0
ENDBLK
  5
6D
100
AcDbEntity
  8
DD0
100
AcDbBlockEnd
  0
BLOCK
  5
70
100
AcDbEntity
  8
DD0
100
AcDbBlockBegin
  2
DIMS3
 70
     0
 10
0.0
 20
0.0
  0
LINE
  5
71
100
AcDbEntity
  8
DD0
100
AcDbLine
 10
220.029883
 20
212.651577
 11
220.029883
 21
199.870797
  0
LINE
  5
72
100
AcDbEntity
  8
DD0
100
AcDbLine
 10
222.329885
 20
212.651577
 11
222.329885
 21
199.870797
  0
LINE
  5
73
100
AcDbEntity
  8
DD0
100
AcDbLine
 10
216.620733
 20
200.133789
 11
220.029883
 21
201.047268
  0
LINE
  5
74
100
AcDbEntity
  8
DD0
100
AcDbLine
 10
220.029883
 20
201.047268
 11
216.620733
 21
201.960747
  0
LINE
  5
75
100
AcDbEntity
  8
DD0
100
AcDbLine
 10
225.739035
 20
201.960747
 11
222.329885
 21
201.047268
  0
LINE
  5
76
100
AcDbEntity
  8
DD0
100
AcDbLine
 10
222.329885
 20
201.047268
 11
225.739035
 21
200.133789
  0
LINE
  5
77
100
AcDbEntity
  8
DD0
100
AcDbLine
 10
203.853412
 20
201.047268
 11
226.212238
 21
201.047268
  0
TEXT
  5
78
100
AcDbEntity
  8
DD0
100
AcDbText
 10
204.803418
 20
201.753157
 40
3.705882
  1
２．３
 41
0.833333
  7
STANDARD
100
AcDbText
  0
ENDBLK
  5
79
100
AcDbEntity
  8
DD0
100
AcDbBlockEnd
  0
BLOCK
  5
7C
100
AcDbEntity
  8
DD0
100
AcDbBlockBegin
  2
DIMS4
 70
     0
 10
0.0
 20
0.0
  0
LINE
  5
7D
100
AcDbEntity
  8
DD0
100
AcDbLine
 10
76.94745
 20
278.828009
 11
94.873574
 21
278.828009
  0
LINE
  5
7E
100
AcDbEntity
  8
DD0
100
AcDbLine
 10
74.44745
 20
213.828011
 11
94.873574
 21
213.828011
  0
LINE
  5
7F
100
AcDbEntity
  8
DD0
100
AcDbLine
 10
94.610582
 20
275.41886
 11
93.697103
 21
278.828009
  0
LINE
  5
80
100
AcDbEntity
  8
DD0
100
AcDbLine
 10
93.697103
 20
278.828009
 11
92.783624
 21
275.41886
  0
LINE
  5
81
100
AcDbEntity
  8
DD0
100
AcDbLine
 10
92.783624
 20
217.237161
 11
93.697103
 21
213.828011
  0
LINE
  5
82
100
AcDbEntity
  8
DD0
100
AcDbLine
 10
93.697103
 20
213.828011
 11
94.610582
 21
217.237161
  0
LINE
  5
83
100
AcDbEntity
  8
DD0
100
AcDbLine
 10
93.697103
 20
278.828009
 11
93.697103
 21
213.828011
  0
TEXT
  5
84
100
AcDbEntity
  8
DD0
100
AcDbText
 10
92.991223
 20
242.925078
 40
3.705882
  1
６５
 50
90.000003
 41
0.833333
  7
STANDARD
100
AcDbText
  0
ENDBLK
  5
85
100
AcDbEntity
  8
DD0
100
AcDbBlockEnd
  0
BLOCK
  5
88
100
AcDbEntity
  8
DD0
100
AcDbBlockBegin
  2
DIMS5
 70
     0
 10
0.0
 20
0.0
  0
TEXT
  5
89
100
AcDbEntity
  8
DD0
100
AcDbText
 10
77.01048
 20
89.409016
 40
3.705882
  1
２－Ｍ４ねじ穴
 41
0.833333
  7
STANDARD
100
AcDbText
  0
ENDBLK
  5
8A
100
AcDbEntity
  8
DD0
100
AcDbBlockEnd
  0
BLOCK
  5
8D
100
AcDbEntity
  8
DD0
100
AcDbBlockBegin
  2
DIMS6
 70
     0
 10
0.0
 20
0.0
  0
LINE
  5
8E
100
AcDbEntity
  8
DD0
100
AcDbLine
 10
74.070344
 20
102.447186
 11
71.736466
 21
105.094781
  0
LINE
  5
8F
100
AcDbEntity
  8
DD0
100
AcDbLine
 10
71.736466
 20
105.094781
 11
72.433866
 21
101.634957
  0
LINE
  5
90
100
AcDbEntity
  8
DD0
100
AcDbLine
 10
71.736466
 20
105.094781
 11
76.74852
 21
94.996497
  0
ENDBLK
  5
91
100
AcDbEntity
  8
DD0
100
AcDbBlockEnd
  0
BLOCK
  5
94
100
AcDbEntity
  8
DD0
100
AcDbBlockBegin
  2
DIMS7
 70
     0
 10
0.0
 20
0.0
  0
LINE
  5
95
100
AcDbEntity
  8
DD0
100
AcDbLine
 10
76.04518
 20
107.120448
 11
94.869562
 21
107.120448
  0
LINE
  5
96
100
AcDbEntity
  8
DD0
100
AcDbLine
 10
42.545183
 20
162.120429
 11
94.869562
 21
162.120429
  0
LINE
  5
97
100
AcDbEntity
  8
DD0
100
AcDbLine
 10
92.779612
 20
110.529598
 11
93.693091
 21
107.120448
  0
LINE
  5
98
100
AcDbEntity
  8
DD0
100
AcDbLine
 10
93.693091
 20
107.120448
 11
94.60657
 21
110.529598
  0
LINE
  5
99
100
AcDbEntity
  8
DD0
100
AcDbLine
 10
94.60657
 20
158.711279
 11
93.693091
 21
162.120429
  0
LINE
  5
9A
100
AcDbEntity
  8
DD0
100
AcDbLine
 10
93.693091
 20
162.120429
 11
92.779612
 21
158.711279
  0
LINE
  5
9B
100
AcDbEntity
  8
DD0
100
AcDbLine
 10
93.693091
 20
107.120448
 11
93.693091
 21
162.120429
  0
TEXT
  5
9C
100
AcDbEntity
  8
DD0
100
AcDbText
 10
92.987211
 20
131.217497
 40
3.705882
  1
５５
 50
90.000003
 41
0.833333
  7
STANDARD
100
AcDbText
  0
ENDBLK
  5
9D
100
AcDbEntity
  8
DD0
100
AcDbBlockEnd
  0
BLOCK
  5
A0
100
AcDbEntity
  8
DD0
100
AcDbBlockBegin
  2
DIMS8
 70
     0
 10
0.0
 20
0.0
  0
LINE
  5
A1
100
AcDbEntity
  8
DD0
100
AcDbLine
 10
37.271299
 20
167.394297
 11
37.271299
 21
186.894813
  0
LINE
  5
A2
100
AcDbEntity
  8
DD0
100
AcDbLine
 10
70.271299
 20
112.89432
 11
70.271299
 21
186.894813
  0
LINE
  5
A3
100
AcDbEntity
  8
DD0
100
AcDbLine
 10
40.680449
 20
186.631822
 11
37.271299
 21
185.718343
  0
LINE
  5
A4
100
AcDbEntity
  8
DD0
100
AcDbLine
 10
37.271299
 20
185.718343
 11
40.680449
 21
184.804864
  0
LINE
  5
A5
100
AcDbEntity
  8
DD0
100
AcDbLine
 10
66.862149
 20
184.804864
 11
70.271299
 21
185.718343
  0
LINE
  5
A6
100
AcDbEntity
  8
DD0
100
AcDbLine
 10
70.271299
 20
185.718343
 11
66.862149
 21
186.631822
  0
LINE
  5
A7
100
AcDbEntity
  8
DD0
100
AcDbLine
 10
37.271299
 20
185.718343
 11
70.271299
 21
185.718343
  0
TEXT
  5
A8
100
AcDbEntity
  8
DD0
100
AcDbText
 10
50.368357
 20
186.424232
 40
3.705882
  1
３３
 41
0.833333
  7
STANDARD
100
AcDbText
  0
ENDBLK
  5
A9
100
AcDbEntity
  8
DD0
100
AcDbBlockEnd
  0
BLOCK
  5
AC
100
AcDbEntity
  8
DD0
100
AcDbBlockBegin
  2
DIMS9
 70
     0
 10
0.0
 20
0.0
  0
LINE
  5
AD
100
AcDbEntity
  8
DD0
100
AcDbLine
 10
54.271315
 20
172.290429
 11
54.271315
 21
178.172746
  0
LINE
  5
AE
100
AcDbEntity
  8
DD0
100
AcDbLine
 10
37.271299
 20
167.394297
 11
37.271299
 21
178.172746
  0
LINE
  5
AF
100
AcDbEntity
  8
DD0
100
AcDbLine
 10
50.862165
 20
176.082796
 11
54.271315
 21
176.996275
  0
LINE
  5
B0
100
AcDbEntity
  8
DD0
100
AcDbLine
 10
54.271315
 20
176.996275
 11
50.862165
 21
177.909754
  0
LINE
  5
B1
100
AcDbEntity
  8
DD0
100
AcDbLine
 10
40.680449
 20
177.909754
 11
37.271299
 21
176.996275
  0
LINE
  5
B2
100
AcDbEntity
  8
DD0
100
AcDbLine
 10
37.271299
 20
176.996275
 11
40.680449
 21
176.082796
  0
LINE
  5
B3
100
AcDbEntity
  8
DD0
100
AcDbLine
 10
54.271315
 20
176.996275
 11
37.271299
 21
176.996275
  0
TEXT
  5
B4
100
AcDbEntity
  8
DD0
100
AcDbText
 10
42.368367
 20
177.702165
 40
3.705882
  1
１７
 41
0.833333
  7
STANDARD
100
AcDbText
  0
ENDBLK
  5
B5
100
AcDbEntity
  8
DD0
100
AcDbBlockEnd
  0
ENDSEC
  0
SECTION
  2
ENTITIES
  0
INSERT
  5
56
100
AcDbEntity
  8
DD0
100
AcDbBlockReference
  2
DIMS0
 10
0.0
 20
0.0
  0
INSERT
  5
62
100
AcDbEntity
  8
DD0
100
AcDbBlockReference
  2
DIMS1
 10
0.0
 20
0.0
  0
INSERT
  5
6E
100
AcDbEntity
  8
DD0
100
AcDbBlockReference
  2
DIMS2
 10
0.0
 20
0.0
  0
INSERT
  5
7A
100
AcDbEntity
  8
DD0
100
AcDbBlockReference
  2
DIMS3
 10
0.0
 20
0.0
  0
INSERT
  5
86
100
AcDbEntity
  8
DD0
100
AcDbBlockReference
  2
DIMS4
 10
0.0
 20
0.0
  0
INSERT
  5
8B
100
AcDbEntity
  8
DD0
100
AcDbBlockReference
  2
DIMS5
 10
0.0
 20
0.0
  0
INSERT
  5
92
100
AcDbEntity
  8
DD0
100
AcDbBlockReference
  2
DIMS6
 10
0.0
 20
0.0
  0
INSERT
  5
9E
100
AcDbEntity
  8
DD0
100
AcDbBlockReference
  2
DIMS7
 10
0.0
 20
0.0
  0
INSERT
  5
AA
100
AcDbEntity
  8
DD0
100
AcDbBlockReference
  2
DIMS8
 10
0.0
 20
0.0
  0
INSERT
  5
B6
100
AcDbEntity
  8
DD0
100
AcDbBlockReference
  2
DIMS9
 10
0.0
 20
0.0
  0
CIRCLE
  5
B7
100
AcDbEntity
  8
M0
 62
     6
100
AcDbCircle
 10
34.270966
 20
218.328079
 40
3.0
  0
LINE
  5
B8
100
AcDbEntity
  8
M0
 62
     6
100
AcDbLine
 10
31.17424
 20
221.827987
 11
30.495957
 21
219.628128
  0
LINE
  5
B9
100
AcDbEntity
  8
M0
 62
     6
100
AcDbLine
 10
31.31221
 20
214.380829
 11
30.495957
 21
217.028152
  0
LINE
  5
BA
100
AcDbEntity
  8
M0
 62
     6
100
AcDbLine
 10
37.367645
 20
221.827987
 11
38.04596
 21
219.628128
  0
LINE
  5
BB
100
AcDbEntity
  8
M0
 62
     6
100
AcDbLine
 10
37.229691
 20
214.380813
 11
38.04596
 21
217.028152
  0
LINE
  5
BC
100
AcDbEntity
  8
M0
 62
     6
100
AcDbLine
 10
31.790009
 20
214.028152
 11
36.751877
 21
214.028152
  0
LINE
  5
BD
100
AcDbEntity
  8
M0
 62
     6
100
AcDbLine
 10
38.04596
 20
217.028152
 11
38.04596
 21
219.628128
  0
LINE
  5
BE
100
AcDbEntity
  8
M0
 62
     6
100
AcDbLine
 10
30.495957
 20
219.628128
 11
30.495957
 21
217.028152
  0
LINE
  5
BF
100
AcDbEntity
  8
M0
  6
DASHDOT
 62
     6
100
AcDbLine
 10
27.995957
 20
218.328079
 11
40.54596
 21
218.328079
  0
LINE
  5
C0
100
AcDbEntity
  8
M0
  6
DASHDOT
 62
     6
100
AcDbLine
 10
34.270966
 20
211.528167
 11
34.270966
 21
225.128128
  0
LINE
  5
C1
100
AcDbEntity
  8
M0
 62
     6
100
AcDbLine
 10
35.86174
 20
216.737259
 11
32.679932
 21
219.919021
  0
LINE
  5
C2
100
AcDbEntity
  8
M0
 62
     6
100
AcDbLine
 10
34.624375
 20
219.742263
 11
32.856705
 21
217.974563
  0
LINE
  5
C3
100
AcDbEntity
  8
M0
 62
     6
100
AcDbLine
 10
35.684983
 20
218.681595
 11
33.917359
 21
216.914016
  0
ARC
  5
C4
100
AcDbEntity
  8
M0
 62
     6
100
AcDbCircle
 10
31.790009
 20
214.528152
 40
0.5
100
AcDbArc
 50
197.13731
 51
270.0
  0
ARC
  5
C5
100
AcDbEntity
  8
M0
 62
     6
100
AcDbCircle
 10
36.751877
 20
214.528152
 40
0.5
100
AcDbArc
 50
270.0
 51
342.861653
  0
CIRCLE
  5
C6
100
AcDbEntity
  8
M0
 62
     6
100
AcDbCircle
 10
34.270966
 20
226.328079
 40
3.0
  0
LINE
  5
C7
100
AcDbEntity
  8
M0
 62
     6
100
AcDbLine
 10
31.31221
 20
230.275421
 11
30.495957
 21
227.628128
  0
LINE
  5
C8
100
AcDbEntity
  8
M0
 62
     6
100
AcDbLine
 10
31.31221
 20
222.380829
 11
30.495957
 21
225.028152
  0
LINE
  5
C9
100
AcDbEntity
  8
M0
 62
     6
100
AcDbLine
 10
37.229691
 20
230.275436
 11
38.04596
 21
227.628128
  0
LINE
  5
CA
100
AcDbEntity
  8
M0
 62
     6
100
AcDbLine
 10
37.229691
 20
222.380813
 11
38.04596
 21
225.028152
  0
LINE
  5
CB
100
AcDbEntity
  8
M0
 62
     6
100
AcDbLine
 10
31.790009
 20
222.028152
 11
36.751877
 21
222.028152
  0
LINE
  5
CC
100
AcDbEntity
  8
M0
 62
     6
100
AcDbLine
 10
38.04596
 20
225.028152
 11
38.04596
 21
227.628128
  0
LINE
  5
CD
100
AcDbEntity
  8
M0
 62
     6
100
AcDbLine
 10
36.751877
 20
230.628128
 11
31.790009
 21
230.628112
  0
LINE
  5
CE
100
AcDbEntity
  8
M0
 62
     6
100
AcDbLine
 10
30.495957
 20
227.628128
 11
30.495957
 21
225.028152
  0
LINE
  5
CF
100
AcDbEntity
  8
M0
  6
DASHDOT
 62
     6
100
AcDbLine
 10
34.270966
 20
219.528167
 11
34.270966
 21
233.128128
  0
LINE
  5
D0
100
AcDbEntity
  8
M0
 62
     6
100
AcDbLine
 10
35.86174
 20
224.737259
 11
32.679932
 21
227.919021
  0
LINE
  5
D1
100
AcDbEntity
  8
M0
 62
     6
100
AcDbLine
 10
34.624375
 20
227.742263
 11
32.856705
 21
225.974563
  0
LINE
  5
D2
100
AcDbEntity
  8
M0
 62
     6
100
AcDbLine
 10
35.684983
 20
226.681595
 11
33.917359
 21
224.914016
  0
ARC
  5
D3
100
AcDbEntity
  8
M0
 62
     6
100
AcDbCircle
 10
31.790009
 20
230.128112
 40
0.5
100
AcDbArc
 50
90.0
 51
162.865663
  0
ARC
  5
D4
100
AcDbEntity
  8
M0
 62
     6
100
AcDbCircle
 10
31.790009
 20
222.528152
 40
0.5
100
AcDbArc
 50
197.13731
 51
270.0
  0
ARC
  5
D5
100
AcDbEntity
  8
M0
 62
     6
100
AcDbCircle
 10
36.751877
 20
222.528152
 40
0.5
100
AcDbArc
 50
270.0
 51
342.861653
  0
ARC
  5
D6
100
AcDbEntity
  8
M0
 62
     6
100
AcDbCircle
 10
36.751877
 20
230.128112
 40
0.5
100
AcDbArc
 50
17.134787
 51
90.0
  0
CIRCLE
  5
D7
100
AcDbEntity
  8
M0
 62
     6
100
AcDbCircle
 10
44.270966
 20
226.328079
 40
3.0
  0
LINE
  5
D8
100
AcDbEntity
  8
M0
 62
     6
100
AcDbLine
 10
41.31221
 20
230.275421
 11
40.495957
 21
227.628128
  0
LINE
  5
D9
100
AcDbEntity
  8
M0
 62
     6
100
AcDbLine
 10
41.31221
 20
222.380829
 11
40.495957
 21
225.028152
  0
LINE
  5
DA
100
AcDbEntity
  8
M0
 62
     6
100
AcDbLine
 10
47.229691
 20
230.275436
 11
48.04596
 21
227.628128
  0
LINE
  5
DB
100
AcDbEntity
  8
M0
 62
     6
100
AcDbLine
 10
47.229691
 20
222.380813
 11
48.04596
 21
225.028152
  0
LINE
  5
DC
100
AcDbEntity
  8
M0
 62
     6
100
AcDbLine
 10
41.790009
 20
222.028152
 11
46.751877
 21
222.028152
  0
LINE
  5
DD
100
AcDbEntity
  8
M0
 62
     6
100
AcDbLine
 10
48.04596
 20
225.028152
 11
48.04596
 21
227.628128
  0
LINE
  5
DE
100
AcDbEntity
  8
M0
 62
     6
100
AcDbLine
 10
46.751877
 20
230.628128
 11
41.790009
 21
230.628112
  0
LINE
  5
DF
100
AcDbEntity
  8
M0
 62
     6
100
AcDbLine
 10
40.495957
 20
227.628128
 11
40.495957
 21
225.028152
  0
LINE
  5
E0
100
AcDbEntity
  8
M0
  6
DASHDOT
 62
     6
100
AcDbLine
 10
44.270966
 20
219.528167
 11
44.270966
 21
233.128128
  0
LINE
  5
E1
100
AcDbEntity
  8
M0
 62
     6
100
AcDbLine
 10
45.86174
 20
224.737259
 11
42.679932
 21
227.919021
  0
LINE
  5
E2
100
AcDbEntity
  8
M0
 62
     6
100
AcDbLine
 10
44.624375
 20
227.742263
 11
42.856705
 21
225.974563
  0
LINE
  5
E3
100
AcDbEntity
  8
M0
 62
     6
100
AcDbLine
 10
45.684983
 20
226.681595
 11
43.917359
 21
224.914016
  0
ARC
  5
E4
100
AcDbEntity
  8
M0
 62
     6
100
AcDbCircle
 10
41.790009
 20
230.128112
 40
0.5
100
AcDbArc
 50
90.0
 51
162.865663
  0
ARC
  5
E5
100
AcDbEntity
  8
M0
 62
     6
100
AcDbCircle
 10
41.790009
 20
222.528152
 40
0.5
100
AcDbArc
 50
197.13731
 51
270.0
  0
ARC
  5
E6
100
AcDbEntity
  8
M0
 62
     6
100
AcDbCircle
 10
46.751877
 20
222.528152
 40
0.5
100
AcDbArc
 50
270.0
 51
342.861653
  0
ARC
  5
E7
100
AcDbEntity
  8
M0
 62
     6
100
AcDbCircle
 10
46.751877
 20
230.128112
 40
0.5
100
AcDbArc
 50
17.134787
 51
90.0
  0
CIRCLE
  5
E8
100
AcDbEntity
  8
M0
 62
     6
100
AcDbCircle
 10
54.270966
 20
226.328079
 40
3.0
  0
LINE
  5
E9
100
AcDbEntity
  8
M0
 62
     6
100
AcDbLine
 10
51.31221
 20
230.275421
 11
50.495957
 21
227.628128
  0
LINE
  5
EA
100
AcDbEntity
  8
M0
 62
     6
100
AcDbLine
 10
51.31221
 20
222.380829
 11
50.495957
 21
225.028152
  0
LINE
  5
EB
100
AcDbEntity
  8
M0
 62
     6
100
AcDbLine
 10
57.229691
 20
230.275436
 11
58.04596
 21
227.628128
  0
LINE
  5
EC
100
AcDbEntity
  8
M0
 62
     6
100
AcDbLine
 10
57.229691
 20
222.380813
 11
58.04596
 21
225.028152
  0
LINE
  5
ED
100
AcDbEntity
  8
M0
 62
     6
100
AcDbLine
 10
51.790009
 20
222.028152
 11
56.751877
 21
222.028152
  0
LINE
  5
EE
100
AcDbEntity
  8
M0
 62
     6
100
AcDbLine
 10
58.04596
 20
225.028152
 11
58.04596
 21
227.628128
  0
LINE
  5
EF
100
AcDbEntity
  8
M0
 62
     6
100
AcDbLine
 10
56.751877
 20
230.628128
 11
51.790009
 21
230.628112
  0
LINE
  5
F0
100
AcDbEntity
  8
M0
 62
     6
100
AcDbLine
 10
50.495957
 20
227.628128
 11
50.495957
 21
225.028152
  0
LINE
  5
F1
100
AcDbEntity
  8
M0
 62
     6
100
AcDbLine
 10
55.86174
 20
224.737259
 11
52.679932
 21
227.919021
  0
LINE
  5
F2
100
AcDbEntity
  8
M0
 62
     6
100
AcDbLine
 10
54.624375
 20
227.742263
 11
52.856705
 21
225.974563
  0
LINE
  5
F3
100
AcDbEntity
  8
M0
 62
     6
100
AcDbLine
 10
55.684983
 20
226.681595
 11
53.917359
 21
224.914016
  0
ARC
  5
F4
100
AcDbEntity
  8
M0
 62
     6
100
AcDbCircle
 10
51.790009
 20
230.128112
 40
0.5
100
AcDbArc
 50
90.0
 51
162.865663
  0
ARC
  5
F5
100
AcDbEntity
  8
M0
 62
     6
100
AcDbCircle
 10
51.790009
 20
222.528152
 40
0.5
100
AcDbArc
 50
197.13731
 51
270.0
  0
ARC
  5
F6
100
AcDbEntity
  8
M0
 62
     6
100
AcDbCircle
 10
56.751877
 20
222.528152
 40
0.5
100
AcDbArc
 50
270.0
 51
342.861653
  0
ARC
  5
F7
100
AcDbEntity
  8
M0
 62
     6
100
AcDbCircle
 10
56.751877
 20
230.128112
 40
0.5
100
AcDbArc
 50
17.134787
 51
90.0
  0
LINE
  5
F8
100
AcDbEntity
  8
M0
 62
     6
100
AcDbLine
 10
55.866089
 20
218.1895
 11
54.727569
 21
219.328003
  0
LINE
  5
F9
100
AcDbEntity
  8
M0
 62
     6
100
AcDbLine
 10
54.883478
 20
219.328003
 11
54.04128
 21
218.485826
  0
CIRCLE
  5
FA
100
AcDbEntity
  8
M0
 62
     6
100
AcDbCircle
 10
64.270966
 20
226.328079
 40
3.0
  0
LINE
  5
FB
100
AcDbEntity
  8
M0
 62
     6
100
AcDbLine
 10
61.31221
 20
230.275421
 11
60.495957
 21
227.628128
  0
LINE
  5
FC
100
AcDbEntity
  8
M0
 62
     6
100
AcDbLine
 10
61.31221
 20
222.380829
 11
60.495957
 21
225.028152
  0
LINE
  5
FD
100
AcDbEntity
  8
M0
 62
     6
100
AcDbLine
 10
67.229691
 20
230.275436
 11
68.04596
 21
227.628128
  0
LINE
  5
FE
100
AcDbEntity
  8
M0
 62
     6
100
AcDbLine
 10
67.229691
 20
222.380813
 11
68.04596
 21
225.028152
  0
LINE
  5
FF
100
AcDbEntity
  8
M0
 62
     6
100
AcDbLine
 10
61.790009
 20
222.028152
 11
66.751877
 21
222.028152
  0
LINE
  5
100
100
AcDbEntity
  8
M0
 62
     6
100
AcDbLine
 10
68.04596
 20
225.028152
 11
68.04596
 21
227.628128
  0
LINE
  5
101
100
AcDbEntity
  8
M0
 62
     6
100
AcDbLine
 10
66.751877
 20
230.628128
 11
61.790009
 21
230.628112
  0
LINE
  5
102
100
AcDbEntity
  8
M0
 62
     6
100
AcDbLine
 10
60.495957
 20
227.628128
 11
60.495957
 21
225.028152
  0
LINE
  5
103
100
AcDbEntity
  8
M0
  6
DASHDOT
 62
     6
100
AcDbLine
 10
64.270966
 20
219.528167
 11
64.270966
 21
233.128128
  0
LINE
  5
104
100
AcDbEntity
  8
M0
 62
     6
100
AcDbLine
 10
65.86174
 20
224.737259
 11
62.679932
 21
227.919021
  0
LINE
  5
105
100
AcDbEntity
  8
M0
 62
     6
100
AcDbLine
 10
64.624375
 20
227.742263
 11
62.856705
 21
225.974563
  0
LINE
  5
106
100
AcDbEntity
  8
M0
 62
     6
100
AcDbLine
 10
65.684983
 20
226.681595
 11
63.917359
 21
224.914016
  0
ARC
  5
107
100
AcDbEntity
  8
M0
 62
     6
100
AcDbCircle
 10
61.790009
 20
230.128112
 40
0.5
100
AcDbArc
 50
90.0
 51
162.865663
  0
ARC
  5
108
100
AcDbEntity
  8
M0
 62
     6
100
AcDbCircle
 10
61.790009
 20
222.528152
 40
0.5
100
AcDbArc
 50
197.13731
 51
270.0
  0
ARC
  5
109
100
AcDbEntity
  8
M0
 62
     6
100
AcDbCircle
 10
66.751877
 20
222.528152
 40
0.5
100
AcDbArc
 50
270.0
 51
342.861653
  0
ARC
  5
10A
100
AcDbEntity
  8
M0
 62
     6
100
AcDbCircle
 10
66.751877
 20
230.128112
 40
0.5
100
AcDbArc
 50
17.134787
 51
90.0
  0
CIRCLE
  5
10B
100
AcDbEntity
  8
M0
 62
     6
100
AcDbCircle
 10
44.270966
 20
266.327911
 40
3.0
  0
LINE
  5
10C
100
AcDbEntity
  8
M0
 62
     6
100
AcDbLine
 10
41.31221
 20
270.275253
 11
40.495957
 21
267.62796
  0
LINE
  5
10D
100
AcDbEntity
  8
M0
 62
     6
100
AcDbLine
 10
41.31221
 20
262.380661
 11
40.495957
 21
265.027984
  0
LINE
  5
10E
100
AcDbEntity
  8
M0
 62
     6
100
AcDbLine
 10
47.229691
 20
270.275268
 11
48.04596
 21
267.62796
  0
LINE
  5
10F
100
AcDbEntity
  8
M0
 62
     6
100
AcDbLine
 10
47.229691
 20
262.380645
 11
48.04596
 21
265.027984
  0
LINE
  5
110
100
AcDbEntity
  8
M0
 62
     6
100
AcDbLine
 10
41.790009
 20
262.027984
 11
46.751877
 21
262.027984
  0
LINE
  5
111
100
AcDbEntity
  8
M0
 62
     6
100
AcDbLine
 10
48.04596
 20
265.027984
 11
48.04596
 21
267.62796
  0
LINE
  5
112
100
AcDbEntity
  8
M0
 62
     6
100
AcDbLine
 10
46.751877
 20
270.62796
 11
41.790009
 21
270.627945
  0
LINE
  5
113
100
AcDbEntity
  8
M0
 62
     6
100
AcDbLine
 10
40.495957
 20
267.62796
 11
40.495957
 21
265.027984
  0
LINE
  5
114
100
AcDbEntity
  8
M0
  6
DASHDOT
 62
     6
100
AcDbLine
 10
37.995957
 20
266.327911
 11
50.54596
 21
266.327911
  0
LINE
  5
115
100
AcDbEntity
  8
M0
  6
DASHDOT
 62
     6
100
AcDbLine
 10
44.270966
 20
259.528
 11
44.270966
 21
273.12796
  0
LINE
  5
116
100
AcDbEntity
  8
M0
 62
     6
100
AcDbLine
 10
45.86174
 20
264.737091
 11
42.679932
 21
267.918853
  0
LINE
  5
117
100
AcDbEntity
  8
M0
 62
     6
100
AcDbLine
 10
44.624375
 20
267.742096
 11
42.856705
 21
265.974395
  0
LINE
  5
118
100
AcDbEntity
  8
M0
 62
     6
100
AcDbLine
 10
45.684983
 20
266.681427
 11
43.917359
 21
264.913849
  0
ARC
  5
119
100
AcDbEntity
  8
M0
 62
     6
100
AcDbCircle
 10
41.790009
 20
270.127945
 40
0.5
100
AcDbArc
 50
90.0
 51
162.865663
  0
ARC
  5
11A
100
AcDbEntity
  8
M0
 62
     6
100
AcDbCircle
 10
41.790009
 20
262.527984
 40
0.5
100
AcDbArc
 50
197.13731
 51
270.0
  0
ARC
  5
11B
100
AcDbEntity
  8
M0
 62
     6
100
AcDbCircle
 10
46.751877
 20
262.527984
 40
0.5
100
AcDbArc
 50
270.0
 51
342.861653
  0
ARC
  5
11C
100
AcDbEntity
  8
M0
 62
     6
100
AcDbCircle
 10
46.751877
 20
270.127945
 40
0.5
100
AcDbArc
 50
17.134787
 51
90.0
  0
CIRCLE
  5
11D
100
AcDbEntity
  8
M0
 62
     6
100
AcDbCircle
 10
54.270966
 20
266.327911
 40
3.0
  0
LINE
  5
11E
100
AcDbEntity
  8
M0
 62
     6
100
AcDbLine
 10
51.31221
 20
270.275253
 11
50.495957
 21
267.62796
  0
LINE
  5
11F
100
AcDbEntity
  8
M0
 62
     6
100
AcDbLine
 10
51.31221
 20
262.380661
 11
50.495957
 21
265.027984
  0
LINE
  5
120
100
AcDbEntity
  8
M0
 62
     6
100
AcDbLine
 10
57.229691
 20
270.275268
 11
58.04596
 21
267.62796
  0
LINE
  5
121
100
AcDbEntity
  8
M0
 62
     6
100
AcDbLine
 10
57.229691
 20
262.380645
 11
58.04596
 21
265.027984
  0
LINE
  5
122
100
AcDbEntity
  8
M0
 62
     6
100
AcDbLine
 10
51.790009
 20
262.027984
 11
56.751877
 21
262.027984
  0
LINE
  5
123
100
AcDbEntity
  8
M0
 62
     6
100
AcDbLine
 10
58.04596
 20
265.027984
 11
58.04596
 21
267.62796
  0
LINE
  5
124
100
AcDbEntity
  8
M0
 62
     6
100
AcDbLine
 10
56.751877
 20
270.62796
 11
51.790009
 21
270.627945
  0
LINE
  5
125
100
AcDbEntity
  8
M0
 62
     6
100
AcDbLine
 10
50.495957
 20
267.62796
 11
50.495957
 21
265.027984
  0
LINE
  5
126
100
AcDbEntity
  8
M0
  6
DASHDOT
 62
     6
100
AcDbLine
 10
47.995957
 20
266.327911
 11
60.54596
 21
266.327911
  0
LINE
  5
127
100
AcDbEntity
  8
M0
 62
     6
100
AcDbLine
 10
55.86174
 20
264.737091
 11
52.679932
 21
267.918853
  0
LINE
  5
128
100
AcDbEntity
  8
M0
 62
     6
100
AcDbLine
 10
54.624375
 20
267.742096
 11
52.856705
 21
265.974395
  0
LINE
  5
129
100
AcDbEntity
  8
M0
 62
     6
100
AcDbLine
 10
55.684983
 20
266.681427
 11
53.917359
 21
264.913849
  0
ARC
  5
12A
100
AcDbEntity
  8
M0
 62
     6
100
AcDbCircle
 10
51.790009
 20
270.127945
 40
0.5
100
AcDbArc
 50
90.0
 51
162.865663
  0
ARC
  5
12B
100
AcDbEntity
  8
M0
 62
     6
100
AcDbCircle
 10
51.790009
 20
262.527984
 40
0.5
100
AcDbArc
 50
197.13731
 51
270.0
  0
ARC
  5
12C
100
AcDbEntity
  8
M0
 62
     6
100
AcDbCircle
 10
56.751877
 20
262.527984
 40
0.5
100
AcDbArc
 50
270.0
 51
342.861653
  0
ARC
  5
12D
100
AcDbEntity
  8
M0
 62
     6
100
AcDbCircle
 10
56.751877
 20
270.127945
 40
0.5
100
AcDbArc
 50
17.134787
 51
90.0
  0
CIRCLE
  5
12E
100
AcDbEntity
  8
M0
 62
     6
100
AcDbCircle
 10
64.270966
 20
266.327911
 40
3.0
  0
LINE
  5
12F
100
AcDbEntity
  8
M0
 62
     6
100
AcDbLine
 10
61.31221
 20
270.275253
 11
60.495957
 21
267.62796
  0
LINE
  5
130
100
AcDbEntity
  8
M0
 62
     6
100
AcDbLine
 10
61.31221
 20
262.380661
 11
60.495957
 21
265.027984
  0
LINE
  5
131
100
AcDbEntity
  8
M0
 62
     6
100
AcDbLine
 10
67.229691
 20
270.275268
 11
68.04596
 21
267.62796
  0
LINE
  5
132
100
AcDbEntity
  8
M0
 62
     6
100
AcDbLine
 10
67.229691
 20
262.380645
 11
68.04596
 21
265.027984
  0
LINE
  5
133
100
AcDbEntity
  8
M0
 62
     6
100
AcDbLine
 10
61.790009
 20
262.027984
 11
66.751877
 21
262.027984
  0
LINE
  5
134
100
AcDbEntity
  8
M0
 62
     6
100
AcDbLine
 10
68.04596
 20
265.027984
 11
68.04596
 21
267.62796
  0
LINE
  5
135
100
AcDbEntity
  8
M0
 62
     6
100
AcDbLine
 10
66.751877
 20
270.62796
 11
61.790009
 21
270.627945
  0
LINE
  5
136
100
AcDbEntity
  8
M0
 62
     6
100
AcDbLine
 10
60.495957
 20
267.62796
 11
60.495957
 21
265.027984
  0
LINE
  5
137
100
AcDbEntity
  8
M0
  6
DASHDOT
 62
     6
100
AcDbLine
 10
57.995957
 20
266.327911
 11
70.54596
 21
266.327911
  0
LINE
  5
138
100
AcDbEntity
  8
M0
  6
DASHDOT
 62
     6
100
AcDbLine
 10
64.270966
 20
259.528
 11
64.270966
 21
273.12796
  0
LINE
  5
139
100
AcDbEntity
  8
M0
 62
     6
100
AcDbLine
 10
65.86174
 20
264.737091
 11
62.679932
 21
267.918853
  0
LINE
  5
13A
100
AcDbEntity
  8
M0
 62
     6
100
AcDbLine
 10
64.624375
 20
267.742096
 11
62.856705
 21
265.974395
  0
LINE
  5
13B
100
AcDbEntity
  8
M0
 62
     6
100
AcDbLine
 10
65.684983
 20
266.681427
 11
63.917359
 21
264.913849
  0
ARC
  5
13C
100
AcDbEntity
  8
M0
 62
     6
100
AcDbCircle
 10
61.790009
 20
270.127945
 40
0.5
100
AcDbArc
 50
90.0
 51
162.865663
  0
ARC
  5
13D
100
AcDbEntity
  8
M0
 62
     6
100
AcDbCircle
 10
61.790009
 20
262.527984
 40
0.5
100
AcDbArc
 50
197.13731
 51
270.0
  0
ARC
  5
13E
100
AcDbEntity
  8
M0
 62
     6
100
AcDbCircle
 10
66.751877
 20
262.527984
 40
0.5
100
AcDbArc
 50
270.0
 51
342.861653
  0
ARC
  5
13F
100
AcDbEntity
  8
M0
 62
     6
100
AcDbCircle
 10
66.751877
 20
270.127945
 40
0.5
100
AcDbArc
 50
17.134787
 51
90.0
  0
CIRCLE
  5
140
100
AcDbEntity
  8
M0
 62
     6
100
AcDbCircle
 10
74.270966
 20
274.327667
 40
3.0
  0
LINE
  5
141
100
AcDbEntity
  8
M0
 62
     6
100
AcDbLine
 10
71.31221
 20
278.275009
 11
70.495957
 21
275.627716
  0
LINE
  5
142
100
AcDbEntity
  8
M0
 62
     6
100
AcDbLine
 10
71.174332
 20
270.827575
 11
70.495957
 21
273.02774
  0
LINE
  5
143
100
AcDbEntity
  8
M0
 62
     6
100
AcDbLine
 10
77.229691
 20
278.275024
 11
78.04596
 21
275.627716
  0
LINE
  5
144
100
AcDbEntity
  8
M0
 62
     6
100
AcDbLine
 10
77.367569
 20
270.827575
 11
78.04596
 21
273.02774
  0
LINE
  5
145
100
AcDbEntity
  8
M0
 62
     6
100
AcDbLine
 10
78.04596
 20
273.02774
 11
78.04596
 21
275.627716
  0
LINE
  5
146
100
AcDbEntity
  8
M0
 62
     6
100
AcDbLine
 10
76.751877
 20
278.627716
 11
71.790009
 21
278.6277
  0
LINE
  5
147
100
AcDbEntity
  8
M0
 62
     6
100
AcDbLine
 10
70.495957
 20
275.627716
 11
70.495957
 21
273.02774
  0
LINE
  5
148
100
AcDbEntity
  8
M0
  6
DASHDOT
 62
     6
100
AcDbLine
 10
67.995957
 20
274.327667
 11
80.54596
 21
274.327667
  0
LINE
  5
149
100
AcDbEntity
  8
M0
  6
DASHDOT
 62
     6
100
AcDbLine
 10
74.270966
 20
267.527755
 11
74.270966
 21
281.127716
  0
LINE
  5
14A
100
AcDbEntity
  8
M0
 62
     6
100
AcDbLine
 10
75.86174
 20
272.736847
 11
72.679932
 21
275.918609
  0
LINE
  5
14B
100
AcDbEntity
  8
M0
 62
     6
100
AcDbLine
 10
74.624375
 20
275.741851
 11
72.856705
 21
273.974151
  0
LINE
  5
14C
100
AcDbEntity
  8
M0
 62
     6
100
AcDbLine
 10
75.684983
 20
274.681183
 11
73.917359
 21
272.913604
  0
ARC
  5
14D
100
AcDbEntity
  8
M0
 62
     6
100
AcDbCircle
 10
71.790009
 20
278.1277
 40
0.5
100
AcDbArc
 50
90.0
 51
162.865663
  0
ARC
  5
14E
100
AcDbEntity
  8
M0
 62
     6
100
AcDbCircle
 10
76.751877
 20
278.1277
 40
0.5
100
AcDbArc
 50
17.134787
 51
90.0
  0
CIRCLE
  5
14F
100
AcDbEntity
  8
M0
 62
     6
100
AcDbCircle
 10
74.270966
 20
266.327911
 40
3.0
  0
LINE
  5
150
100
AcDbEntity
  8
M0
 62
     6
100
AcDbLine
 10
71.31221
 20
270.275253
 11
70.495957
 21
267.62796
  0
LINE
  5
151
100
AcDbEntity
  8
M0
 62
     6
100
AcDbLine
 10
71.31221
 20
262.380661
 11
70.495957
 21
265.027984
  0
LINE
  5
152
100
AcDbEntity
  8
M0
 62
     6
100
AcDbLine
 10
77.229691
 20
270.275268
 11
78.04596
 21
267.62796
  0
LINE
  5
153
100
AcDbEntity
  8
M0
 62
     6
100
AcDbLine
 10
77.229691
 20
262.380645
 11
78.04596
 21
265.027984
  0
LINE
  5
154
100
AcDbEntity
  8
M0
 62
     6
100
AcDbLine
 10
71.790009
 20
262.027984
 11
76.751877
 21
262.027984
  0
LINE
  5
155
100
AcDbEntity
  8
M0
 62
     6
100
AcDbLine
 10
78.04596
 20
265.027984
 11
78.04596
 21
267.62796
  0
LINE
  5
156
100
AcDbEntity
  8
M0
 62
     6
100
AcDbLine
 10
76.751877
 20
270.62796
 11
71.790009
 21
270.627945
  0
LINE
  5
157
100
AcDbEntity
  8
M0
 62
     6
100
AcDbLine
 10
70.495957
 20
267.62796
 11
70.495957
 21
265.027984
  0
LINE
  5
158
100
AcDbEntity
  8
M0
  6
DASHDOT
 62
     6
100
AcDbLine
 10
67.995957
 20
266.327911
 11
80.54596
 21
266.327911
  0
LINE
  5
159
100
AcDbEntity
  8
M0
  6
DASHDOT
 62
     6
100
AcDbLine
 10
74.270966
 20
259.528
 11
74.270966
 21
273.12796
  0
LINE
  5
15A
100
AcDbEntity
  8
M0
 62
     6
100
AcDbLine
 10
75.86174
 20
264.737091
 11
72.679932
 21
267.918853
  0
LINE
  5
15B
100
AcDbEntity
  8
M0
 62
     6
100
AcDbLine
 10
74.624375
 20
267.742096
 11
72.856705
 21
265.974395
  0
LINE
  5
15C
100
AcDbEntity
  8
M0
 62
     6
100
AcDbLine
 10
75.684983
 20
266.681427
 11
73.917359
 21
264.913849
  0
ARC
  5
15D
100
AcDbEntity
  8
M0
 62
     6
100
AcDbCircle
 10
71.790009
 20
270.127945
 40
0.5
100
AcDbArc
 50
90.0
 51
162.865663
  0
ARC
  5
15E
100
AcDbEntity
  8
M0
 62
     6
100
AcDbCircle
 10
71.790009
 20
262.527984
 40
0.5
100
AcDbArc
 50
197.13731
 51
270.0
  0
ARC
  5
15F
100
AcDbEntity
  8
M0
 62
     6
100
AcDbCircle
 10
76.751877
 20
262.527984
 40
0.5
100
AcDbArc
 50
270.0
 51
342.861653
  0
ARC
  5
160
100
AcDbEntity
  8
M0
 62
     6
100
AcDbCircle
 10
76.751877
 20
270.127945
 40
0.5
100
AcDbArc
 50
17.134787
 51
90.0
  0
LINE
  5
161
100
AcDbEntity
  8
M0
 62
     1
100
AcDbLine
 10
53.043733
 20
214.828079
 11
58.67096
 21
214.828079
  0
ARC
  5
162
100
AcDbEntity
  8
M0
 62
     1
100
AcDbCircle
 10
58.67096
 20
215.828079
 40
1.0
100
AcDbArc
 50
270.0
 51
329.995752
  0
LINE
  5
163
100
AcDbEntity
  8
M0
 62
     1
100
AcDbLine
 10
53.670989
 20
217.128067
 11
54.270981
 21
217.128067
  0
LINE
  5
164
100
AcDbEntity
  8
M0
 62
     1
100
AcDbLine
 10
57.520966
 20
217.328048
 11
57.520966
 21
219.327987
  0
ARC
  5
165
100
AcDbEntity
  8
M0
 62
     1
100
AcDbCircle
 10
57.320954
 20
217.328064
 40
0.2
100
AcDbArc
 50
270.0
 51
360.0
  0
LINE
  5
166
100
AcDbEntity
  8
M0
 62
     1
100
AcDbLine
 10
54.270981
 20
217.128067
 11
57.320954
 21
217.128067
  0
LINE
  5
167
100
AcDbEntity
  8
M0
 62
     2
100
AcDbLine
 10
114.329911
 20
248.328063
 11
114.329926
 21
244.328064
  0
LINE
  5
168
100
AcDbEntity
  8
M0
 62
     2
100
AcDbLine
 10
118.32991
 20
248.828047
 11
114.829911
 21
248.828063
  0
LINE
  5
169
100
AcDbEntity
  8
M0
 62
     2
100
AcDbLine
 10
118.32991
 20
243.828079
 11
114.829927
 21
243.828079
  0
ARC
  5
16A
100
AcDbEntity
  8
M0
 62
     2
100
AcDbCircle
 10
114.829911
 20
248.328063
 40
0.5
100
AcDbArc
 50
90.0
 51
179.999982
  0
ARC
  5
16B
100
AcDbEntity
  8
M0
 62
     2
100
AcDbCircle
 10
114.829926
 20
244.328064
 40
0.5
100
AcDbArc
 50
179.999968
 51
270.0
  0
LINE
  5
16C
100
AcDbEntity
  8
M0
100
AcDbLine
 10
108.32988
 20
226.328079
 11
108.32988
 21
266.328079
  0
LINE
  5
16D
100
AcDbEntity
  8
M0
100
AcDbLine
 10
105.329895
 20
227.570694
 11
108.329895
 21
230.570709
  0
LINE
  5
16E
100
AcDbEntity
  8
M0
100
AcDbLine
 10
105.32988
 20
231.813324
 11
108.32988
 21
234.813339
  0
LINE
  5
16F
100
AcDbEntity
  8
M0
100
AcDbLine
 10
105.32988
 20
236.055969
 11
108.32988
 21
239.055969
  0
LINE
  5
170
100
AcDbEntity
  8
M0
100
AcDbLine
 10
105.32988
 20
240.298614
 11
108.32988
 21
243.298614
  0
LINE
  5
171
100
AcDbEntity
  8
M0
100
AcDbLine
 10
105.32988
 20
244.541259
 11
108.32988
 21
247.541259
  0
LINE
  5
172
100
AcDbEntity
  8
M0
100
AcDbLine
 10
105.32988
 20
248.783905
 11
108.32988
 21
251.783905
  0
LINE
  5
173
100
AcDbEntity
  8
M0
100
AcDbLine
 10
105.329865
 20
253.026535
 11
108.329865
 21
256.026535
  0
LINE
  5
174
100
AcDbEntity
  8
M0
100
AcDbLine
 10
105.32988
 20
257.26918
 11
108.32988
 21
260.26918
  0
LINE
  5
175
100
AcDbEntity
  8
M0
100
AcDbLine
 10
105.32988
 20
261.511825
 11
108.32988
 21
264.511825
  0
LINE
  5
176
100
AcDbEntity
  8
M0
100
AcDbLine
 10
160.529877
 20
276.327652
 11
160.529892
 21
278.82753
  0
LINE
  5
177
100
AcDbEntity
  8
M0
100
AcDbLine
 10
161.729874
 20
276.327911
 11
161.729889
 21
278.827423
  0
LINE
  5
178
100
AcDbEntity
  8
M0
 62
     6
100
AcDbLine
 10
157.479889
 20
277.327636
 11
157.356293
 21
277.327636
  0
LINE
  5
179
100
AcDbEntity
  8
M0
 62
     6
100
AcDbLine
 10
157.624237
 20
276.827682
 11
158.129898
 21
276.827682
  0
LINE
  5
17A
100
AcDbEntity
  8
M0
 62
     6
100
AcDbLine
 10
158.129898
 20
278.62767
 11
159.729889
 21
278.62767
  0
LINE
  5
17B
100
AcDbEntity
  8
M0
 62
     6
100
AcDbLine
 10
159.729889
 20
277.62767
 11
160.529892
 21
277.427673
  0
LINE
  5
17C
100
AcDbEntity
  8
M0
 62
     6
100
AcDbLine
 10
159.729889
 20
277.627655
 11
159.729889
 21
278.62767
  0
LINE
  5
17D
100
AcDbEntity
  8
M0
 62
     6
100
AcDbLine
 10
158.129883
 20
277.427673
 11
158.729874
 21
277.427673
  0
ARC
  5
17E
100
AcDbEntity
  8
M0
 62
     6
100
AcDbCircle
 10
155.779907
 20
276.327667
 40
1.0
100
AcDbArc
 50
90.0
 51
180.0
  0
ARC
  5
17F
100
AcDbEntity
  8
M0
 62
     6
100
AcDbCircle
 10
168.380707
 20
275.827636
 40
11.300797
100
AcDbArc
 50
173.274797
 51
177.463452
  0
LINE
  5
180
100
AcDbEntity
  8
M0
 62
     6
100
AcDbLine
 10
157.07991
 20
277.327636
 11
155.779907
 21
277.327682
  0
ARC
  5
181
100
AcDbEntity
  8
M0
 62
     6
100
AcDbCircle
 10
168.880585
 20
275.827636
 40
11.300682
100
AcDbArc
 50
173.948749
 51
177.463398
  0
LINE
  5
182
100
AcDbEntity
  8
M0
 62
     6
100
AcDbLine
 10
157.679901
 20
277.127609
 11
157.679901
 21
276.827682
  0
ARC
  5
183
100
AcDbEntity
  8
M0
 62
     6
100
AcDbCircle
 10
157.479889
 20
277.127609
 40
0.2
100
AcDbArc
 50
0.0
 51
90.0
  0
ARC
  5
184
100
AcDbEntity
  8
M0
 62
     6
100
AcDbCircle
 10
157.356293
 20
277.127624
 40
0.2
100
AcDbArc
 50
90.0
 51
173.28397
  0
LINE
  5
185
100
AcDbEntity
  8
M0
 62
     6
100
AcDbLine
 10
160.529877
 20
276.327743
 11
160.529892
 21
277.427658
  0
LINE
  5
186
100
AcDbEntity
  8
M0
 62
     6
100
AcDbLine
 10
157.079895
 20
276.327743
 11
157.07991
 21
277.327682
  0
LINE
  5
187
100
AcDbEntity
  8
M0
 62
     6
100
AcDbLine
 10
158.129883
 20
276.327743
 11
158.129898
 21
278.62767
  0
LINE
  5
188
100
AcDbEntity
  8
M0
 62
     6
100
AcDbLine
 10
158.729859
 20
276.327743
 11
158.729874
 21
277.427673
  0
LINE
  5
189
100
AcDbEntity
  8
M0
 62
     4
100
AcDbLine
 10
80.770981
 20
217.828018
 11
80.770981
 21
278.328003
  0
LINE
  5
18A
100
AcDbEntity
  8
M0
 62
     4
100
AcDbLine
 10
80.270981
 20
276.328003
 11
78.720932
 21
276.328003
  0
LINE
  5
18B
100
AcDbEntity
  8
M0
 62
     4
100
AcDbLine
 10
27.770981
 20
274.827957
 11
27.770981
 21
214.327987
  0
LINE
  5
18C
100
AcDbEntity
  8
M0
  6
DASHDOT
 62
     4
100
AcDbLine
 10
22.770981
 20
246.328003
 11
85.770981
 21
246.328003
  0
LINE
  5
18D
100
AcDbEntity
  8
M0
  6
DASHDOT
 62
     4
100
AcDbLine
 10
54.270981
 20
208.828003
 11
54.270981
 21
283.828003
  0
LINE
  5
18E
100
AcDbEntity
  8
M0
 62
     4
100
AcDbLine
 10
50.320786
 20
262.328003
 11
50.320786
 21
276.827957
  0
LINE
  5
18F
100
AcDbEntity
  8
M0
 62
     4
100
AcDbLine
 10
58.220932
 20
262.328003
 11
58.220932
 21
276.827987
  0
LINE
  5
190
100
AcDbEntity
  8
M0
 62
     4
100
AcDbLine
 10
49.820786
 20
277.327987
 11
48.720932
 21
277.327987
  0
LINE
  5
191
100
AcDbEntity
  8
M0
 62
     4
100
AcDbLine
 10
51.320786
 20
261.328003
 11
57.220932
 21
261.328003
  0
ARC
  5
192
100
AcDbEntity
  8
M0
 62
     4
100
AcDbCircle
 10
51.320786
 20
262.328003
 40
1.0
100
AcDbArc
 50
180.0
 51
270.0
  0
ARC
  5
193
100
AcDbEntity
  8
M0
 62
     4
100
AcDbCircle
 10
57.220932
 20
262.328003
 40
1.0
100
AcDbArc
 50
269.915907
 51
360.0
  0
ARC
  5
194
100
AcDbEntity
  8
M0
 62
     4
100
AcDbCircle
 10
58.720932
 20
276.827987
 40
0.5
100
AcDbArc
 50
90.0
 51
180.0
  0
ARC
  5
195
100
AcDbEntity
  8
M0
 62
     4
100
AcDbCircle
 10
49.820786
 20
276.827972
 40
0.5
100
AcDbArc
 50
0.0
 51
90.0
  0
LINE
  5
196
100
AcDbEntity
  8
M0
 62
     4
100
AcDbLine
 10
29.820786
 20
275.327972
 11
28.270981
 21
275.327972
  0
LINE
  5
197
100
AcDbEntity
  8
M0
 62
     4
100
AcDbLine
 10
39.820786
 20
277.327972
 11
38.720932
 21
277.327972
  0
LINE
  5
198
100
AcDbEntity
  8
M0
 62
     4
100
AcDbLine
 10
59.820786
 20
277.327987
 11
58.720932
 21
277.327987
  0
LINE
  5
199
100
AcDbEntity
  8
M0
 62
     4
100
AcDbLine
 10
69.820786
 20
277.327987
 11
68.720932
 21
277.327987
  0
ARC
  5
19A
100
AcDbEntity
  8
M0
 62
     4
100
AcDbCircle
 10
80.270981
 20
275.827987
 40
0.5
100
AcDbArc
 50
0.0
 51
90.0
  0
ARC
  5
19B
100
AcDbEntity
  8
M0
 62
     4
100
AcDbCircle
 10
78.720932
 20
275.827987
 40
0.5
100
AcDbArc
 50
90.0
 51
180.0
  0
ARC
  5
19C
100
AcDbEntity
  8
M0
 62
     4
100
AcDbCircle
 10
68.720932
 20
276.827987
 40
0.5
100
AcDbArc
 50
90.0
 51
180.0
  0
ARC
  5
19D
100
AcDbEntity
  8
M0
 62
     4
100
AcDbCircle
 10
48.720932
 20
276.827972
 40
0.5
100
AcDbArc
 50
90.0
 51
180.0
  0
ARC
  5
19E
100
AcDbEntity
  8
M0
 62
     4
100
AcDbCircle
 10
38.720932
 20
276.827957
 40
0.5
100
AcDbArc
 50
90.0
 51
180.0
  0
ARC
  5
19F
100
AcDbEntity
  8
M0
 62
     4
100
AcDbCircle
 10
28.270981
 20
274.827957
 40
0.5
100
AcDbArc
 50
89.998251
 51
180.0
  0
LINE
  5
1A0
100
AcDbEntity
  8
M0
 62
     4
100
AcDbLine
 10
70.320786
 20
270.828003
 11
78.220932
 21
270.828003
  0
LINE
  5
1A1
100
AcDbEntity
  8
M0
 62
     4
100
AcDbLine
 10
60.320786
 20
270.828003
 11
68.220932
 21
270.828003
  0
LINE
  5
1A2
100
AcDbEntity
  8
M0
 62
     4
100
AcDbLine
 10
50.320786
 20
270.828003
 11
58.220932
 21
270.828003
  0
LINE
  5
1A3
100
AcDbEntity
  8
M0
 62
     4
100
AcDbLine
 10
40.320786
 20
270.828003
 11
48.220932
 21
270.828003
  0
LINE
  5
1A4
100
AcDbEntity
  8
M0
 62
     4
100
AcDbLine
 10
38.220932
 20
270.828003
 11
30.320786
 21
270.828003
  0
LINE
  5
1A5
100
AcDbEntity
  8
M0
 62
     4
100
AcDbLine
 10
40.320787
 20
273.328003
 11
48.220933
 21
273.328003
  0
LINE
  5
1A6
100
AcDbEntity
  8
M0
 62
     4
100
AcDbLine
 10
50.320787
 20
273.328003
 11
58.220932
 21
273.328003
  0
LINE
  5
1A7
100
AcDbEntity
  8
M0
 62
     4
100
AcDbLine
 10
60.320786
 20
273.328003
 11
68.220932
 21
273.328003
  0
LINE
  5
1A8
100
AcDbEntity
  8
M0
 62
     4
100
AcDbLine
 10
68.720932
 20
278.828003
 11
80.270981
 21
278.828003
  0
ARC
  5
1A9
100
AcDbEntity
  8
M0
 62
     4
100
AcDbCircle
 10
68.720932
 20
278.328003
 40
0.5
100
AcDbArc
 50
90.0
 51
180.0
  0
ARC
  5
1AA
100
AcDbEntity
  8
M0
 62
     4
100
AcDbCircle
 10
80.270981
 20
278.328003
 40
0.5
100
AcDbArc
 50
0.0
 51
90.0
  0
ARC
  5
1AB
100
AcDbEntity
  8
M0
 62
     4
100
AcDbCircle
 10
78.720932
 20
278.328003
 40
0.5
100
AcDbArc
 50
90.0
 51
180.0
  0
LINE
  5
1AC
100
AcDbEntity
  8
M0
 62
     4
100
AcDbLine
 10
65.378739
 20
273.327911
 11
68.283432
 21
278.570099
  0
ARC
  5
1AD
100
AcDbEntity
  8
M0
 62
     4
100
AcDbCircle
 10
28.270981
 20
214.327987
 40
0.5
100
AcDbArc
 50
179.998251
 51
270.0
  0
LINE
  5
1AE
100
AcDbEntity
  8
M0
 62
     4
100
AcDbLine
 10
60.320786
 20
262.328003
 11
60.320786
 21
276.827957
  0
ARC
  5
1AF
100
AcDbEntity
  8
M0
 62
     4
100
AcDbCircle
 10
61.320786
 20
262.328003
 40
1.0
100
AcDbArc
 50
180.0
 51
269.929895
  0
LINE
  5
1B0
100
AcDbEntity
  8
M0
 62
     4
100
AcDbLine
 10
61.320786
 20
261.328003
 11
67.220932
 21
261.328003
  0
ARC
  5
1B1
100
AcDbEntity
  8
M0
 62
     4
100
AcDbCircle
 10
67.220932
 20
262.328003
 40
1.0
100
AcDbArc
 50
269.915907
 51
360.0
  0
LINE
  5
1B2
100
AcDbEntity
  8
M0
 62
     4
100
AcDbLine
 10
68.220932
 20
262.328003
 11
68.220932
 21
278.328003
  0
ARC
  5
1B3
100
AcDbEntity
  8
M0
 62
     4
100
AcDbCircle
 10
59.820786
 20
276.827972
 40
0.5
100
AcDbArc
 50
0.0
 51
90.0
  0
LINE
  5
1B4
100
AcDbEntity
  8
M0
 62
     4
100
AcDbLine
 10
40.320786
 20
262.328003
 11
40.320786
 21
276.827942
  0
ARC
  5
1B5
100
AcDbEntity
  8
M0
 62
     4
100
AcDbCircle
 10
41.320786
 20
262.328003
 40
1.0
100
AcDbArc
 50
180.0
 51
269.930059
  0
LINE
  5
1B6
100
AcDbEntity
  8
M0
 62
     4
100
AcDbLine
 10
41.320786
 20
261.328003
 11
47.220932
 21
261.328003
  0
ARC
  5
1B7
100
AcDbEntity
  8
M0
 62
     4
100
AcDbCircle
 10
47.220932
 20
262.328003
 40
1.0
100
AcDbArc
 50
269.888094
 51
360.0
  0
LINE
  5
1B8
100
AcDbEntity
  8
M0
 62
     4
100
AcDbLine
 10
48.220932
 20
262.328003
 11
48.220932
 21
276.827972
  0
ARC
  5
1B9
100
AcDbEntity
  8
M0
 62
     4
100
AcDbCircle
 10
39.820786
 20
276.827957
 40
0.5
100
AcDbArc
 50
0.0
 51
90.0
  0
LINE
  5
1BA
100
AcDbEntity
  8
M0
 62
     4
100
AcDbLine
 10
70.320786
 20
262.328003
 11
70.320786
 21
278.328003
  0
ARC
  5
1BB
100
AcDbEntity
  8
M0
 62
     4
100
AcDbCircle
 10
71.320786
 20
262.328003
 40
1.0
100
AcDbArc
 50
180.0
 51
269.927436
  0
LINE
  5
1BC
100
AcDbEntity
  8
M0
 62
     4
100
AcDbLine
 10
71.320786
 20
261.328003
 11
77.220932
 21
261.328003
  0
ARC
  5
1BD
100
AcDbEntity
  8
M0
 62
     4
100
AcDbCircle
 10
77.220932
 20
262.328003
 40
1.0
100
AcDbArc
 50
269.913448
 51
360.0
  0
LINE
  5
1BE
100
AcDbEntity
  8
M0
 62
     4
100
AcDbLine
 10
78.220932
 20
262.328003
 11
78.220932
 21
278.328003
  0
ARC
  5
1BF
100
AcDbEntity
  8
M0
 62
     4
100
AcDbCircle
 10
69.820786
 20
276.827972
 40
0.5
100
AcDbArc
 50
0.0
 51
90.0
  0
ARC
  5
1C0
100
AcDbEntity
  8
M0
 62
     4
100
AcDbCircle
 10
69.820786
 20
278.328003
 40
0.5
100
AcDbArc
 50
0.0
 51
90.0
  0
ARC
  5
1C1
100
AcDbEntity
  8
M0
 62
     4
100
AcDbCircle
 10
31.320786
 20
262.328003
 40
1.0
100
AcDbArc
 50
180.0
 51
269.969401
  0
LINE
  5
1C2
100
AcDbEntity
  8
M0
 62
     4
100
AcDbLine
 10
30.320786
 20
262.328003
 11
30.320786
 21
274.827942
  0
LINE
  5
1C3
100
AcDbEntity
  8
M0
 62
     4
100
AcDbLine
 10
31.320786
 20
261.328003
 11
37.220932
 21
261.328003
  0
ARC
  5
1C4
100
AcDbEntity
  8
M0
 62
     4
100
AcDbCircle
 10
37.220932
 20
262.328003
 40
1.0
100
AcDbArc
 50
269.927436
 51
360.0
  0
LINE
  5
1C5
100
AcDbEntity
  8
M0
 62
     4
100
AcDbLine
 10
38.220932
 20
262.328003
 11
38.220932
 21
276.827957
  0
ARC
  5
1C6
100
AcDbEntity
  8
M0
 62
     4
100
AcDbCircle
 10
29.820786
 20
274.827957
 40
0.5
100
AcDbArc
 50
0.0
 51
89.998251
  0
LINE
  5
1C7
100
AcDbEntity
  8
M0
 62
     4
100
AcDbLine
 10
28.270981
 20
216.328003
 11
29.82103
 21
216.328003
  0
LINE
  5
1C8
100
AcDbEntity
  8
M0
 62
     4
100
AcDbLine
 10
58.221176
 20
230.328003
 11
58.221176
 21
215.828048
  0
LINE
  5
1C9
100
AcDbEntity
  8
M0
 62
     4
100
AcDbLine
 10
50.32103
 20
230.328003
 11
50.32103
 21
215.828018
  0
LINE
  5
1CA
100
AcDbEntity
  8
M0
 62
     4
100
AcDbLine
 10
58.721176
 20
215.328018
 11
59.82103
 21
215.328018
  0
LINE
  5
1CB
100
AcDbEntity
  8
M0
 62
     4
100
AcDbLine
 10
57.221176
 20
231.328003
 11
51.32103
 21
231.328003
  0
ARC
  5
1CC
100
AcDbEntity
  8
M0
 62
     4
100
AcDbCircle
 10
57.221176
 20
230.328003
 40
1.0
100
AcDbArc
 50
0.0
 51
90.0
  0
ARC
  5
1CD
100
AcDbEntity
  8
M0
 62
     4
100
AcDbCircle
 10
51.32103
 20
230.328003
 40
1.0
100
AcDbArc
 50
89.915907
 51
179.999945
  0
ARC
  5
1CE
100
AcDbEntity
  8
M0
 62
     4
100
AcDbCircle
 10
49.82103
 20
215.828018
 40
0.5
100
AcDbArc
 50
270.028196
 51
360.0
  0
ARC
  5
1CF
100
AcDbEntity
  8
M0
 62
     4
100
AcDbCircle
 10
58.721176
 20
215.828033
 40
0.5
100
AcDbArc
 50
179.998251
 51
270.027868
  0
LINE
  5
1D0
100
AcDbEntity
  8
M0
 62
     4
100
AcDbLine
 10
78.721176
 20
217.328033
 11
80.270981
 21
217.328033
  0
LINE
  5
1D1
100
AcDbEntity
  8
M0
 62
     4
100
AcDbLine
 10
68.721176
 20
215.328033
 11
69.82103
 21
215.328033
  0
LINE
  5
1D2
100
AcDbEntity
  8
M0
 62
     4
100
AcDbLine
 10
48.721176
 20
215.328018
 11
49.82103
 21
215.328018
  0
LINE
  5
1D3
100
AcDbEntity
  8
M0
 62
     4
100
AcDbLine
 10
38.721176
 20
215.328018
 11
39.82103
 21
215.328018
  0
ARC
  5
1D4
100
AcDbEntity
  8
M0
 62
     4
100
AcDbCircle
 10
29.82103
 20
216.828018
 40
0.5
100
AcDbArc
 50
270.031474
 51
360.0
  0
ARC
  5
1D5
100
AcDbEntity
  8
M0
 62
     4
100
AcDbCircle
 10
39.82103
 20
215.828018
 40
0.5
100
AcDbArc
 50
270.028196
 51
360.0
  0
ARC
  5
1D6
100
AcDbEntity
  8
M0
 62
     4
100
AcDbCircle
 10
59.82103
 20
215.828033
 40
0.5
100
AcDbArc
 50
270.027868
 51
360.0
  0
ARC
  5
1D7
100
AcDbEntity
  8
M0
 62
     4
100
AcDbCircle
 10
69.82103
 20
215.828048
 40
0.5
100
AcDbArc
 50
270.027868
 51
360.0
  0
LINE
  5
1D8
100
AcDbEntity
  8
M0
 62
     4
100
AcDbLine
 10
38.221176
 20
221.828003
 11
30.32103
 21
221.828003
  0
LINE
  5
1D9
100
AcDbEntity
  8
M0
 62
     4
100
AcDbLine
 10
48.221176
 20
221.828003
 11
40.32103
 21
221.828003
  0
LINE
  5
1DA
100
AcDbEntity
  8
M0
 62
     4
100
AcDbLine
 10
58.221176
 20
221.828003
 11
50.32103
 21
221.828003
  0
LINE
  5
1DB
100
AcDbEntity
  8
M0
 62
     4
100
AcDbLine
 10
68.221176
 20
221.828003
 11
60.32103
 21
221.828003
  0
LINE
  5
1DC
100
AcDbEntity
  8
M0
 62
     4
100
AcDbLine
 10
70.32103
 20
221.828003
 11
78.221176
 21
221.828003
  0
LINE
  5
1DD
100
AcDbEntity
  8
M0
 62
     4
100
AcDbLine
 10
68.221176
 20
219.328003
 11
60.32103
 21
219.328003
  0
LINE
  5
1DE
100
AcDbEntity
  8
M0
 62
     4
100
AcDbLine
 10
58.221176
 20
219.328003
 11
50.321031
 21
219.328003
  0
LINE
  5
1DF
100
AcDbEntity
  8
M0
 62
     4
100
AcDbLine
 10
48.221177
 20
219.328003
 11
40.321031
 21
219.328003
  0
LINE
  5
1E0
100
AcDbEntity
  8
M0
 62
     4
100
AcDbLine
 10
39.82103
 20
213.828003
 11
28.270981
 21
213.827987
  0
ARC
  5
1E1
100
AcDbEntity
  8
M0
 62
     4
100
AcDbCircle
 10
39.82103
 20
214.328003
 40
0.5
100
AcDbArc
 50
270.028196
 51
360.0
  0
ARC
  5
1E2
100
AcDbEntity
  8
M0
 62
     4
100
AcDbCircle
 10
29.82103
 20
214.328003
 40
0.5
100
AcDbArc
 50
270.031474
 51
360.0
  0
LINE
  5
1E3
100
AcDbEntity
  8
M0
 62
     4
100
AcDbLine
 10
43.163193
 20
219.327987
 11
40.25853
 21
214.085693
  0
LINE
  5
1E4
100
AcDbEntity
  8
M0
 62
     4
100
AcDbLine
 10
48.221176
 20
230.328003
 11
48.221176
 21
215.828048
  0
ARC
  5
1E5
100
AcDbEntity
  8
M0
 62
     4
100
AcDbCircle
 10
47.221176
 20
230.328003
 40
1.0
100
AcDbArc
 50
0.0
 51
89.943883
  0
LINE
  5
1E6
100
AcDbEntity
  8
M0
 62
     4
100
AcDbLine
 10
47.221176
 20
231.328003
 11
41.32103
 21
231.328003
  0
ARC
  5
1E7
100
AcDbEntity
  8
M0
 62
     4
100
AcDbCircle
 10
41.32103
 20
230.328003
 40
1.0
100
AcDbArc
 50
89.915907
 51
179.999945
  0
LINE
  5
1E8
100
AcDbEntity
  8
M0
 62
     4
100
AcDbLine
 10
40.32103
 20
230.328003
 11
40.32103
 21
214.328003
  0
ARC
  5
1E9
100
AcDbEntity
  8
M0
 62
     4
100
AcDbCircle
 10
48.721176
 20
215.828033
 40
0.5
100
AcDbArc
 50
179.998251
 51
270.028196
  0
LINE
  5
1EA
100
AcDbEntity
  8
M0
 62
     4
100
AcDbLine
 10
68.221176
 20
230.328003
 11
68.221176
 21
215.828064
  0
ARC
  5
1EB
100
AcDbEntity
  8
M0
 62
     4
100
AcDbCircle
 10
67.221176
 20
230.328003
 40
1.0
100
AcDbArc
 50
0.0
 51
89.944047
  0
LINE
  5
1EC
100
AcDbEntity
  8
M0
 62
     4
100
AcDbLine
 10
67.221176
 20
231.328003
 11
61.32103
 21
231.328003
  0
ARC
  5
1ED
100
AcDbEntity
  8
M0
 62
     4
100
AcDbCircle
 10
61.32103
 20
230.328003
 40
1.0
100
AcDbArc
 50
89.888094
 51
179.999945
  0
LINE
  5
1EE
100
AcDbEntity
  8
M0
 62
     4
100
AcDbLine
 10
60.32103
 20
230.328003
 11
60.32103
 21
215.828033
  0
ARC
  5
1EF
100
AcDbEntity
  8
M0
 62
     4
100
AcDbCircle
 10
68.721176
 20
215.828048
 40
0.5
100
AcDbArc
 50
179.998251
 51
270.027868
  0
LINE
  5
1F0
100
AcDbEntity
  8
M0
 62
     4
100
AcDbLine
 10
38.221176
 20
230.328003
 11
38.221176
 21
214.328003
  0
ARC
  5
1F1
100
AcDbEntity
  8
M0
 62
     4
100
AcDbCircle
 10
37.221176
 20
230.328003
 40
1.0
100
AcDbArc
 50
0.0
 51
89.92831
  0
LINE
  5
1F2
100
AcDbEntity
  8
M0
 62
     4
100
AcDbLine
 10
37.221176
 20
231.328003
 11
31.32103
 21
231.328003
  0
ARC
  5
1F3
100
AcDbEntity
  8
M0
 62
     4
100
AcDbCircle
 10
31.32103
 20
230.328003
 40
1.0
100
AcDbArc
 50
89.913448
 51
179.999945
  0
LINE
  5
1F4
100
AcDbEntity
  8
M0
 62
     4
100
AcDbLine
 10
30.32103
 20
230.328003
 11
30.32103
 21
214.328003
  0
ARC
  5
1F5
100
AcDbEntity
  8
M0
 62
     4
100
AcDbCircle
 10
38.721176
 20
215.828033
 40
0.5
100
AcDbArc
 50
179.998251
 51
270.028196
  0
ARC
  5
1F6
100
AcDbEntity
  8
M0
 62
     4
100
AcDbCircle
 10
38.721176
 20
214.328003
 40
0.5
100
AcDbArc
 50
179.998251
 51
270.028196
  0
ARC
  5
1F7
100
AcDbEntity
  8
M0
 62
     4
100
AcDbCircle
 10
77.221176
 20
230.328003
 40
1.0
100
AcDbArc
 50
0.0
 51
89.972024
  0
LINE
  5
1F8
100
AcDbEntity
  8
M0
 62
     4
100
AcDbLine
 10
78.221176
 20
230.328003
 11
78.221176
 21
217.828064
  0
LINE
  5
1F9
100
AcDbEntity
  8
M0
 62
     4
100
AcDbLine
 10
77.221176
 20
231.328003
 11
71.32103
 21
231.328003
  0
ARC
  5
1FA
100
AcDbEntity
  8
M0
 62
     4
100
AcDbCircle
 10
71.32103
 20
230.328003
 40
1.0
100
AcDbArc
 50
89.930059
 51
179.999945
  0
LINE
  5
1FB
100
AcDbEntity
  8
M0
 62
     4
100
AcDbLine
 10
70.32103
 20
230.328003
 11
70.32103
 21
215.828048
  0
ARC
  5
1FC
100
AcDbEntity
  8
M0
 62
     4
100
AcDbCircle
 10
78.721176
 20
217.828048
 40
0.5
100
AcDbArc
 50
179.998251
 51
269.998251
  0
ARC
  5
1FD
100
AcDbEntity
  8
M0
 62
     4
100
AcDbCircle
 10
28.270981
 20
216.828018
 40
0.5
100
AcDbArc
 50
179.998251
 51
270.031474
  0
ARC
  5
1FE
100
AcDbEntity
  8
M0
 62
     4
100
AcDbCircle
 10
80.270981
 20
217.828033
 40
0.5
100
AcDbArc
 50
269.998251
 51
360.0
  0
LINE
  5
1FF
100
AcDbEntity
  8
M0
 62
     4
100
AcDbLine
 10
51.770981
 20
243.177993
 11
56.770981
 21
243.177993
  0
LINE
  5
200
100
AcDbEntity
  8
M0
 62
     4
100
AcDbLine
 10
57.270981
 20
243.677978
 11
57.270981
 21
248.977966
  0
LINE
  5
201
100
AcDbEntity
  8
M0
 62
     4
100
AcDbLine
 10
56.770981
 20
249.477997
 11
51.770981
 21
249.477981
  0
LINE
  5
202
100
AcDbEntity
  8
M0
 62
     4
100
AcDbLine
 10
51.270981
 20
248.977981
 11
51.270981
 21
243.677993
  0
ARC
  5
203
100
AcDbEntity
  8
M0
 62
     4
100
AcDbCircle
 10
56.770981
 20
243.677993
 40
0.5
100
AcDbArc
 50
270.0
 51
360.0
  0
ARC
  5
204
100
AcDbEntity
  8
M0
 62
     4
100
AcDbCircle
 10
56.770981
 20
248.977981
 40
0.5
100
AcDbArc
 50
0.0
 51
90.0
  0
ARC
  5
205
100
AcDbEntity
  8
M0
 62
     4
100
AcDbCircle
 10
51.770981
 20
248.977981
 40
0.5
100
AcDbArc
 50
90.0
 51
180.0
  0
ARC
  5
206
100
AcDbEntity
  8
M0
 62
     4
100
AcDbCircle
 10
51.770981
 20
243.677993
 40
0.5
100
AcDbArc
 50
179.999891
 51
270.0
  0
LINE
  5
207
100
AcDbEntity
  8
M0
 62
     4
100
AcDbLine
 10
153.329712
 20
213.828048
 11
170.529892
 21
213.828048
  0
LINE
  5
208
100
AcDbEntity
  8
M0
 62
     4
100
AcDbLine
 10
168.529907
 20
213.828048
 11
168.529907
 21
278.828048
  0
LINE
  5
209
100
AcDbEntity
  8
M0
 62
     4
100
AcDbLine
 10
170.529892
 20
278.828048
 11
153.329712
 21
278.828033
  0
LINE
  5
20A
100
AcDbEntity
  8
M0
 62
     4
100
AcDbLine
 10
118.329956
 20
272.328018
 11
118.329956
 21
220.328079
  0
LINE
  5
20B
100
AcDbEntity
  8
M0
  6
DASHDOT
 62
     4
100
AcDbLine
 10
113.329956
 20
246.328048
 11
168.529892
 21
246.328048
  0
LINE
  5
20C
100
AcDbEntity
  8
M0
 62
     4
100
AcDbLine
 10
123.329956
 20
217.328079
 11
144.329712
 21
217.328079
  0
LINE
  5
20D
100
AcDbEntity
  8
M0
 62
     4
100
AcDbLine
 10
123.329956
 20
215.328079
 11
149.758911
 21
215.328079
  0
LINE
  5
20E
100
AcDbEntity
  8
M0
 62
     4
100
AcDbLine
 10
123.329956
 20
276.327911
 11
161.729874
 21
276.327911
  0
LINE
  5
20F
100
AcDbEntity
  8
M0
 62
     4
100
AcDbLine
 10
123.329956
 20
277.328033
 11
149.758911
 21
277.328033
  0
ARC
  5
210
100
AcDbEntity
  8
M0
 62
     4
100
AcDbCircle
 10
123.329956
 20
222.328079
 40
5.0
100
AcDbArc
 50
179.999825
 51
270.0
  0
ARC
  5
211
100
AcDbEntity
  8
M0
 62
     4
100
AcDbCircle
 10
123.329956
 20
220.328079
 40
5.0
100
AcDbArc
 50
179.999825
 51
270.0
  0
ARC
  5
212
100
AcDbEntity
  8
M0
 62
     4
100
AcDbCircle
 10
123.329956
 20
271.328048
 40
5.0
100
AcDbArc
 50
89.999825
 51
180.0
  0
ARC
  5
213
100
AcDbEntity
  8
M0
 62
     4
100
AcDbCircle
 10
123.329956
 20
272.328033
 40
5.0
100
AcDbArc
 50
89.999825
 51
180.0
  0
LINE
  5
214
100
AcDbEntity
  8
M0
 62
     4
100
AcDbLine
 10
149.329712
 20
226.328048
 11
168.529907
 21
226.328048
  0
LINE
  5
215
100
AcDbEntity
  8
M0
 62
     4
100
AcDbLine
 10
149.329712
 20
221.328048
 11
165.640396
 21
221.328048
  0
LINE
  5
216
100
AcDbEntity
  8
M0
 62
     4
100
AcDbLine
 10
148.329712
 20
217.328079
 11
148.329712
 21
225.328048
  0
LINE
  5
217
100
AcDbEntity
  8
M0
 62
     4
100
AcDbLine
 10
146.329712
 20
219.328079
 11
146.329712
 21
223.328048
  0
ARC
  5
218
100
AcDbEntity
  8
M0
 62
     4
100
AcDbCircle
 10
149.329712
 20
220.328048
 40
1.0
100
AcDbArc
 50
90.0
 51
179.999126
  0
ARC
  5
219
100
AcDbEntity
  8
M0
 62
     4
100
AcDbCircle
 10
149.329712
 20
225.328048
 40
1.0
100
AcDbArc
 50
90.0
 51
179.999126
  0
ARC
  5
21A
100
AcDbEntity
  8
M0
 62
     4
100
AcDbCircle
 10
149.329712
 20
223.328048
 40
3.0
100
AcDbArc
 50
90.0
 51
179.999709
  0
ARC
  5
21B
100
AcDbEntity
  8
M0
 62
     4
100
AcDbCircle
 10
146.329712
 20
217.328079
 40
2.0
100
AcDbArc
 50
270.0
 51
360.0
  0
ARC
  5
21C
100
AcDbEntity
  8
M0
 62
     4
100
AcDbCircle
 10
144.329712
 20
219.328079
 40
2.0
100
AcDbArc
 50
270.0
 51
360.0
  0
ARC
  5
21D
100
AcDbEntity
  8
M0
 62
     4
100
AcDbCircle
 10
153.329712
 20
218.828048
 40
5.0
100
AcDbArc
 50
179.999825
 51
270.0
  0
LINE
  5
21E
100
AcDbEntity
  8
M0
 62
     4
100
AcDbLine
 10
161.829712
 20
221.328048
 11
161.829712
 21
213.828048
  0
LINE
  5
21F
100
AcDbEntity
  8
M0
 62
     4
100
AcDbLine
 10
157.829712
 20
221.328048
 11
157.829712
 21
213.828048
  0
LINE
  5
220
100
AcDbEntity
  8
M0
 62
     4
100
AcDbLine
 10
155.829712
 20
221.328033
 11
155.829712
 21
213.828033
  0
ARC
  5
221
100
AcDbEntity
  8
M0
 62
     4
100
AcDbCircle
 10
153.329712
 20
273.828033
 40
5.0
100
AcDbArc
 50
90.0
 51
135.573713
  0
CIRCLE
  5
222
100
AcDbEntity
  8
M0
 62
     6
100
AcDbCircle
 10
34.270981
 20
266.327911
 40
3.0
  0
LINE
  5
223
100
AcDbEntity
  8
M0
 62
     6
100
AcDbLine
 10
31.312226
 20
270.275253
 11
30.495972
 21
267.62796
  0
LINE
  5
224
100
AcDbEntity
  8
M0
 62
     6
100
AcDbLine
 10
31.312226
 20
262.380661
 11
30.495972
 21
265.027984
  0
LINE
  5
225
100
AcDbEntity
  8
M0
 62
     6
100
AcDbLine
 10
37.229706
 20
270.275268
 11
38.045975
 21
267.62796
  0
LINE
  5
226
100
AcDbEntity
  8
M0
 62
     6
100
AcDbLine
 10
37.229706
 20
262.380645
 11
38.045975
 21
265.027984
  0
LINE
  5
227
100
AcDbEntity
  8
M0
 62
     6
100
AcDbLine
 10
31.790024
 20
262.027984
 11
36.751892
 21
262.027984
  0
LINE
  5
228
100
AcDbEntity
  8
M0
 62
     6
100
AcDbLine
 10
38.045975
 20
265.027984
 11
38.045975
 21
267.62796
  0
LINE
  5
229
100
AcDbEntity
  8
M0
 62
     6
100
AcDbLine
 10
36.751892
 20
270.62796
 11
31.790024
 21
270.627945
  0
LINE
  5
22A
100
AcDbEntity
  8
M0
 62
     6
100
AcDbLine
 10
30.495972
 20
267.62796
 11
30.495972
 21
265.027984
  0
LINE
  5
22B
100
AcDbEntity
  8
M0
  6
DASHDOT
 62
     6
100
AcDbLine
 10
27.995972
 20
266.327911
 11
40.545975
 21
266.327911
  0
LINE
  5
22C
100
AcDbEntity
  8
M0
  6
DASHDOT
 62
     6
100
AcDbLine
 10
34.270981
 20
259.528
 11
34.270981
 21
273.12796
  0
LINE
  5
22D
100
AcDbEntity
  8
M0
 62
     6
100
AcDbLine
 10
35.861756
 20
264.737091
 11
32.679947
 21
267.918853
  0
LINE
  5
22E
100
AcDbEntity
  8
M0
 62
     6
100
AcDbLine
 10
34.62439
 20
267.742096
 11
32.85672
 21
265.974395
  0
LINE
  5
22F
100
AcDbEntity
  8
M0
 62
     6
100
AcDbLine
 10
35.684998
 20
266.681427
 11
33.917374
 21
264.913849
  0
ARC
  5
230
100
AcDbEntity
  8
M0
 62
     6
100
AcDbCircle
 10
31.790024
 20
270.127945
 40
0.5
100
AcDbArc
 50
90.0
 51
162.865663
  0
ARC
  5
231
100
AcDbEntity
  8
M0
 62
     6
100
AcDbCircle
 10
31.790024
 20
262.527984
 40
0.5
100
AcDbArc
 50
197.13731
 51
270.0
  0
ARC
  5
232
100
AcDbEntity
  8
M0
 62
     6
100
AcDbCircle
 10
36.751892
 20
262.527984
 40
0.5
100
AcDbArc
 50
270.0
 51
342.861653
  0
ARC
  5
233
100
AcDbEntity
  8
M0
 62
     6
100
AcDbCircle
 10
36.751892
 20
270.127945
 40
0.5
100
AcDbArc
 50
17.134787
 51
90.0
  0
CIRCLE
  5
234
100
AcDbEntity
  8
M0
 62
     6
100
AcDbCircle
 10
74.270981
 20
226.328079
 40
3.0
  0
LINE
  5
235
100
AcDbEntity
  8
M0
 62
     6
100
AcDbLine
 10
71.312226
 20
230.275421
 11
70.495972
 21
227.628128
  0
LINE
  5
236
100
AcDbEntity
  8
M0
 62
     6
100
AcDbLine
 10
71.312226
 20
222.380829
 11
70.495972
 21
225.028152
  0
LINE
  5
237
100
AcDbEntity
  8
M0
 62
     6
100
AcDbLine
 10
77.229706
 20
230.275436
 11
78.045975
 21
227.628128
  0
LINE
  5
238
100
AcDbEntity
  8
M0
 62
     6
100
AcDbLine
 10
77.229706
 20
222.380813
 11
78.045975
 21
225.028152
  0
LINE
  5
239
100
AcDbEntity
  8
M0
 62
     6
100
AcDbLine
 10
71.790024
 20
222.028152
 11
76.751892
 21
222.028152
  0
LINE
  5
23A
100
AcDbEntity
  8
M0
 62
     6
100
AcDbLine
 10
78.045975
 20
225.028152
 11
78.045975
 21
227.628128
  0
LINE
  5
23B
100
AcDbEntity
  8
M0
 62
     6
100
AcDbLine
 10
76.751892
 20
230.628128
 11
71.790024
 21
230.628112
  0
LINE
  5
23C
100
AcDbEntity
  8
M0
 62
     6
100
AcDbLine
 10
70.495972
 20
227.628128
 11
70.495972
 21
225.028152
  0
LINE
  5
23D
100
AcDbEntity
  8
M0
  6
DASHDOT
 62
     6
100
AcDbLine
 10
27.770981
 20
226.328079
 11
80.545975
 21
226.328079
  0
LINE
  5
23E
100
AcDbEntity
  8
M0
  6
DASHDOT
 62
     6
100
AcDbLine
 10
74.270981
 20
219.528167
 11
74.270981
 21
233.128128
  0
LINE
  5
23F
100
AcDbEntity
  8
M0
 62
     6
100
AcDbLine
 10
75.861756
 20
224.737259
 11
72.679947
 21
227.919021
  0
LINE
  5
240
100
AcDbEntity
  8
M0
 62
     6
100
AcDbLine
 10
74.62439
 20
227.742263
 11
72.85672
 21
225.974563
  0
LINE
  5
241
100
AcDbEntity
  8
M0
 62
     6
100
AcDbLine
 10
75.684998
 20
226.681595
 11
73.917374
 21
224.914016
  0
ARC
  5
242
100
AcDbEntity
  8
M0
 62
     6
100
AcDbCircle
 10
71.790024
 20
230.128112
 40
0.5
100
AcDbArc
 50
90.0
 51
162.865663
  0
ARC
  5
243
100
AcDbEntity
  8
M0
 62
     6
100
AcDbCircle
 10
71.790024
 20
222.528152
 40
0.5
100
AcDbArc
 50
197.13731
 51
270.0
  0
ARC
  5
244
100
AcDbEntity
  8
M0
 62
     6
100
AcDbCircle
 10
76.751892
 20
222.528152
 40
0.5
100
AcDbArc
 50
270.0
 51
342.861653
  0
ARC
  5
245
100
AcDbEntity
  8
M0
 62
     6
100
AcDbCircle
 10
76.751892
 20
230.128112
 40
0.5
100
AcDbArc
 50
17.134787
 51
90.0
  0
LINE
  5
246
100
AcDbEntity
  8
M0
 62
     2
100
AcDbLine
 10
52.270981
 20
243.828003
 11
56.270981
 21
243.828003
  0
LINE
  5
247
100
AcDbEntity
  8
M0
 62
     2
100
AcDbLine
 10
56.770981
 20
244.327987
 11
56.770981
 21
248.327972
  0
LINE
  5
248
100
AcDbEntity
  8
M0
 62
     2
100
AcDbLine
 10
56.270981
 20
248.828003
 11
52.270981
 21
248.827987
  0
LINE
  5
249
100
AcDbEntity
  8
M0
 62
     2
100
AcDbLine
 10
51.770981
 20
248.327987
 11
51.770981
 21
244.328003
  0
ARC
  5
24A
100
AcDbEntity
  8
M0
 62
     2
100
AcDbCircle
 10
52.270981
 20
244.328003
 40
0.5
100
AcDbArc
 50
179.999891
 51
270.0
  0
ARC
  5
24B
100
AcDbEntity
  8
M0
 62
     2
100
AcDbCircle
 10
56.270981
 20
244.328003
 40
0.5
100
AcDbArc
 50
270.0
 51
360.0
  0
ARC
  5
24C
100
AcDbEntity
  8
M0
 62
     2
100
AcDbCircle
 10
56.270981
 20
248.327987
 40
0.5
100
AcDbArc
 50
0.0
 51
90.0
  0
ARC
  5
24D
100
AcDbEntity
  8
M0
 62
     2
100
AcDbCircle
 10
52.270981
 20
248.327987
 40
0.5
100
AcDbArc
 50
90.0
 51
180.0
  0
LINE
  5
24E
100
AcDbEntity
  8
M0
 62
   154
100
AcDbLine
 10
170.529892
 20
213.828048
 11
172.82988
 21
213.828048
  0
LINE
  5
24F
100
AcDbEntity
  8
M0
 62
   154
100
AcDbLine
 10
222.32988
 20
213.828048
 11
222.32988
 21
226.328048
  0
LINE
  5
250
100
AcDbEntity
  8
M0
 62
   154
100
AcDbLine
 10
222.32988
 20
278.828048
 11
177.529892
 21
278.828033
  0
LINE
  5
251
100
AcDbEntity
  8
M0
 62
   154
100
AcDbLine
 10
170.529892
 20
278.828048
 11
170.529892
 21
260.328048
  0
LINE
  5
252
100
AcDbEntity
  8
M0
 62
   154
100
AcDbLine
 10
221.32988
 20
226.328048
 11
221.32988
 21
278.828048
  0
LINE
  5
253
100
AcDbEntity
  8
M0
 62
   154
100
AcDbLine
 10
221.32988
 20
266.328048
 11
222.32988
 21
266.328048
  0
LINE
  5
254
100
AcDbEntity
  8
M0
 62
   154
100
AcDbLine
 10
221.329849
 20
226.328048
 11
222.32988
 21
226.328048
  0
LINE
  5
255
100
AcDbEntity
  8
M0
 62
   154
100
AcDbLine
 10
222.32988
 20
266.328048
 11
222.32988
 21
278.828048
  0
LINE
  5
256
100
AcDbEntity
  8
M0
 62
   154
100
AcDbLine
 10
170.529892
 20
260.328048
 11
174.529892
 21
260.328048
  0
LINE
  5
257
100
AcDbEntity
  8
M0
 62
   154
100
AcDbLine
 10
170.529892
 20
232.328048
 11
174.529892
 21
232.328048
  0
LINE
  5
258
100
AcDbEntity
  8
M0
 62
   154
100
AcDbLine
 10
219.029877
 20
254.328048
 11
221.32988
 21
254.328048
  0
LINE
  5
259
100
AcDbEntity
  8
M0
 62
   154
100
AcDbLine
 10
219.029877
 20
238.328048
 11
221.32988
 21
238.328048
  0
LINE
  5
25A
100
AcDbEntity
  8
M0
 62
   154
100
AcDbLine
 10
175.529892
 20
276.828033
 11
175.529892
 21
273.828048
  0
LINE
  5
25B
100
AcDbEntity
  8
M0
 62
   154
100
AcDbLine
 10
170.529892
 20
271.828048
 11
173.529892
 21
271.828048
  0
ARC
  5
25C
100
AcDbEntity
  8
M0
 62
   154
100
AcDbCircle
 10
177.529892
 20
276.828033
 40
2.0
100
AcDbArc
 50
90.0
 51
180.0
  0
LINE
  5
25D
100
AcDbEntity
  8
M0
 62
   154
100
AcDbLine
 10
172.82988
 20
278.828048
 11
172.82988
 21
271.828048
  0
LINE
  5
25E
100
AcDbEntity
  8
M0
 62
   154
100
AcDbLine
 10
175.529892
 20
259.328048
 11
175.529892
 21
258.328048
  0
ARC
  5
25F
100
AcDbEntity
  8
M0
 62
   154
100
AcDbCircle
 10
173.529892
 20
273.828048
 40
2.0
100
AcDbArc
 50
270.0
 51
360.0
  0
LINE
  5
260
100
AcDbEntity
  8
M0
 62
   154
100
AcDbLine
 10
176.529892
 20
257.328048
 11
221.32988
 21
257.328048
  0
LINE
  5
261
100
AcDbEntity
  8
M0
 62
   154
100
AcDbLine
 10
176.529892
 20
235.328048
 11
221.32988
 21
235.328048
  0
LINE
  5
262
100
AcDbEntity
  8
M0
 62
   154
100
AcDbLine
 10
170.529892
 20
232.328048
 11
170.529892
 21
213.828048
  0
ARC
  5
263
100
AcDbEntity
  8
M0
 62
   154
100
AcDbCircle
 10
174.529892
 20
259.328048
 40
1.0
100
AcDbArc
 50
0.0
 51
90.0
  0
LINE
  5
264
100
AcDbEntity
  8
M0
 62
   154
100
AcDbLine
 10
175.529892
 20
219.328048
 11
175.529892
 21
215.828048
  0
ARC
  5
265
100
AcDbEntity
  8
M0
 62
   154
100
AcDbCircle
 10
176.529892
 20
258.328048
 40
1.0
100
AcDbArc
 50
180.0
 51
270.0
  0
ARC
  5
266
100
AcDbEntity
  8
M0
 62
   154
100
AcDbCircle
 10
176.529892
 20
234.328048
 40
1.0
100
AcDbArc
 50
90.0
 51
180.0
  0
LINE
  5
267
100
AcDbEntity
  8
M0
 62
   154
100
AcDbLine
 10
170.529892
 20
219.328048
 11
177.529892
 21
219.328048
  0
LINE
  5
268
100
AcDbEntity
  8
M0
 62
   154
100
AcDbLine
 10
172.82988
 20
219.328048
 11
172.82988
 21
213.828048
  0
LINE
  5
269
100
AcDbEntity
  8
M0
 62
   154
100
AcDbLine
 10
175.529892
 20
234.328048
 11
175.529892
 21
233.328048
  0
ARC
  5
26A
100
AcDbEntity
  8
M0
 62
   154
100
AcDbCircle
 10
174.529892
 20
233.328048
 40
1.0
100
AcDbArc
 50
270.0
 51
360.0
  0
LINE
  5
26B
100
AcDbEntity
  8
M0
 62
   154
100
AcDbLine
 10
211.32988
 20
226.328048
 11
221.32988
 21
226.328048
  0
LINE
  5
26C
100
AcDbEntity
  8
M0
 62
   154
100
AcDbLine
 10
211.32988
 20
226.328048
 11
177.529892
 21
219.328048
  0
LINE
  5
26D
100
AcDbEntity
  8
M0
 62
   154
100
AcDbLine
 10
220.029877
 20
223.328048
 11
222.32988
 21
223.328048
  0
LINE
  5
26E
100
AcDbEntity
  8
M0
 62
   154
100
AcDbLine
 10
219.029877
 20
235.328048
 11
219.029877
 21
257.328048
  0
LINE
  5
26F
100
AcDbEntity
  8
M0
 62
   154
100
AcDbLine
 10
220.029877
 20
213.828048
 11
220.029877
 21
226.328048
  0
LINE
  5
270
100
AcDbEntity
  8
M0
 62
   154
100
AcDbLine
 10
172.82988
 20
278.828033
 11
170.529892
 21
278.828048
  0
LINE
  5
271
100
AcDbEntity
  8
M0
 62
   154
100
AcDbLine
 10
177.529892
 20
213.828048
 11
222.32988
 21
213.828048
  0
ARC
  5
272
100
AcDbEntity
  8
M0
 62
   154
100
AcDbCircle
 10
177.529892
 20
215.828048
 40
2.0
100
AcDbArc
 50
179.999973
 51
270.0
  0
LINE
  5
273
100
AcDbEntity
  8
M0
 62
   154
100
AcDbLine
 10
216.729868
 20
257.328049
 11
216.729861
 21
235.328049
  0
LINE
  5
274
100
AcDbEntity
  8
M0
  6
DASHDOT
 62
   154
100
AcDbLine
 10
224.285422
 20
246.328031
 11
163.638831
 21
246.32805
  0
LINE
  5
275
100
AcDbEntity
  8
M0
 62
   154
100
AcDbLine
 10
173.2299
 20
260.328062
 11
173.229891
 21
232.328062
  0
LINE
  5
276
100
AcDbEntity
  8
M0
 62
   154
100
AcDbLine
 10
170.529875
 20
267.828048
 11
170.529884
 21
249.628036
  0
LINE
  5
277
100
AcDbEntity
  8
M0
 62
   154
100
AcDbLine
 10
168.529884
 20
248.828049
 11
168.529898
 21
243.828049
  0
LINE
  5
278
100
AcDbEntity
  8
M0
 62
   154
100
AcDbLine
 10
169.029899
 20
249.328049
 11
170.229896
 21
249.328048
  0
LINE
  5
279
100
AcDbEntity
  8
M0
 62
   154
100
AcDbLine
 10
169.029897
 20
243.328049
 11
170.22991
 21
243.328048
  0
LINE
  5
27A
100
AcDbEntity
  8
M0
 62
   154
100
AcDbLine
 10
170.529882
 20
243.028045
 11
170.529861
 21
224.828048
  0
ARC
  5
27B
100
AcDbEntity
  8
M0
 62
   154
100
AcDbCircle
 10
169.029899
 20
248.828049
 40
0.5
100
AcDbArc
 50
90.0
 51
179.999982
  0
ARC
  5
27C
100
AcDbEntity
  8
M0
 62
   154
100
AcDbCircle
 10
169.029898
 20
243.828049
 40
0.5
100
AcDbArc
 50
179.999982
 51
270.0
  0
ARC
  5
27D
100
AcDbEntity
  8
M0
 62
   154
100
AcDbCircle
 10
170.229909
 20
243.028045
 40
0.3
100
AcDbArc
 50
359.997068
 51
450.0
  0
ARC
  5
27E
100
AcDbEntity
  8
M0
 62
   154
100
AcDbCircle
 10
170.229896
 20
249.628036
 40
0.3
100
AcDbArc
 50
270.0
 51
359.997068
  0
LINE
  5
27F
100
AcDbEntity
  8
M0
 62
   154
100
AcDbLine
 10
218.729846
 20
235.328048
 11
218.729868
 21
257.328033
  0
LINE
  5
280
100
AcDbEntity
  8
M0
 62
   154
100
AcDbLine
 10
167.734131
 20
214.82782
 11
167.734131
 21
220.82782
  0
LINE
  5
281
100
AcDbEntity
  8
M0
  6
DASHDOT
 62
   154
100
AcDbLine
 10
162.934128
 20
217.82782
 11
177.249726
 21
217.82782
  0
ARC
  5
282
100
AcDbEntity
  8
M0
 62
   154
100
AcDbCircle
 10
173.434128
 20
217.82782
 40
8.0
100
AcDbArc
 50
165.963604
 51
176.416628
  0
LINE
  5
283
100
AcDbEntity
  8
M0
 62
   154
100
AcDbLine
 10
167.734131
 20
214.827804
 11
166.820862
 21
214.907699
  0
ARC
  5
284
100
AcDbEntity
  8
M0
 62
   154
100
AcDbCircle
 10
166.934174
 20
219.452835
 40
1.299999
100
AcDbArc
 50
137.746804
 51
165.963889
  0
ARC
  5
285
100
AcDbEntity
  8
M0
 62
   154
100
AcDbCircle
 10
166.934189
 20
216.202758
 40
1.299999
100
AcDbArc
 50
194.037243
 51
264.997565
  0
LINE
  5
286
100
AcDbEntity
  8
M0
 62
   154
100
AcDbLine
 10
175.534104
 20
216.077804
 11
172.834091
 21
216.077804
  0
LINE
  5
287
100
AcDbEntity
  8
M0
 62
   154
100
AcDbLine
 10
165.449768
 20
218.32782
 11
166.684128
 21
218.32782
  0
LINE
  5
288
100
AcDbEntity
  8
M0
 62
   154
100
AcDbLine
 10
166.684128
 20
218.32782
 11
166.684128
 21
217.32782
  0
LINE
  5
289
100
AcDbEntity
  8
M0
 62
   154
100
AcDbLine
 10
166.684128
 20
217.32782
 11
165.449768
 21
217.32782
  0
ARC
  5
28A
100
AcDbEntity
  8
M0
 62
   154
100
AcDbCircle
 10
173.434128
 20
217.82782
 40
8.0
100
AcDbArc
 50
183.58319
 51
194.036818
  0
LINE
  5
28B
100
AcDbEntity
  8
M0
 62
   154
100
AcDbLine
 10
168.534119
 20
214.82782
 11
168.534119
 21
220.82782
  0
LINE
  5
28C
100
AcDbEntity
  8
M0
 62
   154
100
AcDbLine
 10
167.734131
 20
214.82782
 11
168.534119
 21
214.82782
  0
LINE
  5
28D
100
AcDbEntity
  8
M0
 62
   154
100
AcDbLine
 10
167.734131
 20
217.82782
 11
168.534119
 21
218.627792
  0
LINE
  5
28E
100
AcDbEntity
  8
M0
 62
   154
100
AcDbLine
 10
167.734131
 20
217.027832
 11
168.534119
 21
217.82782
  0
LINE
  5
28F
100
AcDbEntity
  8
M0
 62
   154
100
AcDbLine
 10
175.534119
 20
276.583191
 11
172.834107
 21
276.583191
  0
LINE
  5
290
100
AcDbEntity
  8
M0
 62
   154
100
AcDbLine
 10
175.389237
 20
273.083191
 11
172.834107
 21
273.083191
  0
LINE
  5
291
100
AcDbEntity
  8
M0
 62
   154
100
AcDbLine
 10
175.534104
 20
216.577804
 11
172.834091
 21
216.577804
  0
LINE
  5
292
100
AcDbEntity
  8
M0
 62
   154
100
AcDbLine
 10
175.534104
 20
219.077804
 11
172.834091
 21
219.077804
  0
LINE
  5
293
100
AcDbEntity
  8
M0
 62
   154
100
AcDbLine
 10
175.534119
 20
276.083191
 11
172.834107
 21
276.083191
  0
LINE
  5
294
100
AcDbEntity
  8
M0
 62
   154
100
AcDbLine
 10
175.389237
 20
273.583191
 11
172.834107
 21
273.583191
  0
LINE
  5
295
100
AcDbEntity
  8
M0
 62
   154
100
AcDbLine
 10
175.534119
 20
276.083191
 11
172.834107
 21
276.083191
  0
LINE
  5
296
100
AcDbEntity
  8
M0
  6
DASHDOT
 62
   154
100
AcDbLine
 10
171.652634
 20
274.833145
 11
177.249741
 21
274.833145
  0
LINE
  5
297
100
AcDbEntity
  8
M0
 62
   154
100
AcDbLine
 10
198.645168
 20
222.032701
 11
197.993632
 21
223.567665
  0
LINE
  5
298
100
AcDbEntity
  8
M0
 62
   154
100
AcDbLine
 10
198.645135
 20
222.0327
 11
194.042713
 21
220.079077
  0
LINE
  5
299
100
AcDbEntity
  8
M0
 62
   154
100
AcDbLine
 10
193.847332
 20
220.539366
 11
198.449781
 21
222.492965
  0
LINE
  5
29A
100
AcDbEntity
  8
M0
 62
   154
100
AcDbLine
 10
167.734131
 20
219.826141
 11
167.734131
 21
225.826141
  0
LINE
  5
29B
100
AcDbEntity
  8
M0
  6
DASHDOT
 62
   154
100
AcDbLine
 10
162.934128
 20
222.826141
 11
168.534119
 21
222.826141
  0
ARC
  5
29C
100
AcDbEntity
  8
M0
 62
   154
100
AcDbCircle
 10
173.434128
 20
222.826141
 40
8.0
100
AcDbArc
 50
165.963604
 51
176.416628
  0
LINE
  5
29D
100
AcDbEntity
  8
M0
 62
   154
100
AcDbLine
 10
167.734131
 20
225.826111
 11
166.820877
 21
225.746216
  0
LINE
  5
29E
100
AcDbEntity
  8
M0
 62
   154
100
AcDbLine
 10
167.734131
 20
219.826126
 11
166.820862
 21
219.906021
  0
ARC
  5
29F
100
AcDbEntity
  8
M0
 62
   154
100
AcDbCircle
 10
166.934174
 20
224.451156
 40
1.299999
100
AcDbArc
 50
94.999741
 51
165.963889
  0
ARC
  5
2A0
100
AcDbEntity
  8
M0
 62
   154
100
AcDbCircle
 10
166.934189
 20
221.20108
 40
1.299999
100
AcDbArc
 50
194.037243
 51
264.997565
  0
LINE
  5
2A1
100
AcDbEntity
  8
M0
 62
   154
100
AcDbLine
 10
165.449768
 20
223.326141
 11
166.684128
 21
223.326141
  0
LINE
  5
2A2
100
AcDbEntity
  8
M0
 62
   154
100
AcDbLine
 10
166.684128
 20
223.326141
 11
166.684128
 21
222.326141
  0
LINE
  5
2A3
100
AcDbEntity
  8
M0
 62
   154
100
AcDbLine
 10
166.684128
 20
222.326141
 11
165.449768
 21
222.326141
  0
ARC
  5
2A4
100
AcDbEntity
  8
M0
 62
   154
100
AcDbCircle
 10
173.434128
 20
222.826141
 40
8.0
100
AcDbArc
 50
183.58319
 51
194.036818
  0
LINE
  5
2A5
100
AcDbEntity
  8
M0
 62
   154
100
AcDbLine
 10
168.534119
 20
219.826141
 11
168.534119
 21
225.826141
  0
LINE
  5
2A6
100
AcDbEntity
  8
M0
 62
   154
100
AcDbLine
 10
167.734131
 20
219.826141
 11
168.534119
 21
219.826141
  0
LINE
  5
2A7
100
AcDbEntity
  8
M0
 62
   154
100
AcDbLine
 10
167.734131
 20
225.826141
 11
168.534119
 21
225.826141
  0
LINE
  5
2A8
100
AcDbEntity
  8
M0
 62
   154
100
AcDbLine
 10
167.734131
 20
222.826141
 11
168.534119
 21
223.626114
  0
LINE
  5
2A9
100
AcDbEntity
  8
M0
 62
   154
100
AcDbLine
 10
167.734131
 20
222.026153
 11
168.534119
 21
222.826141
  0
LINE
  5
2AA
100
AcDbEntity
  8
M0
 62
   154
100
AcDbLine
 10
72.71106
 20
278.827865
 11
72.261032
 21
276.577728
  0
LINE
  5
2AB
100
AcDbEntity
  8
M0
 62
   154
100
AcDbLine
 10
187.808398
 20
221.458278
 11
189.842346
 21
216.666645
  0
LINE
  5
2AC
100
AcDbEntity
  8
M0
  6
DASHDOT
 62
   154
100
AcDbLine
 10
187.28692
 20
219.112568
 11
198.960599
 21
224.067707
  0
LINE
  5
2AD
100
AcDbEntity
  8
M0
 62
   154
100
AcDbLine
 10
191.153607
 20
216.136874
 11
193.915021
 21
217.309043
  0
ARC
  5
2AE
100
AcDbEntity
  8
M0
 62
   154
100
AcDbCircle
 10
190.762863
 20
217.057378
 40
1.0
100
AcDbArc
 50
202.999365
 51
293.000714
  0
LINE
  5
2AF
100
AcDbEntity
  8
M0
 62
   154
100
AcDbLine
 10
193.072779
 20
216.734265
 11
193.993177
 21
217.124961
  0
LINE
  5
2B0
100
AcDbEntity
  8
M0
 62
   154
100
AcDbLine
 10
192.994643
 20
216.918363
 11
193.072764
 21
216.734264
  0
LINE
  5
2B1
100
AcDbEntity
  8
M0
 62
   154
100
AcDbLine
 10
191.802694
 20
222.285488
 11
193.993164
 21
217.124987
  0
LINE
  5
2B2
100
AcDbEntity
  8
M0
  6
DASHED
 62
   154
100
AcDbLine
 10
190.804097
 20
222.078674
 11
192.994598
 21
216.918357
  0
LINE
  5
2B3
100
AcDbEntity
  8
M0
 62
   154
100
AcDbLine
 10
192.301925
 20
222.38887
 11
193.691498
 21
219.115173
  0
LINE
  5
2B4
100
AcDbEntity
  8
M0
 62
   154
100
AcDbLine
 10
193.000931
 20
222.533631
 11
194.140472
 21
219.848968
  0
LINE
  5
2B5
100
AcDbEntity
  8
M0
 62
   154
100
AcDbLine
 10
193.231283
 20
218.919844
 11
193.691519
 21
219.115186
  0
LINE
  5
2B6
100
AcDbEntity
  8
M0
 62
   154
100
AcDbLine
 10
193.49614
 20
219.575471
 11
194.140488
 21
219.848969
  0
LINE
  5
2B7
100
AcDbEntity
  8
M0
 62
     2
100
AcDbLine
 10
55.499953
 20
277.45468
 11
50.799072
 21
277.043411
  0
LINE
  5
2B8
100
AcDbEntity
  8
M0
 62
     2
100
AcDbLine
 10
50.799071
 20
277.043436
 11
50.816502
 21
276.8442
  0
LINE
  5
2B9
100
AcDbEntity
  8
M0
 62
     2
100
AcDbLine
 10
50.816505
 20
276.84417
 11
50.320786
 21
276.8008
  0
ARC
  5
2BA
100
AcDbEntity
  8
M0
 62
     6
100
AcDbCircle
 10
54.275315
 20
272.880401
 40
3.0
100
AcDbArc
 50
72.946126
 51
171.372534
  0
LINE
  5
2BB
100
AcDbEntity
  8
M0
 62
     6
100
AcDbLine
 10
53.741948
 20
273.327835
 11
52.551675
 21
274.326622
  0
LINE
  5
2BC
100
AcDbEntity
  8
M0
 62
   154
100
AcDbLine
 10
52.770992
 20
213.828003
 11
54.270947
 21
219.327987
  0
LINE
  5
2BD
100
AcDbEntity
  8
M0
 62
   154
100
AcDbLine
 10
55.770992
 20
278.827987
 11
54.670986
 21
273.327987
  0
ARC
  5
2BE
100
AcDbEntity
  8
M0
 62
     6
100
AcDbCircle
 10
54.275315
 20
219.780319
 40
3.0
100
AcDbArc
 50
297.860914
 51
351.328239
  0
LINE
  5
2BF
100
AcDbEntity
  8
M0
 62
   234
100
AcDbLine
 10
32.770981
 20
213.828003
 11
73.270981
 21
213.828003
  0
LINE
  5
2C0
100
AcDbEntity
  8
M0
 62
   234
100
AcDbLine
 10
76.270981
 20
216.827987
 11
76.270981
 21
221.828003
  0
LINE
  5
2C1
100
AcDbEntity
  8
M0
 62
   234
100
AcDbLine
 10
75.770981
 20
278.828003
 11
35.270981
 21
278.827987
  0
LINE
  5
2C2
100
AcDbEntity
  8
M0
 62
   234
100
AcDbLine
 10
32.270981
 20
275.827987
 11
32.270981
 21
270.828003
  0
ARC
  5
2C3
100
AcDbEntity
  8
M0
 62
   234
100
AcDbCircle
 10
35.270981
 20
275.827987
 40
3.0
100
AcDbArc
 50
90.0
 51
180.0
  0
ARC
  5
2C4
100
AcDbEntity
  8
M0
 62
   234
100
AcDbCircle
 10
73.270981
 20
216.828003
 40
3.0
100
AcDbArc
 50
269.999709
 51
360.0
  0
LINE
  5
2C5
100
AcDbEntity
  8
M0
 62
   234
100
AcDbLine
 10
42.270981
 20
278.827987
 11
42.270981
 21
273.328003
  0
LINE
  5
2C6
100
AcDbEntity
  8
M0
 62
   234
100
AcDbLine
 10
65.270981
 20
219.328003
 11
65.270981
 21
213.828003
  0
LINE
  5
2C7
100
AcDbEntity
  8
M0
 62
   234
100
AcDbLine
 10
70.32103
 20
219.328003
 11
75.770981
 21
219.328003
  0
LINE
  5
2C8
100
AcDbEntity
  8
M0
 62
   234
100
AcDbLine
 10
75.770981
 20
219.328003
 11
75.770981
 21
221.828003
  0
LINE
  5
2C9
100
AcDbEntity
  8
M0
 62
   234
100
AcDbLine
 10
32.770981
 20
213.828003
 11
32.770981
 21
214.028152
  0
ARC
  5
2CA
100
AcDbEntity
  8
M0
 62
   234
100
AcDbCircle
 10
37.270981
 20
273.828003
 40
2.299999
100
AcDbArc
 50
65.604959
 51
180.0
  0
LINE
  5
2CB
100
AcDbEntity
  8
M0
  6
DASHDOT
 62
   234
100
AcDbLine
 10
33.288285
 20
273.828003
 11
40.722595
 21
273.828003
  0
LINE
  5
2CC
100
AcDbEntity
  8
M0
  6
DASHDOT
 62
   234
100
AcDbLine
 10
37.270981
 20
271.854248
 11
37.270981
 21
277.488022
  0
LINE
  5
2CD
100
AcDbEntity
  8
M0
 62
   234
100
AcDbLine
 10
34.970993
 20
270.82814
 11
34.970993
 21
273.835251
  0
ARC
  5
2CE
100
AcDbEntity
  8
M0
 62
   234
100
AcDbCircle
 10
70.270981
 20
218.827972
 40
2.299999
100
AcDbArc
 50
271.246115
 51
339.789571
  0
LINE
  5
2CF
100
AcDbEntity
  8
M0
  6
DASHDOT
 62
   234
100
AcDbLine
 10
74.664063
 20
218.827957
 11
67.357941
 21
218.827972
  0
LINE
  5
2D0
100
AcDbEntity
  8
M0
  6
DASHDOT
 62
   234
100
AcDbLine
 10
70.270966
 20
215.552536
 11
70.270981
 21
223.153473
  0
ARC
  5
2D1
100
AcDbEntity
  8
M0
 62
   234
100
AcDbCircle
 10
72.270966
 20
220.327942
 40
2.299999
100
AcDbArc
 50
273.947957
 51
334.229949
  0
LINE
  5
2D2
100
AcDbEntity
  8
M0
 62
   234
100
AcDbLine
 10
75.770981
 20
278.6277
 11
75.770981
 21
278.828003
  0
LINE
  5
2D3
100
AcDbEntity
  8
M0
 62
     6
100
AcDbLine
 10
50.866089
 20
216.239639
 11
50.32103
 21
216.784691
  0
LINE
  5
2D4
100
AcDbEntity
  8
M0
 62
     6
100
AcDbLine
 10
48.221176
 20
217.837073
 11
47.861054
 21
217.476944
  0
LINE
  5
2D5
100
AcDbEntity
  8
M0
 62
     6
100
AcDbLine
 10
50.689331
 20
218.183975
 11
50.32103
 21
217.815683
  0
ARC
  5
2D6
100
AcDbEntity
  8
M0
 62
     6
100
AcDbCircle
 10
49.275315
 20
217.830459
 40
3.0
100
AcDbArc
 50
150.054072
 51
389.945847
  0
LINE
  5
2D7
100
AcDbEntity
  8
M0
 62
     6
100
AcDbLine
 10
48.221176
 20
218.884514
 11
47.777682
 21
219.328003
  0
LINE
  5
2D8
100
AcDbEntity
  8
M0
 62
     6
100
AcDbLine
 10
60.777647
 20
273.327972
 11
60.320786
 21
273.784828
  0
LINE
  5
2D9
100
AcDbEntity
  8
M0
 62
     6
100
AcDbLine
 10
58.220932
 20
274.836722
 11
57.861054
 21
274.476837
  0
LINE
  5
2DA
100
AcDbEntity
  8
M0
 62
     6
100
AcDbLine
 10
60.689331
 20
275.183868
 11
60.320786
 21
274.815332
  0
LINE
  5
2DB
100
AcDbEntity
  8
M0
 62
     6
100
AcDbLine
 10
58.220932
 20
275.884651
 11
57.684281
 21
276.421295
  0
ARC
  5
2DC
100
AcDbEntity
  8
M0
 62
     6
100
AcDbCircle
 10
59.275315
 20
274.830352
 40
3.0
100
AcDbArc
 50
329.947484
 51
570.052475
  0
LINE
  5
2DD
100
AcDbEntity
  8
M0
 62
   154
100
AcDbLine
 10
52.770992
 20
213.828003
 11
53.262188
 21
215.629089
  0
LINE
  5
2DE
100
AcDbEntity
  8
M0
 62
   154
100
AcDbLine
 10
55.770992
 20
278.827987
 11
55.320965
 21
276.57785
  0
LINE
  5
2DF
100
AcDbEntity
  8
M0
  6
DIVIDE
 62
     6
100
AcDbLine
 10
27.771315
 20
102.120452
 11
80.771315
 21
102.120452
  0
LINE
  5
2E0
100
AcDbEntity
  8
M0
  6
DIVIDE
 62
     6
100
AcDbLine
 10
80.771315
 20
102.120452
 11
80.771315
 21
167.120452
  0
LINE
  5
2E1
100
AcDbEntity
  8
M0
  6
DIVIDE
 62
     6
100
AcDbLine
 10
80.771315
 20
167.120452
 11
27.771315
 21
167.120452
  0
LINE
  5
2E2
100
AcDbEntity
  8
M0
  6
DIVIDE
 62
     6
100
AcDbLine
 10
27.771315
 20
167.120452
 11
27.771315
 21
102.120452
  0
CIRCLE
  5
2E3
100
AcDbEntity
  8
M0
 62
     6
100
AcDbCircle
 10
37.271315
 20
162.120437
 40
2.5
  0
CIRCLE
  5
2E4
100
AcDbEntity
  8
M0
 62
     6
100
AcDbCircle
 10
70.271315
 20
107.120452
 40
2.5
  0
CIRCLE
  5
2E5
100
AcDbEntity
  8
M0
 62
     6
100
AcDbCircle
 10
70.271315
 20
107.120452
 40
1.249997
  0
CIRCLE
  5
2E6
100
AcDbEntity
  8
M0
 62
     6
100
AcDbCircle
 10
37.271315
 20
162.120437
 40
1.249997
  0
LINE
  5
2E7
100
AcDbEntity
  8
M0
  6
DASHDOT
 62
     6
100
AcDbLine
 10
74.868711
 20
107.120452
 11
65.673902
 21
107.120452
  0
LINE
  5
2E8
100
AcDbEntity
  8
M0
  6
DASHDOT
 62
     6
100
AcDbLine
 10
70.271299
 20
111.717849
 11
70.271315
 21
102.52304
  0
LINE
  5
2E9
100
AcDbEntity
  8
M0
  6
DASHDOT
 62
     6
100
AcDbLine
 10
41.368711
 20
162.120437
 11
33.173902
 21
162.120437
  0
LINE
  5
2EA
100
AcDbEntity
  8
M0
  6
DASHDOT
 62
     6
100
AcDbLine
 10
37.271299
 20
166.217834
 11
37.271315
 21
158.023025
  0
LINE
  5
2EB
100
AcDbEntity
  8
M0
  6
DASHDOT
 62
     6
100
AcDbLine
 10
54.271315
 20
98.126952
 11
54.271315
 21
171.113952
  0
LINE
  5
2EC
100
AcDbEntity
  8
M0
  6
DASHDOT
 62
     6
100
AcDbLine
 10
24.777815
 20
134.620452
 11
83.764814
 21
134.620452
  0
LINE
  5
2ED
100
AcDbEntity
  8
M1
 62
     2
100
AcDbLine
 10
11.764706
 20
11.764706
 11
11.764706
 21
335.294108
  0
LINE
  5
2EE
100
AcDbEntity
  8
M1
 62
     2
100
AcDbLine
 10
11.764706
 20
335.294108
 11
235.294111
 21
335.294108
  0
LINE
  5
2EF
100
AcDbEntity
  8
M1
 62
     2
100
AcDbLine
 10
235.294111
 20
335.294108
 11
235.294111
 21
11.764706
  0
LINE
  5
2F0
100
AcDbEntity
  8
M1
 62
     2
100
AcDbLine
 10
235.294111
 20
11.764706
 11
11.764706
 21
11.764706
  0
LINE
  5
2F1
100
AcDbEntity
  8
M1
 62
     2
100
AcDbLine
 10
235.294111
 20
23.529411
 11
117.647056
 21
23.529411
  0
LINE
  5
2F2
100
AcDbEntity
  8
M1
 62
     2
100
AcDbLine
 10
235.294111
 20
35.294117
 11
117.647056
 21
35.294117
  0
LINE
  5
2F3
100
AcDbEntity
  8
M1
 62
     2
100
AcDbLine
 10
235.294111
 20
47.058822
 11
117.647056
 21
47.058822
  0
LINE
  5
2F4
100
AcDbEntity
  8
M1
 62
     2
100
AcDbLine
 10
117.647056
 20
11.764706
 11
117.647056
 21
47.058822
  0
TEXT
  5
2F5
100
AcDbEntity
  8
M1
 62
     2
100
AcDbText
 10
120.588232
 20
14.705882
 40
5.882353
  1
適　用；
 41
1.0
  7
STANDARD
100
AcDbText
  0
TEXT
  5
2F6
100
AcDbEntity
  8
M1
 62
     2
100
AcDbText
 10
120.588232
 20
38.235293
 40
5.882353
  1
登録名：
 41
1.0
  7
STANDARD
100
AcDbText
  0
TEXT
  5
2F7
100
AcDbEntity
  8
M1
 62
     2
100
AcDbText
 10
148.823525
 20
38.235293
 40
5.882353
  1
ＤＭＸ５ＧＲ００
 41
0.5
  7
STANDARD
100
AcDbText
  0
TEXT
  5
2F8
100
AcDbEntity
  8
M1
 62
     2
100
AcDbText
 10
120.588232
 20
26.470587
 40
5.882353
  1
形　式；
 41
1.0
  7
STANDARD
100
AcDbText
  0
TEXT
  5
2F9
100
AcDbEntity
  8
M1
 62
     2
100
AcDbText
 10
148.823525
 20
26.470587
 40
5.882353
  1
Ｘ５－Ｇ
 41
0.5
  7
STANDARD
100
AcDbText
  0
LINE
  5
2FA
100
AcDbEntity
  8
DN0
100
AcDbLine
 10
42.569342
 20
79.022283
 11
64.051695
 21
79.022283
  0
TEXT
  5
2FB
100
AcDbEntity
  8
DN0
100
AcDbText
 10
43.163459
 20
79.551695
 40
5.294117
  1
せん孔図
 41
0.833333
  7
STANDARD
100
AcDbText
  0
ENDSEC
  0
SECTION
  2
OBJECTS
  0
DICTIONARY
  5
C
100
AcDbDictionary
  3
ACAD_GROUP
350
D
  3
ACAD_MLINESTYLE
350
E
  0
DICTIONARY
  5
D
102
{ACAD_REACTORS
330
C
102
}
100
AcDbDictionary
  0
DICTIONARY
  5
E
102
{ACAD_REACTORS
330
C
102
}
100
AcDbDictionary
  3
STANDARD
350
13
  0
MLINESTYLE
  5
13
102
{ACAD_REACTORS
330
E
102
}
100
AcDbMlineStyle
  2
STANDARD
 70
     0
  3

 62
     0
 51
90.0
 52
90.0
 71
     2
 49
0.5
 62
   256
  6
BYLAYER
 49
-0.5
 62
   256
  6
BYLAYER
  0
ENDSEC
  0
EOF
