  0
SECTION
  2
HEADER
  9
$ACADVER
  1
AC1014
  9
$INSBASE
 10
0.000000
 20
0.000000
 30
0.0
  9
$VIEWCTR
 10
7.531722
 20
4.5
  9
$VIEWSIZE
 40
9.0
  9
$SNAPMODE
 70
     0
  9
$SNAPUNIT
 10
1.0
 20
1.0
  9
$SNAPBASE
 10
0.0
 20
0.0
  9
$SNAPANG
 50
0.0
  9
$SNAPSTYLE
 70
     0
  9
$SNAPISOPAIR
 70
     0
  9
$GRIDMODE
 70
     0
  9
$GRIDUNIT
 10
0.0
 20
0.0
  9
$ORTHOMODE
 70
     0
  9
$REGENMODE
 70
     1
  9
$FILLMODE
 70
     1
  9
$QTEXTMODE
 70
     0
  9
$DRAGMODE
 70
     2
  9
$LTSCALE
  40
     1.000000
  9
$OSMODE
 70
     0
  9
$ATTMODE
 70
     1
  9
$TEXTSIZE
 40
0.2
  9
$TRACEWID
 40
0.05
  9
$TEXTSTYLE
  7
STANDARD
  9
$CELTYPE
  6
BYLAYER
  9
$CECOLOR
 62
   256
  9
$DIMSCALE
 40
1.0
  9
$DIMASZ
 40
0.18
  9
$DIMEXO
 40
0.0625
  9
$DIMDLI
 40
0.38
  9
$DIMRND
 40
0.0
  9
$DIMDLE
 40
0.0
  9
$DIMEXE
 40
0.18
  9
$DIMTP
 40
0.0
  9
$DIMTM
 40
0.0
  9
$DIMTXT
 40
0.18
  9
$DIMCEN
 40
0.09
  9
$DIMTSZ
 40
0.0
  9
$DIMTOL
 70
     0
  9
$DIMLIM
 70
     0
  9
$DIMTIH
 70
     1
  9
$DIMTOH
 70
     1
  9
$DIMSE1
 70
     0
  9
$DIMSE2
 70
     0
  9
$DIMTAD
 70
     0
  9
$DIMZIN
 70
     0
  9
$DIMBLK
  1

  9
$LUNITS
 70
     2
  9
$LUPREC
 70
     4
  9
$AXISMODE
 70
     0
  9
$AXISUNIT
 10
0.0
 20
0.0
  9
$SKETCHINC
 40
0.1
  9
$FILLETRAD
 40
0.0
  9
$AUNITS
 70
     0
  9
$AUPREC
 70
     0
  9
$MENU
  1
ACAD
  9
$ELEVATION
 40
0.0
  9
$THICKNESS
 40
0.0
  9
$VIEWDIR
 10
0.0
 20
0.0
 30
1.0
  9
$LIMCHECK
 70
     0
  9
$BLIPMODE
 70
     1
  9
$CHAMFERA
 40
0.0
  9
$CHAMFERB
 40
0.0
  9
$FASTZOOM
 70
     1
  9
$SKPOLY
 70
     0
  9
$TDCREATE
 40
0000000.0000000000
  9
$TDUPDATE
 40
0000000.0000000000
  9
$TDINDWG
 40
0.0000000000
  9
$TDUSRTIMER
 40
0.0000000000
  9
$USRTIMER
 70
     1
  9
$ANGBASE
 50
0.0
  9
$ANGDIR
 70
     0
  9
$PDMODE
 70
     0
  9
$PDSIZE
 40
0.0
  9
$PLINEWID
 40
0.0
  9
$COORDS
 70
     0
  9
$USERI1
 70
     0
  9
$USERI2
 70
     0
  9
$USERI3
 70
     0
  9
$USERI4
 70
     0
  9
$USERI5
 70
     0
  9
$USERR1
 40
0.0
  9
$USERR2
 40
0.0
  9
$USERR3
 40
0.0
  9
$USERR4
 40
0.0
  9
$USERR5
 40
0.0
  9
$CLAYER
  8
M0
  9
$EXTMIN
 10
11.111111
 20
11.111111
  9
$EXTMAX
 10
222.222228
 20
316.666675
  9
$LIMMIN
 10
0.0
 20
0.0
  9
$LIMMAX
 10
210.0
 20
297.0
  9
$HANDSEED
  5
2F9
  0
ENDSEC
  0
SECTION
  2
CLASSES
  0
ENDSEC
  0
SECTION
  2
TABLES
  0
TABLE
  2
VPORT
  5
8
100
AcDbSymbolTable
 70
     2
  0
VPORT
  5
14
100
AcDbSymbolTableRecord
100
AcDbViewportTableRecord
  2
*ACTIVE
 70
     0
 10
0.0
 20
0.0
 11
1.0
 21
1.0
 12
484.0
 22
297.0
 13
0.0
 23
0.0
 14
1.0
 24
1.0
 15
0.0
 25
0.0
 16
0.0
 26
0.0
 36
1.0
 17
0.0
 27
0.0
 37
0.0
 40
594.0
 41
2.0
 42
50.0
 43
0.0
 44
0.0
 50
0.0
 51
0.0
 71
     0
 72
   100
 73
     1
 74
     1
 75
     0
 76
     0
 77
     0
 78
     0
  0
ENDTAB
  0
TABLE
  2
LTYPE
  5
5
100
AcDbSymbolTable
 70
     5
  0
LTYPE
  5
15
100
AcDbSymbolTableRecord
100
AcDbLinetypeTableRecord
  2
BYBLOCK
 70
     0
  3

 72
    65
 73
     0
 40
0.0
  0
LTYPE
  5
16
100
AcDbSymbolTableRecord
100
AcDbLinetypeTableRecord
  2
BYLAYER
 70
     0
  3

 72
    65
 73
     0
 40
0.0
  0
LTYPE
  5
17
100
AcDbSymbolTableRecord
100
AcDbLinetypeTableRecord
  2
CONTINUOUS
 70
    64
  3
Solid line
 72
    65
 73
     0
 40
0.0
  0
LTYPE
  5
18
100
AcDbSymbolTableRecord
100
AcDbLinetypeTableRecord
  2
DASHED
 70
    64
  3
__ __ __ __ __ __ __ __ __ __ __ __ __ __ __ __
 72
    65
 73
     2
 40
0.75
 49
0.5
 74
     0
 49
-0.25
 74
     0
  0
LTYPE
  5
19
100
AcDbSymbolTableRecord
100
AcDbLinetypeTableRecord
  2
DASHDOT
 70
    64
  3
__ . __ . __ . __ . __ . __ . __ . __ . __ . __
 72
    65
 73
     4
 40
1.0
 49
0.5
 74
     0
 49
-0.25
 74
     0
 49
0.0
 74
     0
 49
-0.25
 74
     0
  0
LTYPE
  5
1A
100
AcDbSymbolTableRecord
100
AcDbLinetypeTableRecord
  2
DIVIDE
 70
    64
  3
____ . . ____ . . ____ . . ____ . . ____ . . __
 72
    65
 73
     6
 40
1.25
 49
0.5
 74
     0
 49
-0.25
 74
     0
 49
0.0
 74
     0
 49
-0.25
 74
     0
 49
0.0
 74
     0
 49
-0.25
 74
     0
  0
LTYPE
  5
1B
100
AcDbSymbolTableRecord
100
AcDbLinetypeTableRecord
  2
DOT
 70
    64
  3
. . . . . . . . . . . . . . . . . . . . . . . .
 72
    65
 73
     2
 40
0.25
 49
0.0
 74
     0
 49
-0.25
 74
     0
  0
ENDTAB
  0
TABLE
  2
LAYER
  5
2
100
AcDbSymbolTable
 70
   102
  0
LAYER
  5
F
100
AcDbSymbolTableRecord
100
AcDbLayerTableRecord
  2
0
 70
     0
 62
     7
  6
CONTINUOUS
  0
LAYER
  5
1C
100
AcDbSymbolTableRecord
100
AcDbLayerTableRecord
  2
DEFPOINTS
 70
     0
 62
     7
  6
CONTINUOUS
  0
LAYER
  5
1D
100
AcDbSymbolTableRecord
100
AcDbLayerTableRecord
  2
M0
 70
     0
 62
     3
  6
CONTINUOUS
  0
LAYER
  5
1E
100
AcDbSymbolTableRecord
100
AcDbLayerTableRecord
  2
M1
 70
     0
 62
     3
  6
CONTINUOUS
  0
LAYER
  5
1F
100
AcDbSymbolTableRecord
100
AcDbLayerTableRecord
  2
DD0
 70
     0
 62
     4
  6
CONTINUOUS
  0
LAYER
  5
20
100
AcDbSymbolTableRecord
100
AcDbLayerTableRecord
  2
DN0
 70
     0
 62
     2
  6
CONTINUOUS
  0
ENDTAB
  0
TABLE
  2
STYLE
  5
3
100
AcDbSymbolTable
 70
     2
  0
STYLE
  5
10
100
AcDbSymbolTableRecord
100
AcDbTextStyleTableRecord
  2
STANDARD
 70
     0
 40
0.0
 41
1.0
 50
0.0
 71
     0
 42
0.2
  3
txt
  4
BIGFONT
  0
ENDTAB
  0
TABLE
  2
VIEW
  5
6
100
AcDbSymbolTable
 70
     0
  0
ENDTAB
  0
TABLE
  2
UCS
  5
7
100
AcDbSymbolTable
 70
     0
  0
ENDTAB
  0
TABLE
  2
APPID
  5
9
100
AcDbSymbolTable
 70
     1
  0
APPID
  5
11
100
AcDbSymbolTableRecord
100
AcDbRegAppTableRecord
  2
ACAD
 70
     0
  0
ENDTAB
  0
TABLE
  2
DIMSTYLE
  5
A
100
AcDbSymbolTable
 70
     2
  0
DIMSTYLE
105
27
100
AcDbSymbolTableRecord
100
AcDbDimStyleTableRecord
  2
STANDARD
 70
     0
  3

  4

  5

  6
_OPEN
  7
_OPEN
 40
1.0
 41
3.333333
 42
1.0
 43
8.0
 44
1.0
 45
0.0
 46
0.0
 47
0.0
 48
0.0
140
3.5
141
0.09
142
0.0
143
0.03937
144
1.0
145
0.0
146
1.0
147
0.6
 71
     0
 72
     0
 73
     1
 74
     1
 75
     0
 76
     0
 77
     3
 78
     8
170
     0
171
     2
172
     0
173
     1
174
     0
175
     0
176
     0
177
     0
178
     0
270
     2
271
     2
272
     4
273
     2
274
     2
340
10
275
     0
280
     0
281
     0
282
     0
283
     1
284
     0
285
     0
286
     0
287
     3
288
     0
  0
DIMSTYLE
105
28
100
AcDbSymbolTableRecord
100
AcDbDimStyleTableRecord
  2
LEADSTYL
 70
     0
  3

  4

  5

  6
_OPEN
  7
_OPEN
 40
1.0
 41
3.333333
 42
0.0625
 43
0.38
 44
0.18
 45
0.0
 46
0.0
 47
0.0
 48
0.0
140
3.5
141
0.09
142
0.0
143
25.4
144
1.0
145
0.0
146
1.0
147
0.6
 71
     0
 72
     0
 73
     1
 74
     1
 75
     0
 76
     0
 77
     0
 78
     0
170
     0
171
     2
172
     0
173
     1
174
     0
175
     0
176
     0
177
     0
178
     0
270
     2
271
     4
272
     4
273
     2
274
     2
340
10
275
     0
280
     0
281
     0
282
     0
283
     1
284
     0
285
     0
286
     0
287
     3
288
     0
  0
ENDTAB
  0
TABLE
  2
BLOCK_RECORD
  5
1
100
AcDbSymbolTable
 70
    17
  0
BLOCK_RECORD
  5
21
100
AcDbSymbolTableRecord
100
AcDbBlockTableRecord
  2
*MODEL_SPACE
  0
BLOCK_RECORD
  5
24
100
AcDbSymbolTableRecord
100
AcDbBlockTableRecord
  2
*PAPER_SPACE
  0
BLOCK_RECORD
  5
29
100
AcDbSymbolTableRecord
100
AcDbBlockTableRecord
  2
_NONE
  0
BLOCK_RECORD
  5
2D
100
AcDbSymbolTableRecord
100
AcDbBlockTableRecord
  2
_OPEN
  0
BLOCK_RECORD
  5
33
100
AcDbSymbolTableRecord
100
AcDbBlockTableRecord
  2
_CLOSED
  0
BLOCK_RECORD
  5
3A
100
AcDbSymbolTableRecord
100
AcDbBlockTableRecord
  2
_ORIGIN
  0
BLOCK_RECORD
  5
3F
100
AcDbSymbolTableRecord
100
AcDbBlockTableRecord
  2
_DOT
  0
BLOCK_RECORD
  5
47
100
AcDbSymbolTableRecord
100
AcDbBlockTableRecord
  2
_OBLIQUE
  0
BLOCK_RECORD
  5
4B
100
AcDbSymbolTableRecord
100
AcDbBlockTableRecord
  2
DIMS0
  0
BLOCK_RECORD
  5
57
100
AcDbSymbolTableRecord
100
AcDbBlockTableRecord
  2
DIMS1
  0
BLOCK_RECORD
  5
62
100
AcDbSymbolTableRecord
100
AcDbBlockTableRecord
  2
DIMS2
  0
BLOCK_RECORD
  5
6E
100
AcDbSymbolTableRecord
100
AcDbBlockTableRecord
  2
DIMS3
  0
BLOCK_RECORD
  5
7A
100
AcDbSymbolTableRecord
100
AcDbBlockTableRecord
  2
DIMS4
  0
BLOCK_RECORD
  5
86
100
AcDbSymbolTableRecord
100
AcDbBlockTableRecord
  2
DIMS5
  0
BLOCK_RECORD
  5
92
100
AcDbSymbolTableRecord
100
AcDbBlockTableRecord
  2
DIMS6
  0
BLOCK_RECORD
  5
9B
100
AcDbSymbolTableRecord
100
AcDbBlockTableRecord
  2
DIMS7
  0
BLOCK_RECORD
  5
A7
100
AcDbSymbolTableRecord
100
AcDbBlockTableRecord
  2
DIMS8
  0
BLOCK_RECORD
  5
B3
100
AcDbSymbolTableRecord
100
AcDbBlockTableRecord
  2
DIMS9
  0
BLOCK_RECORD
  5
BA
100
AcDbSymbolTableRecord
100
AcDbBlockTableRecord
  2
DIMS10
  0
ENDTAB
  0
ENDSEC
  0
SECTION
  2
BLOCKS
  0
BLOCK
  5
22
100
AcDbEntity
  8
0
100
AcDbBlockBegin
  2
*MODEL_SPACE
 70
     0
 10
0.0
 20
0.0
 30
0.0
  3
*MODEL_SPACE
  1

  0
ENDBLK
  5
23
100
AcDbEntity
  8
0
100
AcDbBlockEnd
  0
BLOCK
  5
25
100
AcDbEntity
 67
     1
  8
0
100
AcDbBlockBegin
  2
*PAPER_SPACE
 70
     0
 10
0.0
 20
0.0
 30
0.0
  3
*PAPER_SPACE
  1

  0
ENDBLK
  5
26
100
AcDbEntity
 67
     1
  8
0
100
AcDbBlockEnd
  0
BLOCK
  5
2A
100
AcDbEntity
  8
0
100
AcDbBlockBegin
  2
_NONE
 70
     0
 10
0.0
 20
0.0
  0
CIRCLE
  5
2B
100
AcDbEntity
  8
0
 62
     0
100
AcDbCircle
 10
0.0
 20
0.0
 40
0.25
  0
ENDBLK
  5
2C
100
AcDbEntity
  8
0
100
AcDbBlockEnd
  0
BLOCK
  5
2E
100
AcDbEntity
  8
0
100
AcDbBlockBegin
  2
_OPEN
 70
     0
 10
0.0
 20
0.0
  0
LINE
  5
2F
100
AcDbEntity
  8
0
 62
     0
100
AcDbLine
 10
-0.965926
 20
0.258819
 11
0.0
 21
0.0
  0
LINE
  5
30
100
AcDbEntity
  8
0
 62
     0
100
AcDbLine
 10
0.0
 20
0.0
 11
-0.965926
 21
-0.258819
  0
LINE
  5
31
100
AcDbEntity
  8
0
 62
     0
100
AcDbLine
 10
0.0
 20
0.0
 11
-1.0
 21
0.0
  0
ENDBLK
  5
32
100
AcDbEntity
  8
0
100
AcDbBlockEnd
  0
BLOCK
  5
34
100
AcDbEntity
  8
0
100
AcDbBlockBegin
  2
_CLOSED
 70
     0
 10
0.0
 20
0.0
  0
LINE
  5
35
100
AcDbEntity
  8
0
 62
     0
100
AcDbLine
 10
-0.965926
 20
0.258819
 11
0.0
 21
0.0
  0
LINE
  5
36
100
AcDbEntity
  8
0
 62
     0
100
AcDbLine
 10
0.0
 20
0.0
 11
-0.965926
 21
-0.258819
  0
LINE
  5
37
100
AcDbEntity
  8
0
 62
     0
100
AcDbLine
 10
-0.965926
 20
0.258819
 11
-0.965926
 21
-0.258819
  0
LINE
  5
38
100
AcDbEntity
  8
0
 62
     0
100
AcDbLine
 10
0.0
 20
0.0
 11
-1.0
 21
0.0
  0
ENDBLK
  5
39
100
AcDbEntity
  8
0
100
AcDbBlockEnd
  0
BLOCK
  5
3B
100
AcDbEntity
  8
0
100
AcDbBlockBegin
  2
_ORIGIN
 70
     0
 10
0.0
 20
0.0
  0
CIRCLE
  5
3C
100
AcDbEntity
  8
0
 62
     0
100
AcDbCircle
 10
0.0
 20
0.0
 40
0.5
  0
LINE
  5
3D
100
AcDbEntity
  8
0
 62
     0
100
AcDbLine
 10
0.0
 20
0.0
 11
-1.0
 21
0.0
  0
ENDBLK
  5
3E
100
AcDbEntity
  8
0
100
AcDbBlockEnd
  0
BLOCK
  5
40
100
AcDbEntity
  8
0
100
AcDbBlockBegin
  2
_DOT
 70
     0
 10
0.0
 20
0.0
  0
POLYLINE
  5
41
100
AcDbEntity
  8
0
 62
     0
100
AcDb2dPolyline
 66
     1
 70
     1
 40
0.5
 41
0.5
  0
VERTEX
  5
42
100
AcDbEntity
  8
0
 62
     0
100
AcDbVertex
100
AcDb2dVertex
 10
-0.25
 20
0.0
 42
1.0
  0
VERTEX
  5
43
100
AcDbEntity
  8
0
 62
     0
100
AcDbVertex
100
AcDb2dVertex
 10
0.25
 20
0.0
 42
1.0
  0
SEQEND
  5
44
100
AcDbEntity
  8
0
 62
     0
  0
LINE
  5
45
100
AcDbEntity
  8
0
 62
     0
100
AcDbLine
 10
-0.5
 20
0.0
 11
-1.0
 21
0.0
  0
ENDBLK
  5
46
100
AcDbEntity
  8
0
100
AcDbBlockEnd
  0
BLOCK
  5
48
100
AcDbEntity
  8
0
100
AcDbBlockBegin
  2
_OBLIQUE
 70
     0
 10
0.0
 20
0.0
  0
LINE
  5
49
100
AcDbEntity
  8
0
 62
     0
100
AcDbLine
 10
-0.353553
 20
-0.353553
 11
0.353553
 21
0.353553
  0
ENDBLK
  5
4A
100
AcDbEntity
  8
0
100
AcDbBlockEnd
  0
BLOCK
  5
4C
100
AcDbEntity
  8
DD0
100
AcDbBlockBegin
  2
DIMS0
 70
     0
 10
0.0
 20
0.0
  0
LINE
  5
4D
100
AcDbEntity
  8
DD0
100
AcDbLine
 10
65.172108
 20
243.089013
 11
79.112356
 21
243.089013
  0
LINE
  5
4E
100
AcDbEntity
  8
DD0
100
AcDbLine
 10
56.671653
 20
178.393373
 11
79.112356
 21
178.393373
  0
LINE
  5
4F
100
AcDbEntity
  8
DD0
100
AcDbLine
 10
78.863975
 20
239.86926
 11
78.001245
 21
243.089013
  0
LINE
  5
50
100
AcDbEntity
  8
DD0
100
AcDbLine
 10
78.001245
 20
243.089013
 11
77.138515
 21
239.86926
  0
LINE
  5
51
100
AcDbEntity
  8
DD0
100
AcDbLine
 10
77.138515
 20
181.613126
 11
78.001245
 21
178.393373
  0
LINE
  5
52
100
AcDbEntity
  8
DD0
100
AcDbLine
 10
78.001245
 20
178.393373
 11
78.863975
 21
181.613126
  0
LINE
  5
53
100
AcDbEntity
  8
DD0
100
AcDbLine
 10
78.001245
 20
243.089013
 11
78.001245
 21
178.393373
  0
TEXT
  5
54
100
AcDbEntity
  8
DD0
100
AcDbText
 10
77.33458
 20
207.527312
 40
3.5
  1
６５
 50
90.000003
 41
0.833333
  7
STANDARD
100
AcDbText
  0
ENDBLK
  5
55
100
AcDbEntity
  8
DD0
100
AcDbBlockEnd
  0
BLOCK
  5
58
100
AcDbEntity
  8
DD0
100
AcDbBlockBegin
  2
DIMS1
 70
     0
 10
0.0
 20
0.0
  0
LINE
  5
59
100
AcDbEntity
  8
DD0
100
AcDbLine
 10
53.171651
 20
171.893349
 11
79.112356
 21
171.893349
  0
LINE
  5
5A
100
AcDbEntity
  8
DD0
100
AcDbLine
 10
77.138515
 20
181.613126
 11
78.001245
 21
178.393373
  0
LINE
  5
5B
100
AcDbEntity
  8
DD0
100
AcDbLine
 10
78.001245
 20
178.393373
 11
78.863975
 21
181.613126
  0
LINE
  5
5C
100
AcDbEntity
  8
DD0
100
AcDbLine
 10
78.863975
 20
168.673596
 11
78.001245
 21
171.893349
  0
LINE
  5
5D
100
AcDbEntity
  8
DD0
100
AcDbLine
 10
78.001245
 20
171.893349
 11
77.138515
 21
168.673596
  0
LINE
  5
5E
100
AcDbEntity
  8
DD0
100
AcDbLine
 10
78.001245
 20
182.06004
 11
78.001245
 21
156.61557
  0
TEXT
  5
5F
100
AcDbEntity
  8
DD0
100
AcDbText
 10
77.33458
 20
157.512798
 40
3.5
  1
６．５
 50
90.000003
 41
0.833333
  7
STANDARD
100
AcDbText
  0
ENDBLK
  5
60
100
AcDbEntity
  8
DD0
100
AcDbBlockEnd
  0
BLOCK
  5
63
100
AcDbEntity
  8
DD0
100
AcDbBlockBegin
  2
DIMS2
 70
     0
 10
0.0
 20
0.0
  0
LINE
  5
64
100
AcDbEntity
  8
DD0
100
AcDbLine
 10
28.560997
 20
239.70012
 11
28.560997
 21
256.83981
  0
LINE
  5
65
100
AcDbEntity
  8
DD0
100
AcDbLine
 10
64.560998
 20
243.70011
 11
64.560998
 21
256.83981
  0
LINE
  5
66
100
AcDbEntity
  8
DD0
100
AcDbLine
 10
31.78075
 20
256.591429
 11
28.560997
 21
255.728699
  0
LINE
  5
67
100
AcDbEntity
  8
DD0
100
AcDbLine
 10
28.560997
 20
255.728699
 11
31.78075
 21
254.865969
  0
LINE
  5
68
100
AcDbEntity
  8
DD0
100
AcDbLine
 10
61.341245
 20
254.865969
 11
64.560998
 21
255.728699
  0
LINE
  5
69
100
AcDbEntity
  8
DD0
100
AcDbLine
 10
64.560998
 20
255.728699
 11
61.341245
 21
256.591429
  0
LINE
  5
6A
100
AcDbEntity
  8
DD0
100
AcDbLine
 10
28.560997
 20
255.728699
 11
64.560998
 21
255.728699
  0
TEXT
  5
6B
100
AcDbEntity
  8
DD0
100
AcDbText
 10
43.347107
 20
256.395372
 40
3.5
  1
３６
 41
0.833333
  7
STANDARD
100
AcDbText
  0
ENDBLK
  5
6C
100
AcDbEntity
  8
DD0
100
AcDbBlockEnd
  0
BLOCK
  5
6F
100
AcDbEntity
  8
DD0
100
AcDbBlockBegin
  2
DIMS3
 70
     0
 10
0.0
 20
0.0
  0
LINE
  5
70
100
AcDbEntity
  8
DD0
100
AcDbLine
 10
194.786348
 20
177.478202
 11
194.786348
 21
162.78375
  0
LINE
  5
71
100
AcDbEntity
  8
DD0
100
AcDbLine
 10
211.386368
 20
170.778016
 11
211.386368
 21
162.78375
  0
LINE
  5
72
100
AcDbEntity
  8
DD0
100
AcDbLine
 10
198.006101
 20
164.757591
 11
194.786348
 21
163.894861
  0
LINE
  5
73
100
AcDbEntity
  8
DD0
100
AcDbLine
 10
194.786348
 20
163.894861
 11
198.006101
 21
163.032131
  0
LINE
  5
74
100
AcDbEntity
  8
DD0
100
AcDbLine
 10
208.166615
 20
163.032131
 11
211.386368
 21
163.894861
  0
LINE
  5
75
100
AcDbEntity
  8
DD0
100
AcDbLine
 10
211.386368
 20
163.894861
 11
208.166615
 21
164.757591
  0
LINE
  5
76
100
AcDbEntity
  8
DD0
100
AcDbLine
 10
194.786348
 20
163.894861
 11
211.386368
 21
163.894861
  0
TEXT
  5
77
100
AcDbEntity
  8
DD0
100
AcDbText
 10
196.372459
 20
164.561535
 40
3.5
  1
１７．５
 41
0.833333
  7
STANDARD
100
AcDbText
  0
ENDBLK
  5
78
100
AcDbEntity
  8
DD0
100
AcDbBlockEnd
  0
BLOCK
  5
7B
100
AcDbEntity
  8
DD0
100
AcDbBlockBegin
  2
DIMS4
 70
     0
 10
0.0
 20
0.0
  0
LINE
  5
7C
100
AcDbEntity
  8
DD0
100
AcDbLine
 10
107.386359
 20
226.499691
 11
107.386359
 21
256.83981
  0
LINE
  5
7D
100
AcDbEntity
  8
DD0
100
AcDbLine
 10
211.086364
 20
243.700314
 11
211.086364
 21
256.83981
  0
LINE
  5
7E
100
AcDbEntity
  8
DD0
100
AcDbLine
 10
110.606112
 20
256.591429
 11
107.386359
 21
255.728699
  0
LINE
  5
7F
100
AcDbEntity
  8
DD0
100
AcDbLine
 10
107.386359
 20
255.728699
 11
110.606112
 21
254.865969
  0
LINE
  5
80
100
AcDbEntity
  8
DD0
100
AcDbLine
 10
207.866611
 20
254.865969
 11
211.086364
 21
255.728699
  0
LINE
  5
81
100
AcDbEntity
  8
DD0
100
AcDbLine
 10
211.086364
 20
255.728699
 11
207.866611
 21
256.591429
  0
LINE
  5
82
100
AcDbEntity
  8
DD0
100
AcDbLine
 10
107.386359
 20
255.728699
 11
211.086364
 21
255.728699
  0
TEXT
  5
83
100
AcDbEntity
  8
DD0
100
AcDbText
 10
154.272458
 20
256.395372
 40
3.5
  1
１０５
 41
0.833333
  7
STANDARD
100
AcDbText
  0
ENDBLK
  5
84
100
AcDbEntity
  8
DD0
100
AcDbBlockEnd
  0
BLOCK
  5
87
100
AcDbEntity
  8
DD0
100
AcDbBlockBegin
  2
DIMS5
 70
     0
 10
0.0
 20
0.0
  0
LINE
  5
88
100
AcDbEntity
  8
DD0
100
AcDbLine
 10
97.387232
 20
182.385733
 11
97.387232
 21
163.329116
  0
LINE
  5
89
100
AcDbEntity
  8
DD0
100
AcDbLine
 10
107.386359
 20
194.678706
 11
107.386359
 21
163.329116
  0
LINE
  5
8A
100
AcDbEntity
  8
DD0
100
AcDbLine
 10
100.606984
 20
165.302957
 11
97.387232
 21
164.440227
  0
LINE
  5
8B
100
AcDbEntity
  8
DD0
100
AcDbLine
 10
97.387232
 20
164.440227
 11
100.606984
 21
163.577497
  0
LINE
  5
8C
100
AcDbEntity
  8
DD0
100
AcDbLine
 10
104.166606
 20
163.577497
 11
107.386359
 21
164.440227
  0
LINE
  5
8D
100
AcDbEntity
  8
DD0
100
AcDbLine
 10
107.386359
 20
164.440227
 11
104.166606
 21
165.302957
  0
LINE
  5
8E
100
AcDbEntity
  8
DD0
100
AcDbLine
 10
97.387232
 20
164.440227
 11
107.386359
 21
164.440227
  0
TEXT
  5
8F
100
AcDbEntity
  8
DD0
100
AcDbText
 10
95.672908
 20
160.051342
 40
3.5
  1
最小１０
 41
0.833333
  7
STANDARD
100
AcDbText
  0
ENDBLK
  5
90
100
AcDbEntity
  8
DD0
100
AcDbBlockEnd
  0
BLOCK
  5
93
100
AcDbEntity
  8
DD0
100
AcDbBlockBegin
  2
DIMS6
 70
     0
 10
0.0
 20
0.0
  0
LINE
  5
94
100
AcDbEntity
  8
DD0
100
AcDbLine
 10
104.386345
 20
214.200309
 11
104.386345
 21
256.83981
  0
LINE
  5
95
100
AcDbEntity
  8
DD0
100
AcDbLine
 10
101.166592
 20
254.865969
 11
104.386345
 21
255.728699
  0
LINE
  5
96
100
AcDbEntity
  8
DD0
100
AcDbLine
 10
104.386345
 20
255.728699
 11
101.166592
 21
256.591429
  0
LINE
  5
97
100
AcDbEntity
  8
DD0
100
AcDbLine
 10
107.386359
 20
255.728699
 11
100.719678
 21
255.728699
  0
TEXT
  5
98
100
AcDbEntity
  8
DD0
100
AcDbText
 10
104.422468
 20
256.395372
 40
3.5
  1
３
 41
0.833333
  7
STANDARD
100
AcDbText
  0
ENDBLK
  5
99
100
AcDbEntity
  8
DD0
100
AcDbBlockEnd
  0
BLOCK
  5
9C
100
AcDbEntity
  8
DD0
100
AcDbBlockBegin
  2
DIMS7
 70
     0
 10
0.0
 20
0.0
  0
LINE
  5
9D
100
AcDbEntity
  8
DD0
100
AcDbLine
 10
38.468951
 20
132.766583
 11
79.112356
 21
132.766583
  0
LINE
  5
9E
100
AcDbEntity
  8
DD0
100
AcDbLine
 10
64.873511
 20
78.766626
 11
79.112356
 21
78.766626
  0
LINE
  5
9F
100
AcDbEntity
  8
DD0
100
AcDbLine
 10
78.863975
 20
129.54683
 11
78.001245
 21
132.766583
  0
LINE
  5
A0
100
AcDbEntity
  8
DD0
100
AcDbLine
 10
78.001245
 20
132.766583
 11
77.138515
 21
129.54683
  0
LINE
  5
A1
100
AcDbEntity
  8
DD0
100
AcDbLine
 10
77.138515
 20
81.986379
 11
78.001245
 21
78.766626
  0
LINE
  5
A2
100
AcDbEntity
  8
DD0
100
AcDbLine
 10
78.001245
 20
78.766626
 11
78.863975
 21
81.986379
  0
LINE
  5
A3
100
AcDbEntity
  8
DD0
100
AcDbLine
 10
78.001245
 20
132.766583
 11
78.001245
 21
78.766626
  0
TEXT
  5
A4
100
AcDbEntity
  8
DD0
100
AcDbText
 10
77.33458
 20
102.552715
 40
3.5
  1
５４
 50
90.000003
 41
0.833333
  7
STANDARD
100
AcDbText
  0
ENDBLK
  5
A5
100
AcDbEntity
  8
DD0
100
AcDbBlockEnd
  0
BLOCK
  5
A8
100
AcDbEntity
  8
DD0
100
AcDbBlockBegin
  2
DIMS8
 70
     0
 10
0.0
 20
0.0
  0
LINE
  5
A9
100
AcDbEntity
  8
DD0
100
AcDbLine
 10
33.061516
 20
137.948002
 11
33.061516
 21
152.614631
  0
LINE
  5
AA
100
AcDbEntity
  8
DD0
100
AcDbLine
 10
60.061028
 20
84.95927
 11
60.061028
 21
152.614631
  0
LINE
  5
AB
100
AcDbEntity
  8
DD0
100
AcDbLine
 10
36.281269
 20
152.366251
 11
33.061516
 21
151.50352
  0
LINE
  5
AC
100
AcDbEntity
  8
DD0
100
AcDbLine
 10
33.061516
 20
151.50352
 11
36.281269
 21
150.64079
  0
LINE
  5
AD
100
AcDbEntity
  8
DD0
100
AcDbLine
 10
56.841275
 20
150.64079
 11
60.061028
 21
151.50352
  0
LINE
  5
AE
100
AcDbEntity
  8
DD0
100
AcDbLine
 10
60.061028
 20
151.50352
 11
56.841275
 21
152.366251
  0
LINE
  5
AF
100
AcDbEntity
  8
DD0
100
AcDbLine
 10
33.061516
 20
151.50352
 11
60.061028
 21
151.50352
  0
TEXT
  5
B0
100
AcDbEntity
  8
DD0
100
AcDbText
 10
43.347383
 20
152.170194
 40
3.5
  1
２７
 41
0.833333
  7
STANDARD
100
AcDbText
  0
ENDBLK
  5
B1
100
AcDbEntity
  8
DD0
100
AcDbBlockEnd
  0
BLOCK
  5
B4
100
AcDbEntity
  8
DD0
100
AcDbBlockBegin
  2
DIMS9
 70
     0
 10
0.0
 20
0.0
  0
LINE
  5
B5
100
AcDbEntity
  8
DD0
100
AcDbLine
 10
63.679023
 20
74.848939
 11
61.389425
 21
77.27151
  0
LINE
  5
B6
100
AcDbEntity
  8
DD0
100
AcDbLine
 10
61.389425
 20
77.27151
 11
62.160989
 21
74.028703
  0
LINE
  5
B7
100
AcDbEntity
  8
DD0
100
AcDbLine
 10
61.389425
 20
77.27151
 11
67.348906
 21
66.242131
  0
ENDBLK
  5
B8
100
AcDbEntity
  8
DD0
100
AcDbBlockEnd
  0
BLOCK
  5
BB
100
AcDbEntity
  8
DD0
100
AcDbBlockBegin
  2
DIMS10
 70
     0
 10
0.0
 20
0.0
  0
TEXT
  5
BC
100
AcDbEntity
  8
DD0
100
AcDbText
 10
69.192305
 20
64.05377
 40
3.5
  1
２－Ｍ４ねじ穴
 41
0.833333
  7
STANDARD
100
AcDbText
  0
ENDBLK
  5
BD
100
AcDbEntity
  8
DD0
100
AcDbBlockEnd
  0
ENDSEC
  0
SECTION
  2
ENTITIES
  0
INSERT
  5
56
100
AcDbEntity
  8
DD0
100
AcDbBlockReference
  2
DIMS0
 10
0.0
 20
0.0
  0
INSERT
  5
61
100
AcDbEntity
  8
DD0
100
AcDbBlockReference
  2
DIMS1
 10
0.0
 20
0.0
  0
INSERT
  5
6D
100
AcDbEntity
  8
DD0
100
AcDbBlockReference
  2
DIMS2
 10
0.0
 20
0.0
  0
INSERT
  5
79
100
AcDbEntity
  8
DD0
100
AcDbBlockReference
  2
DIMS3
 10
0.0
 20
0.0
  0
INSERT
  5
85
100
AcDbEntity
  8
DD0
100
AcDbBlockReference
  2
DIMS4
 10
0.0
 20
0.0
  0
INSERT
  5
91
100
AcDbEntity
  8
DD0
100
AcDbBlockReference
  2
DIMS5
 10
0.0
 20
0.0
  0
INSERT
  5
9A
100
AcDbEntity
  8
DD0
100
AcDbBlockReference
  2
DIMS6
 10
0.0
 20
0.0
  0
INSERT
  5
A6
100
AcDbEntity
  8
DD0
100
AcDbBlockReference
  2
DIMS7
 10
0.0
 20
0.0
  0
INSERT
  5
B2
100
AcDbEntity
  8
DD0
100
AcDbBlockReference
  2
DIMS8
 10
0.0
 20
0.0
  0
INSERT
  5
B9
100
AcDbEntity
  8
DD0
100
AcDbBlockReference
  2
DIMS9
 10
0.0
 20
0.0
  0
INSERT
  5
BE
100
AcDbEntity
  8
DD0
100
AcDbBlockReference
  2
DIMS10
 10
0.0
 20
0.0
  0
LINE
  5
BF
100
AcDbEntity
  8
M0
100
AcDbLine
 10
29.060982
 20
178.08934
 11
30.310967
 21
178.08934
  0
LINE
  5
C0
100
AcDbEntity
  8
M0
100
AcDbLine
 10
64.560982
 20
182.589325
 11
64.560982
 21
210.58934
  0
LINE
  5
C1
100
AcDbEntity
  8
M0
100
AcDbLine
 10
28.560982
 20
210.58934
 11
28.560982
 21
178.58934
  0
LINE
  5
C2
100
AcDbEntity
  8
M0
100
AcDbLine
 10
32.060982
 20
204.789337
 11
39.510979
 21
204.789337
  0
LINE
  5
C3
100
AcDbEntity
  8
M0
100
AcDbLine
 10
62.060982
 20
183.08934
 11
62.060982
 21
203.789337
  0
LINE
  5
C4
100
AcDbEntity
  8
M0
100
AcDbLine
 10
62.560982
 20
182.58934
 11
64.060982
 21
182.58934
  0
ARC
  5
C5
100
AcDbEntity
  8
M0
100
AcDbCircle
 10
62.560982
 20
183.08934
 40
0.5
100
AcDbArc
 50
180.0
 51
269.998251
  0
ARC
  5
C6
100
AcDbEntity
  8
M0
100
AcDbCircle
 10
64.060982
 20
183.08934
 40
0.5
100
AcDbArc
 50
269.998251
 51
360.0
  0
LINE
  5
C7
100
AcDbEntity
  8
M0
100
AcDbLine
 10
31.060982
 20
181.089325
 11
31.060982
 21
203.789337
  0
LINE
  5
C8
100
AcDbEntity
  8
M0
100
AcDbLine
 10
29.060982
 20
180.58934
 11
30.560982
 21
180.58934
  0
ARC
  5
C9
100
AcDbEntity
  8
M0
100
AcDbCircle
 10
29.060982
 20
181.08934
 40
0.5
100
AcDbArc
 50
180.0
 51
270.0
  0
ARC
  5
CA
100
AcDbEntity
  8
M0
100
AcDbCircle
 10
30.560982
 20
181.08934
 40
0.5
100
AcDbArc
 50
270.0
 51
360.0
  0
LINE
  5
CB
100
AcDbEntity
  8
M0
100
AcDbLine
 10
30.61097
 20
180.58934
 11
30.61097
 21
178.389328
  0
LINE
  5
CC
100
AcDbEntity
  8
M0
100
AcDbLine
 10
32.61097
 20
186.08934
 11
40.510979
 21
186.08934
  0
LINE
  5
CD
100
AcDbEntity
  8
M0
100
AcDbLine
 10
32.61097
 20
196.08934
 11
40.510979
 21
196.08934
  0
LINE
  5
CE
100
AcDbEntity
  8
M0
100
AcDbLine
 10
38.510964
 20
186.08934
 11
38.510964
 21
178.389328
  0
LINE
  5
CF
100
AcDbEntity
  8
M0
100
AcDbLine
 10
50.510979
 20
203.789337
 11
50.510979
 21
181.08934
  0
LINE
  5
D0
100
AcDbEntity
  8
M0
100
AcDbLine
 10
42.61097
 20
203.789337
 11
42.61097
 21
181.08934
  0
LINE
  5
D1
100
AcDbEntity
  8
M0
100
AcDbLine
 10
40.510979
 20
203.789337
 11
40.510979
 21
181.08934
  0
LINE
  5
D2
100
AcDbEntity
  8
M0
100
AcDbLine
 10
32.61097
 20
203.789337
 11
32.61097
 21
185.58934
  0
LINE
  5
D3
100
AcDbEntity
  8
M0
100
AcDbLine
 10
60.510979
 20
203.789337
 11
60.510979
 21
185.589325
  0
LINE
  5
D4
100
AcDbEntity
  8
M0
100
AcDbLine
 10
52.61097
 20
203.789337
 11
52.61097
 21
181.08934
  0
LINE
  5
D5
100
AcDbEntity
  8
M0
100
AcDbLine
 10
51.010979
 20
180.58934
 11
52.11097
 21
180.58934
  0
LINE
  5
D6
100
AcDbEntity
  8
M0
100
AcDbLine
 10
41.010979
 20
180.58934
 11
42.11097
 21
180.58934
  0
LINE
  5
D7
100
AcDbEntity
  8
M0
100
AcDbLine
 10
42.61097
 20
186.08934
 11
50.510979
 21
186.08934
  0
LINE
  5
D8
100
AcDbEntity
  8
M0
100
AcDbLine
 10
52.61097
 20
186.08934
 11
60.510979
 21
186.08934
  0
LINE
  5
D9
100
AcDbEntity
  8
M0
100
AcDbLine
 10
53.61097
 20
204.789337
 11
61.060982
 21
204.789337
  0
LINE
  5
DA
100
AcDbEntity
  8
M0
100
AcDbLine
 10
43.61097
 20
204.789337
 11
49.510979
 21
204.789337
  0
ARC
  5
DB
100
AcDbEntity
  8
M0
100
AcDbCircle
 10
32.060982
 20
203.789337
 40
1.0
100
AcDbArc
 50
90.0
 51
180.0
  0
ARC
  5
DC
100
AcDbEntity
  8
M0
100
AcDbCircle
 10
39.510979
 20
203.789337
 40
1.0
100
AcDbArc
 50
0.0
 51
90.0
  0
ARC
  5
DD
100
AcDbEntity
  8
M0
100
AcDbCircle
 10
49.510979
 20
203.789337
 40
1.0
100
AcDbArc
 50
0.0
 51
90.0
  0
ARC
  5
DE
100
AcDbEntity
  8
M0
100
AcDbCircle
 10
43.61097
 20
203.789337
 40
1.0
100
AcDbArc
 50
90.0
 51
180.0
  0
ARC
  5
DF
100
AcDbEntity
  8
M0
100
AcDbCircle
 10
61.060982
 20
203.789337
 40
1.0
100
AcDbArc
 50
0.0
 51
90.0
  0
ARC
  5
E0
100
AcDbEntity
  8
M0
100
AcDbCircle
 10
53.61097
 20
203.789337
 40
1.0
100
AcDbArc
 50
90.0
 51
180.0
  0
ARC
  5
E1
100
AcDbEntity
  8
M0
100
AcDbCircle
 10
29.060982
 20
178.58934
 40
0.5
100
AcDbArc
 50
179.999964
 51
270.0
  0
LINE
  5
E2
100
AcDbEntity
  8
M0
100
AcDbLine
 10
52.560982
 20
180.871414
 11
52.560982
 21
179.08934
  0
LINE
  5
E3
100
AcDbEntity
  8
M0
100
AcDbLine
 10
41.060982
 20
180.58934
 11
41.060982
 21
178.58934
  0
LINE
  5
E4
100
AcDbEntity
  8
M0
100
AcDbLine
 10
53.060982
 20
178.58934
 11
60.560982
 21
178.58934
  0
ARC
  5
E5
100
AcDbEntity
  8
M0
100
AcDbCircle
 10
53.060982
 20
179.08934
 40
0.5
100
AcDbArc
 50
179.999966
 51
269.998251
  0
ARC
  5
E6
100
AcDbEntity
  8
M0
100
AcDbCircle
 10
60.560982
 20
182.58934
 40
4.0
100
AcDbArc
 50
269.999781
 51
360.0
  0
LINE
  5
E7
100
AcDbEntity
  8
M0
100
AcDbLine
 10
55.060982
 20
186.08934
 11
55.060982
 21
178.58934
  0
LINE
  5
E8
100
AcDbEntity
  8
M0
100
AcDbLine
 10
38.810952
 20
178.08934
 11
40.560982
 21
178.08934
  0
ARC
  5
E9
100
AcDbEntity
  8
M0
100
AcDbCircle
 10
30.310967
 20
178.389328
 40
0.299999
100
AcDbArc
 50
270.0
 51
360.0
  0
ARC
  5
EA
100
AcDbEntity
  8
M0
100
AcDbCircle
 10
38.810952
 20
178.389328
 40
0.299999
100
AcDbArc
 50
179.999954
 51
270.0
  0
ARC
  5
EB
100
AcDbEntity
  8
M0
100
AcDbCircle
 10
40.560982
 20
178.58934
 40
0.5
100
AcDbArc
 50
270.0
 51
360.0
  0
LINE
  5
EC
100
AcDbEntity
  8
M0
100
AcDbLine
 10
42.61097
 20
184.08934
 11
50.510979
 21
184.08934
  0
LINE
  5
ED
100
AcDbEntity
  8
M0
100
AcDbLine
 10
42.61097
 20
182.08934
 11
44.585961
 21
184.08934
  0
ARC
  5
EE
100
AcDbEntity
  8
M0
100
AcDbCircle
 10
41.010979
 20
181.08934
 40
0.5
100
AcDbArc
 50
180.0
 51
270.0
  0
ARC
  5
EF
100
AcDbEntity
  8
M0
100
AcDbCircle
 10
42.11097
 20
181.08934
 40
0.5
100
AcDbArc
 50
270.0
 51
360.0
  0
ARC
  5
F0
100
AcDbEntity
  8
M0
100
AcDbCircle
 10
51.010979
 20
181.08934
 40
0.5
100
AcDbArc
 50
180.0
 51
269.998251
  0
ARC
  5
F1
100
AcDbEntity
  8
M0
100
AcDbCircle
 10
52.11097
 20
181.08934
 40
0.5
100
AcDbArc
 50
269.998251
 51
360.0
  0
LINE
  5
F2
100
AcDbEntity
  8
M0
100
AcDbLine
 10
62.560982
 20
190.789337
 11
64.060982
 21
190.789337
  0
LINE
  5
F3
100
AcDbEntity
  8
M0
100
AcDbLine
 10
29.060982
 20
190.789337
 11
30.560982
 21
190.789337
  0
ARC
  5
F4
100
AcDbEntity
  8
M0
100
AcDbCircle
 10
29.060982
 20
191.289337
 40
0.5
100
AcDbArc
 50
180.0
 51
270.0
  0
ARC
  5
F5
100
AcDbEntity
  8
M0
100
AcDbCircle
 10
62.560982
 20
191.289337
 40
0.5
100
AcDbArc
 50
180.0
 51
269.998251
  0
ARC
  5
F6
100
AcDbEntity
  8
M0
100
AcDbCircle
 10
30.560982
 20
191.289337
 40
0.5
100
AcDbArc
 50
270.0
 51
360.0
  0
ARC
  5
F7
100
AcDbEntity
  8
M0
100
AcDbCircle
 10
64.060982
 20
191.289337
 40
0.5
100
AcDbArc
 50
269.998251
 51
360.0
  0
LINE
  5
F8
100
AcDbEntity
  8
M0
100
AcDbLine
 10
31.560982
 20
185.08934
 11
32.11097
 21
185.08934
  0
LINE
  5
F9
100
AcDbEntity
  8
M0
100
AcDbLine
 10
61.010995
 20
185.08934
 11
61.560982
 21
185.08934
  0
ARC
  5
FA
100
AcDbEntity
  8
M0
100
AcDbCircle
 10
32.11097
 20
185.58934
 40
0.5
100
AcDbArc
 50
270.0
 51
360.0
  0
ARC
  5
FB
100
AcDbEntity
  8
M0
100
AcDbCircle
 10
31.560982
 20
184.58934
 40
0.5
100
AcDbArc
 50
90.0
 51
180.0
  0
ARC
  5
FC
100
AcDbEntity
  8
M0
100
AcDbCircle
 10
61.010995
 20
185.589325
 40
0.5
100
AcDbArc
 50
180.0
 51
269.998251
  0
ARC
  5
FD
100
AcDbEntity
  8
M0
100
AcDbCircle
 10
61.560982
 20
184.589325
 40
0.5
100
AcDbArc
 50
0.0
 51
90.0
  0
LINE
  5
FE
100
AcDbEntity
  8
M0
100
AcDbLine
 10
31.560982
 20
195.08934
 11
32.11097
 21
195.08934
  0
ARC
  5
FF
100
AcDbEntity
  8
M0
100
AcDbCircle
 10
32.11097
 20
195.58934
 40
0.5
100
AcDbArc
 50
270.0
 51
360.0
  0
ARC
  5
100
100
AcDbEntity
  8
M0
100
AcDbCircle
 10
31.560982
 20
194.58934
 40
0.5
100
AcDbArc
 50
90.0
 51
180.0
  0
ARC
  5
101
100
AcDbEntity
  8
M0
100
AcDbCircle
 10
61.010995
 20
195.589325
 40
0.5
100
AcDbArc
 50
180.0
 51
269.998251
  0
LINE
  5
102
100
AcDbEntity
  8
M0
100
AcDbLine
 10
61.560982
 20
195.089325
 11
61.010995
 21
195.089325
  0
ARC
  5
103
100
AcDbEntity
  8
M0
100
AcDbCircle
 10
61.560982
 20
194.589325
 40
0.5
100
AcDbArc
 50
0.0
 51
90.0
  0
ARC
  5
104
100
AcDbEntity
  8
M0
100
AcDbCircle
 10
59.510979
 20
203.789337
 40
1.0
100
AcDbArc
 50
0.0
 51
90.0
  0
ARC
  5
105
100
AcDbEntity
  8
M0
100
AcDbCircle
 10
33.61097
 20
203.789337
 40
1.0
100
AcDbArc
 50
90.0
 51
180.0
  0
LINE
  5
106
100
AcDbEntity
  8
M0
100
AcDbLine
 10
42.61097
 20
196.08934
 11
50.510979
 21
196.08934
  0
LINE
  5
107
100
AcDbEntity
  8
M0
100
AcDbLine
 10
52.61097
 20
196.08934
 11
60.510979
 21
196.08934
  0
ARC
  5
108
100
AcDbEntity
  8
M0
100
AcDbCircle
 10
60.060982
 20
184.58934
 40
2.249992
100
AcDbArc
 50
138.190088
 51
179.999976
  0
LINE
  5
109
100
AcDbEntity
  8
M0
  6
DASHDOT
100
AcDbLine
 10
57.039529
 20
184.58934
 11
63.079888
 21
184.58934
  0
ARC
  5
10A
100
AcDbEntity
  8
M0
100
AcDbCircle
 10
60.060982
 20
183.58934
 40
2.249992
100
AcDbArc
 50
179.999976
 51
339.100799
  0
LINE
  5
10B
100
AcDbEntity
  8
M0
  6
DASHDOT
100
AcDbLine
 10
56.927377
 20
183.58934
 11
63.127953
 21
183.58934
  0
LINE
  5
10C
100
AcDbEntity
  8
M0
  6
DASHDOT
100
AcDbLine
 10
60.060982
 20
179.890777
 11
60.060982
 21
188.110183
  0
LINE
  5
10D
100
AcDbEntity
  8
M0
100
AcDbLine
 10
57.810982
 20
183.58934
 11
57.810982
 21
184.58934
  0
LINE
  5
10E
100
AcDbEntity
  8
M0
100
AcDbLine
 10
64.060998
 20
243.089004
 11
62.811013
 21
243.089004
  0
LINE
  5
10F
100
AcDbEntity
  8
M0
100
AcDbLine
 10
28.560998
 20
238.589004
 11
28.560998
 21
210.589218
  0
LINE
  5
110
100
AcDbEntity
  8
M0
100
AcDbLine
 10
64.560967
 20
210.589187
 11
64.560998
 21
242.589004
  0
LINE
  5
111
100
AcDbEntity
  8
M0
  6
DASHDOT
100
AcDbLine
 10
66.532571
 20
210.589187
 11
27.021828
 21
210.589203
  0
LINE
  5
112
100
AcDbEntity
  8
M0
100
AcDbLine
 10
61.060982
 20
216.389221
 11
53.610986
 21
216.389221
  0
LINE
  5
113
100
AcDbEntity
  8
M0
100
AcDbLine
 10
31.060998
 20
238.089004
 11
31.060998
 21
217.389221
  0
LINE
  5
114
100
AcDbEntity
  8
M0
100
AcDbLine
 10
30.560998
 20
238.589004
 11
29.060998
 21
238.589004
  0
ARC
  5
115
100
AcDbEntity
  8
M0
100
AcDbCircle
 10
30.560998
 20
238.089004
 40
0.5
100
AcDbArc
 50
0.0
 51
90.0
  0
ARC
  5
116
100
AcDbEntity
  8
M0
100
AcDbCircle
 10
29.060998
 20
238.089004
 40
0.5
100
AcDbArc
 50
90.0
 51
180.0
  0
LINE
  5
117
100
AcDbEntity
  8
M0
100
AcDbLine
 10
62.060998
 20
240.089004
 11
62.060982
 21
217.389221
  0
LINE
  5
118
100
AcDbEntity
  8
M0
100
AcDbLine
 10
64.060998
 20
240.589004
 11
62.560998
 21
240.589004
  0
ARC
  5
119
100
AcDbEntity
  8
M0
100
AcDbCircle
 10
64.060982
 20
240.089004
 40
0.5
100
AcDbArc
 50
0.0
 51
90.0
  0
ARC
  5
11A
100
AcDbEntity
  8
M0
100
AcDbCircle
 10
62.560998
 20
240.089004
 40
0.5
100
AcDbArc
 50
90.0
 51
180.0
  0
LINE
  5
11B
100
AcDbEntity
  8
M0
100
AcDbLine
 10
62.51101
 20
240.589004
 11
62.51101
 21
242.789199
  0
LINE
  5
11C
100
AcDbEntity
  8
M0
100
AcDbLine
 10
60.510995
 20
235.089004
 11
52.610986
 21
235.089004
  0
LINE
  5
11D
100
AcDbEntity
  8
M0
100
AcDbLine
 10
60.510995
 20
225.089004
 11
52.610986
 21
225.089004
  0
LINE
  5
11E
100
AcDbEntity
  8
M0
100
AcDbLine
 10
54.611001
 20
235.089004
 11
54.611016
 21
242.789199
  0
LINE
  5
11F
100
AcDbEntity
  8
M0
100
AcDbLine
 10
42.611001
 20
217.389221
 11
42.611001
 21
240.089004
  0
LINE
  5
120
100
AcDbEntity
  8
M0
100
AcDbLine
 10
50.510995
 20
217.389221
 11
50.51101
 21
240.089004
  0
LINE
  5
121
100
AcDbEntity
  8
M0
100
AcDbLine
 10
52.610986
 20
217.389221
 11
52.611001
 21
240.089004
  0
LINE
  5
122
100
AcDbEntity
  8
M0
100
AcDbLine
 10
60.510995
 20
217.389221
 11
60.510995
 21
235.589004
  0
LINE
  5
123
100
AcDbEntity
  8
M0
100
AcDbLine
 10
32.611001
 20
217.389221
 11
32.611001
 21
235.589004
  0
LINE
  5
124
100
AcDbEntity
  8
M0
100
AcDbLine
 10
40.51101
 20
217.389221
 11
40.51101
 21
240.089004
  0
LINE
  5
125
100
AcDbEntity
  8
M0
100
AcDbLine
 10
42.111001
 20
240.589004
 11
41.01101
 21
240.589004
  0
LINE
  5
126
100
AcDbEntity
  8
M0
100
AcDbLine
 10
52.111001
 20
240.589004
 11
51.01101
 21
240.589004
  0
LINE
  5
127
100
AcDbEntity
  8
M0
100
AcDbLine
 10
50.510995
 20
235.089004
 11
42.611001
 21
235.089004
  0
LINE
  5
128
100
AcDbEntity
  8
M0
100
AcDbLine
 10
40.51101
 20
235.089004
 11
32.611001
 21
235.089004
  0
LINE
  5
129
100
AcDbEntity
  8
M0
100
AcDbLine
 10
39.51101
 20
216.389221
 11
32.060998
 21
216.389221
  0
LINE
  5
12A
100
AcDbEntity
  8
M0
100
AcDbLine
 10
49.510995
 20
216.389221
 11
43.611001
 21
216.389221
  0
ARC
  5
12B
100
AcDbEntity
  8
M0
100
AcDbCircle
 10
61.060982
 20
217.389221
 40
1.0
100
AcDbArc
 50
269.999126
 51
360.0
  0
ARC
  5
12C
100
AcDbEntity
  8
M0
100
AcDbCircle
 10
53.610986
 20
217.389221
 40
1.0
100
AcDbArc
 50
180.0
 51
269.999126
  0
ARC
  5
12D
100
AcDbEntity
  8
M0
100
AcDbCircle
 10
43.611001
 20
217.389221
 40
1.0
100
AcDbArc
 50
180.0
 51
270.0
  0
ARC
  5
12E
100
AcDbEntity
  8
M0
100
AcDbCircle
 10
49.510995
 20
217.389221
 40
1.0
100
AcDbArc
 50
269.999126
 51
360.0
  0
ARC
  5
12F
100
AcDbEntity
  8
M0
100
AcDbCircle
 10
32.060998
 20
217.389221
 40
1.0
100
AcDbArc
 50
180.0
 51
270.0
  0
ARC
  5
130
100
AcDbEntity
  8
M0
100
AcDbCircle
 10
39.51101
 20
217.389221
 40
1.0
100
AcDbArc
 50
270.0
 51
360.0
  0
ARC
  5
131
100
AcDbEntity
  8
M0
100
AcDbCircle
 10
64.060998
 20
242.589004
 40
0.5
100
AcDbArc
 50
0.0
 51
90.0
  0
LINE
  5
132
100
AcDbEntity
  8
M0
100
AcDbLine
 10
40.560998
 20
240.307022
 11
40.561028
 21
242.089004
  0
LINE
  5
133
100
AcDbEntity
  8
M0
100
AcDbLine
 10
52.060998
 20
240.589004
 11
52.060998
 21
242.589004
  0
LINE
  5
134
100
AcDbEntity
  8
M0
100
AcDbLine
 10
40.061028
 20
242.589004
 11
32.561028
 21
242.589004
  0
ARC
  5
135
100
AcDbEntity
  8
M0
100
AcDbCircle
 10
40.061028
 20
242.089004
 40
0.5
100
AcDbArc
 50
0.0
 51
90.0
  0
ARC
  5
136
100
AcDbEntity
  8
M0
100
AcDbCircle
 10
32.560998
 20
238.589004
 40
4.0
100
AcDbArc
 50
90.0
 51
180.0
  0
LINE
  5
137
100
AcDbEntity
  8
M0
100
AcDbLine
 10
38.060998
 20
235.089004
 11
38.061028
 21
242.589004
  0
LINE
  5
138
100
AcDbEntity
  8
M0
100
AcDbLine
 10
54.311028
 20
243.089004
 11
52.560998
 21
243.089004
  0
ARC
  5
139
100
AcDbEntity
  8
M0
100
AcDbCircle
 10
62.811013
 20
242.789199
 40
0.299999
100
AcDbArc
 50
90.0
 51
180.0
  0
ARC
  5
13A
100
AcDbEntity
  8
M0
100
AcDbCircle
 10
54.311028
 20
242.789199
 40
0.299999
100
AcDbArc
 50
0.0
 51
90.0
  0
ARC
  5
13B
100
AcDbEntity
  8
M0
100
AcDbCircle
 10
52.560998
 20
242.589004
 40
0.5
100
AcDbArc
 50
90.0
 51
180.0
  0
LINE
  5
13C
100
AcDbEntity
  8
M0
100
AcDbLine
 10
50.510995
 20
237.089004
 11
42.611001
 21
237.089004
  0
LINE
  5
13D
100
AcDbEntity
  8
M0
100
AcDbLine
 10
50.51101
 20
239.089004
 11
48.536004
 21
237.089004
  0
ARC
  5
13E
100
AcDbEntity
  8
M0
100
AcDbCircle
 10
52.111001
 20
240.089004
 40
0.5
100
AcDbArc
 50
0.0
 51
90.0
  0
ARC
  5
13F
100
AcDbEntity
  8
M0
100
AcDbCircle
 10
51.01101
 20
240.089004
 40
0.5
100
AcDbArc
 50
90.0
 51
180.0
  0
ARC
  5
140
100
AcDbEntity
  8
M0
100
AcDbCircle
 10
42.111001
 20
240.089004
 40
0.5
100
AcDbArc
 50
0.0
 51
90.0
  0
ARC
  5
141
100
AcDbEntity
  8
M0
100
AcDbCircle
 10
41.01101
 20
240.089004
 40
0.5
100
AcDbArc
 50
90.0
 51
180.0
  0
LINE
  5
142
100
AcDbEntity
  8
M0
100
AcDbLine
 10
30.560998
 20
230.389053
 11
29.060998
 21
230.389053
  0
LINE
  5
143
100
AcDbEntity
  8
M0
100
AcDbLine
 10
64.060982
 20
230.389053
 11
62.560982
 21
230.389053
  0
ARC
  5
144
100
AcDbEntity
  8
M0
100
AcDbCircle
 10
64.060982
 20
229.889053
 40
0.5
100
AcDbArc
 50
0.0
 51
90.0
  0
ARC
  5
145
100
AcDbEntity
  8
M0
100
AcDbCircle
 10
30.560998
 20
229.889053
 40
0.5
100
AcDbArc
 50
0.0
 51
90.0
  0
ARC
  5
146
100
AcDbEntity
  8
M0
100
AcDbCircle
 10
62.560982
 20
229.889053
 40
0.5
100
AcDbArc
 50
90.0
 51
180.0
  0
ARC
  5
147
100
AcDbEntity
  8
M0
100
AcDbCircle
 10
29.060998
 20
229.889053
 40
0.5
100
AcDbArc
 50
90.0
 51
180.0
  0
LINE
  5
148
100
AcDbEntity
  8
M0
100
AcDbLine
 10
61.560982
 20
236.089004
 11
61.010995
 21
236.089004
  0
LINE
  5
149
100
AcDbEntity
  8
M0
100
AcDbLine
 10
32.110986
 20
236.089004
 11
31.560998
 21
236.089004
  0
ARC
  5
14A
100
AcDbEntity
  8
M0
100
AcDbCircle
 10
61.010995
 20
235.589004
 40
0.5
100
AcDbArc
 50
90.0
 51
180.0
  0
ARC
  5
14B
100
AcDbEntity
  8
M0
100
AcDbCircle
 10
61.560982
 20
236.589004
 40
0.5
100
AcDbArc
 50
269.998251
 51
360.0
  0
ARC
  5
14C
100
AcDbEntity
  8
M0
100
AcDbCircle
 10
32.110986
 20
235.589004
 40
0.5
100
AcDbArc
 50
0.0
 51
90.0
  0
ARC
  5
14D
100
AcDbEntity
  8
M0
100
AcDbCircle
 10
31.560998
 20
236.589004
 40
0.5
100
AcDbArc
 50
180.0
 51
270.0
  0
LINE
  5
14E
100
AcDbEntity
  8
M0
100
AcDbLine
 10
61.560982
 20
226.089004
 11
61.010995
 21
226.089004
  0
ARC
  5
14F
100
AcDbEntity
  8
M0
100
AcDbCircle
 10
61.010995
 20
225.589004
 40
0.5
100
AcDbArc
 50
90.0
 51
180.0
  0
ARC
  5
150
100
AcDbEntity
  8
M0
100
AcDbCircle
 10
61.560982
 20
226.589004
 40
0.5
100
AcDbArc
 50
269.998251
 51
360.0
  0
ARC
  5
151
100
AcDbEntity
  8
M0
100
AcDbCircle
 10
32.110986
 20
225.589004
 40
0.5
100
AcDbArc
 50
0.0
 51
90.0
  0
LINE
  5
152
100
AcDbEntity
  8
M0
100
AcDbLine
 10
31.560998
 20
226.089004
 11
32.110986
 21
226.089004
  0
ARC
  5
153
100
AcDbEntity
  8
M0
100
AcDbCircle
 10
31.560998
 20
226.589004
 40
0.5
100
AcDbArc
 50
180.0
 51
270.0
  0
ARC
  5
154
100
AcDbEntity
  8
M0
100
AcDbCircle
 10
33.611001
 20
217.389221
 40
1.0
100
AcDbArc
 50
180.0
 51
270.0
  0
ARC
  5
155
100
AcDbEntity
  8
M0
100
AcDbCircle
 10
59.510995
 20
217.389221
 40
1.0
100
AcDbArc
 50
269.999126
 51
360.0
  0
LINE
  5
156
100
AcDbEntity
  8
M0
100
AcDbLine
 10
50.510995
 20
225.089004
 11
42.611001
 21
225.089004
  0
LINE
  5
157
100
AcDbEntity
  8
M0
100
AcDbLine
 10
40.51101
 20
225.089004
 11
32.611001
 21
225.089004
  0
ARC
  5
158
100
AcDbEntity
  8
M0
100
AcDbCircle
 10
33.060998
 20
236.589004
 40
2.249992
100
AcDbArc
 50
318.189662
 51
360.0
  0
LINE
  5
159
100
AcDbEntity
  8
M0
  6
DASHDOT
100
AcDbLine
 10
36.082452
 20
236.589004
 11
30.042092
 21
236.589004
  0
ARC
  5
15A
100
AcDbEntity
  8
M0
100
AcDbCircle
 10
33.060998
 20
237.589004
 40
2.249992
100
AcDbArc
 50
0.0
 51
159.098692
  0
LINE
  5
15B
100
AcDbEntity
  8
M0
  6
DASHDOT
100
AcDbLine
 10
36.194604
 20
237.589004
 11
29.994027
 21
237.589004
  0
LINE
  5
15C
100
AcDbEntity
  8
M0
  6
DASHDOT
100
AcDbLine
 10
33.060998
 20
241.287735
 11
33.060998
 21
233.068252
  0
LINE
  5
15D
100
AcDbEntity
  8
M0
100
AcDbLine
 10
35.310998
 20
237.589004
 11
35.310998
 21
236.589004
  0
LINE
  5
15E
100
AcDbEntity
  8
M0
100
AcDbLine
 10
54.611016
 20
242.788726
 11
62.51101
 21
242.788726
  0
LINE
  5
15F
100
AcDbEntity
  8
M0
100
AcDbLine
 10
43.561028
 20
214.189163
 11
45.061028
 21
214.189163
  0
LINE
  5
160
100
AcDbEntity
  8
M0
100
AcDbLine
 10
43.561028
 20
207.589172
 11
45.061028
 21
207.589172
  0
LINE
  5
161
100
AcDbEntity
  8
M0
100
AcDbLine
 10
46.061028
 20
208.789184
 11
47.061028
 21
208.789184
  0
LINE
  5
162
100
AcDbEntity
  8
M0
100
AcDbLine
 10
46.061028
 20
212.989181
 11
47.061028
 21
212.989181
  0
LINE
  5
163
100
AcDbEntity
  8
M0
100
AcDbLine
 10
48.061028
 20
214.189163
 11
49.561028
 21
214.189163
  0
LINE
  5
164
100
AcDbEntity
  8
M0
100
AcDbLine
 10
48.061028
 20
207.589172
 11
49.561028
 21
207.589172
  0
ARC
  5
165
100
AcDbEntity
  8
M0
100
AcDbCircle
 10
48.061028
 20
213.689163
 40
0.5
100
AcDbArc
 50
90.0
 51
180.0
  0
ARC
  5
166
100
AcDbEntity
  8
M0
100
AcDbCircle
 10
47.061028
 20
213.489181
 40
0.5
100
AcDbArc
 50
269.998251
 51
360.0
  0
ARC
  5
167
100
AcDbEntity
  8
M0
100
AcDbCircle
 10
45.061028
 20
208.089172
 40
0.5
100
AcDbArc
 50
269.998251
 51
360.0
  0
ARC
  5
168
100
AcDbEntity
  8
M0
100
AcDbCircle
 10
46.061028
 20
208.289184
 40
0.5
100
AcDbArc
 50
90.0
 51
180.0
  0
ARC
  5
169
100
AcDbEntity
  8
M0
100
AcDbCircle
 10
43.561028
 20
213.689163
 40
0.5
100
AcDbArc
 50
90.0
 51
180.0
  0
ARC
  5
16A
100
AcDbEntity
  8
M0
100
AcDbCircle
 10
49.561028
 20
208.089172
 40
0.5
100
AcDbArc
 50
269.998251
 51
360.0
  0
LINE
  5
16B
100
AcDbEntity
  8
M0
 62
     4
100
AcDbLine
 10
204.486352
 20
178.589203
 11
211.386361
 21
178.589203
  0
LINE
  5
16C
100
AcDbEntity
  8
M0
 62
     4
100
AcDbLine
 10
211.386361
 20
171.889129
 11
211.386361
 21
188.989196
  0
LINE
  5
16D
100
AcDbEntity
  8
M0
 62
     4
100
AcDbLine
 10
211.086358
 20
242.589187
 11
204.486352
 21
242.589187
  0
LINE
  5
16E
100
AcDbEntity
  8
M0
 62
     4
100
AcDbLine
 10
196.886361
 20
213.589203
 11
196.886361
 21
207.589203
  0
LINE
  5
16F
100
AcDbEntity
  8
M0
 62
     4
100
AcDbLine
 10
197.886361
 20
214.589203
 11
203.586358
 21
214.589203
  0
LINE
  5
170
100
AcDbEntity
  8
M0
 62
     4
100
AcDbLine
 10
197.886361
 20
206.589203
 11
198.886361
 21
206.589203
  0
LINE
  5
171
100
AcDbEntity
  8
M0
 62
     4
100
AcDbLine
 10
198.886361
 20
206.589203
 11
198.886361
 21
189.989196
  0
LINE
  5
172
100
AcDbEntity
  8
M0
 62
     4
100
AcDbLine
 10
201.586358
 20
235.289199
 11
203.586358
 21
235.289199
  0
LINE
  5
173
100
AcDbEntity
  8
M0
 62
     4
100
AcDbLine
 10
203.586358
 20
235.289199
 11
203.586358
 21
214.589203
  0
LINE
  5
174
100
AcDbEntity
  8
M0
 62
     4
100
AcDbLine
 10
201.586358
 20
236.789199
 11
211.086358
 21
236.789199
  0
LINE
  5
175
100
AcDbEntity
  8
M0
 62
     4
100
AcDbLine
 10
201.586358
 20
236.789199
 11
201.586358
 21
235.289199
  0
LINE
  5
176
100
AcDbEntity
  8
M0
 62
     4
100
AcDbLine
 10
204.486352
 20
242.589203
 11
204.486352
 21
236.789199
  0
LINE
  5
177
100
AcDbEntity
  8
M0
 62
     4
100
AcDbLine
 10
199.886361
 20
188.989196
 11
203.586358
 21
188.989196
  0
LINE
  5
178
100
AcDbEntity
  8
M0
 62
     4
100
AcDbLine
 10
203.586358
 20
188.989196
 11
203.586358
 21
178.589309
  0
LINE
  5
179
100
AcDbEntity
  8
M0
 62
     4
100
AcDbLine
 10
206.586358
 20
228.089203
 11
206.586358
 21
192.789199
  0
LINE
  5
17A
100
AcDbEntity
  8
M0
 62
     4
100
AcDbLine
 10
206.586358
 20
228.089203
 11
211.086358
 21
228.089203
  0
LINE
  5
17B
100
AcDbEntity
  8
M0
 62
     4
100
AcDbLine
 10
206.586358
 20
192.789199
 11
210.086358
 21
192.789199
  0
LINE
  5
17C
100
AcDbEntity
  8
M0
 62
     4
100
AcDbLine
 10
208.38633
 20
226.089203
 11
209.386346
 21
226.089203
  0
LINE
  5
17D
100
AcDbEntity
  8
M0
 62
     4
100
AcDbLine
 10
207.686349
 20
228.089203
 11
208.386346
 21
226.089203
  0
ARC
  5
17E
100
AcDbEntity
  8
M0
 62
     4
100
AcDbCircle
 10
197.886361
 20
213.589203
 40
1.0
100
AcDbArc
 50
90.0
 51
180.0
  0
ARC
  5
17F
100
AcDbEntity
  8
M0
 62
     4
100
AcDbCircle
 10
197.886361
 20
207.589203
 40
1.0
100
AcDbArc
 50
179.999945
 51
270.0
  0
ARC
  5
180
100
AcDbEntity
  8
M0
 62
     4
100
AcDbCircle
 10
199.886361
 20
189.989196
 40
1.0
100
AcDbArc
 50
179.999126
 51
270.0
  0
LINE
  5
181
100
AcDbEntity
  8
M0
 62
     4
100
AcDbLine
 10
211.086343
 20
191.789199
 11
211.086358
 21
188.989196
  0
LINE
  5
182
100
AcDbEntity
  8
M0
 62
     4
100
AcDbLine
 10
211.086358
 20
228.089203
 11
211.086358
 21
242.589203
  0
LINE
  5
183
100
AcDbEntity
  8
M0
 62
     4
100
AcDbLine
 10
211.086358
 20
228.089203
 11
209.386346
 21
226.089203
  0
LINE
  5
184
100
AcDbEntity
  8
M0
 62
     4
100
AcDbLine
 10
211.086343
 20
191.789199
 11
210.086358
 21
192.789199
  0
LINE
  5
185
100
AcDbEntity
  8
M0
100
AcDbLine
 10
97.387231
 20
183.496841
 11
97.387231
 21
223.496841
  0
LINE
  5
186
100
AcDbEntity
  8
M0
100
AcDbLine
 10
94.387246
 20
184.739456
 11
97.387246
 21
187.739471
  0
LINE
  5
187
100
AcDbEntity
  8
M0
100
AcDbLine
 10
94.387231
 20
188.982086
 11
97.387231
 21
191.982101
  0
LINE
  5
188
100
AcDbEntity
  8
M0
100
AcDbLine
 10
94.387231
 20
193.224731
 11
97.387231
 21
196.224731
  0
LINE
  5
189
100
AcDbEntity
  8
M0
100
AcDbLine
 10
94.387231
 20
197.467376
 11
97.387231
 21
200.467376
  0
LINE
  5
18A
100
AcDbEntity
  8
M0
100
AcDbLine
 10
94.387231
 20
201.710022
 11
97.387231
 21
204.710022
  0
LINE
  5
18B
100
AcDbEntity
  8
M0
100
AcDbLine
 10
94.387231
 20
205.952667
 11
97.387231
 21
208.952667
  0
LINE
  5
18C
100
AcDbEntity
  8
M0
100
AcDbLine
 10
94.387215
 20
210.195297
 11
97.387215
 21
213.195297
  0
LINE
  5
18D
100
AcDbEntity
  8
M0
100
AcDbLine
 10
94.387231
 20
214.437942
 11
97.387231
 21
217.437942
  0
LINE
  5
18E
100
AcDbEntity
  8
M0
100
AcDbLine
 10
94.387231
 20
218.680587
 11
97.387231
 21
221.680587
  0
LINE
  5
18F
100
AcDbEntity
  8
M0
  6
DIVIDE
100
AcDbLine
 10
207.586358
 20
192.939361
 11
207.586358
 21
199.089355
  0
LINE
  5
190
100
AcDbEntity
  8
M0
  6
DIVIDE
100
AcDbLine
 10
207.586358
 20
199.089355
 11
214.386361
 21
199.089355
  0
LINE
  5
191
100
AcDbEntity
  8
M0
  6
DIVIDE
100
AcDbLine
 10
206.586358
 20
200.089355
 11
213.386361
 21
200.089355
  0
LINE
  5
192
100
AcDbEntity
  8
M0
  6
DIVIDE
100
AcDbLine
 10
213.386361
 20
221.089355
 11
213.386361
 21
200.089355
  0
LINE
  5
193
100
AcDbEntity
  8
M0
  6
DIVIDE
100
AcDbLine
 10
214.386361
 20
199.089355
 11
214.386361
 21
222.089355
  0
LINE
  5
194
100
AcDbEntity
  8
M0
  6
DIVIDE
100
AcDbLine
 10
207.586358
 20
222.089355
 11
207.586358
 21
228.239349
  0
LINE
  5
195
100
AcDbEntity
  8
M0
  6
DIVIDE
100
AcDbLine
 10
207.586358
 20
222.089355
 11
214.386361
 21
222.089355
  0
LINE
  5
196
100
AcDbEntity
  8
M0
  6
DIVIDE
100
AcDbLine
 10
206.586358
 20
221.089355
 11
213.386361
 21
221.089355
  0
LINE
  5
197
100
AcDbEntity
  8
M0
  6
DASHDOT
100
AcDbLine
 10
208.71148
 20
210.589355
 11
216.23124
 21
210.589355
  0
LINE
  5
198
100
AcDbEntity
  8
M0
 62
     4
100
AcDbLine
 10
55.56054
 20
178.593383
 11
60.56054
 21
178.593383
  0
LINE
  5
199
100
AcDbEntity
  8
M0
 62
     4
100
AcDbLine
 10
30.61097
 20
178.393371
 11
38.510537
 21
178.393371
  0
LINE
  5
19A
100
AcDbEntity
  8
M0
 62
     4
100
AcDbLine
 10
55.56054
 20
178.593383
 11
55.56054
 21
178.393371
  0
LINE
  5
19B
100
AcDbEntity
  8
M0
 62
     4
100
AcDbLine
 10
28.56054
 20
182.393371
 11
28.56054
 21
192.644973
  0
LINE
  5
19C
100
AcDbEntity
  8
M0
 62
     4
100
AcDbLine
 10
64.56054
 20
182.593368
 11
64.56054
 21
184.993362
  0
ARC
  5
19D
100
AcDbEntity
  8
M0
 62
     4
100
AcDbCircle
 10
60.56054
 20
182.593383
 40
3.999996
100
AcDbArc
 50
269.999781
 51
360.0
  0
LINE
  5
19E
100
AcDbEntity
  8
M0
 62
     4
100
AcDbLine
 10
41.06054
 20
178.393371
 11
55.56054
 21
178.393371
  0
LINE
  5
19F
100
AcDbEntity
  8
M0
 62
     4
100
AcDbLine
 10
39.060555
 20
242.588531
 11
32.56054
 21
242.588531
  0
LINE
  5
1A0
100
AcDbEntity
  8
M0
 62
     4
100
AcDbLine
 10
28.560555
 20
238.588287
 11
28.560555
 21
237.231613
  0
ARC
  5
1A1
100
AcDbEntity
  8
M0
 62
     4
100
AcDbCircle
 10
39.060555
 20
240.588287
 40
2.0
100
AcDbArc
 50
0.0
 51
41.40928
  0
ARC
  5
1A2
100
AcDbEntity
  8
M0
 62
     4
100
AcDbCircle
 10
32.560555
 20
238.588287
 40
4.0
100
AcDbArc
 50
90.0
 51
179.999973
  0
LINE
  5
1A3
100
AcDbEntity
  8
M0
 62
     7
100
AcDbLine
 10
41.06054
 20
171.893356
 11
52.06054
 21
171.893356
  0
LINE
  5
1A4
100
AcDbEntity
  8
M0
 62
     7
100
AcDbLine
 10
53.06054
 20
172.893341
 11
53.06054
 21
178.393356
  0
LINE
  5
1A5
100
AcDbEntity
  8
M0
 62
     7
100
AcDbLine
 10
53.06054
 20
178.393356
 11
41.018777
 21
178.393341
  0
LINE
  5
1A6
100
AcDbEntity
  8
M0
 62
     7
100
AcDbLine
 10
40.06054
 20
178.093399
 11
40.06054
 21
172.893356
  0
LINE
  5
1A7
100
AcDbEntity
  8
M0
 62
     7
100
AcDbLine
 10
41.56054
 20
173.893356
 11
51.56054
 21
173.893356
  0
LINE
  5
1A8
100
AcDbEntity
  8
M0
 62
     7
100
AcDbLine
 10
41.56054
 20
176.393356
 11
51.56054
 21
176.393356
  0
LINE
  5
1A9
100
AcDbEntity
  8
M0
 62
     7
100
AcDbLine
 10
48.06054
 20
176.393356
 11
48.06054
 21
173.893356
  0
LINE
  5
1AA
100
AcDbEntity
  8
M0
 62
     7
100
AcDbLine
 10
45.06054
 20
176.393356
 11
45.06054
 21
173.893356
  0
LINE
  5
1AB
100
AcDbEntity
  8
M0
 62
     7
100
AcDbLine
 10
41.56054
 20
176.393356
 11
41.56054
 21
173.893356
  0
LINE
  5
1AC
100
AcDbEntity
  8
M0
 62
     7
100
AcDbLine
 10
51.56054
 20
176.393356
 11
51.56054
 21
173.893356
  0
ARC
  5
1AD
100
AcDbEntity
  8
M0
 62
     7
100
AcDbCircle
 10
41.06054
 20
172.893356
 40
1.0
100
AcDbArc
 50
179.999945
 51
270.0
  0
ARC
  5
1AE
100
AcDbEntity
  8
M0
 62
     7
100
AcDbCircle
 10
52.06054
 20
172.893356
 40
1.0
100
AcDbArc
 50
270.0
 51
360.0
  0
LINE
  5
1AF
100
AcDbEntity
  8
M0
 62
     7
100
AcDbLine
 10
211.386361
 20
171.889129
 11
207.086312
 21
171.88916
  0
LINE
  5
1B0
100
AcDbEntity
  8
M0
 62
     7
100
AcDbLine
 10
207.086312
 20
171.88916
 11
207.086312
 21
178.589203
  0
LINE
  5
1B1
100
AcDbEntity
  8
M0
 62
     7
100
AcDbLine
 10
208.336364
 20
194.889145
 11
209.18637
 21
194.889143
  0
LINE
  5
1B2
100
AcDbEntity
  8
M0
 62
     7
100
AcDbLine
 10
211.08636
 20
192.889156
 11
211.086358
 21
191.789184
  0
LINE
  5
1B3
100
AcDbEntity
  8
M0
 62
     7
100
AcDbLine
 10
209.18637
 20
194.889158
 11
211.08636
 21
192.889156
  0
LINE
  5
1B4
100
AcDbEntity
  8
M0
 62
     7
100
AcDbLine
 10
207.736382
 20
193.38916
 11
207.586404
 21
193.389145
  0
LINE
  5
1B5
100
AcDbEntity
  8
M0
 62
     7
100
AcDbLine
 10
208.336364
 20
194.889145
 11
207.736371
 21
193.389162
  0
LINE
  5
1B6
100
AcDbEntity
  8
M0
 62
     2
100
AcDbLine
 10
104.386346
 20
208.089203
 11
107.386346
 21
208.089203
  0
LINE
  5
1B7
100
AcDbEntity
  8
M0
 62
     2
100
AcDbLine
 10
107.386346
 20
208.089203
 11
107.386346
 21
213.089203
  0
LINE
  5
1B8
100
AcDbEntity
  8
M0
 62
     2
100
AcDbLine
 10
107.386346
 20
213.089203
 11
104.386346
 21
213.089203
  0
LINE
  5
1B9
100
AcDbEntity
  8
M0
 62
     2
100
AcDbLine
 10
104.386346
 20
213.089203
 11
104.386346
 21
208.089203
  0
LINE
  5
1BA
100
AcDbEntity
  8
M0
100
AcDbLine
 10
171.386361
 20
178.089203
 11
187.886361
 21
178.089203
  0
LINE
  5
1BB
100
AcDbEntity
  8
M0
100
AcDbLine
 10
187.886361
 20
243.089019
 11
171.386361
 21
243.089019
  0
LINE
  5
1BC
100
AcDbEntity
  8
M0
100
AcDbLine
 10
107.386361
 20
225.38858
 11
107.386361
 21
195.789825
  0
LINE
  5
1BD
100
AcDbEntity
  8
M0
  6
DASHDOT
100
AcDbLine
 10
104.407021
 20
210.589203
 11
210.636361
 21
210.589203
  0
LINE
  5
1BE
100
AcDbEntity
  8
M0
100
AcDbLine
 10
112.386361
 20
230.38858
 11
129.386361
 21
230.38858
  0
LINE
  5
1BF
100
AcDbEntity
  8
M0
100
AcDbLine
 10
112.386361
 20
190.789825
 11
129.38633
 21
190.789825
  0
LINE
  5
1C0
100
AcDbEntity
  8
M0
100
AcDbLine
 10
137.386361
 20
240.588531
 11
167.056084
 21
240.588531
  0
LINE
  5
1C1
100
AcDbEntity
  8
M0
100
AcDbLine
 10
132.386361
 20
235.588531
 11
132.386361
 21
233.38858
  0
ARC
  5
1C2
100
AcDbEntity
  8
M0
100
AcDbCircle
 10
137.386361
 20
235.588531
 40
4.999997
100
AcDbArc
 50
90.0
 51
180.0
  0
ARC
  5
1C3
100
AcDbEntity
  8
M0
100
AcDbCircle
 10
129.386361
 20
233.38858
 40
2.999998
100
AcDbArc
 50
269.999709
 51
360.0
  0
ARC
  5
1C4
100
AcDbEntity
  8
M0
100
AcDbCircle
 10
112.386361
 20
225.38858
 40
4.999997
100
AcDbArc
 50
90.0
 51
180.0
  0
LINE
  5
1C5
100
AcDbEntity
  8
M0
100
AcDbLine
 10
137.38633
 20
182.589325
 11
157.386361
 21
182.589325
  0
LINE
  5
1C6
100
AcDbEntity
  8
M0
100
AcDbLine
 10
132.38633
 20
185.589325
 11
132.38633
 21
187.78981
  0
ARC
  5
1C7
100
AcDbEntity
  8
M0
100
AcDbCircle
 10
112.386361
 20
195.789825
 40
4.999997
100
AcDbArc
 50
179.999967
 51
270.0
  0
ARC
  5
1C8
100
AcDbEntity
  8
M0
100
AcDbCircle
 10
129.38633
 20
187.789825
 40
2.999998
100
AcDbArc
 50
0.0
 51
90.0
  0
ARC
  5
1C9
100
AcDbEntity
  8
M0
100
AcDbCircle
 10
137.38633
 20
187.589325
 40
4.999997
100
AcDbArc
 50
179.999956
 51
269.999825
  0
LINE
  5
1CA
100
AcDbEntity
  8
M0
100
AcDbLine
 10
137.38633
 20
180.589325
 11
168.886361
 21
180.589325
  0
ARC
  5
1CB
100
AcDbEntity
  8
M0
100
AcDbCircle
 10
137.38633
 20
185.589325
 40
4.999997
100
AcDbArc
 50
179.999956
 51
269.999825
  0
LINE
  5
1CC
100
AcDbEntity
  8
M0
100
AcDbLine
 10
166.386361
 20
180.589325
 11
166.386361
 21
186.089309
  0
LINE
  5
1CD
100
AcDbEntity
  8
M0
100
AcDbLine
 10
168.886361
 20
180.589325
 11
168.886361
 21
186.089309
  0
LINE
  5
1CE
100
AcDbEntity
  8
M0
100
AcDbLine
 10
161.386361
 20
182.589309
 11
161.386361
 21
185.089309
  0
ARC
  5
1CF
100
AcDbEntity
  8
M0
100
AcDbCircle
 10
159.386361
 20
182.589325
 40
1.999998
100
AcDbArc
 50
269.999563
 51
360.0
  0
ARC
  5
1D0
100
AcDbEntity
  8
M0
100
AcDbCircle
 10
171.386361
 20
183.089203
 40
4.999997
100
AcDbArc
 50
209.998303
 51
269.999825
  0
LINE
  5
1D1
100
AcDbEntity
  8
M0
100
AcDbLine
 10
188.886361
 20
179.089187
 11
188.886361
 21
184.489303
  0
LINE
  5
1D2
100
AcDbEntity
  8
M0
100
AcDbLine
 10
159.386361
 20
184.589309
 11
159.386361
 21
191.089309
  0
ARC
  5
1D3
100
AcDbEntity
  8
M0
100
AcDbCircle
 10
157.386361
 20
184.589325
 40
1.999998
100
AcDbArc
 50
269.999563
 51
360.0
  0
LINE
  5
1D4
100
AcDbEntity
  8
M0
100
AcDbLine
 10
194.786355
 20
178.589309
 11
205.536355
 21
178.589309
  0
LINE
  5
1D5
100
AcDbEntity
  8
M0
100
AcDbLine
 10
196.886361
 20
207.839203
 11
196.886361
 21
213.339203
  0
LINE
  5
1D6
100
AcDbEntity
  8
M0
100
AcDbLine
 10
198.386361
 20
214.839203
 11
203.586358
 21
214.839203
  0
LINE
  5
1D7
100
AcDbEntity
  8
M0
100
AcDbLine
 10
198.386361
 20
206.339203
 11
198.886361
 21
206.339203
  0
ARC
  5
1D8
100
AcDbEntity
  8
M0
100
AcDbCircle
 10
198.386361
 20
213.339203
 40
1.499998
100
AcDbArc
 50
90.0
 51
180.0
  0
ARC
  5
1D9
100
AcDbEntity
  8
M0
100
AcDbCircle
 10
198.386361
 20
207.839203
 40
1.499998
100
AcDbArc
 50
180.0
 51
269.999417
  0
LINE
  5
1DA
100
AcDbEntity
  8
M0
100
AcDbLine
 10
194.78634
 20
178.589294
 11
187.28637
 21
186.089309
  0
ARC
  5
1DB
100
AcDbEntity
  8
M0
100
AcDbCircle
 10
187.886361
 20
179.089203
 40
1.0
100
AcDbArc
 50
269.999126
 51
360.0
  0
LINE
  5
1DC
100
AcDbEntity
  8
M0
100
AcDbLine
 10
194.786355
 20
178.589309
 11
194.786355
 21
187.589187
  0
LINE
  5
1DD
100
AcDbEntity
  8
M0
100
AcDbLine
 10
159.386361
 20
186.089309
 11
187.286355
 21
186.089309
  0
ARC
  5
1DE
100
AcDbEntity
  8
M0
100
AcDbCircle
 10
162.386361
 20
185.089309
 40
1.0
100
AcDbArc
 50
90.0
 51
179.999945
  0
LINE
  5
1DF
100
AcDbEntity
  8
M0
100
AcDbLine
 10
194.78634
 20
242.589019
 11
188.886361
 21
236.688873
  0
LINE
  5
1E0
100
AcDbEntity
  8
M0
100
AcDbLine
 10
188.886361
 20
242.089019
 11
188.886361
 21
234.089019
  0
ARC
  5
1E1
100
AcDbEntity
  8
M0
100
AcDbCircle
 10
187.886361
 20
242.089019
 40
1.0
100
AcDbArc
 50
0.0
 51
90.0
  0
LINE
  5
1E2
100
AcDbEntity
  8
M0
100
AcDbLine
 10
194.786324
 20
242.589019
 11
205.536355
 21
242.589019
  0
LINE
  5
1E3
100
AcDbEntity
  8
M0
100
AcDbLine
 10
188.886361
 20
235.089019
 11
203.586358
 21
235.089019
  0
ARC
  5
1E4
100
AcDbEntity
  8
M0
100
AcDbCircle
 10
171.386361
 20
238.088775
 40
4.999997
100
AcDbArc
 50
90.0
 51
150.003431
  0
LINE
  5
1E5
100
AcDbEntity
  8
M0
100
AcDbLine
 10
189.886361
 20
233.089019
 11
203.586358
 21
233.089019
  0
ARC
  5
1E6
100
AcDbEntity
  8
M0
100
AcDbCircle
 10
189.886361
 20
234.089019
 40
1.0
100
AcDbArc
 50
180.0
 51
269.999126
  0
LINE
  5
1E7
100
AcDbEntity
  8
M0
100
AcDbLine
 10
182.836358
 20
191.089309
 11
182.836358
 21
188.089203
  0
LINE
  5
1E8
100
AcDbEntity
  8
M0
100
AcDbLine
 10
161.386361
 20
193.089309
 11
180.836358
 21
193.089309
  0
LINE
  5
1E9
100
AcDbEntity
  8
M0
100
AcDbLine
 10
159.386361
 20
188.089203
 11
194.286355
 21
188.089203
  0
ARC
  5
1EA
100
AcDbEntity
  8
M0
100
AcDbCircle
 10
180.836358
 20
191.089309
 40
1.999998
100
AcDbArc
 50
0.0
 51
90.0
  0
ARC
  5
1EB
100
AcDbEntity
  8
M0
100
AcDbCircle
 10
161.386361
 20
191.089309
 40
1.999998
100
AcDbArc
 50
90.0
 51
179.999964
  0
ARC
  5
1EC
100
AcDbEntity
  8
M0
100
AcDbCircle
 10
194.286355
 20
187.589203
 40
0.5
100
AcDbArc
 50
0.0
 51
90.0
  0
CIRCLE
  5
1ED
100
AcDbEntity
  8
M0
 62
     6
100
AcDbCircle
 10
56.560982
 20
200.289337
 40
3.0
  0
LINE
  5
1EE
100
AcDbEntity
  8
M0
 62
     6
100
AcDbLine
 10
53.602227
 20
204.236679
 11
52.785973
 21
201.589386
  0
LINE
  5
1EF
100
AcDbEntity
  8
M0
 62
     6
100
AcDbLine
 10
53.680154
 20
196.08934
 11
52.785973
 21
198.98941
  0
LINE
  5
1F0
100
AcDbEntity
  8
M0
 62
     6
100
AcDbLine
 10
59.519707
 20
204.236694
 11
60.335976
 21
201.589386
  0
LINE
  5
1F1
100
AcDbEntity
  8
M0
 62
     6
100
AcDbLine
 10
59.441781
 20
196.08934
 11
60.335976
 21
198.98941
  0
LINE
  5
1F2
100
AcDbEntity
  8
M0
 62
     6
100
AcDbLine
 10
60.335976
 20
198.98941
 11
60.335976
 21
201.589386
  0
LINE
  5
1F3
100
AcDbEntity
  8
M0
 62
     6
100
AcDbLine
 10
59.041894
 20
204.589386
 11
54.080025
 21
204.58937
  0
LINE
  5
1F4
100
AcDbEntity
  8
M0
 62
     6
100
AcDbLine
 10
52.785973
 20
201.589386
 11
52.785973
 21
198.98941
  0
LINE
  5
1F5
100
AcDbEntity
  8
M0
  6
DASHDOT
 62
     6
100
AcDbLine
 10
50.285973
 20
200.289337
 11
62.835976
 21
200.289337
  0
LINE
  5
1F6
100
AcDbEntity
  8
M0
  6
DASHDOT
 62
     6
100
AcDbLine
 10
56.560982
 20
193.489425
 11
56.560982
 21
207.089386
  0
LINE
  5
1F7
100
AcDbEntity
  8
M0
 62
     6
100
AcDbLine
 10
58.151757
 20
198.698517
 11
54.969949
 21
201.880279
  0
LINE
  5
1F8
100
AcDbEntity
  8
M0
 62
     6
100
AcDbLine
 10
56.914391
 20
201.703521
 11
55.146722
 21
199.935821
  0
LINE
  5
1F9
100
AcDbEntity
  8
M0
 62
     6
100
AcDbLine
 10
57.974999
 20
200.642852
 11
56.207375
 21
198.875274
  0
ARC
  5
1FA
100
AcDbEntity
  8
M0
 62
     6
100
AcDbCircle
 10
54.080025
 20
204.08937
 40
0.5
100
AcDbArc
 50
90.0
 51
162.865663
  0
ARC
  5
1FB
100
AcDbEntity
  8
M0
 62
     6
100
AcDbCircle
 10
59.041894
 20
204.08937
 40
0.5
100
AcDbArc
 50
17.134787
 51
90.0
  0
CIRCLE
  5
1FC
100
AcDbEntity
  8
M0
 62
     6
100
AcDbCircle
 10
56.560982
 20
190.789337
 40
3.0
  0
LINE
  5
1FD
100
AcDbEntity
  8
M0
 62
     6
100
AcDbLine
 10
53.602227
 20
194.736679
 11
52.785973
 21
192.089386
  0
LINE
  5
1FE
100
AcDbEntity
  8
M0
 62
     6
100
AcDbLine
 10
53.602227
 20
186.842086
 11
52.785973
 21
189.48941
  0
LINE
  5
1FF
100
AcDbEntity
  8
M0
 62
     6
100
AcDbLine
 10
59.519707
 20
194.736694
 11
60.335976
 21
192.089386
  0
LINE
  5
200
100
AcDbEntity
  8
M0
 62
     6
100
AcDbLine
 10
59.519707
 20
186.842071
 11
60.335976
 21
189.48941
  0
LINE
  5
201
100
AcDbEntity
  8
M0
 62
     6
100
AcDbLine
 10
54.080025
 20
186.48941
 11
59.041894
 21
186.48941
  0
LINE
  5
202
100
AcDbEntity
  8
M0
 62
     6
100
AcDbLine
 10
60.335976
 20
189.48941
 11
60.335976
 21
192.089386
  0
LINE
  5
203
100
AcDbEntity
  8
M0
 62
     6
100
AcDbLine
 10
59.041894
 20
195.089386
 11
54.080025
 21
195.08937
  0
LINE
  5
204
100
AcDbEntity
  8
M0
 62
     6
100
AcDbLine
 10
52.785973
 20
192.089386
 11
52.785973
 21
189.48941
  0
LINE
  5
205
100
AcDbEntity
  8
M0
  6
DASHDOT
 62
     6
100
AcDbLine
 10
50.285973
 20
190.789337
 11
62.835976
 21
190.789337
  0
LINE
  5
206
100
AcDbEntity
  8
M0
  6
DASHDOT
 62
     6
100
AcDbLine
 10
56.560982
 20
183.989425
 11
56.560982
 21
197.589386
  0
LINE
  5
207
100
AcDbEntity
  8
M0
 62
     6
100
AcDbLine
 10
58.151757
 20
189.198517
 11
54.969949
 21
192.380279
  0
LINE
  5
208
100
AcDbEntity
  8
M0
 62
     6
100
AcDbLine
 10
56.914391
 20
192.203521
 11
55.146722
 21
190.435821
  0
LINE
  5
209
100
AcDbEntity
  8
M0
 62
     6
100
AcDbLine
 10
57.974999
 20
191.142852
 11
56.207375
 21
189.375274
  0
ARC
  5
20A
100
AcDbEntity
  8
M0
 62
     6
100
AcDbCircle
 10
54.080025
 20
194.58937
 40
0.5
100
AcDbArc
 50
90.0
 51
162.865663
  0
ARC
  5
20B
100
AcDbEntity
  8
M0
 62
     6
100
AcDbCircle
 10
54.080025
 20
186.98941
 40
0.5
100
AcDbArc
 50
197.137551
 51
270.0
  0
ARC
  5
20C
100
AcDbEntity
  8
M0
 62
     6
100
AcDbCircle
 10
59.041894
 20
186.98941
 40
0.5
100
AcDbArc
 50
270.0
 51
342.861653
  0
ARC
  5
20D
100
AcDbEntity
  8
M0
 62
     6
100
AcDbCircle
 10
59.041894
 20
194.58937
 40
0.5
100
AcDbArc
 50
17.134787
 51
90.0
  0
CIRCLE
  5
20E
100
AcDbEntity
  8
M0
 62
     6
100
AcDbCircle
 10
46.560982
 20
190.790084
 40
3.0
  0
LINE
  5
20F
100
AcDbEntity
  8
M0
 62
     6
100
AcDbLine
 10
43.602227
 20
194.737426
 11
42.785973
 21
192.090133
  0
LINE
  5
210
100
AcDbEntity
  8
M0
 62
     6
100
AcDbLine
 10
43.602227
 20
186.842834
 11
42.785973
 21
189.490158
  0
LINE
  5
211
100
AcDbEntity
  8
M0
 62
     6
100
AcDbLine
 10
49.519707
 20
194.737442
 11
50.335976
 21
192.090133
  0
LINE
  5
212
100
AcDbEntity
  8
M0
 62
     6
100
AcDbLine
 10
49.519707
 20
186.842819
 11
50.335976
 21
189.490158
  0
LINE
  5
213
100
AcDbEntity
  8
M0
 62
     6
100
AcDbLine
 10
44.080025
 20
186.490158
 11
49.041894
 21
186.490158
  0
LINE
  5
214
100
AcDbEntity
  8
M0
 62
     6
100
AcDbLine
 10
50.335976
 20
189.490158
 11
50.335976
 21
192.090133
  0
LINE
  5
215
100
AcDbEntity
  8
M0
 62
     6
100
AcDbLine
 10
49.041894
 20
195.090133
 11
44.080025
 21
195.090118
  0
LINE
  5
216
100
AcDbEntity
  8
M0
 62
     6
100
AcDbLine
 10
42.785973
 20
192.090133
 11
42.785973
 21
189.490158
  0
LINE
  5
217
100
AcDbEntity
  8
M0
  6
DASHDOT
 62
     6
100
AcDbLine
 10
40.285973
 20
190.790084
 11
52.835976
 21
190.790084
  0
LINE
  5
218
100
AcDbEntity
  8
M0
  6
DASHDOT
 62
     6
100
AcDbLine
 10
46.560982
 20
169.685714
 11
46.560982
 21
197.590133
  0
LINE
  5
219
100
AcDbEntity
  8
M0
 62
     6
100
AcDbLine
 10
48.151757
 20
189.199264
 11
44.969949
 21
192.381027
  0
LINE
  5
21A
100
AcDbEntity
  8
M0
 62
     6
100
AcDbLine
 10
46.914391
 20
192.204269
 11
45.146722
 21
190.436569
  0
LINE
  5
21B
100
AcDbEntity
  8
M0
 62
     6
100
AcDbLine
 10
47.974999
 20
191.1436
 11
46.207375
 21
189.376022
  0
ARC
  5
21C
100
AcDbEntity
  8
M0
 62
     6
100
AcDbCircle
 10
44.080025
 20
194.590118
 40
0.5
100
AcDbArc
 50
90.0
 51
162.865663
  0
ARC
  5
21D
100
AcDbEntity
  8
M0
 62
     6
100
AcDbCircle
 10
44.080025
 20
186.990158
 40
0.5
100
AcDbArc
 50
197.137551
 51
270.0
  0
ARC
  5
21E
100
AcDbEntity
  8
M0
 62
     6
100
AcDbCircle
 10
49.041894
 20
186.990158
 40
0.5
100
AcDbArc
 50
270.0
 51
342.861653
  0
ARC
  5
21F
100
AcDbEntity
  8
M0
 62
     6
100
AcDbCircle
 10
49.041894
 20
194.590118
 40
0.5
100
AcDbArc
 50
17.134787
 51
90.0
  0
CIRCLE
  5
220
100
AcDbEntity
  8
M0
 62
     6
100
AcDbCircle
 10
46.560982
 20
200.28984
 40
3.0
  0
LINE
  5
221
100
AcDbEntity
  8
M0
 62
     6
100
AcDbLine
 10
43.602227
 20
204.237182
 11
42.785973
 21
201.589889
  0
LINE
  5
222
100
AcDbEntity
  8
M0
 62
     6
100
AcDbLine
 10
43.680306
 20
196.08934
 11
42.785973
 21
198.989914
  0
LINE
  5
223
100
AcDbEntity
  8
M0
 62
     6
100
AcDbLine
 10
49.519707
 20
204.237198
 11
50.335976
 21
201.589889
  0
LINE
  5
224
100
AcDbEntity
  8
M0
 62
     6
100
AcDbLine
 10
49.441613
 20
196.08934
 11
50.335976
 21
198.989914
  0
LINE
  5
225
100
AcDbEntity
  8
M0
 62
     6
100
AcDbLine
 10
50.335976
 20
198.989914
 11
50.335976
 21
201.589889
  0
LINE
  5
226
100
AcDbEntity
  8
M0
 62
     6
100
AcDbLine
 10
49.041894
 20
204.589889
 11
44.080025
 21
204.589874
  0
LINE
  5
227
100
AcDbEntity
  8
M0
 62
     6
100
AcDbLine
 10
42.785973
 20
201.589889
 11
42.785973
 21
198.989914
  0
LINE
  5
228
100
AcDbEntity
  8
M0
  6
DASHDOT
 62
     6
100
AcDbLine
 10
40.285973
 20
200.28984
 11
52.835976
 21
200.28984
  0
LINE
  5
229
100
AcDbEntity
  8
M0
  6
DASHDOT
 62
     6
100
AcDbLine
 10
46.560982
 20
193.489929
 11
46.560982
 21
212.989181
  0
LINE
  5
22A
100
AcDbEntity
  8
M0
 62
     6
100
AcDbLine
 10
48.151757
 20
198.69902
 11
44.969949
 21
201.880783
  0
LINE
  5
22B
100
AcDbEntity
  8
M0
 62
     6
100
AcDbLine
 10
46.914391
 20
201.704025
 11
45.146722
 21
199.936325
  0
LINE
  5
22C
100
AcDbEntity
  8
M0
 62
     6
100
AcDbLine
 10
47.974999
 20
200.643356
 11
46.207375
 21
198.875778
  0
ARC
  5
22D
100
AcDbEntity
  8
M0
 62
     6
100
AcDbCircle
 10
44.080025
 20
204.089874
 40
0.5
100
AcDbArc
 50
90.0
 51
162.865663
  0
ARC
  5
22E
100
AcDbEntity
  8
M0
 62
     6
100
AcDbCircle
 10
49.041894
 20
204.089874
 40
0.5
100
AcDbArc
 50
17.134787
 51
90.0
  0
CIRCLE
  5
22F
100
AcDbEntity
  8
M0
 62
     6
100
AcDbCircle
 10
36.560982
 20
200.289322
 40
3.0
  0
LINE
  5
230
100
AcDbEntity
  8
M0
 62
     6
100
AcDbLine
 10
33.602227
 20
204.236663
 11
32.785973
 21
201.58937
  0
LINE
  5
231
100
AcDbEntity
  8
M0
 62
     6
100
AcDbLine
 10
33.680138
 20
196.08934
 11
32.785973
 21
198.989395
  0
LINE
  5
232
100
AcDbEntity
  8
M0
 62
     6
100
AcDbLine
 10
39.519707
 20
204.236679
 11
40.335976
 21
201.58937
  0
LINE
  5
233
100
AcDbEntity
  8
M0
 62
     6
100
AcDbLine
 10
39.441781
 20
196.08934
 11
40.335976
 21
198.989395
  0
LINE
  5
234
100
AcDbEntity
  8
M0
 62
     6
100
AcDbLine
 10
40.335976
 20
198.989395
 11
40.335976
 21
201.58937
  0
LINE
  5
235
100
AcDbEntity
  8
M0
 62
     6
100
AcDbLine
 10
39.041894
 20
204.58937
 11
34.080025
 21
204.589355
  0
LINE
  5
236
100
AcDbEntity
  8
M0
 62
     6
100
AcDbLine
 10
32.785973
 20
201.58937
 11
32.785973
 21
198.989395
  0
LINE
  5
237
100
AcDbEntity
  8
M0
  6
DASHDOT
 62
     6
100
AcDbLine
 10
30.285973
 20
200.289322
 11
42.835976
 21
200.289322
  0
LINE
  5
238
100
AcDbEntity
  8
M0
  6
DASHDOT
 62
     6
100
AcDbLine
 10
36.560982
 20
193.48941
 11
36.560982
 21
207.08937
  0
LINE
  5
239
100
AcDbEntity
  8
M0
 62
     6
100
AcDbLine
 10
38.151757
 20
198.698501
 11
34.969949
 21
201.880264
  0
LINE
  5
23A
100
AcDbEntity
  8
M0
 62
     6
100
AcDbLine
 10
36.914391
 20
201.703506
 11
35.146722
 21
199.935806
  0
LINE
  5
23B
100
AcDbEntity
  8
M0
 62
     6
100
AcDbLine
 10
37.974999
 20
200.642837
 11
36.207375
 21
198.875259
  0
ARC
  5
23C
100
AcDbEntity
  8
M0
 62
     6
100
AcDbCircle
 10
34.080025
 20
204.089355
 40
0.5
100
AcDbArc
 50
90.0
 51
162.865663
  0
ARC
  5
23D
100
AcDbEntity
  8
M0
 62
     6
100
AcDbCircle
 10
39.041894
 20
204.089355
 40
0.5
100
AcDbArc
 50
17.134787
 51
90.0
  0
CIRCLE
  5
23E
100
AcDbEntity
  8
M0
 62
     6
100
AcDbCircle
 10
36.560982
 20
190.789322
 40
3.0
  0
LINE
  5
23F
100
AcDbEntity
  8
M0
 62
     6
100
AcDbLine
 10
33.602227
 20
194.736663
 11
32.785973
 21
192.08937
  0
LINE
  5
240
100
AcDbEntity
  8
M0
 62
     6
100
AcDbLine
 10
33.602227
 20
186.842071
 11
32.785973
 21
189.489395
  0
LINE
  5
241
100
AcDbEntity
  8
M0
 62
     6
100
AcDbLine
 10
39.519707
 20
194.736679
 11
40.335976
 21
192.08937
  0
LINE
  5
242
100
AcDbEntity
  8
M0
 62
     6
100
AcDbLine
 10
39.519707
 20
186.842056
 11
40.335976
 21
189.489395
  0
LINE
  5
243
100
AcDbEntity
  8
M0
 62
     6
100
AcDbLine
 10
34.080025
 20
186.489395
 11
39.041894
 21
186.489395
  0
LINE
  5
244
100
AcDbEntity
  8
M0
 62
     6
100
AcDbLine
 10
40.335976
 20
189.489395
 11
40.335976
 21
192.08937
  0
LINE
  5
245
100
AcDbEntity
  8
M0
 62
     6
100
AcDbLine
 10
39.041894
 20
195.08937
 11
34.080025
 21
195.089355
  0
LINE
  5
246
100
AcDbEntity
  8
M0
 62
     6
100
AcDbLine
 10
32.785973
 20
192.08937
 11
32.785973
 21
189.489395
  0
LINE
  5
247
100
AcDbEntity
  8
M0
  6
DASHDOT
 62
     6
100
AcDbLine
 10
30.285973
 20
190.789322
 11
42.835976
 21
190.789322
  0
LINE
  5
248
100
AcDbEntity
  8
M0
  6
DASHDOT
 62
     6
100
AcDbLine
 10
36.560982
 20
183.98941
 11
36.560982
 21
197.58937
  0
LINE
  5
249
100
AcDbEntity
  8
M0
 62
     6
100
AcDbLine
 10
38.151757
 20
189.198501
 11
34.969949
 21
192.380264
  0
LINE
  5
24A
100
AcDbEntity
  8
M0
 62
     6
100
AcDbLine
 10
36.914391
 20
192.203506
 11
35.146722
 21
190.435806
  0
LINE
  5
24B
100
AcDbEntity
  8
M0
 62
     6
100
AcDbLine
 10
37.974999
 20
191.142837
 11
36.207375
 21
189.375259
  0
ARC
  5
24C
100
AcDbEntity
  8
M0
 62
     6
100
AcDbCircle
 10
34.080025
 20
194.589355
 40
0.5
100
AcDbArc
 50
90.0
 51
162.865663
  0
ARC
  5
24D
100
AcDbEntity
  8
M0
 62
     6
100
AcDbCircle
 10
34.080025
 20
186.989395
 40
0.5
100
AcDbArc
 50
197.137551
 51
270.0
  0
ARC
  5
24E
100
AcDbEntity
  8
M0
 62
     6
100
AcDbCircle
 10
39.041894
 20
186.989395
 40
0.5
100
AcDbArc
 50
270.0
 51
342.861653
  0
ARC
  5
24F
100
AcDbEntity
  8
M0
 62
     6
100
AcDbCircle
 10
39.041894
 20
194.589355
 40
0.5
100
AcDbArc
 50
17.134787
 51
90.0
  0
CIRCLE
  5
250
100
AcDbEntity
  8
M0
 62
     6
100
AcDbCircle
 10
56.560998
 20
220.88858
 40
3.0
  0
LINE
  5
251
100
AcDbEntity
  8
M0
 62
     6
100
AcDbLine
 10
53.68023
 20
225.088531
 11
52.785989
 21
222.188629
  0
LINE
  5
252
100
AcDbEntity
  8
M0
 62
     6
100
AcDbLine
 10
53.602242
 20
216.94133
 11
52.785989
 21
219.588653
  0
LINE
  5
253
100
AcDbEntity
  8
M0
 62
     6
100
AcDbLine
 10
59.44172
 20
225.088531
 11
60.335992
 21
222.188629
  0
LINE
  5
254
100
AcDbEntity
  8
M0
 62
     6
100
AcDbLine
 10
59.519723
 20
216.941314
 11
60.335992
 21
219.588653
  0
LINE
  5
255
100
AcDbEntity
  8
M0
 62
     6
100
AcDbLine
 10
54.080041
 20
216.588653
 11
59.041909
 21
216.588653
  0
LINE
  5
256
100
AcDbEntity
  8
M0
 62
     6
100
AcDbLine
 10
60.335992
 20
219.588653
 11
60.335992
 21
222.188629
  0
LINE
  5
257
100
AcDbEntity
  8
M0
 62
     6
100
AcDbLine
 10
52.785989
 20
222.188629
 11
52.785989
 21
219.588653
  0
LINE
  5
258
100
AcDbEntity
  8
M0
  6
DASHDOT
 62
     6
100
AcDbLine
 10
50.285989
 20
220.88858
 11
62.835992
 21
220.88858
  0
LINE
  5
259
100
AcDbEntity
  8
M0
  6
DASHDOT
 62
     6
100
AcDbLine
 10
56.560998
 20
214.088668
 11
56.560998
 21
227.688629
  0
LINE
  5
25A
100
AcDbEntity
  8
M0
 62
     6
100
AcDbLine
 10
58.151772
 20
219.29776
 11
54.969964
 21
222.479522
  0
LINE
  5
25B
100
AcDbEntity
  8
M0
 62
     6
100
AcDbLine
 10
56.914407
 20
222.302765
 11
55.146737
 21
220.535064
  0
LINE
  5
25C
100
AcDbEntity
  8
M0
 62
     6
100
AcDbLine
 10
57.975014
 20
221.242096
 11
56.207391
 21
219.474517
  0
ARC
  5
25D
100
AcDbEntity
  8
M0
 62
     6
100
AcDbCircle
 10
54.080041
 20
217.088653
 40
0.5
100
AcDbArc
 50
197.137551
 51
270.0
  0
ARC
  5
25E
100
AcDbEntity
  8
M0
 62
     6
100
AcDbCircle
 10
59.041909
 20
217.088653
 40
0.5
100
AcDbArc
 50
270.0
 51
342.861653
  0
CIRCLE
  5
25F
100
AcDbEntity
  8
M0
 62
     6
100
AcDbCircle
 10
46.561028
 20
220.888336
 40
3.0
  0
LINE
  5
260
100
AcDbEntity
  8
M0
 62
     6
100
AcDbLine
 10
43.680337
 20
225.088531
 11
42.786019
 21
222.188385
  0
LINE
  5
261
100
AcDbEntity
  8
M0
 62
     6
100
AcDbLine
 10
43.602273
 20
216.941085
 11
42.786019
 21
219.588409
  0
LINE
  5
262
100
AcDbEntity
  8
M0
 62
     6
100
AcDbLine
 10
49.441674
 20
225.088531
 11
50.336022
 21
222.188385
  0
LINE
  5
263
100
AcDbEntity
  8
M0
 62
     6
100
AcDbLine
 10
49.519753
 20
216.94107
 11
50.336022
 21
219.588409
  0
LINE
  5
264
100
AcDbEntity
  8
M0
 62
     6
100
AcDbLine
 10
44.080071
 20
216.588409
 11
49.04194
 21
216.588409
  0
LINE
  5
265
100
AcDbEntity
  8
M0
 62
     6
100
AcDbLine
 10
50.336022
 20
219.588409
 11
50.336022
 21
222.188385
  0
LINE
  5
266
100
AcDbEntity
  8
M0
 62
     6
100
AcDbLine
 10
42.786019
 20
222.188385
 11
42.786019
 21
219.588409
  0
LINE
  5
267
100
AcDbEntity
  8
M0
  6
DASHDOT
 62
     6
100
AcDbLine
 10
40.286019
 20
220.888336
 11
52.836022
 21
220.888336
  0
LINE
  5
268
100
AcDbEntity
  8
M0
  6
DASHDOT
 62
     6
100
AcDbLine
 10
46.561028
 20
212.989181
 11
46.561028
 21
227.688385
  0
LINE
  5
269
100
AcDbEntity
  8
M0
 62
     6
100
AcDbLine
 10
48.151803
 20
219.297516
 11
44.969994
 21
222.479278
  0
LINE
  5
26A
100
AcDbEntity
  8
M0
 62
     6
100
AcDbLine
 10
46.914437
 20
222.30252
 11
45.146767
 21
220.53482
  0
LINE
  5
26B
100
AcDbEntity
  8
M0
 62
     6
100
AcDbLine
 10
47.975045
 20
221.241851
 11
46.207421
 21
219.474273
  0
ARC
  5
26C
100
AcDbEntity
  8
M0
 62
     6
100
AcDbCircle
 10
44.080071
 20
217.088409
 40
0.5
100
AcDbArc
 50
197.137551
 51
270.0
  0
ARC
  5
26D
100
AcDbEntity
  8
M0
 62
     6
100
AcDbCircle
 10
49.04194
 20
217.088409
 40
0.5
100
AcDbArc
 50
270.0
 51
342.861653
  0
LINE
  5
26E
100
AcDbEntity
  8
M0
 62
     6
100
AcDbLine
 10
50.061028
 20
213.689163
 11
50.061028
 21
208.089172
  0
LINE
  5
26F
100
AcDbEntity
  8
M0
 62
     6
100
AcDbLine
 10
43.061028
 20
213.689163
 11
43.061028
 21
208.089172
  0
LINE
  5
270
100
AcDbEntity
  8
M0
 62
     6
100
AcDbLine
 10
45.561028
 20
213.689163
 11
45.561028
 21
213.489181
  0
LINE
  5
271
100
AcDbEntity
  8
M0
 62
     6
100
AcDbLine
 10
47.561028
 20
213.689163
 11
47.561028
 21
213.489181
  0
LINE
  5
272
100
AcDbEntity
  8
M0
 62
     6
100
AcDbLine
 10
45.561028
 20
208.289184
 11
45.561028
 21
208.089172
  0
LINE
  5
273
100
AcDbEntity
  8
M0
 62
     6
100
AcDbLine
 10
47.561028
 20
208.289184
 11
47.561028
 21
208.089172
  0
ARC
  5
274
100
AcDbEntity
  8
M0
 62
     6
100
AcDbCircle
 10
46.061028
 20
213.489181
 40
0.5
100
AcDbArc
 50
179.999891
 51
270.0
  0
ARC
  5
275
100
AcDbEntity
  8
M0
 62
     6
100
AcDbCircle
 10
45.061028
 20
213.689163
 40
0.5
100
AcDbArc
 50
0.0
 51
90.0
  0
ARC
  5
276
100
AcDbEntity
  8
M0
 62
     6
100
AcDbCircle
 10
48.061028
 20
208.089172
 40
0.5
100
AcDbArc
 50
179.999891
 51
270.0
  0
ARC
  5
277
100
AcDbEntity
  8
M0
 62
     6
100
AcDbCircle
 10
47.061028
 20
208.289184
 40
0.5
100
AcDbArc
 50
0.0
 51
90.0
  0
ARC
  5
278
100
AcDbEntity
  8
M0
 62
     6
100
AcDbCircle
 10
49.561028
 20
213.689163
 40
0.5
100
AcDbArc
 50
0.0
 51
90.0
  0
ARC
  5
279
100
AcDbEntity
  8
M0
 62
     6
100
AcDbCircle
 10
43.561028
 20
208.089172
 40
0.5
100
AcDbArc
 50
179.999891
 51
270.0
  0
CIRCLE
  5
27A
100
AcDbEntity
  8
M0
 62
     6
100
AcDbCircle
 10
36.561028
 20
220.88858
 40
3.0
  0
LINE
  5
27B
100
AcDbEntity
  8
M0
 62
     6
100
AcDbLine
 10
33.68026
 20
225.088531
 11
32.786019
 21
222.188629
  0
LINE
  5
27C
100
AcDbEntity
  8
M0
 62
     6
100
AcDbLine
 10
33.602273
 20
216.94133
 11
32.786019
 21
219.588653
  0
LINE
  5
27D
100
AcDbEntity
  8
M0
 62
     6
100
AcDbLine
 10
39.44175
 20
225.088531
 11
40.336022
 21
222.188629
  0
LINE
  5
27E
100
AcDbEntity
  8
M0
 62
     6
100
AcDbLine
 10
39.519753
 20
216.941314
 11
40.336022
 21
219.588653
  0
LINE
  5
27F
100
AcDbEntity
  8
M0
 62
     6
100
AcDbLine
 10
34.080071
 20
216.588653
 11
39.04194
 21
216.588653
  0
LINE
  5
280
100
AcDbEntity
  8
M0
 62
     6
100
AcDbLine
 10
40.336022
 20
219.588653
 11
40.336022
 21
222.188629
  0
LINE
  5
281
100
AcDbEntity
  8
M0
 62
     6
100
AcDbLine
 10
32.786019
 20
222.188629
 11
32.786019
 21
219.588653
  0
LINE
  5
282
100
AcDbEntity
  8
M0
  6
DASHDOT
 62
     6
100
AcDbLine
 10
30.286019
 20
220.88858
 11
42.836022
 21
220.88858
  0
LINE
  5
283
100
AcDbEntity
  8
M0
  6
DASHDOT
 62
     6
100
AcDbLine
 10
36.561028
 20
214.088668
 11
36.561028
 21
227.688629
  0
LINE
  5
284
100
AcDbEntity
  8
M0
 62
     6
100
AcDbLine
 10
38.151803
 20
219.29776
 11
34.969994
 21
222.479522
  0
LINE
  5
285
100
AcDbEntity
  8
M0
 62
     6
100
AcDbLine
 10
36.914437
 20
222.302765
 11
35.146767
 21
220.535064
  0
LINE
  5
286
100
AcDbEntity
  8
M0
 62
     6
100
AcDbLine
 10
37.975045
 20
221.242096
 11
36.207421
 21
219.474517
  0
ARC
  5
287
100
AcDbEntity
  8
M0
 62
     6
100
AcDbCircle
 10
34.080071
 20
217.088653
 40
0.5
100
AcDbArc
 50
197.137551
 51
270.0
  0
ARC
  5
288
100
AcDbEntity
  8
M0
 62
     6
100
AcDbCircle
 10
39.04194
 20
217.088653
 40
0.5
100
AcDbArc
 50
270.0
 51
342.861653
  0
CIRCLE
  5
289
100
AcDbEntity
  8
M0
 62
     6
100
AcDbCircle
 10
36.561028
 20
230.38858
 40
3.0
  0
LINE
  5
28A
100
AcDbEntity
  8
M0
 62
     6
100
AcDbLine
 10
33.602273
 20
234.335922
 11
32.786019
 21
231.688629
  0
LINE
  5
28B
100
AcDbEntity
  8
M0
 62
     6
100
AcDbLine
 10
33.602273
 20
226.44133
 11
32.786019
 21
229.088653
  0
LINE
  5
28C
100
AcDbEntity
  8
M0
 62
     6
100
AcDbLine
 10
39.519753
 20
234.335937
 11
40.336022
 21
231.688629
  0
LINE
  5
28D
100
AcDbEntity
  8
M0
 62
     6
100
AcDbLine
 10
39.519753
 20
226.441314
 11
40.336022
 21
229.088653
  0
LINE
  5
28E
100
AcDbEntity
  8
M0
 62
     6
100
AcDbLine
 10
34.080071
 20
226.088653
 11
39.04194
 21
226.088653
  0
LINE
  5
28F
100
AcDbEntity
  8
M0
 62
     6
100
AcDbLine
 10
40.336022
 20
229.088653
 11
40.336022
 21
231.688629
  0
LINE
  5
290
100
AcDbEntity
  8
M0
 62
     6
100
AcDbLine
 10
39.04194
 20
234.688629
 11
34.080071
 21
234.688614
  0
LINE
  5
291
100
AcDbEntity
  8
M0
 62
     6
100
AcDbLine
 10
32.786019
 20
231.688629
 11
32.786019
 21
229.088653
  0
LINE
  5
292
100
AcDbEntity
  8
M0
  6
DASHDOT
 62
     6
100
AcDbLine
 10
30.286019
 20
230.38858
 11
42.836022
 21
230.38858
  0
LINE
  5
293
100
AcDbEntity
  8
M0
  6
DASHDOT
 62
     6
100
AcDbLine
 10
36.561028
 20
223.588668
 11
36.561028
 21
237.188629
  0
LINE
  5
294
100
AcDbEntity
  8
M0
 62
     6
100
AcDbLine
 10
38.151803
 20
228.79776
 11
34.969994
 21
231.979522
  0
LINE
  5
295
100
AcDbEntity
  8
M0
 62
     6
100
AcDbLine
 10
36.914437
 20
231.802765
 11
35.146767
 21
230.035064
  0
LINE
  5
296
100
AcDbEntity
  8
M0
 62
     6
100
AcDbLine
 10
37.975045
 20
230.742096
 11
36.207421
 21
228.974517
  0
ARC
  5
297
100
AcDbEntity
  8
M0
 62
     6
100
AcDbCircle
 10
34.080071
 20
234.188614
 40
0.5
100
AcDbArc
 50
90.0
 51
162.865663
  0
ARC
  5
298
100
AcDbEntity
  8
M0
 62
     6
100
AcDbCircle
 10
34.080071
 20
226.588653
 40
0.5
100
AcDbArc
 50
197.137551
 51
270.0
  0
ARC
  5
299
100
AcDbEntity
  8
M0
 62
     6
100
AcDbCircle
 10
39.04194
 20
226.588653
 40
0.5
100
AcDbArc
 50
270.0
 51
342.861653
  0
ARC
  5
29A
100
AcDbEntity
  8
M0
 62
     6
100
AcDbCircle
 10
39.04194
 20
234.188614
 40
0.5
100
AcDbArc
 50
17.134787
 51
90.0
  0
CIRCLE
  5
29B
100
AcDbEntity
  8
M0
 62
     6
100
AcDbCircle
 10
46.561028
 20
230.388092
 40
3.0
  0
LINE
  5
29C
100
AcDbEntity
  8
M0
 62
     6
100
AcDbLine
 10
43.602273
 20
234.335434
 11
42.786019
 21
231.688141
  0
LINE
  5
29D
100
AcDbEntity
  8
M0
 62
     6
100
AcDbLine
 10
43.602273
 20
226.440841
 11
42.786019
 21
229.088165
  0
LINE
  5
29E
100
AcDbEntity
  8
M0
 62
     6
100
AcDbLine
 10
49.519753
 20
234.335449
 11
50.336022
 21
231.688141
  0
LINE
  5
29F
100
AcDbEntity
  8
M0
 62
     6
100
AcDbLine
 10
49.519753
 20
226.440826
 11
50.336022
 21
229.088165
  0
LINE
  5
2A0
100
AcDbEntity
  8
M0
 62
     6
100
AcDbLine
 10
44.080071
 20
226.088165
 11
49.04194
 21
226.088165
  0
LINE
  5
2A1
100
AcDbEntity
  8
M0
 62
     6
100
AcDbLine
 10
50.336022
 20
229.088165
 11
50.336022
 21
231.688141
  0
LINE
  5
2A2
100
AcDbEntity
  8
M0
 62
     6
100
AcDbLine
 10
49.04194
 20
234.688141
 11
44.080071
 21
234.688125
  0
LINE
  5
2A3
100
AcDbEntity
  8
M0
 62
     6
100
AcDbLine
 10
42.786019
 20
231.688141
 11
42.786019
 21
229.088165
  0
LINE
  5
2A4
100
AcDbEntity
  8
M0
  6
DASHDOT
 62
     6
100
AcDbLine
 10
40.286019
 20
230.388092
 11
52.836022
 21
230.388092
  0
LINE
  5
2A5
100
AcDbEntity
  8
M0
  6
DASHDOT
 62
     6
100
AcDbLine
 10
46.561028
 20
223.58818
 11
46.561028
 21
237.188141
  0
LINE
  5
2A6
100
AcDbEntity
  8
M0
 62
     6
100
AcDbLine
 10
48.151803
 20
228.797271
 11
44.969994
 21
231.979034
  0
LINE
  5
2A7
100
AcDbEntity
  8
M0
 62
     6
100
AcDbLine
 10
46.914437
 20
231.802276
 11
45.146767
 21
230.034576
  0
LINE
  5
2A8
100
AcDbEntity
  8
M0
 62
     6
100
AcDbLine
 10
47.975045
 20
230.741607
 11
46.207421
 21
228.974029
  0
ARC
  5
2A9
100
AcDbEntity
  8
M0
 62
     6
100
AcDbCircle
 10
44.080071
 20
234.188125
 40
0.5
100
AcDbArc
 50
90.0
 51
162.865663
  0
ARC
  5
2AA
100
AcDbEntity
  8
M0
 62
     6
100
AcDbCircle
 10
44.080071
 20
226.588165
 40
0.5
100
AcDbArc
 50
197.137551
 51
270.0
  0
ARC
  5
2AB
100
AcDbEntity
  8
M0
 62
     6
100
AcDbCircle
 10
49.04194
 20
226.588165
 40
0.5
100
AcDbArc
 50
270.0
 51
342.861653
  0
ARC
  5
2AC
100
AcDbEntity
  8
M0
 62
     6
100
AcDbCircle
 10
49.04194
 20
234.188125
 40
0.5
100
AcDbArc
 50
17.134787
 51
90.0
  0
CIRCLE
  5
2AD
100
AcDbEntity
  8
M0
 62
     6
100
AcDbCircle
 10
56.560998
 20
230.38858
 40
3.0
  0
LINE
  5
2AE
100
AcDbEntity
  8
M0
 62
     6
100
AcDbLine
 10
53.602242
 20
234.335922
 11
52.785989
 21
231.688629
  0
LINE
  5
2AF
100
AcDbEntity
  8
M0
 62
     6
100
AcDbLine
 10
53.602242
 20
226.44133
 11
52.785989
 21
229.088653
  0
LINE
  5
2B0
100
AcDbEntity
  8
M0
 62
     6
100
AcDbLine
 10
59.519723
 20
234.335937
 11
60.335992
 21
231.688629
  0
LINE
  5
2B1
100
AcDbEntity
  8
M0
 62
     6
100
AcDbLine
 10
59.519723
 20
226.441314
 11
60.335992
 21
229.088653
  0
LINE
  5
2B2
100
AcDbEntity
  8
M0
 62
     6
100
AcDbLine
 10
54.080041
 20
226.088653
 11
59.041909
 21
226.088653
  0
LINE
  5
2B3
100
AcDbEntity
  8
M0
 62
     6
100
AcDbLine
 10
60.335992
 20
229.088653
 11
60.335992
 21
231.688629
  0
LINE
  5
2B4
100
AcDbEntity
  8
M0
 62
     6
100
AcDbLine
 10
59.041909
 20
234.688629
 11
54.080041
 21
234.688614
  0
LINE
  5
2B5
100
AcDbEntity
  8
M0
 62
     6
100
AcDbLine
 10
52.785989
 20
231.688629
 11
52.785989
 21
229.088653
  0
LINE
  5
2B6
100
AcDbEntity
  8
M0
  6
DASHDOT
 62
     6
100
AcDbLine
 10
50.285989
 20
230.38858
 11
62.835992
 21
230.38858
  0
LINE
  5
2B7
100
AcDbEntity
  8
M0
  6
DASHDOT
 62
     6
100
AcDbLine
 10
56.560998
 20
223.588668
 11
56.560998
 21
237.188629
  0
LINE
  5
2B8
100
AcDbEntity
  8
M0
 62
     6
100
AcDbLine
 10
58.151772
 20
228.79776
 11
54.969964
 21
231.979522
  0
LINE
  5
2B9
100
AcDbEntity
  8
M0
 62
     6
100
AcDbLine
 10
56.914407
 20
231.802765
 11
55.146737
 21
230.035064
  0
LINE
  5
2BA
100
AcDbEntity
  8
M0
 62
     6
100
AcDbLine
 10
57.975014
 20
230.742096
 11
56.207391
 21
228.974517
  0
ARC
  5
2BB
100
AcDbEntity
  8
M0
 62
     6
100
AcDbCircle
 10
54.080041
 20
234.188614
 40
0.5
100
AcDbArc
 50
90.0
 51
162.865663
  0
ARC
  5
2BC
100
AcDbEntity
  8
M0
 62
     6
100
AcDbCircle
 10
54.080041
 20
226.588653
 40
0.5
100
AcDbArc
 50
197.137551
 51
270.0
  0
ARC
  5
2BD
100
AcDbEntity
  8
M0
 62
     6
100
AcDbCircle
 10
59.041909
 20
226.588653
 40
0.5
100
AcDbArc
 50
270.0
 51
342.861653
  0
ARC
  5
2BE
100
AcDbEntity
  8
M0
 62
     6
100
AcDbCircle
 10
59.041909
 20
234.188614
 40
0.5
100
AcDbArc
 50
17.134787
 51
90.0
  0
ARC
  5
2BF
100
AcDbEntity
  8
M0
 62
     6
100
AcDbCircle
 10
34.560982
 20
183.289184
 40
3.0
100
AcDbArc
 50
111.031162
 51
130.541964
  0
LINE
  5
2C0
100
AcDbEntity
  8
M0
 62
     6
100
AcDbLine
 10
31.602227
 20
179.341934
 11
31.060982
 21
181.09732
  0
LINE
  5
2C1
100
AcDbEntity
  8
M0
 62
     6
100
AcDbLine
 10
37.873421
 20
186.08934
 11
38.335976
 21
184.589233
  0
LINE
  5
2C2
100
AcDbEntity
  8
M0
 62
     6
100
AcDbLine
 10
37.519707
 20
179.341919
 11
38.335976
 21
181.989257
  0
LINE
  5
2C3
100
AcDbEntity
  8
M0
 62
     6
100
AcDbLine
 10
32.080025
 20
178.989257
 11
37.041894
 21
178.989257
  0
LINE
  5
2C4
100
AcDbEntity
  8
M0
 62
     6
100
AcDbLine
 10
38.335976
 20
181.989257
 11
38.335976
 21
184.589233
  0
LINE
  5
2C5
100
AcDbEntity
  8
M0
  6
DASHDOT
 62
     6
100
AcDbLine
 10
28.285973
 20
183.289184
 11
40.835976
 21
183.289184
  0
LINE
  5
2C6
100
AcDbEntity
  8
M0
  6
DASHDOT
 62
     6
100
AcDbLine
 10
34.560982
 20
176.489273
 11
34.560982
 21
190.089233
  0
LINE
  5
2C7
100
AcDbEntity
  8
M0
 62
     6
100
AcDbLine
 10
36.151757
 20
181.698364
 11
32.969949
 21
184.880127
  0
LINE
  5
2C8
100
AcDbEntity
  8
M0
 62
     6
100
AcDbLine
 10
34.914391
 20
184.703369
 11
33.146722
 21
182.935669
  0
LINE
  5
2C9
100
AcDbEntity
  8
M0
 62
     6
100
AcDbLine
 10
35.974999
 20
183.6427
 11
34.207375
 21
181.875122
  0
ARC
  5
2CA
100
AcDbEntity
  8
M0
 62
     6
100
AcDbCircle
 10
32.080025
 20
179.489257
 40
0.5
100
AcDbArc
 50
197.137551
 51
270.0
  0
ARC
  5
2CB
100
AcDbEntity
  8
M0
 62
     6
100
AcDbCircle
 10
37.041894
 20
179.489257
 40
0.5
100
AcDbArc
 50
270.0
 51
342.861653
  0
ARC
  5
2CC
100
AcDbEntity
  8
M0
 62
     6
100
AcDbCircle
 10
34.560982
 20
183.289184
 40
3.0
100
AcDbArc
 50
143.126401
 51
428.96901
  0
ARC
  5
2CD
100
AcDbEntity
  8
M0
 62
     6
100
AcDbCircle
 10
58.560998
 20
237.889068
 40
3.0
100
AcDbArc
 50
323.122915
 51
608.975975
  0
LINE
  5
2CE
100
AcDbEntity
  8
M0
 62
     6
100
AcDbLine
 10
55.602242
 20
241.83641
 11
54.785989
 21
239.189117
  0
LINE
  5
2CF
100
AcDbEntity
  8
M0
 62
     6
100
AcDbLine
 10
55.248574
 20
235.088531
 11
54.785989
 21
236.589019
  0
LINE
  5
2D0
100
AcDbEntity
  8
M0
 62
     6
100
AcDbLine
 10
61.519723
 20
241.836334
 11
62.060998
 21
240.080719
  0
LINE
  5
2D1
100
AcDbEntity
  8
M0
 62
     6
100
AcDbLine
 10
61.041909
 20
242.189117
 11
56.080041
 21
242.189102
  0
LINE
  5
2D2
100
AcDbEntity
  8
M0
 62
     6
100
AcDbLine
 10
54.785989
 20
239.189117
 11
54.785989
 21
236.589142
  0
LINE
  5
2D3
100
AcDbEntity
  8
M0
  6
DASHDOT
 62
     6
100
AcDbLine
 10
52.285989
 20
237.889068
 11
64.835992
 21
237.889068
  0
LINE
  5
2D4
100
AcDbEntity
  8
M0
  6
DASHDOT
 62
     6
100
AcDbLine
 10
58.560998
 20
231.089157
 11
58.560998
 21
244.689117
  0
LINE
  5
2D5
100
AcDbEntity
  8
M0
 62
     6
100
AcDbLine
 10
60.151772
 20
236.298248
 11
56.969964
 21
239.480011
  0
LINE
  5
2D6
100
AcDbEntity
  8
M0
 62
     6
100
AcDbLine
 10
58.914407
 20
239.303253
 11
57.146737
 21
237.535553
  0
LINE
  5
2D7
100
AcDbEntity
  8
M0
 62
     6
100
AcDbLine
 10
59.975014
 20
238.242584
 11
58.207391
 21
236.475006
  0
ARC
  5
2D8
100
AcDbEntity
  8
M0
 62
     6
100
AcDbCircle
 10
56.080041
 20
241.689102
 40
0.5
100
AcDbArc
 50
90.0
 51
162.865663
  0
ARC
  5
2D9
100
AcDbEntity
  8
M0
 62
     6
100
AcDbCircle
 10
61.041909
 20
241.689102
 40
0.5
100
AcDbArc
 50
17.134787
 51
90.0
  0
ARC
  5
2DA
100
AcDbEntity
  8
M0
 62
     6
100
AcDbCircle
 10
58.560998
 20
237.889068
 40
3.0
100
AcDbArc
 50
291.023707
 51
310.538709
  0
LINE
  5
2DB
100
AcDbEntity
  8
M0
  6
DIVIDE
100
AcDbLine
 10
28.561028
 20
73.266596
 11
64.561028
 21
73.266596
  0
LINE
  5
2DC
100
AcDbEntity
  8
M0
  6
DIVIDE
100
AcDbLine
 10
64.561028
 20
73.266596
 11
64.561028
 21
138.266596
  0
LINE
  5
2DD
100
AcDbEntity
  8
M0
  6
DIVIDE
100
AcDbLine
 10
64.561028
 20
138.266596
 11
28.561028
 21
138.266596
  0
LINE
  5
2DE
100
AcDbEntity
  8
M0
  6
DIVIDE
100
AcDbLine
 10
28.561028
 20
138.266596
 11
28.561028
 21
73.266596
  0
LINE
  5
2DF
100
AcDbEntity
  8
M0
  6
DASHDOT
100
AcDbLine
 10
24.036894
 20
105.766596
 11
69.295516
 21
105.766596
  0
LINE
  5
2E0
100
AcDbEntity
  8
M0
  6
DASHDOT
100
AcDbLine
 10
46.561028
 20
68.707825
 11
46.561028
 21
143.717097
  0
CIRCLE
  5
2E1
100
AcDbEntity
  8
M0
100
AcDbCircle
 10
33.061517
 20
132.766596
 40
1.5
  0
CIRCLE
  5
2E2
100
AcDbEntity
  8
M0
100
AcDbCircle
 10
33.061517
 20
132.766596
 40
2.0
  0
LINE
  5
2E3
100
AcDbEntity
  8
M0
  6
DASHDOT
100
AcDbLine
 10
37.357839
 20
132.766581
 11
29.769725
 21
132.766581
  0
LINE
  5
2E4
100
AcDbEntity
  8
M0
  6
DASHDOT
100
AcDbLine
 10
33.061517
 20
129.1719
 11
33.061517
 21
136.836893
  0
CIRCLE
  5
2E5
100
AcDbEntity
  8
M0
100
AcDbCircle
 10
60.061028
 20
78.766627
 40
1.5
  0
CIRCLE
  5
2E6
100
AcDbEntity
  8
M0
100
AcDbCircle
 10
60.061028
 20
78.766627
 40
2.0
  0
LINE
  5
2E7
100
AcDbEntity
  8
M0
  6
DASHDOT
100
AcDbLine
 10
55.712945
 20
78.766627
 11
63.762398
 21
78.766627
  0
LINE
  5
2E8
100
AcDbEntity
  8
M0
  6
DASHDOT
100
AcDbLine
 10
60.061028
 20
83.848154
 11
60.061028
 21
74.414319
  0
LINE
  5
2E9
100
AcDbEntity
  8
M1
 62
     2
100
AcDbLine
 10
11.111111
 20
11.111111
 11
11.111111
 21
316.666675
  0
LINE
  5
2EA
100
AcDbEntity
  8
M1
 62
     2
100
AcDbLine
 10
11.111111
 20
316.666675
 11
222.222228
 21
316.666675
  0
LINE
  5
2EB
100
AcDbEntity
  8
M1
 62
     2
100
AcDbLine
 10
222.222228
 20
316.666675
 11
222.222228
 21
11.111111
  0
LINE
  5
2EC
100
AcDbEntity
  8
M1
 62
     2
100
AcDbLine
 10
222.222228
 20
11.111111
 11
11.111111
 21
11.111111
  0
LINE
  5
2ED
100
AcDbEntity
  8
M1
 62
     2
100
AcDbLine
 10
222.222228
 20
22.222223
 11
111.111114
 21
22.222223
  0
LINE
  5
2EE
100
AcDbEntity
  8
M1
 62
     2
100
AcDbLine
 10
222.222228
 20
33.333334
 11
111.111114
 21
33.333334
  0
LINE
  5
2EF
100
AcDbEntity
  8
M1
 62
     2
100
AcDbLine
 10
222.222228
 20
44.444446
 11
111.111114
 21
44.444446
  0
LINE
  5
2F0
100
AcDbEntity
  8
M1
 62
     2
100
AcDbLine
 10
111.111114
 20
11.111111
 11
111.111114
 21
44.444446
  0
TEXT
  5
2F1
100
AcDbEntity
  8
M1
 62
     2
100
AcDbText
 10
113.888892
 20
13.888889
 40
5.555556
  1
適　用；
  7
STANDARD
100
AcDbText
  0
TEXT
  5
2F2
100
AcDbEntity
  8
M1
 62
     2
100
AcDbText
 10
113.888892
 20
36.111112
 40
5.555556
  1
登録名：
  7
STANDARD
100
AcDbText
  0
TEXT
  5
2F3
100
AcDbEntity
  8
M1
 62
     2
100
AcDbText
 10
140.555559
 20
36.111112
 40
5.555556
  1
ＤＭＸ６Ｒ００
 41
0.5
  7
STANDARD
100
AcDbText
  0
TEXT
  5
2F4
100
AcDbEntity
  8
M1
 62
     2
100
AcDbText
 10
113.888892
 20
25.000001
 40
5.555556
  1
形　式；
  7
STANDARD
100
AcDbText
  0
TEXT
  5
2F5
100
AcDbEntity
  8
M1
 62
     2
100
AcDbText
 10
140.555559
 20
25.000001
 40
5.555556
  1
Ｘ６，Ｘ６－Ｗ
 41
0.5
  7
STANDARD
100
AcDbText
  0
LINE
  5
2F6
100
AcDbEntity
  8
DN0
100
AcDbLine
 10
36.107926
 20
49.867136
 11
56.396816
 21
49.867136
  0
TEXT
  5
2F7
100
AcDbEntity
  8
DN0
100
AcDbText
 10
36.669037
 20
50.367136
 40
5.0
  1
せん孔図
 41
0.833333
  7
STANDARD
100
AcDbText
  0
ENDSEC
  0
SECTION
  2
OBJECTS
  0
DICTIONARY
  5
C
100
AcDbDictionary
  3
ACAD_GROUP
350
D
  3
ACAD_MLINESTYLE
350
E
  0
DICTIONARY
  5
D
102
{ACAD_REACTORS
330
C
102
}
100
AcDbDictionary
  0
DICTIONARY
  5
E
102
{ACAD_REACTORS
330
C
102
}
100
AcDbDictionary
  3
STANDARD
350
13
  0
MLINESTYLE
  5
13
102
{ACAD_REACTORS
330
E
102
}
100
AcDbMlineStyle
  2
STANDARD
 70
     0
  3

 62
     0
 51
90.0
 52
90.0
 71
     2
 49
0.5
 62
   256
  6
BYLAYER
 49
-0.5
 62
   256
  6
BYLAYER
  0
ENDSEC
  0
EOF
